  0
SECTION
  2
HEADER
  9
$ACADVER
  1
AC1014
  9
$ACADMAINTVER
 70
     9
  9
$DWGCODEPAGE
  3
ANSI_1252
  9
$INSBASE
 10
0.0
 20
0.0
 30
0.0
  9
$EXTMIN
 10
1.000000000000000E+20
 20
1.000000000000000E+20
 30
1.000000000000000E+20
  9
$EXTMAX
 10
-1.000000000000000E+20
 20
-1.000000000000000E+20
 30
-1.000000000000000E+20
  9
$LIMMIN
 10
0.0
 20
0.0
  9
$LIMMAX
 10
12.0
 20
9.0
  9
$ORTHOMODE
 70
     0
  9
$REGENMODE
 70
     1
  9
$FILLMODE
 70
     1
  9
$QTEXTMODE
 70
     0
  9
$MIRRTEXT
 70
     1
  9
$DRAGMODE
 70
     2
  9
$LTSCALE
 40
1.0
  9
$OSMODE
 70
    37
  9
$ATTMODE
 70
     1
  9
$TEXTSIZE
 40
0.2
  9
$TRACEWID
 40
0.05
  9
$TEXTSTYLE
  7
STANDARD
  9
$CLAYER
  8
0
  9
$CELTYPE
  6
BYLAYER
  9
$CECOLOR
 62
   256
  9
$CELTSCALE
 40
1.0
  9
$DELOBJ
 70
     1
  9
$DISPSILH
 70
     0
  9
$DIMSCALE
 40
1.0
  9
$DIMASZ
 40
0.18
  9
$DIMEXO
 40
0.0625
  9
$DIMDLI
 40
0.38
  9
$DIMRND
 40
0.0
  9
$DIMDLE
 40
0.0
  9
$DIMEXE
 40
0.18
  9
$DIMTP
 40
0.0
  9
$DIMTM
 40
0.0
  9
$DIMTXT
 40
0.18
  9
$DIMCEN
 40
0.09
  9
$DIMTSZ
 40
0.0
  9
$DIMTOL
 70
     0
  9
$DIMLIM
 70
     0
  9
$DIMTIH
 70
     1
  9
$DIMTOH
 70
     1
  9
$DIMSE1
 70
     0
  9
$DIMSE2
 70
     0
  9
$DIMTAD
 70
     0
  9
$DIMZIN
 70
     0
  9
$DIMBLK
  1

  9
$DIMASO
 70
     1
  9
$DIMSHO
 70
     1
  9
$DIMPOST
  1

  9
$DIMAPOST
  1

  9
$DIMALT
 70
     0
  9
$DIMALTD
 70
     2
  9
$DIMALTF
 40
25.4
  9
$DIMLFAC
 40
1.0
  9
$DIMTOFL
 70
     0
  9
$DIMTVP
 40
0.0
  9
$DIMTIX
 70
     0
  9
$DIMSOXD
 70
     0
  9
$DIMSAH
 70
     0
  9
$DIMBLK1
  1

  9
$DIMBLK2
  1

  9
$DIMSTYLE
  2
STANDARD
  9
$DIMCLRD
 70
     0
  9
$DIMCLRE
 70
     0
  9
$DIMCLRT
 70
     0
  9
$DIMTFAC
 40
1.0
  9
$DIMGAP
 40
0.09
  9
$DIMJUST
 70
     0
  9
$DIMSD1
 70
     0
  9
$DIMSD2
 70
     0
  9
$DIMTOLJ
 70
     1
  9
$DIMTZIN
 70
     0
  9
$DIMALTZ
 70
     0
  9
$DIMALTTZ
 70
     0
  9
$DIMFIT
 70
     3
  9
$DIMUPT
 70
     0
  9
$DIMUNIT
 70
     2
  9
$DIMDEC
 70
     4
  9
$DIMTDEC
 70
     4
  9
$DIMALTU
 70
     2
  9
$DIMALTTD
 70
     2
  9
$DIMTXSTY
  7
STANDARD
  9
$DIMAUNIT
 70
     0
  9
$LUNITS
 70
     2
  9
$LUPREC
 70
     4
  9
$SKETCHINC
 40
0.1
  9
$FILLETRAD
 40
0.5
  9
$AUNITS
 70
     0
  9
$AUPREC
 70
     0
  9
$MENU
  1
.
  9
$ELEVATION
 40
0.0
  9
$PELEVATION
 40
0.0
  9
$THICKNESS
 40
0.0
  9
$LIMCHECK
 70
     0
  9
$CHAMFERA
 40
0.5
  9
$CHAMFERB
 40
0.5
  9
$CHAMFERC
 40
1.0
  9
$CHAMFERD
 40
0.0
  9
$SKPOLY
 70
     0
  9
$TDCREATE
 40
2459957.478638692
  9
$TDUPDATE
 40
2459957.478638808
  9
$TDINDWG
 40
0.0000000116
  9
$TDUSRTIMER
 40
0.0000000116
  9
$USRTIMER
 70
     1
  9
$ANGBASE
 50
0.0
  9
$ANGDIR
 70
     0
  9
$PDMODE
 70
     0
  9
$PDSIZE
 40
0.0
  9
$PLINEWID
 40
0.0
  9
$COORDS
 70
     1
  9
$SPLFRAME
 70
     0
  9
$SPLINETYPE
 70
     6
  9
$SPLINESEGS
 70
     8
  9
$ATTDIA
 70
     0
  9
$ATTREQ
 70
     1
  9
$HANDLING
 70
     1
  9
$HANDSEED
  5
344
  9
$SURFTAB1
 70
     6
  9
$SURFTAB2
 70
     6
  9
$SURFTYPE
 70
     6
  9
$SURFU
 70
     6
  9
$SURFV
 70
     6
  9
$UCSNAME
  2

  9
$UCSORG
 10
0.0
 20
0.0
 30
0.0
  9
$UCSXDIR
 10
1.0
 20
0.0
 30
0.0
  9
$UCSYDIR
 10
0.0
 20
1.0
 30
0.0
  9
$PUCSNAME
  2

  9
$PUCSORG
 10
0.0
 20
0.0
 30
0.0
  9
$PUCSXDIR
 10
1.0
 20
0.0
 30
0.0
  9
$PUCSYDIR
 10
0.0
 20
1.0
 30
0.0
  9
$USERI1
 70
     0
  9
$USERI2
 70
     0
  9
$USERI3
 70
     0
  9
$USERI4
 70
     0
  9
$USERI5
 70
     0
  9
$USERR1
 40
0.0
  9
$USERR2
 40
0.0
  9
$USERR3
 40
0.0
  9
$USERR4
 40
0.0
  9
$USERR5
 40
0.0
  9
$WORLDVIEW
 70
     1
  9
$SHADEDGE
 70
     3
  9
$SHADEDIF
 70
    70
  9
$TILEMODE
 70
     1
  9
$MAXACTVP
 70
    64
  9
$PINSBASE
 10
0.0
 20
0.0
 30
0.0
  9
$PLIMCHECK
 70
     0
  9
$PEXTMIN
 10
1.000000000000000E+20
 20
1.000000000000000E+20
 30
1.000000000000000E+20
  9
$PEXTMAX
 10
-1.000000000000000E+20
 20
-1.000000000000000E+20
 30
-1.000000000000000E+20
  9
$PLIMMIN
 10
0.0
 20
0.0
  9
$PLIMMAX
 10
12.0
 20
9.0
  9
$UNITMODE
 70
     0
  9
$VISRETAIN
 70
     1
  9
$PLINEGEN
 70
     0
  9
$PSLTSCALE
 70
     1
  9
$TREEDEPTH
 70
  3020
  9
$PICKSTYLE
 70
     1
  9
$CMLSTYLE
  2
STANDARD
  9
$CMLJUST
 70
     0
  9
$CMLSCALE
 40
1.0
  9
$PROXYGRAPHICS
 70
     1
  9
$MEASUREMENT
 70
     0
  0
ENDSEC
  0
SECTION
  2
CLASSES
  0
CLASS
  1
ACDBDICTIONARYWDFLT
  2
AcDbDictionaryWithDefault
  3
ObjectDBX Classes
 90
        0
280
     0
281
     0
  0
CLASS
  1
VISUALSTYLE
  2
AcDbVisualStyle
  3
ObjectDBX Classes
 90
     4095
280
     0
281
     0
  0
CLASS
  1
MATERIAL
  2
AcDbMaterial
  3
ObjectDBX Classes
 90
     1153
280
     0
281
     0
  0
CLASS
  1
SUN
  2
AcDbSun
  3
SCENEOE
 90
     1024
280
     0
281
     0
  0
CLASS
  1
DICTIONARYVAR
  2
AcDbDictionaryVar
  3
ObjectDBX Classes
 90
        0
280
     0
281
     0
  0
CLASS
  1
XRECORD
  2
AcDbXrecord
  3
AutoCAD 2000
 90
        0
280
     0
281
     0
  0
CLASS
  1
LWPOLYLINE
  2
AcDbPolyline
  3
AutoCAD 2000
 90
        0
280
     0
281
     1
  0
CLASS
  1
HATCH
  2
AcDbHatch
  3
AutoCAD 2000
 90
        0
280
     0
281
     1
  0
CLASS
  1
ACDBPLACEHOLDER
  2
AcDbPlaceHolder
  3
ObjectDBX Classes
 90
        0
280
     0
281
     0
  0
CLASS
  1
LAYOUT
  2
AcDbLayout
  3
ObjectDBX Classes
 90
        0
280
     0
281
     0
  0
ENDSEC
  0
SECTION
  2
TABLES
  0
TABLE
  2
VPORT
  5
8
330
0
100
AcDbSymbolTable
 70
     1
  0
VPORT
  5
29
330
8
100
AcDbSymbolTableRecord
100
AcDbViewportTableRecord
  2
*ACTIVE
 70
     0
 10
0.0
 20
0.0
 11
1.0
 21
1.0
 12
0.0
 22
0.0
 13
0.0
 23
0.0
 14
0.5
 24
0.5
 15
0.5
 25
0.5
 16
0.0
 26
0.0
 36
1.0
 17
74.99999786197358
 27
39.74999886684608
 37
0.0
 40
39.99999998999989
 41
1.000000000000008
 42
50.0
 43
0.0
 44
0.0
 50
0.0
 51
0.0
 71
     0
 72
   100
 73
     1
 74
     3
 75
     0
 76
     0
 77
     0
 78
     0
  0
ENDTAB
  0
TABLE
  2
LTYPE
  5
5
330
0
100
AcDbSymbolTable
 70
     1
  0
LTYPE
  5
14
330
5
100
AcDbSymbolTableRecord
100
AcDbLinetypeTableRecord
  2
BYBLOCK
 70
     0
  3

 72
    65
 73
     0
 40
0.0
  0
LTYPE
  5
15
330
5
100
AcDbSymbolTableRecord
100
AcDbLinetypeTableRecord
  2
BYLAYER
 70
     0
  3

 72
    65
 73
     0
 40
0.0
  0
LTYPE
  5
16
330
5
100
AcDbSymbolTableRecord
100
AcDbLinetypeTableRecord
  2
CONTINUOUS
 70
     0
  3
Solid line
 72
    65
 73
     0
 40
0.0
  0
ENDTAB
  0
TABLE
  2
LAYER
  5
2
330
0
100
AcDbSymbolTable
 70
     6
  0
LAYER
  5
10
330
2
100
AcDbSymbolTableRecord
100
AcDbLayerTableRecord
  2
0
 70
     0
 62
     7
  6
CONTINUOUS
  0
LAYER
  5
40
330
2
100
AcDbSymbolTableRecord
100
AcDbLayerTableRecord
  2
REFERENCIAS
 70
     0
 62
     7
  6
CONTINUOUS
  0
LAYER
  5
42
330
2
100
AcDbSymbolTableRecord
100
AcDbLayerTableRecord
  2
M_U_00C1RGENES
 70
     4
 62
     7
  6
CONTINUOUS
  0
LAYER
  5
51
330
2
100
AcDbSymbolTableRecord
100
AcDbLayerTableRecord
  2
DIBUJOS
 70
     4
 62
     7
  6
CONTINUOUS
  0
LAYER
  5
303
330
2
100
AcDbSymbolTableRecord
100
AcDbLayerTableRecord
  2
COTAS_LINEA
 70
     0
 62
     7
  6
CONTINUOUS
  0
LAYER
  5
314
330
2
100
AcDbSymbolTableRecord
100
AcDbLayerTableRecord
  2
COTAS_N_U_00DAMERO
 70
     0
 62
     7
  6
CONTINUOUS
  0
ENDTAB
  0
TABLE
  2
STYLE
  5
3
330
0
100
AcDbSymbolTable
 70
     1
  0
STYLE
  5
11
330
3
100
AcDbSymbolTableRecord
100
AcDbTextStyleTableRecord
  2
STANDARD
 70
     0
 40
0.0
 41
1.0
 50
0.0
 71
     0
 42
0.2
  3
txt
  4

  0
ENDTAB
  0
TABLE
  2
VIEW
  5
6
330
0
100
AcDbSymbolTable
 70
     0
  0
ENDTAB
  0
TABLE
  2
UCS
  5
7
330
0
100
AcDbSymbolTable
 70
     0
  0
ENDTAB
  0
TABLE
  2
APPID
  5
9
330
0
100
AcDbSymbolTable
 70
     1
  0
APPID
  5
12
330
9
100
AcDbSymbolTableRecord
100
AcDbRegAppTableRecord
  2
ACAD
 70
     0
  0
ENDTAB
  0
TABLE
  2
DIMSTYLE
  5
A
330
0
100
AcDbSymbolTable
 70
     1
  0
DIMSTYLE
105
27
330
A
100
AcDbSymbolTableRecord
100
AcDbDimStyleTableRecord
  2
STANDARD
 70
     0
  3

  4

  5

  6

  7

 40
1.0
 41
0.18
 42
0.0625
 43
0.38
 44
0.18
 45
0.0
 46
0.0
 47
0.0
 48
0.0
140
0.18
141
0.09
142
0.0
143
25.4
144
1.0
145
0.0
146
1.0
147
0.09
 71
     0
 72
     0
 73
     1
 74
     1
 75
     0
 76
     0
 77
     0
 78
     0
170
     0
171
     2
172
     0
173
     0
174
     0
175
     0
176
     0
177
     0
178
     0
270
     2
271
     4
272
     4
273
     2
274
     2
340
11
275
     0
280
     0
281
     0
282
     0
283
     1
284
     0
285
     0
286
     0
287
     3
288
     0
  0
ENDTAB
  0
TABLE
  2
BLOCK_RECORD
  5
1
330
0
100
AcDbSymbolTable
 70
     5
  0
BLOCK_RECORD
  5
1F
330
1
100
AcDbSymbolTableRecord
100
AcDbBlockTableRecord
  2
*MODEL_SPACE
  0
BLOCK_RECORD
  5
1B
330
1
100
AcDbSymbolTableRecord
100
AcDbBlockTableRecord
  2
*PAPER_SPACE
  0
BLOCK_RECORD
  5
52
330
1
100
AcDbSymbolTableRecord
100
AcDbBlockTableRecord
  2
BLOCK_2
  0
BLOCK_RECORD
  5
168
330
1
100
AcDbSymbolTableRecord
100
AcDbBlockTableRecord
  2
BLOCK_3
  0
BLOCK_RECORD
  5
255
330
1
100
AcDbSymbolTableRecord
100
AcDbBlockTableRecord
  2
BLOCK_4
  0
BLOCK_RECORD
  5
2A9
330
1
100
AcDbSymbolTableRecord
100
AcDbBlockTableRecord
  2
BLOCK_5
  0
ENDTAB
  0
ENDSEC
  0
SECTION
  2
BLOCKS
  0
BLOCK
  5
20
330
1F
100
AcDbEntity
  8
0
100
AcDbBlockBegin
  2
*MODEL_SPACE
 70
     0
 10
0.0
 20
0.0
 30
0.0
  3
*MODEL_SPACE
  1

  0
ENDBLK
  5
21
330
1F
100
AcDbEntity
  8
0
100
AcDbBlockEnd
  0
BLOCK
  5
1C
330
1B
100
AcDbEntity
 67
     1
  8
0
100
AcDbBlockBegin
  2
*PAPER_SPACE
 70
     0
 10
0.0
 20
0.0
 30
0.0
  3
*PAPER_SPACE
  1

  0
ENDBLK
  5
1D
330
1B
100
AcDbEntity
 67
     1
  8
0
100
AcDbBlockEnd
  0
BLOCK
  5
54
330
52
100
AcDbEntity
  8
0
100
AcDbBlockBegin
  2
BLOCK_2
 70
     0
 10
0.0
 20
0.0
 30
0.0
  3
BLOCK_2
  1

  0
POLYLINE
  5
56
330
52
100
AcDbEntity
  8
DIBUJOS
 62
     7
100
AcDb2dPolyline
 66
     1
 10
0.0
 20
0.0
 30
0.0
  0
VERTEX
  5
57
330
56
100
AcDbEntity
  8
DIBUJOS
 62
     7
100
AcDbVertex
100
AcDb2dVertex
 10
60.61952148343131
 20
50.2988172655169
 30
0.0
  0
VERTEX
  5
58
330
56
100
AcDbEntity
  8
DIBUJOS
 62
     7
100
AcDbVertex
100
AcDb2dVertex
 10
60.62514028299263
 20
50.30444669756542
 30
0.0
  0
SEQEND
  5
59
330
56
100
AcDbEntity
  8
DIBUJOS
 62
     7
  0
POLYLINE
  5
5A
330
52
100
AcDbEntity
  8
DIBUJOS
 62
     7
100
AcDb2dPolyline
 66
     1
 10
0.0
 20
0.0
 30
0.0
  0
VERTEX
  5
5B
330
5A
100
AcDbEntity
  8
DIBUJOS
 62
     7
100
AcDbVertex
100
AcDb2dVertex
 10
60.61952148343131
 20
50.09056160789326
 30
0.0
  0
VERTEX
  5
5C
330
5A
100
AcDbEntity
  8
DIBUJOS
 62
     7
100
AcDbVertex
100
AcDb2dVertex
 10
60.61952148343131
 20
50.2988172655169
 30
0.0
  0
SEQEND
  5
5D
330
5A
100
AcDbEntity
  8
DIBUJOS
 62
     7
  0
POLYLINE
  5
5E
330
52
100
AcDbEntity
  8
DIBUJOS
 62
     7
100
AcDb2dPolyline
 66
     1
 10
0.0
 20
0.0
 30
0.0
  0
VERTEX
  5
5F
330
5E
100
AcDbEntity
  8
DIBUJOS
 62
     7
100
AcDbVertex
100
AcDb2dVertex
 10
60.62514028299263
 20
50.08493217584441
 30
0.0
  0
VERTEX
  5
60
330
5E
100
AcDbEntity
  8
DIBUJOS
 62
     7
100
AcDbVertex
100
AcDb2dVertex
 10
60.61952148343131
 20
50.09056160789326
 30
0.0
  0
SEQEND
  5
61
330
5E
100
AcDbEntity
  8
DIBUJOS
 62
     7
  0
POLYLINE
  5
62
330
52
100
AcDbEntity
  8
DIBUJOS
 62
     7
100
AcDb2dPolyline
 66
     1
 10
0.0
 20
0.0
 30
0.0
  0
VERTEX
  5
63
330
62
100
AcDbEntity
  8
DIBUJOS
 62
     7
100
AcDbVertex
100
AcDb2dVertex
 10
64.22110092616359
 20
50.07930274379589
 30
0.0
  0
VERTEX
  5
64
330
62
100
AcDbEntity
  8
DIBUJOS
 62
     7
100
AcDbVertex
100
AcDb2dVertex
 10
60.62514028299263
 20
50.08493217584441
 30
0.0
  0
SEQEND
  5
65
330
62
100
AcDbEntity
  8
DIBUJOS
 62
     7
  0
POLYLINE
  5
66
330
52
100
AcDbEntity
  8
DIBUJOS
 62
     7
100
AcDb2dPolyline
 66
     1
 10
0.0
 20
0.0
 30
0.0
  0
VERTEX
  5
67
330
66
100
AcDbEntity
  8
DIBUJOS
 62
     7
100
AcDbVertex
100
AcDb2dVertex
 10
64.22671896959551
 20
50.07930274379589
 30
0.0
  0
VERTEX
  5
68
330
66
100
AcDbEntity
  8
DIBUJOS
 62
     7
100
AcDbVertex
100
AcDb2dVertex
 10
64.22110092616359
 20
50.07930274379589
 30
0.0
  0
SEQEND
  5
69
330
66
100
AcDbEntity
  8
DIBUJOS
 62
     7
  0
POLYLINE
  5
6A
330
52
100
AcDbEntity
  8
DIBUJOS
 62
     7
100
AcDb2dPolyline
 66
     1
 10
0.0
 20
0.0
 30
0.0
  0
VERTEX
  5
6B
330
6A
100
AcDbEntity
  8
DIBUJOS
 62
     7
100
AcDbVertex
100
AcDb2dVertex
 10
64.23233852528652
 20
50.07930274379589
 30
0.0
  0
VERTEX
  5
6C
330
6A
100
AcDbEntity
  8
DIBUJOS
 62
     7
100
AcDbVertex
100
AcDb2dVertex
 10
64.22671896959551
 20
50.07930274379589
 30
0.0
  0
SEQEND
  5
6D
330
6A
100
AcDbEntity
  8
DIBUJOS
 62
     7
  0
POLYLINE
  5
6E
330
52
100
AcDbEntity
  8
DIBUJOS
 62
     7
100
AcDb2dPolyline
 66
     1
 10
0.0
 20
0.0
 30
0.0
  0
VERTEX
  5
6F
330
6E
100
AcDbEntity
  8
DIBUJOS
 62
     7
100
AcDbVertex
100
AcDb2dVertex
 10
65.00771774218025
 20
50.07930274379589
 30
0.0
  0
VERTEX
  5
70
330
6E
100
AcDbEntity
  8
DIBUJOS
 62
     7
100
AcDbVertex
100
AcDb2dVertex
 10
64.23233852528652
 20
50.07930274379589
 30
0.0
  0
SEQEND
  5
71
330
6E
100
AcDbEntity
  8
DIBUJOS
 62
     7
  0
POLYLINE
  5
72
330
52
100
AcDbEntity
  8
DIBUJOS
 62
     7
100
AcDb2dPolyline
 66
     1
 10
0.0
 20
0.0
 30
0.0
  0
VERTEX
  5
73
330
72
100
AcDbEntity
  8
DIBUJOS
 62
     7
100
AcDbVertex
100
AcDb2dVertex
 10
65.01333578561187
 20
50.07930274379589
 30
0.0
  0
VERTEX
  5
74
330
72
100
AcDbEntity
  8
DIBUJOS
 62
     7
100
AcDbVertex
100
AcDb2dVertex
 10
65.00771774218025
 20
50.07930274379589
 30
0.0
  0
SEQEND
  5
75
330
72
100
AcDbEntity
  8
DIBUJOS
 62
     7
  0
POLYLINE
  5
76
330
52
100
AcDbEntity
  8
DIBUJOS
 62
     7
100
AcDb2dPolyline
 66
     1
 10
0.0
 20
0.0
 30
0.0
  0
VERTEX
  5
77
330
76
100
AcDbEntity
  8
DIBUJOS
 62
     7
100
AcDbVertex
100
AcDb2dVertex
 10
65.01895534130287
 20
50.07930274379589
 30
0.0
  0
VERTEX
  5
78
330
76
100
AcDbEntity
  8
DIBUJOS
 62
     7
100
AcDbVertex
100
AcDb2dVertex
 10
65.01333578561187
 20
50.07930274379589
 30
0.0
  0
SEQEND
  5
79
330
76
100
AcDbEntity
  8
DIBUJOS
 62
     7
  0
POLYLINE
  5
7A
330
52
100
AcDbEntity
  8
DIBUJOS
 62
     7
100
AcDb2dPolyline
 66
     1
 10
0.0
 20
0.0
 30
0.0
  0
VERTEX
  5
7B
330
7A
100
AcDbEntity
  8
DIBUJOS
 62
     7
100
AcDbVertex
100
AcDb2dVertex
 10
65.01895534130287
 20
50.07930274379589
 30
0.0
  0
VERTEX
  5
7C
330
7A
100
AcDbEntity
  8
DIBUJOS
 62
     7
100
AcDbVertex
100
AcDb2dVertex
 10
68.6036783853512
 20
50.08493217584441
 30
0.0
  0
VERTEX
  5
7D
330
7A
100
AcDbEntity
  8
DIBUJOS
 62
     7
100
AcDbVertex
100
AcDb2dVertex
 10
68.61491598447415
 20
50.09618801010779
 30
0.0
  0
VERTEX
  5
7E
330
7A
100
AcDbEntity
  8
DIBUJOS
 62
     7
100
AcDbVertex
100
AcDb2dVertex
 10
68.61491598447415
 20
50.29318783346806
 30
0.0
  0
VERTEX
  5
7F
330
7A
100
AcDbEntity
  8
DIBUJOS
 62
     7
100
AcDbVertex
100
AcDb2dVertex
 10
68.6036783853512
 20
50.30444669756542
 30
0.0
  0
VERTEX
  5
80
330
7A
100
AcDbEntity
  8
DIBUJOS
 62
     7
100
AcDbVertex
100
AcDb2dVertex
 10
60.62514028299263
 20
50.30444669756542
 30
0.0
  0
SEQEND
  5
81
330
7A
100
AcDbEntity
  8
DIBUJOS
 62
     7
  0
POLYLINE
  5
82
330
52
100
AcDbEntity
  8
DIBUJOS
 62
     7
100
AcDb2dPolyline
 66
     1
 10
0.0
 20
0.0
 30
0.0
  0
VERTEX
  5
83
330
82
100
AcDbEntity
  8
DIBUJOS
 62
     7
100
AcDbVertex
100
AcDb2dVertex
 10
64.22671896959551
 20
50.07367331174737
 30
0.0
  0
VERTEX
  5
84
330
82
100
AcDbEntity
  8
DIBUJOS
 62
     7
100
AcDbVertex
100
AcDb2dVertex
 10
64.22671896959551
 20
50.07930274379589
 30
0.0
  0
SEQEND
  5
85
330
82
100
AcDbEntity
  8
DIBUJOS
 62
     7
  0
POLYLINE
  5
86
330
52
100
AcDbEntity
  8
DIBUJOS
 62
     7
100
AcDb2dPolyline
 66
     1
 10
0.0
 20
0.0
 30
0.0
  0
VERTEX
  5
87
330
86
100
AcDbEntity
  8
DIBUJOS
 62
     7
100
AcDbVertex
100
AcDb2dVertex
 10
65.01333578561187
 20
50.07367331174737
 30
0.0
  0
VERTEX
  5
88
330
86
100
AcDbEntity
  8
DIBUJOS
 62
     7
100
AcDbVertex
100
AcDb2dVertex
 10
65.01333578561187
 20
50.07930274379589
 30
0.0
  0
SEQEND
  5
89
330
86
100
AcDbEntity
  8
DIBUJOS
 62
     7
  0
POLYLINE
  5
8A
330
52
100
AcDbEntity
  8
DIBUJOS
 62
     7
100
AcDb2dPolyline
 66
     1
 10
0.0
 20
0.0
 30
0.0
  0
VERTEX
  5
8B
330
8A
100
AcDbEntity
  8
DIBUJOS
 62
     7
100
AcDbVertex
100
AcDb2dVertex
 10
64.40089948761288
 20
50.00613224650044
 30
0.0
  0
VERTEX
  5
8C
330
8A
100
AcDbEntity
  8
DIBUJOS
 62
     7
100
AcDbVertex
100
AcDb2dVertex
 10
64.39527993192186
 20
50.01176167854896
 30
0.0
  0
SEQEND
  5
8D
330
8A
100
AcDbEntity
  8
DIBUJOS
 62
     7
  0
POLYLINE
  5
8E
330
52
100
AcDbEntity
  8
DIBUJOS
 62
     7
100
AcDb2dPolyline
 66
     1
 10
0.0
 20
0.0
 30
0.0
  0
VERTEX
  5
8F
330
8E
100
AcDbEntity
  8
DIBUJOS
 62
     7
100
AcDbVertex
100
AcDb2dVertex
 10
64.22110092616359
 20
49.92170288510729
 30
0.0
  0
VERTEX
  5
90
330
8E
100
AcDbEntity
  8
DIBUJOS
 62
     7
100
AcDbVertex
100
AcDb2dVertex
 10
64.22671896959551
 20
50.07367331174737
 30
0.0
  0
SEQEND
  5
91
330
8E
100
AcDbEntity
  8
DIBUJOS
 62
     7
  0
POLYLINE
  5
92
330
52
100
AcDbEntity
  8
DIBUJOS
 62
     7
100
AcDb2dPolyline
 66
     1
 10
0.0
 20
0.0
 30
0.0
  0
VERTEX
  5
93
330
92
100
AcDbEntity
  8
DIBUJOS
 62
     7
100
AcDbVertex
100
AcDb2dVertex
 10
64.2435761244098
 20
49.92170288510729
 30
0.0
  0
VERTEX
  5
94
330
92
100
AcDbEntity
  8
DIBUJOS
 62
     7
100
AcDbVertex
100
AcDb2dVertex
 10
64.26604981039628
 20
50.00613224650044
 30
0.0
  0
VERTEX
  5
95
330
92
100
AcDbEntity
  8
DIBUJOS
 62
     7
100
AcDbVertex
100
AcDb2dVertex
 10
64.27728740951923
 20
50.01738808076349
 30
0.0
  0
VERTEX
  5
96
330
92
100
AcDbEntity
  8
DIBUJOS
 62
     7
100
AcDbVertex
100
AcDb2dVertex
 10
64.28852500864217
 20
50.01176167854896
 30
0.0
  0
VERTEX
  5
97
330
92
100
AcDbEntity
  8
DIBUJOS
 62
     7
100
AcDbVertex
100
AcDb2dVertex
 10
64.31100020688838
 20
50.01176167854896
 30
0.0
  0
VERTEX
  5
98
330
92
100
AcDbEntity
  8
DIBUJOS
 62
     7
100
AcDbVertex
100
AcDb2dVertex
 10
64.31661825032
 20
50.01738808076349
 30
0.0
  0
VERTEX
  5
99
330
92
100
AcDbEntity
  8
DIBUJOS
 62
     7
100
AcDbVertex
100
AcDb2dVertex
 10
64.38460489327149
 20
50.01344929622991
 30
0.0
  0
VERTEX
  5
9A
330
92
100
AcDbEntity
  8
DIBUJOS
 62
     7
100
AcDbVertex
100
AcDb2dVertex
 10
64.39527993192186
 20
50.01176167854896
 30
0.0
  0
SEQEND
  5
9B
330
92
100
AcDbEntity
  8
DIBUJOS
 62
     7
  0
POLYLINE
  5
9C
330
52
100
AcDbEntity
  8
DIBUJOS
 62
     7
100
AcDb2dPolyline
 66
     1
 10
0.0
 20
0.0
 30
0.0
  0
VERTEX
  5
9D
330
9C
100
AcDbEntity
  8
DIBUJOS
 62
     7
100
AcDbVertex
100
AcDb2dVertex
 10
64.22110092616359
 20
49.91607345305877
 30
0.0
  0
VERTEX
  5
9E
330
9C
100
AcDbEntity
  8
DIBUJOS
 62
     7
100
AcDbVertex
100
AcDb2dVertex
 10
64.22110092616359
 20
49.92170288510729
 30
0.0
  0
SEQEND
  5
9F
330
9C
100
AcDbEntity
  8
DIBUJOS
 62
     7
  0
POLYLINE
  5
A0
330
52
100
AcDbEntity
  8
DIBUJOS
 62
     7
100
AcDb2dPolyline
 66
     1
 10
0.0
 20
0.0
 30
0.0
  0
VERTEX
  5
A1
330
A0
100
AcDbEntity
  8
DIBUJOS
 62
     7
100
AcDbVertex
100
AcDb2dVertex
 10
64.22671896959551
 20
49.91607345305877
 30
0.0
  0
VERTEX
  5
A2
330
A0
100
AcDbEntity
  8
DIBUJOS
 62
     7
100
AcDbVertex
100
AcDb2dVertex
 10
64.22110092616359
 20
49.91607345305877
 30
0.0
  0
SEQEND
  5
A3
330
A0
100
AcDbEntity
  8
DIBUJOS
 62
     7
  0
POLYLINE
  5
A4
330
52
100
AcDbEntity
  8
DIBUJOS
 62
     7
100
AcDb2dPolyline
 66
     1
 10
0.0
 20
0.0
 30
0.0
  0
VERTEX
  5
A5
330
A4
100
AcDbEntity
  8
DIBUJOS
 62
     7
100
AcDbVertex
100
AcDb2dVertex
 10
64.23795656871846
 20
49.91607345305877
 30
0.0
  0
VERTEX
  5
A6
330
A4
100
AcDbEntity
  8
DIBUJOS
 62
     7
100
AcDbVertex
100
AcDb2dVertex
 10
64.22671896959551
 20
49.91607345305877
 30
0.0
  0
SEQEND
  5
A7
330
A4
100
AcDbEntity
  8
DIBUJOS
 62
     7
  0
POLYLINE
  5
A8
330
52
100
AcDbEntity
  8
DIBUJOS
 62
     7
100
AcDb2dPolyline
 66
     1
 10
0.0
 20
0.0
 30
0.0
  0
VERTEX
  5
A9
330
A8
100
AcDbEntity
  8
DIBUJOS
 62
     7
100
AcDbVertex
100
AcDb2dVertex
 10
64.2435761244098
 20
49.91607345305877
 30
0.0
  0
VERTEX
  5
AA
330
A8
100
AcDbEntity
  8
DIBUJOS
 62
     7
100
AcDbVertex
100
AcDb2dVertex
 10
64.23795656871846
 20
49.91607345305877
 30
0.0
  0
SEQEND
  5
AB
330
A8
100
AcDbEntity
  8
DIBUJOS
 62
     7
  0
POLYLINE
  5
AC
330
52
100
AcDbEntity
  8
DIBUJOS
 62
     7
100
AcDb2dPolyline
 66
     1
 10
0.0
 20
0.0
 30
0.0
  0
VERTEX
  5
AD
330
AC
100
AcDbEntity
  8
DIBUJOS
 62
     7
100
AcDbVertex
100
AcDb2dVertex
 10
64.2435761244098
 20
49.91607345305877
 30
0.0
  0
VERTEX
  5
AE
330
AC
100
AcDbEntity
  8
DIBUJOS
 62
     7
100
AcDbVertex
100
AcDb2dVertex
 10
64.2435761244098
 20
49.92170288510729
 30
0.0
  0
SEQEND
  5
AF
330
AC
100
AcDbEntity
  8
DIBUJOS
 62
     7
  0
POLYLINE
  5
B0
330
52
100
AcDbEntity
  8
DIBUJOS
 62
     7
100
AcDb2dPolyline
 66
     1
 10
0.0
 20
0.0
 30
0.0
  0
VERTEX
  5
B1
330
B0
100
AcDbEntity
  8
DIBUJOS
 62
     7
100
AcDbVertex
100
AcDb2dVertex
 10
64.22110092616359
 20
49.91044705084424
 30
0.0
  0
VERTEX
  5
B2
330
B0
100
AcDbEntity
  8
DIBUJOS
 62
     7
100
AcDbVertex
100
AcDb2dVertex
 10
64.22110092616359
 20
49.91607345305877
 30
0.0
  0
SEQEND
  5
B3
330
B0
100
AcDbEntity
  8
DIBUJOS
 62
     7
  0
POLYLINE
  5
B4
330
52
100
AcDbEntity
  8
DIBUJOS
 62
     7
100
AcDb2dPolyline
 66
     1
 10
0.0
 20
0.0
 30
0.0
  0
VERTEX
  5
B5
330
B4
100
AcDbEntity
  8
DIBUJOS
 62
     7
100
AcDbVertex
100
AcDb2dVertex
 10
64.2435761244098
 20
49.91044705084424
 30
0.0
  0
VERTEX
  5
B6
330
B4
100
AcDbEntity
  8
DIBUJOS
 62
     7
100
AcDbVertex
100
AcDb2dVertex
 10
64.2435761244098
 20
49.91607345305877
 30
0.0
  0
SEQEND
  5
B7
330
B4
100
AcDbEntity
  8
DIBUJOS
 62
     7
  0
POLYLINE
  5
B8
330
52
100
AcDbEntity
  8
DIBUJOS
 62
     7
100
AcDb2dPolyline
 66
     1
 10
0.0
 20
0.0
 30
0.0
  0
VERTEX
  5
B9
330
B8
100
AcDbEntity
  8
DIBUJOS
 62
     7
100
AcDbVertex
100
AcDb2dVertex
 10
64.22671896959551
 20
49.89918818674688
 30
0.0
  0
VERTEX
  5
BA
330
B8
100
AcDbEntity
  8
DIBUJOS
 62
     7
100
AcDbVertex
100
AcDb2dVertex
 10
64.22110092616359
 20
49.91044705084424
 30
0.0
  0
SEQEND
  5
BB
330
B8
100
AcDbEntity
  8
DIBUJOS
 62
     7
  0
POLYLINE
  5
BC
330
52
100
AcDbEntity
  8
DIBUJOS
 62
     7
100
AcDb2dPolyline
 66
     1
 10
0.0
 20
0.0
 30
0.0
  0
VERTEX
  5
BD
330
BC
100
AcDbEntity
  8
DIBUJOS
 62
     7
100
AcDbVertex
100
AcDb2dVertex
 10
64.23233852528652
 20
49.89918818674688
 30
0.0
  0
VERTEX
  5
BE
330
BC
100
AcDbEntity
  8
DIBUJOS
 62
     7
100
AcDbVertex
100
AcDb2dVertex
 10
64.22671896959551
 20
49.89918818674688
 30
0.0
  0
SEQEND
  5
BF
330
BC
100
AcDbEntity
  8
DIBUJOS
 62
     7
  0
POLYLINE
  5
C0
330
52
100
AcDbEntity
  8
DIBUJOS
 62
     7
100
AcDb2dPolyline
 66
     1
 10
0.0
 20
0.0
 30
0.0
  0
VERTEX
  5
C1
330
C0
100
AcDbEntity
  8
DIBUJOS
 62
     7
100
AcDbVertex
100
AcDb2dVertex
 10
64.23233852528652
 20
49.89918818674688
 30
0.0
  0
VERTEX
  5
C2
330
C0
100
AcDbEntity
  8
DIBUJOS
 62
     7
100
AcDbVertex
100
AcDb2dVertex
 10
64.2435761244098
 20
49.91044705084424
 30
0.0
  0
SEQEND
  5
C3
330
C0
100
AcDbEntity
  8
DIBUJOS
 62
     7
  0
POLYLINE
  5
C4
330
52
100
AcDbEntity
  8
DIBUJOS
 62
     7
100
AcDb2dPolyline
 66
     1
 10
0.0
 20
0.0
 30
0.0
  0
VERTEX
  5
C5
330
C4
100
AcDbEntity
  8
DIBUJOS
 62
     7
100
AcDbVertex
100
AcDb2dVertex
 10
64.22671896959551
 20
49.89356178453266
 30
0.0
  0
VERTEX
  5
C6
330
C4
100
AcDbEntity
  8
DIBUJOS
 62
     7
100
AcDbVertex
100
AcDb2dVertex
 10
64.22671896959551
 20
49.89918818674688
 30
0.0
  0
SEQEND
  5
C7
330
C4
100
AcDbEntity
  8
DIBUJOS
 62
     7
  0
POLYLINE
  5
C8
330
52
100
AcDbEntity
  8
DIBUJOS
 62
     7
100
AcDb2dPolyline
 66
     1
 10
0.0
 20
0.0
 30
0.0
  0
VERTEX
  5
C9
330
C8
100
AcDbEntity
  8
DIBUJOS
 62
     7
100
AcDbVertex
100
AcDb2dVertex
 10
65.01333578561187
 20
49.88793235248382
 30
0.0
  0
VERTEX
  5
CA
330
C8
100
AcDbEntity
  8
DIBUJOS
 62
     7
100
AcDbVertex
100
AcDb2dVertex
 10
65.01895534130287
 20
49.89356178453266
 30
0.0
  0
VERTEX
  5
CB
330
C8
100
AcDbEntity
  8
DIBUJOS
 62
     7
100
AcDbVertex
100
AcDb2dVertex
 10
65.01895534130287
 20
50.06804690953285
 30
0.0
  0
VERTEX
  5
CC
330
C8
100
AcDbEntity
  8
DIBUJOS
 62
     7
100
AcDbVertex
100
AcDb2dVertex
 10
65.01333578561187
 20
50.07367331174737
 30
0.0
  0
SEQEND
  5
CD
330
C8
100
AcDbEntity
  8
DIBUJOS
 62
     7
  0
POLYLINE
  5
CE
330
52
100
AcDbEntity
  8
DIBUJOS
 62
     7
100
AcDb2dPolyline
 66
     1
 10
0.0
 20
0.0
 30
0.0
  0
VERTEX
  5
CF
330
CE
100
AcDbEntity
  8
DIBUJOS
 62
     7
100
AcDbVertex
100
AcDb2dVertex
 10
65.00771774218025
 20
49.8823029204353
 30
0.0
  0
VERTEX
  5
D0
330
CE
100
AcDbEntity
  8
DIBUJOS
 62
     7
100
AcDbVertex
100
AcDb2dVertex
 10
64.99846271504606
 20
49.90531451161377
 30
0.0
  0
VERTEX
  5
D1
330
CE
100
AcDbEntity
  8
DIBUJOS
 62
     7
100
AcDbVertex
100
AcDb2dVertex
 10
64.9740049448111
 20
50.00050281445159
 30
0.0
  0
VERTEX
  5
D2
330
CE
100
AcDbEntity
  8
DIBUJOS
 62
     7
100
AcDbVertex
100
AcDb2dVertex
 10
64.95714930225621
 20
50.01738808076349
 30
0.0
  0
VERTEX
  5
D3
330
CE
100
AcDbEntity
  8
DIBUJOS
 62
     7
100
AcDbVertex
100
AcDb2dVertex
 10
64.93467410401033
 20
50.01738808076349
 30
0.0
  0
VERTEX
  5
D4
330
CE
100
AcDbEntity
  8
DIBUJOS
 62
     7
100
AcDbVertex
100
AcDb2dVertex
 10
64.92905606057872
 20
50.01176167854896
 30
0.0
  0
SEQEND
  5
D5
330
CE
100
AcDbEntity
  8
DIBUJOS
 62
     7
  0
POLYLINE
  5
D6
330
52
100
AcDbEntity
  8
DIBUJOS
 62
     7
100
AcDb2dPolyline
 66
     1
 10
0.0
 20
0.0
 30
0.0
  0
VERTEX
  5
D7
330
D6
100
AcDbEntity
  8
DIBUJOS
 62
     7
100
AcDbVertex
100
AcDb2dVertex
 10
65.01333578561187
 20
49.8823029204353
 30
0.0
  0
VERTEX
  5
D8
330
D6
100
AcDbEntity
  8
DIBUJOS
 62
     7
100
AcDbVertex
100
AcDb2dVertex
 10
65.00771774218025
 20
49.8823029204353
 30
0.0
  0
SEQEND
  5
D9
330
D6
100
AcDbEntity
  8
DIBUJOS
 62
     7
  0
POLYLINE
  5
DA
330
52
100
AcDbEntity
  8
DIBUJOS
 62
     7
100
AcDb2dPolyline
 66
     1
 10
0.0
 20
0.0
 30
0.0
  0
VERTEX
  5
DB
330
DA
100
AcDbEntity
  8
DIBUJOS
 62
     7
100
AcDbVertex
100
AcDb2dVertex
 10
65.01333578561187
 20
49.8823029204353
 30
0.0
  0
VERTEX
  5
DC
330
DA
100
AcDbEntity
  8
DIBUJOS
 62
     7
100
AcDbVertex
100
AcDb2dVertex
 10
65.01333578561187
 20
49.88793235248382
 30
0.0
  0
SEQEND
  5
DD
330
DA
100
AcDbEntity
  8
DIBUJOS
 62
     7
  0
POLYLINE
  5
DE
330
52
100
AcDbEntity
  8
DIBUJOS
 62
     7
100
AcDb2dPolyline
 66
     1
 10
0.0
 20
0.0
 30
0.0
  0
VERTEX
  5
DF
330
DE
100
AcDbEntity
  8
DIBUJOS
 62
     7
100
AcDbVertex
100
AcDb2dVertex
 10
65.01333578561187
 20
49.87667651822077
 30
0.0
  0
VERTEX
  5
E0
330
DE
100
AcDbEntity
  8
DIBUJOS
 62
     7
100
AcDbVertex
100
AcDb2dVertex
 10
65.01333578561187
 20
49.8823029204353
 30
0.0
  0
SEQEND
  5
E1
330
DE
100
AcDbEntity
  8
DIBUJOS
 62
     7
  0
POLYLINE
  5
E2
330
52
100
AcDbEntity
  8
DIBUJOS
 62
     7
100
AcDb2dPolyline
 66
     1
 10
0.0
 20
0.0
 30
0.0
  0
VERTEX
  5
E3
330
E2
100
AcDbEntity
  8
DIBUJOS
 62
     7
100
AcDbVertex
100
AcDb2dVertex
 10
64.31661825032
 20
48.27816323297593
 30
0.0
  0
VERTEX
  5
E4
330
E2
100
AcDbEntity
  8
DIBUJOS
 62
     7
100
AcDbVertex
100
AcDb2dVertex
 10
64.31774185900639
 20
48.28322911585312
 30
0.0
  0
VERTEX
  5
E5
330
E2
100
AcDbEntity
  8
DIBUJOS
 62
     7
100
AcDbVertex
100
AcDb2dVertex
 10
64.39810029558268
 20
48.55397207518408
 30
0.0
  0
VERTEX
  5
E6
330
E2
100
AcDbEntity
  8
DIBUJOS
 62
     7
100
AcDbVertex
100
AcDb2dVertex
 10
64.40089948761288
 20
50.00613224650044
 30
0.0
  0
SEQEND
  5
E7
330
E2
100
AcDbEntity
  8
DIBUJOS
 62
     7
  0
POLYLINE
  5
E8
330
52
100
AcDbEntity
  8
DIBUJOS
 62
     7
100
AcDb2dPolyline
 66
     1
 10
0.0
 20
0.0
 30
0.0
  0
VERTEX
  5
E9
330
E8
100
AcDbEntity
  8
DIBUJOS
 62
     7
100
AcDbVertex
100
AcDb2dVertex
 10
64.91781846145577
 20
48.27816323297593
 30
0.0
  0
VERTEX
  5
EA
330
E8
100
AcDbEntity
  8
DIBUJOS
 62
     7
100
AcDbVertex
100
AcDb2dVertex
 10
64.89897873465209
 20
48.34521043523913
 30
0.0
  0
VERTEX
  5
EB
330
E8
100
AcDbEntity
  8
DIBUJOS
 62
     7
100
AcDbVertex
100
AcDb2dVertex
 10
64.83353873642197
 20
48.55959241772934
 30
0.0
  0
VERTEX
  5
EC
330
E8
100
AcDbEntity
  8
DIBUJOS
 62
     7
100
AcDbVertex
100
AcDb2dVertex
 10
64.83353873642197
 20
50.00613224650044
 30
0.0
  0
VERTEX
  5
ED
330
E8
100
AcDbEntity
  8
DIBUJOS
 62
     7
100
AcDbVertex
100
AcDb2dVertex
 10
64.84477482328552
 20
50.01738808076349
 30
0.0
  0
VERTEX
  5
EE
330
E8
100
AcDbEntity
  8
DIBUJOS
 62
     7
100
AcDbVertex
100
AcDb2dVertex
 10
64.89534326320924
 20
50.01176167854896
 30
0.0
  0
VERTEX
  5
EF
330
E8
100
AcDbEntity
  8
DIBUJOS
 62
     7
100
AcDbVertex
100
AcDb2dVertex
 10
64.91781846145577
 20
50.01738808076349
 30
0.0
  0
SEQEND
  5
F0
330
E8
100
AcDbEntity
  8
DIBUJOS
 62
     7
  0
POLYLINE
  5
F1
330
52
100
AcDbEntity
  8
DIBUJOS
 62
     7
100
AcDb2dPolyline
 66
     1
 10
0.0
 20
0.0
 30
0.0
  0
VERTEX
  5
F2
330
F1
100
AcDbEntity
  8
DIBUJOS
 62
     7
100
AcDbVertex
100
AcDb2dVertex
 10
64.31661825032
 20
48.27253380092773
 30
0.0
  0
VERTEX
  5
F3
330
F1
100
AcDbEntity
  8
DIBUJOS
 62
     7
100
AcDbVertex
100
AcDb2dVertex
 10
64.31661825032
 20
48.27816323297593
 30
0.0
  0
SEQEND
  5
F4
330
F1
100
AcDbEntity
  8
DIBUJOS
 62
     7
  0
POLYLINE
  5
F5
330
52
100
AcDbEntity
  8
DIBUJOS
 62
     7
100
AcDb2dPolyline
 66
     1
 10
0.0
 20
0.0
 30
0.0
  0
VERTEX
  5
F6
330
F5
100
AcDbEntity
  8
DIBUJOS
 62
     7
100
AcDbVertex
100
AcDb2dVertex
 10
64.32223780601133
 20
48.27253380092773
 30
0.0
  0
VERTEX
  5
F7
330
F5
100
AcDbEntity
  8
DIBUJOS
 62
     7
100
AcDbVertex
100
AcDb2dVertex
 10
64.31661825032
 20
48.27253380092773
 30
0.0
  0
SEQEND
  5
F8
330
F5
100
AcDbEntity
  8
DIBUJOS
 62
     7
  0
POLYLINE
  5
F9
330
52
100
AcDbEntity
  8
DIBUJOS
 62
     7
100
AcDb2dPolyline
 66
     1
 10
0.0
 20
0.0
 30
0.0
  0
VERTEX
  5
FA
330
F9
100
AcDbEntity
  8
DIBUJOS
 62
     7
100
AcDbVertex
100
AcDb2dVertex
 10
64.91220041802383
 20
48.27253380092773
 30
0.0
  0
VERTEX
  5
FB
330
F9
100
AcDbEntity
  8
DIBUJOS
 62
     7
100
AcDbVertex
100
AcDb2dVertex
 10
64.32223780601133
 20
48.27253380092773
 30
0.0
  0
SEQEND
  5
FC
330
F9
100
AcDbEntity
  8
DIBUJOS
 62
     7
  0
POLYLINE
  5
FD
330
52
100
AcDbEntity
  8
DIBUJOS
 62
     7
100
AcDb2dPolyline
 66
     1
 10
0.0
 20
0.0
 30
0.0
  0
VERTEX
  5
FE
330
FD
100
AcDbEntity
  8
DIBUJOS
 62
     7
100
AcDbVertex
100
AcDb2dVertex
 10
64.91781846145577
 20
48.27253380092773
 30
0.0
  0
VERTEX
  5
FF
330
FD
100
AcDbEntity
  8
DIBUJOS
 62
     7
100
AcDbVertex
100
AcDb2dVertex
 10
64.91220041802383
 20
48.27253380092773
 30
0.0
  0
SEQEND
  5
100
330
FD
100
AcDbEntity
  8
DIBUJOS
 62
     7
  0
POLYLINE
  5
101
330
52
100
AcDbEntity
  8
DIBUJOS
 62
     7
100
AcDb2dPolyline
 66
     1
 10
0.0
 20
0.0
 30
0.0
  0
VERTEX
  5
102
330
101
100
AcDbEntity
  8
DIBUJOS
 62
     7
100
AcDbVertex
100
AcDb2dVertex
 10
64.91781846145577
 20
48.27253380092773
 30
0.0
  0
VERTEX
  5
103
330
101
100
AcDbEntity
  8
DIBUJOS
 62
     7
100
AcDbVertex
100
AcDb2dVertex
 10
64.91781846145577
 20
48.27816323297593
 30
0.0
  0
SEQEND
  5
104
330
101
100
AcDbEntity
  8
DIBUJOS
 62
     7
  0
POLYLINE
  5
105
330
52
100
AcDbEntity
  8
DIBUJOS
 62
     7
100
AcDb2dPolyline
 66
     1
 10
0.0
 20
0.0
 30
0.0
  0
VERTEX
  5
106
330
105
100
AcDbEntity
  8
DIBUJOS
 62
     7
100
AcDbVertex
100
AcDb2dVertex
 10
64.31661825032
 20
48.26690436887856
 30
0.0
  0
VERTEX
  5
107
330
105
100
AcDbEntity
  8
DIBUJOS
 62
     7
100
AcDbVertex
100
AcDb2dVertex
 10
64.31661825032
 20
48.27253380092773
 30
0.0
  0
SEQEND
  5
108
330
105
100
AcDbEntity
  8
DIBUJOS
 62
     7
  0
POLYLINE
  5
109
330
52
100
AcDbEntity
  8
DIBUJOS
 62
     7
100
AcDb2dPolyline
 66
     1
 10
0.0
 20
0.0
 30
0.0
  0
VERTEX
  5
10A
330
109
100
AcDbEntity
  8
DIBUJOS
 62
     7
100
AcDbVertex
100
AcDb2dVertex
 10
64.91781846145577
 20
48.26690436887856
 30
0.0
  0
VERTEX
  5
10B
330
109
100
AcDbEntity
  8
DIBUJOS
 62
     7
100
AcDbVertex
100
AcDb2dVertex
 10
64.91781846145577
 20
48.27253380092773
 30
0.0
  0
SEQEND
  5
10C
330
109
100
AcDbEntity
  8
DIBUJOS
 62
     7
  0
POLYLINE
  5
10D
330
52
100
AcDbEntity
  8
DIBUJOS
 62
     7
100
AcDb2dPolyline
 66
     1
 10
0.0
 20
0.0
 30
0.0
  0
VERTEX
  5
10E
330
10D
100
AcDbEntity
  8
DIBUJOS
 62
     7
100
AcDbVertex
100
AcDb2dVertex
 10
62.29389048305301
 20
43.15054142338725
 30
0.0
  0
VERTEX
  5
10F
330
10D
100
AcDbEntity
  8
DIBUJOS
 62
     7
100
AcDbVertex
100
AcDb2dVertex
 10
62.30119469564358
 20
43.18374840683907
 30
0.0
  0
VERTEX
  5
110
330
10D
100
AcDbEntity
  8
DIBUJOS
 62
     7
100
AcDbVertex
100
AcDb2dVertex
 10
64.21868131122696
 20
49.84320593918885
 30
0.0
  0
VERTEX
  5
111
330
10D
100
AcDbEntity
  8
DIBUJOS
 62
     7
100
AcDbVertex
100
AcDb2dVertex
 10
64.22671896959551
 20
49.89356178453266
 30
0.0
  0
SEQEND
  5
112
330
10D
100
AcDbEntity
  8
DIBUJOS
 62
     7
  0
POLYLINE
  5
113
330
52
100
AcDbEntity
  8
DIBUJOS
 62
     7
100
AcDb2dPolyline
 66
     1
 10
0.0
 20
0.0
 30
0.0
  0
VERTEX
  5
114
330
113
100
AcDbEntity
  8
DIBUJOS
 62
     7
100
AcDbVertex
100
AcDb2dVertex
 10
66.94054698485246
 20
43.15054142338725
 30
0.0
  0
VERTEX
  5
115
330
113
100
AcDbEntity
  8
DIBUJOS
 62
     7
100
AcDbVertex
100
AcDb2dVertex
 10
66.9385629006043
 20
43.16692979688077
 30
0.0
  0
VERTEX
  5
116
330
113
100
AcDbEntity
  8
DIBUJOS
 62
     7
100
AcDbVertex
100
AcDb2dVertex
 10
65.01502195477114
 20
49.86598120329538
 30
0.0
  0
VERTEX
  5
117
330
113
100
AcDbEntity
  8
DIBUJOS
 62
     7
100
AcDbVertex
100
AcDb2dVertex
 10
65.01333578561187
 20
49.87667651822077
 30
0.0
  0
SEQEND
  5
118
330
113
100
AcDbEntity
  8
DIBUJOS
 62
     7
  0
POLYLINE
  5
119
330
52
100
AcDbEntity
  8
DIBUJOS
 62
     7
100
AcDb2dPolyline
 66
     1
 10
0.0
 20
0.0
 30
0.0
  0
VERTEX
  5
11A
330
119
100
AcDbEntity
  8
DIBUJOS
 62
     7
100
AcDbVertex
100
AcDb2dVertex
 10
62.29389048305301
 20
43.14491199133808
 30
0.0
  0
VERTEX
  5
11B
330
119
100
AcDbEntity
  8
DIBUJOS
 62
     7
100
AcDbVertex
100
AcDb2dVertex
 10
62.29389048305301
 20
43.15054142338725
 30
0.0
  0
SEQEND
  5
11C
330
119
100
AcDbEntity
  8
DIBUJOS
 62
     7
  0
POLYLINE
  5
11D
330
52
100
AcDbEntity
  8
DIBUJOS
 62
     7
100
AcDb2dPolyline
 66
     1
 10
0.0
 20
0.0
 30
0.0
  0
VERTEX
  5
11E
330
11D
100
AcDbEntity
  8
DIBUJOS
 62
     7
100
AcDbVertex
100
AcDb2dVertex
 10
62.29950928261464
 20
43.14491199133808
 30
0.0
  0
VERTEX
  5
11F
330
11D
100
AcDbEntity
  8
DIBUJOS
 62
     7
100
AcDbVertex
100
AcDb2dVertex
 10
62.29389048305301
 20
43.14491199133808
 30
0.0
  0
SEQEND
  5
120
330
11D
100
AcDbEntity
  8
DIBUJOS
 62
     7
  0
POLYLINE
  5
121
330
52
100
AcDbEntity
  8
DIBUJOS
 62
     7
100
AcDb2dPolyline
 66
     1
 10
0.0
 20
0.0
 30
0.0
  0
VERTEX
  5
122
330
121
100
AcDbEntity
  8
DIBUJOS
 62
     7
100
AcDbVertex
100
AcDb2dVertex
 10
66.94054698485246
 20
43.14491199133808
 30
0.0
  0
VERTEX
  5
123
330
121
100
AcDbEntity
  8
DIBUJOS
 62
     7
100
AcDbVertex
100
AcDb2dVertex
 10
66.93492742916145
 20
43.14491199133808
 30
0.0
  0
SEQEND
  5
124
330
121
100
AcDbEntity
  8
DIBUJOS
 62
     7
  0
POLYLINE
  5
125
330
52
100
AcDbEntity
  8
DIBUJOS
 62
     7
100
AcDb2dPolyline
 66
     1
 10
0.0
 20
0.0
 30
0.0
  0
VERTEX
  5
126
330
125
100
AcDbEntity
  8
DIBUJOS
 62
     7
100
AcDbVertex
100
AcDb2dVertex
 10
66.94054698485246
 20
43.14491199133808
 30
0.0
  0
VERTEX
  5
127
330
125
100
AcDbEntity
  8
DIBUJOS
 62
     7
100
AcDbVertex
100
AcDb2dVertex
 10
66.94054698485246
 20
43.15054142338725
 30
0.0
  0
SEQEND
  5
128
330
125
100
AcDbEntity
  8
DIBUJOS
 62
     7
  0
POLYLINE
  5
129
330
52
100
AcDbEntity
  8
DIBUJOS
 62
     7
100
AcDb2dPolyline
 66
     1
 10
0.0
 20
0.0
 30
0.0
  0
VERTEX
  5
12A
330
129
100
AcDbEntity
  8
DIBUJOS
 62
     7
100
AcDbVertex
100
AcDb2dVertex
 10
62.29389048305301
 20
43.13928558912419
 30
0.0
  0
VERTEX
  5
12B
330
129
100
AcDbEntity
  8
DIBUJOS
 62
     7
100
AcDbVertex
100
AcDb2dVertex
 10
62.29389048305301
 20
43.14491199133808
 30
0.0
  0
SEQEND
  5
12C
330
129
100
AcDbEntity
  8
DIBUJOS
 62
     7
  0
POLYLINE
  5
12D
330
52
100
AcDbEntity
  8
DIBUJOS
 62
     7
100
AcDb2dPolyline
 66
     1
 10
0.0
 20
0.0
 30
0.0
  0
VERTEX
  5
12E
330
12D
100
AcDbEntity
  8
DIBUJOS
 62
     7
100
AcDbVertex
100
AcDb2dVertex
 10
66.94054698485246
 20
43.13928558912419
 30
0.0
  0
VERTEX
  5
12F
330
12D
100
AcDbEntity
  8
DIBUJOS
 62
     7
100
AcDbVertex
100
AcDb2dVertex
 10
66.94054698485246
 20
43.14491199133808
 30
0.0
  0
SEQEND
  5
130
330
12D
100
AcDbEntity
  8
DIBUJOS
 62
     7
  0
POLYLINE
  5
131
330
52
100
AcDbEntity
  8
DIBUJOS
 62
     7
100
AcDb2dPolyline
 66
     1
 10
0.0
 20
0.0
 30
0.0
  0
VERTEX
  5
132
330
131
100
AcDbEntity
  8
DIBUJOS
 62
     7
100
AcDbVertex
100
AcDb2dVertex
 10
62.74338613054638
 20
42.97605629838707
 30
0.0
  0
VERTEX
  5
133
330
131
100
AcDbEntity
  8
DIBUJOS
 62
     7
100
AcDbVertex
100
AcDb2dVertex
 10
62.42300416060931
 20
43.14222452835305
 30
0.0
  0
VERTEX
  5
134
330
131
100
AcDbEntity
  8
DIBUJOS
 62
     7
100
AcDbVertex
100
AcDb2dVertex
 10
62.29950928261464
 20
43.14491199133808
 30
0.0
  0
SEQEND
  5
135
330
131
100
AcDbEntity
  8
DIBUJOS
 62
     7
  0
POLYLINE
  5
136
330
52
100
AcDbEntity
  8
DIBUJOS
 62
     7
100
AcDb2dPolyline
 66
     1
 10
0.0
 20
0.0
 30
0.0
  0
VERTEX
  5
137
330
136
100
AcDbEntity
  8
DIBUJOS
 62
     7
100
AcDbVertex
100
AcDb2dVertex
 10
62.74900417397799
 20
42.97605629838707
 30
0.0
  0
VERTEX
  5
138
330
136
100
AcDbEntity
  8
DIBUJOS
 62
     7
100
AcDbVertex
100
AcDb2dVertex
 10
62.74338613054638
 20
42.97605629838707
 30
0.0
  0
SEQEND
  5
139
330
136
100
AcDbEntity
  8
DIBUJOS
 62
     7
  0
POLYLINE
  5
13A
330
52
100
AcDbEntity
  8
DIBUJOS
 62
     7
100
AcDb2dPolyline
 66
     1
 10
0.0
 20
0.0
 30
0.0
  0
VERTEX
  5
13B
330
13A
100
AcDbEntity
  8
DIBUJOS
 62
     7
100
AcDbVertex
100
AcDb2dVertex
 10
62.74900417397799
 20
42.97605629838707
 30
0.0
  0
VERTEX
  5
13C
330
13A
100
AcDbEntity
  8
DIBUJOS
 62
     7
100
AcDbVertex
100
AcDb2dVertex
 10
64.31661825032
 20
48.26690436887856
 30
0.0
  0
SEQEND
  5
13D
330
13A
100
AcDbEntity
  8
DIBUJOS
 62
     7
  0
POLYLINE
  5
13E
330
52
100
AcDbEntity
  8
DIBUJOS
 62
     7
100
AcDb2dPolyline
 66
     1
 10
0.0
 20
0.0
 30
0.0
  0
VERTEX
  5
13F
330
13E
100
AcDbEntity
  8
DIBUJOS
 62
     7
100
AcDbVertex
100
AcDb2dVertex
 10
66.48543253779746
 20
42.97605629838707
 30
0.0
  0
VERTEX
  5
140
330
13E
100
AcDbEntity
  8
DIBUJOS
 62
     7
100
AcDbVertex
100
AcDb2dVertex
 10
64.91781846145577
 20
48.26690436887856
 30
0.0
  0
SEQEND
  5
141
330
13E
100
AcDbEntity
  8
DIBUJOS
 62
     7
  0
POLYLINE
  5
142
330
52
100
AcDbEntity
  8
DIBUJOS
 62
     7
100
AcDb2dPolyline
 66
     1
 10
0.0
 20
0.0
 30
0.0
  0
VERTEX
  5
143
330
142
100
AcDbEntity
  8
DIBUJOS
 62
     7
100
AcDbVertex
100
AcDb2dVertex
 10
66.49105058122939
 20
42.97605629838707
 30
0.0
  0
VERTEX
  5
144
330
142
100
AcDbEntity
  8
DIBUJOS
 62
     7
100
AcDbVertex
100
AcDb2dVertex
 10
66.48543253779746
 20
42.97605629838707
 30
0.0
  0
SEQEND
  5
145
330
142
100
AcDbEntity
  8
DIBUJOS
 62
     7
  0
POLYLINE
  5
146
330
52
100
AcDbEntity
  8
DIBUJOS
 62
     7
100
AcDb2dPolyline
 66
     1
 10
0.0
 20
0.0
 30
0.0
  0
VERTEX
  5
147
330
146
100
AcDbEntity
  8
DIBUJOS
 62
     7
100
AcDbVertex
100
AcDb2dVertex
 10
66.49105058122939
 20
42.97605629838707
 30
0.0
  0
VERTEX
  5
148
330
146
100
AcDbEntity
  8
DIBUJOS
 62
     7
100
AcDbVertex
100
AcDb2dVertex
 10
66.81143330729616
 20
43.14222452835305
 30
0.0
  0
VERTEX
  5
149
330
146
100
AcDbEntity
  8
DIBUJOS
 62
     7
100
AcDbVertex
100
AcDb2dVertex
 10
66.93492742916145
 20
43.14491199133808
 30
0.0
  0
SEQEND
  5
14A
330
146
100
AcDbEntity
  8
DIBUJOS
 62
     7
  0
POLYLINE
  5
14B
330
52
100
AcDbEntity
  8
DIBUJOS
 62
     7
100
AcDb2dPolyline
 66
     1
 10
0.0
 20
0.0
 30
0.0
  0
VERTEX
  5
14C
330
14B
100
AcDbEntity
  8
DIBUJOS
 62
     7
100
AcDbVertex
100
AcDb2dVertex
 10
62.74900417397799
 20
42.97042686633855
 30
0.0
  0
VERTEX
  5
14D
330
14B
100
AcDbEntity
  8
DIBUJOS
 62
     7
100
AcDbVertex
100
AcDb2dVertex
 10
62.74900417397799
 20
42.97605629838707
 30
0.0
  0
SEQEND
  5
14E
330
14B
100
AcDbEntity
  8
DIBUJOS
 62
     7
  0
POLYLINE
  5
14F
330
52
100
AcDbEntity
  8
DIBUJOS
 62
     7
100
AcDb2dPolyline
 66
     1
 10
0.0
 20
0.0
 30
0.0
  0
VERTEX
  5
150
330
14F
100
AcDbEntity
  8
DIBUJOS
 62
     7
100
AcDbVertex
100
AcDb2dVertex
 10
66.48543253779746
 20
42.97042686633855
 30
0.0
  0
VERTEX
  5
151
330
14F
100
AcDbEntity
  8
DIBUJOS
 62
     7
100
AcDbVertex
100
AcDb2dVertex
 10
66.48543253779746
 20
42.97605629838707
 30
0.0
  0
SEQEND
  5
152
330
14F
100
AcDbEntity
  8
DIBUJOS
 62
     7
  0
POLYLINE
  5
153
330
52
100
AcDbEntity
  8
DIBUJOS
 62
     7
100
AcDb2dPolyline
 66
     1
 10
0.0
 20
0.0
 30
0.0
  0
VERTEX
  5
154
330
153
100
AcDbEntity
  8
DIBUJOS
 62
     7
100
AcDbVertex
100
AcDb2dVertex
 10
62.29389048305301
 20
43.13928558912419
 30
0.0
  0
VERTEX
  5
155
330
153
100
AcDbEntity
  8
DIBUJOS
 62
     7
100
AcDbVertex
100
AcDb2dVertex
 10
62.28555944637282
 20
43.12686326867242
 30
0.0
  0
VERTEX
  5
156
330
153
100
AcDbEntity
  8
DIBUJOS
 62
     7
100
AcDbVertex
100
AcDb2dVertex
 10
62.25654297037038
 20
43.02058880228986
 30
0.0
  0
VERTEX
  5
157
330
153
100
AcDbEntity
  8
DIBUJOS
 62
     7
100
AcDbVertex
100
AcDb2dVertex
 10
62.21522880145115
 20
42.8634858364193
 30
0.0
  0
VERTEX
  5
158
330
153
100
AcDbEntity
  8
DIBUJOS
 62
     7
100
AcDbVertex
100
AcDb2dVertex
 10
62.22084760101247
 20
42.85785640437078
 30
0.0
  0
VERTEX
  5
159
330
153
100
AcDbEntity
  8
DIBUJOS
 62
     7
100
AcDbVertex
100
AcDb2dVertex
 10
62.71529288886823
 20
42.85785640437078
 30
0.0
  0
VERTEX
  5
15A
330
153
100
AcDbEntity
  8
DIBUJOS
 62
     7
100
AcDbVertex
100
AcDb2dVertex
 10
62.72652897573241
 20
42.86911223863383
 30
0.0
  0
VERTEX
  5
15B
330
153
100
AcDbEntity
  8
DIBUJOS
 62
     7
100
AcDbVertex
100
AcDb2dVertex
 10
62.74140204629789
 20
42.93152379448428
 30
0.0
  0
VERTEX
  5
15C
330
153
100
AcDbEntity
  8
DIBUJOS
 62
     7
100
AcDbVertex
100
AcDb2dVertex
 10
62.74900417397799
 20
42.97042686633855
 30
0.0
  0
SEQEND
  5
15D
330
153
100
AcDbEntity
  8
DIBUJOS
 62
     7
  0
POLYLINE
  5
15E
330
52
100
AcDbEntity
  8
DIBUJOS
 62
     7
100
AcDb2dPolyline
 66
     1
 10
0.0
 20
0.0
 30
0.0
  0
VERTEX
  5
15F
330
15E
100
AcDbEntity
  8
DIBUJOS
 62
     7
100
AcDbVertex
100
AcDb2dVertex
 10
66.48543253779746
 20
42.97042686633855
 30
0.0
  0
VERTEX
  5
160
330
15E
100
AcDbEntity
  8
DIBUJOS
 62
     7
100
AcDbVertex
100
AcDb2dVertex
 10
66.48741510978654
 20
42.9540384928447
 30
0.0
  0
VERTEX
  5
161
330
15E
100
AcDbEntity
  8
DIBUJOS
 62
     7
100
AcDbVertex
100
AcDb2dVertex
 10
66.5191453351663
 20
42.85785640437078
 30
0.0
  0
VERTEX
  5
162
330
15E
100
AcDbEntity
  8
DIBUJOS
 62
     7
100
AcDbVertex
100
AcDb2dVertex
 10
67.01358911076298
 20
42.85785640437078
 30
0.0
  0
VERTEX
  5
163
330
15E
100
AcDbEntity
  8
DIBUJOS
 62
     7
100
AcDbVertex
100
AcDb2dVertex
 10
67.01920866645432
 20
42.8634858364193
 30
0.0
  0
VERTEX
  5
164
330
15E
100
AcDbEntity
  8
DIBUJOS
 62
     7
100
AcDbVertex
100
AcDb2dVertex
 10
66.98747844107423
 20
42.98780902546817
 30
0.0
  0
VERTEX
  5
165
330
15E
100
AcDbEntity
  8
DIBUJOS
 62
     7
100
AcDbVertex
100
AcDb2dVertex
 10
66.94887802153265
 20
43.12686326867242
 30
0.0
  0
VERTEX
  5
166
330
15E
100
AcDbEntity
  8
DIBUJOS
 62
     7
100
AcDbVertex
100
AcDb2dVertex
 10
66.94054698485246
 20
43.13928558912419
 30
0.0
  0
SEQEND
  5
167
330
15E
100
AcDbEntity
  8
DIBUJOS
 62
     7
  0
ENDBLK
  5
55
330
52
100
AcDbEntity
  8
0
100
AcDbBlockEnd
  0
BLOCK
  5
16A
330
168
100
AcDbEntity
  8
0
100
AcDbBlockBegin
  2
BLOCK_3
 70
     0
 10
0.0
 20
0.0
 30
0.0
  3
BLOCK_3
  1

  0
POLYLINE
  5
16C
330
168
100
AcDbEntity
  8
DIBUJOS
 62
     7
100
AcDb2dPolyline
 66
     1
 10
0.0
 20
0.0
 30
0.0
  0
VERTEX
  5
16D
330
16C
100
AcDbEntity
  8
DIBUJOS
 62
     7
100
AcDbVertex
100
AcDb2dVertex
 10
80.73682803681912
 20
50.07930274379589
 30
0.0
  0
VERTEX
  5
16E
330
16C
100
AcDbEntity
  8
DIBUJOS
 62
     7
100
AcDbVertex
100
AcDb2dVertex
 10
80.7312084811278
 20
50.07930274379589
 30
0.0
  0
SEQEND
  5
16F
330
16C
100
AcDbEntity
  8
DIBUJOS
 62
     7
  0
POLYLINE
  5
170
330
168
100
AcDbEntity
  8
DIBUJOS
 62
     7
100
AcDb2dPolyline
 66
     1
 10
0.0
 20
0.0
 30
0.0
  0
VERTEX
  5
171
330
170
100
AcDbEntity
  8
DIBUJOS
 62
     7
100
AcDbVertex
100
AcDb2dVertex
 10
80.74244456799165
 20
50.07930274379589
 30
0.0
  0
VERTEX
  5
172
330
170
100
AcDbEntity
  8
DIBUJOS
 62
     7
100
AcDbVertex
100
AcDb2dVertex
 10
80.73682803681912
 20
50.07930274379589
 30
0.0
  0
SEQEND
  5
173
330
170
100
AcDbEntity
  8
DIBUJOS
 62
     7
  0
POLYLINE
  5
174
330
168
100
AcDbEntity
  8
DIBUJOS
 62
     7
100
AcDb2dPolyline
 66
     1
 10
0.0
 20
0.0
 30
0.0
  0
VERTEX
  5
175
330
174
100
AcDbEntity
  8
DIBUJOS
 62
     7
100
AcDbVertex
100
AcDb2dVertex
 10
81.51782529714447
 20
50.07930274379589
 30
0.0
  0
VERTEX
  5
176
330
174
100
AcDbEntity
  8
DIBUJOS
 62
     7
100
AcDbVertex
100
AcDb2dVertex
 10
80.74244456799165
 20
50.07930274379589
 30
0.0
  0
SEQEND
  5
177
330
174
100
AcDbEntity
  8
DIBUJOS
 62
     7
  0
POLYLINE
  5
178
330
168
100
AcDbEntity
  8
DIBUJOS
 62
     7
100
AcDb2dPolyline
 66
     1
 10
0.0
 20
0.0
 30
0.0
  0
VERTEX
  5
179
330
178
100
AcDbEntity
  8
DIBUJOS
 62
     7
100
AcDbVertex
100
AcDb2dVertex
 10
81.52344182831699
 20
50.07930274379589
 30
0.0
  0
VERTEX
  5
17A
330
178
100
AcDbEntity
  8
DIBUJOS
 62
     7
100
AcDbVertex
100
AcDb2dVertex
 10
81.51782529714447
 20
50.07930274379589
 30
0.0
  0
SEQEND
  5
17B
330
178
100
AcDbEntity
  8
DIBUJOS
 62
     7
  0
POLYLINE
  5
17C
330
168
100
AcDbEntity
  8
DIBUJOS
 62
     7
100
AcDb2dPolyline
 66
     1
 10
0.0
 20
0.0
 30
0.0
  0
VERTEX
  5
17D
330
17C
100
AcDbEntity
  8
DIBUJOS
 62
     7
100
AcDbVertex
100
AcDb2dVertex
 10
81.52906138400833
 20
50.07930274379589
 30
0.0
  0
VERTEX
  5
17E
330
17C
100
AcDbEntity
  8
DIBUJOS
 62
     7
100
AcDbVertex
100
AcDb2dVertex
 10
81.52344182831699
 20
50.07930274379589
 30
0.0
  0
SEQEND
  5
17F
330
17C
100
AcDbEntity
  8
DIBUJOS
 62
     7
  0
POLYLINE
  5
180
330
168
100
AcDbEntity
  8
DIBUJOS
 62
     7
100
AcDb2dPolyline
 66
     1
 10
0.0
 20
0.0
 30
0.0
  0
VERTEX
  5
181
330
180
100
AcDbEntity
  8
DIBUJOS
 62
     7
100
AcDbVertex
100
AcDb2dVertex
 10
81.52906138400833
 20
50.07930274379589
 30
0.0
  0
VERTEX
  5
182
330
180
100
AcDbEntity
  8
DIBUJOS
 62
     7
100
AcDbVertex
100
AcDb2dVertex
 10
84.63057825158195
 20
50.08493217584441
 30
0.0
  0
VERTEX
  5
183
330
180
100
AcDbEntity
  8
DIBUJOS
 62
     7
100
AcDbVertex
100
AcDb2dVertex
 10
84.64181433844583
 20
50.09618801010779
 30
0.0
  0
VERTEX
  5
184
330
180
100
AcDbEntity
  8
DIBUJOS
 62
     7
100
AcDbVertex
100
AcDb2dVertex
 10
84.64181433844583
 20
50.29318783346806
 30
0.0
  0
VERTEX
  5
185
330
180
100
AcDbEntity
  8
DIBUJOS
 62
     7
100
AcDbVertex
100
AcDb2dVertex
 10
84.63057825158195
 20
50.30444669756542
 30
0.0
  0
VERTEX
  5
186
330
180
100
AcDbEntity
  8
DIBUJOS
 62
     7
100
AcDbVertex
100
AcDb2dVertex
 10
77.62969161355353
 20
50.30444669756542
 30
0.0
  0
VERTEX
  5
187
330
180
100
AcDbEntity
  8
DIBUJOS
 62
     7
100
AcDbVertex
100
AcDb2dVertex
 10
77.6240720578622
 20
50.2988172655169
 30
0.0
  0
VERTEX
  5
188
330
180
100
AcDbEntity
  8
DIBUJOS
 62
     7
100
AcDbVertex
100
AcDb2dVertex
 10
77.6240720578622
 20
50.09056160789326
 30
0.0
  0
VERTEX
  5
189
330
180
100
AcDbEntity
  8
DIBUJOS
 62
     7
100
AcDbVertex
100
AcDb2dVertex
 10
77.62969161355353
 20
50.08493217584441
 30
0.0
  0
VERTEX
  5
18A
330
180
100
AcDbEntity
  8
DIBUJOS
 62
     7
100
AcDbVertex
100
AcDb2dVertex
 10
80.7312084811278
 20
50.07930274379589
 30
0.0
  0
SEQEND
  5
18B
330
180
100
AcDbEntity
  8
DIBUJOS
 62
     7
  0
POLYLINE
  5
18C
330
168
100
AcDbEntity
  8
DIBUJOS
 62
     7
100
AcDb2dPolyline
 66
     1
 10
0.0
 20
0.0
 30
0.0
  0
VERTEX
  5
18D
330
18C
100
AcDbEntity
  8
DIBUJOS
 62
     7
100
AcDbVertex
100
AcDb2dVertex
 10
80.73682803681912
 20
50.07367331174737
 30
0.0
  0
VERTEX
  5
18E
330
18C
100
AcDbEntity
  8
DIBUJOS
 62
     7
100
AcDbVertex
100
AcDb2dVertex
 10
80.73682803681912
 20
50.07930274379589
 30
0.0
  0
SEQEND
  5
18F
330
18C
100
AcDbEntity
  8
DIBUJOS
 62
     7
  0
POLYLINE
  5
190
330
168
100
AcDbEntity
  8
DIBUJOS
 62
     7
100
AcDb2dPolyline
 66
     1
 10
0.0
 20
0.0
 30
0.0
  0
VERTEX
  5
191
330
190
100
AcDbEntity
  8
DIBUJOS
 62
     7
100
AcDbVertex
100
AcDb2dVertex
 10
81.52344182831699
 20
50.07367331174737
 30
0.0
  0
VERTEX
  5
192
330
190
100
AcDbEntity
  8
DIBUJOS
 62
     7
100
AcDbVertex
100
AcDb2dVertex
 10
81.52344182831699
 20
50.07930274379589
 30
0.0
  0
SEQEND
  5
193
330
190
100
AcDbEntity
  8
DIBUJOS
 62
     7
  0
POLYLINE
  5
194
330
168
100
AcDbEntity
  8
DIBUJOS
 62
     7
100
AcDb2dPolyline
 66
     1
 10
0.0
 20
0.0
 30
0.0
  0
VERTEX
  5
195
330
194
100
AcDbEntity
  8
DIBUJOS
 62
     7
100
AcDbVertex
100
AcDb2dVertex
 10
81.34926282255871
 20
50.01176167854896
 30
0.0
  0
VERTEX
  5
196
330
194
100
AcDbEntity
  8
DIBUJOS
 62
     7
100
AcDbVertex
100
AcDb2dVertex
 10
81.36611846511327
 20
50.01738808076349
 30
0.0
  0
SEQEND
  5
197
330
194
100
AcDbEntity
  8
DIBUJOS
 62
     7
  0
POLYLINE
  5
198
330
168
100
AcDbEntity
  8
DIBUJOS
 62
     7
100
AcDb2dPolyline
 66
     1
 10
0.0
 20
0.0
 30
0.0
  0
VERTEX
  5
199
330
198
100
AcDbEntity
  8
DIBUJOS
 62
     7
100
AcDbVertex
100
AcDb2dVertex
 10
81.34364629138618
 20
50.00613224650044
 30
0.0
  0
VERTEX
  5
19A
330
198
100
AcDbEntity
  8
DIBUJOS
 62
     7
100
AcDbVertex
100
AcDb2dVertex
 10
81.34926282255871
 20
50.01176167854896
 30
0.0
  0
SEQEND
  5
19B
330
198
100
AcDbEntity
  8
DIBUJOS
 62
     7
  0
POLYLINE
  5
19C
330
168
100
AcDbEntity
  8
DIBUJOS
 62
     7
100
AcDb2dPolyline
 66
     1
 10
0.0
 20
0.0
 30
0.0
  0
VERTEX
  5
19D
330
19C
100
AcDbEntity
  8
DIBUJOS
 62
     7
100
AcDbVertex
100
AcDb2dVertex
 10
80.73682803681912
 20
49.91607345305877
 30
0.0
  0
VERTEX
  5
19E
330
19C
100
AcDbEntity
  8
DIBUJOS
 62
     7
100
AcDbVertex
100
AcDb2dVertex
 10
80.7312084811278
 20
49.92170288510729
 30
0.0
  0
VERTEX
  5
19F
330
19C
100
AcDbEntity
  8
DIBUJOS
 62
     7
100
AcDbVertex
100
AcDb2dVertex
 10
80.7312084811278
 20
50.062417477484
 30
0.0
  0
VERTEX
  5
1A0
330
19C
100
AcDbEntity
  8
DIBUJOS
 62
     7
100
AcDbVertex
100
AcDb2dVertex
 10
80.73682803681912
 20
50.07367331174737
 30
0.0
  0
SEQEND
  5
1A1
330
19C
100
AcDbEntity
  8
DIBUJOS
 62
     7
  0
POLYLINE
  5
1A2
330
168
100
AcDbEntity
  8
DIBUJOS
 62
     7
100
AcDb2dPolyline
 66
     1
 10
0.0
 20
0.0
 30
0.0
  0
VERTEX
  5
1A3
330
1A2
100
AcDbEntity
  8
DIBUJOS
 62
     7
100
AcDbVertex
100
AcDb2dVertex
 10
80.73682803681912
 20
49.91044705084424
 30
0.0
  0
VERTEX
  5
1A4
330
1A2
100
AcDbEntity
  8
DIBUJOS
 62
     7
100
AcDbVertex
100
AcDb2dVertex
 10
80.73682803681912
 20
49.91607345305877
 30
0.0
  0
SEQEND
  5
1A5
330
1A2
100
AcDbEntity
  8
DIBUJOS
 62
     7
  0
POLYLINE
  5
1A6
330
168
100
AcDbEntity
  8
DIBUJOS
 62
     7
100
AcDb2dPolyline
 66
     1
 10
0.0
 20
0.0
 30
0.0
  0
VERTEX
  5
1A7
330
1A6
100
AcDbEntity
  8
DIBUJOS
 62
     7
100
AcDbVertex
100
AcDb2dVertex
 10
80.74244456799165
 20
49.91044705084424
 30
0.0
  0
VERTEX
  5
1A8
330
1A6
100
AcDbEntity
  8
DIBUJOS
 62
     7
100
AcDbVertex
100
AcDb2dVertex
 10
80.73682803681912
 20
49.91044705084424
 30
0.0
  0
SEQEND
  5
1A9
330
1A6
100
AcDbEntity
  8
DIBUJOS
 62
     7
  0
POLYLINE
  5
1AA
330
168
100
AcDbEntity
  8
DIBUJOS
 62
     7
100
AcDb2dPolyline
 66
     1
 10
0.0
 20
0.0
 30
0.0
  0
VERTEX
  5
1AB
330
1AA
100
AcDbEntity
  8
DIBUJOS
 62
     7
100
AcDbVertex
100
AcDb2dVertex
 10
80.74244456799165
 20
49.91044705084424
 30
0.0
  0
VERTEX
  5
1AC
330
1AA
100
AcDbEntity
  8
DIBUJOS
 62
     7
100
AcDbVertex
100
AcDb2dVertex
 10
80.74806412368235
 20
49.91607345305877
 30
0.0
  0
SEQEND
  5
1AD
330
1AA
100
AcDbEntity
  8
DIBUJOS
 62
     7
  0
POLYLINE
  5
1AE
330
168
100
AcDbEntity
  8
DIBUJOS
 62
     7
100
AcDb2dPolyline
 66
     1
 10
0.0
 20
0.0
 30
0.0
  0
VERTEX
  5
1AF
330
1AE
100
AcDbEntity
  8
DIBUJOS
 62
     7
100
AcDbVertex
100
AcDb2dVertex
 10
80.73682803681912
 20
49.90481761879572
 30
0.0
  0
VERTEX
  5
1B0
330
1AE
100
AcDbEntity
  8
DIBUJOS
 62
     7
100
AcDbVertex
100
AcDb2dVertex
 10
80.73682803681912
 20
49.91044705084424
 30
0.0
  0
SEQEND
  5
1B1
330
1AE
100
AcDbEntity
  8
DIBUJOS
 62
     7
  0
POLYLINE
  5
1B2
330
168
100
AcDbEntity
  8
DIBUJOS
 62
     7
100
AcDb2dPolyline
 66
     1
 10
0.0
 20
0.0
 30
0.0
  0
VERTEX
  5
1B3
330
1B2
100
AcDbEntity
  8
DIBUJOS
 62
     7
100
AcDbVertex
100
AcDb2dVertex
 10
81.52344182831699
 20
49.88793235248382
 30
0.0
  0
VERTEX
  5
1B4
330
1B2
100
AcDbEntity
  8
DIBUJOS
 62
     7
100
AcDbVertex
100
AcDb2dVertex
 10
81.52906138400833
 20
49.89356178453266
 30
0.0
  0
VERTEX
  5
1B5
330
1B2
100
AcDbEntity
  8
DIBUJOS
 62
     7
100
AcDbVertex
100
AcDb2dVertex
 10
81.52906138400833
 20
50.062417477484
 30
0.0
  0
VERTEX
  5
1B6
330
1B2
100
AcDbEntity
  8
DIBUJOS
 62
     7
100
AcDbVertex
100
AcDb2dVertex
 10
81.52344182831699
 20
50.07367331174737
 30
0.0
  0
SEQEND
  5
1B7
330
1B2
100
AcDbEntity
  8
DIBUJOS
 62
     7
  0
POLYLINE
  5
1B8
330
168
100
AcDbEntity
  8
DIBUJOS
 62
     7
100
AcDb2dPolyline
 66
     1
 10
0.0
 20
0.0
 30
0.0
  0
VERTEX
  5
1B9
330
1B8
100
AcDbEntity
  8
DIBUJOS
 62
     7
100
AcDbVertex
100
AcDb2dVertex
 10
81.51782529714447
 20
49.8823029204353
 30
0.0
  0
VERTEX
  5
1BA
330
1B8
100
AcDbEntity
  8
DIBUJOS
 62
     7
100
AcDbVertex
100
AcDb2dVertex
 10
81.49141520010711
 20
49.96166639895125
 30
0.0
  0
VERTEX
  5
1BB
330
1B8
100
AcDbEntity
  8
DIBUJOS
 62
     7
100
AcDbVertex
100
AcDb2dVertex
 10
81.47849445634337
 20
50.00613224650044
 30
0.0
  0
VERTEX
  5
1BC
330
1B8
100
AcDbEntity
  8
DIBUJOS
 62
     7
100
AcDbVertex
100
AcDb2dVertex
 10
81.46725534496134
 20
50.01738808076349
 30
0.0
  0
VERTEX
  5
1BD
330
1B8
100
AcDbEntity
  8
DIBUJOS
 62
     7
100
AcDbVertex
100
AcDb2dVertex
 10
81.39940026857153
 20
50.01522477910403
 30
0.0
  0
VERTEX
  5
1BE
330
1B8
100
AcDbEntity
  8
DIBUJOS
 62
     7
100
AcDbVertex
100
AcDb2dVertex
 10
81.3773575764953
 20
50.01738808076349
 30
0.0
  0
SEQEND
  5
1BF
330
1B8
100
AcDbEntity
  8
DIBUJOS
 62
     7
  0
POLYLINE
  5
1C0
330
168
100
AcDbEntity
  8
DIBUJOS
 62
     7
100
AcDb2dPolyline
 66
     1
 10
0.0
 20
0.0
 30
0.0
  0
VERTEX
  5
1C1
330
1C0
100
AcDbEntity
  8
DIBUJOS
 62
     7
100
AcDbVertex
100
AcDb2dVertex
 10
81.52344182831699
 20
49.8823029204353
 30
0.0
  0
VERTEX
  5
1C2
330
1C0
100
AcDbEntity
  8
DIBUJOS
 62
     7
100
AcDbVertex
100
AcDb2dVertex
 10
81.51782529714447
 20
49.8823029204353
 30
0.0
  0
SEQEND
  5
1C3
330
1C0
100
AcDbEntity
  8
DIBUJOS
 62
     7
  0
POLYLINE
  5
1C4
330
168
100
AcDbEntity
  8
DIBUJOS
 62
     7
100
AcDb2dPolyline
 66
     1
 10
0.0
 20
0.0
 30
0.0
  0
VERTEX
  5
1C5
330
1C4
100
AcDbEntity
  8
DIBUJOS
 62
     7
100
AcDbVertex
100
AcDb2dVertex
 10
81.52344182831699
 20
49.8823029204353
 30
0.0
  0
VERTEX
  5
1C6
330
1C4
100
AcDbEntity
  8
DIBUJOS
 62
     7
100
AcDbVertex
100
AcDb2dVertex
 10
81.52344182831699
 20
49.88793235248382
 30
0.0
  0
SEQEND
  5
1C7
330
1C4
100
AcDbEntity
  8
DIBUJOS
 62
     7
  0
POLYLINE
  5
1C8
330
168
100
AcDbEntity
  8
DIBUJOS
 62
     7
100
AcDb2dPolyline
 66
     1
 10
0.0
 20
0.0
 30
0.0
  0
VERTEX
  5
1C9
330
1C8
100
AcDbEntity
  8
DIBUJOS
 62
     7
100
AcDbVertex
100
AcDb2dVertex
 10
81.52344182831699
 20
49.87667651822077
 30
0.0
  0
VERTEX
  5
1CA
330
1C8
100
AcDbEntity
  8
DIBUJOS
 62
     7
100
AcDbVertex
100
AcDb2dVertex
 10
81.52344182831699
 20
49.8823029204353
 30
0.0
  0
SEQEND
  5
1CB
330
1C8
100
AcDbEntity
  8
DIBUJOS
 62
     7
  0
POLYLINE
  5
1CC
330
168
100
AcDbEntity
  8
DIBUJOS
 62
     7
100
AcDb2dPolyline
 66
     1
 10
0.0
 20
0.0
 30
0.0
  0
VERTEX
  5
1CD
330
1CC
100
AcDbEntity
  8
DIBUJOS
 62
     7
100
AcDbVertex
100
AcDb2dVertex
 10
80.82672580528389
 20
48.27816323297593
 30
0.0
  0
VERTEX
  5
1CE
330
1CC
100
AcDbEntity
  8
DIBUJOS
 62
     7
100
AcDbVertex
100
AcDb2dVertex
 10
80.87365726150567
 20
48.44089563089469
 30
0.0
  0
VERTEX
  5
1CF
330
1CC
100
AcDbEntity
  8
DIBUJOS
 62
     7
100
AcDbVertex
100
AcDb2dVertex
 10
80.9110070425774
 20
48.55959241772934
 30
0.0
  0
VERTEX
  5
1D0
330
1CC
100
AcDbEntity
  8
DIBUJOS
 62
     7
100
AcDbVertex
100
AcDb2dVertex
 10
80.9110070425774
 20
50.00613224650044
 30
0.0
  0
VERTEX
  5
1D1
330
1CC
100
AcDbEntity
  8
DIBUJOS
 62
     7
100
AcDbVertex
100
AcDb2dVertex
 10
80.89976793119473
 20
50.01738808076349
 30
0.0
  0
VERTEX
  5
1D2
330
1CC
100
AcDbEntity
  8
DIBUJOS
 62
     7
100
AcDbVertex
100
AcDb2dVertex
 10
80.79863105134666
 20
50.01457336473859
 30
0.0
  0
VERTEX
  5
1D3
330
1CC
100
AcDbEntity
  8
DIBUJOS
 62
     7
100
AcDbVertex
100
AcDb2dVertex
 10
80.7817754087921
 20
50.01738808076349
 30
0.0
  0
VERTEX
  5
1D4
330
1CC
100
AcDbEntity
  8
DIBUJOS
 62
     7
100
AcDbVertex
100
AcDb2dVertex
 10
80.7669038504857
 20
49.98312065532166
 30
0.0
  0
VERTEX
  5
1D5
330
1CC
100
AcDbEntity
  8
DIBUJOS
 62
     7
100
AcDbVertex
100
AcDb2dVertex
 10
80.74806412368235
 20
49.91607345305877
 30
0.0
  0
SEQEND
  5
1D6
330
1CC
100
AcDbEntity
  8
DIBUJOS
 62
     7
  0
POLYLINE
  5
1D7
330
168
100
AcDbEntity
  8
DIBUJOS
 62
     7
100
AcDb2dPolyline
 66
     1
 10
0.0
 20
0.0
 30
0.0
  0
VERTEX
  5
1D8
330
1D7
100
AcDbEntity
  8
DIBUJOS
 62
     7
100
AcDbVertex
100
AcDb2dVertex
 10
81.42792450416026
 20
48.27816323297593
 30
0.0
  0
VERTEX
  5
1D9
330
1D7
100
AcDbEntity
  8
DIBUJOS
 62
     7
100
AcDbVertex
100
AcDb2dVertex
 10
81.42680240773328
 20
48.28322911585312
 30
0.0
  0
VERTEX
  5
1DA
330
1D7
100
AcDbEntity
  8
DIBUJOS
 62
     7
100
AcDbVertex
100
AcDb2dVertex
 10
81.34644397115666
 20
48.55397207518408
 30
0.0
  0
VERTEX
  5
1DB
330
1D7
100
AcDbEntity
  8
DIBUJOS
 62
     7
100
AcDbVertex
100
AcDb2dVertex
 10
81.34364629138618
 20
50.00613224650044
 30
0.0
  0
SEQEND
  5
1DC
330
1D7
100
AcDbEntity
  8
DIBUJOS
 62
     7
  0
POLYLINE
  5
1DD
330
168
100
AcDbEntity
  8
DIBUJOS
 62
     7
100
AcDb2dPolyline
 66
     1
 10
0.0
 20
0.0
 30
0.0
  0
VERTEX
  5
1DE
330
1DD
100
AcDbEntity
  8
DIBUJOS
 62
     7
100
AcDbVertex
100
AcDb2dVertex
 10
80.82672580528389
 20
48.27253380092773
 30
0.0
  0
VERTEX
  5
1DF
330
1DD
100
AcDbEntity
  8
DIBUJOS
 62
     7
100
AcDbVertex
100
AcDb2dVertex
 10
80.82672580528389
 20
48.27816323297593
 30
0.0
  0
SEQEND
  5
1E0
330
1DD
100
AcDbEntity
  8
DIBUJOS
 62
     7
  0
POLYLINE
  5
1E1
330
168
100
AcDbEntity
  8
DIBUJOS
 62
     7
100
AcDb2dPolyline
 66
     1
 10
0.0
 20
0.0
 30
0.0
  0
VERTEX
  5
1E2
330
1E1
100
AcDbEntity
  8
DIBUJOS
 62
     7
100
AcDbVertex
100
AcDb2dVertex
 10
80.83234536097522
 20
48.27253380092773
 30
0.0
  0
VERTEX
  5
1E3
330
1E1
100
AcDbEntity
  8
DIBUJOS
 62
     7
100
AcDbVertex
100
AcDb2dVertex
 10
80.82672580528389
 20
48.27253380092773
 30
0.0
  0
SEQEND
  5
1E4
330
1E1
100
AcDbEntity
  8
DIBUJOS
 62
     7
  0
POLYLINE
  5
1E5
330
168
100
AcDbEntity
  8
DIBUJOS
 62
     7
100
AcDb2dPolyline
 66
     1
 10
0.0
 20
0.0
 30
0.0
  0
VERTEX
  5
1E6
330
1E5
100
AcDbEntity
  8
DIBUJOS
 62
     7
100
AcDbVertex
100
AcDb2dVertex
 10
81.42230797298772
 20
48.27253380092773
 30
0.0
  0
VERTEX
  5
1E7
330
1E5
100
AcDbEntity
  8
DIBUJOS
 62
     7
100
AcDbVertex
100
AcDb2dVertex
 10
80.83234536097522
 20
48.27253380092773
 30
0.0
  0
SEQEND
  5
1E8
330
1E5
100
AcDbEntity
  8
DIBUJOS
 62
     7
  0
POLYLINE
  5
1E9
330
168
100
AcDbEntity
  8
DIBUJOS
 62
     7
100
AcDb2dPolyline
 66
     1
 10
0.0
 20
0.0
 30
0.0
  0
VERTEX
  5
1EA
330
1E9
100
AcDbEntity
  8
DIBUJOS
 62
     7
100
AcDbVertex
100
AcDb2dVertex
 10
81.42792450416026
 20
48.27253380092773
 30
0.0
  0
VERTEX
  5
1EB
330
1E9
100
AcDbEntity
  8
DIBUJOS
 62
     7
100
AcDbVertex
100
AcDb2dVertex
 10
81.42230797298772
 20
48.27253380092773
 30
0.0
  0
SEQEND
  5
1EC
330
1E9
100
AcDbEntity
  8
DIBUJOS
 62
     7
  0
POLYLINE
  5
1ED
330
168
100
AcDbEntity
  8
DIBUJOS
 62
     7
100
AcDb2dPolyline
 66
     1
 10
0.0
 20
0.0
 30
0.0
  0
VERTEX
  5
1EE
330
1ED
100
AcDbEntity
  8
DIBUJOS
 62
     7
100
AcDbVertex
100
AcDb2dVertex
 10
81.42792450416026
 20
48.27253380092773
 30
0.0
  0
VERTEX
  5
1EF
330
1ED
100
AcDbEntity
  8
DIBUJOS
 62
     7
100
AcDbVertex
100
AcDb2dVertex
 10
81.42792450416026
 20
48.27816323297593
 30
0.0
  0
SEQEND
  5
1F0
330
1ED
100
AcDbEntity
  8
DIBUJOS
 62
     7
  0
POLYLINE
  5
1F1
330
168
100
AcDbEntity
  8
DIBUJOS
 62
     7
100
AcDb2dPolyline
 66
     1
 10
0.0
 20
0.0
 30
0.0
  0
VERTEX
  5
1F2
330
1F1
100
AcDbEntity
  8
DIBUJOS
 62
     7
100
AcDbVertex
100
AcDb2dVertex
 10
80.82672580528389
 20
48.26690436887856
 30
0.0
  0
VERTEX
  5
1F3
330
1F1
100
AcDbEntity
  8
DIBUJOS
 62
     7
100
AcDbVertex
100
AcDb2dVertex
 10
80.82672580528389
 20
48.27253380092773
 30
0.0
  0
SEQEND
  5
1F4
330
1F1
100
AcDbEntity
  8
DIBUJOS
 62
     7
  0
POLYLINE
  5
1F5
330
168
100
AcDbEntity
  8
DIBUJOS
 62
     7
100
AcDb2dPolyline
 66
     1
 10
0.0
 20
0.0
 30
0.0
  0
VERTEX
  5
1F6
330
1F5
100
AcDbEntity
  8
DIBUJOS
 62
     7
100
AcDbVertex
100
AcDb2dVertex
 10
81.42792450416026
 20
48.26690436887856
 30
0.0
  0
VERTEX
  5
1F7
330
1F5
100
AcDbEntity
  8
DIBUJOS
 62
     7
100
AcDbVertex
100
AcDb2dVertex
 10
81.42792450416026
 20
48.27253380092773
 30
0.0
  0
SEQEND
  5
1F8
330
1F5
100
AcDbEntity
  8
DIBUJOS
 62
     7
  0
POLYLINE
  5
1F9
330
168
100
AcDbEntity
  8
DIBUJOS
 62
     7
100
AcDb2dPolyline
 66
     1
 10
0.0
 20
0.0
 30
0.0
  0
VERTEX
  5
1FA
330
1F9
100
AcDbEntity
  8
DIBUJOS
 62
     7
100
AcDbVertex
100
AcDb2dVertex
 10
78.8039972818872
 20
43.15054142338725
 30
0.0
  0
VERTEX
  5
1FB
330
1F9
100
AcDbEntity
  8
DIBUJOS
 62
     7
100
AcDbVertex
100
AcDb2dVertex
 10
78.80763275332973
 20
43.17355301456571
 30
0.0
  0
VERTEX
  5
1FC
330
1F9
100
AcDbEntity
  8
DIBUJOS
 62
     7
100
AcDbVertex
100
AcDb2dVertex
 10
80.73356760569163
 20
49.88196660883264
 30
0.0
  0
VERTEX
  5
1FD
330
1F9
100
AcDbEntity
  8
DIBUJOS
 62
     7
100
AcDbVertex
100
AcDb2dVertex
 10
80.73682803681912
 20
49.90481761879572
 30
0.0
  0
SEQEND
  5
1FE
330
1F9
100
AcDbEntity
  8
DIBUJOS
 62
     7
  0
POLYLINE
  5
1FF
330
168
100
AcDbEntity
  8
DIBUJOS
 62
     7
100
AcDb2dPolyline
 66
     1
 10
0.0
 20
0.0
 30
0.0
  0
VERTEX
  5
200
330
1FF
100
AcDbEntity
  8
DIBUJOS
 62
     7
100
AcDbVertex
100
AcDb2dVertex
 10
83.45065302755759
 20
43.15054142338725
 30
0.0
  0
VERTEX
  5
201
330
1FF
100
AcDbEntity
  8
DIBUJOS
 62
     7
100
AcDbVertex
100
AcDb2dVertex
 10
83.44334881496637
 20
43.18374840683907
 30
0.0
  0
VERTEX
  5
202
330
1FF
100
AcDbEntity
  8
DIBUJOS
 62
     7
100
AcDbVertex
100
AcDb2dVertex
 10
81.53142050857154
 20
49.82635703088807
 30
0.0
  0
VERTEX
  5
203
330
1FF
100
AcDbEntity
  8
DIBUJOS
 62
     7
100
AcDbVertex
100
AcDb2dVertex
 10
81.52344182831699
 20
49.87667651822077
 30
0.0
  0
SEQEND
  5
204
330
1FF
100
AcDbEntity
  8
DIBUJOS
 62
     7
  0
POLYLINE
  5
205
330
168
100
AcDbEntity
  8
DIBUJOS
 62
     7
100
AcDb2dPolyline
 66
     1
 10
0.0
 20
0.0
 30
0.0
  0
VERTEX
  5
206
330
205
100
AcDbEntity
  8
DIBUJOS
 62
     7
100
AcDbVertex
100
AcDb2dVertex
 10
78.8039972818872
 20
43.14491199133808
 30
0.0
  0
VERTEX
  5
207
330
205
100
AcDbEntity
  8
DIBUJOS
 62
     7
100
AcDbVertex
100
AcDb2dVertex
 10
78.8039972818872
 20
43.15054142338725
 30
0.0
  0
SEQEND
  5
208
330
205
100
AcDbEntity
  8
DIBUJOS
 62
     7
  0
POLYLINE
  5
209
330
168
100
AcDbEntity
  8
DIBUJOS
 62
     7
100
AcDb2dPolyline
 66
     1
 10
0.0
 20
0.0
 30
0.0
  0
VERTEX
  5
20A
330
209
100
AcDbEntity
  8
DIBUJOS
 62
     7
100
AcDbVertex
100
AcDb2dVertex
 10
78.80961683757789
 20
43.14491199133808
 30
0.0
  0
VERTEX
  5
20B
330
209
100
AcDbEntity
  8
DIBUJOS
 62
     7
100
AcDbVertex
100
AcDb2dVertex
 10
78.8039972818872
 20
43.14491199133808
 30
0.0
  0
SEQEND
  5
20C
330
209
100
AcDbEntity
  8
DIBUJOS
 62
     7
  0
POLYLINE
  5
20D
330
168
100
AcDbEntity
  8
DIBUJOS
 62
     7
100
AcDb2dPolyline
 66
     1
 10
0.0
 20
0.0
 30
0.0
  0
VERTEX
  5
20E
330
20D
100
AcDbEntity
  8
DIBUJOS
 62
     7
100
AcDbVertex
100
AcDb2dVertex
 10
83.45065302755759
 20
43.14491199133808
 30
0.0
  0
VERTEX
  5
20F
330
20D
100
AcDbEntity
  8
DIBUJOS
 62
     7
100
AcDbVertex
100
AcDb2dVertex
 10
83.44503347186625
 20
43.14491199133808
 30
0.0
  0
SEQEND
  5
210
330
20D
100
AcDbEntity
  8
DIBUJOS
 62
     7
  0
POLYLINE
  5
211
330
168
100
AcDbEntity
  8
DIBUJOS
 62
     7
100
AcDb2dPolyline
 66
     1
 10
0.0
 20
0.0
 30
0.0
  0
VERTEX
  5
212
330
211
100
AcDbEntity
  8
DIBUJOS
 62
     7
100
AcDbVertex
100
AcDb2dVertex
 10
83.45065302755759
 20
43.14491199133808
 30
0.0
  0
VERTEX
  5
213
330
211
100
AcDbEntity
  8
DIBUJOS
 62
     7
100
AcDbVertex
100
AcDb2dVertex
 10
83.45065302755759
 20
43.15054142338725
 30
0.0
  0
SEQEND
  5
214
330
211
100
AcDbEntity
  8
DIBUJOS
 62
     7
  0
POLYLINE
  5
215
330
168
100
AcDbEntity
  8
DIBUJOS
 62
     7
100
AcDb2dPolyline
 66
     1
 10
0.0
 20
0.0
 30
0.0
  0
VERTEX
  5
216
330
215
100
AcDbEntity
  8
DIBUJOS
 62
     7
100
AcDbVertex
100
AcDb2dVertex
 10
83.45065302755759
 20
43.13928558912419
 30
0.0
  0
VERTEX
  5
217
330
215
100
AcDbEntity
  8
DIBUJOS
 62
     7
100
AcDbVertex
100
AcDb2dVertex
 10
83.45065302755759
 20
43.14491199133808
 30
0.0
  0
SEQEND
  5
218
330
215
100
AcDbEntity
  8
DIBUJOS
 62
     7
  0
POLYLINE
  5
219
330
168
100
AcDbEntity
  8
DIBUJOS
 62
     7
100
AcDb2dPolyline
 66
     1
 10
0.0
 20
0.0
 30
0.0
  0
VERTEX
  5
21A
330
219
100
AcDbEntity
  8
DIBUJOS
 62
     7
100
AcDbVertex
100
AcDb2dVertex
 10
79.25911172894251
 20
42.98168573043591
 30
0.0
  0
VERTEX
  5
21B
330
219
100
AcDbEntity
  8
DIBUJOS
 62
     7
100
AcDbVertex
100
AcDb2dVertex
 10
80.82672580528389
 20
48.26690436887856
 30
0.0
  0
SEQEND
  5
21C
330
219
100
AcDbEntity
  8
DIBUJOS
 62
     7
  0
POLYLINE
  5
21D
330
168
100
AcDbEntity
  8
DIBUJOS
 62
     7
100
AcDb2dPolyline
 66
     1
 10
0.0
 20
0.0
 30
0.0
  0
VERTEX
  5
21E
330
21D
100
AcDbEntity
  8
DIBUJOS
 62
     7
100
AcDbVertex
100
AcDb2dVertex
 10
79.25349217325119
 20
42.97605629838707
 30
0.0
  0
VERTEX
  5
21F
330
21D
100
AcDbEntity
  8
DIBUJOS
 62
     7
100
AcDbVertex
100
AcDb2dVertex
 10
78.93280245853914
 20
43.13978854161087
 30
0.0
  0
VERTEX
  5
220
330
21D
100
AcDbEntity
  8
DIBUJOS
 62
     7
100
AcDbVertex
100
AcDb2dVertex
 10
78.80961683757789
 20
43.14491199133808
 30
0.0
  0
SEQEND
  5
221
330
21D
100
AcDbEntity
  8
DIBUJOS
 62
     7
  0
POLYLINE
  5
222
330
168
100
AcDbEntity
  8
DIBUJOS
 62
     7
100
AcDb2dPolyline
 66
     1
 10
0.0
 20
0.0
 30
0.0
  0
VERTEX
  5
223
330
222
100
AcDbEntity
  8
DIBUJOS
 62
     7
100
AcDbVertex
100
AcDb2dVertex
 10
79.25911172894251
 20
42.97605629838707
 30
0.0
  0
VERTEX
  5
224
330
222
100
AcDbEntity
  8
DIBUJOS
 62
     7
100
AcDbVertex
100
AcDb2dVertex
 10
79.25349217325119
 20
42.97605629838707
 30
0.0
  0
SEQEND
  5
225
330
222
100
AcDbEntity
  8
DIBUJOS
 62
     7
  0
POLYLINE
  5
226
330
168
100
AcDbEntity
  8
DIBUJOS
 62
     7
100
AcDb2dPolyline
 66
     1
 10
0.0
 20
0.0
 30
0.0
  0
VERTEX
  5
227
330
226
100
AcDbEntity
  8
DIBUJOS
 62
     7
100
AcDbVertex
100
AcDb2dVertex
 10
79.25911172894251
 20
42.97605629838707
 30
0.0
  0
VERTEX
  5
228
330
226
100
AcDbEntity
  8
DIBUJOS
 62
     7
100
AcDbVertex
100
AcDb2dVertex
 10
79.25911172894251
 20
42.98168573043591
 30
0.0
  0
SEQEND
  5
229
330
226
100
AcDbEntity
  8
DIBUJOS
 62
     7
  0
POLYLINE
  5
22A
330
168
100
AcDbEntity
  8
DIBUJOS
 62
     7
100
AcDb2dPolyline
 66
     1
 10
0.0
 20
0.0
 30
0.0
  0
VERTEX
  5
22B
330
22A
100
AcDbEntity
  8
DIBUJOS
 62
     7
100
AcDbVertex
100
AcDb2dVertex
 10
82.99553858050227
 20
42.97605629838707
 30
0.0
  0
VERTEX
  5
22C
330
22A
100
AcDbEntity
  8
DIBUJOS
 62
     7
100
AcDbVertex
100
AcDb2dVertex
 10
81.42792450416026
 20
48.26690436887856
 30
0.0
  0
SEQEND
  5
22D
330
22A
100
AcDbEntity
  8
DIBUJOS
 62
     7
  0
POLYLINE
  5
22E
330
168
100
AcDbEntity
  8
DIBUJOS
 62
     7
100
AcDb2dPolyline
 66
     1
 10
0.0
 20
0.0
 30
0.0
  0
VERTEX
  5
22F
330
22E
100
AcDbEntity
  8
DIBUJOS
 62
     7
100
AcDbVertex
100
AcDb2dVertex
 10
83.0011581361936
 20
42.97605629838707
 30
0.0
  0
VERTEX
  5
230
330
22E
100
AcDbEntity
  8
DIBUJOS
 62
     7
100
AcDbVertex
100
AcDb2dVertex
 10
82.99553858050227
 20
42.97605629838707
 30
0.0
  0
SEQEND
  5
231
330
22E
100
AcDbEntity
  8
DIBUJOS
 62
     7
  0
POLYLINE
  5
232
330
168
100
AcDbEntity
  8
DIBUJOS
 62
     7
100
AcDb2dPolyline
 66
     1
 10
0.0
 20
0.0
 30
0.0
  0
VERTEX
  5
233
330
232
100
AcDbEntity
  8
DIBUJOS
 62
     7
100
AcDbVertex
100
AcDb2dVertex
 10
83.0011581361936
 20
42.97605629838707
 30
0.0
  0
VERTEX
  5
234
330
232
100
AcDbEntity
  8
DIBUJOS
 62
     7
100
AcDbVertex
100
AcDb2dVertex
 10
83.01325923539744
 20
42.98601536358849
 30
0.0
  0
VERTEX
  5
235
330
232
100
AcDbEntity
  8
DIBUJOS
 62
     7
100
AcDbVertex
100
AcDb2dVertex
 10
83.32153935000096
 20
43.14222452835305
 30
0.0
  0
VERTEX
  5
236
330
232
100
AcDbEntity
  8
DIBUJOS
 62
     7
100
AcDbVertex
100
AcDb2dVertex
 10
83.44503347186625
 20
43.14491199133808
 30
0.0
  0
SEQEND
  5
237
330
232
100
AcDbEntity
  8
DIBUJOS
 62
     7
  0
POLYLINE
  5
238
330
168
100
AcDbEntity
  8
DIBUJOS
 62
     7
100
AcDb2dPolyline
 66
     1
 10
0.0
 20
0.0
 30
0.0
  0
VERTEX
  5
239
330
238
100
AcDbEntity
  8
DIBUJOS
 62
     7
100
AcDbVertex
100
AcDb2dVertex
 10
79.25911172894251
 20
42.97042686633855
 30
0.0
  0
VERTEX
  5
23A
330
238
100
AcDbEntity
  8
DIBUJOS
 62
     7
100
AcDbVertex
100
AcDb2dVertex
 10
79.25911172894251
 20
42.97605629838707
 30
0.0
  0
SEQEND
  5
23B
330
238
100
AcDbEntity
  8
DIBUJOS
 62
     7
  0
POLYLINE
  5
23C
330
168
100
AcDbEntity
  8
DIBUJOS
 62
     7
100
AcDb2dPolyline
 66
     1
 10
0.0
 20
0.0
 30
0.0
  0
VERTEX
  5
23D
330
23C
100
AcDbEntity
  8
DIBUJOS
 62
     7
100
AcDbVertex
100
AcDb2dVertex
 10
82.99553858050227
 20
42.97042686633855
 30
0.0
  0
VERTEX
  5
23E
330
23C
100
AcDbEntity
  8
DIBUJOS
 62
     7
100
AcDbVertex
100
AcDb2dVertex
 10
82.99553858050227
 20
42.97605629838707
 30
0.0
  0
SEQEND
  5
23F
330
23C
100
AcDbEntity
  8
DIBUJOS
 62
     7
  0
POLYLINE
  5
240
330
168
100
AcDbEntity
  8
DIBUJOS
 62
     7
100
AcDb2dPolyline
 66
     1
 10
0.0
 20
0.0
 30
0.0
  0
VERTEX
  5
241
330
240
100
AcDbEntity
  8
DIBUJOS
 62
     7
100
AcDbVertex
100
AcDb2dVertex
 10
78.8039972818872
 20
43.14491199133808
 30
0.0
  0
VERTEX
  5
242
330
240
100
AcDbEntity
  8
DIBUJOS
 62
     7
100
AcDbVertex
100
AcDb2dVertex
 10
78.76665052533491
 20
43.02621520450471
 30
0.0
  0
VERTEX
  5
243
330
240
100
AcDbEntity
  8
DIBUJOS
 62
     7
100
AcDbVertex
100
AcDb2dVertex
 10
78.72533560028566
 20
42.8634858364193
 30
0.0
  0
VERTEX
  5
244
330
240
100
AcDbEntity
  8
DIBUJOS
 62
     7
100
AcDbVertex
100
AcDb2dVertex
 10
78.730955155977
 20
42.85785640437078
 30
0.0
  0
VERTEX
  5
245
330
240
100
AcDbEntity
  8
DIBUJOS
 62
     7
100
AcDbVertex
100
AcDb2dVertex
 10
79.22540044383275
 20
42.85785640437078
 30
0.0
  0
VERTEX
  5
246
330
240
100
AcDbEntity
  8
DIBUJOS
 62
     7
100
AcDbVertex
100
AcDb2dVertex
 10
79.23101697500529
 20
42.8634858364193
 30
0.0
  0
VERTEX
  5
247
330
240
100
AcDbEntity
  8
DIBUJOS
 62
     7
100
AcDbVertex
100
AcDb2dVertex
 10
79.25151111352119
 20
42.93715322653313
 30
0.0
  0
VERTEX
  5
248
330
240
100
AcDbEntity
  8
DIBUJOS
 62
     7
100
AcDbVertex
100
AcDb2dVertex
 10
79.25911172894251
 20
42.97042686633855
 30
0.0
  0
SEQEND
  5
249
330
240
100
AcDbEntity
  8
DIBUJOS
 62
     7
  0
POLYLINE
  5
24A
330
168
100
AcDbEntity
  8
DIBUJOS
 62
     7
100
AcDb2dPolyline
 66
     1
 10
0.0
 20
0.0
 30
0.0
  0
VERTEX
  5
24B
330
24A
100
AcDbEntity
  8
DIBUJOS
 62
     7
100
AcDbVertex
100
AcDb2dVertex
 10
82.99553858050227
 20
42.97042686633855
 30
0.0
  0
VERTEX
  5
24C
330
24A
100
AcDbEntity
  8
DIBUJOS
 62
     7
100
AcDbVertex
100
AcDb2dVertex
 10
82.99947347929373
 20
42.94172221659195
 30
0.0
  0
VERTEX
  5
24D
330
24A
100
AcDbEntity
  8
DIBUJOS
 62
     7
100
AcDbVertex
100
AcDb2dVertex
 10
83.01801377874816
 20
42.86911223863383
 30
0.0
  0
VERTEX
  5
24E
330
24A
100
AcDbEntity
  8
DIBUJOS
 62
     7
100
AcDbVertex
100
AcDb2dVertex
 10
83.02925289013018
 20
42.85785640437078
 30
0.0
  0
VERTEX
  5
24F
330
24A
100
AcDbEntity
  8
DIBUJOS
 62
     7
100
AcDbVertex
100
AcDb2dVertex
 10
83.5236951534678
 20
42.85785640437078
 30
0.0
  0
VERTEX
  5
250
330
24A
100
AcDbEntity
  8
DIBUJOS
 62
     7
100
AcDbVertex
100
AcDb2dVertex
 10
83.52931470915912
 20
42.8634858364193
 30
0.0
  0
VERTEX
  5
251
330
24A
100
AcDbEntity
  8
DIBUJOS
 62
     7
100
AcDbVertex
100
AcDb2dVertex
 10
83.4863483969155
 20
43.02720899014048
 30
0.0
  0
VERTEX
  5
252
330
24A
100
AcDbEntity
  8
DIBUJOS
 62
     7
100
AcDbVertex
100
AcDb2dVertex
 10
83.45514746230313
 20
43.1330926079037
 30
0.0
  0
VERTEX
  5
253
330
24A
100
AcDbEntity
  8
DIBUJOS
 62
     7
100
AcDbVertex
100
AcDb2dVertex
 10
83.45065302755759
 20
43.13928558912419
 30
0.0
  0
SEQEND
  5
254
330
24A
100
AcDbEntity
  8
DIBUJOS
 62
     7
  0
ENDBLK
  5
16B
330
168
100
AcDbEntity
  8
0
100
AcDbBlockEnd
  0
BLOCK
  5
257
330
255
100
AcDbEntity
  8
0
100
AcDbBlockBegin
  2
BLOCK_4
 70
     0
 10
0.0
 20
0.0
 30
0.0
  3
BLOCK_4
  1

  0
POLYLINE
  5
259
330
255
100
AcDbEntity
  8
DIBUJOS
 62
     7
100
AcDb2dPolyline
 66
     1
 10
0.0
 20
0.0
 30
0.0
  0
VERTEX
  5
25A
330
259
100
AcDbEntity
  8
DIBUJOS
 62
     7
100
AcDbVertex
100
AcDb2dVertex
 10
82.41681507987244
 20
26.49562129085061
 30
0.0
  0
VERTEX
  5
25B
330
259
100
AcDbEntity
  8
DIBUJOS
 62
     7
100
AcDbVertex
100
AcDb2dVertex
 10
82.7538432444462
 20
26.50959261406585
 30
0.0
  0
VERTEX
  5
25C
330
259
100
AcDbEntity
  8
DIBUJOS
 62
     7
100
AcDbVertex
100
AcDb2dVertex
 10
83.08516414228731
 20
26.54312075994844
 30
0.0
  0
VERTEX
  5
25D
330
259
100
AcDbEntity
  8
DIBUJOS
 62
     7
100
AcDbVertex
100
AcDb2dVertex
 10
83.18068146644404
 20
26.55437810912881
 30
0.0
  0
VERTEX
  5
25E
330
259
100
AcDbEntity
  8
DIBUJOS
 62
     7
100
AcDbVertex
100
AcDb2dVertex
 10
83.36587576920219
 20
26.58203670859862
 30
0.0
  0
VERTEX
  5
25F
330
259
100
AcDbEntity
  8
DIBUJOS
 62
     7
100
AcDbVertex
100
AcDb2dVertex
 10
83.60748036969879
 20
26.6383219395825
 30
0.0
  0
VERTEX
  5
260
330
259
100
AcDbEntity
  8
DIBUJOS
 62
     7
100
AcDbVertex
100
AcDb2dVertex
 10
83.7377675604994
 20
26.67404747275969
 30
0.0
  0
VERTEX
  5
261
330
259
100
AcDbEntity
  8
DIBUJOS
 62
     7
100
AcDbVertex
100
AcDb2dVertex
 10
83.81642924210095
 20
26.70781876284182
 30
0.0
  0
VERTEX
  5
262
330
259
100
AcDbEntity
  8
DIBUJOS
 62
     7
100
AcDbVertex
100
AcDb2dVertex
 10
83.99465505384175
 20
26.78402894135487
 30
0.0
  0
VERTEX
  5
263
330
259
100
AcDbEntity
  8
DIBUJOS
 62
     7
100
AcDbVertex
100
AcDb2dVertex
 10
84.14065461913964
 20
26.89662212707983
 30
0.0
  0
VERTEX
  5
264
330
259
100
AcDbEntity
  8
DIBUJOS
 62
     7
100
AcDbVertex
100
AcDb2dVertex
 10
84.22041420101905
 20
26.96842086691578
 30
0.0
  0
VERTEX
  5
265
330
259
100
AcDbEntity
  8
DIBUJOS
 62
     7
100
AcDbVertex
100
AcDb2dVertex
 10
84.3527822606662
 20
27.14439667036977
 30
0.0
  0
VERTEX
  5
266
330
259
100
AcDbEntity
  8
DIBUJOS
 62
     7
100
AcDbVertex
100
AcDb2dVertex
 10
84.42718239546011
 20
27.31795466608746
 30
0.0
  0
VERTEX
  5
267
330
259
100
AcDbEntity
  8
DIBUJOS
 62
     7
100
AcDbVertex
100
AcDb2dVertex
 10
84.463140897942
 20
27.40125768659564
 30
0.0
  0
VERTEX
  5
268
330
259
100
AcDbEntity
  8
DIBUJOS
 62
     7
100
AcDbVertex
100
AcDb2dVertex
 10
84.49227306178368
 20
27.50833051430478
 30
0.0
  0
VERTEX
  5
269
330
259
100
AcDbEntity
  8
DIBUJOS
 62
     7
100
AcDbVertex
100
AcDb2dVertex
 10
84.55390065422921
 20
27.77280853385136
 30
0.0
  0
VERTEX
  5
26A
330
259
100
AcDbEntity
  8
DIBUJOS
 62
     7
100
AcDbVertex
100
AcDb2dVertex
 10
84.57681138316357
 20
27.91934495275178
 30
0.0
  0
VERTEX
  5
26B
330
259
100
AcDbEntity
  8
DIBUJOS
 62
     7
100
AcDbVertex
100
AcDb2dVertex
 10
84.58804747002743
 20
28.01503090586632
 30
0.0
  0
VERTEX
  5
26C
330
259
100
AcDbEntity
  8
DIBUJOS
 62
     7
100
AcDbVertex
100
AcDb2dVertex
 10
84.62227292331123
 20
28.3081310121763
 30
0.0
  0
VERTEX
  5
26D
330
259
100
AcDbEntity
  8
DIBUJOS
 62
     7
100
AcDbVertex
100
AcDb2dVertex
 10
84.63890475148428
 20
28.76946796779064
 30
0.0
  0
VERTEX
  5
26E
330
259
100
AcDbEntity
  8
DIBUJOS
 62
     7
100
AcDbVertex
100
AcDb2dVertex
 10
84.63900456060016
 20
30.06975921191528
 30
0.0
  0
VERTEX
  5
26F
330
259
100
AcDbEntity
  8
DIBUJOS
 62
     7
100
AcDbVertex
100
AcDb2dVertex
 10
84.63900456060016
 20
30.46375885863647
 30
0.0
  0
VERTEX
  5
270
330
259
100
AcDbEntity
  8
DIBUJOS
 62
     7
100
AcDbVertex
100
AcDb2dVertex
 10
84.6278592092964
 20
31.5612436020474
 30
0.0
  0
VERTEX
  5
271
330
259
100
AcDbEntity
  8
DIBUJOS
 62
     7
100
AcDbVertex
100
AcDb2dVertex
 10
84.62227594783002
 20
31.69066903198425
 30
0.0
  0
VERTEX
  5
272
330
259
100
AcDbEntity
  8
DIBUJOS
 62
     7
100
AcDbVertex
100
AcDb2dVertex
 10
84.60012437308153
 20
31.87619032826347
 30
0.0
  0
VERTEX
  5
273
330
259
100
AcDbEntity
  8
DIBUJOS
 62
     7
100
AcDbVertex
100
AcDb2dVertex
 10
84.59439895923671
 20
31.92691126863512
 30
0.0
  0
VERTEX
  5
274
330
259
100
AcDbEntity
  8
DIBUJOS
 62
     7
100
AcDbVertex
100
AcDb2dVertex
 10
84.55951718540175
 20
32.20348211415875
 30
0.0
  0
VERTEX
  5
275
330
259
100
AcDbEntity
  8
DIBUJOS
 62
     7
100
AcDbVertex
100
AcDb2dVertex
 10
84.53142545598332
 20
32.32168200817504
 30
0.0
  0
VERTEX
  5
276
330
259
100
AcDbEntity
  8
DIBUJOS
 62
     7
100
AcDbVertex
100
AcDb2dVertex
 10
84.46651323626119
 20
32.59079340175839
 30
0.0
  0
VERTEX
  5
277
330
259
100
AcDbEntity
  8
DIBUJOS
 62
     7
100
AcDbVertex
100
AcDb2dVertex
 10
84.43504614400477
 20
32.66508948248048
 30
0.0
  0
VERTEX
  5
278
330
259
100
AcDbEntity
  8
DIBUJOS
 62
     7
100
AcDbVertex
100
AcDb2dVertex
 10
84.35391343064894
 20
32.8548858748956
 30
0.0
  0
VERTEX
  5
279
330
259
100
AcDbEntity
  8
DIBUJOS
 62
     7
100
AcDbVertex
100
AcDb2dVertex
 10
84.22176313634635
 20
33.02576852696519
 30
0.0
  0
VERTEX
  5
27A
330
259
100
AcDbEntity
  8
DIBUJOS
 62
     7
100
AcDbVertex
100
AcDb2dVertex
 10
84.16532259342249
 20
33.08241430822495
 30
0.0
  0
VERTEX
  5
27B
330
259
100
AcDbEntity
  8
DIBUJOS
 62
     7
100
AcDbVertex
100
AcDb2dVertex
 10
83.9948002307377
 20
33.21482715473935
 30
0.0
  0
VERTEX
  5
27C
330
259
100
AcDbEntity
  8
DIBUJOS
 62
     7
100
AcDbVertex
100
AcDb2dVertex
 10
83.70861724954621
 20
33.33796870842824
 30
0.0
  0
VERTEX
  5
27D
330
259
100
AcDbEntity
  8
DIBUJOS
 62
     7
100
AcDbVertex
100
AcDb2dVertex
 10
83.35001216877204
 20
33.42074075048195
 30
0.0
  0
VERTEX
  5
27E
330
259
100
AcDbEntity
  8
DIBUJOS
 62
     7
100
AcDbVertex
100
AcDb2dVertex
 10
83.00146058806068
 20
33.46620795825349
 30
0.0
  0
VERTEX
  5
27F
330
259
100
AcDbEntity
  8
DIBUJOS
 62
     7
100
AcDbVertex
100
AcDb2dVertex
 10
82.90594326390394
 20
33.47746530743322
 30
0.0
  0
VERTEX
  5
280
330
259
100
AcDbEntity
  8
DIBUJOS
 62
     7
100
AcDbVertex
100
AcDb2dVertex
 10
82.44490680929086
 20
33.50318254060292
 30
0.0
  0
VERTEX
  5
281
330
259
100
AcDbEntity
  8
DIBUJOS
 62
     7
100
AcDbVertex
100
AcDb2dVertex
 10
79.82097958701716
 20
33.50318254060292
 30
0.0
  0
VERTEX
  5
282
330
259
100
AcDbEntity
  8
DIBUJOS
 62
     7
100
AcDbVertex
100
AcDb2dVertex
 10
79.48956492909777
 20
33.48920591517739
 30
0.0
  0
VERTEX
  5
283
330
259
100
AcDbEntity
  8
DIBUJOS
 62
     7
100
AcDbVertex
100
AcDb2dVertex
 10
79.36614037116165
 20
33.47819852732352
 30
0.0
  0
VERTEX
  5
284
330
259
100
AcDbEntity
  8
DIBUJOS
 62
     7
100
AcDbVertex
100
AcDb2dVertex
 10
78.9448007241083
 20
33.42764877258751
 30
0.0
  0
VERTEX
  5
285
330
259
100
AcDbEntity
  8
DIBUJOS
 62
     7
100
AcDbVertex
100
AcDb2dVertex
 10
78.5404800436176
 20
33.33263771505331
 30
0.0
  0
VERTEX
  5
286
330
259
100
AcDbEntity
  8
DIBUJOS
 62
     7
100
AcDbVertex
100
AcDb2dVertex
 10
78.2865172598308
 20
33.22344400336478
 30
0.0
  0
VERTEX
  5
287
330
259
100
AcDbEntity
  8
DIBUJOS
 62
     7
100
AcDbVertex
100
AcDb2dVertex
 10
78.10837613461317
 20
33.09092511265167
 30
0.0
  0
VERTEX
  5
288
330
259
100
AcDbEntity
  8
DIBUJOS
 62
     7
100
AcDbVertex
100
AcDb2dVertex
 10
78.07918650491752
 20
33.06978444412674
 30
0.0
  0
VERTEX
  5
289
330
259
100
AcDbEntity
  8
DIBUJOS
 62
     7
100
AcDbVertex
100
AcDb2dVertex
 10
77.93734867731074
 20
32.89076820199617
 30
0.0
  0
VERTEX
  5
28A
330
259
100
AcDbEntity
  8
DIBUJOS
 62
     7
100
AcDbVertex
100
AcDb2dVertex
 10
77.9176167174995
 20
32.86605687379981
 30
0.0
  0
VERTEX
  5
28B
330
259
100
AcDbEntity
  8
DIBUJOS
 62
     7
100
AcDbVertex
100
AcDb2dVertex
 10
77.87241831047646
 20
32.76527852675857
 30
0.0
  0
VERTEX
  5
28C
330
259
100
AcDbEntity
  8
DIBUJOS
 62
     7
100
AcDbVertex
100
AcDb2dVertex
 10
77.82522069661191
 20
32.65383364821678
 30
0.0
  0
VERTEX
  5
28D
330
259
100
AcDbEntity
  8
DIBUJOS
 62
     7
100
AcDbVertex
100
AcDb2dVertex
 10
77.78899906100476
 20
32.56271592770274
 30
0.0
  0
VERTEX
  5
28E
330
259
100
AcDbEntity
  8
DIBUJOS
 62
     7
100
AcDbVertex
100
AcDb2dVertex
 10
77.74008352053546
 20
32.35545254079819
 30
0.0
  0
VERTEX
  5
28F
330
259
100
AcDbEntity
  8
DIBUJOS
 62
     7
100
AcDbVertex
100
AcDb2dVertex
 10
77.69391726753713
 20
32.12951022570207
 30
0.0
  0
VERTEX
  5
290
330
259
100
AcDbEntity
  8
DIBUJOS
 62
     7
100
AcDbVertex
100
AcDb2dVertex
 10
77.64412764117147
 20
31.70797393034065
 30
0.0
  0
VERTEX
  5
291
330
259
100
AcDbEntity
  8
DIBUJOS
 62
     7
100
AcDbVertex
100
AcDb2dVertex
 10
77.63259212695867
 20
31.42070019530601
 30
0.0
  0
VERTEX
  5
292
330
259
100
AcDbEntity
  8
DIBUJOS
 62
     7
100
AcDbVertex
100
AcDb2dVertex
 10
77.6240720578622
 20
31.25738606921005
 30
0.0
  0
VERTEX
  5
293
330
259
100
AcDbEntity
  8
DIBUJOS
 62
     7
100
AcDbVertex
100
AcDb2dVertex
 10
77.6240720578622
 20
28.747047194292
 30
0.0
  0
VERTEX
  5
294
330
259
100
AcDbEntity
  8
DIBUJOS
 62
     7
100
AcDbVertex
100
AcDb2dVertex
 10
77.64901526334421
 20
28.2520078773248
 30
0.0
  0
VERTEX
  5
295
330
259
100
AcDbEntity
  8
DIBUJOS
 62
     7
100
AcDbVertex
100
AcDb2dVertex
 10
77.66025135020743
 20
28.15632268166924
 30
0.0
  0
VERTEX
  5
296
330
259
100
AcDbEntity
  8
DIBUJOS
 62
     7
100
AcDbVertex
100
AcDb2dVertex
 10
77.70619378882425
 20
27.79538685873107
 30
0.0
  0
VERTEX
  5
297
330
259
100
AcDbEntity
  8
DIBUJOS
 62
     7
100
AcDbVertex
100
AcDb2dVertex
 10
77.75528475137685
 20
27.58243117071736
 30
0.0
  0
VERTEX
  5
298
330
259
100
AcDbEntity
  8
DIBUJOS
 62
     7
100
AcDbVertex
100
AcDb2dVertex
 10
77.80274852288481
 20
27.39562901200546
 30
0.0
  0
VERTEX
  5
299
330
259
100
AcDbEntity
  8
DIBUJOS
 62
     7
100
AcDbVertex
100
AcDb2dVertex
 10
77.82747093850348
 20
27.3404693644482
 30
0.0
  0
VERTEX
  5
29A
330
259
100
AcDbEntity
  8
DIBUJOS
 62
     7
100
AcDbVertex
100
AcDb2dVertex
 10
77.92056562320415
 20
27.1307836250554
 30
0.0
  0
VERTEX
  5
29B
330
259
100
AcDbEntity
  8
DIBUJOS
 62
     7
100
AcDbVertex
100
AcDb2dVertex
 10
78.01603153054323
 20
27.00680810948714
 30
0.0
  0
VERTEX
  5
29C
330
259
100
AcDbEntity
  8
DIBUJOS
 62
     7
100
AcDbVertex
100
AcDb2dVertex
 10
78.08379284685348
 20
26.92767035362382
 30
0.0
  0
VERTEX
  5
29D
330
259
100
AcDbEntity
  8
DIBUJOS
 62
     7
100
AcDbVertex
100
AcDb2dVertex
 10
78.26007994212556
 20
26.78967958224327
 30
0.0
  0
VERTEX
  5
29E
330
259
100
AcDbEntity
  8
DIBUJOS
 62
     7
100
AcDbVertex
100
AcDb2dVertex
 10
78.43934618828898
 20
26.71063272140742
 30
0.0
  0
VERTEX
  5
29F
330
259
100
AcDbEntity
  8
DIBUJOS
 62
     7
100
AcDbVertex
100
AcDb2dVertex
 10
78.51800786989052
 20
26.67686143132594
 30
0.0
  0
VERTEX
  5
2A0
330
259
100
AcDbEntity
  8
DIBUJOS
 62
     7
100
AcDbVertex
100
AcDb2dVertex
 10
78.63025078229923
 20
26.64412937439363
 30
0.0
  0
VERTEX
  5
2A1
330
259
100
AcDbEntity
  8
DIBUJOS
 62
     7
100
AcDbVertex
100
AcDb2dVertex
 10
78.91587422753662
 20
26.57806383842927
 30
0.0
  0
VERTEX
  5
2A2
330
259
100
AcDbEntity
  8
DIBUJOS
 62
     7
100
AcDbVertex
100
AcDb2dVertex
 10
79.07903793629374
 20
26.55506436658806
 30
0.0
  0
VERTEX
  5
2A3
330
259
100
AcDbEntity
  8
DIBUJOS
 62
     7
100
AcDbVertex
100
AcDb2dVertex
 10
79.17455828496928
 20
26.54380777486667
 30
0.0
  0
VERTEX
  5
2A4
330
259
100
AcDbEntity
  8
DIBUJOS
 62
     7
100
AcDbVertex
100
AcDb2dVertex
 10
79.50642662068992
 20
26.50959261406585
 30
0.0
  0
VERTEX
  5
2A5
330
259
100
AcDbEntity
  8
DIBUJOS
 62
     7
100
AcDbVertex
100
AcDb2dVertex
 10
79.66356246373516
 20
26.50416466599482
 30
0.0
  0
VERTEX
  5
2A6
330
259
100
AcDbEntity
  8
DIBUJOS
 62
     7
100
AcDbVertex
100
AcDb2dVertex
 10
79.83784127860996
 20
26.49842994720656
 30
0.0
  0
VERTEX
  5
2A7
330
259
100
AcDbEntity
  8
DIBUJOS
 62
     7
100
AcDbVertex
100
AcDb2dVertex
 10
82.41681507987244
 20
26.49562129085061
 30
0.0
  0
SEQEND
  5
2A8
330
259
100
AcDbEntity
  8
DIBUJOS
 62
     7
  0
ENDBLK
  5
258
330
255
100
AcDbEntity
  8
0
100
AcDbBlockEnd
  0
BLOCK
  5
2AB
330
2A9
100
AcDbEntity
  8
0
100
AcDbBlockBegin
  2
BLOCK_5
 70
     0
 10
0.0
 20
0.0
 30
0.0
  3
BLOCK_5
  1

  0
POLYLINE
  5
2AD
330
2A9
100
AcDbEntity
  8
DIBUJOS
 62
     7
100
AcDb2dPolyline
 66
     1
 10
0.0
 20
0.0
 30
0.0
  0
VERTEX
  5
2AE
330
2AD
100
AcDbEntity
  8
DIBUJOS
 62
     7
100
AcDbVertex
100
AcDb2dVertex
 10
66.41238889962786
 20
25.97216515839174
 30
0.0
  0
VERTEX
  5
2AF
330
2AD
100
AcDbEntity
  8
DIBUJOS
 62
     7
100
AcDbVertex
100
AcDb2dVertex
 10
66.73818248959715
 20
25.98613951144097
 30
0.0
  0
VERTEX
  5
2B0
330
2AD
100
AcDbEntity
  8
DIBUJOS
 62
     7
100
AcDbVertex
100
AcDb2dVertex
 10
67.0638550988193
 20
26.0196184225175
 30
0.0
  0
VERTEX
  5
2B1
330
2AD
100
AcDbEntity
  8
DIBUJOS
 62
     7
100
AcDbVertex
100
AcDb2dVertex
 10
67.15940115590367
 20
26.03092197666994
 30
0.0
  0
VERTEX
  5
2B2
330
2AD
100
AcDbEntity
  8
DIBUJOS
 62
     7
100
AcDbVertex
100
AcDb2dVertex
 10
67.34465897355467
 20
26.05875857890172
 30
0.0
  0
VERTEX
  5
2B3
330
2AD
100
AcDbEntity
  8
DIBUJOS
 62
     7
100
AcDbVertex
100
AcDb2dVertex
 10
67.58626357405062
 20
26.1150438098856
 30
0.0
  0
VERTEX
  5
2B4
330
2AD
100
AcDbEntity
  8
DIBUJOS
 62
     7
100
AcDbVertex
100
AcDb2dVertex
 10
67.71648724995903
 20
26.15115337455548
 30
0.0
  0
VERTEX
  5
2B5
330
2AD
100
AcDbEntity
  8
DIBUJOS
 62
     7
100
AcDbVertex
100
AcDb2dVertex
 10
67.77829328900665
 20
26.17873319833443
 30
0.0
  0
VERTEX
  5
2B6
330
2AD
100
AcDbEntity
  8
DIBUJOS
 62
     7
100
AcDbVertex
100
AcDb2dVertex
 10
67.96790187676602
 20
26.26052054425531
 30
0.0
  0
VERTEX
  5
2B7
330
2AD
100
AcDbEntity
  8
DIBUJOS
 62
     7
100
AcDbVertex
100
AcDb2dVertex
 10
68.10462675555881
 20
26.36481349903367
 30
0.0
  0
VERTEX
  5
2B8
330
2AD
100
AcDbEntity
  8
DIBUJOS
 62
     7
100
AcDbVertex
100
AcDb2dVertex
 10
68.17802879919135
 20
26.42698039576823
 30
0.0
  0
VERTEX
  5
2B9
330
2AD
100
AcDbEntity
  8
DIBUJOS
 62
     7
100
AcDbVertex
100
AcDb2dVertex
 10
68.31842241913219
 20
26.60732673513755
 30
0.0
  0
VERTEX
  5
2BA
330
2AD
100
AcDbEntity
  8
DIBUJOS
 62
     7
100
AcDbVertex
100
AcDb2dVertex
 10
68.39185319569204
 20
26.77085825184187
 30
0.0
  0
VERTEX
  5
2BB
330
2AD
100
AcDbEntity
  8
DIBUJOS
 62
     7
100
AcDbVertex
100
AcDb2dVertex
 10
68.42837577090654
 20
26.85641243920266
 30
0.0
  0
VERTEX
  5
2BC
330
2AD
100
AcDbEntity
  8
DIBUJOS
 62
     7
100
AcDbVertex
100
AcDb2dVertex
 10
68.46104964611216
 20
26.95759678403416
 30
0.0
  0
VERTEX
  5
2BD
330
2AD
100
AcDbEntity
  8
DIBUJOS
 62
     7
100
AcDbVertex
100
AcDb2dVertex
 10
68.5213812323065
 20
27.22120978590055
 30
0.0
  0
VERTEX
  5
2BE
330
2AD
100
AcDbEntity
  8
DIBUJOS
 62
     7
100
AcDbVertex
100
AcDb2dVertex
 10
68.54502540701883
 20
27.34580944732511
 30
0.0
  0
VERTEX
  5
2BF
330
2AD
100
AcDbEntity
  8
DIBUJOS
 62
     7
100
AcDbVertex
100
AcDb2dVertex
 10
68.55553107262384
 20
27.43528878496523
 30
0.0
  0
VERTEX
  5
2C0
330
2AD
100
AcDbEntity
  8
DIBUJOS
 62
     7
100
AcDbVertex
100
AcDb2dVertex
 10
68.59540481452595
 20
27.77907423109409
 30
0.0
  0
VERTEX
  5
2C1
330
2AD
100
AcDbEntity
  8
DIBUJOS
 62
     7
100
AcDbVertex
100
AcDb2dVertex
 10
68.60639440311827
 20
28.05464598877069
 30
0.0
  0
VERTEX
  5
2C2
330
2AD
100
AcDbEntity
  8
DIBUJOS
 62
     7
100
AcDbVertex
100
AcDb2dVertex
 10
68.61491598447415
 20
28.2235903043748
 30
0.0
  0
VERTEX
  5
2C3
330
2AD
100
AcDbEntity
  8
DIBUJOS
 62
     7
100
AcDbVertex
100
AcDb2dVertex
 10
68.61491598447415
 20
31.73581507732438
 30
0.0
  0
VERTEX
  5
2C4
330
2AD
100
AcDbEntity
  8
DIBUJOS
 62
     7
100
AcDbVertex
100
AcDb2dVertex
 10
68.60096841662205
 20
32.06780613615042
 30
0.0
  0
VERTEX
  5
2C5
330
2AD
100
AcDbEntity
  8
DIBUJOS
 62
     7
100
AcDbVertex
100
AcDb2dVertex
 10
68.58366968208139
 20
32.28205935068537
 30
0.0
  0
VERTEX
  5
2C6
330
2AD
100
AcDbEntity
  8
DIBUJOS
 62
     7
100
AcDbVertex
100
AcDb2dVertex
 10
68.56749909300564
 20
32.42222402814436
 30
0.0
  0
VERTEX
  5
2C7
330
2AD
100
AcDbEntity
  8
DIBUJOS
 62
     7
100
AcDbVertex
100
AcDb2dVertex
 10
68.52699927573842
 20
32.71568165489623
 30
0.0
  0
VERTEX
  5
2C8
330
2AD
100
AcDbEntity
  8
DIBUJOS
 62
     7
100
AcDbVertex
100
AcDb2dVertex
 10
68.47790528866672
 20
32.92863658545159
 30
0.0
  0
VERTEX
  5
2C9
330
2AD
100
AcDbEntity
  8
DIBUJOS
 62
     7
100
AcDbVertex
100
AcDb2dVertex
 10
68.43680359218382
 20
33.08160382756176
 30
0.0
  0
VERTEX
  5
2CA
330
2AD
100
AcDbEntity
  8
DIBUJOS
 62
     7
100
AcDbVertex
100
AcDb2dVertex
 10
68.41151861609227
 20
33.14239290716818
 30
0.0
  0
VERTEX
  5
2CB
330
2AD
100
AcDbEntity
  8
DIBUJOS
 62
     7
100
AcDbVertex
100
AcDb2dVertex
 10
68.31842241913219
 20
33.35207864656034
 30
0.0
  0
VERTEX
  5
2CC
330
2AD
100
AcDbEntity
  8
DIBUJOS
 62
     7
100
AcDbVertex
100
AcDb2dVertex
 10
68.21735963999213
 20
33.48176767207762
 30
0.0
  0
VERTEX
  5
2CD
330
2AD
100
AcDbEntity
  8
DIBUJOS
 62
     7
100
AcDbVertex
100
AcDb2dVertex
 10
68.15519519548253
 20
33.55519116053422
 30
0.0
  0
VERTEX
  5
2CE
330
2AD
100
AcDbEntity
  8
DIBUJOS
 62
     7
100
AcDbVertex
100
AcDb2dVertex
 10
67.98461083016524
 20
33.68757522362216
 30
0.0
  0
VERTEX
  5
2CF
330
2AD
100
AcDbEntity
  8
DIBUJOS
 62
     7
100
AcDbVertex
100
AcDb2dVertex
 10
67.81650052112136
 20
33.76603732644681
 30
0.0
  0
VERTEX
  5
2D0
330
2AD
100
AcDbEntity
  8
DIBUJOS
 62
     7
100
AcDbVertex
100
AcDb2dVertex
 10
67.73783883951918
 20
33.79980937398727
 30
0.0
  0
VERTEX
  5
2D1
330
2AD
100
AcDbEntity
  8
DIBUJOS
 62
     7
100
AcDbVertex
100
AcDb2dVertex
 10
67.63683201397434
 20
33.83310422263256
 30
0.0
  0
VERTEX
  5
2D2
330
2AD
100
AcDbEntity
  8
DIBUJOS
 62
     7
100
AcDbVertex
100
AcDb2dVertex
 10
67.37368074246436
 20
33.89354032654776
 30
0.0
  0
VERTEX
  5
2D3
330
2AD
100
AcDbEntity
  8
DIBUJOS
 62
     7
100
AcDbVertex
100
AcDb2dVertex
 10
67.25488974713278
 20
33.91727301827927
 30
0.0
  0
VERTEX
  5
2D4
330
2AD
100
AcDbEntity
  8
DIBUJOS
 62
     7
100
AcDbVertex
100
AcDb2dVertex
 10
67.21616532232588
 20
33.92212226800709
 30
0.0
  0
VERTEX
  5
2D5
330
2AD
100
AcDbEntity
  8
DIBUJOS
 62
     7
100
AcDbVertex
100
AcDb2dVertex
 10
66.74379902076936
 20
33.97326890009155
 30
0.0
  0
VERTEX
  5
2D6
330
2AD
100
AcDbEntity
  8
DIBUJOS
 62
     7
100
AcDbVertex
100
AcDb2dVertex
 10
66.58666166546473
 20
33.97869684816194
 30
0.0
  0
VERTEX
  5
2D7
330
2AD
100
AcDbEntity
  8
DIBUJOS
 62
     7
100
AcDbVertex
100
AcDb2dVertex
 10
66.40677085619592
 20
33.98723946584845
 30
0.0
  0
VERTEX
  5
2D8
330
2AD
100
AcDbEntity
  8
DIBUJOS
 62
     7
100
AcDbVertex
100
AcDb2dVertex
 10
62.82204781214791
 20
33.98723946584845
 30
0.0
  0
VERTEX
  5
2D9
330
2AD
100
AcDbEntity
  8
DIBUJOS
 62
     7
100
AcDbVertex
100
AcDb2dVertex
 10
62.47939782349371
 20
33.97326587025756
 30
0.0
  0
VERTEX
  5
2DA
330
2AD
100
AcDbEntity
  8
DIBUJOS
 62
     7
100
AcDbVertex
100
AcDb2dVertex
 10
62.20988447695899
 20
33.94536867134016
 30
0.0
  0
VERTEX
  5
2DB
330
2AD
100
AcDbEntity
  8
DIBUJOS
 62
     7
100
AcDbVertex
100
AcDb2dVertex
 10
62.12001392916181
 20
33.93415828459149
 30
0.0
  0
VERTEX
  5
2DC
330
2AD
100
AcDbEntity
  8
DIBUJOS
 62
     7
100
AcDbVertex
100
AcDb2dVertex
 10
61.90570560967349
 20
33.90479767572813
 30
0.0
  0
VERTEX
  5
2DD
330
2AD
100
AcDbEntity
  8
DIBUJOS
 62
     7
100
AcDbVertex
100
AcDb2dVertex
 10
61.66416528019913
 20
33.84869120496519
 30
0.0
  0
VERTEX
  5
2DE
330
2AD
100
AcDbEntity
  8
DIBUJOS
 62
     7
100
AcDbVertex
100
AcDb2dVertex
 10
61.51907382663186
 20
33.81106520825032
 30
0.0
  0
VERTEX
  5
2DF
330
2AD
100
AcDbEntity
  8
DIBUJOS
 62
     7
100
AcDbVertex
100
AcDb2dVertex
 10
61.45164898802356
 20
33.78292259275838
 30
0.0
  0
VERTEX
  5
2E0
330
2AD
100
AcDbEntity
  8
DIBUJOS
 62
     7
100
AcDbVertex
100
AcDb2dVertex
 10
61.24429252470112
 20
33.68755249986561
 30
0.0
  0
VERTEX
  5
2E1
330
2AD
100
AcDbEntity
  8
DIBUJOS
 62
     7
100
AcDbVertex
100
AcDb2dVertex
 10
61.11848842670086
 20
33.58898441691392
 30
0.0
  0
VERTEX
  5
2E2
330
2AD
100
AcDbEntity
  8
DIBUJOS
 62
     7
100
AcDbVertex
100
AcDb2dVertex
 10
61.0508117969128
 20
33.53233863565415
 30
0.0
  0
VERTEX
  5
2E3
330
2AD
100
AcDbEntity
  8
DIBUJOS
 62
     7
100
AcDbVertex
100
AcDb2dVertex
 10
60.91596363195562
 20
33.35785351065397
 30
0.0
  0
VERTEX
  5
2E4
330
2AD
100
AcDbEntity
  8
DIBUJOS
 62
     7
100
AcDbVertex
100
AcDb2dVertex
 10
60.83752652086529
 20
33.18854637239768
 30
0.0
  0
VERTEX
  5
2E5
330
2AD
100
AcDbEntity
  8
DIBUJOS
 62
     7
100
AcDbVertex
100
AcDb2dVertex
 10
60.79763387572132
 20
33.09286117674213
 30
0.0
  0
VERTEX
  5
2E6
330
2AD
100
AcDbEntity
  8
DIBUJOS
 62
     7
100
AcDbVertex
100
AcDb2dVertex
 10
60.77338706566361
 20
33.01869386397595
 30
0.0
  0
VERTEX
  5
2E7
330
2AD
100
AcDbEntity
  8
DIBUJOS
 62
     7
100
AcDbVertex
100
AcDb2dVertex
 10
60.7128777889972
 20
32.75501799304892
 30
0.0
  0
VERTEX
  5
2E8
330
2AD
100
AcDbEntity
  8
DIBUJOS
 62
     7
100
AcDbVertex
100
AcDb2dVertex
 10
60.68379401745438
 20
32.60233858519305
 30
0.0
  0
VERTEX
  5
2E9
330
2AD
100
AcDbEntity
  8
DIBUJOS
 62
     7
100
AcDbVertex
100
AcDb2dVertex
 10
60.67324147181056
 20
32.50720178953758
 30
0.0
  0
VERTEX
  5
2EA
330
2AD
100
AcDbEntity
  8
DIBUJOS
 62
     7
100
AcDbVertex
100
AcDb2dVertex
 10
60.63346073385735
 20
32.16911318926919
 30
0.0
  0
VERTEX
  5
2EB
330
2AD
100
AcDbEntity
  8
DIBUJOS
 62
     7
100
AcDbVertex
100
AcDb2dVertex
 10
60.62243485104104
 20
31.86536776029982
 30
0.0
  0
VERTEX
  5
2EC
330
2AD
100
AcDbEntity
  8
DIBUJOS
 62
     7
100
AcDbVertex
100
AcDb2dVertex
 10
60.62243485104104
 20
28.09403686394038
 30
0.0
  0
VERTEX
  5
2ED
330
2AD
100
AcDbEntity
  8
DIBUJOS
 62
     7
100
AcDbVertex
100
AcDb2dVertex
 10
60.63346073385735
 20
27.79029143497037
 30
0.0
  0
VERTEX
  5
2EE
330
2AD
100
AcDbEntity
  8
DIBUJOS
 62
     7
100
AcDbVertex
100
AcDb2dVertex
 10
60.67817521789307
 20
27.40772335289918
 30
0.0
  0
VERTEX
  5
2EF
330
2AD
100
AcDbEntity
  8
DIBUJOS
 62
     7
100
AcDbVertex
100
AcDb2dVertex
 10
60.68374713741492
 20
27.3627234970625
 30
0.0
  0
VERTEX
  5
2F0
330
2AD
100
AcDbEntity
  8
DIBUJOS
 62
     7
100
AcDbVertex
100
AcDb2dVertex
 10
60.71305623559866
 20
27.20432376213064
 30
0.0
  0
VERTEX
  5
2F1
330
2AD
100
AcDbEntity
  8
DIBUJOS
 62
     7
100
AcDbVertex
100
AcDb2dVertex
 10
60.77338706566361
 20
26.94071076026361
 30
0.0
  0
VERTEX
  5
2F2
330
2AD
100
AcDbEntity
  8
DIBUJOS
 62
     7
100
AcDbVertex
100
AcDb2dVertex
 10
60.79482485400536
 20
26.87329846297321
 30
0.0
  0
VERTEX
  5
2F3
330
2AD
100
AcDbEntity
  8
DIBUJOS
 62
     7
100
AcDbVertex
100
AcDb2dVertex
 10
60.83471749914932
 20
26.77761250985868
 30
0.0
  0
VERTEX
  5
2F4
330
2AD
100
AcDbEntity
  8
DIBUJOS
 62
     7
100
AcDbVertex
100
AcDb2dVertex
 10
60.91596363195562
 20
26.60155111358623
 30
0.0
  0
VERTEX
  5
2F5
330
2AD
100
AcDbEntity
  8
DIBUJOS
 62
     7
100
AcDbVertex
100
AcDb2dVertex
 10
61.0508117969128
 20
26.42706598858605
 30
0.0
  0
VERTEX
  5
2F6
330
2AD
100
AcDbEntity
  8
DIBUJOS
 62
     7
100
AcDbVertex
100
AcDb2dVertex
 10
61.14315564485401
 20
26.35065205371921
 30
0.0
  0
VERTEX
  5
2F7
330
2AD
100
AcDbEntity
  8
DIBUJOS
 62
     7
100
AcDbVertex
100
AcDb2dVertex
 10
61.24429252470112
 20
26.27185212437458
 30
0.0
  0
VERTEX
  5
2F8
330
2AD
100
AcDbEntity
  8
DIBUJOS
 62
     7
100
AcDbVertex
100
AcDb2dVertex
 10
61.46850538670815
 20
26.17029056517864
 30
0.0
  0
VERTEX
  5
2F9
330
2AD
100
AcDbEntity
  8
DIBUJOS
 62
     7
100
AcDbVertex
100
AcDb2dVertex
 10
61.51907382663186
 20
26.14833941598923
 30
0.0
  0
VERTEX
  5
2FA
330
2AD
100
AcDbEntity
  8
DIBUJOS
 62
     7
100
AcDbVertex
100
AcDb2dVertex
 10
61.67071185086293
 20
26.10923713253345
 30
0.0
  0
VERTEX
  5
2FB
330
2AD
100
AcDbEntity
  8
DIBUJOS
 62
     7
100
AcDbVertex
100
AcDb2dVertex
 10
61.90570560967349
 20
26.05460694851206
 30
0.0
  0
VERTEX
  5
2FC
330
2AD
100
AcDbEntity
  8
DIBUJOS
 62
     7
100
AcDbVertex
100
AcDb2dVertex
 10
62.1587398662281
 20
26.02039784737987
 30
0.0
  0
VERTEX
  5
2FD
330
2AD
100
AcDbEntity
  8
DIBUJOS
 62
     7
100
AcDbVertex
100
AcDb2dVertex
 10
62.25425719038484
 20
26.0091404981995
 30
0.0
  0
VERTEX
  5
2FE
330
2AD
100
AcDbEntity
  8
DIBUJOS
 62
     7
100
AcDbVertex
100
AcDb2dVertex
 10
62.49063844713546
 20
25.98613648160634
 30
0.0
  0
VERTEX
  5
2FF
330
2AD
100
AcDbEntity
  8
DIBUJOS
 62
     7
100
AcDbVertex
100
AcDb2dVertex
 10
62.64777504631103
 20
25.98070853353595
 30
0.0
  0
VERTEX
  5
300
330
2AD
100
AcDbEntity
  8
DIBUJOS
 62
     7
100
AcDbVertex
100
AcDb2dVertex
 10
62.81643279323478
 20
25.97497532966437
 30
0.0
  0
VERTEX
  5
301
330
2AD
100
AcDbEntity
  8
DIBUJOS
 62
     7
100
AcDbVertex
100
AcDb2dVertex
 10
66.41238889962786
 20
25.97216515839174
 30
0.0
  0
SEQEND
  5
302
330
2AD
100
AcDbEntity
  8
DIBUJOS
 62
     7
  0
ENDBLK
  5
2AC
330
2A9
100
AcDbEntity
  8
0
100
AcDbBlockEnd
  0
ENDSEC
  0
SECTION
  2
ENTITIES
  0
MTEXT
  5
41
330
1F
100
AcDbEntity
  8
REFERENCIAS
 62
   255
100
AcDbMText
 10
58.66890490442729
 20
54.85563098807646
 30
0.0
 40
1.49859999962535
 41
0.0
 71
     7
 72
     1
  1
\fMyriad Pro|b0|i0|c0|p34;\W1;ARISA_1108_80x80_70x70__TABLE
  0
MTEXT
  5
43
330
1F
100
AcDbEntity
  8
M_U_00C1RGENES
 62
   255
100
AcDbMText
 10
90.14127864703391
 20
23.7555119243149
 30
0.0
 40
1.748366666229575
 41
0.0
 71
     7
 72
     1
  1
\fMyriad Pro|b0|i0|c0|p34;\W1;400
  0
MTEXT
  5
44
330
1F
100
AcDbEntity
  8
M_U_00C1RGENES
 62
   255
100
AcDbMText
 10
84.21176331851954
 20
20.50332059082737
 30
0.0
 40
1.748366666229575
 41
0.0
 71
     7
 72
     1
  1
\fMyriad Pro|b0|i0|c0|p34;\W1;400
  0
POLYLINE
  5
45
330
1F
100
AcDbEntity
  8
M_U_00C1RGENES
 62
   255
100
AcDb2dPolyline
 66
     1
 10
0.0
 20
0.0
 30
0.0
  0
VERTEX
  5
46
330
45
100
AcDbEntity
  8
M_U_00C1RGENES
 62
   255
100
AcDbVertex
100
AcDb2dVertex
 10
84.41666477502157
 20
24.76314475783758
 30
0.0
  0
VERTEX
  5
47
330
45
100
AcDbEntity
  8
M_U_00C1RGENES
 62
   255
100
AcDbVertex
100
AcDb2dVertex
 10
94.99999810570907
 20
19.74726776251925
 30
0.0
  0
SEQEND
  5
48
330
45
100
AcDbEntity
  8
M_U_00C1RGENES
 62
   255
  0
POLYLINE
  5
49
330
1F
100
AcDbEntity
  8
M_U_00C1RGENES
 62
   254
100
AcDb2dPolyline
 66
     1
 10
0.0
 20
0.0
 30
0.0
  0
VERTEX
  5
4A
330
49
100
AcDbEntity
  8
M_U_00C1RGENES
 62
   254
100
AcDbVertex
100
AcDb2dVertex
 10
54.99999767595828
 20
20.88258920325216
 30
0.0
  0
VERTEX
  5
4B
330
49
100
AcDbEntity
  8
M_U_00C1RGENES
 62
   254
100
AcDbVertex
100
AcDb2dVertex
 10
54.99999767595828
 20
19.74726776251925
 30
0.0
  0
SEQEND
  5
4C
330
49
100
AcDbEntity
  8
M_U_00C1RGENES
 62
   254
  0
POLYLINE
  5
4D
330
1F
100
AcDbEntity
  8
M_U_00C1RGENES
 62
   255
100
AcDb2dPolyline
 66
     1
 10
0.0
 20
0.0
 30
0.0
  0
VERTEX
  5
4E
330
4D
100
AcDbEntity
  8
M_U_00C1RGENES
 62
   255
100
AcDbVertex
100
AcDb2dVertex
 10
94.99999797321169
 20
59.74726768656564
 30
0.0
  0
VERTEX
  5
4F
330
4D
100
AcDbEntity
  8
M_U_00C1RGENES
 62
   255
100
AcDbVertex
100
AcDb2dVertex
 10
93.86467653247878
 20
59.74726768651462
 30
0.0
  0
SEQEND
  5
50
330
4D
100
AcDbEntity
  8
M_U_00C1RGENES
 62
   255
  0
INSERT
  5
53
330
1F
100
AcDbEntity
  8
DIBUJOS
100
AcDbBlockReference
  2
BLOCK_2
 10
0.0
 20
0.0
 30
0.0
  0
INSERT
  5
169
330
1F
100
AcDbEntity
  8
DIBUJOS
100
AcDbBlockReference
  2
BLOCK_3
 10
0.0
 20
0.0
 30
0.0
  0
INSERT
  5
256
330
1F
100
AcDbEntity
  8
DIBUJOS
100
AcDbBlockReference
  2
BLOCK_4
 10
0.0
 20
0.0
 30
0.0
  0
INSERT
  5
2AA
330
1F
100
AcDbEntity
  8
DIBUJOS
100
AcDbBlockReference
  2
BLOCK_5
 10
0.0
 20
0.0
 30
0.0
  0
POLYLINE
  5
304
330
1F
100
AcDbEntity
  8
COTAS_LINEA
 62
     7
100
AcDb2dPolyline
 66
     1
 10
0.0
 20
0.0
 30
0.0
  0
VERTEX
  5
305
330
304
100
AcDbEntity
  8
COTAS_LINEA
 62
     7
100
AcDbVertex
100
AcDb2dVertex
 10
70.80484641930238
 20
50.30444322189562
 30
0.0
  0
VERTEX
  5
306
330
304
100
AcDbEntity
  8
COTAS_LINEA
 62
     7
100
AcDbVertex
100
AcDb2dVertex
 10
70.80484642016577
 20
42.68421520733689
 30
0.0
  0
SEQEND
  5
307
330
304
100
AcDbEntity
  8
COTAS_LINEA
 62
     7
  0
POLYLINE
  5
308
330
1F
100
AcDbEntity
  8
COTAS_LINEA
 62
     7
100
AcDb2dPolyline
 66
     1
 10
0.0
 20
0.0
 30
0.0
  0
VERTEX
  5
309
330
308
100
AcDbEntity
  8
COTAS_LINEA
 62
     7
100
AcDbVertex
100
AcDb2dVertex
 10
86.67984641533363
 20
50.30444322189562
 30
0.0
  0
VERTEX
  5
30A
330
308
100
AcDbEntity
  8
COTAS_LINEA
 62
     7
100
AcDbVertex
100
AcDb2dVertex
 10
86.67984641619735
 20
42.68421520733689
 30
0.0
  0
SEQEND
  5
30B
330
308
100
AcDbEntity
  8
COTAS_LINEA
 62
     7
  0
POLYLINE
  5
30C
330
1F
100
AcDbEntity
  8
COTAS_LINEA
 62
     7
100
AcDb2dPolyline
 66
     1
 10
0.0
 20
0.0
 30
0.0
  0
VERTEX
  5
30D
330
30C
100
AcDbEntity
  8
COTAS_LINEA
 62
     7
100
AcDbVertex
100
AcDb2dVertex
 10
77.50404839861201
 20
38.66119575631178
 30
0.0
  0
VERTEX
  5
30E
330
30C
100
AcDbEntity
  8
COTAS_LINEA
 62
     7
100
AcDbVertex
100
AcDb2dVertex
 10
85.49503440108263
 20
38.66119575631178
 30
0.0
  0
SEQEND
  5
30F
330
30C
100
AcDbEntity
  8
COTAS_LINEA
 62
     7
  0
POLYLINE
  5
310
330
1F
100
AcDbEntity
  8
COTAS_LINEA
 62
     7
100
AcDb2dPolyline
 66
     1
 10
0.0
 20
0.0
 30
0.0
  0
VERTEX
  5
311
330
310
100
AcDbEntity
  8
COTAS_LINEA
 62
     7
100
AcDbVertex
100
AcDb2dVertex
 10
61.60456795805398
 20
38.66119575631178
 30
0.0
  0
VERTEX
  5
312
330
310
100
AcDbEntity
  8
COTAS_LINEA
 62
     7
100
AcDbVertex
100
AcDb2dVertex
 10
67.80351820943932
 20
38.66119575631178
 30
0.0
  0
SEQEND
  5
313
330
310
100
AcDbEntity
  8
COTAS_LINEA
 62
     7
  0
MTEXT
  5
315
330
1F
100
AcDbEntity
  8
COTAS_N_U_00DAMERO
 62
     7
100
AcDbMText
 10
71.58015385003846
 20
45.13618226512384
 30
0.0
 40
1.998533025814148
 41
0.0
 71
     7
 72
     1
  1
\fMyriad Pro|b0|i0|c0|p34;\W1;75
  0
MTEXT
  5
316
330
1F
100
AcDbEntity
  8
COTAS_N_U_00DAMERO
 62
     7
100
AcDbMText
 10
87.4551538460697
 20
45.13618226512384
 30
0.0
 40
1.998533025814148
 41
0.0
 71
     7
 72
     1
  1
\fMyriad Pro|b0|i0|c0|p34;\W1;75
  0
MTEXT
  5
317
330
1F
100
AcDbEntity
  8
COTAS_N_U_00DAMERO
 62
     7
100
AcDbMText
 10
79.92279707711945
 20
39.21634011877664
 30
0.0
 40
1.998533025814148
 41
0.0
 71
     7
 72
     1
  1
\fMyriad Pro|b0|i0|c0|p34;\W1;70
  0
MTEXT
  5
318
330
1F
100
AcDbEntity
  8
COTAS_N_U_00DAMERO
 62
     7
100
AcDbMText
 10
63.19841417216156
 20
39.21616786400239
 30
0.0
 40
1.998533025814148
 41
0.0
 71
     7
 72
     1
  1
\fMyriad Pro|b0|i0|c0|p34;\W1;80
  0
ENDSEC
  0
SECTION
  2
OBJECTS
  0
DICTIONARY
  5
C
330
0
100
AcDbDictionary
  3
ACAD_GROUP
350
D
  3
ACAD_LAYOUT
350
1A
  3
ACAD_MATERIAL
350
3B
  3
ACAD_MLEADERSTYLE
350
33B
  3
ACAD_MLINESTYLE
350
17
  3
ACAD_PLOTSETTINGS
350
19
  3
ACAD_VISUALSTYLE
350
2A
  3
ACDBHEADERROUNDTRIPXREC
350
319
  3
ACDBVARIABLEDICTIONARY
350
339
  0
DICTIONARY
  5
D
102
{ACAD_REACTORS
330
C
102
}
330
C
100
AcDbDictionary
  0
DICTIONARY
  5
1A
102
{ACAD_REACTORS
330
C
102
}
330
C
100
AcDbDictionary
  0
DICTIONARY
  5
3B
102
{ACAD_REACTORS
330
C
102
}
330
C
100
AcDbDictionary
  3
BYBLOCK
350
3D
  3
BYLAYER
350
3C
  3
GLOBAL
350
3E
  0
DICTIONARY
  5
33B
102
{ACAD_REACTORS
330
C
102
}
330
C
100
AcDbDictionary
  0
DICTIONARY
  5
17
102
{ACAD_REACTORS
330
C
102
}
330
C
100
AcDbDictionary
  3
STANDARD
350
18
  0
DICTIONARY
  5
19
102
{ACAD_REACTORS
330
C
102
}
330
C
100
AcDbDictionary
  0
DICTIONARY
  5
2A
102
{ACAD_REACTORS
330
C
102
}
330
C
100
AcDbDictionary
  3
2DWIREFRAME
350
2F
  3
3D_HIDDEN
350
31
  3
3DWIREFRAME
350
30
  3
BASIC
350
32
  3
BRIGHTEN
350
36
  3
COLORCHANGE
350
3A
  3
CONCEPTUAL
350
34
  3
DIM
350
35
  3
FACEPATTERN
350
39
  3
FLAT
350
2B
  3
FLATWITHEDGES
350
2C
  3
GOURAUD
350
2D
  3
GOURAUDWITHEDGES
350
2E
  3
LINEPATTERN
350
38
  3
REALISTIC
350
33
  3
THICKEN
350
37
  0
DICTIONARY
  5
319
102
{ACAD_REACTORS
330
C
102
}
330
C
100
AcDbDictionary
  3
CEPSNTYPE
350
322
  3
DIMSTYLEDATA
350
338
  3
FINGERPRINTGUID
350
323
  3
HYPERLINKBASE
350
31C
  3
INSUNITS
350
321
  3
LAYOUTDICT
350
31E
  3
LWETCUNION
350
320
  3
PLOTSETDICT
350
31F
  3
PSVPSCALE
350
325
  3
PUCSBASE
350
328
  3
PUCSORGBACK
350
32E
  3
PUCSORGBOTTOM
350
32A
  3
PUCSORGFRONT
350
32D
  3
PUCSORGLEFT
350
32B
  3
PUCSORGRIGHT
350
32C
  3
PUCSORGTOP
350
329
  3
PUCSORTHOREF
350
326
  3
PUCSORTHOVIEW
350
327
  3
STYLESHEET
350
31D
  3
TSTACKALIGN
350
31A
  3
TSTACKSIZE
350
31B
  3
UCSBASE
350
331
  3
UCSORGBACK
350
337
  3
UCSORGBOTTOM
350
333
  3
UCSORGFRONT
350
336
  3
UCSORGLEFT
350
334
  3
UCSORGRIGHT
350
335
  3
UCSORGTOP
350
332
  3
UCSORTHOREF
350
32F
  3
UCSORTHOVIEW
350
330
  3
VERSIONGUID
350
324
  0
DICTIONARY
  5
339
102
{ACAD_REACTORS
330
C
102
}
330
C
100
AcDbDictionary
  3
DIMASSOC
350
33C
  3
HIDETEXT
350
33D
  0
MATERIAL
  5
3D
102
{ACAD_REACTORS
330
3B
102
}
102
{ACAD_XDICTIONARY
360
340
102
}
330
3B
100
AcDbMaterial
  1
ByBlock
  0
MATERIAL
  5
3C
102
{ACAD_REACTORS
330
3B
102
}
102
{ACAD_XDICTIONARY
360
33E
102
}
330
3B
100
AcDbMaterial
  1
ByLayer
  0
MATERIAL
  5
3E
102
{ACAD_REACTORS
330
3B
102
}
102
{ACAD_XDICTIONARY
360
342
102
}
330
3B
100
AcDbMaterial
  1
Global
  0
MLINESTYLE
  5
18
102
{ACAD_REACTORS
330
17
102
}
330
17
100
AcDbMlineStyle
  2
Standard
 70
     0
  3

 62
   256
 51
90.0
 52
90.0
 71
     2
 49
0.5
 62
   256
  6
BYLAYER
 49
-0.5
 62
   256
  6
BYLAYER
  0
ACAD_PROXY_OBJECT
  5
2F
102
{ACAD_REACTORS
330
2A
102
}
330
2A
100
AcDbProxyObject
 90
      499
 91
      501
 93
      436
310
42CC9915DA5C99599C985B595049028333333333333E3BF0000000000000FB0107901411070040501600405405064090741402480A0340
1001
ACAD
1000
AcDbSavedByObjectVersion
1070
     0
  0
ACAD_PROXY_OBJECT
  5
31
102
{ACAD_REACTORS
330
2A
102
}
330
2A
100
AcDbProxyObject
 90
      499
 91
      501
 93
      500
310
424CD108121A5919195B90640502408333333333333E3BF0000000000000FB01079024090700405020000000000001110200405405064090740C02480A0340
1001
ACAD
1000
AcDbSavedByObjectVersion
1070
     0
  0
ACAD_PROXY_OBJECT
  5
30
102
{ACAD_REACTORS
330
2A
102
}
330
2A
100
AcDbProxyObject
 90
      499
 91
      501
 93
      436
310
42CCD915DA5C99599C985B595059028333333333333E3BF0000000000000FB0107901411070040501600405405064090741402480A0340
1001
ACAD
1000
AcDbSavedByObjectVersion
1070
     0
  0
ACAD_PROXY_OBJECT
  5
32
102
{ACAD_REACTORS
330
2A
102
}
330
2A
100
AcDbProxyObject
 90
      499
 91
      501
 93
      388
310
4150985CDA58D07406404333333333333E3BF0000000000000FB0107A41107004050150841D405064090741402480A0350
1001
ACAD
1000
AcDbSavedByObjectVersion
1070
     0
  0
ACAD_PROXY_OBJECT
  5
36
102
{ACAD_REACTORS
330
2A
102
}
330
2A
100
AcDbProxyObject
 90
      499
 91
      501
 93
      428
310
42109C9A59DA1D195B90C409028333333333333E3BF0000000000000FB010790141107004050150841D405064090741402480A029950
1001
ACAD
1000
AcDbSavedByObjectVersion
1070
     0
  0
ACAD_PROXY_OBJECT
  5
3A
102
{ACAD_REACTORS
330
2A
102
}
330
2A
100
AcDbProxyObject
 90
      499
 91
      501
 93
      452
310
42D0DBDB1BDC90DA185B99D95104090240C333333333333E3BF0000000000000FB0108901411070040501508421405064090741402480A0350
1001
ACAD
1000
AcDbSavedByObjectVersion
1070
     0
  0
ACAD_PROXY_OBJECT
  5
34
102
{ACAD_REACTORS
330
2A
102
}
330
2A
100
AcDbProxyObject
 90
      499
 91
      501
 93
      500
310
4290DBDB98D95C1D1D585B10940D028333333333333E3BF0000000000000FB0107902409070040501000000000000111010841D405064090740C02480A0340
1001
ACAD
1000
AcDbSavedByObjectVersion
1070
     0
  0
ACAD_PROXY_OBJECT
  5
35
102
{ACAD_REACTORS
330
2A
102
}
330
2A
100
AcDbProxyObject
 90
      499
 91
      501
 93
      412
310
40D11A5B50B409028333333333333E3BF0000000000000FB010790141107004050150841D405064090741402480A02677FFFFFD0
1001
ACAD
1000
AcDbSavedByObjectVersion
1070
     0
  0
ACAD_PROXY_OBJECT
  5
39
102
{ACAD_REACTORS
330
2A
102
}
330
2A
100
AcDbProxyObject
 90
      499
 91
      501
 93
      444
310
42D19858D95C185D1D195C9B90F409028333333333333E3BF0000000000000FB010790141107004050150841D405064090741402480A0350
1001
ACAD
1000
AcDbSavedByObjectVersion
1070
     0
  0
ACAD_PROXY_OBJECT
  5
2B
102
{ACAD_REACTORS
330
2A
102
}
330
2A
100
AcDbProxyObject
 90
      499
 91
      501
 93
      388
310
41119B185D240901404333333333333E3BF0000000000000F9010740A41107004050150841D405064090741402480A1B50
1001
ACAD
1000
AcDbSavedByObjectVersion
1070
     0
  0
ACAD_PROXY_OBJECT
  5
2C
102
{ACAD_REACTORS
330
2A
102
}
330
2A
100
AcDbProxyObject
 90
      499
 91
      501
 93
      476
310
43519B185D15DA5D1A115919D95CD0140901404333333333333E3BF0000000000000F9010740901411070040501600405405064090741402480A1B50
1001
ACAD
1000
AcDbSavedByObjectVersion
1070
     0
  0
ACAD_PROXY_OBJECT
  5
2D
102
{ACAD_REACTORS
330
2A
102
}
330
2A
100
AcDbProxyObject
 90
      499
 91
      501
 93
      412
310
41D1DBDD5C985D5910240902404333333333333E3BF0000000000000F9010740A411070040501641D405064090741402480A1B50
1001
ACAD
1000
AcDbSavedByObjectVersion
1070
     0
  0
ACAD_PROXY_OBJECT
  5
2E
102
{ACAD_REACTORS
330
2A
102
}
330
2A
100
AcDbProxyObject
 90
      499
 91
      501
 93
      500
310
4411DBDD5C985D5915DA5D1A115919D95CD0340902404333333333333E3BF0000000000000F9010740901411070040501600405405064090741402480A1B50
1001
ACAD
1000
AcDbSavedByObjectVersion
1070
     0
  0
ACAD_PROXY_OBJECT
  5
38
102
{ACAD_REACTORS
330
2A
102
}
330
2A
100
AcDbProxyObject
 90
      499
 91
      501
 93
      444
310
42D31A5B995C185D1D195C9B90E409028333333333333E3BF0000000000000FB010790141107004050750841D405064090741402483A0350
1001
ACAD
1000
AcDbSavedByObjectVersion
1070
     0
  0
ACAD_PROXY_OBJECT
  5
33
102
{ACAD_REACTORS
330
2A
102
}
330
2A
100
AcDbProxyObject
 90
      499
 91
      501
 93
      420
310
425499585B1A5CDD1A58D08409028333333333333E3BF0000000000000FB01079019070040501508421405064090741402480A1B40
1001
ACAD
1000
AcDbSavedByObjectVersion
1070
     0
  0
ACAD_PROXY_OBJECT
  5
37
102
{ACAD_REACTORS
330
2A
102
}
330
2A
100
AcDbProxyObject
 90
      499
 91
      501
 93
      412
310
41D51A1A58DAD95B90D409028333333333333E3BF0000000000000FB010790141107004050150C41D405064090741402480A0350
1001
ACAD
1000
AcDbSavedByObjectVersion
1070
     0
  0
XRECORD
  5
322
102
{ACAD_REACTORS
330
319
102
}
330
319
100
AcDbXrecord
 90
        0
  0
XRECORD
  5
338
102
{ACAD_REACTORS
330
319
102
}
330
319
100
AcDbXrecord
1000
DSTYLE
1002
{
1070
   340
340
11
1002
}
  0
XRECORD
  5
323
102
{ACAD_REACTORS
330
319
102
}
330
319
100
AcDbXrecord
  1
{37093E9E-DE31-413B-8185-9E5DFA995CEF}
  0
XRECORD
  5
31C
102
{ACAD_REACTORS
330
319
102
}
330
319
100
AcDbXrecord
  1

  0
XRECORD
  5
321
102
{ACAD_REACTORS
330
319
102
}
330
319
100
AcDbXrecord
 90
        1
  0
XRECORD
  5
31E
102
{ACAD_REACTORS
330
319
102
}
330
319
100
AcDbXrecord
340
1A
  0
XRECORD
  5
320
102
{ACAD_REACTORS
330
319
102
}
330
319
100
AcDbXrecord
 90
    10269
  0
XRECORD
  5
31F
102
{ACAD_REACTORS
330
319
102
}
330
319
100
AcDbXrecord
340
19
  0
XRECORD
  5
325
102
{ACAD_REACTORS
330
319
102
}
330
319
100
AcDbXrecord
 40
0.0
  0
XRECORD
  5
328
102
{ACAD_REACTORS
330
319
102
}
330
319
100
AcDbXrecord
340
0
  0
XRECORD
  5
32E
102
{ACAD_REACTORS
330
319
102
}
330
319
100
AcDbXrecord
 10
0.0
 20
0.0
 30
0.0
  0
XRECORD
  5
32A
102
{ACAD_REACTORS
330
319
102
}
330
319
100
AcDbXrecord
 10
0.0
 20
0.0
 30
0.0
  0
XRECORD
  5
32D
102
{ACAD_REACTORS
330
319
102
}
330
319
100
AcDbXrecord
 10
0.0
 20
0.0
 30
0.0
  0
XRECORD
  5
32B
102
{ACAD_REACTORS
330
319
102
}
330
319
100
AcDbXrecord
 10
0.0
 20
0.0
 30
0.0
  0
XRECORD
  5
32C
102
{ACAD_REACTORS
330
319
102
}
330
319
100
AcDbXrecord
 10
0.0
 20
0.0
 30
0.0
  0
XRECORD
  5
329
102
{ACAD_REACTORS
330
319
102
}
330
319
100
AcDbXrecord
 10
0.0
 20
0.0
 30
0.0
  0
XRECORD
  5
326
102
{ACAD_REACTORS
330
319
102
}
330
319
100
AcDbXrecord
340
0
  0
XRECORD
  5
327
102
{ACAD_REACTORS
330
319
102
}
330
319
100
AcDbXrecord
 70
     0
  0
XRECORD
  5
31D
102
{ACAD_REACTORS
330
319
102
}
330
319
100
AcDbXrecord
  1

  0
XRECORD
  5
31A
102
{ACAD_REACTORS
330
319
102
}
330
319
100
AcDbXrecord
 90
        1
  0
XRECORD
  5
31B
102
{ACAD_REACTORS
330
319
102
}
330
319
100
AcDbXrecord
 90
       70
  0
XRECORD
  5
331
102
{ACAD_REACTORS
330
319
102
}
330
319
100
AcDbXrecord
340
0
  0
XRECORD
  5
337
102
{ACAD_REACTORS
330
319
102
}
330
319
100
AcDbXrecord
 10
0.0
 20
0.0
 30
0.0
  0
XRECORD
  5
333
102
{ACAD_REACTORS
330
319
102
}
330
319
100
AcDbXrecord
 10
0.0
 20
0.0
 30
0.0
  0
XRECORD
  5
336
102
{ACAD_REACTORS
330
319
102
}
330
319
100
AcDbXrecord
 10
0.0
 20
0.0
 30
0.0
  0
XRECORD
  5
334
102
{ACAD_REACTORS
330
319
102
}
330
319
100
AcDbXrecord
 10
0.0
 20
0.0
 30
0.0
  0
XRECORD
  5
335
102
{ACAD_REACTORS
330
319
102
}
330
319
100
AcDbXrecord
 10
0.0
 20
0.0
 30
0.0
  0
XRECORD
  5
332
102
{ACAD_REACTORS
330
319
102
}
330
319
100
AcDbXrecord
 10
0.0
 20
0.0
 30
0.0
  0
XRECORD
  5
32F
102
{ACAD_REACTORS
330
319
102
}
330
319
100
AcDbXrecord
340
0
  0
XRECORD
  5
330
102
{ACAD_REACTORS
330
319
102
}
330
319
100
AcDbXrecord
 70
     0
  0
XRECORD
  5
324
102
{ACAD_REACTORS
330
319
102
}
330
319
100
AcDbXrecord
  1
{FAEB1C32-E019-11D5-929B-00C0DF256EC4}
  0
DICTIONARYVAR
  5
33C
102
{ACAD_REACTORS
330
339
102
}
330
339
100
DictionaryVariables
280
     0
  1
2
  0
DICTIONARYVAR
  5
33D
102
{ACAD_REACTORS
330
339
102
}
330
339
100
DictionaryVariables
280
     0
  1
1
  0
DICTIONARY
  5
340
330
3D
100
AcDbDictionary
280
     1
  3
ACAD_XREC_ROUNDTRIP
360
341
  0
DICTIONARY
  5
33E
330
3C
100
AcDbDictionary
280
     1
  3
ACAD_XREC_ROUNDTRIP
360
33F
  0
DICTIONARY
  5
342
330
3E
100
AcDbDictionary
280
     1
  3
ACAD_XREC_ROUNDTRIP
360
343
  0
XRECORD
  5
341
102
{ACAD_REACTORS
330
340
102
}
330
340
100
AcDbXrecord
102
MATERIAL
148
0.0
149
0.0
149
0.0
 93
        0
 94
      127
282
     0
 72
     1
 77
     1
171
     1
175
     1
179
     1
273
     0
  0
XRECORD
  5
33F
102
{ACAD_REACTORS
330
33E
102
}
330
33E
100
AcDbXrecord
102
MATERIAL
148
0.0
149
0.0
149
0.0
 93
        0
 94
      127
282
     0
 72
     1
 77
     1
171
     1
175
     1
179
     1
273
     0
  0
XRECORD
  5
343
102
{ACAD_REACTORS
330
342
102
}
330
342
100
AcDbXrecord
102
MATERIAL
148
0.0
149
0.0
149
0.0
 93
        0
 94
      127
282
     0
 72
     1
 77
     1
171
     1
175
     1
179
     1
273
     0
  0
ENDSEC
  0
EOF
