  0
SECTION
  2
HEADER
  9
$ACADVER
  1
AC1014
  9
$ACADMAINTVER
 70
     9
  9
$DWGCODEPAGE
  3
ANSI_1252
  9
$INSBASE
 10
0.0
 20
0.0
 30
0.0
  9
$EXTMIN
 10
1.000000000000000E+20
 20
1.000000000000000E+20
 30
1.000000000000000E+20
  9
$EXTMAX
 10
-1.000000000000000E+20
 20
-1.000000000000000E+20
 30
-1.000000000000000E+20
  9
$LIMMIN
 10
0.0
 20
0.0
  9
$LIMMAX
 10
12.0
 20
9.0
  9
$ORTHOMODE
 70
     0
  9
$REGENMODE
 70
     1
  9
$FILLMODE
 70
     1
  9
$QTEXTMODE
 70
     0
  9
$MIRRTEXT
 70
     1
  9
$DRAGMODE
 70
     2
  9
$LTSCALE
 40
1.0
  9
$OSMODE
 70
    37
  9
$ATTMODE
 70
     1
  9
$TEXTSIZE
 40
0.2
  9
$TRACEWID
 40
0.05
  9
$TEXTSTYLE
  7
STANDARD
  9
$CLAYER
  8
0
  9
$CELTYPE
  6
BYLAYER
  9
$CECOLOR
 62
   256
  9
$CELTSCALE
 40
1.0
  9
$DELOBJ
 70
     1
  9
$DISPSILH
 70
     0
  9
$DIMSCALE
 40
1.0
  9
$DIMASZ
 40
0.18
  9
$DIMEXO
 40
0.0625
  9
$DIMDLI
 40
0.38
  9
$DIMRND
 40
0.0
  9
$DIMDLE
 40
0.0
  9
$DIMEXE
 40
0.18
  9
$DIMTP
 40
0.0
  9
$DIMTM
 40
0.0
  9
$DIMTXT
 40
0.18
  9
$DIMCEN
 40
0.09
  9
$DIMTSZ
 40
0.0
  9
$DIMTOL
 70
     0
  9
$DIMLIM
 70
     0
  9
$DIMTIH
 70
     1
  9
$DIMTOH
 70
     1
  9
$DIMSE1
 70
     0
  9
$DIMSE2
 70
     0
  9
$DIMTAD
 70
     0
  9
$DIMZIN
 70
     0
  9
$DIMBLK
  1

  9
$DIMASO
 70
     1
  9
$DIMSHO
 70
     1
  9
$DIMPOST
  1

  9
$DIMAPOST
  1

  9
$DIMALT
 70
     0
  9
$DIMALTD
 70
     2
  9
$DIMALTF
 40
25.4
  9
$DIMLFAC
 40
1.0
  9
$DIMTOFL
 70
     0
  9
$DIMTVP
 40
0.0
  9
$DIMTIX
 70
     0
  9
$DIMSOXD
 70
     0
  9
$DIMSAH
 70
     0
  9
$DIMBLK1
  1

  9
$DIMBLK2
  1

  9
$DIMSTYLE
  2
STANDARD
  9
$DIMCLRD
 70
     0
  9
$DIMCLRE
 70
     0
  9
$DIMCLRT
 70
     0
  9
$DIMTFAC
 40
1.0
  9
$DIMGAP
 40
0.09
  9
$DIMJUST
 70
     0
  9
$DIMSD1
 70
     0
  9
$DIMSD2
 70
     0
  9
$DIMTOLJ
 70
     1
  9
$DIMTZIN
 70
     0
  9
$DIMALTZ
 70
     0
  9
$DIMALTTZ
 70
     0
  9
$DIMFIT
 70
     3
  9
$DIMUPT
 70
     0
  9
$DIMUNIT
 70
     2
  9
$DIMDEC
 70
     4
  9
$DIMTDEC
 70
     4
  9
$DIMALTU
 70
     2
  9
$DIMALTTD
 70
     2
  9
$DIMTXSTY
  7
STANDARD
  9
$DIMAUNIT
 70
     0
  9
$LUNITS
 70
     2
  9
$LUPREC
 70
     4
  9
$SKETCHINC
 40
0.1
  9
$FILLETRAD
 40
0.5
  9
$AUNITS
 70
     0
  9
$AUPREC
 70
     0
  9
$MENU
  1
.
  9
$ELEVATION
 40
0.0
  9
$PELEVATION
 40
0.0
  9
$THICKNESS
 40
0.0
  9
$LIMCHECK
 70
     0
  9
$CHAMFERA
 40
0.5
  9
$CHAMFERB
 40
0.5
  9
$CHAMFERC
 40
1.0
  9
$CHAMFERD
 40
0.0
  9
$SKPOLY
 70
     0
  9
$TDCREATE
 40
2460493.405779398
  9
$TDUPDATE
 40
2460493.405779537
  9
$TDINDWG
 40
0.0000000116
  9
$TDUSRTIMER
 40
0.0000000116
  9
$USRTIMER
 70
     1
  9
$ANGBASE
 50
0.0
  9
$ANGDIR
 70
     0
  9
$PDMODE
 70
     0
  9
$PDSIZE
 40
0.0
  9
$PLINEWID
 40
0.0
  9
$COORDS
 70
     1
  9
$SPLFRAME
 70
     0
  9
$SPLINETYPE
 70
     6
  9
$SPLINESEGS
 70
     8
  9
$ATTDIA
 70
     0
  9
$ATTREQ
 70
     1
  9
$HANDLING
 70
     1
  9
$HANDSEED
  5
55C
  9
$SURFTAB1
 70
     6
  9
$SURFTAB2
 70
     6
  9
$SURFTYPE
 70
     6
  9
$SURFU
 70
     6
  9
$SURFV
 70
     6
  9
$UCSNAME
  2

  9
$UCSORG
 10
0.0
 20
0.0
 30
0.0
  9
$UCSXDIR
 10
1.0
 20
0.0
 30
0.0
  9
$UCSYDIR
 10
0.0
 20
1.0
 30
0.0
  9
$PUCSNAME
  2

  9
$PUCSORG
 10
0.0
 20
0.0
 30
0.0
  9
$PUCSXDIR
 10
1.0
 20
0.0
 30
0.0
  9
$PUCSYDIR
 10
0.0
 20
1.0
 30
0.0
  9
$USERI1
 70
     0
  9
$USERI2
 70
     0
  9
$USERI3
 70
     0
  9
$USERI4
 70
     0
  9
$USERI5
 70
     0
  9
$USERR1
 40
0.0
  9
$USERR2
 40
0.0
  9
$USERR3
 40
0.0
  9
$USERR4
 40
0.0
  9
$USERR5
 40
0.0
  9
$WORLDVIEW
 70
     1
  9
$SHADEDGE
 70
     3
  9
$SHADEDIF
 70
    70
  9
$TILEMODE
 70
     1
  9
$MAXACTVP
 70
    64
  9
$PINSBASE
 10
0.0
 20
0.0
 30
0.0
  9
$PLIMCHECK
 70
     0
  9
$PEXTMIN
 10
1.000000000000000E+20
 20
1.000000000000000E+20
 30
1.000000000000000E+20
  9
$PEXTMAX
 10
-1.000000000000000E+20
 20
-1.000000000000000E+20
 30
-1.000000000000000E+20
  9
$PLIMMIN
 10
0.0
 20
0.0
  9
$PLIMMAX
 10
12.0
 20
9.0
  9
$UNITMODE
 70
     0
  9
$VISRETAIN
 70
     1
  9
$PLINEGEN
 70
     0
  9
$PSLTSCALE
 70
     1
  9
$TREEDEPTH
 70
  3020
  9
$PICKSTYLE
 70
     1
  9
$CMLSTYLE
  2
STANDARD
  9
$CMLJUST
 70
     0
  9
$CMLSCALE
 40
1.0
  9
$PROXYGRAPHICS
 70
     1
  9
$MEASUREMENT
 70
     0
  0
ENDSEC
  0
SECTION
  2
CLASSES
  0
CLASS
  1
ACDBDICTIONARYWDFLT
  2
AcDbDictionaryWithDefault
  3
ObjectDBX Classes
 90
        0
280
     0
281
     0
  0
CLASS
  1
VISUALSTYLE
  2
AcDbVisualStyle
  3
ObjectDBX Classes
 90
     4095
280
     0
281
     0
  0
CLASS
  1
MATERIAL
  2
AcDbMaterial
  3
ObjectDBX Classes
 90
     1153
280
     0
281
     0
  0
CLASS
  1
SUN
  2
AcDbSun
  3
SCENEOE
 90
     1024
280
     0
281
     0
  0
CLASS
  1
DICTIONARYVAR
  2
AcDbDictionaryVar
  3
ObjectDBX Classes
 90
        0
280
     0
281
     0
  0
CLASS
  1
XRECORD
  2
AcDbXrecord
  3
AutoCAD 2000
 90
        0
280
     0
281
     0
  0
CLASS
  1
LWPOLYLINE
  2
AcDbPolyline
  3
AutoCAD 2000
 90
        0
280
     0
281
     1
  0
CLASS
  1
HATCH
  2
AcDbHatch
  3
AutoCAD 2000
 90
        0
280
     0
281
     1
  0
CLASS
  1
ACDBPLACEHOLDER
  2
AcDbPlaceHolder
  3
ObjectDBX Classes
 90
        0
280
     0
281
     0
  0
CLASS
  1
LAYOUT
  2
AcDbLayout
  3
ObjectDBX Classes
 90
        0
280
     0
281
     0
  0
ENDSEC
  0
SECTION
  2
TABLES
  0
TABLE
  2
VPORT
  5
8
330
0
100
AcDbSymbolTable
 70
     1
  0
VPORT
  5
29
330
8
100
AcDbSymbolTableRecord
100
AcDbViewportTableRecord
  2
*ACTIVE
 70
     0
 10
0.0
 20
0.0
 11
1.0
 21
1.0
 12
0.0
 22
0.0
 13
0.0
 23
0.0
 14
0.5
 24
0.5
 15
0.5
 25
0.5
 16
0.0
 26
0.0
 36
1.0
 17
74.99999786197358
 27
39.74999886684608
 37
0.0
 40
39.99999998999989
 41
1.000000000000008
 42
50.0
 43
0.0
 44
0.0
 50
0.0
 51
0.0
 71
     0
 72
   100
 73
     1
 74
     3
 75
     0
 76
     0
 77
     0
 78
     0
  0
ENDTAB
  0
TABLE
  2
LTYPE
  5
5
330
0
100
AcDbSymbolTable
 70
     1
  0
LTYPE
  5
14
330
5
100
AcDbSymbolTableRecord
100
AcDbLinetypeTableRecord
  2
BYBLOCK
 70
     0
  3

 72
    65
 73
     0
 40
0.0
  0
LTYPE
  5
15
330
5
100
AcDbSymbolTableRecord
100
AcDbLinetypeTableRecord
  2
BYLAYER
 70
     0
  3

 72
    65
 73
     0
 40
0.0
  0
LTYPE
  5
16
330
5
100
AcDbSymbolTableRecord
100
AcDbLinetypeTableRecord
  2
CONTINUOUS
 70
     0
  3
Solid line
 72
    65
 73
     0
 40
0.0
  0
ENDTAB
  0
TABLE
  2
LAYER
  5
2
330
0
100
AcDbSymbolTable
 70
     6
  0
LAYER
  5
10
330
2
100
AcDbSymbolTableRecord
100
AcDbLayerTableRecord
  2
0
 70
     0
 62
     7
  6
CONTINUOUS
  0
LAYER
  5
40
330
2
100
AcDbSymbolTableRecord
100
AcDbLayerTableRecord
  2
REFERENCIAS
 70
     0
 62
     7
  6
CONTINUOUS
  0
LAYER
  5
42
330
2
100
AcDbSymbolTableRecord
100
AcDbLayerTableRecord
  2
M_U_00C1RGENES
 70
     0
 62
     7
  6
CONTINUOUS
  0
LAYER
  5
51
330
2
100
AcDbSymbolTableRecord
100
AcDbLayerTableRecord
  2
DIBUJOS
 70
     0
 62
     7
  6
CONTINUOUS
  0
LAYER
  5
525
330
2
100
AcDbSymbolTableRecord
100
AcDbLayerTableRecord
  2
COTAS_LINEA
 70
     0
 62
     7
  6
CONTINUOUS
  0
LAYER
  5
52E
330
2
100
AcDbSymbolTableRecord
100
AcDbLayerTableRecord
  2
COTAS_N_U_00DAMERO
 70
     0
 62
     7
  6
CONTINUOUS
  0
ENDTAB
  0
TABLE
  2
STYLE
  5
3
330
0
100
AcDbSymbolTable
 70
     1
  0
STYLE
  5
11
330
3
100
AcDbSymbolTableRecord
100
AcDbTextStyleTableRecord
  2
STANDARD
 70
     0
 40
0.0
 41
1.0
 50
0.0
 71
     0
 42
0.2
  3
txt
  4

  0
ENDTAB
  0
TABLE
  2
VIEW
  5
6
330
0
100
AcDbSymbolTable
 70
     0
  0
ENDTAB
  0
TABLE
  2
UCS
  5
7
330
0
100
AcDbSymbolTable
 70
     0
  0
ENDTAB
  0
TABLE
  2
APPID
  5
9
330
0
100
AcDbSymbolTable
 70
     1
  0
APPID
  5
12
330
9
100
AcDbSymbolTableRecord
100
AcDbRegAppTableRecord
  2
ACAD
 70
     0
  0
ENDTAB
  0
TABLE
  2
DIMSTYLE
  5
A
330
0
100
AcDbSymbolTable
 70
     1
  0
DIMSTYLE
105
27
330
A
100
AcDbSymbolTableRecord
100
AcDbDimStyleTableRecord
  2
STANDARD
 70
     0
  3

  4

  5

  6

  7

 40
1.0
 41
0.18
 42
0.0625
 43
0.38
 44
0.18
 45
0.0
 46
0.0
 47
0.0
 48
0.0
140
0.18
141
0.09
142
0.0
143
25.4
144
1.0
145
0.0
146
1.0
147
0.09
 71
     0
 72
     0
 73
     1
 74
     1
 75
     0
 76
     0
 77
     0
 78
     0
170
     0
171
     2
172
     0
173
     0
174
     0
175
     0
176
     0
177
     0
178
     0
270
     2
271
     4
272
     4
273
     2
274
     2
340
11
275
     0
280
     0
281
     0
282
     0
283
     1
284
     0
285
     0
286
     0
287
     3
288
     0
  0
ENDTAB
  0
TABLE
  2
BLOCK_RECORD
  5
1
330
0
100
AcDbSymbolTable
 70
     3
  0
BLOCK_RECORD
  5
1F
330
1
100
AcDbSymbolTableRecord
100
AcDbBlockTableRecord
  2
*MODEL_SPACE
  0
BLOCK_RECORD
  5
1B
330
1
100
AcDbSymbolTableRecord
100
AcDbBlockTableRecord
  2
*PAPER_SPACE
  0
BLOCK_RECORD
  5
52
330
1
100
AcDbSymbolTableRecord
100
AcDbBlockTableRecord
  2
BLOCK_2
  0
BLOCK_RECORD
  5
192
330
1
100
AcDbSymbolTableRecord
100
AcDbBlockTableRecord
  2
BLOCK_3
  0
ENDTAB
  0
ENDSEC
  0
SECTION
  2
BLOCKS
  0
BLOCK
  5
20
330
1F
100
AcDbEntity
  8
0
100
AcDbBlockBegin
  2
*MODEL_SPACE
 70
     0
 10
0.0
 20
0.0
 30
0.0
  3
*MODEL_SPACE
  1

  0
ENDBLK
  5
21
330
1F
100
AcDbEntity
  8
0
100
AcDbBlockEnd
  0
BLOCK
  5
1C
330
1B
100
AcDbEntity
 67
     1
  8
0
100
AcDbBlockBegin
  2
*PAPER_SPACE
 70
     0
 10
0.0
 20
0.0
 30
0.0
  3
*PAPER_SPACE
  1

  0
ENDBLK
  5
1D
330
1B
100
AcDbEntity
 67
     1
  8
0
100
AcDbBlockEnd
  0
BLOCK
  5
54
330
52
100
AcDbEntity
  8
0
100
AcDbBlockBegin
  2
BLOCK_2
 70
     0
 10
0.0
 20
0.0
 30
0.0
  3
BLOCK_2
  1

  0
POLYLINE
  5
56
330
52
100
AcDbEntity
  8
DIBUJOS
 62
     7
100
AcDb2dPolyline
 66
     1
 10
0.0
 20
0.0
 30
0.0
  0
VERTEX
  5
57
330
56
100
AcDbEntity
  8
DIBUJOS
 62
     7
100
AcDbVertex
100
AcDb2dVertex
 10
66.63341129214687
 20
46.61542472578387
 30
0.0
  0
VERTEX
  5
58
330
56
100
AcDbEntity
  8
DIBUJOS
 62
     7
100
AcDbVertex
100
AcDb2dVertex
 10
63.79191779392607
 20
46.62147425224095
 30
0.0
  0
VERTEX
  5
59
330
56
100
AcDbEntity
  8
DIBUJOS
 62
     7
100
AcDbVertex
100
AcDb2dVertex
 10
62.64900361424541
 20
46.6302244019784
 30
0.0
  0
VERTEX
  5
5A
330
56
100
AcDbEntity
  8
DIBUJOS
 62
     7
100
AcDbVertex
100
AcDb2dVertex
 10
62.59486187442192
 20
46.62752703638555
 30
0.0
  0
SEQEND
  5
5B
330
56
100
AcDbEntity
  8
DIBUJOS
 62
     7
  0
POLYLINE
  5
5C
330
52
100
AcDbEntity
  8
DIBUJOS
 62
     7
100
AcDb2dPolyline
 66
     1
 10
0.0
 20
0.0
 30
0.0
  0
VERTEX
  5
5D
330
5C
100
AcDbEntity
  8
DIBUJOS
 62
     7
100
AcDbVertex
100
AcDb2dVertex
 10
66.24043986033156
 20
46.54280108911185
 30
0.0
  0
VERTEX
  5
5E
330
5C
100
AcDbEntity
  8
DIBUJOS
 62
     7
100
AcDbVertex
100
AcDb2dVertex
 10
66.17998134011611
 20
46.54280108911185
 30
0.0
  0
SEQEND
  5
5F
330
5C
100
AcDbEntity
  8
DIBUJOS
 62
     7
  0
POLYLINE
  5
60
330
52
100
AcDbEntity
  8
DIBUJOS
 62
     7
100
AcDb2dPolyline
 66
     1
 10
0.0
 20
0.0
 30
0.0
  0
VERTEX
  5
61
330
60
100
AcDbEntity
  8
DIBUJOS
 62
     7
100
AcDbVertex
100
AcDb2dVertex
 10
66.5850461031717
 20
46.54280108911185
 30
0.0
  0
VERTEX
  5
62
330
60
100
AcDbEntity
  8
DIBUJOS
 62
     7
100
AcDbVertex
100
AcDb2dVertex
 10
66.54272595261985
 20
46.54280108911185
 30
0.0
  0
SEQEND
  5
63
330
60
100
AcDbEntity
  8
DIBUJOS
 62
     7
  0
POLYLINE
  5
64
330
52
100
AcDbEntity
  8
DIBUJOS
 62
     7
100
AcDb2dPolyline
 66
     1
 10
0.0
 20
0.0
 30
0.0
  0
VERTEX
  5
65
330
64
100
AcDbEntity
  8
DIBUJOS
 62
     7
100
AcDbVertex
100
AcDb2dVertex
 10
66.64550299618983
 20
46.54280108911185
 30
0.0
  0
VERTEX
  5
66
330
64
100
AcDbEntity
  8
DIBUJOS
 62
     7
100
AcDbVertex
100
AcDb2dVertex
 10
66.62131958810392
 20
46.54280108911185
 30
0.0
  0
SEQEND
  5
67
330
64
100
AcDbEntity
  8
DIBUJOS
 62
     7
  0
POLYLINE
  5
68
330
52
100
AcDbEntity
  8
DIBUJOS
 62
     7
100
AcDb2dPolyline
 66
     1
 10
0.0
 20
0.0
 30
0.0
  0
VERTEX
  5
69
330
68
100
AcDbEntity
  8
DIBUJOS
 62
     7
100
AcDbVertex
100
AcDb2dVertex
 10
66.69991485078498
 20
46.54280108911185
 30
0.0
  0
VERTEX
  5
6A
330
68
100
AcDbEntity
  8
DIBUJOS
 62
     7
100
AcDbVertex
100
AcDb2dVertex
 10
66.68177810831936
 20
46.54280108911185
 30
0.0
  0
SEQEND
  5
6B
330
68
100
AcDbEntity
  8
DIBUJOS
 62
     7
  0
POLYLINE
  5
6C
330
52
100
AcDbEntity
  8
DIBUJOS
 62
     7
100
AcDb2dPolyline
 66
     1
 10
0.0
 20
0.0
 30
0.0
  0
VERTEX
  5
6D
330
6C
100
AcDbEntity
  8
DIBUJOS
 62
     7
100
AcDbVertex
100
AcDb2dVertex
 10
66.74828003976015
 20
46.54280108911185
 30
0.0
  0
VERTEX
  5
6E
330
6C
100
AcDbEntity
  8
DIBUJOS
 62
     7
100
AcDbVertex
100
AcDb2dVertex
 10
66.7301432972942
 20
46.54280108911185
 30
0.0
  0
SEQEND
  5
6F
330
6C
100
AcDbEntity
  8
DIBUJOS
 62
     7
  0
POLYLINE
  5
70
330
52
100
AcDbEntity
  8
DIBUJOS
 62
     7
100
AcDb2dPolyline
 66
     1
 10
0.0
 20
0.0
 30
0.0
  0
VERTEX
  5
71
330
70
100
AcDbEntity
  8
DIBUJOS
 62
     7
100
AcDbVertex
100
AcDb2dVertex
 10
66.77850848626937
 20
46.54280108911185
 30
0.0
  0
VERTEX
  5
72
330
70
100
AcDbEntity
  8
DIBUJOS
 62
     7
100
AcDbVertex
100
AcDb2dVertex
 10
66.77246344784639
 20
46.54280108911185
 30
0.0
  0
SEQEND
  5
73
330
70
100
AcDbEntity
  8
DIBUJOS
 62
     7
  0
POLYLINE
  5
74
330
52
100
AcDbEntity
  8
DIBUJOS
 62
     7
100
AcDb2dPolyline
 66
     1
 10
0.0
 20
0.0
 30
0.0
  0
VERTEX
  5
75
330
74
100
AcDbEntity
  8
DIBUJOS
 62
     7
100
AcDbVertex
100
AcDb2dVertex
 10
62.43162793783348
 20
46.53674830496725
 30
0.0
  0
VERTEX
  5
76
330
74
100
AcDbEntity
  8
DIBUJOS
 62
     7
100
AcDbVertex
100
AcDb2dVertex
 10
62.42558127221318
 20
46.54280108911185
 30
0.0
  0
SEQEND
  5
77
330
74
100
AcDbEntity
  8
DIBUJOS
 62
     7
  0
POLYLINE
  5
78
330
52
100
AcDbEntity
  8
DIBUJOS
 62
     7
100
AcDb2dPolyline
 66
     1
 10
0.0
 20
0.0
 30
0.0
  0
VERTEX
  5
79
330
78
100
AcDbEntity
  8
DIBUJOS
 62
     7
100
AcDbVertex
100
AcDb2dVertex
 10
62.45580971872241
 20
46.54280108911185
 30
0.0
  0
VERTEX
  5
7A
330
78
100
AcDbEntity
  8
DIBUJOS
 62
     7
100
AcDbVertex
100
AcDb2dVertex
 10
62.55262308374102
 20
46.53986265461299
 30
0.0
  0
VERTEX
  5
7B
330
78
100
AcDbEntity
  8
DIBUJOS
 62
     7
100
AcDbVertex
100
AcDb2dVertex
 10
62.76414247663067
 20
46.54280108911185
 30
0.0
  0
SEQEND
  5
7C
330
78
100
AcDbEntity
  8
DIBUJOS
 62
     7
  0
POLYLINE
  5
7D
330
52
100
AcDbEntity
  8
DIBUJOS
 62
     7
100
AcDb2dPolyline
 66
     1
 10
0.0
 20
0.0
 30
0.0
  0
VERTEX
  5
7E
330
7D
100
AcDbEntity
  8
DIBUJOS
 62
     7
100
AcDbVertex
100
AcDb2dVertex
 10
64.34812478952715
 20
46.53674830496725
 30
0.0
  0
VERTEX
  5
7F
330
7D
100
AcDbEntity
  8
DIBUJOS
 62
     7
100
AcDbVertex
100
AcDb2dVertex
 10
64.3426834413479
 20
46.53796016487112
 30
0.0
  0
VERTEX
  5
80
330
7D
100
AcDbEntity
  8
DIBUJOS
 62
     7
100
AcDbVertex
100
AcDb2dVertex
 10
63.81609957481468
 20
46.54280108911185
 30
0.0
  0
VERTEX
  5
81
330
7D
100
AcDbEntity
  8
DIBUJOS
 62
     7
100
AcDbVertex
100
AcDb2dVertex
 10
63.81005453639202
 20
46.53977469703955
 30
0.0
  0
VERTEX
  5
82
330
7D
100
AcDbEntity
  8
DIBUJOS
 62
     7
100
AcDbVertex
100
AcDb2dVertex
 10
63.32639613785204
 20
46.54280108911185
 30
0.0
  0
VERTEX
  5
83
330
7D
100
AcDbEntity
  8
DIBUJOS
 62
     7
100
AcDbVertex
100
AcDb2dVertex
 10
63.32034947223173
 20
46.53674830496725
 30
0.0
  0
VERTEX
  5
84
330
7D
100
AcDbEntity
  8
DIBUJOS
 62
     7
100
AcDbVertex
100
AcDb2dVertex
 10
63.3082593953861
 20
46.54280108911185
 30
0.0
  0
VERTEX
  5
85
330
7D
100
AcDbEntity
  8
DIBUJOS
 62
     7
100
AcDbVertex
100
AcDb2dVertex
 10
62.90923967075316
 20
46.53977469703955
 30
0.0
  0
VERTEX
  5
86
330
7D
100
AcDbEntity
  8
DIBUJOS
 62
     7
100
AcDbVertex
100
AcDb2dVertex
 10
62.78832588471691
 20
46.54280108911185
 30
0.0
  0
SEQEND
  5
87
330
7D
100
AcDbEntity
  8
DIBUJOS
 62
     7
  0
POLYLINE
  5
88
330
52
100
AcDbEntity
  8
DIBUJOS
 62
     7
100
AcDb2dPolyline
 66
     1
 10
0.0
 20
0.0
 30
0.0
  0
VERTEX
  5
89
330
88
100
AcDbEntity
  8
DIBUJOS
 62
     7
100
AcDbVertex
100
AcDb2dVertex
 10
64.49926864926995
 20
46.53674830496725
 30
0.0
  0
VERTEX
  5
8A
330
88
100
AcDbEntity
  8
DIBUJOS
 62
     7
100
AcDbVertex
100
AcDb2dVertex
 10
64.37230819761339
 20
46.54280108911185
 30
0.0
  0
SEQEND
  5
8B
330
88
100
AcDbEntity
  8
DIBUJOS
 62
     7
  0
POLYLINE
  5
8C
330
52
100
AcDbEntity
  8
DIBUJOS
 62
     7
100
AcDb2dPolyline
 66
     1
 10
0.0
 20
0.0
 30
0.0
  0
VERTEX
  5
8D
330
8C
100
AcDbEntity
  8
DIBUJOS
 62
     7
100
AcDbVertex
100
AcDb2dVertex
 10
64.51135872611559
 20
46.54280108911185
 30
0.0
  0
VERTEX
  5
8E
330
8C
100
AcDbEntity
  8
DIBUJOS
 62
     7
100
AcDbVertex
100
AcDb2dVertex
 10
64.61397955873294
 20
46.53995386987491
 30
0.0
  0
VERTEX
  5
8F
330
8C
100
AcDbEntity
  8
DIBUJOS
 62
     7
100
AcDbVertex
100
AcDb2dVertex
 10
64.89224008108494
 20
46.54280108911185
 30
0.0
  0
VERTEX
  5
90
330
8C
100
AcDbEntity
  8
DIBUJOS
 62
     7
100
AcDbVertex
100
AcDb2dVertex
 10
64.89828674670524
 20
46.53674830496725
 30
0.0
  0
VERTEX
  5
91
330
8C
100
AcDbEntity
  8
DIBUJOS
 62
     7
100
AcDbVertex
100
AcDb2dVertex
 10
64.94060689725742
 20
46.54885387325678
 30
0.0
  0
SEQEND
  5
92
330
8C
100
AcDbEntity
  8
DIBUJOS
 62
     7
  0
POLYLINE
  5
93
330
52
100
AcDbEntity
  8
DIBUJOS
 62
     7
100
AcDb2dPolyline
 66
     1
 10
0.0
 20
0.0
 30
0.0
  0
VERTEX
  5
94
330
93
100
AcDbEntity
  8
DIBUJOS
 62
     7
100
AcDbVertex
100
AcDb2dVertex
 10
66.15579955922719
 20
46.53674830496725
 30
0.0
  0
VERTEX
  5
95
330
93
100
AcDbEntity
  8
DIBUJOS
 62
     7
100
AcDbVertex
100
AcDb2dVertex
 10
66.15035821104794
 20
46.53796016487112
 30
0.0
  0
VERTEX
  5
96
330
93
100
AcDbEntity
  8
DIBUJOS
 62
     7
100
AcDbVertex
100
AcDb2dVertex
 10
65.03715177470139
 20
46.53998970444153
 30
0.0
  0
VERTEX
  5
97
330
93
100
AcDbEntity
  8
DIBUJOS
 62
     7
100
AcDbVertex
100
AcDb2dVertex
 10
64.95269860130038
 20
46.54280108911185
 30
0.0
  0
SEQEND
  5
98
330
93
100
AcDbEntity
  8
DIBUJOS
 62
     7
  0
POLYLINE
  5
99
330
52
100
AcDbEntity
  8
DIBUJOS
 62
     7
100
AcDb2dPolyline
 66
     1
 10
0.0
 20
0.0
 30
0.0
  0
VERTEX
  5
9A
330
99
100
AcDbEntity
  8
DIBUJOS
 62
     7
100
AcDbVertex
100
AcDb2dVertex
 10
66.2525299371772
 20
46.54280108911185
 30
0.0
  0
VERTEX
  5
9B
330
99
100
AcDbEntity
  8
DIBUJOS
 62
     7
100
AcDbVertex
100
AcDb2dVertex
 10
66.33717023828157
 20
46.53674830496725
 30
0.0
  0
VERTEX
  5
9C
330
99
100
AcDbEntity
  8
DIBUJOS
 62
     7
100
AcDbVertex
100
AcDb2dVertex
 10
66.34321690390188
 20
46.54280108911185
 30
0.0
  0
SEQEND
  5
9D
330
99
100
AcDbEntity
  8
DIBUJOS
 62
     7
  0
POLYLINE
  5
9E
330
52
100
AcDbEntity
  8
DIBUJOS
 62
     7
100
AcDb2dPolyline
 66
     1
 10
0.0
 20
0.0
 30
0.0
  0
VERTEX
  5
9F
330
9E
100
AcDbEntity
  8
DIBUJOS
 62
     7
100
AcDbVertex
100
AcDb2dVertex
 10
66.42181053938594
 20
46.53674830496725
 30
0.0
  0
VERTEX
  5
A0
330
9E
100
AcDbEntity
  8
DIBUJOS
 62
     7
100
AcDbVertex
100
AcDb2dVertex
 10
66.35530860794516
 20
46.54280108911185
 30
0.0
  0
SEQEND
  5
A1
330
9E
100
AcDbEntity
  8
DIBUJOS
 62
     7
  0
POLYLINE
  5
A2
330
52
100
AcDbEntity
  8
DIBUJOS
 62
     7
100
AcDb2dPolyline
 66
     1
 10
0.0
 20
0.0
 30
0.0
  0
VERTEX
  5
A3
330
A2
100
AcDbEntity
  8
DIBUJOS
 62
     7
100
AcDbVertex
100
AcDb2dVertex
 10
66.4399489090492
 20
46.53674830496725
 30
0.0
  0
VERTEX
  5
A4
330
A2
100
AcDbEntity
  8
DIBUJOS
 62
     7
100
AcDbVertex
100
AcDb2dVertex
 10
66.4399489090492
 20
46.54280108911185
 30
0.0
  0
SEQEND
  5
A5
330
A2
100
AcDbEntity
  8
DIBUJOS
 62
     7
  0
POLYLINE
  5
A6
330
52
100
AcDbEntity
  8
DIBUJOS
 62
     7
100
AcDb2dPolyline
 66
     1
 10
0.0
 20
0.0
 30
0.0
  0
VERTEX
  5
A7
330
A6
100
AcDbEntity
  8
DIBUJOS
 62
     7
100
AcDbVertex
100
AcDb2dVertex
 10
66.45204061309249
 20
46.53674830496725
 30
0.0
  0
VERTEX
  5
A8
330
A6
100
AcDbEntity
  8
DIBUJOS
 62
     7
100
AcDbVertex
100
AcDb2dVertex
 10
66.45808565151547
 20
46.54280108911185
 30
0.0
  0
VERTEX
  5
A9
330
A6
100
AcDbEntity
  8
DIBUJOS
 62
     7
100
AcDbVertex
100
AcDb2dVertex
 10
66.50040580206733
 20
46.54280108911185
 30
0.0
  0
SEQEND
  5
AA
330
A6
100
AcDbEntity
  8
DIBUJOS
 62
     7
  0
POLYLINE
  5
AB
330
52
100
AcDbEntity
  8
DIBUJOS
 62
     7
100
AcDb2dPolyline
 66
     1
 10
0.0
 20
0.0
 30
0.0
  0
VERTEX
  5
AC
330
AB
100
AcDbEntity
  8
DIBUJOS
 62
     7
100
AcDbVertex
100
AcDb2dVertex
 10
67.02033931273652
 20
45.67738652162802
 30
0.0
  0
VERTEX
  5
AD
330
AB
100
AcDbEntity
  8
DIBUJOS
 62
     7
100
AcDbVertex
100
AcDb2dVertex
 10
66.99355076157765
 20
46.130951152241
 30
0.0
  0
VERTEX
  5
AE
330
AB
100
AcDbEntity
  8
DIBUJOS
 62
     7
100
AcDbVertex
100
AcDb2dVertex
 10
66.9756938970686
 20
46.2276393295358
 30
0.0
  0
VERTEX
  5
AF
330
AB
100
AcDbEntity
  8
DIBUJOS
 62
     7
100
AcDbVertex
100
AcDb2dVertex
 10
66.96220605763715
 20
46.28908909666231
 30
0.0
  0
VERTEX
  5
B0
330
AB
100
AcDbEntity
  8
DIBUJOS
 62
     7
100
AcDbVertex
100
AcDb2dVertex
 10
66.94658008079332
 20
46.34248585926506
 30
0.0
  0
VERTEX
  5
B1
330
AB
100
AcDbEntity
  8
DIBUJOS
 62
     7
100
AcDbVertex
100
AcDb2dVertex
 10
66.91937496709441
 20
46.40421578755141
 30
0.0
  0
VERTEX
  5
B2
330
AB
100
AcDbEntity
  8
DIBUJOS
 62
     7
100
AcDbVertex
100
AcDb2dVertex
 10
66.86048181079899
 20
46.53514878020111
 30
0.0
  0
VERTEX
  5
B3
330
AB
100
AcDbEntity
  8
DIBUJOS
 62
     7
100
AcDbVertex
100
AcDb2dVertex
 10
66.84646350500816
 20
46.55599472516455
 30
0.0
  0
VERTEX
  5
B4
330
AB
100
AcDbEntity
  8
DIBUJOS
 62
     7
100
AcDbVertex
100
AcDb2dVertex
 10
66.82687530244186
 20
46.59726963103791
 30
0.0
  0
VERTEX
  5
B5
330
AB
100
AcDbEntity
  8
DIBUJOS
 62
     7
100
AcDbVertex
100
AcDb2dVertex
 10
66.80329721179668
 20
46.61663332800021
 30
0.0
  0
VERTEX
  5
B6
330
AB
100
AcDbEntity
  8
DIBUJOS
 62
     7
100
AcDbVertex
100
AcDb2dVertex
 10
66.67029009451981
 20
46.69530974881746
 30
0.0
  0
VERTEX
  5
B7
330
AB
100
AcDbEntity
  8
DIBUJOS
 62
     7
100
AcDbVertex
100
AcDb2dVertex
 10
66.64457386646193
 20
46.71085543554433
 30
0.0
  0
VERTEX
  5
B8
330
AB
100
AcDbEntity
  8
DIBUJOS
 62
     7
100
AcDbVertex
100
AcDb2dVertex
 10
66.4635269996944
 20
46.78911161462022
 30
0.0
  0
VERTEX
  5
B9
330
AB
100
AcDbEntity
  8
DIBUJOS
 62
     7
100
AcDbVertex
100
AcDb2dVertex
 10
66.43450756087029
 20
46.79879346310137
 30
0.0
  0
VERTEX
  5
BA
330
AB
100
AcDbEntity
  8
DIBUJOS
 62
     7
100
AcDbVertex
100
AcDb2dVertex
 10
66.26515536197483
 20
46.84752847429841
 30
0.0
  0
VERTEX
  5
BB
330
AB
100
AcDbEntity
  8
DIBUJOS
 62
     7
100
AcDbVertex
100
AcDb2dVertex
 10
66.15633165278422
 20
46.8717363531893
 30
0.0
  0
VERTEX
  5
BC
330
AB
100
AcDbEntity
  8
DIBUJOS
 62
     7
100
AcDbVertex
100
AcDb2dVertex
 10
65.87742513305618
 20
46.91532095979419
 30
0.0
  0
VERTEX
  5
BD
330
AB
100
AcDbEntity
  8
DIBUJOS
 62
     7
100
AcDbVertex
100
AcDb2dVertex
 10
65.82355350800468
 20
46.92071243329204
 30
0.0
  0
VERTEX
  5
BE
330
AB
100
AcDbEntity
  8
DIBUJOS
 62
     7
100
AcDbVertex
100
AcDb2dVertex
 10
65.56949917450338
 20
46.93904670087367
 30
0.0
  0
VERTEX
  5
BF
330
AB
100
AcDbEntity
  8
DIBUJOS
 62
     7
100
AcDbVertex
100
AcDb2dVertex
 10
65.56318564850574
 20
46.93933989278586
 30
0.0
  0
VERTEX
  5
C0
330
AB
100
AcDbEntity
  8
DIBUJOS
 62
     7
100
AcDbVertex
100
AcDb2dVertex
 10
64.60809073126292
 20
46.96643082548032
 30
0.0
  0
VERTEX
  5
C1
330
AB
100
AcDbEntity
  8
DIBUJOS
 62
     7
100
AcDbVertex
100
AcDb2dVertex
 10
63.5562833352416
 20
46.93331317014466
 30
0.0
  0
VERTEX
  5
C2
330
AB
100
AcDbEntity
  8
DIBUJOS
 62
     7
100
AcDbVertex
100
AcDb2dVertex
 10
63.31462987329325
 20
46.90935613322302
 30
0.0
  0
VERTEX
  5
C3
330
AB
100
AcDbEntity
  8
DIBUJOS
 62
     7
100
AcDbVertex
100
AcDb2dVertex
 10
63.12124885006687
 20
46.87925183920764
 30
0.0
  0
VERTEX
  5
C4
330
AB
100
AcDbEntity
  8
DIBUJOS
 62
     7
100
AcDbVertex
100
AcDb2dVertex
 10
62.88445257242319
 20
46.82300134199225
 30
0.0
  0
VERTEX
  5
C5
330
AB
100
AcDbEntity
  8
DIBUJOS
 62
     7
100
AcDbVertex
100
AcDb2dVertex
 10
62.79490464389424
 20
46.79484188766138
 30
0.0
  0
VERTEX
  5
C6
330
AB
100
AcDbEntity
  8
DIBUJOS
 62
     7
100
AcDbVertex
100
AcDb2dVertex
 10
62.72242764351954
 20
46.76550966568143
 30
0.0
  0
VERTEX
  5
C7
330
AB
100
AcDbEntity
  8
DIBUJOS
 62
     7
100
AcDbVertex
100
AcDb2dVertex
 10
62.6607601156193
 20
46.73767272245431
 30
0.0
  0
VERTEX
  5
C8
330
AB
100
AcDbEntity
  8
DIBUJOS
 62
     7
100
AcDbVertex
100
AcDb2dVertex
 10
62.5114012914486
 20
46.65631196679591
 30
0.0
  0
VERTEX
  5
C9
330
AB
100
AcDbEntity
  8
DIBUJOS
 62
     7
100
AcDbVertex
100
AcDb2dVertex
 10
62.48486007429791
 20
46.63505555315528
 30
0.0
  0
VERTEX
  5
CA
330
AB
100
AcDbEntity
  8
DIBUJOS
 62
     7
100
AcDbVertex
100
AcDb2dVertex
 10
62.44311432443571
 20
46.61663332800021
 30
0.0
  0
VERTEX
  5
CB
330
AB
100
AcDbEntity
  8
DIBUJOS
 62
     7
100
AcDbVertex
100
AcDb2dVertex
 10
62.43767297625647
 20
46.61542472578387
 30
0.0
  0
VERTEX
  5
CC
330
AB
100
AcDbEntity
  8
DIBUJOS
 62
     7
100
AcDbVertex
100
AcDb2dVertex
 10
62.36996040993357
 20
46.48288895068082
 30
0.0
  0
VERTEX
  5
CD
330
AB
100
AcDbEntity
  8
DIBUJOS
 62
     7
100
AcDbVertex
100
AcDb2dVertex
 10
62.35182366746731
 20
46.44657876118858
 30
0.0
  0
VERTEX
  5
CE
330
AB
100
AcDbEntity
  8
DIBUJOS
 62
     7
100
AcDbVertex
100
AcDb2dVertex
 10
62.29490104725004
 20
46.30631249266489
 30
0.0
  0
VERTEX
  5
CF
330
AB
100
AcDbEntity
  8
DIBUJOS
 62
     7
100
AcDbVertex
100
AcDb2dVertex
 10
62.26500129462027
 20
46.16729066092417
 30
0.0
  0
VERTEX
  5
D0
330
AB
100
AcDbEntity
  8
DIBUJOS
 62
     7
100
AcDbVertex
100
AcDb2dVertex
 10
62.23505435326526
 20
45.7317703636688
 30
0.0
  0
VERTEX
  5
D1
330
AB
100
AcDbEntity
  8
DIBUJOS
 62
     7
100
AcDbVertex
100
AcDb2dVertex
 10
62.2291817977691
 20
45.52012163756758
 30
0.0
  0
VERTEX
  5
D2
330
AB
100
AcDbEntity
  8
DIBUJOS
 62
     7
100
AcDbVertex
100
AcDb2dVertex
 10
62.21398051945258
 20
45.12061508020345
 30
0.0
  0
SEQEND
  5
D3
330
AB
100
AcDbEntity
  8
DIBUJOS
 62
     7
  0
POLYLINE
  5
D4
330
52
100
AcDbEntity
  8
DIBUJOS
 62
     7
100
AcDb2dPolyline
 66
     1
 10
0.0
 20
0.0
 30
0.0
  0
VERTEX
  5
D5
330
D4
100
AcDbEntity
  8
DIBUJOS
 62
     7
100
AcDbVertex
100
AcDb2dVertex
 10
67.03847605520279
 20
45.12061508020345
 30
0.0
  0
VERTEX
  5
D6
330
D4
100
AcDbEntity
  8
DIBUJOS
 62
     7
100
AcDbVertex
100
AcDb2dVertex
 10
67.037267047518
 20
45.1260619343966
 30
0.0
  0
VERTEX
  5
D7
330
D4
100
AcDbEntity
  8
DIBUJOS
 62
     7
100
AcDbVertex
100
AcDb2dVertex
 10
67.02932144250624
 20
45.36277205362155
 30
0.0
  0
VERTEX
  5
D8
330
D4
100
AcDbEntity
  8
DIBUJOS
 62
     7
100
AcDbVertex
100
AcDb2dVertex
 10
67.02033931273652
 20
45.67738652162802
 30
0.0
  0
SEQEND
  5
D9
330
D4
100
AcDbEntity
  8
DIBUJOS
 62
     7
  0
POLYLINE
  5
DA
330
52
100
AcDbEntity
  8
DIBUJOS
 62
     7
100
AcDb2dPolyline
 66
     1
 10
0.0
 20
0.0
 30
0.0
  0
VERTEX
  5
DB
330
DA
100
AcDbEntity
  8
DIBUJOS
 62
     7
100
AcDbVertex
100
AcDb2dVertex
 10
62.21398051945258
 20
45.11456555374701
 30
0.0
  0
VERTEX
  5
DC
330
DA
100
AcDbEntity
  8
DIBUJOS
 62
     7
100
AcDbVertex
100
AcDb2dVertex
 10
62.20793548102959
 20
45.11456555374701
 30
0.0
  0
SEQEND
  5
DD
330
DA
100
AcDbEntity
  8
DIBUJOS
 62
     7
  0
POLYLINE
  5
DE
330
52
100
AcDbEntity
  8
DIBUJOS
 62
     7
100
AcDb2dPolyline
 66
     1
 10
0.0
 20
0.0
 30
0.0
  0
VERTEX
  5
DF
330
DE
100
AcDbEntity
  8
DIBUJOS
 62
     7
100
AcDbVertex
100
AcDb2dVertex
 10
62.21398051945258
 20
45.11456555374701
 30
0.0
  0
VERTEX
  5
E0
330
DE
100
AcDbEntity
  8
DIBUJOS
 62
     7
100
AcDbVertex
100
AcDb2dVertex
 10
62.21398051945258
 20
45.12061508020345
 30
0.0
  0
SEQEND
  5
E1
330
DE
100
AcDbEntity
  8
DIBUJOS
 62
     7
  0
POLYLINE
  5
E2
330
52
100
AcDbEntity
  8
DIBUJOS
 62
     7
100
AcDb2dPolyline
 66
     1
 10
0.0
 20
0.0
 30
0.0
  0
VERTEX
  5
E3
330
E2
100
AcDbEntity
  8
DIBUJOS
 62
     7
100
AcDbVertex
100
AcDb2dVertex
 10
67.03847605520279
 20
45.11456555374701
 30
0.0
  0
VERTEX
  5
E4
330
E2
100
AcDbEntity
  8
DIBUJOS
 62
     7
100
AcDbVertex
100
AcDb2dVertex
 10
67.03847605520279
 20
45.12061508020345
 30
0.0
  0
SEQEND
  5
E5
330
E2
100
AcDbEntity
  8
DIBUJOS
 62
     7
  0
POLYLINE
  5
E6
330
52
100
AcDbEntity
  8
DIBUJOS
 62
     7
100
AcDb2dPolyline
 66
     1
 10
0.0
 20
0.0
 30
0.0
  0
VERTEX
  5
E7
330
E6
100
AcDbEntity
  8
DIBUJOS
 62
     7
100
AcDbVertex
100
AcDb2dVertex
 10
67.04452109362545
 20
45.11456555374701
 30
0.0
  0
VERTEX
  5
E8
330
E6
100
AcDbEntity
  8
DIBUJOS
 62
     7
100
AcDbVertex
100
AcDb2dVertex
 10
67.03847605520279
 20
45.11456555374701
 30
0.0
  0
SEQEND
  5
E9
330
E6
100
AcDbEntity
  8
DIBUJOS
 62
     7
  0
POLYLINE
  5
EA
330
52
100
AcDbEntity
  8
DIBUJOS
 62
     7
100
AcDb2dPolyline
 66
     1
 10
0.0
 20
0.0
 30
0.0
  0
VERTEX
  5
EB
330
EA
100
AcDbEntity
  8
DIBUJOS
 62
     7
100
AcDbVertex
100
AcDb2dVertex
 10
62.21398051945258
 20
45.10851276960241
 30
0.0
  0
VERTEX
  5
EC
330
EA
100
AcDbEntity
  8
DIBUJOS
 62
     7
100
AcDbVertex
100
AcDb2dVertex
 10
62.21398051945258
 20
45.11456555374701
 30
0.0
  0
SEQEND
  5
ED
330
EA
100
AcDbEntity
  8
DIBUJOS
 62
     7
  0
POLYLINE
  5
EE
330
52
100
AcDbEntity
  8
DIBUJOS
 62
     7
100
AcDb2dPolyline
 66
     1
 10
0.0
 20
0.0
 30
0.0
  0
VERTEX
  5
EF
330
EE
100
AcDbEntity
  8
DIBUJOS
 62
     7
100
AcDbVertex
100
AcDb2dVertex
 10
62.26839237404772
 20
43.75289761322205
 30
0.0
  0
VERTEX
  5
F0
330
EE
100
AcDbEntity
  8
DIBUJOS
 62
     7
100
AcDbVertex
100
AcDb2dVertex
 10
62.23816392753882
 20
44.03128333393434
 30
0.0
  0
VERTEX
  5
F1
330
EE
100
AcDbEntity
  8
DIBUJOS
 62
     7
100
AcDbVertex
100
AcDb2dVertex
 10
62.24718348284889
 20
44.82402865711473
 30
0.0
  0
VERTEX
  5
F2
330
EE
100
AcDbEntity
  8
DIBUJOS
 62
     7
100
AcDbVertex
100
AcDb2dVertex
 10
62.25025563158178
 20
44.83012704889045
 30
0.0
  0
VERTEX
  5
F3
330
EE
100
AcDbEntity
  8
DIBUJOS
 62
     7
100
AcDbVertex
100
AcDb2dVertex
 10
62.24693452164339
 20
44.97562190651651
 30
0.0
  0
VERTEX
  5
F4
330
EE
100
AcDbEntity
  8
DIBUJOS
 62
     7
100
AcDbVertex
100
AcDb2dVertex
 10
62.24148503747721
 20
45.03564154864837
 30
0.0
  0
VERTEX
  5
F5
330
EE
100
AcDbEntity
  8
DIBUJOS
 62
     7
100
AcDbVertex
100
AcDb2dVertex
 10
62.23090988143137
 20
45.07764943430268
 30
0.0
  0
VERTEX
  5
F6
330
EE
100
AcDbEntity
  8
DIBUJOS
 62
     7
100
AcDbVertex
100
AcDb2dVertex
 10
62.21398051945258
 20
45.10851276960241
 30
0.0
  0
SEQEND
  5
F7
330
EE
100
AcDbEntity
  8
DIBUJOS
 62
     7
  0
POLYLINE
  5
F8
330
52
100
AcDbEntity
  8
DIBUJOS
 62
     7
100
AcDb2dPolyline
 66
     1
 10
0.0
 20
0.0
 30
0.0
  0
VERTEX
  5
F9
330
F8
100
AcDbEntity
  8
DIBUJOS
 62
     7
100
AcDbVertex
100
AcDb2dVertex
 10
62.26839237404772
 20
43.7468480867653
 30
0.0
  0
VERTEX
  5
FA
330
F8
100
AcDbEntity
  8
DIBUJOS
 62
     7
100
AcDbVertex
100
AcDb2dVertex
 10
62.26839237404772
 20
43.75289761322205
 30
0.0
  0
SEQEND
  5
FB
330
F8
100
AcDbEntity
  8
DIBUJOS
 62
     7
  0
POLYLINE
  5
FC
330
52
100
AcDbEntity
  8
DIBUJOS
 62
     7
100
AcDb2dPolyline
 66
     1
 10
0.0
 20
0.0
 30
0.0
  0
VERTEX
  5
FD
330
FC
100
AcDbEntity
  8
DIBUJOS
 62
     7
100
AcDbVertex
100
AcDb2dVertex
 10
62.27443903966802
 20
43.7468480867653
 30
0.0
  0
VERTEX
  5
FE
330
FC
100
AcDbEntity
  8
DIBUJOS
 62
     7
100
AcDbVertex
100
AcDb2dVertex
 10
62.26839237404772
 20
43.7468480867653
 30
0.0
  0
SEQEND
  5
FF
330
FC
100
AcDbEntity
  8
DIBUJOS
 62
     7
  0
POLYLINE
  5
100
330
52
100
AcDbEntity
  8
DIBUJOS
 62
     7
100
AcDb2dPolyline
 66
     1
 10
0.0
 20
0.0
 30
0.0
  0
VERTEX
  5
101
330
100
100
AcDbEntity
  8
DIBUJOS
 62
     7
100
AcDbVertex
100
AcDb2dVertex
 10
62.26839237404772
 20
43.7407953026207
 30
0.0
  0
VERTEX
  5
102
330
100
100
AcDbEntity
  8
DIBUJOS
 62
     7
100
AcDbVertex
100
AcDb2dVertex
 10
62.26839237404772
 20
43.7468480867653
 30
0.0
  0
SEQEND
  5
103
330
100
100
AcDbEntity
  8
DIBUJOS
 62
     7
  0
POLYLINE
  5
104
330
52
100
AcDbEntity
  8
DIBUJOS
 62
     7
100
AcDb2dPolyline
 66
     1
 10
0.0
 20
0.0
 30
0.0
  0
VERTEX
  5
105
330
104
100
AcDbEntity
  8
DIBUJOS
 62
     7
100
AcDbVertex
100
AcDb2dVertex
 10
66.97197249656404
 20
43.73474251847577
 30
0.0
  0
VERTEX
  5
106
330
104
100
AcDbEntity
  8
DIBUJOS
 62
     7
100
AcDbVertex
100
AcDb2dVertex
 10
67.01429264711655
 20
43.97076526555089
 30
0.0
  0
VERTEX
  5
107
330
104
100
AcDbEntity
  8
DIBUJOS
 62
     7
100
AcDbVertex
100
AcDb2dVertex
 10
67.01429264711655
 20
44.49727604393964
 30
0.0
  0
VERTEX
  5
108
330
104
100
AcDbEntity
  8
DIBUJOS
 62
     7
100
AcDbVertex
100
AcDb2dVertex
 10
67.00824760869357
 20
44.50937835454133
 30
0.0
  0
VERTEX
  5
109
330
104
100
AcDbEntity
  8
DIBUJOS
 62
     7
100
AcDbVertex
100
AcDb2dVertex
 10
67.01429264711655
 20
44.51543113868593
 30
0.0
  0
VERTEX
  5
10A
330
104
100
AcDbEntity
  8
DIBUJOS
 62
     7
100
AcDbVertex
100
AcDb2dVertex
 10
67.00824760869357
 20
44.52753670697545
 30
0.0
  0
VERTEX
  5
10B
330
104
100
AcDbEntity
  8
DIBUJOS
 62
     7
100
AcDbVertex
100
AcDb2dVertex
 10
67.00824760869357
 20
45.02983960647332
 30
0.0
  0
VERTEX
  5
10C
330
104
100
AcDbEntity
  8
DIBUJOS
 62
     7
100
AcDbVertex
100
AcDb2dVertex
 10
67.02819867628503
 20
45.09580452904896
 30
0.0
  0
VERTEX
  5
10D
330
104
100
AcDbEntity
  8
DIBUJOS
 62
     7
100
AcDbVertex
100
AcDb2dVertex
 10
67.03847605520279
 20
45.11456555374701
 30
0.0
  0
SEQEND
  5
10E
330
104
100
AcDbEntity
  8
DIBUJOS
 62
     7
  0
POLYLINE
  5
10F
330
52
100
AcDbEntity
  8
DIBUJOS
 62
     7
100
AcDb2dPolyline
 66
     1
 10
0.0
 20
0.0
 30
0.0
  0
VERTEX
  5
110
330
10F
100
AcDbEntity
  8
DIBUJOS
 62
     7
100
AcDbVertex
100
AcDb2dVertex
 10
66.97197249656404
 20
43.72868973433117
 30
0.0
  0
VERTEX
  5
111
330
10F
100
AcDbEntity
  8
DIBUJOS
 62
     7
100
AcDbVertex
100
AcDb2dVertex
 10
66.96592745814138
 20
43.72868973433117
 30
0.0
  0
SEQEND
  5
112
330
10F
100
AcDbEntity
  8
DIBUJOS
 62
     7
  0
POLYLINE
  5
113
330
52
100
AcDbEntity
  8
DIBUJOS
 62
     7
100
AcDb2dPolyline
 66
     1
 10
0.0
 20
0.0
 30
0.0
  0
VERTEX
  5
114
330
113
100
AcDbEntity
  8
DIBUJOS
 62
     7
100
AcDbVertex
100
AcDb2dVertex
 10
66.97197249656404
 20
43.72868973433117
 30
0.0
  0
VERTEX
  5
115
330
113
100
AcDbEntity
  8
DIBUJOS
 62
     7
100
AcDbVertex
100
AcDb2dVertex
 10
66.97197249656404
 20
43.73474251847577
 30
0.0
  0
SEQEND
  5
116
330
113
100
AcDbEntity
  8
DIBUJOS
 62
     7
  0
POLYLINE
  5
117
330
52
100
AcDbEntity
  8
DIBUJOS
 62
     7
100
AcDb2dPolyline
 66
     1
 10
0.0
 20
0.0
 30
0.0
  0
VERTEX
  5
118
330
117
100
AcDbEntity
  8
DIBUJOS
 62
     7
100
AcDbVertex
100
AcDb2dVertex
 10
64.19698092978435
 20
43.55318831332703
 30
0.0
  0
VERTEX
  5
119
330
117
100
AcDbEntity
  8
DIBUJOS
 62
     7
100
AcDbVertex
100
AcDb2dVertex
 10
63.15713343481481
 20
43.55619515927194
 30
0.0
  0
VERTEX
  5
11A
330
117
100
AcDbEntity
  8
DIBUJOS
 62
     7
100
AcDbVertex
100
AcDb2dVertex
 10
62.83070135998128
 20
43.56220885116143
 30
0.0
  0
VERTEX
  5
11B
330
117
100
AcDbEntity
  8
DIBUJOS
 62
     7
100
AcDbVertex
100
AcDb2dVertex
 10
62.53393960294118
 20
43.5750669453593
 30
0.0
  0
VERTEX
  5
11C
330
117
100
AcDbEntity
  8
DIBUJOS
 62
     7
100
AcDbVertex
100
AcDb2dVertex
 10
62.48045850527127
 20
43.58577496553328
 30
0.0
  0
VERTEX
  5
11D
330
117
100
AcDbEntity
  8
DIBUJOS
 62
     7
100
AcDbVertex
100
AcDb2dVertex
 10
62.40837528667311
 20
43.62115345628214
 30
0.0
  0
VERTEX
  5
11E
330
117
100
AcDbEntity
  8
DIBUJOS
 62
     7
100
AcDbVertex
100
AcDb2dVertex
 10
62.37240934205357
 20
43.64545255043431
 30
0.0
  0
VERTEX
  5
11F
330
117
100
AcDbEntity
  8
DIBUJOS
 62
     7
100
AcDbVertex
100
AcDb2dVertex
 10
62.30466748617692
 20
43.70448511312813
 30
0.0
  0
VERTEX
  5
120
330
117
100
AcDbEntity
  8
DIBUJOS
 62
     7
100
AcDbVertex
100
AcDb2dVertex
 10
62.27443903966802
 20
43.7468480867653
 30
0.0
  0
SEQEND
  5
121
330
117
100
AcDbEntity
  8
DIBUJOS
 62
     7
  0
POLYLINE
  5
122
330
52
100
AcDbEntity
  8
DIBUJOS
 62
     7
100
AcDb2dPolyline
 66
     1
 10
0.0
 20
0.0
 30
0.0
  0
VERTEX
  5
123
330
122
100
AcDbEntity
  8
DIBUJOS
 62
     7
100
AcDbVertex
100
AcDb2dVertex
 10
64.20302759540465
 20
43.55318831332703
 30
0.0
  0
VERTEX
  5
124
330
122
100
AcDbEntity
  8
DIBUJOS
 62
     7
100
AcDbVertex
100
AcDb2dVertex
 10
64.19698092978435
 20
43.55318831332703
 30
0.0
  0
SEQEND
  5
125
330
122
100
AcDbEntity
  8
DIBUJOS
 62
     7
  0
POLYLINE
  5
126
330
52
100
AcDbEntity
  8
DIBUJOS
 62
     7
100
AcDb2dPolyline
 66
     1
 10
0.0
 20
0.0
 30
0.0
  0
VERTEX
  5
127
330
126
100
AcDbEntity
  8
DIBUJOS
 62
     7
100
AcDbVertex
100
AcDb2dVertex
 10
64.20302759540465
 20
43.55318831332703
 30
0.0
  0
VERTEX
  5
128
330
126
100
AcDbEntity
  8
DIBUJOS
 62
     7
100
AcDbVertex
100
AcDb2dVertex
 10
64.21208294905807
 20
44.91483996541244
 30
0.0
  0
VERTEX
  5
129
330
126
100
AcDbEntity
  8
DIBUJOS
 62
     7
100
AcDbVertex
100
AcDb2dVertex
 10
64.2286608363936
 20
44.98033578092839
 30
0.0
  0
VERTEX
  5
12A
330
126
100
AcDbEntity
  8
DIBUJOS
 62
     7
100
AcDbVertex
100
AcDb2dVertex
 10
64.24389628585648
 20
45.00067026888917
 30
0.0
  0
VERTEX
  5
12B
330
126
100
AcDbEntity
  8
DIBUJOS
 62
     7
100
AcDbVertex
100
AcDb2dVertex
 10
64.27557619246606
 20
45.03589239061792
 30
0.0
  0
VERTEX
  5
12C
330
126
100
AcDbEntity
  8
DIBUJOS
 62
     7
100
AcDbVertex
100
AcDb2dVertex
 10
64.33542939524045
 20
45.06736165586943
 30
0.0
  0
VERTEX
  5
12D
330
126
100
AcDbEntity
  8
DIBUJOS
 62
     7
100
AcDbVertex
100
AcDb2dVertex
 10
64.47461986272077
 20
45.09873644817149
 30
0.0
  0
VERTEX
  5
12E
330
126
100
AcDbEntity
  8
DIBUJOS
 62
     7
100
AcDbVertex
100
AcDb2dVertex
 10
64.65645754743508
 20
45.11456555374701
 30
0.0
  0
VERTEX
  5
12F
330
126
100
AcDbEntity
  8
DIBUJOS
 62
     7
100
AcDbVertex
100
AcDb2dVertex
 10
64.76491676440321
 20
45.09991898888443
 30
0.0
  0
VERTEX
  5
130
330
126
100
AcDbEntity
  8
DIBUJOS
 62
     7
100
AcDbVertex
100
AcDb2dVertex
 10
64.88572966419935
 20
45.07592611739616
 30
0.0
  0
VERTEX
  5
131
330
126
100
AcDbEntity
  8
DIBUJOS
 62
     7
100
AcDbVertex
100
AcDb2dVertex
 10
64.97688038218931
 20
45.03589239061792
 30
0.0
  0
VERTEX
  5
132
330
126
100
AcDbEntity
  8
DIBUJOS
 62
     7
100
AcDbVertex
100
AcDb2dVertex
 10
65.01460695441918
 20
44.99461748474457
 30
0.0
  0
VERTEX
  5
133
330
126
100
AcDbEntity
  8
DIBUJOS
 62
     7
100
AcDbVertex
100
AcDb2dVertex
 10
65.03501363728869
 20
44.95070059397239
 30
0.0
  0
VERTEX
  5
134
330
126
100
AcDbEntity
  8
DIBUJOS
 62
     7
100
AcDbVertex
100
AcDb2dVertex
 10
65.03966416752114
 20
44.9274244138252
 30
0.0
  0
VERTEX
  5
135
330
126
100
AcDbEntity
  8
DIBUJOS
 62
     7
100
AcDbVertex
100
AcDb2dVertex
 10
65.04623967230319
 20
44.81212180778827
 30
0.0
  0
VERTEX
  5
136
330
126
100
AcDbEntity
  8
DIBUJOS
 62
     7
100
AcDbVertex
100
AcDb2dVertex
 10
65.04640727363773
 20
44.0615439969695
 30
0.0
  0
VERTEX
  5
137
330
126
100
AcDbEntity
  8
DIBUJOS
 62
     7
100
AcDbVertex
100
AcDb2dVertex
 10
65.04338394082741
 20
43.55923783978346
 30
0.0
  0
SEQEND
  5
138
330
126
100
AcDbEntity
  8
DIBUJOS
 62
     7
  0
POLYLINE
  5
139
330
52
100
AcDbEntity
  8
DIBUJOS
 62
     7
100
AcDb2dPolyline
 66
     1
 10
0.0
 20
0.0
 30
0.0
  0
VERTEX
  5
13A
330
139
100
AcDbEntity
  8
DIBUJOS
 62
     7
100
AcDbVertex
100
AcDb2dVertex
 10
65.04338394082741
 20
43.55318831332703
 30
0.0
  0
VERTEX
  5
13B
330
139
100
AcDbEntity
  8
DIBUJOS
 62
     7
100
AcDbVertex
100
AcDb2dVertex
 10
65.04338394082741
 20
43.55923783978346
 30
0.0
  0
SEQEND
  5
13C
330
139
100
AcDbEntity
  8
DIBUJOS
 62
     7
  0
POLYLINE
  5
13D
330
52
100
AcDbEntity
  8
DIBUJOS
 62
     7
100
AcDb2dPolyline
 66
     1
 10
0.0
 20
0.0
 30
0.0
  0
VERTEX
  5
13E
330
13D
100
AcDbEntity
  8
DIBUJOS
 62
     7
100
AcDbVertex
100
AcDb2dVertex
 10
65.04943060644804
 20
43.55318831332703
 30
0.0
  0
VERTEX
  5
13F
330
13D
100
AcDbEntity
  8
DIBUJOS
 62
     7
100
AcDbVertex
100
AcDb2dVertex
 10
65.04338394082741
 20
43.55318831332703
 30
0.0
  0
SEQEND
  5
140
330
13D
100
AcDbEntity
  8
DIBUJOS
 62
     7
  0
POLYLINE
  5
141
330
52
100
AcDbEntity
  8
DIBUJOS
 62
     7
100
AcDb2dPolyline
 66
     1
 10
0.0
 20
0.0
 30
0.0
  0
VERTEX
  5
142
330
141
100
AcDbEntity
  8
DIBUJOS
 62
     7
100
AcDbVertex
100
AcDb2dVertex
 10
65.04943060644804
 20
43.55318831332703
 30
0.0
  0
VERTEX
  5
143
330
141
100
AcDbEntity
  8
DIBUJOS
 62
     7
100
AcDbVertex
100
AcDb2dVertex
 10
65.39398477897063
 20
43.55615932470467
 30
0.0
  0
VERTEX
  5
144
330
141
100
AcDbEntity
  8
DIBUJOS
 62
     7
100
AcDbVertex
100
AcDb2dVertex
 10
66.6214969526227
 20
43.56851573496343
 30
0.0
  0
VERTEX
  5
145
330
141
100
AcDbEntity
  8
DIBUJOS
 62
     7
100
AcDbVertex
100
AcDb2dVertex
 10
66.71182919030947
 20
43.57416782349502
 30
0.0
  0
VERTEX
  5
146
330
141
100
AcDbEntity
  8
DIBUJOS
 62
     7
100
AcDbVertex
100
AcDb2dVertex
 10
66.79725054617637
 20
43.59433942706001
 30
0.0
  0
VERTEX
  5
147
330
141
100
AcDbEntity
  8
DIBUJOS
 62
     7
100
AcDbVertex
100
AcDb2dVertex
 10
66.80934225021933
 20
43.60039221120461
 30
0.0
  0
VERTEX
  5
148
330
141
100
AcDbEntity
  8
DIBUJOS
 62
     7
100
AcDbVertex
100
AcDb2dVertex
 10
66.91756064196889
 20
43.67422445009296
 30
0.0
  0
VERTEX
  5
149
330
141
100
AcDbEntity
  8
DIBUJOS
 62
     7
100
AcDbVertex
100
AcDb2dVertex
 10
66.96592745814138
 20
43.72868973433117
 30
0.0
  0
SEQEND
  5
14A
330
141
100
AcDbEntity
  8
DIBUJOS
 62
     7
  0
POLYLINE
  5
14B
330
52
100
AcDbEntity
  8
DIBUJOS
 62
     7
100
AcDb2dPolyline
 66
     1
 10
0.0
 20
0.0
 30
0.0
  0
VERTEX
  5
14C
330
14B
100
AcDbEntity
  8
DIBUJOS
 62
     7
100
AcDbVertex
100
AcDb2dVertex
 10
64.20302759540465
 20
43.54713552918211
 30
0.0
  0
VERTEX
  5
14D
330
14B
100
AcDbEntity
  8
DIBUJOS
 62
     7
100
AcDbVertex
100
AcDb2dVertex
 10
64.20302759540465
 20
43.55318831332703
 30
0.0
  0
SEQEND
  5
14E
330
14B
100
AcDbEntity
  8
DIBUJOS
 62
     7
  0
POLYLINE
  5
14F
330
52
100
AcDbEntity
  8
DIBUJOS
 62
     7
100
AcDb2dPolyline
 66
     1
 10
0.0
 20
0.0
 30
0.0
  0
VERTEX
  5
150
330
14F
100
AcDbEntity
  8
DIBUJOS
 62
     7
100
AcDbVertex
100
AcDb2dVertex
 10
65.04338394082741
 20
43.54713552918211
 30
0.0
  0
VERTEX
  5
151
330
14F
100
AcDbEntity
  8
DIBUJOS
 62
     7
100
AcDbVertex
100
AcDb2dVertex
 10
65.04338394082741
 20
43.55318831332703
 30
0.0
  0
SEQEND
  5
152
330
14F
100
AcDbEntity
  8
DIBUJOS
 62
     7
  0
POLYLINE
  5
153
330
52
100
AcDbEntity
  8
DIBUJOS
 62
     7
100
AcDb2dPolyline
 66
     1
 10
0.0
 20
0.0
 30
0.0
  0
VERTEX
  5
154
330
153
100
AcDbEntity
  8
DIBUJOS
 62
     7
100
AcDbVertex
100
AcDb2dVertex
 10
62.20793548102959
 20
45.11456555374701
 30
0.0
  0
VERTEX
  5
155
330
153
100
AcDbEntity
  8
DIBUJOS
 62
     7
100
AcDbVertex
100
AcDb2dVertex
 10
62.14772592201965
 20
45.11183561127475
 30
0.0
  0
VERTEX
  5
156
330
153
100
AcDbEntity
  8
DIBUJOS
 62
     7
100
AcDbVertex
100
AcDb2dVertex
 10
62.12994553578926
 20
45.10669823743397
 30
0.0
  0
VERTEX
  5
157
330
153
100
AcDbEntity
  8
DIBUJOS
 62
     7
100
AcDbVertex
100
AcDb2dVertex
 10
62.12268986248417
 20
45.10367184536167
 30
0.0
  0
VERTEX
  5
158
330
153
100
AcDbEntity
  8
DIBUJOS
 62
     7
100
AcDbVertex
100
AcDb2dVertex
 10
62.09911177183898
 20
45.08430489071153
 30
0.0
  0
VERTEX
  5
159
330
153
100
AcDbEntity
  8
DIBUJOS
 62
     7
100
AcDbVertex
100
AcDb2dVertex
 10
62.0909318503986
 20
45.05458174618209
 30
0.0
  0
VERTEX
  5
15A
330
153
100
AcDbEntity
  8
DIBUJOS
 62
     7
100
AcDbVertex
100
AcDb2dVertex
 10
62.04176445309442
 20
43.31724700844934
 30
0.0
  0
VERTEX
  5
15B
330
153
100
AcDbEntity
  8
DIBUJOS
 62
     7
100
AcDbVertex
100
AcDb2dVertex
 10
62.02051813635491
 20
42.54252973018637
 30
0.0
  0
VERTEX
  5
15C
330
153
100
AcDbEntity
  8
DIBUJOS
 62
     7
100
AcDbVertex
100
AcDb2dVertex
 10
62.02869643059798
 20
42.51885611211369
 30
0.0
  0
VERTEX
  5
15D
330
153
100
AcDbEntity
  8
DIBUJOS
 62
     7
100
AcDbVertex
100
AcDb2dVertex
 10
62.03260984039787
 20
42.50621628300627
 30
0.0
  0
VERTEX
  5
15E
330
153
100
AcDbEntity
  8
DIBUJOS
 62
     7
100
AcDbVertex
100
AcDb2dVertex
 10
62.06223296946605
 20
42.48079980189937
 30
0.0
  0
VERTEX
  5
15F
330
153
100
AcDbEntity
  8
DIBUJOS
 62
     7
100
AcDbVertex
100
AcDb2dVertex
 10
62.0987033452862
 20
42.47350583865901
 30
0.0
  0
VERTEX
  5
160
330
153
100
AcDbEntity
  8
DIBUJOS
 62
     7
100
AcDbVertex
100
AcDb2dVertex
 10
62.15352362643445
 20
42.46990609351403
 30
0.0
  0
VERTEX
  5
161
330
153
100
AcDbEntity
  8
DIBUJOS
 62
     7
100
AcDbVertex
100
AcDb2dVertex
 10
62.20793548102959
 20
42.48806118825999
 30
0.0
  0
VERTEX
  5
162
330
153
100
AcDbEntity
  8
DIBUJOS
 62
     7
100
AcDbVertex
100
AcDb2dVertex
 10
62.22728123118
 20
42.51771592134339
 30
0.0
  0
VERTEX
  5
163
330
153
100
AcDbEntity
  8
DIBUJOS
 62
     7
100
AcDbVertex
100
AcDb2dVertex
 10
62.22934451751135
 20
42.52458638515453
 30
0.0
  0
VERTEX
  5
164
330
153
100
AcDbEntity
  8
DIBUJOS
 62
     7
100
AcDbVertex
100
AcDb2dVertex
 10
62.26625911822764
 20
43.72317446869263
 30
0.0
  0
VERTEX
  5
165
330
153
100
AcDbEntity
  8
DIBUJOS
 62
     7
100
AcDbVertex
100
AcDb2dVertex
 10
62.26839237404772
 20
43.7407953026207
 30
0.0
  0
SEQEND
  5
166
330
153
100
AcDbEntity
  8
DIBUJOS
 62
     7
  0
POLYLINE
  5
167
330
52
100
AcDbEntity
  8
DIBUJOS
 62
     7
100
AcDb2dPolyline
 66
     1
 10
0.0
 20
0.0
 30
0.0
  0
VERTEX
  5
168
330
167
100
AcDbEntity
  8
DIBUJOS
 62
     7
100
AcDbVertex
100
AcDb2dVertex
 10
64.20302759540465
 20
43.54713552918211
 30
0.0
  0
VERTEX
  5
169
330
167
100
AcDbEntity
  8
DIBUJOS
 62
     7
100
AcDbVertex
100
AcDb2dVertex
 10
64.21279403433154
 20
42.62678982808821
 30
0.0
  0
VERTEX
  5
16A
330
167
100
AcDbEntity
  8
DIBUJOS
 62
     7
100
AcDbVertex
100
AcDb2dVertex
 10
64.22600036860878
 20
42.57520759765421
 30
0.0
  0
VERTEX
  5
16B
330
167
100
AcDbEntity
  8
DIBUJOS
 62
     7
100
AcDbVertex
100
AcDb2dVertex
 10
64.24387187789503
 20
42.54739997361835
 30
0.0
  0
VERTEX
  5
16C
330
167
100
AcDbEntity
  8
DIBUJOS
 62
     7
100
AcDbVertex
100
AcDb2dVertex
 10
64.27557619246606
 20
42.51226906715087
 30
0.0
  0
VERTEX
  5
16D
330
167
100
AcDbEntity
  8
DIBUJOS
 62
     7
100
AcDbVertex
100
AcDb2dVertex
 10
64.28101754064498
 20
42.51105720724669
 30
0.0
  0
VERTEX
  5
16E
330
167
100
AcDbEntity
  8
DIBUJOS
 62
     7
100
AcDbVertex
100
AcDb2dVertex
 10
64.34244098893201
 20
42.48455265837661
 30
0.0
  0
VERTEX
  5
16F
330
167
100
AcDbEntity
  8
DIBUJOS
 62
     7
100
AcDbVertex
100
AcDb2dVertex
 10
64.44485679467448
 20
42.46990609351403
 30
0.0
  0
VERTEX
  5
170
330
167
100
AcDbEntity
  8
DIBUJOS
 62
     7
100
AcDbVertex
100
AcDb2dVertex
 10
64.80155474155791
 20
42.46990609351403
 30
0.0
  0
VERTEX
  5
171
330
167
100
AcDbEntity
  8
DIBUJOS
 62
     7
100
AcDbVertex
100
AcDb2dVertex
 10
64.91098214099193
 20
42.4862466560922
 30
0.0
  0
VERTEX
  5
172
330
167
100
AcDbEntity
  8
DIBUJOS
 62
     7
100
AcDbVertex
100
AcDb2dVertex
 10
64.97688038218931
 20
42.51226906715087
 30
0.0
  0
VERTEX
  5
173
330
167
100
AcDbEntity
  8
DIBUJOS
 62
     7
100
AcDbVertex
100
AcDb2dVertex
 10
65.00710882869853
 20
42.54252973018637
 30
0.0
  0
VERTEX
  5
174
330
167
100
AcDbEntity
  8
DIBUJOS
 62
     7
100
AcDbVertex
100
AcDb2dVertex
 10
65.02738533577417
 20
42.57502190944285
 30
0.0
  0
VERTEX
  5
175
330
167
100
AcDbEntity
  8
DIBUJOS
 62
     7
100
AcDbVertex
100
AcDb2dVertex
 10
65.0404810206267
 20
42.62736643884905
 30
0.0
  0
VERTEX
  5
176
330
167
100
AcDbEntity
  8
DIBUJOS
 62
     7
100
AcDbVertex
100
AcDb2dVertex
 10
65.04640727363773
 20
42.78460200371823
 30
0.0
  0
VERTEX
  5
177
330
167
100
AcDbEntity
  8
DIBUJOS
 62
     7
100
AcDbVertex
100
AcDb2dVertex
 10
65.04338394082741
 20
43.02062475079335
 30
0.0
  0
VERTEX
  5
178
330
167
100
AcDbEntity
  8
DIBUJOS
 62
     7
100
AcDbVertex
100
AcDb2dVertex
 10
65.04943060644804
 20
43.02667753493795
 30
0.0
  0
VERTEX
  5
179
330
167
100
AcDbEntity
  8
DIBUJOS
 62
     7
100
AcDbVertex
100
AcDb2dVertex
 10
65.04338394082741
 20
43.03877984553964
 30
0.0
  0
VERTEX
  5
17A
330
167
100
AcDbEntity
  8
DIBUJOS
 62
     7
100
AcDbVertex
100
AcDb2dVertex
 10
65.04338394082741
 20
43.35952853988876
 30
0.0
  0
VERTEX
  5
17B
330
167
100
AcDbEntity
  8
DIBUJOS
 62
     7
100
AcDbVertex
100
AcDb2dVertex
 10
65.04640727363773
 20
43.36558132403336
 30
0.0
  0
VERTEX
  5
17C
330
167
100
AcDbEntity
  8
DIBUJOS
 62
     7
100
AcDbVertex
100
AcDb2dVertex
 10
65.04338394082741
 20
43.54713552918211
 30
0.0
  0
SEQEND
  5
17D
330
167
100
AcDbEntity
  8
DIBUJOS
 62
     7
  0
POLYLINE
  5
17E
330
52
100
AcDbEntity
  8
DIBUJOS
 62
     7
100
AcDb2dPolyline
 66
     1
 10
0.0
 20
0.0
 30
0.0
  0
VERTEX
  5
17F
330
17E
100
AcDbEntity
  8
DIBUJOS
 62
     7
100
AcDbVertex
100
AcDb2dVertex
 10
66.97197249656404
 20
43.72868973433117
 30
0.0
  0
VERTEX
  5
180
330
17E
100
AcDbEntity
  8
DIBUJOS
 62
     7
100
AcDbVertex
100
AcDb2dVertex
 10
66.98046972150198
 20
43.69279001351612
 30
0.0
  0
VERTEX
  5
181
330
17E
100
AcDbEntity
  8
DIBUJOS
 62
     7
100
AcDbVertex
100
AcDb2dVertex
 10
67.01118632723762
 20
42.57286857773207
 30
0.0
  0
VERTEX
  5
182
330
17E
100
AcDbEntity
  8
DIBUJOS
 62
     7
100
AcDbVertex
100
AcDb2dVertex
 10
67.01689779018885
 20
42.52470040423169
 30
0.0
  0
VERTEX
  5
183
330
17E
100
AcDbEntity
  8
DIBUJOS
 62
     7
100
AcDbVertex
100
AcDb2dVertex
 10
67.0263843511595
 20
42.5001667565492
 30
0.0
  0
VERTEX
  5
184
330
17E
100
AcDbEntity
  8
DIBUJOS
 62
     7
100
AcDbVertex
100
AcDb2dVertex
 10
67.04452109362545
 20
42.48200840411507
 30
0.0
  0
VERTEX
  5
185
330
17E
100
AcDbEntity
  8
DIBUJOS
 62
     7
100
AcDbVertex
100
AcDb2dVertex
 10
67.09288790979794
 20
42.46990609351403
 30
0.0
  0
VERTEX
  5
186
330
17E
100
AcDbEntity
  8
DIBUJOS
 62
     7
100
AcDbVertex
100
AcDb2dVertex
 10
67.14125309877278
 20
42.46990609351403
 30
0.0
  0
VERTEX
  5
187
330
17E
100
AcDbEntity
  8
DIBUJOS
 62
     7
100
AcDbVertex
100
AcDb2dVertex
 10
67.17101616681938
 20
42.47828486682972
 30
0.0
  0
VERTEX
  5
188
330
17E
100
AcDbEntity
  8
DIBUJOS
 62
     7
100
AcDbVertex
100
AcDb2dVertex
 10
67.17813190114572
 20
42.48079980189937
 30
0.0
  0
VERTEX
  5
189
330
17E
100
AcDbEntity
  8
DIBUJOS
 62
     7
100
AcDbVertex
100
AcDb2dVertex
 10
67.20775665741121
 20
42.5001667565492
 30
0.0
  0
VERTEX
  5
18A
330
17E
100
AcDbEntity
  8
DIBUJOS
 62
     7
100
AcDbVertex
100
AcDb2dVertex
 10
67.20915116560205
 20
42.50528784195106
 30
0.0
  0
VERTEX
  5
18B
330
17E
100
AcDbEntity
  8
DIBUJOS
 62
     7
100
AcDbVertex
100
AcDb2dVertex
 10
67.22589339987715
 20
42.55463204078804
 30
0.0
  0
VERTEX
  5
18C
330
17E
100
AcDbEntity
  8
DIBUJOS
 62
     7
100
AcDbVertex
100
AcDb2dVertex
 10
67.19877127324652
 20
43.49864158689044
 30
0.0
  0
VERTEX
  5
18D
330
17E
100
AcDbEntity
  8
DIBUJOS
 62
     7
100
AcDbVertex
100
AcDb2dVertex
 10
67.15567006793181
 20
45.04846055059081
 30
0.0
  0
VERTEX
  5
18E
330
17E
100
AcDbEntity
  8
DIBUJOS
 62
     7
100
AcDbVertex
100
AcDb2dVertex
 10
67.14125309877278
 20
45.09035767485613
 30
0.0
  0
VERTEX
  5
18F
330
17E
100
AcDbEntity
  8
DIBUJOS
 62
     7
100
AcDbVertex
100
AcDb2dVertex
 10
67.10558330408463
 20
45.11032730177052
 30
0.0
  0
VERTEX
  5
190
330
17E
100
AcDbEntity
  8
DIBUJOS
 62
     7
100
AcDbVertex
100
AcDb2dVertex
 10
67.04452109362545
 20
45.11456555374701
 30
0.0
  0
SEQEND
  5
191
330
17E
100
AcDbEntity
  8
DIBUJOS
 62
     7
  0
ENDBLK
  5
55
330
52
100
AcDbEntity
  8
0
100
AcDbBlockEnd
  0
BLOCK
  5
194
330
192
100
AcDbEntity
  8
0
100
AcDbBlockBegin
  2
BLOCK_3
 70
     0
 10
0.0
 20
0.0
 30
0.0
  3
BLOCK_3
  1

  0
POLYLINE
  5
196
330
192
100
AcDbEntity
  8
DIBUJOS
 62
     7
100
AcDb2dPolyline
 66
     1
 10
0.0
 20
0.0
 30
0.0
  0
VERTEX
  5
197
330
196
100
AcDbEntity
  8
DIBUJOS
 62
     7
100
AcDbVertex
100
AcDb2dVertex
 10
64.2090726338273
 20
33.64882660885149
 30
0.0
  0
VERTEX
  5
198
330
196
100
AcDbEntity
  8
DIBUJOS
 62
     7
100
AcDbVertex
100
AcDb2dVertex
 10
64.20302759540465
 20
33.64882660885149
 30
0.0
  0
SEQEND
  5
199
330
196
100
AcDbEntity
  8
DIBUJOS
 62
     7
  0
POLYLINE
  5
19A
330
192
100
AcDbEntity
  8
DIBUJOS
 62
     7
100
AcDb2dPolyline
 66
     1
 10
0.0
 20
0.0
 30
0.0
  0
VERTEX
  5
19B
330
19A
100
AcDbEntity
  8
DIBUJOS
 62
     7
100
AcDbVertex
100
AcDb2dVertex
 10
64.2090726338273
 20
33.64882660885149
 30
0.0
  0
VERTEX
  5
19C
330
19A
100
AcDbEntity
  8
DIBUJOS
 62
     7
100
AcDbVertex
100
AcDb2dVertex
 10
64.2090726338273
 20
33.65487776415281
 30
0.0
  0
SEQEND
  5
19D
330
19A
100
AcDbEntity
  8
DIBUJOS
 62
     7
  0
POLYLINE
  5
19E
330
192
100
AcDbEntity
  8
DIBUJOS
 62
     7
100
AcDb2dPolyline
 66
     1
 10
0.0
 20
0.0
 30
0.0
  0
VERTEX
  5
19F
330
19E
100
AcDbEntity
  8
DIBUJOS
 62
     7
100
AcDbVertex
100
AcDb2dVertex
 10
65.04943060644804
 20
33.64882660885149
 30
0.0
  0
VERTEX
  5
1A0
330
19E
100
AcDbEntity
  8
DIBUJOS
 62
     7
100
AcDbVertex
100
AcDb2dVertex
 10
65.03733890240476
 20
33.81222571925492
 30
0.0
  0
VERTEX
  5
1A1
330
19E
100
AcDbEntity
  8
DIBUJOS
 62
     7
100
AcDbVertex
100
AcDb2dVertex
 10
65.00771414613926
 20
33.83764382920639
 30
0.0
  0
VERTEX
  5
1A2
330
19E
100
AcDbEntity
  8
DIBUJOS
 62
     7
100
AcDbVertex
100
AcDb2dVertex
 10
64.96525405660896
 20
33.85086515560513
 30
0.0
  0
VERTEX
  5
1A3
330
19E
100
AcDbEntity
  8
DIBUJOS
 62
     7
100
AcDbVertex
100
AcDb2dVertex
 10
64.95874363972337
 20
33.85458869289144
 30
0.0
  0
VERTEX
  5
1A4
330
19E
100
AcDbEntity
  8
DIBUJOS
 62
     7
100
AcDbVertex
100
AcDb2dVertex
 10
64.29371293493168
 20
33.85458869289144
 30
0.0
  0
VERTEX
  5
1A5
330
19E
100
AcDbEntity
  8
DIBUJOS
 62
     7
100
AcDbVertex
100
AcDb2dVertex
 10
64.26394986688538
 20
33.8462099195764
 30
0.0
  0
VERTEX
  5
1A6
330
19E
100
AcDbEntity
  8
DIBUJOS
 62
     7
100
AcDbVertex
100
AcDb2dVertex
 10
64.25683413255874
 20
33.84369498450643
 30
0.0
  0
VERTEX
  5
1A7
330
19E
100
AcDbEntity
  8
DIBUJOS
 62
     7
100
AcDbVertex
100
AcDb2dVertex
 10
64.23930108033653
 20
33.83643359814548
 30
0.0
  0
VERTEX
  5
1A8
330
19E
100
AcDbEntity
  8
DIBUJOS
 62
     7
100
AcDbVertex
100
AcDb2dVertex
 10
64.21511929944761
 20
33.81222571925492
 30
0.0
  0
VERTEX
  5
1A9
330
19E
100
AcDbEntity
  8
DIBUJOS
 62
     7
100
AcDbVertex
100
AcDb2dVertex
 10
64.21195928205414
 20
33.78789241937909
 30
0.0
  0
VERTEX
  5
1AA
330
19E
100
AcDbEntity
  8
DIBUJOS
 62
     7
100
AcDbVertex
100
AcDb2dVertex
 10
64.2090726338273
 20
33.65487776415281
 30
0.0
  0
SEQEND
  5
1AB
330
19E
100
AcDbEntity
  8
DIBUJOS
 62
     7
  0
POLYLINE
  5
1AC
330
192
100
AcDbEntity
  8
DIBUJOS
 62
     7
100
AcDb2dPolyline
 66
     1
 10
0.0
 20
0.0
 30
0.0
  0
VERTEX
  5
1AD
330
1AC
100
AcDbEntity
  8
DIBUJOS
 62
     7
100
AcDbVertex
100
AcDb2dVertex
 10
64.2090726338273
 20
33.64277382470689
 30
0.0
  0
VERTEX
  5
1AE
330
1AC
100
AcDbEntity
  8
DIBUJOS
 62
     7
100
AcDbVertex
100
AcDb2dVertex
 10
64.2090726338273
 20
33.64882660885149
 30
0.0
  0
SEQEND
  5
1AF
330
1AC
100
AcDbEntity
  8
DIBUJOS
 62
     7
  0
POLYLINE
  5
1B0
330
192
100
AcDbEntity
  8
DIBUJOS
 62
     7
100
AcDb2dPolyline
 66
     1
 10
0.0
 20
0.0
 30
0.0
  0
VERTEX
  5
1B1
330
1B0
100
AcDbEntity
  8
DIBUJOS
 62
     7
100
AcDbVertex
100
AcDb2dVertex
 10
64.2090726338273
 20
33.64277382470689
 30
0.0
  0
VERTEX
  5
1B2
330
1B0
100
AcDbEntity
  8
DIBUJOS
 62
     7
100
AcDbVertex
100
AcDb2dVertex
 10
64.21511929944761
 20
33.63672266940685
 30
0.0
  0
VERTEX
  5
1B3
330
1B0
100
AcDbEntity
  8
DIBUJOS
 62
     7
100
AcDbVertex
100
AcDb2dVertex
 10
64.46299353714042
 20
33.6669817035981
 30
0.0
  0
VERTEX
  5
1B4
330
1B0
100
AcDbEntity
  8
DIBUJOS
 62
     7
100
AcDbVertex
100
AcDb2dVertex
 10
64.78946303751462
 20
33.6669817035981
 30
0.0
  0
VERTEX
  5
1B5
330
1B0
100
AcDbEntity
  8
DIBUJOS
 62
     7
100
AcDbVertex
100
AcDb2dVertex
 10
64.86178219973937
 20
33.65817454432175
 30
0.0
  0
VERTEX
  5
1B6
330
1B0
100
AcDbEntity
  8
DIBUJOS
 62
     7
100
AcDbVertex
100
AcDb2dVertex
 10
64.93492309666229
 20
33.65136760542551
 30
0.0
  0
VERTEX
  5
1B7
330
1B0
100
AcDbEntity
  8
DIBUJOS
 62
     7
100
AcDbVertex
100
AcDb2dVertex
 10
65.03129223678478
 20
33.63672266940685
 30
0.0
  0
VERTEX
  5
1B8
330
1B0
100
AcDbEntity
  8
DIBUJOS
 62
     7
100
AcDbVertex
100
AcDb2dVertex
 10
65.04943060644804
 20
33.64882660885149
 30
0.0
  0
SEQEND
  5
1B9
330
1B0
100
AcDbEntity
  8
DIBUJOS
 62
     7
  0
POLYLINE
  5
1BA
330
192
100
AcDbEntity
  8
DIBUJOS
 62
     7
100
AcDb2dPolyline
 66
     1
 10
0.0
 20
0.0
 30
0.0
  0
VERTEX
  5
1BB
330
1BA
100
AcDbEntity
  8
DIBUJOS
 62
     7
100
AcDbVertex
100
AcDb2dVertex
 10
64.77132629504835
 20
33.49147865375004
 30
0.0
  0
VERTEX
  5
1BC
330
1BA
100
AcDbEntity
  8
DIBUJOS
 62
     7
100
AcDbVertex
100
AcDb2dVertex
 10
64.75318955258274
 20
33.49752980905007
 30
0.0
  0
VERTEX
  5
1BD
330
1BA
100
AcDbEntity
  8
DIBUJOS
 62
     7
100
AcDbVertex
100
AcDb2dVertex
 10
64.4986633318289
 20
33.49329318591783
 30
0.0
  0
VERTEX
  5
1BE
330
1BA
100
AcDbEntity
  8
DIBUJOS
 62
     7
100
AcDbVertex
100
AcDb2dVertex
 10
64.48717694522666
 20
33.49147865375004
 30
0.0
  0
SEQEND
  5
1BF
330
1BA
100
AcDbEntity
  8
DIBUJOS
 62
     7
  0
POLYLINE
  5
1C0
330
192
100
AcDbEntity
  8
DIBUJOS
 62
     7
100
AcDb2dPolyline
 66
     1
 10
0.0
 20
0.0
 30
0.0
  0
VERTEX
  5
1C1
330
1C0
100
AcDbEntity
  8
DIBUJOS
 62
     7
100
AcDbVertex
100
AcDb2dVertex
 10
64.46904020276072
 20
33.48542586960543
 30
0.0
  0
VERTEX
  5
1C2
330
1C0
100
AcDbEntity
  8
DIBUJOS
 62
     7
100
AcDbVertex
100
AcDb2dVertex
 10
64.46299353714042
 20
33.48542586960543
 30
0.0
  0
SEQEND
  5
1C3
330
1C0
100
AcDbEntity
  8
DIBUJOS
 62
     7
  0
POLYLINE
  5
1C4
330
192
100
AcDbEntity
  8
DIBUJOS
 62
     7
100
AcDb2dPolyline
 66
     1
 10
0.0
 20
0.0
 30
0.0
  0
VERTEX
  5
1C5
330
1C4
100
AcDbEntity
  8
DIBUJOS
 62
     7
100
AcDbVertex
100
AcDb2dVertex
 10
64.89224008108494
 20
33.47937471430411
 30
0.0
  0
VERTEX
  5
1C6
330
1C4
100
AcDbEntity
  8
DIBUJOS
 62
     7
100
AcDbVertex
100
AcDb2dVertex
 10
64.86805830019601
 20
33.47937471430411
 30
0.0
  0
VERTEX
  5
1C7
330
1C4
100
AcDbEntity
  8
DIBUJOS
 62
     7
100
AcDbVertex
100
AcDb2dVertex
 10
64.86201163457604
 20
33.48542586960543
 30
0.0
  0
SEQEND
  5
1C8
330
1C4
100
AcDbEntity
  8
DIBUJOS
 62
     7
  0
POLYLINE
  5
1C9
330
192
100
AcDbEntity
  8
DIBUJOS
 62
     7
100
AcDb2dPolyline
 66
     1
 10
0.0
 20
0.0
 30
0.0
  0
VERTEX
  5
1CA
330
1C9
100
AcDbEntity
  8
DIBUJOS
 62
     7
100
AcDbVertex
100
AcDb2dVertex
 10
64.95874363972337
 20
33.46727077485883
 30
0.0
  0
VERTEX
  5
1CB
330
1C9
100
AcDbEntity
  8
DIBUJOS
 62
     7
100
AcDbVertex
100
AcDb2dVertex
 10
64.91642348917118
 20
33.47937471430411
 30
0.0
  0
SEQEND
  5
1CC
330
1C9
100
AcDbEntity
  8
DIBUJOS
 62
     7
  0
POLYLINE
  5
1CD
330
192
100
AcDbEntity
  8
DIBUJOS
 62
     7
100
AcDb2dPolyline
 66
     1
 10
0.0
 20
0.0
 30
0.0
  0
VERTEX
  5
1CE
330
1CD
100
AcDbEntity
  8
DIBUJOS
 62
     7
100
AcDbVertex
100
AcDb2dVertex
 10
65.31544158660647
 20
33.38254482758514
 30
0.0
  0
VERTEX
  5
1CF
330
1CD
100
AcDbEntity
  8
DIBUJOS
 62
     7
100
AcDbVertex
100
AcDb2dVertex
 10
65.2555900110294
 20
33.40251608334281
 30
0.0
  0
VERTEX
  5
1D0
330
1CD
100
AcDbEntity
  8
DIBUJOS
 62
     7
100
AcDbVertex
100
AcDb2dVertex
 10
65.08534122635476
 20
33.44657305469556
 30
0.0
  0
VERTEX
  5
1D1
330
1CD
100
AcDbEntity
  8
DIBUJOS
 62
     7
100
AcDbVertex
100
AcDb2dVertex
 10
64.97083534376632
 20
33.46727077485883
 30
0.0
  0
SEQEND
  5
1D2
330
1CD
100
AcDbEntity
  8
DIBUJOS
 62
     7
  0
POLYLINE
  5
1D3
330
192
100
AcDbEntity
  8
DIBUJOS
 62
     7
100
AcDb2dPolyline
 66
     1
 10
0.0
 20
0.0
 30
0.0
  0
VERTEX
  5
1D4
330
1D3
100
AcDbEntity
  8
DIBUJOS
 62
     7
100
AcDbVertex
100
AcDb2dVertex
 10
65.43031033421974
 20
33.34623300924865
 30
0.0
  0
VERTEX
  5
1D5
330
1D3
100
AcDbEntity
  8
DIBUJOS
 62
     7
100
AcDbVertex
100
AcDb2dVertex
 10
65.33418364651347
 20
33.3777022745008
 30
0.0
  0
VERTEX
  5
1D6
330
1D3
100
AcDbEntity
  8
DIBUJOS
 62
     7
100
AcDbVertex
100
AcDb2dVertex
 10
65.32753329064975
 20
33.38254482758514
 30
0.0
  0
SEQEND
  5
1D7
330
1D3
100
AcDbEntity
  8
DIBUJOS
 62
     7
  0
POLYLINE
  5
1D8
330
192
100
AcDbEntity
  8
DIBUJOS
 62
     7
100
AcDb2dPolyline
 66
     1
 10
0.0
 20
0.0
 30
0.0
  0
VERTEX
  5
1D9
330
1D8
100
AcDbEntity
  8
DIBUJOS
 62
     7
100
AcDbVertex
100
AcDb2dVertex
 10
65.44844870388333
 20
33.33412906980337
 30
0.0
  0
VERTEX
  5
1DA
330
1D8
100
AcDbEntity
  8
DIBUJOS
 62
     7
100
AcDbVertex
100
AcDb2dVertex
 10
65.44240203826303
 20
33.34018185394797
 30
0.0
  0
SEQEND
  5
1DB
330
1D8
100
AcDbEntity
  8
DIBUJOS
 62
     7
  0
POLYLINE
  5
1DC
330
192
100
AcDbEntity
  8
DIBUJOS
 62
     7
100
AcDb2dPolyline
 66
     1
 10
0.0
 20
0.0
 30
0.0
  0
VERTEX
  5
1DD
330
1DC
100
AcDbEntity
  8
DIBUJOS
 62
     7
100
AcDbVertex
100
AcDb2dVertex
 10
65.69027790315347
 20
33.22519687248303
 30
0.0
  0
VERTEX
  5
1DE
330
1DC
100
AcDbEntity
  8
DIBUJOS
 62
     7
100
AcDbVertex
100
AcDb2dVertex
 10
65.47263048477225
 20
33.32807791450269
 30
0.0
  0
SEQEND
  5
1DF
330
1DC
100
AcDbEntity
  8
DIBUJOS
 62
     7
  0
POLYLINE
  5
1E0
330
192
100
AcDbEntity
  8
DIBUJOS
 62
     7
100
AcDb2dPolyline
 66
     1
 10
0.0
 20
0.0
 30
0.0
  0
VERTEX
  5
1E1
330
1E0
100
AcDbEntity
  8
DIBUJOS
 62
     7
100
AcDbVertex
100
AcDb2dVertex
 10
65.70236960719645
 20
33.21309293303711
 30
0.0
  0
VERTEX
  5
1E2
330
1E0
100
AcDbEntity
  8
DIBUJOS
 62
     7
100
AcDbVertex
100
AcDb2dVertex
 10
65.70236960719645
 20
33.21914408833843
 30
0.0
  0
SEQEND
  5
1E3
330
1E0
100
AcDbEntity
  8
DIBUJOS
 62
     7
  0
POLYLINE
  5
1E4
330
192
100
AcDbEntity
  8
DIBUJOS
 62
     7
100
AcDb2dPolyline
 66
     1
 10
0.0
 20
0.0
 30
0.0
  0
VERTEX
  5
1E5
330
1E4
100
AcDbEntity
  8
DIBUJOS
 62
     7
100
AcDbVertex
100
AcDb2dVertex
 10
65.81723835480972
 20
33.15257486465462
 30
0.0
  0
VERTEX
  5
1E6
330
1E4
100
AcDbEntity
  8
DIBUJOS
 62
     7
100
AcDbVertex
100
AcDb2dVertex
 10
65.73259805370535
 20
33.20098899359247
 30
0.0
  0
SEQEND
  5
1E7
330
1E4
100
AcDbEntity
  8
DIBUJOS
 62
     7
  0
POLYLINE
  5
1E8
330
192
100
AcDbEntity
  8
DIBUJOS
 62
     7
100
AcDb2dPolyline
 66
     1
 10
0.0
 20
0.0
 30
0.0
  0
VERTEX
  5
1E9
330
1E8
100
AcDbEntity
  8
DIBUJOS
 62
     7
100
AcDbVertex
100
AcDb2dVertex
 10
65.84142013569863
 20
33.1344181410641
 30
0.0
  0
VERTEX
  5
1EA
330
1E8
100
AcDbEntity
  8
DIBUJOS
 62
     7
100
AcDbVertex
100
AcDb2dVertex
 10
65.83537509727566
 20
33.1344181410641
 30
0.0
  0
SEQEND
  5
1EB
330
1E8
100
AcDbEntity
  8
DIBUJOS
 62
     7
  0
POLYLINE
  5
1EC
330
192
100
AcDbEntity
  8
DIBUJOS
 62
     7
100
AcDb2dPolyline
 66
     1
 10
0.0
 20
0.0
 30
0.0
  0
VERTEX
  5
1ED
330
1EC
100
AcDbEntity
  8
DIBUJOS
 62
     7
100
AcDbVertex
100
AcDb2dVertex
 10
65.926060436803
 20
33.07995122798293
 30
0.0
  0
VERTEX
  5
1EE
330
1EC
100
AcDbEntity
  8
DIBUJOS
 62
     7
100
AcDbVertex
100
AcDb2dVertex
 10
65.85351183974191
 20
33.12836698576406
 30
0.0
  0
SEQEND
  5
1EF
330
1EC
100
AcDbEntity
  8
DIBUJOS
 62
     7
  0
POLYLINE
  5
1F0
330
192
100
AcDbEntity
  8
DIBUJOS
 62
     7
100
AcDb2dPolyline
 66
     1
 10
0.0
 20
0.0
 30
0.0
  0
VERTEX
  5
1F1
330
1F0
100
AcDbEntity
  8
DIBUJOS
 62
     7
100
AcDbVertex
100
AcDb2dVertex
 10
66.04697585003657
 20
32.98312297010724
 30
0.0
  0
VERTEX
  5
1F2
330
1F0
100
AcDbEntity
  8
DIBUJOS
 62
     7
100
AcDbVertex
100
AcDb2dVertex
 10
65.99256399544143
 20
33.03153709904444
 30
0.0
  0
SEQEND
  5
1F3
330
1F0
100
AcDbEntity
  8
DIBUJOS
 62
     7
  0
POLYLINE
  5
1F4
330
192
100
AcDbEntity
  8
DIBUJOS
 62
     7
100
AcDb2dPolyline
 66
     1
 10
0.0
 20
0.0
 30
0.0
  0
VERTEX
  5
1F5
330
1F4
100
AcDbEntity
  8
DIBUJOS
 62
     7
100
AcDbVertex
100
AcDb2dVertex
 10
66.06511259250252
 20
32.97101903066132
 30
0.0
  0
VERTEX
  5
1F6
330
1F4
100
AcDbEntity
  8
DIBUJOS
 62
     7
100
AcDbVertex
100
AcDb2dVertex
 10
66.05906755407986
 20
32.97707018596264
 30
0.0
  0
SEQEND
  5
1F7
330
1F4
100
AcDbEntity
  8
DIBUJOS
 62
     7
  0
POLYLINE
  5
1F8
330
192
100
AcDbEntity
  8
DIBUJOS
 62
     7
100
AcDb2dPolyline
 66
     1
 10
0.0
 20
0.0
 30
0.0
  0
VERTEX
  5
1F9
330
1F8
100
AcDbEntity
  8
DIBUJOS
 62
     7
100
AcDbVertex
100
AcDb2dVertex
 10
66.13161615114095
 20
32.91050096227883
 30
0.0
  0
VERTEX
  5
1FA
330
1F8
100
AcDbEntity
  8
DIBUJOS
 62
     7
100
AcDbVertex
100
AcDb2dVertex
 10
66.113479408675
 20
32.92260327288019
 30
0.0
  0
VERTEX
  5
1FB
330
1F8
100
AcDbEntity
  8
DIBUJOS
 62
     7
100
AcDbVertex
100
AcDb2dVertex
 10
66.09999156924388
 20
32.93982829772701
 30
0.0
  0
VERTEX
  5
1FC
330
1F8
100
AcDbEntity
  8
DIBUJOS
 62
     7
100
AcDbVertex
100
AcDb2dVertex
 10
66.08929600058876
 20
32.95286393591535
 30
0.0
  0
SEQEND
  5
1FD
330
1F8
100
AcDbEntity
  8
DIBUJOS
 62
     7
  0
POLYLINE
  5
1FE
330
192
100
AcDbEntity
  8
DIBUJOS
 62
     7
100
AcDb2dPolyline
 66
     1
 10
0.0
 20
0.0
 30
0.0
  0
VERTEX
  5
1FF
330
1FE
100
AcDbEntity
  8
DIBUJOS
 62
     7
100
AcDbVertex
100
AcDb2dVertex
 10
66.15579955922719
 20
32.88024029924302
 30
0.0
  0
VERTEX
  5
200
330
1FE
100
AcDbEntity
  8
DIBUJOS
 62
     7
100
AcDbVertex
100
AcDb2dVertex
 10
66.15579955922719
 20
32.88629308338762
 30
0.0
  0
SEQEND
  5
201
330
1FE
100
AcDbEntity
  8
DIBUJOS
 62
     7
  0
POLYLINE
  5
202
330
192
100
AcDbEntity
  8
DIBUJOS
 62
     7
100
AcDb2dPolyline
 66
     1
 10
0.0
 20
0.0
 30
0.0
  0
VERTEX
  5
203
330
202
100
AcDbEntity
  8
DIBUJOS
 62
     7
100
AcDbVertex
100
AcDb2dVertex
 10
66.24648489875455
 20
32.80156713611393
 30
0.0
  0
VERTEX
  5
204
330
202
100
AcDbEntity
  8
DIBUJOS
 62
     7
100
AcDbVertex
100
AcDb2dVertex
 10
66.19207304415907
 20
32.84998126505178
 30
0.0
  0
SEQEND
  5
205
330
202
100
AcDbEntity
  8
DIBUJOS
 62
     7
  0
POLYLINE
  5
206
330
192
100
AcDbEntity
  8
DIBUJOS
 62
     7
100
AcDb2dPolyline
 66
     1
 10
0.0
 20
0.0
 30
0.0
  0
VERTEX
  5
207
330
206
100
AcDbEntity
  8
DIBUJOS
 62
     7
100
AcDbVertex
100
AcDb2dVertex
 10
66.26462164122049
 20
32.77735925722337
 30
0.0
  0
VERTEX
  5
208
330
206
100
AcDbEntity
  8
DIBUJOS
 62
     7
100
AcDbVertex
100
AcDb2dVertex
 10
66.2585766027975
 20
32.78341204136797
 30
0.0
  0
SEQEND
  5
209
330
206
100
AcDbEntity
  8
DIBUJOS
 62
     7
  0
POLYLINE
  5
20A
330
192
100
AcDbEntity
  8
DIBUJOS
 62
     7
100
AcDb2dPolyline
 66
     1
 10
0.0
 20
0.0
 30
0.0
  0
VERTEX
  5
20B
330
20A
100
AcDbEntity
  8
DIBUJOS
 62
     7
100
AcDbVertex
100
AcDb2dVertex
 10
62.96365152534831
 20
32.7531513783328
 30
0.0
  0
VERTEX
  5
20C
330
20A
100
AcDbEntity
  8
DIBUJOS
 62
     7
100
AcDbVertex
100
AcDb2dVertex
 10
63.08456693858221
 20
32.88024029924302
 30
0.0
  0
VERTEX
  5
20D
330
20A
100
AcDbEntity
  8
DIBUJOS
 62
     7
100
AcDbVertex
100
AcDb2dVertex
 10
63.27911791675506
 20
33.04218810968048
 30
0.0
  0
VERTEX
  5
20E
330
20A
100
AcDbEntity
  8
DIBUJOS
 62
     7
100
AcDbVertex
100
AcDb2dVertex
 10
63.3033013248413
 20
33.06034483327036
 30
0.0
  0
VERTEX
  5
20F
330
20A
100
AcDbEntity
  8
DIBUJOS
 62
     7
100
AcDbVertex
100
AcDb2dVertex
 10
63.51320979228299
 20
33.19614806935206
 30
0.0
  0
VERTEX
  5
210
330
20A
100
AcDbEntity
  8
DIBUJOS
 62
     7
100
AcDbVertex
100
AcDb2dVertex
 10
63.61114917791779
 20
33.24819289147005
 30
0.0
  0
VERTEX
  5
211
330
20A
100
AcDbEntity
  8
DIBUJOS
 62
     7
100
AcDbVertex
100
AcDb2dVertex
 10
63.77922077244174
 20
33.32928814556295
 30
0.0
  0
VERTEX
  5
212
330
20A
100
AcDbEntity
  8
DIBUJOS
 62
     7
100
AcDbVertex
100
AcDb2dVertex
 10
63.95454804027078
 20
33.38980621394608
 30
0.0
  0
VERTEX
  5
213
330
20A
100
AcDbEntity
  8
DIBUJOS
 62
     7
100
AcDbVertex
100
AcDb2dVertex
 10
64.13599031601154
 20
33.43914715509521
 30
0.0
  0
VERTEX
  5
214
330
20A
100
AcDbEntity
  8
DIBUJOS
 62
     7
100
AcDbVertex
100
AcDb2dVertex
 10
64.18435713218403
 20
33.45125109454114
 30
0.0
  0
VERTEX
  5
215
330
20A
100
AcDbEntity
  8
DIBUJOS
 62
     7
100
AcDbVertex
100
AcDb2dVertex
 10
64.34812478952715
 20
33.48542586960543
 30
0.0
  0
VERTEX
  5
216
330
20A
100
AcDbEntity
  8
DIBUJOS
 62
     7
100
AcDbVertex
100
AcDb2dVertex
 10
64.43881012905418
 20
33.47937471430411
 30
0.0
  0
VERTEX
  5
217
330
20A
100
AcDbEntity
  8
DIBUJOS
 62
     7
100
AcDbVertex
100
AcDb2dVertex
 10
64.44485679467448
 20
33.48542586960543
 30
0.0
  0
SEQEND
  5
218
330
20A
100
AcDbEntity
  8
DIBUJOS
 62
     7
  0
POLYLINE
  5
219
330
192
100
AcDbEntity
  8
DIBUJOS
 62
     7
100
AcDb2dPolyline
 66
     1
 10
0.0
 20
0.0
 30
0.0
  0
VERTEX
  5
21A
330
219
100
AcDbEntity
  8
DIBUJOS
 62
     7
100
AcDbVertex
100
AcDb2dVertex
 10
66.33717023828157
 20
32.69868609409364
 30
0.0
  0
VERTEX
  5
21B
330
219
100
AcDbEntity
  8
DIBUJOS
 62
     7
100
AcDbVertex
100
AcDb2dVertex
 10
66.2888050493064
 20
32.7531513783328
 30
0.0
  0
SEQEND
  5
21C
330
219
100
AcDbEntity
  8
DIBUJOS
 62
     7
  0
POLYLINE
  5
21D
330
192
100
AcDbEntity
  8
DIBUJOS
 62
     7
100
AcDb2dPolyline
 66
     1
 10
0.0
 20
0.0
 30
0.0
  0
VERTEX
  5
21E
330
21D
100
AcDbEntity
  8
DIBUJOS
 62
     7
100
AcDbVertex
100
AcDb2dVertex
 10
66.34926194232486
 20
32.67447821520371
 30
0.0
  0
VERTEX
  5
21F
330
21D
100
AcDbEntity
  8
DIBUJOS
 62
     7
100
AcDbVertex
100
AcDb2dVertex
 10
66.34926194232486
 20
32.6805293705044
 30
0.0
  0
SEQEND
  5
220
330
21D
100
AcDbEntity
  8
DIBUJOS
 62
     7
  0
POLYLINE
  5
221
330
192
100
AcDbEntity
  8
DIBUJOS
 62
     7
100
AcDb2dPolyline
 66
     1
 10
0.0
 20
0.0
 30
0.0
  0
VERTEX
  5
222
330
221
100
AcDbEntity
  8
DIBUJOS
 62
     7
100
AcDbVertex
100
AcDb2dVertex
 10
66.43390224342923
 20
32.57764832848474
 30
0.0
  0
VERTEX
  5
223
330
221
100
AcDbEntity
  8
DIBUJOS
 62
     7
100
AcDbVertex
100
AcDb2dVertex
 10
66.39158209287672
 20
32.63211524156591
 30
0.0
  0
SEQEND
  5
224
330
221
100
AcDbEntity
  8
DIBUJOS
 62
     7
  0
POLYLINE
  5
225
330
192
100
AcDbEntity
  8
DIBUJOS
 62
     7
100
AcDb2dPolyline
 66
     1
 10
0.0
 20
0.0
 30
0.0
  0
VERTEX
  5
226
330
225
100
AcDbEntity
  8
DIBUJOS
 62
     7
100
AcDbVertex
100
AcDb2dVertex
 10
66.44599394747219
 20
32.55949323373814
 30
0.0
  0
VERTEX
  5
227
330
225
100
AcDbEntity
  8
DIBUJOS
 62
     7
100
AcDbVertex
100
AcDb2dVertex
 10
66.4399489090492
 20
32.55949323373814
 30
0.0
  0
SEQEND
  5
228
330
225
100
AcDbEntity
  8
DIBUJOS
 62
     7
  0
POLYLINE
  5
229
330
192
100
AcDbEntity
  8
DIBUJOS
 62
     7
100
AcDb2dPolyline
 66
     1
 10
0.0
 20
0.0
 30
0.0
  0
VERTEX
  5
22A
330
229
100
AcDbEntity
  8
DIBUJOS
 62
     7
100
AcDbVertex
100
AcDb2dVertex
 10
66.50645084049032
 20
32.47476728646509
 30
0.0
  0
VERTEX
  5
22B
330
229
100
AcDbEntity
  8
DIBUJOS
 62
     7
100
AcDbVertex
100
AcDb2dVertex
 10
66.45808565151547
 20
32.54133813899217
 30
0.0
  0
SEQEND
  5
22C
330
229
100
AcDbEntity
  8
DIBUJOS
 62
     7
  0
POLYLINE
  5
22D
330
192
100
AcDbEntity
  8
DIBUJOS
 62
     7
100
AcDb2dPolyline
 66
     1
 10
0.0
 20
0.0
 30
0.0
  0
VERTEX
  5
22E
330
22D
100
AcDbEntity
  8
DIBUJOS
 62
     7
100
AcDbVertex
100
AcDb2dVertex
 10
66.64550299618983
 20
32.22058944464337
 30
0.0
  0
VERTEX
  5
22F
330
22D
100
AcDbEntity
  8
DIBUJOS
 62
     7
100
AcDbVertex
100
AcDb2dVertex
 10
66.64429398850537
 20
32.22603629883588
 30
0.0
  0
VERTEX
  5
230
330
22D
100
AcDbEntity
  8
DIBUJOS
 62
     7
100
AcDbVertex
100
AcDb2dVertex
 10
66.54151694493505
 20
32.41364328812922
 30
0.0
  0
VERTEX
  5
231
330
22D
100
AcDbEntity
  8
DIBUJOS
 62
     7
100
AcDbVertex
100
AcDb2dVertex
 10
66.53667928699922
 20
32.420300373382
 30
0.0
  0
SEQEND
  5
232
330
22D
100
AcDbEntity
  8
DIBUJOS
 62
     7
  0
POLYLINE
  5
233
330
192
100
AcDbEntity
  8
DIBUJOS
 62
     7
100
AcDb2dPolyline
 66
     1
 10
0.0
 20
0.0
 30
0.0
  0
VERTEX
  5
234
330
233
100
AcDbEntity
  8
DIBUJOS
 62
     7
100
AcDbVertex
100
AcDb2dVertex
 10
66.65154966181046
 20
32.20848550519808
 30
0.0
  0
VERTEX
  5
235
330
233
100
AcDbEntity
  8
DIBUJOS
 62
     7
100
AcDbVertex
100
AcDb2dVertex
 10
66.64550299618983
 20
32.20848550519808
 30
0.0
  0
SEQEND
  5
236
330
233
100
AcDbEntity
  8
DIBUJOS
 62
     7
  0
POLYLINE
  5
237
330
192
100
AcDbEntity
  8
DIBUJOS
 62
     7
100
AcDb2dPolyline
 66
     1
 10
0.0
 20
0.0
 30
0.0
  0
VERTEX
  5
238
330
237
100
AcDbEntity
  8
DIBUJOS
 62
     7
100
AcDbVertex
100
AcDb2dVertex
 10
66.74828003976015
 20
31.96641160282165
 30
0.0
  0
VERTEX
  5
239
330
237
100
AcDbEntity
  8
DIBUJOS
 62
     7
100
AcDbVertex
100
AcDb2dVertex
 10
66.74042067621164
 20
31.99001355176076
 30
0.0
  0
VERTEX
  5
23A
330
237
100
AcDbEntity
  8
DIBUJOS
 62
     7
100
AcDbVertex
100
AcDb2dVertex
 10
66.66787207915056
 20
32.17156938575343
 30
0.0
  0
VERTEX
  5
23B
330
237
100
AcDbEntity
  8
DIBUJOS
 62
     7
100
AcDbVertex
100
AcDb2dVertex
 10
66.65759470023312
 20
32.19033041045149
 30
0.0
  0
SEQEND
  5
23C
330
237
100
AcDbEntity
  8
DIBUJOS
 62
     7
  0
POLYLINE
  5
23D
330
192
100
AcDbEntity
  8
DIBUJOS
 62
     7
100
AcDb2dPolyline
 66
     1
 10
0.0
 20
0.0
 30
0.0
  0
VERTEX
  5
23E
330
23D
100
AcDbEntity
  8
DIBUJOS
 62
     7
100
AcDbVertex
100
AcDb2dVertex
 10
67.01429264711655
 20
31.68197472680869
 30
0.0
  0
VERTEX
  5
23F
330
23D
100
AcDbEntity
  8
DIBUJOS
 62
     7
100
AcDbVertex
100
AcDb2dVertex
 10
66.9758842791666
 20
31.86299629998379
 30
0.0
  0
VERTEX
  5
240
330
23D
100
AcDbEntity
  8
DIBUJOS
 62
     7
100
AcDbVertex
100
AcDb2dVertex
 10
66.91876964965336
 20
32.05174185120352
 30
0.0
  0
VERTEX
  5
241
330
23D
100
AcDbEntity
  8
DIBUJOS
 62
     7
100
AcDbVertex
100
AcDb2dVertex
 10
66.87644949910117
 20
32.16672846151302
 30
0.0
  0
VERTEX
  5
242
330
23D
100
AcDbEntity
  8
DIBUJOS
 62
     7
100
AcDbVertex
100
AcDb2dVertex
 10
66.7615807514879
 20
32.40880236388881
 30
0.0
  0
VERTEX
  5
243
330
23D
100
AcDbEntity
  8
DIBUJOS
 62
     7
100
AcDbVertex
100
AcDb2dVertex
 10
66.71321556251273
 20
32.4935283111625
 30
0.0
  0
VERTEX
  5
244
330
23D
100
AcDbEntity
  8
DIBUJOS
 62
     7
100
AcDbVertex
100
AcDb2dVertex
 10
66.60173138553729
 20
32.66733736329498
 30
0.0
  0
VERTEX
  5
245
330
23D
100
AcDbEntity
  8
DIBUJOS
 62
     7
100
AcDbVertex
100
AcDb2dVertex
 10
66.58649756327239
 20
32.68767185125641
 30
0.0
  0
VERTEX
  5
246
330
23D
100
AcDbEntity
  8
DIBUJOS
 62
     7
100
AcDbVertex
100
AcDb2dVertex
 10
66.45658374829458
 20
32.84864561300689
 30
0.0
  0
VERTEX
  5
247
330
23D
100
AcDbEntity
  8
DIBUJOS
 62
     7
100
AcDbVertex
100
AcDb2dVertex
 10
66.41122073856324
 20
32.89973267487779
 30
0.0
  0
VERTEX
  5
248
330
23D
100
AcDbEntity
  8
DIBUJOS
 62
     7
100
AcDbVertex
100
AcDb2dVertex
 10
66.27200260872684
 20
33.0390916773179
 30
0.0
  0
VERTEX
  5
249
330
23D
100
AcDbEntity
  8
DIBUJOS
 62
     7
100
AcDbVertex
100
AcDb2dVertex
 10
66.1726247805709
 20
33.12686682047977
 30
0.0
  0
VERTEX
  5
24A
330
23D
100
AcDbEntity
  8
DIBUJOS
 62
     7
100
AcDbVertex
100
AcDb2dVertex
 10
66.0279083506454
 20
33.23590326381309
 30
0.0
  0
VERTEX
  5
24B
330
23D
100
AcDbEntity
  8
DIBUJOS
 62
     7
100
AcDbVertex
100
AcDb2dVertex
 10
66.00356710440921
 20
33.25400297786504
 30
0.0
  0
VERTEX
  5
24C
330
23D
100
AcDbEntity
  8
DIBUJOS
 62
     7
100
AcDbVertex
100
AcDb2dVertex
 10
65.88918163443006
 20
33.32686768344242
 30
0.0
  0
VERTEX
  5
24D
330
23D
100
AcDbEntity
  8
DIBUJOS
 62
     7
100
AcDbVertex
100
AcDb2dVertex
 10
65.77431288681679
 20
33.39343853597016
 30
0.0
  0
VERTEX
  5
24E
330
23D
100
AcDbEntity
  8
DIBUJOS
 62
     7
100
AcDbVertex
100
AcDb2dVertex
 10
65.53973936085141
 20
33.50479119541166
 30
0.0
  0
VERTEX
  5
24F
330
23D
100
AcDbEntity
  8
DIBUJOS
 62
     7
100
AcDbVertex
100
AcDb2dVertex
 10
65.42487061323814
 20
33.54776009900028
 30
0.0
  0
VERTEX
  5
250
330
23D
100
AcDbEntity
  8
DIBUJOS
 62
     7
100
AcDbVertex
100
AcDb2dVertex
 10
65.21924330221348
 20
33.6085990496426
 30
0.0
  0
VERTEX
  5
251
330
23D
100
AcDbEntity
  8
DIBUJOS
 62
     7
100
AcDbVertex
100
AcDb2dVertex
 10
65.04943060644804
 20
33.64882660885149
 30
0.0
  0
SEQEND
  5
252
330
23D
100
AcDbEntity
  8
DIBUJOS
 62
     7
  0
POLYLINE
  5
253
330
192
100
AcDbEntity
  8
DIBUJOS
 62
     7
100
AcDb2dPolyline
 66
     1
 10
0.0
 20
0.0
 30
0.0
  0
VERTEX
  5
254
330
253
100
AcDbEntity
  8
DIBUJOS
 62
     7
100
AcDbVertex
100
AcDb2dVertex
 10
62.23816392753882
 20
31.67592357150865
 30
0.0
  0
VERTEX
  5
255
330
253
100
AcDbEntity
  8
DIBUJOS
 62
     7
100
AcDbVertex
100
AcDb2dVertex
 10
62.27676430478409
 20
31.86306471142982
 30
0.0
  0
VERTEX
  5
256
330
253
100
AcDbEntity
  8
DIBUJOS
 62
     7
100
AcDbVertex
100
AcDb2dVertex
 10
62.34275529623466
 20
32.07473949903446
 30
0.0
  0
VERTEX
  5
257
330
253
100
AcDbEntity
  8
DIBUJOS
 62
     7
100
AcDbVertex
100
AcDb2dVertex
 10
62.37903040836386
 20
32.17156938575343
 30
0.0
  0
VERTEX
  5
258
330
253
100
AcDbEntity
  8
DIBUJOS
 62
     7
100
AcDbVertex
100
AcDb2dVertex
 10
62.48724880011342
 20
32.40153934868394
 30
0.0
  0
VERTEX
  5
259
330
253
100
AcDbEntity
  8
DIBUJOS
 62
     7
100
AcDbVertex
100
AcDb2dVertex
 10
62.53561398908826
 20
32.48626529595699
 30
0.0
  0
VERTEX
  5
25A
330
253
100
AcDbEntity
  8
DIBUJOS
 62
     7
100
AcDbVertex
100
AcDb2dVertex
 10
62.66888633954514
 20
32.69145239808066
 30
0.0
  0
VERTEX
  5
25B
330
253
100
AcDbEntity
  8
DIBUJOS
 62
     7
100
AcDbVertex
100
AcDb2dVertex
 10
62.6901196387051
 20
32.71802210070861
 30
0.0
  0
VERTEX
  5
25C
330
253
100
AcDbEntity
  8
DIBUJOS
 62
     7
100
AcDbVertex
100
AcDb2dVertex
 10
62.79587282636015
 20
32.84864561300689
 30
0.0
  0
VERTEX
  5
25D
330
253
100
AcDbEntity
  8
DIBUJOS
 62
     7
100
AcDbVertex
100
AcDb2dVertex
 10
62.84123583609148
 20
32.89973267487779
 30
0.0
  0
VERTEX
  5
25E
330
253
100
AcDbEntity
  8
DIBUJOS
 62
     7
100
AcDbVertex
100
AcDb2dVertex
 10
62.98178826781457
 20
33.04364103848972
 30
0.0
  0
VERTEX
  5
25F
330
253
100
AcDbEntity
  8
DIBUJOS
 62
     7
100
AcDbVertex
100
AcDb2dVertex
 10
63.19850492927025
 20
33.22054163645302
 30
0.0
  0
VERTEX
  5
260
330
253
100
AcDbEntity
  8
DIBUJOS
 62
     7
100
AcDbVertex
100
AcDb2dVertex
 10
63.21245651996667
 20
33.2298521085124
 30
0.0
  0
VERTEX
  5
261
330
253
100
AcDbEntity
  8
DIBUJOS
 62
     7
100
AcDbVertex
100
AcDb2dVertex
 10
63.39229437904941
 20
33.34744324030891
 30
0.0
  0
VERTEX
  5
262
330
253
100
AcDbEntity
  8
DIBUJOS
 62
     7
100
AcDbVertex
100
AcDb2dVertex
 10
63.48902638419674
 20
33.40191015339136
 30
0.0
  0
VERTEX
  5
263
330
253
100
AcDbEntity
  8
DIBUJOS
 62
     7
100
AcDbVertex
100
AcDb2dVertex
 10
63.68974444059918
 20
33.49571364803771
 30
0.0
  0
VERTEX
  5
264
330
253
100
AcDbEntity
  8
DIBUJOS
 62
     7
100
AcDbVertex
100
AcDb2dVertex
 10
63.80461318821245
 20
33.53868255162698
 30
0.0
  0
VERTEX
  5
265
330
253
100
AcDbEntity
  8
DIBUJOS
 62
     7
100
AcDbVertex
100
AcDb2dVertex
 10
64.01002896357228
 20
33.6041360172006
 30
0.0
  0
VERTEX
  5
266
330
253
100
AcDbEntity
  8
DIBUJOS
 62
     7
100
AcDbVertex
100
AcDb2dVertex
 10
64.20302759540465
 20
33.64882660885149
 30
0.0
  0
SEQEND
  5
267
330
253
100
AcDbEntity
  8
DIBUJOS
 62
     7
  0
POLYLINE
  5
268
330
192
100
AcDbEntity
  8
DIBUJOS
 62
     7
100
AcDb2dPolyline
 66
     1
 10
0.0
 20
0.0
 30
0.0
  0
VERTEX
  5
269
330
268
100
AcDbEntity
  8
DIBUJOS
 62
     7
100
AcDbVertex
100
AcDb2dVertex
 10
67.01429264711655
 20
31.67592357150865
 30
0.0
  0
VERTEX
  5
26A
330
268
100
AcDbEntity
  8
DIBUJOS
 62
     7
100
AcDbVertex
100
AcDb2dVertex
 10
67.01429264711655
 20
31.68197472680869
 30
0.0
  0
SEQEND
  5
26B
330
268
100
AcDbEntity
  8
DIBUJOS
 62
     7
  0
POLYLINE
  5
26C
330
192
100
AcDbEntity
  8
DIBUJOS
 62
     7
100
AcDb2dPolyline
 66
     1
 10
0.0
 20
0.0
 30
0.0
  0
VERTEX
  5
26D
330
26C
100
AcDbEntity
  8
DIBUJOS
 62
     7
100
AcDbVertex
100
AcDb2dVertex
 10
67.02033931273652
 20
31.67592357150865
 30
0.0
  0
VERTEX
  5
26E
330
26C
100
AcDbEntity
  8
DIBUJOS
 62
     7
100
AcDbVertex
100
AcDb2dVertex
 10
67.01429264711655
 20
31.67592357150865
 30
0.0
  0
SEQEND
  5
26F
330
26C
100
AcDbEntity
  8
DIBUJOS
 62
     7
  0
POLYLINE
  5
270
330
192
100
AcDbEntity
  8
DIBUJOS
 62
     7
100
AcDb2dPolyline
 66
     1
 10
0.0
 20
0.0
 30
0.0
  0
VERTEX
  5
271
330
270
100
AcDbEntity
  8
DIBUJOS
 62
     7
100
AcDbVertex
100
AcDb2dVertex
 10
62.23816392753882
 20
31.66987078736405
 30
0.0
  0
VERTEX
  5
272
330
270
100
AcDbEntity
  8
DIBUJOS
 62
     7
100
AcDbVertex
100
AcDb2dVertex
 10
62.23211888911584
 20
31.66987078736405
 30
0.0
  0
SEQEND
  5
273
330
270
100
AcDbEntity
  8
DIBUJOS
 62
     7
  0
POLYLINE
  5
274
330
192
100
AcDbEntity
  8
DIBUJOS
 62
     7
100
AcDb2dPolyline
 66
     1
 10
0.0
 20
0.0
 30
0.0
  0
VERTEX
  5
275
330
274
100
AcDbEntity
  8
DIBUJOS
 62
     7
100
AcDbVertex
100
AcDb2dVertex
 10
62.23816392753882
 20
31.66987078736405
 30
0.0
  0
VERTEX
  5
276
330
274
100
AcDbEntity
  8
DIBUJOS
 62
     7
100
AcDbVertex
100
AcDb2dVertex
 10
62.23816392753882
 20
31.67592357150865
 30
0.0
  0
SEQEND
  5
277
330
274
100
AcDbEntity
  8
DIBUJOS
 62
     7
  0
POLYLINE
  5
278
330
192
100
AcDbEntity
  8
DIBUJOS
 62
     7
100
AcDb2dPolyline
 66
     1
 10
0.0
 20
0.0
 30
0.0
  0
VERTEX
  5
279
330
278
100
AcDbEntity
  8
DIBUJOS
 62
     7
100
AcDbVertex
100
AcDb2dVertex
 10
67.01429264711655
 20
31.66987078736405
 30
0.0
  0
VERTEX
  5
27A
330
278
100
AcDbEntity
  8
DIBUJOS
 62
     7
100
AcDbVertex
100
AcDb2dVertex
 10
67.01429264711655
 20
31.67592357150865
 30
0.0
  0
SEQEND
  5
27B
330
278
100
AcDbEntity
  8
DIBUJOS
 62
     7
  0
POLYLINE
  5
27C
330
192
100
AcDbEntity
  8
DIBUJOS
 62
     7
100
AcDb2dPolyline
 66
     1
 10
0.0
 20
0.0
 30
0.0
  0
VERTEX
  5
27D
330
27C
100
AcDbEntity
  8
DIBUJOS
 62
     7
100
AcDbVertex
100
AcDb2dVertex
 10
62.46185638434271
 20
31.54278186645255
 30
0.0
  0
VERTEX
  5
27E
330
27C
100
AcDbEntity
  8
DIBUJOS
 62
     7
100
AcDbVertex
100
AcDb2dVertex
 10
62.46790142276537
 20
31.56698974534375
 30
0.0
  0
SEQEND
  5
27F
330
27C
100
AcDbEntity
  8
DIBUJOS
 62
     7
  0
POLYLINE
  5
280
330
192
100
AcDbEntity
  8
DIBUJOS
 62
     7
100
AcDb2dPolyline
 66
     1
 10
0.0
 20
0.0
 30
0.0
  0
VERTEX
  5
281
330
280
100
AcDbEntity
  8
DIBUJOS
 62
     7
100
AcDbVertex
100
AcDb2dVertex
 10
62.44976468029942
 20
31.36122603245988
 30
0.0
  0
VERTEX
  5
282
330
280
100
AcDbEntity
  8
DIBUJOS
 62
     7
100
AcDbVertex
100
AcDb2dVertex
 10
62.44371964187677
 20
31.36727881660449
 30
0.0
  0
VERTEX
  5
283
330
280
100
AcDbEntity
  8
DIBUJOS
 62
     7
100
AcDbVertex
100
AcDb2dVertex
 10
62.44371964187677
 20
31.38543391135109
 30
0.0
  0
SEQEND
  5
284
330
280
100
AcDbEntity
  8
DIBUJOS
 62
     7
  0
POLYLINE
  5
285
330
192
100
AcDbEntity
  8
DIBUJOS
 62
     7
100
AcDb2dPolyline
 66
     1
 10
0.0
 20
0.0
 30
0.0
  0
VERTEX
  5
286
330
285
100
AcDbEntity
  8
DIBUJOS
 62
     7
100
AcDbVertex
100
AcDb2dVertex
 10
62.3893077872813
 20
31.28860402463147
 30
0.0
  0
VERTEX
  5
287
330
285
100
AcDbEntity
  8
DIBUJOS
 62
     7
100
AcDbVertex
100
AcDb2dVertex
 10
62.39814509648028
 20
31.44575326077179
 30
0.0
  0
VERTEX
  5
288
330
285
100
AcDbEntity
  8
DIBUJOS
 62
     7
100
AcDbVertex
100
AcDb2dVertex
 10
62.4234480163931
 20
31.64014601398973
 30
0.0
  0
VERTEX
  5
289
330
285
100
AcDbEntity
  8
DIBUJOS
 62
     7
100
AcDbVertex
100
AcDb2dVertex
 10
62.43416636581202
 20
31.69976658935218
 30
0.0
  0
VERTEX
  5
28A
330
285
100
AcDbEntity
  8
DIBUJOS
 62
     7
100
AcDbVertex
100
AcDb2dVertex
 10
62.48785249035683
 20
31.91134038863103
 30
0.0
  0
VERTEX
  5
28B
330
285
100
AcDbEntity
  8
DIBUJOS
 62
     7
100
AcDbVertex
100
AcDb2dVertex
 10
62.53924101214199
 20
32.05779463534812
 30
0.0
  0
VERTEX
  5
28C
330
285
100
AcDbEntity
  8
DIBUJOS
 62
     7
100
AcDbVertex
100
AcDb2dVertex
 10
62.63234599423592
 20
32.26839927247305
 30
0.0
  0
VERTEX
  5
28D
330
285
100
AcDbEntity
  8
DIBUJOS
 62
     7
100
AcDbVertex
100
AcDb2dVertex
 10
62.69884955287435
 20
32.38943540923802
 30
0.0
  0
VERTEX
  5
28E
330
285
100
AcDbEntity
  8
DIBUJOS
 62
     7
100
AcDbVertex
100
AcDb2dVertex
 10
62.79582238324024
 20
32.54024844238476
 30
0.0
  0
VERTEX
  5
28F
330
285
100
AcDbEntity
  8
DIBUJOS
 62
     7
100
AcDbVertex
100
AcDb2dVertex
 10
62.8110578327028
 20
32.56058293034555
 30
0.0
  0
VERTEX
  5
290
330
285
100
AcDbEntity
  8
DIBUJOS
 62
     7
100
AcDbVertex
100
AcDb2dVertex
 10
62.93946811726207
 20
32.72894512828616
 30
0.0
  0
VERTEX
  5
291
330
285
100
AcDbEntity
  8
DIBUJOS
 62
     7
100
AcDbVertex
100
AcDb2dVertex
 10
62.95155982130535
 20
32.7349962835862
 30
0.0
  0
SEQEND
  5
292
330
285
100
AcDbEntity
  8
DIBUJOS
 62
     7
  0
POLYLINE
  5
293
330
192
100
AcDbEntity
  8
DIBUJOS
 62
     7
100
AcDb2dPolyline
 66
     1
 10
0.0
 20
0.0
 30
0.0
  0
VERTEX
  5
294
330
293
100
AcDbEntity
  8
DIBUJOS
 62
     7
100
AcDbVertex
100
AcDb2dVertex
 10
66.86315041457107
 20
31.28860402463147
 30
0.0
  0
VERTEX
  5
295
330
293
100
AcDbEntity
  8
DIBUJOS
 62
     7
100
AcDbVertex
100
AcDb2dVertex
 10
66.85710374895076
 20
31.40358900609705
 30
0.0
  0
VERTEX
  5
296
330
293
100
AcDbEntity
  8
DIBUJOS
 62
     7
100
AcDbVertex
100
AcDb2dVertex
 10
66.86315041457107
 20
31.40964179024165
 30
0.0
  0
VERTEX
  5
297
330
293
100
AcDbEntity
  8
DIBUJOS
 62
     7
100
AcDbVertex
100
AcDb2dVertex
 10
66.82808431012633
 20
31.65837277787022
 30
0.0
  0
VERTEX
  5
298
330
293
100
AcDbEntity
  8
DIBUJOS
 62
     7
100
AcDbVertex
100
AcDb2dVertex
 10
66.82082863682156
 20
31.67592357150865
 30
0.0
  0
VERTEX
  5
299
330
293
100
AcDbEntity
  8
DIBUJOS
 62
     7
100
AcDbVertex
100
AcDb2dVertex
 10
66.82687530244186
 20
31.68197472680869
 30
0.0
  0
VERTEX
  5
29A
330
293
100
AcDbEntity
  8
DIBUJOS
 62
     7
100
AcDbVertex
100
AcDb2dVertex
 10
66.80501715947169
 20
31.76716652345455
 30
0.0
  0
VERTEX
  5
29B
330
293
100
AcDbEntity
  8
DIBUJOS
 62
     7
100
AcDbVertex
100
AcDb2dVertex
 10
66.75432670538045
 20
31.95430766337637
 30
0.0
  0
SEQEND
  5
29C
330
293
100
AcDbEntity
  8
DIBUJOS
 62
     7
  0
POLYLINE
  5
29D
330
192
100
AcDbEntity
  8
DIBUJOS
 62
     7
100
AcDb2dPolyline
 66
     1
 10
0.0
 20
0.0
 30
0.0
  0
VERTEX
  5
29E
330
29D
100
AcDbEntity
  8
DIBUJOS
 62
     7
100
AcDbVertex
100
AcDb2dVertex
 10
62.38326112166099
 20
31.28255286933015
 30
0.0
  0
VERTEX
  5
29F
330
29D
100
AcDbEntity
  8
DIBUJOS
 62
     7
100
AcDbVertex
100
AcDb2dVertex
 10
62.37721608323834
 20
31.28255286933015
 30
0.0
  0
VERTEX
  5
2A0
330
29D
100
AcDbEntity
  8
DIBUJOS
 62
     7
100
AcDbVertex
100
AcDb2dVertex
 10
62.3590793407724
 20
31.3007079640774
 30
0.0
  0
SEQEND
  5
2A1
330
29D
100
AcDbEntity
  8
DIBUJOS
 62
     7
  0
POLYLINE
  5
2A2
330
192
100
AcDbEntity
  8
DIBUJOS
 62
     7
100
AcDb2dPolyline
 66
     1
 10
0.0
 20
0.0
 30
0.0
  0
VERTEX
  5
2A3
330
2A2
100
AcDbEntity
  8
DIBUJOS
 62
     7
100
AcDbVertex
100
AcDb2dVertex
 10
62.3893077872813
 20
31.28255286933015
 30
0.0
  0
VERTEX
  5
2A4
330
2A2
100
AcDbEntity
  8
DIBUJOS
 62
     7
100
AcDbVertex
100
AcDb2dVertex
 10
62.38326112166099
 20
31.28255286933015
 30
0.0
  0
SEQEND
  5
2A5
330
2A2
100
AcDbEntity
  8
DIBUJOS
 62
     7
  0
POLYLINE
  5
2A6
330
192
100
AcDbEntity
  8
DIBUJOS
 62
     7
100
AcDb2dPolyline
 66
     1
 10
0.0
 20
0.0
 30
0.0
  0
VERTEX
  5
2A7
330
2A6
100
AcDbEntity
  8
DIBUJOS
 62
     7
100
AcDbVertex
100
AcDb2dVertex
 10
62.3893077872813
 20
31.28255286933015
 30
0.0
  0
VERTEX
  5
2A8
330
2A6
100
AcDbEntity
  8
DIBUJOS
 62
     7
100
AcDbVertex
100
AcDb2dVertex
 10
62.3893077872813
 20
31.28860402463147
 30
0.0
  0
SEQEND
  5
2A9
330
2A6
100
AcDbEntity
  8
DIBUJOS
 62
     7
  0
POLYLINE
  5
2AA
330
192
100
AcDbEntity
  8
DIBUJOS
 62
     7
100
AcDb2dPolyline
 66
     1
 10
0.0
 20
0.0
 30
0.0
  0
VERTEX
  5
2AB
330
2AA
100
AcDbEntity
  8
DIBUJOS
 62
     7
100
AcDbVertex
100
AcDb2dVertex
 10
66.86315041457107
 20
31.28255286933015
 30
0.0
  0
VERTEX
  5
2AC
330
2AA
100
AcDbEntity
  8
DIBUJOS
 62
     7
100
AcDbVertex
100
AcDb2dVertex
 10
66.86315041457107
 20
31.28860402463147
 30
0.0
  0
SEQEND
  5
2AD
330
2AA
100
AcDbEntity
  8
DIBUJOS
 62
     7
  0
POLYLINE
  5
2AE
330
192
100
AcDbEntity
  8
DIBUJOS
 62
     7
100
AcDb2dPolyline
 66
     1
 10
0.0
 20
0.0
 30
0.0
  0
VERTEX
  5
2AF
330
2AE
100
AcDbEntity
  8
DIBUJOS
 62
     7
100
AcDbVertex
100
AcDb2dVertex
 10
66.86919545299372
 20
31.28255286933015
 30
0.0
  0
VERTEX
  5
2B0
330
2AE
100
AcDbEntity
  8
DIBUJOS
 62
     7
100
AcDbVertex
100
AcDb2dVertex
 10
66.86315041457107
 20
31.28255286933015
 30
0.0
  0
SEQEND
  5
2B1
330
2AE
100
AcDbEntity
  8
DIBUJOS
 62
     7
  0
POLYLINE
  5
2B2
330
192
100
AcDbEntity
  8
DIBUJOS
 62
     7
100
AcDb2dPolyline
 66
     1
 10
0.0
 20
0.0
 30
0.0
  0
VERTEX
  5
2B3
330
2B2
100
AcDbEntity
  8
DIBUJOS
 62
     7
100
AcDbVertex
100
AcDb2dVertex
 10
66.86919545299372
 20
31.28255286933015
 30
0.0
  0
VERTEX
  5
2B4
330
2B2
100
AcDbEntity
  8
DIBUJOS
 62
     7
100
AcDbVertex
100
AcDb2dVertex
 10
66.8752404914167
 20
31.28255286933015
 30
0.0
  0
VERTEX
  5
2B5
330
2B2
100
AcDbEntity
  8
DIBUJOS
 62
     7
100
AcDbVertex
100
AcDb2dVertex
 10
66.89337886107997
 20
31.3007079640774
 30
0.0
  0
SEQEND
  5
2B6
330
2B2
100
AcDbEntity
  8
DIBUJOS
 62
     7
  0
POLYLINE
  5
2B7
330
192
100
AcDbEntity
  8
DIBUJOS
 62
     7
100
AcDb2dPolyline
 66
     1
 10
0.0
 20
0.0
 30
0.0
  0
VERTEX
  5
2B8
330
2B7
100
AcDbEntity
  8
DIBUJOS
 62
     7
100
AcDbVertex
100
AcDb2dVertex
 10
62.3893077872813
 20
31.27650008518555
 30
0.0
  0
VERTEX
  5
2B9
330
2B7
100
AcDbEntity
  8
DIBUJOS
 62
     7
100
AcDbVertex
100
AcDb2dVertex
 10
62.3893077872813
 20
31.28255286933015
 30
0.0
  0
SEQEND
  5
2BA
330
2B7
100
AcDbEntity
  8
DIBUJOS
 62
     7
  0
POLYLINE
  5
2BB
330
192
100
AcDbEntity
  8
DIBUJOS
 62
     7
100
AcDb2dPolyline
 66
     1
 10
0.0
 20
0.0
 30
0.0
  0
VERTEX
  5
2BC
330
2BB
100
AcDbEntity
  8
DIBUJOS
 62
     7
100
AcDbVertex
100
AcDb2dVertex
 10
66.85105871052811
 20
31.27650008518555
 30
0.0
  0
VERTEX
  5
2BD
330
2BB
100
AcDbEntity
  8
DIBUJOS
 62
     7
100
AcDbVertex
100
AcDb2dVertex
 10
66.8450120449078
 20
31.28255286933015
 30
0.0
  0
SEQEND
  5
2BE
330
2BB
100
AcDbEntity
  8
DIBUJOS
 62
     7
  0
POLYLINE
  5
2BF
330
192
100
AcDbEntity
  8
DIBUJOS
 62
     7
100
AcDb2dPolyline
 66
     1
 10
0.0
 20
0.0
 30
0.0
  0
VERTEX
  5
2C0
330
2BF
100
AcDbEntity
  8
DIBUJOS
 62
     7
100
AcDbVertex
100
AcDb2dVertex
 10
66.85710374895076
 20
31.27650008518555
 30
0.0
  0
VERTEX
  5
2C1
330
2BF
100
AcDbEntity
  8
DIBUJOS
 62
     7
100
AcDbVertex
100
AcDb2dVertex
 10
66.85105871052811
 20
31.27650008518555
 30
0.0
  0
SEQEND
  5
2C2
330
2BF
100
AcDbEntity
  8
DIBUJOS
 62
     7
  0
POLYLINE
  5
2C3
330
192
100
AcDbEntity
  8
DIBUJOS
 62
     7
100
AcDb2dPolyline
 66
     1
 10
0.0
 20
0.0
 30
0.0
  0
VERTEX
  5
2C4
330
2C3
100
AcDbEntity
  8
DIBUJOS
 62
     7
100
AcDbVertex
100
AcDb2dVertex
 10
66.85710374895076
 20
31.27650008518555
 30
0.0
  0
VERTEX
  5
2C5
330
2C3
100
AcDbEntity
  8
DIBUJOS
 62
     7
100
AcDbVertex
100
AcDb2dVertex
 10
66.86315041457107
 20
31.28255286933015
 30
0.0
  0
SEQEND
  5
2C6
330
2C3
100
AcDbEntity
  8
DIBUJOS
 62
     7
  0
POLYLINE
  5
2C7
330
192
100
AcDbEntity
  8
DIBUJOS
 62
     7
100
AcDb2dPolyline
 66
     1
 10
0.0
 20
0.0
 30
0.0
  0
VERTEX
  5
2C8
330
2C7
100
AcDbEntity
  8
DIBUJOS
 62
     7
100
AcDbVertex
100
AcDb2dVertex
 10
62.39535282570396
 20
31.27044892988551
 30
0.0
  0
VERTEX
  5
2C9
330
2C7
100
AcDbEntity
  8
DIBUJOS
 62
     7
100
AcDbVertex
100
AcDb2dVertex
 10
62.3893077872813
 20
31.27650008518555
 30
0.0
  0
SEQEND
  5
2CA
330
2C7
100
AcDbEntity
  8
DIBUJOS
 62
     7
  0
POLYLINE
  5
2CB
330
192
100
AcDbEntity
  8
DIBUJOS
 62
     7
100
AcDb2dPolyline
 66
     1
 10
0.0
 20
0.0
 30
0.0
  0
VERTEX
  5
2CC
330
2CB
100
AcDbEntity
  8
DIBUJOS
 62
     7
100
AcDbVertex
100
AcDb2dVertex
 10
66.85710374895076
 20
31.27044892988551
 30
0.0
  0
VERTEX
  5
2CD
330
2CB
100
AcDbEntity
  8
DIBUJOS
 62
     7
100
AcDbVertex
100
AcDb2dVertex
 10
66.85710374895076
 20
31.27650008518555
 30
0.0
  0
SEQEND
  5
2CE
330
2CB
100
AcDbEntity
  8
DIBUJOS
 62
     7
  0
POLYLINE
  5
2CF
330
192
100
AcDbEntity
  8
DIBUJOS
 62
     7
100
AcDb2dPolyline
 66
     1
 10
0.0
 20
0.0
 30
0.0
  0
VERTEX
  5
2D0
330
2CF
100
AcDbEntity
  8
DIBUJOS
 62
     7
100
AcDbVertex
100
AcDb2dVertex
 10
62.39535282570396
 20
31.26439614574091
 30
0.0
  0
VERTEX
  5
2D1
330
2CF
100
AcDbEntity
  8
DIBUJOS
 62
     7
100
AcDbVertex
100
AcDb2dVertex
 10
62.39535282570396
 20
31.27044892988551
 30
0.0
  0
SEQEND
  5
2D2
330
2CF
100
AcDbEntity
  8
DIBUJOS
 62
     7
  0
POLYLINE
  5
2D3
330
192
100
AcDbEntity
  8
DIBUJOS
 62
     7
100
AcDb2dPolyline
 66
     1
 10
0.0
 20
0.0
 30
0.0
  0
VERTEX
  5
2D4
330
2D3
100
AcDbEntity
  8
DIBUJOS
 62
     7
100
AcDbVertex
100
AcDb2dVertex
 10
62.40139949132458
 20
31.26439614574091
 30
0.0
  0
VERTEX
  5
2D5
330
2D3
100
AcDbEntity
  8
DIBUJOS
 62
     7
100
AcDbVertex
100
AcDb2dVertex
 10
62.39535282570396
 20
31.26439614574091
 30
0.0
  0
SEQEND
  5
2D6
330
2D3
100
AcDbEntity
  8
DIBUJOS
 62
     7
  0
POLYLINE
  5
2D7
330
192
100
AcDbEntity
  8
DIBUJOS
 62
     7
100
AcDb2dPolyline
 66
     1
 10
0.0
 20
0.0
 30
0.0
  0
VERTEX
  5
2D8
330
2D7
100
AcDbEntity
  8
DIBUJOS
 62
     7
100
AcDbVertex
100
AcDb2dVertex
 10
66.8087385599756
 20
31.26439614574091
 30
0.0
  0
VERTEX
  5
2D9
330
2D7
100
AcDbEntity
  8
DIBUJOS
 62
     7
100
AcDbVertex
100
AcDb2dVertex
 10
66.8087385599756
 20
31.27044892988551
 30
0.0
  0
SEQEND
  5
2DA
330
2D7
100
AcDbEntity
  8
DIBUJOS
 62
     7
  0
POLYLINE
  5
2DB
330
192
100
AcDbEntity
  8
DIBUJOS
 62
     7
100
AcDb2dPolyline
 66
     1
 10
0.0
 20
0.0
 30
0.0
  0
VERTEX
  5
2DC
330
2DB
100
AcDbEntity
  8
DIBUJOS
 62
     7
100
AcDbVertex
100
AcDb2dVertex
 10
66.85105871052811
 20
31.26439614574091
 30
0.0
  0
VERTEX
  5
2DD
330
2DB
100
AcDbEntity
  8
DIBUJOS
 62
     7
100
AcDbVertex
100
AcDb2dVertex
 10
66.85710374895076
 20
31.27044892988551
 30
0.0
  0
SEQEND
  5
2DE
330
2DB
100
AcDbEntity
  8
DIBUJOS
 62
     7
  0
POLYLINE
  5
2DF
330
192
100
AcDbEntity
  8
DIBUJOS
 62
     7
100
AcDb2dPolyline
 66
     1
 10
0.0
 20
0.0
 30
0.0
  0
VERTEX
  5
2E0
330
2DF
100
AcDbEntity
  8
DIBUJOS
 62
     7
100
AcDbVertex
100
AcDb2dVertex
 10
62.3893077872813
 20
31.25834499044023
 30
0.0
  0
VERTEX
  5
2E1
330
2DF
100
AcDbEntity
  8
DIBUJOS
 62
     7
100
AcDbVertex
100
AcDb2dVertex
 10
62.39535282570396
 20
31.26439614574091
 30
0.0
  0
SEQEND
  5
2E2
330
2DF
100
AcDbEntity
  8
DIBUJOS
 62
     7
  0
POLYLINE
  5
2E3
330
192
100
AcDbEntity
  8
DIBUJOS
 62
     7
100
AcDb2dPolyline
 66
     1
 10
0.0
 20
0.0
 30
0.0
  0
VERTEX
  5
2E4
330
2E3
100
AcDbEntity
  8
DIBUJOS
 62
     7
100
AcDbVertex
100
AcDb2dVertex
 10
62.40744452974724
 20
31.25834499044023
 30
0.0
  0
VERTEX
  5
2E5
330
2E3
100
AcDbEntity
  8
DIBUJOS
 62
     7
100
AcDbVertex
100
AcDb2dVertex
 10
62.40139949132458
 20
31.26439614574091
 30
0.0
  0
SEQEND
  5
2E6
330
2E3
100
AcDbEntity
  8
DIBUJOS
 62
     7
  0
POLYLINE
  5
2E7
330
192
100
AcDbEntity
  8
DIBUJOS
 62
     7
100
AcDb2dPolyline
 66
     1
 10
0.0
 20
0.0
 30
0.0
  0
VERTEX
  5
2E8
330
2E7
100
AcDbEntity
  8
DIBUJOS
 62
     7
100
AcDbVertex
100
AcDb2dVertex
 10
62.44371964187677
 20
31.25834499044023
 30
0.0
  0
VERTEX
  5
2E9
330
2E7
100
AcDbEntity
  8
DIBUJOS
 62
     7
100
AcDbVertex
100
AcDb2dVertex
 10
62.44976468029942
 20
31.26439614574091
 30
0.0
  0
VERTEX
  5
2EA
330
2E7
100
AcDbEntity
  8
DIBUJOS
 62
     7
100
AcDbVertex
100
AcDb2dVertex
 10
62.44553233980497
 20
31.27710601513828
 30
0.0
  0
VERTEX
  5
2EB
330
2E7
100
AcDbEntity
  8
DIBUJOS
 62
     7
100
AcDbVertex
100
AcDb2dVertex
 10
62.44371964187677
 20
31.28860402463147
 30
0.0
  0
SEQEND
  5
2EC
330
2E7
100
AcDbEntity
  8
DIBUJOS
 62
     7
  0
POLYLINE
  5
2ED
330
192
100
AcDbEntity
  8
DIBUJOS
 62
     7
100
AcDb2dPolyline
 66
     1
 10
0.0
 20
0.0
 30
0.0
  0
VERTEX
  5
2EE
330
2ED
100
AcDbEntity
  8
DIBUJOS
 62
     7
100
AcDbVertex
100
AcDb2dVertex
 10
66.8087385599756
 20
31.25834499044023
 30
0.0
  0
VERTEX
  5
2EF
330
2ED
100
AcDbEntity
  8
DIBUJOS
 62
     7
100
AcDbVertex
100
AcDb2dVertex
 10
66.8087385599756
 20
31.26439614574091
 30
0.0
  0
SEQEND
  5
2F0
330
2ED
100
AcDbEntity
  8
DIBUJOS
 62
     7
  0
POLYLINE
  5
2F1
330
192
100
AcDbEntity
  8
DIBUJOS
 62
     7
100
AcDb2dPolyline
 66
     1
 10
0.0
 20
0.0
 30
0.0
  0
VERTEX
  5
2F2
330
2F1
100
AcDbEntity
  8
DIBUJOS
 62
     7
100
AcDbVertex
100
AcDb2dVertex
 10
66.81478359839858
 20
31.25834499044023
 30
0.0
  0
VERTEX
  5
2F3
330
2F1
100
AcDbEntity
  8
DIBUJOS
 62
     7
100
AcDbVertex
100
AcDb2dVertex
 10
66.8087385599756
 20
31.25834499044023
 30
0.0
  0
SEQEND
  5
2F4
330
2F1
100
AcDbEntity
  8
DIBUJOS
 62
     7
  0
POLYLINE
  5
2F5
330
192
100
AcDbEntity
  8
DIBUJOS
 62
     7
100
AcDb2dPolyline
 66
     1
 10
0.0
 20
0.0
 30
0.0
  0
VERTEX
  5
2F6
330
2F5
100
AcDbEntity
  8
DIBUJOS
 62
     7
100
AcDbVertex
100
AcDb2dVertex
 10
66.8450120449078
 20
31.25834499044023
 30
0.0
  0
VERTEX
  5
2F7
330
2F5
100
AcDbEntity
  8
DIBUJOS
 62
     7
100
AcDbVertex
100
AcDb2dVertex
 10
66.81478359839858
 20
31.25834499044023
 30
0.0
  0
SEQEND
  5
2F8
330
2F5
100
AcDbEntity
  8
DIBUJOS
 62
     7
  0
POLYLINE
  5
2F9
330
192
100
AcDbEntity
  8
DIBUJOS
 62
     7
100
AcDb2dPolyline
 66
     1
 10
0.0
 20
0.0
 30
0.0
  0
VERTEX
  5
2FA
330
2F9
100
AcDbEntity
  8
DIBUJOS
 62
     7
100
AcDbVertex
100
AcDb2dVertex
 10
66.85105871052811
 20
31.25834499044023
 30
0.0
  0
VERTEX
  5
2FB
330
2F9
100
AcDbEntity
  8
DIBUJOS
 62
     7
100
AcDbVertex
100
AcDb2dVertex
 10
66.8450120449078
 20
31.25834499044023
 30
0.0
  0
SEQEND
  5
2FC
330
2F9
100
AcDbEntity
  8
DIBUJOS
 62
     7
  0
POLYLINE
  5
2FD
330
192
100
AcDbEntity
  8
DIBUJOS
 62
     7
100
AcDb2dPolyline
 66
     1
 10
0.0
 20
0.0
 30
0.0
  0
VERTEX
  5
2FE
330
2FD
100
AcDbEntity
  8
DIBUJOS
 62
     7
100
AcDbVertex
100
AcDb2dVertex
 10
66.85105871052811
 20
31.25834499044023
 30
0.0
  0
VERTEX
  5
2FF
330
2FD
100
AcDbEntity
  8
DIBUJOS
 62
     7
100
AcDbVertex
100
AcDb2dVertex
 10
66.85105871052811
 20
31.26439614574091
 30
0.0
  0
SEQEND
  5
300
330
2FD
100
AcDbEntity
  8
DIBUJOS
 62
     7
  0
POLYLINE
  5
301
330
192
100
AcDbEntity
  8
DIBUJOS
 62
     7
100
AcDb2dPolyline
 66
     1
 10
0.0
 20
0.0
 30
0.0
  0
VERTEX
  5
302
330
301
100
AcDbEntity
  8
DIBUJOS
 62
     7
100
AcDbVertex
100
AcDb2dVertex
 10
62.38326112166099
 20
31.25229383513955
 30
0.0
  0
VERTEX
  5
303
330
301
100
AcDbEntity
  8
DIBUJOS
 62
     7
100
AcDbVertex
100
AcDb2dVertex
 10
62.35961143432942
 20
31.26048040486786
 30
0.0
  0
VERTEX
  5
304
330
301
100
AcDbEntity
  8
DIBUJOS
 62
     7
100
AcDbVertex
100
AcDb2dVertex
 10
62.35303267515209
 20
31.26439614574091
 30
0.0
  0
VERTEX
  5
305
330
301
100
AcDbEntity
  8
DIBUJOS
 62
     7
100
AcDbVertex
100
AcDb2dVertex
 10
62.27443903966802
 20
31.25834499044023
 30
0.0
  0
SEQEND
  5
306
330
301
100
AcDbEntity
  8
DIBUJOS
 62
     7
  0
POLYLINE
  5
307
330
192
100
AcDbEntity
  8
DIBUJOS
 62
     7
100
AcDb2dPolyline
 66
     1
 10
0.0
 20
0.0
 30
0.0
  0
VERTEX
  5
308
330
307
100
AcDbEntity
  8
DIBUJOS
 62
     7
100
AcDbVertex
100
AcDb2dVertex
 10
62.3893077872813
 20
31.25229383513955
 30
0.0
  0
VERTEX
  5
309
330
307
100
AcDbEntity
  8
DIBUJOS
 62
     7
100
AcDbVertex
100
AcDb2dVertex
 10
62.38326112166099
 20
31.25229383513955
 30
0.0
  0
SEQEND
  5
30A
330
307
100
AcDbEntity
  8
DIBUJOS
 62
     7
  0
POLYLINE
  5
30B
330
192
100
AcDbEntity
  8
DIBUJOS
 62
     7
100
AcDb2dPolyline
 66
     1
 10
0.0
 20
0.0
 30
0.0
  0
VERTEX
  5
30C
330
30B
100
AcDbEntity
  8
DIBUJOS
 62
     7
100
AcDbVertex
100
AcDb2dVertex
 10
62.3893077872813
 20
31.25229383513955
 30
0.0
  0
VERTEX
  5
30D
330
30B
100
AcDbEntity
  8
DIBUJOS
 62
     7
100
AcDbVertex
100
AcDb2dVertex
 10
62.3893077872813
 20
31.25834499044023
 30
0.0
  0
SEQEND
  5
30E
330
30B
100
AcDbEntity
  8
DIBUJOS
 62
     7
  0
POLYLINE
  5
30F
330
192
100
AcDbEntity
  8
DIBUJOS
 62
     7
100
AcDb2dPolyline
 66
     1
 10
0.0
 20
0.0
 30
0.0
  0
VERTEX
  5
310
330
30F
100
AcDbEntity
  8
DIBUJOS
 62
     7
100
AcDbVertex
100
AcDb2dVertex
 10
62.40744452974724
 20
31.25229383513955
 30
0.0
  0
VERTEX
  5
311
330
30F
100
AcDbEntity
  8
DIBUJOS
 62
     7
100
AcDbVertex
100
AcDb2dVertex
 10
62.40744452974724
 20
31.25834499044023
 30
0.0
  0
SEQEND
  5
312
330
30F
100
AcDbEntity
  8
DIBUJOS
 62
     7
  0
POLYLINE
  5
313
330
192
100
AcDbEntity
  8
DIBUJOS
 62
     7
100
AcDb2dPolyline
 66
     1
 10
0.0
 20
0.0
 30
0.0
  0
VERTEX
  5
314
330
313
100
AcDbEntity
  8
DIBUJOS
 62
     7
100
AcDbVertex
100
AcDb2dVertex
 10
62.41348956817022
 20
31.25229383513955
 30
0.0
  0
VERTEX
  5
315
330
313
100
AcDbEntity
  8
DIBUJOS
 62
     7
100
AcDbVertex
100
AcDb2dVertex
 10
62.40744452974724
 20
31.25229383513955
 30
0.0
  0
SEQEND
  5
316
330
313
100
AcDbEntity
  8
DIBUJOS
 62
     7
  0
POLYLINE
  5
317
330
192
100
AcDbEntity
  8
DIBUJOS
 62
     7
100
AcDb2dPolyline
 66
     1
 10
0.0
 20
0.0
 30
0.0
  0
VERTEX
  5
318
330
317
100
AcDbEntity
  8
DIBUJOS
 62
     7
100
AcDbVertex
100
AcDb2dVertex
 10
62.43767297625647
 20
31.25229383513955
 30
0.0
  0
VERTEX
  5
319
330
317
100
AcDbEntity
  8
DIBUJOS
 62
     7
100
AcDbVertex
100
AcDb2dVertex
 10
62.41348956817022
 20
31.25229383513955
 30
0.0
  0
SEQEND
  5
31A
330
317
100
AcDbEntity
  8
DIBUJOS
 62
     7
  0
POLYLINE
  5
31B
330
192
100
AcDbEntity
  8
DIBUJOS
 62
     7
100
AcDb2dPolyline
 66
     1
 10
0.0
 20
0.0
 30
0.0
  0
VERTEX
  5
31C
330
31B
100
AcDbEntity
  8
DIBUJOS
 62
     7
100
AcDbVertex
100
AcDb2dVertex
 10
62.44371964187677
 20
31.25229383513955
 30
0.0
  0
VERTEX
  5
31D
330
31B
100
AcDbEntity
  8
DIBUJOS
 62
     7
100
AcDbVertex
100
AcDb2dVertex
 10
62.43767297625647
 20
31.25229383513955
 30
0.0
  0
SEQEND
  5
31E
330
31B
100
AcDbEntity
  8
DIBUJOS
 62
     7
  0
POLYLINE
  5
31F
330
192
100
AcDbEntity
  8
DIBUJOS
 62
     7
100
AcDb2dPolyline
 66
     1
 10
0.0
 20
0.0
 30
0.0
  0
VERTEX
  5
320
330
31F
100
AcDbEntity
  8
DIBUJOS
 62
     7
100
AcDbVertex
100
AcDb2dVertex
 10
62.44371964187677
 20
31.25229383513955
 30
0.0
  0
VERTEX
  5
321
330
31F
100
AcDbEntity
  8
DIBUJOS
 62
     7
100
AcDbVertex
100
AcDb2dVertex
 10
62.44371964187677
 20
31.25834499044023
 30
0.0
  0
SEQEND
  5
322
330
31F
100
AcDbEntity
  8
DIBUJOS
 62
     7
  0
POLYLINE
  5
323
330
192
100
AcDbEntity
  8
DIBUJOS
 62
     7
100
AcDb2dPolyline
 66
     1
 10
0.0
 20
0.0
 30
0.0
  0
VERTEX
  5
324
330
323
100
AcDbEntity
  8
DIBUJOS
 62
     7
100
AcDbVertex
100
AcDb2dVertex
 10
66.8087385599756
 20
31.25229383513955
 30
0.0
  0
VERTEX
  5
325
330
323
100
AcDbEntity
  8
DIBUJOS
 62
     7
100
AcDbVertex
100
AcDb2dVertex
 10
66.8087385599756
 20
31.25834499044023
 30
0.0
  0
SEQEND
  5
326
330
323
100
AcDbEntity
  8
DIBUJOS
 62
     7
  0
POLYLINE
  5
327
330
192
100
AcDbEntity
  8
DIBUJOS
 62
     7
100
AcDb2dPolyline
 66
     1
 10
0.0
 20
0.0
 30
0.0
  0
VERTEX
  5
328
330
327
100
AcDbEntity
  8
DIBUJOS
 62
     7
100
AcDbVertex
100
AcDb2dVertex
 10
66.85710374895076
 20
31.25229383513955
 30
0.0
  0
VERTEX
  5
329
330
327
100
AcDbEntity
  8
DIBUJOS
 62
     7
100
AcDbVertex
100
AcDb2dVertex
 10
66.85105871052811
 20
31.25834499044023
 30
0.0
  0
SEQEND
  5
32A
330
327
100
AcDbEntity
  8
DIBUJOS
 62
     7
  0
POLYLINE
  5
32B
330
192
100
AcDbEntity
  8
DIBUJOS
 62
     7
100
AcDb2dPolyline
 66
     1
 10
0.0
 20
0.0
 30
0.0
  0
VERTEX
  5
32C
330
32B
100
AcDbEntity
  8
DIBUJOS
 62
     7
100
AcDbVertex
100
AcDb2dVertex
 10
66.86315041457107
 20
31.25229383513955
 30
0.0
  0
VERTEX
  5
32D
330
32B
100
AcDbEntity
  8
DIBUJOS
 62
     7
100
AcDbVertex
100
AcDb2dVertex
 10
66.85710374895076
 20
31.25229383513955
 30
0.0
  0
SEQEND
  5
32E
330
32B
100
AcDbEntity
  8
DIBUJOS
 62
     7
  0
POLYLINE
  5
32F
330
192
100
AcDbEntity
  8
DIBUJOS
 62
     7
100
AcDb2dPolyline
 66
     1
 10
0.0
 20
0.0
 30
0.0
  0
VERTEX
  5
330
330
32F
100
AcDbEntity
  8
DIBUJOS
 62
     7
100
AcDbVertex
100
AcDb2dVertex
 10
66.97801916218434
 20
31.25229383513955
 30
0.0
  0
VERTEX
  5
331
330
32F
100
AcDbEntity
  8
DIBUJOS
 62
     7
100
AcDbVertex
100
AcDb2dVertex
 10
66.86315041457107
 20
31.25229383513955
 30
0.0
  0
SEQEND
  5
332
330
32F
100
AcDbEntity
  8
DIBUJOS
 62
     7
  0
POLYLINE
  5
333
330
192
100
AcDbEntity
  8
DIBUJOS
 62
     7
100
AcDb2dPolyline
 66
     1
 10
0.0
 20
0.0
 30
0.0
  0
VERTEX
  5
334
330
333
100
AcDbEntity
  8
DIBUJOS
 62
     7
100
AcDbVertex
100
AcDb2dVertex
 10
62.3893077872813
 20
31.24624105099431
 30
0.0
  0
VERTEX
  5
335
330
333
100
AcDbEntity
  8
DIBUJOS
 62
     7
100
AcDbVertex
100
AcDb2dVertex
 10
62.3893077872813
 20
31.25229383513955
 30
0.0
  0
SEQEND
  5
336
330
333
100
AcDbEntity
  8
DIBUJOS
 62
     7
  0
POLYLINE
  5
337
330
192
100
AcDbEntity
  8
DIBUJOS
 62
     7
100
AcDb2dPolyline
 66
     1
 10
0.0
 20
0.0
 30
0.0
  0
VERTEX
  5
338
330
337
100
AcDbEntity
  8
DIBUJOS
 62
     7
100
AcDbVertex
100
AcDb2dVertex
 10
62.44371964187677
 20
31.24624105099431
 30
0.0
  0
VERTEX
  5
339
330
337
100
AcDbEntity
  8
DIBUJOS
 62
     7
100
AcDbVertex
100
AcDb2dVertex
 10
62.44371964187677
 20
31.25229383513955
 30
0.0
  0
SEQEND
  5
33A
330
337
100
AcDbEntity
  8
DIBUJOS
 62
     7
  0
POLYLINE
  5
33B
330
192
100
AcDbEntity
  8
DIBUJOS
 62
     7
100
AcDb2dPolyline
 66
     1
 10
0.0
 20
0.0
 30
0.0
  0
VERTEX
  5
33C
330
33B
100
AcDbEntity
  8
DIBUJOS
 62
     7
100
AcDbVertex
100
AcDb2dVertex
 10
66.85710374895076
 20
31.24624105099431
 30
0.0
  0
VERTEX
  5
33D
330
33B
100
AcDbEntity
  8
DIBUJOS
 62
     7
100
AcDbVertex
100
AcDb2dVertex
 10
66.85710374895076
 20
31.25229383513955
 30
0.0
  0
SEQEND
  5
33E
330
33B
100
AcDbEntity
  8
DIBUJOS
 62
     7
  0
POLYLINE
  5
33F
330
192
100
AcDbEntity
  8
DIBUJOS
 62
     7
100
AcDb2dPolyline
 66
     1
 10
0.0
 20
0.0
 30
0.0
  0
VERTEX
  5
340
330
33F
100
AcDbEntity
  8
DIBUJOS
 62
     7
100
AcDbVertex
100
AcDb2dVertex
 10
67.0263843511595
 20
31.24624105099431
 30
0.0
  0
VERTEX
  5
341
330
33F
100
AcDbEntity
  8
DIBUJOS
 62
     7
100
AcDbVertex
100
AcDb2dVertex
 10
67.03545272239248
 20
31.31886305882336
 30
0.0
  0
VERTEX
  5
342
330
33F
100
AcDbEntity
  8
DIBUJOS
 62
     7
100
AcDbVertex
100
AcDb2dVertex
 10
67.0115996353827
 20
31.60303117558265
 30
0.0
  0
VERTEX
  5
343
330
33F
100
AcDbEntity
  8
DIBUJOS
 62
     7
100
AcDbVertex
100
AcDb2dVertex
 10
67.00824760869357
 20
31.60935271898028
 30
0.0
  0
VERTEX
  5
344
330
33F
100
AcDbEntity
  8
DIBUJOS
 62
     7
100
AcDbVertex
100
AcDb2dVertex
 10
67.00824760869357
 20
31.66381963206337
 30
0.0
  0
VERTEX
  5
345
330
33F
100
AcDbEntity
  8
DIBUJOS
 62
     7
100
AcDbVertex
100
AcDb2dVertex
 10
67.01429264711655
 20
31.66987078736405
 30
0.0
  0
SEQEND
  5
346
330
33F
100
AcDbEntity
  8
DIBUJOS
 62
     7
  0
POLYLINE
  5
347
330
192
100
AcDbEntity
  8
DIBUJOS
 62
     7
100
AcDb2dPolyline
 66
     1
 10
0.0
 20
0.0
 30
0.0
  0
VERTEX
  5
348
330
347
100
AcDbEntity
  8
DIBUJOS
 62
     7
100
AcDbVertex
100
AcDb2dVertex
 10
62.39535282570396
 20
31.24018989569363
 30
0.0
  0
VERTEX
  5
349
330
347
100
AcDbEntity
  8
DIBUJOS
 62
     7
100
AcDbVertex
100
AcDb2dVertex
 10
62.3893077872813
 20
31.24624105099431
 30
0.0
  0
SEQEND
  5
34A
330
347
100
AcDbEntity
  8
DIBUJOS
 62
     7
  0
POLYLINE
  5
34B
330
192
100
AcDbEntity
  8
DIBUJOS
 62
     7
100
AcDb2dPolyline
 66
     1
 10
0.0
 20
0.0
 30
0.0
  0
VERTEX
  5
34C
330
34B
100
AcDbEntity
  8
DIBUJOS
 62
     7
100
AcDbVertex
100
AcDb2dVertex
 10
62.39535282570396
 20
31.24018989569363
 30
0.0
  0
VERTEX
  5
34D
330
34B
100
AcDbEntity
  8
DIBUJOS
 62
     7
100
AcDbVertex
100
AcDb2dVertex
 10
62.40744452974724
 20
31.25229383513955
 30
0.0
  0
SEQEND
  5
34E
330
34B
100
AcDbEntity
  8
DIBUJOS
 62
     7
  0
POLYLINE
  5
34F
330
192
100
AcDbEntity
  8
DIBUJOS
 62
     7
100
AcDb2dPolyline
 66
     1
 10
0.0
 20
0.0
 30
0.0
  0
VERTEX
  5
350
330
34F
100
AcDbEntity
  8
DIBUJOS
 62
     7
100
AcDbVertex
100
AcDb2dVertex
 10
67.0263843511595
 20
31.24018989569363
 30
0.0
  0
VERTEX
  5
351
330
34F
100
AcDbEntity
  8
DIBUJOS
 62
     7
100
AcDbVertex
100
AcDb2dVertex
 10
67.02033931273652
 20
31.24018989569363
 30
0.0
  0
SEQEND
  5
352
330
34F
100
AcDbEntity
  8
DIBUJOS
 62
     7
  0
POLYLINE
  5
353
330
192
100
AcDbEntity
  8
DIBUJOS
 62
     7
100
AcDb2dPolyline
 66
     1
 10
0.0
 20
0.0
 30
0.0
  0
VERTEX
  5
354
330
353
100
AcDbEntity
  8
DIBUJOS
 62
     7
100
AcDbVertex
100
AcDb2dVertex
 10
67.0263843511595
 20
31.24018989569363
 30
0.0
  0
VERTEX
  5
355
330
353
100
AcDbEntity
  8
DIBUJOS
 62
     7
100
AcDbVertex
100
AcDb2dVertex
 10
67.0263843511595
 20
31.24624105099431
 30
0.0
  0
SEQEND
  5
356
330
353
100
AcDbEntity
  8
DIBUJOS
 62
     7
  0
POLYLINE
  5
357
330
192
100
AcDbEntity
  8
DIBUJOS
 62
     7
100
AcDb2dPolyline
 66
     1
 10
0.0
 20
0.0
 30
0.0
  0
VERTEX
  5
358
330
357
100
AcDbEntity
  8
DIBUJOS
 62
     7
100
AcDbVertex
100
AcDb2dVertex
 10
67.03242938958216
 20
31.24018989569363
 30
0.0
  0
VERTEX
  5
359
330
357
100
AcDbEntity
  8
DIBUJOS
 62
     7
100
AcDbVertex
100
AcDb2dVertex
 10
67.0263843511595
 20
31.24018989569363
 30
0.0
  0
SEQEND
  5
35A
330
357
100
AcDbEntity
  8
DIBUJOS
 62
     7
  0
POLYLINE
  5
35B
330
192
100
AcDbEntity
  8
DIBUJOS
 62
     7
100
AcDb2dPolyline
 66
     1
 10
0.0
 20
0.0
 30
0.0
  0
VERTEX
  5
35C
330
35B
100
AcDbEntity
  8
DIBUJOS
 62
     7
100
AcDbVertex
100
AcDb2dVertex
 10
67.03242938958216
 20
31.24018989569363
 30
0.0
  0
VERTEX
  5
35D
330
35B
100
AcDbEntity
  8
DIBUJOS
 62
     7
100
AcDbVertex
100
AcDb2dVertex
 10
67.14125309877278
 20
31.27650008518555
 30
0.0
  0
SEQEND
  5
35E
330
35B
100
AcDbEntity
  8
DIBUJOS
 62
     7
  0
POLYLINE
  5
35F
330
192
100
AcDbEntity
  8
DIBUJOS
 62
     7
100
AcDb2dPolyline
 66
     1
 10
0.0
 20
0.0
 30
0.0
  0
VERTEX
  5
360
330
35F
100
AcDbEntity
  8
DIBUJOS
 62
     7
100
AcDbVertex
100
AcDb2dVertex
 10
67.0263843511595
 20
31.23413711154966
 30
0.0
  0
VERTEX
  5
361
330
35F
100
AcDbEntity
  8
DIBUJOS
 62
     7
100
AcDbVertex
100
AcDb2dVertex
 10
67.0263843511595
 20
31.24018989569363
 30
0.0
  0
SEQEND
  5
362
330
35F
100
AcDbEntity
  8
DIBUJOS
 62
     7
  0
POLYLINE
  5
363
330
192
100
AcDbEntity
  8
DIBUJOS
 62
     7
100
AcDb2dPolyline
 66
     1
 10
0.0
 20
0.0
 30
0.0
  0
VERTEX
  5
364
330
363
100
AcDbEntity
  8
DIBUJOS
 62
     7
100
AcDbVertex
100
AcDb2dVertex
 10
62.3893077872813
 20
31.22808595624899
 30
0.0
  0
VERTEX
  5
365
330
363
100
AcDbEntity
  8
DIBUJOS
 62
     7
100
AcDbVertex
100
AcDb2dVertex
 10
62.39535282570396
 20
31.24018989569363
 30
0.0
  0
SEQEND
  5
366
330
363
100
AcDbEntity
  8
DIBUJOS
 62
     7
  0
POLYLINE
  5
367
330
192
100
AcDbEntity
  8
DIBUJOS
 62
     7
100
AcDb2dPolyline
 66
     1
 10
0.0
 20
0.0
 30
0.0
  0
VERTEX
  5
368
330
367
100
AcDbEntity
  8
DIBUJOS
 62
     7
100
AcDbVertex
100
AcDb2dVertex
 10
66.86315041457107
 20
31.22808595624899
 30
0.0
  0
VERTEX
  5
369
330
367
100
AcDbEntity
  8
DIBUJOS
 62
     7
100
AcDbVertex
100
AcDb2dVertex
 10
66.85710374895076
 20
31.23413711154966
 30
0.0
  0
VERTEX
  5
36A
330
367
100
AcDbEntity
  8
DIBUJOS
 62
     7
100
AcDbVertex
100
AcDb2dVertex
 10
66.85710374895076
 20
31.24624105099431
 30
0.0
  0
SEQEND
  5
36B
330
367
100
AcDbEntity
  8
DIBUJOS
 62
     7
  0
POLYLINE
  5
36C
330
192
100
AcDbEntity
  8
DIBUJOS
 62
     7
100
AcDb2dPolyline
 66
     1
 10
0.0
 20
0.0
 30
0.0
  0
VERTEX
  5
36D
330
36C
100
AcDbEntity
  8
DIBUJOS
 62
     7
100
AcDbVertex
100
AcDb2dVertex
 10
66.99615590465028
 20
31.22808595624899
 30
0.0
  0
VERTEX
  5
36E
330
36C
100
AcDbEntity
  8
DIBUJOS
 62
     7
100
AcDbVertex
100
AcDb2dVertex
 10
67.00824760869357
 20
31.22808595624899
 30
0.0
  0
VERTEX
  5
36F
330
36C
100
AcDbEntity
  8
DIBUJOS
 62
     7
100
AcDbVertex
100
AcDb2dVertex
 10
67.02033931273652
 20
31.24018989569363
 30
0.0
  0
SEQEND
  5
370
330
36C
100
AcDbEntity
  8
DIBUJOS
 62
     7
  0
POLYLINE
  5
371
330
192
100
AcDbEntity
  8
DIBUJOS
 62
     7
100
AcDb2dPolyline
 66
     1
 10
0.0
 20
0.0
 30
0.0
  0
VERTEX
  5
372
330
371
100
AcDbEntity
  8
DIBUJOS
 62
     7
100
AcDbVertex
100
AcDb2dVertex
 10
62.3893077872813
 20
31.22203317210439
 30
0.0
  0
VERTEX
  5
373
330
371
100
AcDbEntity
  8
DIBUJOS
 62
     7
100
AcDbVertex
100
AcDb2dVertex
 10
62.3893077872813
 20
31.22808595624899
 30
0.0
  0
SEQEND
  5
374
330
371
100
AcDbEntity
  8
DIBUJOS
 62
     7
  0
POLYLINE
  5
375
330
192
100
AcDbEntity
  8
DIBUJOS
 62
     7
100
AcDb2dPolyline
 66
     1
 10
0.0
 20
0.0
 30
0.0
  0
VERTEX
  5
376
330
375
100
AcDbEntity
  8
DIBUJOS
 62
     7
100
AcDbVertex
100
AcDb2dVertex
 10
62.39535282570396
 20
31.22203317210439
 30
0.0
  0
VERTEX
  5
377
330
375
100
AcDbEntity
  8
DIBUJOS
 62
     7
100
AcDbVertex
100
AcDb2dVertex
 10
62.3893077872813
 20
31.22203317210439
 30
0.0
  0
SEQEND
  5
378
330
375
100
AcDbEntity
  8
DIBUJOS
 62
     7
  0
POLYLINE
  5
379
330
192
100
AcDbEntity
  8
DIBUJOS
 62
     7
100
AcDb2dPolyline
 66
     1
 10
0.0
 20
0.0
 30
0.0
  0
VERTEX
  5
37A
330
379
100
AcDbEntity
  8
DIBUJOS
 62
     7
100
AcDbVertex
100
AcDb2dVertex
 10
62.40744452974724
 20
31.22203317210439
 30
0.0
  0
VERTEX
  5
37B
330
379
100
AcDbEntity
  8
DIBUJOS
 62
     7
100
AcDbVertex
100
AcDb2dVertex
 10
62.39535282570396
 20
31.22203317210439
 30
0.0
  0
SEQEND
  5
37C
330
379
100
AcDbEntity
  8
DIBUJOS
 62
     7
  0
POLYLINE
  5
37D
330
192
100
AcDbEntity
  8
DIBUJOS
 62
     7
100
AcDb2dPolyline
 66
     1
 10
0.0
 20
0.0
 30
0.0
  0
VERTEX
  5
37E
330
37D
100
AcDbEntity
  8
DIBUJOS
 62
     7
100
AcDbVertex
100
AcDb2dVertex
 10
62.44976468029942
 20
31.22203317210439
 30
0.0
  0
VERTEX
  5
37F
330
37D
100
AcDbEntity
  8
DIBUJOS
 62
     7
100
AcDbVertex
100
AcDb2dVertex
 10
62.44976468029942
 20
31.24018989569363
 30
0.0
  0
VERTEX
  5
380
330
37D
100
AcDbEntity
  8
DIBUJOS
 62
     7
100
AcDbVertex
100
AcDb2dVertex
 10
62.44371964187677
 20
31.24624105099431
 30
0.0
  0
SEQEND
  5
381
330
37D
100
AcDbEntity
  8
DIBUJOS
 62
     7
  0
POLYLINE
  5
382
330
192
100
AcDbEntity
  8
DIBUJOS
 62
     7
100
AcDb2dPolyline
 66
     1
 10
0.0
 20
0.0
 30
0.0
  0
VERTEX
  5
383
330
382
100
AcDbEntity
  8
DIBUJOS
 62
     7
100
AcDbVertex
100
AcDb2dVertex
 10
66.80269189435562
 20
31.22203317210439
 30
0.0
  0
VERTEX
  5
384
330
382
100
AcDbEntity
  8
DIBUJOS
 62
     7
100
AcDbVertex
100
AcDb2dVertex
 10
66.8087385599756
 20
31.22808595624899
 30
0.0
  0
VERTEX
  5
385
330
382
100
AcDbEntity
  8
DIBUJOS
 62
     7
100
AcDbVertex
100
AcDb2dVertex
 10
66.8087385599756
 20
31.25229383513955
 30
0.0
  0
SEQEND
  5
386
330
382
100
AcDbEntity
  8
DIBUJOS
 62
     7
  0
POLYLINE
  5
387
330
192
100
AcDbEntity
  8
DIBUJOS
 62
     7
100
AcDb2dPolyline
 66
     1
 10
0.0
 20
0.0
 30
0.0
  0
VERTEX
  5
388
330
387
100
AcDbEntity
  8
DIBUJOS
 62
     7
100
AcDbVertex
100
AcDb2dVertex
 10
62.3893077872813
 20
31.2159820168037
 30
0.0
  0
VERTEX
  5
389
330
387
100
AcDbEntity
  8
DIBUJOS
 62
     7
100
AcDbVertex
100
AcDb2dVertex
 10
62.3893077872813
 20
31.22203317210439
 30
0.0
  0
SEQEND
  5
38A
330
387
100
AcDbEntity
  8
DIBUJOS
 62
     7
  0
POLYLINE
  5
38B
330
192
100
AcDbEntity
  8
DIBUJOS
 62
     7
100
AcDb2dPolyline
 66
     1
 10
0.0
 20
0.0
 30
0.0
  0
VERTEX
  5
38C
330
38B
100
AcDbEntity
  8
DIBUJOS
 62
     7
100
AcDbVertex
100
AcDb2dVertex
 10
62.3590793407724
 20
31.20387807735778
 30
0.0
  0
VERTEX
  5
38D
330
38B
100
AcDbEntity
  8
DIBUJOS
 62
     7
100
AcDbVertex
100
AcDb2dVertex
 10
62.37116941761803
 20
31.22203317210439
 30
0.0
  0
SEQEND
  5
38E
330
38B
100
AcDbEntity
  8
DIBUJOS
 62
     7
  0
POLYLINE
  5
38F
330
192
100
AcDbEntity
  8
DIBUJOS
 62
     7
100
AcDb2dPolyline
 66
     1
 10
0.0
 20
0.0
 30
0.0
  0
VERTEX
  5
390
330
38F
100
AcDbEntity
  8
DIBUJOS
 62
     7
100
AcDbVertex
100
AcDb2dVertex
 10
66.89337886107997
 20
31.20387807735778
 30
0.0
  0
VERTEX
  5
391
330
38F
100
AcDbEntity
  8
DIBUJOS
 62
     7
100
AcDbVertex
100
AcDb2dVertex
 10
66.86919545299372
 20
31.22808595624899
 30
0.0
  0
VERTEX
  5
392
330
38F
100
AcDbEntity
  8
DIBUJOS
 62
     7
100
AcDbVertex
100
AcDb2dVertex
 10
66.86315041457107
 20
31.22808595624899
 30
0.0
  0
SEQEND
  5
393
330
38F
100
AcDbEntity
  8
DIBUJOS
 62
     7
  0
POLYLINE
  5
394
330
192
100
AcDbEntity
  8
DIBUJOS
 62
     7
100
AcDb2dPolyline
 66
     1
 10
0.0
 20
0.0
 30
0.0
  0
VERTEX
  5
395
330
394
100
AcDbEntity
  8
DIBUJOS
 62
     7
100
AcDbVertex
100
AcDb2dVertex
 10
66.85710374895076
 20
31.10704819063816
 30
0.0
  0
VERTEX
  5
396
330
394
100
AcDbEntity
  8
DIBUJOS
 62
     7
100
AcDbVertex
100
AcDb2dVertex
 10
66.85891807407661
 20
31.11854782897592
 30
0.0
  0
VERTEX
  5
397
330
394
100
AcDbEntity
  8
DIBUJOS
 62
     7
100
AcDbVertex
100
AcDb2dVertex
 10
66.85710374895076
 20
31.22203317210439
 30
0.0
  0
VERTEX
  5
398
330
394
100
AcDbEntity
  8
DIBUJOS
 62
     7
100
AcDbVertex
100
AcDb2dVertex
 10
66.86315041457107
 20
31.22808595624899
 30
0.0
  0
SEQEND
  5
399
330
394
100
AcDbEntity
  8
DIBUJOS
 62
     7
  0
POLYLINE
  5
39A
330
192
100
AcDbEntity
  8
DIBUJOS
 62
     7
100
AcDb2dPolyline
 66
     1
 10
0.0
 20
0.0
 30
0.0
  0
VERTEX
  5
39B
330
39A
100
AcDbEntity
  8
DIBUJOS
 62
     7
100
AcDbVertex
100
AcDb2dVertex
 10
66.85710374895076
 20
31.10099703533749
 30
0.0
  0
VERTEX
  5
39C
330
39A
100
AcDbEntity
  8
DIBUJOS
 62
     7
100
AcDbVertex
100
AcDb2dVertex
 10
66.85105871052811
 20
31.10099703533749
 30
0.0
  0
SEQEND
  5
39D
330
39A
100
AcDbEntity
  8
DIBUJOS
 62
     7
  0
POLYLINE
  5
39E
330
192
100
AcDbEntity
  8
DIBUJOS
 62
     7
100
AcDb2dPolyline
 66
     1
 10
0.0
 20
0.0
 30
0.0
  0
VERTEX
  5
39F
330
39E
100
AcDbEntity
  8
DIBUJOS
 62
     7
100
AcDbVertex
100
AcDb2dVertex
 10
66.85710374895076
 20
31.10099703533749
 30
0.0
  0
VERTEX
  5
3A0
330
39E
100
AcDbEntity
  8
DIBUJOS
 62
     7
100
AcDbVertex
100
AcDb2dVertex
 10
66.85710374895076
 20
31.10704819063816
 30
0.0
  0
SEQEND
  5
3A1
330
39E
100
AcDbEntity
  8
DIBUJOS
 62
     7
  0
POLYLINE
  5
3A2
330
192
100
AcDbEntity
  8
DIBUJOS
 62
     7
100
AcDb2dPolyline
 66
     1
 10
0.0
 20
0.0
 30
0.0
  0
VERTEX
  5
3A3
330
3A2
100
AcDbEntity
  8
DIBUJOS
 62
     7
100
AcDbVertex
100
AcDb2dVertex
 10
66.83896700648482
 20
31.09494588003745
 30
0.0
  0
VERTEX
  5
3A4
330
3A2
100
AcDbEntity
  8
DIBUJOS
 62
     7
100
AcDbVertex
100
AcDb2dVertex
 10
66.85105871052811
 20
31.10099703533749
 30
0.0
  0
SEQEND
  5
3A5
330
3A2
100
AcDbEntity
  8
DIBUJOS
 62
     7
  0
POLYLINE
  5
3A6
330
192
100
AcDbEntity
  8
DIBUJOS
 62
     7
100
AcDb2dPolyline
 66
     1
 10
0.0
 20
0.0
 30
0.0
  0
VERTEX
  5
3A7
330
3A6
100
AcDbEntity
  8
DIBUJOS
 62
     7
100
AcDbVertex
100
AcDb2dVertex
 10
66.85710374895076
 20
31.09494588003745
 30
0.0
  0
VERTEX
  5
3A8
330
3A6
100
AcDbEntity
  8
DIBUJOS
 62
     7
100
AcDbVertex
100
AcDb2dVertex
 10
66.85710374895076
 20
31.10099703533749
 30
0.0
  0
SEQEND
  5
3A9
330
3A6
100
AcDbEntity
  8
DIBUJOS
 62
     7
  0
POLYLINE
  5
3AA
330
192
100
AcDbEntity
  8
DIBUJOS
 62
     7
100
AcDb2dPolyline
 66
     1
 10
0.0
 20
0.0
 30
0.0
  0
VERTEX
  5
3AB
330
3AA
100
AcDbEntity
  8
DIBUJOS
 62
     7
100
AcDbVertex
100
AcDb2dVertex
 10
62.23211888911584
 20
30.83471525407113
 30
0.0
  0
VERTEX
  5
3AC
330
3AA
100
AcDbEntity
  8
DIBUJOS
 62
     7
100
AcDbVertex
100
AcDb2dVertex
 10
62.06888332533008
 20
30.84076803821509
 30
0.0
  0
VERTEX
  5
3AD
330
3AA
100
AcDbEntity
  8
DIBUJOS
 62
     7
100
AcDbVertex
100
AcDb2dVertex
 10
62.03865487882085
 20
30.87102707240761
 30
0.0
  0
VERTEX
  5
3AE
330
3AA
100
AcDbEntity
  8
DIBUJOS
 62
     7
100
AcDbVertex
100
AcDb2dVertex
 10
62.0292171337731
 20
30.90158092735529
 30
0.0
  0
VERTEX
  5
3AF
330
3AA
100
AcDbEntity
  8
DIBUJOS
 62
     7
100
AcDbVertex
100
AcDb2dVertex
 10
62.02390921578236
 20
30.94940541478027
 30
0.0
  0
VERTEX
  5
3B0
330
3AA
100
AcDbEntity
  8
DIBUJOS
 62
     7
100
AcDbVertex
100
AcDb2dVertex
 10
62.02051813635491
 20
30.95575301968131
 30
0.0
  0
VERTEX
  5
3B1
330
3AA
100
AcDbEntity
  8
DIBUJOS
 62
     7
100
AcDbVertex
100
AcDb2dVertex
 10
62.02051813635491
 20
31.55488580589847
 30
0.0
  0
VERTEX
  5
3B2
330
3AA
100
AcDbEntity
  8
DIBUJOS
 62
     7
100
AcDbVertex
100
AcDb2dVertex
 10
62.03744587113638
 20
31.62811374367898
 30
0.0
  0
VERTEX
  5
3B3
330
3AA
100
AcDbEntity
  8
DIBUJOS
 62
     7
100
AcDbVertex
100
AcDb2dVertex
 10
62.04469991724383
 20
31.64566290847284
 30
0.0
  0
VERTEX
  5
3B4
330
3AA
100
AcDbEntity
  8
DIBUJOS
 62
     7
100
AcDbVertex
100
AcDb2dVertex
 10
62.06283828690709
 20
31.66381963206337
 30
0.0
  0
VERTEX
  5
3B5
330
3AA
100
AcDbEntity
  8
DIBUJOS
 62
     7
100
AcDbVertex
100
AcDb2dVertex
 10
62.10515843745928
 20
31.67592357150865
 30
0.0
  0
VERTEX
  5
3B6
330
3AA
100
AcDbEntity
  8
DIBUJOS
 62
     7
100
AcDbVertex
100
AcDb2dVertex
 10
62.21398051945258
 20
31.67592357150865
 30
0.0
  0
VERTEX
  5
3B7
330
3AA
100
AcDbEntity
  8
DIBUJOS
 62
     7
100
AcDbVertex
100
AcDb2dVertex
 10
62.23211888911584
 20
31.66987078736405
 30
0.0
  0
SEQEND
  5
3B8
330
3AA
100
AcDbEntity
  8
DIBUJOS
 62
     7
  0
POLYLINE
  5
3B9
330
192
100
AcDbEntity
  8
DIBUJOS
 62
     7
100
AcDb2dPolyline
 66
     1
 10
0.0
 20
0.0
 30
0.0
  0
VERTEX
  5
3BA
330
3B9
100
AcDbEntity
  8
DIBUJOS
 62
     7
100
AcDbVertex
100
AcDb2dVertex
 10
62.23816392753882
 20
30.83471525407113
 30
0.0
  0
VERTEX
  5
3BB
330
3B9
100
AcDbEntity
  8
DIBUJOS
 62
     7
100
AcDbVertex
100
AcDb2dVertex
 10
62.23211888911584
 20
30.83471525407113
 30
0.0
  0
SEQEND
  5
3BC
330
3B9
100
AcDbEntity
  8
DIBUJOS
 62
     7
  0
POLYLINE
  5
3BD
330
192
100
AcDbEntity
  8
DIBUJOS
 62
     7
100
AcDb2dPolyline
 66
     1
 10
0.0
 20
0.0
 30
0.0
  0
VERTEX
  5
3BE
330
3BD
100
AcDbEntity
  8
DIBUJOS
 62
     7
100
AcDbVertex
100
AcDb2dVertex
 10
62.23816392753882
 20
30.83471525407113
 30
0.0
  0
VERTEX
  5
3BF
330
3BD
100
AcDbEntity
  8
DIBUJOS
 62
     7
100
AcDbVertex
100
AcDb2dVertex
 10
62.24541960084359
 20
30.84621326356432
 30
0.0
  0
VERTEX
  5
3C0
330
3BD
100
AcDbEntity
  8
DIBUJOS
 62
     7
100
AcDbVertex
100
AcDb2dVertex
 10
62.22888076624606
 20
31.02856234456468
 30
0.0
  0
VERTEX
  5
3C1
330
3BD
100
AcDbEntity
  8
DIBUJOS
 62
     7
100
AcDbVertex
100
AcDb2dVertex
 10
62.22326368074501
 20
31.1129136577278
 30
0.0
  0
VERTEX
  5
3C2
330
3BD
100
AcDbEntity
  8
DIBUJOS
 62
     7
100
AcDbVertex
100
AcDb2dVertex
 10
62.22002718507256
 20
31.38543391135109
 30
0.0
  0
VERTEX
  5
3C3
330
3BD
100
AcDbEntity
  8
DIBUJOS
 62
     7
100
AcDbVertex
100
AcDb2dVertex
 10
62.22889541102261
 20
31.48208625407863
 30
0.0
  0
VERTEX
  5
3C4
330
3BD
100
AcDbEntity
  8
DIBUJOS
 62
     7
100
AcDbVertex
100
AcDb2dVertex
 10
62.25025563158178
 20
31.65776684791877
 30
0.0
  0
VERTEX
  5
3C5
330
3BD
100
AcDbEntity
  8
DIBUJOS
 62
     7
100
AcDbVertex
100
AcDb2dVertex
 10
62.23816392753882
 20
31.66987078736405
 30
0.0
  0
SEQEND
  5
3C6
330
3BD
100
AcDbEntity
  8
DIBUJOS
 62
     7
  0
POLYLINE
  5
3C7
330
192
100
AcDbEntity
  8
DIBUJOS
 62
     7
100
AcDb2dPolyline
 66
     1
 10
0.0
 20
0.0
 30
0.0
  0
VERTEX
  5
3C8
330
3C7
100
AcDbEntity
  8
DIBUJOS
 62
     7
100
AcDbVertex
100
AcDb2dVertex
 10
67.01429264711655
 20
30.83471525407113
 30
0.0
  0
VERTEX
  5
3C9
330
3C7
100
AcDbEntity
  8
DIBUJOS
 62
     7
100
AcDbVertex
100
AcDb2dVertex
 10
67.00824760869357
 20
30.84076803821509
 30
0.0
  0
VERTEX
  5
3CA
330
3C7
100
AcDbEntity
  8
DIBUJOS
 62
     7
100
AcDbVertex
100
AcDb2dVertex
 10
67.01163868812101
 20
30.90763208265597
 30
0.0
  0
VERTEX
  5
3CB
330
3C7
100
AcDbEntity
  8
DIBUJOS
 62
     7
100
AcDbVertex
100
AcDb2dVertex
 10
67.01694660611176
 20
30.95545657008095
 30
0.0
  0
VERTEX
  5
3CC
330
3C7
100
AcDbEntity
  8
DIBUJOS
 62
     7
100
AcDbVertex
100
AcDb2dVertex
 10
67.03488157609745
 20
31.19218297774609
 30
0.0
  0
VERTEX
  5
3CD
330
3C7
100
AcDbEntity
  8
DIBUJOS
 62
     7
100
AcDbVertex
100
AcDb2dVertex
 10
67.0263843511595
 20
31.23413711154966
 30
0.0
  0
SEQEND
  5
3CE
330
3C7
100
AcDbEntity
  8
DIBUJOS
 62
     7
  0
POLYLINE
  5
3CF
330
192
100
AcDbEntity
  8
DIBUJOS
 62
     7
100
AcDb2dPolyline
 66
     1
 10
0.0
 20
0.0
 30
0.0
  0
VERTEX
  5
3D0
330
3CF
100
AcDbEntity
  8
DIBUJOS
 62
     7
100
AcDbVertex
100
AcDb2dVertex
 10
67.02033931273652
 20
30.83471525407113
 30
0.0
  0
VERTEX
  5
3D1
330
3CF
100
AcDbEntity
  8
DIBUJOS
 62
     7
100
AcDbVertex
100
AcDb2dVertex
 10
67.01429264711655
 20
30.83471525407113
 30
0.0
  0
SEQEND
  5
3D2
330
3CF
100
AcDbEntity
  8
DIBUJOS
 62
     7
  0
POLYLINE
  5
3D3
330
192
100
AcDbEntity
  8
DIBUJOS
 62
     7
100
AcDb2dPolyline
 66
     1
 10
0.0
 20
0.0
 30
0.0
  0
VERTEX
  5
3D4
330
3D3
100
AcDbEntity
  8
DIBUJOS
 62
     7
100
AcDbVertex
100
AcDb2dVertex
 10
67.02033931273652
 20
30.83471525407113
 30
0.0
  0
VERTEX
  5
3D5
330
3D3
100
AcDbEntity
  8
DIBUJOS
 62
     7
100
AcDbVertex
100
AcDb2dVertex
 10
67.15926942862944
 20
30.83760970978344
 30
0.0
  0
VERTEX
  5
3D6
330
3D3
100
AcDbEntity
  8
DIBUJOS
 62
     7
100
AcDbVertex
100
AcDb2dVertex
 10
67.18357324932497
 20
30.84681919351705
 30
0.0
  0
VERTEX
  5
3D7
330
3D3
100
AcDbEntity
  8
DIBUJOS
 62
     7
100
AcDbVertex
100
AcDb2dVertex
 10
67.20170999179122
 20
30.86497428826301
 30
0.0
  0
VERTEX
  5
3D8
330
3D3
100
AcDbEntity
  8
DIBUJOS
 62
     7
100
AcDbVertex
100
AcDb2dVertex
 10
67.20654764972674
 20
30.87768415765975
 30
0.0
  0
VERTEX
  5
3D9
330
3D3
100
AcDbEntity
  8
DIBUJOS
 62
     7
100
AcDbVertex
100
AcDb2dVertex
 10
67.20896566509568
 20
30.88252508190144
 30
0.0
  0
VERTEX
  5
3DA
330
3D3
100
AcDbEntity
  8
DIBUJOS
 62
     7
100
AcDbVertex
100
AcDb2dVertex
 10
67.21712280577258
 20
30.90758647502549
 30
0.0
  0
VERTEX
  5
3DB
330
3D3
100
AcDbEntity
  8
DIBUJOS
 62
     7
100
AcDbVertex
100
AcDb2dVertex
 10
67.22257391713609
 20
30.96760774600127
 30
0.0
  0
VERTEX
  5
3DC
330
3D3
100
AcDbEntity
  8
DIBUJOS
 62
     7
100
AcDbVertex
100
AcDb2dVertex
 10
67.2225023204497
 20
31.55518062665426
 30
0.0
  0
VERTEX
  5
3DD
330
3D3
100
AcDbEntity
  8
DIBUJOS
 62
     7
100
AcDbVertex
100
AcDb2dVertex
 10
67.21719440245928
 20
31.60300511407925
 30
0.0
  0
VERTEX
  5
3DE
330
3D3
100
AcDbEntity
  8
DIBUJOS
 62
     7
100
AcDbVertex
100
AcDb2dVertex
 10
67.20654764972674
 20
31.63295466791939
 30
0.0
  0
VERTEX
  5
3DF
330
3D3
100
AcDbEntity
  8
DIBUJOS
 62
     7
100
AcDbVertex
100
AcDb2dVertex
 10
67.19566495336825
 20
31.65171569261745
 30
0.0
  0
VERTEX
  5
3E0
330
3D3
100
AcDbEntity
  8
DIBUJOS
 62
     7
100
AcDbVertex
100
AcDb2dVertex
 10
67.16960538665435
 20
31.66548919711883
 30
0.0
  0
VERTEX
  5
3E1
330
3D3
100
AcDbEntity
  8
DIBUJOS
 62
     7
100
AcDbVertex
100
AcDb2dVertex
 10
67.14111641418963
 20
31.67304703308013
 30
0.0
  0
VERTEX
  5
3E2
330
3D3
100
AcDbEntity
  8
DIBUJOS
 62
     7
100
AcDbVertex
100
AcDb2dVertex
 10
67.02033931273652
 20
31.67592357150865
 30
0.0
  0
SEQEND
  5
3E3
330
3D3
100
AcDbEntity
  8
DIBUJOS
 62
     7
  0
POLYLINE
  5
3E4
330
192
100
AcDbEntity
  8
DIBUJOS
 62
     7
100
AcDb2dPolyline
 66
     1
 10
0.0
 20
0.0
 30
0.0
  0
VERTEX
  5
3E5
330
3E4
100
AcDbEntity
  8
DIBUJOS
 62
     7
100
AcDbVertex
100
AcDb2dVertex
 10
62.23816392753882
 20
30.82866409877045
 30
0.0
  0
VERTEX
  5
3E6
330
3E4
100
AcDbEntity
  8
DIBUJOS
 62
     7
100
AcDbVertex
100
AcDb2dVertex
 10
62.23816392753882
 20
30.83471525407113
 30
0.0
  0
SEQEND
  5
3E7
330
3E4
100
AcDbEntity
  8
DIBUJOS
 62
     7
  0
POLYLINE
  5
3E8
330
192
100
AcDbEntity
  8
DIBUJOS
 62
     7
100
AcDb2dPolyline
 66
     1
 10
0.0
 20
0.0
 30
0.0
  0
VERTEX
  5
3E9
330
3E8
100
AcDbEntity
  8
DIBUJOS
 62
     7
100
AcDbVertex
100
AcDb2dVertex
 10
67.01429264711655
 20
30.82866409877045
 30
0.0
  0
VERTEX
  5
3EA
330
3E8
100
AcDbEntity
  8
DIBUJOS
 62
     7
100
AcDbVertex
100
AcDb2dVertex
 10
67.01429264711655
 20
30.83471525407113
 30
0.0
  0
SEQEND
  5
3EB
330
3E8
100
AcDbEntity
  8
DIBUJOS
 62
     7
  0
POLYLINE
  5
3EC
330
192
100
AcDbEntity
  8
DIBUJOS
 62
     7
100
AcDb2dPolyline
 66
     1
 10
0.0
 20
0.0
 30
0.0
  0
VERTEX
  5
3ED
330
3EC
100
AcDbEntity
  8
DIBUJOS
 62
     7
100
AcDbVertex
100
AcDb2dVertex
 10
62.56463342791302
 20
30.39898157825674
 30
0.0
  0
VERTEX
  5
3EE
330
3EC
100
AcDbEntity
  8
DIBUJOS
 62
     7
100
AcDbVertex
100
AcDb2dVertex
 10
62.55495973923868
 20
30.41229574876229
 30
0.0
  0
VERTEX
  5
3EF
330
3EC
100
AcDbEntity
  8
DIBUJOS
 62
     7
100
AcDbVertex
100
AcDb2dVertex
 10
62.49389915597713
 20
30.58114334220215
 30
0.0
  0
VERTEX
  5
3F0
330
3EC
100
AcDbEntity
  8
DIBUJOS
 62
     7
100
AcDbVertex
100
AcDb2dVertex
 10
62.43534771114039
 20
30.80399037050836
 30
0.0
  0
VERTEX
  5
3F1
330
3EC
100
AcDbEntity
  8
DIBUJOS
 62
     7
100
AcDbVertex
100
AcDb2dVertex
 10
62.41708567447288
 20
30.90692842206659
 30
0.0
  0
VERTEX
  5
3F2
330
3EC
100
AcDbEntity
  8
DIBUJOS
 62
     7
100
AcDbVertex
100
AcDb2dVertex
 10
62.39260123486359
 20
31.14313034197706
 30
0.0
  0
VERTEX
  5
3F3
330
3EC
100
AcDbEntity
  8
DIBUJOS
 62
     7
100
AcDbVertex
100
AcDb2dVertex
 10
62.39535282570396
 20
31.15546394842058
 30
0.0
  0
VERTEX
  5
3F4
330
3EC
100
AcDbEntity
  8
DIBUJOS
 62
     7
100
AcDbVertex
100
AcDb2dVertex
 10
62.39535282570396
 20
31.1917741379125
 30
0.0
  0
VERTEX
  5
3F5
330
3EC
100
AcDbEntity
  8
DIBUJOS
 62
     7
100
AcDbVertex
100
AcDb2dVertex
 10
62.3893077872813
 20
31.2159820168037
 30
0.0
  0
SEQEND
  5
3F6
330
3EC
100
AcDbEntity
  8
DIBUJOS
 62
     7
  0
POLYLINE
  5
3F7
330
192
100
AcDbEntity
  8
DIBUJOS
 62
     7
100
AcDb2dPolyline
 66
     1
 10
0.0
 20
0.0
 30
0.0
  0
VERTEX
  5
3F8
330
3F7
100
AcDbEntity
  8
DIBUJOS
 62
     7
100
AcDbVertex
100
AcDb2dVertex
 10
62.56463342791302
 20
30.39898157825674
 30
0.0
  0
VERTEX
  5
3F9
330
3F7
100
AcDbEntity
  8
DIBUJOS
 62
     7
100
AcDbVertex
100
AcDb2dVertex
 10
62.57067846633568
 20
30.40503436240199
 30
0.0
  0
SEQEND
  5
3FA
330
3F7
100
AcDbEntity
  8
DIBUJOS
 62
     7
  0
POLYLINE
  5
3FB
330
192
100
AcDbEntity
  8
DIBUJOS
 62
     7
100
AcDb2dPolyline
 66
     1
 10
0.0
 20
0.0
 30
0.0
  0
VERTEX
  5
3FC
330
3FB
100
AcDbEntity
  8
DIBUJOS
 62
     7
100
AcDbVertex
100
AcDb2dVertex
 10
62.91528633637346
 20
29.92693771294979
 30
0.0
  0
VERTEX
  5
3FD
330
3FB
100
AcDbEntity
  8
DIBUJOS
 62
     7
100
AcDbVertex
100
AcDb2dVertex
 10
62.91528633637346
 20
29.93299049709504
 30
0.0
  0
SEQEND
  5
3FE
330
3FB
100
AcDbEntity
  8
DIBUJOS
 62
     7
  0
POLYLINE
  5
3FF
330
192
100
AcDbEntity
  8
DIBUJOS
 62
     7
100
AcDb2dPolyline
 66
     1
 10
0.0
 20
0.0
 30
0.0
  0
VERTEX
  5
400
330
3FF
100
AcDbEntity
  8
DIBUJOS
 62
     7
100
AcDbVertex
100
AcDb2dVertex
 10
62.92133137479613
 20
29.92693771294979
 30
0.0
  0
VERTEX
  5
401
330
3FF
100
AcDbEntity
  8
DIBUJOS
 62
     7
100
AcDbVertex
100
AcDb2dVertex
 10
62.91528633637346
 20
29.92693771294979
 30
0.0
  0
SEQEND
  5
402
330
3FF
100
AcDbEntity
  8
DIBUJOS
 62
     7
  0
POLYLINE
  5
403
330
192
100
AcDbEntity
  8
DIBUJOS
 62
     7
100
AcDb2dPolyline
 66
     1
 10
0.0
 20
0.0
 30
0.0
  0
VERTEX
  5
404
330
403
100
AcDbEntity
  8
DIBUJOS
 62
     7
100
AcDbVertex
100
AcDb2dVertex
 10
62.90923967075316
 20
29.92088655764976
 30
0.0
  0
VERTEX
  5
405
330
403
100
AcDbEntity
  8
DIBUJOS
 62
     7
100
AcDbVertex
100
AcDb2dVertex
 10
62.91528633637346
 20
29.92693771294979
 30
0.0
  0
SEQEND
  5
406
330
403
100
AcDbEntity
  8
DIBUJOS
 62
     7
  0
POLYLINE
  5
407
330
192
100
AcDbEntity
  8
DIBUJOS
 62
     7
100
AcDb2dPolyline
 66
     1
 10
0.0
 20
0.0
 30
0.0
  0
VERTEX
  5
408
330
407
100
AcDbEntity
  8
DIBUJOS
 62
     7
100
AcDbVertex
100
AcDb2dVertex
 10
66.34321690390188
 20
29.83010782623146
 30
0.0
  0
VERTEX
  5
409
330
407
100
AcDbEntity
  8
DIBUJOS
 62
     7
100
AcDbVertex
100
AcDb2dVertex
 10
66.34926194232486
 20
29.83010782623146
 30
0.0
  0
VERTEX
  5
40A
330
407
100
AcDbEntity
  8
DIBUJOS
 62
     7
100
AcDbVertex
100
AcDb2dVertex
 10
66.38553705445406
 20
29.86641964456795
 30
0.0
  0
VERTEX
  5
40B
330
407
100
AcDbEntity
  8
DIBUJOS
 62
     7
100
AcDbVertex
100
AcDb2dVertex
 10
66.4868626379237
 20
30.00670057268694
 30
0.0
  0
VERTEX
  5
40C
330
407
100
AcDbEntity
  8
DIBUJOS
 62
     7
100
AcDbVertex
100
AcDb2dVertex
 10
66.49901129387682
 20
30.02469929841311
 30
0.0
  0
VERTEX
  5
40D
330
407
100
AcDbEntity
  8
DIBUJOS
 62
     7
100
AcDbVertex
100
AcDb2dVertex
 10
66.58988213391022
 20
30.18172148472361
 30
0.0
  0
VERTEX
  5
40E
330
407
100
AcDbEntity
  8
DIBUJOS
 62
     7
100
AcDbVertex
100
AcDb2dVertex
 10
66.59248727698285
 20
30.18623664017306
 30
0.0
  0
VERTEX
  5
40F
330
407
100
AcDbEntity
  8
DIBUJOS
 62
     7
100
AcDbVertex
100
AcDb2dVertex
 10
66.6539676771794
 20
30.30699424462275
 30
0.0
  0
VERTEX
  5
410
330
407
100
AcDbEntity
  8
DIBUJOS
 62
     7
100
AcDbVertex
100
AcDb2dVertex
 10
66.6977815949649
 20
30.39951583907431
 30
0.0
  0
VERTEX
  5
411
330
407
100
AcDbEntity
  8
DIBUJOS
 62
     7
100
AcDbVertex
100
AcDb2dVertex
 10
66.7020481066057
 20
30.41660404102906
 30
0.0
  0
VERTEX
  5
412
330
407
100
AcDbEntity
  8
DIBUJOS
 62
     7
100
AcDbVertex
100
AcDb2dVertex
 10
66.73739897059897
 20
30.50125831916887
 30
0.0
  0
VERTEX
  5
413
330
407
100
AcDbEntity
  8
DIBUJOS
 62
     7
100
AcDbVertex
100
AcDb2dVertex
 10
66.81817467782602
 20
30.78659594588972
 30
0.0
  0
VERTEX
  5
414
330
407
100
AcDbEntity
  8
DIBUJOS
 62
     7
100
AcDbVertex
100
AcDb2dVertex
 10
66.82868962756739
 20
30.85226604770892
 30
0.0
  0
VERTEX
  5
415
330
407
100
AcDbEntity
  8
DIBUJOS
 62
     7
100
AcDbVertex
100
AcDb2dVertex
 10
66.85371266952332
 20
31.02808020675328
 30
0.0
  0
VERTEX
  5
416
330
407
100
AcDbEntity
  8
DIBUJOS
 62
     7
100
AcDbVertex
100
AcDb2dVertex
 10
66.85710374895076
 20
31.09494588003745
 30
0.0
  0
SEQEND
  5
417
330
407
100
AcDbEntity
  8
DIBUJOS
 62
     7
  0
POLYLINE
  5
418
330
192
100
AcDbEntity
  8
DIBUJOS
 62
     7
100
AcDb2dPolyline
 66
     1
 10
0.0
 20
0.0
 30
0.0
  0
VERTEX
  5
419
330
418
100
AcDbEntity
  8
DIBUJOS
 62
     7
100
AcDbVertex
100
AcDb2dVertex
 10
66.14370785518423
 20
29.62434574219215
 30
0.0
  0
VERTEX
  5
41A
330
418
100
AcDbEntity
  8
DIBUJOS
 62
     7
100
AcDbVertex
100
AcDb2dVertex
 10
66.16184459765017
 20
29.62434574219215
 30
0.0
  0
VERTEX
  5
41B
330
418
100
AcDbEntity
  8
DIBUJOS
 62
     7
100
AcDbVertex
100
AcDb2dVertex
 10
66.25403834918771
 20
29.71976016351211
 30
0.0
  0
VERTEX
  5
41C
330
418
100
AcDbEntity
  8
DIBUJOS
 62
     7
100
AcDbVertex
100
AcDb2dVertex
 10
66.34321690390188
 20
29.8119527314855
 30
0.0
  0
SEQEND
  5
41D
330
418
100
AcDbEntity
  8
DIBUJOS
 62
     7
  0
POLYLINE
  5
41E
330
192
100
AcDbEntity
  8
DIBUJOS
 62
     7
100
AcDb2dPolyline
 66
     1
 10
0.0
 20
0.0
 30
0.0
  0
VERTEX
  5
41F
330
41E
100
AcDbEntity
  8
DIBUJOS
 62
     7
100
AcDbVertex
100
AcDb2dVertex
 10
65.30939654818381
 20
29.19466322167781
 30
0.0
  0
VERTEX
  5
420
330
41E
100
AcDbEntity
  8
DIBUJOS
 62
     7
100
AcDbVertex
100
AcDb2dVertex
 10
65.55182943769736
 20
29.29633566148112
 30
0.0
  0
VERTEX
  5
421
330
41E
100
AcDbEntity
  8
DIBUJOS
 62
     7
100
AcDbVertex
100
AcDb2dVertex
 10
65.72562225835713
 20
29.38972054323163
 30
0.0
  0
VERTEX
  5
422
330
41E
100
AcDbEntity
  8
DIBUJOS
 62
     7
100
AcDbVertex
100
AcDb2dVertex
 10
65.800030742072
 20
29.4353412047823
 30
0.0
  0
VERTEX
  5
423
330
41E
100
AcDbEntity
  8
DIBUJOS
 62
     7
100
AcDbVertex
100
AcDb2dVertex
 10
65.98156088647366
 20
29.56842590029982
 30
0.0
  0
VERTEX
  5
424
330
41E
100
AcDbEntity
  8
DIBUJOS
 62
     7
100
AcDbVertex
100
AcDb2dVertex
 10
66.0240730463215
 20
29.60469536869239
 30
0.0
  0
VERTEX
  5
425
330
41E
100
AcDbEntity
  8
DIBUJOS
 62
     7
100
AcDbVertex
100
AcDb2dVertex
 10
66.0772042965458
 20
29.64855362108208
 30
0.0
  0
VERTEX
  5
426
330
41E
100
AcDbEntity
  8
DIBUJOS
 62
     7
100
AcDbVertex
100
AcDb2dVertex
 10
66.2525299371772
 20
29.82405667093014
 30
0.0
  0
VERTEX
  5
427
330
41E
100
AcDbEntity
  8
DIBUJOS
 62
     7
100
AcDbVertex
100
AcDb2dVertex
 10
66.2933530661011
 20
29.87378364809731
 30
0.0
  0
VERTEX
  5
428
330
41E
100
AcDbEntity
  8
DIBUJOS
 62
     7
100
AcDbVertex
100
AcDb2dVertex
 10
66.4204160311951
 20
30.04285439315907
 30
0.0
  0
VERTEX
  5
429
330
41E
100
AcDbEntity
  8
DIBUJOS
 62
     7
100
AcDbVertex
100
AcDb2dVertex
 10
66.44459943928135
 20
30.079164582651
 30
0.0
  0
VERTEX
  5
42A
330
41E
100
AcDbEntity
  8
DIBUJOS
 62
     7
100
AcDbVertex
100
AcDb2dVertex
 10
66.54151694493505
 20
30.24829070840741
 30
0.0
  0
VERTEX
  5
42B
330
41E
100
AcDbEntity
  8
DIBUJOS
 62
     7
100
AcDbVertex
100
AcDb2dVertex
 10
66.55360864897801
 20
30.27249858729862
 30
0.0
  0
VERTEX
  5
42C
330
41E
100
AcDbEntity
  8
DIBUJOS
 62
     7
100
AcDbVertex
100
AcDb2dVertex
 10
66.64368867106431
 20
30.47220951603725
 30
0.0
  0
VERTEX
  5
42D
330
41E
100
AcDbEntity
  8
DIBUJOS
 62
     7
100
AcDbVertex
100
AcDb2dVertex
 10
66.66485037353789
 20
30.53151735336075
 30
0.0
  0
VERTEX
  5
42E
330
41E
100
AcDbEntity
  8
DIBUJOS
 62
     7
100
AcDbVertex
100
AcDb2dVertex
 10
66.72018647626865
 20
30.7131448564873
 30
0.0
  0
VERTEX
  5
42F
330
41E
100
AcDbEntity
  8
DIBUJOS
 62
     7
100
AcDbVertex
100
AcDb2dVertex
 10
66.73851522803058
 20
30.80399037050836
 30
0.0
  0
VERTEX
  5
430
330
41E
100
AcDbEntity
  8
DIBUJOS
 62
     7
100
AcDbVertex
100
AcDb2dVertex
 10
66.77246344784639
 20
31.05863406170096
 30
0.0
  0
VERTEX
  5
431
330
41E
100
AcDbEntity
  8
DIBUJOS
 62
     7
100
AcDbVertex
100
AcDb2dVertex
 10
66.77246344784639
 20
31.44595197973358
 30
0.0
  0
VERTEX
  5
432
330
41E
100
AcDbEntity
  8
DIBUJOS
 62
     7
100
AcDbVertex
100
AcDb2dVertex
 10
66.73978444201985
 20
31.69972098172234
 30
0.0
  0
VERTEX
  5
433
330
41E
100
AcDbEntity
  8
DIBUJOS
 62
     7
100
AcDbVertex
100
AcDb2dVertex
 10
66.71019222970274
 20
31.83266559665802
 30
0.0
  0
VERTEX
  5
434
330
41E
100
AcDbEntity
  8
DIBUJOS
 62
     7
100
AcDbVertex
100
AcDb2dVertex
 10
66.67996378319351
 20
31.93554663867831
 30
0.0
  0
VERTEX
  5
435
330
41E
100
AcDbEntity
  8
DIBUJOS
 62
     7
100
AcDbVertex
100
AcDb2dVertex
 10
66.58927844366649
 20
32.16551823045275
 30
0.0
  0
VERTEX
  5
436
330
41E
100
AcDbEntity
  8
DIBUJOS
 62
     7
100
AcDbVertex
100
AcDb2dVertex
 10
66.5862551108565
 20
32.17277961681434
 30
0.0
  0
VERTEX
  5
437
330
41E
100
AcDbEntity
  8
DIBUJOS
 62
     7
100
AcDbVertex
100
AcDb2dVertex
 10
66.48366356779223
 20
32.36071237489865
 30
0.0
  0
VERTEX
  5
438
330
41E
100
AcDbEntity
  8
DIBUJOS
 62
     7
100
AcDbVertex
100
AcDb2dVertex
 10
66.48106005191693
 20
32.36522915919202
 30
0.0
  0
VERTEX
  5
439
330
41E
100
AcDbEntity
  8
DIBUJOS
 62
     7
100
AcDbVertex
100
AcDb2dVertex
 10
66.36592444392632
 20
32.54015722712252
 30
0.0
  0
VERTEX
  5
43A
330
41E
100
AcDbEntity
  8
DIBUJOS
 62
     7
100
AcDbVertex
100
AcDb2dVertex
 10
66.34469114476605
 20
32.56672530090783
 30
0.0
  0
VERTEX
  5
43B
330
41E
100
AcDbEntity
  8
DIBUJOS
 62
     7
100
AcDbVertex
100
AcDb2dVertex
 10
66.2223014906683
 20
32.71684118884024
 30
0.0
  0
VERTEX
  5
43C
330
41E
100
AcDbEntity
  8
DIBUJOS
 62
     7
100
AcDbVertex
100
AcDb2dVertex
 10
66.08324933496846
 20
32.85603404919638
 30
0.0
  0
VERTEX
  5
43D
330
41E
100
AcDbEntity
  8
DIBUJOS
 62
     7
100
AcDbVertex
100
AcDb2dVertex
 10
65.88281115652292
 20
33.01803724032786
 30
0.0
  0
VERTEX
  5
43E
330
41E
100
AcDbEntity
  8
DIBUJOS
 62
     7
100
AcDbVertex
100
AcDb2dVertex
 10
65.79212418979824
 20
33.07855530871098
 30
0.0
  0
VERTEX
  5
43F
330
41E
100
AcDbEntity
  8
DIBUJOS
 62
     7
100
AcDbVertex
100
AcDb2dVertex
 10
65.63042470037877
 20
33.17194019046085
 30
0.0
  0
VERTEX
  5
440
330
41E
100
AcDbEntity
  8
DIBUJOS
 62
     7
100
AcDbVertex
100
AcDb2dVertex
 10
65.61833299633548
 20
33.17799134576153
 30
0.0
  0
VERTEX
  5
441
330
41E
100
AcDbEntity
  8
DIBUJOS
 62
     7
100
AcDbVertex
100
AcDb2dVertex
 10
65.42365997835603
 20
33.26574368510784
 30
0.0
  0
VERTEX
  5
442
330
41E
100
AcDbEntity
  8
DIBUJOS
 62
     7
100
AcDbVertex
100
AcDb2dVertex
 10
65.3946405395316
 20
33.27542716243324
 30
0.0
  0
VERTEX
  5
443
330
41E
100
AcDbEntity
  8
DIBUJOS
 62
     7
100
AcDbVertex
100
AcDb2dVertex
 10
65.22422252632508
 20
33.33199365537573
 30
0.0
  0
VERTEX
  5
444
330
41E
100
AcDbEntity
  8
DIBUJOS
 62
     7
100
AcDbVertex
100
AcDb2dVertex
 10
65.05600936562504
 20
33.37257630256749
 30
0.0
  0
VERTEX
  5
445
330
41E
100
AcDbEntity
  8
DIBUJOS
 62
     7
100
AcDbVertex
100
AcDb2dVertex
 10
64.85626111888617
 20
33.40335656682556
 30
0.0
  0
VERTEX
  5
446
330
41E
100
AcDbEntity
  8
DIBUJOS
 62
     7
100
AcDbVertex
100
AcDb2dVertex
 10
64.6504108818151
 20
33.41885501707706
 30
0.0
  0
VERTEX
  5
447
330
41E
100
AcDbEntity
  8
DIBUJOS
 62
     7
100
AcDbVertex
100
AcDb2dVertex
 10
64.58982381300311
 20
33.41568691558123
 30
0.0
  0
VERTEX
  5
448
330
41E
100
AcDbEntity
  8
DIBUJOS
 62
     7
100
AcDbVertex
100
AcDb2dVertex
 10
64.46312534013161
 20
33.40992080797281
 30
0.0
  0
VERTEX
  5
449
330
41E
100
AcDbEntity
  8
DIBUJOS
 62
     7
100
AcDbVertex
100
AcDb2dVertex
 10
64.34237427383759
 20
33.39804327783663
 30
0.0
  0
VERTEX
  5
44A
330
41E
100
AcDbEntity
  8
DIBUJOS
 62
     7
100
AcDbVertex
100
AcDb2dVertex
 10
64.14303445365181
 20
33.36206048598024
 30
0.0
  0
VERTEX
  5
44B
330
41E
100
AcDbEntity
  8
DIBUJOS
 62
     7
100
AcDbVertex
100
AcDb2dVertex
 10
64.04637079079589
 20
33.33804481067641
 30
0.0
  0
VERTEX
  5
44C
330
41E
100
AcDbEntity
  8
DIBUJOS
 62
     7
100
AcDbVertex
100
AcDb2dVertex
 10
63.88320845089416
 20
33.2845047098059
 30
0.0
  0
VERTEX
  5
44D
330
41E
100
AcDbEntity
  8
DIBUJOS
 62
     7
100
AcDbVertex
100
AcDb2dVertex
 10
63.81670489225574
 20
33.25969252980652
 30
0.0
  0
VERTEX
  5
44E
330
41E
100
AcDbEntity
  8
DIBUJOS
 62
     7
100
AcDbVertex
100
AcDb2dVertex
 10
63.61114917791779
 20
33.16346694419572
 30
0.0
  0
VERTEX
  5
44F
330
41E
100
AcDbEntity
  8
DIBUJOS
 62
     7
100
AcDbVertex
100
AcDb2dVertex
 10
63.59180342776705
 20
33.15378509571425
 30
0.0
  0
VERTEX
  5
450
330
41E
100
AcDbEntity
  8
DIBUJOS
 62
     7
100
AcDbVertex
100
AcDb2dVertex
 10
63.37987723552195
 20
33.02083070771375
 30
0.0
  0
VERTEX
  5
451
330
41E
100
AcDbEntity
  8
DIBUJOS
 62
     7
100
AcDbVertex
100
AcDb2dVertex
 10
63.36174049305601
 20
33.00872676826911
 30
0.0
  0
VERTEX
  5
452
330
41E
100
AcDbEntity
  8
DIBUJOS
 62
     7
100
AcDbVertex
100
AcDb2dVertex
 10
63.12084042351409
 20
32.80761829141461
 30
0.0
  0
VERTEX
  5
453
330
41E
100
AcDbEntity
  8
DIBUJOS
 62
     7
100
AcDbVertex
100
AcDb2dVertex
 10
63.11479538509111
 20
32.79551435196933
 30
0.0
  0
VERTEX
  5
454
330
41E
100
AcDbEntity
  8
DIBUJOS
 62
     7
100
AcDbVertex
100
AcDb2dVertex
 10
63.07247523453893
 20
32.75920416247741
 30
0.0
  0
VERTEX
  5
455
330
41E
100
AcDbEntity
  8
DIBUJOS
 62
     7
100
AcDbVertex
100
AcDb2dVertex
 10
63.05433849207298
 20
32.74104906773145
 30
0.0
  0
VERTEX
  5
456
330
41E
100
AcDbEntity
  8
DIBUJOS
 62
     7
100
AcDbVertex
100
AcDb2dVertex
 10
62.87761671605342
 20
32.52411311414535
 30
0.0
  0
VERTEX
  5
457
330
41E
100
AcDbEntity
  8
DIBUJOS
 62
     7
100
AcDbVertex
100
AcDb2dVertex
 10
62.81111315741499
 20
32.42728322742638
 30
0.0
  0
VERTEX
  5
458
330
41E
100
AcDbEntity
  8
DIBUJOS
 62
     7
100
AcDbVertex
100
AcDb2dVertex
 10
62.70489459129701
 20
32.24419139358184
 30
0.0
  0
VERTEX
  5
459
330
41E
100
AcDbEntity
  8
DIBUJOS
 62
     7
100
AcDbVertex
100
AcDb2dVertex
 10
62.68675784883138
 20
32.20787957524535
 30
0.0
  0
VERTEX
  5
45A
330
41E
100
AcDbEntity
  8
DIBUJOS
 62
     7
100
AcDbVertex
100
AcDb2dVertex
 10
62.60513925333968
 20
32.02148281701227
 30
0.0
  0
VERTEX
  5
45B
330
41E
100
AcDbEntity
  8
DIBUJOS
 62
     7
100
AcDbVertex
100
AcDb2dVertex
 10
62.58700251087342
 20
31.96701590392982
 30
0.0
  0
VERTEX
  5
45C
330
41E
100
AcDbEntity
  8
DIBUJOS
 62
     7
100
AcDbVertex
100
AcDb2dVertex
 10
62.5425849028445
 20
31.82668448164794
 30
0.0
  0
VERTEX
  5
45D
330
41E
100
AcDbEntity
  8
DIBUJOS
 62
     7
100
AcDbVertex
100
AcDb2dVertex
 10
62.53227172558371
 20
31.78539002964655
 30
0.0
  0
VERTEX
  5
45E
330
41E
100
AcDbEntity
  8
DIBUJOS
 62
     7
100
AcDbVertex
100
AcDb2dVertex
 10
62.50073501234722
 20
31.61507810549064
 30
0.0
  0
VERTEX
  5
45F
330
41E
100
AcDbEntity
  8
DIBUJOS
 62
     7
100
AcDbVertex
100
AcDb2dVertex
 10
62.48954477567607
 20
31.53104115920974
 30
0.0
  0
VERTEX
  5
460
330
41E
100
AcDbEntity
  8
DIBUJOS
 62
     7
100
AcDbVertex
100
AcDb2dVertex
 10
62.47394808838567
 20
31.24624105099431
 30
0.0
  0
VERTEX
  5
461
330
41E
100
AcDbEntity
  8
DIBUJOS
 62
     7
100
AcDbVertex
100
AcDb2dVertex
 10
62.48884833517947
 20
31.00435446567348
 30
0.0
  0
VERTEX
  5
462
330
41E
100
AcDbEntity
  8
DIBUJOS
 62
     7
100
AcDbVertex
100
AcDb2dVertex
 10
62.51254683843362
 20
30.8351811034433
 30
0.0
  0
VERTEX
  5
463
330
41E
100
AcDbEntity
  8
DIBUJOS
 62
     7
100
AcDbVertex
100
AcDb2dVertex
 10
62.52476383667847
 20
30.76855324137635
 30
0.0
  0
VERTEX
  5
464
330
41E
100
AcDbEntity
  8
DIBUJOS
 62
     7
100
AcDbVertex
100
AcDb2dVertex
 10
62.54830938337496
 20
30.67192044477652
 30
0.0
  0
VERTEX
  5
465
330
41E
100
AcDbEntity
  8
DIBUJOS
 62
     7
100
AcDbVertex
100
AcDb2dVertex
 10
62.56676668373343
 20
30.60527955195882
 30
0.0
  0
VERTEX
  5
466
330
41E
100
AcDbEntity
  8
DIBUJOS
 62
     7
100
AcDbVertex
100
AcDb2dVertex
 10
62.62992797886666
 20
30.42863631133982
 30
0.0
  0
VERTEX
  5
467
330
41E
100
AcDbEntity
  8
DIBUJOS
 62
     7
100
AcDbVertex
100
AcDb2dVertex
 10
62.6480647213326
 20
30.38627333770329
 30
0.0
  0
VERTEX
  5
468
330
41E
100
AcDbEntity
  8
DIBUJOS
 62
     7
100
AcDbVertex
100
AcDb2dVertex
 10
62.7292634998893
 20
30.21835744300778
 30
0.0
  0
VERTEX
  5
469
330
41E
100
AcDbEntity
  8
DIBUJOS
 62
     7
100
AcDbVertex
100
AcDb2dVertex
 10
62.77744318835841
 20
30.13935851108708
 30
0.0
  0
VERTEX
  5
46A
330
41E
100
AcDbEntity
  8
DIBUJOS
 62
     7
100
AcDbVertex
100
AcDb2dVertex
 10
62.8412862792117
 20
30.03478184250792
 30
0.0
  0
VERTEX
  5
46B
330
41E
100
AcDbEntity
  8
DIBUJOS
 62
     7
100
AcDbVertex
100
AcDb2dVertex
 10
62.91528633637346
 20
29.93299049709504
 30
0.0
  0
SEQEND
  5
46C
330
41E
100
AcDbEntity
  8
DIBUJOS
 62
     7
  0
POLYLINE
  5
46D
330
192
100
AcDbEntity
  8
DIBUJOS
 62
     7
100
AcDb2dPolyline
 66
     1
 10
0.0
 20
0.0
 30
0.0
  0
VERTEX
  5
46E
330
46D
100
AcDbEntity
  8
DIBUJOS
 62
     7
100
AcDbVertex
100
AcDb2dVertex
 10
65.06756734891366
 20
29.13414515329468
 30
0.0
  0
VERTEX
  5
46F
330
46D
100
AcDbEntity
  8
DIBUJOS
 62
     7
100
AcDbVertex
100
AcDb2dVertex
 10
65.0554756448707
 20
29.13414515329468
 30
0.0
  0
SEQEND
  5
470
330
46D
100
AcDbEntity
  8
DIBUJOS
 62
     7
  0
POLYLINE
  5
471
330
192
100
AcDbEntity
  8
DIBUJOS
 62
     7
100
AcDb2dPolyline
 66
     1
 10
0.0
 20
0.0
 30
0.0
  0
VERTEX
  5
472
330
471
100
AcDbEntity
  8
DIBUJOS
 62
     7
100
AcDbVertex
100
AcDb2dVertex
 10
65.04338394082741
 20
29.128093997994
 30
0.0
  0
VERTEX
  5
473
330
471
100
AcDbEntity
  8
DIBUJOS
 62
     7
100
AcDbVertex
100
AcDb2dVertex
 10
65.03733890240476
 20
29.128093997994
 30
0.0
  0
SEQEND
  5
474
330
471
100
AcDbEntity
  8
DIBUJOS
 62
     7
  0
POLYLINE
  5
475
330
192
100
AcDbEntity
  8
DIBUJOS
 62
     7
100
AcDb2dPolyline
 66
     1
 10
0.0
 20
0.0
 30
0.0
  0
VERTEX
  5
476
330
475
100
AcDbEntity
  8
DIBUJOS
 62
     7
100
AcDbVertex
100
AcDb2dVertex
 10
62.92133137479613
 20
29.92693771294979
 30
0.0
  0
VERTEX
  5
477
330
475
100
AcDbEntity
  8
DIBUJOS
 62
     7
100
AcDbVertex
100
AcDb2dVertex
 10
62.92616903273196
 20
29.92028062769766
 30
0.0
  0
VERTEX
  5
478
330
475
100
AcDbEntity
  8
DIBUJOS
 62
     7
100
AcDbVertex
100
AcDb2dVertex
 10
63.02411004556408
 20
29.79984879204022
 30
0.0
  0
VERTEX
  5
479
330
475
100
AcDbEntity
  8
DIBUJOS
 62
     7
100
AcDbVertex
100
AcDb2dVertex
 10
63.17525227810923
 20
29.64855362108208
 30
0.0
  0
VERTEX
  5
47A
330
475
100
AcDbEntity
  8
DIBUJOS
 62
     7
100
AcDbVertex
100
AcDb2dVertex
 10
63.23099843459075
 20
29.60164128627308
 30
0.0
  0
VERTEX
  5
47B
330
475
100
AcDbEntity
  8
DIBUJOS
 62
     7
100
AcDbVertex
100
AcDb2dVertex
 10
63.34562147539349
 20
29.5108120606919
 30
0.0
  0
VERTEX
  5
47C
330
475
100
AcDbEntity
  8
DIBUJOS
 62
     7
100
AcDbVertex
100
AcDb2dVertex
 10
63.51320979228299
 20
29.39921670350206
 30
0.0
  0
VERTEX
  5
47D
330
475
100
AcDbEntity
  8
DIBUJOS
 62
     7
100
AcDbVertex
100
AcDb2dVertex
 10
63.65951599409027
 20
29.31691121834825
 30
0.0
  0
VERTEX
  5
47E
330
475
100
AcDbEntity
  8
DIBUJOS
 62
     7
100
AcDbVertex
100
AcDb2dVertex
 10
63.84693333876496
 20
29.23279120102665
 30
0.0
  0
VERTEX
  5
47F
330
475
100
AcDbEntity
  8
DIBUJOS
 62
     7
100
AcDbVertex
100
AcDb2dVertex
 10
63.86507008123058
 20
29.22673841688205
 30
0.0
  0
VERTEX
  5
480
330
475
100
AcDbEntity
  8
DIBUJOS
 62
     7
100
AcDbVertex
100
AcDb2dVertex
 10
64.02716660682093
 20
29.17437271250422
 30
0.0
  0
VERTEX
  5
481
330
475
100
AcDbEntity
  8
DIBUJOS
 62
     7
100
AcDbVertex
100
AcDb2dVertex
 10
64.05135001490717
 20
29.16831992835962
 30
0.0
  0
VERTEX
  5
482
330
475
100
AcDbEntity
  8
DIBUJOS
 62
     7
100
AcDbVertex
100
AcDb2dVertex
 10
64.24575617250962
 20
29.12449588169295
 30
0.0
  0
VERTEX
  5
483
330
475
100
AcDbEntity
  8
DIBUJOS
 62
     7
100
AcDbVertex
100
AcDb2dVertex
 10
64.51135872611559
 20
29.09178217965816
 30
0.0
  0
VERTEX
  5
484
330
475
100
AcDbEntity
  8
DIBUJOS
 62
     7
100
AcDbVertex
100
AcDb2dVertex
 10
64.75944775386786
 20
29.09505778485609
 30
0.0
  0
VERTEX
  5
485
330
475
100
AcDbEntity
  8
DIBUJOS
 62
     7
100
AcDbVertex
100
AcDb2dVertex
 10
64.83157002520434
 20
29.10061051390614
 30
0.0
  0
VERTEX
  5
486
330
475
100
AcDbEntity
  8
DIBUJOS
 62
     7
100
AcDbVertex
100
AcDb2dVertex
 10
65.00710882869853
 20
29.1220412138494
 30
0.0
  0
SEQEND
  5
487
330
475
100
AcDbEntity
  8
DIBUJOS
 62
     7
  0
POLYLINE
  5
488
330
192
100
AcDbEntity
  8
DIBUJOS
 62
     7
100
AcDb2dPolyline
 66
     1
 10
0.0
 20
0.0
 30
0.0
  0
VERTEX
  5
489
330
488
100
AcDbEntity
  8
DIBUJOS
 62
     7
100
AcDbVertex
100
AcDb2dVertex
 10
65.21266454303615
 20
29.09178217965816
 30
0.0
  0
VERTEX
  5
48A
330
488
100
AcDbEntity
  8
DIBUJOS
 62
     7
100
AcDbVertex
100
AcDb2dVertex
 10
65.29186349596128
 20
29.114173897537
 30
0.0
  0
VERTEX
  5
48B
330
488
100
AcDbEntity
  8
DIBUJOS
 62
     7
100
AcDbVertex
100
AcDb2dVertex
 10
65.47138079715181
 20
29.17963876501745
 30
0.0
  0
VERTEX
  5
48C
330
488
100
AcDbEntity
  8
DIBUJOS
 62
     7
100
AcDbVertex
100
AcDb2dVertex
 10
65.52764765680845
 20
29.2049526289553
 30
0.0
  0
VERTEX
  5
48D
330
488
100
AcDbEntity
  8
DIBUJOS
 62
     7
100
AcDbVertex
100
AcDb2dVertex
 10
65.71957559273716
 20
29.29894181181398
 30
0.0
  0
VERTEX
  5
48E
330
488
100
AcDbEntity
  8
DIBUJOS
 62
     7
100
AcDbVertex
100
AcDb2dVertex
 10
65.81905105273792
 20
29.36048442304568
 30
0.0
  0
VERTEX
  5
48F
330
488
100
AcDbEntity
  8
DIBUJOS
 62
     7
100
AcDbVertex
100
AcDb2dVertex
 10
65.95505058607402
 20
29.45032982687636
 30
0.0
  0
VERTEX
  5
490
330
488
100
AcDbEntity
  8
DIBUJOS
 62
     7
100
AcDbVertex
100
AcDb2dVertex
 10
66.14370785518423
 20
29.60618901860163
 30
0.0
  0
SEQEND
  5
491
330
488
100
AcDbEntity
  8
DIBUJOS
 62
     7
  0
POLYLINE
  5
492
330
192
100
AcDbEntity
  8
DIBUJOS
 62
     7
100
AcDb2dPolyline
 66
     1
 10
0.0
 20
0.0
 30
0.0
  0
VERTEX
  5
493
330
492
100
AcDbEntity
  8
DIBUJOS
 62
     7
100
AcDbVertex
100
AcDb2dVertex
 10
65.18243609652725
 20
29.08573102435812
 30
0.0
  0
VERTEX
  5
494
330
492
100
AcDbEntity
  8
DIBUJOS
 62
     7
100
AcDbVertex
100
AcDb2dVertex
 10
65.17638943090695
 20
29.08573102435812
 30
0.0
  0
SEQEND
  5
495
330
492
100
AcDbEntity
  8
DIBUJOS
 62
     7
  0
POLYLINE
  5
496
330
192
100
AcDbEntity
  8
DIBUJOS
 62
     7
100
AcDb2dPolyline
 66
     1
 10
0.0
 20
0.0
 30
0.0
  0
VERTEX
  5
497
330
496
100
AcDbEntity
  8
DIBUJOS
 62
     7
100
AcDbVertex
100
AcDb2dVertex
 10
65.03129223678478
 20
29.04941920602163
 30
0.0
  0
VERTEX
  5
498
330
496
100
AcDbEntity
  8
DIBUJOS
 62
     7
100
AcDbVertex
100
AcDb2dVertex
 10
65.16429935406131
 20
29.07967824021287
 30
0.0
  0
SEQEND
  5
499
330
496
100
AcDbEntity
  8
DIBUJOS
 62
     7
  0
POLYLINE
  5
49A
330
192
100
AcDbEntity
  8
DIBUJOS
 62
     7
100
AcDb2dPolyline
 66
     1
 10
0.0
 20
0.0
 30
0.0
  0
VERTEX
  5
49B
330
49A
100
AcDbEntity
  8
DIBUJOS
 62
     7
100
AcDbVertex
100
AcDb2dVertex
 10
64.3299880470612
 20
29.03126411127503
 30
0.0
  0
VERTEX
  5
49C
330
49A
100
AcDbEntity
  8
DIBUJOS
 62
     7
100
AcDbVertex
100
AcDb2dVertex
 10
64.32454669888196
 20
29.03247434233529
 30
0.0
  0
VERTEX
  5
49D
330
49A
100
AcDbEntity
  8
DIBUJOS
 62
     7
100
AcDbVertex
100
AcDb2dVertex
 10
64.28766789650902
 20
29.04034165864769
 30
0.0
  0
VERTEX
  5
49E
330
49A
100
AcDbEntity
  8
DIBUJOS
 62
     7
100
AcDbVertex
100
AcDb2dVertex
 10
64.26952952684543
 20
29.03731526657571
 30
0.0
  0
VERTEX
  5
49F
330
49A
100
AcDbEntity
  8
DIBUJOS
 62
     7
100
AcDbVertex
100
AcDb2dVertex
 10
63.97993882884417
 20
29.11114913430831
 30
0.0
  0
VERTEX
  5
4A0
330
49A
100
AcDbEntity
  8
DIBUJOS
 62
     7
100
AcDbVertex
100
AcDb2dVertex
 10
63.97275637942311
 20
29.11385464412109
 30
0.0
  0
VERTEX
  5
4A1
330
49A
100
AcDbEntity
  8
DIBUJOS
 62
     7
100
AcDbVertex
100
AcDb2dVertex
 10
63.93096994962559
 20
29.128093997994
 30
0.0
  0
VERTEX
  5
4A2
330
49A
100
AcDbEntity
  8
DIBUJOS
 62
     7
100
AcDbVertex
100
AcDb2dVertex
 10
63.91887824558263
 20
29.128093997994
 30
0.0
  0
VERTEX
  5
4A3
330
49A
100
AcDbEntity
  8
DIBUJOS
 62
     7
100
AcDbVertex
100
AcDb2dVertex
 10
63.73843669625616
 20
29.19606076979304
 30
0.0
  0
VERTEX
  5
4A4
330
49A
100
AcDbEntity
  8
DIBUJOS
 62
     7
100
AcDbVertex
100
AcDb2dVertex
 10
63.48902638419674
 20
29.32659469567365
 30
0.0
  0
VERTEX
  5
4A5
330
49A
100
AcDbEntity
  8
DIBUJOS
 62
     7
100
AcDbVertex
100
AcDb2dVertex
 10
63.32748473292722
 20
29.43213889756345
 30
0.0
  0
VERTEX
  5
4A6
330
49A
100
AcDbEntity
  8
DIBUJOS
 62
     7
100
AcDbVertex
100
AcDb2dVertex
 10
63.28919189599461
 20
29.4595490836735
 30
0.0
  0
VERTEX
  5
4A7
330
49A
100
AcDbEntity
  8
DIBUJOS
 62
     7
100
AcDbVertex
100
AcDb2dVertex
 10
63.15850678943917
 20
29.56533435446901
 30
0.0
  0
VERTEX
  5
4A8
330
49A
100
AcDbEntity
  8
DIBUJOS
 62
     7
100
AcDbVertex
100
AcDb2dVertex
 10
63.0120183415208
 20
29.70301890532125
 30
0.0
  0
VERTEX
  5
4A9
330
49A
100
AcDbEntity
  8
DIBUJOS
 62
     7
100
AcDbVertex
100
AcDb2dVertex
 10
62.91673779647382
 20
29.81304242809292
 30
0.0
  0
VERTEX
  5
4AA
330
49A
100
AcDbEntity
  8
DIBUJOS
 62
     7
100
AcDbVertex
100
AcDb2dVertex
 10
62.88050499147758
 20
29.85559760531682
 30
0.0
  0
VERTEX
  5
4AB
330
49A
100
AcDbEntity
  8
DIBUJOS
 62
     7
100
AcDbVertex
100
AcDb2dVertex
 10
62.78972039290775
 20
29.97628354063134
 30
0.0
  0
VERTEX
  5
4AC
330
49A
100
AcDbEntity
  8
DIBUJOS
 62
     7
100
AcDbVertex
100
AcDb2dVertex
 10
62.77762868886447
 20
29.99443863537795
 30
0.0
  0
VERTEX
  5
4AD
330
49A
100
AcDbEntity
  8
DIBUJOS
 62
     7
100
AcDbVertex
100
AcDb2dVertex
 10
62.67829316784183
 20
30.15630337477278
 30
0.0
  0
VERTEX
  5
4AE
330
49A
100
AcDbEntity
  8
DIBUJOS
 62
     7
100
AcDbVertex
100
AcDb2dVertex
 10
62.67466614478811
 20
30.16356476113372
 30
0.0
  0
VERTEX
  5
4AF
330
49A
100
AcDbEntity
  8
DIBUJOS
 62
     7
100
AcDbVertex
100
AcDb2dVertex
 10
62.56946945865121
 20
30.37416939825801
 30
0.0
  0
VERTEX
  5
4B0
330
49A
100
AcDbEntity
  8
DIBUJOS
 62
     7
100
AcDbVertex
100
AcDb2dVertex
 10
62.56463342791302
 20
30.39898157825674
 30
0.0
  0
SEQEND
  5
4B1
330
49A
100
AcDbEntity
  8
DIBUJOS
 62
     7
  0
POLYLINE
  5
4B2
330
192
100
AcDbEntity
  8
DIBUJOS
 62
     7
100
AcDb2dPolyline
 66
     1
 10
0.0
 20
0.0
 30
0.0
  0
VERTEX
  5
4B3
330
4B2
100
AcDbEntity
  8
DIBUJOS
 62
     7
100
AcDbVertex
100
AcDb2dVertex
 10
64.90433178512822
 20
29.03126411127503
 30
0.0
  0
VERTEX
  5
4B4
330
4B2
100
AcDbEntity
  8
DIBUJOS
 62
     7
100
AcDbVertex
100
AcDb2dVertex
 10
64.9103784507482
 20
29.03731526657571
 30
0.0
  0
SEQEND
  5
4B5
330
4B2
100
AcDbEntity
  8
DIBUJOS
 62
     7
  0
POLYLINE
  5
4B6
330
192
100
AcDbEntity
  8
DIBUJOS
 62
     7
100
AcDb2dPolyline
 66
     1
 10
0.0
 20
0.0
 30
0.0
  0
VERTEX
  5
4B7
330
4B6
100
AcDbEntity
  8
DIBUJOS
 62
     7
100
AcDbVertex
100
AcDb2dVertex
 10
64.92247015479148
 20
29.03126411127503
 30
0.0
  0
VERTEX
  5
4B8
330
4B6
100
AcDbEntity
  8
DIBUJOS
 62
     7
100
AcDbVertex
100
AcDb2dVertex
 10
65.00106379027555
 20
29.04336805072031
 30
0.0
  0
SEQEND
  5
4B9
330
4B6
100
AcDbEntity
  8
DIBUJOS
 62
     7
  0
POLYLINE
  5
4BA
330
192
100
AcDbEntity
  8
DIBUJOS
 62
     7
100
AcDb2dPolyline
 66
     1
 10
0.0
 20
0.0
 30
0.0
  0
VERTEX
  5
4BB
330
4BA
100
AcDbEntity
  8
DIBUJOS
 62
     7
100
AcDbVertex
100
AcDb2dVertex
 10
64.44485679467448
 20
29.01916017182975
 30
0.0
  0
VERTEX
  5
4BC
330
4BA
100
AcDbEntity
  8
DIBUJOS
 62
     7
100
AcDbVertex
100
AcDb2dVertex
 10
64.34207975110417
 20
29.03126411127503
 30
0.0
  0
SEQEND
  5
4BD
330
4BA
100
AcDbEntity
  8
DIBUJOS
 62
     7
  0
POLYLINE
  5
4BE
330
192
100
AcDbEntity
  8
DIBUJOS
 62
     7
100
AcDb2dPolyline
 66
     1
 10
0.0
 20
0.0
 30
0.0
  0
VERTEX
  5
4BF
330
4BE
100
AcDbEntity
  8
DIBUJOS
 62
     7
100
AcDbVertex
100
AcDb2dVertex
 10
64.48113027960636
 20
29.01916017182975
 30
0.0
  0
VERTEX
  5
4C0
330
4BE
100
AcDbEntity
  8
DIBUJOS
 62
     7
100
AcDbVertex
100
AcDb2dVertex
 10
64.46299353714042
 20
29.01916017182975
 30
0.0
  0
SEQEND
  5
4C1
330
4BE
100
AcDbEntity
  8
DIBUJOS
 62
     7
  0
POLYLINE
  5
4C2
330
192
100
AcDbEntity
  8
DIBUJOS
 62
     7
100
AcDb2dPolyline
 66
     1
 10
0.0
 20
0.0
 30
0.0
  0
VERTEX
  5
4C3
330
4C2
100
AcDbEntity
  8
DIBUJOS
 62
     7
100
AcDbVertex
100
AcDb2dVertex
 10
64.55367887666777
 20
29.01310901652907
 30
0.0
  0
VERTEX
  5
4C4
330
4C2
100
AcDbEntity
  8
DIBUJOS
 62
     7
100
AcDbVertex
100
AcDb2dVertex
 10
64.49926864926995
 20
29.01310901652907
 30
0.0
  0
VERTEX
  5
4C5
330
4C2
100
AcDbEntity
  8
DIBUJOS
 62
     7
100
AcDbVertex
100
AcDb2dVertex
 10
64.49322198364932
 20
29.01916017182975
 30
0.0
  0
SEQEND
  5
4C6
330
4C2
100
AcDbEntity
  8
DIBUJOS
 62
     7
  0
POLYLINE
  5
4C7
330
192
100
AcDbEntity
  8
DIBUJOS
 62
     7
100
AcDb2dPolyline
 66
     1
 10
0.0
 20
0.0
 30
0.0
  0
VERTEX
  5
4C8
330
4C7
100
AcDbEntity
  8
DIBUJOS
 62
     7
100
AcDbVertex
100
AcDb2dVertex
 10
64.583908950374
 20
29.01310901652907
 30
0.0
  0
VERTEX
  5
4C9
330
4C7
100
AcDbEntity
  8
DIBUJOS
 62
     7
100
AcDbVertex
100
AcDb2dVertex
 10
64.61981957028071
 20
29.01565001310244
 30
0.0
  0
VERTEX
  5
4CA
330
4C7
100
AcDbEntity
  8
DIBUJOS
 62
     7
100
AcDbVertex
100
AcDb2dVertex
 10
64.71691444045354
 20
29.01310901652907
 30
0.0
  0
VERTEX
  5
4CB
330
4C7
100
AcDbEntity
  8
DIBUJOS
 62
     7
100
AcDbVertex
100
AcDb2dVertex
 10
64.72295947887652
 20
29.01916017182975
 30
0.0
  0
SEQEND
  5
4CC
330
4C7
100
AcDbEntity
  8
DIBUJOS
 62
     7
  0
POLYLINE
  5
4CD
330
192
100
AcDbEntity
  8
DIBUJOS
 62
     7
100
AcDb2dPolyline
 66
     1
 10
0.0
 20
0.0
 30
0.0
  0
VERTEX
  5
4CE
330
4CD
100
AcDbEntity
  8
DIBUJOS
 62
     7
100
AcDbVertex
100
AcDb2dVertex
 10
64.73505118291948
 20
29.01916017182975
 30
0.0
  0
VERTEX
  5
4CF
330
4CD
100
AcDbEntity
  8
DIBUJOS
 62
     7
100
AcDbVertex
100
AcDb2dVertex
 10
64.74109784853945
 20
29.01310901652907
 30
0.0
  0
VERTEX
  5
4D0
330
4CD
100
AcDbEntity
  8
DIBUJOS
 62
     7
100
AcDbVertex
100
AcDb2dVertex
 10
64.84448020955082
 20
29.02400109607016
 30
0.0
  0
VERTEX
  5
4D1
330
4CD
100
AcDbEntity
  8
DIBUJOS
 62
     7
100
AcDbVertex
100
AcDb2dVertex
 10
64.84991993053275
 20
29.02521132713042
 30
0.0
  0
SEQEND
  5
4D2
330
4CD
100
AcDbEntity
  8
DIBUJOS
 62
     7
  0
POLYLINE
  5
4D3
330
192
100
AcDbEntity
  8
DIBUJOS
 62
     7
100
AcDb2dPolyline
 66
     1
 10
0.0
 20
0.0
 30
0.0
  0
VERTEX
  5
4D4
330
4D3
100
AcDbEntity
  8
DIBUJOS
 62
     7
100
AcDbVertex
100
AcDb2dVertex
 10
64.20302759540465
 20
28.85576106142696
 30
0.0
  0
VERTEX
  5
4D5
330
4D3
100
AcDbEntity
  8
DIBUJOS
 62
     7
100
AcDbVertex
100
AcDb2dVertex
 10
64.19637723954094
 20
28.85999605571593
 30
0.0
  0
VERTEX
  5
4D6
330
4D3
100
AcDbEntity
  8
DIBUJOS
 62
     7
100
AcDbVertex
100
AcDb2dVertex
 10
64.0695567268625
 20
28.88974363290452
 30
0.0
  0
VERTEX
  5
4D7
330
4D3
100
AcDbEntity
  8
DIBUJOS
 62
     7
100
AcDbVertex
100
AcDb2dVertex
 10
64.04630244850416
 20
28.89439886893389
 30
0.0
  0
VERTEX
  5
4D8
330
4D3
100
AcDbEntity
  8
DIBUJOS
 62
     7
100
AcDbVertex
100
AcDb2dVertex
 10
63.8336326270372
 20
28.95743187238699
 30
0.0
  0
VERTEX
  5
4D9
330
4D3
100
AcDbEntity
  8
DIBUJOS
 62
     7
100
AcDbVertex
100
AcDb2dVertex
 10
63.72601955272838
 20
28.9967684539509
 30
0.0
  0
VERTEX
  5
4DA
330
4D3
100
AcDbEntity
  8
DIBUJOS
 62
     7
100
AcDbVertex
100
AcDb2dVertex
 10
63.47209864941559
 20
29.11720028960898
 30
0.0
  0
VERTEX
  5
4DB
330
4D3
100
AcDbEntity
  8
DIBUJOS
 62
     7
100
AcDbVertex
100
AcDb2dVertex
 10
63.39229437904941
 20
29.1631939564263
 30
0.0
  0
VERTEX
  5
4DC
330
4D3
100
AcDbEntity
  8
DIBUJOS
 62
     7
100
AcDbVertex
100
AcDb2dVertex
 10
63.20061540432653
 20
29.28691768572219
 30
0.0
  0
VERTEX
  5
4DD
330
4D3
100
AcDbEntity
  8
DIBUJOS
 62
     7
100
AcDbVertex
100
AcDb2dVertex
 10
63.17407255997819
 20
29.30817247051858
 30
0.0
  0
VERTEX
  5
4DE
330
4D3
100
AcDbEntity
  8
DIBUJOS
 62
     7
100
AcDbVertex
100
AcDb2dVertex
 10
63.04960334757492
 20
29.40797825514729
 30
0.0
  0
VERTEX
  5
4DF
330
4D3
100
AcDbEntity
  8
DIBUJOS
 62
     7
100
AcDbVertex
100
AcDb2dVertex
 10
63.0046617819759
 20
29.44734252705916
 30
0.0
  0
VERTEX
  5
4E0
330
4D3
100
AcDbEntity
  8
DIBUJOS
 62
     7
100
AcDbVertex
100
AcDb2dVertex
 10
62.82459936964879
 20
29.62434574219215
 30
0.0
  0
VERTEX
  5
4E1
330
4D3
100
AcDbEntity
  8
DIBUJOS
 62
     7
100
AcDbVertex
100
AcDb2dVertex
 10
62.65066823720823
 20
29.8431434644198
 30
0.0
  0
VERTEX
  5
4E2
330
4D3
100
AcDbEntity
  8
DIBUJOS
 62
     7
100
AcDbVertex
100
AcDb2dVertex
 10
62.53924101214199
 20
30.01711051441664
 30
0.0
  0
VERTEX
  5
4E3
330
4D3
100
AcDbEntity
  8
DIBUJOS
 62
     7
100
AcDbVertex
100
AcDb2dVertex
 10
62.48482915754684
 20
30.11394040113625
 30
0.0
  0
VERTEX
  5
4E4
330
4D3
100
AcDbEntity
  8
DIBUJOS
 62
     7
100
AcDbVertex
100
AcDb2dVertex
 10
62.3911204852095
 20
30.30881040563511
 30
0.0
  0
VERTEX
  5
4E5
330
4D3
100
AcDbEntity
  8
DIBUJOS
 62
     7
100
AcDbVertex
100
AcDb2dVertex
 10
62.34517331160359
 20
30.42863631133982
 30
0.0
  0
VERTEX
  5
4E6
330
4D3
100
AcDbEntity
  8
DIBUJOS
 62
     7
100
AcDbVertex
100
AcDb2dVertex
 10
62.28866399953139
 20
30.60527955195882
 30
0.0
  0
VERTEX
  5
4E7
330
4D3
100
AcDbEntity
  8
DIBUJOS
 62
     7
100
AcDbVertex
100
AcDb2dVertex
 10
62.23816392753882
 20
30.82866409877045
 30
0.0
  0
SEQEND
  5
4E8
330
4D3
100
AcDbEntity
  8
DIBUJOS
 62
     7
  0
POLYLINE
  5
4E9
330
192
100
AcDbEntity
  8
DIBUJOS
 62
     7
100
AcDb2dPolyline
 66
     1
 10
0.0
 20
0.0
 30
0.0
  0
VERTEX
  5
4EA
330
4E9
100
AcDbEntity
  8
DIBUJOS
 62
     7
100
AcDbVertex
100
AcDb2dVertex
 10
64.2090726338273
 20
28.85576106142696
 30
0.0
  0
VERTEX
  5
4EB
330
4E9
100
AcDbEntity
  8
DIBUJOS
 62
     7
100
AcDbVertex
100
AcDb2dVertex
 10
64.20302759540465
 20
28.85576106142696
 30
0.0
  0
SEQEND
  5
4EC
330
4E9
100
AcDbEntity
  8
DIBUJOS
 62
     7
  0
POLYLINE
  5
4ED
330
192
100
AcDbEntity
  8
DIBUJOS
 62
     7
100
AcDb2dPolyline
 66
     1
 10
0.0
 20
0.0
 30
0.0
  0
VERTEX
  5
4EE
330
4ED
100
AcDbEntity
  8
DIBUJOS
 62
     7
100
AcDbVertex
100
AcDb2dVertex
 10
65.04943060644804
 20
28.85576106142696
 30
0.0
  0
VERTEX
  5
4EF
330
4ED
100
AcDbEntity
  8
DIBUJOS
 62
     7
100
AcDbVertex
100
AcDb2dVertex
 10
65.04338394082741
 20
28.85576106142696
 30
0.0
  0
SEQEND
  5
4F0
330
4ED
100
AcDbEntity
  8
DIBUJOS
 62
     7
  0
POLYLINE
  5
4F1
330
192
100
AcDbEntity
  8
DIBUJOS
 62
     7
100
AcDb2dPolyline
 66
     1
 10
0.0
 20
0.0
 30
0.0
  0
VERTEX
  5
4F2
330
4F1
100
AcDbEntity
  8
DIBUJOS
 62
     7
100
AcDbVertex
100
AcDb2dVertex
 10
65.04943060644804
 20
28.85576106142696
 30
0.0
  0
VERTEX
  5
4F3
330
4F1
100
AcDbEntity
  8
DIBUJOS
 62
     7
100
AcDbVertex
100
AcDb2dVertex
 10
65.05607933511443
 20
28.85999605571593
 30
0.0
  0
VERTEX
  5
4F4
330
4F1
100
AcDbEntity
  8
DIBUJOS
 62
     7
100
AcDbVertex
100
AcDb2dVertex
 10
65.21319826379083
 20
28.89598699179258
 30
0.0
  0
VERTEX
  5
4F5
330
4F1
100
AcDbEntity
  8
DIBUJOS
 62
     7
100
AcDbVertex
100
AcDb2dVertex
 10
65.4055232358904
 20
28.95379955036164
 30
0.0
  0
VERTEX
  5
4F6
330
4F1
100
AcDbEntity
  8
DIBUJOS
 62
     7
100
AcDbVertex
100
AcDb2dVertex
 10
65.52643864912399
 20
28.9967684539509
 30
0.0
  0
VERTEX
  5
4F7
330
4F1
100
AcDbEntity
  8
DIBUJOS
 62
     7
100
AcDbVertex
100
AcDb2dVertex
 10
65.76826784839382
 20
29.11114913430831
 30
0.0
  0
VERTEX
  5
4F8
330
4F1
100
AcDbEntity
  8
DIBUJOS
 62
     7
100
AcDbVertex
100
AcDb2dVertex
 10
65.86016219560562
 20
29.1631939564263
 30
0.0
  0
VERTEX
  5
4F9
330
4F1
100
AcDbEntity
  8
DIBUJOS
 62
     7
100
AcDbVertex
100
AcDb2dVertex
 10
66.02976823729887
 20
29.27194209438016
 30
0.0
  0
VERTEX
  5
4FA
330
4F1
100
AcDbEntity
  8
DIBUJOS
 62
     7
100
AcDbVertex
100
AcDb2dVertex
 10
66.19331296859461
 20
29.3989381711855
 30
0.0
  0
VERTEX
  5
4FB
330
4F1
100
AcDbEntity
  8
DIBUJOS
 62
     7
100
AcDbVertex
100
AcDb2dVertex
 10
66.2525299371772
 20
29.44884106349953
 30
0.0
  0
VERTEX
  5
4FC
330
4F1
100
AcDbEntity
  8
DIBUJOS
 62
     7
100
AcDbVertex
100
AcDb2dVertex
 10
66.43390224342923
 20
29.63039689749284
 30
0.0
  0
VERTEX
  5
4FD
330
4F1
100
AcDbEntity
  8
DIBUJOS
 62
     7
100
AcDbVertex
100
AcDb2dVertex
 10
66.58964130869165
 20
29.8251463675382
 30
0.0
  0
VERTEX
  5
4FE
330
4F1
100
AcDbEntity
  8
DIBUJOS
 62
     7
100
AcDbVertex
100
AcDb2dVertex
 10
66.72270212348306
 20
30.03075045371379
 30
0.0
  0
VERTEX
  5
4FF
330
4F1
100
AcDbEntity
  8
DIBUJOS
 62
     7
100
AcDbVertex
100
AcDb2dVertex
 10
66.77711397807853
 20
30.12758034043276
 30
0.0
  0
VERTEX
  5
500
330
4F1
100
AcDbEntity
  8
DIBUJOS
 62
     7
100
AcDbVertex
100
AcDb2dVertex
 10
66.8673811278682
 20
30.32091271623582
 30
0.0
  0
VERTEX
  5
501
330
4F1
100
AcDbEntity
  8
DIBUJOS
 62
     7
100
AcDbVertex
100
AcDb2dVertex
 10
66.90667957280772
 20
30.42258515603914
 30
0.0
  0
VERTEX
  5
502
330
4F1
100
AcDbEntity
  8
DIBUJOS
 62
     7
100
AcDbVertex
100
AcDb2dVertex
 10
66.9756938970686
 20
30.64152133000471
 30
0.0
  0
VERTEX
  5
503
330
4F1
100
AcDbEntity
  8
DIBUJOS
 62
     7
100
AcDbVertex
100
AcDb2dVertex
 10
67.01429264711655
 20
30.82866409877045
 30
0.0
  0
SEQEND
  5
504
330
4F1
100
AcDbEntity
  8
DIBUJOS
 62
     7
  0
POLYLINE
  5
505
330
192
100
AcDbEntity
  8
DIBUJOS
 62
     7
100
AcDb2dPolyline
 66
     1
 10
0.0
 20
0.0
 30
0.0
  0
VERTEX
  5
506
330
505
100
AcDbEntity
  8
DIBUJOS
 62
     7
100
AcDbVertex
100
AcDb2dVertex
 10
64.2090726338273
 20
28.84970827728236
 30
0.0
  0
VERTEX
  5
507
330
505
100
AcDbEntity
  8
DIBUJOS
 62
     7
100
AcDbVertex
100
AcDb2dVertex
 10
64.2090726338273
 20
28.85576106142696
 30
0.0
  0
SEQEND
  5
508
330
505
100
AcDbEntity
  8
DIBUJOS
 62
     7
  0
POLYLINE
  5
509
330
192
100
AcDbEntity
  8
DIBUJOS
 62
     7
100
AcDb2dPolyline
 66
     1
 10
0.0
 20
0.0
 30
0.0
  0
VERTEX
  5
50A
330
509
100
AcDbEntity
  8
DIBUJOS
 62
     7
100
AcDbVertex
100
AcDb2dVertex
 10
65.04338394082741
 20
28.84970827728236
 30
0.0
  0
VERTEX
  5
50B
330
509
100
AcDbEntity
  8
DIBUJOS
 62
     7
100
AcDbVertex
100
AcDb2dVertex
 10
65.04338394082741
 20
28.85576106142696
 30
0.0
  0
SEQEND
  5
50C
330
509
100
AcDbEntity
  8
DIBUJOS
 62
     7
  0
POLYLINE
  5
50D
330
192
100
AcDbEntity
  8
DIBUJOS
 62
     7
100
AcDb2dPolyline
 66
     1
 10
0.0
 20
0.0
 30
0.0
  0
VERTEX
  5
50E
330
50D
100
AcDbEntity
  8
DIBUJOS
 62
     7
100
AcDbVertex
100
AcDb2dVertex
 10
64.2090726338273
 20
28.85576106142696
 30
0.0
  0
VERTEX
  5
50F
330
50D
100
AcDbEntity
  8
DIBUJOS
 62
     7
100
AcDbVertex
100
AcDb2dVertex
 10
64.22116433787059
 20
28.86786500087225
 30
0.0
  0
VERTEX
  5
510
330
50D
100
AcDbEntity
  8
DIBUJOS
 62
     7
100
AcDbVertex
100
AcDb2dVertex
 10
64.51135872611559
 20
28.83760433783644
 30
0.0
  0
VERTEX
  5
511
330
50D
100
AcDbEntity
  8
DIBUJOS
 62
     7
100
AcDbVertex
100
AcDb2dVertex
 10
64.74733001466613
 20
28.84084573731199
 30
0.0
  0
VERTEX
  5
512
330
50D
100
AcDbEntity
  8
DIBUJOS
 62
     7
100
AcDbVertex
100
AcDb2dVertex
 10
65.03129223678478
 20
28.86786500087225
 30
0.0
  0
VERTEX
  5
513
330
50D
100
AcDbEntity
  8
DIBUJOS
 62
     7
100
AcDbVertex
100
AcDb2dVertex
 10
65.04338394082741
 20
28.85576106142696
 30
0.0
  0
SEQEND
  5
514
330
50D
100
AcDbEntity
  8
DIBUJOS
 62
     7
  0
POLYLINE
  5
515
330
192
100
AcDbEntity
  8
DIBUJOS
 62
     7
100
AcDb2dPolyline
 66
     1
 10
0.0
 20
0.0
 30
0.0
  0
VERTEX
  5
516
330
515
100
AcDbEntity
  8
DIBUJOS
 62
     7
100
AcDbVertex
100
AcDb2dVertex
 10
64.2090726338273
 20
28.84970827728236
 30
0.0
  0
VERTEX
  5
517
330
515
100
AcDbEntity
  8
DIBUJOS
 62
     7
100
AcDbVertex
100
AcDb2dVertex
 10
64.21511929944761
 20
28.69841310632422
 30
0.0
  0
VERTEX
  5
518
330
515
100
AcDbEntity
  8
DIBUJOS
 62
     7
100
AcDbVertex
100
AcDb2dVertex
 10
64.24534774595683
 20
28.66815244328905
 30
0.0
  0
VERTEX
  5
519
330
515
100
AcDbEntity
  8
DIBUJOS
 62
     7
100
AcDbVertex
100
AcDb2dVertex
 10
64.2698923918706
 20
28.65859112926107
 30
0.0
  0
VERTEX
  5
51A
330
515
100
AcDbEntity
  8
DIBUJOS
 62
     7
100
AcDbVertex
100
AcDb2dVertex
 10
64.30544177394947
 20
28.65350750727104
 30
0.0
  0
VERTEX
  5
51B
330
515
100
AcDbEntity
  8
DIBUJOS
 62
     7
100
AcDbVertex
100
AcDb2dVertex
 10
64.31184967739762
 20
28.64999734854374
 30
0.0
  0
VERTEX
  5
51C
330
515
100
AcDbEntity
  8
DIBUJOS
 62
     7
100
AcDbVertex
100
AcDb2dVertex
 10
64.94060689725742
 20
28.64999734854374
 30
0.0
  0
VERTEX
  5
51D
330
515
100
AcDbEntity
  8
DIBUJOS
 62
     7
100
AcDbVertex
100
AcDb2dVertex
 10
64.98256418278444
 20
28.65859112926107
 30
0.0
  0
VERTEX
  5
51E
330
515
100
AcDbEntity
  8
DIBUJOS
 62
     7
100
AcDbVertex
100
AcDb2dVertex
 10
64.98957740367332
 20
28.66089105692811
 30
0.0
  0
VERTEX
  5
51F
330
515
100
AcDbEntity
  8
DIBUJOS
 62
     7
100
AcDbVertex
100
AcDb2dVertex
 10
65.00710882869853
 20
28.66815244328905
 30
0.0
  0
VERTEX
  5
520
330
515
100
AcDbEntity
  8
DIBUJOS
 62
     7
100
AcDbVertex
100
AcDb2dVertex
 10
65.03733890240476
 20
28.69841310632422
 30
0.0
  0
VERTEX
  5
521
330
515
100
AcDbEntity
  8
DIBUJOS
 62
     7
100
AcDbVertex
100
AcDb2dVertex
 10
65.04057539807721
 20
28.71070273398119
 30
0.0
  0
VERTEX
  5
522
330
515
100
AcDbEntity
  8
DIBUJOS
 62
     7
100
AcDbVertex
100
AcDb2dVertex
 10
65.04598908390037
 20
28.8076710724368
 30
0.0
  0
VERTEX
  5
523
330
515
100
AcDbEntity
  8
DIBUJOS
 62
     7
100
AcDbVertex
100
AcDb2dVertex
 10
65.04338394082741
 20
28.84970827728236
 30
0.0
  0
SEQEND
  5
524
330
515
100
AcDbEntity
  8
DIBUJOS
 62
     7
  0
ENDBLK
  5
195
330
192
100
AcDbEntity
  8
0
100
AcDbBlockEnd
  0
ENDSEC
  0
SECTION
  2
ENTITIES
  0
MTEXT
  5
41
330
1F
100
AcDbEntity
  8
REFERENCIAS
 62
   255
100
AcDbMText
 10
61.49112712594395
 20
54.85563098807646
 30
0.0
 40
1.49859999962535
 41
0.0
 71
     7
 72
     1
  1
\fMyriad Pro|b0|i0|c0|p34;\W1;ASTER_9436__POUF
  0
MTEXT
  5
43
330
1F
100
AcDbEntity
  8
M_U_00C1RGENES
 62
   255
100
AcDbMText
 10
90.14127864703391
 20
23.7555119243149
 30
0.0
 40
1.748366666229575
 41
0.0
 71
     7
 72
     1
  1
\fMyriad Pro|b0|i0|c0|p34;\W1;400
  0
MTEXT
  5
44
330
1F
100
AcDbEntity
  8
M_U_00C1RGENES
 62
   255
100
AcDbMText
 10
84.21176331851954
 20
20.50332059082737
 30
0.0
 40
1.748366666229575
 41
0.0
 71
     7
 72
     1
  1
\fMyriad Pro|b0|i0|c0|p34;\W1;400
  0
POLYLINE
  5
45
330
1F
100
AcDbEntity
  8
M_U_00C1RGENES
 62
   255
100
AcDb2dPolyline
 66
     1
 10
0.0
 20
0.0
 30
0.0
  0
VERTEX
  5
46
330
45
100
AcDbEntity
  8
M_U_00C1RGENES
 62
   255
100
AcDbVertex
100
AcDb2dVertex
 10
84.41666477502157
 20
24.76314475783758
 30
0.0
  0
VERTEX
  5
47
330
45
100
AcDbEntity
  8
M_U_00C1RGENES
 62
   255
100
AcDbVertex
100
AcDb2dVertex
 10
94.99999810570907
 20
19.74726776251925
 30
0.0
  0
SEQEND
  5
48
330
45
100
AcDbEntity
  8
M_U_00C1RGENES
 62
   255
  0
POLYLINE
  5
49
330
1F
100
AcDbEntity
  8
M_U_00C1RGENES
 62
   254
100
AcDb2dPolyline
 66
     1
 10
0.0
 20
0.0
 30
0.0
  0
VERTEX
  5
4A
330
49
100
AcDbEntity
  8
M_U_00C1RGENES
 62
   254
100
AcDbVertex
100
AcDb2dVertex
 10
54.99999767595828
 20
20.88258920325216
 30
0.0
  0
VERTEX
  5
4B
330
49
100
AcDbEntity
  8
M_U_00C1RGENES
 62
   254
100
AcDbVertex
100
AcDb2dVertex
 10
54.99999767595828
 20
19.74726776251925
 30
0.0
  0
SEQEND
  5
4C
330
49
100
AcDbEntity
  8
M_U_00C1RGENES
 62
   254
  0
POLYLINE
  5
4D
330
1F
100
AcDbEntity
  8
M_U_00C1RGENES
 62
   255
100
AcDb2dPolyline
 66
     1
 10
0.0
 20
0.0
 30
0.0
  0
VERTEX
  5
4E
330
4D
100
AcDbEntity
  8
M_U_00C1RGENES
 62
   255
100
AcDbVertex
100
AcDb2dVertex
 10
94.99999797321169
 20
59.74726768656564
 30
0.0
  0
VERTEX
  5
4F
330
4D
100
AcDbEntity
  8
M_U_00C1RGENES
 62
   255
100
AcDbVertex
100
AcDb2dVertex
 10
93.86467653247878
 20
59.74726768651462
 30
0.0
  0
SEQEND
  5
50
330
4D
100
AcDbEntity
  8
M_U_00C1RGENES
 62
   255
  0
INSERT
  5
53
330
1F
100
AcDbEntity
  8
DIBUJOS
100
AcDbBlockReference
  2
BLOCK_2
 10
0.0
 20
0.0
 30
0.0
  0
INSERT
  5
193
330
1F
100
AcDbEntity
  8
DIBUJOS
100
AcDbBlockReference
  2
BLOCK_3
 10
0.0
 20
0.0
 30
0.0
  0
POLYLINE
  5
526
330
1F
100
AcDbEntity
  8
COTAS_LINEA
 62
     7
100
AcDb2dPolyline
 66
     1
 10
0.0
 20
0.0
 30
0.0
  0
VERTEX
  5
527
330
526
100
AcDbEntity
  8
COTAS_LINEA
 62
     7
100
AcDbVertex
100
AcDb2dVertex
 10
69.50282335947695
 20
47.71318755890042
 30
0.0
  0
VERTEX
  5
528
330
526
100
AcDbEntity
  8
COTAS_LINEA
 62
     7
100
AcDbVertex
100
AcDb2dVertex
 10
69.50282336078345
 20
42.33145573149524
 30
0.0
  0
SEQEND
  5
529
330
526
100
AcDbEntity
  8
COTAS_LINEA
 62
     7
  0
POLYLINE
  5
52A
330
1F
100
AcDbEntity
  8
COTAS_LINEA
 62
     7
100
AcDb2dPolyline
 66
     1
 10
0.0
 20
0.0
 30
0.0
  0
VERTEX
  5
52B
330
52A
100
AcDbEntity
  8
COTAS_LINEA
 62
     7
100
AcDbVertex
100
AcDb2dVertex
 10
61.60456795805398
 20
38.66119575631178
 30
0.0
  0
VERTEX
  5
52C
330
52A
100
AcDbEntity
  8
COTAS_LINEA
 62
     7
100
AcDbVertex
100
AcDb2dVertex
 10
67.80351820943932
 20
38.66119575631178
 30
0.0
  0
SEQEND
  5
52D
330
52A
100
AcDbEntity
  8
COTAS_LINEA
 62
     7
  0
MTEXT
  5
52F
330
1F
100
AcDbEntity
  8
COTAS_N_U_00DAMERO
 62
     7
100
AcDbMText
 10
70.26136860680397
 20
44.06186691878055
 30
0.0
 40
1.998533025814148
 41
0.0
 71
     7
 72
     1
  1
\fMyriad Pro|b0|i0|c0|p34;\W1;45
  0
MTEXT
  5
530
330
1F
100
AcDbEntity
  8
COTAS_N_U_00DAMERO
 62
     7
100
AcDbMText
 10
63.19841417216156
 20
39.21616786400239
 30
0.0
 40
1.998533025814148
 41
0.0
 71
     7
 72
     1
  1
\fMyriad Pro|b0|i0|c0|p34;\W1;53
  0
ENDSEC
  0
SECTION
  2
OBJECTS
  0
DICTIONARY
  5
C
330
0
100
AcDbDictionary
  3
ACAD_GROUP
350
D
  3
ACAD_LAYOUT
350
1A
  3
ACAD_MATERIAL
350
3B
  3
ACAD_MLEADERSTYLE
350
553
  3
ACAD_MLINESTYLE
350
17
  3
ACAD_PLOTSETTINGS
350
19
  3
ACAD_VISUALSTYLE
350
2A
  3
ACDBHEADERROUNDTRIPXREC
350
531
  3
ACDBVARIABLEDICTIONARY
350
551
  0
DICTIONARY
  5
D
102
{ACAD_REACTORS
330
C
102
}
330
C
100
AcDbDictionary
  0
DICTIONARY
  5
1A
102
{ACAD_REACTORS
330
C
102
}
330
C
100
AcDbDictionary
  0
DICTIONARY
  5
3B
102
{ACAD_REACTORS
330
C
102
}
330
C
100
AcDbDictionary
  3
BYBLOCK
350
3D
  3
BYLAYER
350
3C
  3
GLOBAL
350
3E
  0
DICTIONARY
  5
553
102
{ACAD_REACTORS
330
C
102
}
330
C
100
AcDbDictionary
  0
DICTIONARY
  5
17
102
{ACAD_REACTORS
330
C
102
}
330
C
100
AcDbDictionary
  3
STANDARD
350
18
  0
DICTIONARY
  5
19
102
{ACAD_REACTORS
330
C
102
}
330
C
100
AcDbDictionary
  0
DICTIONARY
  5
2A
102
{ACAD_REACTORS
330
C
102
}
330
C
100
AcDbDictionary
  3
2DWIREFRAME
350
2F
  3
3D_HIDDEN
350
31
  3
3DWIREFRAME
350
30
  3
BASIC
350
32
  3
BRIGHTEN
350
36
  3
COLORCHANGE
350
3A
  3
CONCEPTUAL
350
34
  3
DIM
350
35
  3
FACEPATTERN
350
39
  3
FLAT
350
2B
  3
FLATWITHEDGES
350
2C
  3
GOURAUD
350
2D
  3
GOURAUDWITHEDGES
350
2E
  3
LINEPATTERN
350
38
  3
REALISTIC
350
33
  3
THICKEN
350
37
  0
DICTIONARY
  5
531
102
{ACAD_REACTORS
330
C
102
}
330
C
100
AcDbDictionary
  3
CEPSNTYPE
350
53A
  3
DIMSTYLEDATA
350
550
  3
FINGERPRINTGUID
350
53B
  3
HYPERLINKBASE
350
534
  3
INSUNITS
350
539
  3
LAYOUTDICT
350
536
  3
LWETCUNION
350
538
  3
PLOTSETDICT
350
537
  3
PSVPSCALE
350
53D
  3
PUCSBASE
350
540
  3
PUCSORGBACK
350
546
  3
PUCSORGBOTTOM
350
542
  3
PUCSORGFRONT
350
545
  3
PUCSORGLEFT
350
543
  3
PUCSORGRIGHT
350
544
  3
PUCSORGTOP
350
541
  3
PUCSORTHOREF
350
53E
  3
PUCSORTHOVIEW
350
53F
  3
STYLESHEET
350
535
  3
TSTACKALIGN
350
532
  3
TSTACKSIZE
350
533
  3
UCSBASE
350
549
  3
UCSORGBACK
350
54F
  3
UCSORGBOTTOM
350
54B
  3
UCSORGFRONT
350
54E
  3
UCSORGLEFT
350
54C
  3
UCSORGRIGHT
350
54D
  3
UCSORGTOP
350
54A
  3
UCSORTHOREF
350
547
  3
UCSORTHOVIEW
350
548
  3
VERSIONGUID
350
53C
  0
DICTIONARY
  5
551
102
{ACAD_REACTORS
330
C
102
}
330
C
100
AcDbDictionary
  3
DIMASSOC
350
554
  3
HIDETEXT
350
555
  0
MATERIAL
  5
3D
102
{ACAD_REACTORS
330
3B
102
}
102
{ACAD_XDICTIONARY
360
558
102
}
330
3B
100
AcDbMaterial
  1
ByBlock
  0
MATERIAL
  5
3C
102
{ACAD_REACTORS
330
3B
102
}
102
{ACAD_XDICTIONARY
360
556
102
}
330
3B
100
AcDbMaterial
  1
ByLayer
  0
MATERIAL
  5
3E
102
{ACAD_REACTORS
330
3B
102
}
102
{ACAD_XDICTIONARY
360
55A
102
}
330
3B
100
AcDbMaterial
  1
Global
  0
MLINESTYLE
  5
18
102
{ACAD_REACTORS
330
17
102
}
330
17
100
AcDbMlineStyle
  2
Standard
 70
     0
  3

 62
   256
 51
90.0
 52
90.0
 71
     2
 49
0.5
 62
   256
  6
BYLAYER
 49
-0.5
 62
   256
  6
BYLAYER
  0
ACAD_PROXY_OBJECT
  5
2F
102
{ACAD_REACTORS
330
2A
102
}
330
2A
100
AcDbProxyObject
 90
      499
 91
      501
 93
      436
310
42CC9915DA5C99599C985B595049028333333333333E3BF0000000000000FB0107901411070040501600405405064090741402480A0340
1001
ACAD
1000
AcDbSavedByObjectVersion
1070
     0
  0
ACAD_PROXY_OBJECT
  5
31
102
{ACAD_REACTORS
330
2A
102
}
330
2A
100
AcDbProxyObject
 90
      499
 91
      501
 93
      500
310
424CD108121A5919195B90640502408333333333333E3BF0000000000000FB01079024090700405020000000000001110200405405064090740C02480A0340
1001
ACAD
1000
AcDbSavedByObjectVersion
1070
     0
  0
ACAD_PROXY_OBJECT
  5
30
102
{ACAD_REACTORS
330
2A
102
}
330
2A
100
AcDbProxyObject
 90
      499
 91
      501
 93
      436
310
42CCD915DA5C99599C985B595059028333333333333E3BF0000000000000FB0107901411070040501600405405064090741402480A0340
1001
ACAD
1000
AcDbSavedByObjectVersion
1070
     0
  0
ACAD_PROXY_OBJECT
  5
32
102
{ACAD_REACTORS
330
2A
102
}
330
2A
100
AcDbProxyObject
 90
      499
 91
      501
 93
      388
310
4150985CDA58D07406404333333333333E3BF0000000000000FB0107A41107004050150841D405064090741402480A0350
1001
ACAD
1000
AcDbSavedByObjectVersion
1070
     0
  0
ACAD_PROXY_OBJECT
  5
36
102
{ACAD_REACTORS
330
2A
102
}
330
2A
100
AcDbProxyObject
 90
      499
 91
      501
 93
      428
310
42109C9A59DA1D195B90C409028333333333333E3BF0000000000000FB010790141107004050150841D405064090741402480A029950
1001
ACAD
1000
AcDbSavedByObjectVersion
1070
     0
  0
ACAD_PROXY_OBJECT
  5
3A
102
{ACAD_REACTORS
330
2A
102
}
330
2A
100
AcDbProxyObject
 90
      499
 91
      501
 93
      452
310
42D0DBDB1BDC90DA185B99D95104090240C333333333333E3BF0000000000000FB0108901411070040501508421405064090741402480A0350
1001
ACAD
1000
AcDbSavedByObjectVersion
1070
     0
  0
ACAD_PROXY_OBJECT
  5
34
102
{ACAD_REACTORS
330
2A
102
}
330
2A
100
AcDbProxyObject
 90
      499
 91
      501
 93
      500
310
4290DBDB98D95C1D1D585B10940D028333333333333E3BF0000000000000FB0107902409070040501000000000000111010841D405064090740C02480A0340
1001
ACAD
1000
AcDbSavedByObjectVersion
1070
     0
  0
ACAD_PROXY_OBJECT
  5
35
102
{ACAD_REACTORS
330
2A
102
}
330
2A
100
AcDbProxyObject
 90
      499
 91
      501
 93
      412
310
40D11A5B50B409028333333333333E3BF0000000000000FB010790141107004050150841D405064090741402480A02677FFFFFD0
1001
ACAD
1000
AcDbSavedByObjectVersion
1070
     0
  0
ACAD_PROXY_OBJECT
  5
39
102
{ACAD_REACTORS
330
2A
102
}
330
2A
100
AcDbProxyObject
 90
      499
 91
      501
 93
      444
310
42D19858D95C185D1D195C9B90F409028333333333333E3BF0000000000000FB010790141107004050150841D405064090741402480A0350
1001
ACAD
1000
AcDbSavedByObjectVersion
1070
     0
  0
ACAD_PROXY_OBJECT
  5
2B
102
{ACAD_REACTORS
330
2A
102
}
330
2A
100
AcDbProxyObject
 90
      499
 91
      501
 93
      388
310
41119B185D240901404333333333333E3BF0000000000000F9010740A41107004050150841D405064090741402480A1B50
1001
ACAD
1000
AcDbSavedByObjectVersion
1070
     0
  0
ACAD_PROXY_OBJECT
  5
2C
102
{ACAD_REACTORS
330
2A
102
}
330
2A
100
AcDbProxyObject
 90
      499
 91
      501
 93
      476
310
43519B185D15DA5D1A115919D95CD0140901404333333333333E3BF0000000000000F9010740901411070040501600405405064090741402480A1B50
1001
ACAD
1000
AcDbSavedByObjectVersion
1070
     0
  0
ACAD_PROXY_OBJECT
  5
2D
102
{ACAD_REACTORS
330
2A
102
}
330
2A
100
AcDbProxyObject
 90
      499
 91
      501
 93
      412
310
41D1DBDD5C985D5910240902404333333333333E3BF0000000000000F9010740A411070040501641D405064090741402480A1B50
1001
ACAD
1000
AcDbSavedByObjectVersion
1070
     0
  0
ACAD_PROXY_OBJECT
  5
2E
102
{ACAD_REACTORS
330
2A
102
}
330
2A
100
AcDbProxyObject
 90
      499
 91
      501
 93
      500
310
4411DBDD5C985D5915DA5D1A115919D95CD0340902404333333333333E3BF0000000000000F9010740901411070040501600405405064090741402480A1B50
1001
ACAD
1000
AcDbSavedByObjectVersion
1070
     0
  0
ACAD_PROXY_OBJECT
  5
38
102
{ACAD_REACTORS
330
2A
102
}
330
2A
100
AcDbProxyObject
 90
      499
 91
      501
 93
      444
310
42D31A5B995C185D1D195C9B90E409028333333333333E3BF0000000000000FB010790141107004050750841D405064090741402483A0350
1001
ACAD
1000
AcDbSavedByObjectVersion
1070
     0
  0
ACAD_PROXY_OBJECT
  5
33
102
{ACAD_REACTORS
330
2A
102
}
330
2A
100
AcDbProxyObject
 90
      499
 91
      501
 93
      420
310
425499585B1A5CDD1A58D08409028333333333333E3BF0000000000000FB01079019070040501508421405064090741402480A1B40
1001
ACAD
1000
AcDbSavedByObjectVersion
1070
     0
  0
ACAD_PROXY_OBJECT
  5
37
102
{ACAD_REACTORS
330
2A
102
}
330
2A
100
AcDbProxyObject
 90
      499
 91
      501
 93
      412
310
41D51A1A58DAD95B90D409028333333333333E3BF0000000000000FB010790141107004050150C41D405064090741402480A0350
1001
ACAD
1000
AcDbSavedByObjectVersion
1070
     0
  0
XRECORD
  5
53A
102
{ACAD_REACTORS
330
531
102
}
330
531
100
AcDbXrecord
 90
        0
  0
XRECORD
  5
550
102
{ACAD_REACTORS
330
531
102
}
330
531
100
AcDbXrecord
1000
DSTYLE
1002
{
1070
   340
340
11
1002
}
  0
XRECORD
  5
53B
102
{ACAD_REACTORS
330
531
102
}
330
531
100
AcDbXrecord
  1
{C5E77D4A-E389-46C6-BB94-387E7B53A040}
  0
XRECORD
  5
534
102
{ACAD_REACTORS
330
531
102
}
330
531
100
AcDbXrecord
  1

  0
XRECORD
  5
539
102
{ACAD_REACTORS
330
531
102
}
330
531
100
AcDbXrecord
 90
        1
  0
XRECORD
  5
536
102
{ACAD_REACTORS
330
531
102
}
330
531
100
AcDbXrecord
340
1A
  0
XRECORD
  5
538
102
{ACAD_REACTORS
330
531
102
}
330
531
100
AcDbXrecord
 90
    10269
  0
XRECORD
  5
537
102
{ACAD_REACTORS
330
531
102
}
330
531
100
AcDbXrecord
340
19
  0
XRECORD
  5
53D
102
{ACAD_REACTORS
330
531
102
}
330
531
100
AcDbXrecord
 40
0.0
  0
XRECORD
  5
540
102
{ACAD_REACTORS
330
531
102
}
330
531
100
AcDbXrecord
340
0
  0
XRECORD
  5
546
102
{ACAD_REACTORS
330
531
102
}
330
531
100
AcDbXrecord
 10
0.0
 20
0.0
 30
0.0
  0
XRECORD
  5
542
102
{ACAD_REACTORS
330
531
102
}
330
531
100
AcDbXrecord
 10
0.0
 20
0.0
 30
0.0
  0
XRECORD
  5
545
102
{ACAD_REACTORS
330
531
102
}
330
531
100
AcDbXrecord
 10
0.0
 20
0.0
 30
0.0
  0
XRECORD
  5
543
102
{ACAD_REACTORS
330
531
102
}
330
531
100
AcDbXrecord
 10
0.0
 20
0.0
 30
0.0
  0
XRECORD
  5
544
102
{ACAD_REACTORS
330
531
102
}
330
531
100
AcDbXrecord
 10
0.0
 20
0.0
 30
0.0
  0
XRECORD
  5
541
102
{ACAD_REACTORS
330
531
102
}
330
531
100
AcDbXrecord
 10
0.0
 20
0.0
 30
0.0
  0
XRECORD
  5
53E
102
{ACAD_REACTORS
330
531
102
}
330
531
100
AcDbXrecord
340
0
  0
XRECORD
  5
53F
102
{ACAD_REACTORS
330
531
102
}
330
531
100
AcDbXrecord
 70
     0
  0
XRECORD
  5
535
102
{ACAD_REACTORS
330
531
102
}
330
531
100
AcDbXrecord
  1

  0
XRECORD
  5
532
102
{ACAD_REACTORS
330
531
102
}
330
531
100
AcDbXrecord
 90
        1
  0
XRECORD
  5
533
102
{ACAD_REACTORS
330
531
102
}
330
531
100
AcDbXrecord
 90
       70
  0
XRECORD
  5
549
102
{ACAD_REACTORS
330
531
102
}
330
531
100
AcDbXrecord
340
0
  0
XRECORD
  5
54F
102
{ACAD_REACTORS
330
531
102
}
330
531
100
AcDbXrecord
 10
0.0
 20
0.0
 30
0.0
  0
XRECORD
  5
54B
102
{ACAD_REACTORS
330
531
102
}
330
531
100
AcDbXrecord
 10
0.0
 20
0.0
 30
0.0
  0
XRECORD
  5
54E
102
{ACAD_REACTORS
330
531
102
}
330
531
100
AcDbXrecord
 10
0.0
 20
0.0
 30
0.0
  0
XRECORD
  5
54C
102
{ACAD_REACTORS
330
531
102
}
330
531
100
AcDbXrecord
 10
0.0
 20
0.0
 30
0.0
  0
XRECORD
  5
54D
102
{ACAD_REACTORS
330
531
102
}
330
531
100
AcDbXrecord
 10
0.0
 20
0.0
 30
0.0
  0
XRECORD
  5
54A
102
{ACAD_REACTORS
330
531
102
}
330
531
100
AcDbXrecord
 10
0.0
 20
0.0
 30
0.0
  0
XRECORD
  5
547
102
{ACAD_REACTORS
330
531
102
}
330
531
100
AcDbXrecord
340
0
  0
XRECORD
  5
548
102
{ACAD_REACTORS
330
531
102
}
330
531
100
AcDbXrecord
 70
     0
  0
XRECORD
  5
53C
102
{ACAD_REACTORS
330
531
102
}
330
531
100
AcDbXrecord
  1
{FAEB1C32-E019-11D5-929B-00C0DF256EC4}
  0
DICTIONARYVAR
  5
554
102
{ACAD_REACTORS
330
551
102
}
330
551
100
DictionaryVariables
280
     0
  1
2
  0
DICTIONARYVAR
  5
555
102
{ACAD_REACTORS
330
551
102
}
330
551
100
DictionaryVariables
280
     0
  1
1
  0
DICTIONARY
  5
558
330
3D
100
AcDbDictionary
280
     1
  3
ACAD_XREC_ROUNDTRIP
360
559
  0
DICTIONARY
  5
556
330
3C
100
AcDbDictionary
280
     1
  3
ACAD_XREC_ROUNDTRIP
360
557
  0
DICTIONARY
  5
55A
330
3E
100
AcDbDictionary
280
     1
  3
ACAD_XREC_ROUNDTRIP
360
55B
  0
XRECORD
  5
559
102
{ACAD_REACTORS
330
558
102
}
330
558
100
AcDbXrecord
102
MATERIAL
148
0.0
149
0.0
149
0.0
 93
        0
 94
      127
282
     0
 72
     1
 77
     1
171
     1
175
     1
179
     1
273
     0
  0
XRECORD
  5
557
102
{ACAD_REACTORS
330
556
102
}
330
556
100
AcDbXrecord
102
MATERIAL
148
0.0
149
0.0
149
0.0
 93
        0
 94
      127
282
     0
 72
     1
 77
     1
171
     1
175
     1
179
     1
273
     0
  0
XRECORD
  5
55B
102
{ACAD_REACTORS
330
55A
102
}
330
55A
100
AcDbXrecord
102
MATERIAL
148
0.0
149
0.0
149
0.0
 93
        0
 94
      127
282
     0
 72
     1
 77
     1
171
     1
175
     1
179
     1
273
     0
  0
ENDSEC
  0
EOF
