  0
SECTION
  2
HEADER
  9
$ACADVER
  1
AC1015
  9
$ACADMAINTVER
 70
     6
  9
$DWGCODEPAGE
  3
ANSI_1252
  9
$INSBASE
 10
0.0
 20
0.0
 30
0.0
  9
$EXTMIN
 10
0.0
 20
0.0
 30
0.0
  9
$EXTMAX
 10
2970.0
 20
2100.0
 30
0.0
  9
$LIMMIN
 10
0.0
 20
0.0
  9
$LIMMAX
 10
2970.0
 20
2100.0
  9
$ORTHOMODE
 70
     0
  9
$REGENMODE
 70
     1
  9
$FILLMODE
 70
     1
  9
$QTEXTMODE
 70
     0
  9
$MIRRTEXT
 70
     1
  9
$LTSCALE
 40
10.0
  9
$ATTMODE
 70
     1
  9
$TEXTSIZE
 40
35.0
  9
$TRACEWID
 40
1.0
  9
$TEXTSTYLE
  7
Standard
  9
$CLAYER
  8
0
  9
$CELTYPE
  6
ByLayer
  9
$CECOLOR
 62
   256
  9
$CELTSCALE
 40
1.0
  9
$DISPSILH
 70
     0
  9
$DIMSCALE
 40
1.0
  9
$DIMASZ
 40
25.0
  9
$DIMEXO
 40
0.0
  9
$DIMDLI
 40
3.75
  9
$DIMRND
 40
0.0
  9
$DIMDLE
 40
0.0
  9
$DIMEXE
 40
10.0
  9
$DIMTP
 40
0.0
  9
$DIMTM
 40
0.0
  9
$DIMTXT
 40
30.0
  9
$DIMCEN
 40
2.5
  9
$DIMTSZ
 40
0.0
  9
$DIMTOL
 70
     0
  9
$DIMLIM
 70
     0
  9
$DIMTIH
 70
     1
  9
$DIMTOH
 70
     1
  9
$DIMSE1
 70
     0
  9
$DIMSE2
 70
     0
  9
$DIMTAD
 70
     1
  9
$DIMZIN
 70
     0
  9
$DIMBLK
  1

  9
$DIMASO
 70
     1
  9
$DIMSHO
 70
     1
  9
$DIMPOST
  1

  9
$DIMAPOST
  1

  9
$DIMALT
 70
     0
  9
$DIMALTD
 70
     3
  9
$DIMALTF
 40
0.0393700787
  9
$DIMLFAC
 40
1.0
  9
$DIMTOFL
 70
     1
  9
$DIMTVP
 40
0.0
  9
$DIMTIX
 70
     0
  9
$DIMSOXD
 70
     0
  9
$DIMSAH
 70
     0
  9
$DIMBLK1
  1

  9
$DIMBLK2
  1

  9
$DIMSTYLE
  2
ISO-25
  9
$DIMCLRD
 70
     0
  9
$DIMCLRE
 70
     0
  9
$DIMCLRT
 70
     0
  9
$DIMTFAC
 40
1.0
  9
$DIMGAP
 40
15.0
  9
$DIMJUST
 70
     0
  9
$DIMSD1
 70
     0
  9
$DIMSD2
 70
     0
  9
$DIMTOLJ
 70
     0
  9
$DIMTZIN
 70
     0
  9
$DIMALTZ
 70
     0
  9
$DIMALTTZ
 70
     0
  9
$DIMUPT
 70
     0
  9
$DIMDEC
 70
     1
  9
$DIMTDEC
 70
     1
  9
$DIMALTU
 70
     2
  9
$DIMALTTD
 70
     3
  9
$DIMTXSTY
  7
Standard
  9
$DIMAUNIT
 70
     0
  9
$DIMADEC
 70
     2
  9
$DIMALTRND
 40
0.0
  9
$DIMAZIN
 70
     0
  9
$DIMDSEP
 70
    44
  9
$DIMATFIT
 70
     3
  9
$DIMFRAC
 70
     0
  9
$DIMLDRBLK
  1

  9
$DIMLUNIT
 70
     2
  9
$DIMLWD
 70
    -2
  9
$DIMLWE
 70
    -2
  9
$DIMTMOVE
 70
     0
  9
$LUNITS
 70
     2
  9
$LUPREC
 70
     2
  9
$SKETCHINC
 40
1.0
  9
$FILLETRAD
 40
10.0
  9
$AUNITS
 70
     0
  9
$AUPREC
 70
     2
  9
$MENU
  1
.
  9
$ELEVATION
 40
0.0
  9
$PELEVATION
 40
0.0
  9
$THICKNESS
 40
0.0
  9
$LIMCHECK
 70
     0
  9
$CHAMFERA
 40
0.0
  9
$CHAMFERB
 40
0.0
  9
$CHAMFERC
 40
0.0
  9
$CHAMFERD
 40
0.0
  9
$SKPOLY
 70
     0
  9
$TDCREATE
 40
2457820.446726609
  9
$TDUCREATE
 40
2457820.405059942
  9
$TDUPDATE
 40
2457820.446728252
  9
$TDUUPDATE
 40
2457820.405061586
  9
$TDINDWG
 40
0.0000000116
  9
$TDUSRTIMER
 40
0.0000000116
  9
$USRTIMER
 70
     1
  9
$ANGBASE
 50
0.0
  9
$ANGDIR
 70
     0
  9
$PDMODE
 70
     0
  9
$PDSIZE
 40
-1.0
  9
$PLINEWID
 40
0.0
  9
$SPLFRAME
 70
     0
  9
$SPLINETYPE
 70
     6
  9
$SPLINESEGS
 70
     8
  9
$HANDSEED
  5
162
  9
$SURFTAB1
 70
     6
  9
$SURFTAB2
 70
     6
  9
$SURFTYPE
 70
     6
  9
$SURFU
 70
     6
  9
$SURFV
 70
     6
  9
$UCSBASE
  2

  9
$UCSNAME
  2

  9
$UCSORG
 10
0.0
 20
0.0
 30
0.0
  9
$UCSXDIR
 10
1.0
 20
0.0
 30
0.0
  9
$UCSYDIR
 10
0.0
 20
1.0
 30
0.0
  9
$UCSORTHOREF
  2

  9
$UCSORTHOVIEW
 70
     0
  9
$UCSORGTOP
 10
0.0
 20
0.0
 30
0.0
  9
$UCSORGBOTTOM
 10
0.0
 20
0.0
 30
0.0
  9
$UCSORGLEFT
 10
0.0
 20
0.0
 30
0.0
  9
$UCSORGRIGHT
 10
0.0
 20
0.0
 30
0.0
  9
$UCSORGFRONT
 10
0.0
 20
0.0
 30
0.0
  9
$UCSORGBACK
 10
0.0
 20
0.0
 30
0.0
  9
$PUCSBASE
  2

  9
$PUCSNAME
  2

  9
$PUCSORG
 10
0.0
 20
0.0
 30
0.0
  9
$PUCSXDIR
 10
1.0
 20
0.0
 30
0.0
  9
$PUCSYDIR
 10
0.0
 20
1.0
 30
0.0
  9
$PUCSORTHOREF
  2

  9
$PUCSORTHOVIEW
 70
     0
  9
$PUCSORGTOP
 10
0.0
 20
0.0
 30
0.0
  9
$PUCSORGBOTTOM
 10
0.0
 20
0.0
 30
0.0
  9
$PUCSORGLEFT
 10
0.0
 20
0.0
 30
0.0
  9
$PUCSORGRIGHT
 10
0.0
 20
0.0
 30
0.0
  9
$PUCSORGFRONT
 10
0.0
 20
0.0
 30
0.0
  9
$PUCSORGBACK
 10
0.0
 20
0.0
 30
0.0
  9
$USERI1
 70
     0
  9
$USERI2
 70
     0
  9
$USERI3
 70
     0
  9
$USERI4
 70
     0
  9
$USERI5
 70
     0
  9
$USERR1
 40
0.0
  9
$USERR2
 40
0.0
  9
$USERR3
 40
0.0
  9
$USERR4
 40
0.0
  9
$USERR5
 40
0.0
  9
$WORLDVIEW
 70
     1
  9
$SHADEDGE
 70
     3
  9
$SHADEDIF
 70
    70
  9
$TILEMODE
 70
     1
  9
$MAXACTVP
 70
    64
  9
$PINSBASE
 10
0.0
 20
0.0
 30
0.0
  9
$PLIMCHECK
 70
     0
  9
$PEXTMIN
 10
1.0000000000E+20
 20
1.0000000000E+20
 30
1.0000000000E+20
  9
$PEXTMAX
 10
-1.0000000000E+20
 20
-1.0000000000E+20
 30
-1.0000000000E+20
  9
$PLIMMIN
 10
0.0
 20
0.0
  9
$PLIMMAX
 10
420.0
 20
297.0
  9
$UNITMODE
 70
     0
  9
$VISRETAIN
 70
     1
  9
$PLINEGEN
 70
     0
  9
$PSLTSCALE
 70
     1
  9
$TREEDEPTH
 70
  3020
  9
$CMLSTYLE
  2
Standard
  9
$CMLJUST
 70
     0
  9
$CMLSCALE
 40
20.0
  9
$PROXYGRAPHICS
 70
     1
  9
$MEASUREMENT
 70
     1
  9
$CELWEIGHT
370
    -1
  9
$ENDCAPS
280
     0
  9
$JOINSTYLE
280
     0
  9
$LWDISPLAY
290
     1
  9
$INSUNITS
 70
     4
  9
$HYPERLINKBASE
  1

  9
$STYLESHEET
  1

  9
$XEDIT
290
     1
  9
$CEPSNTYPE
380
     0
  9
$PSTYLEMODE
290
     1
  9
$FINGERPRINTGUID
  2
{795C205C-2EFF-4828-BAD8-C0279EFE1FC7}
  9
$VERSIONGUID
  2
{FAEB1C32-E019-11D5-929B-00C0DF256EC4}
  9
$EXTNAMES
290
     1
  9
$PSVPSCALE
 40
0.0
  9
$OLESTARTUP
290
     0
  0
ENDSEC
  0
SECTION
  2
CLASSES
  0
CLASS
  1
ACDBDICTIONARYWDFLT
  2
AcDbDictionaryWithDefault
  3
ObjectDBX Classes
 90
        0
280
     0
281
     0
  0
CLASS
  1
VISUALSTYLE
  2
AcDbVisualStyle
  3
ObjectDBX Classes
 90
     4095
280
     0
281
     0
  0
CLASS
  1
MATERIAL
  2
AcDbMaterial
  3
ObjectDBX Classes
 90
     1153
280
     0
281
     0
  0
CLASS
  1
SCALE
  2
AcDbScale
  3
ObjectDBX Classes
 90
     1153
280
     0
281
     0
  0
CLASS
  1
TABLESTYLE
  2
AcDbTableStyle
  3
ObjectDBX Classes
 90
     4095
280
     0
281
     0
  0
CLASS
  1
MLEADERSTYLE
  2
AcDbMLeaderStyle
  3
ACDB_MLEADERSTYLE_CLASS
 90
     4095
280
     0
281
     0
  0
CLASS
  1
SUN
  2
AcDbSun
  3
SCENEOE
 90
     1153
280
     0
281
     0
  0
CLASS
  1
ACDBPLACEHOLDER
  2
AcDbPlaceHolder
  3
ObjectDBX Classes
 90
        0
280
     0
281
     0
  0
CLASS
  1
LAYOUT
  2
AcDbLayout
  3
ObjectDBX Classes
 90
        0
280
     0
281
     0
  0
ENDSEC
  0
SECTION
  2
TABLES
  0
TABLE
  2
VPORT
  5
8
330
0
100
AcDbSymbolTable
 70
     1
  0
VPORT
  5
29
330
8
100
AcDbSymbolTableRecord
100
AcDbViewportTableRecord
  2
*Active
 70
     0
 10
0.0
 20
0.0
 11
1.0
 21
1.0
 12
1485.0
 22
1050.0
 13
0.0
 23
0.0
 14
10.0
 24
10.0
 15
10.0
 25
10.0
 16
0.0
 26
0.0
 36
1.0
 17
0.0
 27
0.0
 37
0.0
 40
2100.0
 41
1.4142857143
 42
50.0
 43
0.0
 44
0.0
 50
0.0
 51
0.0
 71
     0
 72
  2000
 73
     1
 74
     3
 75
     0
 76
     0
 77
     0
 78
     0
281
     0
 65
     1
110
0.0
120
0.0
130
0.0
111
1.0
121
0.0
131
0.0
112
0.0
122
1.0
132
0.0
 79
     0
146
0.0
  0
ENDTAB
  0
TABLE
  2
LTYPE
  5
5
330
0
100
AcDbSymbolTable
 70
     6
  0
LTYPE
  5
14
330
5
100
AcDbSymbolTableRecord
100
AcDbLinetypeTableRecord
  2
ByBlock
 70
     0
  3

 72
    65
 73
     0
 40
0.0
  0
LTYPE
  5
15
330
5
100
AcDbSymbolTableRecord
100
AcDbLinetypeTableRecord
  2
ByLayer
 70
     0
  3

 72
    65
 73
     0
 40
0.0
  0
LTYPE
  5
16
330
5
100
AcDbSymbolTableRecord
100
AcDbLinetypeTableRecord
  2
Continuous
 70
     0
  3
Solid line
 72
    65
 73
     0
 40
0.0
  0
LTYPE
  5
6E
330
5
100
AcDbSymbolTableRecord
100
AcDbLinetypeTableRecord
  2
HIDDEN
 70
     0
  3
Hidden __ __ __ __ __ __ __ __ __ __ __ __ __ __
 72
    65
 73
     2
 40
1.905
 49
1.27
 74
     0
 49
-0.635
 74
     0
  0
LTYPE
  5
6F
330
5
100
AcDbSymbolTableRecord
100
AcDbLinetypeTableRecord
  2
PHANTOM
 70
     0
  3
Phantom ______  __  __  ______  __  __  ______
 72
    65
 73
     6
 40
12.7
 49
6.35
 74
     0
 49
-1.27
 74
     0
 49
1.27
 74
     0
 49
-1.27
 74
     0
 49
1.27
 74
     0
 49
-1.27
 74
     0
  0
LTYPE
  5
70
330
5
100
AcDbSymbolTableRecord
100
AcDbLinetypeTableRecord
  2
CENTER
 70
     0
  3
Center ____ _ ____ _ ____ _ ____ _ ____ _ ____
 72
    65
 73
     4
 40
10.16
 49
6.35
 74
     0
 49
-1.27
 74
     0
 49
1.27
 74
     0
 49
-1.27
 74
     0
  0
LTYPE
  5
71
330
5
100
AcDbSymbolTableRecord
100
AcDbLinetypeTableRecord
  2
CENTERX2
 70
     0
  3
Center (2x) ________  __  ________  __  _____
 72
    65
 73
     4
 40
20.32
 49
12.7
 74
     0
 49
-2.54
 74
     0
 49
2.54
 74
     0
 49
-2.54
 74
     0
  0
LTYPE
  5
72
330
5
100
AcDbSymbolTableRecord
100
AcDbLinetypeTableRecord
  2
DOT2
 70
     0
  3
Dot (.5x) ........................................
 72
    65
 73
     2
 40
0.635
 49
0.0
 74
     0
 49
-0.635
 74
     0
  0
ENDTAB
  0
TABLE
  2
LAYER
  5
2
330
0
100
AcDbSymbolTable
 70
     2
  0
LAYER
  5
10
330
2
100
AcDbSymbolTableRecord
100
AcDbLayerTableRecord
  2
0
 70
     0
 62
     7
  6
Continuous
370
    -3
390
F
  0
LAYER
  5
73
330
2
100
AcDbSymbolTableRecord
100
AcDbLayerTableRecord
  2
FORMAT
 70
     0
 62
     7
  6
Continuous
370
    -3
390
F
  0
ENDTAB
  0
TABLE
  2
STYLE
  5
3
330
0
100
AcDbSymbolTable
 70
     2
  0
STYLE
  5
11
330
3
100
AcDbSymbolTableRecord
100
AcDbTextStyleTableRecord
  2
Standard
 70
     0
 40
0.0
 41
1.0
 50
0.0
 71
     0
 42
35.0
  3
txt
  4

  0
STYLE
  5
E7
330
3
100
AcDbSymbolTableRecord
100
AcDbTextStyleTableRecord
  2
SLDTEXTSTYLE0
 70
     0
 40
0.0
 41
0.605
 50
0.0
 71
     0
 42
35.0
  3
TXT
  4

  0
ENDTAB
  0
TABLE
  2
VIEW
  5
6
330
0
100
AcDbSymbolTable
 70
     0
  0
ENDTAB
  0
TABLE
  2
UCS
  5
7
330
0
100
AcDbSymbolTable
 70
     0
  0
ENDTAB
  0
TABLE
  2
APPID
  5
9
330
0
100
AcDbSymbolTable
 70
     1
  0
APPID
  5
12
330
9
100
AcDbSymbolTableRecord
100
AcDbRegAppTableRecord
  2
ACAD
 70
     0
  0
ENDTAB
  0
TABLE
  2
DIMSTYLE
  5
A
330
0
100
AcDbSymbolTable
 70
     1
100
AcDbDimStyleTable
  0
DIMSTYLE
105
27
330
A
100
AcDbSymbolTableRecord
100
AcDbDimStyleTableRecord
  2
ISO-25
 70
     0
 41
2.5
 42
0.625
 43
3.75
 44
1.25
 73
     0
 74
     0
 77
     1
 78
     8
140
2.5
141
2.5
143
0.0393700787
147
0.625
171
     3
172
     1
178
     0
271
     2
272
     2
274
     3
278
    44
283
     0
284
     8
340
11
  0
ENDTAB
  0
TABLE
  2
BLOCK_RECORD
  5
1
330
0
100
AcDbSymbolTable
 70
     3
  0
BLOCK_RECORD
  5
1F
330
1
100
AcDbSymbolTableRecord
100
AcDbBlockTableRecord
  2
*Model_Space
340
22
  0
BLOCK_RECORD
  5
1B
330
1
100
AcDbSymbolTableRecord
100
AcDbBlockTableRecord
  2
*Paper_Space
340
1E
  0
BLOCK_RECORD
  5
23
330
1
100
AcDbSymbolTableRecord
100
AcDbBlockTableRecord
  2
*Paper_Space0
340
26
  0
BLOCK_RECORD
  5
EB
330
1
100
AcDbSymbolTableRecord
100
AcDbBlockTableRecord
  2
SW_NOTE_0
340
0
102
{BLKREFS
331
F0
102
}
  0
BLOCK_RECORD
  5
F3
330
1
100
AcDbSymbolTableRecord
100
AcDbBlockTableRecord
  2
SW_NOTE_1
340
0
102
{BLKREFS
331
F8
102
}
  0
ENDTAB
  0
ENDSEC
  0
SECTION
  2
BLOCKS
  0
BLOCK
  5
20
330
1F
100
AcDbEntity
  8
0
100
AcDbBlockBegin
  2
*Model_Space
 70
     0
 10
0.0
 20
0.0
 30
0.0
  3
*Model_Space
  1

  0
ENDBLK
  5
21
330
1F
100
AcDbEntity
  8
0
100
AcDbBlockEnd
  0
BLOCK
  5
1C
330
1B
100
AcDbEntity
 67
     1
  8
0
100
AcDbBlockBegin
  2
*Paper_Space
 70
     0
 10
0.0
 20
0.0
 30
0.0
  3
*Paper_Space
  1

  0
ENDBLK
  5
1D
330
1B
100
AcDbEntity
 67
     1
  8
0
100
AcDbBlockEnd
  0
BLOCK
  5
24
330
23
100
AcDbEntity
  8
0
100
AcDbBlockBegin
  2
*Paper_Space0
 70
     0
 10
0.0
 20
0.0
 30
0.0
  3
*Paper_Space0
  1

  0
ENDBLK
  5
25
330
23
100
AcDbEntity
  8
0
100
AcDbBlockEnd
  0
BLOCK
  5
EC
330
EB
100
AcDbEntity
  8
0
100
AcDbBlockBegin
  2
SW_NOTE_0
 70
     0
 10
0.0
 20
0.0
 30
0.0
  3
SW_NOTE_0
  1

  0
MTEXT
  5
EE
330
EB
100
AcDbEntity
  8
0
  6
Continuous
 62
     0
370
     0
100
AcDbMText
 10
0.0
 20
23.2032193159
 30
0.0
 40
18.0
 41
0.0
 71
     1
 72
     1
  1
Questo disegno e posto sotto la tutela delle vigenti Leggi e non puo essere utilizzato da terze persone se non previa autorizzazione scritta della PEDRALI
  7
SLDTEXTSTYLE0
 73
     1
 44
1.0
  0
MTEXT
  5
EF
330
EB
100
AcDbEntity
  8
0
  6
Continuous
 62
     0
370
     0
100
AcDbMText
 10
1355.5219376087
 20
23.2032193159
 30
0.0
 40
18.0
 41
0.0
 71
     1
 72
     1
  1
S.p.A.
  7
SLDTEXTSTYLE0
 73
     1
 44
1.0
  0
ENDBLK
  5
ED
330
EB
100
AcDbEntity
  8
0
100
AcDbBlockEnd
  0
BLOCK
  5
F4
330
F3
100
AcDbEntity
  8
0
100
AcDbBlockBegin
  2
SW_NOTE_1
 70
     0
 10
0.0
 20
0.0
 30
0.0
  3
SW_NOTE_1
  1

  0
MTEXT
  5
F6
330
F3
100
AcDbEntity
  8
0
  6
Continuous
 62
     0
370
     0
100
AcDbMText
 10
32.90625
 20
23.2032193159
 30
0.0
 40
18.0
 41
0.0
 71
     2
 72
     1
  1
SCALA
  7
SLDTEXTSTYLE0
 73
     1
 44
1.0
  0
MTEXT
  5
F7
330
F3
100
AcDbEntity
  8
0
  6
Continuous
 62
     0
370
     0
100
AcDbMText
 10
35.6098540438
 20
-1.6396707646
 30
0.0
 40
37.0416666667
 41
0.0
 71
     2
 72
     1
  1
1:1
  7
SLDTEXTSTYLE0
 73
     1
 44
1.0
  0
ENDBLK
  5
F5
330
F3
100
AcDbEntity
  8
0
100
AcDbBlockEnd
  0
ENDSEC
  0
SECTION
  2
ENTITIES
  0
HATCH
  5
74
330
1F
100
AcDbEntity
  8
0
  6
Continuous
 62
     7
100
AcDbHatch
 10
0.0
 20
0.0
 30
0.0
210
0.0
220
0.0
230
1.0
  2
SOLID
 70
     1
 71
     0
 91
        2
 92
        0
 93
        6
 72
     1
 10
2340.243226420216
 20
319.3144821747094
 11
2356.647910872445
 21
319.3144821747094
 72
     3
 10
2351.078765157099
 20
331.9559440369547
 11
27.08884684798352
 21
0.0
 40
0.4768529109443384
 50
293.7756995582609
 51
426.2243004403791
 73
     1
 72
     1
 10
2356.647910872789
 20
344.5974058991662
 11
2323.989918311282
 21
344.5974058991662
 72
     1
 10
2323.989918311282
 20
344.5974058991662
 11
2323.989918311282
 21
304.8670971915081
 72
     1
 10
2323.989918311282
 20
304.8670971915081
 11
2340.243226420216
 21
304.8670971915081
 72
     1
 10
2340.243226420216
 20
304.8670971915081
 11
2340.243226420216
 21
319.3144821747094
 97
        0
 92
        0
 93
        6
 72
     3
 10
2350.175803596967
 20
331.9559440369547
 11
9.932577177641511
 21
0.0
 40
0.5895245510672578
 50
316.3365658560252
 51
403.663434144226
 73
     0
 72
     2
 10
2352.923880980421
 20
333.7618671600596
 40
7.223692492544108
 50
69.99121011132742
 51
90.0
 73
     0
 72
     1
 10
2352.923880980421
 20
326.5381746675155
 11
2340.243226419814
 21
326.5381746675155
 72
     1
 10
2340.243226419814
 20
326.5381746675155
 11
2340.243226419814
 21
337.37371340629
 72
     1
 10
2340.243226419814
 20
337.37371340629
 11
2352.923880981012
 21
337.37371340629
 72
     2
 10
2352.923880981012
 20
330.150020915474
 40
7.223692490816113
 50
270.0000000000008
 51
290.0087898889545
 73
     0
 97
        0
 75
     0
 76
     1
 98
        1
 10
0.0
 20
0.0
  0
HATCH
  5
75
330
1F
100
AcDbEntity
  8
0
  6
Continuous
 62
     7
100
AcDbHatch
 10
0.0
 20
0.0
 30
0.0
210
0.0
220
0.0
230
1.0
  2
SOLID
 70
     1
 71
     0
 91
        1
 92
        0
 93
       12
 72
     1
 10
2435.957151948124
 20
344.59740589754
 11
2381.779458253796
 21
344.59740589754
 72
     1
 10
2381.779458253796
 20
344.59740589754
 11
2381.779458253796
 21
304.867097189882
 72
     1
 10
2381.779458253796
 20
304.867097189882
 11
2435.957151948124
 21
304.867097189882
 72
     1
 10
2435.957151948124
 20
304.867097189882
 11
2435.957151948124
 21
312.09078967967
 72
     1
 10
2435.957151948124
 20
312.09078967967
 11
2399.838689485178
 21
312.09078967967
 72
     1
 10
2399.838689485178
 20
312.09078967967
 11
2399.838689485178
 21
321.1204052953607
 72
     1
 10
2399.838689485178
 20
321.1204052953607
 11
2432.345305703229
 21
321.1204052953607
 72
     1
 10
2432.345305703229
 20
321.1204052953607
 11
2432.345305703229
 21
328.344097788605
 72
     1
 10
2432.345305703229
 20
328.344097788605
 11
2399.838689485178
 21
328.344097788605
 72
     1
 10
2399.838689485178
 20
328.344097788605
 11
2399.838689485178
 21
337.3737134042958
 72
     1
 10
2399.838689485178
 20
337.3737134042958
 11
2435.957151948124
 21
337.3737134042958
 72
     1
 10
2435.957151948124
 20
337.3737134042958
 11
2435.957151948124
 21
344.59740589754
 97
        0
 75
     0
 76
     1
 98
        1
 10
0.0
 20
0.0
  0
HATCH
  5
76
330
1F
100
AcDbEntity
  8
0
  6
Continuous
 62
     7
100
AcDbHatch
 10
0.0
 20
0.0
 30
0.0
210
0.0
220
0.0
230
1.0
  2
SOLID
 70
     1
 71
     0
 91
        1
 92
        0
 93
        6
 72
     1
 10
2645.444234240045
 20
344.597405899586
 11
2627.385003008663
 21
344.597405899586
 72
     1
 10
2627.385003008663
 20
344.597405899586
 11
2627.385003008663
 21
304.8670971919279
 72
     1
 10
2627.385003008663
 20
304.8670971919279
 11
2676.14492733565
 21
304.8670971919279
 72
     1
 10
2676.14492733565
 20
304.8670971919279
 11
2676.14492733565
 21
313.8967128076189
 72
     1
 10
2676.14492733565
 20
313.8967128076189
 11
2645.444234240045
 21
313.8967128076189
 72
     1
 10
2645.444234240045
 20
313.8967128076189
 11
2645.444234240045
 21
344.597405899586
 97
        0
 75
     0
 76
     1
 98
        1
 10
0.0
 20
0.0
  0
HATCH
  5
77
330
1F
100
AcDbEntity
  8
0
  6
Continuous
 62
     7
100
AcDbHatch
 10
0.0
 20
0.0
 30
0.0
210
0.0
220
0.0
230
1.0
  2
SOLID
 70
     1
 71
     0
 91
        1
 92
        0
 93
        4
 72
     1
 10
2677.950850457337
 20
344.5974058991659
 11
2677.950850457337
 21
304.8670971915079
 72
     1
 10
2677.950850457337
 20
304.8670971915079
 11
2696.010081688719
 21
304.8670971915079
 72
     1
 10
2696.010081688719
 20
304.8670971915079
 11
2696.010081688719
 21
344.5974058991659
 72
     1
 10
2696.010081688719
 20
344.5974058991659
 11
2677.950850457337
 21
344.5974058991659
 97
        0
 75
     0
 76
     1
 98
        1
 10
0.0
 20
0.0
  0
HATCH
  5
78
330
1F
100
AcDbEntity
  8
0
  6
Continuous
 62
     7
100
AcDbHatch
 10
0.0
 20
0.0
 30
0.0
210
0.0
220
0.0
230
1.0
  2
SOLID
 70
     1
 71
     0
 91
        2
 92
        0
 93
        4
 72
     3
 10
2468.463768165085
 20
324.7322515426197
 11
28.89476997115586
 21
0.0
 40
0.6929224243374513
 50
280.2934314618138
 51
439.7065685387129
 73
     1
 72
     1
 10
2472.071526001564
 20
344.5974058975816
 11
2439.568998196665
 21
344.5974058975813
 72
     1
 10
2439.568998196665
 20
344.5974058975813
 11
2439.568998196665
 21
304.8670971876741
 72
     1
 10
2439.568998196665
 20
304.8670971876741
 11
2472.071526001749
 21
304.8670971876741
 97
        0
 92
        0
 93
        6
 72
     2
 10
2472.947172767998
 20
324.7322515421808
 40
10.83553873998016
 50
56.16906508602374
 51
90.0
 73
     0
 72
     1
 10
2472.947172767998
 20
313.8967128022008
 11
2455.82230630316
 21
313.8967128022008
 72
     1
 10
2455.82230630316
 20
313.8967128022008
 11
2455.82230630316
 21
335.5677902826995
 72
     1
 10
2455.82230630316
 20
335.5677902826995
 11
2472.947172767998
 21
335.5677902826995
 72
     2
 10
2472.947172767998
 20
324.7322515421808
 40
10.83553874051871
 50
270.0000000000008
 51
303.8314447476077
 73
     0
 72
     3
 10
2462.14303723761
 20
324.7322515426197
 11
22.57403904004612
 21
0.0
 40
0.5985848325441405
 50
331.8713554011807
 51
388.1288999924611
 73
     0
 97
        0
 75
     0
 76
     1
 98
        1
 10
0.0
 20
0.0
  0
HATCH
  5
79
330
1F
100
AcDbEntity
  8
0
  6
Continuous
 62
     7
100
AcDbHatch
 10
0.0
 20
0.0
 30
0.0
210
0.0
220
0.0
230
1.0
  2
SOLID
 70
     1
 71
     0
 91
        3
 92
        0
 93
       19
 72
     1
 10
2558.870202192612
 20
314.7709579586855
 11
2560.355534650718
 21
308.9676544182703
 72
     2
 10
2565.453566637579
 20
310.114383967383
 40
5.225410873593411
 50
192.6768785101394
 51
204.7368873206736
 73
     1
 72
     1
 10
2560.707644877863
 20
307.927800914186
 11
2584.042848052473
 21
344.597405899586
 72
     1
 10
2584.042848052473
 20
344.597405899586
 11
2602.102079283856
 21
344.597405899586
 72
     1
 10
2602.102079283856
 20
344.597405899586
 11
2627.385003008663
 21
304.8670971919279
 72
     1
 10
2627.385003008663
 20
304.8670971919279
 11
2609.325771777099
 21
304.8670971919279
 72
     1
 10
2609.325771777099
 20
304.8670971919279
 11
2605.262444749956
 21
312.090789681716
 72
     1
 10
2605.262444749956
 20
312.090789681716
 11
2580.882482586372
 21
312.090789681716
 72
     1
 10
2580.882482586372
 20
312.090789681716
 11
2576.819155559229
 21
304.8670971919279
 72
     1
 10
2576.819155559229
 20
304.8670971919279
 11
2546.118462463106
 21
304.8670971919279
 72
     1
 10
2546.118462463106
 20
304.8670971919279
 11
2546.118462463106
 21
312.0907896826544
 72
     2
 10
2538.894769969861
 20
312.0907896826544
 40
7.223692493244227
 50
0.0
 51
90.0
 73
     1
 72
     1
 10
2538.894769969861
 20
319.3144821758984
 11
2520.835538738298
 21
319.3144821758984
 72
     1
 10
2520.835538738298
 20
319.3144821758984
 11
2520.835538738298
 21
304.8670971928664
 72
     1
 10
2520.835538738298
 20
304.8670971928664
 11
2504.582230629363
 21
304.8670971928664
 72
     1
 10
2504.582230629363
 20
304.8670971928664
 11
2504.582230629363
 21
344.5974059005244
 72
     1
 10
2504.582230629363
 20
344.5974059005244
 11
2542.019258305786
 21
344.5974059005244
 72
     3
 10
2538.029947706919
 20
332.9364020822968
 11
24.32666622535162
 21
0.0
 40
0.4859291160023137
 50
288.8861745463018
 51
398.6942257036357
 73
     0
 72
     2
 10
2549.037584929584
 20
312.9627960708336
 40
9.997490267756193
 50
279.2678272406082
 51
349.5800515720779
 73
     0
 97
        0
 92
        0
 93
        3
 72
     1
 10
2593.072463667404
 20
333.7618671594018
 11
2584.945809612937
 21
319.3144821729139
 72
     1
 10
2584.945809612937
 20
319.3144821729139
 11
2601.199117721872
 21
319.3144821729139
 72
     1
 10
2601.199117721872
 20
319.3144821729139
 11
2593.072463667404
 21
333.7618671594018
 97
        0
 92
        0
 93
        6
 72
     2
 10
2538.478172418671
 20
331.9559440374287
 40
5.417769370214362
 50
270.0000000000008
 51
305.5869104965606
 73
     1
 72
     3
 10
2532.574039041056
 20
331.9559440369547
 11
11.73850030081747
 21
0.0
 40
0.5900077182209745
 50
334.058541690378
 51
385.9414583083995
 73
     1
 72
     2
 10
2538.478172418671
 20
331.9559440374287
 40
5.417769369443226
 50
54.41308949502037
 51
90.0
 73
     1
 72
     1
 10
2538.478172418671
 20
337.3737134068722
 11
2520.835538737718
 21
337.3737134068722
 72
     1
 10
2520.835538737718
 20
337.3737134068722
 11
2520.835538737718
 21
326.538174667214
 72
     1
 10
2520.835538737718
 20
326.538174667214
 11
2538.478172418671
 21
326.5381746672143
 97
        0
 75
     0
 76
     1
 98
        1
 10
0.0
 20
0.0
  0
LINE
  5
7A
330
1F
100
AcDbEntity
  8
0
  6
Continuous
 62
     7
370
    15
100
AcDbLine
 10
2870.0
 20
100.0
 30
0.0
 11
2870.0
 21
2000.0
 31
0.0
  0
LINE
  5
7B
330
1F
100
AcDbEntity
  8
0
  6
Continuous
 62
   179
370
     0
100
AcDbLine
 10
2323.9899183113
 20
344.5974058992
 30
0.0
 11
2323.9899183113
 21
304.8670971915
 31
0.0
  0
LINE
  5
7C
330
1F
100
AcDbEntity
  8
0
  6
Continuous
 62
   179
370
     0
100
AcDbLine
 10
2323.9899183113
 20
344.5974058992
 30
0.0
 11
2356.6479108728
 21
344.5974058992
 31
0.0
  0
LINE
  5
7D
330
1F
100
AcDbEntity
  8
0
  6
Continuous
 62
   179
370
     0
100
AcDbLine
 10
2323.9899183113
 20
304.8670971915
 30
0.0
 11
2340.2432264202
 21
304.8670971915
 31
0.0
  0
LINE
  5
7E
330
1F
100
AcDbEntity
  8
0
  6
Continuous
 62
   179
370
     0
100
AcDbLine
 10
2340.2432264202
 20
304.8670971915
 30
0.0
 11
2340.2432264202
 21
319.3144821747
 31
0.0
  0
LINE
  5
7F
330
1F
100
AcDbEntity
  8
0
  6
Continuous
 62
   179
370
     0
100
AcDbLine
 10
2356.6479108724
 20
319.3144821747
 30
0.0
 11
2340.2432264202
 21
319.3144821747
 31
0.0
  0
LINE
  5
80
330
1F
100
AcDbEntity
  8
0
  6
Continuous
 62
   179
370
     0
100
AcDbLine
 10
2340.2432264198
 20
326.5381746675
 30
0.0
 11
2340.2432264198
 21
337.3737134063
 31
0.0
  0
LINE
  5
81
330
1F
100
AcDbEntity
  8
0
  6
Continuous
 62
   179
370
     0
100
AcDbLine
 10
2340.2432264198
 20
337.3737134063
 30
0.0
 11
2352.923880981
 21
337.3737134063
 31
0.0
  0
LINE
  5
82
330
1F
100
AcDbEntity
  8
0
  6
Continuous
 62
   179
370
     0
100
AcDbLine
 10
2340.2432264198
 20
326.5381746675
 30
0.0
 11
2352.9238809804
 21
326.5381746675
 31
0.0
  0
LINE
  5
83
330
1F
100
AcDbEntity
  8
0
  6
Continuous
 62
   179
370
     0
100
AcDbLine
 10
2381.7794582538
 20
344.5974058975
 30
0.0
 11
2435.9571519481
 21
344.5974058975
 31
0.0
  0
LINE
  5
84
330
1F
100
AcDbEntity
  8
0
  6
Continuous
 62
   179
370
     0
100
AcDbLine
 10
2435.9571519481
 20
344.5974058975
 30
0.0
 11
2435.9571519481
 21
337.3737134043
 31
0.0
  0
LINE
  5
85
330
1F
100
AcDbEntity
  8
0
  6
Continuous
 62
   179
370
     0
100
AcDbLine
 10
2435.9571519481
 20
337.3737134043
 30
0.0
 11
2399.8386894852
 21
337.3737134043
 31
0.0
  0
LINE
  5
86
330
1F
100
AcDbEntity
  8
0
  6
Continuous
 62
   179
370
     0
100
AcDbLine
 10
2399.8386894852
 20
337.3737134043
 30
0.0
 11
2399.8386894852
 21
328.3440977886
 31
0.0
  0
LINE
  5
87
330
1F
100
AcDbEntity
  8
0
  6
Continuous
 62
   179
370
     0
100
AcDbLine
 10
2399.8386894852
 20
328.3440977886
 30
0.0
 11
2432.3453057032
 21
328.3440977886
 31
0.0
  0
LINE
  5
88
330
1F
100
AcDbEntity
  8
0
  6
Continuous
 62
   179
370
     0
100
AcDbLine
 10
2432.3453057032
 20
328.3440977886
 30
0.0
 11
2432.3453057032
 21
321.1204052954
 31
0.0
  0
LINE
  5
89
330
1F
100
AcDbEntity
  8
0
  6
Continuous
 62
   179
370
     0
100
AcDbLine
 10
2432.3453057032
 20
321.1204052954
 30
0.0
 11
2399.8386894852
 21
321.1204052954
 31
0.0
  0
LINE
  5
8A
330
1F
100
AcDbEntity
  8
0
  6
Continuous
 62
   179
370
     0
100
AcDbLine
 10
2399.8386894852
 20
321.1204052954
 30
0.0
 11
2399.8386894852
 21
312.0907896797
 31
0.0
  0
LINE
  5
8B
330
1F
100
AcDbEntity
  8
0
  6
Continuous
 62
   179
370
     0
100
AcDbLine
 10
2399.8386894852
 20
312.0907896797
 30
0.0
 11
2435.9571519481
 21
312.0907896797
 31
0.0
  0
LINE
  5
8C
330
1F
100
AcDbEntity
  8
0
  6
Continuous
 62
   179
370
     0
100
AcDbLine
 10
2435.9571519481
 20
312.0907896797
 30
0.0
 11
2435.9571519481
 21
304.8670971899
 31
0.0
  0
LINE
  5
8D
330
1F
100
AcDbEntity
  8
0
  6
Continuous
 62
   179
370
     0
100
AcDbLine
 10
2435.9571519481
 20
304.8670971899
 30
0.0
 11
2381.7794582538
 21
304.8670971899
 31
0.0
  0
LINE
  5
8E
330
1F
100
AcDbEntity
  8
0
  6
Continuous
 62
   179
370
     0
100
AcDbLine
 10
2439.5689981967
 20
344.5974058976
 30
0.0
 11
2439.5689981967
 21
304.8670971877
 31
0.0
  0
LINE
  5
8F
330
1F
100
AcDbEntity
  8
0
  6
Continuous
 62
   179
370
     0
100
AcDbLine
 10
2439.5689981967
 20
344.5974058976
 30
0.0
 11
2472.0715260016
 21
344.5974058976
 31
0.0
  0
LINE
  5
90
330
1F
100
AcDbEntity
  8
0
  6
Continuous
 62
   179
370
     0
100
AcDbLine
 10
2472.0715260017
 20
304.8670971877
 30
0.0
 11
2439.5689981967
 21
304.8670971877
 31
0.0
  0
LINE
  5
91
330
1F
100
AcDbEntity
  8
0
  6
Continuous
 62
   179
370
     0
100
AcDbLine
 10
2455.8223063032
 20
324.7322515403
 30
0.0
 11
2455.8223063032
 21
313.8967128022
 31
0.0
  0
LINE
  5
92
330
1F
100
AcDbEntity
  8
0
  6
Continuous
 62
   179
370
     0
100
AcDbLine
 10
2455.8223063032
 20
313.8967128022
 30
0.0
 11
2472.947172768
 21
313.8967128022
 31
0.0
  0
LINE
  5
93
330
1F
100
AcDbEntity
  8
0
  6
Continuous
 62
   179
370
     0
100
AcDbLine
 10
2455.8223063032
 20
324.7322515403
 30
0.0
 11
2455.8223063032
 21
335.5677902827
 31
0.0
  0
LINE
  5
94
330
1F
100
AcDbEntity
  8
0
  6
Continuous
 62
   179
370
     0
100
AcDbLine
 10
2455.8223063032
 20
335.5677902827
 30
0.0
 11
2472.947172768
 21
335.5677902827
 31
0.0
  0
LINE
  5
95
330
1F
100
AcDbEntity
  8
0
  6
Continuous
 62
   179
370
     0
100
AcDbLine
 10
2504.5822306294
 20
344.5974059005
 30
0.0
 11
2504.5822306294
 21
304.8670971929
 31
0.0
  0
LINE
  5
96
330
1F
100
AcDbEntity
  8
0
  6
Continuous
 62
     7
370
     0
100
AcDbLine
 10
2728.7989947508
 20
280.0000000004
 30
0.0
 11
2728.7989947508
 21
190.0000000002
 31
0.0
  0
LINE
  5
97
330
1F
100
AcDbEntity
  8
0
  6
Continuous
 62
   179
370
     0
100
AcDbLine
 10
2504.5822306294
 20
304.8670971929
 30
0.0
 11
2520.8355387383
 21
304.8670971929
 31
0.0
  0
LINE
  5
98
330
1F
100
AcDbEntity
  8
0
  6
Continuous
 62
   179
370
     0
100
AcDbLine
 10
2520.8355387383
 20
304.8670971929
 30
0.0
 11
2520.8355387383
 21
319.3144821759
 31
0.0
  0
LINE
  5
99
330
1F
100
AcDbEntity
  8
0
  6
Continuous
 62
   179
370
     0
100
AcDbLine
 10
2520.8355387383
 20
319.3144821759
 30
0.0
 11
2538.8947699699
 21
319.3144821759
 31
0.0
  0
LINE
  5
9A
330
1F
100
AcDbEntity
  8
0
  6
Continuous
 62
   179
370
     0
100
AcDbLine
 10
2546.1184624631
 20
312.0907896827
 30
0.0
 11
2546.1184624631
 21
304.8670971919
 31
0.0
  0
LINE
  5
9B
330
1F
100
AcDbEntity
  8
0
  6
Continuous
 62
   179
370
     0
100
AcDbLine
 10
2520.8355387377
 20
326.5381746672
 30
0.0
 11
2520.8355387377
 21
337.3737134069
 31
0.0
  0
LINE
  5
9C
330
1F
100
AcDbEntity
  8
0
  6
Continuous
 62
   179
370
     0
100
AcDbLine
 10
2520.8355387377
 20
337.3737134069
 30
0.0
 11
2538.4781724187
 21
337.3737134069
 31
0.0
  0
LINE
  5
9D
330
1F
100
AcDbEntity
  8
0
  6
Continuous
 62
   179
370
     0
100
AcDbLine
 10
2520.8355387377
 20
326.5381746672
 30
0.0
 11
2538.4781724187
 21
326.5381746672
 31
0.0
  0
LINE
  5
9E
330
1F
100
AcDbEntity
  8
0
  6
Continuous
 62
   179
370
     0
100
AcDbLine
 10
2558.8702021926
 20
314.7709579587
 30
0.0
 11
2560.3555346507
 21
308.9676544183
 31
0.0
  0
LINE
  5
9F
330
1F
100
AcDbEntity
  8
0
  6
Continuous
 62
     7
370
    15
100
AcDbLine
 10
2870.0
 20
2000.0
 30
0.0
 11
100.0
 21
2000.0
 31
0.0
  0
LINE
  5
A0
330
1F
100
AcDbEntity
  8
0
  6
Continuous
 62
     7
370
     0
100
AcDbLine
 10
2728.7989947508
 20
190.0000000002
 30
0.0
 11
2728.7989947508
 21
100.0
 31
0.0
  0
LINE
  5
A1
330
1F
100
AcDbEntity
  8
0
  6
Continuous
 62
     7
370
    15
100
AcDbLine
 10
100.0
 20
2000.0
 30
0.0
 11
100.0
 21
100.0
 31
0.0
  0
LINE
  5
A2
330
1F
100
AcDbEntity
  8
0
  6
Continuous
 62
     7
370
    15
100
AcDbLine
 10
2150.0
 20
370.0000000006
 30
0.0
 11
2870.0
 21
370.0000000006
 31
0.0
  0
LINE
  5
A3
330
1F
100
AcDbEntity
  8
0
  6
Continuous
 62
    19
370
     0
100
AcDbLine
 10
2795.2884126839
 20
160.2788043096
 30
0.0
 11
2763.4182663121
 21
154.0818314039
 31
0.0
  0
LINE
  5
A4
330
1F
100
AcDbEntity
  8
0
  6
Continuous
 62
    19
370
     0
100
AcDbLine
 10
2821.3505851521
 20
165.4881573907
 30
0.0
 11
2821.3505851521
 21
124.881030118
 31
0.0
  0
LINE
  5
A5
330
1F
100
AcDbEntity
  8
0
  6
Continuous
 62
    19
370
     0
100
AcDbLine
 10
2795.2884126839
 20
160.2788043096
 30
0.0
 11
2795.2884126839
 21
130.0903831992
 31
0.0
  0
LINE
  5
A6
330
1F
100
AcDbEntity
  8
0
  6
Continuous
 62
     7
370
    15
100
AcDbLine
 10
100.0
 20
100.0
 30
0.0
 11
2870.0
 21
100.0
 31
0.0
  0
LINE
  5
A7
330
1F
100
AcDbEntity
  8
0
  6
Continuous
 62
    19
370
     0
100
AcDbLine
 10
2763.4182663121
 20
154.0818314039
 30
0.0
 11
2763.4182663121
 21
136.2873561048
 31
0.0
  0
LINE
  5
A8
330
1F
100
AcDbEntity
  8
0
  6
Continuous
 62
   179
370
     0
100
AcDbLine
 10
2546.1184624631
 20
304.8670971919
 30
0.0
 11
2576.8191555592
 21
304.8670971919
 31
0.0
  0
LINE
  5
A9
330
1F
100
AcDbEntity
  8
0
  6
Continuous
 62
    19
370
     0
100
AcDbLine
 10
2795.2884126839
 20
130.0903831992
 30
0.0
 11
2763.4182663121
 21
136.2873561048
 31
0.0
  0
LINE
  5
AA
330
1F
100
AcDbEntity
  8
0
  6
CENTERX2
 62
    19
370
     0
100
AcDbLine
 10
2838.9207124248
 20
145.1845937544
 30
0.0
 11
2759.4518690643
 21
145.1845937544
 31
0.0
  0
LINE
  5
AB
330
1F
100
AcDbEntity
  8
0
  6
Continuous
 62
   179
370
     0
100
AcDbLine
 10
2504.5822306294
 20
344.5974059005
 30
0.0
 11
2542.0192583058
 21
344.5974059005
 31
0.0
  0
LINE
  5
AC
330
1F
100
AcDbEntity
  8
0
  6
Continuous
 62
   179
370
     0
100
AcDbLine
 10
2381.7794582538
 20
344.5974058975
 30
0.0
 11
2381.7794582538
 21
304.8670971899
 31
0.0
  0
LINE
  5
AD
330
1F
100
AcDbEntity
  8
0
  6
Continuous
 62
   179
370
     0
100
AcDbLine
 10
2584.0428480525
 20
344.5974058996
 30
0.0
 11
2602.1020792839
 21
344.5974058996
 31
0.0
  0
LINE
  5
AE
330
1F
100
AcDbEntity
  8
0
  6
Continuous
 62
   179
370
     0
100
AcDbLine
 10
2584.0428480525
 20
344.5974058996
 30
0.0
 11
2560.7076448779
 21
307.9278009142
 31
0.0
  0
LINE
  5
AF
330
1F
100
AcDbEntity
  8
0
  6
Continuous
 62
   179
370
     0
100
AcDbLine
 10
2576.8191555592
 20
304.8670971919
 30
0.0
 11
2580.8824825864
 21
312.0907896817
 31
0.0
  0
LINE
  5
B0
330
1F
100
AcDbEntity
  8
0
  6
Continuous
 62
   179
370
     0
100
AcDbLine
 10
2593.0724636674
 20
333.7618671594
 30
0.0
 11
2601.1991177219
 21
319.3144821729
 31
0.0
  0
LINE
  5
B1
330
1F
100
AcDbEntity
  8
0
  6
Continuous
 62
   179
370
     0
100
AcDbLine
 10
2584.9458096129
 20
319.3144821729
 30
0.0
 11
2593.0724636674
 21
333.7618671594
 31
0.0
  0
LINE
  5
B2
330
1F
100
AcDbEntity
  8
0
  6
Continuous
 62
   179
370
     0
100
AcDbLine
 10
2584.9458096129
 20
319.3144821729
 30
0.0
 11
2601.1991177219
 21
319.3144821729
 31
0.0
  0
LINE
  5
B3
330
1F
100
AcDbEntity
  8
0
  6
Continuous
 62
   179
370
     0
100
AcDbLine
 10
2580.8824825864
 20
312.0907896817
 30
0.0
 11
2605.26244475
 21
312.0907896817
 31
0.0
  0
LINE
  5
B4
330
1F
100
AcDbEntity
  8
0
  6
Continuous
 62
   179
370
     0
100
AcDbLine
 10
2605.26244475
 20
312.0907896817
 30
0.0
 11
2609.3257717771
 21
304.8670971919
 31
0.0
  0
LINE
  5
B5
330
1F
100
AcDbEntity
  8
0
  6
Continuous
 62
   179
370
     0
100
AcDbLine
 10
2627.3850030087
 20
344.5974058996
 30
0.0
 11
2627.3850030087
 21
304.8670971919
 31
0.0
  0
LINE
  5
B6
330
1F
100
AcDbEntity
  8
0
  6
Continuous
 62
   179
370
     0
100
AcDbLine
 10
2602.1020792839
 20
344.5974058996
 30
0.0
 11
2627.3850030087
 21
304.8670971919
 31
0.0
  0
LINE
  5
B7
330
1F
100
AcDbEntity
  8
0
  6
Continuous
 62
   179
370
     0
100
AcDbLine
 10
2609.3257717771
 20
304.8670971919
 30
0.0
 11
2627.3850030087
 21
304.8670971919
 31
0.0
  0
LINE
  5
B8
330
1F
100
AcDbEntity
  8
0
  6
Continuous
 62
   179
370
     0
100
AcDbLine
 10
2627.3850030087
 20
304.8670971919
 30
0.0
 11
2676.1449273357
 21
304.8670971919
 31
0.0
  0
LINE
  5
B9
330
1F
100
AcDbEntity
  8
0
  6
Continuous
 62
   179
370
     0
100
AcDbLine
 10
2676.1449273357
 20
304.8670971919
 30
0.0
 11
2676.1449273357
 21
313.8967128076
 31
0.0
  0
LINE
  5
BA
330
1F
100
AcDbEntity
  8
0
  6
Continuous
 62
   179
370
     0
100
AcDbLine
 10
2676.1449273357
 20
313.8967128076
 30
0.0
 11
2645.44423424
 21
313.8967128076
 31
0.0
  0
LINE
  5
BB
330
1F
100
AcDbEntity
  8
0
  6
Continuous
 62
   179
370
     0
100
AcDbLine
 10
2645.44423424
 20
313.8967128076
 30
0.0
 11
2645.44423424
 21
344.5974058996
 31
0.0
  0
LINE
  5
BC
330
1F
100
AcDbEntity
  8
0
  6
Continuous
 62
   179
370
     0
100
AcDbLine
 10
2627.3850030087
 20
344.5974058996
 30
0.0
 11
2645.44423424
 21
344.5974058996
 31
0.0
  0
LINE
  5
BD
330
1F
100
AcDbEntity
  8
0
  6
Continuous
 62
   179
370
     0
100
AcDbLine
 10
2677.9508504573
 20
344.5974058992
 30
0.0
 11
2677.9508504573
 21
304.8670971915
 31
0.0
  0
LINE
  5
BE
330
1F
100
AcDbEntity
  8
0
  6
Continuous
 62
   179
370
     0
100
AcDbLine
 10
2696.0100816887
 20
344.5974058992
 30
0.0
 11
2696.0100816887
 21
304.8670971915
 31
0.0
  0
LINE
  5
BF
330
1F
100
AcDbEntity
  8
0
  6
Continuous
 62
   179
370
     0
100
AcDbLine
 10
2677.9508504573
 20
344.5974058992
 30
0.0
 11
2696.0100816887
 21
344.5974058992
 31
0.0
  0
LINE
  5
C0
330
1F
100
AcDbEntity
  8
0
  6
Continuous
 62
   179
370
     0
100
AcDbLine
 10
2677.9508504573
 20
304.8670971915
 30
0.0
 11
2696.0100816887
 21
304.8670971915
 31
0.0
  0
LINE
  5
C1
330
1F
100
AcDbEntity
  8
0
  6
Continuous
 62
   179
370
     0
100
AcDbLine
 10
2704.1151644241
 20
341.2930554229
 30
0.0
 11
2708.2866879839
 21
341.2930554229
 31
0.0
  0
LINE
  5
C2
330
1F
100
AcDbEntity
  8
0
  6
Continuous
 62
   179
370
     0
100
AcDbLine
 10
2708.2866879839
 20
338.5841707372
 30
0.0
 11
2704.1151644241
 21
338.5841707372
 31
0.0
  0
LINE
  5
C3
330
1F
100
AcDbEntity
  8
0
  6
Continuous
 62
   179
370
     0
100
AcDbLine
 10
2704.1151644241
 20
338.5841707372
 30
0.0
 11
2704.1151644241
 21
341.2930554229
 31
0.0
  0
LINE
  5
C4
330
1F
100
AcDbEntity
  8
0
  6
Continuous
 62
   179
370
     0
100
AcDbLine
 10
2704.1151644241
 20
338.5841707372
 30
0.0
 11
2706.8240491077
 21
338.5841707372
 31
0.0
  0
LINE
  5
C5
330
1F
100
AcDbEntity
  8
0
  6
Continuous
 62
   179
370
     0
100
AcDbLine
 10
2704.1151644241
 20
338.5841707372
 30
0.0
 11
2704.1151644241
 21
334.5208437117
 31
0.0
  0
LINE
  5
C6
330
1F
100
AcDbEntity
  8
0
  6
Continuous
 62
   179
370
     0
100
AcDbLine
 10
2709.5329337914
 20
334.5208437117
 30
0.0
 11
2706.8240491077
 21
338.5841707372
 31
0.0
  0
LINE
  5
C7
330
1F
100
AcDbEntity
  8
0
  6
Continuous
 62
     7
370
     0
100
AcDbLine
 10
2150.0
 20
190.0000000002
 30
0.0
 11
2870.0
 21
190.0000000002
 31
0.0
  0
LINE
  5
C8
330
1F
100
AcDbEntity
  8
0
  6
Continuous
 62
     7
370
     0
100
AcDbLine
 10
2870.0
 20
280.0000000004
 30
0.0
 11
2150.0
 21
280.0000000004
 31
0.0
  0
LINE
  5
C9
330
1F
100
AcDbEntity
  8
0
  6
Continuous
 62
     7
370
     0
100
AcDbLine
 10
100.0
 20
550.0
 30
0.0
 11
100.0
 21
650.0
 31
0.0
  0
LINE
  5
CA
330
1F
100
AcDbEntity
  8
0
  6
Continuous
 62
     7
370
     0
100
AcDbLine
 10
100.0
 20
650.0
 30
0.0
 11
100.0
 21
750.0
 31
0.0
  0
LINE
  5
CB
330
1F
100
AcDbEntity
  8
0
  6
Continuous
 62
     7
370
     0
100
AcDbLine
 10
100.0
 20
750.0
 30
0.0
 11
100.0
 21
850.0
 31
0.0
  0
LINE
  5
CC
330
1F
100
AcDbEntity
  8
0
  6
Continuous
 62
     7
370
     0
100
AcDbLine
 10
100.0
 20
850.0
 30
0.0
 11
100.0
 21
950.0
 31
0.0
  0
LINE
  5
CD
330
1F
100
AcDbEntity
  8
0
  6
Continuous
 62
     7
370
     0
100
AcDbLine
 10
100.0
 20
950.0
 30
0.0
 11
100.0
 21
1050.0
 31
0.0
  0
LINE
  5
CE
330
1F
100
AcDbEntity
  8
0
  6
Continuous
 62
     7
370
     0
100
AcDbLine
 10
100.0
 20
1050.0
 30
0.0
 11
100.0
 21
1150.0
 31
0.0
  0
LINE
  5
CF
330
1F
100
AcDbEntity
  8
0
  6
Continuous
 62
     7
370
     0
100
AcDbLine
 10
100.0
 20
1150.0
 30
0.0
 11
100.0
 21
1250.0
 31
0.0
  0
LINE
  5
D0
330
1F
100
AcDbEntity
  8
0
  6
Continuous
 62
     7
370
     0
100
AcDbLine
 10
100.0
 20
1250.0
 30
0.0
 11
100.0
 21
1350.0
 31
0.0
  0
LINE
  5
D1
330
1F
100
AcDbEntity
  8
0
  6
Continuous
 62
     7
370
     0
100
AcDbLine
 10
100.0
 20
1350.0
 30
0.0
 11
100.0
 21
1450.0
 31
0.0
  0
LINE
  5
D2
330
1F
100
AcDbEntity
  8
0
  6
Continuous
 62
     7
370
     0
100
AcDbLine
 10
100.0
 20
1450.0
 30
0.0
 11
100.0
 21
1550.0
 31
0.0
  0
LINE
  5
D3
330
1F
100
AcDbEntity
  8
0
  6
Continuous
 62
     7
370
    15
100
AcDbLine
 10
2150.0
 20
370.0000000006
 30
0.0
 11
2150.0
 21
100.0
 31
0.0
  0
ARC
  5
D4
330
1F
100
AcDbEntity
  8
0
  6
Continuous
 62
   179
370
     0
100
AcDbCircle
 10
2352.923880981
 20
330.1500209155
 30
0.0
 40
7.223692490816169
100
AcDbArc
 50
69.991210111
 51
90.0
  0
ARC
  5
D5
330
1F
100
AcDbEntity
  8
0
  6
Continuous
 62
   179
370
     0
100
AcDbCircle
 10
2352.9238809804
 20
333.7618671601
 30
0.0
 40
7.223692492544103
100
AcDbArc
 50
270.0
 51
290.0087898887
  0
ARC
  5
D6
330
1F
100
AcDbEntity
  8
0
  6
Continuous
 62
   179
370
     0
100
AcDbCircle
 10
2472.947172768
 20
324.7322515422
 30
0.0
 40
10.8355387405187
100
AcDbArc
 50
56.1685552524
 51
90.0
  0
ARC
  5
D7
330
1F
100
AcDbEntity
  8
0
  6
Continuous
 62
   179
370
     0
100
AcDbCircle
 10
2472.947172768
 20
324.7322515422
 30
0.0
 40
10.83553873998012
100
AcDbArc
 50
270.0
 51
303.830934914
  0
ARC
  5
D8
330
1F
100
AcDbEntity
  8
0
  6
Continuous
 62
   179
370
     0
100
AcDbCircle
 10
2538.8947699699
 20
312.0907896827
 30
0.0
 40
7.223692493244471
100
AcDbArc
 50
0.0
 51
90.0
  0
ARC
  5
D9
330
1F
100
AcDbEntity
  8
0
  6
Continuous
 62
   179
370
     0
100
AcDbCircle
 10
2538.4781724187
 20
331.9559440374
 30
0.0
 40
5.417769369443558
100
AcDbArc
 50
54.413089495
 51
90.0
  0
ARC
  5
DA
330
1F
100
AcDbEntity
  8
0
  6
Continuous
 62
   179
370
     0
100
AcDbCircle
 10
2538.4781724187
 20
331.9559440374
 30
0.0
 40
5.417769370214614
100
AcDbArc
 50
270.0
 51
305.5869104966
  0
ARC
  5
DB
330
1F
100
AcDbEntity
  8
0
  6
Continuous
 62
   179
370
     0
100
AcDbCircle
 10
2549.0375849296
 20
312.9627960708
 30
0.0
 40
9.997490267756625
100
AcDbArc
 50
10.4199484279
 51
80.7321727594
  0
ARC
  5
DC
330
1F
100
AcDbEntity
  8
0
  6
Continuous
 62
   179
370
     0
100
AcDbCircle
 10
2565.4535666376
 20
310.1143839674
 30
0.0
 40
5.225410873593643
100
AcDbArc
 50
192.6768785101
 51
204.7368873207
  0
CIRCLE
  5
DD
330
1F
100
AcDbEntity
  8
0
  6
Continuous
 62
   179
370
     0
100
AcDbCircle
 10
2706.2864208618
 20
337.8675697335
 30
0.0
 40
5.930102145230649
  0
CIRCLE
  5
DE
330
1F
100
AcDbEntity
  8
0
  6
Continuous
 62
    19
370
     0
100
AcDbCircle
 10
2821.3505851521
 20
145.1845937544
 30
0.0
 40
8.587078762764193
  0
CIRCLE
  5
DF
330
1F
100
AcDbEntity
  8
0
  6
Continuous
 62
    19
370
     0
100
AcDbCircle
 10
2821.3505851521
 20
145.1845937544
 30
0.0
 40
16.77593581663705
  0
ELLIPSE
  5
E0
330
1F
100
AcDbEntity
  8
0
  6
Continuous
 62
   179
370
     0
100
AcDbEllipse
 10
2350.175803597
 20
331.955944037
 30
0.0
 11
9.932577177642086
 21
0.0
 31
0.0
210
0.0
220
0.0
230
1.0
 40
0.5895245511
 41
5.265715075739357
 42
7.300655538615938
  0
ELLIPSE
  5
E1
330
1F
100
AcDbEntity
  8
0
  6
Continuous
 62
   179
370
     0
100
AcDbEllipse
 10
2462.1430372376
 20
324.7322515426
 30
0.0
 11
22.57403904004605
 21
0.0
 31
0.0
210
0.0
220
0.0
230
1.0
 40
0.5985848325
 41
5.554193105221712
 42
7.012172182744729
  0
ELLIPSE
  5
E2
330
1F
100
AcDbEntity
  8
0
  6
Continuous
 62
   179
370
     0
100
AcDbEllipse
 10
2532.5740390411
 20
331.955944037
 30
0.0
 11
11.73850030081758
 21
0.0
 31
0.0
210
0.0
220
0.0
230
1.0
 40
0.5900077182
 41
5.593675727225931
 42
6.97269488710657
  0
ELLIPSE
  5
E3
330
1F
100
AcDbEntity
  8
0
  6
Continuous
 62
   179
370
     0
100
AcDbEllipse
 10
2538.0299477069
 20
332.9364020823
 30
0.0
 11
24.3266662253518
 21
0.0
 31
0.0
210
0.0
220
0.0
230
1.0
 40
0.485929116
 41
5.257694056962849
 42
7.689248379254996
  0
ELLIPSE
  5
E4
330
1F
100
AcDbEntity
  8
0
  6
Continuous
 62
   179
370
     0
100
AcDbEllipse
 10
2468.4637681651
 20
324.7322515426
 30
0.0
 11
28.89476997115571
 21
0.0
 31
0.0
210
0.0
220
0.0
230
1.0
 40
0.6929224243
 41
4.837574201223028
 42
7.72879641314261
  0
ELLIPSE
  5
E5
330
1F
100
AcDbEntity
  8
0
  6
Continuous
 62
   179
370
     0
100
AcDbEllipse
 10
2351.0787651571
 20
331.955944037
 30
0.0
 11
27.0888468479834
 21
0.0
 31
0.0
210
0.0
220
0.0
230
1.0
 40
0.4768529109
 41
4.919453630382234
 42
7.646916983963972
  0
ELLIPSE
  5
E6
330
1F
100
AcDbEntity
  8
0
  6
Continuous
 62
   179
370
     0
100
AcDbEllipse
 10
2708.0427484413
 20
339.93861308
 30
0.0
 11
1.490185355941776
 21
0.0
 31
0.0
210
0.0
220
0.0
230
1.0
 40
0.9213369296
 41
4.876826485633947
 42
7.68954412872528
  0
MTEXT
  5
E8
330
1F
100
AcDbEntity
  8
0
  6
Continuous
 62
     7
370
     0
100
AcDbMText
 10
2231.444945447
 20
165.6379924371
 30
0.0
 40
37.0416666667
 41
0.0
 71
     1
 72
     1
  1
2703/A
  7
SLDTEXTSTYLE0
 73
     1
 44
1.0
  0
MTEXT
  5
E9
330
1F
100
AcDbEntity
  8
0
  6
Continuous
 62
     7
370
     0
100
AcDbMText
 10
2158.8845987823
 20
146.3871334973
 30
0.0
 40
18.0
 41
0.0
 71
     1
 72
     1
  1
COD.
  7
SLDTEXTSTYLE0
 73
     1
 44
1.0
  0
MTEXT
  5
EA
330
1F
100
AcDbEntity
  8
0
  6
Continuous
 62
     7
370
     0
100
AcDbMText
 10
107.0855178468
 20
74.7215172182
 30
0.0
 40
18.0
 41
0.0
 71
     1
 72
     1
  1
This document is the property of PEDRALI S.p.A. who willsafeguard its rights according to the civil and penal prevision of the Law.
  7
SLDTEXTSTYLE0
 73
     1
 44
1.0
  0
INSERT
  5
F0
330
1F
100
AcDbEntity
  8
0
  6
Continuous
 62
     7
370
     0
100
AcDbBlockReference
  2
SW_NOTE_0
 10
1440.8605986612
 20
53.5813398756
 30
0.0
  0
MTEXT
  5
F1
330
1F
100
AcDbEntity
  8
0
  6
Continuous
 62
     7
370
     0
100
AcDbMText
 10
2158.8845987823
 20
234.3102099637
 30
0.0
 40
18.0
 41
0.0
 71
     1
 72
     1
  1
SERIE:
  7
SLDTEXTSTYLE0
 73
     1
 44
1.0
  0
MTEXT
  5
F2
330
1F
100
AcDbEntity
  8
0
  6
Continuous
 62
     7
370
     0
100
AcDbMText
 10
2231.444945447
 20
253.5610689035
 30
0.0
 40
37.0416666667
 41
0.0
 71
     1
 72
     1
  1
BABILA
  7
SLDTEXTSTYLE0
 73
     1
 44
1.0
  0
INSERT
  5
F8
330
1F
100
AcDbEntity
  8
0
  6
Continuous
 62
     7
370
     0
100
AcDbBlockReference
  2
SW_NOTE_1
 10
2766.9883061954
 20
242.6632128381
 30
0.0
  0
SPLINE
  5
F9
330
1F
100
AcDbEntity
  8
0
  6
Continuous
 62
     7
370
    15
100
AcDbSpline
210
0.0
220
0.0
230
1.0
 70
     8
 71
     3
 72
    30
 73
    26
 74
     0
 42
0.000000001
 43
0.00000001
 40
0.0
 40
0.0
 40
0.0
 40
0.0
 40
0.0325714423204327
 40
0.0852529166014122
 40
0.1373064342843036
 40
0.1887507780214655
 40
0.2395970423504364
 40
0.2898482926781735
 40
0.339500799054095
 40
0.3885432181853092
 40
0.4369590389762983
 40
0.4847229167835839
 40
0.5317993111173077
 40
0.578147237333245
 40
0.6237083847794115
 40
0.6684160683562065
 40
0.7121815259688169
 40
0.7548958310735193
 40
0.7964240950907004
 40
0.8365910145780663
 40
0.8751736569725068
 40
0.9118825189018962
 40
0.9463204885103077
 40
0.977899477425114
 40
1.0
 40
1.0
 40
1.0
 40
1.0
 10
1582.171009748514
 20
1581.90161615411
 30
0.0
 10
1582.171393956832
 20
1581.989532810039
 30
0.0
 10
1582.172399588677
 20
1582.2196470083
 30
0.0
 10
1582.13663884863
 20
1582.589097476119
 30
0.0
 10
1582.069050239719
 20
1583.005284833777
 30
0.0
 10
1581.969758269503
 20
1583.410209121764
 30
0.0
 10
1581.8421570575
 20
1583.801899515976
 30
0.0
 10
1581.687535432201
 20
1584.178529639782
 30
0.0
 10
1581.507861598102
 20
1584.538414410652
 30
0.0
 10
1581.305084904073
 20
1584.880048346097
 30
0.0
 10
1581.08125346527
 20
1585.202070367341
 30
0.0
 10
1580.83853262888
 20
1585.503304140352
 30
0.0
 10
1580.579216594142
 20
1585.782793877806
 30
0.0
 10
1580.305631145994
 20
1586.03970435625
 30
0.0
 10
1580.020278789682
 20
1586.273495630729
 30
0.0
 10
1579.725706757893
 20
1586.483753400067
 30
0.0
 10
1579.424625990017
 20
1586.670349107107
 30
0.0
 10
1579.119869473553
 20
1586.833368201869
 30
0.0
 10
1578.814440169208
 20
1586.973128993493
 30
0.0
 10
1578.511586033757
 20
1587.090269528587
 30
0.0
 10
1578.214860522664
 20
1587.185650823275
 30
0.0
 10
1577.928297211566
 20
1587.260641970526
 30
0.0
 10
1577.65675997294
 20
1587.316331121236
 30
0.0
 10
1577.421887882299
 20
1587.35387165583
 30
0.0
 10
1577.278146548616
 20
1587.368833648109
 30
0.0
 10
1577.218966453607
 20
1587.374993686436
 30
0.0
  0
SPLINE
  5
FA
330
1F
100
AcDbEntity
  8
0
  6
Continuous
 62
     7
370
    15
100
AcDbSpline
210
0.0
220
0.0
230
1.0
 70
     8
 71
     3
 72
    29
 73
    25
 74
     0
 42
0.000000001
 43
0.00000001
 40
0.0
 40
0.0
 40
0.0
 40
0.0
 40
0.0206703427643979
 40
0.0543422811855322
 40
0.0900746414885215
 40
0.1286893858038622
 40
0.1707431477960825
 40
0.2153188606263143
 40
0.2615945733206974
 40
0.3089934831266585
 40
0.3571490165787953
 40
0.4058251827035553
 40
0.4548722393811955
 40
0.5041899456415367
 40
0.5537097756683524
 40
0.6033840796366023
 40
0.653178276912314
 40
0.7030656318882151
 40
0.7530278154228068
 40
0.8030487506604627
 40
0.8583519199122744
 40
0.9130242592432378
 40
0.9669564775361426
 40
1.0
 40
1.0
 40
1.0
 40
1.0
 10
1267.145888774927
 20
1587.374731984793
 30
0.0
 10
1267.091292241311
 20
1587.369059600706
 30
0.0
 10
1266.947758086345
 20
1587.354146916646
 30
0.0
 10
1266.70775017141
 20
1587.316113238554
 30
0.0
 10
1266.42264315882
 20
1587.257205537361
 30
0.0
 10
1266.11891169483
 20
1587.176527051163
 30
0.0
 10
1265.797764450741
 20
1587.070561102337
 30
0.0
 10
1265.464745529989
 20
1586.936564329196
 30
0.0
 10
1265.128388678112
 20
1586.774331166814
 30
0.0
 10
1264.795595137447
 20
1586.584485691576
 30
0.0
 10
1264.471556414219
 20
1586.368117900827
 30
0.0
 10
1264.160235867275
 20
1586.126469218436
 30
0.0
 10
1263.864749195137
 20
1585.860965193448
 30
0.0
 10
1263.587665445523
 20
1585.573128702528
 30
0.0
 10
1263.331161128441
 20
1585.26459834978
 30
0.0
 10
1263.097105343064
 20
1584.937123607328
 30
0.0
 10
1262.88710939845
 20
1584.59255560735
 30
0.0
 10
1262.702621709359
 20
1584.232811131607
 30
0.0
 10
1262.544771191303
 20
1583.859928346224
 30
0.0
 10
1262.41019098243
 20
1583.462590662867
 30
0.0
 10
1262.303250207744
 20
1583.043583377433
 30
0.0
 10
1262.230253752812
 20
1582.606923002131
 30
0.0
 10
1262.192770223038
 20
1582.225674241655
 30
0.0
 10
1262.193592636274
 20
1581.990815343556
 30
0.0
 10
1262.193905084665
 20
1581.901588563679
 30
0.0
  0
SPLINE
  5
FB
330
1F
100
AcDbEntity
  8
0
  6
Continuous
 62
     7
370
    15
100
AcDbSpline
210
0.0
220
0.0
230
1.0
 70
     8
 71
     3
 72
   153
 73
   149
 74
     0
 42
0.000000001
 43
0.00000001
 40
0.0
 40
0.0
 40
0.0
 40
0.0
 40
0.0043032920184025
 40
0.0089128040455245
 40
0.0131539377972498
 40
0.017026827936322
 40
0.0205316027785004
 40
0.0236682407839051
 40
0.0264368561980503
 40
0.0288375071115889
 40
0.0308701959514609
 40
0.0325350607502666
 40
0.0338320400875636
 40
0.0348160890850455
 40
0.0354295017168155
 40
0.0360158775747816
 40
0.0366355886175373
 40
0.0372886334795993
 40
0.0379749632969487
 40
0.0386946242137672
 40
0.0408454090280246
 40
0.0432481157807842
 40
0.0464368061747455
 40
0.0499648144451
 40
0.0537171053062075
 40
0.059061019071034
 40
0.0647697084460219
 40
0.0708429778589131
 40
0.0772807713880215
 40
0.0842256251772835
 40
0.0915497233714328
 40
0.0992530662294566
 40
0.1073354848857942
 40
0.1157968323307935
 40
0.1246370092248238
 40
0.1338559169822136
 40
0.143453386039546
 40
0.1534293201931688
 40
0.1637836264712794
 40
0.1745161423119406
 40
0.1856195473698803
 40
0.1967718975483446
 40
0.2078002638648805
 40
0.2276971707696076
 40
0.2471782484226759
 40
0.2662440139259981
 40
0.2844157576228202
 40
0.3021943686544352
 40
0.3195802743833461
 40
0.3365738087832783
 40
0.3531752989638167
 40
0.3693850431887109
 40
0.38520331197647
 40
0.3947526277686727
 40
0.4041535509467832
 40
0.4133364320350494
 40
0.4221587627396969
 40
0.4306163905343882
 40
0.4385680296251678
 40
0.446167965790948
 40
0.4534162164625929
 40
0.4603128237495973
 40
0.4656253506737426
 40
0.4707086017003719
 40
0.4755625863535636
 40
0.4783156136139773
 40
0.4809889824946688
 40
0.4834758641694169
 40
0.4856782102942983
 40
0.4876321981430909
 40
0.4892899193957265
 40
0.4906513756727923
 40
0.4918389271838929
 40
0.4933459595914513
 40
0.4952244607945414
 40
0.4974744315382427
 40
0.5000958715130799
 40
0.5030887814114996
 40
0.5064531627819802
 40
0.5101890169459397
 40
0.5142963480870764
 40
0.5187751611415388
 40
0.5236254629291759
 40
0.52839792413293
 40
0.5334825549149437
 40
0.5387614112715073
 40
0.5439911215093647
 40
0.5491643040512361
 40
0.5542809656502337
 40
0.5679482502305095
 40
0.58119521017862
 40
0.5940218940094312
 40
0.6064283170716828
 40
0.6184145167828198
 40
0.6275374216203693
 40
0.636400894234331
 40
0.6450456286359877
 40
0.6536767006481901
 40
0.6623225750768045
 40
0.697486459424022
 40
0.701448670201548
 40
0.7054139821506569
 40
0.7093294565542971
 40
0.7128558465765191
 40
0.7159327320116246
 40
0.7185601270728063
 40
0.7207379543677879
 40
0.722130975607688
 40
0.723247652453699
 40
0.7240880007297814
 40
0.7246519664199481
 40
0.7250616273162126
 40
0.7259158686882226
 40
0.7271658333124681
 40
0.7288115106340235
 40
0.7310138856571533
 40
0.7336705927571586
 40
0.7367816656788826
 40
0.7403471210738154
 40
0.7443670300637372
 40
0.7483918498135743
 40
0.7527880446067305
 40
0.7575557139558216
 40
0.7626949151908806
 40
0.7682056885821236
 40
0.7740881047524094
 40
0.7803422655810545
 40
0.7869682567805113
 40
0.7943086465859883
 40
0.802057340154517
 40
0.8102144670191332
 40
0.8187801447727436
 40
0.8277545518860664
 40
0.8371378323995224
 40
0.8464762080409554
 40
0.856187471323822
 40
0.8662718325558767
 40
0.8767294680786472
 40
0.8875606185485877
 40
0.8987654921291176
 40
0.9103443619184535
 40
0.9222974719445725
 40
0.9352215334277699
 40
0.9485569760340117
 40
0.9623042349986126
 40
0.9764637280707816
 40
0.9910358395066354
 40
1.0
 40
1.0
 40
1.0
 40
1.0
 10
1577.219040959413
 20
1587.374641646503
 30
0.0
 10
1576.775709840178
 20
1587.418618041107
 30
0.0
 10
1575.857500391197
 20
1587.50970016755
 30
0.0
 10
1574.502207169411
 20
1587.64254105436
 30
0.0
 10
1573.191161802075
 20
1587.770031520742
 30
0.0
 10
1571.993854731969
 20
1587.88547348462
 30
0.0
 10
1570.910289222058
 20
1587.9891527667
 30
0.0
 10
1569.940465132222
 20
1588.081302871863
 30
0.0
 10
1569.084387439095
 20
1588.162137120731
 30
0.0
 10
1568.342055955087
 20
1588.231843163964
 30
0.0
 10
1567.713466105207
 20
1588.290590297087
 30
0.0
 10
1567.198622376569
 20
1588.338513248425
 30
0.0
 10
1566.791862758304
 20
1588.376254866132
 30
0.0
 10
1566.493485219313
 20
1588.403874380251
 30
0.0
 10
1566.268357398553
 20
1588.42467372113
 30
0.0
 10
1566.080786586195
 20
1588.441982237082
 30
0.0
 10
1565.889128019479
 20
1588.459645065599
 30
0.0
 10
1565.687162649326
 20
1588.478230266052
 30
0.0
 10
1565.474890947067
 20
1588.497738309527
 30
0.0
 10
1565.108207816121
 20
1588.531379315187
 30
0.0
 10
1564.564562423202
 20
1588.581105556524
 30
0.0
 10
1563.766334225378
 20
1588.653746348815
 30
0.0
 10
1562.826065623655
 20
1588.738791148463
 30
0.0
 10
1561.746580916008
 20
1588.835696193571
 30
0.0
 10
1560.444781134895
 20
1588.951607064951
 30
0.0
 10
1558.917989066565
 20
1589.086164871684
 30
0.0
 10
1557.151669757775
 20
1589.239871460761
 30
0.0
 10
1555.272340649806
 20
1589.401200634795
 30
0.0
 10
1553.265291379692
 20
1589.570983952885
 30
0.0
 10
1551.128969996575
 20
1589.748846925483
 30
0.0
 10
1548.861817188164
 20
1589.934379587765
 30
0.0
 10
1546.476999607452
 20
1590.125965111519
 30
0.0
 10
1543.97451274994
 20
1590.323069726888
 30
0.0
 10
1541.354361210515
 20
1590.52512244221
 30
0.0
 10
1538.616542376789
 20
1590.731528783036
 30
0.0
 10
1535.761056192526
 20
1590.941669815223
 30
0.0
 10
1532.787902737272
 20
1591.154902599071
 30
0.0
 10
1529.69708161217
 20
1591.370551760222
 30
0.0
 10
1526.488593085458
 20
1591.587924151119
 30
0.0
 10
1523.16318407621
 20
1591.806241409279
 30
0.0
 10
1519.754857316426
 20
1592.022602934517
 30
0.0
 10
1516.31549046247
 20
1592.233323922371
 30
0.0
 10
1511.966885620868
 20
1592.490161526479
 30
0.0
 10
1506.756600757445
 20
1592.781876343522
 30
0.0
 10
1500.71425336017
 20
1593.096527499519
 30
0.0
 10
1494.849142380562
 20
1593.379485433351
 30
0.0
 10
1489.159106396791
 20
1593.632960476203
 30
0.0
 10
1483.641970299219
 20
1593.859056860873
 30
0.0
 10
1478.245972499995
 20
1594.061377631123
 30
0.0
 10
1472.971111390155
 20
1594.241180195601
 30
0.0
 10
1467.817389116725
 20
1594.399689777744
 30
0.0
 10
1462.784805847687
 20
1594.538107365307
 30
0.0
 10
1458.481685761621
 20
1594.642796183705
 30
0.0
 10
1454.883052525722
 20
1594.721295717482
 30
0.0
 10
1451.971085239106
 20
1594.779344720878
 30
0.0
 10
1449.134266604708
 20
1594.830668990086
 30
0.0
 10
1446.395004793322
 20
1594.875335903355
 30
0.0
 10
1443.783124201667
 20
1594.913453030468
 30
0.0
 10
1441.297725705447
 20
1594.945677159969
 30
0.0
 10
1438.937475936458
 20
1594.972641403555
 30
0.0
 10
1436.686408263169
 20
1594.995043163571
 30
0.0
 10
1434.672112011956
 20
1595.012264501474
 30
0.0
 10
1432.881927098819
 20
1595.02540127741
 30
0.0
 10
1431.303192524964
 20
1595.035361310036
 30
0.0
 10
1429.989423114552
 20
1595.04235479576
 30
0.0
 10
1428.92513480247
 20
1595.047218050928
 30
0.0
 10
1428.105901662091
 20
1595.050520163914
 30
0.0
 10
1427.343677096694
 20
1595.053204544852
 30
0.0
 10
1426.655926549058
 20
1595.055305197012
 30
0.0
 10
1426.054015590271
 20
1595.05689767097
 30
0.0
 10
1425.5391588708
 20
1595.058072621857
 30
0.0
 10
1425.103648711604
 20
1595.058940176935
 30
0.0
 10
1424.68373871645
 20
1595.059666373748
 30
0.0
 10
1424.21030037005
 20
1595.060362672276
 30
0.0
 10
1423.626872552938
 20
1595.061022150534
 30
0.0
 10
1422.928073003998
 20
1595.061528540121
 30
0.0
 10
1422.113901631071
 20
1595.061723633049
 30
0.0
 10
1421.184358413884
 20
1595.061430306436
 30
0.0
 10
1420.139443374492
 20
1595.060443402075
 30
0.0
 10
1418.979156468163
 20
1595.058530425519
 30
0.0
 10
1417.703497675867
 20
1595.055435147725
 30
0.0
 10
1416.312466868685
 20
1595.050878996285
 30
0.0
 10
1414.852582362299
 20
1595.044745351073
 30
0.0
 10
1413.32998656308
 20
1595.036898286485
 30
0.0
 10
1411.763032890011
 20
1595.027289730793
 30
0.0
 10
1410.148753362518
 20
1595.0157335589
 30
0.0
 10
1408.525319540842
 20
1595.002421718917
 30
0.0
 10
1406.918691179362
 20
1594.987587461859
 30
0.0
 10
1404.438605926285
 20
1594.962163315245
 30
0.0
 10
1401.122773596015
 20
1594.921991244548
 30
0.0
 10
1397.008950141645
 20
1594.861175178463
 30
0.0
 10
1393.025811667557
 20
1594.791992606996
 30
0.0
 10
1389.173356473215
 20
1594.71544010516
 30
0.0
 10
1385.704444814821
 20
1594.638119570474
 30
0.0
 10
1382.602387174035
 20
1594.562483084745
 30
0.0
 10
1379.846283635004
 20
1594.490368995313
 30
0.0
 10
1377.141207875995
 20
1594.414893454919
 30
0.0
 10
1374.458782291267
 20
1594.335456212386
 30
0.0
 10
1369.03238973081
 20
1594.165469193469
 30
0.0
 10
1364.089778311667
 20
1593.989171310312
 30
0.0
 10
1359.632129410683
 20
1593.812877179499
 30
0.0
 10
1358.407052553423
 20
1593.763465373829
 30
0.0
 10
1357.227095966
 20
1593.71495088241
 30
0.0
 10
1356.139071303829
 20
1593.669414012095
 30
0.0
 10
1355.184307689502
 20
1593.628828419388
 30
0.0
 10
1354.369050751627
 20
1593.593712894165
 30
0.0
 10
1353.727971432448
 20
1593.565792376676
 30
0.0
 10
1353.243151895313
 20
1593.544507560172
 30
0.0
 10
1352.896668477619
 20
1593.52920815467
 30
0.0
 10
1352.635933528213
 20
1593.517645470333
 30
0.0
 10
1352.448323311889
 20
1593.509298663812
 30
0.0
 10
1352.2592770032
 20
1593.500869998941
 30
0.0
 10
1351.999283053082
 20
1593.489245801065
 30
0.0
 10
1351.611459055496
 20
1593.471825763684
 30
0.0
 10
1351.084214011102
 20
1593.447989599364
 30
0.0
 10
1350.411492950933
 20
1593.417321901951
 30
0.0
 10
1349.587239161437
 20
1593.379347583224
 30
0.0
 10
1348.622044432117
 20
1593.334328987243
 30
0.0
 10
1347.515908924759
 20
1593.282000591918
 30
0.0
 10
1346.315324320746
 20
1593.224301583736
 30
0.0
 10
1345.028884396101
 20
1593.161448865784
 30
0.0
 10
1343.665179278129
 20
1593.093678532135
 30
0.0
 10
1342.186314861845
 20
1593.018838553462
 30
0.0
 10
1340.592288467496
 20
1592.936604227631
 30
0.0
 10
1338.883102755001
 20
1592.846618138818
 30
0.0
 10
1337.058757549744
 20
1592.748503588893
 30
0.0
 10
1335.119250297899
 20
1592.641856497068
 30
0.0
 10
1333.02917906434
 20
1592.524254283633
 30
0.0
 10
1330.784804068772
 20
1592.394853938117
 30
0.0
 10
1328.382387283571
 20
1592.252737850754
 30
0.0
 10
1325.853579921706
 20
1592.099146108929
 30
0.0
 10
1323.198381902348
 20
1591.933462510829
 30
0.0
 10
1320.416795617264
 20
1591.755040307937
 30
0.0
 10
1317.555716305419
 20
1591.566296112555
 30
0.0
 10
1314.618882085606
 20
1591.367084839119
 30
0.0
 10
1311.610023459158
 20
1591.157286448325
 30
0.0
 10
1308.486004570224
 20
1590.93330231525
 30
0.0
 10
1305.246822534707
 20
1590.694439197149
 30
0.0
 10
1301.892480045415
 20
1590.439970034817
 30
0.0
 10
1298.422974454098
 20
1590.169146718621
 30
0.0
 10
1294.838307804234
 20
1589.881198093101
 30
0.0
 10
1291.07694425209
 20
1589.570229306454
 30
0.0
 10
1287.135159309688
 20
1589.234571911089
 30
0.0
 10
1283.009233787025
 20
1588.872365453827
 30
0.0
 10
1278.756904622081
 20
1588.487654671473
 30
0.0
 10
1274.378237987211
 20
1588.078704721192
 30
0.0
 10
1270.493490416271
 20
1587.706393129852
 30
0.0
 10
1268.068824573156
 20
1587.465064101332
 30
0.0
 10
1267.145352333124
 20
1587.3731501334
 30
0.0
  0
SPLINE
  5
FC
330
1F
100
AcDbEntity
  8
0
  6
Continuous
 62
     7
370
    15
100
AcDbSpline
210
0.0
220
0.0
230
1.0
 70
     8
 71
     3
 72
    17
 73
    13
 74
     0
 42
0.000000001
 43
0.00000001
 40
0.0
 40
0.0
 40
0.0
 40
0.0
 40
0.0915417850619473
 40
0.1941213673239078
 40
0.3003129964284375
 40
0.4088290941186338
 40
0.5188304761653779
 40
0.6297897594682582
 40
0.7413817436162466
 40
0.8533747927218444
 40
0.9760296036980629
 40
1.0
 40
1.0
 40
1.0
 40
1.0
 10
1581.098081439073
 20
1580.061495390592
 30
0.0
 10
1581.156337339255
 20
1580.093792514572
 30
0.0
 10
1581.279873437992
 20
1580.162281039931
 30
0.0
 10
1581.455287218683
 20
1580.293428288648
 30
0.0
 10
1581.624754680522
 20
1580.450529469594
 30
0.0
 10
1581.777906992268
 20
1580.630953226726
 30
0.0
 10
1581.910594825636
 20
1580.831085663824
 30
0.0
 10
1582.019006741659
 20
1581.047780071745
 30
0.0
 10
1582.101628636638
 20
1581.277396205127
 30
0.0
 10
1582.154784863514
 20
1581.523546898383
 30
0.0
 10
1582.178748958476
 20
1581.7114794471
 30
0.0
 10
1582.173595650875
 20
1581.81799836658
 30
0.0
 10
1582.172753184374
 20
1581.835412157571
 30
0.0
  0
LINE
  5
FD
330
1F
100
AcDbEntity
  8
0
  6
Continuous
 62
     7
370
    15
100
AcDbLine
 10
1582.1754651957
 20
1581.835515418
 30
0.0
 11
1582.1754651957
 21
1581.9016537563
 31
0.0
  0
ARC
  5
FE
330
1F
100
AcDbEntity
  8
0
  6
Continuous
 62
     7
370
    15
100
AcDbCircle
 10
1264.1887553315
 20
1581.835469923
 30
0.0
 40
2.000000000106341
100
AcDbArc
 50
179.9916109475
 51
243.1496942596
  0
LINE
  5
FF
330
1F
100
AcDbEntity
  8
0
  6
Continuous
 62
     7
370
    15
100
AcDbLine
 10
1262.1887492829
 20
1581.9016354791
 30
0.0
 11
1262.1887492829
 21
1581.8354703652
 31
0.0
  0
LINE
  5
100
330
1F
100
AcDbEntity
  8
0
  6
Continuous
 62
     7
370
    15
100
AcDbLine
 10
1504.9992295795
 20
1545.2779718608
 30
0.0
 11
1553.7215786868
 21
1123.0578721434
 31
0.0
  0
LINE
  5
101
330
1F
100
AcDbEntity
  8
0
  6
Continuous
 62
     7
370
    15
100
AcDbLine
 10
1580.6279050999
 20
1125.8858443171
 30
0.0
 11
1540.5010598593
 21
1549.0093641848
 31
0.0
  0
LINE
  5
102
330
1F
100
AcDbEntity
  8
0
  6
Continuous
 62
     7
370
    15
100
AcDbLine
 10
1303.8633781367
 20
1549.0093641848
 30
0.0
 11
1263.7365328961
 21
1125.8858443171
 31
0.0
  0
LINE
  5
103
330
1F
100
AcDbEntity
  8
0
  6
Continuous
 62
     7
370
    15
100
AcDbLine
 10
1290.6428593093
 20
1123.0578721434
 30
0.0
 11
1339.3652084165
 21
1545.2779718608
 31
0.0
  0
SPLINE
  5
104
330
1F
100
AcDbEntity
  8
0
  6
Continuous
 62
     7
370
    15
100
AcDbSpline
210
0.0
220
0.0
230
1.0
 70
     8
 71
     3
 72
     9
 73
     5
 74
     0
 42
0.000000001
 43
0.00000001
 40
0.0
 40
0.0
 40
0.0
 40
0.0
 40
0.5743164136213191
 40
0.9999999999999999
 40
0.9999999999999999
 40
0.9999999999999999
 40
0.9999999999999999
 10
1567.275421588953
 20
1558.153109711466
 30
0.0
 10
1569.758805818791
 20
1560.637855830542
 30
0.0
 10
1574.082875566649
 20
1564.964296900558
 30
0.0
 10
1578.406932501404
 20
1569.290665997303
 30
0.0
 10
1580.247612565096
 20
1571.132330310403
 30
0.0
  0
SPLINE
  5
105
330
1F
100
AcDbEntity
  8
0
  6
Continuous
 62
     7
370
    15
100
AcDbSpline
210
0.0
220
0.0
230
1.0
 70
     8
 71
     3
 72
     9
 73
     5
 74
     0
 42
0.000000001
 43
0.00000001
 40
0.0
 40
0.0
 40
0.0
 40
0.0
 40
0.460306214157883
 40
1.0
 40
1.0
 40
1.0
 40
1.0
 10
1270.186604826982
 20
1565.059282903431
 30
0.0
 10
1271.245722911366
 20
1563.999601017761
 30
0.0
 10
1273.546621860387
 20
1561.697477229124
 30
0.0
 10
1275.847335534271
 20
1559.395482150461
 30
0.0
 10
1277.089016407068
 20
1558.153109711466
 30
0.0
  0
SPLINE
  5
106
330
1F
100
AcDbEntity
  8
0
  6
Continuous
 62
     7
370
    15
100
AcDbSpline
210
0.0
220
0.0
230
1.0
 70
     8
 71
     3
 72
    28
 73
    24
 74
     0
 42
0.000000001
 43
0.00000001
 40
0.0
 40
0.0
 40
0.0
 40
0.0
 40
0.0139425021558264
 40
0.0350148781898957
 40
0.0608746615007193
 40
0.0900168888144029
 40
0.1155724080174856
 40
0.1370777507313912
 40
0.1542907265949518
 40
0.1710168627333696
 40
0.1883564905213642
 40
0.206343453024572
 40
0.2265820306784319
 40
0.2499534265085259
 40
0.3296156894580913
 40
0.3972485405609968
 40
0.4665449815061449
 40
0.5356619107217827
 40
0.6340387210009892
 40
0.7299319771015078
 40
0.8195970319399845
 40
0.9137944712133272
 40
1.0
 40
1.0
 40
1.0
 40
1.0
 10
1277.094351022776
 20
1558.152441021858
 30
0.0
 10
1277.188653749228
 20
1558.14189496068
 30
0.0
 10
1277.425483440396
 20
1558.11540982599
 30
0.0
 10
1277.837278375971
 20
1558.06949965432
 30
0.0
 10
1278.35193159529
 20
1558.012297124153
 30
0.0
 10
1278.896956014404
 20
1557.951959266146
 30
0.0
 10
1279.412573498161
 20
1557.895103243439
 30
0.0
 10
1279.847515351701
 20
1557.847299002127
 30
0.0
 10
1280.222777268225
 20
1557.806172598303
 30
0.0
 10
1280.569821942914
 20
1557.768227155201
 30
0.0
 10
1280.922079335586
 20
1557.729809603305
 30
0.0
 10
1281.298056573626
 20
1557.688909337859
 30
0.0
 10
1281.714904159747
 20
1557.64368970741
 30
0.0
 10
1282.549265224269
 20
1557.553463040233
 30
0.0
 10
1283.704643418464
 20
1557.429461274082
 30
0.0
 10
1285.171049432658
 20
1557.273797527736
 30
0.0
 10
1286.566316979237
 20
1557.127197520442
 30
0.0
 10
1288.170030224729
 20
1556.960464943024
 30
0.0
 10
1289.95423992612
 20
1556.777346704636
 30
0.0
 10
1291.87810631271
 20
1556.582842242726
 30
0.0
 10
1293.773986184468
 20
1556.394003001092
 30
0.0
 10
1295.604389812939
 20
1556.214081081601
 30
0.0
 10
1296.827264469395
 20
1556.096200805227
 30
0.0
 10
1297.411614924009
 20
1556.039871734439
 30
0.0
  0
SPLINE
  5
107
330
1F
100
AcDbEntity
  8
0
  6
Continuous
 62
     7
370
    15
100
AcDbSpline
210
0.0
220
0.0
230
1.0
 70
     8
 71
     3
 72
    28
 73
    24
 74
     0
 42
0.000000001
 43
0.00000001
 40
0.0
 40
0.0
 40
0.0
 40
0.0
 40
0.0257730773074187
 40
0.03920831047334
 40
0.0525819238131262
 40
0.0658545533089804
 40
0.0794487054681621
 40
0.0942724297112322
 40
0.1093668363182401
 40
0.1497927608015229
 40
0.1900898955546083
 40
0.2301446852626765
 40
0.2672184237204531
 40
0.3109849573735297
 40
0.3549590851759712
 40
0.3990926267244059
 40
0.4433778099933222
 40
0.4876423867068436
 40
0.5343242150243186
 40
0.6592935979708305
 40
0.7836002101847264
 40
0.9073910432017152
 40
1.0
 40
1.0
 40
1.0
 40
1.0
 10
1434.678240574236
 20
1550.121847626625
 30
0.0
 10
1435.214075258176
 20
1550.12681326675
 30
0.0
 10
1436.029234907126
 20
1550.134367442661
 30
0.0
 10
1437.122587762773
 20
1550.146662022075
 30
0.0
 10
1437.95603932675
 20
1550.156412303425
 30
0.0
 10
1438.792832797809
 20
1550.166771221619
 30
0.0
 10
1439.659818429147
 20
1550.178051354898
 30
0.0
 10
1440.564726433396
 20
1550.190440847473
 30
0.0
 10
1442.02770969721
 20
1550.211516985595
 30
0.0
 10
1444.020640402603
 20
1550.24287047318
 30
0.0
 10
1446.532990994343
 20
1550.287244485042
 30
0.0
 10
1448.975832140161
 20
1550.335088725511
 30
0.0
 10
1451.491021990135
 20
1550.388990319333
 30
0.0
 10
1454.087904417244
 20
1550.449669804294
 30
0.0
 10
1456.83179001542
 20
1550.519553338565
 30
0.0
 10
1459.586533958894
 20
1550.595528908241
 30
0.0
 10
1462.347335761775
 20
1550.677527659849
 30
0.0
 10
1465.161126105772
 20
1550.767068916852
 30
0.0
 10
1469.653607693829
 20
1550.91986679789
 30
0.0
 10
1475.81104810632
 20
1551.15433928961
 30
0.0
 10
1483.570984116564
 20
1551.497864960364
 30
0.0
 10
1490.656159051986
 20
1551.848522122501
 30
0.0
 10
1495.154367079916
 20
1552.105366486246
 30
0.0
 10
1497.079389064844
 20
1552.215283823071
 30
0.0
  0
SPLINE
  5
108
330
1F
100
AcDbEntity
  8
0
  6
Continuous
 62
     7
370
    15
100
AcDbSpline
210
0.0
220
0.0
230
1.0
 70
     8
 71
     3
 72
    26
 73
    22
 74
     0
 42
0.000000001
 43
0.00000001
 40
0.0
 40
0.0
 40
0.0
 40
0.0
 40
0.1105744236662253
 40
0.3892759716930411
 40
0.5940870672810422
 40
0.6330677878804121
 40
0.6709814975557603
 40
0.7113425122140961
 40
0.7564976830213188
 40
0.7847645804941997
 40
0.8107202587063284
 40
0.832348855228608
 40
0.8496532100996821
 40
0.8653166829743857
 40
0.8817375286042701
 40
0.8989161014989894
 40
0.913083554840798
 40
0.9313624404256319
 40
0.9552777258871085
 40
0.9848308406476524
 40
1.0
 40
1.0
 40
1.0
 40
1.0
 10
1546.952525048788
 20
1556.04269364184
 30
0.0
 10
1547.702151136207
 20
1556.113976305474
 30
0.0
 10
1550.341201053099
 20
1556.364926093239
 30
0.0
 10
1554.367005574915
 20
1556.771028918075
 30
0.0
 10
1557.905850614297
 20
1557.137768960609
 30
0.0
 10
1559.813248278313
 20
1557.339584844115
 30
0.0
 10
1560.607096012214
 20
1557.424045571446
 30
0.0
 10
1561.442813444505
 20
1557.513488924447
 30
0.0
 10
1562.21295396769
 20
1557.596430460121
 30
0.0
 10
1562.885291000495
 20
1557.669229164059
 30
0.0
 10
1563.398485049952
 20
1557.725018219089
 30
0.0
 10
1563.837584901092
 20
1557.772916911786
 30
0.0
 10
1564.207144094668
 20
1557.813343108767
 30
0.0
 10
1564.541471709451
 20
1557.849999372684
 30
0.0
 10
1564.874883630793
 20
1557.886645209547
 30
0.0
 10
1565.198128814058
 20
1557.922251943075
 30
0.0
 10
1565.533892869058
 20
1557.959329874461
 30
0.0
 10
1565.915218181733
 20
1558.00152571984
 30
0.0
 10
1566.40061707445
 20
1558.055417500136
 30
0.0
 10
1566.864959638358
 20
1558.107112425993
 30
0.0
 10
1567.16748841563
 20
1558.140997856991
 30
0.0
 10
1567.270101874407
 20
1558.152491313277
 30
0.0
  0
SPLINE
  5
109
330
1F
100
AcDbEntity
  8
0
  6
Continuous
 62
     7
370
    15
100
AcDbSpline
210
0.0
220
0.0
230
1.0
 70
     8
 71
     3
 72
    13
 73
     9
 74
     0
 42
0.000000001
 43
0.00000001
 40
0.0
 40
0.0
 40
0.0
 40
0.0
 40
0.1119607915778643
 40
0.4254280597947878
 40
0.5444307757296007
 40
0.7013274237823485
 40
0.8961744763360271
 40
0.9999999999999999
 40
0.9999999999999999
 40
0.9999999999999999
 40
0.9999999999999999
 10
1432.166169292565
 20
1550.099598330317
 30
0.0
 10
1432.260811156064
 20
1550.100305065905
 30
0.0
 10
1432.62043083896
 20
1550.102990516282
 30
0.0
 10
1433.079874402028
 20
1550.10679619006
 30
0.0
 10
1433.577753536291
 20
1550.111050708154
 30
0.0
 10
1433.975923053086
 20
1550.114575543073
 30
0.0
 10
1434.361268660604
 20
1550.118080451816
 30
0.0
 10
1434.613923220228
 20
1550.12052065539
 30
0.0
 10
1434.701751812632
 20
1550.121368926822
 30
0.0
  0
SPLINE
  5
10A
330
1F
100
AcDbEntity
  8
0
  6
Continuous
 62
     7
370
    15
100
AcDbSpline
210
0.0
220
0.0
230
1.0
 70
     8
 71
     3
 72
     9
 73
     5
 74
     0
 42
0.000000001
 43
0.00000001
 40
0.0
 40
0.0
 40
0.0
 40
0.0
 40
0.365219099020162
 40
1.0
 40
1.0
 40
1.0
 40
1.0
 10
1416.264815616693
 20
1550.075050529895
 30
0.0
 10
1416.548945451528
 20
1550.073733827767
 30
0.0
 10
1417.326916361586
 20
1550.070128588796
 30
0.0
 10
1418.106875378054
 20
1550.067901600061
 30
0.0
 10
1418.601978465254
 20
1550.066487950145
 30
0.0
  0
SPLINE
  5
10B
330
1F
100
AcDbEntity
  8
0
  6
Continuous
 62
     7
370
    15
100
AcDbSpline
210
0.0
220
0.0
230
1.0
 70
     8
 71
     3
 72
    30
 73
    26
 74
     0
 42
0.000000001
 43
0.00000001
 40
0.0
 40
0.0
 40
0.0
 40
0.0
 40
0.0577693187641136
 40
0.113048765031191
 40
0.157451279519509
 40
0.1909802265993066
 40
0.2167603524836521
 40
0.2423922360688261
 40
0.2682200005591045
 40
0.2942447633730693
 40
0.3527210632696116
 40
0.41940236260059
 40
0.4913167718856178
 40
0.5484832755696174
 40
0.6060774919136934
 40
0.6630055887343614
 40
0.717298992104896
 40
0.763270160401184
 40
0.7852675020575506
 40
0.8082425708520126
 40
0.8404774089092742
 40
0.8823296537779604
 40
0.933825974818814
 40
0.9949806121795686
 40
1.0
 40
1.0
 40
1.0
 40
1.0
 10
1422.201057976587
 20
1550.061514687596
 30
0.0
 10
1422.395652327328
 20
1550.061534123458
 30
0.0
 10
1422.776453962243
 20
1550.061572157492
 30
0.0
 10
1423.306683398178
 20
1550.061949953413
 30
0.0
 10
1423.755121324884
 20
1550.062417760161
 30
0.0
 10
1424.104034194821
 20
1550.062893958044
 30
0.0
 10
1424.389358841608
 20
1550.06334580708
 30
0.0
 10
1424.649057713007
 20
1550.063806791289
 30
0.0
 10
1424.909678107
 20
1550.064326479518
 30
0.0
 10
1425.280969452232
 20
1550.065132588905
 30
0.0
 10
1425.789891223779
 20
1550.066411054958
 30
0.0
 10
1426.453250103003
 20
1550.06839377012
 30
0.0
 10
1427.112247102308
 20
1550.070716633819
 30
0.0
 10
1427.740663084356
 20
1550.073242304532
 30
0.0
 10
1428.318683734805
 20
1550.07582227447
 30
0.0
 10
1428.8871248292
 20
1550.078612005544
 30
0.0
 10
1429.416457902103
 20
1550.081436479582
 30
0.0
 10
1429.828170895635
 20
1550.083790459045
 30
0.0
 10
1430.134187054394
 20
1550.085623039837
 30
0.0
 10
1430.394488897972
 20
1550.087225661533
 30
0.0
 10
1430.721868132022
 20
1550.089310711269
 30
0.0
 10
1431.144745801316
 20
1550.092125849817
 30
0.0
 10
1431.664341212001
 20
1550.095801248488
 30
0.0
 10
1432.059764833297
 20
1550.098683244111
 30
0.0
 10
1432.281876070538
 20
1550.100463533448
 30
0.0
 10
1432.298723503287
 20
1550.100598570762
 30
0.0
  0
SPLINE
  5
10C
330
1F
100
AcDbEntity
  8
0
  6
Continuous
 62
     7
370
    15
100
AcDbSpline
210
0.0
220
0.0
230
1.0
 70
     8
 71
     3
 72
    17
 73
    13
 74
     0
 42
0.000000001
 43
0.00000001
 40
0.0
 40
0.0
 40
0.0
 40
0.0
 40
0.0301861609924046
 40
0.1694973817899816
 40
0.2893696388336812
 40
0.3898114977976658
 40
0.4708371814343453
 40
0.5324745358368403
 40
0.6232034910009613
 40
0.7396130134268477
 40
0.8817847172393892
 40
1.0
 40
1.0
 40
1.0
 40
1.0
 10
1418.619627493705
 20
1550.066355702339
 30
0.0
 10
1418.654132901428
 20
1550.066256542172
 30
0.0
 10
1418.847883152351
 20
1550.065699750974
 30
0.0
 10
1419.17884840141
 20
1550.064920492963
 30
0.0
 10
1419.590333230186
 20
1550.064038154724
 30
0.0
 10
1419.935381823743
 20
1550.063409127123
 30
0.0
 10
1420.213956864276
 20
1550.062964295849
 30
0.0
 10
1420.481734184453
 20
1550.062591970178
 30
0.0
 10
1420.790081988719
 20
1550.062217860547
 30
0.0
 10
1421.189949876604
 20
1550.061851116222
 30
0.0
 10
1421.620684455256
 20
1550.061574169788
 30
0.0
 10
1421.917831932392
 20
1550.061542227748
 30
0.0
 10
1422.052736420106
 20
1550.061527726112
 30
0.0
  0
SPLINE
  5
10D
330
1F
100
AcDbEntity
  8
0
  6
Continuous
 62
     7
370
    15
100
AcDbSpline
210
0.0
220
0.0
230
1.0
 70
     8
 71
     3
 72
     9
 73
     5
 74
     0
 42
0.000000001
 43
0.00000001
 40
0.0
 40
0.0
 40
0.0
 40
0.0
 40
0.8743575739435023
 40
1.0
 40
1.0
 40
1.0
 40
1.0
 10
1418.390495131995
 20
1550.067065370141
 30
0.0
 10
1418.464215327018
 20
1550.066798961748
 30
0.0
 10
1418.548528881587
 20
1550.06649427131
 30
0.0
 10
1418.632833153387
 20
1550.066311598561
 30
0.0
 10
1418.643425346623
 20
1550.066288647114
 30
0.0
  0
SPLINE
  5
10E
330
1F
100
AcDbEntity
  8
0
  6
Continuous
 62
     7
370
    15
100
AcDbSpline
210
0.0
220
0.0
230
1.0
 70
     8
 71
     3
 72
     9
 73
     5
 74
     0
 42
0.000000001
 43
0.00000001
 40
0.0
 40
0.0
 40
0.0
 40
0.0
 40
0.2298509043369326
 40
1.0
 40
1.0
 40
1.0
 40
1.0
 10
1421.708654594646
 20
1550.061592918692
 30
0.0
 10
1421.742325155164
 20
1550.061576624448
 30
0.0
 10
1421.888813856676
 20
1550.06150573395
 30
0.0
 10
1422.035298729409
 20
1550.06151394884
 30
0.0
 10
1422.148113921672
 20
1550.061520275532
 30
0.0
  0
LINE
  5
10F
330
1F
100
AcDbEntity
  8
0
  6
Continuous
 62
     7
370
    15
100
AcDbLine
 10
1432.2987235033
 20
1550.1005985708
 30
0.0
 11
1432.3092418604
 21
1550.1006768019
 31
0.0
  0
LINE
  5
110
330
1F
100
AcDbEntity
  8
0
  6
Continuous
 62
     7
370
    15
100
AcDbLine
 10
1432.6031300121
 20
1550.1029864818
 30
0.0
 11
1432.7633081817
 21
1550.1042959214
 31
0.0
  0
LINE
  5
111
330
1F
100
AcDbEntity
  8
0
  6
Continuous
 62
     7
370
    15
100
AcDbLine
 10
1434.6899966591
 20
1550.1215980322
 30
0.0
 11
1435.2068071135
 21
1550.1266029597
 31
0.0
  0
SPLINE
  5
112
330
1F
100
AcDbEntity
  8
0
  6
Continuous
 62
     7
370
    15
100
AcDbSpline
210
0.0
220
0.0
230
1.0
 70
     8
 71
     3
 72
     9
 73
     5
 74
     0
 42
0.000000001
 43
0.00000001
 40
0.0
 40
0.0
 40
0.0
 40
0.0
 40
0.3139387592326449
 40
1.0
 40
1.0
 40
1.0
 40
1.0
 10
1577.219055860574
 20
1587.374710098712
 30
0.0
 10
1577.219125853342
 20
1587.374709907977
 30
0.0
 10
1577.219348803727
 20
1587.374709300424
 30
0.0
 10
1577.219104356828
 20
1587.374709773887
 30
0.0
 10
1577.218936651285
 20
1587.374710098712
 30
0.0
  0
SPLINE
  5
113
330
1F
100
AcDbEntity
  8
0
  6
Continuous
 62
     7
370
    15
100
AcDbSpline
210
0.0
220
0.0
230
1.0
 70
     8
 71
     3
 72
     9
 73
     5
 74
     0
 42
0.000000001
 43
0.00000001
 40
0.0
 40
0.0
 40
0.0
 40
0.0
 40
0.1824140487141796
 40
1.0
 40
1.0
 40
1.0
 40
1.0
 10
1267.145188420351
 20
1587.374693334906
 30
0.0
 10
1267.145122936966
 20
1587.374693156052
 30
0.0
 10
1267.144763954832
 20
1587.374692175571
 30
0.0
 10
1267.145382808699
 20
1587.374693325809
 30
0.0
 10
1267.145888774927
 20
1587.374694266228
 30
0.0
  0
LINE
  5
114
330
1F
100
AcDbEntity
  8
0
  6
Continuous
 62
     7
370
    15
100
AcDbLine
 10
1262.1889578991
 20
1581.9016347806
 30
0.0
 11
1262.1887641841
 21
1581.9016354791
 31
0.0
  0
LWPOLYLINE
  5
115
330
1F
100
AcDbEntity
  8
0
  6
Continuous
 62
     7
370
    15
100
AcDbPolyline
 90
       62
 70
   128
 43
0.0
 10
1553.7215786868
 20
1123.0578721434
 10
1553.7400114232
 20
1123.0598092944
 10
1553.79527983
 20
1123.0656207473
 10
1553.8872050934
 20
1123.0752766997
 10
1554.015563696
 20
1123.0887771518
 10
1554.1799831086
 20
1123.1060624987
 10
1554.3800311976
 20
1123.127073136
 10
1554.6151417189
 20
1123.1517792613
 10
1554.8846739226
 20
1123.1801212699
 10
1555.1878827506
 20
1123.2119799525
 10
1555.5239635401
 20
1123.2473255069
 10
1555.8919775181
 20
1123.2860089213
 10
1556.2909114056
 20
1123.3279109866
 10
1556.7196774178
 20
1123.3730019004
 10
1557.177098363
 20
1123.4210730464
 10
1557.6619225436
 20
1123.4720350177
 10
1558.1728237563
 20
1123.5257090003
 10
1558.7084012919
 20
1123.5820055873
 10
1559.2671799355
 20
1123.6407459647
 10
1559.8476248675
 20
1123.7017513186
 10
1560.4481565648
 20
1123.7648726374
 10
1561.0671358996
 20
1123.8299311072
 10
1561.7028492385
 20
1123.896747914
 10
1562.3535680466
 20
1123.9651442439
 10
1563.0174892836
 20
1124.0349114806
 10
1563.6928099089
 20
1124.1059006125
 10
1564.3776672774
 20
1124.1778732211
 10
1565.0701987439
 20
1124.2506802947
 10
1565.7685118609
 20
1124.3240536124
 10
1566.4706545764
 20
1124.397873965
 10
1567.1747493439
 20
1124.4718731315
 10
1567.8788292103
 20
1124.5458722979
 10
1568.580986827
 20
1124.6196628482
 10
1569.2792850428
 20
1124.6930659682
 10
1569.9718165093
 20
1124.7658432395
 10
1570.6566738778
 20
1124.8378158481
 10
1571.3319945031
 20
1124.90880498
 10
1571.9959306412
 20
1124.978602019
 10
1572.6466345482
 20
1125.0469685466
 10
1573.2823478871
 20
1125.1137853534
 10
1573.9013272219
 20
1125.1788438231
 10
1574.5018589192
 20
1125.241965142
 10
1575.0823187523
 20
1125.3029704959
 10
1575.641097396
 20
1125.3617108733
 10
1576.1766600304
 20
1125.4180074603
 10
1576.6875612431
 20
1125.4717112452
 10
1577.1723854237
 20
1125.5226434142
 10
1577.6298063689
 20
1125.5707443625
 10
1578.0585723811
 20
1125.615805474
 10
1578.4575062686
 20
1125.6577373416
 10
1578.8255202466
 20
1125.696420756
 10
1579.1616010361
 20
1125.7317365081
 10
1579.4648247653
 20
1125.7635951907
 10
1579.7343569689
 20
1125.7919371993
 10
1579.9694525891
 20
1125.8166433246
 10
1580.1695006781
 20
1125.8376539618
 10
1580.3339200907
 20
1125.8549393088
 10
1580.4622786933
 20
1125.8684397609
 10
1580.5542039567
 20
1125.8780957133
 10
1580.6094723635
 20
1125.8839071662
 10
1580.6279050999
 20
1125.8858443171
 10
1580.6279050999
 20
1125.8858443171
  0
LWPOLYLINE
  5
116
330
1F
100
AcDbEntity
  8
0
  6
Continuous
 62
     7
370
    15
100
AcDbPolyline
 90
       62
 70
   128
 43
0.0
 10
1263.7365328961
 20
1125.8858443171
 10
1263.7549656325
 20
1125.8839071662
 10
1263.8102340394
 20
1125.8780957133
 10
1263.9021593028
 20
1125.8684397609
 10
1264.0305179053
 20
1125.8549393088
 10
1264.1949373179
 20
1125.8376539618
 10
1264.3949854069
 20
1125.8166433246
 10
1264.6300810271
 20
1125.7919371993
 10
1264.8996132308
 20
1125.7635951907
 10
1265.2028369599
 20
1125.7317365081
 10
1265.5389177495
 20
1125.696420756
 10
1265.9069317275
 20
1125.6577373416
 10
1266.3058656149
 20
1125.615805474
 10
1266.7346316271
 20
1125.5707443625
 10
1267.1920525723
 20
1125.5226434142
 10
1267.6768767529
 20
1125.4717112452
 10
1268.1877779656
 20
1125.4180074603
 10
1268.7233406001
 20
1125.3617108733
 10
1269.2821192437
 20
1125.3029704959
 10
1269.8625790768
 20
1125.241965142
 10
1270.4631107741
 20
1125.1788438231
 10
1271.0820901089
 20
1125.1137853534
 10
1271.7178034478
 20
1125.0469685466
 10
1272.3685073548
 20
1124.978602019
 10
1273.0324434929
 20
1124.90880498
 10
1273.7077641182
 20
1124.8378158481
 10
1274.3926214867
 20
1124.7658432395
 10
1275.0851529532
 20
1124.6930659682
 10
1275.7834511691
 20
1124.6196628482
 10
1276.4856087857
 20
1124.5458722979
 10
1277.1896886521
 20
1124.4718731315
 10
1277.8937834197
 20
1124.397873965
 10
1278.5959261351
 20
1124.3240536124
 10
1279.2942392521
 20
1124.2506802947
 10
1279.9867707186
 20
1124.1778732211
 10
1280.6716280871
 20
1124.1059006125
 10
1281.3469487124
 20
1124.0349114806
 10
1282.0108699494
 20
1123.9651442439
 10
1282.6615887576
 20
1123.896747914
 10
1283.2973020964
 20
1123.8299311072
 10
1283.9162814313
 20
1123.7648726374
 10
1284.5168131285
 20
1123.7017513186
 10
1285.0972580605
 20
1123.6407459647
 10
1285.6560367041
 20
1123.5820055873
 10
1286.1916142397
 20
1123.5257090003
 10
1286.7025154524
 20
1123.4720350177
 10
1287.187339633
 20
1123.4210730464
 10
1287.6447605782
 20
1123.3730019004
 10
1288.0735265904
 20
1123.3279109866
 10
1288.4724604779
 20
1123.2860089213
 10
1288.8404744559
 20
1123.2473255069
 10
1289.1765552455
 20
1123.2119799525
 10
1289.4797640734
 20
1123.1801212699
 10
1289.7492962771
 20
1123.1517792613
 10
1289.9844067984
 20
1123.127073136
 10
1290.1844548874
 20
1123.1060624987
 10
1290.3488743001
 20
1123.0887771518
 10
1290.4772329026
 20
1123.0752766997
 10
1290.569158166
 20
1123.0656207473
 10
1290.6244265729
 20
1123.0598092944
 10
1290.6428593093
 20
1123.0578721434
 10
1290.6428593093
 20
1123.0578721434
  0
LINE
  5
117
330
1F
100
AcDbEntity
  8
0
  6
Continuous
 62
     7
370
    15
100
AcDbLine
 10
1496.6915341907
 20
1555.9055247278
 30
0.0
 11
1497.8870990568
 21
1544.5304551095
 31
0.0
  0
LINE
  5
118
330
1F
100
AcDbEntity
  8
0
  6
Continuous
 62
     7
370
    15
100
AcDbLine
 10
1546.6821211272
 20
1558.6154703916
 30
0.0
 11
1547.6131903821
 21
1549.7568790734
 31
0.0
  0
LWPOLYLINE
  5
119
330
1F
100
AcDbEntity
  8
0
  6
Continuous
 62
     7
370
    15
100
AcDbPolyline
 90
       82
 70
   128
 43
0.0
 10
1547.6131903821
 20
1549.7568790734
 10
1547.5944894248
 20
1549.7549139828
 10
1547.5384312563
 20
1549.7490205736
 10
1547.4450754815
 20
1549.7392081589
 10
1547.3145860129
 20
1549.7254935027
 10
1547.1471416646
 20
1549.7078952313
 10
1546.9430032068
 20
1549.6864394218
 10
1546.702483564
 20
1549.6611596019
 10
1546.4259329134
 20
1549.6320930243
 10
1546.1137684875
 20
1549.59928253
 10
1545.7664671236
 20
1549.562780273
 10
1545.3845429116
 20
1549.5226384074
 10
1544.9685769969
 20
1549.4789184005
 10
1544.5191952282
 20
1549.4316854448
 10
1544.0370607071
 20
1549.3810121835
 10
1543.5229184919
 20
1549.3269731224
 10
1542.9775285416
 20
1549.2696502179
 10
1542.4017178708
 20
1549.2091310144
 10
1541.7963432961
 20
1549.1455030561
 10
1541.1623286896
 20
1549.0788650632
 10
1540.5006128245
 20
1549.009315756
 10
1539.8122015291
 20
1548.9369613052
 10
1539.0981304341
 20
1548.8619097442
 10
1538.3594649726
 20
1548.7842746944
 10
1537.5973301821
 20
1548.7041697771
 10
1536.8128585511
 20
1548.6217179269
 10
1536.0072347217
 20
1548.5370420784
 10
1535.1816731387
 20
1548.4502726168
 10
1534.3374105983
 20
1548.3615362019
 10
1533.47572115
 20
1548.2709706694
 10
1532.597893744
 20
1548.1787064046
 10
1531.7052620345
 20
1548.0848886937
 10
1530.7991596752
 20
1547.9896516473
 10
1529.8809501224
 20
1547.8931442768
 10
1528.9520117336
 20
1547.7955081434
 10
1528.0137526684
 20
1547.6968922586
 10
1527.0675661855
 20
1547.5974456341
 10
1526.1148976975
 20
1547.4973172814
 10
1525.1571628147
 20
1547.396652487
 10
1524.1958069497
 20
1547.2956114382
 10
1523.2322755151
 20
1547.1943394214
 10
1522.2680213743
 20
1547.0929928989
 10
1521.3044899397
 20
1546.9917208821
 10
1520.3431340747
 20
1546.8906798334
 10
1519.3853991919
 20
1546.7900187642
 10
1518.4327232533
 20
1546.6898866863
 10
1517.486544221
 20
1546.5904400617
 10
1516.5482777052
 20
1546.491824177
 10
1515.619346767
 20
1546.3941880435
 10
1514.7011372142
 20
1546.2976806731
 10
1513.7950274044
 20
1546.2024473519
 10
1512.9023956948
 20
1546.1086259157
 10
1512.0245757394
 20
1546.0163653762
 10
1511.1628862911
 20
1545.9257961184
 10
1510.3186237507
 20
1545.8370597035
 10
1509.4930621677
 20
1545.7502902419
 10
1508.6874383383
 20
1545.6656181187
 10
1507.9029667073
 20
1545.5831662685
 10
1507.1408244663
 20
1545.5030613512
 10
1506.4021590047
 20
1545.4254263014
 10
1505.6880879098
 20
1545.3503728778
 10
1504.9996766143
 20
1545.2780165643
 10
1504.3379681998
 20
1545.2084691197
 10
1503.7039461427
 20
1545.1418311269
 10
1503.0985790186
 20
1545.0782031686
 10
1502.5227608972
 20
1545.0176821024
 10
1501.9773709469
 20
1544.9603610606
 10
1501.4632287317
 20
1544.9063219995
 10
1500.9811016613
 20
1544.8556468756
 10
1500.531712442
 20
1544.8084176452
 10
1500.1157465273
 20
1544.7646976382
 10
1499.7338297659
 20
1544.72455391
 10
1499.3865209513
 20
1544.6880497903
 10
1499.0743639761
 20
1544.6552411587
 10
1498.7978133255
 20
1544.6261764438
 10
1498.557286232
 20
1544.6008966238
 10
1498.3531477743
 20
1544.5794389517
 10
1498.1857108765
 20
1544.5618406803
 10
1498.0552139574
 20
1544.5481241614
 10
1497.9618656331
 20
1544.5383117468
 10
1497.9058000141
 20
1544.5324220628
 10
1497.8870990568
 20
1544.5304551095
  0
LINE
  5
11A
330
1F
100
AcDbEntity
  8
0
  6
Continuous
 62
     7
370
    15
100
AcDbLine
 10
1297.6823168688
 20
1558.6154703916
 30
0.0
 11
1296.751247614
 21
1549.7568790734
 31
0.0
  0
LINE
  5
11B
330
1F
100
AcDbEntity
  8
0
  6
Continuous
 62
     7
370
    15
100
AcDbLine
 10
1347.6729038053
 20
1555.9055247278
 30
0.0
 11
1346.4773389392
 21
1544.5304551095
 31
0.0
  0
LWPOLYLINE
  5
11C
330
1F
100
AcDbEntity
  8
0
  6
Continuous
 62
     7
370
    15
100
AcDbPolyline
 90
       82
 70
   128
 43
0.0
 10
1346.4773389392
 20
1544.5304551095
 10
1346.4586379819
 20
1544.5324220628
 10
1346.402572363
 20
1544.5383117468
 10
1346.3092240387
 20
1544.5481241614
 10
1346.1787271195
 20
1544.5618406803
 10
1346.0112902217
 20
1544.5794389517
 10
1345.807151764
 20
1544.6008966238
 10
1345.5666246706
 20
1544.6261764438
 10
1345.29007402
 20
1544.6552411587
 10
1344.9779170447
 20
1544.6880497903
 10
1344.6306082302
 20
1544.72455391
 10
1344.2486914688
 20
1544.7646976382
 10
1343.832725554
 20
1544.8084176452
 10
1343.3833363348
 20
1544.8556468756
 10
1342.9012092643
 20
1544.9063219995
 10
1342.3870670491
 20
1544.9603610606
 10
1341.8416770988
 20
1545.0176821024
 10
1341.2658589774
 20
1545.0782031686
 10
1340.6604918533
 20
1545.1418311269
 10
1340.0264697962
 20
1545.2084691197
 10
1339.3647613817
 20
1545.2780165643
 10
1338.6763500863
 20
1545.3503728778
 10
1337.9622789913
 20
1545.4254263014
 10
1337.2236135297
 20
1545.5030613512
 10
1336.4614712887
 20
1545.5831662685
 10
1335.6769996577
 20
1545.6656181187
 10
1334.8713758283
 20
1545.7502902419
 10
1334.0458142453
 20
1545.8370597035
 10
1333.2015517049
 20
1545.9257961184
 10
1332.3398622566
 20
1546.0163653762
 10
1331.4620423012
 20
1546.1086259157
 10
1330.5694105917
 20
1546.2024473519
 10
1329.6633007818
 20
1546.2976806731
 10
1328.745091229
 20
1546.3941880435
 10
1327.8161602908
 20
1546.491824177
 10
1326.877893775
 20
1546.5904400617
 10
1325.9317147427
 20
1546.6898866863
 10
1324.9790388041
 20
1546.7900187642
 10
1324.0213039213
 20
1546.8906798334
 10
1323.0599480563
 20
1546.9917208821
 10
1322.0964166217
 20
1547.0929928989
 10
1321.1321624809
 20
1547.1943394214
 10
1320.1686310464
 20
1547.2956114382
 10
1319.2072751813
 20
1547.396652487
 10
1318.2495402985
 20
1547.4973172814
 10
1317.2968718105
 20
1547.5974456341
 10
1316.3506853276
 20
1547.6968922586
 10
1315.4124262624
 20
1547.7955081434
 10
1314.4834878736
 20
1547.8931442768
 10
1313.5652783208
 20
1547.9896516473
 10
1312.6591759615
 20
1548.0848886937
 10
1311.766544252
 20
1548.1787064046
 10
1310.888716846
 20
1548.2709706694
 10
1310.0270273977
 20
1548.3615362019
 10
1309.1827648573
 20
1548.4502726168
 10
1308.3572032743
 20
1548.5370420784
 10
1307.5515794449
 20
1548.6217179269
 10
1306.7671078139
 20
1548.7041697771
 10
1306.0049730235
 20
1548.7842746944
 10
1305.2663075619
 20
1548.8619097442
 10
1304.5522364669
 20
1548.9369613052
 10
1303.8638251715
 20
1549.009315756
 10
1303.2021093064
 20
1549.0788650632
 10
1302.5680946999
 20
1549.1455030561
 10
1301.9627201253
 20
1549.2091310144
 10
1301.3869094544
 20
1549.2696502179
 10
1300.8415195041
 20
1549.3269731224
 10
1300.3273772889
 20
1549.3810121835
 10
1299.8452427679
 20
1549.4316854448
 10
1299.3958609992
 20
1549.4789184005
 10
1298.9798950844
 20
1549.5226384074
 10
1298.5979708725
 20
1549.562780273
 10
1298.2506695085
 20
1549.59928253
 10
1297.9385050827
 20
1549.6320930243
 10
1297.6619544321
 20
1549.6611596019
 10
1297.4214347892
 20
1549.6864394218
 10
1297.2172963315
 20
1549.7078952313
 10
1297.0498519831
 20
1549.7254935027
 10
1296.9193625146
 20
1549.7392081589
 10
1296.8260067397
 20
1549.7490205736
 10
1296.7699485713
 20
1549.7549139828
 10
1296.751247614
 20
1549.7568790734
  0
SPLINE
  5
11D
330
1F
100
AcDbEntity
  8
0
  6
Continuous
 62
     7
370
    15
100
AcDbSpline
210
0.0
220
0.0
230
1.0
 70
    24
 71
     3
 72
    68
 73
    64
 74
     0
 42
0.000000001
 43
0.00000001
 40
0.1390701400005545
 40
0.1390701400005545
 40
0.1390701400005545
 40
0.1390701400005545
 40
0.1874999999999973
 40
0.1874999999999973
 40
0.1953124999999972
 40
0.1953124999999972
 40
0.2031249999999971
 40
0.2031249999999971
 40
0.2187499999999968
 40
0.2187499999999968
 40
0.2265624999999967
 40
0.2265624999999967
 40
0.2343749999999966
 40
0.2343749999999966
 40
0.2421874999999965
 40
0.2421874999999965
 40
0.2460937499999964
 40
0.2460937499999964
 40
0.2499999999999963
 40
0.2499999999999963
 40
0.2519531249999963
 40
0.2519531249999963
 40
0.2539062499999963
 40
0.2539062499999963
 40
0.2578124999999962
 40
0.2578124999999962
 40
0.2656249999999961
 40
0.2656249999999961
 40
0.2675781249999962
 40
0.2675781249999962
 40
0.2695312499999962
 40
0.2695312499999962
 40
0.2734374999999963
 40
0.2734374999999963
 40
0.2773437499999963
 40
0.2773437499999963
 40
0.2783203124999963
 40
0.2783203124999963
 40
0.2792968749999963
 40
0.2792968749999963
 40
0.2812499999999963
 40
0.2812499999999963
 40
0.2851562499999962
 40
0.2851562499999962
 40
0.2890624999999962
 40
0.2890624999999962
 40
0.2968749999999961
 40
0.2968749999999961
 40
0.304687499999996
 40
0.304687499999996
 40
0.3124999999999959
 40
0.3124999999999959
 40
0.3203124999999958
 40
0.3203124999999958
 40
0.3281249999999957
 40
0.3281249999999957
 40
0.3359374999999956
 40
0.3359374999999956
 40
0.3437499999999955
 40
0.3437499999999955
 40
0.3749999999999951
 40
0.3749999999999951
 40
0.3902232827452816
 40
0.3902232827452816
 40
0.3902232827452816
 40
0.3902232827452816
 10
1422.18221899801
 20
1580.061495390592
 30
0.0
 10
1404.223526154882
 20
1580.061495390592
 30
0.0
 10
1386.279412710039
 20
1580.061495390592
 30
0.0
 10
1365.457458448629
 20
1580.061495390592
 30
0.0
 10
1362.565434545093
 20
1580.061495390592
 30
0.0
 10
1356.781769858093
 20
1580.061495390592
 30
0.0
 10
1353.890173180953
 20
1580.061495390592
 30
0.0
 10
1345.216260452227
 20
1580.061495390592
 30
0.0
 10
1339.434766807964
 20
1580.061495390592
 30
0.0
 10
1330.765423077731
 20
1580.061495390592
 30
0.0
 10
1327.876128147469
 20
1580.061495390592
 30
0.0
 10
1322.098940276154
 20
1580.061495390592
 30
0.0
 10
1319.20813374968
 20
1580.061495390592
 30
0.0
 10
1313.464606540505
 20
1580.061495390592
 30
0.0
 10
1310.608159056161
 20
1580.061495390592
 30
0.0
 10
1306.367706537721
 20
1580.061495390592
 30
0.0
 10
1304.961709182179
 20
1580.061495390592
 30
0.0
 10
1302.173437645261
 20
1580.061495390592
 30
0.0
 10
1300.790674371951
 20
1580.061495390592
 30
0.0
 10
1298.750167671595
 20
1580.061495390592
 30
0.0
 10
1298.07622106582
 20
1580.061495390592
 30
0.0
 10
1296.744780539046
 20
1580.061495390592
 30
0.0
 10
1296.083910678744
 20
1580.061495390592
 30
0.0
 10
1294.137352647337
 20
1580.061495390592
 30
0.0
 10
1292.880380806453
 20
1580.061495390592
 30
0.0
 10
1289.236906601705
 20
1580.061495390592
 30
0.0
 10
1286.977667867518
 20
1580.061495390592
 30
0.0
 10
1284.385374433086
 20
1580.061495390592
 30
0.0
 10
1283.880065933659
 20
1580.061495390592
 30
0.0
 10
1282.903779191384
 20
1580.061495390592
 30
0.0
 10
1282.431486507721
 20
1580.061495390592
 30
0.0
 10
1281.060759375063
 20
1580.061495390592
 30
0.0
 10
1280.208455971744
 20
1580.061495390592
 30
0.0
 10
1278.619914561596
 20
1580.061495390592
 30
0.0
 10
1277.883676961154
 20
1580.061495390592
 30
0.0
 10
1277.03197985402
 20
1580.061495390592
 30
0.0
 10
1276.864179736393
 20
1580.061495390592
 30
0.0
 10
1276.539496609262
 20
1580.061495390592
 30
0.0
 10
1276.384084134084
 20
1580.061495390592
 30
0.0
 10
1275.934487742404
 20
1580.061495390592
 30
0.0
 10
1275.659178740279
 20
1580.061495390592
 30
0.0
 10
1274.887353441927
 20
1580.061495390592
 30
0.0
 10
1274.440239129208
 20
1580.061495390592
 30
0.0
 10
1273.61905449427
 20
1580.061495390592
 30
0.0
 10
1273.246501032113
 20
1580.061495390592
 30
0.0
 10
1272.202698991303
 20
1580.061495390592
 30
0.0
 10
1271.60376006929
 20
1580.061495390592
 30
0.0
 10
1270.510718263264
 20
1580.061495390592
 30
0.0
 10
1270.018321984418
 20
1580.061495390592
 30
0.0
 10
1269.104007085497
 20
1580.061495390592
 30
0.0
 10
1268.682379057231
 20
1580.061495390592
 30
0.0
 10
1267.89048836492
 20
1580.061495390592
 30
0.0
 10
1267.519935766465
 20
1580.061495390592
 30
0.0
 10
1266.818613505232
 20
1580.061495390592
 30
0.0
 10
1266.487960609114
 20
1580.061495390592
 30
0.0
 10
1265.858449159588
 20
1580.061495390592
 30
0.0
 10
1265.559503973373
 20
1580.061495390592
 30
0.0
 10
1264.987569927491
 20
1580.061495390592
 30
0.0
 10
1264.711205438485
 20
1580.061495390592
 30
0.0
 10
1263.439711945737
 20
1580.061495390592
 30
0.0
 10
1262.765348387435
 20
1580.061495390592
 30
0.0
 10
1262.270228203111
 20
1580.061495390592
 30
0.0
 10
1262.188701844072
 20
1580.061495390592
 30
0.0
 10
1262.188706165535
 20
1580.061495390592
 30
0.0
  0
SPLINE
  5
11E
330
1F
100
AcDbEntity
  8
0
  6
Continuous
 62
     7
370
    15
100
AcDbSpline
210
0.0
220
0.0
230
1.0
 70
     8
 71
     3
 72
    75
 73
    71
 74
     0
 42
0.000000001
 43
0.00000001
 40
0.0
 40
0.0
 40
0.0
 40
0.0
 40
0.008537065756794
 40
0.0170736518115719
 40
0.0256098974844972
 40
0.0341459419978706
 40
0.042681924469683
 40
0.0512179839070767
 40
0.0597542591988016
 40
0.0682908891090924
 40
0.0768280122709413
 40
0.0853657671789199
 40
0.0939042921830885
 40
0.1024437254820118
 40
0.1109842051161378
 40
0.1195258689614032
 40
0.1280688547225298
 40
0.1366132999264662
 40
0.1451593419160209
 40
0.1537071178433832
 40
0.1622567646635637
 40
0.17080841912809
 40
0.1793622177791491
 40
0.1879182969418204
 40
0.1964766984926632
 40
0.2050370641348367
 40
0.2135992129464347
 40
0.2221629731532387
 40
0.2376317680894799
 40
0.2531073250185369
 40
0.2995876984833525
 40
0.3462015287058289
 40
0.3617899093396509
 40
0.3773794728366436
 40
0.4007168844384703
 40
0.4240189712502299
 40
0.4317966451554714
 40
0.4395992095660573
 40
0.444831576334679
 40
0.4501044336888287
 40
0.4553836630625406
 40
0.4632613470897728
 40
0.4711071407985546
 40
0.4906884277135565
 40
0.510440446878472
 40
0.5183161046409217
 40
0.5339881510126504
 40
0.5496850363953144
 40
0.551655972561792
 40
0.5536299873425987
 40
0.5595809577368523
 40
0.5655215342023223
 40
0.5812199975555281
 40
0.5968405282357956
 40
0.6124366213563993
 40
0.6280274996263039
 40
0.643621317264283
 40
0.6592217282912579
 40
0.6904470567896192
 40
0.7217071456096369
 40
0.7373344276302466
 40
0.7529494454268103
 40
0.7841495414369769
 40
0.8153163720944296
 40
0.8775233617540605
 40
0.9395972140535059
 40
0.954703091868647
 40
0.9698050087469855
 40
0.9849037230928639
 40
1.0
 40
1.0
 40
1.0
 40
1.0
 10
1422.182218998035
 20
1580.061470256474
 30
0.0
 10
1422.984334909059
 20
1580.061469113965
 30
0.0
 10
1424.588521659811
 20
1580.061466829012
 30
0.0
 10
1426.994708003687
 20
1580.061476766389
 30
0.0
 10
1429.400719909803
 20
1580.061494189948
 30
0.0
 10
1431.806557422885
 20
1580.061509446714
 30
0.0
 10
1434.212220589119
 20
1580.061511020832
 30
0.0
 10
1436.617709454102
 20
1580.061493773187
 30
0.0
 10
1439.023024063812
 20
1580.061481135098
 30
0.0
 10
1441.428164464083
 20
1580.061486994383
 30
0.0
 10
1443.833130700672
 20
1580.061501644849
 30
0.0
 10
1446.237922819556
 20
1580.061506612605
 30
0.0
 10
1448.642540866527
 20
1580.061499182342
 30
0.0
 10
1451.046984887474
 20
1580.061489759548
 30
0.0
 10
1453.451254928294
 20
1580.06148674403
 30
0.0
 10
1455.855351034939
 20
1580.061491559467
 30
0.0
 10
1458.259273252996
 20
1580.061499536947
 30
0.0
 10
1460.663021629592
 20
1580.061504277528
 30
0.0
 10
1463.066596206216
 20
1580.061501717046
 30
0.0
 10
1465.469997045358
 20
1580.061492380406
 30
0.0
 10
1467.873224131126
 20
1580.061481320574
 30
0.0
 10
1470.276277740491
 20
1580.061480906602
 30
0.0
 10
1472.679157057173
 20
1580.061507325724
 30
0.0
 10
1475.081856525469
 20
1580.0615332907
 30
0.0
 10
1477.484309129304
 20
1580.061474171851
 30
0.0
 10
1479.88667345975
 20
1580.061479755032
 30
0.0
 10
1482.288910383116
 20
1580.061479916786
 30
0.0
 10
1485.336557914154
 20
1580.061499042447
 30
0.0
 10
1489.029422872908
 20
1580.061521978038
 30
0.0
 10
1496.262485202173
 20
1580.061442661774
 30
0.0
 10
1506.393103228868
 20
1580.061531797932
 30
0.0
 10
1516.504098607594
 20
1580.06142003264
 30
0.0
 10
1523.711040893242
 20
1580.061536903221
 30
0.0
 10
1528.746634970863
 20
1580.061445249499
 30
0.0
 10
1534.465871684698
 20
1580.061631332243
 30
0.0
 10
1539.414008250793
 20
1580.061373357531
 30
0.0
 10
1542.885528233183
 20
1580.061401216726
 30
0.0
 10
1544.71613501516
 20
1580.061580810501
 30
0.0
 10
1546.294677554567
 20
1580.061661058093
 30
0.0
 10
1547.621508214577
 20
1580.061294090969
 30
0.0
 10
1549.148338006007
 20
1580.061313064148
 30
0.0
 10
1550.851770026753
 20
1580.061602528757
 30
0.0
 10
1553.632997146608
 20
1580.061608828023
 30
0.0
 10
1557.140418205518
 20
1580.061359003883
 30
0.0
 10
1560.274368209247
 20
1580.061465767596
 30
0.0
 10
1562.872043392854
 20
1580.061564367992
 30
0.0
 10
1565.011074982868
 20
1580.061636972986
 30
0.0
 10
1566.575048679226
 20
1580.061256071825
 30
0.0
 10
1567.416427825853
 20
1580.061494312529
 30
0.0
 10
1567.830908840813
 20
1580.061679794239
 30
0.0
 10
1568.362641243438
 20
1580.061570820875
 30
0.0
 10
1569.304875202138
 20
1580.061245262599
 30
0.0
 10
1570.369512146833
 20
1580.061578931077
 30
0.0
 10
1571.48975139293
 20
1580.061543767853
 30
0.0
 10
1572.460922215592
 20
1580.061445932696
 30
0.0
 10
1573.320633062031
 20
1580.061449432872
 30
0.0
 10
1574.100112997903
 20
1580.061577547657
 30
0.0
 10
1575.049947629728
 20
1580.061416289955
 30
0.0
 10
1576.104300203359
 20
1580.061573435913
 30
0.0
 10
1577.029729160382
 20
1580.061460466876
 30
0.0
 10
1577.710917898465
 20
1580.061519014483
 30
0.0
 10
1578.356393657605
 20
1580.061464146558
 30
0.0
 10
1579.101784039425
 20
1580.061467761558
 30
0.0
 10
1580.20312636677
 20
1580.061552152793
 30
0.0
 10
1581.261042019739
 20
1580.061472635269
 30
0.0
 10
1581.826578227969
 20
1580.061489966791
 30
0.0
 10
1582.043657846218
 20
1580.061501475891
 30
0.0
 10
1582.119397573628
 20
1580.06149803186
 30
0.0
 10
1582.166906655752
 20
1580.061478217281
 30
0.0
 10
1582.172790263889
 20
1580.061471552949
 30
0.0
 10
1582.175731830486
 20
1580.061468221053
 30
0.0
  0
SPLINE
  5
11F
330
1F
100
AcDbEntity
  8
0
  6
Continuous
 62
     7
370
    15
100
AcDbSpline
210
0.0
220
0.0
230
1.0
 70
    24
 71
     3
 72
    88
 73
    84
 74
     0
 42
0.000000001
 43
0.00000001
 40
0.0
 40
0.0
 40
0.0
 40
0.0
 40
0.03125
 40
0.0625
 40
0.09375
 40
0.125
 40
0.15625
 40
0.1666666666666667
 40
0.1875
 40
0.21875
 40
0.234375
 40
0.25
 40
0.265625
 40
0.28125
 40
0.296875
 40
0.3125
 40
0.328125
 40
0.34375
 40
0.359375
 40
0.375
 40
0.3828125
 40
0.390625
 40
0.3984375
 40
0.40625
 40
0.4140625
 40
0.421875
 40
0.4296875
 40
0.4375
 40
0.4444444444444444
 40
0.4453125
 40
0.44921875
 40
0.453125
 40
0.45703125
 40
0.4609375
 40
0.462890625
 40
0.46484375
 40
0.46875
 40
0.47265625
 40
0.4765625
 40
0.48046875
 40
0.484375
 40
0.4921875
 40
0.5
 40
0.5078125
 40
0.515625
 40
0.51953125
 40
0.5234375
 40
0.52734375
 40
0.53125
 40
0.53515625
 40
0.5390625
 40
0.54296875
 40
0.546875
 40
0.55078125
 40
0.5546875
 40
0.5555555555555556
 40
0.5625
 40
0.5703125
 40
0.578125
 40
0.5859375
 40
0.59375
 40
0.6015625
 40
0.609375
 40
0.6171875
 40
0.625
 40
0.640625
 40
0.65625
 40
0.671875
 40
0.6875
 40
0.703125
 40
0.71875
 40
0.734375
 40
0.75
 40
0.765625
 40
0.78125
 40
0.8125
 40
0.8333333333333334
 40
0.84375
 40
0.875
 40
0.90625
 40
0.9375
 40
0.96875
 40
1.0
 40
1.0
 40
1.0
 40
1.0
 10
1262.188706165535
 20
1573.061495390592
 30
0.0
 10
1262.188703928361
 20
1573.061495390592
 30
0.0
 10
1262.232374108124
 20
1573.061495390592
 30
0.0
 10
1262.428096393126
 20
1573.061495390592
 30
0.0
 10
1262.753109403774
 20
1573.061495390592
 30
0.0
 10
1263.208379715395
 20
1573.061495390592
 30
0.0
 10
1263.662167588891
 20
1573.061495390592
 30
0.0
 10
1264.109316176398
 20
1573.061495390592
 30
0.0
 10
1264.599202029584
 20
1573.061495390592
 30
0.0
 10
1265.203813936691
 20
1573.061495390592
 30
0.0
 10
1265.794432011889
 20
1573.061495390592
 30
0.0
 10
1266.258568017656
 20
1573.061495390592
 30
0.0
 10
1266.748791533996
 20
1573.061495390592
 30
0.0
 10
1267.264446877924
 20
1573.061495390592
 30
0.0
 10
1267.811552624682
 20
1573.061495390592
 30
0.0
 10
1268.392995311857
 20
1573.061495390592
 30
0.0
 10
1269.014804357861
 20
1573.061495390592
 30
0.0
 10
1269.684152339174
 20
1573.061495390592
 30
0.0
 10
1270.409300361852
 20
1573.061495390592
 30
0.0
 10
1271.072213757525
 20
1573.061495390592
 30
0.0
 10
1271.644850815699
 20
1573.061495390592
 30
0.0
 10
1272.099910330168
 20
1573.061495390592
 30
0.0
 10
1272.584817368198
 20
1573.061495390592
 30
0.0
 10
1273.1028445844
 20
1573.061495390592
 30
0.0
 10
1273.661179350203
 20
1573.061495390592
 30
0.0
 10
1274.269057439134
 20
1573.061495390592
 30
0.0
 10
1274.937966833609
 20
1573.061495390592
 30
0.0
 10
1275.661120451991
 20
1573.061495390592
 30
0.0
 10
1276.229576561436
 20
1573.061495390592
 30
0.0
 10
1276.695554265163
 20
1573.061495390592
 30
0.0
 10
1277.059384203788
 20
1573.061495390592
 30
0.0
 10
1277.570954422135
 20
1573.061495390592
 30
0.0
 10
1278.104036536877
 20
1573.061495390592
 30
0.0
 10
1278.566368845967
 20
1573.061495390592
 30
0.0
 10
1278.947195401209
 20
1573.061495390592
 30
0.0
 10
1279.335326385157
 20
1573.061495390592
 30
0.0
 10
1279.834180837782
 20
1573.061495390592
 30
0.0
 10
1280.454695077606
 20
1573.061495390592
 30
0.0
 10
1281.097029950452
 20
1573.061495390592
 30
0.0
 10
1281.761117192665
 20
1573.061495390592
 30
0.0
 10
1282.67527411752
 20
1573.061495390592
 30
0.0
 10
1283.871241607306
 20
1573.061495390592
 30
0.0
 10
1285.388972994865
 20
1573.061495390592
 30
0.0
 10
1286.985660884252
 20
1573.061495390592
 30
0.0
 10
1288.3784417069
 20
1573.061495390592
 30
0.0
 10
1289.52745254561
 20
1573.061495390592
 30
0.0
 10
1290.405913411102
 20
1573.061495390592
 30
0.0
 10
1291.300386659217
 20
1573.061495390592
 30
0.0
 10
1292.210131872467
 20
1573.061495390592
 30
0.0
 10
1293.134408633364
 20
1573.061495390592
 30
0.0
 10
1294.072520441858
 20
1573.061495390592
 30
0.0
 10
1295.023770797903
 20
1573.061495390592
 30
0.0
 10
1295.987358078824
 20
1573.061495390592
 30
0.0
 10
1296.962480661952
 20
1573.061495390592
 30
0.0
 10
1297.69290580098
 20
1573.061495390592
 30
0.0
 10
1298.690496937271
 20
1573.061495390592
 30
0.0
 10
1300.044516080263
 20
1573.061495390592
 30
0.0
 10
1302.038658692533
 20
1573.061495390592
 30
0.0
 10
1304.137472890659
 20
1573.061495390592
 30
0.0
 10
1306.254105311175
 20
1573.061495390592
 30
0.0
 10
1308.38471475494
 20
1573.061495390592
 30
0.0
 10
1310.524938784114
 20
1573.061495390592
 30
0.0
 10
1312.673387680315
 20
1573.061495390592
 30
0.0
 10
1314.828284897203
 20
1573.061495390592
 30
0.0
 10
1317.708155290091
 20
1573.061495390592
 30
0.0
 10
1321.318409948121
 20
1573.061495390592
 30
0.0
 10
1325.662933234927
 20
1573.061495390592
 30
0.0
 10
1330.016338906037
 20
1573.061495390592
 30
0.0
 10
1334.376818354301
 20
1573.061495390592
 30
0.0
 10
1338.742703977676
 20
1573.061495390592
 30
0.0
 10
1343.113132922578
 20
1573.061495390592
 30
0.0
 10
1347.487407828506
 20
1573.061495390592
 30
0.0
 10
1351.86463343041
 20
1573.061495390592
 30
0.0
 10
1356.244586823707
 20
1573.061495390592
 30
0.0
 10
1362.087461975179
 20
1573.061495390592
 30
0.0
 10
1368.420879379258
 20
1573.061495390592
 30
0.0
 10
1374.273171231938
 20
1573.061495390592
 30
0.0
 10
1380.128804566742
 20
1573.061495390592
 30
0.0
 10
1386.965345394353
 20
1573.061495390592
 30
0.0
 10
1395.762973754426
 20
1573.061495390592
 30
0.0
 10
1404.565911795729
 20
1573.061495390592
 30
0.0
 10
1413.373647243175
 20
1573.061495390592
 30
0.0
 10
1419.245243384065
 20
1573.061495390592
 30
0.0
 10
1422.182218998011
 20
1573.061495390592
 30
0.0
  0
LINE
  5
120
330
1F
100
AcDbEntity
  8
0
  6
Continuous
 62
     7
370
    15
100
AcDbLine
 10
1262.1887045794
 20
1573.0614951745
 30
0.0
 11
1262.1887045794
 21
1580.0614953906
 31
0.0
  0
SPLINE
  5
121
330
1F
100
AcDbEntity
  8
0
  6
Continuous
 62
     7
370
    15
100
AcDbSpline
210
0.0
220
0.0
230
1.0
 70
    24
 71
     3
 72
    68
 73
    64
 74
     0
 42
0.000000001
 43
0.00000001
 40
0.1390701400005545
 40
0.1390701400005545
 40
0.1390701400005545
 40
0.1390701400005545
 40
0.1542934227458411
 40
0.1542934227458411
 40
0.1855434227458406
 40
0.1855434227458406
 40
0.1933559227458405
 40
0.1933559227458405
 40
0.2011684227458404
 40
0.2011684227458404
 40
0.2089809227458403
 40
0.2089809227458403
 40
0.2167934227458402
 40
0.2167934227458402
 40
0.2246059227458401
 40
0.2246059227458401
 40
0.23241842274584
 40
0.23241842274584
 40
0.2402309227458399
 40
0.2402309227458399
 40
0.2441371727458399
 40
0.2441371727458399
 40
0.2480434227458398
 40
0.2480434227458398
 40
0.2499965477458398
 40
0.2499965477458398
 40
0.2509731102458398
 40
0.2509731102458398
 40
0.2519496727458398
 40
0.2519496727458398
 40
0.2558559227458398
 40
0.2558559227458398
 40
0.25976217274584
 40
0.25976217274584
 40
0.26171529774584
 40
0.26171529774584
 40
0.26366842274584
 40
0.26366842274584
 40
0.2714809227458399
 40
0.2714809227458399
 40
0.2753871727458398
 40
0.2753871727458398
 40
0.2773402977458398
 40
0.2773402977458398
 40
0.2792934227458398
 40
0.2792934227458398
 40
0.2831996727458397
 40
0.2831996727458397
 40
0.2871059227458396
 40
0.2871059227458396
 40
0.2949184227458396
 40
0.2949184227458396
 40
0.3027309227458395
 40
0.3027309227458395
 40
0.3105434227458393
 40
0.3105434227458393
 40
0.3261684227458391
 40
0.3261684227458391
 40
0.333980922745839
 40
0.333980922745839
 40
0.3417934227458388
 40
0.3417934227458388
 40
0.3902232827452816
 40
0.3902232827452816
 40
0.3902232827452816
 40
0.3902232827452816
 10
1582.175731830486
 20
1573.061495390592
 30
0.0
 10
1582.175736151949
 20
1573.061495390592
 30
0.0
 10
1582.09420979291
 20
1573.061495390592
 30
0.0
 10
1581.599089608586
 20
1573.061495390592
 30
0.0
 10
1580.924726050283
 20
1573.061495390592
 30
0.0
 10
1579.653232557535
 20
1573.061495390592
 30
0.0
 10
1579.37686806853
 20
1573.061495390592
 30
0.0
 10
1578.804934022648
 20
1573.061495390592
 30
0.0
 10
1578.505988836433
 20
1573.061495390592
 30
0.0
 10
1577.876477386906
 20
1573.061495390592
 30
0.0
 10
1577.545824490789
 20
1573.061495390592
 30
0.0
 10
1576.844502229556
 20
1573.061495390592
 30
0.0
 10
1576.473949631101
 20
1573.061495390592
 30
0.0
 10
1575.68205893879
 20
1573.061495390592
 30
0.0
 10
1575.260430910525
 20
1573.061495390592
 30
0.0
 10
1574.346116011603
 20
1573.061495390592
 30
0.0
 10
1573.853719732757
 20
1573.061495390592
 30
0.0
 10
1572.760677926731
 20
1573.061495390592
 30
0.0
 10
1572.161739004718
 20
1573.061495390592
 30
0.0
 10
1571.117936963908
 20
1573.061495390592
 30
0.0
 10
1570.745383501751
 20
1573.061495390592
 30
0.0
 10
1569.924198866813
 20
1573.061495390592
 30
0.0
 10
1569.477084554093
 20
1573.061495390592
 30
0.0
 10
1568.705259255742
 20
1573.061495390592
 30
0.0
 10
1568.429950253616
 20
1573.061495390592
 30
0.0
 10
1567.980353861937
 20
1573.061495390592
 30
0.0
 10
1567.824941386759
 20
1573.061495390592
 30
0.0
 10
1567.500258259628
 20
1573.061495390592
 30
0.0
 10
1567.332458142001
 20
1573.061495390592
 30
0.0
 10
1566.480761034867
 20
1573.061495390592
 30
0.0
 10
1565.744523434425
 20
1573.061495390592
 30
0.0
 10
1564.155982024277
 20
1573.061495390592
 30
0.0
 10
1563.303678620957
 20
1573.061495390592
 30
0.0
 10
1561.9329514883
 20
1573.061495390592
 30
0.0
 10
1561.460658804637
 20
1573.061495390592
 30
0.0
 10
1560.484372062362
 20
1573.061495390592
 30
0.0
 10
1559.979063562935
 20
1573.061495390592
 30
0.0
 10
1557.386770128502
 20
1573.061495390592
 30
0.0
 10
1555.127531394316
 20
1573.061495390592
 30
0.0
 10
1551.484057189568
 20
1573.061495390592
 30
0.0
 10
1550.227085348683
 20
1573.061495390592
 30
0.0
 10
1548.280527317277
 20
1573.061495390592
 30
0.0
 10
1547.619657456975
 20
1573.061495390592
 30
0.0
 10
1546.288216930201
 20
1573.061495390592
 30
0.0
 10
1545.614270324426
 20
1573.061495390592
 30
0.0
 10
1543.57376362407
 20
1573.061495390592
 30
0.0
 10
1542.191000350759
 20
1573.061495390592
 30
0.0
 10
1539.402728813842
 20
1573.061495390592
 30
0.0
 10
1537.9967314583
 20
1573.061495390592
 30
0.0
 10
1533.75627893986
 20
1573.061495390592
 30
0.0
 10
1530.899831455516
 20
1573.061495390592
 30
0.0
 10
1525.156304246341
 20
1573.061495390592
 30
0.0
 10
1522.265497719867
 20
1573.061495390592
 30
0.0
 10
1516.488309848552
 20
1573.061495390592
 30
0.0
 10
1513.59901491829
 20
1573.061495390592
 30
0.0
 10
1504.929671188057
 20
1573.061495390592
 30
0.0
 10
1499.148177543794
 20
1573.061495390592
 30
0.0
 10
1490.474264815068
 20
1573.061495390592
 30
0.0
 10
1487.582668137928
 20
1573.061495390592
 30
0.0
 10
1481.799003450928
 20
1573.061495390592
 30
0.0
 10
1478.906979547391
 20
1573.061495390592
 30
0.0
 10
1458.085025285981
 20
1573.061495390592
 30
0.0
 10
1440.140911841139
 20
1573.061495390592
 30
0.0
 10
1422.182218998011
 20
1573.061495390592
 30
0.0
  0
LINE
  5
122
330
1F
100
AcDbEntity
  8
0
  6
Continuous
 62
     7
370
    15
100
AcDbLine
 10
1582.1757334166
 20
1573.0614951745
 30
0.0
 11
1582.1757334166
 21
1580.0614953906
 31
0.0
  0
LINE
  5
123
330
1F
100
AcDbEntity
  8
0
  6
Continuous
 62
     7
370
    15
100
AcDbLine
 10
1582.1757334166
 20
1573.0614951745
 30
0.0
 11
1580.2476125651
 21
1571.1323293791
 31
0.0
  0
SPLINE
  5
124
330
1F
100
AcDbEntity
  8
0
  6
Continuous
 62
     7
370
    15
100
AcDbSpline
210
0.0
220
0.0
230
1.0
 70
     8
 71
     3
 72
    62
 73
    58
 74
     0
 42
0.000000001
 43
0.00000001
 40
0.0
 40
0.0
 40
0.0
 40
0.0
 40
0.0324906129287747
 40
0.0677099272685473
 40
0.1029296117001717
 40
0.1381490878112984
 40
0.173368702948828
 40
0.2079593540172949
 40
0.2425502276834641
 40
0.2771410083444767
 40
0.3117317130506665
 40
0.3311026047445538
 40
0.350473445422831
 40
0.3698442058810387
 40
0.3892148692155109
 40
0.3979119913289366
 40
0.4066090980246042
 40
0.4153061643439074
 40
0.4240032269763507
 40
0.4327001993802934
 40
0.4413970467947351
 40
0.4500933502988335
 40
0.4569106922992703
 40
0.4637271854004329
 40
0.4705450663518076
 40
0.4773627908643866
 40
0.4841804305710481
 40
0.4908762491052429
 40
0.4975721223083762
 40
0.5042679235705323
 40
0.510963791891433
 40
0.5176596148904249
 40
0.5243555277239309
 40
0.5310516269576585
 40
0.5377477820228069
 40
0.5430082319250884
 40
0.548269715849174
 40
0.5535312943251591
 40
0.5587929658997377
 40
0.5717061672079113
 40
0.5846197135157839
 40
0.5975334665352557
 40
0.610447301952317
 40
0.6233611745318846
 40
0.6362750914506198
 40
0.6565683074279639
 40
0.6768615677683314
 40
0.6971548575415789
 40
0.7333927396679071
 40
0.7696307449184908
 40
0.8058686748917876
 40
0.8382238745167143
 40
0.8705791329487428
 40
0.9029342825869131
 40
0.9352896336021702
 40
0.9676446510024707
 40
1.0
 40
1.0
 40
1.0
 40
1.0
 10
1567.269937961633
 20
1558.153921824752
 30
0.0
 10
1567.25697751348
 20
1558.15532896675
 30
0.0
 10
1567.229968142997
 20
1558.158261428583
 30
0.0
 10
1567.013136449607
 20
1558.193998920873
 30
0.0
 10
1566.661505269423
 20
1558.252430584165
 30
0.0
 10
1566.164612014584
 20
1558.332693804064
 30
0.0
 10
1565.534353585909
 20
1558.431004998062
 30
0.0
 10
1564.762561273603
 20
1558.543732695475
 30
0.0
 10
1563.89198122791
 20
1558.670690242802
 30
0.0
 10
1562.943964888932
 20
1558.809259619152
 30
0.0
 10
1562.039638098488
 20
1558.935470003073
 30
0.0
 10
1561.213676586501
 20
1559.043428982259
 30
0.0
 10
1560.50351765452
 20
1559.12972390473
 30
0.0
 10
1559.729958612199
 20
1559.216657558642
 30
0.0
 10
1559.031521176198
 20
1559.287414095284
 30
0.0
 10
1558.441658783009
 20
1559.341446067316
 30
0.0
 10
1557.99853045486
 20
1559.379352970366
 30
0.0
 10
1557.524796752276
 20
1559.4166186506
 30
0.0
 10
1557.01542448663
 20
1559.453110779644
 30
0.0
 10
1556.462772487241
 20
1559.488498145341
 30
0.0
 10
1555.854418070434
 20
1559.522283068629
 30
0.0
 10
1555.215012350408
 20
1559.551324268572
 30
0.0
 10
1554.538890815444
 20
1559.575407224194
 30
0.0
 10
1553.743869853016
 20
1559.590729643967
 30
0.0
 10
1552.877957758893
 20
1559.604065203214
 30
0.0
 10
1551.928751668062
 20
1559.614843958821
 30
0.0
 10
1550.903522443558
 20
1559.622974151491
 30
0.0
 10
1549.803259015468
 20
1559.628312848082
 30
0.0
 10
1548.631556658639
 20
1559.630829335197
 30
0.0
 10
1547.385275734267
 20
1559.630488330919
 30
0.0
 10
1546.069422009322
 20
1559.627301841168
 30
0.0
 10
1544.689701464444
 20
1559.621300484846
 30
0.0
 10
1543.254004388371
 20
1559.612684579253
 30
0.0
 10
1541.766258152089
 20
1559.601326621018
 30
0.0
 10
1540.353542528369
 20
1559.589425533116
 30
0.0
 10
1538.995463297537
 20
1559.574203123359
 30
0.0
 10
1537.72012217853
 20
1559.557239684941
 30
0.0
 10
1536.431007710536
 20
1559.538848921338
 30
0.0
 10
1534.501931270884
 20
1559.509881615347
 30
0.0
 10
1531.918450748945
 20
1559.468617283819
 30
0.0
 10
1528.675445145977
 20
1559.414446859565
 30
0.0
 10
1525.415837625842
 20
1559.358382537822
 30
0.0
 10
1522.1454435101
 20
1559.301077373741
 30
0.0
 10
1518.866528509051
 20
1559.242649063151
 30
0.0
 10
1514.955506728203
 20
1559.172732006536
 30
0.0
 10
1510.409532144713
 20
1559.091522406783
 30
0.0
 10
1505.227405268592
 20
1558.999899195979
 30
0.0
 10
1498.679225897828
 20
1558.886470130928
 30
0.0
 10
1490.76015166658
 20
1558.75477094323
 30
0.0
 10
1481.468157714202
 20
1558.610712202748
 30
0.0
 10
1472.499936367377
 20
1558.487495672323
 30
0.0
 10
1463.852474749404
 20
1558.383329898004
 30
0.0
 10
1455.528937972163
 20
1558.297715460491
 30
0.0
 10
1447.198409796858
 20
1558.229540034386
 30
0.0
 10
1438.862633449778
 20
1558.181444618656
 30
0.0
 10
1430.523309132082
 20
1558.153151473556
 30
0.0
 10
1424.962592276495
 20
1558.153180753231
 30
0.0
 10
1422.182219601229
 20
1558.153195393144
 30
0.0
  0
SPLINE
  5
125
330
1F
100
AcDbEntity
  8
0
  6
Continuous
 62
     7
370
    15
100
AcDbSpline
210
0.0
220
0.0
230
1.0
 70
     8
 71
     3
 72
    62
 73
    58
 74
     0
 42
0.000000001
 43
0.00000001
 40
0.0
 40
0.0
 40
0.0
 40
0.0
 40
0.0324767588474144
 40
0.0676965773648031
 40
0.1029167659793416
 40
0.1381367462704001
 40
0.1733568655898519
 40
0.2079480118363858
 40
0.2425393806838085
 40
0.2771306565247433
 40
0.3117218564097679
 40
0.331093025405192
 40
0.3504641433842758
 40
0.3698351811421418
 40
0.3892061217748818
 40
0.3979033683908533
 40
0.4066005995888458
 40
0.4152977904098962
 40
0.4239949775440336
 40
0.4326920744483789
 40
0.4413890463614339
 40
0.4500854743563593
 40
0.4569029139495887
 40
0.4637195046313915
 40
0.470537483183274
 40
0.4773553052941213
 40
0.4841730425978372
 40
0.4908689569851708
 40
0.4975649260422256
 40
0.5042608231572732
 40
0.5109567873320254
 40
0.51765270618422
 40
0.5243487388992915
 40
0.5310449091322667
 40
0.5377411600553713
 40
0.5430016852629546
 40
0.5482632445071443
 40
0.553524898304587
 40
0.5587866452019559
 40
0.5717000313674209
 40
0.5846137625375236
 40
0.5975277004221846
 40
0.6104417207056148
 40
0.6233557781520832
 40
0.6362698799383539
 40
0.6565633864206509
 40
0.6768569372666065
 40
0.6971505175458633
 40
0.7333889184309852
 40
0.7696274424421253
 40
0.8058659055625955
 40
0.8382215539592365
 40
0.8705772755688529
 40
0.9029328955991295
 40
0.9352887097932999
 40
0.9676441867558926
 40
1.0
 40
1.0
 40
1.0
 40
1.0
 10
1277.09452983671
 20
1558.153925550042
 30
0.0
 10
1277.107486075153
 20
1558.155332502417
 30
0.0
 10
1277.134492864909
 20
1558.158265241512
 30
0.0
 10
1277.351303528192
 20
1558.193999241911
 30
0.0
 10
1277.70293219556
 20
1558.25243049814
 30
0.0
 10
1278.199826123813
 20
1558.332693827128
 30
0.0
 10
1278.830084372719
 20
1558.431004992005
 30
0.0
 10
1279.601876732362
 20
1558.543732697086
 30
0.0
 10
1280.472456765443
 20
1558.670690242369
 30
0.0
 10
1281.420473107817
 20
1558.80925961927
 30
0.0
 10
1282.32479989743
 20
1558.935470003057
 30
0.0
 10
1283.150761409541
 20
1559.043428982263
 30
0.0
 10
1283.860920341495
 20
1559.129723904729
 30
0.0
 10
1284.634479383823
 20
1559.216657558642
 30
0.0
 10
1285.332916819823
 20
1559.287414095284
 30
0.0
 10
1285.922779213012
 20
1559.341446067316
 30
0.0
 10
1286.36590754116
 20
1559.379352970366
 30
0.0
 10
1286.839641243745
 20
1559.4166186506
 30
0.0
 10
1287.349013509391
 20
1559.453110779644
 30
0.0
 10
1287.901665508779
 20
1559.488498145341
 30
0.0
 10
1288.510019925588
 20
1559.522283068629
 30
0.0
 10
1289.149425645611
 20
1559.551324268572
 30
0.0
 10
1289.825547180584
 20
1559.575407224194
 30
0.0
 10
1290.620568142977
 20
1559.590729643967
 30
0.0
 10
1291.48648023723
 20
1559.604065203216
 30
0.0
 10
1292.435686327576
 20
1559.614843958815
 30
0.0
 10
1293.460915553881
 20
1559.622974151514
 30
0.0
 10
1294.561178975364
 20
1559.628312847996
 30
0.0
 10
1295.732881356756
 20
1559.630829335518
 30
0.0
 10
1296.979162189447
 20
1559.630488329722
 30
0.0
 10
1298.295016256552
 20
1559.627301845635
 30
0.0
 10
1299.674737174753
 20
1559.621300460995
 30
0.0
 10
1301.110439057622
 20
1559.612684629966
 30
0.0
 10
1302.598180762796
 20
1559.601326587781
 30
0.0
 10
1304.010895665056
 20
1559.589425536675
 30
0.0
 10
1305.368974651057
 20
1559.574203122504
 30
0.0
 10
1306.644315830174
 20
1559.557239685169
 30
0.0
 10
1307.933430282182
 20
1559.538848921278
 30
0.0
 10
1309.862506727523
 20
1559.50988161539
 30
0.0
 10
1312.445987246223
 20
1559.468617283804
 30
0.0
 10
1315.688992850272
 20
1559.414446859569
 30
0.0
 10
1318.948600370117
 20
1559.358382537821
 30
0.0
 10
1322.218994485937
 20
1559.301077373742
 30
0.0
 10
1325.497909486965
 20
1559.242649063149
 30
0.0
 10
1329.408931267824
 20
1559.172732006544
 30
0.0
 10
1333.954905851277
 20
1559.091522406735
 30
0.0
 10
1339.137032727539
 20
1558.999899196157
 30
0.0
 10
1345.685212097646
 20
1558.886470130043
 30
0.0
 10
1353.604286333331
 20
1558.754770949523
 30
0.0
 10
1362.896281497296
 20
1558.610712160629
 30
0.0
 10
1371.864502909204
 20
1558.487495738422
 30
0.0
 10
1380.511964470556
 20
1558.383329865581
 30
0.0
 10
1388.835500644187
 20
1558.297715454724
 30
0.0
 10
1397.166029443133
 20
1558.229540042221
 30
0.0
 10
1405.501806098556
 20
1558.181444620057
 30
0.0
 10
1413.841130197258
 20
1558.153151472277
 30
0.0
 10
1419.401846834307
 20
1558.153180752804
 30
0.0
 10
1422.182219601364
 20
1558.153195393144
 30
0.0
  0
LINE
  5
126
330
1F
100
AcDbEntity
  8
0
  6
Continuous
 62
     7
370
    15
100
AcDbLine
 10
1262.1887045794
 20
1573.0614951745
 30
0.0
 11
1270.186604827
 21
1565.0592819721
 31
0.0
  0
LINE
  5
127
330
1F
100
AcDbEntity
  8
0
  6
Continuous
 62
     7
370
    15
100
AcDbLine
 10
1546.9527783685
 20
1556.0402982802
 30
0.0
 11
1547.506691783
 21
1556.0956933469
 31
0.0
  0
SPLINE
  5
128
330
1F
100
AcDbEntity
  8
0
  6
Continuous
 62
     7
370
    15
100
AcDbSpline
210
0.0
220
0.0
230
1.0
 70
     8
 71
     3
 72
    15
 73
    11
 74
     0
 42
0.000000001
 43
0.00000001
 40
0.0
 40
0.0
 40
0.0
 40
0.0
 40
0.0185849092054684
 40
0.2064319710383512
 40
0.3127600428234567
 40
0.4197798952283132
 40
0.5289889008763755
 40
0.6389644312110181
 40
0.8175170134701744
 40
1.0
 40
1.0
 40
1.0
 40
1.0
 10
1434.701751812632
 20
1550.121361476241
 30
0.0
 10
1434.69068016965
 20
1550.121246024511
 30
0.0
 10
1434.567701840397
 20
1550.11996364385
 30
0.0
 10
1434.296122505837
 20
1550.117654469414
 30
0.0
 10
1433.924612825659
 20
1550.114632004088
 30
0.0
 10
1433.590972677891
 20
1550.112089271676
 30
0.0
 10
1433.226399983729
 20
1550.109434185164
 30
0.0
 10
1432.748449818424
 20
1550.106116079514
 30
0.0
 10
1432.138046048598
 20
1550.10207504115
 30
0.0
 10
1431.625186932371
 20
1550.098903075027
 30
0.0
 10
1431.365965760584
 20
1550.097299826203
 30
0.0
  0
LINE
  5
129
330
1F
100
AcDbEntity
  8
0
  6
Continuous
 62
     7
370
    15
100
AcDbLine
 10
1434.6899957278
 20
1550.1216874391
 30
0.0
 11
1435.0012977489
 21
1550.1244590551
 31
0.0
  0
LINE
  5
12A
330
1F
100
AcDbEntity
  8
0
  6
Continuous
 62
     7
370
    15
100
AcDbLine
 10
1432.1661692926
 20
1550.0995648027
 30
0.0
 11
1432.2511487522
 21
1550.1002372176
 31
0.0
  0
LINE
  5
12B
330
1F
100
AcDbEntity
  8
0
  6
Continuous
 62
     7
370
    15
100
AcDbLine
 10
1418.4931890455
 20
1550.0667096049
 30
0.0
 11
1418.2393195921
 21
1550.0676595539
 31
0.0
  0
LINE
  5
12C
330
1F
100
AcDbEntity
  8
0
  6
Continuous
 62
     7
370
    15
100
AcDbLine
 10
1422.1822190153
 20
1550.0614960611
 30
0.0
 11
1422.2071364116
 21
1550.0615165502
 31
0.0
  0
SPLINE
  5
12D
330
1F
100
AcDbEntity
  8
0
  6
Continuous
 62
     7
370
    15
100
AcDbSpline
210
0.0
220
0.0
230
1.0
 70
     8
 71
     3
 72
    10
 73
     6
 74
     0
 42
0.000000001
 43
0.00000001
 40
0.0
 40
0.0
 40
0.0
 40
0.0
 40
0.1803682912974301
 40
0.7903050118111203
 40
0.9999999999999999
 40
0.9999999999999999
 40
0.9999999999999999
 40
0.9999999999999999
 10
1435.206539823945
 20
1550.12627699679
 30
0.0
 10
1435.198529031321
 20
1550.126192443003
 30
0.0
 10
1435.1634287955
 20
1550.125821960581
 30
0.0
 10
1435.088937870986
 20
1550.125180481199
 30
0.0
 10
1435.01915110012
 20
1550.124606024432
 30
0.0
 10
1435.001296817596
 20
1550.124459055124
 30
0.0
  0
LINE
  5
12E
330
1F
100
AcDbEntity
  8
0
  6
Continuous
 62
     7
370
    15
100
AcDbLine
 10
1418.390495132
 20
1550.0670858592
 30
0.0
 11
1418.4932421309
 21
1550.0667096049
 31
0.0
  0
LINE
  5
12F
330
1F
100
AcDbEntity
  8
0
  6
Continuous
 62
     7
370
    15
100
AcDbLine
 10
1422.182218998
 20
1550.0614997864
 30
0.0
 11
1422.1822189808
 21
1550.0614960611
 31
0.0
  0
SPLINE
  5
130
330
1F
100
AcDbEntity
  8
0
  6
Continuous
 62
     7
370
    15
100
AcDbSpline
210
0.0
220
0.0
230
1.0
 70
     8
 71
     3
 72
  1692
 73
  1688
 74
     0
 42
0.000000001
 43
0.00000001
 40
0.5049786540890494
 40
0.5049786540890494
 40
0.5049786540890494
 40
0.5049786540890494
 40
0.5050456453634666
 40
0.5052374310926662
 40
0.5054370399222593
 40
0.5056700142315953
 40
0.5058795011130819
 40
0.506112251257989
 40
0.5063682645651677
 40
0.5066475409231966
 40
0.5069298193603446
 40
0.5073089107083283
 40
0.5076388744071383
 40
0.507919710759934
 40
0.5081514200252452
 40
0.5083588314675173
 40
0.5085707388802113
 40
0.5087555753003974
 40
0.5089437288391409
 40
0.5091351994846285
 40
0.5093420915807712
 40
0.5095868737966618
 40
0.5098061359616729
 40
0.5100490993080443
 40
0.5103157637271808
 40
0.5106029778645497
 40
0.5108769684445509
 40
0.5112432792737046
 40
0.5115600530260344
 40
0.5118272899978277
 40
0.512046644144245
 40
0.5122550077565108
 40
0.5124675711868729
 40
0.5126843344183979
 40
0.5129052974338126
 40
0.5131385879172048
 40
0.5134207134666665
 40
0.5137560898212974
 40
0.514144716642951
 40
0.5144808814436219
 40
0.5147957762624442
 40
0.5150798905928653
 40
0.5153332246006738
 40
0.5155557784337788
 40
0.5157475522222135
 40
0.5160458793664827
 40
0.5163481993838787
 40
0.5166585539977268
 40
0.516845283368809
 40
0.5170546765035304
 40
0.517302036703274
 40
0.5175873637902012
 40
0.5178742029393634
 40
0.5181910440625419
 40
0.5185036327565993
 40
0.5187880448891019
 40
0.5190442806121329
 40
0.5192723400627166
 40
0.5194722233628352
 40
0.5196439306194577
 40
0.5198210773066606
 40
0.5200007416294211
 40
0.5201831977831308
 40
0.5203684457581937
 40
0.5205564855448704
 40
0.5207507592345593
 40
0.520978837580984
 40
0.5212756752925716
 40
0.5216206524400931
 40
0.5220136357476233
 40
0.5224035261860873
 40
0.5227487613331483
 40
0.5230238612536282
 40
0.5232620564083144
 40
0.5234633469635576
 40
0.5236406777932174
 40
0.5238200251678111
 40
0.5240021196488126
 40
0.5241869612268807
 40
0.5243588125804839
 40
0.5245336464215118
 40
0.5247322001938309
 40
0.5249642617860474
 40
0.5252298310522028
 40
0.5255289078252644
 40
0.5258610962314271
 40
0.5261877670189362
 40
0.5264833982698918
 40
0.5267479901569616
 40
0.5269815428345739
 40
0.5271840564389859
 40
0.5273848487361339
 40
0.5275772294332749
 40
0.5277728458478061
 40
0.5279716979680397
 40
0.5281582321743277
 40
0.5283477134615575
 40
0.5285619169055377
 40
0.5288157527371107
 40
0.529109220769166
 40
0.5293676058563714
 40
0.5296504575108503
 40
0.5299348201913919
 40
0.5301965037732991
 40
0.5304355042440169
 40
0.5307074337974769
 40
0.5309424599516515
 40
0.5311405828679917
 40
0.5313175901131698
 40
0.5314972296920315
 40
0.5316797378007455
 40
0.5318651144297739
 40
0.5320296720556399
 40
0.5321970913531309
 40
0.5323862060404023
 40
0.5326056154340202
 40
0.5328553194118046
 40
0.5331353178347592
 40
0.533445610547179
 40
0.5337636624009889
 40
0.5340670986220908
 40
0.5343396154248198
 40
0.534581212964342
 40
0.5347918913780784
 40
0.534971650785813
 40
0.5351338093034808
 40
0.5353134073305983
 40
0.5354960423665719
 40
0.5356817144014425
 40
0.5358704234250973
 40
0.5360646058872461
 40
0.5362907196139634
 40
0.5365559958598001
 40
0.5368335687767091
 40
0.5371440487648713
 40
0.5374799265915218
 40
0.5377934585802266
 40
0.5380762219072829
 40
0.5383282167307702
 40
0.5385494431913751
 40
0.5387399014125047
 40
0.5389044749224479
 40
0.5390682531168867
 40
0.5392347863617434
 40
0.5394040746489035
 40
0.5396071299022451
 40
0.5398140119685182
 40
0.5400436500257543
 40
0.5403182883924609
 40
0.5405737312582349
 40
0.5408587158213924
 40
0.5411730642091566
 40
0.541483923980842
 40
0.5417669422470378
 40
0.5420221191488214
 40
0.5422494548131834
 40
0.5424489493531202
 40
0.5426604173186117
 40
0.5428559985342755
 40
0.5430559292990402
 40
0.5432602095977711
 40
0.543468839415022
 40
0.5436460201335802
 40
0.543839379329778
 40
0.5440645030474648
 40
0.5443214185378857
 40
0.5446101256578623
 40
0.5449306242467175
 40
0.5453157071041519
 40
0.5456593388710398
 40
0.5459609094198171
 40
0.5462204189733101
 40
0.5464414320145611
 40
0.5466366248051481
 40
0.5468361452108863
 40
0.5470404883021572
 40
0.5472496540621066
 40
0.5474597789615051
 40
0.5476895156796548
 40
0.547962065819159
 40
0.5482776949612709
 40
0.5485612150006663
 40
0.5488712474368018
 40
0.549172105994879
 40
0.5494463459664066
 40
0.5496939674776334
 40
0.5499112575764794
 40
0.5501028715922989
 40
0.5502688096098746
 40
0.550419146663158
 40
0.5506207299747008
 40
0.5508278354464099
 40
0.5510404630590438
 40
0.5512586127928766
 40
0.5514930101246284
 40
0.5517705265392027
 40
0.5520924484981737
 40
0.5524587757600145
 40
0.552816820951617
 40
0.5531487102292606
 40
0.5534454438725724
 40
0.5537070220585505
 40
0.5539334449429656
 40
0.5541247558941544
 40
0.5543028075926297
 40
0.5545168495805263
 40
0.5547376923215
 40
0.5549653357907113
 40
0.5552008023800111
 40
0.5554712070268418
 40
0.555788601161002
 40
0.5560709466702979
 40
0.5563823007079253
 40
0.556706921327565
 40
0.5570044886026265
 40
0.557272982356362
 40
0.5575124027188373
 40
0.5577404306219201
 40
0.5579338590553679
 40
0.5581118057980515
 40
0.5582953579263481
 40
0.5584845279423857
 40
0.5586793158288627
 40
0.5588797215679852
 40
0.5590710413829196
 40
0.5592870473844296
 40
0.5595308319837972
 40
0.5598023950706607
 40
0.5601017365221608
 40
0.5604246628219315
 40
0.5607872435654109
 40
0.561108724981863
 40
0.5613891072876273
 40
0.5616283906710778
 40
0.5618298628036095
 40
0.5622287020654522
 40
0.5626570368915246
 40
0.5628662126796733
 40
0.5631002184347216
 40
0.5633656356738828
 40
0.5636624642636529
 40
0.5639907040547941
 40
0.5643385468821055
 40
0.5646581974440187
 40
0.564971404489521
 40
0.5652443741789059
 40
0.5654771066887232
 40
0.5656758098256921
 40
0.5658771009792466
 40
0.5660869794298834
 40
0.5663054451491243
 40
0.5665324981073607
 40
0.5667722542065656
 40
0.5670450476196179
 40
0.5672844933271326
 40
0.567546034007028
 40
0.567829669568316
 40
0.568127923684733
 40
0.5684062526917121
 40
0.5687254184973229
 40
0.5690053048403888
 40
0.569245911894929
 40
0.5694491283094507
 40
0.5696492214077404
 40
0.5699258061415509
 40
0.5702188999469106
 40
0.570529258258897
 40
0.5708428524614153
 40
0.5712020331751048
 40
0.5716068001459776
 40
0.5720404745268358
 40
0.5724303637357868
 40
0.5727679976520805
 40
0.5729944052258464
 40
0.5731892227486209
 40
0.5733679077533589
 40
0.5735551673525678
 40
0.573751323770843
 40
0.5739563769813129
 40
0.5741703269559115
 40
0.5744182102978936
 40
0.5746940412896655
 40
0.5750005448247512
 40
0.5753377207593244
 40
0.5757037726520395
 40
0.5760528210963927
 40
0.5763647988053113
 40
0.5766397059571585
 40
0.57687754270894
 40
0.5770801832682508
 40
0.5774879331633259
 40
0.577941993755125
 40
0.5782216766846815
 40
0.5785315251482619
 40
0.578875960324802
 40
0.5792549820342973
 40
0.5796577098142318
 40
0.5800247890312612
 40
0.5803472536401828
 40
0.5806251038602611
 40
0.580914698981852
 40
0.5812049540946391
 40
0.5815214711311325
 40
0.5818642499659001
 40
0.5822394043809528
 40
0.5825358484510931
 40
0.5828569182875062
 40
0.5832026137719665
 40
0.5835542813096855
 40
0.5838727322309885
 40
0.584151951106696
 40
0.5843979269124532
 40
0.5846106597716363
 40
0.5848047262590967
 40
0.5851051047988565
 40
0.5854345799598031
 40
0.5857931536049221
 40
0.5861874123241398
 40
0.5866234966291385
 40
0.5869605927714999
 40
0.5873096121096285
 40
0.5876301076209891
 40
0.5879174521173739
 40
0.5881716457414543
 40
0.5883926886193888
 40
0.588590888707409
 40
0.588885892975397
 40
0.58921189474971
 40
0.5895688938799869
 40
0.589957835276912
 40
0.5903102371769353
 40
0.5906862345098743
 40
0.5910812947285233
 40
0.5914472335462134
 40
0.5917710751246191
 40
0.5920528196666157
 40
0.5922927363973874
 40
0.5926242581969564
 40
0.5930012676027868
 40
0.5934237643609207
 40
0.5938869172700726
 40
0.5942825234760379
 40
0.594700417573024
 40
0.5951148968172065
 40
0.5954818906599025
 40
0.5958006449623848
 40
0.5960172534067936
 40
0.5962154796198377
 40
0.596430875508406
 40
0.5966659984785858
 40
0.5969208484619383
 40
0.5972737336727643
 40
0.597650434416215
 40
0.5980427573697792
 40
0.5984507024227897
 40
0.5988608974582863
 40
0.5991541003050119
 40
0.599419295017887
 40
0.5996564817064711
 40
0.5998656604687368
 40
0.6000664489908659
 40
0.6003535020202151
 40
0.6006756804968278
 40
0.6010329842542315
 40
0.6014166225891958
 40
0.6018093047049065
 40
0.6022105708978502
 40
0.602614409962071
 40
0.6029234723929237
 40
0.6032031448132341
 40
0.6034534273439092
 40
0.6036743200931286
 40
0.60388912698674
 40
0.6041302288511137
 40
0.604448412662221
 40
0.6048034135355148
 40
0.6051874182010505
 40
0.6055745014332036
 40
0.6059209713704246
 40
0.6062682046662916
 40
0.606599140074875
 40
0.6069000115512916
 40
0.6071708192283324
 40
0.6074115632254916
 40
0.6076340711933577
 40
0.6078839932917208
 40
0.6081658626221278
 40
0.6084796790526091
 40
0.6088248421194745
 40
0.6091772563085285
 40
0.6095243953838483
 40
0.6098662593740397
 40
0.610201286255396
 40
0.6105131936506937
 40
0.6108105186872702
 40
0.6110777242241044
 40
0.611315010565031
 40
0.6115612958651471
 40
0.611845648759444
 40
0.612168069089544
 40
0.6125623044482628
 40
0.612975299215922
 40
0.6133732175297312
 40
0.6137559309326007
 40
0.6141204109696651
 40
0.6144484755178835
 40
0.6147455796540594
 40
0.6150117235127945
 40
0.615263265477481
 40
0.6154945434360065
 40
0.6157559813184855
 40
0.6160475790097621
 40
0.6163693363813967
 40
0.6167047734293689
 40
0.6171222521784109
 40
0.6175143363794948
 40
0.6178806377920909
 40
0.6182093776169191
 40
0.6185096768774704
 40
0.6187815356985463
 40
0.6190368119915685
 40
0.6193364764061497
 40
0.619689164403063
 40
0.6200948757098063
 40
0.6204991686113908
 40
0.6208805262646573
 40
0.6212338519408116
 40
0.6215591457865379
 40
0.6218601068132591
 40
0.622140520991518
 40
0.6224175841864238
 40
0.6226711635871442
 40
0.6229332217028769
 40
0.6232498208455896
 40
0.6235370980009389
 40
0.6238582732069218
 40
0.6242090737007197
 40
0.6245457862022543
 40
0.6249133290491624
 40
0.6252446705922123
 40
0.6255424776792937
 40
0.6258211131081918
 40
0.6260827171180674
 40
0.6263272897738044
 40
0.626499601677617
 40
0.6266837431134246
 40
0.6268969631191004
 40
0.6271392616050177
 40
0.6274106384692352
 40
0.6277110935975502
 40
0.6280361236878473
 40
0.6283455021545302
 40
0.6286987144613849
 40
0.6290121368976909
 40
0.6292867763441319
 40
0.6295420784705641
 40
0.6297855131967602
 40
0.6300085168269492
 40
0.6302205360073241
 40
0.6304349926631523
 40
0.6306923782089485
 40
0.6309954458143859
 40
0.6313441952801875
 40
0.6316502597927096
 40
0.6319688791457618
 40
0.6322619341825598
 40
0.6325277047270317
 40
0.6327661908843817
 40
0.6329773927492485
 40
0.633348762313897
 40
0.6336995085831914
 40
0.6340309557878966
 40
0.6342311842756475
 40
0.6344719653409667
 40
0.6347547375012629
 40
0.6350795005867671
 40
0.6353879865222459
 40
0.635719725908158
 40
0.6360301911649859
 40
0.6363114980570987
 40
0.6365636467026665
 40
0.6367866372077884
 40
0.6370914023220494
 40
0.6373896368346579
 40
0.6376866673236535
 40
0.6379091960795992
 40
0.6381585350991429
 40
0.6384496465882
 40
0.638782530374751
 40
0.6390733863392922
 40
0.6393829629145841
 40
0.6396722465071113
 40
0.6399352689228536
 40
0.6402370460013348
 40
0.6404947237422292
 40
0.6407083023082506
 40
0.6409027740268026
 40
0.6411038329286164
 40
0.6413077144609066
 40
0.6415179511685659
 40
0.6417345430329784
 40
0.6419732124493712
 40
0.6422189650375432
 40
0.6424955263896408
 40
0.6428028963861192
 40
0.6431389000115154
 40
0.6434602766312071
 40
0.6437501641078994
 40
0.6440085625708544
 40
0.6442354721353758
 40
0.6444890356639339
 40
0.6447187912265719
 40
0.6449619671436276
 40
0.6452186120858128
 40
0.6454887260052827
 40
0.645780463232149
 40
0.6460398810816529
 40
0.6463266666647164
 40
0.646640819872612
 40
0.6469796010938256
 40
0.6473009072746663
 40
0.6475904238051837
 40
0.6478694353944673
 40
0.6481107798793398
 40
0.6483151473241685
 40
0.6485149981092796
 40
0.6487280983112602
 40
0.649027193646642
 40
0.6493490096192983
 40
0.649700855905378
 40
0.6500503360324618
 40
0.6504332822042571
 40
0.6508449107740336
 40
0.6512269282808626
 40
0.6515621215287388
 40
0.6518504907356141
 40
0.6520924557848716
 40
0.6523297121778983
 40
0.6525899094682038
 40
0.652873047574862
 40
0.6531791264098135
 40
0.6535078512213005
 40
0.6538381029038624
 40
0.6541880626747658
 40
0.6545575631204827
 40
0.65491406197388
 40
0.6552332514293707
 40
0.6554910478755694
 40
0.6557180103530175
 40
0.6559171597955865
 40
0.6561257585187286
 40
0.656354896174346
 40
0.6566045726994286
 40
0.6568747880253492
 40
0.6572759879571045
 40
0.6576939861900299
 40
0.6581264781331989
 40
0.6585656855865725
 40
0.6588868028641254
 40
0.6591747663610423
 40
0.6594295767150602
 40
0.6596516378752424
 40
0.6598785711615643
 40
0.660130157775959
 40
0.6604101929403053
 40
0.6607186776626192
 40
0.6610511515567516
 40
0.6614690894686267
 40
0.6618870249281598
 40
0.6623029738692122
 40
0.6626864874600031
 40
0.6630272227752478
 40
0.663325181323227
 40
0.663537431272003
 40
0.6637737629529569
 40
0.6640402524992602
 40
0.6643369066153804
 40
0.6646637301068883
 40
0.665005326454492
 40
0.6654981525991852
 40
0.6659668612318379
 40
0.6664021007901552
 40
0.666790744642228
 40
0.6670633624262118
 40
0.6673156525050847
 40
0.6676051614148028
 40
0.6679426997755391
 40
0.6682667711301208
 40
0.6686237896562545
 40
0.668975372383414
 40
0.669305390164683
 40
0.6696138448748373
 40
0.6699008913278914
 40
0.6702165160930518
 40
0.6705095549765941
 40
0.6707800113024307
 40
0.6710301649696195
 40
0.6712520838423013
 40
0.6715092324324348
 40
0.671801616686175
 40
0.6721292405773577
 40
0.6724881368888207
 40
0.672931695712295
 40
0.6733251183008603
 40
0.6736684185602734
 40
0.6738856320640271
 40
0.6740942473824247
 40
0.6742942650381233
 40
0.6744856856200657
 40
0.6746685097961422
 40
0.6748500304089254
 40
0.6750611675375487
 40
0.6752837858798227
 40
0.6755342174906817
 40
0.6758124633348078
 40
0.6761185240804503
 40
0.6764349274106672
 40
0.6767248999712272
 40
0.6770364275097626
 40
0.6773082032671767
 40
0.6775412638430265
 40
0.6777583106837859
 40
0.6779686132364838
 40
0.6781685957355762
 40
0.6783620727895463
 40
0.6785503335260762
 40
0.6787617878157453
 40
0.6790128678193262
 40
0.6793000513289561
 40
0.6796233383343793
 40
0.6799817818729018
 40
0.6803294074962286
 40
0.6806355645886845
 40
0.6809067785523258
 40
0.6811430495087647
 40
0.6813443907879835
 40
0.6815364998739044
 40
0.6817354708689094
 40
0.6819413037568992
 40
0.6821539985212204
 40
0.6823736732734678
 40
0.6826196830995335
 40
0.6829061064629273
 40
0.6832008798389263
 40
0.6835289070198364
 40
0.6838769442289916
 40
0.6841958044538786
 40
0.6844808598701347
 40
0.684732110593146
 40
0.6849495567246179
 40
0.6852000194454068
 40
0.6854535349966033
 40
0.6857245115199927
 40
0.6860129489599955
 40
0.6862868190481036
 40
0.6865925541983522
 40
0.6869344768295997
 40
0.6873125867988843
 40
0.6877135157423863
 40
0.6880768459555117
 40
0.6883952141569848
 40
0.6886686205156931
 40
0.6889285846191876
 40
0.6891905687954711
 40
0.6894787631559841
 40
0.6897931676126963
 40
0.6901339317669936
 40
0.6905027142298059
 40
0.6908999745882111
 40
0.6912320857600188
 40
0.6915671884570415
 40
0.6918722818545475
 40
0.6921461058083995
 40
0.6923886604183909
 40
0.6925999457728911
 40
0.6927981653221923
 40
0.6931306795098972
 40
0.6935101458659662
 40
0.693935624497294
 40
0.6943836452018721
 40
0.694844041128546
 40
0.6953117323806463
 40
0.695649326791462
 40
0.6959513607569408
 40
0.696217834401118
 40
0.6964509927132855
 40
0.6967001546738325
 40
0.6969854830691454
 40
0.6973069777806956
 40
0.6976646332630795
 40
0.6980350964568163
 40
0.6983963990595163
 40
0.6987485411127944
 40
0.6990900971101323
 40
0.6993895918164039
 40
0.6996638924468969
 40
0.6999129990809881
 40
0.7001369117907317
 40
0.7003625413625401
 40
0.7006709506186686
 40
0.7010309846059678
 40
0.701442643111708
 40
0.7018719737661302
 40
0.7022703068074011
 40
0.7026309862225393
 40
0.7029623439230356
 40
0.703269152778857
 40
0.7035520766079688
 40
0.7037612185043483
 40
0.7039564521191256
 40
0.7041734459203711
 40
0.7044278903331495
 40
0.7047197852486969
 40
0.7050429209694629
 40
0.7054001403364182
 40
0.7057452370832328
 40
0.7060590566151146
 40
0.7063464466749129
 40
0.706601412054422
 40
0.7068344780357257
 40
0.7070578511215637
 40
0.707271547794977
 40
0.7074720097138367
 40
0.7076631377654364
 40
0.7078691569980724
 40
0.7081168294841658
 40
0.708344969540218
 40
0.7085997780254704
 40
0.7088812548618799
 40
0.7091886695568559
 40
0.7094885006036027
 40
0.7098421393188125
 40
0.7101515545945665
 40
0.7104167465906256
 40
0.7107013798125206
 40
0.7109868109552313
 40
0.7112742848554853
 40
0.711568809646992
 40
0.7118349658538509
 40
0.7121387195261268
 40
0.7124800706315628
 40
0.712857399075741
 40
0.7132834326609082
 40
0.7136523440167521
 40
0.7139641338675622
 40
0.7142188032209991
 40
0.714447885722232
 40
0.7146915641694905
 40
0.7149499822280854
 40
0.7152231400854085
 40
0.7155173209766577
 40
0.7158505874559417
 40
0.7162240678555852
 40
0.7166375247635923
 40
0.7169579251970749
 40
0.7172476984742003
 40
0.7175068447534546
 40
0.71773536420476
 40
0.7179332570231982
 40
0.718111542268146
 40
0.7184267283608315
 40
0.7187784834567973
 40
0.7191667029994889
 40
0.7195805465012707
 40
0.7200128198191319
 40
0.7204626959795208
 40
0.720802791833926
 40
0.7211167188440124
 40
0.7214046554328046
 40
0.7216670192231591
 40
0.721934630188142
 40
0.7222299126611232
 40
0.7226209577386977
 40
0.7230502954537764
 40
0.7234861789160469
 40
0.72391729702711
 40
0.7243430322354888
 40
0.7246570033928641
 40
0.7249436714255595
 40
0.72520303698056
 40
0.7254351008912736
 40
0.725656679497311
 40
0.7259865033661725
 40
0.7263730177665461
 40
0.7268161323893327
 40
0.7272692325975879
 40
0.7276937228173453
 40
0.7282061592367752
 40
0.7286653585815771
 40
0.7290697177253128
 40
0.7292516545560882
 40
0.7294467028286252
 40
0.7296717749864703
 40
0.7299268764667084
 40
0.7302120109507522
 40
0.7305271810289873
 40
0.7309140928791693
 40
0.7312672642844693
 40
0.7315846867858177
 40
0.7318663617946322
 40
0.7320810720881124
 40
0.7322874126355213
 40
0.7324856463384871
 40
0.7326757734757557
 40
0.7328577943598427
 40
0.7330348553401214
 40
0.7332391839923261
 40
0.733457866332108
 40
0.7337065660777816
 40
0.7339852836692884
 40
0.7342940193811976
 40
0.7346232550722822
 40
0.7349282559390047
 40
0.735254723484772
 40
0.7355380638463057
 40
0.7357783601118819
 40
0.7360018077064253
 40
0.7362292633151589
 40
0.7364565585040456
 40
0.7366877198241362
 40
0.7369319534430653
 40
0.7372098638870804
 40
0.7375282163309276
 40
0.7378822765525443
 40
0.738262475439082
 40
0.7386115621155364
 40
0.7389200220355178
 40
0.7391834288651271
 40
0.7394076472026967
 40
0.7395993540427881
 40
0.7397977346755292
 40
0.7401037920027169
 40
0.740436503869248
 40
0.7407984644688627
 40
0.7412037554535469
 40
0.7416544925243095
 40
0.7420009457987369
 40
0.7423278814314987
 40
0.7426214679524997
 40
0.7428817054627876
 40
0.7431085940516415
 40
0.7433019538604306
 40
0.7435040402952292
 40
0.7437263518013129
 40
0.743968888333525
 40
0.744350453224618
 40
0.7447634973807811
 40
0.7451883507810478
 40
0.7456244592252215
 40
0.7460527285196472
 40
0.746431492896625
 40
0.7467592935111717
 40
0.7470396187943511
 40
0.7473464532555326
 40
0.7477095455644617
 40
0.7480342988518494
 40
0.748390224637825
 40
0.7487409823067716
 40
0.749077059480117
 40
0.749398456210004
 40
0.7498524157310409
 40
0.7502565230724262
 40
0.7506099519116254
 40
0.750801702818167
 40
0.7510225525427868
 40
0.7512784892097832
 40
0.7515695127328296
 40
0.7519026436596574
 40
0.752263490012495
 40
0.7526018304625676
 40
0.7529097271946616
 40
0.7531871803014942
 40
0.7534349510031938
 40
0.753666746391326
 40
0.7539234042403382
 40
0.7541652327818067
 40
0.754392232050427
 40
0.7546281593516885
 40
0.7549125378688438
 40
0.7552459721890004
 40
0.7555423703448646
 40
0.755868540215608
 40
0.7561873295479141
 40
0.7564758109769804
 40
0.7567339845871187
 40
0.756961850454043
 40
0.7572080281497177
 40
0.7574301333193922
 40
0.7576628967290164
 40
0.7579065430916733
 40
0.7581610723824008
 40
0.7584356445541455
 40
0.7586852448037534
 40
0.7589660544904254
 40
0.7592780735314605
 40
0.7596193554296033
 40
0.7599457970029655
 40
0.7602391080204036
 40
0.7605473490395939
 40
0.7608078823383281
 40
0.7610255725771824
 40
0.7612496882729695
 40
0.7614930474846104
 40
0.7618408319111781
 40
0.7622218922651092
 40
0.7626389182744984
 40
0.7630296131982109
 40
0.7634461026426359
 40
0.7638376383983557
 40
0.7641804366524527
 40
0.7644872856321475
 40
0.7647457693535912
 40
0.7650239734258653
 40
0.7653069856346545
 40
0.7656226557969559
 40
0.7659699220565072
 40
0.766326238684488
 40
0.7666825396255088
 40
0.7670388248802068
 40
0.7673405051360235
 40
0.7676211317810004
 40
0.7678784914939973
 40
0.7681125846928789
 40
0.7683234119097602
 40
0.7685217259924468
 40
0.768748059300457
 40
0.769033893605106
 40
0.7693583570144028
 40
0.7697214535723541
 40
0.7700915479287154
 40
0.7704352422565579
 40
0.7708344836346653
 40
0.7711933654207564
 40
0.7715244074827147
 40
0.7718294076561318
 40
0.7721083723202719
 40
0.7723004053526161
 40
0.772527072765503
 40
0.7727883772559324
 40
0.7730843205353052
 40
0.7734149037374823
 40
0.77376699420536
 40
0.774152028708981
 40
0.7744899681435787
 40
0.7747808131381612
 40
0.7750355046345714
 40
0.7752890065049423
 40
0.775539371600983
 40
0.7757911142158477
 40
0.7760570917662781
 40
0.7763653993544395
 40
0.7766468519258171
 40
0.7769567189626692
 40
0.7772911193566594
 40
0.7776069559718638
 40
0.7778922669946036
 40
0.7781470525075538
 40
0.7783713125846929
 40
0.7785650472914074
 40
0.7787799549960076
 40
0.7789943765934854
 40
0.7792099278309165
 40
0.7794269914108841
 40
0.7796524337344967
 40
0.7799166384167416
 40
0.7802252596342496
 40
0.7805796631097077
 40
0.7809544524427916
 40
0.7813128964252712
 40
0.7817575017698274
 40
0.7821739951898941
 40
0.7825565353235518
 40
0.782894748157942
 40
0.7831990224276058
 40
0.7835019666841441
 40
0.7838439930773793
 40
0.7842252148401606
 40
0.7846424971245585
 40
0.7850775758986496
 40
0.7854298352033862
 40
0.7857912567685892
 40
0.7861466676874198
 40
0.786469851437938
 40
0.7867603468225601
 40
0.7870181539308392
 40
0.7872483900174807
 40
0.7875388091093463
 40
0.7878475044847142
 40
0.7881744760937283
 40
0.7885308434789514
 40
0.7889387370380815
 40
0.7893987648235674
 40
0.7897364934564686
 40
0.7900590911212687
 40
0.790350254047808
 40
0.7906099823212792
 40
0.7908382760176524
 40
0.7910351352037356
 40
0.7912137513903847
 40
0.7913923574608124
 40
0.7915710684737844
 40
0.7917498845026516
 40
0.7919288056206331
 40
0.7921086608787978
 40
0.7923115061977993
 40
0.7925471582040513
 40
0.7928442673635747
 40
0.7931810729780896
 40
0.7935562687312034
 40
0.7939226234429505
 40
0.794256459055263
 40
0.7945749921832309
 40
0.7948569453942219
 40
0.7951119898496984
 40
0.7953582093020672
 40
0.7955960201276266
 40
0.7958254256760564
 40
0.7960349198838623
 40
0.7962610460070694
 40
0.7965140415241966
 40
0.796793915922566
 40
0.7971006761748778
 40
0.7975926559340532
 40
0.7980698007044008
 40
0.7985254253490423
 40
0.79895633435051
 40
0.79934808070947
 40
0.79969890667666
 40
0.7999987848978907
 40
0.800316200026348
 40
0.8006692917644892
 40
0.8010580600015357
 40
0.8014780362494774
 40
0.8019225395390259
 40
0.8023915053623654
 40
0.8028629448560638
 40
0.8031949410045938
 40
0.8034910395001124
 40
0.803751240812262
 40
0.8039831149178982
 40
0.8042179329499586
 40
0.8044590973213354
 40
0.8047066081006116
 40
0.8049616614657061
 40
0.8052157854527442
 40
0.8055016045653102
 40
0.8058191187236757
 40
0.8061683278393649
 40
0.8065417507008327
 40
0.8068822267050672
 40
0.8071872047749461
 40
0.8074566850061943
 40
0.8076906674833011
 40
0.8078987104555512
 40
0.8081031902713546
 40
0.8083076076103292
 40
0.8085119624739471
 40
0.8087162548636829
 40
0.8089299376720954
 40
0.809176716540293
 40
0.8094751654047257
 40
0.8098119548572676
 40
0.8101868238868757
 40
0.8105624142933175
 40
0.8109121597447766
 40
0.8112360603203825
 40
0.8115846268285103
 40
0.8119057602889463
 40
0.8122070522128255
 40
0.8124885026538109
 40
0.8127561633466845
 40
0.8130414240236331
 40
0.813363774070415
 40
0.8137232133863667
 40
0.8141170902266375
 40
0.8145196532964474
 40
0.8149244055408803
 40
0.8153313469537052
 40
0.815724950646364
 40
0.8160798321116715
 40
0.8163956285838639
 40
0.8166725185087644
 40
0.8169433919848894
 40
0.8172326213296758
 40
0.8175138733138467
 40
0.817810733963061
 40
0.8181357420686812
 40
0.818496508899685
 40
0.8188930343489189
 40
0.8193216322811033
 40
0.819666559370852
 40
0.8199744753249558
 40
0.8202453802389452
 40
0.820479274196807
 40
0.8206809782551775
 40
0.8214574034865548
 40
0.8216314532477241
 40
0.8218247681082805
 40
0.8220476675215506
 40
0.8223001518753124
 40
0.8225822214116147
 40
0.8228938762795471
 40
0.8232239505523979
 40
0.8235343070595991
 40
0.8239125116351903
 40
0.8242500260558581
 40
0.8245491079092366
 40
0.8248309665867302
 40
0.8251008264940914
 40
0.8253586928444353
 40
0.8255917952998544
 40
0.8258417727407704
 40
0.8261207136375601
 40
0.8264286325472303
 40
0.8267655402501625
 40
0.8271744442632742
 40
0.8275786292535198
 40
0.8279776565498236
 40
0.828369931119799
 40
0.8287340001380296
 40
0.829057562251711
 40
0.8293474251599274
 40
0.8296099707816244
 40
0.8298857022243044
 40
0.8301817525919466
 40
0.8304981218374192
 40
0.8308376685597224
 40
0.8312113216333105
 40
0.8315295841646718
 40
0.8318695632538633
 40
0.8322246168923174
 40
0.8325528864842272
 40
0.8329213574112724
 40
0.83323458254707
 40
0.8334951024192706
 40
0.833742218816435
 40
0.8340011123604056
 40
0.8342600158298659
 40
0.8345218681295193
 40
0.8347551073769199
 40
0.835027992839605
 40
0.8353405244338564
 40
0.8356927020638696
 40
0.8360732487589563
 40
0.8364291670029865
 40
0.8367536867319022
 40
0.837121300890344
 40
0.8374421387292337
 40
0.8377415445925644
 40
0.8380239505362314
 40
0.8382894453601866
 40
0.8385469344712007
 40
0.838821954227987
 40
0.839147081992904
 40
0.8394969383621343
 40
0.8398832157499322
 40
0.8403107421505613
 40
0.8407768147700149
 40
0.8412358158555756
 40
0.8416722117982788
 40
0.8420852322048936
 40
0.8424610693224079
 40
0.8427946375787948
 40
0.8429901467891358
 40
0.8431677659249577
 40
0.843356757535791
 40
0.843577477843248
 40
0.8438299267955064
 40
0.8441141043330725
 40
0.8444595059900912
 40
0.8448202387817224
 40
0.8451525137781684
 40
0.8454551672099357
 40
0.8457281991467126
 40
0.8460502563294305
 40
0.8463604365899469
 40
0.8466609401357363
 40
0.8468812778031097
 40
0.8471275197786797
 40
0.8474121899477884
 40
0.8477352888441222
 40
0.8480161114122419
 40
0.8483110120942952
 40
0.8485845863331631
 40
0.8488335591765753
 40
0.8490866212157353
 40
0.8493079164410732
 40
0.8494974461933991
 40
0.8496662282003494
 40
0.8498493925799595
 40
0.8500495603099901
 40
0.8502667314449865
 40
0.8505009060201257
 40
0.8509001927365893
 40
0.8513075291179102
 40
0.8517148934223046
 40
0.8521215825381213
 40
0.8524504203425187
 40
0.852756850750504
 40
0.8530409207309881
 40
0.8533030277008117
 40
0.853572804609508
 40
0.8538695071656105
 40
0.8541740708087465
 40
0.85450283224126
 40
0.8548408931124704
 40
0.855163392071929
 40
0.855469978753616
 40
0.8559453567126376
 40
0.8563722984048682
 40
0.8567495746001303
 40
0.8569113922764886
 40
0.8570891765542789
 40
0.8572934439746472
 40
0.8575241945186649
 40
0.8577814281565144
 40
0.8580798903855026
 40
0.8584007893540532
 40
0.8587004013731488
 40
0.8589708581280131
 40
0.8592121596790687
 40
0.8594243060825194
 40
0.8596072973915824
 40
0.8599266871915825
 40
0.86027972740072
 40
0.8606665747445574
 40
0.8609527272495339
 40
0.8612713711902248
 40
0.8616225129159188
 40
0.8620050450438006
 40
0.8623707870409477
 40
0.8626940143562309
 40
0.862974727086551
 40
0.8632129253161883
 40
0.8634621157967354
 40
0.8637510211694442
 40
0.864082222171233
 40
0.8644557187051017
 40
0.8648500984438443
 40
0.8652330655537175
 40
0.8656042946856681
 40
0.8658864813097614
 40
0.8661506918667338
 40
0.8663949783852818
 40
0.8666193408992052
 40
0.8668237794395105
 40
0.8670160945434228
 40
0.867241724734937
 40
0.8674603048096565
 40
0.8677070014439003
 40
0.8679818145904177
 40
0.8682847441965238
 40
0.8685952497295018
 40
0.8688805283386065
 40
0.8691838160254753
 40
0.8694514707835919
 40
0.8696849103324767
 40
0.8699110809904396
 40
0.8701842417736423
 40
0.870461652549445
 40
0.8707468820116662
 40
0.8710675174001197
 40
0.8714293685207537
 40
0.8718324369780176
 40
0.8721902139249496
 40
0.8725124397325615
 40
0.8727974812581967
 40
0.8730453410035556
 40
0.8732560227440991
 40
0.8734507936975425
 40
0.8736676639960559
 40
0.8740031732533442
 40
0.8743818870957378
 40
0.8747917144513949
 40
0.8752029016244544
 40
0.8755758822435927
 40
0.8759436549985623
 40
0.8762788586392495
 40
0.8765775176876527
 40
0.8767865425787589
 40
0.8769740282420353
 40
0.8771785461150603
 40
0.8774197499239134
 40
0.8776661114062734
 40
0.8779417192648727
 40
0.8782465736230471
 40
0.8785636483236621
 40
0.8788583212032769
 40
0.8791295824725289
 40
0.8793774321779328
 40
0.8796018703637325
 40
0.8798426043004802
 40
0.8800801197022136
 40
0.8803144281772886
 40
0.8805455297307763
 40
0.8807842819765325
 40
0.8810583165428475
 40
0.8813689998758538
 40
0.8816859877929757
 40
0.8820293476769783
 40
0.8823515949803864
 40
0.8826398542021251
 40
0.8828941254066337
 40
0.8831144086508554
 40
0.883347295760353
 40
0.8835820529616214
 40
0.8838454123564788
 40
0.8841373738963411
 40
0.8844579375274194
 40
0.8847965351866072
 40
0.8852033685241597
 40
0.8856185959168658
 40
0.8860269374051724
 40
0.8863901382567541
 40
0.8866468808874044
 40
0.8868735630830117
 40
0.8870879234412278
 40
0.8873432372135659
 40
0.8876430991892448
 40
0.8879099569011041
 40
0.8882043162116366
 40
0.8885140007074132
 40
0.8888048708429316
 40
0.8890748888058732
 40
0.8894345491314352
 40
0.8897584711427904
 40
0.8901003724061693
 40
0.8904686996509033
 40
0.8908624536833192
 40
0.891244992153664
 40
0.8915978528817342
 40
0.8919517219916785
 40
0.8922791756643143
 40
0.8925952099403852
 40
0.8929000133997491
 40
0.8931992459085782
 40
0.8935377808114685
 40
0.8939252813223438
 40
0.8943617544516163
 40
0.8948187405716332
 40
0.8952666191735232
 40
0.8956976340961451
 40
0.8961121635333053
 40
0.8964924576090477
 40
0.8968379313695696
 40
0.8971043126526654
 40
0.8973782030285425
 40
0.8976796217463909
 40
0.8980087218781418
 40
0.8983656208717365
 40
0.8987245045259
 40
0.8991162062926402
 40
0.8994741064141993
 40
0.8998048149651927
 40
0.9001290499287147
 40
0.9003848674343926
 40
0.9006389322126437
 40
0.9009232720586696
 40
0.9012511369677991
 40
0.9016225268578084
 40
0.9019432996221611
 40
0.9022507636805944
 40
0.9025282952469188
 40
0.9027758943709372
 40
0.9029935610970952
 40
0.9032080553380457
 40
0.9033987880344354
 40
0.9036095623619966
 40
0.9038427893755698
 40
0.904098469044565
 40
0.9043766013355024
 40
0.9046705488248877
 40
0.9050768475121789
 40
0.9054848034601636
 40
0.9058888960240118
 40
0.9062549494692245
 40
0.9065161741568238
 40
0.9067492939413943
 40
0.9069596818153058
 40
0.9072030937162511
 40
0.9074942903461214
 40
0.9078267993593444
 40
0.9082054015781502
 40
0.9085988856795834
 40
0.9089528312885857
 40
0.9092715731574796
 40
0.9095483008634471
 40
0.9098041554283374
 40
0.910063085459674
 40
0.9103251138784942
 40
0.9105856469171834
 40
0.9108676256870468
 40
0.911183412401212
 40
0.9115330087303896
 40
0.9118370295495142
 40
0.9121390720204169
 40
0.9124139082868855
 40
0.9126615327751422
 40
0.9128819471570107
 40
0.913071942245617
 40
0.9132369082558742
 40
0.9134058700492421
 40
0.9135911669593341
 40
0.9138988867733959
 40
0.9142431697454418
 40
0.9146172391802198
 40
0.9149940362677609
 40
0.9153707470431036
 40
0.9157393847645484
 40
0.9160812063259056
 40
0.9163862134862332
 40
0.9166544076886962
 40
0.9168429470651502
 40
0.9170442937957834
 40
0.9172806673766242
 40
0.9175520681613917
 40
0.917858496361137
 40
0.9181934672858351
 40
0.9185253213027083
 40
0.9188235701623534
 40
0.9190882139202378
 40
0.9193231422753537
 40
0.9195232325152352
 40
0.9197090757418276
 40
0.9199074728126427
 40
0.9201185365454598
 40
0.9204140838823787
 40
0.9207334585063122
 40
0.9210915976446189
 40
0.9213938396459842
 40
0.9217204942599722
 40
0.9220584488509561
 40
0.9223662133786061
 40
0.9226407318093154
 40
0.9228820041910117
 40
0.9230900305658442
 40
0.9233055444119103
 40
0.9235564482391186
 40
0.9238449462132836
 40
0.9241710382792678
 40
0.9245314923770239
 40
0.9248834098185776
 40
0.9252134194381335
 40
0.9255215212755346
 40
0.9257797470499174
 40
0.9260220738183528
 40
0.9262487832245192
 40
0.9264598752864814
 40
0.9266553500210157
 40
0.9268424628937312
 40
0.927058777202971
 40
0.9273096542179824
 40
0.9275950941246051
 40
0.9279150970279912
 40
0.9282615294505745
 40
0.9285826605096471
 40
0.9288693612957452
 40
0.9291216323372657
 40
0.9293226358572524
 40
0.9294967307976002
 40
0.9296776300105145
 40
0.9298773311460115
 40
0.9300958341995798
 40
0.9303331391618104
 40
0.9307552076673259
 40
0.9311938940977691
 40
0.9316394953070063
 40
0.9320884681500494
 40
0.932506301453097
 40
0.9328843195198806
 40
0.9331534538588963
 40
0.9334198469403734
 40
0.9337143384954645
 40
0.9340372733502462
 40
0.9343887455157502
 40
0.9347528528197954
 40
0.9351592152195497
 40
0.9355305348467353
 40
0.9358711768772943
 40
0.9362037743530118
 40
0.9365315961706931
 40
0.9367446469755518
 40
0.9369778654715473
 40
0.9372398171967959
 40
0.9375305021179529
 40
0.9378499201976254
 40
0.9381855714236419
 40
0.938570336559175
 40
0.9389017878527892
 40
0.9391799253865692
 40
0.9394078971748852
 40
0.9396467035273929
 40
0.939919814652276
 40
0.9402087397605114
 40
0.9405281610343631
 40
0.9408622679418964
 40
0.9411893744416812
 40
0.9415093500723611
 40
0.9418983860599978
 40
0.9422561913159779
 40
0.9425750579004623
 40
0.942854985869397
 40
0.9430154905074832
 40
0.9431960058566901
 40
0.9434024210436062
 40
0.9436347360699883
 40
0.9438929509269416
 40
0.9442232713040927
 40
0.9445657693906395
 40
0.9448751510754603
 40
0.945150106493108
 40
0.9453906358361622
 40
0.9455933608297649
 40
0.9457749403499844
 40
0.9459681305089377
 40
0.9461747731395642
 40
0.946493312954591
 40
0.9468394966885381
 40
0.9472153234573274
 40
0.9476213957685252
 40
0.9480555107453104
 40
0.948472635197972
 40
0.9488556640723076
 40
0.9492052796259595
 40
0.9495443873335674
 40
0.9499161591425995
 40
0.9503148011105617
 40
0.9507434220849132
 40
0.9511572587829498
 40
0.9515431930384093
 40
0.9518842469417327
 40
0.9522070976936641
 40
0.9525158537069516
 40
0.952748559838862
 40
0.9529834356689306
 40
0.9532657918420263
 40
0.9535173271020481
 40
0.9537995988372556
 40
0.9541126087316589
 40
0.9544399906775057
 40
0.9547342242896595
 40
0.9549923918649503
 40
0.9552146606212664
 40
0.9554289548753775
 40
0.9556056684929484
 40
0.955779690783336
 40
0.9559543232982141
 40
0.9561300579009864
 40
0.9563073772806249
 40
0.9566010321182989
 40
0.9569360305254896
 40
0.9573137501927925
 40
0.9576011453146499
 40
0.957904842802614
 40
0.9582224713432129
 40
0.9585540309190884
 40
0.9588995215121041
 40
0.9592481574543803
 40
0.9595670363756856
 40
0.9598808002861768
 40
0.9601557992996318
 40
0.9603924669292697
 40
0.960615167140445
 40
0.9608379567045011
 40
0.9610608356593828
 40
0.9612838040429894
 40
0.9615111152303701
 40
0.9617729891870658
 40
0.9620753366656751
 40
0.9624116809906258
 40
0.9627870154402832
 40
0.963169490155393
 40
0.963532003162566
 40
0.9640432300217706
 40
0.9645091223368721
 40
0.9649316318377228
 40
0.9653109603797161
 40
0.9656622884861664
 40
0.9660353535322284
 40
0.9663010344750872
 40
0.9665784168854867
 40
0.9668777936931747
 40
0.9672062711456283
 40
0.9675638492074262
 40
0.9679505278400086
 40
0.9683489676153569
 40
0.9686801423598901
 40
0.9689811910067929
 40
0.9692521208330614
 40
0.9694929418272957
 40
0.9697239968580332
 40
0.9699640693358689
 40
0.9702176746973172
 40
0.970485225882824
 40
0.9707556736614104
 40
0.971058541302307
 40
0.9713424535058391
 40
0.9716111639029333
 40
0.9718737055071267
 40
0.9721318937835012
 40
0.9723860792015945
 40
0.9726920004871927
 40
0.973022236738282
 40
0.9733793845605059
 40
0.9737635949149546
 40
0.9741829659853944
 40
0.9745403721509127
 40
0.9749223305697422
 40
0.9753236613378509
 40
0.975694895405141
 40
0.9760237062032279
 40
0.9762858115716041
 40
0.9765128564604273
 40
0.9767165858702161
 40
0.9769202553098376
 40
0.9771244963159819
 40
0.9773293105357931
 40
0.977534699602592
 40
0.9777691187862247
 40
0.9780360129970228
 40
0.9783370612585633
 40
0.9786722712852672
 40
0.9790396784232962
 40
0.9795085506694953
 40
0.9799626100152216
 40
0.980401837691837
 40
0.9808126440646253
 40
0.9811834921878012
 40
0.9815143821752375
 40
0.9818143552867195
 40
0.9821190596160199
 40
0.9824329404999925
 40
0.9827566281391784
 40
0.9831198428530523
 40
0.9835388630352085
 40
0.9839072423764429
 40
0.9843053866364294
 40
0.9846836858332456
 40
0.985028819724996
 40
0.9853407883481281
 40
0.985691501048807
 40
0.9860175350970208
 40
0.9863322644277805
 40
0.9866356890536464
 40
0.9869423655299823
 40
0.98728528196309
 40
0.9876657035672406
 40
0.9880289896753034
 40
0.988412486600698
 40
0.9888127631817352
 40
0.9892298194010944
 40
0.9896526005042776
 40
0.9900341629417555
 40
0.9903692141790307
 40
0.9906577542615569
 40
0.9908846625823134
 40
0.9911093792510174
 40
0.9913345559567248
 40
0.991560193665902
 40
0.991786293339087
 40
0.9920300043008685
 40
0.9923124338591465
 40
0.9926021700341575
 40
0.992923816900956
 40
0.9932749206604295
 40
0.9936220197771641
 40
0.9939545146448897
 40
0.9942724058201651
 40
0.9945756939377055
 40
0.9949669308456098
 40
0.9953256449081025
 40
0.9956518039228908
 40
0.9959487282777105
 40
0.9961888730935231
 40
0.9964376213379539
 40
0.9966949730064321
 40
0.9969610250516415
 40
0.9972489878349728
 40
0.9975622003158744
 40
0.9979055308638061
 40
0.9982789794545393
 40
0.9986689753110081
 40
0.9990350796478265
 40
0.9993658949734264
 40
0.9996614213167936
 40
0.9999226712588165
 40
1.0
 40
1.0
 40
1.0
 40
1.0
 10
1347.274085432361
 20
1552.211638858549
 30
0.0
 10
1347.277195814691
 20
1552.211459982991
 30
0.0
 10
1347.289210746289
 20
1552.210769057302
 30
0.0
 10
1347.310493466941
 20
1552.20954547794
 30
0.0
 10
1347.339482764728
 20
1552.20787944426
 30
0.0
 10
1347.369293972102
 20
1552.206166867924
 30
0.0
 10
1347.400643972885
 20
1552.204366637341
 30
0.0
 10
1347.433063720415
 20
1552.202505748499
 30
0.0
 10
1347.468723848845
 20
1552.200459798901
 30
0.0
 10
1347.506683644101
 20
1552.198283001111
 30
0.0
 10
1347.550358046984
 20
1552.195779818125
 30
0.0
 10
1347.59638597055
 20
1552.193143379812
 30
0.0
 10
1347.642347043053
 20
1552.190512521936
 30
0.0
 10
1347.681465182333
 20
1552.188274644396
 30
0.0
 10
1347.714893218682
 20
1552.186363207994
 30
0.0
 10
1347.745120889103
 20
1552.184635483839
 30
0.0
 10
1347.773172254623
 20
1552.18303278291
 30
0.0
 10
1347.800329493676
 20
1552.181481746441
 30
0.0
 10
1347.826537866491
 20
1552.179985428047
 30
0.0
 10
1347.853770332169
 20
1552.178431196503
 30
0.0
 10
1347.883632155334
 20
1552.176727539549
 30
0.0
 10
1347.914784417532
 20
1552.174951017422
 30
0.0
 10
1347.94761155533
 20
1552.17307980062
 30
0.0
 10
1347.981454759303
 20
1552.171151506474
 30
0.0
 10
1348.018453112877
 20
1552.169044453639
 30
0.0
 10
1348.056892167054
 20
1552.16685649708
 30
0.0
 10
1348.099958011142
 20
1552.164406481657
 30
0.0
 10
1348.144396439544
 20
1552.161879908872
 30
0.0
 10
1348.18852138535
 20
1552.159372778907
 30
0.0
 10
1348.2258229695
 20
1552.157254515253
 30
0.0
 10
1348.258090946534
 20
1552.155422941229
 30
0.0
 10
1348.287820373464
 20
1552.153736141993
 30
0.0
 10
1348.317429534812
 20
1552.152056836109
 30
0.0
 10
1348.34762374792
 20
1552.150345045109
 30
0.0
 10
1348.378780397788
 20
1552.148579423779
 30
0.0
 10
1348.412971996453
 20
1552.146642648968
 30
0.0
 10
1348.452476119108
 20
1552.14440604154
 30
0.0
 10
1348.499192937967
 20
1552.141762622431
 30
0.0
 10
1348.548419036165
 20
1552.138979133472
 30
0.0
 10
1348.596694238742
 20
1552.13625129285
 30
0.0
 10
1348.640116757038
 20
1552.133799177157
 30
0.0
 10
1348.679693304601
 20
1552.131565521234
 30
0.0
 10
1348.714982276695
 20
1552.12957487026
 30
0.0
 10
1348.745983674148
 20
1552.127826874029
 30
0.0
 10
1348.779074275754
 20
1552.125961815822
 30
0.0
 10
1348.815868714716
 20
1552.123888970149
 30
0.0
 10
1348.85816927945
 20
1552.121507297309
 30
0.0
 10
1348.895288089218
 20
1552.119418597595
 30
0.0
 10
1348.928092060033
 20
1552.117573572754
 30
0.0
 10
1348.957971041814
 20
1552.11589369672
 30
0.0
 10
1348.992428290235
 20
1552.113957263869
 30
0.0
 10
1349.030481679797
 20
1552.111819823637
 30
0.0
 10
1349.071761379862
 20
1552.109502432018
 30
0.0
 10
1349.114307011965
 20
1552.107115352356
 30
0.0
 10
1349.156740031764
 20
1552.104736025817
 30
0.0
 10
1349.196358995147
 20
1552.10251576119
 30
0.0
 10
1349.232053010573
 20
1552.100516489137
 30
0.0
 10
1349.263822079074
 20
1552.09873788542
 30
0.0
 10
1349.291666201222
 20
1552.097179661479
 30
0.0
 10
1349.317146275842
 20
1552.095754243949
 30
0.0
 10
1349.341687531868
 20
1552.094381806136
 30
0.0
 10
1349.366727926772
 20
1552.092981934601
 30
0.0
 10
1349.392144524318
 20
1552.091561526062
 30
0.0
 10
1349.417950056314
 20
1552.090119891622
 30
0.0
 10
1349.444304354547
 20
1552.088648128649
 30
0.0
 10
1349.472647479464
 20
1552.0870658812
 30
0.0
 10
1349.506042613833
 20
1552.085202364327
 30
0.0
 10
1349.546435641641
 20
1552.08294948965
 30
0.0
 10
1349.594486042856
 20
1552.080271190387
 30
0.0
 10
1349.646857428071
 20
1552.077354118224
 30
0.0
 10
1349.699240919484
 20
1552.074438574623
 30
0.0
 10
1349.746150628212
 20
1552.071829541412
 30
0.0
 10
1349.786016461438
 20
1552.069613604198
 30
0.0
 10
1349.819198285541
 20
1552.067770111634
 30
0.0
 10
1349.847840239535
 20
1552.06617951813
 30
0.0
 10
1349.873749624116
 20
1552.06474120122
 30
0.0
 10
1349.898767658853
 20
1552.063352845433
 30
0.0
 10
1349.924134483112
 20
1552.061945626324
 30
0.0
 10
1349.949153253141
 20
1552.060558208543
 30
0.0
 10
1349.973834898192
 20
1552.059189958922
 30
0.0
 10
1349.999153297427
 20
1552.057786881703
 30
0.0
 10
1350.027267621793
 20
1552.056229425713
 30
0.0
 10
1350.059595336983
 20
1552.054439307198
 30
0.0
 10
1350.096590952521
 20
1552.052391696669
 30
0.0
 10
1350.138236093326
 20
1552.050088010063
 30
0.0
 10
1350.182718613501
 20
1552.047628876161
 30
0.0
 10
1350.227041227118
 20
1552.045180150828
 30
0.0
 10
1350.268225014856
 20
1552.042906215089
 30
0.0
 10
1350.305084836165
 20
1552.040872133364
 30
0.0
 10
1350.337620692491
 20
1552.039077536885
 30
0.0
 10
1350.367193984192
 20
1552.037447040663
 30
0.0
 10
1350.394855446358
 20
1552.035922550557
 30
0.0
 10
1350.422196660052
 20
1552.034416287452
 30
0.0
 10
1350.449447808117
 20
1552.032915554032
 30
0.0
 10
1350.476427496013
 20
1552.031430341619
 30
0.0
 10
1350.503122319691
 20
1552.029961363286
 30
0.0
 10
1350.530530031868
 20
1552.028453709177
 30
0.0
 10
1350.561063039426
 20
1552.026774799548
 30
0.0
 10
1350.596424892867
 20
1552.024831256414
 30
0.0
 10
1350.633838459496
 20
1552.022776047563
 30
0.0
 10
1350.672599493062
 20
1552.020647968145
 30
0.0
 10
1350.710937766872
 20
1552.01854421365
 30
0.0
 10
1350.749429278658
 20
1552.016433222932
 30
0.0
 10
1350.785884534516
 20
1552.014434975638
 30
0.0
 10
1350.82176248768
 20
1552.012469337102
 30
0.0
 10
1350.856402601657
 20
1552.010572466259
 30
0.0
 10
1350.889144529292
 20
1552.008780430262
 30
0.0
 10
1350.917478565685
 20
1552.007230306669
 30
0.0
 10
1350.943240629471
 20
1552.005821411796
 30
0.0
 10
1350.968277605392
 20
1552.004452650567
 30
0.0
 10
1350.993703259933
 20
1552.003063134889
 30
0.0
 10
1351.01842857142
 20
1552.001712381507
 30
0.0
 10
1351.042453219368
 20
1552.000400357091
 30
0.0
 10
1351.066651474736
 20
1551.999079283068
 30
0.0
 10
1351.093396949216
 20
1551.997619658792
 30
0.0
 10
1351.123963575508
 20
1551.995952167115
 30
0.0
 10
1351.158750689599
 20
1551.994055312767
 30
0.0
 10
1351.197758290657
 20
1551.991929435322
 30
0.0
 10
1351.239939899034
 20
1551.98963191448
 30
0.0
 10
1351.28320999308
 20
1551.987276566607
 30
0.0
 10
1351.324725924648
 20
1551.985018089574
 30
0.0
 10
1351.362691525954
 20
1551.982953925505
 30
0.0
 10
1351.396349672473
 20
1551.981124883972
 30
0.0
 10
1351.42570036486
 20
1551.979530629667
 30
0.0
 10
1351.451362072435
 20
1551.978137289524
 30
0.0
 10
1351.475580483194
 20
1551.976822759922
 30
0.0
 10
1351.499932455309
 20
1551.97550142772
 30
0.0
 10
1351.525376386151
 20
1551.974121340964
 30
0.0
 10
1351.551243444672
 20
1551.972718815159
 30
0.0
 10
1351.577646777264
 20
1551.971287743028
 30
0.0
 10
1351.605928196825
 20
1551.969755459178
 30
0.0
 10
1351.63776534713
 20
1551.968031244721
 30
0.0
 10
1351.673475105598
 20
1551.96609824236
 30
0.0
 10
1351.713102804116
 20
1551.963954313258
 30
0.0
 10
1351.756009241988
 20
1551.96163435319
 30
0.0
 10
1351.800585670513
 20
1551.959225643308
 30
0.0
 10
1351.843875045441
 20
1551.956887989365
 30
0.0
 10
1351.883269031406
 20
1551.954761950096
 30
0.0
 10
1351.918376471948
 20
1551.952868257738
 30
0.0
 10
1351.949197368034
 20
1551.951206564271
 30
0.0
 10
1351.97595850366
 20
1551.949764342281
 30
0.0
 10
1352.000051801265
 20
1551.948466355738
 30
0.0
 10
1352.023034053781
 20
1551.94722863005
 30
0.0
 10
1352.046235279609
 20
1551.945979522835
 30
0.0
 10
1352.071260540278
 20
1551.944632664447
 30
0.0
 10
1352.098159614635
 20
1551.943185495201
 30
0.0
 10
1352.12786134739
 20
1551.941588196709
 30
0.0
 10
1352.160887428648
 20
1551.939812895514
 30
0.0
 10
1352.196168725462
 20
1551.937917321437
 30
0.0
 10
1352.234020371043
 20
1551.935884726243
 30
0.0
 10
1352.273716214964
 20
1551.933754251148
 30
0.0
 10
1352.315985699491
 20
1551.931487008834
 30
0.0
 10
1352.358163946673
 20
1551.929226075953
 30
0.0
 10
1352.397594325562
 20
1551.927113697566
 30
0.0
 10
1352.433145875824
 20
1551.925210144338
 30
0.0
 10
1352.464818598259
 20
1551.923515097406
 30
0.0
 10
1352.494461496645
 20
1551.921929360933
 30
0.0
 10
1352.522629740976
 20
1551.920423131995
 30
0.0
 10
1352.550818278448
 20
1551.918916433888
 30
0.0
 10
1352.578673044928
 20
1551.917428167496
 30
0.0
 10
1352.607133828822
 20
1551.915908139456
 30
0.0
 10
1352.634538114705
 20
1551.914445144092
 30
0.0
 10
1352.661435243286
 20
1551.913009780705
 30
0.0
 10
1352.689098394168
 20
1551.911534088839
 30
0.0
 10
1352.72046454332
 20
1551.90986156501
 30
0.0
 10
1352.756258794804
 20
1551.90795384958
 30
0.0
 10
1352.796482420042
 20
1551.905811241269
 30
0.0
 10
1352.842658363261
 20
1551.903353078449
 30
0.0
 10
1352.891385173242
 20
1551.900760966526
 30
0.0
 10
1352.939233042802
 20
1551.898217483101
 30
0.0
 10
1352.981249194958
 20
1551.895985455623
 30
0.0
 10
1353.017570814441
 20
1551.894057033198
 30
0.0
 10
1353.048952133791
 20
1551.892391715384
 30
0.0
 10
1353.077547497956
 20
1551.890874879179
 30
0.0
 10
1353.105368709651
 20
1551.889399697216
 30
0.0
 10
1353.133838881567
 20
1551.887890722205
 30
0.0
 10
1353.162801577575
 20
1551.886356285307
 30
0.0
 10
1353.192943633595
 20
1551.884760044575
 30
0.0
 10
1353.226029423198
 20
1551.883008692943
 30
0.0
 10
1353.264015098646
 20
1551.880998996599
 30
0.0
 10
1353.304498652592
 20
1551.87885842389
 30
0.0
 10
1353.346723038956
 20
1551.876627162396
 30
0.0
 10
1353.388261519554
 20
1551.874433469582
 30
0.0
 10
1353.429369085379
 20
1551.872263881762
 30
0.0
 10
1353.467578204819
 20
1551.870248448501
 30
0.0
 10
1353.501906254365
 20
1551.868438693304
 30
0.0
 10
1353.532396989939
 20
1551.866831999977
 30
0.0
 10
1353.559094167442
 20
1551.865425792147
 30
0.0
 10
1353.582681896585
 20
1551.864183819504
 30
0.0
 10
1353.606732650682
 20
1551.862917875334
 30
0.0
 10
1353.632695356961
 20
1551.861551783368
 30
0.0
 10
1353.661551041046
 20
1551.860034103202
 30
0.0
 10
1353.691176149928
 20
1551.858476622139
 30
0.0
 10
1353.722068806577
 20
1551.856853216559
 30
0.0
 10
1353.755975132311
 20
1551.855072266589
 30
0.0
 10
1353.794701015164
 20
1551.853039230543
 30
0.0
 10
1353.839554208568
 20
1551.850685965304
 30
0.0
 10
1353.888147510679
 20
1551.848138266771
 30
0.0
 10
1353.937203830524
 20
1551.845568199933
 30
0.0
 10
1353.983028080993
 20
1551.843169158509
 30
0.0
 10
1354.024372148079
 20
1551.841006063487
 30
0.0
 10
1354.060818044975
 20
1551.839100329705
 30
0.0
 10
1354.0923677793
 20
1551.837451439631
 30
0.0
 10
1354.120038274871
 20
1551.836005911371
 30
0.0
 10
1354.147133784986
 20
1551.834590957946
 30
0.0
 10
1354.175600891698
 20
1551.833104977504
 30
0.0
 10
1354.206371265409
 20
1551.831499484932
 30
0.0
 10
1354.238136719069
 20
1551.829842837117
 30
0.0
 10
1354.272204063067
 20
1551.828066986729
 30
0.0
 10
1354.310439846712
 20
1551.82607488352
 30
0.0
 10
1354.350852950279
 20
1551.8239706158
 30
0.0
 10
1354.393167987844
 20
1551.821768678428
 30
0.0
 10
1354.435818727525
 20
1551.819550631229
 30
0.0
 10
1354.479176510507
 20
1551.81729729424
 30
0.0
 10
1354.520543746872
 20
1551.815148788839
 30
0.0
 10
1354.557953963177
 20
1551.813206937184
 30
0.0
 10
1354.592134505322
 20
1551.811433659933
 30
0.0
 10
1354.622828709713
 20
1551.809842022986
 30
0.0
 10
1354.650667827984
 20
1551.808399065207
 30
0.0
 10
1354.676441308918
 20
1551.807063687289
 30
0.0
 10
1354.702017032328
 20
1551.805739051806
 30
0.0
 10
1354.728374966192
 20
1551.804374430796
 30
0.0
 10
1354.755515691681
 20
1551.802969841841
 30
0.0
 10
1354.78275629335
 20
1551.80156066185
 30
0.0
 10
1354.810982399088
 20
1551.800101094288
 30
0.0
 10
1354.841223276402
 20
1551.798538004285
 30
0.0
 10
1354.875191105963
 20
1551.796783113836
 30
0.0
 10
1354.913029520126
 20
1551.794829302716
 30
0.0
 10
1354.954543756199
 20
1551.792686960121
 30
0.0
 10
1355.000285415457
 20
1551.790327988903
 30
0.0
 10
1355.047055463746
 20
1551.787917702674
 30
0.0
 10
1355.091849623067
 20
1551.785610888037
 30
0.0
 10
1355.130917235322
 20
1551.783600241681
 30
0.0
 10
1355.164410990389
 20
1551.781877392529
 30
0.0
 10
1355.203406615682
 20
1551.779872461028
 30
0.0
 10
1355.251182956813
 20
1551.777417614687
 30
0.0
 10
1355.299317206957
 20
1551.774946515054
 30
0.0
 10
1355.339795676664
 20
1551.772869830172
 30
0.0
 10
1355.372707317053
 20
1551.771182132478
 30
0.0
 10
1355.409690142164
 20
1551.769286657064
 30
0.0
 10
1355.451049843426
 20
1551.767168102249
 30
0.0
 10
1355.496237983305
 20
1551.764854960416
 30
0.0
 10
1355.542486207883
 20
1551.762489231817
 30
0.0
 10
1355.588036299958
 20
1551.76016084641
 30
0.0
 10
1355.63010887225
 20
1551.758011650429
 30
0.0
 10
1355.668144462147
 20
1551.756069872429
 30
0.0
 10
1355.700861776652
 20
1551.754400488872
 30
0.0
 10
1355.730249896862
 20
1551.752901656133
 30
0.0
 10
1355.758576549284
 20
1551.751457567723
 30
0.0
 10
1355.787821142776
 20
1551.749967328137
 30
0.0
 10
1355.818262326157
 20
1551.748416812769
 30
0.0
 10
1355.850091272262
 20
1551.746796373014
 30
0.0
 10
1355.884443618481
 20
1551.745048325337
 30
0.0
 10
1355.91937162588
 20
1551.743271945428
 30
0.0
 10
1355.955311517179
 20
1551.741445090801
 30
0.0
 10
1355.991755047862
 20
1551.739593615603
 30
0.0
 10
1356.030930127509
 20
1551.737604513121
 30
0.0
 10
1356.070885044933
 20
1551.735577062343
 30
0.0
 10
1356.11249031561
 20
1551.733467154343
 30
0.0
 10
1356.153242517051
 20
1551.731401814382
 30
0.0
 10
1356.192242691538
 20
1551.729426521768
 30
0.0
 10
1356.225857341458
 20
1551.727724935798
 30
0.0
 10
1356.255765818505
 20
1551.726211670046
 30
0.0
 10
1356.287345411994
 20
1551.72461453509
 30
0.0
 10
1356.323099657398
 20
1551.722807182169
 30
0.0
 10
1356.36397554807
 20
1551.720742183241
 30
0.0
 10
1356.406570518619
 20
1551.718591718005
 30
0.0
 10
1356.452235176992
 20
1551.716287804501
 30
0.0
 10
1356.502285033737
 20
1551.713764452206
 30
0.0
 10
1356.557912514936
 20
1551.710962174746
 30
0.0
 10
1356.614966485254
 20
1551.708090604034
 30
0.0
 10
1356.668902354471
 20
1551.705378353653
 30
0.0
 10
1356.713211082264
 20
1551.703151949282
 30
0.0
 10
1356.748459061942
 20
1551.701381892149
 30
0.0
 10
1356.77632411183
 20
1551.699983215475
 30
0.0
 10
1356.802370816134
 20
1551.69867633214
 30
0.0
 10
1356.828479735117
 20
1551.697366839968
 30
0.0
 10
1356.855813453375
 20
1551.695996480463
 30
0.0
 10
1356.884386939021
 20
1551.694564581206
 30
0.0
 10
1356.915363117628
 20
1551.693012972675
 30
0.0
 10
1356.949626891333
 20
1551.6912975365
 30
0.0
 10
1356.988189744574
 20
1551.689367948219
 30
0.0
 10
1357.030900226009
 20
1551.687232157851
 30
0.0
 10
1357.077801475492
 20
1551.684888423142
 30
0.0
 10
1357.126678997972
 20
1551.682447775394
 30
0.0
 10
1357.174386172
 20
1551.680067398662
 30
0.0
 10
1357.217859803806
 20
1551.677899799201
 30
0.0
 10
1357.256167769474
 20
1551.675990966929
 30
0.0
 10
1357.289397117814
 20
1551.674336109444
 30
0.0
 10
1357.328797012107
 20
1551.672374883492
 30
0.0
 10
1357.378240517125
 20
1551.669915331976
 30
0.0
 10
1357.431262742542
 20
1551.667280210511
 30
0.0
 10
1357.479737551658
 20
1551.664872997376
 30
0.0
 10
1357.523120336286
 20
1551.662720021947
 30
0.0
 10
1357.57111749801
 20
1551.660339732296
 30
0.0
 10
1357.623429018772
 20
1551.657747514738
 30
0.0
 10
1357.676792473042
 20
1551.655105409096
 30
0.0
 10
1357.727528936275
 20
1551.652595465911
 30
0.0
 10
1357.772464868739
 20
1551.650374139102
 30
0.0
 10
1357.81380169311
 20
1551.648332059503
 30
0.0
 10
1357.853642429923
 20
1551.646365101406
 30
0.0
 10
1357.895279328696
 20
1551.644310761582
 30
0.0
 10
1357.939386718779
 20
1551.642135965531
 30
0.0
 10
1357.987437831011
 20
1551.639768417223
 30
0.0
 10
1358.034556626086
 20
1551.63744862106
 30
0.0
 10
1358.080667102912
 20
1551.635180129362
 30
0.0
 10
1358.125409256113
 20
1551.632980437738
 30
0.0
 10
1358.172716685818
 20
1551.630656320408
 30
0.0
 10
1358.219902551336
 20
1551.628339941299
 30
0.0
 10
1358.264000570691
 20
1551.626176732171
 30
0.0
 10
1358.303189126323
 20
1551.62425561168
 30
0.0
 10
1358.337466973109
 20
1551.62257619254
 30
0.0
 10
1358.367789400136
 20
1551.621091312925
 30
0.0
 10
1358.400638954891
 20
1551.619483397863
 30
0.0
 10
1358.438911427101
 20
1551.617611058277
 30
0.0
 10
1358.484825607765
 20
1551.615366428367
 30
0.0
 10
1358.535100776745
 20
1551.612910457133
 30
0.0
 10
1358.59032824648
 20
1551.61021479456
 30
0.0
 10
1358.644558165237
 20
1551.607570239352
 30
0.0
 10
1358.696686729306
 20
1551.605030321151
 30
0.0
 10
1358.743446032828
 20
1551.602753737283
 30
0.0
 10
1358.787894340177
 20
1551.600591266721
 30
0.0
 10
1358.827937839626
 20
1551.598644402385
 30
0.0
 10
1358.863361579364
 20
1551.596923174503
 30
0.0
 10
1358.894644383713
 20
1551.595403951213
 30
0.0
 10
1358.92782298045
 20
1551.593793406898
 30
0.0
 10
1358.965877232868
 20
1551.591947197455
 30
0.0
 10
1359.011308186421
 20
1551.589744620124
 30
0.0
 10
1359.061102858577
 20
1551.587332306905
 30
0.0
 10
1359.11212398845
 20
1551.584862620324
 30
0.0
 10
1359.164027739771
 20
1551.582352275469
 30
0.0
 10
1359.216215827163
 20
1551.579830218818
 30
0.0
 10
1359.269032850951
 20
1551.577279953749
 30
0.0
 10
1359.319427176565
 20
1551.574848726716
 30
0.0
 10
1359.364557706022
 20
1551.572673117385
 30
0.0
 10
1359.403834156361
 20
1551.570780992473
 30
0.0
 10
1359.443467432115
 20
1551.568872787319
 30
0.0
 10
1359.487526151945
 20
1551.566752863608
 30
0.0
 10
1359.540066447744
 20
1551.564226839462
 30
0.0
 10
1359.598721600234
 20
1551.561409343111
 30
0.0
 10
1359.658240777984
 20
1551.558553172547
 30
0.0
 10
1359.717546274967
 20
1551.555709989404
 30
0.0
 10
1359.774590809629
 20
1551.552977690416
 30
0.0
 10
1359.830306304438
 20
1551.550311538384
 30
0.0
 10
1359.881416453899
 20
1551.54786790952
 30
0.0
 10
1359.923334753065
 20
1551.545865295292
 30
0.0
 10
1359.95741312491
 20
1551.544238206711
 30
0.0
 10
1359.986690083362
 20
1551.542841015815
 30
0.0
 10
1360.016827154237
 20
1551.541403446616
 30
0.0
 10
1360.049594686791
 20
1551.539841194017
 30
0.0
 10
1360.088749261295
 20
1551.537975457078
 30
0.0
 10
1360.13448083491
 20
1551.535797814206
 30
0.0
 10
1360.186598756027
 20
1551.533318107525
 30
0.0
 10
1360.241274569708
 20
1551.530718956192
 30
0.0
 10
1360.297506465625
 20
1551.528048247865
 30
0.0
 10
1360.349133855966
 20
1551.525598495448
 30
0.0
 10
1360.39412986552
 20
1551.523465104973
 30
0.0
 10
1360.431088817197
 20
1551.521713882238
 30
0.0
 10
1360.464144462911
 20
1551.520148500807
 30
0.0
 10
1360.494208142025
 20
1551.518725527032
 30
0.0
 10
1360.526588406218
 20
1551.51719361716
 30
0.0
 10
1360.564218148781
 20
1551.515414339806
 30
0.0
 10
1360.609118926417
 20
1551.513292728449
 30
0.0
 10
1360.658506697617
 20
1551.510960902811
 30
0.0
 10
1360.711169846904
 20
1551.508476525681
 30
0.0
 10
1360.765875399419
 20
1551.505898077835
 30
0.0
 10
1360.821519498269
 20
1551.503277764433
 30
0.0
 10
1360.873279084189
 20
1551.500842611638
 30
0.0
 10
1360.919390013071
 20
1551.498674977669
 30
0.0
 10
1360.95836739021
 20
1551.496843917279
 30
0.0
 10
1360.993248804336
 20
1551.495206267211
 30
0.0
 10
1361.025116860035
 20
1551.493710897431
 30
0.0
 10
1361.056558451808
 20
1551.492236274205
 30
0.0
 10
1361.092519852694
 20
1551.490550550076
 30
0.0
 10
1361.134994192845
 20
1551.48856080084
 30
0.0
 10
1361.184107346466
 20
1551.486261824827
 30
0.0
 10
1361.236421412004
 20
1551.483815089783
 30
0.0
 10
1361.28833925618
 20
1551.481389034698
 30
0.0
 10
1361.33854891902
 20
1551.479044777557
 30
0.0
 10
1361.386150223065
 20
1551.476824075312
 30
0.0
 10
1361.431633249596
 20
1551.474703850724
 30
0.0
 10
1361.473565856385
 20
1551.472750553478
 30
0.0
 10
1361.511308510021
 20
1551.47099358993
 30
0.0
 10
1361.545410681906
 20
1551.46940703125
 30
0.0
 10
1361.578542611314
 20
1551.46786643559
 30
0.0
 10
1361.613585141036
 20
1551.466237887797
 30
0.0
 10
1361.652869644734
 20
1551.46441332202
 30
0.0
 10
1361.696578833461
 20
1551.462384649509
 30
0.0
 10
1361.743565415039
 20
1551.460205525334
 30
0.0
 10
1361.792100156229
 20
1551.457956418367
 30
0.0
 10
1361.840481710185
 20
1551.455716226624
 30
0.0
 10
1361.888055571437
 20
1551.453515192392
 30
0.0
 10
1361.93399272831
 20
1551.451391550153
 30
0.0
 10
1361.977860784053
 20
1551.449365084142
 30
0.0
 10
1362.018578081738
 20
1551.447485497404
 30
0.0
 10
1362.055828708197
 20
1551.445767067339
 30
0.0
 10
1362.090708185792
 20
1551.444158966503
 30
0.0
 10
1362.126384333994
 20
1551.442515061479
 30
0.0
 10
1362.166015677784
 20
1551.440690035465
 30
0.0
 10
1362.212520545394
 20
1551.438549997669
 30
0.0
 10
1362.265001950809
 20
1551.436136953108
 30
0.0
 10
1362.320990956869
 20
1551.433565058085
 30
0.0
 10
1362.376444776256
 20
1551.431020160656
 30
0.0
 10
1362.429644779808
 20
1551.428580924637
 30
0.0
 10
1362.479599575451
 20
1551.426292485608
 30
0.0
 10
1362.525577178532
 20
1551.424187951449
 30
0.0
 10
1362.566986292874
 20
1551.422293920214
 30
0.0
 10
1362.604840329263
 20
1551.420563640663
 30
0.0
 10
1362.639636214873
 20
1551.418974113632
 30
0.0
 10
1362.674213505497
 20
1551.41739546831
 30
0.0
 10
1362.710651778064
 20
1551.415732822371
 30
0.0
 10
1362.751293670081
 20
1551.413879575283
 30
0.0
 10
1362.795373545009
 20
1551.411871009133
 30
0.0
 10
1362.845301798411
 20
1551.40959771375
 30
0.0
 10
1362.898497456539
 20
1551.407177798857
 30
0.0
 10
1362.953127143902
 20
1551.404695022276
 30
0.0
 10
1363.003634174671
 20
1551.402401665322
 30
0.0
 10
1363.049877024877
 20
1551.400303655573
 30
0.0
 10
1363.091732200466
 20
1551.398406124896
 30
0.0
 10
1363.130174358609
 20
1551.396664505904
 30
0.0
 10
1363.168587072361
 20
1551.394925307562
 30
0.0
 10
1363.210755123175
 20
1551.393017336034
 30
0.0
 10
1363.259912396794
 20
1551.390794845136
 30
0.0
 10
1363.313930770056
 20
1551.388354773523
 30
0.0
 10
1363.369281234737
 20
1551.385856935869
 30
0.0
 10
1363.422197964032
 20
1551.383471158116
 30
0.0
 10
1363.471444483962
 20
1551.381252795262
 30
0.0
 10
1363.516955841244
 20
1551.379204344291
 30
0.0
 10
1363.559079785126
 20
1551.377309775354
 30
0.0
 10
1363.598962986267
 20
1551.375517230517
 30
0.0
 10
1363.6366448798
 20
1551.373824750453
 30
0.0
 10
1363.673473995644
 20
1551.372171621612
 30
0.0
 10
1363.712140010206
 20
1551.370437110813
 30
0.0
 10
1363.752371684325
 20
1551.368633615723
 30
0.0
 10
1363.795350022846
 20
1551.366708386633
 30
0.0
 10
1363.83991743506
 20
1551.36471342965
 30
0.0
 10
1363.886781714725
 20
1551.362617348654
 30
0.0
 10
1363.935800338566
 20
1551.360426719605
 30
0.0
 10
1363.983914959223
 20
1551.358278308568
 30
0.0
 10
1364.030222072408
 20
1551.356212342933
 30
0.0
 10
1364.072398522793
 20
1551.354332088415
 30
0.0
 10
1364.111334962038
 20
1551.352597480191
 30
0.0
 10
1364.147798127592
 20
1551.350974112737
 30
0.0
 10
1364.179321433894
 20
1551.349571527759
 30
0.0
 10
1364.207245776236
 20
1551.348329698281
 30
0.0
 10
1364.233713459619
 20
1551.347153154464
 30
0.0
 10
1364.263432824458
 20
1551.345832700313
 30
0.0
 10
1364.297205285277
 20
1551.344332989519
 30
0.0
 10
1364.335030841576
 20
1551.342654338286
 30
0.0
 10
1364.37670026939
 20
1551.340806379421
 30
0.0
 10
1364.420135366011
 20
1551.338881574384
 30
0.0
 10
1364.466021700137
 20
1551.336849706032
 30
0.0
 10
1364.511368789282
 20
1551.334843327987
 30
0.0
 10
1364.555101910096
 20
1551.332909924215
 30
0.0
 10
1364.594286005194
 20
1551.331178865416
 30
0.0
 10
1364.630218399546
 20
1551.329592480687
 30
0.0
 10
1364.663751747448
 20
1551.328112909227
 30
0.0
 10
1364.69527412939
 20
1551.326722855343
 30
0.0
 10
1364.72545017076
 20
1551.325392875913
 30
0.0
 10
1364.757223694185
 20
1551.323993216128
 30
0.0
 10
1364.793227533515
 20
1551.32240811767
 30
0.0
 10
1364.835470932371
 20
1551.320549587871
 30
0.0
 10
1364.8799761179
 20
1551.31859310564
 30
0.0
 10
1364.92520393659
 20
1551.316606444996
 30
0.0
 10
1364.967844131733
 20
1551.314734876594
 30
0.0
 10
1365.008612232799
 20
1551.312946816385
 30
0.0
 10
1365.045657205299
 20
1551.311323160746
 30
0.0
 10
1365.078899121116
 20
1551.309867089869
 30
0.0
 10
1365.117047450315
 20
1551.308197027478
 30
0.0
 10
1365.160411702838
 20
1551.306299977223
 30
0.0
 10
1365.20936294712
 20
1551.304160410202
 30
0.0
 10
1365.250362609433
 20
1551.302369892619
 30
0.0
 10
1365.286253043884
 20
1551.300803526625
 30
0.0
 10
1365.319881926536
 20
1551.299336657253
 30
0.0
 10
1365.359297070202
 20
1551.297618502248
 30
0.0
 10
1365.401858025271
 20
1551.295764604766
 30
0.0
 10
1365.446694199053
 20
1551.293813125202
 30
0.0
 10
1365.490866116985
 20
1551.291892074469
 30
0.0
 10
1365.533775274607
 20
1551.29002742007
 30
0.0
 10
1365.572986452363
 20
1551.288324709534
 30
0.0
 10
1365.608133318871
 20
1551.286799494048
 30
0.0
 10
1365.644370160251
 20
1551.285227902327
 30
0.0
 10
1365.682748328237
 20
1551.28356452796
 30
0.0
 10
1365.724566703257
 20
1551.281753402139
 30
0.0
 10
1365.76256416252
 20
1551.28010897114
 30
0.0
 10
1365.798289824422
 20
1551.278563853461
 30
0.0
 10
1365.833740498134
 20
1551.277031526366
 30
0.0
 10
1365.874318688798
 20
1551.275278743026
 30
0.0
 10
1365.916825955719
 20
1551.273444055882
 30
0.0
 10
1365.960191232563
 20
1551.271573786708
 30
0.0
 10
1366.001530738362
 20
1551.269792217201
 30
0.0
 10
1366.041577046297
 20
1551.268067666048
 30
0.0
 10
1366.081261006376
 20
1551.266359894883
 30
0.0
 10
1366.119476481497
 20
1551.264716476895
 30
0.0
 10
1366.155394642711
 20
1551.263172930626
 30
0.0
 10
1366.186326996498
 20
1551.261844426372
 30
0.0
 10
1366.214628635821
 20
1551.260629527431
 30
0.0
 10
1366.242479744752
 20
1551.259434559304
 30
0.0
 10
1366.27106338878
 20
1551.258208782288
 30
0.0
 10
1366.300368789145
 20
1551.256952704636
 30
0.0
 10
1366.331290614798
 20
1551.255628052396
 30
0.0
 10
1366.363862685873
 20
1551.254233501236
 30
0.0
 10
1366.399221219178
 20
1551.252720568475
 30
0.0
 10
1366.437771912875
 20
1551.251072128695
 30
0.0
 10
1366.480516108144
 20
1551.249245712471
 30
0.0
 10
1366.525342675877
 20
1551.247331865748
 30
0.0
 10
1366.569356989243
 20
1551.245454249998
 30
0.0
 10
1366.609765468446
 20
1551.243731781339
 30
0.0
 10
1366.645784616359
 20
1551.242197473573
 30
0.0
 10
1366.680116017033
 20
1551.24073595258
 30
0.0
 10
1366.71311655596
 20
1551.239331938247
 30
0.0
 10
1366.746872932078
 20
1551.237896641892
 30
0.0
 10
1366.780772534093
 20
1551.236456115714
 30
0.0
 10
1366.816547423871
 20
1551.234936860465
 30
0.0
 10
1366.854578760216
 20
1551.233322855178
 30
0.0
 10
1366.892738990412
 20
1551.23170452993
 30
0.0
 10
1366.931673899064
 20
1551.230054502729
 30
0.0
 10
1366.97165040685
 20
1551.228361504787
 30
0.0
 10
1367.015314586908
 20
1551.226513742149
 30
0.0
 10
1367.060582828975
 20
1551.224599685007
 30
0.0
 10
1367.104706383188
 20
1551.22273559055
 30
0.0
 10
1367.146052777524
 20
1551.220990177931
 30
0.0
 10
1367.183683767936
 20
1551.219402756431
 30
0.0
 10
1367.217358308249
 20
1551.217983173327
 30
0.0
 10
1367.247354623144
 20
1551.216719366571
 30
0.0
 10
1367.276038582318
 20
1551.215511474021
 30
0.0
 10
1367.309124152909
 20
1551.2141189608
 30
0.0
 10
1367.347876945668
 20
1551.212488988923
 30
0.0
 10
1367.393076725292
 20
1551.210589357306
 30
0.0
 10
1367.440617735096
 20
1551.208593047659
 30
0.0
 10
1367.490999254802
 20
1551.206479356561
 30
0.0
 10
1367.54415867476
 20
1551.204251210745
 30
0.0
 10
1367.598830052854
 20
1551.201962022203
 30
0.0
 10
1367.651282631713
 20
1551.199767971677
 30
0.0
 10
1367.698007907917
 20
1551.197815287286
 30
0.0
 10
1367.738225548797
 20
1551.196135907011
 30
0.0
 10
1367.773892464825
 20
1551.194647567321
 30
0.0
 10
1367.808250376001
 20
1551.193214734054
 30
0.0
 10
1367.844521493153
 20
1551.191703081855
 30
0.0
 10
1367.883990580888
 20
1551.190059299772
 30
0.0
 10
1367.926643951481
 20
1551.188284248823
 30
0.0
 10
1367.971486578496
 20
1551.186419617219
 30
0.0
 10
1368.018368240624
 20
1551.184471856158
 30
0.0
 10
1368.067144660411
 20
1551.182447154424
 30
0.0
 10
1368.117140759124
 20
1551.1803737533
 30
0.0
 10
1368.16570713421
 20
1551.178361535758
 30
0.0
 10
1368.209083055346
 20
1551.176565942736
 30
0.0
 10
1368.246439886462
 20
1551.175020672505
 30
0.0
 10
1368.278218875217
 20
1551.173706956708
 30
0.0
 10
1368.30771181018
 20
1551.172488418432
 30
0.0
 10
1368.337305851633
 20
1551.171266350014
 30
0.0
 10
1368.369247763307
 20
1551.169948077608
 30
0.0
 10
1368.404052847586
 20
1551.168512533227
 30
0.0
 10
1368.446853189665
 20
1551.166748415883
 30
0.0
 10
1368.497475014498
 20
1551.164663740544
 30
0.0
 10
1368.555637431924
 20
1551.162271088835
 30
0.0
 10
1368.615566024501
 20
1551.159808514849
 30
0.0
 10
1368.670992964542
 20
1551.157533513194
 30
0.0
 10
1368.71970380787
 20
1551.155536160414
 30
0.0
 10
1368.759845919802
 20
1551.153891473532
 30
0.0
 10
1368.79538494929
 20
1551.152436416881
 30
0.0
 10
1368.828087063905
 20
1551.151098346991
 30
0.0
 10
1368.860640078688
 20
1551.149767161658
 30
0.0
 10
1368.895888011504
 20
1551.148326677989
 30
0.0
 10
1368.934925926653
 20
1551.146732421415
 30
0.0
 10
1368.977722915562
 20
1551.144986000043
 30
0.0
 10
1369.026928267816
 20
1551.142979763363
 30
0.0
 10
1369.081219689415
 20
1551.14076833879
 30
0.0
 10
1369.139390200112
 20
1551.138401517058
 30
0.0
 10
1369.195961128615
 20
1551.136102308599
 30
0.0
 10
1369.248944899836
 20
1551.133951164537
 30
0.0
 10
1369.296445913333
 20
1551.132024465924
 30
0.0
 10
1369.335988396409
 20
1551.130421929579
 30
0.0
 10
1369.370679091421
 20
1551.129016970936
 30
0.0
 10
1369.403908072932
 20
1551.127672010105
 30
0.0
 10
1369.441057891042
 20
1551.126169352768
 30
0.0
 10
1369.482410852575
 20
1551.124497932823
 30
0.0
 10
1369.527250996504
 20
1551.122687065612
 30
0.0
 10
1369.581204643094
 20
1551.120510083959
 30
0.0
 10
1369.641754849695
 20
1551.118069646624
 30
0.0
 10
1369.706659402208
 20
1551.115457056989
 30
0.0
 10
1369.766725023992
 20
1551.113042159618
 30
0.0
 10
1369.817679305736
 20
1551.110995828875
 30
0.0
 10
1369.860131891751
 20
1551.109292433023
 30
0.0
 10
1369.897976022052
 20
1551.107775015696
 30
0.0
 10
1369.93883955068
 20
1551.106137718014
 30
0.0
 10
1369.983036777767
 20
1551.104368333318
 30
0.0
 10
1370.030368888779
 20
1551.102475126171
 30
0.0
 10
1370.078350233145
 20
1551.100557702955
 30
0.0
 10
1370.126608911806
 20
1551.098631030789
 30
0.0
 10
1370.172612802063
 20
1551.096796060001
 30
0.0
 10
1370.215619295003
 20
1551.095082119772
 30
0.0
 10
1370.257958291652
 20
1551.093396133372
 30
0.0
 10
1370.299581758235
 20
1551.09173998541
 30
0.0
 10
1370.340434818359
 20
1551.090115824506
 30
0.0
 10
1370.378245753124
 20
1551.088613749502
 30
0.0
 10
1370.412750806517
 20
1551.087243967375
 30
0.0
 10
1370.446638440832
 20
1551.085899553393
 30
0.0
 10
1370.482487990333
 20
1551.084478225726
 30
0.0
 10
1370.523248416591
 20
1551.082863397415
 30
0.0
 10
1370.56873542692
 20
1551.081062825582
 30
0.0
 10
1370.621244772822
 20
1551.078986212365
 30
0.0
 10
1370.676812702434
 20
1551.076791030984
 30
0.0
 10
1370.731657522266
 20
1551.074626877255
 30
0.0
 10
1370.775986074583
 20
1551.07287944231
 30
0.0
 10
1370.811727540816
 20
1551.07147158526
 30
0.0
 10
1370.840810929462
 20
1551.070326654143
 30
0.0
 10
1370.868695963381
 20
1551.069229509936
 30
0.0
 10
1370.895382636437
 20
1551.068180075771
 30
0.0
 10
1370.921209812228
 20
1551.067164959088
 30
0.0
 10
1370.947953273787
 20
1551.066114351122
 30
0.0
 10
1370.976545927959
 20
1551.064991700242
 30
0.0
 10
1371.008340429257
 20
1551.063744072764
 30
0.0
 10
1371.043252928526
 20
1551.062374979504
 30
0.0
 10
1371.082042327704
 20
1551.060854953268
 30
0.0
 10
1371.123896658072
 20
1551.059216134025
 30
0.0
 10
1371.166295474338
 20
1551.057557410444
 30
0.0
 10
1371.208948860148
 20
1551.055890114523
 30
0.0
 10
1371.249528874276
 20
1551.054305174369
 30
0.0
 10
1371.287464747528
 20
1551.05282469343
 30
0.0
 10
1371.321010768003
 20
1551.051516438497
 30
0.0
 10
1371.351700327383
 20
1551.050320322893
 30
0.0
 10
1371.380852844851
 20
1551.049184781061
 30
0.0
 10
1371.408910190826
 20
1551.048092515382
 30
0.0
 10
1371.435943334962
 20
1551.047040692005
 30
0.0
 10
1371.463509759189
 20
1551.045968683721
 30
0.0
 10
1371.493752885721
 20
1551.044793231581
 30
0.0
 10
1371.528592835157
 20
1551.043439979987
 30
0.0
 10
1371.568629549823
 20
1551.041886031495
 30
0.0
 10
1371.613655350296
 20
1551.040139915118
 30
0.0
 10
1371.661489753543
 20
1551.038286628792
 30
0.0
 10
1371.70852818732
 20
1551.036465962289
 30
0.0
 10
1371.751513152281
 20
1551.03480369604
 30
0.0
 10
1371.78932351325
 20
1551.033342706883
 30
0.0
 10
1371.822263113898
 20
1551.032070819875
 30
0.0
 10
1371.851526760073
 20
1551.03094155811
 30
0.0
 10
1371.879057114215
 20
1551.029879763598
 30
0.0
 10
1371.9067962181
 20
1551.028810499713
 30
0.0
 10
1371.935491992212
 20
1551.027704981798
 30
0.0
 10
1371.965149920761
 20
1551.026563062046
 30
0.0
 10
1371.996674955756
 20
1551.025349983972
 30
0.0
 10
1372.031626249606
 20
1551.024005936816
 30
0.0
 10
1372.070067466788
 20
1551.022528782669
 30
0.0
 10
1372.112320150088
 20
1551.020906484772
 30
0.0
 10
1372.157436136852
 20
1551.019175756639
 30
0.0
 10
1372.203671516516
 20
1551.017403762793
 30
0.0
 10
1372.247909997838
 20
1551.015709883082
 30
0.0
 10
1372.287650724707
 20
1551.014189508151
 30
0.0
 10
1372.322678629158
 20
1551.012850440665
 30
0.0
 10
1372.356098983304
 20
1551.011573667518
 30
0.0
 10
1372.389624587472
 20
1551.010293714635
 30
0.0
 10
1372.425637870021
 20
1551.008919759501
 30
0.0
 10
1372.463415943776
 20
1551.007479537713
 30
0.0
 10
1372.502139974415
 20
1551.006004414625
 30
0.0
 10
1372.542479354097
 20
1551.004468974026
 30
0.0
 10
1372.585304280459
 20
1551.002840256899
 30
0.0
 10
1372.632973428767
 20
1551.001028959893
 30
0.0
 10
1372.685066431379
 20
1550.999051579871
 30
0.0
 10
1372.738154334188
 20
1550.997038652492
 30
0.0
 10
1372.788466002497
 20
1550.995133053112
 30
0.0
 10
1372.832851511177
 20
1550.993453534819
 30
0.0
 10
1372.872433438222
 20
1550.991957036918
 30
0.0
 10
1372.90939510327
 20
1550.990560661986
 30
0.0
 10
1372.947044033631
 20
1550.989139376585
 30
0.0
 10
1372.987222967503
 20
1550.987623766346
 30
0.0
 10
1373.031063022928
 20
1550.985971469663
 30
0.0
 10
1373.078648253212
 20
1550.984179692098
 30
0.0
 10
1373.13008398732
 20
1550.982244884421
 30
0.0
 10
1373.181117624361
 20
1550.980327298364
 30
0.0
 10
1373.230586119573
 20
1550.978470457185
 30
0.0
 10
1373.275771445768
 20
1550.976776004959
 30
0.0
 10
1373.318248084895
 20
1550.975184586833
 30
0.0
 10
1373.356423835183
 20
1550.973755489726
 30
0.0
 10
1373.390240130672
 20
1550.97249052379
 30
0.0
 10
1373.420542924746
 20
1550.971357724832
 30
0.0
 10
1373.455026375929
 20
1550.970069399018
 30
0.0
 10
1373.497325659238
 20
1550.968490272071
 30
0.0
 10
1373.550186312254
 20
1550.966518883683
 30
0.0
 10
1373.608414957414
 20
1550.96434981442
 30
0.0
 10
1373.670404650533
 20
1550.962043546313
 30
0.0
 10
1373.734356109999
 20
1550.959667407729
 30
0.0
 10
1373.793175788196
 20
1550.957484869503
 30
0.0
 10
1373.844636030704
 20
1550.955577629533
 30
0.0
 10
1373.886745176048
 20
1550.954018407929
 30
0.0
 10
1373.924000914285
 20
1550.9526400345
 30
0.0
 10
1373.958799564302
 20
1550.951353499785
 30
0.0
 10
1373.994474473566
 20
1550.950035491714
 30
0.0
 10
1374.034254672042
 20
1550.94856695403
 30
0.0
 10
1374.079076936193
 20
1550.946913740436
 30
0.0
 10
1374.127855739718
 20
1550.945116371212
 30
0.0
 10
1374.178484585496
 20
1550.943252809581
 30
0.0
 10
1374.228857220413
 20
1550.941400655213
 30
0.0
 10
1374.277886466202
 20
1550.939599771692
 30
0.0
 10
1374.324043303146
 20
1550.937906110979
 30
0.0
 10
1374.366582653753
 20
1550.936346651151
 30
0.0
 10
1374.404825625186
 20
1550.934945869942
 30
0.0
 10
1374.439556086385
 20
1550.933674721333
 30
0.0
 10
1374.472024672317
 20
1550.932487181796
 30
0.0
 10
1374.507249274144
 20
1550.931199689998
 30
0.0
 10
1374.548799917622
 20
1550.929682165378
 30
0.0
 10
1374.598996015364
 20
1550.927850688171
 30
0.0
 10
1374.654811824609
 20
1550.925816477305
 30
0.0
 10
1374.712407597795
 20
1550.923719992843
 30
0.0
 10
1374.767634213836
 20
1550.921712196635
 30
0.0
 10
1374.818307688266
 20
1550.919871994963
 30
0.0
 10
1374.864727688217
 20
1550.918187980309
 30
0.0
 10
1374.907534168461
 20
1550.916636520948
 30
0.0
 10
1374.944660874624
 20
1550.915292090868
 30
0.0
 10
1374.97660229365
 20
1550.91413627288
 30
0.0
 10
1375.00547972537
 20
1550.913091953127
 30
0.0
 10
1375.036462542394
 20
1550.911972179338
 30
0.0
 10
1375.071937593839
 20
1550.91069094503
 30
0.0
 10
1375.112345497494
 20
1550.90923273718
 30
0.0
 10
1375.157529792405
 20
1550.907603652885
 30
0.0
 10
1375.20518663967
 20
1550.905887161235
 30
0.0
 10
1375.252410565357
 20
1550.904188040831
 30
0.0
 10
1375.296389263215
 20
1550.902607237801
 30
0.0
 10
1375.336179202633
 20
1550.901178281333
 30
0.0
 10
1375.372216183917
 20
1550.899885151
 30
0.0
 10
1375.405278040346
 20
1550.898699643509
 30
0.0
 10
1375.436422014767
 20
1550.897583668233
 30
0.0
 10
1375.466050774458
 20
1550.896522681688
 30
0.0
 10
1375.494181001435
 20
1550.895515981313
 30
0.0
 10
1375.521954460219
 20
1550.894522631809
 30
0.0
 10
1375.551922003584
 20
1550.89345144652
 30
0.0
 10
1375.583609644249
 20
1550.892319547471
 30
0.0
 10
1375.617564743814
 20
1550.891107519898
 30
0.0
 10
1375.653090893987
 20
1550.889840333622
 30
0.0
 10
1375.692301305772
 20
1550.888442860504
 30
0.0
 10
1375.733604148009
 20
1550.886972116585
 30
0.0
 10
1375.778260705318
 20
1550.885383404965
 30
0.0
 10
1375.823010267636
 20
1550.883792952522
 30
0.0
 10
1375.866150018083
 20
1550.8822612484
 30
0.0
 10
1375.90608276845
 20
1550.880844641149
 30
0.0
 10
1375.944900855006
 20
1550.879468720777
 30
0.0
 10
1375.984754567964
 20
1550.878057310425
 30
0.0
 10
1376.025068029186
 20
1550.876630856531
 30
0.0
 10
1376.064485827779
 20
1550.875237324867
 30
0.0
 10
1376.104659725647
 20
1550.873818270648
 30
0.0
 10
1376.147009525138
 20
1550.872323651569
 30
0.0
 10
1376.194525674798
 20
1550.870648343929
 30
0.0
 10
1376.247724240957
 20
1550.868774737513
 30
0.0
 10
1376.302204081859
 20
1550.866858352285
 30
0.0
 10
1376.353638916614
 20
1550.865051270512
 30
0.0
 10
1376.39711041155
 20
1550.86352555464
 30
0.0
 10
1376.434084310042
 20
1550.862229007359
 30
0.0
 10
1376.467893088586
 20
1550.861044326857
 30
0.0
 10
1376.501875545314
 20
1550.859854421973
 30
0.0
 10
1376.53790616851
 20
1550.858593769948
 30
0.0
 10
1376.576283540309
 20
1550.857252102842
 30
0.0
 10
1376.61813921031
 20
1550.855790108096
 30
0.0
 10
1376.664657704032
 20
1550.854166808448
 30
0.0
 10
1376.716719741792
 20
1550.852352035152
 30
0.0
 10
1376.7681840606
 20
1550.850560268396
 30
0.0
 10
1376.815758004861
 20
1550.848905819567
 30
0.0
 10
1376.856160086985
 20
1550.847502103707
 30
0.0
 10
1376.892291774566
 20
1550.846247820254
 30
0.0
 10
1376.924153070492
 20
1550.845142613123
 30
0.0
 10
1376.952256054813
 20
1550.84416841704
 30
0.0
 10
1376.984386385276
 20
1550.843055260087
 30
0.0
 10
1377.023667804973
 20
1550.841695392454
 30
0.0
 10
1377.072706572156
 20
1550.83999949254
 30
0.0
 10
1377.126329434755
 20
1550.838147188726
 30
0.0
 10
1377.1837012585
 20
1550.836167850807
 30
0.0
 10
1377.243939901256
 20
1550.834092340808
 30
0.0
 10
1377.3007317798
 20
1550.832138278486
 30
0.0
 10
1377.352040217378
 20
1550.830375060876
 30
0.0
 10
1377.395821858795
 20
1550.828872032778
 30
0.0
 10
1377.4359779361
 20
1550.827494762479
 30
0.0
 10
1377.473889816727
 20
1550.826195576544
 30
0.0
 10
1377.512151728154
 20
1550.82488548441
 30
0.0
 10
1377.556457670956
 20
1550.823369781813
 30
0.0
 10
1377.608303095996
 20
1550.821598060782
 30
0.0
 10
1377.66669668141
 20
1550.819605134928
 30
0.0
 10
1377.726950003618
 20
1550.81755153337
 30
0.0
 10
1377.787036028247
 20
1550.815506426726
 30
0.0
 10
1377.841453917141
 20
1550.813656742193
 30
0.0
 10
1377.889158157868
 20
1550.812037148661
 30
0.0
 10
1377.929130370844
 20
1550.810681350147
 30
0.0
 10
1377.965296027086
 20
1550.809455723092
 30
0.0
 10
1377.998436733278
 20
1550.808333482515
 30
0.0
 10
1378.034852715985
 20
1550.80710121729
 30
0.0
 10
1378.078444269388
 20
1550.805627428776
 30
0.0
 10
1378.132327025193
 20
1550.803807772949
 30
0.0
 10
1378.19193139593
 20
1550.801797544195
 30
0.0
 10
1378.253300812819
 20
1550.799730734734
 30
0.0
 10
1378.317897183744
 20
1550.7975582856
 30
0.0
 10
1378.382782341623
 20
1550.795379382345
 30
0.0
 10
1378.446735762396
 20
1550.79323509812
 30
0.0
 10
1378.495330673507
 20
1550.791608016237
 30
0.0
 10
1378.531648568615
 20
1550.790393141865
 30
0.0
 10
1378.559632791228
 20
1550.789457603671
 30
0.0
 10
1378.591016182315
 20
1550.788409134644
 30
0.0
 10
1378.626584692122
 20
1550.787221762641
 30
0.0
 10
1378.666338369749
 20
1550.785895829312
 30
0.0
 10
1378.712215122058
 20
1550.784367144302
 30
0.0
 10
1378.761251657621
 20
1550.782735015149
 30
0.0
 10
1378.810395256031
 20
1550.781101271499
 30
0.0
 10
1378.854649818982
 20
1550.77963165061
 30
0.0
 10
1378.892471394733
 20
1550.7783768728
 30
0.0
 10
1378.92513169602
 20
1550.777294195463
 30
0.0
 10
1378.953914257772
 20
1550.776340713243
 30
0.0
 10
1378.981554721239
 20
1550.775425664667
 30
0.0
 10
1379.008065272207
 20
1550.77454857404
 30
0.0
 10
1379.033592085878
 20
1550.773704539052
 30
0.0
 10
1379.059779530326
 20
1550.772839164517
 30
0.0
 10
1379.087670046988
 20
1550.771918081306
 30
0.0
 10
1379.118889348763
 20
1550.77088777274
 30
0.0
 10
1379.153565236342
 20
1550.769744257338
 30
0.0
 10
1379.192425685114
 20
1550.768463844822
 30
0.0
 10
1379.235028350131
 20
1550.767061471052
 30
0.0
 10
1379.278851850916
 20
1550.76562040841
 30
0.0
 10
1379.323499867953
 20
1550.764153750184
 30
0.0
 10
1379.366015312149
 20
1550.762758584058
 30
0.0
 10
1379.405524093409
 20
1550.761463374004
 30
0.0
 10
1379.44024565035
 20
1550.760326076919
 30
0.0
 10
1379.472370220136
 20
1550.759274641802
 30
0.0
 10
1379.50389051606
 20
1550.758243746038
 30
0.0
 10
1379.535769377399
 20
1550.75720189985
 30
0.0
 10
1379.568428064264
 20
1550.756135370081
 30
0.0
 10
1379.603439205484
 20
1550.75499290834
 30
0.0
 10
1379.642502646477
 20
1550.753719307301
 30
0.0
 10
1379.686670447895
 20
1550.752280697755
 30
0.0
 10
1379.735592269474
 20
1550.750689005318
 30
0.0
 10
1379.785942532054
 20
1550.749052818678
 30
0.0
 10
1379.834173489145
 20
1550.747487385676
 30
0.0
 10
1379.876976364167
 20
1550.746099639909
 30
0.0
 10
1379.913975779652
 20
1550.744901186264
 30
0.0
 10
1379.94554889431
 20
1550.743879321579
 30
0.0
 10
1379.974099777244
 20
1550.742955907705
 30
0.0
 10
1380.006454297288
 20
1550.741910149943
 30
0.0
 10
1380.045362311486
 20
1550.740653622652
 30
0.0
 10
1380.091873056728
 20
1550.739153158209
 30
0.0
 10
1380.142995947266
 20
1550.737505805822
 30
0.0
 10
1380.199604193335
 20
1550.735684023601
 30
0.0
 10
1380.255491688843
 20
1550.733887999808
 30
0.0
 10
1380.307737469267
 20
1550.732211239009
 30
0.0
 10
1380.352679432015
 20
1550.730770506109
 30
0.0
 10
1380.393614387451
 20
1550.72945958919
 30
0.0
 10
1380.429899485923
 20
1550.728298657678
 30
0.0
 10
1380.461526367059
 20
1550.727287589878
 30
0.0
 10
1380.490450557588
 20
1550.726363574568
 30
0.0
 10
1380.519162033921
 20
1550.725446962906
 30
0.0
 10
1380.550159114395
 20
1550.724458088262
 30
0.0
 10
1380.589497834129
 20
1550.723204076745
 30
0.0
 10
1380.637701287537
 20
1550.721669093271
 30
0.0
 10
1380.694378333779
 20
1550.719866690687
 30
0.0
 10
1380.753590331399
 20
1550.717986331325
 30
0.0
 10
1380.813509907942
 20
1550.716086265516
 30
0.0
 10
1380.871287389317
 20
1550.714256801587
 30
0.0
 10
1380.924031128178
 20
1550.712589006227
 30
0.0
 10
1380.969898902926
 20
1550.711140370038
 30
0.0
 10
1381.012423611692
 20
1550.709798702871
 30
0.0
 10
1381.056588580884
 20
1550.708406674219
 30
0.0
 10
1381.102818463261
 20
1550.706951221045
 30
0.0
 10
1381.151330006134
 20
1550.705425722067
 30
0.0
 10
1381.199268322158
 20
1550.703919996914
 30
0.0
 10
1381.247732925691
 20
1550.702399576041
 30
0.0
 10
1381.294592690532
 20
1550.700931226008
 30
0.0
 10
1381.346248947311
 20
1550.699314397397
 30
0.0
 10
1381.401066991917
 20
1550.697600882539
 30
0.0
 10
1381.457373909465
 20
1550.69584341645
 30
0.0
 10
1381.501494159966
 20
1550.694468114261
 30
0.0
 10
1381.537097139082
 20
1550.693359349521
 30
0.0
 10
1381.5681689237
 20
1550.692392384168
 30
0.0
 10
1381.603854628822
 20
1550.691282743397
 30
0.0
 10
1381.644758867783
 20
1550.690012031772
 30
0.0
 10
1381.690539047023
 20
1550.688591377237
 30
0.0
 10
1381.738518429182
 20
1550.687104260577
 30
0.0
 10
1381.785324993957
 20
1550.685655248477
 30
0.0
 10
1381.828255648632
 20
1550.684327710924
 30
0.0
 10
1381.866976842759
 20
1550.683131556031
 30
0.0
 10
1381.902160989545
 20
1550.682045655718
 30
0.0
 10
1381.936378653353
 20
1550.680990463369
 30
0.0
 10
1381.970320184754
 20
1550.679944674435
 30
0.0
 10
1382.004038843064
 20
1550.67890665298
 30
0.0
 10
1382.036794049206
 20
1550.677899113848
 30
0.0
 10
1382.071526878472
 20
1550.676831605042
 30
0.0
 10
1382.111206480241
 20
1550.675613163844
 30
0.0
 10
1382.153696607591
 20
1550.674309826135
 30
0.0
 10
1382.198129095154
 20
1550.672948407838
 30
0.0
 10
1382.241880942717
 20
1550.671609303632
 30
0.0
 10
1382.285264862537
 20
1550.670282959459
 30
0.0
 10
1382.325488499801
 20
1550.669054540783
 30
0.0
 10
1382.361486244313
 20
1550.667956233866
 30
0.0
 10
1382.395517808554
 20
1550.666918802053
 30
0.0
 10
1382.427872961745
 20
1550.665933296269
 30
0.0
 10
1382.460455705452
 20
1550.664941675667
 30
0.0
 10
1382.492920866503
 20
1550.663954424652
 30
0.0
 10
1382.526893057047
 20
1550.662922212555
 30
0.0
 10
1382.562808466244
 20
1550.661831916122
 30
0.0
 10
1382.599000636706
 20
1550.660734243778
 30
0.0
 10
1382.636414212696
 20
1550.659600577991
 30
0.0
 10
1382.675568225143
 20
1550.658415287894
 30
0.0
 10
1382.718983376407
 20
1550.657102381203
 30
0.0
 10
1382.764519407216
 20
1550.655726931149
 30
0.0
 10
1382.809185939429
 20
1550.654379342654
 30
0.0
 10
1382.852316798081
 20
1550.653079517335
 30
0.0
 10
1382.892384363923
 20
1550.651873300967
 30
0.0
 10
1382.928937213712
 20
1550.65077400729
 30
0.0
 10
1382.961579986036
 20
1550.649793141868
 30
0.0
 10
1382.993424617426
 20
1550.648837013023
 30
0.0
 10
1383.03131575808
 20
1550.647700287786
 30
0.0
 10
1383.076501376765
 20
1550.646346160818
 30
0.0
 10
1383.129758736541
 20
1550.644752218473
 30
0.0
 10
1383.185010472012
 20
1550.643100948493
 30
0.0
 10
1383.241908833033
 20
1550.641402928856
 30
0.0
 10
1383.297622663391
 20
1550.639742668244
 30
0.0
 10
1383.351109658454
 20
1550.638151082018
 30
0.0
 10
1383.399499466566
 20
1550.636713073719
 30
0.0
 10
1383.44170448511
 20
1550.635460328579
 30
0.0
 10
1383.480903772062
 20
1550.634297987679
 30
0.0
 10
1383.518998927322
 20
1550.633169481607
 30
0.0
 10
1383.55975433972
 20
1550.631963394954
 30
0.0
 10
1383.603721327367
 20
1550.630663677209
 30
0.0
 10
1383.651097092434
 20
1550.629264874306
 30
0.0
 10
1383.700361533611
 20
1550.627812163797
 30
0.0
 10
1383.750045181142
 20
1550.626348988441
 30
0.0
 10
1383.797189319508
 20
1550.624962400906
 30
0.0
 10
1383.840816017209
 20
1550.623680804896
 30
0.0
 10
1383.879845214971
 20
1550.622535484484
 30
0.0
 10
1383.915733431875
 20
1550.621483371222
 30
0.0
 10
1383.94837779772
 20
1550.620527215529
 30
0.0
 10
1383.97827810907
 20
1550.619652146163
 30
0.0
 10
1384.007818373622
 20
1550.618788261668
 30
0.0
 10
1384.040841909711
 20
1550.61782326227
 30
0.0
 10
1384.079725196935
 20
1550.616688098256
 30
0.0
 10
1384.124960480555
 20
1550.615368971614
 30
0.0
 10
1384.174106442559
 20
1550.613937613456
 30
0.0
 10
1384.224145383253
 20
1550.612482212451
 30
0.0
 10
1384.275867934817
 20
1550.610979820345
 30
0.0
 10
1384.327072928533
 20
1550.609494499306
 30
0.0
 10
1384.377694726209
 20
1550.608028150813
 30
0.0
 10
1384.423938384975
 20
1550.606690331722
 30
0.0
 10
1384.466469386096
 20
1550.605461368082
 30
0.0
 10
1384.502541313612
 20
1550.60442017253
 30
0.0
 10
1384.534971500575
 20
1550.603484912082
 30
0.0
 10
1384.566578197278
 20
1550.602574109238
 30
0.0
 10
1384.603012737306
 20
1550.60152513579
 30
0.0
 10
1384.644274937702
 20
1550.600338402417
 30
0.0
 10
1384.689754519972
 20
1550.59903189988
 30
0.0
 10
1384.739372696854
 20
1550.597608321056
 30
0.0
 10
1384.789334125009
 20
1550.5961768665
 30
0.0
 10
1384.836450435099
 20
1550.594828752359
 30
0.0
 10
1384.877510544217
 20
1550.593655303862
 30
0.0
 10
1384.914647937038
 20
1550.592595046995
 30
0.0
 10
1384.949903747177
 20
1550.591589468154
 30
0.0
 10
1384.985022606402
 20
1550.590588743231
 30
0.0
 10
1385.020721345105
 20
1550.589572454471
 30
0.0
 10
1385.059113132897
 20
1550.588480563269
 30
0.0
 10
1385.098885663305
 20
1550.587350626055
 30
0.0
 10
1385.140698038675
 20
1550.586164057593
 30
0.0
 10
1385.183723119182
 20
1550.584944437119
 30
0.0
 10
1385.228346275549
 20
1550.583681056185
 30
0.0
 10
1385.271828146112
 20
1550.582451501875
 30
0.0
 10
1385.311609750391
 20
1550.581327862303
 30
0.0
 10
1385.347135046714
 20
1550.580325470631
 30
0.0
 10
1385.378404295819
 20
1550.579443971059
 30
0.0
 10
1385.407819470348
 20
1550.578615397444
 30
0.0
 10
1385.436779761193
 20
1550.577800271115
 30
0.0
 10
1385.466678687176
 20
1550.576959413695
 30
0.0
 10
1385.496556220266
 20
1550.5761198495
 30
0.0
 10
1385.526751556761
 20
1550.575272063936
 30
0.0
 10
1385.558976956458
 20
1550.574368064062
 30
0.0
 10
1385.596090872009
 20
1550.573327848685
 30
0.0
 10
1385.639208972134
 20
1550.572120637489
 30
0.0
 10
1385.687389403832
 20
1550.570773367276
 30
0.0
 10
1385.737789577965
 20
1550.569366001786
 30
0.0
 10
1385.792493504857
 20
1550.567840630639
 30
0.0
 10
1385.849187894405
 20
1550.566262207967
 30
0.0
 10
1385.906999998698
 20
1550.56465533645
 30
0.0
 10
1385.959853688582
 20
1550.563188543992
 30
0.0
 10
1386.007494858288
 20
1550.561868247928
 30
0.0
 10
1386.051435850864
 20
1550.560652008048
 30
0.0
 10
1386.095554172645
 20
1550.559432294508
 30
0.0
 10
1386.143248702228
 20
1550.558115358979
 30
0.0
 10
1386.196257326433
 20
1550.556653744393
 30
0.0
 10
1386.25359074687
 20
1550.555075333183
 30
0.0
 10
1386.309578110802
 20
1550.553536534939
 30
0.0
 10
1386.362969254617
 20
1550.552071344215
 30
0.0
 10
1386.412657687317
 20
1550.550709664402
 30
0.0
 10
1386.46099479504
 20
1550.549386872253
 30
0.0
 10
1386.506035454185
 20
1550.548155927329
 30
0.0
 10
1386.546539750204
 20
1550.547050290608
 30
0.0
 10
1386.582724076632
 20
1550.546063637528
 30
0.0
 10
1386.618904820233
 20
1550.54507802768
 30
0.0
 10
1386.657450639596
 20
1550.544029064787
 30
0.0
 10
1386.700492387378
 20
1550.542859133203
 30
0.0
 10
1386.746599163326
 20
1550.541607459482
 30
0.0
 10
1386.797316335818
 20
1550.540232481774
 30
0.0
 10
1386.854217572718
 20
1550.538692178364
 30
0.0
 10
1386.910252566246
 20
1550.537177928092
 30
0.0
 10
1386.962323299522
 20
1550.535773029445
 30
0.0
 10
1387.006545723651
 20
1550.534581446308
 30
0.0
 10
1387.047142937919
 20
1550.533488879423
 30
0.0
 10
1387.083357193044
 20
1550.532515336523
 30
0.0
 10
1387.115188471819
 20
1550.531660452347
 30
0.0
 10
1387.1432499298
 20
1550.530907452037
 30
0.0
 10
1387.169001900334
 20
1550.530216942165
 30
0.0
 10
1387.193909956063
 20
1550.529549537314
 30
0.0
 10
1387.218826929418
 20
1550.528882370207
 30
0.0
 10
1387.243758117883
 20
1550.528215299717
 30
0.0
 10
1387.268742149456
 20
1550.527547293853
 30
0.0
 10
1387.2948421755
 20
1550.52684995063
 30
0.0
 10
1387.323579724793
 20
1550.526082726574
 30
0.0
 10
1387.357767710841
 20
1550.525170791467
 30
0.0
 10
1387.39818258868
 20
1550.524093912176
 30
0.0
 10
1387.445083909241
 20
1550.522845789472
 30
0.0
 10
1387.495204518405
 20
1550.521513906796
 30
0.0
 10
1387.545186997925
 20
1550.520187679235
 30
0.0
 10
1387.5925355454
 20
1550.518933115083
 30
0.0
 10
1387.635960850411
 20
1550.517784019336
 30
0.0
 10
1387.675723798049
 20
1550.516733113177
 30
0.0
 10
1387.71212472625
 20
1550.515772109314
 30
0.0
 10
1387.746470638681
 20
1550.51486628065
 30
0.0
 10
1387.779621264015
 20
1550.513992835072
 30
0.0
 10
1387.811062056926
 20
1550.513165226153
 30
0.0
 10
1387.841952162535
 20
1550.512352838607
 30
0.0
 10
1387.87394669546
 20
1550.511512151116
 30
0.0
 10
1387.909219338581
 20
1550.510586232383
 30
0.0
 10
1387.948244500282
 20
1550.509562921759
 30
0.0
 10
1387.99838217426
 20
1550.508249795328
 30
0.0
 10
1388.057694226877
 20
1550.506698924795
 30
0.0
 10
1388.12392183758
 20
1550.504970665968
 30
0.0
 10
1388.187306734802
 20
1550.503319755465
 30
0.0
 10
1388.246716301872
 20
1550.501775205229
 30
0.0
 10
1388.301255799941
 20
1550.500359670498
 30
0.0
 10
1388.349705236751
 20
1550.499104125025
 30
0.0
 10
1388.394699969314
 20
1550.497939673968
 30
0.0
 10
1388.439799891001
 20
1550.496773990943
 30
0.0
 10
1388.489031051131
 20
1550.495503296171
 30
0.0
 10
1388.543028735589
 20
1550.494111718016
 30
0.0
 10
1388.601275216655
 20
1550.492613165398
 30
0.0
 10
1388.663250130988
 20
1550.491021556373
 30
0.0
 10
1388.727617786721
 20
1550.489371645597
 30
0.0
 10
1388.786756941001
 20
1550.487858732033
 30
0.0
 10
1388.83786015253
 20
1550.48655359389
 30
0.0
 10
1388.879144643994
 20
1550.485500606554
 30
0.0
 10
1388.915774704432
 20
1550.484567424155
 30
0.0
 10
1388.949555077004
 20
1550.483707729674
 30
0.0
 10
1388.982451667646
 20
1550.48287134872
 30
0.0
 10
1389.01607546272
 20
1550.482017335527
 30
0.0
 10
1389.050640239988
 20
1550.481140326315
 30
0.0
 10
1389.085807937258
 20
1550.480248965247
 30
0.0
 10
1389.12275608236
 20
1550.479313483876
 30
0.0
 10
1389.162607126077
 20
1550.478305656383
 30
0.0
 10
1389.206877341806
 20
1550.477187498218
 30
0.0
 10
1389.255219031339
 20
1550.475968229579
 30
0.0
 10
1389.304627919349
 20
1550.474723955169
 30
0.0
 10
1389.351981158242
 20
1550.473533257935
 30
0.0
 10
1389.394503584221
 20
1550.472465500464
 30
0.0
 10
1389.432076629716
 20
1550.471523179399
 30
0.0
 10
1389.465144521042
 20
1550.47069473733
 30
0.0
 10
1389.495191440406
 20
1550.469942689792
 30
0.0
 10
1389.523864243334
 20
1550.469225668206
 30
0.0
 10
1389.552365594279
 20
1550.468513557851
 30
0.0
 10
1389.580858188757
 20
1550.467802289619
 30
0.0
 10
1389.609781355975
 20
1550.467080905447
 30
0.0
 10
1389.640676153683
 20
1550.466311037159
 30
0.0
 10
1389.675946897828
 20
1550.465432993729
 30
0.0
 10
1389.716939069636
 20
1550.464413715018
 30
0.0
 10
1389.763884293081
 20
1550.463248008438
 30
0.0
 10
1389.814414720748
 20
1550.46199520141
 30
0.0
 10
1389.865547308488
 20
1550.460729518552
 30
0.0
 10
1389.914311126145
 20
1550.459524362645
 30
0.0
 10
1389.961818999077
 20
1550.45835195903
 30
0.0
 10
1390.007997113509
 20
1550.457214033149
 30
0.0
 10
1390.053124448112
 20
1550.456103618012
 30
0.0
 10
1390.095132477652
 20
1550.45507135656
 30
0.0
 10
1390.134655277973
 20
1550.454101397052
 30
0.0
 10
1390.17343294027
 20
1550.453150864031
 30
0.0
 10
1390.21411133013
 20
1550.452154943259
 30
0.0
 10
1390.259055090864
 20
1550.45105605562
 30
0.0
 10
1390.309046760499
 20
1550.449835569084
 30
0.0
 10
1390.362766315904
 20
1550.448526236202
 30
0.0
 10
1390.418591799319
 20
1550.447167953712
 30
0.0
 10
1390.475024464906
 20
1550.445797335849
 30
0.0
 10
1390.531040750285
 20
1550.444439263899
 30
0.0
 10
1390.584739292117
 20
1550.443139684152
 30
0.0
 10
1390.634201843674
 20
1550.441944602308
 30
0.0
 10
1390.678240078131
 20
1550.440882159677
 30
0.0
 10
1390.718373981962
 20
1550.439915183609
 30
0.0
 10
1390.757273082229
 20
1550.438979098704
 30
0.0
 10
1390.796374829741
 20
1550.438039309073
 30
0.0
 10
1390.83668426229
 20
1550.437071723811
 30
0.0
 10
1390.878656446131
 20
1550.436065524282
 30
0.0
 10
1390.924324018461
 20
1550.434972254704
 30
0.0
 10
1390.974623460316
 20
1550.433769945029
 30
0.0
 10
1391.029737197536
 20
1550.432454792208
 30
0.0
 10
1391.084114806616
 20
1550.431159605925
 30
0.0
 10
1391.134374348641
 20
1550.429964585393
 30
0.0
 10
1391.177305175645
 20
1550.428945319187
 30
0.0
 10
1391.21507577929
 20
1550.428049737021
 30
0.0
 10
1391.247910201544
 20
1550.427272083896
 30
0.0
 10
1391.304238459906
 20
1550.425939313619
 30
0.0
 10
1391.357782357524
 20
1550.424675225667
 30
0.0
 10
1391.410931603235
 20
1550.423423157148
 30
0.0
 10
1391.43836112281
 20
1550.422777522607
 30
0.0
 10
1391.46943723761
 20
1550.422046746644
 30
0.0
 10
1391.504639232912
 20
1550.421219843066
 30
0.0
 10
1391.54396719755
 20
1550.420297144178
 30
0.0
 10
1391.586902164939
 20
1550.419291182892
 30
0.0
 10
1391.631152582878
 20
1550.418255920065
 30
0.0
 10
1391.678495432732
 20
1550.417149930294
 30
0.0
 10
1391.726183603685
 20
1550.416037630173
 30
0.0
 10
1391.773346740922
 20
1550.41493938209
 30
0.0
 10
1391.816031702591
 20
1550.413946867238
 30
0.0
 10
1391.85556787724
 20
1550.413028797008
 30
0.0
 10
1391.893182881945
 20
1550.412156448348
 30
0.0
 10
1391.928527552636
 20
1550.411337749847
 30
0.0
 10
1391.962936517955
 20
1550.410541628925
 30
0.0
 10
1391.998336760154
 20
1550.409723486935
 30
0.0
 10
1392.037224940184
 20
1550.408825834192
 30
0.0
 10
1392.080160453783
 20
1550.407836104708
 30
0.0
 10
1392.129143281777
 20
1550.406708664951
 30
0.0
 10
1392.182603501176
 20
1550.405480302624
 30
0.0
 10
1392.238946122013
 20
1550.404188162681
 30
0.0
 10
1392.294511880383
 20
1550.402916226958
 30
0.0
 10
1392.348206870972
 20
1550.401689387313
 30
0.0
 10
1392.398394093727
 20
1550.400544724675
 30
0.0
 10
1392.443821661013
 20
1550.399510290494
 30
0.0
 10
1392.484530766453
 20
1550.3985846365
 30
0.0
 10
1392.52301656384
 20
1550.39771067384
 30
0.0
 10
1392.561790016525
 20
1550.396831295268
 30
0.0
 10
1392.603064867687
 20
1550.395896447553
 30
0.0
 10
1392.647305474136
 20
1550.394895876691
 30
0.0
 10
1392.695152580832
 20
1550.39381541783
 30
0.0
 10
1392.74308769834
 20
1550.392734800179
 30
0.0
 10
1392.791042946684
 20
1550.391655503497
 30
0.0
 10
1392.838133853597
 20
1550.390597317935
 30
0.0
 10
1392.885689865039
 20
1550.389530448868
 30
0.0
 10
1392.934569924734
 20
1550.38843566268
 30
0.0
 10
1392.981505999345
 20
1550.387386165829
 30
0.0
 10
1393.02529342498
 20
1550.386408669724
 30
0.0
 10
1393.063440917707
 20
1550.385558248256
 30
0.0
 10
1393.09906342512
 20
1550.384765083423
 30
0.0
 10
1393.134610800882
 20
1550.3839745535
 30
0.0
 10
1393.170842961385
 20
1550.383169798214
 30
0.0
 10
1393.205882887188
 20
1550.382392499674
 30
0.0
 10
1393.241572538617
 20
1550.381601733156
 30
0.0
 10
1393.279617351885
 20
1550.380759813754
 30
0.0
 10
1393.323189492356
 20
1550.379796940618
 30
0.0
 10
1393.371764900573
 20
1550.378725230301
 30
0.0
 10
1393.422356593508
 20
1550.377611017621
 30
0.0
 10
1393.471663003066
 20
1550.376527053595
 30
0.0
 10
1393.520368281497
 20
1550.375458077368
 30
0.0
 10
1393.567443748754
 20
1550.374426614598
 30
0.0
 10
1393.613350448266
 20
1550.373422450543
 30
0.0
 10
1393.65531548132
 20
1550.37250589878
 30
0.0
 10
1393.694714845144
 20
1550.371646611075
 30
0.0
 10
1393.732155845693
 20
1550.370831135189
 30
0.0
 10
1393.769246779601
 20
1550.370024327792
 30
0.0
 10
1393.809129009827
 20
1550.369157931363
 30
0.0
 10
1393.853241508036
 20
1550.368201045788
 30
0.0
 10
1393.902319662046
 20
1550.367138206205
 30
0.0
 10
1393.956273315574
 20
1550.365971908426
 30
0.0
 10
1394.015721838401
 20
1550.364689415831
 30
0.0
 10
1394.078599480733
 20
1550.363335949685
 30
0.0
 10
1394.141883726182
 20
1550.361976863672
 30
0.0
 10
1394.202697109846
 20
1550.360673754075
 30
0.0
 10
1394.259636889058
 20
1550.359456234628
 30
0.0
 10
1394.311797106555
 20
1550.358343114717
 30
0.0
 10
1394.353849587256
 20
1550.35744729317
 30
0.0
 10
1394.386690593736
 20
1550.356748627844
 30
0.0
 10
1394.412812968809
 20
1550.356193417051
 30
0.0
 10
1394.44010688051
 20
1550.355613841208
 30
0.0
 10
1394.470878160816
 20
1550.354961098896
 30
0.0
 10
1394.506072793363
 20
1550.354215415742
 30
0.0
 10
1394.547061462638
 20
1550.35334814807
 30
0.0
 10
1394.593082172244
 20
1550.352375958111
 30
0.0
 10
1394.641338005016
 20
1550.35135837305
 30
0.0
 10
1394.687607208961
 20
1550.350384395114
 30
0.0
 10
1394.729800795187
 20
1550.349497642345
 30
0.0
 10
1394.771519439905
 20
1550.34862215523
 30
0.0
 10
1394.813587671118
 20
1550.347740670396
 30
0.0
 10
1394.856932658679
 20
1550.346833898044
 30
0.0
 10
1394.895550551153
 20
1550.346027276925
 30
0.0
 10
1394.931197739082
 20
1550.34528369833
 30
0.0
 10
1394.966106709686
 20
1550.344556389351
 30
0.0
 10
1395.005788325643
 20
1550.343730771264
 30
0.0
 10
1395.047074823388
 20
1550.342873103347
 30
0.0
 10
1395.088835247019
 20
1550.342006938495
 30
0.0
 10
1395.128293700616
 20
1550.341189733815
 30
0.0
 10
1395.166274218916
 20
1550.340404292044
 30
0.0
 10
1395.202312349699
 20
1550.339660025743
 30
0.0
 10
1395.235923270012
 20
1550.338966788656
 30
0.0
 10
1395.266774271488
 20
1550.33833125819
 30
0.0
 10
1395.293711204063
 20
1550.337776949118
 30
0.0
 10
1395.318878831445
 20
1550.337259531006
 30
0.0
 10
1395.344539719272
 20
1550.336732455003
 30
0.0
 10
1395.372449247506
 20
1550.336159763881
 30
0.0
 10
1395.402729011458
 20
1550.335539112294
 30
0.0
 10
1395.442262472803
 20
1550.334729739523
 30
0.0
 10
1395.490633198535
 20
1550.333741078823
 30
0.0
 10
1395.547051327613
 20
1550.332590368542
 30
0.0
 10
1395.60381058233
 20
1550.331435172806
 30
0.0
 10
1395.656923479851
 20
1550.330356501355
 30
0.0
 10
1395.705331596019
 20
1550.32937528295
 30
0.0
 10
1395.748016492508
 20
1550.328511521678
 30
0.0
 10
1395.787580951563
 20
1550.327712153739
 30
0.0
 10
1395.825371530546
 20
1550.326949730094
 30
0.0
 10
1395.863801628577
 20
1550.326175493802
 30
0.0
 10
1395.904272273137
 20
1550.325361366897
 30
0.0
 10
1395.947507442731
 20
1550.324493013488
 30
0.0
 10
1395.992676382093
 20
1550.323587348385
 30
0.0
 10
1396.038677475997
 20
1550.32266664032
 30
0.0
 10
1396.083647205167
 20
1550.321768166895
 30
0.0
 10
1396.134996940782
 20
1550.320743953146
 30
0.0
 10
1396.191177171251
 20
1550.319625740763
 30
0.0
 10
1396.25063647114
 20
1550.318445129105
 30
0.0
 10
1396.29552594008
 20
1550.317555742721
 30
0.0
 10
1396.328836754481
 20
1550.31689672182
 30
0.0
 10
1396.354108828527
 20
1550.316397198026
 30
0.0
 10
1396.382584407323
 20
1550.315834935762
 30
0.0
 10
1396.41475213804
 20
1550.315200518374
 30
0.0
 10
1396.451297238283
 20
1550.314480722986
 30
0.0
 10
1396.492031686233
 20
1550.313679623767
 30
0.0
 10
1396.53473569911
 20
1550.312841204073
 30
0.0
 10
1396.576138180999
 20
1550.31202971089
 30
0.0
 10
1396.613841719531
 20
1550.31129186624
 30
0.0
 10
1396.647480663772
 20
1550.310634484372
 30
0.0
 10
1396.677055038276
 20
1550.310057250265
 30
0.0
 10
1396.710257728958
 20
1550.309409899727
 30
0.0
 10
1396.750007177759
 20
1550.308635974819
 30
0.0
 10
1396.799229511295
 20
1550.307679381121
 30
0.0
 10
1396.846907423734
 20
1550.306754687327
 30
0.0
 10
1396.892986935555
 20
1550.305862651318
 30
0.0
 10
1396.937407072428
 20
1550.305004174357
 30
0.0
 10
1396.98630561288
 20
1550.304060896828
 30
0.0
 10
1397.03739254806
 20
1550.303077407224
 30
0.0
 10
1397.087182355148
 20
1550.302120880145
 30
0.0
 10
1397.132240871781
 20
1550.301256906418
 30
0.0
 10
1397.171372738159
 20
1550.300507836176
 30
0.0
 10
1397.207064262964
 20
1550.299825611457
 30
0.0
 10
1397.24313637874
 20
1550.299137051516
 30
0.0
 10
1397.283530030016
 20
1550.298367161852
 30
0.0
 10
1397.329699786836
 20
1550.297488711556
 30
0.0
 10
1397.380770629002
 20
1550.296518933918
 30
0.0
 10
1397.434246837661
 20
1550.295505675516
 30
0.0
 10
1397.487617467517
 20
1550.294496634682
 30
0.0
 10
1397.535774674035
 20
1550.293588101267
 30
0.0
 10
1397.578413483742
 20
1550.29278516671
 30
0.0
 10
1397.615153738523
 20
1550.292094381023
 30
0.0
 10
1397.649207115757
 20
1550.291455038998
 30
0.0
 10
1397.680483100842
 20
1550.290868624936
 30
0.0
 10
1397.709344154924
 20
1550.290328151322
 30
0.0
 10
1397.738264106681
 20
1550.289787187882
 30
0.0
 10
1397.767841056566
 20
1550.289234595489
 30
0.0
 10
1397.799944863352
 20
1550.288635555332
 30
0.0
 10
1397.834333975366
 20
1550.28799472757
 30
0.0
 10
1397.872642456545
 20
1550.28728193142
 30
0.0
 10
1397.913915872875
 20
1550.286515241644
 30
0.0
 10
1397.955675561831
 20
1550.285740887744
 30
0.0
 10
1397.99745183126
 20
1550.284967556333
 30
0.0
 10
1398.037236920743
 20
1550.284232335372
 30
0.0
 10
1398.074613168611
 20
1550.283542769585
 30
0.0
 10
1398.10840594257
 20
1550.282920221184
 30
0.0
 10
1398.142454538985
 20
1550.282293796037
 30
0.0
 10
1398.178546348989
 20
1550.281630742834
 30
0.0
 10
1398.21738225098
 20
1550.280918419555
 30
0.0
 10
1398.258424662795
 20
1550.280166858613
 30
0.0
 10
1398.303384613874
 20
1550.279345015808
 30
0.0
 10
1398.353814492971
 20
1550.278425024405
 30
0.0
 10
1398.405965027669
 20
1550.277475774018
 30
0.0
 10
1398.456272775899
 20
1550.2765621107
 30
0.0
 10
1398.501103443982
 20
1550.275749547491
 30
0.0
 10
1398.540832083865
 20
1550.275030748056
 30
0.0
 10
1398.575382852819
 20
1550.274406613922
 30
0.0
 10
1398.605744572946
 20
1550.273858895555
 30
0.0
 10
1398.634670091015
 20
1550.273337712611
 30
0.0
 10
1398.669394489471
 20
1550.272712808898
 30
0.0
 10
1398.712666422059
 20
1550.271935360253
 30
0.0
 10
1398.764903502757
 20
1550.270998832238
 30
0.0
 10
1398.820656010373
 20
1550.270001627242
 30
0.0
 10
1398.87614242666
 20
1550.269011615699
 30
0.0
 10
1398.929674344708
 20
1550.268058720042
 30
0.0
 10
1398.979675517252
 20
1550.267170652484
 30
0.0
 10
1399.026219720594
 20
1550.266345732074
 30
0.0
 10
1399.065383753635
 20
1550.265652939348
 30
0.0
 10
1399.097681276948
 20
1550.265082487704
 30
0.0
 10
1399.125600191053
 20
1550.264589964004
 30
0.0
 10
1399.155015364846
 20
1550.264071660278
 30
0.0
 10
1399.187168418967
 20
1550.263505879785
 30
0.0
 10
1399.222625753993
 20
1550.262882879
 30
0.0
 10
1399.261041746262
 20
1550.262208964401
 30
0.0
 10
1399.302744471973
 20
1550.261478685152
 30
0.0
 10
1399.345333787
 20
1550.260734295255
 30
0.0
 10
1399.386361889063
 20
1550.26001853346
 30
0.0
 10
1399.424173411947
 20
1550.259360030015
 30
0.0
 10
1399.458721387932
 20
1550.258759320575
 30
0.0
 10
1399.491850715063
 20
1550.258184113921
 30
0.0
 10
1399.524499733222
 20
1550.257618057838
 30
0.0
 10
1399.557607418258
 20
1550.257044895309
 30
0.0
 10
1399.590267555335
 20
1550.256480303857
 30
0.0
 10
1399.622985189073
 20
1550.255915531799
 30
0.0
 10
1399.657548605916
 20
1550.255319765235
 30
0.0
 10
1399.695809440078
 20
1550.25466131455
 30
0.0
 10
1399.737705221508
 20
1550.2539416166
 30
0.0
 10
1399.782821953816
 20
1550.253168100743
 30
0.0
 10
1399.828475907801
 20
1550.252386984545
 30
0.0
 10
1399.872795037107
 20
1550.251630282077
 30
0.0
 10
1399.912974846438
 20
1550.250945564281
 30
0.0
 10
1399.948417101845
 20
1550.25034260773
 30
0.0
 10
1399.981286582832
 20
1550.249784253241
 30
0.0
 10
1400.01324928168
 20
1550.249242075873
 30
0.0
 10
1400.04721333109
 20
1550.248666798242
 30
0.0
 10
1400.083922104571
 20
1550.248046007481
 30
0.0
 10
1400.124617616074
 20
1550.247359002994
 30
0.0
 10
1400.168808883295
 20
1550.246614430251
 30
0.0
 10
1400.218337257684
 20
1550.245781676859
 30
0.0
 10
1400.272263648884
 20
1550.2448771235
 30
0.0
 10
1400.329430220229
 20
1550.243920729539
 30
0.0
 10
1400.38456934901
 20
1550.24300067969
 30
0.0
 10
1400.432345061311
 20
1550.242205464064
 30
0.0
 10
1400.471680571125
 20
1550.241552035902
 30
0.0
 10
1400.504100706265
 20
1550.241014320551
 30
0.0
 10
1400.536454397292
 20
1550.240478469234
 30
0.0
 10
1400.572208006149
 20
1550.239887204218
 30
0.0
 10
1400.610400650346
 20
1550.239256736638
 30
0.0
 10
1400.650407358397
 20
1550.238597533992
 30
0.0
 10
1400.690870406199
 20
1550.237932024719
 30
0.0
 10
1400.73244910198
 20
1550.237249507141
 30
0.0
 10
1400.772897123034
 20
1550.236586846793
 30
0.0
 10
1400.815667354978
 20
1550.235887422635
 30
0.0
 10
1400.859973556679
 20
1550.235164370404
 30
0.0
 10
1400.907620414371
 20
1550.23438853979
 30
0.0
 10
1400.955668172326
 20
1550.23360788961
 30
0.0
 10
1401.00695914632
 20
1550.232776490758
 30
0.0
 10
1401.060136546211
 20
1550.231916677742
 30
0.0
 10
1401.112595559758
 20
1550.231070654438
 30
0.0
 10
1401.163202001716
 20
1550.230256495166
 30
0.0
 10
1401.211250243486
 20
1550.229485305389
 30
0.0
 10
1401.257586629748
 20
1550.228743277075
 30
0.0
 10
1401.301636878104
 20
1550.22803937214
 30
0.0
 10
1401.344371062399
 20
1550.227357913654
 30
0.0
 10
1401.388140537554
 20
1550.226661356994
 30
0.0
 10
1401.435767438102
 20
1550.225905033322
 30
0.0
 10
1401.489779804689
 20
1550.225049400738
 30
0.0
 10
1401.549304790847
 20
1550.224109059127
 30
0.0
 10
1401.611640856184
 20
1550.223127283916
 30
0.0
 10
1401.67372747444
 20
1550.222152437905
 30
0.0
 10
1401.733845245979
 20
1550.221211327626
 30
0.0
 10
1401.790825120448
 20
1550.220321913731
 30
0.0
 10
1401.843784867452
 20
1550.219497497091
 30
0.0
 10
1401.889825591378
 20
1550.21878257039
 30
0.0
 10
1401.93081072092
 20
1550.218147484744
 30
0.0
 10
1401.969807958425
 20
1550.21754432489
 30
0.0
 10
1402.011800694274
 20
1550.216896119736
 30
0.0
 10
1402.057685235867
 20
1550.216189381635
 30
0.0
 10
1402.10626748702
 20
1550.215442869305
 30
0.0
 10
1402.157761940706
 20
1550.214653578916
 30
0.0
 10
1402.209294007879
 20
1550.213865780175
 30
0.0
 10
1402.259503271458
 20
1550.213100214566
 30
0.0
 10
1402.306554838923
 20
1550.212384525515
 30
0.0
 10
1402.348867384855
 20
1550.21174239947
 30
0.0
 10
1402.387618412487
 20
1550.211155522095
 30
0.0
 10
1402.424516234326
 20
1550.210597715354
 30
0.0
 10
1402.464760963531
 20
1550.209990467925
 30
0.0
 10
1402.51045615375
 20
1550.209302472342
 30
0.0
 10
1402.557843784457
 20
1550.208590763643
 30
0.0
 10
1402.604283557549
 20
1550.207895006309
 30
0.0
 10
1402.646362922197
 20
1550.207265987243
 30
0.0
 10
1402.685042826826
 20
1550.206688992333
 30
0.0
 10
1402.71955097597
 20
1550.206175195389
 30
0.0
 10
1402.751130552785
 20
1550.205705786565
 30
0.0
 10
1402.780068224933
 20
1550.205276315287
 30
0.0
 10
1402.808685587486
 20
1550.204852216709
 30
0.0
 10
1402.838173197661
 20
1550.204415853257
 30
0.0
 10
1402.870678001943
 20
1550.203935611007
 30
0.0
 10
1402.906312013316
 20
1550.203410066059
 30
0.0
 10
1402.944766887076
 20
1550.20284401341
 30
0.0
 10
1402.990218972108
 20
1550.20217635006
 30
0.0
 10
1403.041701968764
 20
1550.201422020238
 30
0.0
 10
1403.098301647834
 20
1550.200595180163
 30
0.0
 10
1403.153031404603
 20
1550.199798028702
 30
0.0
 10
1403.200944639253
 20
1550.199102130614
 30
0.0
 10
1403.240915157894
 20
1550.198522931552
 30
0.0
 10
1403.273654073788
 20
1550.198049386815
 30
0.0
 10
1403.305565454345
 20
1550.197588567026
 30
0.0
 10
1403.34017469094
 20
1550.19708962665
 30
0.0
 10
1403.380457044418
 20
1550.196510049557
 30
0.0
 10
1403.427019654499
 20
1550.195841662671
 30
0.0
 10
1403.478334024289
 20
1550.195107013407
 30
0.0
 10
1403.530644198684
 20
1550.194360262689
 30
0.0
 10
1403.58017341617
 20
1550.193655186707
 30
0.0
 10
1403.62427856414
 20
1550.193028908481
 30
0.0
 10
1403.663826689693
 20
1550.192468595009
 30
0.0
 10
1403.700596116719
 20
1550.191948694716
 30
0.0
 10
1403.736682800357
 20
1550.191439439266
 30
0.0
 10
1403.772986570049
 20
1550.190928129408
 30
0.0
 10
1403.810362020502
 20
1550.1904027679
 30
0.0
 10
1403.850230694222
 20
1550.189843514893
 30
0.0
 10
1403.894230284222
 20
1550.18922771908
 30
0.0
 10
1403.939249251925
 20
1550.188599254451
 30
0.0
 10
1403.983625506946
 20
1550.187981309161
 30
0.0
 10
1404.024530467788
 20
1550.187413024285
 30
0.0
 10
1404.062821210342
 20
1550.186882236325
 30
0.0
 10
1404.097324811533
 20
1550.186404907373
 30
0.0
 10
1404.127892209976
 20
1550.185982795656
 30
0.0
 10
1404.154623766885
 20
1550.185614239108
 30
0.0
 10
1404.178970864237
 20
1550.185279018909
 30
0.0
 10
1404.203099465263
 20
1550.184947237136
 30
0.0
 10
1404.233860064443
 20
1550.184524843313
 30
0.0
 10
1404.272765607275
 20
1550.183991629649
 30
0.0
 10
1404.320440189343
 20
1550.183339892104
 30
0.0
 10
1404.371322336742
 20
1550.182646255762
 30
0.0
 10
1404.423710969673
 20
1550.181934181614
 30
0.0
 10
1404.475846581774
 20
1550.181227642665
 30
0.0
 10
1404.52635728499
 20
1550.180545133157
 30
0.0
 10
1404.573534042102
 20
1550.179909460809
 30
0.0
 10
1404.616040584268
 20
1550.179338182961
 30
0.0
 10
1404.65142326912
 20
1550.178863729948
 30
0.0
 10
1404.681985121935
 20
1550.178454664803
 30
0.0
 10
1404.711069932526
 20
1550.178065974357
 30
0.0
 10
1404.744006186354
 20
1550.177626582013
 30
0.0
 10
1404.781824884739
 20
1550.177123078764
 30
0.0
 10
1404.824225077719
 20
1550.176559886116
 30
0.0
 10
1404.869434968747
 20
1550.175960919617
 30
0.0
 10
1404.91426531924
 20
1550.175368576095
 30
0.0
 10
1404.955828547484
 20
1550.174820798027
 30
0.0
 10
1404.99288923197
 20
1550.174333473492
 30
0.0
 10
1405.025390066545
 20
1550.173906974151
 30
0.0
 10
1405.054230232211
 20
1550.173529181936
 30
0.0
 10
1405.08137328083
 20
1550.173174179876
 30
0.0
 10
1405.10902610477
 20
1550.172813077235
 30
0.0
 10
1405.141774845908
 20
1550.172386145108
 30
0.0
 10
1405.18014318538
 20
1550.17188698931
 30
0.0
 10
1405.225343438401
 20
1550.171300435706
 30
0.0
 10
1405.270854367721
 20
1550.170711495119
 30
0.0
 10
1405.316703291918
 20
1550.170119795544
 30
0.0
 10
1405.361614488502
 20
1550.169541704157
 30
0.0
 10
1405.406782114343
 20
1550.16896191308
 30
0.0
 10
1405.44952795708
 20
1550.168414681161
 30
0.0
 10
1405.487782788652
 20
1550.167926131136
 30
0.0
 10
1405.521404655925
 20
1550.167497673295
 30
0.0
 10
1405.552285658088
 20
1550.167104883446
 30
0.0
 10
1405.583613944649
 20
1550.16670711203
 30
0.0
 10
1405.618680103992
 20
1550.166262753563
 30
0.0
 10
1405.658882613977
 20
1550.165754463745
 30
0.0
 10
1405.704173725737
 20
1550.165183322014
 30
0.0
 10
1405.752410683337
 20
1550.164576797938
 30
0.0
 10
1405.800829478935
 20
1550.163969826907
 30
0.0
 10
1405.846816337233
 20
1550.163395014661
 30
0.0
 10
1405.888451053056
 20
1550.162876018771
 30
0.0
 10
1405.926012718499
 20
1550.162408929716
 30
0.0
 10
1405.959793745553
 20
1550.161989755591
 30
0.0
 10
1405.991385423325
 20
1550.161598538325
 30
0.0
 10
1406.020800841155
 20
1550.161234957632
 30
0.0
 10
1406.04837699423
 20
1550.160894708496
 30
0.0
 10
1406.076195753053
 20
1550.160552033523
 30
0.0
 10
1406.106585283419
 20
1550.160178345209
 30
0.0
 10
1406.141539943037
 20
1550.159749391987
 30
0.0
 10
1406.181308521157
 20
1550.159262500955
 30
0.0
 10
1406.225513450519
 20
1550.158722722087
 30
0.0
 10
1406.2713743089
 20
1550.158164352343
 30
0.0
 10
1406.315691039168
 20
1550.157626359981
 30
0.0
 10
1406.355637094522
 20
1550.15714272083
 30
0.0
 10
1406.390006601051
 20
1550.15672758629
 30
0.0
 10
1406.419148230854
 20
1550.156376301313
 30
0.0
 10
1406.4449781404
 20
1550.156065453775
 30
0.0
 10
1406.470747626793
 20
1550.15575582128
 30
0.0
 10
1406.498579686557
 20
1550.155421970916
 30
0.0
 10
1406.529031878955
 20
1550.155057370766
 30
0.0
 10
1406.569813907815
 20
1550.154570084125
 30
0.0
 10
1406.620824399783
 20
1550.153962375711
 30
0.0
 10
1406.68150867797
 20
1550.153242205108
 30
0.0
 10
1406.743438036055
 20
1550.1525101784
 30
0.0
 10
1406.804401114294
 20
1550.151792481591
 30
0.0
 10
1406.862192107198
 20
1550.151114799123
 30
0.0
 10
1406.911599958798
 20
1550.150537516634
 30
0.0
 10
1406.953917206014
 20
1550.150044540318
 30
0.0
 10
1406.992368040771
 20
1550.149597701911
 30
0.0
 10
1407.03340368945
 20
1550.149122046832
 30
0.0
 10
1407.078422017546
 20
1550.148601706792
 30
0.0
 10
1407.126703294684
 20
1550.148045386624
 30
0.0
 10
1407.178871671802
 20
1550.147446270622
 30
0.0
 10
1407.231950438959
 20
1550.146838884778
 30
0.0
 10
1407.283923645519
 20
1550.146246307247
 30
0.0
 10
1407.332437808988
 20
1550.145695010083
 30
0.0
 10
1407.378933823027
 20
1550.145168314842
 30
0.0
 10
1407.419503131008
 20
1550.1447101842
 30
0.0
 10
1407.455456804834
 20
1550.144305212415
 30
0.0
 10
1407.488350888332
 20
1550.143935485505
 30
0.0
 10
1407.524850638519
 20
1550.143526194621
 30
0.0
 10
1407.56535388912
 20
1550.143073203561
 30
0.0
 10
1407.609280069292
 20
1550.142583358785
 30
0.0
 10
1407.657575785626
 20
1550.142046473335
 30
0.0
 10
1407.706430364332
 20
1550.1415052513
 30
0.0
 10
1407.752613615792
 20
1550.140995385966
 30
0.0
 10
1407.791514448474
 20
1550.140567182894
 30
0.0
 10
1407.826112204202
 20
1550.14018727952
 30
0.0
 10
1407.860476406546
 20
1550.139810795687
 30
0.0
 10
1407.897671545274
 20
1550.139404311875
 30
0.0
 10
1407.938610799406
 20
1550.138958137252
 30
0.0
 10
1407.982382984107
 20
1550.138482507387
 30
0.0
 10
1408.027928431823
 20
1550.137989195689
 30
0.0
 10
1408.073499432391
 20
1550.137497213254
 30
0.0
 10
1408.121621424547
 20
1550.1369793501
 30
0.0
 10
1408.171168929703
 20
1550.13644801869
 30
0.0
 10
1408.220664868829
 20
1550.135919210429
 30
0.0
 10
1408.265093360617
 20
1550.13544614442
 30
0.0
 10
1408.300358322435
 20
1550.135071775341
 30
0.0
 10
1408.329197712766
 20
1550.134766296404
 30
0.0
 10
1408.354622097395
 20
1550.134497452724
 30
0.0
 10
1408.383381007775
 20
1550.134193941983
 30
0.0
 10
1408.415747909934
 20
1550.13385311062
 30
0.0
 10
1408.453868646529
 20
1550.133452686491
 30
0.0
 10
1408.497105798574
 20
1550.132999875068
 30
0.0
 10
1408.542718988344
 20
1550.132523815423
 30
0.0
 10
1408.585762456168
 20
1550.132076070921
 30
0.0
 10
1408.624071598098
 20
1550.131678766513
 30
0.0
 10
1408.65742869344
 20
1550.131333736177
 30
0.0
 10
1408.686450616791
 20
1550.13103423243
 30
0.0
 10
1408.713275494824
 20
1550.130757951455
 30
0.0
 10
1408.740280789754
 20
1550.130480351726
 30
0.0
 10
1408.773646457639
 20
1550.130138081785
 30
0.0
 10
1408.814117640698
 20
1550.129724055296
 30
0.0
 10
1408.862439795359
 20
1550.129231423447
 30
0.0
 10
1408.914868136284
 20
1550.12869894783
 30
0.0
 10
1408.971403315773
 20
1550.128127121014
 30
0.0
 10
1409.029876342287
 20
1550.127538321683
 30
0.0
 10
1409.087253624967
 20
1550.126963160366
 30
0.0
 10
1409.140613248314
 20
1550.126430539893
 30
0.0
 10
1409.190092417601
 20
1550.125938573358
 30
0.0
 10
1409.238847329652
 20
1550.125455592643
 30
0.0
 10
1409.290293351111
 20
1550.12494789062
 30
0.0
 10
1409.345983855421
 20
1550.124400581249
 30
0.0
 10
1409.403704456376
 20
1550.123835859767
 30
0.0
 10
1409.460814991015
 20
1550.123279680039
 30
0.0
 10
1409.513841704253
 20
1550.12276553459
 30
0.0
 10
1409.562606747827
 20
1550.122294600447
 30
0.0
 10
1409.607775453552
 20
1550.12185999436
 30
0.0
 10
1409.647915386937
 20
1550.12147512504
 30
0.0
 10
1409.683968750727
 20
1550.121130478646
 30
0.0
 10
1409.718797111945
 20
1550.120798410015
 30
0.0
 10
1409.754514052799
 20
1550.120458853724
 30
0.0
 10
1409.79243806289
 20
1550.120099394607
 30
0.0
 10
1409.831790937669
 20
1550.119727512261
 30
0.0
 10
1409.874671798086
 20
1550.119323651935
 30
0.0
 10
1409.918111612503
 20
1550.118916011417
 30
0.0
 10
1409.958968539559
 20
1550.118533961019
 30
0.0
 10
1409.994898038151
 20
1550.118199042065
 30
0.0
 10
1410.027034458555
 20
1550.117900300491
 30
0.0
 10
1410.05528289944
 20
1550.117638358698
 30
0.0
 10
1410.080949802829
 20
1550.117400894069
 30
0.0
 10
1410.105142077697
 20
1550.117177516061
 30
0.0
 10
1410.129422698931
 20
1550.116953765242
 30
0.0
 10
1410.153953669063
 20
1550.116728155172
 30
0.0
 10
1410.184036926618
 20
1550.116452036053
 30
0.0
 10
1410.22147101696
 20
1550.116109386568
 30
0.0
 10
1410.26829251386
 20
1550.115682400268
 30
0.0
 10
1410.314786275226
 20
1550.115260173503
 30
0.0
 10
1410.359784349778
 20
1550.114853124971
 30
0.0
 10
1410.401982178979
 20
1550.114472735626
 30
0.0
 10
1410.446233384344
 20
1550.114075300812
 30
0.0
 10
1410.492424583173
 20
1550.113662039603
 30
0.0
 10
1410.540055840258
 20
1550.113237612304
 30
0.0
 10
1410.587098101093
 20
1550.112820172671
 30
0.0
 10
1410.632667000278
 20
1550.112417427437
 30
0.0
 10
1410.6748162738
 20
1550.112046325722
 30
0.0
 10
1410.713147687022
 20
1550.111710040278
 30
0.0
 10
1410.747250293342
 20
1550.111411783996
 30
0.0
 10
1410.778927837875
 20
1550.111135511999
 30
0.0
 10
1410.809964342081
 20
1550.110865567172
 30
0.0
 10
1410.841012599327
 20
1550.110596257082
 30
0.0
 10
1410.872270163772
 20
1550.110325873691
 30
0.0
 10
1410.905337452908
 20
1550.110040628815
 30
0.0
 10
1410.94209259535
 20
1550.109724529335
 30
0.0
 10
1410.983912077707
 20
1550.10936613247
 30
0.0
 10
1411.031001521649
 20
1550.108964173347
 30
0.0
 10
1411.081813163739
 20
1550.108532367232
 30
0.0
 10
1411.133840069037
 20
1550.108092333486
 30
0.0
 10
1411.192176757122
 20
1550.107601247443
 30
0.0
 10
1411.254386161696
 20
1550.107080455194
 30
0.0
 10
1411.319379792879
 20
1550.106539736581
 30
0.0
 10
1411.378248570919
 20
1550.1060527592
 30
0.0
 10
1411.431797158834
 20
1550.105612078338
 30
0.0
 10
1411.48304947491
 20
1550.105192288953
 30
0.0
 10
1411.529024246525
 20
1550.104817499531
 30
0.0
 10
1411.571565163265
 20
1550.1044721501
 30
0.0
 10
1411.61068424052
 20
1550.104155710601
 30
0.0
 10
1411.652719181613
 20
1550.103816975276
 30
0.0
 10
1411.698477896068
 20
1550.103449762046
 30
0.0
 10
1411.74829044115
 20
1550.103051836584
 30
0.0
 10
1411.801351362526
 20
1550.102630064426
 30
0.0
 10
1411.853187076671
 20
1550.102220198132
 30
0.0
 10
1411.901057612029
 20
1550.10184354453
 30
0.0
 10
1411.943015022516
 20
1550.101514829535
 30
0.0
 10
1411.980781926665
 20
1550.10122009594
 30
0.0
 10
1412.015311536319
 20
1550.100951568842
 30
0.0
 10
1412.048393956521
 20
1550.10069512818
 30
0.0
 10
1412.081923407379
 20
1550.100436059877
 30
0.0
 10
1412.116969736554
 20
1550.100166191233
 30
0.0
 10
1412.153124196144
 20
1550.099888796801
 30
0.0
 10
1412.191492689036
 20
1550.099595517241
 30
0.0
 10
1412.231181967249
 20
1550.099293316668
 30
0.0
 10
1412.271038507406
 20
1550.098991052747
 30
0.0
 10
1412.308807212936
 20
1550.09870569965
 30
0.0
 10
1412.345468975735
 20
1550.098429776341
 30
0.0
 10
1412.381508227289
 20
1550.098159550111
 30
0.0
 10
1412.419569180912
 20
1550.097875210751
 30
0.0
 10
1412.460903445503
 20
1550.097567651336
 30
0.0
 10
1412.507027880916
 20
1550.097226010543
 30
0.0
 10
1412.556784428845
 20
1550.096859288082
 30
0.0
 10
1412.610680507306
 20
1550.096464182862
 30
0.0
 10
1412.664588120052
 20
1550.096071299246
 30
0.0
 10
1412.718391079809
 20
1550.095681403155
 30
0.0
 10
1412.771356250913
 20
1550.09529966297
 30
0.0
 10
1412.824963388431
 20
1550.094915531139
 30
0.0
 10
1412.876102700229
 20
1550.094551186094
 30
0.0
 10
1412.920777439736
 20
1550.094234563065
 30
0.0
 10
1412.95875698817
 20
1550.093966585476
 30
0.0
 10
1412.990928978492
 20
1550.093740422771
 30
0.0
 10
1413.020386588602
 20
1550.09353401711
 30
0.0
 10
1413.048779777906
 20
1550.093335685377
 30
0.0
 10
1413.077218500975
 20
1550.093137652894
 30
0.0
 10
1413.105731938758
 20
1550.092939720739
 30
0.0
 10
1413.135639436705
 20
1550.09273276413
 30
0.0
 10
1413.168423328063
 20
1550.092506670078
 30
0.0
 10
1413.205668453626
 20
1550.092250802025
 30
0.0
 10
1413.247604003627
 20
1550.091963978933
 30
0.0
 10
1413.294217927452
 20
1550.091646736098
 30
0.0
 10
1413.348638039922
 20
1550.09127840224
 30
0.0
 10
1413.408573416621
 20
1550.090875408677
 30
0.0
 10
1413.471836214739
 20
1550.090453151015
 30
0.0
 10
1413.532391471069
 20
1550.090051844841
 30
0.0
 10
1413.589077870786
 20
1550.089678742554
 30
0.0
 10
1413.640733939773
 20
1550.089340898181
 30
0.0
 10
1413.687242558494
 20
1550.089038456476
 30
0.0
 10
1413.730678653814
 20
1550.088757453426
 30
0.0
 10
1413.773325751815
 20
1550.088482927024
 30
0.0
 10
1413.817074197257
 20
1550.088202751261
 30
0.0
 10
1413.863539748599
 20
1550.087906751066
 30
0.0
 10
1413.914886747707
 20
1550.087581531529
 30
0.0
 10
1413.968308536849
 20
1550.087245394625
 30
0.0
 10
1414.023351969526
 20
1550.086901360583
 30
0.0
 10
1414.076504699016
 20
1550.086571312026
 30
0.0
 10
1414.128578103629
 20
1550.086250117064
 30
0.0
 10
1414.176650397108
 20
1550.085955452076
 30
0.0
 10
1414.223441788121
 20
1550.085670274688
 30
0.0
 10
1414.269346240783
 20
1550.085392121633
 30
0.0
 10
1414.315378700059
 20
1550.085114850631
 30
0.0
 10
1414.35921551211
 20
1550.084852299518
 30
0.0
 10
1414.402153431888
 20
1550.084596544474
 30
0.0
 10
1414.446399823835
 20
1550.084334432069
 30
0.0
 10
1414.494220812593
 20
1550.084052796938
 30
0.0
 10
1414.544669890262
 20
1550.08375762574
 30
0.0
 10
1414.59700290852
 20
1550.083453502752
 30
0.0
 10
1414.650257570994
 20
1550.08314613988
 30
0.0
 10
1414.706008449432
 20
1550.082826694883
 30
0.0
 10
1414.763583012277
 20
1550.082499304199
 30
0.0
 10
1414.820288595612
 20
1550.082179388713
 30
0.0
 10
1414.873186886972
 20
1550.081883216601
 30
0.0
 10
1414.919852716735
 20
1550.081623718644
 30
0.0
 10
1414.959338377153
 20
1550.081405457993
 30
0.0
 10
1414.993701461229
 20
1550.081216455245
 30
0.0
 10
1415.025118335383
 20
1550.081044411998
 30
0.0
 10
1415.056472184981
 20
1550.080873464198
 30
0.0
 10
1415.087886551122
 20
1550.08070293971
 30
0.0
 10
1415.120154580119
 20
1550.080528556532
 30
0.0
 10
1415.15506132718
 20
1550.080340785119
 30
0.0
 10
1415.192934740653
 20
1550.080138114986
 30
0.0
 10
1415.234432778198
 20
1550.079917311704
 30
0.0
 10
1415.279125453521
 20
1550.079680964078
 30
0.0
 10
1415.32648796138
 20
1550.079432193201
 30
0.0
 10
1415.374351695007
 20
1550.079182568176
 30
0.0
 10
1415.420669900948
 20
1550.078942678583
 30
0.0
 10
1415.464950558445
 20
1550.078714874166
 30
0.0
 10
1415.511954342566
 20
1550.078474613872
 30
0.0
 10
1415.560849808411
 20
1550.078226490749
 30
0.0
 10
1415.610807914373
 20
1550.077974968204
 30
0.0
 10
1415.656387204303
 20
1550.077747152122
 30
0.0
 10
1415.696461878089
 20
1550.077548177679
 30
0.0
 10
1415.732942670267
 20
1550.077368089411
 30
0.0
 10
1415.767586244638
 20
1550.077197971555
 30
0.0
 10
1415.803432433448
 20
1550.077022913264
 30
0.0
 10
1415.841099023254
 20
1550.076840013561
 30
0.0
 10
1415.881358741407
 20
1550.076645708695
 30
0.0
 10
1415.925205864314
 20
1550.076435492128
 30
0.0
 10
1415.973021414725
 20
1550.076207919521
 30
0.0
 10
1416.024401398655
 20
1550.075965341406
 30
0.0
 10
1416.076838535927
 20
1550.075719901252
 30
0.0
 10
1416.127296433336
 20
1550.075485755582
 30
0.0
 10
1416.173368680512
 20
1550.075273665498
 30
0.0
 10
1416.214573181138
 20
1550.075085367462
 30
0.0
 10
1416.244010021328
 20
1550.074951689787
 30
0.0
 10
1416.259727707403
 20
1550.074880631959
 30
0.0
 10
1416.263317504808
 20
1550.074864402903
 30
0.0
  0
SPLINE
  5
131
330
1F
100
AcDbEntity
  8
0
  6
Continuous
 62
     7
370
    15
100
AcDbSpline
210
0.0
220
0.0
230
1.0
 70
     8
 71
     3
 72
    81
 73
    77
 74
     0
 42
0.000000001
 43
0.00000001
 40
0.0
 40
0.0
 40
0.0
 40
0.0
 40
0.0165723532895017
 40
0.0517348243775904
 40
0.0825284577060457
 40
0.109782820155675
 40
0.1347877126540376
 40
0.1581092470027905
 40
0.1801149887884635
 40
0.2010561561869896
 40
0.2232539478881155
 40
0.2444404402699784
 40
0.2617893152341761
 40
0.2773802266665312
 40
0.291958876754587
 40
0.3057339197822007
 40
0.3186045334975313
 40
0.3299753193482808
 40
0.3404345927695491
 40
0.3502119849935652
 40
0.3594570026283008
 40
0.3678010076812927
 40
0.3752786926487434
 40
0.382187087911037
 40
0.3886657637726185
 40
0.3955243552800368
 40
0.4023203079693534
 40
0.4096411387338637
 40
0.4177169320106583
 40
0.4255938237686532
 40
0.4339368307638008
 40
0.4422463093991728
 40
0.4505030987720336
 40
0.4586911261073671
 40
0.4667958252409126
 40
0.474795987350738
 40
0.4827556327415493
 40
0.4907274511764779
 40
0.4987030567869831
 40
0.506687630254869
 40
0.5146882351245468
 40
0.522711424407168
 40
0.5307639783823241
 40
0.5388525837723894
 40
0.5469837669573635
 40
0.5551641824246983
 40
0.5634002473528728
 40
0.5716984660428744
 40
0.580037826818381
 40
0.5876048741157497
 40
0.5944834254940423
 40
0.6008969047706463
 40
0.6076886499502571
 40
0.6144218456322562
 40
0.6218973939464325
 40
0.6299747969524543
 40
0.6389901455492821
 40
0.6491152540903832
 40
0.6597982398672476
 40
0.6712203112871855
 40
0.6836249324775516
 40
0.6974450599335079
 40
0.7124693187443218
 40
0.7282032794979587
 40
0.7448328325676475
 40
0.7625992053452562
 40
0.7818789170578395
 40
0.8033472727805556
 40
0.8266094663161978
 40
0.8506183415331283
 40
0.8760857459165238
 40
0.9033921474727665
 40
0.9335493010009428
 40
0.9661521325140263
 40
0.9991619558711414
 40
1.0
 40
1.0
 40
1.0
 40
1.0
 10
1265.842514007624
 20
508.3372144336936
 30
0.0
 10
1265.929122472228
 20
507.508947650844
 30
0.0
 10
1266.199492867287
 20
504.9233017983832
 30
0.0
 10
1266.662393806724
 20
500.8020150407558
 30
0.0
 10
1267.203534249706
 20
496.1494273872866
 30
0.0
 10
1267.71385334139
 20
492.0071982442567
 30
0.0
 10
1268.205356580561
 20
488.2410737235708
 30
0.0
 10
1268.690648921718
 20
484.740232495659
 30
0.0
 10
1269.176097509463
 20
481.4456926432952
 30
0.0
 10
1269.682640950657
 20
478.2114741675289
 30
0.0
 10
1270.214700618427
 20
475.0230647646227
 30
0.0
 10
1270.75060658666
 20
472.0185067759635
 30
0.0
 10
1271.255701547434
 20
469.3458555062525
 30
0.0
 10
1271.726117736265
 20
467.0047313124493
 30
0.0
 10
1272.188749747186
 20
464.8453974287761
 30
0.0
 10
1272.650654271978
 20
462.8259102220291
 30
0.0
 10
1273.102339461175
 20
460.9696346501866
 30
0.0
 10
1273.540317498156
 20
459.2817028773839
 30
0.0
 10
1273.966138855837
 20
457.7514421347752
 30
0.0
 10
1274.390324029703
 20
456.3318747809848
 30
0.0
 10
1274.810944259757
 20
455.0224809341637
 30
0.0
 10
1275.220929228801
 20
453.8313298668283
 30
0.0
 10
1275.618122009987
 20
452.7602694666526
 30
0.0
 10
1276.008753041984
 20
451.7871328842762
 30
0.0
 10
1276.414732037284
 20
450.8541037886861
 30
0.0
 10
1276.848648507562
 20
449.9399626783247
 30
0.0
 10
1277.328225526296
 20
449.0012010628868
 30
0.0
 10
1277.861134965155
 20
448.0214559856506
 30
0.0
 10
1278.440884188118
 20
447.0056285076745
 30
0.0
 10
1279.071970549278
 20
445.9603433456742
 30
0.0
 10
1279.736619269039
 20
444.9220761589353
 30
0.0
 10
1280.439659242704
 20
443.8862552020592
 30
0.0
 10
1281.165969909481
 20
442.8761892863032
 30
0.0
 10
1281.913440440751
 20
441.8945825194718
 30
0.0
 10
1282.679674772834
 20
440.9440546961929
 30
0.0
 10
1283.464816773102
 20
440.0241249493721
 30
0.0
 10
1284.270572733523
 20
439.1311747445756
 30
0.0
 10
1285.099905317033
 20
438.2617800229971
 30
0.0
 10
1285.953832029073
 20
437.4147511314206
 30
0.0
 10
1286.831877819474
 20
436.5906352764811
 30
0.0
 10
1287.73409820598
 20
435.7894536797759
 30
0.0
 10
1288.660572467991
 20
435.0111266162978
 30
0.0
 10
1289.611461545551
 20
434.2556952168804
 30
0.0
 10
1290.586869892887
 20
433.5231288394287
 30
0.0
 10
1291.58699565134
 20
432.8135249160203
 30
0.0
 10
1292.611981926575
 20
432.1269246333759
 30
0.0
 10
1293.66204385165
 20
431.4634802179781
 30
0.0
 10
1294.736130495162
 20
430.8239121457183
 30
0.0
 10
1295.797314020728
 20
430.2292728980011
 30
0.0
 10
1296.808378347318
 20
429.6917220139783
 30
0.0
 10
1297.746823482423
 20
429.2244819822678
 30
0.0
 10
1298.662947210555
 20
428.800689435261
 30
0.0
 10
1299.58602789186
 20
428.4106471664526
 30
0.0
 10
1300.569032950263
 20
428.0264824123334
 30
0.0
 10
1301.622178250401
 20
427.6452517287854
 30
0.0
 10
1302.792391139773
 20
427.2515276094593
 30
0.0
 10
1304.096862331792
 20
426.8401101546869
 30
0.0
 10
1305.534635510306
 20
426.4169208501983
 30
0.0
 10
1307.096595424582
 20
425.9883464678142
 30
0.0
 10
1308.776513715198
 20
425.5577421680244
 30
0.0
 10
1310.615896477417
 20
425.1152547356111
 30
0.0
 10
1312.637398113832
 20
424.6566342506152
 30
0.0
 10
1314.828498197641
 20
424.1902625071339
 30
0.0
 10
1317.163816342665
 20
423.7242868514958
 30
0.0
 10
1319.639942330852
 20
423.2607367297146
 30
0.0
 10
1322.2964323251
 20
422.7932302388883
 30
0.0
 10
1325.197156422234
 20
422.3114694462044
 30
0.0
 10
1328.374558228479
 20
421.8106272884899
 30
0.0
 10
1331.791453095467
 20
421.3037534563937
 30
0.0
 10
1335.411481147849
 20
420.7976619075216
 30
0.0
 10
1339.236798976087
 20
420.2930317226019
 30
0.0
 10
1343.372130241981
 20
419.7770018297217
 30
0.0
 10
1347.866390221726
 20
419.2420524979408
 30
0.0
 10
1352.649203700523
 20
418.7078707170595
 30
0.0
 10
1355.9692168347
 20
418.3494847877985
 30
0.0
 10
1357.661817433924
 20
418.181691873102
 30
0.0
 10
1357.703724771078
 20
418.1775374646423
 30
0.0
  0
SPLINE
  5
132
330
1F
100
AcDbEntity
  8
0
  6
Continuous
 62
     7
370
    15
100
AcDbSpline
210
0.0
220
0.0
230
1.0
 70
     8
 71
     3
 72
    81
 73
    77
 74
     0
 42
0.000000001
 43
0.00000001
 40
0.0
 40
0.0
 40
0.0
 40
0.0
 40
0.0157820734615034
 40
0.050900548648675
 40
0.0818595465018383
 40
0.1091668026661756
 40
0.1341944020865735
 40
0.1575199709702921
 40
0.1795181193660257
 40
0.2004440117507036
 40
0.2226265040825494
 40
0.2437911785218192
 40
0.2612648915876236
 40
0.2768988068383591
 40
0.2914741747074436
 40
0.3052182666512708
 40
0.3181877558545939
 40
0.32959674795789
 40
0.3400740161879287
 40
0.3498580792625864
 40
0.3591027179317208
 40
0.3674456501613098
 40
0.3749215161055278
 40
0.3818273957485823
 40
0.3883140314561362
 40
0.3951759158147941
 40
0.4019873039604651
 40
0.4093109437333031
 40
0.4173620769409546
 40
0.4252345136111601
 40
0.4335730285972976
 40
0.4418789593196224
 40
0.450133071848683
 40
0.4583194042904984
 40
0.4664232363063106
 40
0.4744241268854722
 40
0.4823791435664964
 40
0.4903474076030808
 40
0.4983195564372174
 40
0.5063009091782992
 40
0.5142983085500468
 40
0.5223183213691729
 40
0.5303675621012057
 40
0.5384526681831252
 40
0.5465801451182676
 40
0.5547562865146274
 40
0.5629877253193943
 40
0.5712806931102274
 40
0.5796168200813198
 40
0.5872058289321713
 40
0.5940812925297735
 40
0.6004836835245165
 40
0.6072646571896121
 40
0.6139599438976667
 40
0.6215078211057892
 40
0.6296084926651239
 40
0.6385451477214725
 40
0.6485975965816648
 40
0.6592281793174048
 40
0.6706055998076205
 40
0.6829818856416615
 40
0.6968138895787153
 40
0.7118271913786098
 40
0.7275447216894947
 40
0.7441492613691857
 40
0.7618780234427962
 40
0.7810997202133034
 40
0.8024701248168208
 40
0.8257166217985414
 40
0.8496883142794764
 40
0.8751245242976317
 40
0.9024090219078637
 40
0.9324920926772743
 40
0.9650930748326849
 40
0.9980813452742577
 40
1.0
 40
1.0
 40
1.0
 40
1.0
 10
1578.521342843111
 20
641.1179451580284
 30
0.0
 10
1578.438916630562
 20
641.9070363556153
 30
0.0
 10
1578.173074537507
 20
644.4520235519421
 30
0.0
 10
1577.714028973412
 20
648.5415605497535
 30
0.0
 10
1577.172403758243
 20
653.2047807192229
 30
0.0
 10
1576.661170486839
 20
657.3607701082129
 30
0.0
 10
1576.169730109846
 20
661.1324591468963
 30
0.0
 10
1575.684852559871
 20
664.6357447145649
 30
0.0
 10
1575.200088159782
 20
667.9307632396677
 30
0.0
 10
1574.694357326809
 20
671.1644811014597
 30
0.0
 10
1574.163195073069
 20
674.3516696516139
 30
0.0
 10
1573.626936174668
 20
677.3618741494647
 30
0.0
 10
1573.120653491206
 20
680.042869759884
 30
0.0
 10
1572.649020000809
 20
682.3931521910947
 30
0.0
 10
1572.186797963113
 20
684.5539202400336
 30
0.0
 10
1571.724608875077
 20
686.5775191247156
 30
0.0
 10
1571.27191543876
 20
688.4398204499968
 30
0.0
 10
1570.832450251379
 20
690.136133434754
 30
0.0
 10
1570.406342183919
 20
691.6702484753479
 30
0.0
 10
1569.98236155534
 20
693.091764237701
 30
0.0
 10
1569.562173677926
 20
694.4021450096005
 30
0.0
 10
1569.152717827499
 20
695.5938326589659
 30
0.0
 10
1568.756026204435
 20
696.6652713908475
 30
0.0
 10
1568.36573518607
 20
697.6391895084444
 30
0.0
 10
1567.959847010582
 20
698.5731769817868
 30
0.0
 10
1567.525769543034
 20
699.4891692568975
 30
0.0
 10
1567.046085453382
 20
700.4295622300157
 30
0.0
 10
1566.513662720322
 20
701.4097103176083
 30
0.0
 10
1565.934642284777
 20
702.4249642887389
 30
0.0
 10
1565.304754224101
 20
703.4695635021178
 30
0.0
 10
1564.640654851061
 20
704.5080174179893
 30
0.0
 10
1563.938189922858
 20
705.5441768381523
 30
0.0
 10
1563.21230767962
 20
706.5546683688233
 30
0.0
 10
1562.465204643452
 20
707.5368382689265
 30
0.0
 10
1561.699213093805
 20
708.4880651705843
 30
0.0
 10
1560.914391766469
 20
709.4085840378015
 30
0.0
 10
1560.109014909012
 20
710.3020140057058
 30
0.0
 10
1559.280189420546
 20
711.1717417535481
 30
0.0
 10
1558.426726552448
 20
712.019185176935
 30
0.0
 10
1557.549095892028
 20
712.8437146620138
 30
0.0
 10
1556.647304747809
 20
713.6453730553031
 30
0.0
 10
1555.721212383114
 20
714.4241428755754
 30
0.0
 10
1554.770737412324
 20
715.1800619156536
 30
0.0
 10
1553.795726553152
 20
715.9130827481823
 30
0.0
 10
1552.796034322911
 20
716.6231400584875
 30
0.0
 10
1551.771517562423
 20
717.310181704491
 30
0.0
 10
1550.721970903237
 20
717.9740309114568
 30
0.0
 10
1549.648354155806
 20
718.6140705937103
 30
0.0
 10
1548.586372282605
 20
719.2096589032224
 30
0.0
 10
1547.574439098338
 20
719.7482174354293
 30
0.0
 10
1546.635505125287
 20
720.2162814342101
 30
0.0
 10
1545.720409071284
 20
720.6402684047055
 30
0.0
 10
1544.799800305905
 20
721.0294600087722
 30
0.0
 10
1543.815649498058
 20
721.415088184133
 30
0.0
 10
1542.759760272716
 20
721.798572356261
 30
0.0
 10
1541.588552551226
 20
722.1935524768077
 30
0.0
 10
1540.289800661116
 20
722.6035033483363
 30
0.0
 10
1538.861409813055
 20
723.0243927999782
 30
0.0
 10
1537.307154369323
 20
723.4512321230831
 30
0.0
 10
1535.632771699337
 20
723.880813131247
 30
0.0
 10
1533.795765761313
 20
724.3232508146291
 30
0.0
 10
1531.774958012186
 20
724.7824157214353
 30
0.0
 10
1529.583890220795
 20
725.249461858161
 30
0.0
 10
1527.250364046733
 20
725.7157829920501
 30
0.0
 10
1524.777276814722
 20
726.1793981804196
 30
0.0
 10
1522.125811494969
 20
726.6466389439582
 30
0.0
 10
1519.233616584979
 20
727.1274783676375
 30
0.0
 10
1516.063564339091
 20
727.6277136674549
 30
0.0
 10
1512.652906187951
 20
728.1342935804538
 30
0.0
 10
1509.035711909258
 20
728.6405987095584
 30
0.0
 10
1505.213466914529
 20
729.1455207495666
 30
0.0
 10
1501.082915685455
 20
729.6615740175098
 30
0.0
 10
1496.591837998076
 20
730.196826661753
 30
0.0
 10
1491.812097042914
 20
730.7315742189155
 30
0.0
 10
1488.437946985488
 20
731.0959834447284
 30
0.0
 10
1486.691696781367
 20
731.2691190304739
 30
0.0
 10
1486.595714359815
 20
731.278635406041
 30
0.0
  0
SPLINE
  5
133
330
1F
100
AcDbEntity
  8
0
  6
Continuous
 62
     7
370
    15
100
AcDbSpline
210
0.0
220
0.0
230
1.0
 70
     8
 71
     3
 72
    80
 73
    76
 74
     0
 42
0.000000001
 43
0.00000001
 40
0.0
 40
0.0
 40
0.0
 40
0.0
 40
0.0173005892034653
 40
0.0527934826246769
 40
0.0836350485874262
 40
0.110906188482742
 40
0.1359077642215914
 40
0.1592140210698411
 40
0.1811972924296406
 40
0.2021114638874459
 40
0.2242816359062983
 40
0.2454367857035931
 40
0.2631208084626758
 40
0.2787921394267748
 40
0.2933100237123553
 40
0.3069424982527874
 40
0.3214554368504001
 40
0.3327531282976752
 40
0.3431296821412793
 40
0.3528132188660328
 40
0.3619539534847038
 40
0.3701411029521243
 40
0.3775215862900106
 40
0.3843594517050311
 40
0.3907854824478293
 40
0.397553836910427
 40
0.4046024263280444
 40
0.4122284934803397
 40
0.4204053090266487
 40
0.4283193679313146
 40
0.4367023422774364
 40
0.4450610229543713
 40
0.4533734684846019
 40
0.4616200596966389
 40
0.4697832166118855
 40
0.4778432306158051
 40
0.4858443877107592
 40
0.4938620726827467
 40
0.5018905022811437
 40
0.5099355227114702
 40
0.5180026785448486
 40
0.5260978740153195
 40
0.5342263041916235
 40
0.5423935880802664
 40
0.550605049207384
 40
0.558866070509628
 40
0.5671816119790206
 40
0.5755566932409374
 40
0.5829356089275438
 40
0.5899187735611504
 40
0.5972332269689902
 40
0.6047164878847454
 40
0.612406053557571
 40
0.6203428083367388
 40
0.628576288671089
 40
0.6371694920512939
 40
0.6462048784748556
 40
0.6557968209987366
 40
0.6661140801838448
 40
0.6774296604832616
 40
0.6902571676190014
 40
0.7057968349739389
 40
0.7212252530374268
 40
0.7374385941421282
 40
0.7545941153152192
 40
0.772956877469536
 40
0.7929440811689518
 40
0.8153221931415592
 40
0.8387165662859045
 40
0.8633776665033379
 40
0.8896168286654207
 40
0.9179007277057037
 40
0.9497191297259205
 40
0.9829762511563194
 40
1.0
 40
1.0
 40
1.0
 40
1.0
 10
1355.480337410505
 20
731.0315592522858
 30
0.0
 10
1354.622360701043
 20
730.9414527264114
 30
0.0
 10
1352.004208338101
 20
730.6664888363284
 30
0.0
 10
1347.859963664514
 20
730.1992037721149
 30
0.0
 10
1343.223822514306
 20
729.6577352904197
 30
0.0
 10
1339.110642184345
 20
729.1489428191729
 30
0.0
 10
1335.373822415693
 20
728.6591765722359
 30
0.0
 10
1331.902213315717
 20
728.1757631321332
 30
0.0
 10
1328.636514226613
 20
727.6923151763723
 30
0.0
 10
1325.43133771146
 20
727.1877974456363
 30
0.0
 10
1322.272115098522
 20
726.6578249630979
 30
0.0
 10
1319.277596264127
 20
726.1207885039901
 30
0.0
 10
1316.607267795927
 20
725.612813541676
 30
0.0
 10
1314.26723638695
 20
725.1403303232927
 30
0.0
 10
1312.13094279747
 20
724.6804331314958
 30
0.0
 10
1310.057554628666
 20
724.2037768507796
 30
0.0
 10
1308.147499749541
 20
723.7342200791701
 30
0.0
 10
1306.402338935928
 20
723.2750648308667
 30
0.0
 10
1304.897371220086
 20
722.8503577271204
 30
0.0
 10
1303.503783321823
 20
722.4279530216232
 30
0.0
 10
1302.223081879394
 20
722.0104879456869
 30
0.0
 10
1301.059867293451
 20
721.6040210854071
 30
0.0
 10
1300.014329410779
 20
721.2098429496373
 30
0.0
 10
1299.061134209697
 20
720.820700771587
 30
0.0
 10
1298.147738155593
 20
720.4159215610331
 30
0.0
 10
1297.238287644621
 20
719.9776020300794
 30
0.0
 10
1296.287537937988
 20
719.488077765058
 30
0.0
 10
1295.288293602186
 20
718.9401705858063
 30
0.0
 10
1294.264072274107
 20
718.3486729092875
 30
0.0
 10
1293.222260587082
 20
717.712833824524
 30
0.0
 10
1292.189986770611
 20
717.0447351708117
 30
0.0
 10
1291.159648008707
 20
716.3379186077209
 30
0.0
 10
1290.1543647753
 20
715.6074019175826
 30
0.0
 10
1289.177152531123
 20
714.8556236766293
 30
0.0
 10
1288.230879577999
 20
714.0850320251468
 30
0.0
 10
1287.315882788997
 20
713.2961718276307
 30
0.0
 10
1286.428540530383
 20
712.4870623806979
 30
0.0
 10
1285.56507117441
 20
711.6547916869985
 30
0.0
 10
1284.723387943551
 20
710.7974272136304
 30
0.0
 10
1283.904026187061
 20
709.9153369194751
 30
0.0
 10
1283.107004499745
 20
709.0085742140184
 30
0.0
 10
1282.332469564531
 20
708.0771148742042
 30
0.0
 10
1281.58053880712
 20
707.1209553311091
 30
0.0
 10
1280.851382481948
 20
706.1400853047415
 30
0.0
 10
1280.145117989392
 20
705.1345148645577
 30
0.0
 10
1279.462050238643
 20
704.1041695404653
 30
0.0
 10
1278.802160938741
 20
703.049182150971
 30
0.0
 10
1278.193229569515
 20
702.0147480595776
 30
0.0
 10
1277.640665679631
 20
701.024586185042
 30
0.0
 10
1277.141045528895
 20
700.0659109094632
 30
0.0
 10
1276.66718315885
 20
699.0884632381885
 30
0.0
 10
1276.206524750316
 20
698.0659692738209
 30
0.0
 10
1275.761986004916
 20
697.0026552015005
 30
0.0
 10
1275.331899317398
 20
695.8932015632123
 30
0.0
 10
1274.914527677363
 20
694.7309160142805
 30
0.0
 10
1274.50748880159
 20
693.507105596031
 30
0.0
 10
1274.107765283038
 20
692.2098363752033
 30
0.0
 10
1273.71105796014
 20
690.8220091700673
 30
0.0
 10
1273.310769247473
 20
689.317236507614
 30
0.0
 10
1272.896031787027
 20
687.6496133647792
 30
0.0
 10
1272.441777531051
 20
685.7236366449133
 30
0.0
 10
1271.966817845527
 20
683.5919683208392
 30
0.0
 10
1271.487226962596
 20
681.2885981446201
 30
0.0
 10
1271.020719730671
 20
678.900401819955
 30
0.0
 10
1270.555517982949
 20
676.3630441133763
 30
0.0
 10
1270.085236973577
 20
673.6354643722945
 30
0.0
 10
1269.597983941362
 20
670.6466811095343
 30
0.0
 10
1269.097616642214
 20
667.4059334715906
 30
0.0
 10
1268.592462329929
 20
663.9302389737169
 30
0.0
 10
1268.089303785306
 20
660.2598276797089
 30
0.0
 10
1267.582684045888
 20
656.343915455378
 30
0.0
 10
1267.057805244594
 20
652.0705833174995
 30
0.0
 10
1266.519031405362
 20
647.4464841521454
 30
0.0
 10
1266.066745957668
 20
643.3776057749579
 30
0.0
 10
1265.810885764623
 20
640.8834338761534
 30
0.0
 10
1265.724258392389
 20
640.0389744277237
 30
0.0
  0
SPLINE
  5
134
330
1F
100
AcDbEntity
  8
0
  6
Continuous
 62
     7
370
    15
100
AcDbSpline
210
0.0
220
0.0
230
1.0
 70
     8
 71
     3
 72
    80
 73
    76
 74
     0
 42
0.000000001
 43
0.00000001
 40
0.0
 40
0.0
 40
0.0
 40
0.0
 40
0.0167537591968133
 40
0.0521938955007008
 40
0.0831091765097467
 40
0.1103790302249674
 40
0.1353611165513741
 40
0.1586372103430155
 40
0.1805839715668001
 40
0.2014577216616383
 40
0.2235858080398725
 40
0.2446959082804228
 40
0.262555055779027
 40
0.2782961732968847
 40
0.2927813864241065
 40
0.3063293487124329
 40
0.3207607944710738
 40
0.3320747587337052
 40
0.3424716234634021
 40
0.3521781819397067
 40
0.3613424717737149
 40
0.3686256531478205
 40
0.3764398162637467
 40
0.3840118436636056
 40
0.3916528270442999
 40
0.3993746405032875
 40
0.4071917320740474
 40
0.4151190833228478
 40
0.4231716599755713
 40
0.4314238005052261
 40
0.4397913894199649
 40
0.4481271412890701
 40
0.456409922837296
 40
0.4646204607539779
 40
0.4727416681849011
 40
0.4807511064490469
 40
0.4887525736093657
 40
0.496766530616448
 40
0.5047962152744695
 40
0.5128472518211042
 40
0.5209251060441401
 40
0.5290353367381345
 40
0.5371831081744315
 40
0.5453738365359676
 40
0.5536125159405842
 40
0.5619041845246986
 40
0.5702537336908204
 40
0.5786658808578794
 40
0.5856917328447748
 40
0.5931300844969059
 40
0.6004994120678542
 40
0.6080620956667115
 40
0.6158514413543514
 40
0.6239127601002287
 40
0.6323022436741994
 40
0.6410923585406725
 40
0.6503810032910862
 40
0.6603083241191322
 40
0.6710912361385474
 40
0.6831048967772855
 40
0.697177171511762
 40
0.7128264975503288
 40
0.7286415873535597
 40
0.74531724032592
 40
0.7630520882174969
 40
0.7821743245179462
 40
0.8032374448360282
 40
0.8267402037949307
 40
0.8507456089534017
 40
0.8761810229867575
 40
0.9033998782507605
 40
0.9331069757905809
 40
0.9663246896067729
 40
0.9997804584532658
 40
1.0
 40
1.0
 40
1.0
 40
1.0
 10
1488.975467055376
 20
418.4274597401855
 30
0.0
 10
1489.806508885234
 20
418.5147629175103
 30
0.0
 10
1492.395498610749
 20
418.786743245068
 30
0.0
 10
1496.51457577594
 20
419.251497213923
 30
0.0
 10
1501.152717581359
 20
419.7933148628132
 30
0.0
 10
1505.269431544309
 20
420.3026209333844
 30
0.0
 10
1509.004568557257
 20
420.7921802424597
 30
0.0
 10
1512.47269293564
 20
421.2751604683859
 30
0.0
 10
1515.733828018871
 20
421.7580193690982
 30
0.0
 10
1518.933844886637
 20
422.2618209354418
 30
0.0
 10
1522.087472688179
 20
422.791032353578
 30
0.0
 10
1525.08694519508
 20
423.3291802733514
 30
0.0
 10
1527.767558899783
 20
423.8396926477013
 30
0.0
 10
1530.118481320945
 20
424.3144197038246
 30
0.0
 10
1532.252974107197
 20
424.7737753574198
 30
0.0
 10
1534.317195843876
 20
425.2482108485083
 30
0.0
 10
1536.220360637494
 20
425.7163619629256
 30
0.0
 10
1537.963699047194
 20
426.175229086048
 30
0.0
 10
1539.471843418716
 20
426.600915720665
 30
0.0
 10
1540.86890814173
 20
427.0244826917802
 30
0.0
 10
1542.109267668361
 20
427.4286612843467
 30
0.0
 10
1543.25209832004
 20
427.82679819593
 30
0.0
 10
1544.307998252132
 20
428.2316700555678
 30
0.0
 10
1545.368140889159
 20
428.6738312795038
 30
0.0
 10
1546.410998410531
 20
429.1442795585575
 30
0.0
 10
1547.451174092935
 20
429.6492625334839
 30
0.0
 10
1548.489588469376
 20
430.1895406675264
 30
0.0
 10
1549.527231219737
 20
430.7660744898125
 30
0.0
 10
1550.56771401566
 20
431.3812611672885
 30
0.0
 10
1551.610490281864
 20
432.0349042909987
 30
0.0
 10
1552.647192409399
 20
432.7240126408114
 30
0.0
 10
1553.666167107649
 20
433.4417309823962
 30
0.0
 10
1554.658972227893
 20
434.1822103361393
 30
0.0
 10
1555.622628753156
 20
434.9430975954653
 30
0.0
 10
1556.554318075659
 20
435.7217203591069
 30
0.0
 10
1557.455928141644
 20
436.5193260645304
 30
0.0
 10
1558.331199532221
 20
437.3379333661474
 30
0.0
 10
1559.184184598568
 20
438.181175391891
 30
0.0
 10
1560.015264386544
 20
439.0494393697393
 30
0.0
 10
1560.824245908795
 20
439.942632340865
 30
0.0
 10
1561.611059573047
 20
440.8607099607634
 30
0.0
 10
1562.375501999906
 20
441.8037151518473
 30
0.0
 10
1563.117481709528
 20
442.771596206371
 30
0.0
 10
1563.836780133464
 20
443.7643719770947
 30
0.0
 10
1564.533181364675
 20
444.7820481978214
 30
0.0
 10
1565.206500501159
 20
445.8245818586723
 30
0.0
 10
1565.856417243756
 20
446.8920067609374
 30
0.0
 10
1566.446715085484
 20
447.9213150667112
 30
0.0
 10
1566.990373532408
 20
448.9246010748005
 30
0.0
 10
1567.479136200374
 20
449.8979348606416
 30
0.0
 10
1567.951033664789
 20
450.9091324626842
 30
0.0
 10
1568.401491768794
 20
451.9491718247278
 30
0.0
 10
1568.836850866018
 20
453.0328962165346
 30
0.0
 10
1569.258580321658
 20
454.1660991501666
 30
0.0
 10
1569.668835332076
 20
455.3564226060298
 30
0.0
 10
1570.070226782268
 20
456.6141702154755
 30
0.0
 10
1570.466442317542
 20
457.953736599289
 30
0.0
 10
1570.86283454869
 20
459.3965906936842
 30
0.0
 10
1571.268026065095
 20
460.9777115113727
 30
0.0
 10
1571.698532090852
 20
462.7655285860575
 30
0.0
 10
1572.164755521594
 20
464.7942921157081
 30
0.0
 10
1572.642344639505
 20
467.0147878404574
 30
0.0
 10
1573.116783925106
 20
469.3685496728579
 30
0.0
 10
1573.582121654466
 20
471.8300679747641
 30
0.0
 10
1574.04908769189
 20
474.4589748061965
 30
0.0
 10
1574.525817392547
 20
477.3082447883659
 30
0.0
 10
1575.023868304684
 20
480.445513230965
 30
0.0
 10
1575.530019256487
 20
483.8279732002082
 30
0.0
 10
1576.037623640023
 20
487.4305726936564
 30
0.0
 10
1576.541626146557
 20
491.2207380028962
 30
0.0
 10
1577.053489953644
 20
495.2966163006322
 30
0.0
 10
1577.588713186221
 20
499.760703316411
 30
0.0
 10
1578.127230243695
 20
504.5375412394408
 30
0.0
 10
1578.488563629217
 20
507.8543575265793
 30
0.0
 10
1578.656148884216
 20
509.525572084087
 30
0.0
 10
1578.657241433199
 20
509.5364673371551
 30
0.0
  0
LINE
  5
135
330
1F
100
AcDbEntity
  8
0
  6
Continuous
 62
     7
370
    15
100
AcDbLine
 10
1567.6147508317
 20
699.3105111952
 30
0.0
 11
1577.2938000851
 21
710.4805631871
 31
0.0
  0
LINE
  5
136
330
1F
100
AcDbEntity
  8
0
  6
Continuous
 62
     7
370
    15
100
AcDbLine
 10
1558.3641993695
 20
729.7227455611
 30
0.0
 11
1547.196449607
 21
719.9377490516
 31
0.0
  0
LINE
  5
137
330
1F
100
AcDbEntity
  8
0
  6
Continuous
 62
     7
370
    15
100
AcDbLine
 10
1547.1819358759
 20
429.5245034929
 30
0.0
 11
1558.3641993695
 21
419.7267962928
 31
0.0
  0
LINE
  5
138
330
1F
100
AcDbEntity
  8
0
  6
Continuous
 62
     7
370
    15
100
AcDbLine
 10
1577.2938000851
 20
438.9689786668
 30
0.0
 11
1567.5960051709
 21
450.1606596942
 31
0.0
  0
LINE
  5
139
330
1F
100
AcDbEntity
  8
0
  6
Continuous
 62
     7
370
    15
100
AcDbLine
 10
1276.7496871644
 20
450.1390306587
 30
0.0
 11
1267.0706379109
 21
438.9689786668
 31
0.0
  0
LINE
  5
13A
330
1F
100
AcDbEntity
  8
0
  6
Continuous
 62
     7
370
    15
100
AcDbLine
 10
1286.0002386265
 20
419.7267962928
 30
0.0
 11
1297.1679883891
 21
429.5117928024
 31
0.0
  0
LINE
  5
13B
330
1F
100
AcDbEntity
  8
0
  6
Continuous
 62
     7
370
    15
100
AcDbLine
 10
1297.1691655808
 20
719.9367357726
 30
0.0
 11
1286.0002386265
 21
729.7227455611
 31
0.0
  0
LINE
  5
13C
330
1F
100
AcDbEntity
  8
0
  6
Continuous
 62
     7
370
    15
100
AcDbLine
 10
1267.0706379109
 20
710.4805631871
 30
0.0
 11
1276.7496871644
 21
699.3105111952
 31
0.0
  0
SPLINE
  5
13D
330
1F
100
AcDbEntity
  8
0
  6
Continuous
 62
     7
370
    15
100
AcDbSpline
210
0.0
220
0.0
230
1.0
 70
     8
 71
     3
 72
    23
 73
    19
 74
     0
 42
0.000000001
 43
0.00000001
 40
0.0
 40
0.0
 40
0.0
 40
0.0
 40
0.0623333593232899
 40
0.1246726979784395
 40
0.1870300692286655
 40
0.2493935033056662
 40
0.3118236058188462
 40
0.3742597995282035
 40
0.4367143326653646
 40
0.4991749877778516
 40
0.56171363029651
 40
0.6242584257872578
 40
0.6868216670200054
 40
0.7493910296283852
 40
0.812027972341442
 40
0.8746710314936612
 40
0.9373324509454353
 40
0.9999999999999999
 40
0.9999999999999999
 40
0.9999999999999999
 40
0.9999999999999999
 10
1469.292508333261
 20
416.593678140187
 30
0.0
 10
1467.33524912672
 20
416.444557009778
 30
0.0
 10
1463.42054296341
 20
416.1463004445051
 30
0.0
 10
1457.542621352057
 20
415.7718409704912
 30
0.0
 10
1451.660649678701
 20
415.4509974689556
 30
0.0
 10
1445.772868678595
 20
415.189061796433
 30
0.0
 10
1439.880329168313
 20
414.9848417491461
 30
0.0
 10
1433.983184709244
 20
414.8388939023573
 30
0.0
 10
1428.083924759916
 20
414.751203298068
 30
0.0
 10
1422.180858648877
 20
414.7219859330801
 30
0.0
 10
1416.27495027642
 20
414.7512530780168
 30
0.0
 10
1410.366392331534
 20
414.8391207710114
 30
0.0
 10
1404.458027759975
 20
414.985580349292
 30
0.0
 10
1398.54850935917
 20
415.1906954950828
 30
0.0
 10
1392.638777186338
 20
415.4541345699665
 30
0.0
 10
1386.729136212669
 20
415.777264868581
 30
0.0
 10
1380.821673783581
 20
416.1546205908646
 30
0.0
 10
1376.886435181989
 20
416.4554269514791
 30
0.0
 10
1374.918719648655
 20
416.6058374877212
 30
0.0
  0
SPLINE
  5
13E
330
1F
100
AcDbEntity
  8
0
  6
Continuous
 62
     7
370
    15
100
AcDbSpline
210
0.0
220
0.0
230
1.0
 70
     8
 71
     3
 72
    10
 73
     6
 74
     0
 42
0.000000001
 43
0.00000001
 40
0.0
 40
0.0
 40
0.0
 40
0.0
 40
0.4245528670359355
 40
0.8491655089646709
 40
1.0
 40
1.0
 40
1.0
 40
1.0
 10
1264.021443098123
 20
527.990888648772
 30
0.0
 10
1264.252890364261
 20
525.2071801365607
 30
0.0
 10
1264.715817483139
 20
519.6393711800825
 30
0.0
 10
1265.349603487458
 20
513.0903312077747
 30
0.0
 10
1265.747843957211
 20
509.3252588438788
 30
0.0
 10
1265.852229564722
 20
508.3383692736862
 30
0.0
  0
SPLINE
  5
13F
330
1F
100
AcDbEntity
  8
0
  6
Continuous
 62
     7
370
    15
100
AcDbSpline
210
0.0
220
0.0
230
1.0
 70
     8
 71
     3
 72
    10
 73
     6
 74
     0
 42
0.000000001
 43
0.00000001
 40
0.0
 40
0.0
 40
0.0
 40
0.0
 40
0.1876603693864525
 40
0.5937736706249196
 40
1.0
 40
1.0
 40
1.0
 40
1.0
 10
1357.705825834806
 20
418.196879171872
 30
0.0
 10
1358.781428803642
 20
418.0856624637292
 30
0.0
 10
1362.184729804425
 20
417.7337631615771
 30
0.0
 10
1367.921218133567
 20
417.1880669884667
 30
0.0
 10
1372.586002792444
 20
416.7999319895437
 30
0.0
 10
1374.918719648655
 20
416.6058374877212
 30
0.0
  0
SPLINE
  5
140
330
1F
100
AcDbEntity
  8
0
  6
Continuous
 62
     7
370
    15
100
AcDbSpline
210
0.0
220
0.0
230
1.0
 70
     8
 71
     3
 72
    23
 73
    19
 74
     0
 42
0.000000001
 43
0.00000001
 40
0.0
 40
0.0
 40
0.0
 40
0.0
 40
0.062351862456733
 40
0.1247096665185334
 40
0.1870852408196009
 40
0.2494667549819857
 40
0.3119138578328789
 40
0.3743669366042898
 40
0.436838020304947
 40
0.4993151582291664
 40
0.5618374211842688
 40
0.62436575492249
 40
0.6869122035129347
 40
0.7494646771156819
 40
0.8120834759036697
 40
0.8747083173086433
 40
0.9373511791290087
 40
0.9999999999999999
 40
0.9999999999999999
 40
0.9999999999999999
 40
0.9999999999999999
 10
1264.021443098123
 20
527.990888648772
 30
0.0
 10
1263.874688530954
 20
529.9325927640766
 30
0.0
 10
1263.581165412148
 20
533.8161860226634
 30
0.0
 10
1263.212693889092
 20
539.6473036571298
 30
0.0
 10
1262.897013064097
 20
545.482377471357
 30
0.0
 10
1262.63928266279
 20
551.3231194817208
 30
0.0
 10
1262.438304501465
 20
557.1685017547371
 30
0.0
 10
1262.294480667866
 20
563.0183717820152
 30
0.0
 10
1262.208014807673
 20
568.8703084258257
 30
0.0
 10
1262.179108784781
 20
574.7249741830492
 30
0.0
 10
1262.208045764925
 20
580.581427970313
 30
0.0
 10
1262.294681789288
 20
586.4394759683785
 30
0.0
 10
1262.438801588545
 20
592.2973360576495
 30
0.0
 10
1262.640469163307
 20
598.1563201178247
 30
0.0
 10
1262.899368481628
 20
604.0155152144031
 30
0.0
 10
1263.216940420473
 20
609.8746197841052
 30
0.0
 10
1263.587807060969
 20
615.7316004315222
 30
0.0
 10
1263.883459510221
 20
619.6332611625743
 30
0.0
 10
1264.031292765672
 20
621.5841843123673
 30
0.0
  0
SPLINE
  5
141
330
1F
100
AcDbEntity
  8
0
  6
Continuous
 62
     7
370
    15
100
AcDbSpline
210
0.0
220
0.0
230
1.0
 70
     8
 71
     3
 72
    10
 73
     6
 74
     0
 42
0.000000001
 43
0.00000001
 40
0.0
 40
0.0
 40
0.0
 40
0.0
 40
0.4269514682115464
 40
0.8539611086398409
 40
1.0
 40
1.0
 40
1.0
 40
1.0
 10
1375.091077654894
 20
732.8573687310455
 30
0.0
 10
1372.29780466953
 20
732.6232342965354
 30
0.0
 10
1366.710878114839
 20
732.154933526655
 30
0.0
 10
1360.17593776184
 20
731.5219047241704
 30
0.0
 10
1356.434830008968
 20
731.1239825607263
 30
0.0
 10
1355.481425195272
 20
731.0225738520859
 30
0.0
  0
SPLINE
  5
142
330
1F
100
AcDbEntity
  8
0
  6
Continuous
 62
     7
370
    15
100
AcDbSpline
210
0.0
220
0.0
230
1.0
 70
     8
 71
     3
 72
    10
 73
     6
 74
     0
 42
0.000000001
 43
0.00000001
 40
0.0
 40
0.0
 40
0.0
 40
0.0
 40
0.2422256523335249
 40
0.6210443186753326
 40
1.0
 40
1.0
 40
1.0
 40
1.0
 10
1265.73987480932
 20
640.0372458930252
 30
0.0
 10
1265.586376434612
 20
638.5487983849773
 30
0.0
 10
1265.192820704161
 20
634.7325557219303
 30
0.0
 10
1264.608063807971
 20
628.582638861844
 30
0.0
 10
1264.223572953341
 20
623.9172836801832
 30
0.0
 10
1264.031292765672
 20
621.5841843123673
 30
0.0
  0
SPLINE
  5
143
330
1F
100
AcDbEntity
  8
0
  6
Continuous
 62
     7
370
    15
100
AcDbSpline
210
0.0
220
0.0
230
1.0
 70
     8
 71
     3
 72
    23
 73
    19
 74
     0
 42
0.000000001
 43
0.00000001
 40
0.0
 40
0.0
 40
0.0
 40
0.0
 40
0.0623986012049033
 40
0.1248032293551224
 40
0.1872258897521477
 40
0.249654597849443
 40
0.3121500009731023
 40
0.3746514860733026
 40
0.4371713247548066
 40
0.4996972838988047
 40
0.5621710288778927
 40
0.6246508894323781
 40
0.6871490802996708
 40
0.749653375360203
 40
0.8122248276574221
 40
0.8748023696406906
 40
0.9373981571504684
 40
1.0
 40
1.0
 40
1.0
 40
1.0
 10
1375.091077654894
 20
732.8573687310455
 30
0.0
 10
1377.047544842865
 20
733.0063741778456
 30
0.0
 10
1380.960668189723
 20
733.3043994635578
 30
0.0
 10
1386.836211280551
 20
733.6785378839049
 30
0.0
 10
1392.715798381985
 20
733.9991341123476
 30
0.0
 10
1398.601188133355
 20
734.260859949014
 30
0.0
 10
1404.491330088646
 20
734.4649144899661
 30
0.0
 10
1410.386071698719
 20
734.6107513699537
 30
0.0
 10
1416.282926656743
 20
734.6983362270291
 30
0.0
 10
1422.179487941076
 20
734.7275308979748
 30
0.0
 10
1428.074792108554
 20
734.6983911966046
 30
0.0
 10
1433.968646224026
 20
734.6109509991544
 30
0.0
 10
1439.862309200075
 20
734.4652271709416
 30
0.0
 10
1445.75711689963
 20
734.2611227549758
 30
0.0
 10
1451.652137104546
 20
733.9989896180879
 30
0.0
 10
1457.547068089891
 20
733.6774883935841
 30
0.0
 10
1463.439831613397
 20
733.3019672576474
 30
0.0
 10
1467.365297806977
 20
733.0026921736863
 30
0.0
 10
1469.328125833805
 20
732.8530473942993
 30
0.0
  0
SPLINE
  5
144
330
1F
100
AcDbEntity
  8
0
  6
Continuous
 62
     7
370
    15
100
AcDbSpline
210
0.0
220
0.0
230
1.0
 70
     8
 71
     3
 72
    10
 73
     6
 74
     0
 42
0.000000001
 43
0.00000001
 40
0.0
 40
0.0
 40
0.0
 40
0.0
 40
0.4271582601194845
 40
0.8543777934039388
 40
1.0
 40
1.0
 40
1.0
 40
1.0
 10
1580.348776548441
 20
621.384899907851
 30
0.0
 10
1580.11513658412
 20
624.1970030185029
 30
0.0
 10
1579.647823141296
 20
629.8216126183056
 30
0.0
 10
1579.011754171975
 20
636.3971049674554
 30
0.0
 10
1578.613209598107
 20
640.1601964700768
 30
0.0
 10
1578.511895506914
 20
641.1168126697777
 30
0.0
  0
SPLINE
  5
145
330
1F
100
AcDbEntity
  8
0
  6
Continuous
 62
     7
370
    15
100
AcDbSpline
210
0.0
220
0.0
230
1.0
 70
     8
 71
     3
 72
    10
 73
     6
 74
     0
 42
0.000000001
 43
0.00000001
 40
0.0
 40
0.0
 40
0.0
 40
0.0
 40
0.190085323259715
 40
0.594977558923068
 40
1.0
 40
1.0
 40
1.0
 40
1.0
 10
1486.593598394926
 20
731.2592191930054
 30
0.0
 10
1485.500766950061
 20
731.3720874389743
 30
0.0
 10
1482.080144177982
 20
731.7253712818028
 30
0.0
 10
1476.326142891499
 20
732.2721890709739
 30
0.0
 10
1471.661048180023
 20
732.6594072028994
 30
0.0
 10
1469.328125833805
 20
732.8530473942993
 30
0.0
  0
SPLINE
  5
146
330
1F
100
AcDbEntity
  8
0
  6
Continuous
 62
     7
370
    15
100
AcDbSpline
210
0.0
220
0.0
230
1.0
 70
     8
 71
     3
 72
    19
 73
    15
 74
     0
 42
0.000000001
 43
0.00000001
 40
0.0
 40
0.0
 40
0.0
 40
0.0
 40
0.0831943269042937
 40
0.1663921258637868
 40
0.2495864070473008
 40
0.3329076152302477
 40
0.416232370811597
 40
0.4995535537394948
 40
0.5828961000580409
 40
0.6662422317830622
 40
0.7495848166671152
 40
0.8330553623829813
 40
0.9165294420131638
 40
0.9999999999999999
 40
0.9999999999999999
 40
0.9999999999999999
 40
0.9999999999999999
 10
1580.348776548441
 20
621.384899907851
 30
0.0
 10
1580.541458818903
 20
618.7992591995334
 30
0.0
 10
1580.926831401282
 20
613.6278698730488
 30
0.0
 10
1581.377381603982
 20
605.8621668688213
 30
0.0
 10
1581.734424427531
 20
598.0878044318932
 30
0.0
 10
1581.988370696435
 20
590.3053623423658
 30
0.0
 10
1582.141407255454
 20
582.516350414827
 30
0.0
 10
1582.192479512817
 20
574.7253283148164
 30
0.0
 10
1582.141464426128
 20
566.9336390634621
 30
0.0
 10
1581.988312067461
 20
559.142630427551
 30
0.0
 10
1581.733985033694
 20
551.3502532064581
 30
0.0
 10
1581.375942164125
 20
543.5580297732431
 30
0.0
 10
1580.923365575963
 20
535.766568471136
 30
0.0
 10
1580.536081505399
 20
530.5780540572974
 30
0.0
 10
1580.342443554933
 20
527.9838515753983
 30
0.0
  0
SPLINE
  5
147
330
1F
100
AcDbEntity
  8
0
  6
Continuous
 62
     7
370
    15
100
AcDbSpline
210
0.0
220
0.0
230
1.0
 70
     8
 71
     3
 72
    10
 73
     6
 74
     0
 42
0.000000001
 43
0.00000001
 40
0.0
 40
0.0
 40
0.0
 40
0.0
 40
0.4259394317117252
 40
0.8518850020545435
 40
1.0
 40
1.0
 40
1.0
 40
1.0
 10
1469.292508333261
 20
416.593678140187
 30
0.0
 10
1472.089482381351
 20
416.8276792994689
 30
0.0
 10
1477.683470787467
 20
417.2956849904533
 30
0.0
 10
1484.242112020634
 20
417.9350657478113
 30
0.0
 10
1488.003918901614
 20
418.3326076310905
 30
0.0
 10
1488.97451338106
 20
418.4351785416839
 30
0.0
  0
SPLINE
  5
148
330
1F
100
AcDbEntity
  8
0
  6
Continuous
 62
     7
370
    15
100
AcDbSpline
210
0.0
220
0.0
230
1.0
 70
     8
 71
     3
 72
    10
 73
     6
 74
     0
 42
0.000000001
 43
0.00000001
 40
0.0
 40
0.0
 40
0.0
 40
0.0
 40
0.115658320429173
 40
0.620875628952997
 40
1.0
 40
1.0
 40
1.0
 40
1.0
 10
1578.640805452402
 20
509.538337432885
 30
0.0
 10
1578.716843767038
 20
510.248441148943
 30
0.0
 10
1579.125031749098
 20
514.0604115259418
 30
0.0
 10
1579.698414433885
 20
520.2088902941929
 30
0.0
 10
1580.149191717787
 20
525.650842861622
 30
0.0
 10
1580.342443554933
 20
527.9838515753983
 30
0.0
  0
ELLIPSE
  5
149
330
1F
100
AcDbEntity
  8
0
  6
Continuous
 62
     7
370
    15
100
AcDbEllipse
 10
1567.1747428358
 20
719.4437242068
 30
0.0
 11
4.547473508864641E-13
 21
13.60178512124151
 31
0.0
210
0.0
220
0.0
230
1.0
 40
0.9890732417
 41
3.992941092628808
 42
6.997242875982028
  0
ELLIPSE
  5
14A
330
1F
100
AcDbEntity
  8
0
  6
Continuous
 62
     7
370
    15
100
AcDbEllipse
 10
1567.1747428358
 20
430.0058176471
 30
0.0
 11
0.0
 21
13.60178512124139
 31
0.0
210
0.0
220
0.0
230
1.0
 40
0.9890732417
 41
2.427535084787416
 42
5.431836868140711
  0
ELLIPSE
  5
14B
330
1F
100
AcDbEntity
  8
0
  6
Continuous
 62
     7
370
    15
100
AcDbEllipse
 10
1277.1896951602
 20
430.0058176471
 30
0.0
 11
0.0
 21
13.60178512124133
 31
0.0
210
0.0
220
0.0
230
1.0
 40
0.9890732417
 41
0.8513484390389237
 42
3.855650222392186
  0
ELLIPSE
  5
14C
330
1F
100
AcDbEntity
  8
0
  6
Continuous
 62
     7
370
    15
100
AcDbEllipse
 10
1277.1896951602
 20
719.4437242068
 30
0.0
 11
-2.273736754432321E-13
 21
13.60178512124151
 31
0.0
210
0.0
220
0.0
230
1.0
 40
0.9890732417
 41
5.569127738377178
 42
8.57342952173041
  0
LINE
  5
14D
330
1F
100
AcDbEntity
  8
0
  6
Continuous
 62
     7
370
    15
100
AcDbLine
 10
1467.847859382
 20
732.9628093477
 30
0.0
 11
1475.0824066692
 21
732.363901877
 31
0.0
  0
LINE
  5
14E
330
1F
100
AcDbEntity
  8
0
  6
Continuous
 62
     7
370
    15
100
AcDbLine
 10
1476.2371498042
 20
732.265733027
 30
0.0
 11
1477.727720409
 21
732.1251703735
 31
0.0
  0
LINE
  5
14F
330
1F
100
AcDbEntity
  8
0
  6
Continuous
 62
     7
370
    15
100
AcDbLine
 10
1579.6102451974
 20
630.0115136738
 30
0.0
 11
1579.7653513842
 21
628.2199619646
 31
0.0
  0
LINE
  5
150
330
1F
100
AcDbEntity
  8
0
  6
Continuous
 62
     7
370
    15
100
AcDbLine
 10
1580.3029703789
 20
621.9216322835
 30
0.0
 11
1580.5775391751
 21
618.1974148686
 31
0.0
  0
LINE
  5
151
330
1F
100
AcDbEntity
  8
0
  6
Continuous
 62
     7
370
    15
100
AcDbLine
 10
1582.1727680855
 20
575.13884518
 30
0.0
 11
1582.1757334166
 21
574.724770927
 31
0.0
  0
SPLINE
  5
152
330
1F
100
AcDbEntity
  8
0
  6
Continuous
 62
     7
370
    15
100
AcDbSpline
210
0.0
220
0.0
230
1.0
 70
     8
 71
     3
 72
     9
 73
     5
 74
     0
 42
0.000000001
 43
0.00000001
 40
0.0
 40
0.0
 40
0.0
 40
0.0
 40
0.8824604728147278
 40
1.0
 40
1.0
 40
1.0
 40
1.0
 10
1376.534929394062
 20
732.964329266095
 30
0.0
 10
1373.805330842583
 20
732.7522216094459
 30
0.0
 10
1370.71216277946
 20
732.511862224314
 30
0.0
 10
1367.6236880445
 20
732.2184970615426
 30
0.0
 10
1367.260670184429
 20
732.184015059018
 30
0.0
  0
LINE
  5
153
330
1F
100
AcDbEntity
  8
0
  6
Continuous
 62
     7
370
    15
100
AcDbLine
 10
1353.0182856017
 20
730.7625783916
 30
0.0
 11
1350.0979411297
 21
730.445258164
 31
0.0
  0
SPLINE
  5
154
330
1F
100
AcDbEntity
  8
0
  6
Continuous
 62
     7
370
    15
100
AcDbSpline
210
0.0
220
0.0
230
1.0
 70
     8
 71
     3
 72
     9
 73
     5
 74
     0
 42
0.000000001
 43
0.00000001
 40
0.0
 40
0.0
 40
0.0
 40
0.0
 40
0.7050223024842159
 40
1.0
 40
1.0
 40
1.0
 40
1.0
 10
1265.808867185648
 20
640.7130731578109
 30
0.0
 10
1265.709085195794
 20
639.7800893185596
 30
0.0
 10
1265.567554935685
 20
638.4567498497739
 30
0.0
 10
1265.440797273034
 20
637.1319251331961
 30
0.0
 10
1265.403406589563
 20
636.7411313886878
 30
0.0
  0
LINE
  5
155
330
1F
100
AcDbEntity
  8
0
  6
Continuous
 62
     7
370
    15
100
AcDbLine
 10
1264.7129612856
 20
629.5354178484
 30
0.0
 11
1264.3076497012
 21
624.8538455303
 31
0.0
  0
LINE
  5
156
330
1F
100
AcDbEntity
  8
0
  6
Continuous
 62
     7
370
    15
100
AcDbLine
 10
1264.0728074008
 20
622.0752483542
 30
0.0
 11
1263.5665106469
 21
615.208048218
 31
0.0
  0
LINE
  5
157
330
1F
100
AcDbEntity
  8
0
  6
Continuous
 62
     7
370
    15
100
AcDbLine
 10
1262.1888833933
 20
574.7494123453
 30
0.0
 11
1262.1887045794
 21
574.724770927
 31
0.0
  0
LINE
  5
158
330
1F
100
AcDbEntity
  8
0
  6
Continuous
 62
     7
370
    15
100
AcDbLine
 10
1376.4792698317
 20
416.4898170467
 30
0.0
 11
1369.4425391846
 21
417.0723630424
 31
0.0
  0
LINE
  5
159
330
1F
100
AcDbEntity
  8
0
  6
Continuous
 62
     7
370
    15
100
AcDbLine
 10
1368.0614548617
 20
417.19000771
 30
0.0
 11
1366.1377112263
 21
417.3714442487
 31
0.0
  0
LINE
  5
15A
330
1F
100
AcDbEntity
  8
0
  6
Continuous
 62
     7
370
    15
100
AcDbLine
 10
1264.7535222464
 20
519.445713454
 30
0.0
 11
1264.5888942175
 21
521.3472282822
 31
0.0
  0
LINE
  5
15B
330
1F
100
AcDbEntity
  8
0
  6
Continuous
 62
     7
370
    15
100
AcDbLine
 10
1264.0645819598
 20
527.4858584936
 30
0.0
 11
1263.5633366995
 21
534.2844797607
 31
0.0
  0
LINE
  5
15C
330
1F
100
AcDbEntity
  8
0
  6
Continuous
 62
     7
370
    15
100
AcDbLine
 10
1262.1888386899
 20
574.7054917111
 30
0.0
 11
1262.1887045794
 21
574.724770927
 31
0.0
  0
SPLINE
  5
15D
330
1F
100
AcDbEntity
  8
0
  6
Continuous
 62
     7
370
    15
100
AcDbSpline
210
0.0
220
0.0
230
1.0
 70
     8
 71
     3
 72
     9
 73
     5
 74
     0
 42
0.000000001
 43
0.00000001
 40
0.0
 40
0.0
 40
0.0
 40
0.0
 40
0.88665594536304
 40
1.0
 40
1.0
 40
1.0
 40
1.0
 10
1467.835327505405
 20
416.4856894250152
 30
0.0
 10
1470.562991601033
 20
416.6975799139533
 30
0.0
 10
1473.639341689128
 20
416.9365570392362
 30
0.0
 10
1476.711022997919
 20
417.2282616806618
 30
0.0
 10
1477.05917981201
 20
417.2613246674774
 30
0.0
  0
SPLINE
  5
15E
330
1F
100
AcDbEntity
  8
0
  6
Continuous
 62
     7
370
    15
100
AcDbSpline
210
0.0
220
0.0
230
1.0
 70
     8
 71
     3
 72
     9
 73
     5
 74
     0
 42
0.000000001
 43
0.00000001
 40
0.0
 40
0.0
 40
0.0
 40
0.0
 40
0.4891041794144332
 40
1.0
 40
1.0
 40
1.0
 40
1.0
 10
1487.427720695074
 20
418.2728154893157
 30
0.0
 10
1487.94210284782
 20
418.3238826492622
 30
0.0
 10
1488.993785034143
 20
418.4282922251681
 30
0.0
 10
1490.04423352005
 20
418.5444635424457
 30
0.0
 10
1490.58090326124
 20
418.6038149829147
 30
0.0
  0
SPLINE
  5
15F
330
1F
100
AcDbEntity
  8
0
  6
Continuous
 62
     7
370
    15
100
AcDbSpline
210
0.0
220
0.0
230
1.0
 70
     8
 71
     3
 72
     9
 73
     5
 74
     0
 42
0.000000001
 43
0.00000001
 40
0.0
 40
0.0
 40
0.0
 40
0.0
 40
0.4196241926046327
 40
1.0
 40
1.0
 40
1.0
 40
1.0
 10
1578.5524117642
 20
508.7061597342728
 30
0.0
 10
1578.652272355036
 20
509.6493445326004
 30
0.0
 10
1578.890248602823
 20
511.8970338101736
 30
0.0
 10
1579.103125693616
 20
514.1472465166875
 30
0.0
 10
1579.226674407061
 20
515.4532155330418
 30
0.0
  0
SPLINE
  5
160
330
1F
100
AcDbEntity
  8
0
  6
Continuous
 62
     7
370
    15
100
AcDbSpline
210
0.0
220
0.0
230
1.0
 70
     8
 71
     3
 72
     9
 73
     5
 74
     0
 42
0.000000001
 43
0.00000001
 40
0.0
 40
0.0
 40
0.0
 40
0.0
 40
0.6200076348585499
 40
1.0
 40
1.0
 40
1.0
 40
1.0
 10
1579.661162465151
 20
520.026050352597
 30
0.0
 10
1579.869523828966
 20
522.3267782413711
 30
0.0
 10
1580.205586406426
 20
526.0375839789475
 30
0.0
 10
1580.470529738281
 20
529.7540897367807
 30
0.0
 10
1580.571206181581
 20
531.1663335497616
 30
0.0
  0
LINE
  5
161
330
1F
100
AcDbEntity
  8
0
  6
Continuous
 62
     7
370
    15
100
AcDbLine
 10
1582.1726041728
 20
574.2894702899
 30
0.0
 11
1582.1757334166
 21
574.724770927
 31
0.0
  0
ENDSEC
  0
SECTION
  2
OBJECTS
  0
DICTIONARY
  5
C
330
0
100
AcDbDictionary
281
     1
  3
ACAD_GROUP
350
D
  3
ACAD_LAYOUT
350
1A
  3
ACAD_MLINESTYLE
350
17
  3
ACAD_PLOTSETTINGS
350
19
  3
ACAD_PLOTSTYLENAME
350
E
  3
ACAD_SCALELIST
350
47
  0
DICTIONARY
  5
D
102
{ACAD_REACTORS
330
C
102
}
330
C
100
AcDbDictionary
281
     1
  0
DICTIONARY
  5
1A
102
{ACAD_REACTORS
330
C
102
}
330
C
100
AcDbDictionary
281
     1
  3
Layout1
350
1E
  3
Layout2
350
26
  3
Model
350
22
  0
DICTIONARY
  5
17
102
{ACAD_REACTORS
330
C
102
}
330
C
100
AcDbDictionary
281
     1
  3
Standard
350
18
  0
DICTIONARY
  5
19
102
{ACAD_REACTORS
330
C
102
}
330
C
100
AcDbDictionary
281
     1
  0
ACDBDICTIONARYWDFLT
  5
E
102
{ACAD_REACTORS
330
C
102
}
330
C
100
AcDbDictionary
281
     1
  3
Normal
350
F
100
AcDbDictionaryWithDefault
340
F
  0
DICTIONARY
  5
47
102
{ACAD_REACTORS
330
C
102
}
330
C
100
AcDbDictionary
281
     1
  3
A0
350
48
  3
A1
350
49
  3
A2
350
4A
  3
A3
350
4B
  3
A4
350
4C
  3
A5
350
4D
  3
A6
350
4E
  3
A7
350
4F
  3
A8
350
50
  3
A9
350
51
  3
B0
350
52
  3
B1
350
53
  3
B2
350
54
  3
B3
350
55
  3
B4
350
56
  3
B5
350
57
  3
B6
350
58
  3
B7
350
59
  3
B8
350
5A
  3
B9
350
5B
  3
C0
350
5C
  3
C1
350
5D
  3
C2
350
5E
  3
C3
350
5F
  3
C4
350
60
  3
C5
350
61
  3
C6
350
62
  3
C7
350
63
  3
C8
350
64
  3
C9
350
65
  3
D0
350
66
  3
D1
350
67
  3
D2
350
68
  0
LAYOUT
  5
1E
102
{ACAD_REACTORS
330
1A
102
}
330
1A
100
AcDbPlotSettings
  1

  2
none_device
  4

  6

 40
0.0
 41
0.0
 42
0.0
 43
0.0
 44
0.0
 45
0.0
 46
0.0
 47
0.0
 48
0.0
 49
0.0
140
0.0
141
0.0
142
1.0
143
1.0
 70
   688
 72
     1
 73
     0
 74
     5
  7

 75
    16
147
1.0
148
0.0
149
0.0
100
AcDbLayout
  1
Layout1
 70
     1
 71
     1
 10
0.0
 20
0.0
 11
420.0
 21
297.0
 12
0.0
 22
0.0
 32
0.0
 14
1.0000000000E+20
 24
1.0000000000E+20
 34
1.0000000000E+20
 15
-1.0000000000E+20
 25
-1.0000000000E+20
 35
-1.0000000000E+20
146
0.0
 13
0.0
 23
0.0
 33
0.0
 16
1.0
 26
0.0
 36
0.0
 17
0.0
 27
1.0
 37
0.0
 76
     0
330
1B
  0
LAYOUT
  5
26
102
{ACAD_REACTORS
330
1A
102
}
330
1A
100
AcDbPlotSettings
  1

  2
none_device
  4

  6

 40
0.0
 41
0.0
 42
0.0
 43
0.0
 44
0.0
 45
0.0
 46
0.0
 47
0.0
 48
0.0
 49
0.0
140
0.0
141
0.0
142
1.0
143
1.0
 70
   688
 72
     1
 73
     0
 74
     5
  7

 75
    16
147
1.0
148
0.0
149
0.0
100
AcDbLayout
  1
Layout2
 70
     1
 71
     2
 10
0.0
 20
0.0
 11
0.0
 21
0.0
 12
0.0
 22
0.0
 32
0.0
 14
0.0
 24
0.0
 34
0.0
 15
0.0
 25
0.0
 35
0.0
146
0.0
 13
0.0
 23
0.0
 33
0.0
 16
1.0
 26
0.0
 36
0.0
 17
0.0
 27
1.0
 37
0.0
 76
     0
330
23
  0
LAYOUT
  5
22
102
{ACAD_REACTORS
330
1A
102
}
330
1A
100
AcDbPlotSettings
  1

  2
none_device
  4
Letter_(8.50_x_11.00_Inches)
  6

 40
6.35
 41
6.35
 42
6.35000508
 43
6.35000508
 44
215.9
 45
279.4
 46
0.0
 47
0.0
 48
0.0
 49
0.0
140
0.0
141
0.0
142
1.0
143
1.0
 70
  1712
 72
     1
 73
     0
 74
     0
  7

 75
     0
147
1.0
148
0.0
149
0.0
100
AcDbLayout
  1
Model
 70
     1
 71
     0
 10
0.0
 20
0.0
 11
2970.0
 21
2100.0
 12
0.0
 22
0.0
 32
0.0
 14
0.0
 24
0.0
 34
0.0
 15
2970.0
 25
2100.0
 35
0.0
146
0.0
 13
0.0
 23
0.0
 33
0.0
 16
1.0
 26
0.0
 36
0.0
 17
0.0
 27
1.0
 37
0.0
 76
     0
330
1F
331
29
  0
MLINESTYLE
  5
18
102
{ACAD_REACTORS
330
17
102
}
330
17
100
AcDbMlineStyle
  2
Standard
 70
     0
  3

 62
   256
 51
90.0
 52
90.0
 71
     2
 49
0.5
 62
   256
  6
BYLAYER
 49
-0.5
 62
   256
  6
BYLAYER
  0
ACDBPLACEHOLDER
  5
F
102
{ACAD_REACTORS
330
E
102
}
330
E
  0
SCALE
  5
48
102
{ACAD_REACTORS
330
47
102
}
330
47
100
AcDbScale
 70
     0
300
1:1
140
1.0
141
1.0
290
     1
  0
SCALE
  5
49
102
{ACAD_REACTORS
330
47
102
}
330
47
100
AcDbScale
 70
     0
300
1:2
140
1.0
141
2.0
290
     0
  0
SCALE
  5
4A
102
{ACAD_REACTORS
330
47
102
}
330
47
100
AcDbScale
 70
     0
300
1:4
140
1.0
141
4.0
290
     0
  0
SCALE
  5
4B
102
{ACAD_REACTORS
330
47
102
}
330
47
100
AcDbScale
 70
     0
300
1:5
140
1.0
141
5.0
290
     0
  0
SCALE
  5
4C
102
{ACAD_REACTORS
330
47
102
}
330
47
100
AcDbScale
 70
     0
300
1:8
140
1.0
141
8.0
290
     0
  0
SCALE
  5
4D
102
{ACAD_REACTORS
330
47
102
}
330
47
100
AcDbScale
 70
     0
300
1:10
140
1.0
141
10.0
290
     0
  0
SCALE
  5
4E
102
{ACAD_REACTORS
330
47
102
}
330
47
100
AcDbScale
 70
     0
300
1:16
140
1.0
141
16.0
290
     0
  0
SCALE
  5
4F
102
{ACAD_REACTORS
330
47
102
}
330
47
100
AcDbScale
 70
     0
300
1:20
140
1.0
141
20.0
290
     0
  0
SCALE
  5
50
102
{ACAD_REACTORS
330
47
102
}
330
47
100
AcDbScale
 70
     0
300
1:30
140
1.0
141
30.0
290
     0
  0
SCALE
  5
51
102
{ACAD_REACTORS
330
47
102
}
330
47
100
AcDbScale
 70
     0
300
1:40
140
1.0
141
40.0
290
     0
  0
SCALE
  5
52
102
{ACAD_REACTORS
330
47
102
}
330
47
100
AcDbScale
 70
     0
300
1:50
140
1.0
141
50.0
290
     0
  0
SCALE
  5
53
102
{ACAD_REACTORS
330
47
102
}
330
47
100
AcDbScale
 70
     0
300
1:100
140
1.0
141
100.0
290
     0
  0
SCALE
  5
54
102
{ACAD_REACTORS
330
47
102
}
330
47
100
AcDbScale
 70
     0
300
2:1
140
2.0
141
1.0
290
     0
  0
SCALE
  5
55
102
{ACAD_REACTORS
330
47
102
}
330
47
100
AcDbScale
 70
     0
300
4:1
140
4.0
141
1.0
290
     0
  0
SCALE
  5
56
102
{ACAD_REACTORS
330
47
102
}
330
47
100
AcDbScale
 70
     0
300
8:1
140
8.0
141
1.0
290
     0
  0
SCALE
  5
57
102
{ACAD_REACTORS
330
47
102
}
330
47
100
AcDbScale
 70
     0
300
10:1
140
10.0
141
1.0
290
     0
  0
SCALE
  5
58
102
{ACAD_REACTORS
330
47
102
}
330
47
100
AcDbScale
 70
     0
300
100:1
140
100.0
141
1.0
290
     0
  0
SCALE
  5
59
102
{ACAD_REACTORS
330
47
102
}
330
47
100
AcDbScale
 70
     0
300
1/128" = 1'-0"
140
0.0078125
141
12.0
290
     0
  0
SCALE
  5
5A
102
{ACAD_REACTORS
330
47
102
}
330
47
100
AcDbScale
 70
     0
300
1/64" = 1'-0"
140
0.015625
141
12.0
290
     0
  0
SCALE
  5
5B
102
{ACAD_REACTORS
330
47
102
}
330
47
100
AcDbScale
 70
     0
300
1/32" = 1'-0"
140
0.03125
141
12.0
290
     0
  0
SCALE
  5
5C
102
{ACAD_REACTORS
330
47
102
}
330
47
100
AcDbScale
 70
     0
300
1/16" = 1'-0"
140
0.0625
141
12.0
290
     0
  0
SCALE
  5
5D
102
{ACAD_REACTORS
330
47
102
}
330
47
100
AcDbScale
 70
     0
300
3/32" = 1'-0"
140
0.09375
141
12.0
290
     0
  0
SCALE
  5
5E
102
{ACAD_REACTORS
330
47
102
}
330
47
100
AcDbScale
 70
     0
300
1/8" = 1'-0"
140
0.125
141
12.0
290
     0
  0
SCALE
  5
5F
102
{ACAD_REACTORS
330
47
102
}
330
47
100
AcDbScale
 70
     0
300
3/16" = 1'-0"
140
0.1875
141
12.0
290
     0
  0
SCALE
  5
60
102
{ACAD_REACTORS
330
47
102
}
330
47
100
AcDbScale
 70
     0
300
1/4" = 1'-0"
140
0.25
141
12.0
290
     0
  0
SCALE
  5
61
102
{ACAD_REACTORS
330
47
102
}
330
47
100
AcDbScale
 70
     0
300
3/8" = 1'-0"
140
0.375
141
12.0
290
     0
  0
SCALE
  5
62
102
{ACAD_REACTORS
330
47
102
}
330
47
100
AcDbScale
 70
     0
300
1/2" = 1'-0"
140
0.5
141
12.0
290
     0
  0
SCALE
  5
63
102
{ACAD_REACTORS
330
47
102
}
330
47
100
AcDbScale
 70
     0
300
3/4" = 1'-0"
140
0.75
141
12.0
290
     0
  0
SCALE
  5
64
102
{ACAD_REACTORS
330
47
102
}
330
47
100
AcDbScale
 70
     0
300
1" = 1'-0"
140
1.0
141
12.0
290
     0
  0
SCALE
  5
65
102
{ACAD_REACTORS
330
47
102
}
330
47
100
AcDbScale
 70
     0
300
1-1/2" = 1'-0"
140
1.5
141
12.0
290
     0
  0
SCALE
  5
66
102
{ACAD_REACTORS
330
47
102
}
330
47
100
AcDbScale
 70
     0
300
3" = 1'-0"
140
3.0
141
12.0
290
     0
  0
SCALE
  5
67
102
{ACAD_REACTORS
330
47
102
}
330
47
100
AcDbScale
 70
     0
300
6" = 1'-0"
140
6.0
141
12.0
290
     0
  0
SCALE
  5
68
102
{ACAD_REACTORS
330
47
102
}
330
47
100
AcDbScale
 70
     0
300
1'-0" = 1'-0"
140
12.0
141
12.0
290
     0
  0
ENDSEC
  0
EOF
