  0
SECTION
  2
HEADER
  9
$ACADVER
  1
AC1015
  9
$ACADMAINTVER
 70
     6
  9
$DWGCODEPAGE
  3
ANSI_1252
  9
$INSBASE
 10
0.0
 20
0.0
 30
0.0
  9
$EXTMIN
 10
0.0
 20
0.0
 30
0.0
  9
$EXTMAX
 10
4455.0
 20
3150.0
 30
0.0
  9
$LIMMIN
 10
0.0
 20
0.0
  9
$LIMMAX
 10
4455.0
 20
3150.0
  9
$ORTHOMODE
 70
     0
  9
$REGENMODE
 70
     1
  9
$FILLMODE
 70
     1
  9
$QTEXTMODE
 70
     0
  9
$MIRRTEXT
 70
     1
  9
$LTSCALE
 40
15.0
  9
$ATTMODE
 70
     1
  9
$TEXTSIZE
 40
52.5
  9
$TRACEWID
 40
1.0
  9
$TEXTSTYLE
  7
Standard
  9
$CLAYER
  8
0
  9
$CELTYPE
  6
ByLayer
  9
$CECOLOR
 62
   256
  9
$CELTSCALE
 40
1.0
  9
$DISPSILH
 70
     0
  9
$DIMSCALE
 40
1.0
  9
$DIMASZ
 40
37.5
  9
$DIMEXO
 40
0.0
  9
$DIMDLI
 40
3.75
  9
$DIMRND
 40
0.0
  9
$DIMDLE
 40
0.0
  9
$DIMEXE
 40
15.0
  9
$DIMTP
 40
0.0
  9
$DIMTM
 40
0.0
  9
$DIMTXT
 40
45.0
  9
$DIMCEN
 40
2.5
  9
$DIMTSZ
 40
0.0
  9
$DIMTOL
 70
     0
  9
$DIMLIM
 70
     0
  9
$DIMTIH
 70
     1
  9
$DIMTOH
 70
     1
  9
$DIMSE1
 70
     0
  9
$DIMSE2
 70
     0
  9
$DIMTAD
 70
     1
  9
$DIMZIN
 70
     0
  9
$DIMBLK
  1

  9
$DIMASO
 70
     1
  9
$DIMSHO
 70
     1
  9
$DIMPOST
  1

  9
$DIMAPOST
  1

  9
$DIMALT
 70
     0
  9
$DIMALTD
 70
     3
  9
$DIMALTF
 40
0.0393700787
  9
$DIMLFAC
 40
1.0
  9
$DIMTOFL
 70
     1
  9
$DIMTVP
 40
0.0
  9
$DIMTIX
 70
     0
  9
$DIMSOXD
 70
     0
  9
$DIMSAH
 70
     0
  9
$DIMBLK1
  1

  9
$DIMBLK2
  1

  9
$DIMSTYLE
  2
ISO-25
  9
$DIMCLRD
 70
     0
  9
$DIMCLRE
 70
     0
  9
$DIMCLRT
 70
     0
  9
$DIMTFAC
 40
1.0
  9
$DIMGAP
 40
22.5
  9
$DIMJUST
 70
     0
  9
$DIMSD1
 70
     0
  9
$DIMSD2
 70
     0
  9
$DIMTOLJ
 70
     0
  9
$DIMTZIN
 70
     0
  9
$DIMALTZ
 70
     0
  9
$DIMALTTZ
 70
     0
  9
$DIMUPT
 70
     0
  9
$DIMDEC
 70
     1
  9
$DIMTDEC
 70
     1
  9
$DIMALTU
 70
     2
  9
$DIMALTTD
 70
     3
  9
$DIMTXSTY
  7
Standard
  9
$DIMAUNIT
 70
     0
  9
$DIMADEC
 70
     2
  9
$DIMALTRND
 40
0.0
  9
$DIMAZIN
 70
     0
  9
$DIMDSEP
 70
    44
  9
$DIMATFIT
 70
     3
  9
$DIMFRAC
 70
     0
  9
$DIMLDRBLK
  1

  9
$DIMLUNIT
 70
     2
  9
$DIMLWD
 70
    -2
  9
$DIMLWE
 70
    -2
  9
$DIMTMOVE
 70
     0
  9
$LUNITS
 70
     2
  9
$LUPREC
 70
     2
  9
$SKETCHINC
 40
1.0
  9
$FILLETRAD
 40
10.0
  9
$AUNITS
 70
     0
  9
$AUPREC
 70
     2
  9
$MENU
  1
.
  9
$ELEVATION
 40
0.0
  9
$PELEVATION
 40
0.0
  9
$THICKNESS
 40
0.0
  9
$LIMCHECK
 70
     0
  9
$CHAMFERA
 40
0.0
  9
$CHAMFERB
 40
0.0
  9
$CHAMFERC
 40
0.0
  9
$CHAMFERD
 40
0.0
  9
$SKPOLY
 70
     0
  9
$TDCREATE
 40
2459174.714895752
  9
$TDUCREATE
 40
2459174.673229086
  9
$TDUPDATE
 40
2459174.714896597
  9
$TDUUPDATE
 40
2459174.67322993
  9
$TDINDWG
 40
0.0000000116
  9
$TDUSRTIMER
 40
0.0000000116
  9
$USRTIMER
 70
     1
  9
$ANGBASE
 50
0.0
  9
$ANGDIR
 70
     0
  9
$PDMODE
 70
     0
  9
$PDSIZE
 40
-1.0
  9
$PLINEWID
 40
0.0
  9
$SPLFRAME
 70
     0
  9
$SPLINETYPE
 70
     6
  9
$SPLINESEGS
 70
     8
  9
$HANDSEED
  5
2A1
  9
$SURFTAB1
 70
     6
  9
$SURFTAB2
 70
     6
  9
$SURFTYPE
 70
     6
  9
$SURFU
 70
     6
  9
$SURFV
 70
     6
  9
$UCSBASE
  2

  9
$UCSNAME
  2

  9
$UCSORG
 10
0.0
 20
0.0
 30
0.0
  9
$UCSXDIR
 10
1.0
 20
0.0
 30
0.0
  9
$UCSYDIR
 10
0.0
 20
1.0
 30
0.0
  9
$UCSORTHOREF
  2

  9
$UCSORTHOVIEW
 70
     0
  9
$UCSORGTOP
 10
0.0
 20
0.0
 30
0.0
  9
$UCSORGBOTTOM
 10
0.0
 20
0.0
 30
0.0
  9
$UCSORGLEFT
 10
0.0
 20
0.0
 30
0.0
  9
$UCSORGRIGHT
 10
0.0
 20
0.0
 30
0.0
  9
$UCSORGFRONT
 10
0.0
 20
0.0
 30
0.0
  9
$UCSORGBACK
 10
0.0
 20
0.0
 30
0.0
  9
$PUCSBASE
  2

  9
$PUCSNAME
  2

  9
$PUCSORG
 10
0.0
 20
0.0
 30
0.0
  9
$PUCSXDIR
 10
1.0
 20
0.0
 30
0.0
  9
$PUCSYDIR
 10
0.0
 20
1.0
 30
0.0
  9
$PUCSORTHOREF
  2

  9
$PUCSORTHOVIEW
 70
     0
  9
$PUCSORGTOP
 10
0.0
 20
0.0
 30
0.0
  9
$PUCSORGBOTTOM
 10
0.0
 20
0.0
 30
0.0
  9
$PUCSORGLEFT
 10
0.0
 20
0.0
 30
0.0
  9
$PUCSORGRIGHT
 10
0.0
 20
0.0
 30
0.0
  9
$PUCSORGFRONT
 10
0.0
 20
0.0
 30
0.0
  9
$PUCSORGBACK
 10
0.0
 20
0.0
 30
0.0
  9
$USERI1
 70
     0
  9
$USERI2
 70
     0
  9
$USERI3
 70
     0
  9
$USERI4
 70
     0
  9
$USERI5
 70
     0
  9
$USERR1
 40
0.0
  9
$USERR2
 40
0.0
  9
$USERR3
 40
0.0
  9
$USERR4
 40
0.0
  9
$USERR5
 40
0.0
  9
$WORLDVIEW
 70
     1
  9
$SHADEDGE
 70
     3
  9
$SHADEDIF
 70
    70
  9
$TILEMODE
 70
     1
  9
$MAXACTVP
 70
    64
  9
$PINSBASE
 10
0.0
 20
0.0
 30
0.0
  9
$PLIMCHECK
 70
     0
  9
$PEXTMIN
 10
1.0000000000E+20
 20
1.0000000000E+20
 30
1.0000000000E+20
  9
$PEXTMAX
 10
-1.0000000000E+20
 20
-1.0000000000E+20
 30
-1.0000000000E+20
  9
$PLIMMIN
 10
0.0
 20
0.0
  9
$PLIMMAX
 10
420.0
 20
297.0
  9
$UNITMODE
 70
     0
  9
$VISRETAIN
 70
     1
  9
$PLINEGEN
 70
     0
  9
$PSLTSCALE
 70
     1
  9
$TREEDEPTH
 70
  3020
  9
$CMLSTYLE
  2
Standard
  9
$CMLJUST
 70
     0
  9
$CMLSCALE
 40
20.0
  9
$PROXYGRAPHICS
 70
     1
  9
$MEASUREMENT
 70
     1
  9
$CELWEIGHT
370
    -1
  9
$ENDCAPS
280
     0
  9
$JOINSTYLE
280
     0
  9
$LWDISPLAY
290
     1
  9
$INSUNITS
 70
     4
  9
$HYPERLINKBASE
  1

  9
$STYLESHEET
  1

  9
$XEDIT
290
     1
  9
$CEPSNTYPE
380
     0
  9
$PSTYLEMODE
290
     1
  9
$FINGERPRINTGUID
  2
{5c3152df-e868-4836-b0a4-7aa67413d954}
  9
$VERSIONGUID
  2
{FAEB1C32-E019-11D5-929B-00C0DF256EC4}
  9
$EXTNAMES
290
     1
  9
$PSVPSCALE
 40
0.0
  9
$OLESTARTUP
290
     0
  0
ENDSEC
  0
SECTION
  2
CLASSES
  0
CLASS
  1
ACDBDICTIONARYWDFLT
  2
AcDbDictionaryWithDefault
  3
ObjectDBX Classes
 90
        0
280
     0
281
     0
  0
CLASS
  1
VISUALSTYLE
  2
AcDbVisualStyle
  3
ObjectDBX Classes
 90
     4095
280
     0
281
     0
  0
CLASS
  1
MATERIAL
  2
AcDbMaterial
  3
ObjectDBX Classes
 90
     1153
280
     0
281
     0
  0
CLASS
  1
SCALE
  2
AcDbScale
  3
ObjectDBX Classes
 90
     1153
280
     0
281
     0
  0
CLASS
  1
TABLESTYLE
  2
AcDbTableStyle
  3
ObjectDBX Classes
 90
     4095
280
     0
281
     0
  0
CLASS
  1
MLEADERSTYLE
  2
AcDbMLeaderStyle
  3
ACDB_MLEADERSTYLE_CLASS
 90
     4095
280
     0
281
     0
  0
CLASS
  1
SUN
  2
AcDbSun
  3
SCENEOE
 90
     1153
280
     0
281
     0
  0
CLASS
  1
ACDBPLACEHOLDER
  2
AcDbPlaceHolder
  3
ObjectDBX Classes
 90
        0
280
     0
281
     0
  0
CLASS
  1
LAYOUT
  2
AcDbLayout
  3
ObjectDBX Classes
 90
        0
280
     0
281
     0
  0
ENDSEC
  0
SECTION
  2
TABLES
  0
TABLE
  2
VPORT
  5
8
330
0
100
AcDbSymbolTable
 70
     1
  0
VPORT
  5
29
330
8
100
AcDbSymbolTableRecord
100
AcDbViewportTableRecord
  2
*Active
 70
     0
 10
0.0
 20
0.0
 11
1.0
 21
1.0
 12
2227.5
 22
1575.0
 13
0.0
 23
0.0
 14
10.0
 24
10.0
 15
10.0
 25
10.0
 16
0.0
 26
0.0
 36
1.0
 17
0.0
 27
0.0
 37
0.0
 40
3150.0
 41
1.4142857143
 42
50.0
 43
0.0
 44
0.0
 50
0.0
 51
0.0
 71
     0
 72
  2000
 73
     1
 74
     3
 75
     0
 76
     0
 77
     0
 78
     0
281
     0
 65
     1
110
0.0
120
0.0
130
0.0
111
1.0
121
0.0
131
0.0
112
0.0
122
1.0
132
0.0
 79
     0
146
0.0
  0
ENDTAB
  0
TABLE
  2
LTYPE
  5
5
330
0
100
AcDbSymbolTable
 70
     6
  0
LTYPE
  5
14
330
5
100
AcDbSymbolTableRecord
100
AcDbLinetypeTableRecord
  2
ByBlock
 70
     0
  3

 72
    65
 73
     0
 40
0.0
  0
LTYPE
  5
15
330
5
100
AcDbSymbolTableRecord
100
AcDbLinetypeTableRecord
  2
ByLayer
 70
     0
  3

 72
    65
 73
     0
 40
0.0
  0
LTYPE
  5
16
330
5
100
AcDbSymbolTableRecord
100
AcDbLinetypeTableRecord
  2
Continuous
 70
     0
  3
Solid line
 72
    65
 73
     0
 40
0.0
  0
LTYPE
  5
6E
330
5
100
AcDbSymbolTableRecord
100
AcDbLinetypeTableRecord
  2
HIDDEN
 70
     0
  3
Hidden __ __ __ __ __ __ __ __ __ __ __ __ __ __
 72
    65
 73
     2
 40
1.905
 49
1.27
 74
     0
 49
-0.635
 74
     0
  0
LTYPE
  5
6F
330
5
100
AcDbSymbolTableRecord
100
AcDbLinetypeTableRecord
  2
PHANTOM
 70
     0
  3
Phantom ______  __  __  ______  __  __  ______
 72
    65
 73
     6
 40
12.7
 49
6.35
 74
     0
 49
-1.27
 74
     0
 49
1.27
 74
     0
 49
-1.27
 74
     0
 49
1.27
 74
     0
 49
-1.27
 74
     0
  0
LTYPE
  5
70
330
5
100
AcDbSymbolTableRecord
100
AcDbLinetypeTableRecord
  2
CENTER
 70
     0
  3
Center ____ _ ____ _ ____ _ ____ _ ____ _ ____
 72
    65
 73
     4
 40
10.16
 49
6.35
 74
     0
 49
-1.27
 74
     0
 49
1.27
 74
     0
 49
-1.27
 74
     0
  0
LTYPE
  5
71
330
5
100
AcDbSymbolTableRecord
100
AcDbLinetypeTableRecord
  2
CENTERX2
 70
     0
  3
Center (2x) ________  __  ________  __  _____
 72
    65
 73
     4
 40
20.32
 49
12.7
 74
     0
 49
-2.54
 74
     0
 49
2.54
 74
     0
 49
-2.54
 74
     0
  0
LTYPE
  5
72
330
5
100
AcDbSymbolTableRecord
100
AcDbLinetypeTableRecord
  2
DOT2
 70
     0
  3
Dot (.5x) ........................................
 72
    65
 73
     2
 40
0.635
 49
0.0
 74
     0
 49
-0.635
 74
     0
  0
ENDTAB
  0
TABLE
  2
LAYER
  5
2
330
0
100
AcDbSymbolTable
 70
     2
  0
LAYER
  5
10
330
2
100
AcDbSymbolTableRecord
100
AcDbLayerTableRecord
  2
0
 70
     0
 62
     7
  6
Continuous
370
    -3
390
F
  0
LAYER
  5
73
330
2
100
AcDbSymbolTableRecord
100
AcDbLayerTableRecord
  2
FORMAT
 70
     0
 62
     7
  6
Continuous
370
    -3
390
F
  0
ENDTAB
  0
TABLE
  2
STYLE
  5
3
330
0
100
AcDbSymbolTable
 70
     2
  0
STYLE
  5
11
330
3
100
AcDbSymbolTableRecord
100
AcDbTextStyleTableRecord
  2
Standard
 70
     0
 40
0.0
 41
1.0
 50
0.0
 71
     0
 42
52.5
  3
txt
  4

  0
STYLE
  5
E7
330
3
100
AcDbSymbolTableRecord
100
AcDbTextStyleTableRecord
  2
SLDTEXTSTYLE0
 70
     0
 40
0.0
 41
0.605
 50
0.0
 71
     0
 42
52.5
  3
TXT
  4

  0
ENDTAB
  0
TABLE
  2
VIEW
  5
6
330
0
100
AcDbSymbolTable
 70
     0
  0
ENDTAB
  0
TABLE
  2
UCS
  5
7
330
0
100
AcDbSymbolTable
 70
     0
  0
ENDTAB
  0
TABLE
  2
APPID
  5
9
330
0
100
AcDbSymbolTable
 70
     1
  0
APPID
  5
12
330
9
100
AcDbSymbolTableRecord
100
AcDbRegAppTableRecord
  2
ACAD
 70
     0
  0
ENDTAB
  0
TABLE
  2
DIMSTYLE
  5
A
330
0
100
AcDbSymbolTable
 70
     1
100
AcDbDimStyleTable
  0
DIMSTYLE
105
27
330
A
100
AcDbSymbolTableRecord
100
AcDbDimStyleTableRecord
  2
ISO-25
 70
     0
 41
2.5
 42
0.625
 43
3.75
 44
1.25
 73
     0
 74
     0
 77
     1
 78
     8
140
2.5
141
2.5
143
0.0393700787
147
0.625
171
     3
172
     1
178
     0
271
     2
272
     2
274
     3
278
    44
283
     0
284
     8
340
11
  0
ENDTAB
  0
TABLE
  2
BLOCK_RECORD
  5
1
330
0
100
AcDbSymbolTable
 70
     2
  0
BLOCK_RECORD
  5
1F
330
1
100
AcDbSymbolTableRecord
100
AcDbBlockTableRecord
  2
*Model_Space
340
22
  0
BLOCK_RECORD
  5
1B
330
1
100
AcDbSymbolTableRecord
100
AcDbBlockTableRecord
  2
*Paper_Space
340
1E
  0
BLOCK_RECORD
  5
23
330
1
100
AcDbSymbolTableRecord
100
AcDbBlockTableRecord
  2
*Paper_Space0
340
26
  0
BLOCK_RECORD
  5
EE
330
1
100
AcDbSymbolTableRecord
100
AcDbBlockTableRecord
  2
SW_NOTE_0
340
0
102
{BLKREFS
331
F3
102
}
  0
ENDTAB
  0
ENDSEC
  0
SECTION
  2
BLOCKS
  0
BLOCK
  5
20
330
1F
100
AcDbEntity
  8
0
100
AcDbBlockBegin
  2
*Model_Space
 70
     0
 10
0.0
 20
0.0
 30
0.0
  3
*Model_Space
  1

  0
ENDBLK
  5
21
330
1F
100
AcDbEntity
  8
0
100
AcDbBlockEnd
  0
BLOCK
  5
1C
330
1B
100
AcDbEntity
 67
     1
  8
0
100
AcDbBlockBegin
  2
*Paper_Space
 70
     0
 10
0.0
 20
0.0
 30
0.0
  3
*Paper_Space
  1

  0
ENDBLK
  5
1D
330
1B
100
AcDbEntity
 67
     1
  8
0
100
AcDbBlockEnd
  0
BLOCK
  5
24
330
23
100
AcDbEntity
  8
0
100
AcDbBlockBegin
  2
*Paper_Space0
 70
     0
 10
0.0
 20
0.0
 30
0.0
  3
*Paper_Space0
  1

  0
ENDBLK
  5
25
330
23
100
AcDbEntity
  8
0
100
AcDbBlockEnd
  0
BLOCK
  5
EF
330
EE
100
AcDbEntity
  8
0
100
AcDbBlockBegin
  2
SW_NOTE_0
 70
     0
 10
0.0
 20
0.0
 30
0.0
  3
SW_NOTE_0
  1

  0
MTEXT
  5
F1
330
EE
100
AcDbEntity
  8
0
  6
Continuous
 62
     0
370
     0
100
AcDbMText
 10
49.359375
 20
34.8048289738
 30
0.0
 40
27.0
 41
0.0
 71
     2
 72
     1
  1
SCALA
  7
SLDTEXTSTYLE0
 73
     1
 44
1.0
  0
MTEXT
  5
F2
330
EE
100
AcDbEntity
  8
0
  6
Continuous
 62
     0
370
     0
100
AcDbMText
 10
53.4147810657
 20
-2.4595061469
 30
0.0
 40
55.5625
 41
0.0
 71
     2
 72
     1
  1
1:1
  7
SLDTEXTSTYLE0
 73
     1
 44
1.0
  0
ENDBLK
  5
F0
330
EE
100
AcDbEntity
  8
0
100
AcDbBlockEnd
  0
ENDSEC
  0
SECTION
  2
ENTITIES
  0
HATCH
  5
74
330
1F
100
AcDbEntity
  8
0
  6
Continuous
 62
     7
100
AcDbHatch
 10
0.0
 20
0.0
 30
0.0
210
0.0
220
0.0
230
1.0
  2
SOLID
 70
     1
 71
     0
 91
        2
 92
        0
 93
        6
 72
     1
 10
3510.364839630325
 20
478.9717232620642
 11
3534.971866308667
 21
478.9717232620642
 72
     3
 10
3526.618147735648
 20
497.9339160554321
 11
40.63327027197528
 21
0.0
 40
0.4768529109443385
 50
293.775699558261
 51
426.2243004403767
 73
     1
 72
     1
 10
3534.971866309184
 20
516.8961088487492
 11
3485.984877466922
 21
516.8961088487492
 72
     1
 10
3485.984877466922
 20
516.8961088487492
 11
3485.984877466922
 21
457.3006457872621
 72
     1
 10
3485.984877466922
 20
457.3006457872621
 11
3510.364839630325
 21
457.3006457872621
 72
     1
 10
3510.364839630325
 20
457.3006457872621
 11
3510.364839630325
 21
478.9717232620642
 97
        0
 92
        0
 93
        6
 72
     3
 10
3525.263705395451
 20
497.9339160554321
 11
14.89886576646227
 21
0.0
 40
0.5895245510672578
 50
316.3365658560249
 51
403.6634341442267
 73
     0
 72
     2
 10
3529.385821470631
 20
500.6428007400895
 40
10.83553873881616
 50
69.99121011132848
 51
90.0
 73
     0
 72
     1
 10
3529.385821470631
 20
489.8072620012733
 11
3510.364839629721
 21
489.8072620012733
 72
     1
 10
3510.364839629721
 20
489.8072620012733
 11
3510.364839629721
 21
506.060570109435
 72
     1
 10
3510.364839629721
 20
506.060570109435
 11
3529.385821471518
 21
506.060570109435
 72
     2
 10
3529.385821471518
 20
495.2250313732109
 40
10.83553873622417
 50
270.0000000000008
 51
290.0087898889544
 73
     0
 97
        0
 75
     0
 76
     1
 98
        1
 10
0.0
 20
0.0
  0
HATCH
  5
75
330
1F
100
AcDbEntity
  8
0
  6
Continuous
 62
     7
100
AcDbHatch
 10
0.0
 20
0.0
 30
0.0
210
0.0
220
0.0
230
1.0
  2
SOLID
 70
     1
 71
     0
 91
        1
 92
        0
 93
       12
 72
     1
 10
3653.935727922185
 20
516.89610884631
 11
3572.669187380694
 21
516.89610884631
 72
     1
 10
3572.669187380694
 20
516.89610884631
 11
3572.669187380694
 21
457.300645784823
 72
     1
 10
3572.669187380694
 20
457.300645784823
 11
3653.935727922185
 21
457.300645784823
 72
     1
 10
3653.935727922185
 20
457.300645784823
 11
3653.935727922185
 21
468.136184519505
 72
     1
 10
3653.935727922185
 20
468.136184519505
 11
3599.758034227767
 21
468.136184519505
 72
     1
 10
3599.758034227767
 20
468.136184519505
 11
3599.758034227767
 21
481.6806079430411
 72
     1
 10
3599.758034227767
 20
481.6806079430411
 11
3648.517958554844
 21
481.6806079430411
 72
     1
 10
3648.517958554844
 20
481.6806079430411
 11
3648.517958554844
 21
492.5161466829075
 72
     1
 10
3648.517958554844
 20
492.5161466829075
 11
3599.758034227767
 21
492.5161466829075
 72
     1
 10
3599.758034227767
 20
492.5161466829075
 11
3599.758034227767
 21
506.0605701064436
 72
     1
 10
3599.758034227767
 20
506.0605701064436
 11
3653.935727922185
 21
506.0605701064436
 72
     1
 10
3653.935727922185
 20
506.0605701064436
 11
3653.935727922185
 21
516.89610884631
 97
        0
 75
     0
 76
     1
 98
        1
 10
0.0
 20
0.0
  0
HATCH
  5
76
330
1F
100
AcDbEntity
  8
0
  6
Continuous
 62
     7
100
AcDbHatch
 10
0.0
 20
0.0
 30
0.0
210
0.0
220
0.0
230
1.0
  2
SOLID
 70
     1
 71
     0
 91
        1
 92
        0
 93
        6
 72
     1
 10
3968.166351360068
 20
516.896108849379
 11
3941.077504512995
 21
516.896108849379
 72
     1
 10
3941.077504512995
 20
516.896108849379
 11
3941.077504512995
 21
457.3006457878918
 72
     1
 10
3941.077504512995
 20
457.3006457878918
 11
4014.217391003474
 21
457.3006457878918
 72
     1
 10
4014.217391003474
 20
457.3006457878918
 11
4014.217391003474
 21
470.8450692114284
 72
     1
 10
4014.217391003474
 20
470.8450692114284
 11
3968.166351360068
 21
470.8450692114284
 72
     1
 10
3968.166351360068
 20
470.8450692114284
 11
3968.166351360068
 21
516.896108849379
 97
        0
 75
     0
 76
     1
 98
        1
 10
0.0
 20
0.0
  0
HATCH
  5
77
330
1F
100
AcDbEntity
  8
0
  6
Continuous
 62
     7
100
AcDbHatch
 10
0.0
 20
0.0
 30
0.0
210
0.0
220
0.0
230
1.0
  2
SOLID
 70
     1
 71
     0
 91
        1
 92
        0
 93
        4
 72
     1
 10
4016.926275686005
 20
516.8961088487489
 11
4016.926275686005
 21
457.3006457872619
 72
     1
 10
4016.926275686005
 20
457.3006457872619
 11
4044.015122533078
 21
457.3006457872619
 72
     1
 10
4044.015122533078
 20
457.3006457872619
 11
4044.015122533078
 21
516.8961088487489
 72
     1
 10
4044.015122533078
 20
516.8961088487489
 11
4016.926275686005
 21
516.8961088487489
 97
        0
 75
     0
 76
     1
 98
        1
 10
0.0
 20
0.0
  0
HATCH
  5
78
330
1F
100
AcDbEntity
  8
0
  6
Continuous
 62
     7
100
AcDbHatch
 10
0.0
 20
0.0
 30
0.0
210
0.0
220
0.0
230
1.0
  2
SOLID
 70
     1
 71
     0
 91
        2
 92
        0
 93
        4
 72
     3
 10
3702.695652247627
 20
487.0983773139296
 11
43.3421549567338
 21
0.0
 40
0.6929224243374511
 50
280.2934314618138
 51
439.7065685387132
 73
     1
 72
     1
 10
3708.107289002345
 20
516.8961088463723
 11
3659.353497294997
 21
516.896108846372
 72
     1
 10
3659.353497294997
 20
516.896108846372
 11
3659.353497294997
 21
457.3006457815111
 72
     1
 10
3659.353497294997
 20
457.3006457815111
 11
3708.107289002623
 21
457.3006457815111
 97
        0
 92
        0
 93
        6
 72
     2
 10
3709.420759151997
 20
487.0983773132712
 40
16.25330810997023
 50
56.16906508602241
 51
90.0
 73
     0
 72
     1
 10
3709.420759151997
 20
470.8450692033011
 11
3683.73345945474
 21
470.8450692033011
 72
     1
 10
3683.73345945474
 20
470.8450692033011
 11
3683.73345945474
 21
503.3516854240493
 72
     1
 10
3683.73345945474
 20
503.3516854240493
 11
3709.420759151997
 21
503.3516854240493
 72
     2
 10
3709.420759151997
 20
487.0983773132712
 40
16.25330811077806
 50
270.0000000000008
 51
303.8314447476084
 73
     0
 72
     3
 10
3693.214555856416
 20
487.0983773139296
 11
33.86105856006918
 21
0.0
 40
0.5985848325441406
 50
331.8713554011804
 51
388.1288999924611
 73
     0
 97
        0
 75
     0
 76
     1
 98
        1
 10
0.0
 20
0.0
  0
HATCH
  5
79
330
1F
100
AcDbEntity
  8
0
  6
Continuous
 62
     7
100
AcDbHatch
 10
0.0
 20
0.0
 30
0.0
210
0.0
220
0.0
230
1.0
  2
SOLID
 70
     1
 71
     0
 91
        3
 92
        0
 93
       19
 72
     1
 10
3838.305303288919
 20
472.1564369380282
 11
3840.533301976077
 21
463.4514816274054
 72
     2
 10
3848.180349956368
 20
465.1715759510745
 40
7.838116310390116
 50
192.676878510139
 51
204.7368873206727
 73
     1
 72
     1
 10
3841.061467316795
 20
461.891701371279
 11
3876.06427207871
 21
516.896108849379
 72
     1
 10
3876.06427207871
 20
516.896108849379
 11
3903.153118925783
 21
516.896108849379
 72
     1
 10
3903.153118925783
 20
516.896108849379
 11
3941.077504512995
 21
457.3006457878918
 72
     1
 10
3941.077504512995
 20
457.3006457878918
 11
3913.988657665649
 21
457.3006457878918
 72
     1
 10
3913.988657665649
 20
457.3006457878918
 11
3907.893667124934
 21
468.136184522574
 72
     1
 10
3907.893667124934
 20
468.136184522574
 11
3871.323723879558
 21
468.136184522574
 72
     1
 10
3871.323723879558
 20
468.136184522574
 11
3865.228733338844
 21
457.3006457878918
 72
     1
 10
3865.228733338844
 20
457.3006457878918
 11
3819.177693694659
 21
457.3006457878918
 72
     1
 10
3819.177693694659
 20
457.3006457878918
 11
3819.177693694659
 21
468.1361845239816
 72
     2
 10
3808.342154954792
 20
468.1361845239816
 40
10.83553873986634
 50
0.0
 51
90.0
 73
     1
 72
     1
 10
3808.342154954792
 20
478.9717232638475
 11
3781.253308107446
 21
478.9717232638475
 72
     1
 10
3781.253308107446
 20
478.9717232638475
 11
3781.253308107446
 21
457.3006457892997
 72
     1
 10
3781.253308107446
 20
457.3006457892997
 11
3756.873345944045
 21
457.3006457892997
 72
     1
 10
3756.873345944045
 20
457.3006457892997
 11
3756.873345944045
 21
516.8961088507866
 72
     1
 10
3756.873345944045
 20
516.8961088507866
 11
3813.02888745868
 21
516.8961088507866
 72
     3
 10
3807.044921560378
 20
499.4046031234453
 11
36.48999933802743
 21
0.0
 40
0.4859291160023138
 50
288.8861745463018
 51
398.6942257036358
 73
     0
 72
     2
 10
3823.556377394376
 20
469.4441941062505
 40
14.99623540163429
 50
279.2678272406091
 51
349.5800515720783
 73
     0
 97
        0
 92
        0
 93
        3
 72
     1
 10
3889.608695501106
 20
500.6428007391028
 11
3877.418714419404
 21
478.9717232593709
 72
     1
 10
3877.418714419404
 20
478.9717232593709
 11
3901.798676582808
 21
478.9717232593709
 72
     1
 10
3901.798676582808
 20
478.9717232593709
 11
3889.608695501106
 21
500.6428007391028
 97
        0
 92
        0
 93
        6
 72
     2
 10
3807.717258628007
 20
497.933916056143
 40
8.126654055321543
 50
270.0000000000008
 51
305.5869104965617
 73
     1
 72
     3
 10
3798.861058561583
 20
497.9339160554321
 11
17.6077504512262
 21
0.0
 40
0.5900077182209744
 50
334.0585416903787
 51
385.9414583083991
 73
     1
 72
     2
 10
3807.717258628007
 20
497.933916056143
 40
8.126654054164838
 50
54.41308949502037
 51
90.0
 73
     1
 72
     1
 10
3807.717258628007
 20
506.0605701103083
 11
3781.253308106577
 21
506.0605701103083
 72
     1
 10
3781.253308106577
 20
506.0605701103083
 11
3781.253308106577
 21
489.807262000821
 72
     1
 10
3781.253308106577
 20
489.807262000821
 11
3807.717258628007
 21
489.8072620008215
 97
        0
 75
     0
 76
     1
 98
        1
 10
0.0
 20
0.0
  0
LINE
  5
7A
330
1F
100
AcDbEntity
  8
0
  6
Continuous
 62
     7
370
    25
100
AcDbLine
 10
4305.0
 20
150.0
 30
0.0
 11
4305.0
 21
3000.0
 31
0.0
  0
LINE
  5
7B
330
1F
100
AcDbEntity
  8
0
  6
Continuous
 62
   179
370
    18
100
AcDbLine
 10
3485.9848774669
 20
516.8961088487
 30
0.0
 11
3485.9848774669
 21
457.3006457873
 31
0.0
  0
LINE
  5
7C
330
1F
100
AcDbEntity
  8
0
  6
Continuous
 62
   179
370
    18
100
AcDbLine
 10
3485.9848774669
 20
516.8961088487
 30
0.0
 11
3534.9718663092
 21
516.8961088487
 31
0.0
  0
LINE
  5
7D
330
1F
100
AcDbEntity
  8
0
  6
Continuous
 62
   179
370
    18
100
AcDbLine
 10
3485.9848774669
 20
457.3006457873
 30
0.0
 11
3510.3648396303
 21
457.3006457873
 31
0.0
  0
LINE
  5
7E
330
1F
100
AcDbEntity
  8
0
  6
Continuous
 62
   179
370
    18
100
AcDbLine
 10
3510.3648396303
 20
457.3006457873
 30
0.0
 11
3510.3648396303
 21
478.9717232621
 31
0.0
  0
LINE
  5
7F
330
1F
100
AcDbEntity
  8
0
  6
Continuous
 62
   179
370
    18
100
AcDbLine
 10
3534.9718663087
 20
478.9717232621
 30
0.0
 11
3510.3648396303
 21
478.9717232621
 31
0.0
  0
LINE
  5
80
330
1F
100
AcDbEntity
  8
0
  6
Continuous
 62
   179
370
    18
100
AcDbLine
 10
3510.3648396297
 20
489.8072620013
 30
0.0
 11
3510.3648396297
 21
506.0605701094
 31
0.0
  0
LINE
  5
81
330
1F
100
AcDbEntity
  8
0
  6
Continuous
 62
   179
370
    18
100
AcDbLine
 10
3510.3648396297
 20
506.0605701094
 30
0.0
 11
3529.3858214715
 21
506.0605701094
 31
0.0
  0
LINE
  5
82
330
1F
100
AcDbEntity
  8
0
  6
Continuous
 62
   179
370
    18
100
AcDbLine
 10
3510.3648396297
 20
489.8072620013
 30
0.0
 11
3529.3858214706
 21
489.8072620013
 31
0.0
  0
LINE
  5
83
330
1F
100
AcDbEntity
  8
0
  6
Continuous
 62
   179
370
    18
100
AcDbLine
 10
3572.6691873807
 20
516.8961088463
 30
0.0
 11
3653.9357279222
 21
516.8961088463
 31
0.0
  0
LINE
  5
84
330
1F
100
AcDbEntity
  8
0
  6
Continuous
 62
   179
370
    18
100
AcDbLine
 10
3653.9357279222
 20
516.8961088463
 30
0.0
 11
3653.9357279222
 21
506.0605701064
 31
0.0
  0
LINE
  5
85
330
1F
100
AcDbEntity
  8
0
  6
Continuous
 62
   179
370
    18
100
AcDbLine
 10
3653.9357279222
 20
506.0605701064
 30
0.0
 11
3599.7580342278
 21
506.0605701064
 31
0.0
  0
LINE
  5
86
330
1F
100
AcDbEntity
  8
0
  6
Continuous
 62
   179
370
    18
100
AcDbLine
 10
3599.7580342278
 20
506.0605701064
 30
0.0
 11
3599.7580342278
 21
492.5161466829
 31
0.0
  0
LINE
  5
87
330
1F
100
AcDbEntity
  8
0
  6
Continuous
 62
   179
370
    18
100
AcDbLine
 10
3599.7580342278
 20
492.5161466829
 30
0.0
 11
3648.5179585548
 21
492.5161466829
 31
0.0
  0
LINE
  5
88
330
1F
100
AcDbEntity
  8
0
  6
Continuous
 62
   179
370
    18
100
AcDbLine
 10
3648.5179585548
 20
492.5161466829
 30
0.0
 11
3648.5179585548
 21
481.680607943
 31
0.0
  0
LINE
  5
89
330
1F
100
AcDbEntity
  8
0
  6
Continuous
 62
   179
370
    18
100
AcDbLine
 10
3648.5179585548
 20
481.680607943
 30
0.0
 11
3599.7580342278
 21
481.680607943
 31
0.0
  0
LINE
  5
8A
330
1F
100
AcDbEntity
  8
0
  6
Continuous
 62
   179
370
    18
100
AcDbLine
 10
3599.7580342278
 20
481.680607943
 30
0.0
 11
3599.7580342278
 21
468.1361845195
 31
0.0
  0
LINE
  5
8B
330
1F
100
AcDbEntity
  8
0
  6
Continuous
 62
   179
370
    18
100
AcDbLine
 10
3599.7580342278
 20
468.1361845195
 30
0.0
 11
3653.9357279222
 21
468.1361845195
 31
0.0
  0
LINE
  5
8C
330
1F
100
AcDbEntity
  8
0
  6
Continuous
 62
   179
370
    18
100
AcDbLine
 10
3653.9357279222
 20
468.1361845195
 30
0.0
 11
3653.9357279222
 21
457.3006457848
 31
0.0
  0
LINE
  5
8D
330
1F
100
AcDbEntity
  8
0
  6
Continuous
 62
   179
370
    18
100
AcDbLine
 10
3653.9357279222
 20
457.3006457848
 30
0.0
 11
3572.6691873807
 21
457.3006457848
 31
0.0
  0
LINE
  5
8E
330
1F
100
AcDbEntity
  8
0
  6
Continuous
 62
   179
370
    18
100
AcDbLine
 10
3659.353497295
 20
516.8961088464
 30
0.0
 11
3659.353497295
 21
457.3006457815
 31
0.0
  0
LINE
  5
8F
330
1F
100
AcDbEntity
  8
0
  6
Continuous
 62
   179
370
    18
100
AcDbLine
 10
3659.353497295
 20
516.8961088464
 30
0.0
 11
3708.1072890023
 21
516.8961088464
 31
0.0
  0
LINE
  5
90
330
1F
100
AcDbEntity
  8
0
  6
Continuous
 62
   179
370
    18
100
AcDbLine
 10
3708.1072890026
 20
457.3006457815
 30
0.0
 11
3659.353497295
 21
457.3006457815
 31
0.0
  0
LINE
  5
91
330
1F
100
AcDbEntity
  8
0
  6
Continuous
 62
   179
370
    18
100
AcDbLine
 10
3683.7334594547
 20
487.0983773105
 30
0.0
 11
3683.7334594547
 21
470.8450692033
 31
0.0
  0
LINE
  5
92
330
1F
100
AcDbEntity
  8
0
  6
Continuous
 62
   179
370
    18
100
AcDbLine
 10
3683.7334594547
 20
470.8450692033
 30
0.0
 11
3709.420759152
 21
470.8450692033
 31
0.0
  0
LINE
  5
93
330
1F
100
AcDbEntity
  8
0
  6
Continuous
 62
   179
370
    18
100
AcDbLine
 10
3683.7334594547
 20
487.0983773105
 30
0.0
 11
3683.7334594547
 21
503.351685424
 31
0.0
  0
LINE
  5
94
330
1F
100
AcDbEntity
  8
0
  6
Continuous
 62
   179
370
    18
100
AcDbLine
 10
3683.7334594547
 20
503.351685424
 30
0.0
 11
3709.420759152
 21
503.351685424
 31
0.0
  0
LINE
  5
95
330
1F
100
AcDbEntity
  8
0
  6
Continuous
 62
   179
370
    18
100
AcDbLine
 10
3756.873345944
 20
516.8961088508
 30
0.0
 11
3756.873345944
 21
457.3006457893
 31
0.0
  0
LINE
  5
96
330
1F
100
AcDbEntity
  8
0
  6
Continuous
 62
     7
370
    18
100
AcDbLine
 10
4093.1984921262
 20
420.0000000006
 30
0.0
 11
4093.1984921262
 21
285.0000000003
 31
0.0
  0
LINE
  5
97
330
1F
100
AcDbEntity
  8
0
  6
Continuous
 62
   179
370
    18
100
AcDbLine
 10
3756.873345944
 20
457.3006457893
 30
0.0
 11
3781.2533081074
 21
457.3006457893
 31
0.0
  0
LINE
  5
98
330
1F
100
AcDbEntity
  8
0
  6
Continuous
 62
   179
370
    18
100
AcDbLine
 10
3781.2533081074
 20
457.3006457893
 30
0.0
 11
3781.2533081074
 21
478.9717232638
 31
0.0
  0
LINE
  5
99
330
1F
100
AcDbEntity
  8
0
  6
Continuous
 62
   179
370
    18
100
AcDbLine
 10
3781.2533081074
 20
478.9717232638
 30
0.0
 11
3808.3421549548
 21
478.9717232638
 31
0.0
  0
LINE
  5
9A
330
1F
100
AcDbEntity
  8
0
  6
Continuous
 62
   179
370
    18
100
AcDbLine
 10
3819.1776936947
 20
468.136184524
 30
0.0
 11
3819.1776936947
 21
457.3006457879
 31
0.0
  0
LINE
  5
9B
330
1F
100
AcDbEntity
  8
0
  6
Continuous
 62
   179
370
    18
100
AcDbLine
 10
3781.2533081066
 20
489.8072620008
 30
0.0
 11
3781.2533081066
 21
506.0605701103
 31
0.0
  0
LINE
  5
9C
330
1F
100
AcDbEntity
  8
0
  6
Continuous
 62
   179
370
    18
100
AcDbLine
 10
3781.2533081066
 20
506.0605701103
 30
0.0
 11
3807.717258628
 21
506.0605701103
 31
0.0
  0
LINE
  5
9D
330
1F
100
AcDbEntity
  8
0
  6
Continuous
 62
   179
370
    18
100
AcDbLine
 10
3781.2533081066
 20
489.8072620008
 30
0.0
 11
3807.717258628
 21
489.8072620008
 31
0.0
  0
LINE
  5
9E
330
1F
100
AcDbEntity
  8
0
  6
Continuous
 62
   179
370
    18
100
AcDbLine
 10
3838.3053032889
 20
472.156436938
 30
0.0
 11
3840.5333019761
 21
463.4514816274
 31
0.0
  0
LINE
  5
9F
330
1F
100
AcDbEntity
  8
0
  6
Continuous
 62
     7
370
    25
100
AcDbLine
 10
4305.0
 20
3000.0
 30
0.0
 11
150.0
 21
3000.0
 31
0.0
  0
LINE
  5
A0
330
1F
100
AcDbEntity
  8
0
  6
Continuous
 62
     7
370
    18
100
AcDbLine
 10
4093.1984921262
 20
285.0000000003
 30
0.0
 11
4093.1984921262
 21
150.0
 31
0.0
  0
LINE
  5
A1
330
1F
100
AcDbEntity
  8
0
  6
Continuous
 62
     7
370
    25
100
AcDbLine
 10
150.0
 20
3000.0
 30
0.0
 11
150.0
 21
150.0
 31
0.0
  0
LINE
  5
A2
330
1F
100
AcDbEntity
  8
0
  6
Continuous
 62
     7
370
    25
100
AcDbLine
 10
3225.0
 20
555.0000000009
 30
0.0
 11
4305.0
 21
555.0000000009
 31
0.0
  0
LINE
  5
A3
330
1F
100
AcDbEntity
  8
0
  6
Continuous
 62
    19
370
    18
100
AcDbLine
 10
4192.9326190259
 20
240.4182064643
 30
0.0
 11
4145.1273994681
 21
231.1227471059
 31
0.0
  0
LINE
  5
A4
330
1F
100
AcDbEntity
  8
0
  6
Continuous
 62
    19
370
    18
100
AcDbLine
 10
4232.0258777281
 20
248.2322360861
 30
0.0
 11
4232.0258777281
 21
187.321545177
 31
0.0
  0
LINE
  5
A5
330
1F
100
AcDbEntity
  8
0
  6
Continuous
 62
    19
370
    18
100
AcDbLine
 10
4192.9326190259
 20
240.4182064643
 30
0.0
 11
4192.9326190259
 21
195.1355747988
 31
0.0
  0
LINE
  5
A6
330
1F
100
AcDbEntity
  8
0
  6
Continuous
 62
     7
370
    25
100
AcDbLine
 10
150.0
 20
150.0
 30
0.0
 11
4305.0
 21
150.0
 31
0.0
  0
LINE
  5
A7
330
1F
100
AcDbEntity
  8
0
  6
Continuous
 62
    19
370
    18
100
AcDbLine
 10
4145.1273994681
 20
231.1227471059
 30
0.0
 11
4145.1273994681
 21
204.4310341572
 31
0.0
  0
LINE
  5
A8
330
1F
100
AcDbEntity
  8
0
  6
Continuous
 62
   179
370
    18
100
AcDbLine
 10
3819.1776936947
 20
457.3006457879
 30
0.0
 11
3865.2287333388
 21
457.3006457879
 31
0.0
  0
LINE
  5
A9
330
1F
100
AcDbEntity
  8
0
  6
Continuous
 62
    19
370
    18
100
AcDbLine
 10
4192.9326190259
 20
195.1355747988
 30
0.0
 11
4145.1273994681
 21
204.4310341572
 31
0.0
  0
LINE
  5
AA
330
1F
100
AcDbEntity
  8
0
  6
CENTERX2
 62
    19
370
    18
100
AcDbLine
 10
4258.3810686372
 20
217.7768906315
 30
0.0
 11
4139.1778035964
 21
217.7768906315
 31
0.0
  0
LINE
  5
AB
330
1F
100
AcDbEntity
  8
0
  6
Continuous
 62
   179
370
    18
100
AcDbLine
 10
3756.873345944
 20
516.8961088508
 30
0.0
 11
3813.0288874587
 21
516.8961088508
 31
0.0
  0
LINE
  5
AC
330
1F
100
AcDbEntity
  8
0
  6
Continuous
 62
   179
370
    18
100
AcDbLine
 10
3572.6691873807
 20
516.8961088463
 30
0.0
 11
3572.6691873807
 21
457.3006457848
 31
0.0
  0
LINE
  5
AD
330
1F
100
AcDbEntity
  8
0
  6
Continuous
 62
   179
370
    18
100
AcDbLine
 10
3876.0642720787
 20
516.8961088494
 30
0.0
 11
3903.1531189258
 21
516.8961088494
 31
0.0
  0
LINE
  5
AE
330
1F
100
AcDbEntity
  8
0
  6
Continuous
 62
   179
370
    18
100
AcDbLine
 10
3876.0642720787
 20
516.8961088494
 30
0.0
 11
3841.0614673168
 21
461.8917013713
 31
0.0
  0
LINE
  5
AF
330
1F
100
AcDbEntity
  8
0
  6
Continuous
 62
   179
370
    18
100
AcDbLine
 10
3865.2287333388
 20
457.3006457879
 30
0.0
 11
3871.3237238796
 21
468.1361845226
 31
0.0
  0
LINE
  5
B0
330
1F
100
AcDbEntity
  8
0
  6
Continuous
 62
   179
370
    18
100
AcDbLine
 10
3889.6086955011
 20
500.6428007391
 30
0.0
 11
3901.7986765828
 21
478.9717232594
 31
0.0
  0
LINE
  5
B1
330
1F
100
AcDbEntity
  8
0
  6
Continuous
 62
   179
370
    18
100
AcDbLine
 10
3877.4187144194
 20
478.9717232594
 30
0.0
 11
3889.6086955011
 21
500.6428007391
 31
0.0
  0
LINE
  5
B2
330
1F
100
AcDbEntity
  8
0
  6
Continuous
 62
   179
370
    18
100
AcDbLine
 10
3877.4187144194
 20
478.9717232594
 30
0.0
 11
3901.7986765828
 21
478.9717232594
 31
0.0
  0
LINE
  5
B3
330
1F
100
AcDbEntity
  8
0
  6
Continuous
 62
   179
370
    18
100
AcDbLine
 10
3871.3237238796
 20
468.1361845226
 30
0.0
 11
3907.8936671249
 21
468.1361845226
 31
0.0
  0
LINE
  5
B4
330
1F
100
AcDbEntity
  8
0
  6
Continuous
 62
   179
370
    18
100
AcDbLine
 10
3907.8936671249
 20
468.1361845226
 30
0.0
 11
3913.9886576656
 21
457.3006457879
 31
0.0
  0
LINE
  5
B5
330
1F
100
AcDbEntity
  8
0
  6
Continuous
 62
   179
370
    18
100
AcDbLine
 10
3941.077504513
 20
516.8961088494
 30
0.0
 11
3941.077504513
 21
457.3006457879
 31
0.0
  0
LINE
  5
B6
330
1F
100
AcDbEntity
  8
0
  6
Continuous
 62
   179
370
    18
100
AcDbLine
 10
3903.1531189258
 20
516.8961088494
 30
0.0
 11
3941.077504513
 21
457.3006457879
 31
0.0
  0
LINE
  5
B7
330
1F
100
AcDbEntity
  8
0
  6
Continuous
 62
   179
370
    18
100
AcDbLine
 10
3913.9886576656
 20
457.3006457879
 30
0.0
 11
3941.077504513
 21
457.3006457879
 31
0.0
  0
LINE
  5
B8
330
1F
100
AcDbEntity
  8
0
  6
Continuous
 62
   179
370
    18
100
AcDbLine
 10
3941.077504513
 20
457.3006457879
 30
0.0
 11
4014.2173910035
 21
457.3006457879
 31
0.0
  0
LINE
  5
B9
330
1F
100
AcDbEntity
  8
0
  6
Continuous
 62
   179
370
    18
100
AcDbLine
 10
4014.2173910035
 20
457.3006457879
 30
0.0
 11
4014.2173910035
 21
470.8450692114
 31
0.0
  0
LINE
  5
BA
330
1F
100
AcDbEntity
  8
0
  6
Continuous
 62
   179
370
    18
100
AcDbLine
 10
4014.2173910035
 20
470.8450692114
 30
0.0
 11
3968.1663513601
 21
470.8450692114
 31
0.0
  0
LINE
  5
BB
330
1F
100
AcDbEntity
  8
0
  6
Continuous
 62
   179
370
    18
100
AcDbLine
 10
3968.1663513601
 20
470.8450692114
 30
0.0
 11
3968.1663513601
 21
516.8961088494
 31
0.0
  0
LINE
  5
BC
330
1F
100
AcDbEntity
  8
0
  6
Continuous
 62
   179
370
    18
100
AcDbLine
 10
3941.077504513
 20
516.8961088494
 30
0.0
 11
3968.1663513601
 21
516.8961088494
 31
0.0
  0
LINE
  5
BD
330
1F
100
AcDbEntity
  8
0
  6
Continuous
 62
   179
370
    18
100
AcDbLine
 10
4016.926275686
 20
516.8961088487
 30
0.0
 11
4016.926275686
 21
457.3006457873
 31
0.0
  0
LINE
  5
BE
330
1F
100
AcDbEntity
  8
0
  6
Continuous
 62
   179
370
    18
100
AcDbLine
 10
4044.0151225331
 20
516.8961088487
 30
0.0
 11
4044.0151225331
 21
457.3006457873
 31
0.0
  0
LINE
  5
BF
330
1F
100
AcDbEntity
  8
0
  6
Continuous
 62
   179
370
    18
100
AcDbLine
 10
4016.926275686
 20
516.8961088487
 30
0.0
 11
4044.0151225331
 21
516.8961088487
 31
0.0
  0
LINE
  5
C0
330
1F
100
AcDbEntity
  8
0
  6
Continuous
 62
   179
370
    18
100
AcDbLine
 10
4016.926275686
 20
457.3006457873
 30
0.0
 11
4044.0151225331
 21
457.3006457873
 31
0.0
  0
LINE
  5
C1
330
1F
100
AcDbEntity
  8
0
  6
Continuous
 62
   179
370
    18
100
AcDbLine
 10
4056.1727466361
 20
511.9395831343
 30
0.0
 11
4062.4300319759
 21
511.9395831343
 31
0.0
  0
LINE
  5
C2
330
1F
100
AcDbEntity
  8
0
  6
Continuous
 62
   179
370
    18
100
AcDbLine
 10
4062.4300319759
 20
507.8762561058
 30
0.0
 11
4056.1727466361
 21
507.8762561058
 31
0.0
  0
LINE
  5
C3
330
1F
100
AcDbEntity
  8
0
  6
Continuous
 62
   179
370
    18
100
AcDbLine
 10
4056.1727466361
 20
507.8762561058
 30
0.0
 11
4056.1727466361
 21
511.9395831343
 31
0.0
  0
LINE
  5
C4
330
1F
100
AcDbEntity
  8
0
  6
Continuous
 62
   179
370
    18
100
AcDbLine
 10
4056.1727466361
 20
507.8762561058
 30
0.0
 11
4060.2360736616
 21
507.8762561058
 31
0.0
  0
LINE
  5
C5
330
1F
100
AcDbEntity
  8
0
  6
Continuous
 62
   179
370
    18
100
AcDbLine
 10
4056.1727466361
 20
507.8762561058
 30
0.0
 11
4056.1727466361
 21
501.7812655676
 31
0.0
  0
LINE
  5
C6
330
1F
100
AcDbEntity
  8
0
  6
Continuous
 62
   179
370
    18
100
AcDbLine
 10
4064.2994006871
 20
501.7812655676
 30
0.0
 11
4060.2360736616
 21
507.8762561058
 31
0.0
  0
LINE
  5
C7
330
1F
100
AcDbEntity
  8
0
  6
Continuous
 62
     7
370
    18
100
AcDbLine
 10
3225.0
 20
285.0000000003
 30
0.0
 11
4305.0
 21
285.0000000003
 31
0.0
  0
LINE
  5
C8
330
1F
100
AcDbEntity
  8
0
  6
Continuous
 62
     7
370
    18
100
AcDbLine
 10
4305.0
 20
420.0000000006
 30
0.0
 11
3225.0
 21
420.0000000006
 31
0.0
  0
LINE
  5
C9
330
1F
100
AcDbEntity
  8
0
  6
Continuous
 62
     7
370
    18
100
AcDbLine
 10
150.0
 20
825.0
 30
0.0
 11
150.0
 21
975.0
 31
0.0
  0
LINE
  5
CA
330
1F
100
AcDbEntity
  8
0
  6
Continuous
 62
     7
370
    18
100
AcDbLine
 10
150.0
 20
975.0
 30
0.0
 11
150.0
 21
1125.0
 31
0.0
  0
LINE
  5
CB
330
1F
100
AcDbEntity
  8
0
  6
Continuous
 62
     7
370
    18
100
AcDbLine
 10
150.0
 20
1125.0
 30
0.0
 11
150.0
 21
1275.0
 31
0.0
  0
LINE
  5
CC
330
1F
100
AcDbEntity
  8
0
  6
Continuous
 62
     7
370
    18
100
AcDbLine
 10
150.0
 20
1275.0
 30
0.0
 11
150.0
 21
1425.0
 31
0.0
  0
LINE
  5
CD
330
1F
100
AcDbEntity
  8
0
  6
Continuous
 62
     7
370
    18
100
AcDbLine
 10
150.0
 20
1425.0
 30
0.0
 11
150.0
 21
1575.0
 31
0.0
  0
LINE
  5
CE
330
1F
100
AcDbEntity
  8
0
  6
Continuous
 62
     7
370
    18
100
AcDbLine
 10
150.0
 20
1575.0
 30
0.0
 11
150.0
 21
1725.0
 31
0.0
  0
LINE
  5
CF
330
1F
100
AcDbEntity
  8
0
  6
Continuous
 62
     7
370
    18
100
AcDbLine
 10
150.0
 20
1725.0
 30
0.0
 11
150.0
 21
1875.0
 31
0.0
  0
LINE
  5
D0
330
1F
100
AcDbEntity
  8
0
  6
Continuous
 62
     7
370
    18
100
AcDbLine
 10
150.0
 20
1875.0
 30
0.0
 11
150.0
 21
2025.0
 31
0.0
  0
LINE
  5
D1
330
1F
100
AcDbEntity
  8
0
  6
Continuous
 62
     7
370
    18
100
AcDbLine
 10
150.0
 20
2025.0
 30
0.0
 11
150.0
 21
2175.0
 31
0.0
  0
LINE
  5
D2
330
1F
100
AcDbEntity
  8
0
  6
Continuous
 62
     7
370
    18
100
AcDbLine
 10
150.0
 20
2175.0
 30
0.0
 11
150.0
 21
2325.0
 31
0.0
  0
LINE
  5
D3
330
1F
100
AcDbEntity
  8
0
  6
Continuous
 62
     7
370
    25
100
AcDbLine
 10
3225.0
 20
555.0000000009
 30
0.0
 11
3225.0
 21
150.0
 31
0.0
  0
ARC
  5
D4
330
1F
100
AcDbEntity
  8
0
  6
Continuous
 62
   179
370
    18
100
AcDbCircle
 10
3529.3858214715
 20
495.2250313732
 30
0.0
 40
10.83553873622431
100
AcDbArc
 50
69.991210111
 51
90.0
  0
ARC
  5
D5
330
1F
100
AcDbEntity
  8
0
  6
Continuous
 62
   179
370
    18
100
AcDbCircle
 10
3529.3858214706
 20
500.6428007401
 30
0.0
 40
10.83553873881613
100
AcDbArc
 50
270.0
 51
290.0087898887
  0
ARC
  5
D6
330
1F
100
AcDbEntity
  8
0
  6
Continuous
 62
   179
370
    18
100
AcDbCircle
 10
3709.420759152
 20
487.0983773133
 30
0.0
 40
16.25330811077811
100
AcDbArc
 50
56.1685552524
 51
90.0
  0
ARC
  5
D7
330
1F
100
AcDbEntity
  8
0
  6
Continuous
 62
   179
370
    18
100
AcDbCircle
 10
3709.420759152
 20
487.0983773133
 30
0.0
 40
16.2533081099705
100
AcDbArc
 50
270.0
 51
303.830934914
  0
ARC
  5
D8
330
1F
100
AcDbEntity
  8
0
  6
Continuous
 62
   179
370
    18
100
AcDbCircle
 10
3808.3421549548
 20
468.136184524
 30
0.0
 40
10.83553873986693
100
AcDbArc
 50
0.0
 51
90.0
  0
ARC
  5
D9
330
1F
100
AcDbEntity
  8
0
  6
Continuous
 62
   179
370
    18
100
AcDbCircle
 10
3807.717258628
 20
497.9339160561
 30
0.0
 40
8.126654054165272
100
AcDbArc
 50
54.413089495
 51
90.0
  0
ARC
  5
DA
330
1F
100
AcDbEntity
  8
0
  6
Continuous
 62
   179
370
    18
100
AcDbCircle
 10
3807.717258628
 20
497.9339160561
 30
0.0
 40
8.126654055322035
100
AcDbArc
 50
270.0
 51
305.5869104966
  0
ARC
  5
DB
330
1F
100
AcDbEntity
  8
0
  6
Continuous
 62
   179
370
    18
100
AcDbCircle
 10
3823.5563773944
 20
469.4441941063
 30
0.0
 40
14.99623540163448
100
AcDbArc
 50
10.4199484279
 51
80.7321727594
  0
ARC
  5
DC
330
1F
100
AcDbEntity
  8
0
  6
Continuous
 62
   179
370
    18
100
AcDbCircle
 10
3848.1803499564
 20
465.1715759511
 30
0.0
 40
7.838116310390694
100
AcDbArc
 50
192.6768785101
 51
204.7368873207
  0
CIRCLE
  5
DD
330
1F
100
AcDbEntity
  8
0
  6
Continuous
 62
   179
370
    18
100
AcDbCircle
 10
4059.4296312926
 20
506.8013546003
 30
0.0
 40
8.8951532178462
  0
CIRCLE
  5
DE
330
1F
100
AcDbEntity
  8
0
  6
Continuous
 62
    19
370
    18
100
AcDbCircle
 10
4232.0258777281
 20
217.7768906315
 30
0.0
 40
12.88061814414652
  0
CIRCLE
  5
DF
330
1F
100
AcDbEntity
  8
0
  6
Continuous
 62
    19
370
    18
100
AcDbCircle
 10
4232.0258777281
 20
217.7768906315
 30
0.0
 40
25.16390372495578
  0
ELLIPSE
  5
E0
330
1F
100
AcDbEntity
  8
0
  6
Continuous
 62
   179
370
    18
100
AcDbEllipse
 10
3525.2637053955
 20
497.9339160554
 30
0.0
 11
14.89886576646222
 21
0.0
 31
0.0
210
0.0
220
0.0
230
1.0
 40
0.5895245511
 41
5.265715075739372
 42
7.300655538615912
  0
ELLIPSE
  5
E1
330
1F
100
AcDbEntity
  8
0
  6
Continuous
 62
   179
370
    18
100
AcDbEllipse
 10
3693.2145558564
 20
487.0983773139
 30
0.0
 11
33.86105856006907
 21
0.0
 31
0.0
210
0.0
220
0.0
230
1.0
 40
0.5985848325
 41
5.554193105221739
 42
7.01217218274472
  0
ELLIPSE
  5
E2
330
1F
100
AcDbEntity
  8
0
  6
Continuous
 62
   179
370
    18
100
AcDbEllipse
 10
3798.8610585616
 20
497.9339160554
 30
0.0
 11
17.60775045122637
 21
0.0
 31
0.0
210
0.0
220
0.0
230
1.0
 40
0.5900077182
 41
5.593675727225946
 42
6.972694887106603
  0
ELLIPSE
  5
E3
330
1F
100
AcDbEntity
  8
0
  6
Continuous
 62
   179
370
    18
100
AcDbEllipse
 10
3807.0449215604
 20
499.4046031234
 30
0.0
 11
36.4899993380277
 21
0.0
 31
0.0
210
0.0
220
0.0
230
1.0
 40
0.485929116
 41
5.257694056962845
 42
7.689248379254997
  0
ELLIPSE
  5
E4
330
1F
100
AcDbEntity
  8
0
  6
Continuous
 62
   179
370
    18
100
AcDbEllipse
 10
3702.6956522476
 20
487.0983773139
 30
0.0
 11
43.34215495673379
 21
0.0
 31
0.0
210
0.0
220
0.0
230
1.0
 40
0.6929224243
 41
4.837574201223028
 42
7.728796413142616
  0
ELLIPSE
  5
E5
330
1F
100
AcDbEntity
  8
0
  6
Continuous
 62
   179
370
    18
100
AcDbEllipse
 10
3526.6181477356
 20
497.9339160554
 30
0.0
 11
40.63327027197511
 21
0.0
 31
0.0
210
0.0
220
0.0
230
1.0
 40
0.4768529109
 41
4.919453630382234
 42
7.646916983963976
  0
ELLIPSE
  5
E6
330
1F
100
AcDbEntity
  8
0
  6
Continuous
 62
   179
370
    18
100
AcDbEllipse
 10
4062.064122662
 20
509.90791962
 30
0.0
 11
2.235278033911982
 21
0.0
 31
0.0
210
0.0
220
0.0
230
1.0
 40
0.9213369296
 41
4.876826485633795
 42
7.689544128725418
  0
MTEXT
  5
E8
330
1F
100
AcDbEntity
  8
0
  6
Continuous
 62
     7
370
     0
100
AcDbMText
 10
3347.1674181705
 20
248.4569886556
 30
0.0
 40
55.5625
 41
0.0
 71
     1
 72
     1
  1
BLTD_89X30
  7
SLDTEXTSTYLE0
 73
     1
 44
1.0
  0
MTEXT
  5
E9
330
1F
100
AcDbEntity
  8
0
  6
Continuous
 62
     7
370
     0
100
AcDbMText
 10
3238.3268981734
 20
219.580700246
 30
0.0
 40
27.0
 41
0.0
 71
     1
 72
     1
  1
COD.
  7
SLDTEXTSTYLE0
 73
     1
 44
1.0
  0
MTEXT
  5
EA
330
1F
100
AcDbEntity
  8
0
  6
Continuous
 62
     7
370
     0
100
AcDbMText
 10
160.6282767702
 20
112.0822758273
 30
0.0
 40
27.0
 41
0.0
 71
     1
 72
     1
  1
This document is the property of PEDRALI S.p.A. who willsafeguard its rights according to the civil and penal prevision of the Law.
  7
SLDTEXTSTYLE0
 73
     1
 44
1.0
  0
MTEXT
  5
EB
330
1F
100
AcDbEntity
  8
0
  6
Continuous
 62
     7
370
     0
100
AcDbMText
 10
2161.2908979918
 20
115.1768387873
 30
0.0
 40
27.0
 41
0.0
 71
     1
 72
     1
  1
Questo disegno è posto sotto la tutela delle vigenti Leggi e non puo essere utilizzato da terze persone se non previa autorizzazione scritta della PEDRALI S.p.A.
  7
SLDTEXTSTYLE0
 73
     1
 44
1.0
  0
MTEXT
  5
EC
330
1F
100
AcDbEntity
  8
0
  6
Continuous
 62
     7
370
     0
100
AcDbMText
 10
3238.3268981734
 20
351.4653149456
 30
0.0
 40
27.0
 41
0.0
 71
     1
 72
     1
  1
SERIE:
  7
SLDTEXTSTYLE0
 73
     1
 44
1.0
  0
MTEXT
  5
ED
330
1F
100
AcDbEntity
  8
0
  6
Continuous
 62
     7
370
     0
100
AcDbMText
 10
3347.1674181705
 20
380.3416033552
 30
0.0
 40
55.5625
 41
0.0
 71
     1
 72
     1
  1
BLUME
  7
SLDTEXTSTYLE0
 73
     1
 44
1.0
  0
INSERT
  5
F3
330
1F
100
AcDbEntity
  8
0
  6
Continuous
 62
     7
370
     0
100
AcDbBlockReference
  2
SW_NOTE_0
 10
4150.4824592931
 20
363.9948192571
 30
0.0
  0
ARC
  5
F4
330
1F
100
AcDbEntity
  8
0
  6
Continuous
 62
     7
370
    25
100
AcDbCircle
 10
1465.6538274291
 20
2196.3506106858
 30
0.0
 40
10.00000000000009
100
AcDbArc
 50
89.9990872733
 51
154.8792698746
  0
ARC
  5
F5
330
1F
100
AcDbEntity
  8
0
  6
Continuous
 62
     7
370
    25
100
AcDbCircle
 10
1465.6538274291
 20
2196.3506106858
 30
0.0
 40
10.00000000000009
100
AcDbArc
 50
36.1328408098
 51
89.9990872733
  0
LINE
  5
F6
330
1F
100
AcDbEntity
  8
0
  6
Continuous
 62
     7
370
    25
100
AcDbLine
 10
1458.3168155692
 20
2201.5005496914
 30
0.0
 11
1458.3168155692
 21
1916.3506106858
 31
0.0
  0
LINE
  5
F7
330
1F
100
AcDbEntity
  8
0
  6
Continuous
 62
     7
370
    25
100
AcDbLine
 10
1474.3737213152
 20
1916.3506106858
 30
0.0
 11
1474.3737213152
 21
2199.9907272629
 31
0.0
  0
LINE
  5
F8
330
1F
100
AcDbEntity
  8
0
  6
Continuous
 62
     7
370
    25
100
AcDbLine
 10
1456.4262611977
 20
2200.0842981601
 30
0.0
 11
1456.4262611977
 21
1916.3506106858
 31
0.0
  0
LINE
  5
F9
330
1F
100
AcDbEntity
  8
0
  6
Continuous
 62
     7
370
    25
100
AcDbLine
 10
1475.0146185265
 20
1916.3506106858
 30
0.0
 11
1475.0146185265
 21
2156.3506106901
 31
0.0
  0
LINE
  5
FA
330
1F
100
AcDbEntity
  8
0
  6
Continuous
 62
     7
370
    25
100
AcDbLine
 10
1475.0146185265
 20
2191.3506106901
 30
0.0
 11
1475.0146185265
 21
2198.9247752687
 31
0.0
  0
ARC
  5
FB
330
1F
100
AcDbEntity
  8
0
  6
Continuous
 62
     7
370
    25
100
AcDbCircle
 10
2108.6668771165
 20
2196.3506106858
 30
0.0
 40
10.00000000000009
100
AcDbArc
 50
89.9990872733
 51
143.7290780521
  0
ARC
  5
FC
330
1F
100
AcDbEntity
  8
0
  6
Continuous
 62
     7
370
    25
100
AcDbCircle
 10
2108.6668771165
 20
2196.3506106858
 30
0.0
 40
10.00000000000009
100
AcDbArc
 50
25.0665689335
 51
89.9990872733
  0
LINE
  5
FD
330
1F
100
AcDbEntity
  8
0
  6
Continuous
 62
     7
370
    25
100
AcDbLine
 10
2116.0038889764
 20
1916.3506106858
 30
0.0
 11
2116.0038889764
 21
2201.5017221709
 31
0.0
  0
LINE
  5
FE
330
1F
100
AcDbEntity
  8
0
  6
Continuous
 62
     7
370
    25
100
AcDbLine
 10
2099.9469832304
 20
2199.9870506707
 30
0.0
 11
2099.9469832304
 21
1916.3506106858
 31
0.0
  0
LINE
  5
FF
330
1F
100
AcDbEntity
  8
0
  6
Continuous
 62
     7
370
    25
100
AcDbLine
 10
2117.8944433479
 20
1916.3506106858
 30
0.0
 11
2117.8944433479
 21
2200.0892580538
 31
0.0
  0
LINE
  5
100
330
1F
100
AcDbEntity
  8
0
  6
Continuous
 62
     7
370
    25
100
AcDbLine
 10
2099.3060860191
 20
2198.9189645879
 30
0.0
 11
2099.3060860191
 21
2191.3506106901
 31
0.0
  0
LINE
  5
101
330
1F
100
AcDbEntity
  8
0
  6
Continuous
 62
     7
370
    25
100
AcDbLine
 10
2099.3060860191
 20
2156.3506106901
 30
0.0
 11
2099.3060860191
 21
1916.3506106858
 31
0.0
  0
LINE
  5
102
330
1F
100
AcDbEntity
  8
0
  6
Continuous
 62
     7
370
    25
100
AcDbLine
 10
1475.3847846314
 20
1913.3506106858
 30
0.0
 11
1475.3847846314
 21
1916.3506106858
 31
0.0
  0
LINE
  5
103
330
1F
100
AcDbEntity
  8
0
  6
Continuous
 62
     7
370
    25
100
AcDbLine
 10
1456.3847846314
 20
1916.3506106858
 30
0.0
 11
1456.3847846314
 21
1913.3506106858
 31
0.0
  0
ARC
  5
104
330
1F
100
AcDbEntity
  8
0
  6
Continuous
 62
     7
370
    25
100
AcDbCircle
 10
1461.3847846314
 20
1913.3506106858
 30
0.0
 40
5.000000000000227
100
AcDbArc
 50
180.0
 51
270.0
  0
ARC
  5
105
330
1F
100
AcDbEntity
  8
0
  6
Continuous
 62
     7
370
    25
100
AcDbCircle
 10
1470.3847846314
 20
1913.3506106858
 30
0.0
 40
5.0
100
AcDbArc
 50
270.0
 51
0.0
  0
ARC
  5
106
330
1F
100
AcDbEntity
  8
0
  6
Continuous
 62
     7
370
    25
100
AcDbCircle
 10
2103.9359199142
 20
1913.3506106858
 30
0.0
 40
5.000000000000455
100
AcDbArc
 50
180.0
 51
270.0
  0
ARC
  5
107
330
1F
100
AcDbEntity
  8
0
  6
Continuous
 62
     7
370
    25
100
AcDbCircle
 10
2112.9359199142
 20
1913.3506106858
 30
0.0
 40
5.000000000000455
100
AcDbArc
 50
270.0
 51
360.0
  0
LINE
  5
108
330
1F
100
AcDbEntity
  8
0
  6
Continuous
 62
     7
370
    25
100
AcDbLine
 10
2117.9359199142
 20
1913.3506106858
 30
0.0
 11
2117.9359199142
 21
1916.3506106858
 31
0.0
  0
LINE
  5
109
330
1F
100
AcDbEntity
  8
0
  6
Continuous
 62
     7
370
    25
100
AcDbLine
 10
2098.9359199142
 20
1916.3506106858
 30
0.0
 11
2098.9359199142
 21
1913.3506106858
 31
0.0
  0
LINE
  5
10A
330
1F
100
AcDbEntity
  8
0
  6
Continuous
 62
     7
370
    25
100
AcDbLine
 10
2232.1603522728
 20
2191.3506106901
 30
0.0
 11
2232.1603522728
 21
2201.3506106901
 31
0.0
  0
LINE
  5
10B
330
1F
100
AcDbEntity
  8
0
  6
Continuous
 62
     7
370
    25
100
AcDbLine
 10
1342.1603522728
 20
2201.3506106901
 30
0.0
 11
1342.1603522728
 21
2191.3506106901
 31
0.0
  0
LINE
  5
10C
330
1F
100
AcDbEntity
  8
0
  6
Continuous
 62
     7
370
    25
100
AcDbLine
 10
1475.0120350585
 20
2191.3506106901
 30
0.0
 11
1476.0532317277
 21
2191.3506106901
 31
0.0
  0
LINE
  5
10D
330
1F
100
AcDbEntity
  8
0
  6
Continuous
 62
     7
370
    25
100
AcDbLine
 10
1475.0120350585
 20
2156.3506106901
 30
0.0
 11
1787.1603522728
 21
2156.3506106901
 31
0.0
  0
LINE
  5
10E
330
1F
100
AcDbEntity
  8
0
  6
Continuous
 62
     7
370
    25
100
AcDbLine
 10
2099.3086694871
 20
2156.3506106901
 30
0.0
 11
1787.1603522728
 21
2156.3506106901
 31
0.0
  0
LINE
  5
10F
330
1F
100
AcDbEntity
  8
0
  6
Continuous
 62
     7
370
    25
100
AcDbLine
 10
2099.3086694871
 20
2191.3506106901
 30
0.0
 11
2098.2674728179
 21
2191.3506106901
 31
0.0
  0
SPLINE
  5
110
330
1F
100
AcDbEntity
  8
0
  6
Continuous
 62
     7
370
    25
100
AcDbSpline
210
0.0
220
0.0
230
1.0
 70
     8
 71
     3
 72
    33
 73
    29
 74
     0
 42
0.000000001
 43
0.00000001
 40
0.0
 40
0.0
 40
0.0
 40
0.0
 40
0.0441213647301394
 40
0.0885643240892611
 40
0.1339549310956352
 40
0.1796485529093141
 40
0.224487408255581
 40
0.2696160366855456
 40
0.3157575130293477
 40
0.3623227711932858
 40
0.3904545578735287
 40
0.4187956069174102
 40
0.4469628201082571
 40
0.4757844533845252
 40
0.4937613087931026
 40
0.5122052114429438
 40
0.5302047120128255
 40
0.5487727969964334
 40
0.5721373294163029
 40
0.5961490192902752
 40
0.6384785624500882
 40
0.6818249414599913
 40
0.722125244269745
 40
0.7627269998852038
 40
0.8041331317540644
 40
0.8457735509867595
 40
0.9221430649462421
 40
1.0
 40
1.0
 40
1.0
 40
1.0
 10
1470.238801975953
 20
2202.989254982093
 30
0.0
 10
1470.346291282223
 20
2202.870655643692
 30
0.0
 10
1470.562053369702
 20
2202.632592512437
 30
0.0
 10
1470.898507182946
 20
2202.264515586805
 30
0.0
 10
1471.241862046151
 20
2201.888510949989
 30
0.0
 10
1471.587196007124
 20
2201.50897828056
 30
0.0
 10
1471.930055243651
 20
2201.130164017957
 30
0.0
 10
1472.270448260578
 20
2200.752668909276
 30
0.0
 10
1472.610067834437
 20
2200.376928592718
 30
0.0
 10
1472.902765472276
 20
2200.058690319767
 30
0.0
 10
1473.148675927661
 20
2199.80253118325
 30
0.0
 10
1473.348538759698
 20
2199.606401188663
 30
0.0
 10
1473.547379396233
 20
2199.431246492525
 30
0.0
 10
1473.718386488669
 20
2199.309376669719
 30
0.0
 10
1473.860050453312
 20
2199.240421399154
 30
0.0
 10
1473.9704941318
 20
2199.213173670453
 30
0.0
 10
1474.070208749132
 20
2199.220230868224
 30
0.0
 10
1474.162520026413
 20
2199.264561792696
 30
0.0
 10
1474.242315139608
 20
2199.352190142815
 30
0.0
 10
1474.320025161078
 20
2199.513501616661
 30
0.0
 10
1474.370685606629
 20
2199.758317711345
 30
0.0
 10
1474.378733452799
 20
2200.073560293024
 30
0.0
 10
1474.34690620213
 20
2200.402281332658
 30
0.0
 10
1474.281685053696
 20
2200.735552071551
 30
0.0
 10
1474.183714548851
 20
2201.078029154026
 30
0.0
 10
1474.016473381407
 20
2201.52264142659
 30
0.0
 10
1473.748921117689
 20
2202.071328801821
 30
0.0
 10
1473.453975019472
 20
2202.493617491196
 30
0.0
 10
1473.305079681739
 20
2202.706798195757
 30
0.0
  0
SPLINE
  5
111
330
1F
100
AcDbEntity
  8
0
  6
Continuous
 62
     7
370
    25
100
AcDbSpline
210
0.0
220
0.0
230
1.0
 70
     8
 71
     3
 72
    14
 73
    10
 74
     0
 42
0.000000001
 43
0.00000001
 40
0.0
 40
0.0
 40
0.0
 40
0.0
 40
0.2204300636816988
 40
0.3399443732550574
 40
0.4603671101702858
 40
0.5640212293774901
 40
0.6631726788870316
 40
0.8102691653343836
 40
1.0
 40
1.0
 40
1.0
 40
1.0
 10
1469.526805030478
 20
2203.029467606847
 30
0.0
 10
1469.533745970428
 20
2203.085815519474
 30
0.0
 10
1469.544450197617
 20
2203.172714536432
 30
0.0
 10
1469.62701153639
 20
2203.250066050794
 30
0.0
 10
1469.721169410185
 20
2203.276338695697
 30
0.0
 10
1469.831168034413
 20
2203.263768473158
 30
0.0
 10
1469.954196720345
 20
2203.218363340744
 30
0.0
 10
1470.100141368423
 20
2203.128900113899
 30
0.0
 10
1470.188839417187
 20
2203.039572287264
 30
0.0
 10
1470.238801975953
 20
2202.989254982093
 30
0.0
  0
SPLINE
  5
112
330
1F
100
AcDbEntity
  8
0
  6
Continuous
 62
     7
370
    25
100
AcDbSpline
210
0.0
220
0.0
230
1.0
 70
     8
 71
     3
 72
    32
 73
    28
 74
     0
 42
0.000000001
 43
0.00000001
 40
0.0
 40
0.0
 40
0.0
 40
0.0
 40
0.04303019069615
 40
0.0863703585232775
 40
0.1306473267282188
 40
0.175234069803989
 40
0.2184985703256597
 40
0.2620710116748347
 40
0.3067590161673154
 40
0.3519305753622379
 40
0.3854008499168465
 40
0.4193042262219284
 40
0.4528401599354623
 40
0.4875658065129543
 40
0.5106252861551488
 40
0.5343668716440366
 40
0.5574221930535548
 40
0.58102449189021
 40
0.6175995456730489
 40
0.6551634288326402
 40
0.7176981382171197
 40
0.7818686090749084
 40
0.8252522659086645
 40
0.8689465762027663
 40
0.9135854729028721
 40
0.9585418566971372
 40
0.9999999999999999
 40
0.9999999999999999
 40
0.9999999999999999
 40
0.9999999999999999
 10
1463.799711252373
 20
2203.246306802515
 30
0.0
 10
1463.829440431151
 20
2203.141851465806
 30
0.0
 10
1463.889112949171
 20
2202.932188326151
 30
0.0
 10
1464.024193156998
 20
2202.609204447152
 30
0.0
 10
1464.191818230738
 20
2202.280326897492
 30
0.0
 10
1464.392462298789
 20
2201.951049852658
 30
0.0
 10
1464.622566749496
 20
2201.625476452286
 30
0.0
 10
1464.882978670181
 20
2201.304398880828
 30
0.0
 10
1465.178791765544
 20
2200.987729971856
 30
0.0
 10
1465.483983010549
 20
2200.709493774486
 30
0.0
 10
1465.79052738547
 20
2200.475586671206
 30
0.0
 10
1466.089263056452
 20
2200.288868818694
 30
0.0
 10
1466.417336493633
 20
2200.135345552885
 30
0.0
 10
1466.73252423615
 20
2200.046306878804
 30
0.0
 10
1467.020890242901
 20
2200.016799200107
 30
0.0
 10
1467.266198886545
 20
2200.029068937484
 30
0.0
 10
1467.504072943656
 20
2200.077732209226
 30
0.0
 10
1467.768612963355
 20
2200.171749111096
 30
0.0
 10
1468.050580332422
 20
2200.325680968174
 30
0.0
 10
1468.395444892289
 20
2200.588587186797
 30
0.0
 10
1468.74024830373
 20
2200.952985759786
 30
0.0
 10
1469.020253964602
 20
2201.359266600668
 30
0.0
 10
1469.216613873982
 20
2201.730628923158
 30
0.0
 10
1469.351649196799
 20
2202.057875717463
 30
0.0
 10
1469.450416987839
 20
2202.390033497139
 30
0.0
 10
1469.512607018992
 20
2202.715815469905
 30
0.0
 10
1469.52220183268
 20
2202.927777111138
 30
0.0
 10
1469.526805030478
 20
2203.029467606847
 30
0.0
  0
SPLINE
  5
113
330
1F
100
AcDbEntity
  8
0
  6
Continuous
 62
     7
370
    25
100
AcDbSpline
210
0.0
220
0.0
230
1.0
 70
     8
 71
     3
 72
    14
 73
    10
 74
     0
 42
0.000000001
 43
0.00000001
 40
0.0
 40
0.0
 40
0.0
 40
0.0
 40
0.2240635092469244
 40
0.3487071205323953
 40
0.4742528072797485
 40
0.5825492860624368
 40
0.6866084231149968
 40
0.8379727149431455
 40
1.0
 40
1.0
 40
1.0
 40
1.0
 10
1463.006014735046
 20
2203.263566562477
 30
0.0
 10
1463.061991025312
 20
2203.318440183701
 30
0.0
 10
1463.149106196642
 20
2203.403839285564
 30
0.0
 10
1463.314457179339
 20
2203.47972521488
 30
0.0
 10
1463.44958212342
 20
2203.505469933836
 30
0.0
 10
1463.568666806109
 20
2203.492693103536
 30
0.0
 10
1463.673138188865
 20
2203.447319609754
 30
0.0
 10
1463.758353099919
 20
2203.365146315181
 30
0.0
 10
1463.785615999337
 20
2203.286808442514
 30
0.0
 10
1463.799711252373
 20
2203.246306802515
 30
0.0
  0
SPLINE
  5
114
330
1F
100
AcDbEntity
  8
0
  6
Continuous
 62
     7
370
    25
100
AcDbSpline
210
0.0
220
0.0
230
1.0
 70
     8
 71
     3
 72
    31
 73
    27
 74
     0
 42
0.000000001
 43
0.00000001
 40
0.0
 40
0.0
 40
0.0
 40
0.0
 40
0.0425768439200429
 40
0.0854562266634123
 40
0.1292655212993072
 40
0.1733896051365689
 40
0.2448927928827771
 40
0.2814175395970753
 40
0.3182118727426325
 40
0.3578509173303936
 40
0.3981484105825024
 40
0.4288224096626796
 40
0.4602420416076471
 40
0.4856042083258822
 40
0.511693631532696
 40
0.53706169437929
 40
0.5630949909788314
 40
0.5995472643023673
 40
0.6370102149324158
 40
0.6959998903666295
 40
0.7565561265103005
 40
0.7981804952569076
 40
0.8401079728424126
 40
0.8829363933459037
 40
0.9260588511262537
 40
1.0
 40
1.0
 40
1.0
 40
1.0
 10
1458.930723310958
 20
2203.263566562477
 30
0.0
 10
1458.866062590902
 20
2203.163907287904
 30
0.0
 10
1458.736281690288
 20
2202.96388058858
 30
0.0
 10
1458.582125037224
 20
2202.656973488018
 30
0.0
 10
1458.458606256559
 20
2202.345449290216
 30
0.0
 10
1458.352983746535
 20
2201.966876272067
 30
0.0
 10
1458.308984635514
 20
2201.610304335982
 30
0.0
 10
1458.322791088406
 20
2201.284532219948
 30
0.0
 10
1458.365282221318
 20
2201.041103634708
 30
0.0
 10
1458.446806910894
 20
2200.806805667393
 30
0.0
 10
1458.566639697302
 20
2200.611209864821
 30
0.0
 10
1458.717844005954
 20
2200.464658661285
 30
0.0
 10
1458.879965770573
 20
2200.375227028757
 30
0.0
 10
1459.061708215688
 20
2200.331186800561
 30
0.0
 10
1459.250863733701
 20
2200.329040061566
 30
0.0
 10
1459.456660506925
 20
2200.366198273668
 30
0.0
 10
1459.699836277351
 20
2200.448018163493
 30
0.0
 10
1459.982344305756
 20
2200.585702231302
 30
0.0
 10
1460.356390697358
 20
2200.816465774208
 30
0.0
 10
1460.790683885452
 20
2201.137238725967
 30
0.0
 10
1461.222408548464
 20
2201.497406448533
 30
0.0
 10
1461.596467729
 20
2201.831441340747
 30
0.0
 10
1461.915292707204
 20
2202.12962480955
 30
0.0
 10
1462.226486612867
 20
2202.433729681353
 30
0.0
 10
1462.601612851946
 20
2202.814748357847
 30
0.0
 10
1462.84946397399
 20
2203.089821497365
 30
0.0
 10
1463.006014735046
 20
2203.263566562477
 30
0.0
  0
SPLINE
  5
115
330
1F
100
AcDbEntity
  8
0
  6
Continuous
 62
     7
370
    25
100
AcDbSpline
210
0.0
220
0.0
230
1.0
 70
     8
 71
     3
 72
    14
 73
    10
 74
     0
 42
0.000000001
 43
0.00000001
 40
0.0
 40
0.0
 40
0.0
 40
0.0
 40
0.2236978580034281
 40
0.3528357075716871
 40
0.4829964006465602
 40
0.5936020866478562
 40
0.6970463839856145
 40
0.8440092931474233
 40
1.0
 40
1.0
 40
1.0
 40
1.0
 10
1458.652996887781
 20
2203.246306802512
 30
0.0
 10
1458.714461668199
 20
2203.302083953451
 30
0.0
 10
1458.811409262975
 20
2203.390060524588
 30
0.0
 10
1458.932151133903
 20
2203.472946822509
 30
0.0
 10
1459.003586143672
 20
2203.504740079274
 30
0.0
 10
1459.03684634098
 20
2203.495746380313
 30
0.0
 10
1459.038020396123
 20
2203.453745409582
 30
0.0
 10
1459.00458795085
 20
2203.376379424455
 30
0.0
 10
1458.955829182878
 20
2203.301910555866
 30
0.0
 10
1458.930723310958
 20
2203.263566562477
 30
0.0
  0
SPLINE
  5
116
330
1F
100
AcDbEntity
  8
0
  6
Continuous
 62
     7
370
    25
100
AcDbSpline
210
0.0
220
0.0
230
1.0
 70
     8
 71
     3
 72
    18
 73
    14
 74
     0
 42
0.000000001
 43
0.00000001
 40
0.0
 40
0.0
 40
0.0
 40
0.0
 40
0.0325269511878111
 40
0.1043523411979807
 40
0.1781473460792528
 40
0.2999215112613839
 40
0.4248530905237395
 40
0.5146845338821026
 40
0.6051712619145871
 40
0.6975951152610105
 40
0.7906484990243923
 40
0.8948454501213516
 40
1.0
 40
1.0
 40
1.0
 40
1.0
 10
1456.428591924191
 20
2200.084298160136
 30
0.0
 10
1456.428583962888
 20
2200.098069940644
 30
0.0
 10
1456.428558421588
 20
2200.142252302837
 30
0.0
 10
1456.463515523019
 20
2200.268953683632
 30
0.0
 10
1456.549805800424
 20
2200.497046163327
 30
0.0
 10
1456.707635444632
 20
2200.822777807231
 30
0.0
 10
1456.926123742253
 20
2201.19514070424
 30
0.0
 10
1457.16027104765
 20
2201.545660893007
 30
0.0
 10
1457.394122285835
 20
2201.864283777074
 30
0.0
 10
1457.653977663253
 20
2202.189258977856
 30
0.0
 10
1457.949942509623
 20
2202.530398819006
 30
0.0
 10
1458.28087333122
 20
2202.884903193754
 30
0.0
 10
1458.528578025304
 20
2203.125472135897
 30
0.0
 10
1458.652996887781
 20
2203.246306802512
 30
0.0
  0
SPLINE
  5
117
330
1F
100
AcDbEntity
  8
0
  6
Continuous
 62
     7
370
    25
100
AcDbSpline
210
0.0
220
0.0
230
1.0
 70
     8
 71
     3
 72
    16
 73
    12
 74
     0
 42
0.000000001
 43
0.00000001
 40
0.0
 40
0.0
 40
0.0
 40
0.0
 40
0.1096448922561229
 40
0.2200915687980136
 40
0.3328514698241644
 40
0.4463312959867273
 40
0.5590926662030976
 40
0.6725202740452543
 40
0.7881687652613599
 40
0.9046934709395626
 40
1.0
 40
1.0
 40
1.0
 40
1.0
 10
1473.399228833328
 20
2202.672924866504
 30
0.0
 10
1473.506247609721
 20
2202.539098094509
 30
0.0
 10
1473.721067743177
 20
2202.270465934914
 30
0.0
 10
1474.006154841897
 20
2201.854508002167
 30
0.0
 10
1474.262881505757
 20
2201.428892142009
 30
0.0
 10
1474.485301207305
 20
2200.996321423324
 30
0.0
 10
1474.671704630408
 20
2200.561189962362
 30
0.0
 10
1474.822232784431
 20
2200.123254754214
 30
0.0
 10
1474.932307292108
 20
2199.685924020451
 30
0.0
 10
1475.00399568085
 20
2199.274552465497
 30
0.0
 10
1475.005822242278
 20
2199.033313047159
 30
0.0
 10
1475.006644043794
 20
2198.924775268664
 30
0.0
  0
SPLINE
  5
118
330
1F
100
AcDbEntity
  8
0
  6
Continuous
 62
     7
370
    25
100
AcDbSpline
210
0.0
220
0.0
230
1.0
 70
     8
 71
     3
 72
    15
 73
    11
 74
     0
 42
0.000000001
 43
0.00000001
 40
0.0
 40
0.0
 40
0.0
 40
0.0
 40
0.2153296810343062
 40
0.3327055588565359
 40
0.4327106172887902
 40
0.5331289091056376
 40
0.624949195054456
 40
0.7533679527279485
 40
0.941845804482811
 40
1.0
 40
1.0
 40
1.0
 40
1.0
 10
1473.305079681739
 20
2202.706798195757
 30
0.0
 10
1473.260949296568
 20
2202.765950787183
 30
0.0
 10
1473.19276350634
 20
2202.857347365182
 30
0.0
 10
1473.135354103748
 20
2202.94052537646
 30
0.0
 10
1473.116583355958
 20
2202.974820189123
 30
0.0
 10
1473.126843285912
 20
2202.97378599224
 30
0.0
 10
1473.16510037026
 20
2202.939020888221
 30
0.0
 10
1473.240932447859
 20
2202.858699960711
 30
0.0
 10
1473.326975547721
 20
2202.759873973323
 30
0.0
 10
1473.38544267402
 20
2202.68951503577
 30
0.0
 10
1473.399228833328
 20
2202.672924866504
 30
0.0
  0
LINE
  5
119
330
1F
100
AcDbEntity
  8
0
  6
Continuous
 62
     7
370
    25
100
AcDbLine
 10
1469.5268050305
 20
2203.0294676068
 30
0.0
 11
1469.5268050305
 21
1916.3506106858
 31
0.0
  0
SPLINE
  5
11A
330
1F
100
AcDbEntity
  8
0
  6
Continuous
 62
     7
370
    25
100
AcDbSpline
210
0.0
220
0.0
230
1.0
 70
     8
 71
     3
 72
    19
 73
    15
 74
     0
 42
0.000000001
 43
0.00000001
 40
0.0
 40
0.0
 40
0.0
 40
0.0
 40
0.0909990066429638
 40
0.1826535439852925
 40
0.2762891997569098
 40
0.3705799584939644
 40
0.4620744768003469
 40
0.5542202194902226
 40
0.6487251229517912
 40
0.7442526339562813
 40
0.8150346055734446
 40
0.8867324882853953
 40
0.9576533139987864
 40
1.0
 40
1.0
 40
1.0
 40
1.0
 10
2115.667707657829
 20
2203.246306802515
 30
0.0
 10
2115.775567823867
 20
2203.141851460013
 30
0.0
 10
2115.99206514959
 20
2202.932188308733
 30
0.0
 10
2116.298524167908
 20
2202.609204518043
 30
0.0
 10
2116.590093447682
 20
2202.280326624482
 30
0.0
 10
2116.859371333758
 20
2201.951050866207
 30
0.0
 10
2117.103939736911
 20
2201.625472784287
 30
0.0
 10
2117.323641654133
 20
2201.304412841686
 30
0.0
 10
2117.518366857617
 20
2200.987676145358
 30
0.0
 10
2117.668453665078
 20
2200.709674637415
 30
0.0
 10
2117.778124979673
 20
2200.475100603291
 30
0.0
 10
2117.849558702438
 20
2200.290719052296
 30
0.0
 10
2117.891368562424
 20
2200.151774233173
 30
0.0
 10
2117.889700683023
 20
2200.106270338362
 30
0.0
 10
2117.889077122354
 20
2200.089258053761
 30
0.0
  0
SPLINE
  5
11B
330
1F
100
AcDbEntity
  8
0
  6
Continuous
 62
     7
370
    25
100
AcDbSpline
210
0.0
220
0.0
230
1.0
 70
     8
 71
     3
 72
    14
 73
    10
 74
     0
 42
0.000000001
 43
0.00000001
 40
0.0
 40
0.0
 40
0.0
 40
0.0
 40
0.2240635092469077
 40
0.3487071205324235
 40
0.4742528072797774
 40
0.5825492860624858
 40
0.6866084231149813
 40
0.8379727149431309
 40
1.0
 40
1.0
 40
1.0
 40
1.0
 10
2115.389981234656
 20
2203.263566562477
 30
0.0
 10
2115.354684502082
 20
2203.3184401837
 30
0.0
 10
2115.299752656994
 20
2203.403839285564
 30
0.0
 10
2115.278190705106
 20
2203.479725214879
 30
0.0
 10
2115.296768999367
 20
2203.505469933836
 30
0.0
 10
2115.348776676639
 20
2203.492693103536
 30
0.0
 10
2115.428562283616
 20
2203.447319609753
 30
0.0
 10
2115.538341659598
 20
2203.365146315181
 30
0.0
 10
2115.623618491097
 20
2203.286808442513
 30
0.0
 10
2115.667707657829
 20
2203.246306802515
 30
0.0
  0
SPLINE
  5
11C
330
1F
100
AcDbEntity
  8
0
  6
Continuous
 62
     7
370
    25
100
AcDbSpline
210
0.0
220
0.0
230
1.0
 70
     8
 71
     3
 72
    31
 73
    27
 74
     0
 42
0.000000001
 43
0.00000001
 40
0.0
 40
0.0
 40
0.0
 40
0.0
 40
0.0425768439200461
 40
0.085456226663412
 40
0.1292655212993054
 40
0.1733896051365718
 40
0.2448927928827756
 40
0.2814175395970777
 40
0.3182118727426348
 40
0.3578509173303928
 40
0.3981484105824999
 40
0.4288224096626793
 40
0.4602420416076509
 40
0.485604208325882
 40
0.5116936315326995
 40
0.5370616943792935
 40
0.563094990978832
 40
0.5995472643023657
 40
0.6370102149324169
 40
0.6959998903666315
 40
0.7565561265103021
 40
0.7981804952569087
 40
0.8401079728424137
 40
0.8829363933459021
 40
0.9260588511262505
 40
1.0
 40
1.0
 40
1.0
 40
1.0
 10
2111.314689810568
 20
2203.263566562477
 30
0.0
 10
2111.403500081956
 20
2203.163907287904
 30
0.0
 10
2111.581751685012
 20
2202.963880588579
 30
0.0
 10
2111.873814399372
 20
2202.656973488018
 30
0.0
 10
2112.182888019823
 20
2202.345449290216
 30
0.0
 10
2112.575703999865
 20
2201.966876272066
 30
0.0
 10
2112.967939331357
 20
2201.610304335981
 30
0.0
 10
2113.353158473375
 20
2201.284532219948
 30
0.0
 10
2113.659838164002
 20
2201.041103634708
 30
0.0
 10
2113.982849270693
 20
2200.806805667392
 30
0.0
 10
2114.294075731505
 20
2200.611209864821
 30
0.0
 10
2114.583128563406
 20
2200.464658661284
 30
0.0
 10
2114.826983064174
 20
2200.375227028756
 30
0.0
 10
2115.048351505253
 20
2200.33118680056
 30
0.0
 10
2115.239427601682
 20
2200.329040061566
 30
0.0
 10
2115.411826051455
 20
2200.366198273668
 30
0.0
 10
2115.580437468835
 20
2200.448018163493
 30
0.0
 10
2115.734286539991
 20
2200.585702231301
 30
0.0
 10
2115.883507009627
 20
2200.816465774207
 30
0.0
 10
2115.985953324452
 20
2201.137238725966
 30
0.0
 10
2116.013263388903
 20
2201.497406448532
 30
0.0
 10
2115.985450159314
 20
2201.831441340747
 30
0.0
 10
2115.925891100416
 20
2202.12962480955
 30
0.0
 10
2115.830003754595
 20
2202.433729681352
 30
0.0
 10
2115.670873348437
 20
2202.814748357846
 30
0.0
 10
2115.498719289607
 20
2203.089821497364
 30
0.0
 10
2115.389981234656
 20
2203.263566562477
 30
0.0
  0
SPLINE
  5
11D
330
1F
100
AcDbEntity
  8
0
  6
Continuous
 62
     7
370
    25
100
AcDbSpline
210
0.0
220
0.0
230
1.0
 70
     8
 71
     3
 72
    14
 73
    10
 74
     0
 42
0.000000001
 43
0.00000001
 40
0.0
 40
0.0
 40
0.0
 40
0.0
 40
0.2236978580033805
 40
0.3528357075716416
 40
0.4829964006465409
 40
0.5936020866478736
 40
0.6970463839856336
 40
0.8440092931474346
 40
1.0
 40
1.0
 40
1.0
 40
1.0
 10
2110.520993293241
 20
2203.246306802511
 30
0.0
 10
2110.542314170442
 20
2203.30208395345
 30
0.0
 10
2110.575943311377
 20
2203.390060524588
 30
0.0
 10
2110.691295597804
 20
2203.472946822509
 30
0.0
 10
2110.81147155416
 20
2203.504740079273
 30
0.0
 10
2110.940135165391
 20
2203.495746380313
 30
0.0
 10
2111.071684360413
 20
2203.453745409581
 30
0.0
 10
2111.204367621472
 20
2203.376379424454
 30
0.0
 10
2111.277192372641
 20
2203.301910555866
 30
0.0
 10
2111.314689810568
 20
2203.263566562477
 30
0.0
  0
SPLINE
  5
11E
330
1F
100
AcDbEntity
  8
0
  6
Continuous
 62
     7
370
    25
100
AcDbSpline
210
0.0
220
0.0
230
1.0
 70
     8
 71
     3
 72
    32
 73
    28
 74
     0
 42
0.000000001
 43
0.00000001
 40
0.0
 40
0.0
 40
0.0
 40
0.0
 40
0.0436175577132465
 40
0.0875445180727423
 40
0.1324232365607221
 40
0.177624995701353
 40
0.2471068321983769
 40
0.2825457174670801
 40
0.3182339115864777
 40
0.3543732564365839
 40
0.391049856440919
 40
0.4195472303548314
 40
0.4487320066823302
 40
0.471844116074135
 40
0.4956184451052827
 40
0.5187364415274673
 40
0.5424579544801584
 40
0.5764259662049851
 40
0.6113254577453252
 40
0.6689154864260349
 40
0.7279987346838512
 40
0.7704822564694426
 40
0.8132756786605967
 40
0.8569852155483341
 40
0.9009924730134499
 40
0.9502698003771102
 40
1.0
 40
1.0
 40
1.0
 40
1.0
 10
2104.793899515136
 20
2203.029467606847
 30
0.0
 10
2104.798911667712
 20
2202.922453212492
 30
0.0
 10
2104.808971526739
 20
2202.707665313492
 30
0.0
 10
2104.873240441194
 20
2202.378421485189
 30
0.0
 10
2104.973600450859
 20
2202.044434657731
 30
0.0
 10
2105.139302327826
 20
2201.648238316101
 30
0.0
 10
2105.349377681425
 20
2201.280776834638
 30
0.0
 10
2105.595204799466
 20
2200.950525756566
 30
0.0
 10
2105.810124492371
 20
2200.709343618051
 30
0.0
 10
2106.058156033592
 20
2200.482162191405
 30
0.0
 10
2106.322524303658
 20
2200.294479586677
 30
0.0
 10
2106.598726058668
 20
2200.152145838472
 30
0.0
 10
2106.858457669991
 20
2200.064885651352
 30
0.0
 10
2107.118750045615
 20
2200.022164220864
 30
0.0
 10
2107.365843395873
 20
2200.019865195373
 30
0.0
 10
2107.614910002482
 20
2200.055222929688
 30
0.0
 10
2107.892266062663
 20
2200.13392363474
 30
0.0
 10
2108.193038508797
 20
2200.26764330823
 30
0.0
 10
2108.570805816409
 20
2200.497664941078
 30
0.0
 10
2108.974742332741
 20
2200.822570955374
 30
0.0
 10
2109.342603868598
 20
2201.19517951323
 30
0.0
 10
2109.636455325729
 20
2201.545651901102
 30
0.0
 10
2109.869944121138
 20
2201.864286250217
 30
0.0
 10
2110.076512704071
 20
2202.189258306962
 30
0.0
 10
2110.259773867127
 20
2202.530399022503
 30
0.0
 10
2110.416344760006
 20
2202.884903139937
 30
0.0
 10
2110.48600423857
 20
2203.125472117903
 30
0.0
 10
2110.520993293241
 20
2203.246306802511
 30
0.0
  0
SPLINE
  5
11F
330
1F
100
AcDbEntity
  8
0
  6
Continuous
 62
     7
370
    25
100
AcDbSpline
210
0.0
220
0.0
230
1.0
 70
     8
 71
     3
 72
    14
 73
    10
 74
     0
 42
0.000000001
 43
0.00000001
 40
0.0
 40
0.0
 40
0.0
 40
0.0
 40
0.2198296104785804
 40
0.3499177958292868
 40
0.4588983161344449
 40
0.5683999765787839
 40
0.6667094681233361
 40
0.7967198733581827
 40
1.0
 40
1.0
 40
1.0
 40
1.0
 10
2104.081902569656
 20
2202.989254982087
 30
0.0
 10
2104.140551919239
 20
2203.04755580844
 30
0.0
 10
2104.233908092177
 20
2203.140357213164
 30
0.0
 10
2104.389710382577
 20
2203.229225733862
 30
0.0
 10
2104.512900723586
 20
2203.269756785739
 30
0.0
 10
2104.617553709718
 20
2203.273479596311
 30
0.0
 10
2104.704635572177
 20
2203.242547218847
 30
0.0
 10
2104.778200098441
 20
2203.166646003627
 30
0.0
 10
2104.787951781388
 20
2203.081437727516
 30
0.0
 10
2104.793899515136
 20
2203.029467606847
 30
0.0
  0
SPLINE
  5
120
330
1F
100
AcDbEntity
  8
0
  6
Continuous
 62
     7
370
    25
100
AcDbSpline
210
0.0
220
0.0
230
1.0
 70
     8
 71
     3
 72
    33
 73
    29
 74
     0
 42
0.000000001
 43
0.00000001
 40
0.0
 40
0.0
 40
0.0
 40
0.0
 40
0.0453846795158908
 40
0.0910956457676796
 40
0.1377861112474409
 40
0.1847984484385397
 40
0.2588563244582954
 40
0.2965960583089191
 40
0.3345934417298184
 40
0.3627068189222309
 40
0.391055276435979
 40
0.4192115960366896
 40
0.4481447873352617
 40
0.4657876556062902
 40
0.4839178616272566
 40
0.5015746029079556
 40
0.5197390882525995
 40
0.5448263126108316
 40
0.5705932132964184
 40
0.6177342306539001
 40
0.6659981837889722
 40
0.7087532480230219
 40
0.7518249524472365
 40
0.7957808044145268
 40
0.8400079168875042
 40
0.9191109597848014
 40
0.9594357012421662
 40
1.0
 40
1.0
 40
1.0
 40
1.0
 10
2101.015624863876
 20
2202.706798195756
 30
0.0
 10
2100.926621734289
 20
2202.583041228802
 30
0.0
 10
2100.7479755997
 20
2202.334637561678
 30
0.0
 10
2100.521272926027
 20
2201.952491145425
 30
0.0
 10
2100.325795468229
 20
2201.56353745597
 30
0.0
 10
2100.136956966495
 20
2201.094982570668
 30
0.0
 10
2100.01527237363
 20
2200.654206111207
 30
0.0
 10
2099.955646781025
 20
2200.251277455073
 30
0.0
 10
2099.942481445665
 20
2199.981849132355
 30
0.0
 10
2099.956044722616
 20
2199.750501971307
 30
0.0
 10
2099.990660520318
 20
2199.559218536927
 30
0.0
 10
2100.052603639184
 20
2199.391538274036
 30
0.0
 10
2100.136177701025
 20
2199.281103774927
 30
0.0
 10
2100.232121602404
 20
2199.226172010716
 30
0.0
 10
2100.325976001227
 20
2199.211880694415
 30
0.0
 10
2100.432982680583
 20
2199.230971773386
 30
0.0
 10
2100.563435197123
 20
2199.287340473564
 30
0.0
 10
2100.719270318333
 20
2199.389954769646
 30
0.0
 10
2100.946224022758
 20
2199.578984090543
 30
0.0
 10
2101.232726170103
 20
2199.861730422531
 30
0.0
 10
2101.564810733099
 20
2200.21720592768
 30
0.0
 10
2101.892797273401
 20
2200.578159559725
 30
0.0
 10
2102.215078825968
 20
2200.935532355352
 30
0.0
 10
2102.545131653358
 20
2201.301069140882
 30
0.0
 10
2102.969130403778
 20
2201.768449564836
 30
0.0
 10
2103.385534472812
 20
2202.224352956679
 30
0.0
 10
2103.786249906906
 20
2202.662949542717
 30
0.0
 10
2103.983157298083
 20
2202.880271964898
 30
0.0
 10
2104.081902569656
 20
2202.989254982087
 30
0.0
  0
SPLINE
  5
121
330
1F
100
AcDbEntity
  8
0
  6
Continuous
 62
     7
370
    25
100
AcDbSpline
210
0.0
220
0.0
230
1.0
 70
     8
 71
     3
 72
    15
 73
    11
 74
     0
 42
0.000000001
 43
0.00000001
 40
0.0
 40
0.0
 40
0.0
 40
0.0
 40
0.2148110296556874
 40
0.3411322673416558
 40
0.4464287003091632
 40
0.5523542512426546
 40
0.6447889097414979
 40
0.7660552293890702
 40
0.9403894463275868
 40
0.9999999999999999
 40
0.9999999999999999
 40
0.9999999999999999
 40
0.9999999999999999
 10
2100.921475712287
 20
2202.672924866503
 30
0.0
 10
2100.97247178342
 20
2202.733493066597
 30
0.0
 10
2101.053456476799
 20
2202.829678851191
 30
0.0
 10
2101.141400086747
 20
2202.924513196065
 30
0.0
 10
2101.188528774394
 20
2202.969978014331
 30
0.0
 10
2101.204288275598
 20
2202.977198462857
 30
0.0
 10
2101.190662039532
 20
2202.948861210026
 30
0.0
 10
2101.142900510262
 20
2202.878432357235
 30
0.0
 10
2101.076755885811
 20
2202.788563134483
 30
0.0
 10
2101.028038381065
 20
2202.723401721107
 30
0.0
 10
2101.015624863876
 20
2202.706798195756
 30
0.0
  0
SPLINE
  5
122
330
1F
100
AcDbEntity
  8
0
  6
Continuous
 62
     7
370
    25
100
AcDbSpline
210
0.0
220
0.0
230
1.0
 70
     8
 71
     3
 72
    16
 73
    12
 74
     0
 42
0.000000001
 43
0.00000001
 40
0.0
 40
0.0
 40
0.0
 40
0.0
 40
0.037994413122624
 40
0.1306469269071267
 40
0.2239600225243098
 40
0.4141053981649805
 40
0.5189817172737481
 40
0.6243947354934015
 40
0.731538808590952
 40
0.8393122845544628
 40
1.0
 40
1.0
 40
1.0
 40
1.0
 10
2099.309533664851
 20
2198.918964587909
 30
0.0
 10
2099.308902322331
 20
2198.961407953177
 30
0.0
 10
2099.306731398946
 20
2199.107352969406
 30
0.0
 10
2099.337374786478
 20
2199.381810788374
 30
0.0
 10
2099.420013572446
 20
2199.849933749559
 30
0.0
 10
2099.566565465523
 20
2200.347920884897
 30
0.0
 10
2099.774358973322
 20
2200.861209433574
 30
0.0
 10
2099.971066994804
 20
2201.267382577198
 30
0.0
 10
2100.202048769989
 20
2201.674251702191
 30
0.0
 10
2100.506887615617
 20
2202.147038236811
 30
0.0
 10
2100.766240051562
 20
2202.476015309566
 30
0.0
 10
2100.921475712287
 20
2202.672924866503
 30
0.0
  0
LINE
  5
123
330
1F
100
AcDbEntity
  8
0
  6
Continuous
 62
     7
370
    25
100
AcDbLine
 10
2104.7938995151
 20
2203.0294676068
 30
0.0
 11
2104.7938995151
 21
1916.3506106858
 31
0.0
  0
LINE
  5
124
330
1F
100
AcDbEntity
  8
0
  6
Continuous
 62
     7
370
    25
100
AcDbLine
 10
1475.3847846314
 20
1916.3506106858
 30
0.0
 11
1456.3847846314
 21
1916.3506106858
 31
0.0
  0
LINE
  5
125
330
1F
100
AcDbEntity
  8
0
  6
Continuous
 62
     7
370
    25
100
AcDbLine
 10
1469.0667651468
 20
1908.3506106858
 30
0.0
 11
1461.3847846314
 21
1908.3506106858
 31
0.0
  0
LINE
  5
126
330
1F
100
AcDbEntity
  8
0
  6
Continuous
 62
     7
370
    25
100
AcDbLine
 10
1470.3847846314
 20
1908.3506106858
 30
0.0
 11
1469.0667651468
 21
1908.3506106858
 31
0.0
  0
LINE
  5
127
330
1F
100
AcDbEntity
  8
0
  6
Continuous
 62
     7
370
    25
100
AcDbLine
 10
2112.9359199142
 20
1908.3506106858
 30
0.0
 11
2103.9359199142
 21
1908.3506106858
 31
0.0
  0
LINE
  5
128
330
1F
100
AcDbEntity
  8
0
  6
Continuous
 62
     7
370
    25
100
AcDbLine
 10
2101.7184054929
 20
1916.3506106858
 30
0.0
 11
2098.9359199142
 21
1916.3506106858
 31
0.0
  0
LINE
  5
129
330
1F
100
AcDbEntity
  8
0
  6
Continuous
 62
     7
370
    25
100
AcDbLine
 10
2117.9359199142
 20
1916.3506106858
 30
0.0
 11
2101.7184054929
 21
1916.3506106858
 31
0.0
  0
LINE
  5
12A
330
1F
100
AcDbEntity
  8
0
  6
Continuous
 62
     7
370
    25
100
AcDbLine
 10
1342.1603522728
 20
2201.3506106901
 30
0.0
 11
1456.9935733938
 21
2201.3506106901
 31
0.0
  0
LINE
  5
12B
330
1F
100
AcDbEntity
  8
0
  6
Continuous
 62
     7
370
    25
100
AcDbLine
 10
1474.2751551654
 20
2201.3506106901
 30
0.0
 11
2100.0341382248
 21
2201.3506106901
 31
0.0
  0
LINE
  5
12C
330
1F
100
AcDbEntity
  8
0
  6
Continuous
 62
     7
370
    25
100
AcDbLine
 10
2117.3271311518
 20
2201.3506106901
 30
0.0
 11
2232.1603522728
 21
2201.3506106901
 31
0.0
  0
LINE
  5
12D
330
1F
100
AcDbEntity
  8
0
  6
Continuous
 62
     7
370
    25
100
AcDbLine
 10
1342.1603522728
 20
2191.3506106901
 30
0.0
 11
1456.4262611978
 21
2191.3506106901
 31
0.0
  0
LINE
  5
12E
330
1F
100
AcDbEntity
  8
0
  6
Continuous
 62
     7
370
    25
100
AcDbLine
 10
1476.0532317277
 20
2191.3506106901
 30
0.0
 11
2098.2674728179
 21
2191.3506106901
 31
0.0
  0
LINE
  5
12F
330
1F
100
AcDbEntity
  8
0
  6
Continuous
 62
     7
370
    25
100
AcDbLine
 10
2117.8944433479
 20
2191.3506106901
 30
0.0
 11
2232.1603522728
 21
2191.3506106901
 31
0.0
  0
LINE
  5
130
330
1F
100
AcDbEntity
  8
0
  6
Continuous
 62
     8
370
    18
100
AcDbLine
 10
1474.3737213152
 20
2188.8506106901
 30
0.0
 11
1787.1603522728
 21
2188.8506106901
 31
0.0
  0
LINE
  5
131
330
1F
100
AcDbEntity
  8
0
  6
Continuous
 62
     8
370
    18
100
AcDbLine
 10
1474.3737213152
 20
2158.8506106901
 30
0.0
 11
1787.1603522728
 21
2158.8506106901
 31
0.0
  0
LINE
  5
132
330
1F
100
AcDbEntity
  8
0
  6
Continuous
 62
     8
370
    18
100
AcDbLine
 10
2099.9469832304
 20
2188.8506106901
 30
0.0
 11
1787.1603522728
 21
2188.8506106901
 31
0.0
  0
LINE
  5
133
330
1F
100
AcDbEntity
  8
0
  6
Continuous
 62
     8
370
    18
100
AcDbLine
 10
2099.9469832304
 20
2158.8506106901
 30
0.0
 11
1787.1603522728
 21
2158.8506106901
 31
0.0
  0
LINE
  5
134
330
1F
100
AcDbEntity
  8
0
  6
Continuous
 62
     8
370
    18
100
AcDbLine
 10
1463.7997112524
 20
2203.2463068025
 30
0.0
 11
1463.7997112524
 21
1916.3506106858
 31
0.0
  0
LINE
  5
135
330
1F
100
AcDbEntity
  8
0
  6
Continuous
 62
     8
370
    18
100
AcDbLine
 10
1463.006014735
 20
2203.2635665625
 30
0.0
 11
1463.006014735
 21
1916.3506106858
 31
0.0
  0
LINE
  5
136
330
1F
100
AcDbEntity
  8
0
  6
Continuous
 62
     8
370
    18
100
AcDbLine
 10
1470.238801976
 20
2202.9892549821
 30
0.0
 11
1470.238801976
 21
1916.3506106858
 31
0.0
  0
LINE
  5
137
330
1F
100
AcDbEntity
  8
0
  6
Continuous
 62
     8
370
    18
100
AcDbLine
 10
1458.6529968878
 20
2203.2463068025
 30
0.0
 11
1458.6529968878
 21
2202.7857475938
 31
0.0
  0
LINE
  5
138
330
1F
100
AcDbEntity
  8
0
  6
Continuous
 62
     8
370
    18
100
AcDbLine
 10
1473.3992288333
 20
2202.6729248665
 30
0.0
 11
1473.3992288333
 21
2202.5646415763
 31
0.0
  0
LINE
  5
139
330
1F
100
AcDbEntity
  8
0
  6
Continuous
 62
     8
370
    18
100
AcDbLine
 10
2110.5209932932
 20
2203.2463068025
 30
0.0
 11
2110.5209932932
 21
1916.3506106858
 31
0.0
  0
LINE
  5
13A
330
1F
100
AcDbEntity
  8
0
  6
Continuous
 62
     8
370
    18
100
AcDbLine
 10
2111.3146898106
 20
2203.2635665625
 30
0.0
 11
2111.3146898106
 21
1916.3506106858
 31
0.0
  0
LINE
  5
13B
330
1F
100
AcDbEntity
  8
0
  6
Continuous
 62
     8
370
    18
100
AcDbLine
 10
2104.0819025697
 20
2202.9892549821
 30
0.0
 11
2104.0819025697
 21
1916.3506106858
 31
0.0
  0
LINE
  5
13C
330
1F
100
AcDbEntity
  8
0
  6
Continuous
 62
     8
370
    18
100
AcDbLine
 10
2115.6677076578
 20
2203.2463068025
 30
0.0
 11
2115.6677076578
 21
2202.785983412
 31
0.0
  0
LINE
  5
13D
330
1F
100
AcDbEntity
  8
0
  6
Continuous
 62
     8
370
    18
100
AcDbLine
 10
2100.9214757123
 20
2202.6729248665
 30
0.0
 11
2100.9214757123
 21
2202.5719071087
 31
0.0
  0
LINE
  5
13E
330
1F
100
AcDbEntity
  8
0
  6
Continuous
 62
     8
370
    18
100
AcDbLine
 10
1472.6022990527
 20
1913.3506106858
 30
0.0
 11
1475.3847846314
 21
1913.3506106858
 31
0.0
  0
LINE
  5
13F
330
1F
100
AcDbEntity
  8
0
  6
Continuous
 62
     8
370
    18
100
AcDbLine
 10
1456.3847846314
 20
1913.3506106858
 30
0.0
 11
1472.6022990527
 21
1913.3506106858
 31
0.0
  0
LINE
  5
140
330
1F
100
AcDbEntity
  8
0
  6
Continuous
 62
     8
370
    18
100
AcDbLine
 10
2098.9359199142
 20
1913.3506106858
 30
0.0
 11
2117.9359199142
 21
1913.3506106858
 31
0.0
  0
ARC
  5
141
330
1F
100
AcDbEntity
  8
0
  6
Continuous
 62
     7
370
    25
100
AcDbCircle
 10
3195.9662305508
 20
2196.3506106858
 30
0.0
 40
10.00000000000013
100
AcDbArc
 50
89.9990872733
 51
143.7290780521
  0
ARC
  5
142
330
1F
100
AcDbEntity
  8
0
  6
Continuous
 62
     7
370
    25
100
AcDbCircle
 10
3195.9662305508
 20
2196.3506106858
 30
0.0
 40
10.00000000000009
100
AcDbArc
 50
25.0665689335
 51
89.9990872733
  0
LINE
  5
143
330
1F
100
AcDbEntity
  8
0
  6
Continuous
 62
     7
370
    25
100
AcDbLine
 10
3203.3032424107
 20
1916.3506106858
 30
0.0
 11
3203.3032424107
 21
2201.5017221709
 31
0.0
  0
LINE
  5
144
330
1F
100
AcDbEntity
  8
0
  6
Continuous
 62
     7
370
    25
100
AcDbLine
 10
3187.2463366647
 20
2199.9870506707
 30
0.0
 11
3187.2463366647
 21
1916.3506106858
 31
0.0
  0
LINE
  5
145
330
1F
100
AcDbEntity
  8
0
  6
Continuous
 62
     7
370
    25
100
AcDbLine
 10
3205.1937967822
 20
1916.3506106858
 30
0.0
 11
3205.1937967822
 21
2200.0892580538
 31
0.0
  0
LINE
  5
146
330
1F
100
AcDbEntity
  8
0
  6
Continuous
 62
     7
370
    25
100
AcDbLine
 10
3186.6054394534
 20
2198.9189645879
 30
0.0
 11
3186.6054394534
 21
2191.3506106901
 31
0.0
  0
LINE
  5
147
330
1F
100
AcDbEntity
  8
0
  6
Continuous
 62
     7
370
    25
100
AcDbLine
 10
3186.6054394534
 20
2156.3506106901
 30
0.0
 11
3186.6054394534
 21
1916.3506106858
 31
0.0
  0
ARC
  5
148
330
1F
100
AcDbEntity
  8
0
  6
Continuous
 62
     7
370
    25
100
AcDbCircle
 10
2552.9531808634
 20
2196.3506106858
 30
0.0
 40
10.00000000000031
100
AcDbArc
 50
89.9990872733
 51
154.8792698746
  0
ARC
  5
149
330
1F
100
AcDbEntity
  8
0
  6
Continuous
 62
     7
370
    25
100
AcDbCircle
 10
2552.9531808634
 20
2196.3506106858
 30
0.0
 40
10.00000000000009
100
AcDbArc
 50
36.1328408098
 51
89.9990872733
  0
LINE
  5
14A
330
1F
100
AcDbEntity
  8
0
  6
Continuous
 62
     7
370
    25
100
AcDbLine
 10
2545.6161690035
 20
2201.5005496914
 30
0.0
 11
2545.6161690035
 21
1916.3506106858
 31
0.0
  0
LINE
  5
14B
330
1F
100
AcDbEntity
  8
0
  6
Continuous
 62
     7
370
    25
100
AcDbLine
 10
2561.6730747495
 20
1916.3506106858
 30
0.0
 11
2561.6730747495
 21
2199.9907272629
 31
0.0
  0
LINE
  5
14C
330
1F
100
AcDbEntity
  8
0
  6
Continuous
 62
     7
370
    25
100
AcDbLine
 10
2543.725614632
 20
2200.0842981601
 30
0.0
 11
2543.725614632
 21
1916.3506106858
 31
0.0
  0
LINE
  5
14D
330
1F
100
AcDbEntity
  8
0
  6
Continuous
 62
     7
370
    25
100
AcDbLine
 10
2562.3139719608
 20
1916.3506106858
 30
0.0
 11
2562.3139719608
 21
2156.3506106901
 31
0.0
  0
LINE
  5
14E
330
1F
100
AcDbEntity
  8
0
  6
Continuous
 62
     7
370
    25
100
AcDbLine
 10
2562.3139719608
 20
2191.3506106901
 30
0.0
 11
2562.3139719608
 21
2198.9247752687
 31
0.0
  0
LINE
  5
14F
330
1F
100
AcDbEntity
  8
0
  6
Continuous
 62
     7
370
    25
100
AcDbLine
 10
2562.6841380657
 20
1913.3506106858
 30
0.0
 11
2562.6841380657
 21
1916.3506106858
 31
0.0
  0
LINE
  5
150
330
1F
100
AcDbEntity
  8
0
  6
Continuous
 62
     7
370
    25
100
AcDbLine
 10
2543.6841380657
 20
1916.3506106858
 30
0.0
 11
2543.6841380657
 21
1913.3506106858
 31
0.0
  0
ARC
  5
151
330
1F
100
AcDbEntity
  8
0
  6
Continuous
 62
     7
370
    25
100
AcDbCircle
 10
2548.6841380657
 20
1913.3506106858
 30
0.0
 40
5.0
100
AcDbArc
 50
180.0
 51
270.0
  0
ARC
  5
152
330
1F
100
AcDbEntity
  8
0
  6
Continuous
 62
     7
370
    25
100
AcDbCircle
 10
2557.6841380657
 20
1913.3506106858
 30
0.0
 40
5.0
100
AcDbArc
 50
270.0
 51
0.0
  0
LINE
  5
153
330
1F
100
AcDbEntity
  8
0
  6
Continuous
 62
     7
370
    25
100
AcDbLine
 10
3205.2352733485
 20
1913.3506106858
 30
0.0
 11
3205.2352733485
 21
1916.3506106858
 31
0.0
  0
LINE
  5
154
330
1F
100
AcDbEntity
  8
0
  6
Continuous
 62
     7
370
    25
100
AcDbLine
 10
3186.2352733485
 20
1916.3506106858
 30
0.0
 11
3186.2352733485
 21
1913.3506106858
 31
0.0
  0
ARC
  5
155
330
1F
100
AcDbEntity
  8
0
  6
Continuous
 62
     7
370
    25
100
AcDbCircle
 10
3191.2352733485
 20
1913.3506106858
 30
0.0
 40
5.0
100
AcDbArc
 50
180.0
 51
270.0
  0
ARC
  5
156
330
1F
100
AcDbEntity
  8
0
  6
Continuous
 62
     7
370
    25
100
AcDbCircle
 10
3200.2352733485
 20
1913.3506106858
 30
0.0
 40
5.0
100
AcDbArc
 50
270.0
 51
0.0
  0
LINE
  5
157
330
1F
100
AcDbEntity
  8
0
  6
Continuous
 62
     7
370
    25
100
AcDbLine
 10
3319.4597057071
 20
2191.3506106901
 30
0.0
 11
3319.4597057071
 21
2201.3506106901
 31
0.0
  0
LINE
  5
158
330
1F
100
AcDbEntity
  8
0
  6
Continuous
 62
     7
370
    25
100
AcDbLine
 10
2429.4597057071
 20
2201.3506106901
 30
0.0
 11
2429.4597057071
 21
2191.3506106901
 31
0.0
  0
LINE
  5
159
330
1F
100
AcDbEntity
  8
0
  6
Continuous
 62
     7
370
    25
100
AcDbLine
 10
3186.6080229214
 20
2191.3506106901
 30
0.0
 11
3185.5668262522
 21
2191.3506106901
 31
0.0
  0
LINE
  5
15A
330
1F
100
AcDbEntity
  8
0
  6
Continuous
 62
     7
370
    25
100
AcDbLine
 10
3186.6080229214
 20
2156.3506106901
 30
0.0
 11
2874.4597057071
 21
2156.3506106901
 31
0.0
  0
LINE
  5
15B
330
1F
100
AcDbEntity
  8
0
  6
Continuous
 62
     7
370
    25
100
AcDbLine
 10
2563.352585162
 20
2191.3506106901
 30
0.0
 11
2562.3126478528
 21
2191.3506106901
 31
0.0
  0
LINE
  5
15C
330
1F
100
AcDbEntity
  8
0
  6
Continuous
 62
     7
370
    25
100
AcDbLine
 10
2562.3126478528
 20
2191.3506106901
 30
0.0
 11
2562.3113884928
 21
2191.3506106901
 31
0.0
  0
LINE
  5
15D
330
1F
100
AcDbEntity
  8
0
  6
Continuous
 62
     7
370
    25
100
AcDbLine
 10
2562.3126478528
 20
2156.3506106901
 30
0.0
 11
2562.3113884928
 21
2156.3506106901
 31
0.0
  0
LINE
  5
15E
330
1F
100
AcDbEntity
  8
0
  6
Continuous
 62
     7
370
    25
100
AcDbLine
 10
2874.4597057071
 20
2156.3506106901
 30
0.0
 11
2562.3126478528
 21
2156.3506106901
 31
0.0
  0
SPLINE
  5
15F
330
1F
100
AcDbEntity
  8
0
  6
Continuous
 62
     7
370
    25
100
AcDbSpline
210
0.0
220
0.0
230
1.0
 70
     8
 71
     3
 72
    19
 73
    15
 74
     0
 42
0.000000001
 43
0.00000001
 40
0.0
 40
0.0
 40
0.0
 40
0.0
 40
0.0909990066429566
 40
0.1826535439852958
 40
0.276289199756906
 40
0.370579958493947
 40
0.4620744768003384
 40
0.5542202194902026
 40
0.6487251229517815
 40
0.7442526339562597
 40
0.815034605573418
 40
0.8867324882853703
 40
0.9576533139987641
 40
1.0
 40
1.0
 40
1.0
 40
1.0
 10
3202.967061092124
 20
2203.246306802516
 30
0.0
 10
3203.074921258162
 20
2203.141851460014
 30
0.0
 10
3203.291418583885
 20
2202.932188308733
 30
0.0
 10
3203.597877602203
 20
2202.609204518044
 30
0.0
 10
3203.889446881976
 20
2202.280326624483
 30
0.0
 10
3204.158724768053
 20
2201.951050866208
 30
0.0
 10
3204.403293171206
 20
2201.625472784288
 30
0.0
 10
3204.622995088428
 20
2201.304412841687
 30
0.0
 10
3204.817720291912
 20
2200.987676145359
 30
0.0
 10
3204.967807099373
 20
2200.709674637415
 30
0.0
 10
3205.077478413968
 20
2200.475100603292
 30
0.0
 10
3205.148912136732
 20
2200.290719052297
 30
0.0
 10
3205.190721996719
 20
2200.151774233173
 30
0.0
 10
3205.189054117317
 20
2200.106270338363
 30
0.0
 10
3205.188430556649
 20
2200.089258053762
 30
0.0
  0
SPLINE
  5
160
330
1F
100
AcDbEntity
  8
0
  6
Continuous
 62
     7
370
    25
100
AcDbSpline
210
0.0
220
0.0
230
1.0
 70
     8
 71
     3
 72
    14
 73
    10
 74
     0
 42
0.000000001
 43
0.00000001
 40
0.0
 40
0.0
 40
0.0
 40
0.0
 40
0.2240635092469952
 40
0.3487071205323745
 40
0.474252807279827
 40
0.5825492860624234
 40
0.686608423115018
 40
0.8379727149431632
 40
1.0
 40
1.0
 40
1.0
 40
1.0
 10
3202.689334668951
 20
2203.263566562477
 30
0.0
 10
3202.654037936377
 20
2203.318440183701
 30
0.0
 10
3202.599106091289
 20
2203.403839285564
 30
0.0
 10
3202.5775441394
 20
2203.47972521488
 30
0.0
 10
3202.596122433662
 20
2203.505469933836
 30
0.0
 10
3202.648130110934
 20
2203.492693103537
 30
0.0
 10
3202.72791571791
 20
2203.447319609754
 30
0.0
 10
3202.837695093893
 20
2203.365146315181
 30
0.0
 10
3202.922971925392
 20
2203.286808442514
 30
0.0
 10
3202.967061092124
 20
2203.246306802516
 30
0.0
  0
SPLINE
  5
161
330
1F
100
AcDbEntity
  8
0
  6
Continuous
 62
     7
370
    25
100
AcDbSpline
210
0.0
220
0.0
230
1.0
 70
     8
 71
     3
 72
    31
 73
    27
 74
     0
 42
0.000000001
 43
0.00000001
 40
0.0
 40
0.0
 40
0.0
 40
0.0
 40
0.0425768439200442
 40
0.0854562266634124
 40
0.1292655212993033
 40
0.1733896051365712
 40
0.2448927928827677
 40
0.2814175395970703
 40
0.318211872742636
 40
0.357850917330388
 40
0.3981484105824935
 40
0.4288224096626709
 40
0.4602420416076387
 40
0.485604208325874
 40
0.5116936315326881
 40
0.5370616943792904
 40
0.5630949909788191
 40
0.5995472643023594
 40
0.6370102149324118
 40
0.6959998903666269
 40
0.7565561265102981
 40
0.7981804952569092
 40
0.8401079728424152
 40
0.8829363933458945
 40
0.9260588511262499
 40
1.0
 40
1.0
 40
1.0
 40
1.0
 10
3198.614043244862
 20
2203.263566562477
 30
0.0
 10
3198.702853516251
 20
2203.163907287904
 30
0.0
 10
3198.881105119307
 20
2202.96388058858
 30
0.0
 10
3199.173167833667
 20
2202.656973488018
 30
0.0
 10
3199.482241454118
 20
2202.345449290216
 30
0.0
 10
3199.875057434159
 20
2201.966876272067
 30
0.0
 10
3200.267292765652
 20
2201.610304335982
 30
0.0
 10
3200.65251190767
 20
2201.284532219948
 30
0.0
 10
3200.959191598297
 20
2201.041103634709
 30
0.0
 10
3201.282202704988
 20
2200.806805667393
 30
0.0
 10
3201.5934291658
 20
2200.611209864822
 30
0.0
 10
3201.882481997701
 20
2200.464658661285
 30
0.0
 10
3202.126336498469
 20
2200.375227028757
 30
0.0
 10
3202.347704939548
 20
2200.331186800561
 30
0.0
 10
3202.538781035977
 20
2200.329040061566
 30
0.0
 10
3202.71117948575
 20
2200.366198273668
 30
0.0
 10
3202.87979090313
 20
2200.448018163493
 30
0.0
 10
3203.033639974285
 20
2200.585702231302
 30
0.0
 10
3203.182860443921
 20
2200.816465774208
 30
0.0
 10
3203.285306758747
 20
2201.137238725967
 30
0.0
 10
3203.312616823197
 20
2201.497406448533
 30
0.0
 10
3203.284803593609
 20
2201.831441340747
 30
0.0
 10
3203.225244534711
 20
2202.12962480955
 30
0.0
 10
3203.12935718889
 20
2202.433729681353
 30
0.0
 10
3202.970226782731
 20
2202.814748357847
 30
0.0
 10
3202.798072723902
 20
2203.089821497365
 30
0.0
 10
3202.689334668951
 20
2203.263566562477
 30
0.0
  0
SPLINE
  5
162
330
1F
100
AcDbEntity
  8
0
  6
Continuous
 62
     7
370
    25
100
AcDbSpline
210
0.0
220
0.0
230
1.0
 70
     8
 71
     3
 72
    14
 73
    10
 74
     0
 42
0.000000001
 43
0.00000001
 40
0.0
 40
0.0
 40
0.0
 40
0.0
 40
0.2236978580034291
 40
0.3528357075717095
 40
0.4829964006465483
 40
0.5936020866478829
 40
0.6970463839855863
 40
0.8440092931473834
 40
1.0
 40
1.0
 40
1.0
 40
1.0
 10
3197.820346727535
 20
2203.246306802512
 30
0.0
 10
3197.841667604737
 20
2203.302083953451
 30
0.0
 10
3197.875296745671
 20
2203.390060524588
 30
0.0
 10
3197.990649032099
 20
2203.472946822509
 30
0.0
 10
3198.110824988454
 20
2203.504740079274
 30
0.0
 10
3198.239488599685
 20
2203.495746380313
 30
0.0
 10
3198.371037794708
 20
2203.453745409582
 30
0.0
 10
3198.503721055767
 20
2203.376379424455
 30
0.0
 10
3198.576545806936
 20
2203.301910555866
 30
0.0
 10
3198.614043244862
 20
2203.263566562477
 30
0.0
  0
SPLINE
  5
163
330
1F
100
AcDbEntity
  8
0
  6
Continuous
 62
     7
370
    25
100
AcDbSpline
210
0.0
220
0.0
230
1.0
 70
     8
 71
     3
 72
    32
 73
    28
 74
     0
 42
0.000000001
 43
0.00000001
 40
0.0
 40
0.0
 40
0.0
 40
0.0
 40
0.0436175577132361
 40
0.0875445180727389
 40
0.1324232365607213
 40
0.1776249957013496
 40
0.2471068321983741
 40
0.2825457174670722
 40
0.3182339115864815
 40
0.3543732564365829
 40
0.391049856440916
 40
0.4195472303548304
 40
0.4487320066823291
 40
0.4718441160741362
 40
0.4956184451052789
 40
0.5187364415274685
 40
0.5424579544801568
 40
0.5764259662049905
 40
0.611325457745332
 40
0.6689154864260268
 40
0.7279987346838477
 40
0.7704822564694365
 40
0.8132756786605964
 40
0.8569852155483412
 40
0.9009924730134502
 40
0.9502698003771133
 40
1.0
 40
1.0
 40
1.0
 40
1.0
 10
3192.093252949431
 20
2203.029467606848
 30
0.0
 10
3192.098265102006
 20
2202.922453212493
 30
0.0
 10
3192.108324961033
 20
2202.707665313492
 30
0.0
 10
3192.172593875488
 20
2202.37842148519
 30
0.0
 10
3192.272953885154
 20
2202.044434657732
 30
0.0
 10
3192.43865576212
 20
2201.648238316101
 30
0.0
 10
3192.64873111572
 20
2201.280776834639
 30
0.0
 10
3192.894558233761
 20
2200.950525756567
 30
0.0
 10
3193.109477926665
 20
2200.709343618052
 30
0.0
 10
3193.357509467887
 20
2200.482162191406
 30
0.0
 10
3193.621877737953
 20
2200.294479586677
 30
0.0
 10
3193.898079492963
 20
2200.152145838472
 30
0.0
 10
3194.157811104285
 20
2200.064885651353
 30
0.0
 10
3194.41810347991
 20
2200.022164220864
 30
0.0
 10
3194.665196830168
 20
2200.019865195373
 30
0.0
 10
3194.914263436776
 20
2200.055222929688
 30
0.0
 10
3195.191619496958
 20
2200.13392363474
 30
0.0
 10
3195.492391943092
 20
2200.267643308231
 30
0.0
 10
3195.870159250704
 20
2200.497664941079
 30
0.0
 10
3196.274095767036
 20
2200.822570955375
 30
0.0
 10
3196.641957302893
 20
2201.195179513231
 30
0.0
 10
3196.935808760024
 20
2201.545651901103
 30
0.0
 10
3197.169297555432
 20
2201.864286250217
 30
0.0
 10
3197.375866138365
 20
2202.189258306962
 30
0.0
 10
3197.559127301421
 20
2202.530399022504
 30
0.0
 10
3197.715698194301
 20
2202.884903139937
 30
0.0
 10
3197.785357672864
 20
2203.125472117903
 30
0.0
 10
3197.820346727535
 20
2203.246306802512
 30
0.0
  0
SPLINE
  5
164
330
1F
100
AcDbEntity
  8
0
  6
Continuous
 62
     7
370
    25
100
AcDbSpline
210
0.0
220
0.0
230
1.0
 70
     8
 71
     3
 72
    14
 73
    10
 74
     0
 42
0.000000001
 43
0.00000001
 40
0.0
 40
0.0
 40
0.0
 40
0.0
 40
0.219829610478679
 40
0.3499177958292917
 40
0.458898316134514
 40
0.5683999765787873
 40
0.6667094681232656
 40
0.7967198733581612
 40
1.0
 40
1.0
 40
1.0
 40
1.0
 10
3191.381256003951
 20
2202.989254982088
 30
0.0
 10
3191.439905353534
 20
2203.047555808441
 30
0.0
 10
3191.533261526472
 20
2203.140357213165
 30
0.0
 10
3191.689063816871
 20
2203.229225733863
 30
0.0
 10
3191.81225415788
 20
2203.269756785739
 30
0.0
 10
3191.916907144012
 20
2203.273479596312
 30
0.0
 10
3192.003989006471
 20
2203.242547218848
 30
0.0
 10
3192.077553532736
 20
2203.166646003628
 30
0.0
 10
3192.087305215683
 20
2203.081437727516
 30
0.0
 10
3192.093252949431
 20
2203.029467606848
 30
0.0
  0
SPLINE
  5
165
330
1F
100
AcDbEntity
  8
0
  6
Continuous
 62
     7
370
    25
100
AcDbSpline
210
0.0
220
0.0
230
1.0
 70
     8
 71
     3
 72
    33
 73
    29
 74
     0
 42
0.000000001
 43
0.00000001
 40
0.0
 40
0.0
 40
0.0
 40
0.0
 40
0.0453846795158901
 40
0.0910956457676723
 40
0.1377861112474395
 40
0.1847984484385312
 40
0.2588563244582947
 40
0.2965960583089259
 40
0.3345934417298216
 40
0.3627068189222344
 40
0.3910552764359777
 40
0.4192115960366999
 40
0.4481447873352628
 40
0.4657876556062956
 40
0.4839178616272556
 40
0.5015746029079481
 40
0.5197390882526054
 40
0.5448263126108248
 40
0.5705932132964179
 40
0.6177342306538938
 40
0.6659981837889742
 40
0.7087532480230097
 40
0.7518249524472393
 40
0.7957808044145238
 40
0.8400079168875079
 40
0.919110959784802
 40
0.9594357012421647
 40
1.0
 40
1.0
 40
1.0
 40
1.0
 10
3188.31497829817
 20
2202.706798195757
 30
0.0
 10
3188.225975168583
 20
2202.583041228802
 30
0.0
 10
3188.047329033995
 20
2202.334637561679
 30
0.0
 10
3187.820626360322
 20
2201.952491145425
 30
0.0
 10
3187.625148902523
 20
2201.563537455972
 30
0.0
 10
3187.43631040079
 20
2201.094982570668
 30
0.0
 10
3187.314625807925
 20
2200.654206111208
 30
0.0
 10
3187.255000215319
 20
2200.251277455074
 30
0.0
 10
3187.24183487996
 20
2199.981849132356
 30
0.0
 10
3187.25539815691
 20
2199.750501971308
 30
0.0
 10
3187.290013954613
 20
2199.559218536927
 30
0.0
 10
3187.351957073479
 20
2199.391538274036
 30
0.0
 10
3187.43553113532
 20
2199.281103774928
 30
0.0
 10
3187.531475036699
 20
2199.226172010717
 30
0.0
 10
3187.625329435521
 20
2199.211880694415
 30
0.0
 10
3187.732336114877
 20
2199.230971773386
 30
0.0
 10
3187.862788631418
 20
2199.287340473565
 30
0.0
 10
3188.018623752628
 20
2199.389954769647
 30
0.0
 10
3188.245577457053
 20
2199.578984090543
 30
0.0
 10
3188.532079604398
 20
2199.861730422532
 30
0.0
 10
3188.864164167393
 20
2200.21720592768
 30
0.0
 10
3189.192150707696
 20
2200.578159559725
 30
0.0
 10
3189.514432260263
 20
2200.935532355352
 30
0.0
 10
3189.844485087652
 20
2201.301069140883
 30
0.0
 10
3190.268483838073
 20
2201.768449564836
 30
0.0
 10
3190.684887907107
 20
2202.22435295668
 30
0.0
 10
3191.0856033412
 20
2202.662949542718
 30
0.0
 10
3191.282510732378
 20
2202.880271964899
 30
0.0
 10
3191.381256003951
 20
2202.989254982088
 30
0.0
  0
SPLINE
  5
166
330
1F
100
AcDbEntity
  8
0
  6
Continuous
 62
     7
370
    25
100
AcDbSpline
210
0.0
220
0.0
230
1.0
 70
     8
 71
     3
 72
    15
 73
    11
 74
     0
 42
0.000000001
 43
0.00000001
 40
0.0
 40
0.0
 40
0.0
 40
0.0
 40
0.2148110296556786
 40
0.3411322673416349
 40
0.4464287003092092
 40
0.5523542512426571
 40
0.644788909741458
 40
0.7660552293890108
 40
0.9403894463275342
 40
1.0
 40
1.0
 40
1.0
 40
1.0
 10
3188.220829146582
 20
2202.672924866504
 30
0.0
 10
3188.271825217715
 20
2202.733493066597
 30
0.0
 10
3188.352809911094
 20
2202.829678851192
 30
0.0
 10
3188.440753521042
 20
2202.924513196066
 30
0.0
 10
3188.487882208689
 20
2202.969978014331
 30
0.0
 10
3188.503641709893
 20
2202.977198462857
 30
0.0
 10
3188.490015473827
 20
2202.948861210026
 30
0.0
 10
3188.442253944557
 20
2202.878432357236
 30
0.0
 10
3188.376109320106
 20
2202.788563134484
 30
0.0
 10
3188.32739181536
 20
2202.723401721107
 30
0.0
 10
3188.31497829817
 20
2202.706798195757
 30
0.0
  0
SPLINE
  5
167
330
1F
100
AcDbEntity
  8
0
  6
Continuous
 62
     7
370
    25
100
AcDbSpline
210
0.0
220
0.0
230
1.0
 70
     8
 71
     3
 72
    16
 73
    12
 74
     0
 42
0.000000001
 43
0.00000001
 40
0.0
 40
0.0
 40
0.0
 40
0.0
 40
0.0379944131226306
 40
0.1306469269071318
 40
0.2239600225243269
 40
0.4141053981649953
 40
0.5189817172737603
 40
0.624394735493387
 40
0.7315388085909451
 40
0.8393122845544541
 40
1.0
 40
1.0
 40
1.0
 40
1.0
 10
3186.608887099145
 20
2198.91896458791
 30
0.0
 10
3186.608255756626
 20
2198.961407953177
 30
0.0
 10
3186.60608483324
 20
2199.107352969407
 30
0.0
 10
3186.636728220772
 20
2199.381810788374
 30
0.0
 10
3186.719367006741
 20
2199.849933749559
 30
0.0
 10
3186.865918899817
 20
2200.347920884897
 30
0.0
 10
3187.073712407616
 20
2200.861209433575
 30
0.0
 10
3187.270420429098
 20
2201.267382577199
 30
0.0
 10
3187.501402204284
 20
2201.674251702191
 30
0.0
 10
3187.806241049911
 20
2202.147038236812
 30
0.0
 10
3188.065593485857
 20
2202.476015309567
 30
0.0
 10
3188.220829146582
 20
2202.672924866504
 30
0.0
  0
LINE
  5
168
330
1F
100
AcDbEntity
  8
0
  6
Continuous
 62
     7
370
    25
100
AcDbLine
 10
3192.0932529494
 20
2203.0294676068
 30
0.0
 11
3192.0932529494
 21
1916.3506106858
 31
0.0
  0
SPLINE
  5
169
330
1F
100
AcDbEntity
  8
0
  6
Continuous
 62
     7
370
    25
100
AcDbSpline
210
0.0
220
0.0
230
1.0
 70
     8
 71
     3
 72
    33
 73
    29
 74
     0
 42
0.000000001
 43
0.00000001
 40
0.0
 40
0.0
 40
0.0
 40
0.0
 40
0.0441213647301359
 40
0.0885643240892572
 40
0.1339549310956379
 40
0.1796485529093164
 40
0.2244874082555792
 40
0.2696160366855427
 40
0.3157575130293424
 40
0.3623227711932848
 40
0.3904545578735254
 40
0.4187956069174145
 40
0.4469628201082573
 40
0.4757844533845215
 40
0.493761308793096
 40
0.5122052114429397
 40
0.5302047120128213
 40
0.548772796996429
 40
0.5721373294162967
 40
0.59614901929027
 40
0.6384785624500912
 40
0.6818249414599863
 40
0.7221252442697428
 40
0.7627269998851981
 40
0.8041331317540584
 40
0.8457735509867531
 40
0.9221430649462441
 40
1.0
 40
1.0
 40
1.0
 40
1.0
 10
2557.53815541025
 20
2202.989254982093
 30
0.0
 10
2557.645644716519
 20
2202.870655643692
 30
0.0
 10
2557.861406803999
 20
2202.632592512437
 30
0.0
 10
2558.197860617242
 20
2202.264515586805
 30
0.0
 10
2558.541215480448
 20
2201.888510949989
 30
0.0
 10
2558.88654944142
 20
2201.50897828056
 30
0.0
 10
2559.229408677948
 20
2201.130164017957
 30
0.0
 10
2559.569801694875
 20
2200.752668909276
 30
0.0
 10
2559.909421268734
 20
2200.376928592718
 30
0.0
 10
2560.202118906573
 20
2200.058690319767
 30
0.0
 10
2560.448029361958
 20
2199.80253118325
 30
0.0
 10
2560.647892193995
 20
2199.606401188663
 30
0.0
 10
2560.846732830529
 20
2199.431246492525
 30
0.0
 10
2561.017739922966
 20
2199.309376669719
 30
0.0
 10
2561.159403887609
 20
2199.240421399154
 30
0.0
 10
2561.269847566097
 20
2199.213173670453
 30
0.0
 10
2561.369562183429
 20
2199.220230868224
 30
0.0
 10
2561.46187346071
 20
2199.264561792696
 30
0.0
 10
2561.541668573905
 20
2199.352190142815
 30
0.0
 10
2561.619378595375
 20
2199.513501616661
 30
0.0
 10
2561.670039040925
 20
2199.758317711345
 30
0.0
 10
2561.678086887096
 20
2200.073560293024
 30
0.0
 10
2561.646259636427
 20
2200.402281332658
 30
0.0
 10
2561.581038487993
 20
2200.735552071551
 30
0.0
 10
2561.483067983148
 20
2201.078029154026
 30
0.0
 10
2561.315826815704
 20
2201.52264142659
 30
0.0
 10
2561.048274551986
 20
2202.071328801822
 30
0.0
 10
2560.753328453769
 20
2202.493617491196
 30
0.0
 10
2560.604433116036
 20
2202.706798195757
 30
0.0
  0
SPLINE
  5
16A
330
1F
100
AcDbEntity
  8
0
  6
Continuous
 62
     7
370
    25
100
AcDbSpline
210
0.0
220
0.0
230
1.0
 70
     8
 71
     3
 72
    14
 73
    10
 74
     0
 42
0.000000001
 43
0.00000001
 40
0.0
 40
0.0
 40
0.0
 40
0.0
 40
0.2204300636816891
 40
0.3399443732551006
 40
0.4603671101702898
 40
0.5640212293775776
 40
0.663172678887084
 40
0.8102691653343472
 40
1.0
 40
1.0
 40
1.0
 40
1.0
 10
2556.826158464775
 20
2203.029467606847
 30
0.0
 10
2556.833099404725
 20
2203.085815519474
 30
0.0
 10
2556.843803631914
 20
2203.172714536432
 30
0.0
 10
2556.926364970687
 20
2203.250066050794
 30
0.0
 10
2557.020522844481
 20
2203.276338695698
 30
0.0
 10
2557.13052146871
 20
2203.263768473158
 30
0.0
 10
2557.253550154642
 20
2203.218363340744
 30
0.0
 10
2557.39949480272
 20
2203.128900113899
 30
0.0
 10
2557.488192851483
 20
2203.039572287264
 30
0.0
 10
2557.53815541025
 20
2202.989254982093
 30
0.0
  0
SPLINE
  5
16B
330
1F
100
AcDbEntity
  8
0
  6
Continuous
 62
     7
370
    25
100
AcDbSpline
210
0.0
220
0.0
230
1.0
 70
     8
 71
     3
 72
    32
 73
    28
 74
     0
 42
0.000000001
 43
0.00000001
 40
0.0
 40
0.0
 40
0.0
 40
0.0
 40
0.043030190696153
 40
0.0863703585232807
 40
0.1306473267282204
 40
0.1752340698039881
 40
0.2184985703256647
 40
0.2620710116748359
 40
0.3067590161673287
 40
0.3519305753622473
 40
0.3854008499168447
 40
0.4193042262219329
 40
0.4528401599354621
 40
0.4875658065129603
 40
0.5106252861551551
 40
0.5343668716440408
 40
0.5574221930535553
 40
0.5810244918902135
 40
0.6175995456730563
 40
0.6551634288326448
 40
0.7176981382171244
 40
0.7818686090749127
 40
0.8252522659086751
 40
0.8689465762027809
 40
0.9135854729028726
 40
0.9585418566971373
 40
1.0
 40
1.0
 40
1.0
 40
1.0
 10
2551.099064686669
 20
2203.246306802516
 30
0.0
 10
2551.128793865448
 20
2203.141851465806
 30
0.0
 10
2551.188466383468
 20
2202.932188326152
 30
0.0
 10
2551.323546591295
 20
2202.609204447152
 30
0.0
 10
2551.491171665036
 20
2202.280326897492
 30
0.0
 10
2551.691815733086
 20
2201.951049852658
 30
0.0
 10
2551.921920183793
 20
2201.625476452286
 30
0.0
 10
2552.182332104478
 20
2201.304398880828
 30
0.0
 10
2552.47814519984
 20
2200.987729971856
 30
0.0
 10
2552.783336444846
 20
2200.709493774486
 30
0.0
 10
2553.089880819767
 20
2200.475586671206
 30
0.0
 10
2553.388616490749
 20
2200.288868818694
 30
0.0
 10
2553.71668992793
 20
2200.135345552885
 30
0.0
 10
2554.031877670447
 20
2200.046306878804
 30
0.0
 10
2554.320243677199
 20
2200.016799200107
 30
0.0
 10
2554.565552320842
 20
2200.029068937484
 30
0.0
 10
2554.803426377953
 20
2200.077732209226
 30
0.0
 10
2555.067966397652
 20
2200.171749111096
 30
0.0
 10
2555.349933766719
 20
2200.325680968174
 30
0.0
 10
2555.694798326585
 20
2200.588587186797
 30
0.0
 10
2556.039601738027
 20
2200.952985759786
 30
0.0
 10
2556.319607398899
 20
2201.359266600669
 30
0.0
 10
2556.515967308279
 20
2201.730628923158
 30
0.0
 10
2556.651002631097
 20
2202.057875717463
 30
0.0
 10
2556.749770422135
 20
2202.390033497139
 30
0.0
 10
2556.811960453289
 20
2202.715815469905
 30
0.0
 10
2556.821555266977
 20
2202.927777111138
 30
0.0
 10
2556.826158464775
 20
2203.029467606847
 30
0.0
  0
SPLINE
  5
16C
330
1F
100
AcDbEntity
  8
0
  6
Continuous
 62
     7
370
    25
100
AcDbSpline
210
0.0
220
0.0
230
1.0
 70
     8
 71
     3
 72
    14
 73
    10
 74
     0
 42
0.000000001
 43
0.00000001
 40
0.0
 40
0.0
 40
0.0
 40
0.0
 40
0.2240635092470304
 40
0.3487071205324097
 40
0.4742528072798147
 40
0.582549286062411
 40
0.6866084231150057
 40
0.8379727149431769
 40
1.0
 40
1.0
 40
1.0
 40
1.0
 10
2550.305368169343
 20
2203.263566562477
 30
0.0
 10
2550.361344459609
 20
2203.318440183701
 30
0.0
 10
2550.448459630939
 20
2203.403839285564
 30
0.0
 10
2550.613810613636
 20
2203.47972521488
 30
0.0
 10
2550.748935557716
 20
2203.505469933836
 30
0.0
 10
2550.868020240406
 20
2203.492693103537
 30
0.0
 10
2550.972491623162
 20
2203.447319609754
 30
0.0
 10
2551.057706534216
 20
2203.365146315181
 30
0.0
 10
2551.084969433634
 20
2203.286808442514
 30
0.0
 10
2551.099064686669
 20
2203.246306802516
 30
0.0
  0
SPLINE
  5
16D
330
1F
100
AcDbEntity
  8
0
  6
Continuous
 62
     7
370
    25
100
AcDbSpline
210
0.0
220
0.0
230
1.0
 70
     8
 71
     3
 72
    31
 73
    27
 74
     0
 42
0.000000001
 43
0.00000001
 40
0.0
 40
0.0
 40
0.0
 40
0.0
 40
0.0425768439200444
 40
0.0854562266634127
 40
0.1292655212993002
 40
0.173389605136572
 40
0.2448927928827648
 40
0.2814175395970716
 40
0.3182118727426333
 40
0.3578509173303897
 40
0.398148410582491
 40
0.4288224096626751
 40
0.4602420416076359
 40
0.4856042083258787
 40
0.5116936315326891
 40
0.5370616943792875
 40
0.5630949909788234
 40
0.5995472643023573
 40
0.6370102149324139
 40
0.6959998903666251
 40
0.7565561265102965
 40
0.7981804952569076
 40
0.8401079728424178
 40
0.8829363933458971
 40
0.9260588511262529
 40
0.9999999999999999
 40
0.9999999999999999
 40
0.9999999999999999
 40
0.9999999999999999
 10
2546.230076745255
 20
2203.263566562477
 30
0.0
 10
2546.165416025199
 20
2203.163907287904
 30
0.0
 10
2546.035635124585
 20
2202.96388058858
 30
0.0
 10
2545.88147847152
 20
2202.656973488019
 30
0.0
 10
2545.757959690856
 20
2202.345449290216
 30
0.0
 10
2545.652337180832
 20
2201.966876272067
 30
0.0
 10
2545.608338069811
 20
2201.610304335982
 30
0.0
 10
2545.622144522703
 20
2201.284532219948
 30
0.0
 10
2545.664635655614
 20
2201.041103634709
 30
0.0
 10
2545.746160345191
 20
2200.806805667393
 30
0.0
 10
2545.865993131599
 20
2200.611209864822
 30
0.0
 10
2546.017197440251
 20
2200.464658661285
 30
0.0
 10
2546.17931920487
 20
2200.375227028757
 30
0.0
 10
2546.361061649985
 20
2200.331186800561
 30
0.0
 10
2546.550217167998
 20
2200.329040061566
 30
0.0
 10
2546.756013941221
 20
2200.366198273669
 30
0.0
 10
2546.999189711647
 20
2200.448018163493
 30
0.0
 10
2547.281697740053
 20
2200.585702231302
 30
0.0
 10
2547.655744131655
 20
2200.816465774208
 30
0.0
 10
2548.090037319749
 20
2201.137238725967
 30
0.0
 10
2548.52176198276
 20
2201.497406448533
 30
0.0
 10
2548.895821163298
 20
2201.831441340747
 30
0.0
 10
2549.214646141501
 20
2202.12962480955
 30
0.0
 10
2549.525840047164
 20
2202.433729681353
 30
0.0
 10
2549.900966286242
 20
2202.814748357847
 30
0.0
 10
2550.148817408287
 20
2203.089821497365
 30
0.0
 10
2550.305368169343
 20
2203.263566562477
 30
0.0
  0
SPLINE
  5
16E
330
1F
100
AcDbEntity
  8
0
  6
Continuous
 62
     7
370
    25
100
AcDbSpline
210
0.0
220
0.0
230
1.0
 70
     8
 71
     3
 72
    14
 73
    10
 74
     0
 42
0.000000001
 43
0.00000001
 40
0.0
 40
0.0
 40
0.0
 40
0.0
 40
0.2236978580034303
 40
0.3528357075717115
 40
0.4829964006465511
 40
0.5936020866478389
 40
0.6970463839855429
 40
0.8440092931473824
 40
1.0
 40
1.0
 40
1.0
 40
1.0
 10
2545.952350322078
 20
2203.246306802512
 30
0.0
 10
2546.013815102496
 20
2203.302083953451
 30
0.0
 10
2546.110762697271
 20
2203.390060524588
 30
0.0
 10
2546.2315045682
 20
2203.472946822509
 30
0.0
 10
2546.302939577969
 20
2203.504740079274
 30
0.0
 10
2546.336199775277
 20
2203.495746380313
 30
0.0
 10
2546.33737383042
 20
2203.453745409582
 30
0.0
 10
2546.303941385147
 20
2203.376379424455
 30
0.0
 10
2546.255182617174
 20
2203.301910555866
 30
0.0
 10
2546.230076745255
 20
2203.263566562477
 30
0.0
  0
SPLINE
  5
16F
330
1F
100
AcDbEntity
  8
0
  6
Continuous
 62
     7
370
    25
100
AcDbSpline
210
0.0
220
0.0
230
1.0
 70
     8
 71
     3
 72
    18
 73
    14
 74
     0
 42
0.000000001
 43
0.00000001
 40
0.0
 40
0.0
 40
0.0
 40
0.0
 40
0.0325269511878182
 40
0.1043523411979955
 40
0.1781473460792684
 40
0.2999215112613894
 40
0.4248530905237326
 40
0.5146845338820941
 40
0.6051712619145884
 40
0.6975951152610248
 40
0.7906484990243859
 40
0.8948454501213587
 40
1.0
 40
1.0
 40
1.0
 40
1.0
 10
2543.727945358487
 20
2200.084298160136
 30
0.0
 10
2543.727937397185
 20
2200.098069940644
 30
0.0
 10
2543.727911855885
 20
2200.142252302837
 30
0.0
 10
2543.762868957315
 20
2200.268953683632
 30
0.0
 10
2543.84915923472
 20
2200.497046163327
 30
0.0
 10
2544.006988878928
 20
2200.822777807231
 30
0.0
 10
2544.22547717655
 20
2201.19514070424
 30
0.0
 10
2544.459624481946
 20
2201.545660893007
 30
0.0
 10
2544.693475720132
 20
2201.864283777074
 30
0.0
 10
2544.95333109755
 20
2202.189258977855
 30
0.0
 10
2545.24929594392
 20
2202.530398819006
 30
0.0
 10
2545.580226765517
 20
2202.884903193754
 30
0.0
 10
2545.827931459601
 20
2203.125472135897
 30
0.0
 10
2545.952350322078
 20
2203.246306802512
 30
0.0
  0
SPLINE
  5
170
330
1F
100
AcDbEntity
  8
0
  6
Continuous
 62
     7
370
    25
100
AcDbSpline
210
0.0
220
0.0
230
1.0
 70
     8
 71
     3
 72
    16
 73
    12
 74
     0
 42
0.000000001
 43
0.00000001
 40
0.0
 40
0.0
 40
0.0
 40
0.0
 40
0.1096448922561221
 40
0.2200915687980045
 40
0.3328514698241484
 40
0.446331295986732
 40
0.5590926662030933
 40
0.6725202740452546
 40
0.7881687652613487
 40
0.9046934709395607
 40
1.0
 40
1.0
 40
1.0
 40
1.0
 10
2560.698582267625
 20
2202.672924866504
 30
0.0
 10
2560.805601044018
 20
2202.539098094509
 30
0.0
 10
2561.020421177474
 20
2202.270465934914
 30
0.0
 10
2561.305508276194
 20
2201.854508002167
 30
0.0
 10
2561.562234940053
 20
2201.428892142009
 30
0.0
 10
2561.784654641601
 20
2200.996321423324
 30
0.0
 10
2561.971058064705
 20
2200.561189962362
 30
0.0
 10
2562.121586218727
 20
2200.123254754214
 30
0.0
 10
2562.231660726405
 20
2199.685924020451
 30
0.0
 10
2562.303349115146
 20
2199.274552465497
 30
0.0
 10
2562.305175676575
 20
2199.033313047159
 30
0.0
 10
2562.305997478091
 20
2198.924775268664
 30
0.0
  0
SPLINE
  5
171
330
1F
100
AcDbEntity
  8
0
  6
Continuous
 62
     7
370
    25
100
AcDbSpline
210
0.0
220
0.0
230
1.0
 70
     8
 71
     3
 72
    15
 73
    11
 74
     0
 42
0.000000001
 43
0.00000001
 40
0.0
 40
0.0
 40
0.0
 40
0.0
 40
0.2153296810342054
 40
0.3327055588565089
 40
0.4327106172887869
 40
0.5331289091056087
 40
0.6249491950544647
 40
0.7533679527278729
 40
0.9418458044828106
 40
1.0
 40
1.0
 40
1.0
 40
1.0
 10
2560.604433116036
 20
2202.706798195757
 30
0.0
 10
2560.560302730864
 20
2202.765950787183
 30
0.0
 10
2560.492116940636
 20
2202.857347365182
 30
0.0
 10
2560.434707538045
 20
2202.94052537646
 30
0.0
 10
2560.415936790254
 20
2202.974820189123
 30
0.0
 10
2560.426196720209
 20
2202.97378599224
 30
0.0
 10
2560.464453804557
 20
2202.939020888221
 30
0.0
 10
2560.540285882156
 20
2202.858699960711
 30
0.0
 10
2560.626328982017
 20
2202.759873973322
 30
0.0
 10
2560.684796108317
 20
2202.68951503577
 30
0.0
 10
2560.698582267625
 20
2202.672924866504
 30
0.0
  0
LINE
  5
172
330
1F
100
AcDbEntity
  8
0
  6
Continuous
 62
     7
370
    25
100
AcDbLine
 10
2556.8261584648
 20
2203.0294676068
 30
0.0
 11
2556.8261584648
 21
1916.3506106858
 31
0.0
  0
LINE
  5
173
330
1F
100
AcDbEntity
  8
0
  6
Continuous
 62
     7
370
    25
100
AcDbLine
 10
2562.6841380657
 20
1916.3506106858
 30
0.0
 11
2543.6841380657
 21
1916.3506106858
 31
0.0
  0
LINE
  5
174
330
1F
100
AcDbEntity
  8
0
  6
Continuous
 62
     7
370
    25
100
AcDbLine
 10
2556.3661185811
 20
1908.3506106858
 30
0.0
 11
2548.6841380657
 21
1908.3506106858
 31
0.0
  0
LINE
  5
175
330
1F
100
AcDbEntity
  8
0
  6
Continuous
 62
     7
370
    25
100
AcDbLine
 10
2557.6841380657
 20
1908.3506106858
 30
0.0
 11
2556.3661185811
 21
1908.3506106858
 31
0.0
  0
LINE
  5
176
330
1F
100
AcDbEntity
  8
0
  6
Continuous
 62
     7
370
    25
100
AcDbLine
 10
3189.0177589272
 20
1916.3506106858
 30
0.0
 11
3186.2352733485
 21
1916.3506106858
 31
0.0
  0
LINE
  5
177
330
1F
100
AcDbEntity
  8
0
  6
Continuous
 62
     7
370
    25
100
AcDbLine
 10
3205.2352733485
 20
1916.3506106858
 30
0.0
 11
3189.0177589272
 21
1916.3506106858
 31
0.0
  0
LINE
  5
178
330
1F
100
AcDbEntity
  8
0
  6
Continuous
 62
     7
370
    25
100
AcDbLine
 10
3200.2352733485
 20
1908.3506106858
 30
0.0
 11
3191.2352733485
 21
1908.3506106858
 31
0.0
  0
LINE
  5
179
330
1F
100
AcDbEntity
  8
0
  6
Continuous
 62
     7
370
    25
100
AcDbLine
 10
2429.4597057071
 20
2201.3506106901
 30
0.0
 11
2544.2929268281
 21
2201.3506106901
 31
0.0
  0
LINE
  5
17A
330
1F
100
AcDbEntity
  8
0
  6
Continuous
 62
     7
370
    25
100
AcDbLine
 10
2561.5766918935
 20
2201.3506106901
 30
0.0
 11
3187.325011364
 21
2201.3506106901
 31
0.0
  0
LINE
  5
17B
330
1F
100
AcDbEntity
  8
0
  6
Continuous
 62
     7
370
    25
100
AcDbLine
 10
3204.6264845861
 20
2201.3506106901
 30
0.0
 11
3319.4597057071
 21
2201.3506106901
 31
0.0
  0
LINE
  5
17C
330
1F
100
AcDbEntity
  8
0
  6
Continuous
 62
     7
370
    25
100
AcDbLine
 10
2429.4597057071
 20
2191.3506106901
 30
0.0
 11
2543.725614632
 21
2191.3506106901
 31
0.0
  0
LINE
  5
17D
330
1F
100
AcDbEntity
  8
0
  6
Continuous
 62
     7
370
    25
100
AcDbLine
 10
2563.352585162
 20
2191.3506106901
 30
0.0
 11
3185.5668262522
 21
2191.3506106901
 31
0.0
  0
LINE
  5
17E
330
1F
100
AcDbEntity
  8
0
  6
Continuous
 62
     7
370
    25
100
AcDbLine
 10
3205.1937967822
 20
2191.3506106901
 30
0.0
 11
3319.4597057071
 21
2191.3506106901
 31
0.0
  0
LINE
  5
17F
330
1F
100
AcDbEntity
  8
0
  6
Continuous
 62
     8
370
    18
100
AcDbLine
 10
3187.2463366647
 20
2188.8506106901
 30
0.0
 11
2874.4597057071
 21
2188.8506106901
 31
0.0
  0
LINE
  5
180
330
1F
100
AcDbEntity
  8
0
  6
Continuous
 62
     8
370
    18
100
AcDbLine
 10
3187.2463366647
 20
2158.8506106901
 30
0.0
 11
2874.4597057071
 21
2158.8506106901
 31
0.0
  0
SPLINE
  5
181
330
1F
100
AcDbEntity
  8
0
  6
Continuous
 62
     8
370
    18
100
AcDbSpline
210
0.0
220
0.0
230
1.0
 70
     8
 71
     3
 72
    12
 73
     8
 74
     0
 42
0.000000001
 43
0.00000001
 40
0.0
 40
0.0
 40
0.0
 40
0.0
 40
0.0835924945624879
 40
0.3494756567342685
 40
0.6075198326803354
 40
0.8727503361624726
 40
1.0
 40
1.0
 40
1.0
 40
1.0
 10
2561.673074749528
 20
2191.239299323741
 30
0.0
 10
2561.706853630874
 20
2191.24034705269
 30
0.0
 10
2561.84807320811
 20
2191.244727299556
 30
0.0
 10
2562.029060446617
 20
2191.275458839739
 30
0.0
 10
2562.207350460389
 20
2191.317012729744
 30
0.0
 10
2562.291209117494
 20
2191.34651668424
 30
0.0
 10
2562.307398833639
 20
2191.349608321466
 30
0.0
 10
2562.312647852847
 20
2191.35061069007
 30
0.0
  0
LINE
  5
182
330
1F
100
AcDbEntity
  8
0
  6
Continuous
 62
     8
370
    18
100
AcDbLine
 10
2874.4597057071
 20
2188.8506106901
 30
0.0
 11
2561.6730747495
 21
2188.8506106901
 31
0.0
  0
SPLINE
  5
183
330
1F
100
AcDbEntity
  8
0
  6
Continuous
 62
     8
370
    18
100
AcDbSpline
210
0.0
220
0.0
230
1.0
 70
     8
 71
     3
 72
    11
 73
     7
 74
     0
 42
0.000000001
 43
0.00000001
 40
0.0
 40
0.0
 40
0.0
 40
0.0
 40
0.2575040019817796
 40
0.5228363098560637
 40
0.7801681835688766
 40
1.0
 40
1.0
 40
1.0
 40
1.0
 10
2562.312647852847
 20
2156.35061069007
 30
0.0
 10
2562.298501796426
 20
2156.354594999799
 30
0.0
 10
2562.269779633347
 20
2156.362684745121
 30
0.0
 10
2562.126966044968
 20
2156.405289552528
 30
0.0
 10
2561.932978272519
 20
2156.44513668034
 30
0.0
 10
2561.755048109495
 20
2156.457375346995
 30
0.0
 10
2561.673074749528
 20
2156.463013764958
 30
0.0
  0
LINE
  5
184
330
1F
100
AcDbEntity
  8
0
  6
Continuous
 62
     8
370
    18
100
AcDbLine
 10
2874.4597057071
 20
2158.8506106901
 30
0.0
 11
2561.6730747495
 21
2158.8506106901
 31
0.0
  0
LINE
  5
185
330
1F
100
AcDbEntity
  8
0
  6
Continuous
 62
     8
370
    18
100
AcDbLine
 10
3197.8203467275
 20
2203.2463068025
 30
0.0
 11
3197.8203467275
 21
1916.3506106858
 31
0.0
  0
LINE
  5
186
330
1F
100
AcDbEntity
  8
0
  6
Continuous
 62
     8
370
    18
100
AcDbLine
 10
3198.6140432449
 20
2203.2635665625
 30
0.0
 11
3198.6140432449
 21
1916.3506106858
 31
0.0
  0
LINE
  5
187
330
1F
100
AcDbEntity
  8
0
  6
Continuous
 62
     8
370
    18
100
AcDbLine
 10
3191.381256004
 20
2202.9892549821
 30
0.0
 11
3191.381256004
 21
1916.3506106858
 31
0.0
  0
LINE
  5
188
330
1F
100
AcDbEntity
  8
0
  6
Continuous
 62
     8
370
    18
100
AcDbLine
 10
3202.9670610921
 20
2203.2463068025
 30
0.0
 11
3202.9670610921
 21
2202.785983412
 31
0.0
  0
LINE
  5
189
330
1F
100
AcDbEntity
  8
0
  6
Continuous
 62
     8
370
    18
100
AcDbLine
 10
3188.2208291466
 20
2202.6729248665
 30
0.0
 11
3188.2208291466
 21
2202.5719071087
 31
0.0
  0
LINE
  5
18A
330
1F
100
AcDbEntity
  8
0
  6
Continuous
 62
     8
370
    18
100
AcDbLine
 10
2551.0990646867
 20
2203.2463068025
 30
0.0
 11
2551.0990646867
 21
1916.3506106858
 31
0.0
  0
LINE
  5
18B
330
1F
100
AcDbEntity
  8
0
  6
Continuous
 62
     8
370
    18
100
AcDbLine
 10
2550.3053681693
 20
2203.2635665625
 30
0.0
 11
2550.3053681693
 21
1916.3506106858
 31
0.0
  0
LINE
  5
18C
330
1F
100
AcDbEntity
  8
0
  6
Continuous
 62
     8
370
    18
100
AcDbLine
 10
2557.5381554102
 20
2202.9892549821
 30
0.0
 11
2557.5381554102
 21
1916.3506106858
 31
0.0
  0
LINE
  5
18D
330
1F
100
AcDbEntity
  8
0
  6
Continuous
 62
     8
370
    18
100
AcDbLine
 10
2545.9523503221
 20
2203.2463068025
 30
0.0
 11
2545.9523503221
 21
2202.7857475938
 31
0.0
  0
LINE
  5
18E
330
1F
100
AcDbEntity
  8
0
  6
Continuous
 62
     8
370
    18
100
AcDbLine
 10
2560.6985822676
 20
2202.6729248665
 30
0.0
 11
2560.6985822676
 21
2202.5646415763
 31
0.0
  0
LINE
  5
18F
330
1F
100
AcDbEntity
  8
0
  6
Continuous
 62
     8
370
    18
100
AcDbLine
 10
2559.901652487
 20
1913.3506106858
 30
0.0
 11
2562.6841380657
 21
1913.3506106858
 31
0.0
  0
LINE
  5
190
330
1F
100
AcDbEntity
  8
0
  6
Continuous
 62
     8
370
    18
100
AcDbLine
 10
2543.6841380657
 20
1913.3506106858
 30
0.0
 11
2559.901652487
 21
1913.3506106858
 31
0.0
  0
LINE
  5
191
330
1F
100
AcDbEntity
  8
0
  6
Continuous
 62
     8
370
    18
100
AcDbLine
 10
3186.2352733485
 20
1913.3506106858
 30
0.0
 11
3205.2352733485
 21
1913.3506106858
 31
0.0
  0
LINE
  5
192
330
1F
100
AcDbEntity
  8
0
  6
Continuous
 62
     7
370
    25
100
AcDbLine
 10
1474.1383223772
 20
824.1272673594
 30
0.0
 11
1477.8458294154
 21
827.8347743976
 31
0.0
  0
LINE
  5
193
330
1F
100
AcDbEntity
  8
0
  6
Continuous
 62
     7
370
    25
100
AcDbLine
 10
2107.081476848
 20
1457.0704218302
 30
0.0
 11
2110.7889838863
 21
1460.7779288685
 31
0.0
  0
LINE
  5
194
330
1F
100
AcDbEntity
  8
0
  6
Continuous
 62
     7
370
    25
100
AcDbLine
 10
1463.5317206594
 20
834.7338690772
 30
0.0
 11
1467.2392276976
 21
838.4413761154
 31
0.0
  0
LINE
  5
195
330
1F
100
AcDbEntity
  8
0
  6
Continuous
 62
     7
370
    25
100
AcDbLine
 10
2096.4748751303
 20
1467.677023548
 30
0.0
 11
2100.1823821685
 21
1471.3845305863
 31
0.0
  0
LINE
  5
196
330
1F
100
AcDbEntity
  8
0
  6
Continuous
 62
     7
370
    25
100
AcDbLine
 10
2100.1823821685
 20
824.1272673594
 30
0.0
 11
2096.4748751303
 21
827.8347743976
 31
0.0
  0
LINE
  5
197
330
1F
100
AcDbEntity
  8
0
  6
Continuous
 62
     7
370
    25
100
AcDbLine
 10
1467.2392276976
 20
1457.0704218302
 30
0.0
 11
1463.5317206594
 21
1460.7779288685
 31
0.0
  0
LINE
  5
198
330
1F
100
AcDbEntity
  8
0
  6
Continuous
 62
     7
370
    25
100
AcDbLine
 10
2110.7889838863
 20
834.7338690772
 30
0.0
 11
2107.0814768481
 21
838.4413761154
 31
0.0
  0
LINE
  5
199
330
1F
100
AcDbEntity
  8
0
  6
Continuous
 62
     7
370
    25
100
AcDbLine
 10
1477.8458294154
 20
1467.677023548
 30
0.0
 11
1474.1383223772
 21
1471.3845305863
 31
0.0
  0
SPLINE
  5
19A
330
1F
100
AcDbEntity
  8
0
  6
Continuous
 62
     7
370
    25
100
AcDbSpline
210
0.0
220
0.0
230
1.0
 70
     8
 71
     3
 72
    33
 73
    29
 74
     0
 42
0.000000001
 43
0.00000001
 40
0.0
 40
0.0
 40
0.0
 40
0.0
 40
0.044121364730137
 40
0.0885643240892582
 40
0.1339549310956388
 40
0.1796485529093172
 40
0.2244874082555727
 40
0.2696160366855321
 40
0.3157575130293361
 40
0.36232277119328
 40
0.3904545578735195
 40
0.4187956069174109
 40
0.4469628201082561
 40
0.4757844533845231
 40
0.4937613087930977
 40
0.5122052114429453
 40
0.5302047120128225
 40
0.5487727969964327
 40
0.5721373294162976
 40
0.5961490192902708
 40
0.6384785624500998
 40
0.6818249414599873
 40
0.7221252442697438
 40
0.762726999885199
 40
0.8041331317540592
 40
0.8457735509867539
 40
0.9221430649462464
 40
1.0
 40
1.0
 40
1.0
 40
1.0
 10
2104.081902569688
 20
1475.170588532545
 30
0.0
 10
2103.974413263418
 20
1475.216370037196
 30
0.0
 10
2103.758651175938
 20
1475.308266741661
 30
0.0
 10
2103.422197362695
 20
1475.394241480659
 30
0.0
 10
2103.078842499489
 20
1475.442697704815
 30
0.0
 10
2102.733508538517
 20
1475.448982915445
 30
0.0
 10
2102.390649301989
 20
1475.414773712973
 30
0.0
 10
2102.050256285062
 20
1475.339525670839
 30
0.0
 10
2101.710636711203
 20
1475.219890295429
 30
0.0
 10
2101.417939073364
 20
1475.07309243447
 30
0.0
 10
2101.172028617979
 20
1474.914464923105
 30
0.0
 10
2100.972165785941
 20
1474.760185163918
 30
0.0
 10
2100.773325149408
 20
1474.576219434197
 30
0.0
 10
2100.602318056971
 20
1474.384194482539
 30
0.0
 10
2100.460654092328
 20
1474.194069891261
 30
0.0
 10
2100.35021041384
 20
1474.021948540616
 30
0.0
 10
2100.250495796508
 20
1473.838904199643
 30
0.0
 10
2100.158184519227
 20
1473.636212318243
 30
0.0
 10
2100.078389406032
 20
1473.416035290305
 30
0.0
 10
2100.000679384562
 20
1473.12785074137
 30
0.0
 10
2099.950018939011
 20
1472.795513685401
 30
0.0
 10
2099.941971092841
 20
1472.438963382957
 30
0.0
 10
2099.97379834351
 20
1472.105730465056
 30
0.0
 10
2100.039019491944
 20
1471.792989539394
 30
0.0
 10
2100.136989996789
 20
1471.491300528841
 30
0.0
 10
2100.304231164233
 20
1471.12261754944
 30
0.0
 10
2100.571783427952
 20
1470.700076639585
 30
0.0
 10
2100.866729526168
 20
1470.427990594532
 30
0.0
 10
2101.015624863901
 20
1470.290635519094
 30
0.0
  0
SPLINE
  5
19B
330
1F
100
AcDbEntity
  8
0
  6
Continuous
 62
     7
370
    25
100
AcDbSpline
210
0.0
220
0.0
230
1.0
 70
     8
 71
     3
 72
    14
 73
    10
 74
     0
 42
0.000000001
 43
0.00000001
 40
0.0
 40
0.0
 40
0.0
 40
0.0
 40
0.2204300636817664
 40
0.3399443732550984
 40
0.4603671101703519
 40
0.5640212293775765
 40
0.6631726788871504
 40
0.8102691653344058
 40
1.0
 40
1.0
 40
1.0
 40
1.0
 10
2104.793899515162
 20
1475.617965864761
 30
0.0
 10
2104.786958575212
 20
1475.553553397866
 30
0.0
 10
2104.776254348023
 20
1475.45421733035
 30
0.0
 10
2104.693693009251
 20
1475.313653402033
 30
0.0
 10
2104.599535135455
 20
1475.220348731447
 30
0.0
 10
2104.489536511227
 20
1475.158422644761
 30
0.0
 10
2104.366507825295
 20
1475.123079217285
 30
0.0
 10
2104.220563177217
 20
1475.119148359903
 30
0.0
 10
2104.131865128453
 20
1475.152053472773
 30
0.0
 10
2104.081902569688
 20
1475.170588532545
 30
0.0
  0
SPLINE
  5
19C
330
1F
100
AcDbEntity
  8
0
  6
Continuous
 62
     7
370
    25
100
AcDbSpline
210
0.0
220
0.0
230
1.0
 70
     8
 71
     3
 72
    32
 73
    28
 74
     0
 42
0.000000001
 43
0.00000001
 40
0.0
 40
0.0
 40
0.0
 40
0.0
 40
0.0430301906961574
 40
0.0863703585232829
 40
0.1306473267282204
 40
0.1752340698039848
 40
0.2184985703256639
 40
0.2620710116748347
 40
0.3067590161673296
 40
0.351930575362246
 40
0.3854008499168506
 40
0.4193042262219386
 40
0.4528401599354718
 40
0.487565806512966
 40
0.5106252861551664
 40
0.5343668716440451
 40
0.5574221930535544
 40
0.5810244918902234
 40
0.6175995456730617
 40
0.6551634288326477
 40
0.7176981382171267
 40
0.7818686090749146
 40
0.8252522659086715
 40
0.8689465762027822
 40
0.9135854729028734
 40
0.9585418566971335
 40
0.9999999999999999
 40
0.9999999999999999
 40
0.9999999999999999
 40
0.9999999999999999
 10
2110.520993293268
 20
1476.263254357824
 30
0.0
 10
2110.491264114489
 20
1476.37111452008
 30
0.0
 10
2110.43159159647
 20
1476.587611838214
 30
0.0
 10
2110.296511388642
 20
1476.894070914179
 30
0.0
 10
2110.128886314902
 20
1477.185639969461
 30
0.0
 10
2109.928242246851
 20
1477.454918695374
 30
0.0
 10
2109.698137796144
 20
1477.699484042517
 30
0.0
 10
2109.437725875459
 20
1477.919197467467
 30
0.0
 10
2109.141912780096
 20
1478.113878420865
 30
0.0
 10
2108.83672153509
 20
1478.264118428389
 30
0.0
 10
2108.53017716017
 20
1478.373354385293
 30
0.0
 10
2108.231441489188
 20
1478.446313193968
 30
0.0
 10
2107.903368052007
 20
1478.48942177153
 30
0.0
 10
2107.58818030949
 20
1478.493384174247
 30
0.0
 10
2107.299814302739
 20
1478.466287174799
 30
0.0
 10
2107.054505659095
 20
1478.421578997063
 30
0.0
 10
2106.816631601984
 20
1478.356701739475
 30
0.0
 10
2106.552091582285
 20
1478.260293806778
 30
0.0
 10
2106.270124213218
 20
1478.122831843397
 30
0.0
 10
2105.925259653352
 20
1477.900739818473
 30
0.0
 10
2105.58045624191
 20
1477.595815481704
 30
0.0
 10
2105.300450581038
 20
1477.243145355369
 30
0.0
 10
2105.104090671658
 20
1476.906611428298
 30
0.0
 10
2104.969055348841
 20
1476.599225683866
 30
0.0
 10
2104.870287557801
 20
1476.275433623938
 30
0.0
 10
2104.808097526649
 20
1475.947034678653
 30
0.0
 10
2104.79850271296
 20
1475.72465466699
 30
0.0
 10
2104.793899515162
 20
1475.617965864761
 30
0.0
  0
SPLINE
  5
19D
330
1F
100
AcDbEntity
  8
0
  6
Continuous
 62
     7
370
    25
100
AcDbSpline
210
0.0
220
0.0
230
1.0
 70
     8
 71
     3
 72
    14
 73
    10
 74
     0
 42
0.000000001
 43
0.00000001
 40
0.0
 40
0.0
 40
0.0
 40
0.0
 40
0.2240635092470061
 40
0.3487071205324369
 40
0.4742528072798042
 40
0.5825492860623778
 40
0.6866084231150064
 40
0.8379727149431397
 40
1.0
 40
1.0
 40
1.0
 40
1.0
 10
2111.314689810594
 20
1475.98552793465
 30
0.0
 10
2111.258713520328
 20
1475.950231202076
 30
0.0
 10
2111.171598348998
 20
1475.895299356988
 30
0.0
 10
2111.0062473663
 20
1475.873737405099
 30
0.0
 10
2110.871122422221
 20
1475.892315699362
 30
0.0
 10
2110.752037739531
 20
1475.944323376633
 30
0.0
 10
2110.647566356775
 20
1476.02410898361
 30
0.0
 10
2110.562351445721
 20
1476.133888359592
 30
0.0
 10
2110.535088546303
 20
1476.219165191091
 30
0.0
 10
2110.520993293268
 20
1476.263254357824
 30
0.0
  0
SPLINE
  5
19E
330
1F
100
AcDbEntity
  8
0
  6
Continuous
 62
     7
370
    25
100
AcDbSpline
210
0.0
220
0.0
230
1.0
 70
     8
 71
     3
 72
    31
 73
    27
 74
     0
 42
0.000000001
 43
0.00000001
 40
0.0
 40
0.0
 40
0.0
 40
0.0
 40
0.0425768439200444
 40
0.0854562266634144
 40
0.1292655212992932
 40
0.1733896051365756
 40
0.2448927928827642
 40
0.2814175395970749
 40
0.3182118727426337
 40
0.357850917330389
 40
0.3981484105824904
 40
0.4288224096626745
 40
0.4602420416076312
 40
0.4856042083258781
 40
0.511693631532681
 40
0.5370616943792907
 40
0.563094990978824
 40
0.5995472643023532
 40
0.6370102149324117
 40
0.6959998903666281
 40
0.7565561265102958
 40
0.7981804952569073
 40
0.8401079728424181
 40
0.8829363933459011
 40
0.9260588511262573
 40
1.0
 40
1.0
 40
1.0
 40
1.0
 10
2115.389981234682
 20
1471.910236510562
 30
0.0
 10
2115.454641954737
 20
1471.99904678195
 30
0.0
 10
2115.584422855352
 20
1472.177298385005
 30
0.0
 10
2115.738579508416
 20
1472.469361099367
 30
0.0
 10
2115.862098289081
 20
1472.778434719817
 30
0.0
 10
2115.967720799105
 20
1473.171250699859
 30
0.0
 10
2116.011719910126
 20
1473.563486031351
 30
0.0
 10
2115.997913457234
 20
1473.948705173369
 30
0.0
 10
2115.955422324323
 20
1474.255384863996
 30
0.0
 10
2115.873897634746
 20
1474.578395970687
 30
0.0
 10
2115.754064848338
 20
1474.8896224315
 30
0.0
 10
2115.602860539685
 20
1475.1786752634
 30
0.0
 10
2115.440738775067
 20
1475.422529764168
 30
0.0
 10
2115.258996329952
 20
1475.643898205247
 30
0.0
 10
2115.069840811939
 20
1475.834974301676
 30
0.0
 10
2114.864044038715
 20
1476.007372751448
 30
0.0
 10
2114.62086826829
 20
1476.175984168829
 30
0.0
 10
2114.338360239884
 20
1476.329833239984
 30
0.0
 10
2113.964313848282
 20
1476.479053709621
 30
0.0
 10
2113.530020660188
 20
1476.581500024445
 30
0.0
 10
2113.098295997177
 20
1476.608810088897
 30
0.0
 10
2112.724236816639
 20
1476.580996859308
 30
0.0
 10
2112.405411838436
 20
1476.52143780041
 30
0.0
 10
2112.094217932773
 20
1476.425550454589
 30
0.0
 10
2111.719091693695
 20
1476.26642004843
 30
0.0
 10
2111.47124057165
 20
1476.094265989601
 30
0.0
 10
2111.314689810594
 20
1475.98552793465
 30
0.0
  0
SPLINE
  5
19F
330
1F
100
AcDbEntity
  8
0
  6
Continuous
 62
     7
370
    25
100
AcDbSpline
210
0.0
220
0.0
230
1.0
 70
     8
 71
     3
 72
    14
 73
    10
 74
     0
 42
0.000000001
 43
0.00000001
 40
0.0
 40
0.0
 40
0.0
 40
0.0
 40
0.2236978580034416
 40
0.3528357075717292
 40
0.4829964006465754
 40
0.5936020866478688
 40
0.6970463839855788
 40
0.8440092931474359
 40
1.0
 40
1.0
 40
1.0
 40
1.0
 10
2115.667707657859
 20
1471.116539993234
 30
0.0
 10
2115.606242877441
 20
1471.137860870436
 30
0.0
 10
2115.509295282665
 20
1471.17149001137
 30
0.0
 10
2115.388553411737
 20
1471.286842297798
 30
0.0
 10
2115.317118401968
 20
1471.407018254154
 30
0.0
 10
2115.28385820466
 20
1471.535681865384
 30
0.0
 10
2115.282684149517
 20
1471.667231060407
 30
0.0
 10
2115.31611659479
 20
1471.799914321466
 30
0.0
 10
2115.364875362763
 20
1471.872739072635
 30
0.0
 10
2115.389981234682
 20
1471.910236510562
 30
0.0
  0
SPLINE
  5
1A0
330
1F
100
AcDbEntity
  8
0
  6
Continuous
 62
     7
370
    25
100
AcDbSpline
210
0.0
220
0.0
230
1.0
 70
     8
 71
     3
 72
    32
 73
    28
 74
     0
 42
0.000000001
 43
0.00000001
 40
0.0
 40
0.0
 40
0.0
 40
0.0
 40
0.0436175577132323
 40
0.0875445180727424
 40
0.1324232365607166
 40
0.1776249957013571
 40
0.2471068321983848
 40
0.2825457174670853
 40
0.3182339115864917
 40
0.354373256436593
 40
0.3910498564409239
 40
0.4195472303548403
 40
0.4487320066823374
 40
0.4718441160741395
 40
0.4956184451052882
 40
0.5187364415274832
 40
0.5424579544801617
 40
0.5764259662050013
 40
0.6113254577453341
 40
0.6689154864260305
 40
0.7279987346838485
 40
0.7704822564694355
 40
0.8132756786605979
 40
0.8569852155483456
 40
0.9009924730134503
 40
0.9502698003771134
 40
1.0
 40
1.0
 40
1.0
 40
1.0
 10
2115.022419164792
 20
1465.38944621513
 30
0.0
 10
2115.13464929462
 20
1465.394458367705
 30
0.0
 10
2115.359905662564
 20
1465.404518226733
 30
0.0
 10
2115.691365663912
 20
1465.468787141188
 30
0.0
 10
2116.016602326173
 20
1465.569147150853
 30
0.0
 10
2116.388128876833
 20
1465.734849027819
 30
0.0
 10
2116.716477013457
 20
1465.944924381419
 30
0.0
 10
2117.000759869619
 20
1466.19075149946
 30
0.0
 10
2117.204408017304
 20
1466.405671192365
 30
0.0
 10
2117.394725331444
 20
1466.653702733586
 30
0.0
 10
2117.554540887375
 20
1466.918071003652
 30
0.0
 10
2117.683685543204
 20
1467.194272758662
 30
0.0
 10
2117.775116087191
 20
1467.454004369985
 30
0.0
 10
2117.83988000371
 20
1467.714296745609
 30
0.0
 10
2117.879091411875
 20
1467.961390095867
 30
0.0
 10
2117.896726900068
 20
1468.210456702476
 30
0.0
 10
2117.892852386706
 20
1468.487812762657
 30
0.0
 10
2117.858045762108
 20
1468.788585208791
 30
0.0
 10
2117.770494180743
 20
1469.166352516403
 30
0.0
 10
2117.613204343285
 20
1469.570289032735
 30
0.0
 10
2117.394555429593
 20
1469.938150568591
 30
0.0
 10
2117.160439377008
 20
1470.232002025724
 30
0.0
 10
2116.926580642833
 20
1470.465490821132
 30
0.0
 10
2116.666727321024
 20
1470.672059404064
 30
0.0
 10
2116.370761902967
 20
1470.85532056712
 30
0.0
 10
2116.039831249605
 20
1471.01189146
 30
0.0
 10
2115.792126532101
 20
1471.081550938563
 30
0.0
 10
2115.667707657859
 20
1471.116539993234
 30
0.0
  0
SPLINE
  5
1A1
330
1F
100
AcDbEntity
  8
0
  6
Continuous
 62
     7
370
    25
100
AcDbSpline
210
0.0
220
0.0
230
1.0
 70
     8
 71
     3
 72
    14
 73
    10
 74
     0
 42
0.000000001
 43
0.00000001
 40
0.0
 40
0.0
 40
0.0
 40
0.0
 40
0.2198296104786746
 40
0.3499177958293803
 40
0.4588983161345323
 40
0.5683999765788482
 40
0.6667094681233182
 40
0.7967198733581572
 40
1.0
 40
1.0
 40
1.0
 40
1.0
 10
2114.57504183258
 20
1464.67744926965
 30
0.0
 10
2114.554016552853
 20
1464.736098619233
 30
0.0
 10
2114.520549179996
 20
1464.829454792172
 30
0.0
 10
2114.531729383269
 20
1464.985257082571
 30
0.0
 10
2114.57242009113
 20
1465.108447423579
 30
0.0
 10
2114.640307076614
 20
1465.213100409711
 30
0.0
 10
2114.733784906595
 20
1465.30018227217
 30
0.0
 10
2114.866527341005
 20
1465.373746798435
 30
0.0
 10
2114.963359450701
 20
1465.383498481382
 30
0.0
 10
2115.022419164792
 20
1465.38944621513
 30
0.0
  0
SPLINE
  5
1A2
330
1F
100
AcDbEntity
  8
0
  6
Continuous
 62
     7
370
    25
100
AcDbSpline
210
0.0
220
0.0
230
1.0
 70
     8
 71
     3
 72
    33
 73
    29
 74
     0
 42
0.000000001
 43
0.00000001
 40
0.0
 40
0.0
 40
0.0
 40
0.0
 40
0.0453846795158935
 40
0.0910956457676779
 40
0.1377861112474358
 40
0.1847984484385274
 40
0.2588563244582893
 40
0.2965960583089307
 40
0.3345934417298332
 40
0.3627068189222343
 40
0.391055276435973
 40
0.4192115960367012
 40
0.4481447873352588
 40
0.4657876556062917
 40
0.4839178616272603
 40
0.501574602907947
 40
0.5197390882526014
 40
0.5448263126108271
 40
0.5705932132964172
 40
0.6177342306538905
 40
0.665998183788971
 40
0.708753248023002
 40
0.7518249524472287
 40
0.795780804414521
 40
0.8400079168875081
 40
0.9191109597848017
 40
0.9594357012421634
 40
1.0
 40
1.0
 40
1.0
 40
1.0
 10
2109.695088819126
 20
1461.61117156387
 30
0.0
 10
2109.773110449481
 20
1461.522168434283
 30
0.0
 10
2109.929714635669
 20
1461.343522299694
 30
0.0
 10
2110.200784413589
 20
1461.116819626022
 30
0.0
 10
2110.496404592908
 20
1460.921342168222
 30
0.0
 10
2110.878233749217
 20
1460.732503666489
 30
0.0
 10
2111.268271761795
 20
1460.610819073624
 30
0.0
 10
2111.660285657839
 20
1460.551193481018
 30
0.0
 10
2111.944998674626
 20
1460.538028145659
 30
0.0
 10
2112.215991397105
 20
1460.55159142261
 30
0.0
 10
2112.469802552902
 20
1460.586207220312
 30
0.0
 10
2112.73899337877
 20
1460.648150339178
 30
0.0
 10
2112.986964930216
 20
1460.731724401019
 30
0.0
 10
2113.205575483612
 20
1460.827668302398
 30
0.0
 10
2113.384533131711
 20
1460.92152270122
 30
0.0
 10
2113.557712973116
 20
1461.028529380576
 30
0.0
 10
2113.739363509342
 20
1461.158981897117
 30
0.0
 10
2113.922891587448
 20
1461.314817018327
 30
0.0
 10
2114.146632766785
 20
1461.541770722752
 30
0.0
 10
2114.368030872226
 20
1461.828272870097
 30
0.0
 10
2114.557437151679
 20
1462.160357433092
 30
0.0
 10
2114.693348299464
 20
1462.488343973395
 30
0.0
 10
2114.78519389236
 20
1462.810625525962
 30
0.0
 10
2114.83938319217
 20
1463.140678353351
 30
0.0
 10
2114.859741137061
 20
1463.564677103772
 30
0.0
 10
2114.811321060586
 20
1463.981081172806
 30
0.0
 10
2114.701938815163
 20
1464.381796606899
 30
0.0
 10
2114.617424258263
 20
1464.578703998077
 30
0.0
 10
2114.57504183258
 20
1464.67744926965
 30
0.0
  0
SPLINE
  5
1A3
330
1F
100
AcDbEntity
  8
0
  6
Continuous
 62
     7
370
    25
100
AcDbSpline
210
0.0
220
0.0
230
1.0
 70
     8
 71
     3
 72
    15
 73
    11
 74
     0
 42
0.000000001
 43
0.00000001
 40
0.0
 40
0.0
 40
0.0
 40
0.0
 40
0.2148110296556839
 40
0.3411322673416992
 40
0.4464287003092761
 40
0.5523542512427266
 40
0.6447889097414333
 40
0.7660552293890343
 40
0.9403894463275105
 40
1.0
 40
1.0
 40
1.0
 40
1.0
 10
2108.859491987514
 20
1461.517022412281
 30
0.0
 10
2108.890665634099
 20
1461.568018483414
 30
0.0
 10
2108.940171177449
 20
1461.649003176793
 30
0.0
 10
2109.062925352896
 20
1461.73694678674
 30
0.0
 10
2109.180417236242
 20
1461.784075474388
 30
0.0
 10
2109.301514258957
 20
1461.799834975592
 30
0.0
 10
2109.425017726147
 20
1461.786208739526
 30
0.0
 10
2109.55426212387
 20
1461.738447210256
 30
0.0
 10
2109.642126056996
 20
1461.672302585805
 30
0.0
 10
2109.684333982428
 20
1461.623585081059
 30
0.0
 10
2109.695088819126
 20
1461.61117156387
 30
0.0
  0
SPLINE
  5
1A4
330
1F
100
AcDbEntity
  8
0
  6
Continuous
 62
     7
370
    25
100
AcDbSpline
210
0.0
220
0.0
230
1.0
 70
     8
 71
     3
 72
    33
 73
    29
 74
     0
 42
0.000000001
 43
0.00000001
 40
0.0
 40
0.0
 40
0.0
 40
0.0
 40
0.045443239723268
 40
0.0912170391424263
 40
0.1379500215180083
 40
0.1849840146144325
 40
0.2316516508707398
 40
0.2786054666831222
 40
0.3265572669077009
 40
0.374937105017818
 40
0.3989747636382832
 40
0.4231769206048097
 40
0.4431234955496232
 40
0.4634796340440434
 40
0.4878744888887495
 40
0.5123837511182362
 40
0.5281127512287268
 40
0.5442716110769616
 40
0.5755418912508651
 40
0.6074940067964327
 40
0.6452969753465783
 40
0.6833694665812906
 40
0.7609503045067284
 40
0.8037406836446942
 40
0.8467500403233601
 40
0.8904656812725427
 40
0.9344381236378364
 40
1.0
 40
1.0
 40
1.0
 40
1.0
 10
2103.419578605703
 20
1463.420530431937
 30
0.0
 10
2103.398044695919
 20
1463.299719798212
 30
0.0
 10
2103.354820236053
 20
1463.057219739403
 30
0.0
 10
2103.348862008909
 20
1462.694237640677
 30
0.0
 10
2103.384248462915
 20
1462.334873098248
 30
0.0
 10
2103.464468966074
 20
1461.9843586791
 30
0.0
 10
2103.586592168932
 20
1461.64709490101
 30
0.0
 10
2103.751206233986
 20
1461.323487772669
 30
0.0
 10
2103.961653074619
 20
1461.013591713823
 30
0.0
 10
2104.179888668617
 20
1460.76847400933
 30
0.0
 10
2104.387322036419
 20
1460.580455494439
 30
0.0
 10
2104.55265079327
 20
1460.451471125713
 30
0.0
 10
2104.730315484926
 20
1460.33265003192
 30
0.0
 10
2104.93265028696
 20
1460.217227384121
 30
0.0
 10
2105.183994536995
 20
1460.101600448546
 30
0.0
 10
2105.436022970816
 20
1460.016764741384
 30
0.0
 10
2105.643664771524
 20
1459.96541648288
 30
0.0
 10
2105.863670192987
 20
1459.924831504954
 30
0.0
 10
2106.117835822279
 20
1459.900181295738
 30
0.0
 10
2106.414615546342
 20
1459.900803491091
 30
0.0
 10
2106.710556185305
 20
1459.931778940126
 30
0.0
 10
2107.108079476475
 20
1460.016242903234
 30
0.0
 10
2107.488806531075
 20
1460.161990033241
 30
0.0
 10
2107.849744622016
 20
1460.369930156085
 30
0.0
 10
2108.116763673816
 20
1460.566607009933
 30
0.0
 10
2108.363376925549
 20
1460.797597253262
 30
0.0
 10
2108.626320368674
 20
1461.102433605572
 30
0.0
 10
2108.772184728566
 20
1461.361786485694
 30
0.0
 10
2108.859491987514
 20
1461.517022412281
 30
0.0
  0
SPLINE
  5
1A5
330
1F
100
AcDbEntity
  8
0
  6
Continuous
 62
     7
370
    25
100
AcDbSpline
210
0.0
220
0.0
230
1.0
 70
     8
 71
     3
 72
    15
 73
    11
 74
     0
 42
0.000000001
 43
0.00000001
 40
0.0
 40
0.0
 40
0.0
 40
0.0
 40
0.2126307822086796
 40
0.3330806359273786
 40
0.4343189429316915
 40
0.5361409898010082
 40
0.62550065659887
 40
0.7454503639221749
 40
0.9209037802014444
 40
1.0
 40
1.0
 40
1.0
 40
1.0
 10
2102.824983731968
 20
1464.015125305673
 30
0.0
 10
2102.883935833333
 20
1464.022593338755
 30
0.0
 10
2102.976282779567
 20
1464.034291819956
 30
0.0
 10
2103.119681576844
 20
1463.99455533832
 30
0.0
 10
2103.227407413341
 20
1463.935154029579
 30
0.0
 10
2103.31441289158
 20
1463.854175262067
 30
0.0
 10
2103.381983378845
 20
1463.752961104671
 30
0.0
 10
2103.428618984753
 20
1463.624412821985
 30
0.0
 10
2103.435335150282
 20
1463.509322218584
 30
0.0
 10
2103.423313952902
 20
1463.441579980581
 30
0.0
 10
2103.419578605703
 20
1463.420530431937
 30
0.0
  0
SPLINE
  5
1A6
330
1F
100
AcDbEntity
  8
0
  6
Continuous
 62
     7
370
    25
100
AcDbSpline
210
0.0
220
0.0
230
1.0
 70
     8
 71
     3
 72
    32
 73
    28
 74
     0
 42
0.000000001
 43
0.00000001
 40
0.0
 40
0.0
 40
0.0
 40
0.0
 40
0.0447046064970629
 40
0.0897361178800022
 40
0.1357107811798306
 40
0.1819789736105616
 40
0.2279542359311852
 40
0.2742011378173391
 40
0.3213535421419947
 40
0.3688631981537123
 40
0.4236350575688496
 40
0.4510041609017734
 40
0.4792023732510984
 40
0.5037395272588859
 40
0.5283784873449688
 40
0.5445575635538821
 40
0.5611739038848379
 40
0.6013084251860193
 40
0.6425658183218367
 40
0.6854492331527443
 40
0.7286418616755083
 40
0.7726536612270487
 40
0.816907032544893
 40
0.8619574650676614
 40
0.9072721890396712
 40
0.9534689418825841
 40
1.0
 40
1.0
 40
1.0
 40
1.0
 10
2100.921475712312
 20
1469.455038687482
 30
0.0
 10
2100.814456784416
 20
1469.397055673114
 30
0.0
 10
2100.599636346846
 20
1469.280665640406
 30
0.0
 10
2100.314551557824
 20
1469.061604493985
 30
0.0
 10
2100.057815906802
 20
1468.81339381409
 30
0.0
 10
2099.835430067064
 20
1468.536648078279
 30
0.0
 10
2099.648900641408
 20
1468.236577234747
 30
0.0
 10
2099.49884785522
 20
1467.913591415813
 30
0.0
 10
2099.386958686469
 20
1467.566441740312
 30
0.0
 10
2099.313925244202
 20
1467.17433294679
 30
0.0
 10
2099.297962905395
 20
1466.804850492846
 30
0.0
 10
2099.328997950303
 20
1466.454925912072
 30
0.0
 10
2099.381028468172
 20
1466.174512161821
 30
0.0
 10
2099.469341797979
 20
1465.876849065879
 30
0.0
 10
2099.572722474452
 20
1465.629411137207
 30
0.0
 10
2099.672316479423
 20
1465.437454054418
 30
0.0
 10
2099.803850052241
 20
1465.217960558703
 30
0.0
 10
2099.988051453168
 20
1464.971738871753
 30
0.0
 10
2100.2323843541
 20
1464.717109102756
 30
0.0
 10
2100.496560327901
 20
1464.500241532854
 30
0.0
 10
2100.781182185012
 20
1464.317449068585
 30
0.0
 10
2101.083523102792
 20
1464.169390598089
 30
0.0
 10
2101.404069792781
 20
1464.056274231349
 30
0.0
 10
2101.74024825968
 20
1463.980193781417
 30
0.0
 10
2102.091729685367
 20
1463.944843311473
 30
0.0
 10
2102.454777818057
 20
1463.949460308893
 30
0.0
 10
2102.701285521508
 20
1463.993184428214
 30
0.0
 10
2102.824983731968
 20
1464.015125305673
 30
0.0
  0
SPLINE
  5
1A7
330
1F
100
AcDbEntity
  8
0
  6
Continuous
 62
     7
370
    25
100
AcDbSpline
210
0.0
220
0.0
230
1.0
 70
     8
 71
     3
 72
    15
 73
    11
 74
     0
 42
0.000000001
 43
0.00000001
 40
0.0
 40
0.0
 40
0.0
 40
0.0
 40
0.2153296810341931
 40
0.3327055588565065
 40
0.4327106172888651
 40
0.5331289091056236
 40
0.6249491950544784
 40
0.7533679527278658
 40
0.9418458044828076
 40
1.0
 40
1.0
 40
1.0
 40
1.0
 10
2101.015624863901
 20
1470.290635519094
 30
0.0
 10
2101.059755249072
 20
1470.247432958713
 30
0.0
 10
2101.1279410393
 20
1470.180680749139
 30
0.0
 10
2101.185350441892
 20
1470.040199237625
 30
0.0
 10
2101.204121189682
 20
1469.919699476661
 30
0.0
 10
2101.193861259728
 20
1469.802740725604
 30
0.0
 10
2101.15560417538
 20
1469.686043337763
 30
0.0
 10
2101.079772097781
 20
1469.566229478584
 30
0.0
 10
2100.993728997919
 20
1469.493424807031
 30
0.0
 10
2100.93526187162
 20
1469.462362882567
 30
0.0
 10
2100.921475712312
 20
1469.455038687482
 30
0.0
  0
SPLINE
  5
1A8
330
1F
100
AcDbEntity
  8
0
  6
Continuous
 62
     7
370
    25
100
AcDbSpline
210
0.0
220
0.0
230
1.0
 70
     8
 71
     3
 72
    33
 73
    29
 74
     0
 42
0.000000001
 43
0.00000001
 40
0.0
 40
0.0
 40
0.0
 40
0.0
 40
0.0441213647301388
 40
0.0885643240892566
 40
0.1339549310956375
 40
0.179648552909319
 40
0.224487408255574
 40
0.2696160366855339
 40
0.3157575130293345
 40
0.3623227711932814
 40
0.3904545578735207
 40
0.4187956069174066
 40
0.4469628201082577
 40
0.4757844533845183
 40
0.4937613087930965
 40
0.5122052114429401
 40
0.5302047120128172
 40
0.5487727969964337
 40
0.5721373294162969
 40
0.5961490192902659
 40
0.6384785624500953
 40
0.6818249414599863
 40
0.7221252442697427
 40
0.7627269998851977
 40
0.8041331317540555
 40
0.8457735509867518
 40
0.9221430649462432
 40
1.0
 40
1.0
 40
1.0
 40
1.0
 10
1470.238801975952
 20
820.3412094130836
 30
0.0
 10
1470.346291282223
 20
820.2954279084325
 30
0.0
 10
1470.562053369702
 20
820.2035312039675
 30
0.0
 10
1470.898507182946
 20
820.11755646497
 30
0.0
 10
1471.241862046151
 20
820.069100240814
 30
0.0
 10
1471.587196007124
 20
820.0628150301834
 30
0.0
 10
1471.930055243651
 20
820.0970242326563
 30
0.0
 10
1472.270448260578
 20
820.1722722747896
 30
0.0
 10
1472.610067834437
 20
820.2919076501996
 30
0.0
 10
1472.902765472276
 20
820.4387055111586
 30
0.0
 10
1473.148675927661
 20
820.5973330225235
 30
0.0
 10
1473.348538759698
 20
820.7516127817108
 30
0.0
 10
1473.547379396232
 20
820.9355785114319
 30
0.0
 10
1473.718386488669
 20
821.1276034630894
 30
0.0
 10
1473.860050453312
 20
821.3177280543682
 30
0.0
 10
1473.9704941318
 20
821.489849405013
 30
0.0
 10
1474.070208749132
 20
821.6728937459857
 30
0.0
 10
1474.162520026413
 20
821.8755856273864
 30
0.0
 10
1474.242315139608
 20
822.095762655324
 30
0.0
 10
1474.320025161078
 20
822.3839472042588
 30
0.0
 10
1474.370685606629
 20
822.716284260228
 30
0.0
 10
1474.378733452798
 20
823.0728345626713
 30
0.0
 10
1474.34690620213
 20
823.4060674805726
 30
0.0
 10
1474.281685053696
 20
823.7188084062345
 30
0.0
 10
1474.183714548851
 20
824.0204974167876
 30
0.0
 10
1474.016473381407
 20
824.3891803961889
 30
0.0
 10
1473.748921117689
 20
824.8117213060433
 30
0.0
 10
1473.453975019472
 20
825.0838073510968
 30
0.0
 10
1473.305079681739
 20
825.2211624265346
 30
0.0
  0
SPLINE
  5
1A9
330
1F
100
AcDbEntity
  8
0
  6
Continuous
 62
     7
370
    25
100
AcDbSpline
210
0.0
220
0.0
230
1.0
 70
     8
 71
     3
 72
    14
 73
    10
 74
     0
 42
0.000000001
 43
0.00000001
 40
0.0
 40
0.0
 40
0.0
 40
0.0
 40
0.2204300636817582
 40
0.33994437325509
 40
0.4603671101703102
 40
0.5640212293775585
 40
0.6631726788871759
 40
0.8102691653344312
 40
1.0
 40
1.0
 40
1.0
 40
1.0
 10
1469.526805030478
 20
819.8938320808677
 30
0.0
 10
1469.533745970428
 20
819.9582445477629
 30
0.0
 10
1469.544450197617
 20
820.0575806152792
 30
0.0
 10
1469.62701153639
 20
820.198144543596
 30
0.0
 10
1469.721169410184
 20
820.291449214182
 30
0.0
 10
1469.831168034413
 20
820.3533753008686
 30
0.0
 10
1469.954196720345
 20
820.3887187283434
 30
0.0
 10
1470.100141368423
 20
820.3926495857263
 30
0.0
 10
1470.188839417187
 20
820.3597444728556
 30
0.0
 10
1470.238801975952
 20
820.3412094130836
 30
0.0
  0
SPLINE
  5
1AA
330
1F
100
AcDbEntity
  8
0
  6
Continuous
 62
     7
370
    25
100
AcDbSpline
210
0.0
220
0.0
230
1.0
 70
     8
 71
     3
 72
    32
 73
    28
 74
     0
 42
0.000000001
 43
0.00000001
 40
0.0
 40
0.0
 40
0.0
 40
0.0
 40
0.0430301906961573
 40
0.0863703585232846
 40
0.1306473267282206
 40
0.1752340698039856
 40
0.2184985703256618
 40
0.2620710116748325
 40
0.3067590161673239
 40
0.3519305753622419
 40
0.3854008499168495
 40
0.4193042262219363
 40
0.4528401599354699
 40
0.4875658065129641
 40
0.5106252861551649
 40
0.5343668716440485
 40
0.5574221930535579
 40
0.5810244918902203
 40
0.6175995456730585
 40
0.6551634288326443
 40
0.7176981382171259
 40
0.7818686090749161
 40
0.825252265908673
 40
0.8689465762027784
 40
0.9135854729028731
 40
0.9585418566971338
 40
1.0
 40
1.0
 40
1.0
 40
1.0
 10
1463.799711252373
 20
819.2485435878052
 30
0.0
 10
1463.829440431151
 20
819.1406834255483
 30
0.0
 10
1463.889112949171
 20
818.9241861074148
 30
0.0
 10
1464.024193156998
 20
818.6177270314497
 30
0.0
 10
1464.191818230739
 20
818.3261579761675
 30
0.0
 10
1464.392462298789
 20
818.0568792502546
 30
0.0
 10
1464.622566749496
 20
817.8123139031121
 30
0.0
 10
1464.882978670181
 20
817.5926004781618
 30
0.0
 10
1465.178791765544
 20
817.397919524764
 30
0.0
 10
1465.483983010549
 20
817.24767951724
 30
0.0
 10
1465.79052738547
 20
817.1384435603359
 30
0.0
 10
1466.089263056452
 20
817.0654847516605
 30
0.0
 10
1466.417336493633
 20
817.0223761740981
 30
0.0
 10
1466.73252423615
 20
817.018413771382
 30
0.0
 10
1467.020890242901
 20
817.0455107708304
 30
0.0
 10
1467.266198886545
 20
817.0902189485662
 30
0.0
 10
1467.504072943656
 20
817.1550962061541
 30
0.0
 10
1467.768612963355
 20
817.2515041388511
 30
0.0
 10
1468.050580332422
 20
817.3889661022315
 30
0.0
 10
1468.395444892288
 20
817.611058127156
 30
0.0
 10
1468.74024830373
 20
817.9159824639248
 30
0.0
 10
1469.020253964602
 20
818.2686525902603
 30
0.0
 10
1469.216613873981
 20
818.6051865173306
 30
0.0
 10
1469.3516491968
 20
818.9125722617625
 30
0.0
 10
1469.450416987838
 20
819.2363643216903
 30
0.0
 10
1469.512607018992
 20
819.5647632669762
 30
0.0
 10
1469.52220183268
 20
819.7871432786387
 30
0.0
 10
1469.526805030478
 20
819.8938320808677
 30
0.0
  0
SPLINE
  5
1AB
330
1F
100
AcDbEntity
  8
0
  6
Continuous
 62
     7
370
    25
100
AcDbSpline
210
0.0
220
0.0
230
1.0
 70
     8
 71
     3
 72
    14
 73
    10
 74
     0
 42
0.000000001
 43
0.00000001
 40
0.0
 40
0.0
 40
0.0
 40
0.0
 40
0.2240635092470427
 40
0.3487071205324244
 40
0.4742528072798333
 40
0.5825492860623822
 40
0.6866084231150114
 40
0.8379727149431387
 40
1.0
 40
1.0
 40
1.0
 40
1.0
 10
1463.006014735046
 20
819.526270010979
 30
0.0
 10
1463.061991025313
 20
819.5615667435526
 30
0.0
 10
1463.149106196642
 20
819.6164985886409
 30
0.0
 10
1463.31445717934
 20
819.6380605405294
 30
0.0
 10
1463.449582123419
 20
819.619482246267
 30
0.0
 10
1463.568666806109
 20
819.5674745689955
 30
0.0
 10
1463.673138188865
 20
819.4876889620189
 30
0.0
 10
1463.75835309992
 20
819.3779095860369
 30
0.0
 10
1463.785615999337
 20
819.2926327545381
 30
0.0
 10
1463.799711252373
 20
819.2485435878052
 30
0.0
  0
SPLINE
  5
1AC
330
1F
100
AcDbEntity
  8
0
  6
Continuous
 62
     7
370
    25
100
AcDbSpline
210
0.0
220
0.0
230
1.0
 70
     8
 71
     3
 72
    31
 73
    27
 74
     0
 42
0.000000001
 43
0.00000001
 40
0.0
 40
0.0
 40
0.0
 40
0.0
 40
0.0425768439200444
 40
0.0854562266634143
 40
0.1292655212992966
 40
0.1733896051365799
 40
0.244892792882764
 40
0.2814175395970746
 40
0.3182118727426328
 40
0.3578509173303891
 40
0.3981484105824946
 40
0.4288224096626722
 40
0.4602420416076287
 40
0.4856042083258755
 40
0.5116936315326821
 40
0.5370616943792913
 40
0.5630949909788214
 40
0.5995472643023548
 40
0.637010214932415
 40
0.6959998903666271
 40
0.7565561265102985
 40
0.7981804952569096
 40
0.8401079728424172
 40
0.8829363933459028
 40
0.9260588511262589
 40
1.0
 40
1.0
 40
1.0
 40
1.0
 10
1458.930723310958
 20
823.601561435067
 30
0.0
 10
1458.866062590902
 20
823.5127511636788
 30
0.0
 10
1458.736281690288
 20
823.3344995606233
 30
0.0
 10
1458.582125037224
 20
823.0424368462624
 30
0.0
 10
1458.45860625656
 20
822.7333632258119
 30
0.0
 10
1458.352983746535
 20
822.3405472457698
 30
0.0
 10
1458.308984635514
 20
821.9483119142783
 30
0.0
 10
1458.322791088406
 20
821.5630927722599
 30
0.0
 10
1458.365282221318
 20
821.2564130816328
 30
0.0
 10
1458.446806910894
 20
820.9334019749413
 30
0.0
 10
1458.566639697302
 20
820.6221755141294
 30
0.0
 10
1458.717844005955
 20
820.3331226822287
 30
0.0
 10
1458.879965770573
 20
820.0892681814606
 30
0.0
 10
1459.061708215688
 20
819.8678997403821
 30
0.0
 10
1459.250863733701
 20
819.6768236439531
 30
0.0
 10
1459.456660506925
 20
819.5044251941802
 30
0.0
 10
1459.699836277351
 20
819.3358137768
 30
0.0
 10
1459.982344305757
 20
819.181964705645
 30
0.0
 10
1460.356390697358
 20
819.0327442360084
 30
0.0
 10
1460.790683885452
 20
818.9302979211832
 30
0.0
 10
1461.222408548464
 20
818.9029878567319
 30
0.0
 10
1461.596467729001
 20
818.9308010863208
 30
0.0
 10
1461.915292707204
 20
818.9903601452187
 30
0.0
 10
1462.226486612867
 20
819.08624749104
 30
0.0
 10
1462.601612851946
 20
819.2453778971982
 30
0.0
 10
1462.84946397399
 20
819.4175319560278
 30
0.0
 10
1463.006014735046
 20
819.526270010979
 30
0.0
  0
SPLINE
  5
1AD
330
1F
100
AcDbEntity
  8
0
  6
Continuous
 62
     7
370
    25
100
AcDbSpline
210
0.0
220
0.0
230
1.0
 70
     8
 71
     3
 72
    14
 73
    10
 74
     0
 42
0.000000001
 43
0.00000001
 40
0.0
 40
0.0
 40
0.0
 40
0.0
 40
0.2236978580034414
 40
0.352835707571729
 40
0.4829964006465751
 40
0.5936020866479158
 40
0.6970463839855789
 40
0.8440092931474359
 40
1.0
 40
1.0
 40
1.0
 40
1.0
 10
1458.652996887781
 20
824.3952579523943
 30
0.0
 10
1458.714461668199
 20
824.3739370751927
 30
0.0
 10
1458.811409262975
 20
824.3403079342582
 30
0.0
 10
1458.932151133903
 20
824.2249556478308
 30
0.0
 10
1459.003586143672
 20
824.1047796914754
 30
0.0
 10
1459.03684634098
 20
823.9761160802444
 30
0.0
 10
1459.038020396123
 20
823.844566885222
 30
0.0
 10
1459.00458795085
 20
823.711883624163
 30
0.0
 10
1458.955829182878
 20
823.6390588729939
 30
0.0
 10
1458.930723310958
 20
823.601561435067
 30
0.0
  0
SPLINE
  5
1AE
330
1F
100
AcDbEntity
  8
0
  6
Continuous
 62
     7
370
    25
100
AcDbSpline
210
0.0
220
0.0
230
1.0
 70
     8
 71
     3
 72
    32
 73
    28
 74
     0
 42
0.000000001
 43
0.00000001
 40
0.0
 40
0.0
 40
0.0
 40
0.0
 40
0.0436175577132288
 40
0.0875445180727382
 40
0.132423236560716
 40
0.177624995701358
 40
0.2471068321983805
 40
0.282545717467081
 40
0.3182339115864873
 40
0.3543732564365887
 40
0.3910498564409219
 40
0.4195472303548362
 40
0.4487320066823349
 40
0.471844116074142
 40
0.4956184451052847
 40
0.5187364415274853
 40
0.5424579544801638
 40
0.5764259662049986
 40
0.6113254577453348
 40
0.6689154864260256
 40
0.7279987346838485
 40
0.7704822564694324
 40
0.8132756786605948
 40
0.8569852155483455
 40
0.9009924730134503
 40
0.9502698003771134
 40
1.0
 40
1.0
 40
1.0
 40
1.0
 10
1459.298285380848
 20
830.122351730499
 30
0.0
 10
1459.18605525102
 20
830.1173395779236
 30
0.0
 10
1458.960798883077
 20
830.107279718896
 30
0.0
 10
1458.629338881728
 20
830.0430108044412
 30
0.0
 10
1458.304102219467
 20
829.9426507947757
 30
0.0
 10
1457.932575668808
 20
829.7769489178098
 30
0.0
 10
1457.604227532184
 20
829.56687356421
 30
0.0
 10
1457.319944676021
 20
829.3210464461689
 30
0.0
 10
1457.116296528336
 20
829.106126753264
 30
0.0
 10
1456.925979214196
 20
828.8580952120432
 30
0.0
 10
1456.766163658264
 20
828.5937269419766
 30
0.0
 10
1456.637019002436
 20
828.317525186967
 30
0.0
 10
1456.54558845845
 20
828.0577935756442
 30
0.0
 10
1456.48082454193
 20
827.7975012000196
 30
0.0
 10
1456.441613133765
 20
827.5504078497619
 30
0.0
 10
1456.423977645572
 20
827.3013412431533
 30
0.0
 10
1456.427852158934
 20
827.0239851829716
 30
0.0
 10
1456.462658783532
 20
826.7232127368377
 30
0.0
 10
1456.550210364897
 20
826.3454454292255
 30
0.0
 10
1456.707500202355
 20
825.9415089128942
 30
0.0
 10
1456.926149116047
 20
825.5736473770369
 30
0.0
 10
1457.160265168632
 20
825.2797959199052
 30
0.0
 10
1457.394123902807
 20
825.0463071244972
 30
0.0
 10
1457.653977224616
 20
824.8397385415644
 30
0.0
 10
1457.949942642673
 20
824.6564773785085
 30
0.0
 10
1458.280873296035
 20
824.4999064856287
 30
0.0
 10
1458.528578013539
 20
824.4302470070654
 30
0.0
 10
1458.652996887781
 20
824.3952579523943
 30
0.0
  0
SPLINE
  5
1AF
330
1F
100
AcDbEntity
  8
0
  6
Continuous
 62
     7
370
    25
100
AcDbSpline
210
0.0
220
0.0
230
1.0
 70
     8
 71
     3
 72
    14
 73
    10
 74
     0
 42
0.000000001
 43
0.00000001
 40
0.0
 40
0.0
 40
0.0
 40
0.0
 40
0.2198296104786631
 40
0.3499177958293621
 40
0.4588983161345521
 40
0.5683999765788219
 40
0.6667094681233191
 40
0.7967198733581676
 40
1.0
 40
1.0
 40
1.0
 40
1.0
 10
1459.74566271306
 20
830.8343486759787
 30
0.0
 10
1459.766687992788
 20
830.7756993263959
 30
0.0
 10
1459.800155365644
 20
830.6823431534569
 30
0.0
 10
1459.788975162371
 20
830.526540863058
 30
0.0
 10
1459.74828445451
 20
830.4033505220495
 30
0.0
 10
1459.680397469026
 20
830.2986975359172
 30
0.0
 10
1459.586919639045
 20
830.2116156734586
 30
0.0
 10
1459.454177204635
 20
830.1380511471938
 30
0.0
 10
1459.357345094939
 20
830.1282994642471
 30
0.0
 10
1459.298285380848
 20
830.122351730499
 30
0.0
  0
SPLINE
  5
1B0
330
1F
100
AcDbEntity
  8
0
  6
Continuous
 62
     7
370
    25
100
AcDbSpline
210
0.0
220
0.0
230
1.0
 70
     8
 71
     3
 72
    33
 73
    29
 74
     0
 42
0.000000001
 43
0.00000001
 40
0.0
 40
0.0
 40
0.0
 40
0.0
 40
0.0453846795158901
 40
0.0910956457676745
 40
0.1377861112474326
 40
0.1847984484385244
 40
0.2588563244582864
 40
0.2965960583089279
 40
0.3345934417298305
 40
0.3627068189222357
 40
0.3910552764359705
 40
0.4192115960367019
 40
0.4481447873352611
 40
0.465787655606294
 40
0.4839178616272583
 40
0.5015746029079466
 40
0.519739088252604
 40
0.5448263126108234
 40
0.5705932132964165
 40
0.6177342306538923
 40
0.6659981837889729
 40
0.7087532480230008
 40
0.7518249524472277
 40
0.7957808044145233
 40
0.8400079168875105
 40
0.9191109597848015
 40
0.9594357012421633
 40
0.9999999999999999
 40
0.9999999999999999
 40
0.9999999999999999
 40
0.9999999999999999
 10
1464.625615726514
 20
833.9006263817593
 30
0.0
 10
1464.547594096159
 20
833.9896295113463
 30
0.0
 10
1464.390989909972
 20
834.1682756459348
 30
0.0
 10
1464.119920132051
 20
834.3949783196073
 30
0.0
 10
1463.824299952732
 20
834.5904557774064
 30
0.0
 10
1463.442470796424
 20
834.7792942791398
 30
0.0
 10
1463.052432783845
 20
834.9009788720048
 30
0.0
 10
1462.660418887801
 20
834.9606044646105
 30
0.0
 10
1462.375705871014
 20
834.9737697999697
 30
0.0
 10
1462.104713148535
 20
834.960206523019
 30
0.0
 10
1461.850901992738
 20
834.9255907253169
 30
0.0
 10
1461.58171116687
 20
834.863647606451
 30
0.0
 10
1461.333739615424
 20
834.7800735446093
 30
0.0
 10
1461.115129062028
 20
834.6841296432303
 30
0.0
 10
1460.936171413929
 20
834.5902752444083
 30
0.0
 10
1460.762991572524
 20
834.4832685650524
 30
0.0
 10
1460.581341036298
 20
834.3528160485112
 30
0.0
 10
1460.397812958192
 20
834.1969809273019
 30
0.0
 10
1460.174071778855
 20
833.9700272228768
 30
0.0
 10
1459.952673673415
 20
833.6835250755314
 30
0.0
 10
1459.763267393962
 20
833.3514405125367
 30
0.0
 10
1459.627356246177
 20
833.0234539722337
 30
0.0
 10
1459.53551065328
 20
832.7011724196672
 30
0.0
 10
1459.48132135347
 20
832.3711195922775
 30
0.0
 10
1459.460963408579
 20
831.9471208418566
 30
0.0
 10
1459.509383485054
 20
831.5307167728229
 30
0.0
 10
1459.618765730477
 20
831.1300013387295
 30
0.0
 10
1459.703280287377
 20
830.933093947552
 30
0.0
 10
1459.74566271306
 20
830.8343486759787
 30
0.0
  0
SPLINE
  5
1B1
330
1F
100
AcDbEntity
  8
0
  6
Continuous
 62
     7
370
    25
100
AcDbSpline
210
0.0
220
0.0
230
1.0
 70
     8
 71
     3
 72
    15
 73
    11
 74
     0
 42
0.000000001
 43
0.00000001
 40
0.0
 40
0.0
 40
0.0
 40
0.0
 40
0.2148110296556849
 40
0.3411322673416449
 40
0.4464287003092222
 40
0.5523542512426732
 40
0.6447889097414214
 40
0.7660552293890039
 40
0.9403894463275325
 40
1.0
 40
1.0
 40
1.0
 40
1.0
 10
1465.461212558126
 20
833.9947755333478
 30
0.0
 10
1465.430038911541
 20
833.943779462215
 30
0.0
 10
1465.380533368191
 20
833.8627947688364
 30
0.0
 10
1465.257779192744
 20
833.7748511588882
 30
0.0
 10
1465.140287309398
 20
833.7277224712406
 30
0.0
 10
1465.019190286683
 20
833.7119629700369
 30
0.0
 10
1464.895686819492
 20
833.7255892061029
 30
0.0
 10
1464.766442421771
 20
833.7733507353728
 30
0.0
 10
1464.678578488644
 20
833.839495359824
 30
0.0
 10
1464.636370563212
 20
833.8882128645695
 30
0.0
 10
1464.625615726514
 20
833.9006263817593
 30
0.0
  0
SPLINE
  5
1B2
330
1F
100
AcDbEntity
  8
0
  6
Continuous
 62
     7
370
    25
100
AcDbSpline
210
0.0
220
0.0
230
1.0
 70
     8
 71
     3
 72
    33
 73
    29
 74
     0
 42
0.000000001
 43
0.00000001
 40
0.0
 40
0.0
 40
0.0
 40
0.0
 40
0.0454432397232679
 40
0.0912170391424261
 40
0.1379500215180052
 40
0.1849840146144321
 40
0.2316516508707393
 40
0.2786054666831229
 40
0.3265572669076991
 40
0.3749371050178163
 40
0.3989747636382792
 40
0.4231769206048084
 40
0.4431234955496209
 40
0.463479634044039
 40
0.4878744888887491
 40
0.5123837511182372
 40
0.5281127512287269
 40
0.5442716110769584
 40
0.5755418912508655
 40
0.6074940067964331
 40
0.6452969753465789
 40
0.6833694665812876
 40
0.7609503045067262
 40
0.8037406836446944
 40
0.8467500403233585
 40
0.8904656812725389
 40
0.934438123637835
 40
1.0
 40
1.0
 40
1.0
 40
1.0
 10
1470.901125939937
 20
832.0912675136916
 30
0.0
 10
1470.922659849721
 20
832.212078147417
 30
0.0
 10
1470.965884309587
 20
832.4545782062256
 30
0.0
 10
1470.971842536731
 20
832.8175603049522
 30
0.0
 10
1470.936456082725
 20
833.1769248473802
 30
0.0
 10
1470.856235579566
 20
833.5274392665293
 30
0.0
 10
1470.734112376707
 20
833.8647030446189
 30
0.0
 10
1470.569498311655
 20
834.1883101729597
 30
0.0
 10
1470.359051471021
 20
834.4982062318053
 30
0.0
 10
1470.140815877024
 20
834.743323936299
 30
0.0
 10
1469.933382509221
 20
834.9313424511903
 30
0.0
 10
1469.76805375237
 20
835.0603268199159
 30
0.0
 10
1469.590389060715
 20
835.1791479137087
 30
0.0
 10
1469.38805425868
 20
835.2945705615076
 30
0.0
 10
1469.136710008645
 20
835.4101974970823
 30
0.0
 10
1468.884681574824
 20
835.4950332042449
 30
0.0
 10
1468.677039774116
 20
835.5463814627486
 30
0.0
 10
1468.457034352653
 20
835.5869664406747
 30
0.0
 10
1468.202868723361
 20
835.6116166498908
 30
0.0
 10
1467.906088999297
 20
835.6109944545381
 30
0.0
 10
1467.610148360335
 20
835.5800190055029
 30
0.0
 10
1467.212625069166
 20
835.4955550423948
 30
0.0
 10
1466.831898014565
 20
835.3498079123882
 30
0.0
 10
1466.470959923624
 20
835.1418677895439
 30
0.0
 10
1466.203940871823
 20
834.945190935696
 30
0.0
 10
1465.957327620091
 20
834.7142006923666
 30
0.0
 10
1465.694384176966
 20
834.4093643400564
 30
0.0
 10
1465.548519817075
 20
834.1500114599347
 30
0.0
 10
1465.461212558126
 20
833.9947755333478
 30
0.0
  0
SPLINE
  5
1B3
330
1F
100
AcDbEntity
  8
0
  6
Continuous
 62
     7
370
    25
100
AcDbSpline
210
0.0
220
0.0
230
1.0
 70
     8
 71
     3
 72
    15
 73
    11
 74
     0
 42
0.000000001
 43
0.00000001
 40
0.0
 40
0.0
 40
0.0
 40
0.0
 40
0.2126307822086731
 40
0.3330806359273678
 40
0.434318942931699
 40
0.5361409898010143
 40
0.6255006565988473
 40
0.745450363922148
 40
0.920903780201447
 40
1.0
 40
1.0
 40
1.0
 40
1.0
 10
1471.495720813673
 20
831.4966726399563
 30
0.0
 10
1471.436768712307
 20
831.4892046068734
 30
0.0
 10
1471.344421766073
 20
831.4775061256729
 30
0.0
 10
1471.201022968796
 20
831.5172426073083
 30
0.0
 10
1471.093297132299
 20
831.5766439160496
 30
0.0
 10
1471.00629165406
 20
831.657622683561
 30
0.0
 10
1470.938721166795
 20
831.7588368409579
 30
0.0
 10
1470.892085560886
 20
831.8873851236434
 30
0.0
 10
1470.885369395357
 20
832.0024757270451
 30
0.0
 10
1470.897390592738
 20
832.0702179650483
 30
0.0
 10
1470.901125939937
 20
832.0912675136916
 30
0.0
  0
SPLINE
  5
1B4
330
1F
100
AcDbEntity
  8
0
  6
Continuous
 62
     7
370
    25
100
AcDbSpline
210
0.0
220
0.0
230
1.0
 70
     8
 71
     3
 72
    32
 73
    28
 74
     0
 42
0.000000001
 43
0.00000001
 40
0.0
 40
0.0
 40
0.0
 40
0.0
 40
0.0447046064970605
 40
0.0897361178799982
 40
0.1357107811798289
 40
0.1819789736105601
 40
0.2279542359311839
 40
0.2742011378173354
 40
0.321353542141994
 40
0.3688631981537088
 40
0.4236350575688498
 40
0.4510041609017741
 40
0.4792023732510953
 40
0.5037395272588829
 40
0.5283784873449702
 40
0.5445575635538796
 40
0.5611739038848371
 40
0.6013084251860187
 40
0.6425658183218362
 40
0.6854492331527465
 40
0.7286418616755089
 40
0.7726536612270509
 40
0.8169070325448946
 40
0.8619574650676609
 40
0.9072721890396711
 40
0.9534689418825872
 40
1.0
 40
1.0
 40
1.0
 40
1.0
 10
1473.399228833328
 20
826.0567592581467
 30
0.0
 10
1473.506247761225
 20
826.1147422725151
 30
0.0
 10
1473.721068198794
 20
826.231132305223
 30
0.0
 10
1474.006152987817
 20
826.4501934516435
 30
0.0
 10
1474.262888638838
 20
826.6984041315391
 30
0.0
 10
1474.485274478576
 20
826.9751498673494
 30
0.0
 10
1474.671803904232
 20
827.2752207108816
 30
0.0
 10
1474.82185669042
 20
827.598206529816
 30
0.0
 10
1474.933745859171
 20
827.9453562053174
 30
0.0
 10
1475.006779301438
 20
828.3374649988391
 30
0.0
 10
1475.022741640245
 20
828.7069474527832
 30
0.0
 10
1474.991706595337
 20
829.056872033557
 30
0.0
 10
1474.939676077468
 20
829.3372857838075
 30
0.0
 10
1474.851362747662
 20
829.6349488797497
 30
0.0
 10
1474.747982071189
 20
829.8823868084215
 30
0.0
 10
1474.648388066218
 20
830.0743438912108
 30
0.0
 10
1474.5168544934
 20
830.2938373869255
 30
0.0
 10
1474.332653092472
 20
830.5400590738759
 30
0.0
 10
1474.08832019154
 20
830.7946888428731
 30
0.0
 10
1473.82414421774
 20
831.0115564127752
 30
0.0
 10
1473.539522360629
 20
831.1943488770432
 30
0.0
 10
1473.237181442849
 20
831.3424073475395
 30
0.0
 10
1472.916634752859
 20
831.4555237142796
 30
0.0
 10
1472.580456285961
 20
831.5316041642124
 30
0.0
 10
1472.228974860273
 20
831.566954634156
 30
0.0
 10
1471.865926727583
 20
831.5623376367362
 30
0.0
 10
1471.619419024132
 20
831.5186135174147
 30
0.0
 10
1471.495720813673
 20
831.4966726399563
 30
0.0
  0
SPLINE
  5
1B5
330
1F
100
AcDbEntity
  8
0
  6
Continuous
 62
     7
370
    25
100
AcDbSpline
210
0.0
220
0.0
230
1.0
 70
     8
 71
     3
 72
    15
 73
    11
 74
     0
 42
0.000000001
 43
0.00000001
 40
0.0
 40
0.0
 40
0.0
 40
0.0
 40
0.2153296810342199
 40
0.3327055588565105
 40
0.4327106172888237
 40
0.533128909105633
 40
0.6249491950544305
 40
0.7533679527278743
 40
0.9418458044827919
 40
1.0
 40
1.0
 40
1.0
 40
1.0
 10
1473.305079681739
 20
825.2211624265346
 30
0.0
 10
1473.260949296568
 20
825.2643649869163
 30
0.0
 10
1473.19276350634
 20
825.3311171964897
 30
0.0
 10
1473.135354103749
 20
825.4715987080037
 30
0.0
 10
1473.116583355958
 20
825.5920984689674
 30
0.0
 10
1473.126843285912
 20
825.7090572200245
 30
0.0
 10
1473.16510037026
 20
825.8257546078654
 30
0.0
 10
1473.240932447859
 20
825.9455684670451
 30
0.0
 10
1473.326975547721
 20
826.0183731385974
 30
0.0
 10
1473.38544267402
 20
826.0494350630618
 30
0.0
 10
1473.399228833328
 20
826.0567592581467
 30
0.0
  0
SPLINE
  5
1B6
330
1F
100
AcDbEntity
  8
0
  6
Continuous
 62
     7
370
    25
100
AcDbSpline
210
0.0
220
0.0
230
1.0
 70
     8
 71
     3
 72
    33
 73
    29
 74
     0
 42
0.000000001
 43
0.00000001
 40
0.0
 40
0.0
 40
0.0
 40
0.0
 40
0.0441213647301369
 40
0.0885643240892581
 40
0.1339549310956386
 40
0.1796485529093169
 40
0.2244874082555723
 40
0.2696160366855323
 40
0.315757513029335
 40
0.3623227711932804
 40
0.3904545578735197
 40
0.4187956069174087
 40
0.4469628201082568
 40
0.4757844533845205
 40
0.4937613087930949
 40
0.5122052114429426
 40
0.5302047120128197
 40
0.5487727969964298
 40
0.572137329416299
 40
0.596149019290268
 40
0.6384785624500969
 40
0.6818249414599881
 40
0.7221252442697444
 40
0.7627269998851994
 40
0.8041331317540564
 40
0.8457735509867541
 40
0.9221430649462491
 40
1.0
 40
1.0
 40
1.0
 40
1.0
 10
2114.575041832552
 20
830.8343486759461
 30
0.0
 10
2114.620823337203
 20
830.9418379822163
 30
0.0
 10
2114.712720041668
 20
831.157600069696
 30
0.0
 10
2114.798694780665
 20
831.4940538829392
 30
0.0
 10
2114.847151004821
 20
831.8374087461447
 30
0.0
 10
2114.853436215451
 20
832.1827427071174
 30
0.0
 10
2114.819227012979
 20
832.525601943645
 30
0.0
 10
2114.743978970845
 20
832.8659949605718
 30
0.0
 10
2114.624343595435
 20
833.2056145344308
 30
0.0
 10
2114.477545734477
 20
833.4983121722698
 30
0.0
 10
2114.318918223111
 20
833.7442226276545
 30
0.0
 10
2114.164638463924
 20
833.9440854596922
 30
0.0
 10
2113.980672734203
 20
834.1429260962261
 30
0.0
 10
2113.788647782545
 20
834.3139331886629
 30
0.0
 10
2113.598523191266
 20
834.4555971533053
 30
0.0
 10
2113.426401840622
 20
834.5660408317941
 30
0.0
 10
2113.243357499649
 20
834.6657554491254
 30
0.0
 10
2113.040665618249
 20
834.7580667264068
 30
0.0
 10
2112.820488590311
 20
834.8378618396018
 30
0.0
 10
2112.532304041376
 20
834.9155718610716
 30
0.0
 10
2112.199966985407
 20
834.9662323066223
 30
0.0
 10
2111.843416682963
 20
834.974280152792
 30
0.0
 10
2111.510183765062
 20
834.9424529021237
 30
0.0
 10
2111.197442839401
 20
834.8772317536899
 30
0.0
 10
2110.895753828847
 20
834.7792612488443
 30
0.0
 10
2110.527070849446
 20
834.6120200814006
 30
0.0
 10
2110.104529939591
 20
834.3444678176822
 30
0.0
 10
2109.832443894538
 20
834.0495217194656
 30
0.0
 10
2109.6950888191
 20
833.9006263817325
 30
0.0
  0
SPLINE
  5
1B7
330
1F
100
AcDbEntity
  8
0
  6
Continuous
 62
     7
370
    25
100
AcDbSpline
210
0.0
220
0.0
230
1.0
 70
     8
 71
     3
 72
    14
 73
    10
 74
     0
 42
0.000000001
 43
0.00000001
 40
0.0
 40
0.0
 40
0.0
 40
0.0
 40
0.2204300636817375
 40
0.3399443732550739
 40
0.4603671101703318
 40
0.5640212293775603
 40
0.6631726788871378
 40
0.8102691653343989
 40
1.0
 40
1.0
 40
1.0
 40
1.0
 10
2115.022419164767
 20
830.1223517304719
 30
0.0
 10
2114.958006697872
 20
830.1292926704215
 30
0.0
 10
2114.858670630355
 20
830.1399968976107
 30
0.0
 10
2114.718106702039
 20
830.2225582363834
 30
0.0
 10
2114.624802031453
 20
830.316716110178
 30
0.0
 10
2114.562875944766
 20
830.4267147344067
 30
0.0
 10
2114.527532517291
 20
830.5497434203385
 30
0.0
 10
2114.523601659909
 20
830.695688068417
 30
0.0
 10
2114.556506772779
 20
830.7843861171802
 30
0.0
 10
2114.575041832552
 20
830.8343486759461
 30
0.0
  0
SPLINE
  5
1B8
330
1F
100
AcDbEntity
  8
0
  6
Continuous
 62
     7
370
    25
100
AcDbSpline
210
0.0
220
0.0
230
1.0
 70
     8
 71
     3
 72
    32
 73
    28
 74
     0
 42
0.000000001
 43
0.00000001
 40
0.0
 40
0.0
 40
0.0
 40
0.0
 40
0.0430301906961574
 40
0.0863703585232827
 40
0.1306473267282201
 40
0.1752340698039845
 40
0.2184985703256634
 40
0.2620710116748343
 40
0.3067590161673256
 40
0.3519305753622419
 40
0.3854008499168465
 40
0.4193042262219344
 40
0.4528401599354696
 40
0.4875658065129638
 40
0.5106252861551642
 40
0.5343668716440427
 40
0.5574221930535522
 40
0.5810244918902211
 40
0.6175995456730593
 40
0.6551634288326451
 40
0.7176981382171241
 40
0.781868609074915
 40
0.8252522659086718
 40
0.8689465762027789
 40
0.9135854729028701
 40
0.9585418566971338
 40
1.0
 40
1.0
 40
1.0
 40
1.0
 10
2115.66770765783
 20
824.3952579523661
 30
0.0
 10
2115.775567820087
 20
824.4249871311447
 30
0.0
 10
2115.99206513822
 20
824.4846596491642
 30
0.0
 10
2116.298524214185
 20
824.6197398569917
 30
0.0
 10
2116.590093269468
 20
824.7873649307322
 30
0.0
 10
2116.859371995381
 20
824.9880089987823
 30
0.0
 10
2117.103937342523
 20
825.2181134494897
 30
0.0
 10
2117.323650767473
 20
825.4785253701742
 30
0.0
 10
2117.518331720871
 20
825.7743384655373
 30
0.0
 10
2117.668571728395
 20
826.079529710543
 30
0.0
 10
2117.777807685299
 20
826.3860740854639
 30
0.0
 10
2117.850766493975
 20
826.6848097564455
 30
0.0
 10
2117.893875071537
 20
827.012883193627
 30
0.0
 10
2117.897837474253
 20
827.328070936144
 30
0.0
 10
2117.870740474805
 20
827.6164369428951
 30
0.0
 10
2117.826032297069
 20
827.8617455865381
 30
0.0
 10
2117.761155039481
 20
828.0996196436496
 30
0.0
 10
2117.664747106784
 20
828.3641596633489
 30
0.0
 10
2117.527285143403
 20
828.6461270324157
 30
0.0
 10
2117.305193118479
 20
828.990991592282
 30
0.0
 10
2117.00026878171
 20
829.3357950037235
 30
0.0
 10
2116.647598655375
 20
829.6158006645959
 30
0.0
 10
2116.311064728304
 20
829.8121605739752
 30
0.0
 10
2116.003678983873
 20
829.9471958967932
 30
0.0
 10
2115.679886923945
 20
830.045963687832
 30
0.0
 10
2115.351487978658
 20
830.1081537189852
 30
0.0
 10
2115.129107966996
 20
830.1177485326738
 30
0.0
 10
2115.022419164767
 20
830.1223517304719
 30
0.0
  0
SPLINE
  5
1B9
330
1F
100
AcDbEntity
  8
0
  6
Continuous
 62
     7
370
    25
100
AcDbSpline
210
0.0
220
0.0
230
1.0
 70
     8
 71
     3
 72
    14
 73
    10
 74
     0
 42
0.000000001
 43
0.00000001
 40
0.0
 40
0.0
 40
0.0
 40
0.0
 40
0.2240635092470033
 40
0.3487071205324326
 40
0.4742528072797913
 40
0.5825492860623829
 40
0.6866084231150101
 40
0.8379727149431416
 40
1.0
 40
1.0
 40
1.0
 40
1.0
 10
2115.389981234656
 20
823.6015614350399
 30
0.0
 10
2115.354684502082
 20
823.6575377253062
 30
0.0
 10
2115.299752656994
 20
823.7446528966358
 30
0.0
 10
2115.278190705105
 20
823.9100038793331
 30
0.0
 10
2115.296768999367
 20
824.045128823413
 30
0.0
 10
2115.348776676639
 20
824.1642135061029
 30
0.0
 10
2115.428562283616
 20
824.2686848888588
 30
0.0
 10
2115.538341659598
 20
824.353899799913
 30
0.0
 10
2115.623618491097
 20
824.3811626993306
 30
0.0
 10
2115.66770765783
 20
824.3952579523661
 30
0.0
  0
SPLINE
  5
1BA
330
1F
100
AcDbEntity
  8
0
  6
Continuous
 62
     7
370
    25
100
AcDbSpline
210
0.0
220
0.0
230
1.0
 70
     8
 71
     3
 72
    31
 73
    27
 74
     0
 42
0.000000001
 43
0.00000001
 40
0.0
 40
0.0
 40
0.0
 40
0.0
 40
0.0425768439200444
 40
0.0854562266634144
 40
0.1292655212992932
 40
0.1733896051365756
 40
0.2448927928827642
 40
0.2814175395970749
 40
0.3182118727426337
 40
0.357850917330389
 40
0.3981484105824904
 40
0.4288224096626745
 40
0.4602420416076312
 40
0.4856042083258781
 40
0.511693631532681
 40
0.5370616943792907
 40
0.563094990978824
 40
0.5995472643023532
 40
0.6370102149324117
 40
0.6959998903666281
 40
0.7565561265102958
 40
0.7981804952569073
 40
0.8401079728424181
 40
0.8829363933459011
 40
0.9260588511262573
 40
1.0
 40
1.0
 40
1.0
 40
1.0
 10
2111.314689810568
 20
819.5262700109514
 30
0.0
 10
2111.403500081956
 20
819.461609290896
 30
0.0
 10
2111.581751685012
 20
819.3318283902815
 30
0.0
 10
2111.873814399372
 20
819.1776717372175
 30
0.0
 10
2112.182888019823
 20
819.0541529565533
 30
0.0
 10
2112.575703999865
 20
818.9485304465286
 30
0.0
 10
2112.967939331357
 20
818.904531335508
 30
0.0
 10
2113.353158473375
 20
818.9183377883998
 30
0.0
 10
2113.659838164002
 20
818.9608289213112
 30
0.0
 10
2113.982849270693
 20
819.0423536108875
 30
0.0
 10
2114.294075731505
 20
819.1621863972956
 30
0.0
 10
2114.583128563406
 20
819.3133907059482
 30
0.0
 10
2114.826983064174
 20
819.4755124705665
 30
0.0
 10
2115.048351505253
 20
819.6572549156817
 30
0.0
 10
2115.239427601682
 20
819.8464104336946
 30
0.0
 10
2115.411826051455
 20
820.0522072069183
 30
0.0
 10
2115.580437468835
 20
820.295382977344
 30
0.0
 10
2115.73428653999
 20
820.5778910057503
 30
0.0
 10
2115.883507009627
 20
820.9519373973516
 30
0.0
 10
2115.985953324452
 20
821.3862305854458
 30
0.0
 10
2116.013263388903
 20
821.8179552484572
 30
0.0
 10
2115.985450159314
 20
822.1920144289942
 30
0.0
 10
2115.925891100416
 20
822.5108394071979
 30
0.0
 10
2115.830003754595
 20
822.8220333128609
 30
0.0
 10
2115.670873348437
 20
823.1971595519393
 30
0.0
 10
2115.498719289607
 20
823.445010673984
 30
0.0
 10
2115.389981234656
 20
823.6015614350399
 30
0.0
  0
SPLINE
  5
1BB
330
1F
100
AcDbEntity
  8
0
  6
Continuous
 62
     7
370
    25
100
AcDbSpline
210
0.0
220
0.0
230
1.0
 70
     8
 71
     3
 72
    14
 73
    10
 74
     0
 42
0.000000001
 43
0.00000001
 40
0.0
 40
0.0
 40
0.0
 40
0.0
 40
0.2236978580034416
 40
0.3528357075717292
 40
0.4829964006465754
 40
0.5936020866478688
 40
0.6970463839855788
 40
0.8440092931474359
 40
1.0
 40
1.0
 40
1.0
 40
1.0
 10
2110.520993293241
 20
819.2485435877743
 30
0.0
 10
2110.542314170442
 20
819.3100083681928
 30
0.0
 10
2110.575943311377
 20
819.406955962968
 30
0.0
 10
2110.691295597804
 20
819.5276978338969
 30
0.0
 10
2110.81147155416
 20
819.5991328436652
 30
0.0
 10
2110.940135165391
 20
819.6323930409734
 30
0.0
 10
2111.071684360413
 20
819.6335670961164
 30
0.0
 10
2111.204367621472
 20
819.6001346508435
 30
0.0
 10
2111.277192372641
 20
819.5513758828712
 30
0.0
 10
2111.314689810568
 20
819.5262700109514
 30
0.0
  0
SPLINE
  5
1BC
330
1F
100
AcDbEntity
  8
0
  6
Continuous
 62
     7
370
    25
100
AcDbSpline
210
0.0
220
0.0
230
1.0
 70
     8
 71
     3
 72
    32
 73
    28
 74
     0
 42
0.000000001
 43
0.00000001
 40
0.0
 40
0.0
 40
0.0
 40
0.0
 40
0.0436175577132286
 40
0.0875445180727388
 40
0.1324232365607131
 40
0.177624995701357
 40
0.2471068321983816
 40
0.2825457174670822
 40
0.3182339115864886
 40
0.35437325643659
 40
0.3910498564409232
 40
0.4195472303548376
 40
0.4487320066823347
 40
0.4718441160741381
 40
0.495618445105286
 40
0.5187364415274811
 40
0.5424579544801595
 40
0.5764259662049972
 40
0.6113254577453299
 40
0.6689154864260265
 40
0.7279987346838479
 40
0.770482256469435
 40
0.8132756786605976
 40
0.8569852155483454
 40
0.9009924730134502
 40
0.9502698003771134
 40
1.0
 40
1.0
 40
1.0
 40
1.0
 10
2104.793899515136
 20
819.8938320808412
 30
0.0
 10
2104.798911667712
 20
819.7816019510133
 30
0.0
 10
2104.808971526739
 20
819.5563455830704
 30
0.0
 10
2104.873240441194
 20
819.2248855817219
 30
0.0
 10
2104.973600450859
 20
818.8996489194611
 30
0.0
 10
2105.139302327825
 20
818.5281223688012
 30
0.0
 10
2105.349377681425
 20
818.1997742321773
 30
0.0
 10
2105.595204799466
 20
817.9154913760145
 30
0.0
 10
2105.810124492371
 20
817.7118432283293
 30
0.0
 10
2106.058156033592
 20
817.5215259141897
 30
0.0
 10
2106.322524303658
 20
817.3617103582578
 30
0.0
 10
2106.598726058668
 20
817.232565702429
 30
0.0
 10
2106.858457669991
 20
817.1411351584433
 30
0.0
 10
2107.118750045615
 20
817.0763712419238
 30
0.0
 10
2107.365843395873
 20
817.0371598337581
 30
0.0
 10
2107.614910002482
 20
817.0195243455654
 30
0.0
 10
2107.892266062664
 20
817.0233988589276
 30
0.0
 10
2108.193038508797
 20
817.0582054835257
 30
0.0
 10
2108.570805816409
 20
817.1457570648906
 30
0.0
 10
2108.974742332741
 20
817.3030469023483
 30
0.0
 10
2109.342603868598
 20
817.5216958160408
 30
0.0
 10
2109.63645532573
 20
817.7558118686256
 30
0.0
 10
2109.869944121138
 20
817.9896706028009
 30
0.0
 10
2110.076512704071
 20
818.249523924609
 30
0.0
 10
2110.259773867127
 20
818.5454893426667
 30
0.0
 10
2110.416344760006
 20
818.876419996028
 30
0.0
 10
2110.48600423857
 20
819.1241247135331
 30
0.0
 10
2110.520993293241
 20
819.2485435877742
 30
0.0
  0
SPLINE
  5
1BD
330
1F
100
AcDbEntity
  8
0
  6
Continuous
 62
     7
370
    25
100
AcDbSpline
210
0.0
220
0.0
230
1.0
 70
     8
 71
     3
 72
    14
 73
    10
 74
     0
 42
0.000000001
 43
0.00000001
 40
0.0
 40
0.0
 40
0.0
 40
0.0
 40
0.2198296104786664
 40
0.3499177958293673
 40
0.4588983161345153
 40
0.5683999765788271
 40
0.6667094681232935
 40
0.7967198733581277
 40
1.0
 40
1.0
 40
1.0
 40
1.0
 10
2104.081902569656
 20
820.341209413054
 30
0.0
 10
2104.140551919239
 20
820.362234692781
 30
0.0
 10
2104.233908092178
 20
820.3957020656374
 30
0.0
 10
2104.389710382577
 20
820.3845218623647
 30
0.0
 10
2104.512900723586
 20
820.3438311545034
 30
0.0
 10
2104.617553709718
 20
820.2759441690198
 30
0.0
 10
2104.704635572176
 20
820.1824663390387
 30
0.0
 10
2104.778200098442
 20
820.0497239046284
 30
0.0
 10
2104.787951781388
 20
819.9528917949324
 30
0.0
 10
2104.793899515136
 20
819.8938320808412
 30
0.0
  0
SPLINE
  5
1BE
330
1F
100
AcDbEntity
  8
0
  6
Continuous
 62
     7
370
    25
100
AcDbSpline
210
0.0
220
0.0
230
1.0
 70
     8
 71
     3
 72
    33
 73
    29
 74
     0
 42
0.000000001
 43
0.00000001
 40
0.0
 40
0.0
 40
0.0
 40
0.0
 40
0.0453846795158935
 40
0.09109564576768
 40
0.1377861112474344
 40
0.184798448438526
 40
0.2588563244582869
 40
0.2965960583089283
 40
0.3345934417298308
 40
0.3627068189222357
 40
0.3910552764359705
 40
0.4192115960367028
 40
0.4481447873352604
 40
0.4657876556062933
 40
0.4839178616272575
 40
0.5015746029079484
 40
0.5197390882526028
 40
0.5448263126108223
 40
0.5705932132964153
 40
0.6177342306538911
 40
0.6659981837889715
 40
0.7087532480230011
 40
0.7518249524472288
 40
0.7957808044145205
 40
0.8400079168875078
 40
0.9191109597848017
 40
0.9594357012421634
 40
1.0
 40
1.0
 40
1.0
 40
1.0
 10
2101.015624863876
 20
825.2211624265071
 30
0.0
 10
2100.926621734289
 20
825.1431407961528
 30
0.0
 10
2100.7479755997
 20
824.9865366099654
 30
0.0
 10
2100.521272926027
 20
824.7154668320446
 30
0.0
 10
2100.325795468229
 20
824.419846652726
 30
0.0
 10
2100.136956966495
 20
824.0380174964173
 30
0.0
 10
2100.01527237363
 20
823.6479794838388
 30
0.0
 10
2099.955646781025
 20
823.2559655877949
 30
0.0
 10
2099.942481445665
 20
822.9712525710078
 30
0.0
 10
2099.956044722616
 20
822.7002598485285
 30
0.0
 10
2099.990660520318
 20
822.4464486927315
 30
0.0
 10
2100.052603639184
 20
822.1772578668636
 30
0.0
 10
2100.136177701026
 20
821.9292863154178
 30
0.0
 10
2100.232121602404
 20
821.7106757620219
 30
0.0
 10
2100.325976001227
 20
821.5317181139225
 30
0.0
 10
2100.432982680583
 20
821.3585382725173
 30
0.0
 10
2100.563435197123
 20
821.1768877362921
 30
0.0
 10
2100.719270318333
 20
820.9933596581858
 30
0.0
 10
2100.946224022759
 20
820.7696184788485
 30
0.0
 10
2101.232726170103
 20
820.5482203734086
 30
0.0
 10
2101.564810733098
 20
820.3588140939553
 30
0.0
 10
2101.892797273401
 20
820.2229029461703
 30
0.0
 10
2102.215078825968
 20
820.1310573532736
 30
0.0
 10
2102.545131653357
 20
820.076868053464
 30
0.0
 10
2102.969130403778
 20
820.0565101085728
 30
0.0
 10
2103.385534472812
 20
820.1049301850478
 30
0.0
 10
2103.786249906906
 20
820.2143124304705
 30
0.0
 10
2103.983157298083
 20
820.298826987371
 30
0.0
 10
2104.081902569656
 20
820.341209413054
 30
0.0
  0
SPLINE
  5
1BF
330
1F
100
AcDbEntity
  8
0
  6
Continuous
 62
     7
370
    25
100
AcDbSpline
210
0.0
220
0.0
230
1.0
 70
     8
 71
     3
 72
    15
 73
    11
 74
     0
 42
0.000000001
 43
0.00000001
 40
0.0
 40
0.0
 40
0.0
 40
0.0
 40
0.2148110296556836
 40
0.3411322673416659
 40
0.4464287003092426
 40
0.552354251242693
 40
0.6447889097414453
 40
0.7660552293890271
 40
0.940389446327533
 40
1.0
 40
1.0
 40
1.0
 40
1.0
 10
2100.921475712287
 20
826.0567592581195
 30
0.0
 10
2100.97247178342
 20
826.0255856115349
 30
0.0
 10
2101.053456476799
 20
825.9760800681842
 30
0.0
 10
2101.141400086747
 20
825.8533258927375
 30
0.0
 10
2101.188528774394
 20
825.735834009392
 30
0.0
 10
2101.204288275598
 20
825.6147369866767
 30
0.0
 10
2101.190662039532
 20
825.491233519486
 30
0.0
 10
2101.142900510262
 20
825.3619891217642
 30
0.0
 10
2101.076755885811
 20
825.2741251886376
 30
0.0
 10
2101.028038381065
 20
825.2319172632057
 30
0.0
 10
2101.015624863876
 20
825.2211624265071
 30
0.0
  0
SPLINE
  5
1C0
330
1F
100
AcDbEntity
  8
0
  6
Continuous
 62
     7
370
    25
100
AcDbSpline
210
0.0
220
0.0
230
1.0
 70
     8
 71
     3
 72
    33
 73
    29
 74
     0
 42
0.000000001
 43
0.00000001
 40
0.0
 40
0.0
 40
0.0
 40
0.0
 40
0.0454432397232649
 40
0.0912170391424261
 40
0.1379500215180052
 40
0.1849840146144293
 40
0.2316516508707392
 40
0.2786054666831215
 40
0.3265572669076995
 40
0.3749371050178144
 40
0.3989747636382796
 40
0.4231769206048088
 40
0.4431234955496212
 40
0.4634796340440394
 40
0.4878744888887495
 40
0.5123837511182362
 40
0.5281127512287269
 40
0.5442716110769584
 40
0.5755418912508655
 40
0.6074940067964331
 40
0.6452969753465789
 40
0.6833694665812876
 40
0.7609503045067263
 40
0.8037406836446945
 40
0.8467500403233604
 40
0.8904656812725388
 40
0.9344381236378348
 40
1.0
 40
1.0
 40
1.0
 40
1.0
 10
2102.824983731944
 20
831.4966726399305
 30
0.0
 10
2102.704173098218
 20
831.5182065497141
 30
0.0
 10
2102.461673039409
 20
831.5614310095809
 30
0.0
 10
2102.098690940683
 20
831.5673892367247
 30
0.0
 10
2101.739326398254
 20
831.5320027827189
 30
0.0
 10
2101.388811979105
 20
831.4517822795593
 30
0.0
 10
2101.051548201016
 20
831.329659076701
 30
0.0
 10
2100.727941072676
 20
831.1650450116482
 30
0.0
 10
2100.418045013829
 20
830.9545981710149
 30
0.0
 10
2100.172927309336
 20
830.7363625770172
 30
0.0
 10
2099.984908794445
 20
830.5289292092143
 30
0.0
 10
2099.855924425719
 20
830.3636004523638
 30
0.0
 10
2099.737103331926
 20
830.1859357607085
 30
0.0
 10
2099.621680684127
 20
829.983600958674
 30
0.0
 10
2099.506053748553
 20
829.7322567086389
 30
0.0
 10
2099.42121804139
 20
829.4802282748175
 30
0.0
 10
2099.369869782886
 20
829.2725864741099
 30
0.0
 10
2099.32928480496
 20
829.0525810526462
 30
0.0
 10
2099.304634595745
 20
828.7984154233548
 30
0.0
 10
2099.305256791097
 20
828.5016356992911
 30
0.0
 10
2099.336232240132
 20
828.2056950603289
 30
0.0
 10
2099.42069620324
 20
827.8081717691592
 30
0.0
 10
2099.566443333247
 20
827.4274447145584
 30
0.0
 10
2099.774383456091
 20
827.0665066236174
 30
0.0
 10
2099.971060309939
 20
826.7994875718168
 30
0.0
 10
2100.202050553268
 20
826.5528743200842
 30
0.0
 10
2100.506886905579
 20
826.2899308769596
 30
0.0
 10
2100.766239785701
 20
826.1440665170679
 30
0.0
 10
2100.921475712287
 20
826.0567592581195
 30
0.0
  0
SPLINE
  5
1C1
330
1F
100
AcDbEntity
  8
0
  6
Continuous
 62
     7
370
    25
100
AcDbSpline
210
0.0
220
0.0
230
1.0
 70
     8
 71
     3
 72
    15
 73
    11
 74
     0
 42
0.000000001
 43
0.00000001
 40
0.0
 40
0.0
 40
0.0
 40
0.0
 40
0.2126307822086728
 40
0.333080635927368
 40
0.4343189429316777
 40
0.5361409898009911
 40
0.62550065659885
 40
0.7454503639221511
 40
0.9209037802014151
 40
1.0
 40
1.0
 40
1.0
 40
1.0
 10
2103.419578605679
 20
832.0912675136661
 30
0.0
 10
2103.427046638762
 20
832.0323154123002
 30
0.0
 10
2103.438745119962
 20
831.9399684660666
 30
0.0
 10
2103.399008638326
 20
831.7965696687896
 30
0.0
 10
2103.339607329585
 20
831.6888438322931
 30
0.0
 10
2103.258628562074
 20
831.6018383540538
 30
0.0
 10
2103.157414404677
 20
831.534267866789
 30
0.0
 10
2103.028866121992
 20
831.4876322608802
 30
0.0
 10
2102.91377551859
 20
831.480916095351
 30
0.0
 10
2102.846033280587
 20
831.4929372927312
 30
0.0
 10
2102.824983731944
 20
831.4966726399305
 30
0.0
  0
SPLINE
  5
1C2
330
1F
100
AcDbEntity
  8
0
  6
Continuous
 62
     7
370
    25
100
AcDbSpline
210
0.0
220
0.0
230
1.0
 70
     8
 71
     3
 72
    32
 73
    28
 74
     0
 42
0.000000001
 43
0.00000001
 40
0.0
 40
0.0
 40
0.0
 40
0.0
 40
0.0447046064970631
 40
0.0897361178800006
 40
0.1357107811798312
 40
0.1819789736105623
 40
0.227954235931186
 40
0.2742011378173375
 40
0.321353542141996
 40
0.3688631981537102
 40
0.4236350575688509
 40
0.4510041609017753
 40
0.4792023732510963
 40
0.5037395272588826
 40
0.5283784873449715
 40
0.544557563553881
 40
0.5611739038848383
 40
0.6013084251860199
 40
0.6425658183218373
 40
0.6854492331527451
 40
0.7286418616755099
 40
0.7726536612270506
 40
0.816907032544895
 40
0.8619574650676612
 40
0.907272189039671
 40
0.953468941882587
 40
1.0
 40
1.0
 40
1.0
 40
1.0
 10
2108.859491987489
 20
833.9947755333217
 30
0.0
 10
2108.80150897312
 20
834.101794461218
 30
0.0
 10
2108.685118940412
 20
834.3166148987881
 30
0.0
 10
2108.466057793992
 20
834.6016996878102
 30
0.0
 10
2108.217847114096
 20
834.8584353388316
 30
0.0
 10
2107.941101378285
 20
835.08082117857
 30
0.0
 10
2107.641030534753
 20
835.2673506042257
 30
0.0
 10
2107.318044715819
 20
835.4174033904137
 30
0.0
 10
2106.970895040318
 20
835.5292925591648
 30
0.0
 10
2106.578786246796
 20
835.6023260014317
 30
0.0
 10
2106.209303792852
 20
835.6182883402389
 30
0.0
 10
2105.859379212078
 20
835.5872532953304
 30
0.0
 10
2105.578965461828
 20
835.5352227774615
 30
0.0
 10
2105.281302365885
 20
835.4469094476552
 30
0.0
 10
2105.033864437213
 20
835.3435287711822
 30
0.0
 10
2104.841907354424
 20
835.2439347662116
 30
0.0
 10
2104.622413858709
 20
835.1124011933933
 30
0.0
 10
2104.376192171759
 20
834.9281997924653
 30
0.0
 10
2104.121562402762
 20
834.6838668915337
 30
0.0
 10
2103.90469483286
 20
834.4196909177333
 30
0.0
 10
2103.721902368592
 20
834.1350690606218
 30
0.0
 10
2103.573843898095
 20
833.832728142842
 30
0.0
 10
2103.460727531355
 20
833.5121814528524
 30
0.0
 10
2103.384647081423
 20
833.1760029859539
 30
0.0
 10
2103.349296611479
 20
832.8245215602672
 30
0.0
 10
2103.353913608899
 20
832.4614734275766
 30
0.0
 10
2103.39763772822
 20
832.2149657241258
 30
0.0
 10
2103.419578605679
 20
832.0912675136661
 30
0.0
  0
SPLINE
  5
1C3
330
1F
100
AcDbEntity
  8
0
  6
Continuous
 62
     7
370
    25
100
AcDbSpline
210
0.0
220
0.0
230
1.0
 70
     8
 71
     3
 72
    15
 73
    11
 74
     0
 42
0.000000001
 43
0.00000001
 40
0.0
 40
0.0
 40
0.0
 40
0.0
 40
0.2153296810341934
 40
0.3327055588565231
 40
0.4327106172888367
 40
0.5331289091055953
 40
0.6249491950544503
 40
0.7533679527278732
 40
0.9418458044827916
 40
1.0
 40
1.0
 40
1.0
 40
1.0
 10
2109.6950888191
 20
833.9006263817325
 30
0.0
 10
2109.651886258719
 20
833.8564959965614
 30
0.0
 10
2109.585134049145
 20
833.7883102063333
 30
0.0
 10
2109.444652537632
 20
833.730900803742
 30
0.0
 10
2109.324152776668
 20
833.7121300559514
 30
0.0
 10
2109.207194025611
 20
833.7223899859058
 30
0.0
 10
2109.090496637769
 20
833.7606470702538
 30
0.0
 10
2108.970682778589
 20
833.8364791478532
 30
0.0
 10
2108.897878107037
 20
833.922522247714
 30
0.0
 10
2108.866816182574
 20
833.9809893740137
 30
0.0
 10
2108.859491987489
 20
833.9947755333217
 30
0.0
  0
SPLINE
  5
1C4
330
1F
100
AcDbEntity
  8
0
  6
Continuous
 62
     7
370
    25
100
AcDbSpline
210
0.0
220
0.0
230
1.0
 70
     8
 71
     3
 72
    33
 73
    29
 74
     0
 42
0.000000001
 43
0.00000001
 40
0.0
 40
0.0
 40
0.0
 40
0.0
 40
0.0441213647301357
 40
0.0885643240892568
 40
0.1339549310956373
 40
0.1796485529093156
 40
0.224487408255571
 40
0.2696160366855304
 40
0.3157575130293341
 40
0.362322771193278
 40
0.3904545578735174
 40
0.4187956069174057
 40
0.4469628201082539
 40
0.475784453384518
 40
0.4937613087930925
 40
0.5122052114429361
 40
0.5302047120128175
 40
0.5487727969964296
 40
0.5721373294162929
 40
0.596149019290266
 40
0.6384785624500916
 40
0.6818249414599826
 40
0.722125244269739
 40
0.7627269998851941
 40
0.8041331317540542
 40
0.8457735509867489
 40
0.9221430649462466
 40
1.0
 40
1.0
 40
1.0
 40
1.0
 10
1459.745662713089
 20
1464.67744926968
 30
0.0
 10
1459.699881208438
 20
1464.56995996341
 30
0.0
 10
1459.607984503973
 20
1464.35419787593
 30
0.0
 10
1459.522009764975
 20
1464.017744062687
 30
0.0
 10
1459.47355354082
 20
1463.674389199482
 30
0.0
 10
1459.467268330189
 20
1463.329055238509
 30
0.0
 10
1459.501477532662
 20
1462.986196001981
 30
0.0
 10
1459.576725574795
 20
1462.645802985055
 30
0.0
 10
1459.696360950205
 20
1462.306183411196
 30
0.0
 10
1459.843158811164
 20
1462.013485773357
 30
0.0
 10
1460.001786322529
 20
1461.767575317972
 30
0.0
 10
1460.156066081716
 20
1461.567712485934
 30
0.0
 10
1460.340031811438
 20
1461.3688718494
 30
0.0
 10
1460.532056763095
 20
1461.197864756964
 30
0.0
 10
1460.722181354374
 20
1461.056200792321
 30
0.0
 10
1460.894302705019
 20
1460.945757113832
 30
0.0
 10
1461.077347045991
 20
1460.846042496501
 30
0.0
 10
1461.280038927392
 20
1460.75373121922
 30
0.0
 10
1461.50021595533
 20
1460.673936106024
 30
0.0
 10
1461.788400504264
 20
1460.596226084555
 30
0.0
 10
1462.120737560233
 20
1460.545565639004
 30
0.0
 10
1462.477287862677
 20
1460.537517792834
 30
0.0
 10
1462.810520780578
 20
1460.569345043503
 30
0.0
 10
1463.12326170624
 20
1460.634566191936
 30
0.0
 10
1463.424950716793
 20
1460.732536696782
 30
0.0
 10
1463.793633696195
 20
1460.899777864226
 30
0.0
 10
1464.216174606049
 20
1461.167330127944
 30
0.0
 10
1464.488260651102
 20
1461.462276226161
 30
0.0
 10
1464.62561572654
 20
1461.611171563894
 30
0.0
  0
SPLINE
  5
1C5
330
1F
100
AcDbEntity
  8
0
  6
Continuous
 62
     7
370
    25
100
AcDbSpline
210
0.0
220
0.0
230
1.0
 70
     8
 71
     3
 72
    14
 73
    10
 74
     0
 42
0.000000001
 43
0.00000001
 40
0.0
 40
0.0
 40
0.0
 40
0.0
 40
0.2204300636817591
 40
0.3399443732551076
 40
0.46036711017029
 40
0.5640212293775813
 40
0.6631726788871518
 40
0.8102691653344024
 40
1.0
 40
1.0
 40
1.0
 40
1.0
 10
1459.298285380873
 20
1465.389446215155
 30
0.0
 10
1459.362697847768
 20
1465.382505275205
 30
0.0
 10
1459.462033915285
 20
1465.371801048016
 30
0.0
 10
1459.602597843601
 20
1465.289239709243
 30
0.0
 10
1459.695902514188
 20
1465.195081835448
 30
0.0
 10
1459.757828600874
 20
1465.08508321122
 30
0.0
 10
1459.793172028349
 20
1464.962054525288
 30
0.0
 10
1459.797102885732
 20
1464.81610987721
 30
0.0
 10
1459.764197772861
 20
1464.727411828446
 30
0.0
 10
1459.745662713089
 20
1464.67744926968
 30
0.0
  0
SPLINE
  5
1C6
330
1F
100
AcDbEntity
  8
0
  6
Continuous
 62
     7
370
    25
100
AcDbSpline
210
0.0
220
0.0
230
1.0
 70
     8
 71
     3
 72
    32
 73
    28
 74
     0
 42
0.000000001
 43
0.00000001
 40
0.0
 40
0.0
 40
0.0
 40
0.0
 40
0.0430301906961574
 40
0.0863703585232847
 40
0.1306473267282208
 40
0.1752340698039881
 40
0.2184985703256644
 40
0.2620710116748352
 40
0.3067590161673266
 40
0.3519305753622447
 40
0.3854008499168494
 40
0.4193042262219362
 40
0.4528401599354653
 40
0.4875658065129659
 40
0.5106252861551668
 40
0.5343668716440454
 40
0.5574221930535548
 40
0.5810244918902173
 40
0.6175995456730599
 40
0.655163428832648
 40
0.717698138217127
 40
0.781868609074915
 40
0.8252522659086718
 40
0.8689465762027824
 40
0.9135854729028736
 40
0.9585418566971337
 40
1.0
 40
1.0
 40
1.0
 40
1.0
 10
1458.652996887811
 20
1471.11653999326
 30
0.0
 10
1458.545136725554
 20
1471.086810814482
 30
0.0
 10
1458.32863940742
 20
1471.027138296462
 30
0.0
 10
1458.022180331456
 20
1470.892058088635
 30
0.0
 10
1457.730611276173
 20
1470.724433014894
 30
0.0
 10
1457.46133255026
 20
1470.523788946844
 30
0.0
 10
1457.216767203118
 20
1470.293684496137
 30
0.0
 10
1456.997053778167
 20
1470.033272575452
 30
0.0
 10
1456.802372824769
 20
1469.737459480089
 30
0.0
 10
1456.652132817246
 20
1469.432268235083
 30
0.0
 10
1456.542896860341
 20
1469.125723860163
 30
0.0
 10
1456.469938051666
 20
1468.826988189181
 30
0.0
 10
1456.426829474104
 20
1468.498914751999
 30
0.0
 10
1456.422867071388
 20
1468.183727009483
 30
0.0
 10
1456.449964070836
 20
1467.895361002731
 30
0.0
 10
1456.494672248572
 20
1467.650052359088
 30
0.0
 10
1456.55954950616
 20
1467.412178301977
 30
0.0
 10
1456.655957438857
 20
1467.147638282278
 30
0.0
 10
1456.793419402237
 20
1466.865670913211
 30
0.0
 10
1457.015511427162
 20
1466.520806353344
 30
0.0
 10
1457.32043576393
 20
1466.176002941903
 30
0.0
 10
1457.673105890266
 20
1465.895997281031
 30
0.0
 10
1458.009639817336
 20
1465.699637371651
 30
0.0
 10
1458.317025561768
 20
1465.564602048833
 30
0.0
 10
1458.640817621696
 20
1465.465834257794
 30
0.0
 10
1458.969216566982
 20
1465.403644226641
 30
0.0
 10
1459.191596578644
 20
1465.394049412953
 30
0.0
 10
1459.298285380873
 20
1465.389446215155
 30
0.0
  0
SPLINE
  5
1C7
330
1F
100
AcDbEntity
  8
0
  6
Continuous
 62
     7
370
    25
100
AcDbSpline
210
0.0
220
0.0
230
1.0
 70
     8
 71
     3
 72
    14
 73
    10
 74
     0
 42
0.000000001
 43
0.00000001
 40
0.0
 40
0.0
 40
0.0
 40
0.0
 40
0.2240635092470149
 40
0.348707120532445
 40
0.4742528072798103
 40
0.5825492860624074
 40
0.6866084231150029
 40
0.8379727149431685
 40
1.0
 40
1.0
 40
1.0
 40
1.0
 10
1458.930723310985
 20
1471.910236510586
 30
0.0
 10
1458.966020043558
 20
1471.85426022032
 30
0.0
 10
1459.020951888647
 20
1471.767145048991
 30
0.0
 10
1459.042513840535
 20
1471.601794066293
 30
0.0
 10
1459.023935546272
 20
1471.466669122213
 30
0.0
 10
1458.971927869001
 20
1471.347584439523
 30
0.0
 10
1458.892142262024
 20
1471.243113056768
 30
0.0
 10
1458.782362886042
 20
1471.157898145713
 30
0.0
 10
1458.697086054544
 20
1471.130635246296
 30
0.0
 10
1458.652996887811
 20
1471.11653999326
 30
0.0
  0
SPLINE
  5
1C8
330
1F
100
AcDbEntity
  8
0
  6
Continuous
 62
     7
370
    25
100
AcDbSpline
210
0.0
220
0.0
230
1.0
 70
     8
 71
     3
 72
    31
 73
    27
 74
     0
 42
0.000000001
 43
0.00000001
 40
0.0
 40
0.0
 40
0.0
 40
0.0
 40
0.0425768439200444
 40
0.0854562266634109
 40
0.1292655212992932
 40
0.1733896051365766
 40
0.2448927928827647
 40
0.2814175395970713
 40
0.3182118727426341
 40
0.3578509173303894
 40
0.3981484105824907
 40
0.4288224096626748
 40
0.4602420416076313
 40
0.4856042083258782
 40
0.511693631532681
 40
0.5370616943792909
 40
0.563094990978824
 40
0.5995472643023532
 40
0.6370102149324116
 40
0.6959998903666237
 40
0.7565561265102949
 40
0.7981804952569062
 40
0.8401079728424176
 40
0.8829363933458994
 40
0.9260588511262554
 40
1.0
 40
1.0
 40
1.0
 40
1.0
 10
1463.006014735073
 20
1475.985527934675
 30
0.0
 10
1462.917204463684
 20
1476.05018865473
 30
0.0
 10
1462.738952860629
 20
1476.179969555345
 30
0.0
 10
1462.446890146268
 20
1476.334126208409
 30
0.0
 10
1462.137816525817
 20
1476.457644989073
 30
0.0
 10
1461.745000545776
 20
1476.563267499098
 30
0.0
 10
1461.352765214284
 20
1476.607266610118
 30
0.0
 10
1460.967546072265
 20
1476.593460157227
 30
0.0
 10
1460.660866381638
 20
1476.550969024315
 30
0.0
 10
1460.337855274947
 20
1476.469444334739
 30
0.0
 10
1460.026628814135
 20
1476.349611548331
 30
0.0
 10
1459.737575982234
 20
1476.198407239678
 30
0.0
 10
1459.493721481466
 20
1476.03628547506
 30
0.0
 10
1459.272353040388
 20
1475.854543029945
 30
0.0
 10
1459.081276943959
 20
1475.665387511932
 30
0.0
 10
1458.908878494186
 20
1475.459590738708
 30
0.0
 10
1458.740267076806
 20
1475.216414968282
 30
0.0
 10
1458.58641800565
 20
1474.933906939876
 30
0.0
 10
1458.437197536014
 20
1474.559860548275
 30
0.0
 10
1458.334751221189
 20
1474.125567360181
 30
0.0
 10
1458.307441156737
 20
1473.693842697169
 30
0.0
 10
1458.335254386326
 20
1473.319783516632
 30
0.0
 10
1458.394813445224
 20
1473.000958538429
 30
0.0
 10
1458.490700791046
 20
1472.689764632766
 30
0.0
 10
1458.649831197204
 20
1472.314638393687
 30
0.0
 10
1458.821985256033
 20
1472.066787271642
 30
0.0
 10
1458.930723310985
 20
1471.910236510586
 30
0.0
  0
SPLINE
  5
1C9
330
1F
100
AcDbEntity
  8
0
  6
Continuous
 62
     7
370
    25
100
AcDbSpline
210
0.0
220
0.0
230
1.0
 70
     8
 71
     3
 72
    14
 73
    10
 74
     0
 42
0.000000001
 43
0.00000001
 40
0.0
 40
0.0
 40
0.0
 40
0.0
 40
0.2236978580034543
 40
0.3528357075717399
 40
0.4829964006465839
 40
0.5936020866478755
 40
0.6970463839855838
 40
0.8440092931474386
 40
1.0
 40
1.0
 40
1.0
 40
1.0
 10
1463.7997112524
 20
1476.263254357852
 30
0.0
 10
1463.778390375198
 20
1476.201789577433
 30
0.0
 10
1463.744761234264
 20
1476.104841982658
 30
0.0
 10
1463.629408947836
 20
1475.98410011173
 30
0.0
 10
1463.509232991481
 20
1475.912665101961
 30
0.0
 10
1463.38056938025
 20
1475.879404904653
 30
0.0
 10
1463.249020185227
 20
1475.87823084951
 30
0.0
 10
1463.116336924169
 20
1475.911663294783
 30
0.0
 10
1463.043512172999
 20
1475.960422062755
 30
0.0
 10
1463.006014735073
 20
1475.985527934675
 30
0.0
  0
SPLINE
  5
1CA
330
1F
100
AcDbEntity
  8
0
  6
Continuous
 62
     7
370
    25
100
AcDbSpline
210
0.0
220
0.0
230
1.0
 70
     8
 71
     3
 72
    32
 73
    28
 74
     0
 42
0.000000001
 43
0.00000001
 40
0.0
 40
0.0
 40
0.0
 40
0.0
 40
0.0436175577132322
 40
0.0875445180727423
 40
0.1324232365607164
 40
0.1776249957013568
 40
0.2471068321983844
 40
0.2825457174670849
 40
0.3182339115864912
 40
0.35437325643659
 40
0.391049856440923
 40
0.4195472303548373
 40
0.448732006682336
 40
0.471844116074138
 40
0.4956184451052859
 40
0.5187364415274813
 40
0.5424579544801582
 40
0.5764259662049936
 40
0.6113254577453296
 40
0.6689154864260259
 40
0.7279987346838473
 40
0.7704822564694342
 40
0.8132756786605967
 40
0.8569852155483473
 40
0.9009924730134499
 40
0.9502698003771145
 40
0.9999999999999999
 40
0.9999999999999999
 40
0.9999999999999999
 40
0.9999999999999999
 10
1469.526805030504
 20
1475.617965864785
 30
0.0
 10
1469.521792877929
 20
1475.730195994613
 30
0.0
 10
1469.511733018902
 20
1475.955452362556
 30
0.0
 10
1469.447464104447
 20
1476.286912363905
 30
0.0
 10
1469.347104094781
 20
1476.612149026166
 30
0.0
 10
1469.181402217816
 20
1476.983675576825
 30
0.0
 10
1468.971326864216
 20
1477.312023713449
 30
0.0
 10
1468.725499746174
 20
1477.596306569612
 30
0.0
 10
1468.510580053269
 20
1477.799954717297
 30
0.0
 10
1468.262548512049
 20
1477.990272031437
 30
0.0
 10
1467.998180241982
 20
1478.150087587368
 30
0.0
 10
1467.721978486973
 20
1478.279232243197
 30
0.0
 10
1467.462246875649
 20
1478.370662787183
 30
0.0
 10
1467.201954500025
 20
1478.435426703703
 30
0.0
 10
1466.954861149767
 20
1478.474638111868
 30
0.0
 10
1466.705794543159
 20
1478.492273600061
 30
0.0
 10
1466.428438482977
 20
1478.488399086699
 30
0.0
 10
1466.127666036843
 20
1478.453592462101
 30
0.0
 10
1465.749898729231
 20
1478.366040880736
 30
0.0
 10
1465.3459622129
 20
1478.208751043278
 30
0.0
 10
1464.978100677043
 20
1477.990102129585
 30
0.0
 10
1464.68424921991
 20
1477.755986077001
 30
0.0
 10
1464.450760424503
 20
1477.522127342826
 30
0.0
 10
1464.24419184157
 20
1477.262274021017
 30
0.0
 10
1464.060930678514
 20
1476.96630860296
 30
0.0
 10
1463.904359785634
 20
1476.635377949598
 30
0.0
 10
1463.834700307071
 20
1476.387673232093
 30
0.0
 10
1463.7997112524
 20
1476.263254357852
 30
0.0
  0
SPLINE
  5
1CB
330
1F
100
AcDbEntity
  8
0
  6
Continuous
 62
     7
370
    25
100
AcDbSpline
210
0.0
220
0.0
230
1.0
 70
     8
 71
     3
 72
    14
 73
    10
 74
     0
 42
0.000000001
 43
0.00000001
 40
0.0
 40
0.0
 40
0.0
 40
0.0
 40
0.2198296104787035
 40
0.3499177958293635
 40
0.458898316134571
 40
0.5683999765788824
 40
0.6667094681233494
 40
0.7967198733581632
 40
1.0
 40
1.0
 40
1.0
 40
1.0
 10
1470.238801975984
 20
1475.170588532572
 30
0.0
 10
1470.180152626401
 20
1475.149563252845
 30
0.0
 10
1470.086796453463
 20
1475.116095879989
 30
0.0
 10
1469.930994163064
 20
1475.127276083262
 30
0.0
 10
1469.807803822055
 20
1475.167966791123
 30
0.0
 10
1469.703150835923
 20
1475.235853776607
 30
0.0
 10
1469.616068973464
 20
1475.329331606588
 30
0.0
 10
1469.542504447199
 20
1475.462074040998
 30
0.0
 10
1469.532752764253
 20
1475.558906150694
 30
0.0
 10
1469.526805030504
 20
1475.617965864785
 30
0.0
  0
SPLINE
  5
1CC
330
1F
100
AcDbEntity
  8
0
  6
Continuous
 62
     7
370
    25
100
AcDbSpline
210
0.0
220
0.0
230
1.0
 70
     8
 71
     3
 72
    33
 73
    29
 74
     0
 42
0.000000001
 43
0.00000001
 40
0.0
 40
0.0
 40
0.0
 40
0.0
 40
0.0453846795158937
 40
0.0910956457676783
 40
0.137786111247433
 40
0.1847984484385248
 40
0.258856324458287
 40
0.2965960583089286
 40
0.3345934417298311
 40
0.3627068189222324
 40
0.3910552764359713
 40
0.4192115960366986
 40
0.4481447873352579
 40
0.4657876556062909
 40
0.4839178616272595
 40
0.5015746029079463
 40
0.5197390882526008
 40
0.5448263126108238
 40
0.5705932132964171
 40
0.6177342306538907
 40
0.6659981837889712
 40
0.7087532480230023
 40
0.7518249524472294
 40
0.7957808044145218
 40
0.8400079168875092
 40
0.9191109597848032
 40
0.9594357012421652
 40
1.0
 40
1.0
 40
1.0
 40
1.0
 10
1473.305079681765
 20
1470.290635519119
 30
0.0
 10
1473.394082811352
 20
1470.368657149474
 30
0.0
 10
1473.57272894594
 20
1470.525261335661
 30
0.0
 10
1473.799431619613
 20
1470.796331113582
 30
0.0
 10
1473.994909077412
 20
1471.0919512929
 30
0.0
 10
1474.183747579145
 20
1471.473780449209
 30
0.0
 10
1474.305432172011
 20
1471.863818461788
 30
0.0
 10
1474.365057764616
 20
1472.255832357831
 30
0.0
 10
1474.378223099975
 20
1472.540545374619
 30
0.0
 10
1474.364659823025
 20
1472.811538097098
 30
0.0
 10
1474.330044025322
 20
1473.065349252895
 30
0.0
 10
1474.268100906456
 20
1473.334540078763
 30
0.0
 10
1474.184526844615
 20
1473.582511630209
 30
0.0
 10
1474.088582943236
 20
1473.801122183605
 30
0.0
 10
1473.994728544414
 20
1473.980079831704
 30
0.0
 10
1473.887721865058
 20
1474.153259673109
 30
0.0
 10
1473.757269348517
 20
1474.334910209335
 30
0.0
 10
1473.601434227307
 20
1474.518438287441
 30
0.0
 10
1473.374480522882
 20
1474.742179466778
 30
0.0
 10
1473.087978375537
 20
1474.963577572218
 30
0.0
 10
1472.755893812542
 20
1475.152983851671
 30
0.0
 10
1472.427907272239
 20
1475.288894999456
 30
0.0
 10
1472.105625719673
 20
1475.380740592353
 30
0.0
 10
1471.775572892283
 20
1475.434929892162
 30
0.0
 10
1471.351574141862
 20
1475.455287837054
 30
0.0
 10
1470.935170072828
 20
1475.406867760579
 30
0.0
 10
1470.534454638735
 20
1475.297485515156
 30
0.0
 10
1470.337547247557
 20
1475.212970958255
 30
0.0
 10
1470.238801975984
 20
1475.170588532572
 30
0.0
  0
SPLINE
  5
1CD
330
1F
100
AcDbEntity
  8
0
  6
Continuous
 62
     7
370
    25
100
AcDbSpline
210
0.0
220
0.0
230
1.0
 70
     8
 71
     3
 72
    15
 73
    11
 74
     0
 42
0.000000001
 43
0.00000001
 40
0.0
 40
0.0
 40
0.0
 40
0.0
 40
0.2148110296556798
 40
0.3411322673416696
 40
0.4464287003092029
 40
0.5523542512426514
 40
0.6447889097413975
 40
0.766055229389017
 40
0.9403894463275115
 40
0.9999999999999999
 40
0.9999999999999999
 40
0.9999999999999999
 40
0.9999999999999999
 10
1473.399228833353
 20
1469.455038687507
 30
0.0
 10
1473.348232762221
 20
1469.486212334092
 30
0.0
 10
1473.267248068842
 20
1469.535717877442
 30
0.0
 10
1473.179304458894
 20
1469.658472052889
 30
0.0
 10
1473.132175771246
 20
1469.775963936234
 30
0.0
 10
1473.116416270042
 20
1469.89706095895
 30
0.0
 10
1473.130042506109
 20
1470.02056442614
 30
0.0
 10
1473.177804035378
 20
1470.149808823862
 30
0.0
 10
1473.24394865983
 20
1470.237672756989
 30
0.0
 10
1473.292666164575
 20
1470.279880682421
 30
0.0
 10
1473.305079681765
 20
1470.290635519119
 30
0.0
  0
SPLINE
  5
1CE
330
1F
100
AcDbEntity
  8
0
  6
Continuous
 62
     7
370
    25
100
AcDbSpline
210
0.0
220
0.0
230
1.0
 70
     8
 71
     3
 72
    33
 73
    29
 74
     0
 42
0.000000001
 43
0.00000001
 40
0.0
 40
0.0
 40
0.0
 40
0.0
 40
0.0454432397232679
 40
0.0912170391424262
 40
0.1379500215180079
 40
0.1849840146144326
 40
0.2316516508707399
 40
0.2786054666831222
 40
0.3265572669076984
 40
0.3749371050178178
 40
0.3989747636382807
 40
0.4231769206048094
 40
0.4431234955496228
 40
0.4634796340440409
 40
0.4878744888887488
 40
0.5123837511182355
 40
0.5281127512287251
 40
0.5442716110769606
 40
0.5755418912508641
 40
0.6074940067964316
 40
0.6452969753465775
 40
0.683369466581289
 40
0.7609503045067277
 40
0.8037406836446935
 40
0.8467500403233578
 40
0.8904656812725381
 40
0.9344381236378339
 40
1.0
 40
1.0
 40
1.0
 40
1.0
 10
1471.495720813697
 20
1464.015125305696
 30
0.0
 10
1471.616531447423
 20
1463.993591395912
 30
0.0
 10
1471.859031506231
 20
1463.950366936045
 30
0.0
 10
1472.222013604958
 20
1463.944408708902
 30
0.0
 10
1472.581378147386
 20
1463.979795162908
 30
0.0
 10
1472.931892566535
 20
1464.060015666067
 30
0.0
 10
1473.269156344624
 20
1464.182138868926
 30
0.0
 10
1473.592763472966
 20
1464.346752933978
 30
0.0
 10
1473.902659531811
 20
1464.557199774611
 30
0.0
 10
1474.147777236305
 20
1464.775435368609
 30
0.0
 10
1474.335795751196
 20
1464.982868736412
 30
0.0
 10
1474.464780119922
 20
1465.148197493263
 30
0.0
 10
1474.583601213714
 20
1465.325862184918
 30
0.0
 10
1474.699023861513
 20
1465.528196986952
 30
0.0
 10
1474.814650797088
 20
1465.779541236988
 30
0.0
 10
1474.89948650425
 20
1466.031569670809
 30
0.0
 10
1474.950834762754
 20
1466.239211471517
 30
0.0
 10
1474.99141974068
 20
1466.45921689298
 30
0.0
 10
1475.016069949896
 20
1466.713382522272
 30
0.0
 10
1475.015447754544
 20
1467.010162246335
 30
0.0
 10
1474.984472305508
 20
1467.306102885298
 30
0.0
 10
1474.9000083424
 20
1467.703626176467
 30
0.0
 10
1474.754261212394
 20
1468.084353231068
 30
0.0
 10
1474.546321089549
 20
1468.445291322009
 30
0.0
 10
1474.349644235702
 20
1468.712310373809
 30
0.0
 10
1474.118653992372
 20
1468.958923625542
 30
0.0
 10
1473.813817640062
 20
1469.221867068667
 30
0.0
 10
1473.55446475994
 20
1469.367731428558
 30
0.0
 10
1473.399228833353
 20
1469.455038687507
 30
0.0
  0
SPLINE
  5
1CF
330
1F
100
AcDbEntity
  8
0
  6
Continuous
 62
     7
370
    25
100
AcDbSpline
210
0.0
220
0.0
230
1.0
 70
     8
 71
     3
 72
    15
 73
    11
 74
     0
 42
0.000000001
 43
0.00000001
 40
0.0
 40
0.0
 40
0.0
 40
0.0
 40
0.2126307822087087
 40
0.3330806359274048
 40
0.4343189429317155
 40
0.5361409898010298
 40
0.6255006565988638
 40
0.7454503639221808
 40
0.9209037802014463
 40
1.0
 40
1.0
 40
1.0
 40
1.0
 10
1470.901125939962
 20
1463.420530431961
 30
0.0
 10
1470.893657906879
 20
1463.479482533326
 30
0.0
 10
1470.881959425678
 20
1463.57182947956
 30
0.0
 10
1470.921695907314
 20
1463.715228276837
 30
0.0
 10
1470.981097216055
 20
1463.822954113333
 30
0.0
 10
1471.062075983567
 20
1463.909959591573
 30
0.0
 10
1471.163290140964
 20
1463.977530078837
 30
0.0
 10
1471.291838423649
 20
1464.024165684746
 30
0.0
 10
1471.406929027051
 20
1464.030881850275
 30
0.0
 10
1471.474671265054
 20
1464.018860652895
 30
0.0
 10
1471.495720813697
 20
1464.015125305696
 30
0.0
  0
SPLINE
  5
1D0
330
1F
100
AcDbEntity
  8
0
  6
Continuous
 62
     7
370
    25
100
AcDbSpline
210
0.0
220
0.0
230
1.0
 70
     8
 71
     3
 72
    32
 73
    28
 74
     0
 42
0.000000001
 43
0.00000001
 40
0.0
 40
0.0
 40
0.0
 40
0.0
 40
0.0447046064970605
 40
0.08973611788
 40
0.1357107811798287
 40
0.1819789736105599
 40
0.2279542359311837
 40
0.274201137817338
 40
0.3213535421419938
 40
0.3688631981537116
 40
0.4236350575688492
 40
0.4510041609017732
 40
0.4792023732510983
 40
0.5037395272588859
 40
0.5283784873449691
 40
0.5445575635538823
 40
0.5611739038848363
 40
0.60130842518602
 40
0.6425658183218377
 40
0.6854492331527455
 40
0.7286418616755097
 40
0.7726536612270505
 40
0.816907032544895
 40
0.8619574650676635
 40
0.9072721890396737
 40
0.9534689418825868
 40
1.0
 40
1.0
 40
1.0
 40
1.0
 10
1465.461212558152
 20
1461.517022412305
 30
0.0
 10
1465.519195572521
 20
1461.410003484408
 30
0.0
 10
1465.635585605228
 20
1461.195183046839
 30
0.0
 10
1465.854646751649
 20
1460.910098257816
 30
0.0
 10
1466.102857431545
 20
1460.653362606795
 30
0.0
 10
1466.379603167355
 20
1460.430976767057
 30
0.0
 10
1466.679674010887
 20
1460.244447341401
 30
0.0
 10
1467.002659829822
 20
1460.094394555213
 30
0.0
 10
1467.349809505323
 20
1459.982505386462
 30
0.0
 10
1467.741918298845
 20
1459.909471944195
 30
0.0
 10
1468.111400752789
 20
1459.893509605388
 30
0.0
 10
1468.461325333563
 20
1459.924544650296
 30
0.0
 10
1468.741739083813
 20
1459.976575168165
 30
0.0
 10
1469.039402179755
 20
1460.064888497971
 30
0.0
 10
1469.286840108427
 20
1460.168269174444
 30
0.0
 10
1469.478797191216
 20
1460.267863179415
 30
0.0
 10
1469.698290686931
 20
1460.399396752233
 30
0.0
 10
1469.944512373882
 20
1460.583598153161
 30
0.0
 10
1470.199142142879
 20
1460.827931054093
 30
0.0
 10
1470.416009712781
 20
1461.092107027893
 30
0.0
 10
1470.598802177049
 20
1461.376728885004
 30
0.0
 10
1470.746860647545
 20
1461.679069802784
 30
0.0
 10
1470.859977014285
 20
1461.999616492774
 30
0.0
 10
1470.936057464218
 20
1462.335794959673
 30
0.0
 10
1470.971407934162
 20
1462.687276385359
 30
0.0
 10
1470.966790936742
 20
1463.05032451805
 30
0.0
 10
1470.92306681742
 20
1463.296832221501
 30
0.0
 10
1470.901125939962
 20
1463.42053043196
 30
0.0
  0
SPLINE
  5
1D1
330
1F
100
AcDbEntity
  8
0
  6
Continuous
 62
     7
370
    25
100
AcDbSpline
210
0.0
220
0.0
230
1.0
 70
     8
 71
     3
 72
    15
 73
    11
 74
     0
 42
0.000000001
 43
0.00000001
 40
0.0
 40
0.0
 40
0.0
 40
0.0
 40
0.2153296810341943
 40
0.3327055588564858
 40
0.4327106172888449
 40
0.5331289091056081
 40
0.6249491950544496
 40
0.7533679527278376
 40
0.9418458044828073
 40
1.0
 40
1.0
 40
1.0
 40
1.0
 10
1464.62561572654
 20
1461.611171563894
 30
0.0
 10
1464.668818286922
 20
1461.655301949065
 30
0.0
 10
1464.735570496495
 20
1461.723487739293
 30
0.0
 10
1464.876052008009
 20
1461.780897141884
 30
0.0
 10
1464.996551768973
 20
1461.799667889675
 30
0.0
 10
1465.11351052003
 20
1461.789407959721
 30
0.0
 10
1465.230207907871
 20
1461.751150875373
 30
0.0
 10
1465.350021767051
 20
1461.675318797773
 30
0.0
 10
1465.422826438603
 20
1461.589275697912
 30
0.0
 10
1465.453888363067
 20
1461.530808571613
 30
0.0
 10
1465.461212558152
 20
1461.517022412305
 30
0.0
  0
ARC
  5
1D2
330
1F
100
AcDbEntity
  8
0
  6
Continuous
 62
     7
370
    25
100
AcDbCircle
 10
1465.8847846314
 20
1469.0314666142
 30
0.0
 40
9.500000000000112
100
AcDbArc
 50
34.2475900055
 51
45.0
  0
ARC
  5
1D3
330
1F
100
AcDbEntity
  8
0
  6
Continuous
 62
     7
370
    25
100
AcDbCircle
 10
1465.8847846314
 20
1469.0314666142
 30
0.0
 40
9.49999999999991
100
AcDbArc
 50
7.1363536381
 51
29.4062000768
  0
ARC
  5
1D4
330
1F
100
AcDbEntity
  8
0
  6
Continuous
 62
     7
370
    25
100
AcDbCircle
 10
1465.8847846314
 20
1469.0314666142
 30
0.0
 40
9.500000000000341
100
AcDbArc
 50
238.7491117937
 51
262.8636463615
  0
ARC
  5
1D5
330
1F
100
AcDbEntity
  8
0
  6
Continuous
 62
     7
370
    25
100
AcDbCircle
 10
1465.8847846314
 20
1469.0314666142
 30
0.0
 40
9.500000000000316
100
AcDbArc
 50
189.2989758461
 51
235.0197758347
  0
ARC
  5
1D6
330
1F
100
AcDbEntity
  8
0
  6
Continuous
 62
     7
370
    25
100
AcDbCircle
 10
1465.8847846314
 20
1469.0314666142
 30
0.0
 40
9.499999999999977
100
AcDbArc
 50
136.6664157559
 51
184.8361791362
  0
ARC
  5
1D7
330
1F
100
AcDbEntity
  8
0
  6
Continuous
 62
     7
370
    25
100
AcDbCircle
 10
1465.8847846314
 20
1469.0314666142
 30
0.0
 40
9.499999999999838
100
AcDbArc
 50
86.5738956727
 51
132.1490440602
  0
ARC
  5
1D8
330
1F
100
AcDbEntity
  8
0
  6
Continuous
 62
     7
370
    25
100
AcDbCircle
 10
1465.8847846314
 20
1469.0314666142
 30
0.0
 40
9.499999999999996
100
AcDbArc
 50
45.0
 51
82.7621832837
  0
ARC
  5
1D9
330
1F
100
AcDbEntity
  8
0
  6
Continuous
 62
     7
370
    25
100
AcDbCircle
 10
1465.8847846314
 20
826.4803313314
 30
0.0
 40
9.500000000000002
100
AcDbArc
 50
124.2475900055
 51
135.0
  0
ARC
  5
1DA
330
1F
100
AcDbEntity
  8
0
  6
Continuous
 62
     7
370
    25
100
AcDbCircle
 10
1465.8847846314
 20
826.4803313314
 30
0.0
 40
9.5
100
AcDbArc
 50
97.1363536381
 51
119.4062000769
  0
ARC
  5
1DB
330
1F
100
AcDbEntity
  8
0
  6
Continuous
 62
     7
370
    25
100
AcDbCircle
 10
1465.8847846314
 20
826.4803313314
 30
0.0
 40
9.500000000000218
100
AcDbArc
 50
328.7491117937
 51
352.8636463615
  0
ARC
  5
1DC
330
1F
100
AcDbEntity
  8
0
  6
Continuous
 62
     7
370
    25
100
AcDbCircle
 10
1465.8847846314
 20
826.4803313314
 30
0.0
 40
9.50000000000025
100
AcDbArc
 50
279.2989758461
 51
325.0197758347
  0
ARC
  5
1DD
330
1F
100
AcDbEntity
  8
0
  6
Continuous
 62
     7
370
    25
100
AcDbCircle
 10
1465.8847846314
 20
826.4803313314
 30
0.0
 40
9.500000000000226
100
AcDbArc
 50
226.6664157559
 51
274.8361791362
  0
ARC
  5
1DE
330
1F
100
AcDbEntity
  8
0
  6
Continuous
 62
     7
370
    25
100
AcDbCircle
 10
1465.8847846314
 20
826.4803313314
 30
0.0
 40
9.500000000000092
100
AcDbArc
 50
176.5738956727
 51
222.1490440602
  0
ARC
  5
1DF
330
1F
100
AcDbEntity
  8
0
  6
Continuous
 62
     7
370
    25
100
AcDbCircle
 10
1465.8847846314
 20
826.4803313314
 30
0.0
 40
9.499999999999996
100
AcDbArc
 50
135.0
 51
172.7621832837
  0
ARC
  5
1E0
330
1F
100
AcDbEntity
  8
0
  6
Continuous
 62
     7
370
    25
100
AcDbCircle
 10
2108.4359199142
 20
1469.0314666142
 30
0.0
 40
9.4999999999998
100
AcDbArc
 50
304.2475900055
 51
315.0
  0
ARC
  5
1E1
330
1F
100
AcDbEntity
  8
0
  6
Continuous
 62
     7
370
    25
100
AcDbCircle
 10
2108.4359199142
 20
1469.0314666142
 30
0.0
 40
9.499999999999977
100
AcDbArc
 50
277.1363536381
 51
299.4062000768
  0
ARC
  5
1E2
330
1F
100
AcDbEntity
  8
0
  6
Continuous
 62
     7
370
    25
100
AcDbCircle
 10
2108.4359199142
 20
1469.0314666142
 30
0.0
 40
9.50000000000043
100
AcDbArc
 50
148.7491117936
 51
172.8636463615
  0
ARC
  5
1E3
330
1F
100
AcDbEntity
  8
0
  6
Continuous
 62
     7
370
    25
100
AcDbCircle
 10
2108.4359199142
 20
1469.0314666142
 30
0.0
 40
9.50000000000045
100
AcDbArc
 50
99.298975846
 51
145.0197758348
  0
ARC
  5
1E4
330
1F
100
AcDbEntity
  8
0
  6
Continuous
 62
     7
370
    25
100
AcDbCircle
 10
2108.4359199142
 20
1469.0314666142
 30
0.0
 40
9.500000000000208
100
AcDbArc
 50
46.6664157559
 51
94.8361791363
  0
ARC
  5
1E5
330
1F
100
AcDbEntity
  8
0
  6
Continuous
 62
     7
370
    25
100
AcDbCircle
 10
2108.4359199142
 20
1469.0314666142
 30
0.0
 40
9.49999999999991
100
AcDbArc
 50
356.5738956727
 51
42.1490440602
  0
ARC
  5
1E6
330
1F
100
AcDbEntity
  8
0
  6
Continuous
 62
     7
370
    25
100
AcDbCircle
 10
2108.4359199142
 20
1469.0314666142
 30
0.0
 40
9.499999999999675
100
AcDbArc
 50
315.0
 51
352.7621832836
  0
ARC
  5
1E7
330
1F
100
AcDbEntity
  8
0
  6
Continuous
 62
     7
370
    25
100
AcDbCircle
 10
2108.4359199142
 20
826.4803313314
 30
0.0
 40
9.499999999999755
100
AcDbArc
 50
214.2475900055
 51
225.0
  0
ARC
  5
1E8
330
1F
100
AcDbEntity
  8
0
  6
Continuous
 62
     7
370
    25
100
AcDbCircle
 10
2108.4359199142
 20
826.4803313314
 30
0.0
 40
9.499999999999945
100
AcDbArc
 50
187.1363536381
 51
209.4062000768
  0
ARC
  5
1E9
330
1F
100
AcDbEntity
  8
0
  6
Continuous
 62
     7
370
    25
100
AcDbCircle
 10
2108.4359199142
 20
826.4803313314
 30
0.0
 40
9.500000000000068
100
AcDbArc
 50
58.7491117936
 51
82.8636463615
  0
ARC
  5
1EA
330
1F
100
AcDbEntity
  8
0
  6
Continuous
 62
     7
370
    25
100
AcDbCircle
 10
2108.4359199142
 20
826.4803313314
 30
0.0
 40
9.500000000000519
100
AcDbArc
 50
9.2989758461
 51
55.0197758348
  0
ARC
  5
1EB
330
1F
100
AcDbEntity
  8
0
  6
Continuous
 62
     7
370
    25
100
AcDbCircle
 10
2108.4359199142
 20
826.4803313314
 30
0.0
 40
9.50000000000038
100
AcDbArc
 50
316.6664157559
 51
4.8361791362
  0
ARC
  5
1EC
330
1F
100
AcDbEntity
  8
0
  6
Continuous
 62
     7
370
    25
100
AcDbCircle
 10
2108.4359199142
 20
826.4803313314
 30
0.0
 40
9.500000000000357
100
AcDbArc
 50
266.5738956728
 51
312.1490440602
  0
ARC
  5
1ED
330
1F
100
AcDbEntity
  8
0
  6
Continuous
 62
     7
370
    25
100
AcDbCircle
 10
2108.4359199142
 20
826.4803313314
 30
0.0
 40
9.49999999999996
100
AcDbArc
 50
225.0
 51
262.7621832836
  0
CIRCLE
  5
1EE
330
1F
100
AcDbEntity
  8
0
  6
Continuous
 62
     7
370
    25
100
AcDbCircle
 10
1787.1603522728
 20
1147.7558989728
 30
0.0
 40
445.0
  0
LINE
  5
1EF
330
1F
100
AcDbEntity
  8
0
  6
Continuous
 62
     8
370
    18
100
AcDbLine
 10
1475.0021085657
 20
828.5265874538
 30
0.0
 11
1476.0532317277
 21
829.5777106158
 31
0.0
  0
LINE
  5
1F0
330
1F
100
AcDbEntity
  8
0
  6
Continuous
 62
     8
370
    18
100
AcDbLine
 10
2105.3385406298
 20
1458.8630195179
 30
0.0
 11
2106.3783555037
 21
1459.9028343918
 31
0.0
  0
LINE
  5
1F1
330
1F
100
AcDbEntity
  8
0
  6
Continuous
 62
     8
370
    18
100
AcDbLine
 10
1467.9402811453
 20
835.6068956572
 30
0.0
 11
1468.9821639158
 21
836.6487784277
 31
0.0
  0
LINE
  5
1F2
330
1F
100
AcDbEntity
  8
0
  6
Continuous
 62
     8
370
    18
100
AcDbLine
 10
2098.2674728179
 20
1465.9340873298
 30
0.0
 11
2099.3074101271
 21
1466.9740246389
 31
0.0
  0
LINE
  5
1F3
330
1F
100
AcDbEntity
  8
0
  6
Continuous
 62
     8
370
    18
100
AcDbLine
 10
2108.3685456499
 20
1460.8130761235
 30
0.0
 11
2109.3529006475
 21
1461.7974311212
 31
0.0
  0
LINE
  5
1F4
330
1F
100
AcDbEntity
  8
0
  6
Continuous
 62
     8
370
    18
100
AcDbLine
 10
2101.2017208057
 20
1469.9481913866
 30
0.0
 11
2100.1541475209
 21
1468.9006181018
 31
0.0
  0
LINE
  5
1F5
330
1F
100
AcDbEntity
  8
0
  6
Continuous
 62
     8
370
    18
100
AcDbLine
 10
1464.968059859
 20
1461.7972675057
 30
0.0
 11
1466.0156331439
 21
1460.7496942208
 31
0.0
  0
LINE
  5
1F6
330
1F
100
AcDbEntity
  8
0
  6
Continuous
 62
     8
370
    18
100
AcDbLine
 10
2099.3093555884
 20
828.5358278453
 30
0.0
 11
2098.2674728179
 21
829.5777106158
 31
0.0
  0
LINE
  5
1F7
330
1F
100
AcDbEntity
  8
0
  6
Continuous
 62
     8
370
    18
100
AcDbLine
 10
1468.9821639158
 20
1458.8630195179
 30
0.0
 11
1467.9422266067
 21
1459.9029568271
 31
0.0
  0
LINE
  5
1F8
330
1F
100
AcDbEntity
  8
0
  6
Continuous
 62
     8
370
    18
100
AcDbLine
 10
2106.3896637918
 20
835.5976552657
 30
0.0
 11
2105.3385406298
 21
836.6487784277
 31
0.0
  0
LINE
  5
1F9
330
1F
100
AcDbEntity
  8
0
  6
Continuous
 62
     8
370
    18
100
AcDbLine
 10
1476.0532317277
 20
1465.9340873298
 30
0.0
 11
1475.0134168538
 21
1466.9739022037
 31
0.0
  0
LINE
  5
1FA
330
1F
100
AcDbEntity
  8
0
  6
Continuous
 62
     8
370
    18
100
AcDbLine
 10
1474.1031751221
 20
1468.9640923499
 30
0.0
 11
1473.1188201245
 21
1469.9484473475
 31
0.0
  0
LINE
  5
1FB
330
1F
100
AcDbEntity
  8
0
  6
Continuous
 62
     7
370
    25
100
AcDbLine
 10
294.4252577383
 20
438.3461578951
 30
0.0
 11
306.8850755505
 21
440.3301836335
 31
0.0
  0
LINE
  5
1FC
330
1F
100
AcDbEntity
  8
0
  6
Continuous
 62
     7
370
    25
100
AcDbLine
 10
562.6384344639
 20
377.8205097683
 30
0.0
 11
570.7238149306
 21
364.3512563744
 31
0.0
  0
ARC
  5
1FD
330
1F
100
AcDbEntity
  8
0
  6
Continuous
 62
     7
370
    25
100
AcDbCircle
 10
725.5582827627
 20
525.682526798
 30
0.0
 40
5.000000000000094
100
AcDbArc
 50
27.9077896408
 51
99.0474747534
  0
ARC
  5
1FE
330
1F
100
AcDbEntity
  8
0
  6
Continuous
 62
     7
370
    25
100
AcDbCircle
 10
725.5582827627
 20
525.682526798
 30
0.0
 40
5.000000000000051
100
AcDbArc
 50
132.6763870115
 51
161.3733929476
  0
ARC
  5
1FF
330
1F
100
AcDbEntity
  8
0
  6
Continuous
 62
     7
370
    25
100
AcDbCircle
 10
725.5582827627
 20
525.682526798
 30
0.0
 40
5.000000000000094
100
AcDbArc
 50
99.0474747534
 51
129.4722464239
  0
LINE
  5
200
330
1F
100
AcDbEntity
  8
0
  6
Continuous
 62
     7
370
    25
100
AcDbLine
 10
721.5341566568
 20
526.1164877003
 30
0.0
 11
721.5341566568
 21
526.0740855763
 31
0.0
  0
LINE
  5
201
330
1F
100
AcDbEntity
  8
0
  6
Continuous
 62
     7
370
    25
100
AcDbLine
 10
721.5341566568
 20
456.1210537014
 30
0.0
 11
721.5341566568
 21
404.4980507311
 31
0.0
  0
LINE
  5
202
330
1F
100
AcDbEntity
  8
0
  6
Continuous
 62
     7
370
    25
100
AcDbLine
 10
729.5803655842
 20
404.6982642472
 30
0.0
 11
729.5803655842
 21
476.6706749678
 31
0.0
  0
LINE
  5
203
330
1F
100
AcDbEntity
  8
0
  6
Continuous
 62
     7
370
    25
100
AcDbLine
 10
729.5803655842
 20
505.52446431
 30
0.0
 11
729.5803655842
 21
526.6573333079
 31
0.0
  0
LINE
  5
204
330
1F
100
AcDbEntity
  8
0
  6
Continuous
 62
     7
370
    25
100
AcDbLine
 10
720.6887780633
 20
454.6988117825
 30
0.0
 11
720.6887780633
 21
405.9063479086
 31
0.0
  0
LINE
  5
205
330
1F
100
AcDbEntity
  8
0
  6
Continuous
 62
     7
370
    25
100
AcDbLine
 10
730.0050981653
 20
406.1560100795
 30
0.0
 11
730.0050981653
 21
478.9047471879
 31
0.0
  0
LINE
  5
206
330
1F
100
AcDbEntity
  8
0
  6
Continuous
 62
     7
370
    25
100
AcDbLine
 10
730.0050981653
 20
503.2903920898
 30
0.0
 11
730.0050981653
 21
527.9530283705
 31
0.0
  0
ARC
  5
207
330
1F
100
AcDbEntity
  8
0
  6
Continuous
 62
     7
370
    25
100
AcDbCircle
 10
291.166473298
 20
456.5126124761
 30
0.0
 40
4.999999999999966
100
AcDbArc
 50
39.3803836076
 51
142.7568047033
  0
LINE
  5
208
330
1F
100
AcDbEntity
  8
0
  6
Continuous
 62
     7
370
    25
100
AcDbLine
 10
288.6677100651
 20
457.6141984494
 30
0.0
 11
288.6677100651
 21
334.952367003
 31
0.0
  0
LINE
  5
209
330
1F
100
AcDbEntity
  8
0
  6
Continuous
 62
     7
370
    25
100
AcDbLine
 10
294.4252577383
 20
335.0634771219
 30
0.0
 11
294.4252577383
 21
438.5638389331
 31
0.0
  0
LINE
  5
20A
330
1F
100
AcDbEntity
  8
0
  6
Continuous
 62
     7
370
    25
100
AcDbLine
 10
294.4252577383
 20
452.2836952453
 30
0.0
 11
294.4252577383
 21
457.2523615255
 31
0.0
  0
LINE
  5
20B
330
1F
100
AcDbEntity
  8
0
  6
Continuous
 62
     7
370
    25
100
AcDbLine
 10
286.7196578954
 20
457.829303289
 30
0.0
 11
286.7196578954
 21
336.032284998
 31
0.0
  0
LINE
  5
20C
330
1F
100
AcDbEntity
  8
0
  6
Continuous
 62
     7
370
    25
100
AcDbLine
 10
296.0359779973
 20
336.2819471689
 30
0.0
 11
296.0359779973
 21
438.6026392096
 31
0.0
  0
LINE
  5
20D
330
1F
100
AcDbEntity
  8
0
  6
Continuous
 62
     7
370
    25
100
AcDbLine
 10
296.0359779973
 20
454.1424510173
 30
0.0
 11
296.0359779973
 21
457.1833245723
 31
0.0
  0
LINE
  5
20E
330
1F
100
AcDbEntity
  8
0
  6
Continuous
 62
     7
370
    25
100
AcDbLine
 10
287.1443904765
 20
459.449099891
 30
0.0
 11
287.1443904765
 21
459.1065449864
 31
0.0
  0
ARC
  5
20F
330
1F
100
AcDbEntity
  8
0
  6
Continuous
 62
     7
370
    25
100
AcDbCircle
 10
575.5126701072
 20
379.2334089853
 30
0.0
 40
4.999999999999964
100
AcDbArc
 50
32.8833926874
 51
99.0474747534
  0
ARC
  5
210
330
1F
100
AcDbEntity
  8
0
  6
Continuous
 62
     7
370
    25
100
AcDbCircle
 10
575.5126701072
 20
379.2334089853
 30
0.0
 40
4.999999999999964
100
AcDbArc
 50
99.0474747534
 51
134.9334928853
  0
LINE
  5
211
330
1F
100
AcDbEntity
  8
0
  6
Continuous
 62
     7
370
    25
100
AcDbLine
 10
577.8904483976
 20
257.687448616
 30
0.0
 11
577.8904483976
 21
380.4516283853
 31
0.0
  0
LINE
  5
212
330
1F
100
AcDbEntity
  8
0
  6
Continuous
 62
     7
370
    25
100
AcDbLine
 10
572.1564494507
 20
380.1985914008
 30
0.0
 11
572.1564494507
 21
257.9062020669
 31
0.0
  0
LINE
  5
213
330
1F
100
AcDbEntity
  8
0
  6
Continuous
 62
     7
370
    25
100
AcDbLine
 10
579.9872215248
 20
258.6907696554
 30
0.0
 11
579.9872215248
 21
380.3851532902
 31
0.0
  0
LINE
  5
214
330
1F
100
AcDbEntity
  8
0
  6
Continuous
 62
     7
370
    25
100
AcDbLine
 10
570.7238149306
 20
380.4172691904
 30
0.0
 11
570.7238149306
 21
259.1823041978
 31
0.0
  0
LINE
  5
215
330
1F
100
AcDbEntity
  8
0
  6
Continuous
 62
     7
370
    25
100
AcDbLine
 10
579.7714896706
 20
381.3135213906
 30
0.0
 11
579.7714896706
 21
381.7916715739
 31
0.0
  0
ARC
  5
216
330
1F
100
AcDbEntity
  8
0
  6
Continuous
 62
     7
370
    25
100
AcDbCircle
 10
441.2120859534
 20
602.9617302887
 30
0.0
 40
5.000000000000134
100
AcDbArc
 50
49.8528960265
 51
153.3689640829
  0
LINE
  5
217
330
1F
100
AcDbEntity
  8
0
  6
Continuous
 62
     7
370
    25
100
AcDbLine
 10
439.3190527394
 20
603.8754247603
 30
0.0
 11
439.3190527394
 21
602.1795869051
 31
0.0
  0
LINE
  5
218
330
1F
100
AcDbEntity
  8
0
  6
Continuous
 62
     7
370
    25
100
AcDbLine
 10
444.9570419788
 20
603.0849770175
 30
0.0
 11
444.9570419788
 21
603.4264049325
 31
0.0
  0
LINE
  5
219
330
1F
100
AcDbEntity
  8
0
  6
Continuous
 62
     7
370
    25
100
AcDbLine
 10
436.9532663901
 20
603.6586786947
 30
0.0
 11
436.9532663901
 21
601.7742852904
 31
0.0
  0
LINE
  5
21A
330
1F
100
AcDbEntity
  8
0
  6
Continuous
 62
     7
370
    25
100
AcDbLine
 10
446.0009411301
 20
603.2433867366
 30
0.0
 11
446.0009411301
 21
604.2409558722
 31
0.0
  0
LINE
  5
21B
330
1F
100
AcDbEntity
  8
0
  6
Continuous
 62
     7
370
    25
100
AcDbLine
 10
436.7375345359
 20
605.1919090569
 30
0.0
 11
436.7375345359
 21
601.7365704247
 31
0.0
  0
LINE
  5
21C
330
1F
100
AcDbEntity
  8
0
  6
Continuous
 62
     7
370
    25
100
AcDbLine
 10
296.0724979961
 20
335.2482838524
 30
0.0
 11
296.0724979961
 21
336.5340348034
 31
0.0
  0
LINE
  5
21D
330
1F
100
AcDbEntity
  8
0
  6
Continuous
 62
     7
370
    25
100
AcDbLine
 10
286.5724979961
 20
336.5340348034
 30
0.0
 11
286.5724979961
 21
335.2482838524
 31
0.0
  0
SPLINE
  5
21E
330
1F
100
AcDbEntity
  8
0
  6
Continuous
 62
     7
370
    25
100
AcDbSpline
210
0.0
220
0.0
230
1.0
 70
     8
 71
     3
 72
    28
 73
    24
 74
     0
 42
0.000000001
 43
0.00000001
 40
0.0
 40
0.0
 40
0.0
 40
0.0
 40
0.0216436109045927
 40
0.0675380433125336
 40
0.1129306020377114
 40
0.1580306387178044
 40
0.2030643347533078
 40
0.2482831743821017
 40
0.2939732503363868
 40
0.3404600314140527
 40
0.3881008077668429
 40
0.4372500465283391
 40
0.4881769495991972
 40
0.540927628702975
 40
0.5951919531099626
 40
0.6503262542959074
 40
0.7054578044311259
 40
0.7602526536392767
 40
0.8146775593255702
 40
0.8688950959281044
 40
0.9231687786863185
 40
0.9777552670972464
 40
1.0
 40
1.0
 40
1.0
 40
1.0
 10
286.577605152233
 20
335.247464578386
 30
0.0
 10
286.5765166265996
 20
335.1921893923534
 30
0.0
 10
286.5731199248336
 20
335.0197053311292
 30
0.0
 10
286.610430204706
 20
334.7326573719641
 30
0.0
 10
286.6856456035297
 20
334.3929866207963
 30
0.0
 10
286.7988642379317
 20
334.066620908619
 30
0.0
 10
286.9451579691483
 20
333.7555446949295
 30
0.0
 10
287.123419676004
 20
333.4612092324506
 30
0.0
 10
287.3320403859185
 20
333.1845837438262
 30
0.0
 10
287.5702660675329
 20
332.9262508773792
 30
0.0
 10
287.837955569815
 20
332.686597779389
 30
0.0
 10
288.1355324899992
 20
332.466124198269
 30
0.0
 10
288.4634206209314
 20
332.265832958795
 30
0.0
 10
288.8210390565206
 20
332.0875186669016
 30
0.0
 10
289.2057012928502
 20
331.9336407053749
 30
0.0
 10
289.6118982334747
 20
331.8067716414878
 30
0.0
 10
290.0329743138347
 20
331.7084516088427
 30
0.0
 10
290.4628563187156
 20
331.6389938486352
 30
0.0
 10
290.8975806788251
 20
331.5979692538809
 30
0.0
 10
291.3345801631532
 20
331.5847835574768
 30
0.0
 10
291.7717905345646
 20
331.5996948556914
 30
0.0
 10
292.1205538370764
 20
331.6331376383191
 30
0.0
 10
292.3219213980778
 20
331.6634743927162
 30
0.0
 10
292.3802227960403
 20
331.67225771006
 30
0.0
  0
SPLINE
  5
21F
330
1F
100
AcDbEntity
  8
0
  6
Continuous
 62
     7
370
    25
100
AcDbSpline
210
0.0
220
0.0
230
1.0
 70
     8
 71
     3
 72
    23
 73
    19
 74
     0
 42
0.000000001
 43
0.00000001
 40
0.0
 40
0.0
 40
0.0
 40
0.0
 40
0.0429588674647076
 40
0.1192488135137656
 40
0.1971576135468607
 40
0.2768245946618091
 40
0.3489967756078546
 40
0.4192584474563231
 40
0.4872212975515569
 40
0.5529917089425495
 40
0.6169123860293775
 40
0.6793750571984613
 40
0.7407371047999218
 40
0.8012990763368456
 40
0.8678192177783957
 40
0.9329806429127988
 40
0.9968451267849353
 40
0.9999999999999999
 40
0.9999999999999999
 40
0.9999999999999999
 40
0.9999999999999999
 10
292.3802227960403
 20
331.67225771006
 30
0.0
 10
292.4625091594223
 20
331.6863492185791
 30
0.0
 10
292.6909265219078
 20
331.7254656052694
 30
0.0
 10
293.0599453843647
 20
331.8141139981842
 30
0.0
 10
293.4834093655194
 20
331.9487040350717
 30
0.0
 10
293.8818029351791
 20
332.1132786939305
 30
0.0
 10
294.2481037810355
 20
332.3031300661864
 30
0.0
 10
294.5760813497216
 20
332.5116096626332
 30
0.0
 10
294.8735223580929
 20
332.7416414762462
 30
0.0
 10
295.1393678489972
 20
332.9911834024578
 30
0.0
 10
295.3733708413864
 20
333.2586984583984
 30
0.0
 10
295.5752206185352
 20
333.5427690550496
 30
0.0
 10
295.7444404176309
 20
333.8417692765335
 30
0.0
 10
295.8846362588608
 20
334.1648033034143
 30
0.0
 10
295.9916057235549
 20
334.5095006969545
 30
0.0
 10
296.0536280205014
 20
334.8709127963753
 30
0.0
 10
296.0787346703665
 20
335.1194243846369
 30
0.0
 10
296.0718571950799
 20
335.245022896358
 30
0.0
 10
296.0715334443979
 20
335.2509353281942
 30
0.0
  0
LINE
  5
220
330
1F
100
AcDbEntity
  8
0
  6
Continuous
 62
     7
370
    25
100
AcDbLine
 10
730.1522580645
 20
404.368509323
 30
0.0
 11
730.1522580645
 21
405.654260274
 31
0.0
  0
LINE
  5
221
330
1F
100
AcDbEntity
  8
0
  6
Continuous
 62
     7
370
    25
100
AcDbLine
 10
720.6522580645
 20
405.654260274
 30
0.0
 11
720.6522580645
 21
404.368509323
 31
0.0
  0
SPLINE
  5
222
330
1F
100
AcDbEntity
  8
0
  6
Continuous
 62
     7
370
    25
100
AcDbSpline
210
0.0
220
0.0
230
1.0
 70
     8
 71
     3
 72
    42
 73
    38
 74
     0
 42
0.000000001
 43
0.00000001
 40
0.0
 40
0.0
 40
0.0
 40
0.0
 40
0.0252966326613461
 40
0.0515964473666821
 40
0.0776646182188339
 40
0.1036263894609705
 40
0.1296185245203677
 40
0.1557951551962032
 40
0.1823322324313432
 40
0.2094275847790719
 40
0.237290288052382
 40
0.26610873399143
 40
0.2959866110165509
 40
0.3268565248259065
 40
0.3584360249651403
 40
0.3902534262792024
 40
0.4219510635595528
 40
0.4534268363901114
 40
0.4847249723833029
 40
0.5159727740601409
 40
0.547337453408518
 40
0.5789469702499228
 40
0.6109959143053209
 40
0.6436652966133332
 40
0.6770729475797562
 40
0.711175347736656
 40
0.7413347395062465
 40
0.7705630011995158
 40
0.7988240410280573
 40
0.8262327519965713
 40
0.8529528000803652
 40
0.8791441490094751
 40
0.9049447324526952
 40
0.930468565322474
 40
0.9583220527288706
 40
0.9856442237131048
 40
0.9999999999999999
 40
0.9999999999999999
 40
0.9999999999999999
 40
0.9999999999999999
 10
720.6532226162598
 20
404.3658578471816
 30
0.0
 10
720.6564429915821
 20
404.2537610260044
 30
0.0
 10
720.6630114518213
 20
404.0251219888936
 30
0.0
 10
720.7223111381452
 20
403.6855035451379
 30
0.0
 10
720.8163557109309
 20
403.3520421690178
 30
0.0
 10
720.9459807365511
 20
403.0329300862743
 30
0.0
 10
721.108091947167
 20
402.7298782733427
 30
0.0
 10
721.3013210119692
 20
402.4440971225761
 30
0.0
 10
721.5244572008407
 20
402.1763493482892
 30
0.0
 10
721.7770456720799
 20
401.9270914508178
 30
0.0
 10
722.0592584548293
 20
401.6967197993834
 30
0.0
 10
722.3716181372529
 20
401.4859307723431
 30
0.0
 10
722.7142056015975
 20
401.2960961918704
 30
0.0
 10
723.0855266201103
 20
401.1293858391217
 30
0.0
 10
723.481437830573
 20
400.9884464216985
 30
0.0
 10
723.8956646527611
 20
400.8754130806813
 30
0.0
 10
724.3216312138156
 20
400.7912091352667
 30
0.0
 10
724.7542777187821
 20
400.7356864854432
 30
0.0
 10
725.1903648595377
 20
400.7083118873919
 30
0.0
 10
725.6277546195411
 20
400.7087345862819
 30
0.0
 10
726.0646552235365
 20
400.737045019201
 30
0.0
 10
726.4995765304961
 20
400.793866619463
 30
0.0
 10
726.9310924206146
 20
400.8804681026464
 30
0.0
 10
727.3576923105285
 20
400.9989179409816
 30
0.0
 10
727.7767260736475
 20
401.1518983983769
 30
0.0
 10
728.1661500056257
 20
401.3339985627756
 30
0.0
 10
728.5187953121842
 20
401.5396381468765
 30
0.0
 10
728.8295409031676
 20
401.7607060264181
 30
0.0
 10
729.1089907148644
 20
402.0020900708448
 30
0.0
 10
729.3566729612743
 20
402.2620663887167
 30
0.0
 10
729.5723670788018
 20
402.5392185958041
 30
0.0
 10
729.755673183178
 20
402.8320346341007
 30
0.0
 10
729.9056685961011
 20
403.1386741945
 30
0.0
 10
730.0258958600109
 20
403.4672815379656
 30
0.0
 10
730.1083855768629
 20
403.8147662584312
 30
0.0
 10
730.1504951737379
 20
404.1210295583185
 30
0.0
 10
730.1480077053966
 20
404.3057146655021
 30
0.0
 10
730.1471509084246
 20
404.3693285969898
 30
0.0
  0
LINE
  5
223
330
1F
100
AcDbEntity
  8
0
  6
Continuous
 62
     7
370
    25
100
AcDbLine
 10
580.2144320704
 20
258.0245945962
 30
0.0
 11
580.2144320704
 21
259.3103455472
 31
0.0
  0
LINE
  5
224
330
1F
100
AcDbEntity
  8
0
  6
Continuous
 62
     7
370
    25
100
AcDbLine
 10
570.7144320704
 20
259.3103455472
 30
0.0
 11
570.7144320704
 21
258.0245945962
 31
0.0
  0
SPLINE
  5
225
330
1F
100
AcDbEntity
  8
0
  6
Continuous
 62
     7
370
    25
100
AcDbSpline
210
0.0
220
0.0
230
1.0
 70
     8
 71
     3
 72
    43
 73
    39
 74
     0
 42
0.000000001
 43
0.00000001
 40
0.0
 40
0.0
 40
0.0
 40
0.0
 40
0.0128525544185824
 40
0.0392955072835734
 40
0.0654504672206545
 40
0.091438578198544
 40
0.1173903383524341
 40
0.1434509097841222
 40
0.1697854603652842
 40
0.1965818515789467
 40
0.2240461387415587
 40
0.2523823120293083
 40
0.2817443353519312
 40
0.3121563887614562
 40
0.343436718281141
 40
0.3752108029366441
 40
0.4069793576893656
 40
0.4385525493980916
 40
0.469913230454837
 40
0.5011561954488138
 40
0.532433838645026
 40
0.5638934904595686
 40
0.5957001343605921
 40
0.6280450897082773
 40
0.6610850361856244
 40
0.694868472756525
 40
0.725421548693228
 40
0.7551532890723561
 40
0.783909375054467
 40
0.8117413091851433
 40
0.8387964286829614
 40
0.865240568452889
 40
0.8912242190766405
 40
0.916873705543447
 40
0.9450334448103769
 40
0.9726207902792293
 40
0.9996630250465909
 40
1.0
 40
1.0
 40
1.0
 40
1.0
 10
570.7195532762161
 20
258.0239752699903
 30
0.0
 10
570.7185040783218
 20
257.9670131004211
 30
0.0
 10
570.7152962519119
 20
257.7928564871678
 30
0.0
 10
570.7531347377732
 20
257.5042241668298
 30
0.0
 10
570.8289005659234
 20
257.1647172583998
 30
0.0
 10
570.9425843166326
 20
256.8385498660984
 30
0.0
 10
571.0893299052135
 20
256.5276949033534
 30
0.0
 10
571.2680168714711
 20
256.2335972790078
 30
0.0
 10
571.4770483774968
 20
255.9572199002059
 30
0.0
 10
571.7156782037506
 20
255.6991412318081
 30
0.0
 10
571.9837746835416
 20
255.4597475904365
 30
0.0
 10
572.2817661825579
 20
255.2395429334843
 30
0.0
 10
572.6100704642616
 20
255.0395395770302
 30
0.0
 10
572.9680844829771
 20
254.8615434385344
 30
0.0
 10
573.353080647396
 20
254.7080221038488
 30
0.0
 10
573.7595234943742
 20
254.5815387782224
 30
0.0
 10
574.1807547584842
 20
254.4836143951222
 30
0.0
 10
574.6107246241862
 20
254.4145548214751
 30
0.0
 10
575.0455016914447
 20
254.3738979271953
 30
0.0
 10
575.48249293581
 20
254.3611600339738
 30
0.0
 10
575.9197910260784
 20
254.376203097215
 30
0.0
 10
576.3557939622547
 20
254.4193823485073
 30
0.0
 10
576.7890785343305
 20
254.4916475129527
 30
0.0
 10
577.2182477934962
 20
254.5946847042456
 30
0.0
 10
577.6413134501876
 20
254.7309299041587
 30
0.0
 10
578.0391171825095
 20
254.8967117519377
 30
0.0
 10
578.4044507220719
 20
255.0877663852648
 30
0.0
 10
578.7311845549732
 20
255.2971985703094
 30
0.0
 10
579.0273049768083
 20
255.5280910142433
 30
0.0
 10
579.2918110940507
 20
255.778418970309
 30
0.0
 10
579.5244673591529
 20
256.0466613873373
 30
0.0
 10
579.7249507385171
 20
256.3313963363553
 30
0.0
 10
579.8927785698744
 20
256.630984611672
 30
0.0
 10
580.0314413548366
 20
256.9544588112759
 30
0.0
 10
580.1368703291336
 20
257.2994069139627
 30
0.0
 10
580.1969874170985
 20
257.6608081956393
 30
0.0
 10
580.2211959229475
 20
257.9048278880591
 30
0.0
 10
580.2142638568074
 20
258.0258965880469
 30
0.0
 10
580.2141785390539
 20
258.0273866646398
 30
0.0
  0
LINE
  5
226
330
1F
100
AcDbEntity
  8
0
  6
Continuous
 62
     7
370
    25
100
AcDbLine
 10
730.8623780303
 20
488.9546513871
 30
0.0
 11
730.8623780303
 21
493.2404878906
 31
0.0
  0
LINE
  5
227
330
1F
100
AcDbEntity
  8
0
  6
Continuous
 62
     7
370
    25
100
AcDbLine
 10
285.8623780303
 20
493.2404878906
 30
0.0
 11
285.8623780303
 21
488.9546513871
 31
0.0
  0
LINE
  5
228
330
1F
100
AcDbEntity
  8
0
  6
Continuous
 62
     7
370
    25
100
AcDbLine
 10
294.4232051185
 20
451.7952241172
 30
0.0
 11
294.4214209951
 21
451.9034012048
 31
0.0
  0
LINE
  5
229
330
1F
100
AcDbEntity
  8
0
  6
Continuous
 62
     7
370
    25
100
AcDbLine
 10
294.4232051185
 20
438.9377146067
 30
0.0
 11
294.4232051185
 21
451.7952241172
 31
0.0
  0
LINE
  5
22A
330
1F
100
AcDbEntity
  8
0
  6
Continuous
 62
     7
370
    25
100
AcDbLine
 10
294.4214209951
 20
438.835481781
 30
0.0
 11
294.4232051185
 21
438.9377146067
 31
0.0
  0
SPLINE
  5
22B
330
1F
100
AcDbEntity
  8
0
  6
Continuous
 62
     7
370
    25
100
AcDbSpline
210
0.0
220
0.0
230
1.0
 70
     8
 71
     3
 72
    19
 73
    15
 74
     0
 42
0.000000001
 43
0.00000001
 40
0.0
 40
0.0
 40
0.0
 40
0.0
 40
0.0905090799019526
 40
0.1816612913282867
 40
0.2747902925312312
 40
0.3685884668893102
 40
0.5205886420342084
 40
0.5982322838450439
 40
0.6764490075849393
 40
0.7607129671345851
 40
0.8463766448710591
 40
0.9115828738455319
 40
0.9783741555933283
 40
1.0
 40
1.0
 40
1.0
 40
1.0
 10
729.1491613082653
 20
528.4403554593472
 30
0.0
 10
729.1984785385941
 20
528.4100989445059
 30
0.0
 10
729.2974634333252
 20
528.3493709207198
 30
0.0
 10
729.433785033149
 20
528.2658271908647
 30
0.0
 10
729.5605278906767
 20
528.1878609225625
 30
0.0
 10
729.6988972920767
 20
528.1023829769181
 30
0.0
 10
729.8098839497881
 20
528.0336041412056
 30
0.0
 10
729.8936625287668
 20
527.9833859535332
 30
0.0
 10
729.9464548338588
 20
527.9539863670302
 30
0.0
 10
729.9856994554443
 20
527.9370346322928
 30
0.0
 10
730.0056097015022
 20
527.9381383589249
 30
0.0
 10
730.0053845760806
 20
527.9603638240255
 30
0.0
 10
729.9954086456771
 20
527.987835717781
 30
0.0
 10
729.9802191037093
 20
528.0156246747677
 30
0.0
 10
729.976503910901
 20
528.022421544177
 30
0.0
  0
SPLINE
  5
22C
330
1F
100
AcDbEntity
  8
0
  6
Continuous
 62
     7
370
    25
100
AcDbSpline
210
0.0
220
0.0
230
1.0
 70
     8
 71
     3
 72
    14
 73
    10
 74
     0
 42
0.000000001
 43
0.00000001
 40
0.0
 40
0.0
 40
0.0
 40
0.0
 40
0.2236978580034421
 40
0.3528357075717408
 40
0.4829964006465981
 40
0.593602086647901
 40
0.6970463839856658
 40
0.8440092931474839
 40
1.0
 40
1.0
 40
1.0
 40
1.0
 10
729.0867671966053
 20
528.2188122721691
 30
0.0
 10
729.0645620913206
 20
528.2549603913923
 30
0.0
 10
729.0295382689883
 20
528.3119763473666
 30
0.0
 10
729.0030623097302
 20
528.3882831761213
 30
0.0
 10
728.9995158834953
 20
528.4378651314399
 30
0.0
 10
729.0148312799225
 20
528.4673116045327
 30
0.0
 10
729.0450088034677
 20
528.4794126981711
 30
0.0
 10
729.0907542667555
 20
528.4724561022749
 30
0.0
 10
729.1293093235334
 20
528.451266155332
 30
0.0
 10
729.1491613082653
 20
528.4403554593472
 30
0.0
  0
SPLINE
  5
22D
330
1F
100
AcDbEntity
  8
0
  6
Continuous
 62
     7
370
    25
100
AcDbSpline
210
0.0
220
0.0
230
1.0
 70
     8
 71
     3
 72
    32
 73
    28
 74
     0
 42
0.000000001
 43
0.00000001
 40
0.0
 40
0.0
 40
0.0
 40
0.0
 40
0.0436175577132358
 40
0.0875445180727421
 40
0.1324232365607161
 40
0.1776249957013636
 40
0.2471068321983909
 40
0.282545717467091
 40
0.3182339115864969
 40
0.3543732564365982
 40
0.3910498564409288
 40
0.419547230354845
 40
0.448732006682342
 40
0.471844116074144
 40
0.4956184451052926
 40
0.5187364415274883
 40
0.5424579544801718
 40
0.5764259662049886
 40
0.6113254577453333
 40
0.6689154864260295
 40
0.7279987346838471
 40
0.770482256469434
 40
0.8132756786605962
 40
0.8569852155483489
 40
0.9009924730134483
 40
0.9502698003771112
 40
1.0
 40
1.0
 40
1.0
 40
1.0
 10
727.4650106490103
 20
526.8990598117655
 30
0.0
 10
727.5158094035671
 20
526.8408485845298
 30
0.0
 10
727.6177672553938
 20
526.7240132067154
 30
0.0
 10
727.7793388743096
 20
526.557706379734
 30
0.0
 10
727.9465802501502
 20
526.3983346295612
 30
0.0
 10
728.1495388081526
 20
526.2216195480363
 30
0.0
 10
728.3437579287038
 20
526.0725153259704
 30
0.0
 10
728.5268335747718
 20
525.9527973950576
 30
0.0
 10
728.6670396457357
 20
525.8739045670529
 30
0.0
 10
728.8090772747812
 20
525.8101557266841
 30
0.0
 10
728.9414388879869
 20
525.7707219903635
 30
0.0
 10
729.0629988676922
 20
525.7571052811699
 30
0.0
 10
729.1640380553619
 20
525.7678736435449
 30
0.0
 10
729.2534158718009
 20
525.8010631792991
 30
0.0
 10
729.3284141753803
 20
525.8516419352411
 30
0.0
 10
729.3943318664719
 20
525.9214022384353
 30
0.0
 10
729.4573389187459
 20
526.0187668160794
 30
0.0
 10
729.5121316708355
 20
526.1487623237051
 30
0.0
 10
729.5615666985409
 20
526.3439062474105
 30
0.0
 10
729.5862693620354
 20
526.5940575699742
 30
0.0
 10
729.5754204725325
 20
526.8638114981527
 30
0.0
 10
729.5404617928288
 20
527.1090809834069
 30
0.0
 10
729.491531413712
 20
527.3269264124605
 30
0.0
 10
729.4248242228956
 20
527.5444809859181
 30
0.0
 10
729.3367092032198
 20
527.7679968705065
 30
0.0
 10
729.2269041266679
 20
527.9953634864627
 30
0.0
 10
729.133621734895
 20
528.1441025601682
 30
0.0
 10
729.0867671966053
 20
528.2188122721691
 30
0.0
  0
SPLINE
  5
22E
330
1F
100
AcDbEntity
  8
0
  6
Continuous
 62
     7
370
    25
100
AcDbSpline
210
0.0
220
0.0
230
1.0
 70
     8
 71
     3
 72
    14
 73
    10
 74
     0
 42
0.000000001
 43
0.00000001
 40
0.0
 40
0.0
 40
0.0
 40
0.0
 40
0.2198296104787068
 40
0.3499177958294106
 40
0.4588983161345611
 40
0.5683999765788754
 40
0.6667094681233658
 40
0.7967198733581601
 40
1.0
 40
1.0
 40
1.0
 40
1.0
 10
727.1010334933982
 20
526.7734319538732
 30
0.0
 10
727.1054216147032
 20
526.8143032684254
 30
0.0
 10
727.112406486903
 20
526.8793609295367
 30
0.0
 10
727.1537065793493
 20
526.9515895280363
 30
0.0
 10
727.200446561112
 20
526.9921272999421
 30
0.0
 10
727.2548873342389
 20
527.0093991665715
 30
0.0
 10
727.3165444294784
 20
527.0047409005452
 30
0.0
 10
727.3924104493308
 20
526.9730121558031
 30
0.0
 10
727.4375060183513
 20
526.9270767031529
 30
0.0
 10
727.4650106490103
 20
526.8990598117656
 30
0.0
  0
SPLINE
  5
22F
330
1F
100
AcDbEntity
  8
0
  6
Continuous
 62
     7
370
    25
100
AcDbSpline
210
0.0
220
0.0
230
1.0
 70
     8
 71
     3
 72
    33
 73
    29
 74
     0
 42
0.000000001
 43
0.00000001
 40
0.0
 40
0.0
 40
0.0
 40
0.0
 40
0.0453846795158938
 40
0.0910956457676758
 40
0.1377861112474296
 40
0.1847984484385215
 40
0.2588563244582865
 40
0.2965960583089344
 40
0.3345934417298366
 40
0.3627068189222375
 40
0.3910552764359803
 40
0.4192115960367045
 40
0.4481447873352586
 40
0.4657876556062915
 40
0.4839178616272579
 40
0.5015746029079473
 40
0.5197390882526018
 40
0.5448263126108278
 40
0.570593213296418
 40
0.6177342306538917
 40
0.6659981837889724
 40
0.7087532480229964
 40
0.7518249524472244
 40
0.7957808044145235
 40
0.8400079168875109
 40
0.9191109597848048
 40
0.9594357012421677
 40
1.0
 40
1.0
 40
1.0
 40
1.0
 10
724.2275652211487
 20
526.5405041731948
 30
0.0
 10
724.2412984179434
 20
526.4578162274685
 30
0.0
 10
724.2688635444094
 20
526.2918458627221
 30
0.0
 10
724.335832510095
 20
526.0438536369676
 30
0.0
 10
724.4209442178591
 20
525.7971050691523
 30
0.0
 10
724.5457275014656
 20
525.5073919334475
 30
0.0
 10
724.6898110255022
 20
525.2438922175163
 30
0.0
 10
724.849249627742
 20
525.0105102005798
 30
0.0
 10
724.9720802028511
 20
524.8578215126003
 30
0.0
 10
725.0950805995585
 20
524.7291902951306
 30
0.0
 10
725.2153957089797
 20
524.6245894736157
 30
0.0
 10
725.3488886152487
 20
524.5344801318804
 30
0.0
 10
725.478045696776
 20
524.4763821281703
 30
0.0
 10
725.5971055524674
 20
524.44841766713
 30
0.0
 10
725.6981429535437
 20
524.4421607470191
 30
0.0
 10
725.7996944104879
 20
524.4539008606911
 30
0.0
 10
725.9104627174848
 20
524.4859394152714
 30
0.0
 10
726.0279842627926
 20
524.5433534301617
 30
0.0
 10
726.1798837632563
 20
524.6491681604067
 30
0.0
 10
726.3446426270767
 20
524.8089924929383
 30
0.0
 10
726.5058909671728
 20
525.0142138323678
 30
0.0
 10
726.6425270111878
 20
525.227278866889
 30
0.0
 10
726.7583456218248
 20
525.4428058050809
 30
0.0
 10
726.859325687524
 20
525.6681272829942
 30
0.0
 10
726.9672672860818
 20
525.962559838221
 30
0.0
 10
727.0430224190128
 20
526.2586097475637
 30
0.0
 10
727.0881586216743
 20
526.5509956987786
 30
0.0
 10
727.0967334045946
 20
526.6991402894157
 30
0.0
 10
727.1010334933982
 20
526.7734319538732
 30
0.0
  0
SPLINE
  5
230
330
1F
100
AcDbEntity
  8
0
  6
Continuous
 62
     7
370
    25
100
AcDbSpline
210
0.0
220
0.0
230
1.0
 70
     8
 71
     3
 72
    15
 73
    11
 74
     0
 42
0.000000001
 43
0.00000001
 40
0.0
 40
0.0
 40
0.0
 40
0.0
 40
0.2148110296556951
 40
0.341132267341717
 40
0.4464287003092994
 40
0.5523542512427555
 40
0.6447889097414163
 40
0.7660552293890357
 40
0.9403894463275346
 40
1.0
 40
1.0
 40
1.0
 40
1.0
 10
723.8360872435425
 20
526.6049682148409
 30
0.0
 10
723.8617723281471
 20
526.6387947992628
 30
0.0
 10
723.9025617194654
 20
526.69251336045
 30
0.0
 10
723.9773661667282
 20
526.7384344047621
 30
0.0
 10
724.0403195127243
 20
526.754533132559
 30
0.0
 10
724.0975471566812
 20
526.7466631990118
 30
0.0
 10
724.1489818581477
 20
526.7165718684299
 30
0.0
 10
724.1949898591438
 20
526.6599763375849
 30
0.0
 10
724.2184093908762
 20
526.5958353755009
 30
0.0
 10
724.225706000529
 20
526.5517399551137
 30
0.0
 10
724.2275652211487
 20
526.5405041731948
 30
0.0
  0
SPLINE
  5
231
330
1F
100
AcDbEntity
  8
0
  6
Continuous
 62
     7
370
    25
100
AcDbSpline
210
0.0
220
0.0
230
1.0
 70
     8
 71
     3
 72
    13
 73
     9
 74
     0
 42
0.000000001
 43
0.00000001
 40
0.0
 40
0.0
 40
0.0
 40
0.0
 40
0.1654627450547175
 40
0.332129086398359
 40
0.5022878953993429
 40
0.6735427103291673
 40
0.8434635884885036
 40
0.9999999999999999
 40
0.9999999999999999
 40
0.9999999999999999
 40
0.9999999999999999
 10
721.8746874637103
 20
527.6363407621442
 30
0.0
 10
721.8369722020486
 20
527.5527120210926
 30
0.0
 10
721.7612673332887
 20
527.384846213276
 30
0.0
 10
721.6739603091446
 20
527.1207678427714
 30
0.0
 10
721.6056395918297
 20
526.848538245954
 30
0.0
 10
721.5597440572816
 20
526.570304003667
 30
0.0
 10
721.5342200754864
 20
526.2971436734666
 30
0.0
 10
721.5354520284907
 20
526.1177220420517
 30
0.0
 10
721.5360427504888
 20
526.0316892922316
 30
0.0
  0
SPLINE
  5
232
330
1F
100
AcDbEntity
  8
0
  6
Continuous
 62
     7
370
    25
100
AcDbSpline
210
0.0
220
0.0
230
1.0
 70
     8
 71
     3
 72
    17
 73
    13
 74
     0
 42
0.000000001
 43
0.00000001
 40
0.0
 40
0.0
 40
0.0
 40
0.0
 40
0.0266504006250308
 40
0.0999216569031036
 40
0.1866098448185229
 40
0.2739160908924223
 40
0.4518212267759938
 40
0.5499463362568396
 40
0.6485735958842407
 40
0.7488204770893135
 40
0.8496562445715963
 40
0.9999999999999999
 40
0.9999999999999999
 40
0.9999999999999999
 40
0.9999999999999999
 10
722.1978840730317
 20
524.8807019819885
 30
0.0
 10
722.2135980879887
 20
524.8870318281287
 30
0.0
 10
722.2725154165946
 20
524.9107646313676
 30
0.0
 10
722.3775601514651
 20
524.9842714770591
 30
0.0
 10
722.5159631851016
 20
525.0908516863763
 30
0.0
 10
722.7113528549924
 20
525.264249693902
 30
0.0
 10
722.9137712739679
 20
525.4645403790486
 30
0.0
 10
723.1218950246212
 20
525.688613115549
 30
0.0
 10
723.2858692068626
 20
525.8753728739426
 30
0.0
 10
723.4488243600073
 20
526.0727267517507
 30
0.0
 10
723.6362333408578
 20
526.3131800797055
 30
0.0
 10
723.7612552527524
 20
526.4957129701459
 30
0.0
 10
723.8360872435425
 20
526.6049682148409
 30
0.0
  0
SPLINE
  5
233
330
1F
100
AcDbEntity
  8
0
  6
Continuous
 62
     7
370
    25
100
AcDbSpline
210
0.0
220
0.0
230
1.0
 70
     8
 71
     3
 72
    15
 73
    11
 74
     0
 42
0.000000001
 43
0.00000001
 40
0.0
 40
0.0
 40
0.0
 40
0.0
 40
0.2126307822087068
 40
0.3330806359274124
 40
0.4343189429317217
 40
0.5361409898010345
 40
0.6255006565988299
 40
0.7454503639221841
 40
0.9209037802014471
 40
1.0
 40
1.0
 40
1.0
 40
1.0
 10
721.7504995659431
 20
527.8432225867374
 30
0.0
 10
721.7783113676247
 20
527.8639707002578
 30
0.0
 10
721.8218778376068
 20
527.8964720849298
 30
0.0
 10
721.8760176687002
 20
527.9098373697104
 30
0.0
 10
721.9097938512426
 20
527.90172783935
 30
0.0
 10
721.929372253363
 20
527.8751038525627
 30
0.0
 10
721.9356344448012
 20
527.8311779714654
 30
0.0
 10
721.9262606868997
 20
527.7650212285901
 30
0.0
 10
721.9023745091922
 20
527.6960376142866
 30
0.0
 10
721.8812511317328
 20
527.6504928795921
 30
0.0
 10
721.8746874637103
 20
527.6363407621442
 30
0.0
  0
SPLINE
  5
234
330
1F
100
AcDbEntity
  8
0
  6
Continuous
 62
     7
370
    25
100
AcDbSpline
210
0.0
220
0.0
230
1.0
 70
     8
 71
     3
 72
    13
 73
     9
 74
     0
 42
0.000000001
 43
0.00000001
 40
0.0
 40
0.0
 40
0.0
 40
0.0
 40
0.1486180797025905
 40
0.3143410926860912
 40
0.4830489942888906
 40
0.6527466323562755
 40
0.8257473516956976
 40
0.9999999999999999
 40
0.9999999999999999
 40
0.9999999999999999
 40
0.9999999999999999
 10
720.9289638114119
 20
527.0874410735024
 30
0.0
 10
720.9579716730027
 20
527.1190909376819
 30
0.0
 10
721.0193260043678
 20
527.1860333508084
 30
0.0
 10
721.1319961019688
 20
527.2981910286968
 30
0.0
 10
721.2626045793869
 20
527.4212161841023
 30
0.0
 10
721.4098653021786
 20
527.553128778501
 30
0.0
 10
721.5714639434699
 20
527.6928515764511
 30
0.0
 10
721.6906777606278
 20
527.7929785896035
 30
0.0
 10
721.7504995659431
 20
527.8432225867374
 30
0.0
  0
SPLINE
  5
235
330
1F
100
AcDbEntity
  8
0
  6
Continuous
 62
     7
370
    25
100
AcDbSpline
210
0.0
220
0.0
230
1.0
 70
     8
 71
     3
 72
    12
 73
     8
 74
     0
 42
0.000000001
 43
0.00000001
 40
0.0
 40
0.0
 40
0.0
 40
0.0
 40
0.0178482731194424
 40
0.2110096278620503
 40
0.4811627966331777
 40
0.8776616400832173
 40
1.0
 40
1.0
 40
1.0
 40
1.0
 10
722.3799853849945
 20
529.5423397202524
 30
0.0
 10
722.3790951672241
 20
529.5416179550882
 30
0.0
 10
722.3685706464948
 20
529.5330849503723
 30
0.0
 10
722.3346620681698
 20
529.5045876032979
 30
0.0
 10
722.2745253456292
 20
529.4532170632979
 30
0.0
 10
722.2190181519406
 20
529.4041958407632
 30
0.0
 10
722.1859415586051
 20
529.3740172681879
 30
0.0
 10
722.178142318007
 20
529.3669013616
 30
0.0
  0
LWPOLYLINE
  5
236
330
1F
100
AcDbEntity
  8
0
  6
Continuous
 62
     7
370
    25
100
AcDbPolyline
 90
       17
 70
   128
 43
0.0
 10
724.2275652211
 20
403.8129240296
 10
724.3023425202
 20
403.6833990928
 10
724.4211606519
 20
403.5629207173
 10
724.5801391804
 20
403.45542356
 10
724.7740860874
 20
403.3644183292
 10
724.9966673356
 20
403.2928771296
 10
725.2406137296
 20
403.2431363977
 10
725.4979583181
 20
403.2168205969
 10
725.7602965835
 20
403.2147891648
 10
726.0190609213
 20
403.2371084452
 10
726.2658004467
 20
403.2830495212
 10
726.4924569886
 20
403.351112021
 10
726.6916282584
 20
403.4390731176
 10
726.8568095982
 20
403.5440601235
 10
726.9826064143
 20
403.6626443084
 10
727.0649103569
 20
403.7909528772
 10
727.1010334934
 20
403.9247954497
  0
LWPOLYLINE
  5
237
330
1F
100
AcDbEntity
  8
0
  6
Continuous
 62
     7
370
    25
100
AcDbPolyline
 90
       14
 70
   128
 43
0.0
 10
721.5341566568
 20
404.4980507311
 10
721.5346027885
 20
404.4795150566
 10
721.5647798739
 20
404.3452823934
 10
721.6413711759
 20
404.2160389325
 10
721.7618753286
 20
404.0960055862
 10
721.9223568332
 20
403.9891024775
 10
722.1175745861
 20
403.8988209138
 10
722.341153046
 20
403.8281093658
 10
722.5857904501
 20
403.7792771748
 10
722.8434972796
 20
403.7539191324
 10
723.1058571864
 20
403.7528633973
 10
723.3643018595
 20
403.7761444482
 10
723.6103908537
 20
403.8230019584
 10
723.8360872435
 20
403.8919056263
  0
LWPOLYLINE
  5
238
330
1F
100
AcDbEntity
  8
0
  6
Continuous
 62
     7
370
    25
100
AcDbPolyline
 90
       13
 70
   128
 43
0.0
 10
727.465010649
 20
404.0331888341
 10
727.7082533131
 20
403.9825421549
 10
727.9652222424
 20
403.9552699678
 10
728.2275251874
 20
403.9522629446
 10
728.4865956975
 20
403.9736192906
 10
728.7339728886
 20
404.0186415371
 10
728.9615777644
 20
404.0858593198
 10
729.1619770648
 20
404.1730773992
 10
729.3286260264
 20
404.2774473535
 10
729.4560821248
 20
404.3955606046
 10
729.5401828205
 20
404.5235597374
 10
729.5781815013
 20
404.6572644774
 10
729.5803655842
 20
404.6982642472
  0
ARC
  5
239
330
1F
100
AcDbEntity
  8
0
  6
Continuous
 62
     7
370
    25
100
AcDbCircle
 10
723.9780220456
 20
403.5857304979
 30
0.0
 40
0.3374739950209067
100
AcDbArc
 50
42.3159117662
 51
114.8712087101
  0
LWPOLYLINE
  5
23A
330
1F
100
AcDbEntity
  8
0
  6
Continuous
 62
     7
370
    25
100
AcDbPolyline
 90
        9
 70
   128
 43
0.0
 10
727.1010334934
 20
403.9247954497
 10
727.1117219959
 20
403.9563908741
 10
727.137239953
 20
403.9856456966
 10
727.176004217
 20
404.010744932
 10
727.2256098318
 20
404.0301314102
 10
727.2829792381
 20
404.0426023835
 10
727.344553207
 20
404.047384146
 10
727.4065116559
 20
404.0441800346
 10
727.465010649
 20
404.0331888341
  0
ARC
  5
23B
330
1F
100
AcDbEntity
  8
0
  6
Continuous
 62
     7
370
    25
100
AcDbCircle
 10
721.5849975146
 20
406.1558857726
 30
0.0
 40
0.9303109428644133
100
AcDbArc
 50
195.5590044358
 51
266.8672641082
  0
ARC
  5
23C
330
1F
100
AcDbEntity
  8
0
  6
Continuous
 62
     7
370
    25
100
AcDbCircle
 10
729.3775104089
 20
406.2254807443
 30
0.0
 40
0.6314210681191388
100
AcDbArc
 50
288.7396055207
 51
353.6833745907
  0
SPLINE
  5
23D
330
1F
100
AcDbEntity
  8
0
  6
Continuous
 62
     7
370
    25
100
AcDbSpline
210
0.0
220
0.0
230
1.0
 70
     8
 71
     3
 72
    33
 73
    29
 74
     0
 42
0.000000001
 43
0.00000001
 40
0.0
 40
0.0
 40
0.0
 40
0.0
 40
0.0441213647301386
 40
0.0885643240892562
 40
0.1339549310956369
 40
0.1796485529093182
 40
0.2244874082555657
 40
0.2696160366855254
 40
0.3157575130293258
 40
0.3623227711932725
 40
0.3904545578735117
 40
0.4187956069173943
 40
0.4469628201082535
 40
0.475784453384514
 40
0.4937613087930922
 40
0.5122052114429356
 40
0.5302047120128127
 40
0.5487727969964227
 40
0.5721373294162917
 40
0.5961490192902605
 40
0.6384785624500898
 40
0.6818249414599806
 40
0.7221252442697368
 40
0.7627269998851915
 40
0.8041331317540493
 40
0.8457735509867453
 40
0.9221430649462437
 40
1.0
 40
1.0
 40
1.0
 40
1.0
 10
291.8153339712557
 20
457.4611800065492
 30
0.0
 10
291.8521837078723
 20
457.387004943676
 30
0.0
 10
291.9261517738254
 20
457.2381141659808
 30
0.0
 10
292.0548726914678
 20
457.0203452686781
 30
0.0
 10
292.1954001748712
 20
456.806894306169
 30
0.0
 10
292.3466433420188
 20
456.6012980710047
 30
0.0
 10
292.5062414415301
 20
456.405529937885
 30
0.0
 10
292.674325275006
 20
456.2199703506558
 30
0.0
 10
292.852424766833
 20
456.0453652083559
 30
0.0
 10
293.0161132567787
 20
455.907230096781
 30
0.0
 10
293.1618724523607
 20
455.8040183657479
 30
0.0
 10
293.2862544337215
 20
455.7310780624449
 30
0.0
 10
293.4171115437508
 20
455.6740113930636
 30
0.0
 10
293.5375410092431
 20
455.6449623906579
 30
0.0
 10
293.6445512330383
 20
455.6416854281566
 30
0.0
 10
293.7335545487195
 20
455.6559354630709
 30
0.0
 10
293.8203622309524
 20
455.6886652390277
 30
0.0
 10
293.9084807973953
 20
455.7427344958768
 30
0.0
 10
293.9951447213043
 20
455.8208468718166
 30
0.0
 10
294.0967559969907
 20
455.9462782415334
 30
0.0
 10
294.1967085908349
 20
456.1208051565421
 30
0.0
 10
294.2834676123675
 20
456.336151696143
 30
0.0
 10
294.3471524468524
 20
456.5567565497813
 30
0.0
 10
294.3912884380248
 20
456.7786575636767
 30
0.0
 10
294.4183634281451
 20
457.0059230566509
 30
0.0
 10
294.4304391917879
 20
457.3005453527239
 30
0.0
 10
294.4107241036556
 20
457.6640946056148
 30
0.0
 10
294.3437869178745
 20
457.9424969470734
 30
0.0
 10
294.3099955405887
 20
458.0830406291489
 30
0.0
  0
SPLINE
  5
23E
330
1F
100
AcDbEntity
  8
0
  6
Continuous
 62
     7
370
    25
100
AcDbSpline
210
0.0
220
0.0
230
1.0
 70
     8
 71
     3
 72
    14
 73
    10
 74
     0
 42
0.000000001
 43
0.00000001
 40
0.0
 40
0.0
 40
0.0
 40
0.0
 40
0.2204300636817454
 40
0.3399443732551113
 40
0.4603671101703246
 40
0.564021229377576
 40
0.6631726788872445
 40
0.8102691653344073
 40
1.0
 40
1.0
 40
1.0
 40
1.0
 10
291.3960880016492
 20
457.4620921693298
 30
0.0
 10
291.4141878488304
 20
457.500078010203
 30
0.0
 10
291.4421011974149
 20
457.5586592792574
 30
0.0
 10
291.5114108380926
 20
457.6139024763029
 30
0.0
 10
291.5748207327982
 20
457.6350968904862
 30
0.0
 10
291.6379134306674
 20
457.6305934848819
 30
0.0
 10
291.7005651376452
 20
457.6043972621778
 30
0.0
 10
291.766020439914
 20
457.5494099983603
 30
0.0
 10
291.7975651885313
 20
457.4929712717783
 30
0.0
 10
291.8153339712557
 20
457.4611800065492
 30
0.0
  0
SPLINE
  5
23F
330
1F
100
AcDbEntity
  8
0
  6
Continuous
 62
     7
370
    25
100
AcDbSpline
210
0.0
220
0.0
230
1.0
 70
     8
 71
     3
 72
    32
 73
    28
 74
     0
 42
0.000000001
 43
0.00000001
 40
0.0
 40
0.0
 40
0.0
 40
0.0
 40
0.0430301906961546
 40
0.0863703585232831
 40
0.130647326728217
 40
0.1752340698039818
 40
0.2184985703256578
 40
0.2620710116748283
 40
0.3067590161673194
 40
0.3519305753622372
 40
0.3854008499168467
 40
0.4193042262219376
 40
0.4528401599354711
 40
0.4875658065129678
 40
0.510625286155169
 40
0.5343668716440516
 40
0.5574221930535509
 40
0.5810244918902225
 40
0.6175995456730606
 40
0.6551634288326462
 40
0.7176981382171275
 40
0.7818686090749173
 40
0.8252522659086738
 40
0.868946576202779
 40
0.9135854729028735
 40
0.958541856697134
 40
1.0
 40
1.0
 40
1.0
 40
1.0
 10
288.7129386585768
 20
458.0963575530168
 30
0.0
 10
288.7009162506167
 20
458.0234511254919
 30
0.0
 10
288.6767848287237
 20
457.8771130734844
 30
0.0
 10
288.6650070017405
 20
457.6526556914544
 30
0.0
 10
288.671095361345
 20
457.4251523098987
 30
0.0
 10
288.6969864163799
 20
457.1985861140853
 30
0.0
 10
288.7416719295204
 20
456.9756951874264
 30
0.0
 10
288.8055588192423
 20
456.7567487956635
 30
0.0
 10
288.8909416986949
 20
456.5411385251776
 30
0.0
 10
288.990841873153
 20
456.3509944184164
 30
0.0
 10
289.1009086145959
 20
456.1890252706621
 30
0.0
 10
289.2159874653043
 20
456.0564814211934
 30
0.0
 10
289.3510052246608
 20
455.9414368542191
 30
0.0
 10
289.4894594827286
 20
455.8644936873341
 30
0.0
 10
289.6233005661001
 20
455.8233619657333
 30
0.0
 10
289.7422108212195
 20
455.8093211475838
 30
0.0
 10
289.8625398430939
 20
455.8163651125295
 30
0.0
 10
290.0020184055825
 20
455.8468233611054
 30
0.0
 10
290.1587833632761
 20
455.9102159500553
 30
0.0
 10
290.3631102583863
 20
456.0320288765403
 30
0.0
 10
290.5867388421051
 20
456.2162125477902
 30
0.0
 10
290.792854643316
 20
456.4370081775353
 30
0.0
 10
290.9582161904203
 20
456.6492160020997
 30
0.0
 10
291.0896577884782
 20
456.8432481722528
 30
0.0
 10
291.2088899312648
 20
457.0474804615437
 30
0.0
 10
291.3130220632818
 20
457.2544254461126
 30
0.0
 10
291.3691568398485
 20
457.3947636561813
 30
0.0
 10
291.3960880016491
 20
457.4620921693298
 30
0.0
  0
SPLINE
  5
240
330
1F
100
AcDbEntity
  8
0
  6
Continuous
 62
     7
370
    25
100
AcDbSpline
210
0.0
220
0.0
230
1.0
 70
     8
 71
     3
 72
    14
 73
    10
 74
     0
 42
0.000000001
 43
0.00000001
 40
0.0
 40
0.0
 40
0.0
 40
0.0
 40
0.2240635092469565
 40
0.3487071205323487
 40
0.474252807279768
 40
0.582549286062326
 40
0.686608423114964
 40
0.837972714943104
 40
1.0
 40
1.0
 40
1.0
 40
1.0
 10
288.4267656875986
 20
458.2623970342842
 30
0.0
 10
288.4597553215146
 20
458.2872265654298
 30
0.0
 10
288.5110966590171
 20
458.3258684412936
 30
0.0
 10
288.5892477935459
 20
458.3434303730883
 30
0.0
 10
288.6446660660301
 20
458.3339931344932
 30
0.0
 10
288.6851905201369
 20
458.3023602630643
 30
0.0
 10
288.7127709247504
 20
458.2521867154817
 30
0.0
 10
288.724836966252
 20
458.1817244585039
 30
0.0
 10
288.7169937153776
 20
458.1254514090606
 30
0.0
 10
288.7129386585768
 20
458.0963575530169
 30
0.0
  0
SPLINE
  5
241
330
1F
100
AcDbEntity
  8
0
  6
Continuous
 62
     7
370
    25
100
AcDbSpline
210
0.0
220
0.0
230
1.0
 70
     8
 71
     3
 72
    31
 73
    27
 74
     0
 42
0.000000001
 43
0.00000001
 40
0.0
 40
0.0
 40
0.0
 40
0.0
 40
0.0425768439200438
 40
0.0854562266634165
 40
0.1292655212992947
 40
0.1733896051365764
 40
0.2448927928827599
 40
0.2814175395970662
 40
0.3182118727426274
 40
0.3578509173303832
 40
0.3981484105824882
 40
0.4288224096626653
 40
0.4602420416076199
 40
0.4856042083258673
 40
0.511693631532681
 40
0.5370616943792829
 40
0.5630949909788143
 40
0.5995472643023538
 40
0.637010214932405
 40
0.6959998903666195
 40
0.7565561265102899
 40
0.7981804952569005
 40
0.8401079728424153
 40
0.8829363933458928
 40
0.9260588511262469
 40
1.0
 40
1.0
 40
1.0
 40
1.0
 10
287.5755947523924
 20
459.6803435434205
 30
0.0
 10
287.5262775240304
 20
459.6251753843894
 30
0.0
 10
287.4272926332471
 20
459.5144470572351
 30
0.0
 10
287.2909710034382
 20
459.3349200942041
 30
0.0
 10
287.1642282626927
 20
459.145857858509
 30
0.0
 10
287.0258583284395
 20
458.906836068564
 30
0.0
 10
286.914874312586
 20
458.6699697462859
 30
0.0
 10
286.8310896524991
 20
458.4409544490214
 30
0.0
 10
286.7783166177306
 20
458.2616705471282
 30
0.0
 10
286.7389936771104
 20
458.0778891573538
 30
0.0
 10
286.7193608439585
 20
457.908774908808
 30
0.0
 10
286.7187749473799
 20
457.7619601953818
 30
0.0
 10
286.7335637751142
 20
457.6486080276312
 30
0.0
 10
286.7622761157302
 20
457.5574731037905
 30
0.0
 10
286.801335233134
 20
457.4903013374409
 30
0.0
 10
286.8521116501611
 20
457.4422289535494
 30
0.0
 10
286.9203010937137
 20
457.4096680301567
 30
0.0
 10
287.0093283775848
 20
457.3996847042318
 30
0.0
 10
287.1399148285683
 20
457.4196465540737
 30
0.0
 10
287.3080576000331
 20
457.4815973517584
 30
0.0
 10
287.492597417229
 20
457.5778534164264
 30
0.0
 10
287.6644999291525
 20
457.682394363372
 30
0.0
 10
287.8193851924142
 20
457.7854384412217
 30
0.0
 10
287.9793730482519
 20
457.900211391321
 30
0.0
 10
288.1823899835271
 20
458.0546686561376
 30
0.0
 10
288.332163748155
 20
458.1819818902142
 30
0.0
 10
288.4267656875987
 20
458.2623970342842
 30
0.0
  0
SPLINE
  5
242
330
1F
100
AcDbEntity
  8
0
  6
Continuous
 62
     7
370
    25
100
AcDbSpline
210
0.0
220
0.0
230
1.0
 70
     8
 71
     3
 72
    14
 73
    10
 74
     0
 42
0.000000001
 43
0.00000001
 40
0.0
 40
0.0
 40
0.0
 40
0.0
 40
0.223697858003442
 40
0.3528357075717406
 40
0.4829964006465979
 40
0.593602086647948
 40
0.6970463839856659
 40
0.8440092931474839
 40
1.0
 40
1.0
 40
1.0
 40
1.0
 10
287.6379888640525
 20
459.8870922287386
 30
0.0
 10
287.660193969337
 20
459.8987544594265
 30
0.0
 10
287.6952177916692
 20
459.9171491434587
 30
0.0
 10
287.7216937509274
 20
459.9118897389585
 30
0.0
 10
287.7252401771624
 20
459.8895599237211
 30
0.0
 10
287.7099247807352
 20
459.852404345967
 30
0.0
 10
287.6797472571901
 20
459.8043013936199
 30
0.0
 10
287.6340017939021
 20
459.7449423968787
 30
0.0
 10
287.5954467371242
 20
459.7023000647473
 30
0.0
 10
287.5755947523924
 20
459.6803435434205
 30
0.0
  0
SPLINE
  5
243
330
1F
100
AcDbEntity
  8
0
  6
Continuous
 62
     7
370
    25
100
AcDbSpline
210
0.0
220
0.0
230
1.0
 70
     8
 71
     3
 72
    14
 73
    10
 74
     0
 42
0.000000001
 43
0.00000001
 40
0.0
 40
0.0
 40
0.0
 40
0.0
 40
0.1456432969431192
 40
0.2790841526861571
 40
0.4134984064333487
 40
0.5507901788968367
 40
0.6890170924913628
 40
0.8437973097559385
 40
1.0
 40
1.0
 40
1.0
 40
1.0
 10
287.1476993853132
 20
459.4491796697665
 30
0.0
 10
287.1486957264543
 20
459.4624505908761
 30
0.0
 10
287.1506049322262
 20
459.4878805547052
 30
0.0
 10
287.1847645962616
 20
459.5393142811326
 30
0.0
 10
287.2330952872736
 20
459.5942902052918
 30
0.0
 10
287.299966929333
 20
459.6553737574008
 30
0.0
 10
287.3880362133191
 20
459.7242495379802
 30
0.0
 10
287.4978547488906
 20
459.8007590281862
 30
0.0
 10
287.5911352669199
 20
459.8582268736237
 30
0.0
 10
287.6379888640525
 20
459.8870922287386
 30
0.0
  0
SPLINE
  5
244
330
1F
100
AcDbEntity
  8
0
  6
Continuous
 62
     7
370
    25
100
AcDbSpline
210
0.0
220
0.0
230
1.0
 70
     8
 71
     3
 72
    12
 73
     8
 74
     0
 42
0.000000001
 43
0.00000001
 40
0.0
 40
0.0
 40
0.0
 40
0.0
 40
0.2168150713296005
 40
0.4352072820638978
 40
0.6581758681266147
 40
0.882580611939296
 40
0.9999999999999999
 40
0.9999999999999999
 40
0.9999999999999999
 40
0.9999999999999999
 10
294.8500685969473
 20
459.8661898925108
 30
0.0
 10
294.8877675584318
 20
459.8324167012739
 30
0.0
 10
294.9634397082673
 20
459.7646246484672
 30
0.0
 10
295.0509952208372
 20
459.6644369036331
 30
0.0
 10
295.118349035533
 20
459.5644800789075
 30
0.0
 10
295.160105617796
 20
459.4805526931374
 30
0.0
 10
295.1710129567194
 20
459.4307904626717
 30
0.0
 10
295.1747597169459
 20
459.4136967290672
 30
0.0
  0
SPLINE
  5
245
330
1F
100
AcDbEntity
  8
0
  6
Continuous
 62
     7
370
    25
100
AcDbSpline
210
0.0
220
0.0
230
1.0
 70
     8
 71
     3
 72
    15
 73
    11
 74
     0
 42
0.000000001
 43
0.00000001
 40
0.0
 40
0.0
 40
0.0
 40
0.0
 40
0.2126307822087079
 40
0.3330806359273758
 40
0.4343189429317075
 40
0.5361409898010232
 40
0.6255006565988311
 40
0.7454503639221471
 40
0.9209037802014468
 40
1.0
 40
1.0
 40
1.0
 40
1.0
 10
294.9742564947146
 20
459.6593080679179
 30
0.0
 10
294.946444693033
 20
459.6908244996943
 30
0.0
 10
294.9028782230509
 20
459.7401941771661
 30
0.0
 10
294.8487383919574
 20
459.8061279674346
 30
0.0
 10
294.8149622094152
 20
459.8509698852918
 30
0.0
 10
294.7953838072946
 20
459.8821456060855
 30
0.0
 10
294.7891216158567
 20
459.9005653259241
 30
0.0
 10
294.798495373758
 20
459.9041730927595
 30
0.0
 10
294.8223815514654
 20
459.8892286220403
 30
0.0
 10
294.843504928925
 20
459.8716516010339
 30
0.0
 10
294.8500685969473
 20
459.8661898925108
 30
0.0
  0
SPLINE
  5
246
330
1F
100
AcDbEntity
  8
0
  6
Continuous
 62
     7
370
    25
100
AcDbSpline
210
0.0
220
0.0
230
1.0
 70
     8
 71
     3
 72
    32
 73
    28
 74
     0
 42
0.000000001
 43
0.00000001
 40
0.0
 40
0.0
 40
0.0
 40
0.0
 40
0.0447046064970619
 40
0.0897361178799994
 40
0.1357107811798258
 40
0.1819789736105609
 40
0.2279542359311845
 40
0.2742011378173386
 40
0.3213535421419942
 40
0.3688631981537088
 40
0.4236350575688463
 40
0.4510041609017741
 40
0.4792023732510952
 40
0.5037395272588899
 40
0.5283784873449705
 40
0.54455756355388
 40
0.5611739038848461
 40
0.6013084251860197
 40
0.6425658183218371
 40
0.6854492331527472
 40
0.7286418616755094
 40
0.7726536612270513
 40
0.8169070325448948
 40
0.8619574650676609
 40
0.907272189039671
 40
0.953468941882587
 40
1.0
 40
1.0
 40
1.0
 40
1.0
 10
294.5466137426507
 20
458.2475188929485
 30
0.0
 10
294.6074686849688
 20
458.1905069175282
 30
0.0
 10
294.7296235747066
 20
458.0760660634917
 30
0.0
 10
294.9068080649834
 20
457.9134239107984
 30
0.0
 10
295.0782582860007
 20
457.7566847137969
 30
0.0
 10
295.2411772987398
 20
457.607606573355
 30
0.0
 10
295.3936831403921
 20
457.4669983985011
 30
0.0
 10
295.5354058382418
 20
457.3349955926743
 30
0.0
 10
295.6658908188856
 20
457.212564489788
 30
0.0
 10
295.7896845517482
 20
457.0982156817628
 30
0.0
 10
295.8829611213739
 20
457.0195200483548
 30
0.0
 10
295.9508912374721
 20
456.9842907432152
 30
0.0
 10
295.9933167731477
 20
456.9858111976796
 30
0.0
 10
296.0237228156798
 20
457.0326747691049
 30
0.0
 10
296.0357460140067
 20
457.1168771616937
 30
0.0
 10
296.0364973853086
 20
457.2099837773286
 30
0.0
 10
296.0295503487789
 20
457.3394006198594
 30
0.0
 10
296.0055500832466
 20
457.5267768079883
 30
0.0
 10
295.9569211301313
 20
457.7678657610783
 30
0.0
 10
295.8907056683017
 20
458.0145101295225
 30
0.0
 10
295.8074975042769
 20
458.2632981413491
 30
0.0
 10
295.7083487137087
 20
458.5099719419182
 30
0.0
 10
295.5929955063585
 20
458.7538643954281
 30
0.0
 10
295.4620875398227
 20
458.9925149379436
 30
0.0
 10
295.3149082193271
 20
459.2249695018021
 30
0.0
 10
295.1532876798276
 20
459.4498656125213
 30
0.0
 10
295.0340768173589
 20
459.5893263200489
 30
0.0
 10
294.9742564947146
 20
459.6593080679179
 30
0.0
  0
SPLINE
  5
247
330
1F
100
AcDbEntity
  8
0
  6
Continuous
 62
     7
370
    25
100
AcDbSpline
210
0.0
220
0.0
230
1.0
 70
     8
 71
     3
 72
    15
 73
    11
 74
     0
 42
0.000000001
 43
0.00000001
 40
0.0
 40
0.0
 40
0.0
 40
0.0
 40
0.2153296810342022
 40
0.3327055588565129
 40
0.4327106172888244
 40
0.5331289091056255
 40
0.6249491950544154
 40
0.7533679527278487
 40
0.9418458044828124
 40
1.0
 40
1.0
 40
1.0
 40
1.0
 10
294.3099955405888
 20
458.0830406291488
 30
0.0
 10
294.3005619022677
 20
458.1235357601525
 30
0.0
 10
294.2859860022128
 20
458.1861047247598
 30
0.0
 10
294.2933800810366
 20
458.260648388563
 30
0.0
 10
294.3131978276891
 20
458.3050468715739
 30
0.0
 10
294.3450269165853
 20
458.3300084453429
 30
0.0
 10
294.389175612328
 20
458.3370891966199
 30
0.0
 10
294.4506675319492
 20
458.3208393837171
 30
0.0
 10
294.5057053725833
 20
458.2847248597675
 30
0.0
 10
294.5388082940536
 20
458.2546179110964
 30
0.0
 10
294.5466137426507
 20
458.2475188929485
 30
0.0
  0
LWPOLYLINE
  5
248
330
1F
100
AcDbEntity
  8
0
  6
Continuous
 62
     7
370
    25
100
AcDbPolyline
 90
       16
 70
   128
 43
0.0
 10
288.6677100651
 20
334.952367003
 10
288.6767517205
 20
334.8690455186
 10
288.7294275507
 20
334.736667528
 10
288.8275021016
 20
334.6113339834
 10
288.9677723942
 20
334.4971381049
 10
289.1456573953
 20
334.3978093716
 10
289.3553476269
 20
334.3165917223
 10
289.5899948966
 20
334.256137613
 10
289.8419359497
 20
334.2184213912
 10
290.1029427403
 20
334.2046748163
 10
290.3644911483
 20
334.2153468325
 10
290.6180393648
 20
334.2500889066
 10
290.8553068564
 20
334.3077664105
 10
291.0685447955
 20
334.3864956768
 10
291.2507891264
 20
334.4837055167
 10
291.3960880016
 20
334.5962211916
  0
LWPOLYLINE
  5
249
330
1F
100
AcDbEntity
  8
0
  6
Continuous
 62
     7
370
    25
100
AcDbPolyline
 90
       15
 70
   128
 43
0.0
 10
291.8153339713
 20
334.6125435024
 10
291.991821736
 20
334.5125557989
 10
292.2003678214
 20
334.4305604227
 10
292.4341614011
 20
334.3692352291
 10
292.6855671006
 20
334.3305830141
 10
292.9463743582
 20
334.3158661054
 10
293.2080655701
 20
334.3255651369
 10
293.4620942637
 20
334.3593633516
 10
293.7001642138
 20
334.4161569468
 10
293.9145003857
 20
334.4940911221
 10
294.0981028568
 20
334.5906206555
 10
294.2449754249
 20
334.702593026
 10
294.3503214352
 20
334.8263513713
 10
294.410700433
 20
334.957853915
 10
294.4252577383
 20
335.0634771219
  0
ARC
  5
24A
330
1F
100
AcDbEntity
  8
0
  6
Continuous
 62
     7
370
    25
100
AcDbCircle
 10
291.6184497954
 20
334.2771802499
 30
0.0
 40
0.3888854456055064
100
AcDbArc
 50
59.5837691787
 51
124.8753193101
  0
ARC
  5
24B
330
1F
100
AcDbEntity
  8
0
  6
Continuous
 62
     7
370
    25
100
AcDbCircle
 10
288.4783697401
 20
334.9228927084
 30
0.0
 40
0.3768522690181469
100
AcDbArc
 50
59.8393762428
 51
97.8704937926
  0
LWPOLYLINE
  5
24C
330
1F
100
AcDbEntity
  8
0
  6
Continuous
 62
     7
370
    25
100
AcDbPolyline
 90
       11
 70
   128
 43
0.0
 10
286.7196578954
 20
336.032284998
 10
286.7299053407
 20
335.9435999607
 10
286.78443575
 20
335.8114213243
 10
286.8842649327
 20
335.6864557896
 10
287.0261326059
 20
335.5727845577
 10
287.2054055679
 20
335.4741199738
 10
287.4162290122
 20
335.3936842863
 10
287.651717737
 20
335.3341044134
 10
287.9041810069
 20
335.2973261514
 10
288.1653737212
 20
335.2845506271
 10
288.4267656876
 20
335.2961950716
  0
ARC
  5
24D
330
1F
100
AcDbEntity
  8
0
  6
Continuous
 62
     7
370
    25
100
AcDbCircle
 10
294.5373599061
 20
335.0926674463
 30
0.0
 40
0.4418857642076044
100
AcDbArc
 50
88.8000415864
 51
104.6959979181
  0
LWPOLYLINE
  5
24E
330
1F
100
AcDbEntity
  8
0
  6
Continuous
 62
     7
370
    25
100
AcDbPolyline
 90
       10
 70
   128
 43
0.0
 10
294.5466137427
 20
335.5344563044
 10
294.8084341133
 20
335.5431818454
 10
295.0629300385
 20
335.5760344386
 10
295.3017900337
 20
335.6319411636
 10
295.5172132625
 20
335.7090761844
 10
295.7021643005
 20
335.8049203779
 10
295.8506029032
 20
335.9163436057
 10
295.9576812712
 20
336.0397069394
 10
296.0199023735
 20
336.1709815034
 10
296.0359779973
 20
336.2819471689
  0
SPLINE
  5
24F
330
1F
100
AcDbEntity
  8
0
  6
Continuous
 62
     7
370
    25
100
AcDbSpline
210
0.0
220
0.0
230
1.0
 70
     8
 71
     3
 72
    15
 73
    11
 74
     0
 42
0.000000001
 43
0.00000001
 40
0.0
 40
0.0
 40
0.0
 40
0.0
 40
0.1277818309851224
 40
0.256495046363677
 40
0.3879527859027193
 40
0.5202880999938848
 40
0.6501478872072902
 40
0.7808468990329303
 40
0.9144792643876797
 40
1.0
 40
1.0
 40
1.0
 40
1.0
 10
579.195207317278
 20
382.4128113432891
 30
0.0
 10
579.2405349489617
 20
382.380960483748
 30
0.0
 10
579.3315205992737
 20
382.3170266080809
 30
0.0
 10
579.4480462612385
 20
382.2255731572517
 30
0.0
 10
579.5496101666588
 20
382.1367924382848
 30
0.0
 10
579.6329159055975
 20
382.0520580240687
 30
0.0
 10
579.6980015439357
 20
381.9717891853718
 30
0.0
 10
579.7433728794318
 20
381.897001384902
 30
0.0
 10
579.7690917192693
 20
381.8348130502557
 30
0.0
 10
579.7687497233218
 20
381.8037998609978
 30
0.0
 10
579.7686162652741
 20
381.7916974962705
 30
0.0
  0
SPLINE
  5
250
330
1F
100
AcDbEntity
  8
0
  6
Continuous
 62
     7
370
    25
100
AcDbSpline
210
0.0
220
0.0
230
1.0
 70
     8
 71
     3
 72
    14
 73
    10
 74
     0
 42
0.000000001
 43
0.00000001
 40
0.0
 40
0.0
 40
0.0
 40
0.0
 40
0.2204300636817458
 40
0.3399443732550967
 40
0.4603671101703433
 40
0.5640212293775712
 40
0.6631726788872091
 40
0.8102691653343722
 40
1.0
 40
1.0
 40
1.0
 40
1.0
 10
579.2268987815052
 20
382.2141181796964
 30
0.0
 10
579.2000346573478
 20
382.2475900842278
 30
0.0
 10
579.1586051549597
 20
382.2992100194468
 30
0.0
 10
579.1157120102856
 20
382.3680587177402
 30
0.0
 10
579.0964233622994
 20
382.4119772538964
 30
0.0
 10
579.0947070110225
 20
382.4390850036859
 30
0.0
 10
579.1077862873672
 20
382.4518931208433
 30
0.0
 10
579.1401038737645
 20
382.4472626173828
 30
0.0
 10
579.1753522980061
 20
382.4252249179672
 30
0.0
 10
579.195207317278
 20
382.4128113432891
 30
0.0
  0
SPLINE
  5
251
330
1F
100
AcDbEntity
  8
0
  6
Continuous
 62
     7
370
    25
100
AcDbSpline
210
0.0
220
0.0
230
1.0
 70
     8
 71
     3
 72
    32
 73
    28
 74
     0
 42
0.000000001
 43
0.00000001
 40
0.0
 40
0.0
 40
0.0
 40
0.0
 40
0.043030190696158
 40
0.0863703585232864
 40
0.1306473267282202
 40
0.1752340698039841
 40
0.2184985703256627
 40
0.262071011674833
 40
0.306759016167324
 40
0.3519305753622398
 40
0.3854008499168476
 40
0.4193042262219384
 40
0.4528401599354733
 40
0.4875658065129699
 40
0.510625286155171
 40
0.5343668716440475
 40
0.5574221930535518
 40
0.5810244918902251
 40
0.617599545673063
 40
0.6551634288326483
 40
0.7176981382171268
 40
0.781868609074917
 40
0.8252522659086734
 40
0.86894657620278
 40
0.9135854729028708
 40
0.9585418566971341
 40
1.0
 40
1.0
 40
1.0
 40
1.0
 10
578.1758470708864
 20
380.9251278413634
 30
0.0
 10
578.2304810472662
 20
380.8741679940061
 30
0.0
 10
578.3401425674949
 20
380.7718811991923
 30
0.0
 10
578.5071822027273
 20
380.6273895599901
 30
0.0
 10
578.6752316053253
 20
380.4895737562483
 30
0.0
 10
578.8411289285026
 20
380.3617858775394
 30
0.0
 10
579.0029722840347
 20
380.245265181815
 30
0.0
 10
579.1608980726389
 20
380.1405607648878
 30
0.0
 10
579.3160150579996
 20
380.0488170817915
 30
0.0
 10
579.4536682240201
 20
379.9810219901989
 30
0.0
 10
579.5735047770714
 20
379.9374617926562
 30
0.0
 10
579.6754771034139
 20
379.9167075635728
 30
0.0
 10
579.7710952871931
 20
379.9204492887562
 30
0.0
 10
579.846395830617
 20
379.9535979833342
 30
0.0
 10
579.9017028347769
 20
380.0098847286085
 30
0.0
 10
579.939174679915
 20
380.076386646326
 30
0.0
 10
579.9659927315672
 20
380.1592169567494
 30
0.0
 10
579.9850900738824
 20
380.2713478340626
 30
0.0
 10
579.990099583641
 20
380.4180604332988
 30
0.0
 10
579.9723618278268
 20
380.6359738708859
 30
0.0
 10
579.9179806043411
 20
380.9073263767339
 30
0.0
 10
579.8273653543902
 20
381.187609188051
 30
0.0
 10
579.7243671346989
 20
381.4319365007111
 30
0.0
 10
579.6199485545894
 20
381.6398865540066
 30
0.0
 10
579.4998120081881
 20
381.8436530410011
 30
0.0
 10
579.369102919401
 20
382.036909880918
 30
0.0
 10
579.2730033909476
 20
382.1566647221106
 30
0.0
 10
579.2268987815052
 20
382.2141181796964
 30
0.0
  0
SPLINE
  5
252
330
1F
100
AcDbEntity
  8
0
  6
Continuous
 62
     7
370
    25
100
AcDbSpline
210
0.0
220
0.0
230
1.0
 70
     8
 71
     3
 72
    14
 73
    10
 74
     0
 42
0.000000001
 43
0.00000001
 40
0.0
 40
0.0
 40
0.0
 40
0.0
 40
0.2240635092469523
 40
0.3487071205323919
 40
0.4742528072797613
 40
0.5825492860623619
 40
0.6866084231149978
 40
0.8379727149431421
 40
1.0
 40
1.0
 40
1.0
 40
1.0
 10
577.8678266777016
 20
380.7851351162279
 30
0.0
 10
577.8652800810179
 20
380.825643970664
 30
0.0
 10
577.861316845774
 20
380.888687373108
 30
0.0
 10
577.8903662258695
 20
380.9614616515841
 30
0.0
 10
577.9301128100929
 20
381.0010379375868
 30
0.0
 10
577.9808992123675
 20
381.0164336338469
 30
0.0
 10
578.0405592870006
 20
381.0111922547498
 30
0.0
 10
578.1089894247817
 20
380.9821885949873
 30
0.0
 10
578.1530613470735
 20
380.9445746907274
 30
0.0
 10
578.1758470708864
 20
380.9251278413634
 30
0.0
  0
SPLINE
  5
253
330
1F
100
AcDbEntity
  8
0
  6
Continuous
 62
     7
370
    25
100
AcDbSpline
210
0.0
220
0.0
230
1.0
 70
     8
 71
     3
 72
    31
 73
    27
 74
     0
 42
0.000000001
 43
0.00000001
 40
0.0
 40
0.0
 40
0.0
 40
0.0
 40
0.0425768439200439
 40
0.0854562266634115
 40
0.1292655212992949
 40
0.1733896051365768
 40
0.2448927928827606
 40
0.2814175395970669
 40
0.3182118727426288
 40
0.3578509173303837
 40
0.3981484105824845
 40
0.4288224096626683
 40
0.4602420416076203
 40
0.485604208325871
 40
0.511693631532681
 40
0.5370616943792798
 40
0.5630949909788183
 40
0.5995472643023538
 40
0.6370102149324076
 40
0.6959998903666224
 40
0.7565561265102893
 40
0.7981804952569004
 40
0.8401079728424145
 40
0.8829363933458958
 40
0.92605885112625
 40
1.0
 40
1.0
 40
1.0
 40
1.0
 10
575.1147360263275
 20
380.3467496763398
 30
0.0
 10
575.1389203030835
 20
380.2786370902966
 30
0.0
 10
575.1874607031197
 20
380.1419279297381
 30
0.0
 10
575.2806413821642
 20
379.9401817344756
 30
0.0
 10
575.3884937149026
 20
379.7413902194064
 30
0.0
 10
575.5375537313215
 20
379.5078742288006
 30
0.0
 10
575.7007366577731
 20
379.2978923329493
 30
0.0
 10
575.8743057567332
 20
379.1151194402389
 30
0.0
 10
576.0198375026037
 20
378.9836098063429
 30
0.0
 10
576.1816995390889
 20
378.8629407166039
 30
0.0
 10
576.3472894044623
 20
378.7689998969531
 30
0.0
 10
576.5103943626071
 20
378.7058886881323
 30
0.0
 10
576.6560597723693
 20
378.6751765619729
 30
0.0
 10
576.7963600833522
 20
378.6710895888472
 30
0.0
 10
576.9249946685263
 20
378.6902864642478
 30
0.0
 10
577.0492530276505
 20
378.7323636545077
 30
0.0
 10
577.1805590295555
 20
378.8025504812967
 30
0.0
 10
577.3145150799185
 20
378.9074120625727
 30
0.0
 10
577.4677845867574
 20
379.0735705384832
 30
0.0
 10
577.6144285895863
 20
379.2976485104073
 30
0.0
 10
577.7272473022962
 20
379.5470555398759
 30
0.0
 10
577.8022338875326
 20
379.7787537721392
 30
0.0
 10
577.8502934056346
 20
379.9863221394955
 30
0.0
 10
577.8805075329107
 20
380.1990563528217
 30
0.0
 10
577.8976734684749
 20
380.4669161795636
 30
0.0
 10
577.8793808716998
 20
380.661947221218
 30
0.0
 10
577.8678266777016
 20
380.7851351162279
 30
0.0
  0
SPLINE
  5
254
330
1F
100
AcDbEntity
  8
0
  6
Continuous
 62
     7
370
    25
100
AcDbSpline
210
0.0
220
0.0
230
1.0
 70
     8
 71
     3
 72
    14
 73
    10
 74
     0
 42
0.000000001
 43
0.00000001
 40
0.0
 40
0.0
 40
0.0
 40
0.0
 40
0.2236978580034421
 40
0.3528357075717408
 40
0.4829964006465981
 40
0.593602086647901
 40
0.6970463839856658
 40
0.8440092931474839
 40
1.0
 40
1.0
 40
1.0
 40
1.0
 10
574.6989494142688
 20
380.3714877685649
 30
0.0
 10
574.7227203641539
 20
380.4068294181994
 30
0.0
 10
574.760213972708
 20
380.4625733402326
 30
0.0
 10
574.8393986361614
 20
380.5117331794476
 30
0.0
 10
574.9092107277902
 20
380.527185794029
 30
0.0
 10
574.9738681328361
 20
380.5154432294059
 30
0.0
 10
575.0323143418818
 20
380.4818997264194
 30
0.0
 10
575.083186698119
 20
380.4251812747531
 30
0.0
 10
575.1040127168479
 20
380.3734078129949
 30
0.0
 10
575.1147360263275
 20
380.3467496763398
 30
0.0
  0
SPLINE
  5
255
330
1F
100
AcDbEntity
  8
0
  6
Continuous
 62
     7
370
    25
100
AcDbSpline
210
0.0
220
0.0
230
1.0
 70
     8
 71
     3
 72
    32
 73
    28
 74
     0
 42
0.000000001
 43
0.00000001
 40
0.0
 40
0.0
 40
0.0
 40
0.0
 40
0.0436175577132321
 40
0.0875445180727384
 40
0.1324232365607125
 40
0.1776249957013634
 40
0.2471068321983877
 40
0.2825457174670877
 40
0.3182339115864938
 40
0.354373256436595
 40
0.3910498564409279
 40
0.4195472303548421
 40
0.4487320066823391
 40
0.4718441160741424
 40
0.4956184451052902
 40
0.5187364415274859
 40
0.5424579544801694
 40
0.5764259662049838
 40
0.6113254577453294
 40
0.6689154864260256
 40
0.7279987346838468
 40
0.7704822564694337
 40
0.8132756786605959
 40
0.8569852155483487
 40
0.9009924730134482
 40
0.9502698003771111
 40
0.9999999999999999
 40
0.9999999999999999
 40
0.9999999999999999
 40
0.9999999999999999
 10
572.3169532354399
 20
381.1138204047942
 30
0.0
 10
572.2929810126782
 20
381.0417924922663
 30
0.0
 10
572.2448665193677
 20
380.897225734735
 30
0.0
 10
572.195941388548
 20
380.6729016773792
 30
0.0
 10
572.1644282688738
 20
380.4436247074397
 30
0.0
 10
572.1510082762372
 20
380.1692900480875
 30
0.0
 10
572.1672862203947
 20
379.9117718230398
 30
0.0
 10
572.209656450331
 20
379.6759406821534
 30
0.0
 10
572.2571750601418
 20
379.5003624959493
 30
0.0
 10
572.3224467485721
 20
379.3298414637969
 30
0.0
 10
572.4020602014775
 20
379.1812324974975
 30
0.0
 10
572.4940635124722
 20
379.0576225621904
 30
0.0
 10
572.5875840777427
 20
378.9681852439562
 30
0.0
 10
572.6875752141066
 20
378.903842558811
 30
0.0
 10
572.7876922407714
 20
378.8642302521767
 30
0.0
 10
572.8937165504556
 20
378.8454338782952
 30
0.0
 10
573.0172700221066
 20
378.8467126828428
 30
0.0
 10
573.1583963686397
 20
378.8758023950756
 30
0.0
 10
573.3458784546127
 20
378.9489249846389
 30
0.0
 10
573.5612060630718
 20
379.0754515780157
 30
0.0
 10
573.7748989872691
 20
379.240733105058
 30
0.0
 10
573.9594732052616
 20
379.4089448914954
 30
0.0
 10
574.1172944626455
 20
379.570707372231
 30
0.0
 10
574.269277135246
 20
379.7443418257135
 30
0.0
 10
574.4193797299943
 20
379.9359317489682
 30
0.0
 10
574.565838702479
 20
380.1444202129251
 30
0.0
 10
574.654444079811
 20
380.2955681271446
 30
0.0
 10
574.6989494142688
 20
380.3714877685649
 30
0.0
  0
SPLINE
  5
256
330
1F
100
AcDbEntity
  8
0
  6
Continuous
 62
     7
370
    25
100
AcDbSpline
210
0.0
220
0.0
230
1.0
 70
     8
 71
     3
 72
    14
 73
    10
 74
     0
 42
0.000000001
 43
0.00000001
 40
0.0
 40
0.0
 40
0.0
 40
0.0
 40
0.2198296104786987
 40
0.3499177958293976
 40
0.458898316134544
 40
0.5683999765788542
 40
0.6667094681233411
 40
0.7967198733581304
 40
0.9999999999999999
 40
0.9999999999999999
 40
0.9999999999999999
 40
0.9999999999999999
 10
572.106496203887
 20
381.284048024822
 30
0.0
 10
572.1373376782348
 20
381.3067747562494
 30
0.0
 10
572.1864301580894
 20
381.3429504459125
 30
0.0
 10
572.2527184679458
 20
381.3597669208074
 30
0.0
 10
572.297699270082
 20
381.3530649967448
 30
0.0
 10
572.3281364972468
 20
381.3266214615016
 30
0.0
 10
572.344832049751
 20
381.2816085986172
 30
0.0
 10
572.3463878087942
 20
381.2100046899166
 30
0.0
 10
572.328104541804
 20
381.150259880845
 30
0.0
 10
572.3169532354399
 20
381.1138204047942
 30
0.0
  0
SPLINE
  5
257
330
1F
100
AcDbEntity
  8
0
  6
Continuous
 62
     7
370
    25
100
AcDbSpline
210
0.0
220
0.0
230
1.0
 70
     8
 71
     3
 72
    33
 73
    29
 74
     0
 42
0.000000001
 43
0.00000001
 40
0.0
 40
0.0
 40
0.0
 40
0.0
 40
0.0453846795158938
 40
0.0910956457676784
 40
0.1377861112474277
 40
0.1847984484385195
 40
0.2588563244582868
 40
0.2965960583089313
 40
0.3345934417298371
 40
0.3627068189222379
 40
0.3910552764359763
 40
0.4192115960367055
 40
0.4481447873352596
 40
0.4657876556062926
 40
0.4839178616272548
 40
0.5015746029079483
 40
0.5197390882526028
 40
0.5448263126108224
 40
0.5705932132964157
 40
0.6177342306538917
 40
0.6659981837889724
 40
0.7087532480229952
 40
0.7518249524472241
 40
0.7957808044145228
 40
0.8400079168875103
 40
0.9191109597848047
 40
0.9594357012421676
 40
0.9999999999999999
 40
0.9999999999999999
 40
0.9999999999999999
 40
0.9999999999999999
 10
571.8892862041301
 20
382.6429372315239
 30
0.0
 10
571.8317220462222
 20
382.5828238996308
 30
0.0
 10
571.7161798810328
 20
382.4621650595449
 30
0.0
 10
571.5526763969017
 20
382.2638917863328
 30
0.0
 10
571.3972522065917
 20
382.05335682417
 30
0.0
 10
571.2246471567859
 20
381.7882737188675
 30
0.0
 10
571.0798226562675
 20
381.5251556340369
 30
0.0
 10
570.9619801401194
 20
381.270350048996
 30
0.0
 10
570.8897211834832
 20
381.0916150519931
 30
0.0
 10
570.8324834604381
 20
380.9291135536794
 30
0.0
 10
570.7885646317952
 20
380.7851657387823
 30
0.0
 10
570.7531413816271
 20
380.6445467901617
 30
0.0
 10
570.7322349992016
 20
380.5306955547785
 30
0.0
 10
570.7236499931031
 20
380.4458323398781
 30
0.0
 10
570.7233939040708
 20
380.3876692068249
 30
0.0
 10
570.7303021105326
 20
380.3435484642511
 30
0.0
 10
570.7456016615297
 20
380.310657271942
 30
0.0
 10
570.7716875102298
 20
380.2941080110795
 30
0.0
 10
570.8198390063623
 20
380.2968888611539
 30
0.0
 10
570.8948701144046
 20
380.3332122281945
 30
0.0
 10
570.997523398498
 20
380.4025141831358
 30
0.0
 10
571.1108474654654
 20
380.4868402432925
 30
0.0
 10
571.2319313308024
 20
380.5803533863171
 30
0.0
 10
571.3652387334541
 20
380.6850078975555
 30
0.0
 10
571.54798434317
 20
380.829725472632
 30
0.0
 10
571.7434207086784
 20
380.9861014346866
 30
0.0
 10
571.9461447992371
 20
381.1508298976347
 30
0.0
 10
572.0529403087634
 20
381.2395543949484
 30
0.0
 10
572.106496203887
 20
381.284048024822
 30
0.0
  0
SPLINE
  5
258
330
1F
100
AcDbEntity
  8
0
  6
Continuous
 62
     7
370
    25
100
AcDbSpline
210
0.0
220
0.0
230
1.0
 70
     8
 71
     3
 72
    15
 73
    11
 74
     0
 42
0.000000001
 43
0.00000001
 40
0.0
 40
0.0
 40
0.0
 40
0.0
 40
0.2148110296556948
 40
0.3411322673416837
 40
0.4464287003092659
 40
0.5523542512427219
 40
0.6447889097414286
 40
0.7660552293890287
 40
0.9403894463275569
 40
1.0
 40
1.0
 40
1.0
 40
1.0
 10
572.0426371903865
 20
382.8300457403791
 30
0.0
 10
572.05791381655
 20
382.8427754841419
 30
0.0
 10
572.0821739773472
 20
382.8629910492337
 30
0.0
 10
572.0924190346825
 20
382.8651083604256
 30
0.0
 10
572.0858433072888
 20
382.8521704680694
 30
0.0
 10
572.0645545904581
 20
382.8257906186807
 30
0.0
 10
572.0297096960772
 20
382.7871549057944
 30
0.0
 10
571.9784302328437
 20
382.7332743787122
 30
0.0
 10
571.9286776343638
 20
382.6826959486323
 30
0.0
 10
571.8972851902562
 20
382.6510108004362
 30
0.0
 10
571.8892862041301
 20
382.6429372315239
 30
0.0
  0
SPLINE
  5
259
330
1F
100
AcDbEntity
  8
0
  6
Continuous
 62
     7
370
    25
100
AcDbSpline
210
0.0
220
0.0
230
1.0
 70
     8
 71
     3
 72
    10
 73
     6
 74
     0
 42
0.000000001
 43
0.00000001
 40
0.0
 40
0.0
 40
0.0
 40
0.0
 40
0.0667241633593028
 40
0.4413868116907047
 40
1.0
 40
1.0
 40
1.0
 40
1.0
 10
571.8352277921116
 20
382.5850554394584
 30
0.0
 10
571.8378083178035
 20
382.5904751992322
 30
0.0
 10
571.8548787455203
 20
382.6263274357572
 30
0.0
 10
571.9152436753445
 20
382.7075939777216
 30
0.0
 10
571.9949367941657
 20
382.7841957016643
 30
0.0
 10
572.0426371903865
 20
382.8300457403791
 30
0.0
  0
LWPOLYLINE
  5
25A
330
1F
100
AcDbEntity
  8
0
  6
Continuous
 62
     7
370
    25
100
AcDbPolyline
 90
       17
 70
   128
 43
0.0
 10
575.1147360263
 20
257.3805477137
 10
575.2435994329
 20
257.262840221
 10
575.4114909318
 20
257.1589998502
 10
575.6129274192
 20
257.0724178842
 10
575.8413302586
 20
257.0059219698
 10
576.0892401295
 20
256.9616837717
 10
576.348560639
 20
256.941148048
 10
576.6108227385
 20
256.9449854671
 10
576.867461311
 20
256.9730707042
 10
577.1100948964
 20
257.0244865342
 10
577.3307994179
 20
257.0975537875
 10
577.5223669714
 20
257.1898861888
 10
577.678541226
 20
257.2984682896
 10
577.794221747
 20
257.4197539492
 10
577.8656305688
 20
257.5497821457
 10
577.8904355781
 20
257.6843063384
 10
577.8904483976
 20
257.687448616
  0
LWPOLYLINE
  5
25B
330
1F
100
AcDbEntity
  8
0
  6
Continuous
 62
     7
370
    25
100
AcDbPolyline
 90
       15
 70
   128
 43
0.0
 10
572.1564494507
 20
257.9062020669
 10
572.1598272026
 20
257.8552254071
 10
572.20129277
 20
257.7217942304
 10
572.288708145
 20
257.5943855581
 10
572.4192184626
 20
257.477160381
 10
572.5885614367
 20
257.3739471111
 10
572.7912065602
 20
257.2881165508
 10
573.0205357242
 20
257.2224718072
 10
573.2690593557
 20
257.1791567468
 10
573.5286610174
 20
257.1595859794
 10
573.7908624785
 20
257.1643986592
 10
574.0471006024
 20
257.1934376107
 10
574.2890070071
 20
257.245754462
 10
574.5086813645
 20
257.3196406172
 10
574.6989494143
 20
257.4126830569
  0
ARC
  5
25C
330
1F
100
AcDbEntity
  8
0
  6
Continuous
 62
     7
370
    25
100
AcDbCircle
 10
574.8821717416
 20
257.0774072594
 30
0.0
 40
0.3820736598574096
100
AcDbArc
 50
52.5051832161
 51
118.655828585
  0
ARC
  5
25D
330
1F
100
AcDbEntity
  8
0
  6
Continuous
 62
     7
370
    25
100
AcDbCircle
 10
578.1052718384
 20
257.6257524553
 30
0.0
 40
0.3478063364627685
100
AcDbArc
 50
78.2925092536
 51
128.1449069167
  0
LWPOLYLINE
  5
25E
330
1F
100
AcDbEntity
  8
0
  6
Continuous
 62
     7
370
    25
100
AcDbPolyline
 90
       12
 70
   128
 43
0.0
 10
578.1758470709
 20
257.9663231296
 10
578.4348729068
 20
257.9448235205
 10
578.6971819698
 20
257.9476854787
 10
578.9542076094
 20
257.9748155369
 10
579.1975557241
 20
258.0253276648
 10
579.4192789017
 20
258.0975722063
 10
579.6121359702
 20
258.1891897548
 10
579.7698284851
 20
258.297188208
 10
579.8872064271
 20
258.4180404861
 10
579.9604363953
 20
258.5477997211
 10
579.9871268004
 20
258.682228156
 10
579.9872215248
 20
258.6907696554
  0
LINE
  5
25F
330
1F
100
AcDbEntity
  8
0
  6
Continuous
 62
     7
370
    25
100
AcDbLine
 10
572.1064962039
 20
258.4354115206
 30
0.0
 11
572.1564494507
 21
258.4315538237
 31
0.0
  0
LWPOLYLINE
  5
260
330
1F
100
AcDbEntity
  8
0
  6
Continuous
 62
     7
370
    25
100
AcDbPolyline
 90
       10
 70
   128
 43
0.0
 10
570.7238149306
 20
259.1823041978
 10
570.7279451424
 20
259.1259420777
 10
570.771280347
 20
258.9926685913
 10
570.8604797252
 20
258.8655883411
 10
570.9926301489
 20
258.7488515921
 10
571.1634157682
 20
258.6462708047
 10
571.3672589615
 20
258.5611961255
 10
571.5975024924
 20
258.4964059755
 10
571.8466269262
 20
258.4540163113
 10
572.1064962039
 20
258.4354115206
  0
SPLINE
  5
261
330
1F
100
AcDbEntity
  8
0
  6
Continuous
 62
     7
370
    25
100
AcDbSpline
210
0.0
220
0.0
230
1.0
 70
     8
 71
     3
 72
    33
 73
    29
 74
     0
 42
0.000000001
 43
0.00000001
 40
0.0
 40
0.0
 40
0.0
 40
0.0
 40
0.0441213647301354
 40
0.0885643240892563
 40
0.1339549310956365
 40
0.1796485529093146
 40
0.2244874082555624
 40
0.2696160366855215
 40
0.315757513029325
 40
0.3623227711932686
 40
0.3904545578735079
 40
0.4187956069173936
 40
0.4469628201082497
 40
0.4757844533845136
 40
0.493761308793088
 40
0.5122052114429315
 40
0.5302047120128128
 40
0.5487727969964205
 40
0.5721373294162879
 40
0.5961490192902609
 40
0.6384785624500862
 40
0.681824941459977
 40
0.7221252442697331
 40
0.762726999885188
 40
0.8041331317540479
 40
0.8457735509867422
 40
0.922143064946247
 40
0.9999999999999999
 40
0.9999999999999999
 40
0.9999999999999999
 40
0.9999999999999999
 10
437.5295487433792
 20
605.4727567425691
 30
0.0
 10
437.484221365406
 20
605.4029479877801
 30
0.0
 10
437.3932362243639
 20
605.2628216516792
 30
0.0
 10
437.2767066941617
 20
605.0387737256586
 30
0.0
 10
437.1751578470736
 20
604.8052472813392
 30
0.0
 10
437.0917955863699
 20
604.564689794797
 30
0.0
 10
437.0269177932979
 20
604.320137097394
 30
0.0
 10
436.9807632336277
 20
604.0717792917085
 30
0.0
 10
436.9544176360757
 20
603.8190151158412
 30
0.0
 10
436.9510326613383
 20
603.5983175903921
 30
0.0
 10
436.9637965463534
 20
603.4134604370995
 30
0.0
 10
436.9853829227048
 20
603.2653408718426
 30
0.0
 10
437.02033523117
 20
603.122876038758
 30
0.0
 10
437.0653462939429
 20
603.0086188651626
 30
0.0
 10
437.1163641513564
 20
602.9239514239335
 30
0.0
 10
437.1667059944318
 20
602.866433396534
 30
0.0
 10
437.2243816844864
 20
602.8247487345712
 30
0.0
 10
437.2924732472735
 20
602.7983638271803
 30
0.0
 10
437.3712175183225
 20
602.7912846848145
 30
0.0
 10
437.4805218827083
 20
602.8080864693002
 30
0.0
 10
437.6156628419405
 20
602.8615312533087
 30
0.0
 10
437.7714546699767
 20
602.9519548702798
 30
0.0
 10
437.9262401012069
 20
603.0600392188393
 30
0.0
 10
438.0797561768471
 20
603.1801418927415
 30
0.0
 10
438.2360269823005
 20
603.3129773201205
 30
0.0
 10
438.4380872772114
 20
603.4973113928272
 30
0.0
 10
438.6873714000115
 20
603.742623852044
 30
0.0
 10
438.8765153064722
 20
603.9580850793426
 30
0.0
 10
438.9719993491597
 20
604.0668546897934
 30
0.0
  0
SPLINE
  5
262
330
1F
100
AcDbEntity
  8
0
  6
Continuous
 62
     7
370
    25
100
AcDbSpline
210
0.0
220
0.0
230
1.0
 70
     8
 71
     3
 72
    14
 73
    10
 74
     0
 42
0.000000001
 43
0.00000001
 40
0.0
 40
0.0
 40
0.0
 40
0.0
 40
0.2204300636817301
 40
0.3399443732551307
 40
0.4603671101703016
 40
0.5640212293775922
 40
0.6631726788872232
 40
0.8102691653343759
 40
1.0
 40
1.0
 40
1.0
 40
1.0
 10
437.4978572791521
 20
605.7059188531763
 30
0.0
 10
437.5247214033095
 20
605.7207465368109
 30
0.0
 10
437.5661509056977
 20
605.7436135973915
 30
0.0
 10
437.6090440503718
 20
605.74106808787
 30
0.0
 10
437.6283326983578
 20
605.7196696038274
 30
0.0
 10
437.6300490496349
 20
605.6817870703142
 30
0.0
 10
437.6169697732902
 20
605.6300591583681
 30
0.0
 10
437.584652186893
 20
605.5580047091613
 30
0.0
 10
437.5494037626513
 20
605.5034735165427
 30
0.0
 10
437.5295487433792
 20
605.472756742569
 30
0.0
  0
SPLINE
  5
263
330
1F
100
AcDbEntity
  8
0
  6
Continuous
 62
     7
370
    25
100
AcDbSpline
210
0.0
220
0.0
230
1.0
 70
     8
 71
     3
 72
    16
 73
    12
 74
     0
 42
0.000000001
 43
0.00000001
 40
0.0
 40
0.0
 40
0.0
 40
0.0
 40
0.0721358700411952
 40
0.1632816293397611
 40
0.3150171020849058
 40
0.4707216192678328
 40
0.5759885941027246
 40
0.6820093447227864
 40
0.790322058738391
 40
0.8994051298052773
 40
1.0
 40
1.0
 40
1.0
 40
1.0
 10
436.7431094645939
 20
605.2028152769169
 30
0.0
 10
436.7403490757192
 20
605.1967294312248
 30
0.0
 10
436.7341008556199
 20
605.1829539433853
 30
0.0
 10
436.7531377556463
 20
605.192745970757
 30
0.0
 10
436.8065256697481
 20
605.2325073307643
 30
0.0
 10
436.897434474847
 20
605.3008406488345
 30
0.0
 10
437.0003791012629
 20
605.3747662518193
 30
0.0
 10
437.1048102090946
 20
605.4473370469403
 30
0.0
 10
437.2249433174125
 20
605.5282810669265
 30
0.0
 10
437.3556533089316
 20
605.6142750051291
 30
0.0
 10
437.4517527240724
 20
605.6762066107301
 30
0.0
 10
437.4978572791521
 20
605.7059188531763
 30
0.0
  0
LINE
  5
264
330
1F
100
AcDbEntity
  8
0
  6
Continuous
 62
     7
370
    25
100
AcDbLine
 10
444.4078028252
 20
606.8062166281
 30
0.0
 11
444.4349747028
 21
606.7827260725
 31
0.0
  0
SPLINE
  5
265
330
1F
100
AcDbEntity
  8
0
  6
Continuous
 62
     7
370
    25
100
AcDbSpline
210
0.0
220
0.0
230
1.0
 70
     8
 71
     3
 72
    10
 73
     6
 74
     0
 42
0.000000001
 43
0.00000001
 40
0.0
 40
0.0
 40
0.0
 40
0.0
 40
0.077899976551366
 40
0.8391339459830153
 40
1.0
 40
1.0
 40
1.0
 40
1.0
 10
444.4687964860567
 20
606.7534865591348
 30
0.0
 10
444.4711537487686
 20
606.7514653684724
 30
0.0
 10
444.4965460434617
 20
606.7296932220448
 30
0.0
 10
444.5180214236977
 20
606.7044125728672
 30
0.0
 10
444.5299450161789
 20
606.6818603104085
 30
0.0
 10
444.5320251606572
 20
606.6779259286943
 30
0.0
  0
SPLINE
  5
266
330
1F
100
AcDbEntity
  8
0
  6
Continuous
 62
     7
370
    25
100
AcDbSpline
210
0.0
220
0.0
230
1.0
 70
     8
 71
     3
 72
    14
 73
    10
 74
     0
 42
0.000000001
 43
0.00000001
 40
0.0
 40
0.0
 40
0.0
 40
0.0
 40
0.219829610478715
 40
0.3499177958293766
 40
0.4588983161345854
 40
0.5683999765788981
 40
0.6667094681233883
 40
0.7967198733581607
 40
1.0
 40
1.0
 40
1.0
 40
1.0
 10
444.6182598567704
 20
606.601520061032
 30
0.0
 10
444.5874183824226
 20
606.6287668915583
 30
0.0
 10
444.538325902568
 20
606.6721375314839
 30
0.0
 10
444.4720375927116
 20
606.7314962465931
 30
0.0
 10
444.4270567905754
 20
606.7729400629875
 30
0.0
 10
444.3966195634106
 20
606.8025746697199
 30
0.0
 10
444.3799240109064
 20
606.821073310109
 30
0.0
 10
444.3783682518631
 20
606.8276171790399
 30
0.0
 10
444.3966515188533
 20
606.814324240079
 30
0.0
 10
444.4078028252174
 20
606.8062166280797
 30
0.0
  0
SPLINE
  5
267
330
1F
100
AcDbEntity
  8
0
  6
Continuous
 62
     7
370
    25
100
AcDbSpline
210
0.0
220
0.0
230
1.0
 70
     8
 71
     3
 72
    33
 73
    29
 74
     0
 42
0.000000001
 43
0.00000001
 40
0.0
 40
0.0
 40
0.0
 40
0.0
 40
0.0453846795158939
 40
0.091095645767674
 40
0.1377861112474261
 40
0.1847984484385182
 40
0.2588563244582824
 40
0.2965960583089305
 40
0.3345934417298329
 40
0.3627068189222338
 40
0.3910552764359761
 40
0.4192115960367004
 40
0.4481447873352561
 40
0.4657876556062892
 40
0.4839178616272533
 40
0.5015746029079453
 40
0.5197390882526
 40
0.544826312610823
 40
0.5705932132964163
 40
0.6177342306538901
 40
0.6659981837889709
 40
0.7087532480229952
 40
0.7518249524472234
 40
0.7957808044145226
 40
0.8400079168875101
 40
0.9191109597848044
 40
0.9594357012421643
 40
0.9999999999999999
 40
0.9999999999999999
 40
0.9999999999999999
 40
0.9999999999999999
 10
444.8354698565273
 20
605.0005181332251
 30
0.0
 10
444.8930340144352
 20
604.954551039811
 30
0.0
 10
445.0085761796245
 20
604.8622863790646
 30
0.0
 10
445.1720796637557
 20
604.7329962401833
 30
0.0
 10
445.3275038540656
 20
604.6101328182588
 30
0.0
 10
445.5001089038715
 20
604.4735859972955
 30
0.0
 10
445.6449334043897
 20
604.3588849141571
 30
0.0
 10
445.7627759205379
 20
604.2683132306441
 30
0.0
 10
445.8350348771742
 20
604.2161030795297
 30
0.0
 10
445.8922726002192
 20
604.1803013562829
 30
0.0
 10
445.9361914288621
 20
604.1602872660634
 30
0.0
 10
445.9716146790303
 20
604.1571761763606
 30
0.0
 10
445.9925210614557
 20
604.1763665702389
 30
0.0
 10
446.0011060675542
 20
604.2141440730874
 30
0.0
 10
446.0013621565866
 20
604.2600571571227
 30
0.0
 10
445.9944539501247
 20
604.3205421483265
 30
0.0
 10
445.9791543991277
 20
604.401750747211
 30
0.0
 10
445.9530685504275
 20
604.5062576272602
 30
0.0
 10
445.9049170542951
 20
604.6655065299316
 30
0.0
 10
445.8298859462527
 20
604.8715440730649
 30
0.0
 10
445.7272326621592
 20
605.1069440973375
 30
0.0
 10
445.6139085951918
 20
605.3320156876397
 30
0.0
 10
445.4928247298549
 20
605.5448308191868
 30
0.0
 10
445.3595173272032
 20
605.7535024877093
 30
0.0
 10
445.1767717174871
 20
606.0094081290335
 30
0.0
 10
444.981335351979
 20
606.243817646747
 30
0.0
 10
444.7786112614202
 20
606.4550398355501
 30
0.0
 10
444.671815751894
 20
606.5525970122397
 30
0.0
 10
444.6182598567704
 20
606.601520061032
 30
0.0
  0
SPLINE
  5
268
330
1F
100
AcDbEntity
  8
0
  6
Continuous
 62
     7
370
    25
100
AcDbSpline
210
0.0
220
0.0
230
1.0
 70
     8
 71
     3
 72
    15
 73
    11
 74
     0
 42
0.000000001
 43
0.00000001
 40
0.0
 40
0.0
 40
0.0
 40
0.0
 40
0.2148110296556923
 40
0.3411322673416896
 40
0.446428700309229
 40
0.5523542512426837
 40
0.6447889097413892
 40
0.766055229389014
 40
0.9403894463275105
 40
1.0
 40
1.0
 40
1.0
 40
1.0
 10
444.6821188702709
 20
604.7843745141683
 30
0.0
 10
444.6668422441074
 20
604.8235618509885
 30
0.0
 10
444.6425820833101
 20
604.885793595243
 30
0.0
 10
444.6323370259748
 20
604.9649651834608
 30
0.0
 10
444.6389127533685
 20
605.0168740313666
 30
0.0
 10
444.6602014701992
 20
605.0494430131283
 30
0.0
 10
444.6950463645802
 20
605.0637889594959
 30
0.0
 10
444.7463258278136
 20
605.0573001769405
 30
0.0
 10
444.7960784262935
 20
605.0308456479379
 30
0.0
 10
444.8274708704011
 20
605.0066765633198
 30
0.0
 10
444.8354698565273
 20
605.0005181332251
 30
0.0
  0
SPLINE
  5
269
330
1F
100
AcDbEntity
  8
0
  6
Continuous
 62
     7
370
    25
100
AcDbSpline
210
0.0
220
0.0
230
1.0
 70
     8
 71
     3
 72
    12
 73
     8
 74
     0
 42
0.000000001
 43
0.00000001
 40
0.0
 40
0.0
 40
0.0
 40
0.0
 40
0.2402624395566379
 40
0.482272577548489
 40
0.7293540009172734
 40
0.978026894669011
 40
1.0
 40
1.0
 40
1.0
 40
1.0
 10
442.5709791308647
 20
603.7182341474884
 30
0.0
 10
442.6193824095939
 20
603.640124387635
 30
0.0
 10
442.7165410584349
 20
603.4833366879607
 30
0.0
 10
442.8755944148185
 20
603.2559932450044
 30
0.0
 10
443.04303948055
 20
603.0356614817659
 30
0.0
 10
443.1634536654056
 20
602.8849692738764
 30
0.0
 10
443.228091886807
 20
602.8115889938176
 30
0.0
 10
443.2333397103554
 20
602.8056314233071
 30
0.0
  0
SPLINE
  5
26A
330
1F
100
AcDbEntity
  8
0
  6
Continuous
 62
     7
370
    25
100
AcDbSpline
210
0.0
220
0.0
230
1.0
 70
     8
 71
     3
 72
    13
 73
     9
 74
     0
 42
0.000000001
 43
0.00000001
 40
0.0
 40
0.0
 40
0.0
 40
0.0
 40
0.1789617808962561
 40
0.3259292832380406
 40
0.4736488841326801
 40
0.6237942834724602
 40
0.7748216909525097
 40
0.9999999999999999
 40
0.9999999999999999
 40
0.9999999999999999
 40
0.9999999999999999
 10
444.9322277187334
 20
603.0706468452364
 30
0.0
 10
444.9430598340065
 20
603.1744860953808
 30
0.0
 10
444.9627875297708
 20
603.363600509654
 30
0.0
 10
444.9531315971391
 20
603.640141414435
 30
0.0
 10
444.9292564226304
 20
603.8985784344917
 30
0.0
 10
444.8844427546741
 20
604.1569098348479
 30
0.0
 10
444.8110617080432
 20
604.4560535670427
 30
0.0
 10
444.7303993847817
 20
604.6614401618168
 30
0.0
 10
444.6821188702709
 20
604.7843745141683
 30
0.0
  0
SPLINE
  5
26B
330
1F
100
AcDbEntity
  8
0
  6
Continuous
 62
     7
370
    25
100
AcDbSpline
210
0.0
220
0.0
230
1.0
 70
     8
 71
     3
 72
    15
 73
    11
 74
     0
 42
0.000000001
 43
0.00000001
 40
0.0
 40
0.0
 40
0.0
 40
0.0
 40
0.2126307822087068
 40
0.3330806359274124
 40
0.4343189429317217
 40
0.5361409898010345
 40
0.6255006565988299
 40
0.7454503639221841
 40
0.9209037802014471
 40
1.0
 40
1.0
 40
1.0
 40
1.0
 10
442.1692965472437
 20
603.6542726516952
 30
0.0
 10
442.1797504522855
 20
603.6947290611414
 30
0.0
 10
442.196126224895
 20
603.7581029830436
 30
0.0
 10
442.2471598358538
 20
603.8256365949505
 30
0.0
 10
442.2985652083856
 20
603.8613988087333
 30
0.0
 10
442.3546772808678
 20
603.8737582982743
 30
0.0
 10
442.4152025157708
 20
603.864230484668
 30
0.0
 10
442.4829300422485
 20
603.8281281544238
 30
0.0
 10
442.5353913516319
 20
603.7738618209293
 30
0.0
 10
442.5625424643851
 20
603.7314215994163
 30
0.0
 10
442.5709791308647
 20
603.7182341474883
 30
0.0
  0
SPLINE
  5
26C
330
1F
100
AcDbEntity
  8
0
  6
Continuous
 62
     7
370
    25
100
AcDbSpline
210
0.0
220
0.0
230
1.0
 70
     8
 71
     3
 72
    14
 73
    10
 74
     0
 42
0.000000001
 43
0.00000001
 40
0.0
 40
0.0
 40
0.0
 40
0.0
 40
0.1534771701689703
 40
0.3080766505589781
 40
0.465914103466489
 40
0.6247592829575375
 40
0.7825987923872737
 40
0.9413708784593449
 40
1.0
 40
1.0
 40
1.0
 40
1.0
 10
439.3195383518475
 20
603.930469751414
 30
0.0
 10
439.3202075242381
 20
603.8417717098155
 30
0.0
 10
439.3215507623789
 20
603.6637270173264
 30
0.0
 10
439.3518797468023
 20
603.3941892996498
 30
0.0
 10
439.4018019740413
 20
603.1235057754192
 30
0.0
 10
439.4720248997038
 20
602.8540834764051
 30
0.0
 10
439.5621725815403
 20
602.5894937092739
 30
0.0
 10
439.6438219686129
 20
602.3837393229835
 30
0.0
 10
439.7021726261831
 20
602.2697290999361
 30
0.0
 10
439.7179087291801
 20
602.2389826321619
 30
0.0
  0
SPLINE
  5
26D
330
1F
100
AcDbEntity
  8
0
  6
Continuous
 62
     7
370
    25
100
AcDbSpline
210
0.0
220
0.0
230
1.0
 70
     8
 71
     3
 72
    12
 73
     8
 74
     0
 42
0.000000001
 43
0.00000001
 40
0.0
 40
0.0
 40
0.0
 40
0.0
 40
0.0273266949428565
 40
0.2666551284989934
 40
0.5073875987093253
 40
0.752805808349968
 40
1.0
 40
1.0
 40
1.0
 40
1.0
 10
441.8020763921209
 20
602.5823637033023
 30
0.0
 10
441.8069132964469
 20
602.5915650618484
 30
0.0
 10
441.8541120282091
 20
602.6813523358167
 30
0.0
 10
441.9307559109325
 20
602.8591091998751
 30
0.0
 10
442.0295095384993
 20
603.1164746288101
 30
0.0
 10
442.1118873294025
 20
603.3821918992323
 30
0.0
 10
442.150114202381
 20
603.5633613482406
 30
0.0
 10
442.1692965472437
 20
603.6542726516952
 30
0.0
  0
SPLINE
  5
26E
330
1F
100
AcDbEntity
  8
0
  6
Continuous
 62
     7
370
    25
100
AcDbSpline
210
0.0
220
0.0
230
1.0
 70
     8
 71
     3
 72
    15
 73
    11
 74
     0
 42
0.000000001
 43
0.00000001
 40
0.0
 40
0.0
 40
0.0
 40
0.0
 40
0.2153296810341728
 40
0.3327055588564822
 40
0.4327106172887928
 40
0.533128909105593
 40
0.6249491950544253
 40
0.7533679527278005
 40
0.9418458044828131
 40
1.0
 40
1.0
 40
1.0
 40
1.0
 10
438.9719993491597
 20
604.0668546897934
 30
0.0
 10
439.0014016364475
 20
604.0970652062747
 30
0.0
 10
439.0468310652969
 20
604.1437434288074
 30
0.0
 10
439.1223496143039
 20
604.175583932387
 30
0.0
 10
439.1800158111513
 20
604.1800752343014
 30
0.0
 10
439.229341899613
 20
604.1632388017548
 30
0.0
 10
439.2720193394629
 20
604.1256007873044
 30
0.0
 10
439.3073068731318
 20
604.0595058710882
 30
0.0
 10
439.3194237995864
 20
603.988804085176
 30
0.0
 10
439.3195164949076
 20
603.9416001299373
 30
0.0
 10
439.3195383518475
 20
603.930469751414
 30
0.0
  0
LWPOLYLINE
  5
26F
330
1F
100
AcDbEntity
  8
0
  6
Continuous
 62
     7
370
    25
100
AcDbPolyline
 90
       38
 70
   128
 43
0.0
 10
296.0359779973
 20
336.8368168693
 10
296.0470800751
 20
336.7867837654
 10
296.0724306958
 20
336.5470577153
 10
296.0520368681
 20
336.3072062474
 10
295.9860949957
 20
336.0695392625
 10
295.8752401347
 20
335.8363456236
 10
295.7205398782
 20
335.6098711129
 10
295.5234840741
 20
335.3922968037
 10
295.2859704776
 20
335.1857180556
 10
295.0102864745
 20
334.9921243348
 10
294.6990870523
 20
334.8133800548
 10
294.3553692317
 20
334.6512066206
 10
293.9824432032
 20
334.507165851
 10
293.5839004483
 20
334.3826449374
 10
293.1635791515
 20
334.2788430844
 10
292.7255272368
 20
334.1967599604
 10
292.2739633835
 20
334.1371860708
 10
291.8132363984
 20
334.1006951448
 10
291.3477833343
 20
334.0876386098
 10
290.8820867585
 20
334.0981422076
 10
290.4206315836
 20
334.1321047827
 10
289.9678618754
 20
334.1891992568
 10
289.5281380535
 20
334.2688757791
 10
289.1056948987
 20
334.3703670211
 10
288.7046007696
 20
334.4926955666
 10
288.3287184219
 20
334.6346833249
 10
287.9816678081
 20
334.7949628762
 10
287.6667912152
 20
334.9719906408
 10
287.387121077
 20
335.1640617446
 10
287.1453507699
 20
335.3693264379
 10
286.9438086741
 20
335.5858079094
 10
286.78443575
 20
335.8114213243
 10
286.6687668461
 20
336.043993902
 10
286.5979159172
 20
336.2812858414
 10
286.5725652964
 20
336.5210118916
 10
286.5929591241
 20
336.7608633595
 10
286.6589009966
 20
336.9985303444
 10
286.7196578954
 20
337.1382697391
  0
LWPOLYLINE
  5
270
330
1F
100
AcDbEntity
  8
0
  6
Continuous
 62
     7
370
    25
100
AcDbPolyline
 90
       22
 70
   128
 43
0.0
 10
726.8052873052
 20
403.316985431
 10
726.3537234519
 20
403.2574115414
 10
725.8929964668
 20
403.2209206154
 10
725.4275434026
 20
403.2078640804
 10
724.9618468268
 20
403.2183676782
 10
724.500391652
 20
403.2523302532
 10
724.0476219438
 20
403.3094247274
 10
723.6078981219
 20
403.3891012497
 10
723.1854549671
 20
403.4905924917
 10
722.784360838
 20
403.6129210372
 10
722.4084784903
 20
403.7549087955
 10
722.0614278764
 20
403.9151883468
 10
721.7465512836
 20
404.0922161114
 10
721.4668811454
 20
404.2842872152
 10
721.2251108383
 20
404.4895519085
 10
721.0235687424
 20
404.70603338
 10
720.8641958184
 20
404.9316467949
 10
720.7485269145
 20
405.1642193726
 10
720.6776759856
 20
405.401511312
 10
720.6523253648
 20
405.6412373622
 10
720.6727191925
 20
405.8810888301
 10
720.6887780633
 20
405.9570423399
  0
LWPOLYLINE
  5
271
330
1F
100
AcDbEntity
  8
0
  6
Continuous
 62
     7
370
    25
100
AcDbPolyline
 90
       17
 70
   128
 43
0.0
 10
730.0050981653
 20
406.2584952097
 10
730.0559892145
 20
406.1443011755
 10
730.1268401434
 20
405.907009236
 10
730.1521907642
 20
405.6672831859
 10
730.1317969365
 20
405.427431718
 10
730.065855064
 20
405.1897647331
 10
729.9550002031
 20
404.9565710942
 10
729.8002999466
 20
404.7300965835
 10
729.6032441425
 20
404.5125222743
 10
729.365730546
 20
404.3059435262
 10
729.0900465428
 20
404.1123498054
 10
728.7788471207
 20
403.9336055254
 10
728.4351293001
 20
403.7714320911
 10
728.0622032716
 20
403.6273913216
 10
727.6636605167
 20
403.502870408
 10
727.2433392199
 20
403.399068555
 10
726.8052873052
 20
403.316985431
  0
ARC
  5
272
330
1F
100
AcDbEntity
  8
0
  6
Continuous
 62
     7
370
    25
100
AcDbCircle
 10
572.0752714817
 20
259.3148594357
 30
0.0
 40
1.359665115847929
100
AcDbArc
 50
173.700965287
 51
212.3292748984
  0
LWPOLYLINE
  5
273
330
1F
100
AcDbEntity
  8
0
  6
Continuous
 62
     7
370
    25
100
AcDbPolyline
 90
       35
 70
   128
 43
0.0
 10
579.9872215248
 20
260.057927447
 10
580.0024943165
 20
260.0329590264
 10
580.1181632204
 20
259.8003864487
 10
580.1890141493
 20
259.5630945092
 10
580.2143647701
 20
259.3233684591
 10
580.1939709424
 20
259.0835169912
 10
580.1280290699
 20
258.8458500063
 10
580.017174209
 20
258.6126563674
 10
579.8624739524
 20
258.3861818567
 10
579.6654181483
 20
258.1686075475
 10
579.4279045519
 20
257.9620287994
 10
579.1522205487
 20
257.7684350786
 10
578.8410211266
 20
257.5896907986
 10
578.497303306
 20
257.4275173643
 10
578.1243772775
 20
257.2834765948
 10
577.7258345225
 20
257.1589556812
 10
577.3055132258
 20
257.0551538282
 10
576.867461311
 20
256.9730707042
 10
576.4158974578
 20
256.9134968146
 10
575.9551704727
 20
256.8770058885
 10
575.4897174085
 20
256.8639493536
 10
575.0240208327
 20
256.8744529514
 10
574.5625656579
 20
256.9084155264
 10
574.1097959496
 20
256.9655100006
 10
573.6700721277
 20
257.0451865229
 10
573.247628973
 20
257.1466777649
 10
572.8465348439
 20
257.2690063104
 10
572.4706524961
 20
257.4109940687
 10
572.1236018823
 20
257.57127362
 10
571.8087252894
 20
257.7483013846
 10
571.5290551513
 20
257.9403724884
 10
571.2872848442
 20
258.1456371817
 10
571.0857427483
 20
258.3621186532
 10
570.9263698242
 20
258.5877320681
 10
570.9263698242
 20
258.5877320681
  0
LWPOLYLINE
  5
274
330
1F
100
AcDbEntity
  8
0
  6
Continuous
 62
     7
370
    25
100
AcDbPolyline
 90
      151
 70
   128
 43
0.0
 10
612.2021020673
 20
594.5912419046
 10
607.0153395288
 20
595.9564916785
 10
601.7609651784
 20
597.2513450342
 10
596.4425801018
 20
598.4749145439
 10
591.0638292543
 20
599.6263616341
 10
585.6283989632
 20
600.7048971605
 10
580.1400144009
 20
601.7097819488
 10
574.6024370319
 20
602.6403273012
 10
569.0194620353
 20
603.4958954682
 10
563.3949157032
 20
604.2759000862
 10
557.7326528188
 20
604.9798065791
 10
552.0365540141
 20
605.6071325245
 10
546.3105231107
 20
606.1574479844
 10
540.5584844442
 20
606.6303758003
 10
534.7843801747
 20
607.0255918509
 10
528.9921675847
 20
607.342825275
 10
523.1858163674
 20
607.5818586565
 10
517.3693059059
 20
607.742528174
 10
511.546622546
 20
607.8247237126
 10
505.7217568639
 20
607.8283889396
 10
499.8987009317
 20
607.753521343
 10
494.081445581
 20
607.6001722333
 10
488.273977668
 20
607.3684467084
 10
482.4802773412
 20
607.0585035813
 10
476.7043153134
 20
606.6705552716
 10
470.9500501404
 20
606.2048676597
 10
465.2214255081
 20
605.6617599045
 10
459.5223675298
 20
605.0416042251
 10
453.8567820551
 20
604.3448256452
 10
448.2285519932
 20
603.5719017019
 10
442.641534652
 20
602.7233621188
 10
437.0995590939
 20
601.7997884425
 10
431.6064235123
 20
600.8018136443
 10
426.1658926279
 20
599.7301216862
 10
420.7816951088
 20
598.5854470523
 10
415.457521015
 20
597.3685742456
 10
410.1970192695
 20
596.0803372498
 10
405.0037951574
 20
594.7216189581
 10
399.8814078552
 20
593.2933505684
 10
394.8333679911
 20
591.7965109443
 10
389.8631352397
 20
590.232125945
 10
384.97411595
 20
588.6012677218
 10
380.1696608119
 20
586.9050539836
 10
375.4530625587
 20
585.1446472303
 10
370.8275537114
 20
583.321253957
 10
366.2963043627
 20
581.4361238262
 10
361.8624200045
 20
579.490548812
 10
357.5289393997
 20
577.4858623144
 10
353.2988324994
 20
575.4234382453
 10
349.1749984076
 20
573.3046900871
 10
345.1602633943
 20
571.1310699241
 10
341.2573789582
 20
568.9040674468
 10
337.4690199413
 20
566.6252089316
 10
333.7977826958
 20
564.2960561943
 10
330.2461833043
 20
561.9182055197
 10
326.8166558555
 20
559.493286568
 10
323.5115507763
 20
557.0229612575
 10
320.3331332205
 20
554.5089226257
 10
317.2835815169
 20
551.9528936692
 10
314.3649856758
 20
549.3566261626
 10
311.5793459571
 20
546.7218994578
 10
308.928571499
 20
544.050519265
 10
306.41447901
 20
541.3443164147
 10
304.0387915234
 20
538.6051456032
 10
301.8031372168
 20
535.8348841213
 10
299.709048296
 20
533.0354305678
 10
297.757959945
 20
530.2087035485
 10
295.9512093422
 20
527.3566403607
 10
294.2900347442
 20
524.4811956662
 10
292.7755746372
 20
521.5843401511
 10
291.4088669564
 20
518.6680591754
 10
290.190848375
 20
515.7343514126
 10
289.1223536621
 20
512.7852274792
 10
288.2041151107
 20
509.8227085576
 10
287.4367620355
 20
506.8488250103
 10
286.8208203421
 20
503.8656149885
 10
286.356712166
 20
500.8751230353
 10
286.0447555839
 20
497.8793986845
 10
285.8851643952
 20
494.880495056
 10
285.8780479757
 20
491.8804674485
 10
286.0234112027
 20
488.8813719311
 10
286.3211544515
 20
485.885263934
 10
286.7710736637
 20
482.89419684
 10
287.3728604873
 20
479.9102205771
 10
288.1261024874
 20
476.9353802135
 10
289.0302834298
 20
473.9717145563
 10
290.0847836339
 20
471.0212547538
 10
291.2888803981
 20
468.0860229039
 10
292.6417484944
 20
465.1680306677
 10
294.1424607347
 20
462.2692778915
 10
295.7899886058
 20
459.3917512356
 10
297.5832029744
 20
456.537422813
 10
299.520874861
 20
453.7082488378
 10
301.6016762819
 20
450.9061682846
 10
303.8241811599
 20
448.1331015594
 10
306.1868663011
 20
445.3909491837
 10
308.6881124392
 20
442.6815904916
 10
311.326205345
 20
440.0068823423
 10
314.0993370013
 20
437.3686578472
 10
317.0056068423
 20
434.7687251136
 10
320.0430230558
 20
432.2088660054
 10
323.2095039484
 20
429.6908349223
 10
326.5028793723
 20
427.2163575969
 10
329.9208922125
 20
424.7871299125
 10
333.4611999338
 20
422.4048167403
 10
337.121376186
 20
420.0710507988
 10
340.8989124672
 20
417.7874315346
 10
344.7912198427
 20
415.5555240262
 10
348.7956307195
 20
413.3768579116
 10
352.9094006743
 20
411.2529263398
 10
357.1297103348
 20
409.1851849472
 10
361.4536673114
 20
407.1750508607
 10
365.8783081801
 20
405.2239017256
 10
370.4006005131
 20
403.3330747621
 10
375.0174449571
 20
401.5038658486
 10
379.7256773574
 20
399.7375286336
 10
384.5220709268
 20
398.0352736762
 10
389.4033384568
 20
396.398267617
 10
394.3661345703
 20
394.8276323782
 10
399.4070580149
 20
393.3244443948
 10
404.5226539934
 20
391.8897338767
 10
409.7094165318
 20
390.5244841028
 10
414.9637908822
 20
389.2296307471
 10
420.2821759589
 20
388.0060612374
 10
425.6609268064
 20
386.8546141472
 10
431.0963570975
 20
385.7760786207
 10
436.5847416598
 20
384.7711938324
 10
442.1223190287
 20
383.8406484801
 10
447.7052940253
 20
382.9850803131
 10
453.3298403574
 20
382.205075695
 10
458.9921032419
 20
381.5011692021
 10
464.6882020466
 20
380.8738432568
 10
470.41423295
 20
380.3235277968
 10
476.1662716164
 20
379.850599981
 10
481.940375886
 20
379.4553839304
 10
487.732588476
 20
379.1381505063
 10
493.5389396933
 20
378.8991171247
 10
499.3554501547
 20
378.7384476072
 10
505.1781335147
 20
378.6562520686
 10
511.0029991968
 20
378.6525868416
 10
516.826055129
 20
378.7274544383
 10
522.6433104797
 20
378.8808035479
 10
528.4507783927
 20
379.1125290729
 10
534.2444787195
 20
379.4224722
 10
540.0204407473
 20
379.8104205097
 10
545.7747059203
 20
380.2761081216
 10
551.5033305525
 20
380.8192158767
 10
557.2023885308
 20
381.4393715561
 10
562.8679740056
 20
382.1361501361
 10
568.4962040674
 20
382.9090740793
 10
573.0737285583
 20
383.5982187316
  0
LWPOLYLINE
  5
275
330
1F
100
AcDbEntity
  8
0
  6
Continuous
 62
     7
370
    25
100
AcDbPolyline
 90
       91
 70
   128
 43
0.0
 10
576.4578901766
 20
384.1432520603
 10
579.6251969667
 20
384.6811873387
 10
585.1183325483
 20
385.679162137
 10
590.5588634327
 20
386.7508540951
 10
595.9430609519
 20
387.8955287289
 10
601.2672350457
 20
389.1124015357
 10
606.5277367912
 20
390.4006385315
 10
611.7209609032
 20
391.7593568231
 10
616.8433482055
 20
393.1876252129
 10
621.8913880695
 20
394.6844648369
 10
626.861620821
 20
396.2488498362
 10
631.7506401106
 20
397.8797080594
 10
636.5550952488
 20
399.5759217977
 10
641.271693502
 20
401.3363285509
 10
645.8972023493
 20
403.1597218243
 10
650.428451698
 20
405.0448519551
 10
654.8623360562
 20
406.9904269692
 10
659.195816661
 20
408.9951134669
 10
663.4259235613
 20
411.057537536
 10
667.549757653
 20
413.1762856941
 10
671.5644926664
 20
415.3499058572
 10
675.4673771025
 20
417.5769083344
 10
679.2557361193
 20
419.8557668496
 10
682.9269733648
 20
422.184919587
 10
686.4785727564
 20
424.5627702616
 10
689.9081002052
 20
426.9876892133
 10
693.2132052844
 20
429.4580145238
 10
696.3916228401
 20
431.9720531555
 10
699.4411745437
 20
434.528082112
 10
702.3597703848
 20
437.1243496187
 10
705.1454101036
 20
439.7590763235
 10
707.7961845616
 20
442.4304565163
 10
710.3102770507
 20
445.1366593665
 10
712.6859645373
 20
447.8758301781
 10
714.9216188438
 20
450.64609166
 10
717.0157077646
 20
453.4455452134
 10
718.9667961157
 20
456.2722722328
 10
720.7735467185
 20
459.1243354205
 10
722.4347213164
 20
461.999780115
 10
723.9491814235
 20
464.8966356302
 10
725.3158891043
 20
467.8129166058
 10
726.5339076857
 20
470.7466243687
 10
727.6024023985
 20
473.695748302
 10
728.5206409499
 20
476.6582672236
 10
729.2879940251
 20
479.6321507709
 10
729.9039357186
 20
482.6153607928
 10
730.3680438947
 20
485.605852746
 10
730.6800004768
 20
488.6015770967
 10
730.8395916655
 20
491.6004807252
 10
730.846708085
 20
494.6005083328
 10
730.7013448579
 20
497.5996038502
 10
730.4036016091
 20
500.5957118473
 10
729.9536823969
 20
503.5867789413
 10
729.3518955734
 20
506.5707552042
 10
728.5986535732
 20
509.5455955677
 10
727.6944726309
 20
512.509261225
 10
726.6399724267
 20
515.4597210274
 10
725.4358756626
 20
518.3949528774
 10
724.0830075663
 20
521.3129451135
 10
722.5822953259
 20
524.2116978898
 10
720.9347674548
 20
527.0892245457
 10
719.1415530862
 20
529.9435529683
 10
717.2038811997
 20
532.7727269435
 10
715.1230797787
 20
535.5748074967
 10
712.9005749007
 20
538.3478742218
 10
710.5378897595
 20
541.0900265976
 10
708.0366436215
 20
543.7993852897
 10
705.3985507157
 20
546.4740934389
 10
702.6254190594
 20
549.112317934
 10
699.7191492184
 20
551.7122506677
 10
696.6817330049
 20
554.2721097758
 10
693.5152521123
 20
556.790140859
 10
690.2218766883
 20
559.2646181843
 10
686.8038638481
 20
561.6938458687
 10
683.2635561269
 20
564.0761590409
 10
679.6033798747
 20
566.4099249824
 10
675.8258435935
 20
568.6935442467
 10
671.933536218
 20
570.925451755
 10
667.9291253412
 20
573.1041178696
 10
663.8153553864
 20
575.2280494415
 10
659.5950457259
 20
577.295790834
 10
655.2710887492
 20
579.3059249206
 10
650.8464478805
 20
581.2570740557
 10
646.3241555475
 20
583.1479010191
 10
641.7073111036
 20
584.9771099326
 10
636.9990787033
 20
586.7434471477
 10
632.2026851338
 20
588.4457021051
 10
627.3214176039
 20
590.0827081642
 10
622.3586214903
 20
591.653343403
 10
617.3176980457
 20
593.1565313864
 10
612.2021020673
 20
594.5912419046
  0
ARC
  5
276
330
1F
100
AcDbEntity
  8
0
  6
Continuous
 62
     7
370
    25
100
AcDbCircle
 10
349.1435036659
 20
489.3945566074
 30
0.0
 40
63.28265464020775
100
AcDbArc
 50
180.3982910585
 51
206.3008131039
  0
LWPOLYLINE
  5
277
330
1F
100
AcDbEntity
  8
0
  6
Continuous
 62
     7
370
    25
100
AcDbPolyline
 90
       61
 70
   128
 43
0.0
 10
296.0359779973
 20
454.6988117825
 10
297.5832029744
 20
452.2515863094
 10
299.520874861
 20
449.4224123343
 10
301.6016762819
 20
446.6203317811
 10
303.8241811599
 20
443.8472650559
 10
306.1868663011
 20
441.1051126801
 10
308.6881124392
 20
438.3957539881
 10
311.326205345
 20
435.7210458388
 10
314.0993370013
 20
433.0828213437
 10
317.0056068423
 20
430.4828886101
 10
320.0430230558
 20
427.9230295019
 10
323.2095039484
 20
425.4049984188
 10
326.5028793723
 20
422.9305210934
 10
329.9208922125
 20
420.501293409
 10
333.4611999338
 20
418.1189802368
 10
337.121376186
 20
415.7852142953
 10
340.8989124672
 20
413.5015950311
 10
344.7912198427
 20
411.2696875227
 10
348.7956307195
 20
409.0910214081
 10
352.9094006743
 20
406.9670898363
 10
357.1297103348
 20
404.8993484437
 10
361.4536673114
 20
402.8892143572
 10
365.8783081801
 20
400.9380652221
 10
370.4006005131
 20
399.0472382586
 10
375.0174449571
 20
397.2180293451
 10
379.7256773574
 20
395.45169213
 10
384.5220709268
 20
393.7494371727
 10
389.4033384568
 20
392.1124311135
 10
394.3661345703
 20
390.5417958747
 10
399.4070580149
 20
389.0386078913
 10
404.5226539934
 20
387.6038973732
 10
409.7094165318
 20
386.2386475992
 10
414.9637908822
 20
384.9437942435
 10
420.2821759589
 20
383.7202247339
 10
425.6609268064
 20
382.5687776437
 10
431.0963570975
 20
381.4902421172
 10
436.5847416598
 20
380.4853573289
 10
442.1223190287
 20
379.5548119766
 10
447.7052940253
 20
378.6992438096
 10
453.3298403574
 20
377.9192391915
 10
458.9921032419
 20
377.2153326986
 10
464.6882020466
 20
376.5880067533
 10
470.41423295
 20
376.0376912933
 10
476.1662716164
 20
375.5647634775
 10
481.940375886
 20
375.1695474268
 10
487.732588476
 20
374.8523140028
 10
493.5389396933
 20
374.6132806212
 10
499.3554501547
 20
374.4526111037
 10
505.1781335147
 20
374.3704155651
 10
511.0029991968
 20
374.3667503381
 10
516.826055129
 20
374.4416179347
 10
522.6433104797
 20
374.5949670444
 10
528.4507783927
 20
374.8266925694
 10
534.2444787195
 20
375.1366356964
 10
540.0204407473
 20
375.5245840061
 10
545.7747059203
 20
375.9902716181
 10
551.5033305525
 20
376.5333793732
 10
557.2023885308
 20
377.1535350526
 10
562.8679740056
 20
377.8503136325
 10
568.4962040674
 20
378.6232375758
 10
570.7238149306
 20
378.9517525411
  0
LWPOLYLINE
  5
278
330
1F
100
AcDbEntity
  8
0
  6
Continuous
 62
     7
370
    25
100
AcDbPolyline
 90
       49
 70
   128
 43
0.0
 10
579.9899254369
 20
380.459042364
 10
585.1183325483
 20
381.3933256335
 10
590.5588634327
 20
382.4650175916
 10
595.9430609519
 20
383.6096922254
 10
601.2672350457
 20
384.8265650322
 10
606.5277367912
 20
386.114802028
 10
611.7209609032
 20
387.4735203196
 10
616.8433482055
 20
388.9017887094
 10
621.8913880695
 20
390.3986283334
 10
626.861620821
 20
391.9630133327
 10
631.7506401106
 20
393.5938715559
 10
636.5550952488
 20
395.2900852942
 10
641.271693502
 20
397.0504920474
 10
645.8972023493
 20
398.8738853208
 10
650.428451698
 20
400.7590154515
 10
654.8623360562
 20
402.7045904657
 10
659.195816661
 20
404.7092769634
 10
663.4259235613
 20
406.7717010325
 10
667.549757653
 20
408.8904491906
 10
671.5644926664
 20
411.0640693537
 10
675.4673771025
 20
413.2910718309
 10
679.2557361193
 20
415.5699303461
 10
682.9269733648
 20
417.8990830835
 10
686.4785727564
 20
420.2769337581
 10
689.9081002052
 20
422.7018527098
 10
693.2132052844
 20
425.1721780203
 10
696.3916228401
 20
427.686216652
 10
699.4411745437
 20
430.2422456085
 10
702.3597703848
 20
432.8385131152
 10
705.1454101036
 20
435.4732398199
 10
707.7961845616
 20
438.1446200127
 10
710.3102770507
 20
440.850822863
 10
712.6859645373
 20
443.5899936746
 10
714.9216188438
 20
446.3602551565
 10
717.0157077646
 20
449.1597087099
 10
718.9667961157
 20
451.9864357292
 10
720.7735467185
 20
454.838498917
 10
722.4347213164
 20
457.7139436115
 10
723.9491814235
 20
460.6107991266
 10
725.3158891043
 20
463.5270801023
 10
726.5339076857
 20
466.4607878652
 10
727.6024023985
 20
469.4099117985
 10
728.5206409499
 20
472.3724307201
 10
729.2879940251
 20
475.3463142674
 10
729.9039357186
 20
478.3295242892
 10
730.3680438947
 20
481.3200162424
 10
730.6800004768
 20
484.3157405932
 10
730.8395916655
 20
487.3146442217
 10
730.8623780303
 20
488.9546513871
  0
LINE
  5
279
330
1F
100
AcDbEntity
  8
0
  6
Continuous
 62
     8
370
    18
100
AcDbLine
 10
294.4232051185
 20
451.7952241172
 30
0.0
 11
297.5553951581
 21
452.293975042
 31
0.0
  0
LINE
  5
27A
330
1F
100
AcDbEntity
  8
0
  6
Continuous
 62
     8
370
    18
100
AcDbLine
 10
295.8384563082
 20
453.7659036448
 30
0.0
 11
296.5418437517
 21
453.8779067907
 31
0.0
  0
LINE
  5
27B
330
1F
100
AcDbEntity
  8
0
  6
Continuous
 62
     8
370
    18
100
AcDbLine
 10
723.9058094558
 20
521.6717053766
 30
0.0
 11
724.1197097494
 21
521.7057655607
 31
0.0
  0
SPLINE
  5
27C
330
1F
100
AcDbEntity
  8
0
  6
Continuous
 62
     8
370
    18
100
AcDbSpline
210
0.0
220
0.0
230
1.0
 70
     8
 71
     3
 72
    10
 73
     6
 74
     0
 42
0.000000001
 43
0.00000001
 40
0.0
 40
0.0
 40
0.0
 40
0.0
 40
0.4179403185915055
 40
0.8349130387145388
 40
1.0
 40
1.0
 40
1.0
 40
1.0
 10
724.1197097494278
 20
521.7057655606591
 30
0.0
 10
724.1419746403752
 20
521.6894956021501
 30
0.0
 10
724.186452875498
 20
521.6569933526804
 30
0.0
 10
724.2167240361832
 20
521.6016898168482
 30
0.0
 10
724.2253404228669
 20
521.5675290742182
 30
0.0
 10
724.2277842497463
 20
521.5578402169134
 30
0.0
  0
SPLINE
  5
27D
330
1F
100
AcDbEntity
  8
0
  6
Continuous
 62
     8
370
    18
100
AcDbSpline
210
0.0
220
0.0
230
1.0
 70
     8
 71
     3
 72
    11
 73
     7
 74
     0
 42
0.000000001
 43
0.00000001
 40
0.0
 40
0.0
 40
0.0
 40
0.0
 40
0.3080004005845771
 40
0.61464318878406
 40
0.9476581850669614
 40
1.0
 40
1.0
 40
1.0
 40
1.0
 10
724.2277842497463
 20
521.5578402169134
 30
0.0
 10
724.2572394276572
 20
521.443482627463
 30
0.0
 10
724.3160199501598
 20
521.2152715169971
 30
0.0
 10
724.4415226397233
 20
520.8281676859378
 30
0.0
 10
724.5017499986318
 20
520.5487173688574
 30
0.0
 10
724.5136248896399
 20
520.4034909764918
 30
0.0
 10
724.5152378190845
 20
520.3837653281281
 30
0.0
  0
LINE
  5
27E
330
1F
100
AcDbEntity
  8
0
  6
Continuous
 62
     8
370
    18
100
AcDbLine
 10
294.4232051185
 20
438.9377146067
 30
0.0
 11
306.4173785796
 21
440.8475939658
 31
0.0
  0
LINE
  5
27F
330
1F
100
AcDbEntity
  8
0
  6
Continuous
 62
     8
370
    18
100
AcDbLine
 10
570.7238149306
 20
377.4578861706
 30
0.0
 11
569.9008305968
 21
378.8288772546
 31
0.0
  0
LINE
  5
280
330
1F
100
AcDbEntity
  8
0
  6
Continuous
 62
     8
370
    18
100
AcDbLine
 10
570.7238149306
 20
364.60037666
 30
0.0
 11
562.7771734394
 21
377.8385079164
 31
0.0
  0
LINE
  5
281
330
1F
100
AcDbEntity
  8
0
  6
Continuous
 62
     8
370
    18
100
AcDbLine
 10
727.1010334934
 20
526.7734319539
 30
0.0
 11
727.1010334934
 21
514.2225259522
 31
0.0
  0
LINE
  5
282
330
1F
100
AcDbEntity
  8
0
  6
Continuous
 62
     8
370
    18
100
AcDbLine
 10
727.1010334934
 20
467.9726133256
 30
0.0
 11
727.1010334934
 21
403.9247954497
 31
0.0
  0
LINE
  5
283
330
1F
100
AcDbEntity
  8
0
  6
Continuous
 62
     8
370
    18
100
AcDbLine
 10
724.2275652211
 20
526.5405041732
 30
0.0
 11
724.2275652211
 21
521.5561360095
 31
0.0
  0
LINE
  5
284
330
1F
100
AcDbEntity
  8
0
  6
Continuous
 62
     8
370
    18
100
AcDbLine
 10
724.2275652211
 20
461.1785235738
 30
0.0
 11
724.2275652211
 21
403.8129240296
 31
0.0
  0
LINE
  5
285
330
1F
100
AcDbEntity
  8
0
  6
Continuous
 62
     8
370
    18
100
AcDbLine
 10
723.8360872435
 20
526.6049682148
 30
0.0
 11
723.8360872435
 21
521.8115520475
 31
0.0
  0
LINE
  5
286
330
1F
100
AcDbEntity
  8
0
  6
Continuous
 62
     8
370
    18
100
AcDbLine
 10
723.8360872435
 20
460.3835872302
 30
0.0
 11
723.8360872435
 21
403.8919056263
 31
0.0
  0
LINE
  5
287
330
1F
100
AcDbEntity
  8
0
  6
Continuous
 62
     8
370
    18
100
AcDbLine
 10
727.465010649
 20
526.8990598118
 30
0.0
 11
727.465010649
 21
513.1897308377
 31
0.0
  0
LINE
  5
288
330
1F
100
AcDbEntity
  8
0
  6
Continuous
 62
     8
370
    18
100
AcDbLine
 10
727.465010649
 20
469.00540844
 30
0.0
 11
727.465010649
 21
404.0331888341
 31
0.0
  0
LINE
  5
289
330
1F
100
AcDbEntity
  8
0
  6
Continuous
 62
     8
370
    18
100
AcDbLine
 10
721.7504995659
 20
527.8432225867
 30
0.0
 11
721.7504995659
 21
527.3377204126
 31
0.0
  0
LINE
  5
28A
330
1F
100
AcDbEntity
  8
0
  6
Continuous
 62
     8
370
    18
100
AcDbLine
 10
729.1491613083
 20
528.4403554593
 30
0.0
 11
729.1491613083
 21
528.1151416771
 31
0.0
  0
LINE
  5
28B
330
1F
100
AcDbEntity
  8
0
  6
Continuous
 62
     8
370
    18
100
AcDbLine
 10
291.3960880016
 20
457.4620921693
 30
0.0
 11
291.3960880016
 21
334.5962211916
 31
0.0
  0
LINE
  5
28C
330
1F
100
AcDbEntity
  8
0
  6
Continuous
 62
     8
370
    18
100
AcDbLine
 10
291.8153339713
 20
457.4611800065
 30
0.0
 11
291.8153339713
 21
334.6125435024
 31
0.0
  0
LINE
  5
28D
330
1F
100
AcDbEntity
  8
0
  6
Continuous
 62
     8
370
    18
100
AcDbLine
 10
288.4267656876
 20
458.2623970343
 30
0.0
 11
288.4267656876
 21
335.2961950716
 31
0.0
  0
LINE
  5
28E
330
1F
100
AcDbEntity
  8
0
  6
Continuous
 62
     8
370
    18
100
AcDbLine
 10
294.5466137427
 20
458.2475188929
 30
0.0
 11
294.5466137427
 21
453.362248477
 31
0.0
  0
LINE
  5
28F
330
1F
100
AcDbEntity
  8
0
  6
Continuous
 62
     8
370
    18
100
AcDbLine
 10
294.5466137427
 20
438.3654818884
 30
0.0
 11
294.5466137427
 21
335.5344563044
 31
0.0
  0
LINE
  5
290
330
1F
100
AcDbEntity
  8
0
  6
Continuous
 62
     8
370
    18
100
AcDbLine
 10
287.6379888641
 20
459.8870922287
 30
0.0
 11
287.6379888641
 21
459.7518874599
 31
0.0
  0
LINE
  5
291
330
1F
100
AcDbEntity
  8
0
  6
Continuous
 62
     8
370
    18
100
AcDbLine
 10
294.8500685969
 20
459.8661898925
 30
0.0
 11
294.8500685969
 21
459.8052434463
 31
0.0
  0
LINE
  5
292
330
1F
100
AcDbEntity
  8
0
  6
Continuous
 62
     8
370
    18
100
AcDbLine
 10
575.1147360263
 20
380.3467496763
 30
0.0
 11
575.1147360263
 21
257.3805477137
 31
0.0
  0
LINE
  5
293
330
1F
100
AcDbEntity
  8
0
  6
Continuous
 62
     8
370
    18
100
AcDbLine
 10
574.6989494143
 20
380.3714877686
 30
0.0
 11
574.6989494143
 21
257.4126830569
 31
0.0
  0
LINE
  5
294
330
1F
100
AcDbEntity
  8
0
  6
Continuous
 62
     8
370
    18
100
AcDbLine
 10
578.1758470709
 20
380.9251278414
 30
0.0
 11
578.1758470709
 21
257.9663231296
 31
0.0
  0
LINE
  5
295
330
1F
100
AcDbEntity
  8
0
  6
Continuous
 62
     8
370
    18
100
AcDbLine
 10
572.1064962039
 20
381.2840480248
 30
0.0
 11
572.1064962039
 21
258.4354115206
 31
0.0
  0
LINE
  5
296
330
1F
100
AcDbEntity
  8
0
  6
Continuous
 62
     8
370
    18
100
AcDbLine
 10
579.1952073173
 20
382.4128113433
 30
0.0
 11
579.1952073173
 21
382.2555864744
 31
0.0
  0
LINE
  5
297
330
1F
100
AcDbEntity
  8
0
  6
Continuous
 62
     8
370
    18
100
AcDbLine
 10
572.0426371904
 20
382.8300457404
 30
0.0
 11
572.0426371904
 21
382.8018271562
 31
0.0
  0
LINE
  5
298
330
1F
100
AcDbEntity
  8
0
  6
Continuous
 62
     8
370
    18
100
AcDbLine
 10
442.1692965472
 20
603.6542726517
 30
0.0
 11
442.1692965472
 21
602.6478696006
 31
0.0
  0
LINE
  5
299
330
1F
100
AcDbEntity
  8
0
  6
Continuous
 62
     8
370
    18
100
AcDbLine
 10
442.5709791309
 20
603.7182341475
 30
0.0
 11
442.5709791309
 21
602.7121206783
 31
0.0
  0
LINE
  5
29A
330
1F
100
AcDbEntity
  8
0
  6
Continuous
 62
     8
370
    18
100
AcDbLine
 10
438.9719993492
 20
604.0668546898
 30
0.0
 11
438.9719993492
 21
602.1210783102
 31
0.0
  0
LINE
  5
29B
330
1F
100
AcDbEntity
  8
0
  6
Continuous
 62
     8
370
    18
100
AcDbLine
 10
444.8354698565
 20
605.0005181332
 30
0.0
 11
444.8354698565
 21
604.3387096025
 31
0.0
  0
LINE
  5
29C
330
1F
100
AcDbEntity
  8
0
  6
Continuous
 62
     8
370
    18
100
AcDbLine
 10
437.4978572792
 20
605.7059188532
 30
0.0
 11
437.4978572792
 21
605.4221993092
 31
0.0
  0
LWPOLYLINE
  5
29D
330
1F
100
AcDbEntity
  8
0
  6
Continuous
 62
     8
370
    18
100
AcDbPolyline
 90
       14
 70
   128
 43
0.0
 10
292.7255272368
 20
332.9110090093
 10
293.1635791515
 20
332.9930921333
 10
293.5839004483
 20
333.0968939864
 10
293.9824432032
 20
333.2214148999
 10
294.3553692317
 20
333.3654556695
 10
294.6990870523
 20
333.5276291037
 10
295.0102864745
 20
333.7063733838
 10
295.2859704776
 20
333.8999671045
 10
295.5234840741
 20
334.1065458526
 10
295.7205398782
 20
334.3241201618
 10
295.8752401347
 20
334.5505946726
 10
295.9860949957
 20
334.7837883115
 10
296.0520368681
 20
335.0214552964
 10
296.0724979961
 20
335.2482838524
  0
LWPOLYLINE
  5
29E
330
1F
100
AcDbEntity
  8
0
  6
Continuous
 62
     8
370
    18
100
AcDbPolyline
 90
       21
 70
   128
 43
0.0
 10
286.5724979961
 20
335.2482838524
 10
286.5725652964
 20
335.2352609405
 10
286.5979159172
 20
334.9955348904
 10
286.6687668461
 20
334.7582429509
 10
286.78443575
 20
334.5256703732
 10
286.9438086741
 20
334.3000569584
 10
287.1453507699
 20
334.0835754868
 10
287.387121077
 20
333.8783107936
 10
287.6667912152
 20
333.6862396898
 10
287.9816678081
 20
333.5092119251
 10
288.3287184219
 20
333.3489323738
 10
288.7046007696
 20
333.2069446156
 10
289.1056948987
 20
333.0846160701
 10
289.5281380535
 20
332.9831248281
 10
289.9678618754
 20
332.9034483058
 10
290.4206315836
 20
332.8463538316
 10
290.8820867585
 20
332.8123912565
 10
291.3477833343
 20
332.8018876588
 10
291.8132363984
 20
332.8149441937
 10
292.2739633835
 20
332.8514351197
 10
292.7255272368
 20
332.9110090093
  0
LWPOLYLINE
  5
29F
330
1F
100
AcDbEntity
  8
0
  6
Continuous
 62
     8
370
    18
100
AcDbPolyline
 90
       34
 70
   128
 43
0.0
 10
720.6522580645
 20
404.368509323
 10
720.6523253648
 20
404.3554864111
 10
720.6776759856
 20
404.115760361
 10
720.7485269145
 20
403.8784684215
 10
720.8641958184
 20
403.6458958438
 10
721.0235687424
 20
403.420282429
 10
721.2251108383
 20
403.2038009574
 10
721.4668811454
 20
402.9985362642
 10
721.7465512836
 20
402.8064651603
 10
722.0614278764
 20
402.6294373957
 10
722.4084784903
 20
402.4691578444
 10
722.784360838
 20
402.3271700862
 10
723.1854549671
 20
402.2048415407
 10
723.6078981219
 20
402.1033502987
 10
724.0476219438
 20
402.0236737764
 10
724.500391652
 20
401.9665793022
 10
724.9618468268
 20
401.9326167271
 10
725.4275434026
 20
401.9221131294
 10
725.8929964668
 20
401.9351696643
 10
726.3537234519
 20
401.9716605903
 10
726.8052873052
 20
402.0312344799
 10
727.2433392199
 20
402.1133176039
 10
727.6636605167
 20
402.217119457
 10
728.0622032716
 20
402.3416403705
 10
728.4351293001
 20
402.4856811401
 10
728.7788471207
 20
402.6478545743
 10
729.0900465428
 20
402.8265988544
 10
729.365730546
 20
403.0201925751
 10
729.6032441425
 20
403.2267713232
 10
729.8002999466
 20
403.4443456324
 10
729.9550002031
 20
403.6708201431
 10
730.065855064
 20
403.9040137821
 10
730.1317969365
 20
404.141680767
 10
730.1522580645
 20
404.368509323
  0
LWPOLYLINE
  5
2A0
330
1F
100
AcDbEntity
  8
0
  6
Continuous
 62
     8
370
    18
100
AcDbPolyline
 90
       34
 70
   128
 43
0.0
 10
570.7144320704
 20
258.0245945962
 10
570.7144993707
 20
258.0115716843
 10
570.7398499915
 20
257.7718456342
 10
570.8107009204
 20
257.5345536947
 10
570.9263698242
 20
257.301981117
 10
571.0857427483
 20
257.0763677022
 10
571.2872848442
 20
256.8598862306
 10
571.5290551513
 20
256.6546215374
 10
571.8087252894
 20
256.4625504335
 10
572.1236018823
 20
256.2855226689
 10
572.4706524961
 20
256.1252431176
 10
572.8465348439
 20
255.9832553594
 10
573.247628973
 20
255.8609268139
 10
573.6700721277
 20
255.7594355719
 10
574.1097959496
 20
255.6797590496
 10
574.5625656579
 20
255.6226645754
 10
575.0240208327
 20
255.5887020003
 10
575.4897174085
 20
255.5781984026
 10
575.9551704727
 20
255.5912549375
 10
576.4158974578
 20
255.6277458635
 10
576.867461311
 20
255.6873197531
 10
577.3055132258
 20
255.7694028771
 10
577.7258345225
 20
255.8732047302
 10
578.1243772775
 20
255.9977256437
 10
578.497303306
 20
256.1417664133
 10
578.8410211266
 20
256.3039398475
 10
579.1522205487
 20
256.4826841276
 10
579.4279045519
 20
256.6762778483
 10
579.6654181483
 20
256.8828565964
 10
579.8624739524
 20
257.1004309056
 10
580.017174209
 20
257.3269054163
 10
580.1280290699
 20
257.5600990553
 10
580.1939709424
 20
257.7977660402
 10
580.2144320704
 20
258.0245945962
  0
ENDSEC
  0
SECTION
  2
OBJECTS
  0
DICTIONARY
  5
C
330
0
100
AcDbDictionary
281
     1
  3
ACAD_GROUP
350
D
  3
ACAD_LAYOUT
350
1A
  3
ACAD_MLINESTYLE
350
17
  3
ACAD_PLOTSETTINGS
350
19
  3
ACAD_PLOTSTYLENAME
350
E
  3
ACAD_SCALELIST
350
47
  0
DICTIONARY
  5
D
102
{ACAD_REACTORS
330
C
102
}
330
C
100
AcDbDictionary
281
     1
  0
DICTIONARY
  5
1A
102
{ACAD_REACTORS
330
C
102
}
330
C
100
AcDbDictionary
281
     1
  3
Layout1
350
1E
  3
Layout2
350
26
  3
Model
350
22
  0
DICTIONARY
  5
17
102
{ACAD_REACTORS
330
C
102
}
330
C
100
AcDbDictionary
281
     1
  3
Standard
350
18
  0
DICTIONARY
  5
19
102
{ACAD_REACTORS
330
C
102
}
330
C
100
AcDbDictionary
281
     1
  0
ACDBDICTIONARYWDFLT
  5
E
102
{ACAD_REACTORS
330
C
102
}
330
C
100
AcDbDictionary
281
     1
  3
Normal
350
F
100
AcDbDictionaryWithDefault
340
F
  0
DICTIONARY
  5
47
102
{ACAD_REACTORS
330
C
102
}
330
C
100
AcDbDictionary
281
     1
  3
A0
350
48
  3
A1
350
49
  3
A2
350
4A
  3
A3
350
4B
  3
A4
350
4C
  3
A5
350
4D
  3
A6
350
4E
  3
A7
350
4F
  3
A8
350
50
  3
A9
350
51
  3
B0
350
52
  3
B1
350
53
  3
B2
350
54
  3
B3
350
55
  3
B4
350
56
  3
B5
350
57
  3
B6
350
58
  3
B7
350
59
  3
B8
350
5A
  3
B9
350
5B
  3
C0
350
5C
  3
C1
350
5D
  3
C2
350
5E
  3
C3
350
5F
  3
C4
350
60
  3
C5
350
61
  3
C6
350
62
  3
C7
350
63
  3
C8
350
64
  3
C9
350
65
  3
D0
350
66
  3
D1
350
67
  3
D2
350
68
  0
LAYOUT
  5
1E
102
{ACAD_REACTORS
330
1A
102
}
330
1A
100
AcDbPlotSettings
  1

  2
none_device
  4

  6

 40
0.0
 41
0.0
 42
0.0
 43
0.0
 44
0.0
 45
0.0
 46
0.0
 47
0.0
 48
0.0
 49
0.0
140
0.0
141
0.0
142
1.0
143
1.0
 70
   688
 72
     1
 73
     0
 74
     5
  7

 75
    16
147
1.0
148
0.0
149
0.0
100
AcDbLayout
  1
Layout1
 70
     1
 71
     1
 10
0.0
 20
0.0
 11
420.0
 21
297.0
 12
0.0
 22
0.0
 32
0.0
 14
1.0000000000E+20
 24
1.0000000000E+20
 34
1.0000000000E+20
 15
-1.0000000000E+20
 25
-1.0000000000E+20
 35
-1.0000000000E+20
146
0.0
 13
0.0
 23
0.0
 33
0.0
 16
1.0
 26
0.0
 36
0.0
 17
0.0
 27
1.0
 37
0.0
 76
     0
330
1B
  0
LAYOUT
  5
26
102
{ACAD_REACTORS
330
1A
102
}
330
1A
100
AcDbPlotSettings
  1

  2
none_device
  4

  6

 40
0.0
 41
0.0
 42
0.0
 43
0.0
 44
0.0
 45
0.0
 46
0.0
 47
0.0
 48
0.0
 49
0.0
140
0.0
141
0.0
142
1.0
143
1.0
 70
   688
 72
     1
 73
     0
 74
     5
  7

 75
    16
147
1.0
148
0.0
149
0.0
100
AcDbLayout
  1
Layout2
 70
     1
 71
     2
 10
0.0
 20
0.0
 11
0.0
 21
0.0
 12
0.0
 22
0.0
 32
0.0
 14
0.0
 24
0.0
 34
0.0
 15
0.0
 25
0.0
 35
0.0
146
0.0
 13
0.0
 23
0.0
 33
0.0
 16
1.0
 26
0.0
 36
0.0
 17
0.0
 27
1.0
 37
0.0
 76
     0
330
23
  0
LAYOUT
  5
22
102
{ACAD_REACTORS
330
1A
102
}
330
1A
100
AcDbPlotSettings
  1

  2
none_device
  4
Letter_(8.50_x_11.00_Inches)
  6

 40
6.35
 41
6.35
 42
6.35000508
 43
6.35000508
 44
215.9
 45
279.4
 46
0.0
 47
0.0
 48
0.0
 49
0.0
140
0.0
141
0.0
142
1.0
143
1.0
 70
  1712
 72
     1
 73
     0
 74
     0
  7

 75
     0
147
1.0
148
0.0
149
0.0
100
AcDbLayout
  1
Model
 70
     1
 71
     0
 10
0.0
 20
0.0
 11
4455.0
 21
3150.0
 12
0.0
 22
0.0
 32
0.0
 14
0.0
 24
0.0
 34
0.0
 15
4455.0
 25
3150.0
 35
0.0
146
0.0
 13
0.0
 23
0.0
 33
0.0
 16
1.0
 26
0.0
 36
0.0
 17
0.0
 27
1.0
 37
0.0
 76
     0
330
1F
331
29
  0
MLINESTYLE
  5
18
102
{ACAD_REACTORS
330
17
102
}
330
17
100
AcDbMlineStyle
  2
Standard
 70
     0
  3

 62
   256
 51
90.0
 52
90.0
 71
     2
 49
0.5
 62
   256
  6
BYLAYER
 49
-0.5
 62
   256
  6
BYLAYER
  0
ACDBPLACEHOLDER
  5
F
102
{ACAD_REACTORS
330
E
102
}
330
E
  0
SCALE
  5
48
102
{ACAD_REACTORS
330
47
102
}
330
47
100
AcDbScale
 70
     0
300
1:1
140
1.0
141
1.0
290
     1
  0
SCALE
  5
49
102
{ACAD_REACTORS
330
47
102
}
330
47
100
AcDbScale
 70
     0
300
1:2
140
1.0
141
2.0
290
     0
  0
SCALE
  5
4A
102
{ACAD_REACTORS
330
47
102
}
330
47
100
AcDbScale
 70
     0
300
1:4
140
1.0
141
4.0
290
     0
  0
SCALE
  5
4B
102
{ACAD_REACTORS
330
47
102
}
330
47
100
AcDbScale
 70
     0
300
1:5
140
1.0
141
5.0
290
     0
  0
SCALE
  5
4C
102
{ACAD_REACTORS
330
47
102
}
330
47
100
AcDbScale
 70
     0
300
1:8
140
1.0
141
8.0
290
     0
  0
SCALE
  5
4D
102
{ACAD_REACTORS
330
47
102
}
330
47
100
AcDbScale
 70
     0
300
1:10
140
1.0
141
10.0
290
     0
  0
SCALE
  5
4E
102
{ACAD_REACTORS
330
47
102
}
330
47
100
AcDbScale
 70
     0
300
1:16
140
1.0
141
16.0
290
     0
  0
SCALE
  5
4F
102
{ACAD_REACTORS
330
47
102
}
330
47
100
AcDbScale
 70
     0
300
1:20
140
1.0
141
20.0
290
     0
  0
SCALE
  5
50
102
{ACAD_REACTORS
330
47
102
}
330
47
100
AcDbScale
 70
     0
300
1:30
140
1.0
141
30.0
290
     0
  0
SCALE
  5
51
102
{ACAD_REACTORS
330
47
102
}
330
47
100
AcDbScale
 70
     0
300
1:40
140
1.0
141
40.0
290
     0
  0
SCALE
  5
52
102
{ACAD_REACTORS
330
47
102
}
330
47
100
AcDbScale
 70
     0
300
1:50
140
1.0
141
50.0
290
     0
  0
SCALE
  5
53
102
{ACAD_REACTORS
330
47
102
}
330
47
100
AcDbScale
 70
     0
300
1:100
140
1.0
141
100.0
290
     0
  0
SCALE
  5
54
102
{ACAD_REACTORS
330
47
102
}
330
47
100
AcDbScale
 70
     0
300
2:1
140
2.0
141
1.0
290
     0
  0
SCALE
  5
55
102
{ACAD_REACTORS
330
47
102
}
330
47
100
AcDbScale
 70
     0
300
4:1
140
4.0
141
1.0
290
     0
  0
SCALE
  5
56
102
{ACAD_REACTORS
330
47
102
}
330
47
100
AcDbScale
 70
     0
300
8:1
140
8.0
141
1.0
290
     0
  0
SCALE
  5
57
102
{ACAD_REACTORS
330
47
102
}
330
47
100
AcDbScale
 70
     0
300
10:1
140
10.0
141
1.0
290
     0
  0
SCALE
  5
58
102
{ACAD_REACTORS
330
47
102
}
330
47
100
AcDbScale
 70
     0
300
100:1
140
100.0
141
1.0
290
     0
  0
SCALE
  5
59
102
{ACAD_REACTORS
330
47
102
}
330
47
100
AcDbScale
 70
     0
300
1/128" = 1'-0"
140
0.0078125
141
12.0
290
     0
  0
SCALE
  5
5A
102
{ACAD_REACTORS
330
47
102
}
330
47
100
AcDbScale
 70
     0
300
1/64" = 1'-0"
140
0.015625
141
12.0
290
     0
  0
SCALE
  5
5B
102
{ACAD_REACTORS
330
47
102
}
330
47
100
AcDbScale
 70
     0
300
1/32" = 1'-0"
140
0.03125
141
12.0
290
     0
  0
SCALE
  5
5C
102
{ACAD_REACTORS
330
47
102
}
330
47
100
AcDbScale
 70
     0
300
1/16" = 1'-0"
140
0.0625
141
12.0
290
     0
  0
SCALE
  5
5D
102
{ACAD_REACTORS
330
47
102
}
330
47
100
AcDbScale
 70
     0
300
3/32" = 1'-0"
140
0.09375
141
12.0
290
     0
  0
SCALE
  5
5E
102
{ACAD_REACTORS
330
47
102
}
330
47
100
AcDbScale
 70
     0
300
1/8" = 1'-0"
140
0.125
141
12.0
290
     0
  0
SCALE
  5
5F
102
{ACAD_REACTORS
330
47
102
}
330
47
100
AcDbScale
 70
     0
300
3/16" = 1'-0"
140
0.1875
141
12.0
290
     0
  0
SCALE
  5
60
102
{ACAD_REACTORS
330
47
102
}
330
47
100
AcDbScale
 70
     0
300
1/4" = 1'-0"
140
0.25
141
12.0
290
     0
  0
SCALE
  5
61
102
{ACAD_REACTORS
330
47
102
}
330
47
100
AcDbScale
 70
     0
300
3/8" = 1'-0"
140
0.375
141
12.0
290
     0
  0
SCALE
  5
62
102
{ACAD_REACTORS
330
47
102
}
330
47
100
AcDbScale
 70
     0
300
1/2" = 1'-0"
140
0.5
141
12.0
290
     0
  0
SCALE
  5
63
102
{ACAD_REACTORS
330
47
102
}
330
47
100
AcDbScale
 70
     0
300
3/4" = 1'-0"
140
0.75
141
12.0
290
     0
  0
SCALE
  5
64
102
{ACAD_REACTORS
330
47
102
}
330
47
100
AcDbScale
 70
     0
300
1" = 1'-0"
140
1.0
141
12.0
290
     0
  0
SCALE
  5
65
102
{ACAD_REACTORS
330
47
102
}
330
47
100
AcDbScale
 70
     0
300
1-1/2" = 1'-0"
140
1.5
141
12.0
290
     0
  0
SCALE
  5
66
102
{ACAD_REACTORS
330
47
102
}
330
47
100
AcDbScale
 70
     0
300
3" = 1'-0"
140
3.0
141
12.0
290
     0
  0
SCALE
  5
67
102
{ACAD_REACTORS
330
47
102
}
330
47
100
AcDbScale
 70
     0
300
6" = 1'-0"
140
6.0
141
12.0
290
     0
  0
SCALE
  5
68
102
{ACAD_REACTORS
330
47
102
}
330
47
100
AcDbScale
 70
     0
300
1'-0" = 1'-0"
140
12.0
141
12.0
290
     0
  0
ENDSEC
  0
EOF
