  0
SECTION
  2
HEADER
  9
$ACADVER
  1
AC1015
  9
$ACADMAINTVER
 70
     6
  9
$DWGCODEPAGE
  3
ANSI_1252
  9
$INSBASE
 10
0.0
 20
0.0
 30
0.0
  9
$EXTMIN
 10
0.0
 20
0.0
 30
0.0
  9
$EXTMAX
 10
4455.0
 20
3150.0
 30
0.0
  9
$LIMMIN
 10
0.0
 20
0.0
  9
$LIMMAX
 10
4455.0
 20
3150.0
  9
$ORTHOMODE
 70
     0
  9
$REGENMODE
 70
     1
  9
$FILLMODE
 70
     1
  9
$QTEXTMODE
 70
     0
  9
$MIRRTEXT
 70
     1
  9
$LTSCALE
 40
15.0
  9
$ATTMODE
 70
     1
  9
$TEXTSIZE
 40
52.5
  9
$TRACEWID
 40
1.0
  9
$TEXTSTYLE
  7
Standard
  9
$CLAYER
  8
0
  9
$CELTYPE
  6
ByLayer
  9
$CECOLOR
 62
   256
  9
$CELTSCALE
 40
1.0
  9
$DISPSILH
 70
     0
  9
$DIMSCALE
 40
1.0
  9
$DIMASZ
 40
37.5
  9
$DIMEXO
 40
0.0
  9
$DIMDLI
 40
3.75
  9
$DIMRND
 40
0.0
  9
$DIMDLE
 40
0.0
  9
$DIMEXE
 40
15.0
  9
$DIMTP
 40
0.0
  9
$DIMTM
 40
0.0
  9
$DIMTXT
 40
45.0
  9
$DIMCEN
 40
2.5
  9
$DIMTSZ
 40
0.0
  9
$DIMTOL
 70
     0
  9
$DIMLIM
 70
     0
  9
$DIMTIH
 70
     1
  9
$DIMTOH
 70
     1
  9
$DIMSE1
 70
     0
  9
$DIMSE2
 70
     0
  9
$DIMTAD
 70
     1
  9
$DIMZIN
 70
     0
  9
$DIMBLK
  1

  9
$DIMASO
 70
     1
  9
$DIMSHO
 70
     1
  9
$DIMPOST
  1

  9
$DIMAPOST
  1

  9
$DIMALT
 70
     0
  9
$DIMALTD
 70
     3
  9
$DIMALTF
 40
0.0393700787
  9
$DIMLFAC
 40
1.0
  9
$DIMTOFL
 70
     1
  9
$DIMTVP
 40
0.0
  9
$DIMTIX
 70
     0
  9
$DIMSOXD
 70
     0
  9
$DIMSAH
 70
     0
  9
$DIMBLK1
  1

  9
$DIMBLK2
  1

  9
$DIMSTYLE
  2
ISO-25
  9
$DIMCLRD
 70
     0
  9
$DIMCLRE
 70
     0
  9
$DIMCLRT
 70
     0
  9
$DIMTFAC
 40
1.0
  9
$DIMGAP
 40
22.5
  9
$DIMJUST
 70
     0
  9
$DIMSD1
 70
     0
  9
$DIMSD2
 70
     0
  9
$DIMTOLJ
 70
     0
  9
$DIMTZIN
 70
     0
  9
$DIMALTZ
 70
     0
  9
$DIMALTTZ
 70
     0
  9
$DIMUPT
 70
     0
  9
$DIMDEC
 70
     1
  9
$DIMTDEC
 70
     1
  9
$DIMALTU
 70
     2
  9
$DIMALTTD
 70
     3
  9
$DIMTXSTY
  7
Standard
  9
$DIMAUNIT
 70
     0
  9
$DIMADEC
 70
     2
  9
$DIMALTRND
 40
0.0
  9
$DIMAZIN
 70
     0
  9
$DIMDSEP
 70
    44
  9
$DIMATFIT
 70
     3
  9
$DIMFRAC
 70
     0
  9
$DIMLDRBLK
  1

  9
$DIMLUNIT
 70
     2
  9
$DIMLWD
 70
    -2
  9
$DIMLWE
 70
    -2
  9
$DIMTMOVE
 70
     0
  9
$LUNITS
 70
     2
  9
$LUPREC
 70
     2
  9
$SKETCHINC
 40
1.0
  9
$FILLETRAD
 40
10.0
  9
$AUNITS
 70
     0
  9
$AUPREC
 70
     2
  9
$MENU
  1
.
  9
$ELEVATION
 40
0.0
  9
$PELEVATION
 40
0.0
  9
$THICKNESS
 40
0.0
  9
$LIMCHECK
 70
     0
  9
$CHAMFERA
 40
0.0
  9
$CHAMFERB
 40
0.0
  9
$CHAMFERC
 40
0.0
  9
$CHAMFERD
 40
0.0
  9
$SKPOLY
 70
     0
  9
$TDCREATE
 40
2459174.716219815
  9
$TDUCREATE
 40
2459174.674553148
  9
$TDUPDATE
 40
2459174.716220648
  9
$TDUUPDATE
 40
2459174.674553982
  9
$TDINDWG
 40
0.0000000116
  9
$TDUSRTIMER
 40
0.0000000116
  9
$USRTIMER
 70
     1
  9
$ANGBASE
 50
0.0
  9
$ANGDIR
 70
     0
  9
$PDMODE
 70
     0
  9
$PDSIZE
 40
-1.0
  9
$PLINEWID
 40
0.0
  9
$SPLFRAME
 70
     0
  9
$SPLINETYPE
 70
     6
  9
$SPLINESEGS
 70
     8
  9
$HANDSEED
  5
29D
  9
$SURFTAB1
 70
     6
  9
$SURFTAB2
 70
     6
  9
$SURFTYPE
 70
     6
  9
$SURFU
 70
     6
  9
$SURFV
 70
     6
  9
$UCSBASE
  2

  9
$UCSNAME
  2

  9
$UCSORG
 10
0.0
 20
0.0
 30
0.0
  9
$UCSXDIR
 10
1.0
 20
0.0
 30
0.0
  9
$UCSYDIR
 10
0.0
 20
1.0
 30
0.0
  9
$UCSORTHOREF
  2

  9
$UCSORTHOVIEW
 70
     0
  9
$UCSORGTOP
 10
0.0
 20
0.0
 30
0.0
  9
$UCSORGBOTTOM
 10
0.0
 20
0.0
 30
0.0
  9
$UCSORGLEFT
 10
0.0
 20
0.0
 30
0.0
  9
$UCSORGRIGHT
 10
0.0
 20
0.0
 30
0.0
  9
$UCSORGFRONT
 10
0.0
 20
0.0
 30
0.0
  9
$UCSORGBACK
 10
0.0
 20
0.0
 30
0.0
  9
$PUCSBASE
  2

  9
$PUCSNAME
  2

  9
$PUCSORG
 10
0.0
 20
0.0
 30
0.0
  9
$PUCSXDIR
 10
1.0
 20
0.0
 30
0.0
  9
$PUCSYDIR
 10
0.0
 20
1.0
 30
0.0
  9
$PUCSORTHOREF
  2

  9
$PUCSORTHOVIEW
 70
     0
  9
$PUCSORGTOP
 10
0.0
 20
0.0
 30
0.0
  9
$PUCSORGBOTTOM
 10
0.0
 20
0.0
 30
0.0
  9
$PUCSORGLEFT
 10
0.0
 20
0.0
 30
0.0
  9
$PUCSORGRIGHT
 10
0.0
 20
0.0
 30
0.0
  9
$PUCSORGFRONT
 10
0.0
 20
0.0
 30
0.0
  9
$PUCSORGBACK
 10
0.0
 20
0.0
 30
0.0
  9
$USERI1
 70
     0
  9
$USERI2
 70
     0
  9
$USERI3
 70
     0
  9
$USERI4
 70
     0
  9
$USERI5
 70
     0
  9
$USERR1
 40
0.0
  9
$USERR2
 40
0.0
  9
$USERR3
 40
0.0
  9
$USERR4
 40
0.0
  9
$USERR5
 40
0.0
  9
$WORLDVIEW
 70
     1
  9
$SHADEDGE
 70
     3
  9
$SHADEDIF
 70
    70
  9
$TILEMODE
 70
     1
  9
$MAXACTVP
 70
    64
  9
$PINSBASE
 10
0.0
 20
0.0
 30
0.0
  9
$PLIMCHECK
 70
     0
  9
$PEXTMIN
 10
1.0000000000E+20
 20
1.0000000000E+20
 30
1.0000000000E+20
  9
$PEXTMAX
 10
-1.0000000000E+20
 20
-1.0000000000E+20
 30
-1.0000000000E+20
  9
$PLIMMIN
 10
0.0
 20
0.0
  9
$PLIMMAX
 10
420.0
 20
297.0
  9
$UNITMODE
 70
     0
  9
$VISRETAIN
 70
     1
  9
$PLINEGEN
 70
     0
  9
$PSLTSCALE
 70
     1
  9
$TREEDEPTH
 70
  3020
  9
$CMLSTYLE
  2
Standard
  9
$CMLJUST
 70
     0
  9
$CMLSCALE
 40
20.0
  9
$PROXYGRAPHICS
 70
     1
  9
$MEASUREMENT
 70
     1
  9
$CELWEIGHT
370
    -1
  9
$ENDCAPS
280
     0
  9
$JOINSTYLE
280
     0
  9
$LWDISPLAY
290
     1
  9
$INSUNITS
 70
     4
  9
$HYPERLINKBASE
  1

  9
$STYLESHEET
  1

  9
$XEDIT
290
     1
  9
$CEPSNTYPE
380
     0
  9
$PSTYLEMODE
290
     1
  9
$FINGERPRINTGUID
  2
{cbe3bd83-aa62-4753-8ec8-26c67e4b4bf0}
  9
$VERSIONGUID
  2
{FAEB1C32-E019-11D5-929B-00C0DF256EC4}
  9
$EXTNAMES
290
     1
  9
$PSVPSCALE
 40
0.0
  9
$OLESTARTUP
290
     0
  0
ENDSEC
  0
SECTION
  2
CLASSES
  0
CLASS
  1
ACDBDICTIONARYWDFLT
  2
AcDbDictionaryWithDefault
  3
ObjectDBX Classes
 90
        0
280
     0
281
     0
  0
CLASS
  1
VISUALSTYLE
  2
AcDbVisualStyle
  3
ObjectDBX Classes
 90
     4095
280
     0
281
     0
  0
CLASS
  1
MATERIAL
  2
AcDbMaterial
  3
ObjectDBX Classes
 90
     1153
280
     0
281
     0
  0
CLASS
  1
SCALE
  2
AcDbScale
  3
ObjectDBX Classes
 90
     1153
280
     0
281
     0
  0
CLASS
  1
TABLESTYLE
  2
AcDbTableStyle
  3
ObjectDBX Classes
 90
     4095
280
     0
281
     0
  0
CLASS
  1
MLEADERSTYLE
  2
AcDbMLeaderStyle
  3
ACDB_MLEADERSTYLE_CLASS
 90
     4095
280
     0
281
     0
  0
CLASS
  1
SUN
  2
AcDbSun
  3
SCENEOE
 90
     1153
280
     0
281
     0
  0
CLASS
  1
ACDBPLACEHOLDER
  2
AcDbPlaceHolder
  3
ObjectDBX Classes
 90
        0
280
     0
281
     0
  0
CLASS
  1
LAYOUT
  2
AcDbLayout
  3
ObjectDBX Classes
 90
        0
280
     0
281
     0
  0
ENDSEC
  0
SECTION
  2
TABLES
  0
TABLE
  2
VPORT
  5
8
330
0
100
AcDbSymbolTable
 70
     1
  0
VPORT
  5
29
330
8
100
AcDbSymbolTableRecord
100
AcDbViewportTableRecord
  2
*Active
 70
     0
 10
0.0
 20
0.0
 11
1.0
 21
1.0
 12
2227.5
 22
1575.0
 13
0.0
 23
0.0
 14
10.0
 24
10.0
 15
10.0
 25
10.0
 16
0.0
 26
0.0
 36
1.0
 17
0.0
 27
0.0
 37
0.0
 40
3150.0
 41
1.4142857143
 42
50.0
 43
0.0
 44
0.0
 50
0.0
 51
0.0
 71
     0
 72
  2000
 73
     1
 74
     3
 75
     0
 76
     0
 77
     0
 78
     0
281
     0
 65
     1
110
0.0
120
0.0
130
0.0
111
1.0
121
0.0
131
0.0
112
0.0
122
1.0
132
0.0
 79
     0
146
0.0
  0
ENDTAB
  0
TABLE
  2
LTYPE
  5
5
330
0
100
AcDbSymbolTable
 70
     6
  0
LTYPE
  5
14
330
5
100
AcDbSymbolTableRecord
100
AcDbLinetypeTableRecord
  2
ByBlock
 70
     0
  3

 72
    65
 73
     0
 40
0.0
  0
LTYPE
  5
15
330
5
100
AcDbSymbolTableRecord
100
AcDbLinetypeTableRecord
  2
ByLayer
 70
     0
  3

 72
    65
 73
     0
 40
0.0
  0
LTYPE
  5
16
330
5
100
AcDbSymbolTableRecord
100
AcDbLinetypeTableRecord
  2
Continuous
 70
     0
  3
Solid line
 72
    65
 73
     0
 40
0.0
  0
LTYPE
  5
6E
330
5
100
AcDbSymbolTableRecord
100
AcDbLinetypeTableRecord
  2
HIDDEN
 70
     0
  3
Hidden __ __ __ __ __ __ __ __ __ __ __ __ __ __
 72
    65
 73
     2
 40
1.905
 49
1.27
 74
     0
 49
-0.635
 74
     0
  0
LTYPE
  5
6F
330
5
100
AcDbSymbolTableRecord
100
AcDbLinetypeTableRecord
  2
PHANTOM
 70
     0
  3
Phantom ______  __  __  ______  __  __  ______
 72
    65
 73
     6
 40
12.7
 49
6.35
 74
     0
 49
-1.27
 74
     0
 49
1.27
 74
     0
 49
-1.27
 74
     0
 49
1.27
 74
     0
 49
-1.27
 74
     0
  0
LTYPE
  5
70
330
5
100
AcDbSymbolTableRecord
100
AcDbLinetypeTableRecord
  2
CENTER
 70
     0
  3
Center ____ _ ____ _ ____ _ ____ _ ____ _ ____
 72
    65
 73
     4
 40
10.16
 49
6.35
 74
     0
 49
-1.27
 74
     0
 49
1.27
 74
     0
 49
-1.27
 74
     0
  0
LTYPE
  5
71
330
5
100
AcDbSymbolTableRecord
100
AcDbLinetypeTableRecord
  2
CENTERX2
 70
     0
  3
Center (2x) ________  __  ________  __  _____
 72
    65
 73
     4
 40
20.32
 49
12.7
 74
     0
 49
-2.54
 74
     0
 49
2.54
 74
     0
 49
-2.54
 74
     0
  0
LTYPE
  5
72
330
5
100
AcDbSymbolTableRecord
100
AcDbLinetypeTableRecord
  2
DOT2
 70
     0
  3
Dot (.5x) ........................................
 72
    65
 73
     2
 40
0.635
 49
0.0
 74
     0
 49
-0.635
 74
     0
  0
ENDTAB
  0
TABLE
  2
LAYER
  5
2
330
0
100
AcDbSymbolTable
 70
     2
  0
LAYER
  5
10
330
2
100
AcDbSymbolTableRecord
100
AcDbLayerTableRecord
  2
0
 70
     0
 62
     7
  6
Continuous
370
    -3
390
F
  0
LAYER
  5
73
330
2
100
AcDbSymbolTableRecord
100
AcDbLayerTableRecord
  2
FORMAT
 70
     0
 62
     7
  6
Continuous
370
    -3
390
F
  0
ENDTAB
  0
TABLE
  2
STYLE
  5
3
330
0
100
AcDbSymbolTable
 70
     2
  0
STYLE
  5
11
330
3
100
AcDbSymbolTableRecord
100
AcDbTextStyleTableRecord
  2
Standard
 70
     0
 40
0.0
 41
1.0
 50
0.0
 71
     0
 42
52.5
  3
txt
  4

  0
STYLE
  5
E7
330
3
100
AcDbSymbolTableRecord
100
AcDbTextStyleTableRecord
  2
SLDTEXTSTYLE0
 70
     0
 40
0.0
 41
0.605
 50
0.0
 71
     0
 42
52.5
  3
TXT
  4

  0
ENDTAB
  0
TABLE
  2
VIEW
  5
6
330
0
100
AcDbSymbolTable
 70
     0
  0
ENDTAB
  0
TABLE
  2
UCS
  5
7
330
0
100
AcDbSymbolTable
 70
     0
  0
ENDTAB
  0
TABLE
  2
APPID
  5
9
330
0
100
AcDbSymbolTable
 70
     1
  0
APPID
  5
12
330
9
100
AcDbSymbolTableRecord
100
AcDbRegAppTableRecord
  2
ACAD
 70
     0
  0
ENDTAB
  0
TABLE
  2
DIMSTYLE
  5
A
330
0
100
AcDbSymbolTable
 70
     1
100
AcDbDimStyleTable
  0
DIMSTYLE
105
27
330
A
100
AcDbSymbolTableRecord
100
AcDbDimStyleTableRecord
  2
ISO-25
 70
     0
 41
2.5
 42
0.625
 43
3.75
 44
1.25
 73
     0
 74
     0
 77
     1
 78
     8
140
2.5
141
2.5
143
0.0393700787
147
0.625
171
     3
172
     1
178
     0
271
     2
272
     2
274
     3
278
    44
283
     0
284
     8
340
11
  0
ENDTAB
  0
TABLE
  2
BLOCK_RECORD
  5
1
330
0
100
AcDbSymbolTable
 70
     2
  0
BLOCK_RECORD
  5
1F
330
1
100
AcDbSymbolTableRecord
100
AcDbBlockTableRecord
  2
*Model_Space
340
22
  0
BLOCK_RECORD
  5
1B
330
1
100
AcDbSymbolTableRecord
100
AcDbBlockTableRecord
  2
*Paper_Space
340
1E
  0
BLOCK_RECORD
  5
23
330
1
100
AcDbSymbolTableRecord
100
AcDbBlockTableRecord
  2
*Paper_Space0
340
26
  0
BLOCK_RECORD
  5
EE
330
1
100
AcDbSymbolTableRecord
100
AcDbBlockTableRecord
  2
SW_NOTE_0
340
0
102
{BLKREFS
331
F3
102
}
  0
ENDTAB
  0
ENDSEC
  0
SECTION
  2
BLOCKS
  0
BLOCK
  5
20
330
1F
100
AcDbEntity
  8
0
100
AcDbBlockBegin
  2
*Model_Space
 70
     0
 10
0.0
 20
0.0
 30
0.0
  3
*Model_Space
  1

  0
ENDBLK
  5
21
330
1F
100
AcDbEntity
  8
0
100
AcDbBlockEnd
  0
BLOCK
  5
1C
330
1B
100
AcDbEntity
 67
     1
  8
0
100
AcDbBlockBegin
  2
*Paper_Space
 70
     0
 10
0.0
 20
0.0
 30
0.0
  3
*Paper_Space
  1

  0
ENDBLK
  5
1D
330
1B
100
AcDbEntity
 67
     1
  8
0
100
AcDbBlockEnd
  0
BLOCK
  5
24
330
23
100
AcDbEntity
  8
0
100
AcDbBlockBegin
  2
*Paper_Space0
 70
     0
 10
0.0
 20
0.0
 30
0.0
  3
*Paper_Space0
  1

  0
ENDBLK
  5
25
330
23
100
AcDbEntity
  8
0
100
AcDbBlockEnd
  0
BLOCK
  5
EF
330
EE
100
AcDbEntity
  8
0
100
AcDbBlockBegin
  2
SW_NOTE_0
 70
     0
 10
0.0
 20
0.0
 30
0.0
  3
SW_NOTE_0
  1

  0
MTEXT
  5
F1
330
EE
100
AcDbEntity
  8
0
  6
Continuous
 62
     0
370
     0
100
AcDbMText
 10
49.359375
 20
34.8048289738
 30
0.0
 40
27.0
 41
0.0
 71
     2
 72
     1
  1
SCALA
  7
SLDTEXTSTYLE0
 73
     1
 44
1.0
  0
MTEXT
  5
F2
330
EE
100
AcDbEntity
  8
0
  6
Continuous
 62
     0
370
     0
100
AcDbMText
 10
53.4147810657
 20
-2.4595061469
 30
0.0
 40
55.5625
 41
0.0
 71
     2
 72
     1
  1
1:1
  7
SLDTEXTSTYLE0
 73
     1
 44
1.0
  0
ENDBLK
  5
F0
330
EE
100
AcDbEntity
  8
0
100
AcDbBlockEnd
  0
ENDSEC
  0
SECTION
  2
ENTITIES
  0
HATCH
  5
74
330
1F
100
AcDbEntity
  8
0
  6
Continuous
 62
     7
100
AcDbHatch
 10
0.0
 20
0.0
 30
0.0
210
0.0
220
0.0
230
1.0
  2
SOLID
 70
     1
 71
     0
 91
        2
 92
        0
 93
        6
 72
     1
 10
3510.364839630325
 20
478.9717232620642
 11
3534.971866308667
 21
478.9717232620642
 72
     3
 10
3526.618147735648
 20
497.9339160554321
 11
40.63327027197528
 21
0.0
 40
0.4768529109443385
 50
293.775699558261
 51
426.2243004403767
 73
     1
 72
     1
 10
3534.971866309184
 20
516.8961088487492
 11
3485.984877466922
 21
516.8961088487492
 72
     1
 10
3485.984877466922
 20
516.8961088487492
 11
3485.984877466922
 21
457.3006457872621
 72
     1
 10
3485.984877466922
 20
457.3006457872621
 11
3510.364839630325
 21
457.3006457872621
 72
     1
 10
3510.364839630325
 20
457.3006457872621
 11
3510.364839630325
 21
478.9717232620642
 97
        0
 92
        0
 93
        6
 72
     3
 10
3525.263705395451
 20
497.9339160554321
 11
14.89886576646227
 21
0.0
 40
0.5895245510672578
 50
316.3365658560249
 51
403.6634341442267
 73
     0
 72
     2
 10
3529.385821470631
 20
500.6428007400895
 40
10.83553873881616
 50
69.99121011132848
 51
90.0
 73
     0
 72
     1
 10
3529.385821470631
 20
489.8072620012733
 11
3510.364839629721
 21
489.8072620012733
 72
     1
 10
3510.364839629721
 20
489.8072620012733
 11
3510.364839629721
 21
506.060570109435
 72
     1
 10
3510.364839629721
 20
506.060570109435
 11
3529.385821471518
 21
506.060570109435
 72
     2
 10
3529.385821471518
 20
495.2250313732109
 40
10.83553873622417
 50
270.0000000000008
 51
290.0087898889544
 73
     0
 97
        0
 75
     0
 76
     1
 98
        1
 10
0.0
 20
0.0
  0
HATCH
  5
75
330
1F
100
AcDbEntity
  8
0
  6
Continuous
 62
     7
100
AcDbHatch
 10
0.0
 20
0.0
 30
0.0
210
0.0
220
0.0
230
1.0
  2
SOLID
 70
     1
 71
     0
 91
        1
 92
        0
 93
       12
 72
     1
 10
3653.935727922185
 20
516.89610884631
 11
3572.669187380694
 21
516.89610884631
 72
     1
 10
3572.669187380694
 20
516.89610884631
 11
3572.669187380694
 21
457.300645784823
 72
     1
 10
3572.669187380694
 20
457.300645784823
 11
3653.935727922185
 21
457.300645784823
 72
     1
 10
3653.935727922185
 20
457.300645784823
 11
3653.935727922185
 21
468.136184519505
 72
     1
 10
3653.935727922185
 20
468.136184519505
 11
3599.758034227767
 21
468.136184519505
 72
     1
 10
3599.758034227767
 20
468.136184519505
 11
3599.758034227767
 21
481.6806079430411
 72
     1
 10
3599.758034227767
 20
481.6806079430411
 11
3648.517958554844
 21
481.6806079430411
 72
     1
 10
3648.517958554844
 20
481.6806079430411
 11
3648.517958554844
 21
492.5161466829075
 72
     1
 10
3648.517958554844
 20
492.5161466829075
 11
3599.758034227767
 21
492.5161466829075
 72
     1
 10
3599.758034227767
 20
492.5161466829075
 11
3599.758034227767
 21
506.0605701064436
 72
     1
 10
3599.758034227767
 20
506.0605701064436
 11
3653.935727922185
 21
506.0605701064436
 72
     1
 10
3653.935727922185
 20
506.0605701064436
 11
3653.935727922185
 21
516.89610884631
 97
        0
 75
     0
 76
     1
 98
        1
 10
0.0
 20
0.0
  0
HATCH
  5
76
330
1F
100
AcDbEntity
  8
0
  6
Continuous
 62
     7
100
AcDbHatch
 10
0.0
 20
0.0
 30
0.0
210
0.0
220
0.0
230
1.0
  2
SOLID
 70
     1
 71
     0
 91
        1
 92
        0
 93
        6
 72
     1
 10
3968.166351360068
 20
516.896108849379
 11
3941.077504512995
 21
516.896108849379
 72
     1
 10
3941.077504512995
 20
516.896108849379
 11
3941.077504512995
 21
457.3006457878918
 72
     1
 10
3941.077504512995
 20
457.3006457878918
 11
4014.217391003474
 21
457.3006457878918
 72
     1
 10
4014.217391003474
 20
457.3006457878918
 11
4014.217391003474
 21
470.8450692114284
 72
     1
 10
4014.217391003474
 20
470.8450692114284
 11
3968.166351360068
 21
470.8450692114284
 72
     1
 10
3968.166351360068
 20
470.8450692114284
 11
3968.166351360068
 21
516.896108849379
 97
        0
 75
     0
 76
     1
 98
        1
 10
0.0
 20
0.0
  0
HATCH
  5
77
330
1F
100
AcDbEntity
  8
0
  6
Continuous
 62
     7
100
AcDbHatch
 10
0.0
 20
0.0
 30
0.0
210
0.0
220
0.0
230
1.0
  2
SOLID
 70
     1
 71
     0
 91
        1
 92
        0
 93
        4
 72
     1
 10
4016.926275686005
 20
516.8961088487489
 11
4016.926275686005
 21
457.3006457872619
 72
     1
 10
4016.926275686005
 20
457.3006457872619
 11
4044.015122533078
 21
457.3006457872619
 72
     1
 10
4044.015122533078
 20
457.3006457872619
 11
4044.015122533078
 21
516.8961088487489
 72
     1
 10
4044.015122533078
 20
516.8961088487489
 11
4016.926275686005
 21
516.8961088487489
 97
        0
 75
     0
 76
     1
 98
        1
 10
0.0
 20
0.0
  0
HATCH
  5
78
330
1F
100
AcDbEntity
  8
0
  6
Continuous
 62
     7
100
AcDbHatch
 10
0.0
 20
0.0
 30
0.0
210
0.0
220
0.0
230
1.0
  2
SOLID
 70
     1
 71
     0
 91
        2
 92
        0
 93
        4
 72
     3
 10
3702.695652247627
 20
487.0983773139296
 11
43.3421549567338
 21
0.0
 40
0.6929224243374511
 50
280.2934314618138
 51
439.7065685387132
 73
     1
 72
     1
 10
3708.107289002345
 20
516.8961088463723
 11
3659.353497294997
 21
516.896108846372
 72
     1
 10
3659.353497294997
 20
516.896108846372
 11
3659.353497294997
 21
457.3006457815111
 72
     1
 10
3659.353497294997
 20
457.3006457815111
 11
3708.107289002623
 21
457.3006457815111
 97
        0
 92
        0
 93
        6
 72
     2
 10
3709.420759151997
 20
487.0983773132712
 40
16.25330810997023
 50
56.16906508602241
 51
90.0
 73
     0
 72
     1
 10
3709.420759151997
 20
470.8450692033011
 11
3683.73345945474
 21
470.8450692033011
 72
     1
 10
3683.73345945474
 20
470.8450692033011
 11
3683.73345945474
 21
503.3516854240493
 72
     1
 10
3683.73345945474
 20
503.3516854240493
 11
3709.420759151997
 21
503.3516854240493
 72
     2
 10
3709.420759151997
 20
487.0983773132712
 40
16.25330811077806
 50
270.0000000000008
 51
303.8314447476084
 73
     0
 72
     3
 10
3693.214555856416
 20
487.0983773139296
 11
33.86105856006918
 21
0.0
 40
0.5985848325441406
 50
331.8713554011804
 51
388.1288999924611
 73
     0
 97
        0
 75
     0
 76
     1
 98
        1
 10
0.0
 20
0.0
  0
HATCH
  5
79
330
1F
100
AcDbEntity
  8
0
  6
Continuous
 62
     7
100
AcDbHatch
 10
0.0
 20
0.0
 30
0.0
210
0.0
220
0.0
230
1.0
  2
SOLID
 70
     1
 71
     0
 91
        3
 92
        0
 93
       19
 72
     1
 10
3838.305303288919
 20
472.1564369380282
 11
3840.533301976077
 21
463.4514816274054
 72
     2
 10
3848.180349956368
 20
465.1715759510745
 40
7.838116310390116
 50
192.676878510139
 51
204.7368873206727
 73
     1
 72
     1
 10
3841.061467316795
 20
461.891701371279
 11
3876.06427207871
 21
516.896108849379
 72
     1
 10
3876.06427207871
 20
516.896108849379
 11
3903.153118925783
 21
516.896108849379
 72
     1
 10
3903.153118925783
 20
516.896108849379
 11
3941.077504512995
 21
457.3006457878918
 72
     1
 10
3941.077504512995
 20
457.3006457878918
 11
3913.988657665649
 21
457.3006457878918
 72
     1
 10
3913.988657665649
 20
457.3006457878918
 11
3907.893667124934
 21
468.136184522574
 72
     1
 10
3907.893667124934
 20
468.136184522574
 11
3871.323723879558
 21
468.136184522574
 72
     1
 10
3871.323723879558
 20
468.136184522574
 11
3865.228733338844
 21
457.3006457878918
 72
     1
 10
3865.228733338844
 20
457.3006457878918
 11
3819.177693694659
 21
457.3006457878918
 72
     1
 10
3819.177693694659
 20
457.3006457878918
 11
3819.177693694659
 21
468.1361845239816
 72
     2
 10
3808.342154954792
 20
468.1361845239816
 40
10.83553873986634
 50
0.0
 51
90.0
 73
     1
 72
     1
 10
3808.342154954792
 20
478.9717232638475
 11
3781.253308107446
 21
478.9717232638475
 72
     1
 10
3781.253308107446
 20
478.9717232638475
 11
3781.253308107446
 21
457.3006457892997
 72
     1
 10
3781.253308107446
 20
457.3006457892997
 11
3756.873345944045
 21
457.3006457892997
 72
     1
 10
3756.873345944045
 20
457.3006457892997
 11
3756.873345944045
 21
516.8961088507866
 72
     1
 10
3756.873345944045
 20
516.8961088507866
 11
3813.02888745868
 21
516.8961088507866
 72
     3
 10
3807.044921560378
 20
499.4046031234453
 11
36.48999933802743
 21
0.0
 40
0.4859291160023138
 50
288.8861745463018
 51
398.6942257036358
 73
     0
 72
     2
 10
3823.556377394376
 20
469.4441941062505
 40
14.99623540163429
 50
279.2678272406091
 51
349.5800515720783
 73
     0
 97
        0
 92
        0
 93
        3
 72
     1
 10
3889.608695501106
 20
500.6428007391028
 11
3877.418714419404
 21
478.9717232593709
 72
     1
 10
3877.418714419404
 20
478.9717232593709
 11
3901.798676582808
 21
478.9717232593709
 72
     1
 10
3901.798676582808
 20
478.9717232593709
 11
3889.608695501106
 21
500.6428007391028
 97
        0
 92
        0
 93
        6
 72
     2
 10
3807.717258628007
 20
497.933916056143
 40
8.126654055321543
 50
270.0000000000008
 51
305.5869104965617
 73
     1
 72
     3
 10
3798.861058561583
 20
497.9339160554321
 11
17.6077504512262
 21
0.0
 40
0.5900077182209744
 50
334.0585416903787
 51
385.9414583083991
 73
     1
 72
     2
 10
3807.717258628007
 20
497.933916056143
 40
8.126654054164838
 50
54.41308949502037
 51
90.0
 73
     1
 72
     1
 10
3807.717258628007
 20
506.0605701103083
 11
3781.253308106577
 21
506.0605701103083
 72
     1
 10
3781.253308106577
 20
506.0605701103083
 11
3781.253308106577
 21
489.807262000821
 72
     1
 10
3781.253308106577
 20
489.807262000821
 11
3807.717258628007
 21
489.8072620008215
 97
        0
 75
     0
 76
     1
 98
        1
 10
0.0
 20
0.0
  0
LINE
  5
7A
330
1F
100
AcDbEntity
  8
0
  6
Continuous
 62
     7
370
    25
100
AcDbLine
 10
4305.0
 20
150.0
 30
0.0
 11
4305.0
 21
3000.0
 31
0.0
  0
LINE
  5
7B
330
1F
100
AcDbEntity
  8
0
  6
Continuous
 62
   179
370
    18
100
AcDbLine
 10
3485.9848774669
 20
516.8961088487
 30
0.0
 11
3485.9848774669
 21
457.3006457873
 31
0.0
  0
LINE
  5
7C
330
1F
100
AcDbEntity
  8
0
  6
Continuous
 62
   179
370
    18
100
AcDbLine
 10
3485.9848774669
 20
516.8961088487
 30
0.0
 11
3534.9718663092
 21
516.8961088487
 31
0.0
  0
LINE
  5
7D
330
1F
100
AcDbEntity
  8
0
  6
Continuous
 62
   179
370
    18
100
AcDbLine
 10
3485.9848774669
 20
457.3006457873
 30
0.0
 11
3510.3648396303
 21
457.3006457873
 31
0.0
  0
LINE
  5
7E
330
1F
100
AcDbEntity
  8
0
  6
Continuous
 62
   179
370
    18
100
AcDbLine
 10
3510.3648396303
 20
457.3006457873
 30
0.0
 11
3510.3648396303
 21
478.9717232621
 31
0.0
  0
LINE
  5
7F
330
1F
100
AcDbEntity
  8
0
  6
Continuous
 62
   179
370
    18
100
AcDbLine
 10
3534.9718663087
 20
478.9717232621
 30
0.0
 11
3510.3648396303
 21
478.9717232621
 31
0.0
  0
LINE
  5
80
330
1F
100
AcDbEntity
  8
0
  6
Continuous
 62
   179
370
    18
100
AcDbLine
 10
3510.3648396297
 20
489.8072620013
 30
0.0
 11
3510.3648396297
 21
506.0605701094
 31
0.0
  0
LINE
  5
81
330
1F
100
AcDbEntity
  8
0
  6
Continuous
 62
   179
370
    18
100
AcDbLine
 10
3510.3648396297
 20
506.0605701094
 30
0.0
 11
3529.3858214715
 21
506.0605701094
 31
0.0
  0
LINE
  5
82
330
1F
100
AcDbEntity
  8
0
  6
Continuous
 62
   179
370
    18
100
AcDbLine
 10
3510.3648396297
 20
489.8072620013
 30
0.0
 11
3529.3858214706
 21
489.8072620013
 31
0.0
  0
LINE
  5
83
330
1F
100
AcDbEntity
  8
0
  6
Continuous
 62
   179
370
    18
100
AcDbLine
 10
3572.6691873807
 20
516.8961088463
 30
0.0
 11
3653.9357279222
 21
516.8961088463
 31
0.0
  0
LINE
  5
84
330
1F
100
AcDbEntity
  8
0
  6
Continuous
 62
   179
370
    18
100
AcDbLine
 10
3653.9357279222
 20
516.8961088463
 30
0.0
 11
3653.9357279222
 21
506.0605701064
 31
0.0
  0
LINE
  5
85
330
1F
100
AcDbEntity
  8
0
  6
Continuous
 62
   179
370
    18
100
AcDbLine
 10
3653.9357279222
 20
506.0605701064
 30
0.0
 11
3599.7580342278
 21
506.0605701064
 31
0.0
  0
LINE
  5
86
330
1F
100
AcDbEntity
  8
0
  6
Continuous
 62
   179
370
    18
100
AcDbLine
 10
3599.7580342278
 20
506.0605701064
 30
0.0
 11
3599.7580342278
 21
492.5161466829
 31
0.0
  0
LINE
  5
87
330
1F
100
AcDbEntity
  8
0
  6
Continuous
 62
   179
370
    18
100
AcDbLine
 10
3599.7580342278
 20
492.5161466829
 30
0.0
 11
3648.5179585548
 21
492.5161466829
 31
0.0
  0
LINE
  5
88
330
1F
100
AcDbEntity
  8
0
  6
Continuous
 62
   179
370
    18
100
AcDbLine
 10
3648.5179585548
 20
492.5161466829
 30
0.0
 11
3648.5179585548
 21
481.680607943
 31
0.0
  0
LINE
  5
89
330
1F
100
AcDbEntity
  8
0
  6
Continuous
 62
   179
370
    18
100
AcDbLine
 10
3648.5179585548
 20
481.680607943
 30
0.0
 11
3599.7580342278
 21
481.680607943
 31
0.0
  0
LINE
  5
8A
330
1F
100
AcDbEntity
  8
0
  6
Continuous
 62
   179
370
    18
100
AcDbLine
 10
3599.7580342278
 20
481.680607943
 30
0.0
 11
3599.7580342278
 21
468.1361845195
 31
0.0
  0
LINE
  5
8B
330
1F
100
AcDbEntity
  8
0
  6
Continuous
 62
   179
370
    18
100
AcDbLine
 10
3599.7580342278
 20
468.1361845195
 30
0.0
 11
3653.9357279222
 21
468.1361845195
 31
0.0
  0
LINE
  5
8C
330
1F
100
AcDbEntity
  8
0
  6
Continuous
 62
   179
370
    18
100
AcDbLine
 10
3653.9357279222
 20
468.1361845195
 30
0.0
 11
3653.9357279222
 21
457.3006457848
 31
0.0
  0
LINE
  5
8D
330
1F
100
AcDbEntity
  8
0
  6
Continuous
 62
   179
370
    18
100
AcDbLine
 10
3653.9357279222
 20
457.3006457848
 30
0.0
 11
3572.6691873807
 21
457.3006457848
 31
0.0
  0
LINE
  5
8E
330
1F
100
AcDbEntity
  8
0
  6
Continuous
 62
   179
370
    18
100
AcDbLine
 10
3659.353497295
 20
516.8961088464
 30
0.0
 11
3659.353497295
 21
457.3006457815
 31
0.0
  0
LINE
  5
8F
330
1F
100
AcDbEntity
  8
0
  6
Continuous
 62
   179
370
    18
100
AcDbLine
 10
3659.353497295
 20
516.8961088464
 30
0.0
 11
3708.1072890023
 21
516.8961088464
 31
0.0
  0
LINE
  5
90
330
1F
100
AcDbEntity
  8
0
  6
Continuous
 62
   179
370
    18
100
AcDbLine
 10
3708.1072890026
 20
457.3006457815
 30
0.0
 11
3659.353497295
 21
457.3006457815
 31
0.0
  0
LINE
  5
91
330
1F
100
AcDbEntity
  8
0
  6
Continuous
 62
   179
370
    18
100
AcDbLine
 10
3683.7334594547
 20
487.0983773105
 30
0.0
 11
3683.7334594547
 21
470.8450692033
 31
0.0
  0
LINE
  5
92
330
1F
100
AcDbEntity
  8
0
  6
Continuous
 62
   179
370
    18
100
AcDbLine
 10
3683.7334594547
 20
470.8450692033
 30
0.0
 11
3709.420759152
 21
470.8450692033
 31
0.0
  0
LINE
  5
93
330
1F
100
AcDbEntity
  8
0
  6
Continuous
 62
   179
370
    18
100
AcDbLine
 10
3683.7334594547
 20
487.0983773105
 30
0.0
 11
3683.7334594547
 21
503.351685424
 31
0.0
  0
LINE
  5
94
330
1F
100
AcDbEntity
  8
0
  6
Continuous
 62
   179
370
    18
100
AcDbLine
 10
3683.7334594547
 20
503.351685424
 30
0.0
 11
3709.420759152
 21
503.351685424
 31
0.0
  0
LINE
  5
95
330
1F
100
AcDbEntity
  8
0
  6
Continuous
 62
   179
370
    18
100
AcDbLine
 10
3756.873345944
 20
516.8961088508
 30
0.0
 11
3756.873345944
 21
457.3006457893
 31
0.0
  0
LINE
  5
96
330
1F
100
AcDbEntity
  8
0
  6
Continuous
 62
     7
370
    18
100
AcDbLine
 10
4093.1984921262
 20
420.0000000006
 30
0.0
 11
4093.1984921262
 21
285.0000000003
 31
0.0
  0
LINE
  5
97
330
1F
100
AcDbEntity
  8
0
  6
Continuous
 62
   179
370
    18
100
AcDbLine
 10
3756.873345944
 20
457.3006457893
 30
0.0
 11
3781.2533081074
 21
457.3006457893
 31
0.0
  0
LINE
  5
98
330
1F
100
AcDbEntity
  8
0
  6
Continuous
 62
   179
370
    18
100
AcDbLine
 10
3781.2533081074
 20
457.3006457893
 30
0.0
 11
3781.2533081074
 21
478.9717232638
 31
0.0
  0
LINE
  5
99
330
1F
100
AcDbEntity
  8
0
  6
Continuous
 62
   179
370
    18
100
AcDbLine
 10
3781.2533081074
 20
478.9717232638
 30
0.0
 11
3808.3421549548
 21
478.9717232638
 31
0.0
  0
LINE
  5
9A
330
1F
100
AcDbEntity
  8
0
  6
Continuous
 62
   179
370
    18
100
AcDbLine
 10
3819.1776936947
 20
468.136184524
 30
0.0
 11
3819.1776936947
 21
457.3006457879
 31
0.0
  0
LINE
  5
9B
330
1F
100
AcDbEntity
  8
0
  6
Continuous
 62
   179
370
    18
100
AcDbLine
 10
3781.2533081066
 20
489.8072620008
 30
0.0
 11
3781.2533081066
 21
506.0605701103
 31
0.0
  0
LINE
  5
9C
330
1F
100
AcDbEntity
  8
0
  6
Continuous
 62
   179
370
    18
100
AcDbLine
 10
3781.2533081066
 20
506.0605701103
 30
0.0
 11
3807.717258628
 21
506.0605701103
 31
0.0
  0
LINE
  5
9D
330
1F
100
AcDbEntity
  8
0
  6
Continuous
 62
   179
370
    18
100
AcDbLine
 10
3781.2533081066
 20
489.8072620008
 30
0.0
 11
3807.717258628
 21
489.8072620008
 31
0.0
  0
LINE
  5
9E
330
1F
100
AcDbEntity
  8
0
  6
Continuous
 62
   179
370
    18
100
AcDbLine
 10
3838.3053032889
 20
472.156436938
 30
0.0
 11
3840.5333019761
 21
463.4514816274
 31
0.0
  0
LINE
  5
9F
330
1F
100
AcDbEntity
  8
0
  6
Continuous
 62
     7
370
    25
100
AcDbLine
 10
4305.0
 20
3000.0
 30
0.0
 11
150.0
 21
3000.0
 31
0.0
  0
LINE
  5
A0
330
1F
100
AcDbEntity
  8
0
  6
Continuous
 62
     7
370
    18
100
AcDbLine
 10
4093.1984921262
 20
285.0000000003
 30
0.0
 11
4093.1984921262
 21
150.0
 31
0.0
  0
LINE
  5
A1
330
1F
100
AcDbEntity
  8
0
  6
Continuous
 62
     7
370
    25
100
AcDbLine
 10
150.0
 20
3000.0
 30
0.0
 11
150.0
 21
150.0
 31
0.0
  0
LINE
  5
A2
330
1F
100
AcDbEntity
  8
0
  6
Continuous
 62
     7
370
    25
100
AcDbLine
 10
3225.0
 20
555.0000000009
 30
0.0
 11
4305.0
 21
555.0000000009
 31
0.0
  0
LINE
  5
A3
330
1F
100
AcDbEntity
  8
0
  6
Continuous
 62
    19
370
    18
100
AcDbLine
 10
4192.9326190259
 20
240.4182064643
 30
0.0
 11
4145.1273994681
 21
231.1227471059
 31
0.0
  0
LINE
  5
A4
330
1F
100
AcDbEntity
  8
0
  6
Continuous
 62
    19
370
    18
100
AcDbLine
 10
4232.0258777281
 20
248.2322360861
 30
0.0
 11
4232.0258777281
 21
187.321545177
 31
0.0
  0
LINE
  5
A5
330
1F
100
AcDbEntity
  8
0
  6
Continuous
 62
    19
370
    18
100
AcDbLine
 10
4192.9326190259
 20
240.4182064643
 30
0.0
 11
4192.9326190259
 21
195.1355747988
 31
0.0
  0
LINE
  5
A6
330
1F
100
AcDbEntity
  8
0
  6
Continuous
 62
     7
370
    25
100
AcDbLine
 10
150.0
 20
150.0
 30
0.0
 11
4305.0
 21
150.0
 31
0.0
  0
LINE
  5
A7
330
1F
100
AcDbEntity
  8
0
  6
Continuous
 62
    19
370
    18
100
AcDbLine
 10
4145.1273994681
 20
231.1227471059
 30
0.0
 11
4145.1273994681
 21
204.4310341572
 31
0.0
  0
LINE
  5
A8
330
1F
100
AcDbEntity
  8
0
  6
Continuous
 62
   179
370
    18
100
AcDbLine
 10
3819.1776936947
 20
457.3006457879
 30
0.0
 11
3865.2287333388
 21
457.3006457879
 31
0.0
  0
LINE
  5
A9
330
1F
100
AcDbEntity
  8
0
  6
Continuous
 62
    19
370
    18
100
AcDbLine
 10
4192.9326190259
 20
195.1355747988
 30
0.0
 11
4145.1273994681
 21
204.4310341572
 31
0.0
  0
LINE
  5
AA
330
1F
100
AcDbEntity
  8
0
  6
CENTERX2
 62
    19
370
    18
100
AcDbLine
 10
4258.3810686372
 20
217.7768906315
 30
0.0
 11
4139.1778035964
 21
217.7768906315
 31
0.0
  0
LINE
  5
AB
330
1F
100
AcDbEntity
  8
0
  6
Continuous
 62
   179
370
    18
100
AcDbLine
 10
3756.873345944
 20
516.8961088508
 30
0.0
 11
3813.0288874587
 21
516.8961088508
 31
0.0
  0
LINE
  5
AC
330
1F
100
AcDbEntity
  8
0
  6
Continuous
 62
   179
370
    18
100
AcDbLine
 10
3572.6691873807
 20
516.8961088463
 30
0.0
 11
3572.6691873807
 21
457.3006457848
 31
0.0
  0
LINE
  5
AD
330
1F
100
AcDbEntity
  8
0
  6
Continuous
 62
   179
370
    18
100
AcDbLine
 10
3876.0642720787
 20
516.8961088494
 30
0.0
 11
3903.1531189258
 21
516.8961088494
 31
0.0
  0
LINE
  5
AE
330
1F
100
AcDbEntity
  8
0
  6
Continuous
 62
   179
370
    18
100
AcDbLine
 10
3876.0642720787
 20
516.8961088494
 30
0.0
 11
3841.0614673168
 21
461.8917013713
 31
0.0
  0
LINE
  5
AF
330
1F
100
AcDbEntity
  8
0
  6
Continuous
 62
   179
370
    18
100
AcDbLine
 10
3865.2287333388
 20
457.3006457879
 30
0.0
 11
3871.3237238796
 21
468.1361845226
 31
0.0
  0
LINE
  5
B0
330
1F
100
AcDbEntity
  8
0
  6
Continuous
 62
   179
370
    18
100
AcDbLine
 10
3889.6086955011
 20
500.6428007391
 30
0.0
 11
3901.7986765828
 21
478.9717232594
 31
0.0
  0
LINE
  5
B1
330
1F
100
AcDbEntity
  8
0
  6
Continuous
 62
   179
370
    18
100
AcDbLine
 10
3877.4187144194
 20
478.9717232594
 30
0.0
 11
3889.6086955011
 21
500.6428007391
 31
0.0
  0
LINE
  5
B2
330
1F
100
AcDbEntity
  8
0
  6
Continuous
 62
   179
370
    18
100
AcDbLine
 10
3877.4187144194
 20
478.9717232594
 30
0.0
 11
3901.7986765828
 21
478.9717232594
 31
0.0
  0
LINE
  5
B3
330
1F
100
AcDbEntity
  8
0
  6
Continuous
 62
   179
370
    18
100
AcDbLine
 10
3871.3237238796
 20
468.1361845226
 30
0.0
 11
3907.8936671249
 21
468.1361845226
 31
0.0
  0
LINE
  5
B4
330
1F
100
AcDbEntity
  8
0
  6
Continuous
 62
   179
370
    18
100
AcDbLine
 10
3907.8936671249
 20
468.1361845226
 30
0.0
 11
3913.9886576656
 21
457.3006457879
 31
0.0
  0
LINE
  5
B5
330
1F
100
AcDbEntity
  8
0
  6
Continuous
 62
   179
370
    18
100
AcDbLine
 10
3941.077504513
 20
516.8961088494
 30
0.0
 11
3941.077504513
 21
457.3006457879
 31
0.0
  0
LINE
  5
B6
330
1F
100
AcDbEntity
  8
0
  6
Continuous
 62
   179
370
    18
100
AcDbLine
 10
3903.1531189258
 20
516.8961088494
 30
0.0
 11
3941.077504513
 21
457.3006457879
 31
0.0
  0
LINE
  5
B7
330
1F
100
AcDbEntity
  8
0
  6
Continuous
 62
   179
370
    18
100
AcDbLine
 10
3913.9886576656
 20
457.3006457879
 30
0.0
 11
3941.077504513
 21
457.3006457879
 31
0.0
  0
LINE
  5
B8
330
1F
100
AcDbEntity
  8
0
  6
Continuous
 62
   179
370
    18
100
AcDbLine
 10
3941.077504513
 20
457.3006457879
 30
0.0
 11
4014.2173910035
 21
457.3006457879
 31
0.0
  0
LINE
  5
B9
330
1F
100
AcDbEntity
  8
0
  6
Continuous
 62
   179
370
    18
100
AcDbLine
 10
4014.2173910035
 20
457.3006457879
 30
0.0
 11
4014.2173910035
 21
470.8450692114
 31
0.0
  0
LINE
  5
BA
330
1F
100
AcDbEntity
  8
0
  6
Continuous
 62
   179
370
    18
100
AcDbLine
 10
4014.2173910035
 20
470.8450692114
 30
0.0
 11
3968.1663513601
 21
470.8450692114
 31
0.0
  0
LINE
  5
BB
330
1F
100
AcDbEntity
  8
0
  6
Continuous
 62
   179
370
    18
100
AcDbLine
 10
3968.1663513601
 20
470.8450692114
 30
0.0
 11
3968.1663513601
 21
516.8961088494
 31
0.0
  0
LINE
  5
BC
330
1F
100
AcDbEntity
  8
0
  6
Continuous
 62
   179
370
    18
100
AcDbLine
 10
3941.077504513
 20
516.8961088494
 30
0.0
 11
3968.1663513601
 21
516.8961088494
 31
0.0
  0
LINE
  5
BD
330
1F
100
AcDbEntity
  8
0
  6
Continuous
 62
   179
370
    18
100
AcDbLine
 10
4016.926275686
 20
516.8961088487
 30
0.0
 11
4016.926275686
 21
457.3006457873
 31
0.0
  0
LINE
  5
BE
330
1F
100
AcDbEntity
  8
0
  6
Continuous
 62
   179
370
    18
100
AcDbLine
 10
4044.0151225331
 20
516.8961088487
 30
0.0
 11
4044.0151225331
 21
457.3006457873
 31
0.0
  0
LINE
  5
BF
330
1F
100
AcDbEntity
  8
0
  6
Continuous
 62
   179
370
    18
100
AcDbLine
 10
4016.926275686
 20
516.8961088487
 30
0.0
 11
4044.0151225331
 21
516.8961088487
 31
0.0
  0
LINE
  5
C0
330
1F
100
AcDbEntity
  8
0
  6
Continuous
 62
   179
370
    18
100
AcDbLine
 10
4016.926275686
 20
457.3006457873
 30
0.0
 11
4044.0151225331
 21
457.3006457873
 31
0.0
  0
LINE
  5
C1
330
1F
100
AcDbEntity
  8
0
  6
Continuous
 62
   179
370
    18
100
AcDbLine
 10
4056.1727466361
 20
511.9395831343
 30
0.0
 11
4062.4300319759
 21
511.9395831343
 31
0.0
  0
LINE
  5
C2
330
1F
100
AcDbEntity
  8
0
  6
Continuous
 62
   179
370
    18
100
AcDbLine
 10
4062.4300319759
 20
507.8762561058
 30
0.0
 11
4056.1727466361
 21
507.8762561058
 31
0.0
  0
LINE
  5
C3
330
1F
100
AcDbEntity
  8
0
  6
Continuous
 62
   179
370
    18
100
AcDbLine
 10
4056.1727466361
 20
507.8762561058
 30
0.0
 11
4056.1727466361
 21
511.9395831343
 31
0.0
  0
LINE
  5
C4
330
1F
100
AcDbEntity
  8
0
  6
Continuous
 62
   179
370
    18
100
AcDbLine
 10
4056.1727466361
 20
507.8762561058
 30
0.0
 11
4060.2360736616
 21
507.8762561058
 31
0.0
  0
LINE
  5
C5
330
1F
100
AcDbEntity
  8
0
  6
Continuous
 62
   179
370
    18
100
AcDbLine
 10
4056.1727466361
 20
507.8762561058
 30
0.0
 11
4056.1727466361
 21
501.7812655676
 31
0.0
  0
LINE
  5
C6
330
1F
100
AcDbEntity
  8
0
  6
Continuous
 62
   179
370
    18
100
AcDbLine
 10
4064.2994006871
 20
501.7812655676
 30
0.0
 11
4060.2360736616
 21
507.8762561058
 31
0.0
  0
LINE
  5
C7
330
1F
100
AcDbEntity
  8
0
  6
Continuous
 62
     7
370
    18
100
AcDbLine
 10
3225.0
 20
285.0000000003
 30
0.0
 11
4305.0
 21
285.0000000003
 31
0.0
  0
LINE
  5
C8
330
1F
100
AcDbEntity
  8
0
  6
Continuous
 62
     7
370
    18
100
AcDbLine
 10
4305.0
 20
420.0000000006
 30
0.0
 11
3225.0
 21
420.0000000006
 31
0.0
  0
LINE
  5
C9
330
1F
100
AcDbEntity
  8
0
  6
Continuous
 62
     7
370
    18
100
AcDbLine
 10
150.0
 20
825.0
 30
0.0
 11
150.0
 21
975.0
 31
0.0
  0
LINE
  5
CA
330
1F
100
AcDbEntity
  8
0
  6
Continuous
 62
     7
370
    18
100
AcDbLine
 10
150.0
 20
975.0
 30
0.0
 11
150.0
 21
1125.0
 31
0.0
  0
LINE
  5
CB
330
1F
100
AcDbEntity
  8
0
  6
Continuous
 62
     7
370
    18
100
AcDbLine
 10
150.0
 20
1125.0
 30
0.0
 11
150.0
 21
1275.0
 31
0.0
  0
LINE
  5
CC
330
1F
100
AcDbEntity
  8
0
  6
Continuous
 62
     7
370
    18
100
AcDbLine
 10
150.0
 20
1275.0
 30
0.0
 11
150.0
 21
1425.0
 31
0.0
  0
LINE
  5
CD
330
1F
100
AcDbEntity
  8
0
  6
Continuous
 62
     7
370
    18
100
AcDbLine
 10
150.0
 20
1425.0
 30
0.0
 11
150.0
 21
1575.0
 31
0.0
  0
LINE
  5
CE
330
1F
100
AcDbEntity
  8
0
  6
Continuous
 62
     7
370
    18
100
AcDbLine
 10
150.0
 20
1575.0
 30
0.0
 11
150.0
 21
1725.0
 31
0.0
  0
LINE
  5
CF
330
1F
100
AcDbEntity
  8
0
  6
Continuous
 62
     7
370
    18
100
AcDbLine
 10
150.0
 20
1725.0
 30
0.0
 11
150.0
 21
1875.0
 31
0.0
  0
LINE
  5
D0
330
1F
100
AcDbEntity
  8
0
  6
Continuous
 62
     7
370
    18
100
AcDbLine
 10
150.0
 20
1875.0
 30
0.0
 11
150.0
 21
2025.0
 31
0.0
  0
LINE
  5
D1
330
1F
100
AcDbEntity
  8
0
  6
Continuous
 62
     7
370
    18
100
AcDbLine
 10
150.0
 20
2025.0
 30
0.0
 11
150.0
 21
2175.0
 31
0.0
  0
LINE
  5
D2
330
1F
100
AcDbEntity
  8
0
  6
Continuous
 62
     7
370
    18
100
AcDbLine
 10
150.0
 20
2175.0
 30
0.0
 11
150.0
 21
2325.0
 31
0.0
  0
LINE
  5
D3
330
1F
100
AcDbEntity
  8
0
  6
Continuous
 62
     7
370
    25
100
AcDbLine
 10
3225.0
 20
555.0000000009
 30
0.0
 11
3225.0
 21
150.0
 31
0.0
  0
ARC
  5
D4
330
1F
100
AcDbEntity
  8
0
  6
Continuous
 62
   179
370
    18
100
AcDbCircle
 10
3529.3858214715
 20
495.2250313732
 30
0.0
 40
10.83553873622431
100
AcDbArc
 50
69.991210111
 51
90.0
  0
ARC
  5
D5
330
1F
100
AcDbEntity
  8
0
  6
Continuous
 62
   179
370
    18
100
AcDbCircle
 10
3529.3858214706
 20
500.6428007401
 30
0.0
 40
10.83553873881613
100
AcDbArc
 50
270.0
 51
290.0087898887
  0
ARC
  5
D6
330
1F
100
AcDbEntity
  8
0
  6
Continuous
 62
   179
370
    18
100
AcDbCircle
 10
3709.420759152
 20
487.0983773133
 30
0.0
 40
16.25330811077811
100
AcDbArc
 50
56.1685552524
 51
90.0
  0
ARC
  5
D7
330
1F
100
AcDbEntity
  8
0
  6
Continuous
 62
   179
370
    18
100
AcDbCircle
 10
3709.420759152
 20
487.0983773133
 30
0.0
 40
16.2533081099705
100
AcDbArc
 50
270.0
 51
303.830934914
  0
ARC
  5
D8
330
1F
100
AcDbEntity
  8
0
  6
Continuous
 62
   179
370
    18
100
AcDbCircle
 10
3808.3421549548
 20
468.136184524
 30
0.0
 40
10.83553873986693
100
AcDbArc
 50
0.0
 51
90.0
  0
ARC
  5
D9
330
1F
100
AcDbEntity
  8
0
  6
Continuous
 62
   179
370
    18
100
AcDbCircle
 10
3807.717258628
 20
497.9339160561
 30
0.0
 40
8.126654054165272
100
AcDbArc
 50
54.413089495
 51
90.0
  0
ARC
  5
DA
330
1F
100
AcDbEntity
  8
0
  6
Continuous
 62
   179
370
    18
100
AcDbCircle
 10
3807.717258628
 20
497.9339160561
 30
0.0
 40
8.126654055322035
100
AcDbArc
 50
270.0
 51
305.5869104966
  0
ARC
  5
DB
330
1F
100
AcDbEntity
  8
0
  6
Continuous
 62
   179
370
    18
100
AcDbCircle
 10
3823.5563773944
 20
469.4441941063
 30
0.0
 40
14.99623540163448
100
AcDbArc
 50
10.4199484279
 51
80.7321727594
  0
ARC
  5
DC
330
1F
100
AcDbEntity
  8
0
  6
Continuous
 62
   179
370
    18
100
AcDbCircle
 10
3848.1803499564
 20
465.1715759511
 30
0.0
 40
7.838116310390694
100
AcDbArc
 50
192.6768785101
 51
204.7368873207
  0
CIRCLE
  5
DD
330
1F
100
AcDbEntity
  8
0
  6
Continuous
 62
   179
370
    18
100
AcDbCircle
 10
4059.4296312926
 20
506.8013546003
 30
0.0
 40
8.8951532178462
  0
CIRCLE
  5
DE
330
1F
100
AcDbEntity
  8
0
  6
Continuous
 62
    19
370
    18
100
AcDbCircle
 10
4232.0258777281
 20
217.7768906315
 30
0.0
 40
12.88061814414652
  0
CIRCLE
  5
DF
330
1F
100
AcDbEntity
  8
0
  6
Continuous
 62
    19
370
    18
100
AcDbCircle
 10
4232.0258777281
 20
217.7768906315
 30
0.0
 40
25.16390372495578
  0
ELLIPSE
  5
E0
330
1F
100
AcDbEntity
  8
0
  6
Continuous
 62
   179
370
    18
100
AcDbEllipse
 10
3525.2637053955
 20
497.9339160554
 30
0.0
 11
14.89886576646222
 21
0.0
 31
0.0
210
0.0
220
0.0
230
1.0
 40
0.5895245511
 41
5.265715075739372
 42
7.300655538615912
  0
ELLIPSE
  5
E1
330
1F
100
AcDbEntity
  8
0
  6
Continuous
 62
   179
370
    18
100
AcDbEllipse
 10
3693.2145558564
 20
487.0983773139
 30
0.0
 11
33.86105856006907
 21
0.0
 31
0.0
210
0.0
220
0.0
230
1.0
 40
0.5985848325
 41
5.554193105221739
 42
7.01217218274472
  0
ELLIPSE
  5
E2
330
1F
100
AcDbEntity
  8
0
  6
Continuous
 62
   179
370
    18
100
AcDbEllipse
 10
3798.8610585616
 20
497.9339160554
 30
0.0
 11
17.60775045122637
 21
0.0
 31
0.0
210
0.0
220
0.0
230
1.0
 40
0.5900077182
 41
5.593675727225946
 42
6.972694887106603
  0
ELLIPSE
  5
E3
330
1F
100
AcDbEntity
  8
0
  6
Continuous
 62
   179
370
    18
100
AcDbEllipse
 10
3807.0449215604
 20
499.4046031234
 30
0.0
 11
36.4899993380277
 21
0.0
 31
0.0
210
0.0
220
0.0
230
1.0
 40
0.485929116
 41
5.257694056962845
 42
7.689248379254997
  0
ELLIPSE
  5
E4
330
1F
100
AcDbEntity
  8
0
  6
Continuous
 62
   179
370
    18
100
AcDbEllipse
 10
3702.6956522476
 20
487.0983773139
 30
0.0
 11
43.34215495673379
 21
0.0
 31
0.0
210
0.0
220
0.0
230
1.0
 40
0.6929224243
 41
4.837574201223028
 42
7.728796413142616
  0
ELLIPSE
  5
E5
330
1F
100
AcDbEntity
  8
0
  6
Continuous
 62
   179
370
    18
100
AcDbEllipse
 10
3526.6181477356
 20
497.9339160554
 30
0.0
 11
40.63327027197511
 21
0.0
 31
0.0
210
0.0
220
0.0
230
1.0
 40
0.4768529109
 41
4.919453630382234
 42
7.646916983963976
  0
ELLIPSE
  5
E6
330
1F
100
AcDbEntity
  8
0
  6
Continuous
 62
   179
370
    18
100
AcDbEllipse
 10
4062.064122662
 20
509.90791962
 30
0.0
 11
2.235278033911982
 21
0.0
 31
0.0
210
0.0
220
0.0
230
1.0
 40
0.9213369296
 41
4.876826485633795
 42
7.689544128725418
  0
MTEXT
  5
E8
330
1F
100
AcDbEntity
  8
0
  6
Continuous
 62
     7
370
     0
100
AcDbMText
 10
3347.1674181705
 20
248.4569886556
 30
0.0
 40
55.5625
 41
0.0
 71
     1
 72
     1
  1
BLTD_89X37
  7
SLDTEXTSTYLE0
 73
     1
 44
1.0
  0
MTEXT
  5
E9
330
1F
100
AcDbEntity
  8
0
  6
Continuous
 62
     7
370
     0
100
AcDbMText
 10
3238.3268981734
 20
219.580700246
 30
0.0
 40
27.0
 41
0.0
 71
     1
 72
     1
  1
COD.
  7
SLDTEXTSTYLE0
 73
     1
 44
1.0
  0
MTEXT
  5
EA
330
1F
100
AcDbEntity
  8
0
  6
Continuous
 62
     7
370
     0
100
AcDbMText
 10
160.6282767702
 20
112.0822758273
 30
0.0
 40
27.0
 41
0.0
 71
     1
 72
     1
  1
This document is the property of PEDRALI S.p.A. who willsafeguard its rights according to the civil and penal prevision of the Law.
  7
SLDTEXTSTYLE0
 73
     1
 44
1.0
  0
MTEXT
  5
EB
330
1F
100
AcDbEntity
  8
0
  6
Continuous
 62
     7
370
     0
100
AcDbMText
 10
2161.2908979918
 20
115.1768387873
 30
0.0
 40
27.0
 41
0.0
 71
     1
 72
     1
  1
Questo disegno è posto sotto la tutela delle vigenti Leggi e non puo essere utilizzato da terze persone se non previa autorizzazione scritta della PEDRALI S.p.A.
  7
SLDTEXTSTYLE0
 73
     1
 44
1.0
  0
MTEXT
  5
EC
330
1F
100
AcDbEntity
  8
0
  6
Continuous
 62
     7
370
     0
100
AcDbMText
 10
3238.3268981734
 20
351.4653149456
 30
0.0
 40
27.0
 41
0.0
 71
     1
 72
     1
  1
SERIE:
  7
SLDTEXTSTYLE0
 73
     1
 44
1.0
  0
MTEXT
  5
ED
330
1F
100
AcDbEntity
  8
0
  6
Continuous
 62
     7
370
     0
100
AcDbMText
 10
3347.1674181705
 20
380.3416033552
 30
0.0
 40
55.5625
 41
0.0
 71
     1
 72
     1
  1
BLUME
  7
SLDTEXTSTYLE0
 73
     1
 44
1.0
  0
INSERT
  5
F3
330
1F
100
AcDbEntity
  8
0
  6
Continuous
 62
     7
370
     0
100
AcDbBlockReference
  2
SW_NOTE_0
 10
4150.4824592931
 20
363.9948192571
 30
0.0
  0
ARC
  5
F4
330
1F
100
AcDbEntity
  8
0
  6
Continuous
 62
     7
370
    25
100
AcDbCircle
 10
2108.6668771165
 20
2266.3506106858
 30
0.0
 40
10.00000000000005
100
AcDbArc
 50
25.0666759733
 51
143.7592467326
  0
LINE
  5
F5
330
1F
100
AcDbEntity
  8
0
  6
Continuous
 62
     7
370
    25
100
AcDbLine
 10
2116.0038889764
 20
1916.3506106858
 30
0.0
 11
2116.0038889764
 21
2271.5017273172
 31
0.0
  0
LINE
  5
F6
330
1F
100
AcDbEntity
  8
0
  6
Continuous
 62
     7
370
    25
100
AcDbLine
 10
2099.9469832304
 20
2269.9870534741
 30
0.0
 11
2099.9469832304
 21
1916.3506106858
 31
0.0
  0
LINE
  5
F7
330
1F
100
AcDbEntity
  8
0
  6
Continuous
 62
     7
370
    25
100
AcDbLine
 10
2117.8944433479
 20
1916.3506106858
 30
0.0
 11
2117.8944433479
 21
2270.0892583406
 31
0.0
  0
LINE
  5
F8
330
1F
100
AcDbEntity
  8
0
  6
Continuous
 62
     7
370
    25
100
AcDbLine
 10
2099.3060860191
 20
2268.9189674906
 30
0.0
 11
2099.3060860191
 21
2261.3506106901
 31
0.0
  0
LINE
  5
F9
330
1F
100
AcDbEntity
  8
0
  6
Continuous
 62
     7
370
    25
100
AcDbLine
 10
2099.3060860191
 20
2226.3506106901
 30
0.0
 11
2099.3060860191
 21
1916.3506106858
 31
0.0
  0
ARC
  5
FA
330
1F
100
AcDbEntity
  8
0
  6
Continuous
 62
     7
370
    25
100
AcDbCircle
 10
1465.6538274291
 20
2266.3506106858
 30
0.0
 40
9.999999999999947
100
AcDbArc
 50
36.1381865699
 51
154.8813968072
  0
LINE
  5
FB
330
1F
100
AcDbEntity
  8
0
  6
Continuous
 62
     7
370
    25
100
AcDbLine
 10
1458.3168155692
 20
2271.5005466128
 30
0.0
 11
1458.3168155692
 21
1916.3506106858
 31
0.0
  0
LINE
  5
FC
330
1F
100
AcDbEntity
  8
0
  6
Continuous
 62
     7
370
    25
100
AcDbLine
 10
1474.3737213152
 20
1916.3506106858
 30
0.0
 11
1474.3737213152
 21
2269.9907589668
 31
0.0
  0
LINE
  5
FD
330
1F
100
AcDbEntity
  8
0
  6
Continuous
 62
     7
370
    25
100
AcDbLine
 10
1456.4262611977
 20
2270.0842959027
 30
0.0
 11
1456.4262611977
 21
1916.3506106858
 31
0.0
  0
LINE
  5
FE
330
1F
100
AcDbEntity
  8
0
  6
Continuous
 62
     7
370
    25
100
AcDbLine
 10
1475.0146185265
 20
1916.3506106858
 30
0.0
 11
1475.0146185265
 21
2226.3506106901
 31
0.0
  0
LINE
  5
FF
330
1F
100
AcDbEntity
  8
0
  6
Continuous
 62
     7
370
    25
100
AcDbLine
 10
1475.0146185265
 20
2261.3506106901
 30
0.0
 11
1475.0146185265
 21
2268.9247864926
 31
0.0
  0
LINE
  5
100
330
1F
100
AcDbEntity
  8
0
  6
Continuous
 62
     7
370
    25
100
AcDbLine
 10
2117.9359199142
 20
1913.3506106858
 30
0.0
 11
2117.9359199142
 21
1916.3506106858
 31
0.0
  0
LINE
  5
101
330
1F
100
AcDbEntity
  8
0
  6
Continuous
 62
     7
370
    25
100
AcDbLine
 10
2098.9359199142
 20
1916.3506106858
 30
0.0
 11
2098.9359199142
 21
1913.3506106858
 31
0.0
  0
ARC
  5
102
330
1F
100
AcDbEntity
  8
0
  6
Continuous
 62
     7
370
    25
100
AcDbCircle
 10
2103.9359199142
 20
1913.3506106858
 30
0.0
 40
5.000000000000455
100
AcDbArc
 50
180.0
 51
270.0
  0
ARC
  5
103
330
1F
100
AcDbEntity
  8
0
  6
Continuous
 62
     7
370
    25
100
AcDbCircle
 10
2112.9359199142
 20
1913.3506106858
 30
0.0
 40
5.0
100
AcDbArc
 50
270.0
 51
0.0
  0
LINE
  5
104
330
1F
100
AcDbEntity
  8
0
  6
Continuous
 62
     7
370
    25
100
AcDbLine
 10
1475.3847846314
 20
1913.3506106858
 30
0.0
 11
1475.3847846314
 21
1916.3506106858
 31
0.0
  0
LINE
  5
105
330
1F
100
AcDbEntity
  8
0
  6
Continuous
 62
     7
370
    25
100
AcDbLine
 10
1456.3847846314
 20
1916.3506106858
 30
0.0
 11
1456.3847846314
 21
1913.3506106858
 31
0.0
  0
ARC
  5
106
330
1F
100
AcDbEntity
  8
0
  6
Continuous
 62
     7
370
    25
100
AcDbCircle
 10
1461.3847846314
 20
1913.3506106858
 30
0.0
 40
5.000000000000227
100
AcDbArc
 50
180.0
 51
270.0
  0
ARC
  5
107
330
1F
100
AcDbEntity
  8
0
  6
Continuous
 62
     7
370
    25
100
AcDbCircle
 10
1470.3847846314
 20
1913.3506106858
 30
0.0
 40
5.0
100
AcDbArc
 50
270.0
 51
0.0
  0
LINE
  5
108
330
1F
100
AcDbEntity
  8
0
  6
Continuous
 62
     7
370
    25
100
AcDbLine
 10
2232.1603522728
 20
2261.3506106901
 30
0.0
 11
2232.1603522728
 21
2271.3506106901
 31
0.0
  0
LINE
  5
109
330
1F
100
AcDbEntity
  8
0
  6
Continuous
 62
     7
370
    25
100
AcDbLine
 10
1342.1603522728
 20
2271.3506106901
 30
0.0
 11
1342.1603522728
 21
2261.3506106901
 31
0.0
  0
LINE
  5
10A
330
1F
100
AcDbEntity
  8
0
  6
Continuous
 62
     7
370
    25
100
AcDbLine
 10
1475.0120350585
 20
2226.3506106901
 30
0.0
 11
1787.1603522728
 21
2226.3506106901
 31
0.0
  0
LINE
  5
10B
330
1F
100
AcDbEntity
  8
0
  6
Continuous
 62
     7
370
    25
100
AcDbLine
 10
1475.0120350585
 20
2261.3506106901
 30
0.0
 11
1476.0532317277
 21
2261.3506106901
 31
0.0
  0
LINE
  5
10C
330
1F
100
AcDbEntity
  8
0
  6
Continuous
 62
     7
370
    25
100
AcDbLine
 10
2099.3086694871
 20
2261.3506106901
 30
0.0
 11
2098.2674728179
 21
2261.3506106901
 31
0.0
  0
LINE
  5
10D
330
1F
100
AcDbEntity
  8
0
  6
Continuous
 62
     7
370
    25
100
AcDbLine
 10
2099.3086694871
 20
2226.3506106901
 30
0.0
 11
1787.1603522728
 21
2226.3506106901
 31
0.0
  0
SPLINE
  5
10E
330
1F
100
AcDbEntity
  8
0
  6
Continuous
 62
     7
370
    25
100
AcDbSpline
210
0.0
220
0.0
230
1.0
 70
     8
 71
     3
 72
    19
 73
    15
 74
     0
 42
0.000000001
 43
0.00000001
 40
0.0
 40
0.0
 40
0.0
 40
0.0
 40
0.091015494978971
 40
0.182686873881352
 40
0.2763404741771147
 40
0.3706495540946496
 40
0.4621452318338201
 40
0.5542922024083184
 40
0.6487987504487193
 40
0.7443281936684087
 40
0.8150985012656851
 40
0.8867846267474809
 40
0.957693764542564
 40
1.0
 40
1.0
 40
1.0
 40
1.0
 10
2115.667707657823
 20
2273.246306802515
 30
0.0
 10
2115.775587132959
 20
2273.141832409467
 30
0.0
 10
2115.992123493863
 20
2272.932130750746
 30
0.0
 10
2116.298634430073
 20
2272.609085905305
 30
0.0
 10
2116.590249865706
 20
2272.280144713304
 30
0.0
 10
2116.85954928909
 20
2271.95082507488
 30
0.0
 10
2117.104117570755
 20
2271.625225145891
 30
0.0
 10
2117.323802384115
 20
2271.304165592369
 30
0.0
 10
2117.518507761777
 20
2270.987432603206
 30
0.0
 10
2117.668564837114
 20
2270.709454467921
 30
0.0
 10
2117.778201266592
 20
2270.47492188729
 30
0.0
 10
2117.849599669662
 20
2270.290595811128
 30
0.0
 10
2117.89137907854
 20
2270.151718591728
 30
0.0
 10
2117.889703321493
 20
2270.106249279092
 30
0.0
 10
2117.889077125862
 20
2270.089258340572
 30
0.0
  0
SPLINE
  5
10F
330
1F
100
AcDbEntity
  8
0
  6
Continuous
 62
     7
370
    25
100
AcDbSpline
210
0.0
220
0.0
230
1.0
 70
     8
 71
     3
 72
    14
 73
    10
 74
     0
 42
0.000000001
 43
0.00000001
 40
0.0
 40
0.0
 40
0.0
 40
0.0
 40
0.2243030424882426
 40
0.3489011866265207
 40
0.4744001356118452
 40
0.5826741857066536
 40
0.6867417687948076
 40
0.8381564871697998
 40
1.0
 40
1.0
 40
1.0
 40
1.0
 10
2115.389981234649
 20
2273.263566562476
 30
0.0
 10
2115.354649150483
 20
2273.318498564022
 30
0.0
 10
2115.29969043947
 20
2273.403944754632
 30
0.0
 10
2115.278193891825
 20
2273.479793838169
 30
0.0
 10
2115.296822253637
 20
2273.505474796477
 30
0.0
 10
2115.348856114109
 20
2273.492657521954
 30
0.0
 10
2115.428671998649
 20
2273.447246198852
 30
0.0
 10
2115.538431004479
 20
2273.3650685076
 30
0.0
 10
2115.623669537637
 20
2273.286763003281
 30
0.0
 10
2115.667707657823
 20
2273.246306802515
 30
0.0
  0
SPLINE
  5
110
330
1F
100
AcDbEntity
  8
0
  6
Continuous
 62
     7
370
    25
100
AcDbSpline
210
0.0
220
0.0
230
1.0
 70
     8
 71
     3
 72
    31
 73
    27
 74
     0
 42
0.000000001
 43
0.00000001
 40
0.0
 40
0.0
 40
0.0
 40
0.0
 40
0.0425833337774348
 40
0.0854693441808155
 40
0.1292857072948043
 40
0.1734170152399052
 40
0.2449145713515101
 40
0.2814363788217626
 40
0.3182277375026466
 40
0.3578646940443422
 40
0.3981600951410949
 40
0.4288325139380242
 40
0.4602505469959309
 40
0.4856124894106357
 40
0.5117016966526892
 40
0.537069526465807
 40
0.5631025307145461
 40
0.5995567496813959
 40
0.6370216898153732
 40
0.6960149548443997
 40
0.7565748829862465
 40
0.798200052102852
 40
0.8401283317747328
 40
0.8829575785658583
 40
0.9260808780984681
 40
1.0
 40
1.0
 40
1.0
 40
1.0
 10
2111.314689810561
 20
2273.263566562476
 30
0.0
 10
2111.403513919914
 20
2273.163892014132
 30
0.0
 10
2111.581793488479
 20
2272.96383444412
 30
0.0
 10
2111.873905736867
 20
2272.65687876934
 30
0.0
 10
2112.183034160257
 20
2272.345304543909
 30
0.0
 10
2112.575879533897
 20
2271.966712149965
 30
0.0
 10
2112.968117679709
 20
2271.610147528432
 30
0.0
 10
2113.353310626493
 20
2271.284407623657
 30
0.0
 10
2113.659971379544
 20
2271.041002568057
 30
0.0
 10
2113.982964907872
 20
2270.806727346493
 30
0.0
 10
2114.294176367087
 20
2270.611152456591
 30
0.0
 10
2114.583213972858
 20
2270.464621452706
 30
0.0
 10
2114.827056938329
 20
2270.375205922458
 30
0.0
 10
2115.048416054829
 20
2270.331179819436
 30
0.0
 10
2115.239484912566
 20
2270.329045747053
 30
0.0
 10
2115.411874738594
 20
2270.366215294433
 30
0.0
 10
2115.580480584278
 20
2270.448047319223
 30
0.0
 10
2115.734325092718
 20
2270.585746728224
 30
0.0
 10
2115.883539276549
 20
2270.816534482047
 30
0.0
 10
2115.985973070498
 20
2271.137336021859
 30
0.0
 10
2116.013263943435
 20
2271.497528309506
 30
0.0
 10
2115.985430680007
 20
2271.831579063788
 30
0.0
 10
2115.925853910974
 20
2272.129770050132
 30
0.0
 10
2115.829947920544
 20
2272.433881459101
 30
0.0
 10
2115.670816103096
 20
2272.814851161887
 30
0.0
 10
2115.498689336355
 20
2273.089873745505
 30
0.0
 10
2115.389981234649
 20
2273.263566562476
 30
0.0
  0
SPLINE
  5
111
330
1F
100
AcDbEntity
  8
0
  6
Continuous
 62
     7
370
    25
100
AcDbSpline
210
0.0
220
0.0
230
1.0
 70
     8
 71
     3
 72
    14
 73
    10
 74
     0
 42
0.000000001
 43
0.00000001
 40
0.0
 40
0.0
 40
0.0
 40
0.0
 40
0.2239799089306646
 40
0.3530600787851065
 40
0.4831615846561694
 40
0.5937368434043324
 40
0.6971871626481022
 40
0.8442013099709115
 40
1.0
 40
1.0
 40
1.0
 40
1.0
 10
2110.520993293233
 20
2273.246306802515
 30
0.0
 10
2110.54234957683
 20
2273.302154032819
 30
0.0
 10
2110.576013538946
 20
2273.390186158669
 30
0.0
 10
2110.691493254722
 20
2273.473034858779
 30
0.0
 10
2110.811664643379
 20
2273.504752215486
 30
0.0
 10
2110.940302976
 20
2273.495711969574
 30
0.0
 10
2111.071849543927
 20
2273.45367129236
 30
0.0
 10
2111.204458967773
 20
2273.376299459283
 30
0.0
 10
2111.277242385274
 20
2273.301863981091
 30
0.0
 10
2111.314689810561
 20
2273.263566562476
 30
0.0
  0
SPLINE
  5
112
330
1F
100
AcDbEntity
  8
0
  6
Continuous
 62
     7
370
    25
100
AcDbSpline
210
0.0
220
0.0
230
1.0
 70
     8
 71
     3
 72
    31
 73
    27
 74
     0
 42
0.000000001
 43
0.00000001
 40
0.0
 40
0.0
 40
0.0
 40
0.0
 40
0.0436294341820393
 40
0.0875684828963713
 40
0.1324599668091897
 40
0.1776747310168186
 40
0.2471514348504779
 40
0.3182082976799022
 40
0.354348333605418
 40
0.3910257028896658
 40
0.4195224726611763
 40
0.4487066439893163
 40
0.4718199668842173
 40
0.4955955638905791
 40
0.5187147629621169
 40
0.5424374424096171
 40
0.5764102163909518
 40
0.6113145862253121
 40
0.6689134789511131
 40
0.7280058305622993
 40
0.7704933098102822
 40
0.8132907126999129
 40
0.8570043278233394
 40
0.9010157064162475
 40
0.950281601367099
 40
1.0
 40
1.0
 40
1.0
 40
1.0
 10
2104.793899515128
 20
2273.029467606847
 30
0.0
 10
2104.79891342063
 20
2272.922431169646
 30
0.0
 10
2104.808976812611
 20
2272.707598715454
 30
0.0
 10
2104.873272870318
 20
2272.378279734155
 30
0.0
 10
2104.973670009539
 20
2272.044236674557
 30
0.0
 10
2105.139435663479
 20
2271.647942376518
 30
0.0
 10
2105.399272778314
 20
2271.193747224802
 30
0.0
 10
2105.729484018435
 20
2270.783289579265
 30
0.0
 10
2106.058262852745
 20
2270.482057350548
 30
0.0
 10
2106.322652391802
 20
2270.294404297624
 30
0.0
 10
2106.598843875456
 20
2270.152096130199
 30
0.0
 10
2106.85856838866
 20
2270.064858371731
 30
0.0
 10
2107.11885517629
 20
2270.022155239235
 30
0.0
 10
2107.36594716133
 20
2270.019872325469
 30
0.0
 10
2107.615008886137
 20
2270.05524439541
 30
0.0
 10
2107.892367289286
 20
2270.13396067263
 30
0.0
 10
2108.193148389267
 20
2270.267700479905
 30
0.0
 10
2108.570934402003
 20
2270.497755465389
 30
0.0
 10
2108.974888866611
 20
2270.822702196058
 30
0.0
 10
2109.342757429737
 20
2271.19534674617
 30
0.0
 10
2109.636605110337
 20
2271.54584268163
 30
0.0
 10
2109.870082559994
 20
2271.864488502332
 30
0.0
 10
2110.076637646054
 20
2272.189470684671
 30
0.0
 10
2110.259860604239
 20
2272.53058070158
 30
0.0
 10
2110.416380424318
 20
2272.88501240701
 30
0.0
 10
2110.486016224283
 20
2273.125508863272
 30
0.0
 10
2110.520993293233
 20
2273.246306802515
 30
0.0
  0
SPLINE
  5
113
330
1F
100
AcDbEntity
  8
0
  6
Continuous
 62
     7
370
    25
100
AcDbSpline
210
0.0
220
0.0
230
1.0
 70
     8
 71
     3
 72
    14
 73
    10
 74
     0
 42
0.000000001
 43
0.00000001
 40
0.0
 40
0.0
 40
0.0
 40
0.0
 40
0.2200911109483887
 40
0.3501199592091864
 40
0.4590676183974706
 40
0.5685351145661797
 40
0.6668402217391732
 40
0.7968948941937259
 40
1.0
 40
1.0
 40
1.0
 40
1.0
 10
2104.081902569655
 20
2272.989254982094
 30
0.0
 10
2104.140628315088
 20
2273.047625179742
 30
0.0
 10
2104.234048969411
 20
2273.140480230233
 30
0.0
 10
2104.389936586589
 20
2273.229326966647
 30
0.0
 10
2104.51308121614
 20
2273.269788355141
 30
0.0
 10
2104.617685126992
 20
2273.273458976262
 30
0.0
 10
2104.704731922854
 20
2273.242485405441
 30
0.0
 10
2104.778220363745
 20
2273.166568302207
 30
0.0
 10
2104.787961189134
 20
2273.081393160925
 30
0.0
 10
2104.793899515128
 20
2273.029467606847
 30
0.0
  0
SPLINE
  5
114
330
1F
100
AcDbEntity
  8
0
  6
Continuous
 62
     7
370
    25
100
AcDbSpline
210
0.0
220
0.0
230
1.0
 70
     8
 71
     3
 72
    32
 73
    28
 74
     0
 42
0.000000001
 43
0.00000001
 40
0.0
 40
0.0
 40
0.0
 40
0.0
 40
0.0453942490664667
 40
0.0911149500211697
 40
0.1378156604218536
 40
0.1848384153738306
 40
0.2588911921182357
 40
0.2966281930595872
 40
0.3346227841547428
 40
0.3627380257352104
 40
0.3910884026637771
 40
0.4192466010957416
 40
0.4481819119438968
 40
0.4658254771020877
 40
0.4839564361058837
 40
0.5016138628025613
 40
0.5197789833318657
 40
0.544870328975972
 40
0.5706414417831365
 40
0.617792377561406
 40
0.6660664783496298
 40
0.7088271620555677
 40
0.7519045224538967
 40
0.7958661863085182
 40
0.8400991772633641
 40
0.9191874857499385
 40
0.9999999999999999
 40
0.9999999999999999
 40
0.9999999999999999
 40
0.9999999999999999
 10
2101.015624863869
 20
2272.706798195756
 30
0.0
 10
2100.926608830787
 20
2272.583022525387
 30
0.0
 10
2100.747936607498
 20
2272.334581054244
 30
0.0
 10
2100.521207205725
 20
2271.952374838355
 30
0.0
 10
2100.325712782912
 20
2271.56335918074
 30
0.0
 10
2100.136892802825
 20
2271.094789546317
 30
0.0
 10
2100.015237423799
 20
2270.654036118748
 30
0.0
 10
2099.955636821191
 20
2270.251165477978
 30
0.0
 10
2099.942482029474
 20
2269.981767198111
 30
0.0
 10
2099.956052153821
 20
2269.750436239277
 30
0.0
 10
2099.990676214184
 20
2269.5591581156
 30
0.0
 10
2100.052629889411
 20
2269.391487112586
 30
0.0
 10
2100.136215217276
 20
2269.281068097191
 30
0.0
 10
2100.232168629158
 20
2269.226155746874
 30
0.0
 10
2100.326028318713
 20
2269.211882129886
 30
0.0
 10
2100.433037911072
 20
2269.230989457563
 30
0.0
 10
2100.563497776087
 20
2269.287375122157
 30
0.0
 10
2100.719346171883
 20
2269.390011275212
 30
0.0
 10
2100.946330369085
 20
2269.579081476206
 30
0.0
 10
2101.232874802266
 20
2269.861883710896
 30
0.0
 10
2101.565002820724
 20
2270.217415453768
 30
0.0
 10
2101.893029795933
 20
2270.578415472041
 30
0.0
 10
2102.215321964267
 20
2270.935807544444
 30
0.0
 10
2102.545461477592
 20
2271.301412919946
 30
0.0
 10
2102.969142215022
 20
2271.768564640734
 30
0.0
 10
2103.490463305805
 20
2272.338504623609
 30
0.0
 10
2103.883344008105
 20
2272.770784442502
 30
0.0
 10
2104.081902569655
 20
2272.989254982094
 30
0.0
  0
SPLINE
  5
115
330
1F
100
AcDbEntity
  8
0
  6
Continuous
 62
     7
370
    25
100
AcDbSpline
210
0.0
220
0.0
230
1.0
 70
     8
 71
     3
 72
    15
 73
    11
 74
     0
 42
0.000000001
 43
0.00000001
 40
0.0
 40
0.0
 40
0.0
 40
0.0
 40
0.2150763736128022
 40
0.341334992697817
 40
0.4465934903529539
 40
0.5524796219273025
 40
0.6449070621725895
 40
0.7662146539023996
 40
0.9406316560516139
 40
1.0
 40
1.0
 40
1.0
 40
1.0
 10
2100.92147571228
 20
2272.672924866503
 30
0.0
 10
2100.972535875017
 20
2272.733567845605
 30
0.0
 10
2101.053570439541
 20
2272.829810731242
 30
0.0
 10
2101.14150943795
 20
2272.924625799367
 30
0.0
 10
2101.188575680347
 20
2272.970015802002
 30
0.0
 10
2101.204287528396
 20
2272.977181687979
 30
0.0
 10
2101.19062731377
 20
2272.948805029051
 30
0.0
 10
2101.142819363039
 20
2272.878318579022
 30
0.0
 10
2101.076674944907
 20
2272.788454456831
 30
0.0
 10
2101.027988488589
 20
2272.72333490383
 30
0.0
 10
2101.015624863869
 20
2272.706798195756
 30
0.0
  0
SPLINE
  5
116
330
1F
100
AcDbEntity
  8
0
  6
Continuous
 62
     7
370
    25
100
AcDbSpline
210
0.0
220
0.0
230
1.0
 70
     8
 71
     3
 72
    16
 73
    12
 74
     0
 42
0.000000001
 43
0.00000001
 40
0.0
 40
0.0
 40
0.0
 40
0.0
 40
0.0381288389797609
 40
0.1308326465976203
 40
0.2241975698337844
 40
0.4144505129604648
 40
0.519356503749699
 40
0.6247996800017407
 40
0.7319757167743309
 40
0.8397819167714392
 40
1.0
 40
1.0
 40
1.0
 40
1.0
 10
2099.30953691347
 20
2268.918967490556
 30
0.0
 10
2099.308908657737
 20
2268.961565756764
 30
0.0
 10
2099.306752904703
 20
2269.107734485149
 30
0.0
 10
2099.337464237108
 20
2269.382496635858
 30
0.0
 10
2099.42024129263
 20
2269.850910528581
 30
0.0
 10
2099.566977993958
 20
2270.34915110203
 30
0.0
 10
2099.774998628286
 20
2270.86265413842
 30
0.0
 10
2099.971881095685
 20
2271.26893772255
 30
0.0
 10
2100.203055861925
 20
2271.675913477767
 30
0.0
 10
2100.507721982546
 20
2272.148164836626
 30
0.0
 10
2100.766678254813
 20
2272.476596682447
 30
0.0
 10
2100.92147571228
 20
2272.672924866503
 30
0.0
  0
LINE
  5
117
330
1F
100
AcDbEntity
  8
0
  6
Continuous
 62
     7
370
    25
100
AcDbLine
 10
2104.7938995151
 20
2273.0294676068
 30
0.0
 11
2104.7938995151
 21
1916.3506106858
 31
0.0
  0
SPLINE
  5
118
330
1F
100
AcDbEntity
  8
0
  6
Continuous
 62
     7
370
    25
100
AcDbSpline
210
0.0
220
0.0
230
1.0
 70
     8
 71
     3
 72
    32
 73
    28
 74
     0
 42
0.000000001
 43
0.00000001
 40
0.0
 40
0.0
 40
0.0
 40
0.0
 40
0.044144192824183
 40
0.0886104352646726
 40
0.1340256948284946
 40
0.1797444149379681
 40
0.2245884288186387
 40
0.2697223103764435
 40
0.3158695723814799
 40
0.362440975968659
 40
0.3905644447044702
 40
0.4188972546593894
 40
0.4470561788819233
 40
0.4758699108998224
 40
0.4938447275987047
 40
0.512286784681771
 40
0.5302841812509306
 40
0.5488497088202847
 40
0.5722278000635035
 40
0.5962533137611186
 40
0.6386203767558947
 40
0.6820050825656039
 40
0.722328613128808
 40
0.7629537503048807
 40
0.8459909377782877
 40
0.9222549213514587
 40
1.0
 40
1.0
 40
1.0
 40
1.0
 10
1470.238801975944
 20
2272.989254982093
 30
0.0
 10
1470.346341226891
 20
2272.870600729038
 30
0.0
 10
1470.56220427081
 20
2272.632426592497
 30
0.0
 10
1470.898820911315
 20
2272.264172440346
 30
0.0
 10
1471.242343919033
 20
2271.887982810794
 30
0.0
 10
1471.58779699342
 20
2271.508316226674
 30
0.0
 10
1471.93072091222
 20
2271.129426797215
 30
0.0
 10
1472.271126190271
 20
2270.751916785925
 30
0.0
 10
1472.610757349423
 20
2270.37616957742
 30
0.0
 10
1472.903436338204
 20
2270.057971262499
 30
0.0
 10
1473.149299115337
 20
2269.801899104002
 30
0.0
 10
1473.349085123142
 20
2269.605890300039
 30
0.0
 10
1473.547849206166
 20
2269.430869557681
 30
0.0
 10
1473.71879177361
 20
2269.309128211447
 30
0.0
 10
1473.860399541583
 20
2269.240291578844
 30
0.0
 10
1473.970795750001
 20
2269.213145655426
 30
0.0
 10
1474.070454485978
 20
2269.220298628952
 30
0.0
 10
1474.162729519527
 20
2269.264721677563
 30
0.0
 10
1474.242497410024
 20
2269.352460689231
 30
0.0
 10
1474.320182455016
 20
2269.51397364505
 30
0.0
 10
1474.37077438722
 20
2269.759066351111
 30
0.0
 10
1474.378711388865
 20
2270.074613359046
 30
0.0
 10
1474.34668079324
 20
2270.40358635518
 30
0.0
 10
1474.259292401973
 20
2270.850453078747
 30
0.0
 10
1474.072583157684
 20
2271.408633644271
 30
0.0
 10
1473.748243995339
 20
2272.072191287163
 30
0.0
 10
1473.453745178219
 20
2272.493910676965
 30
0.0
 10
1473.305079681731
 20
2272.706798195757
 30
0.0
  0
SPLINE
  5
119
330
1F
100
AcDbEntity
  8
0
  6
Continuous
 62
     7
370
    25
100
AcDbSpline
210
0.0
220
0.0
230
1.0
 70
     8
 71
     3
 72
    14
 73
    10
 74
     0
 42
0.000000001
 43
0.00000001
 40
0.0
 40
0.0
 40
0.0
 40
0.0
 40
0.2207653484382701
 40
0.3402146168139966
 40
0.4605704991790756
 40
0.5641909618661824
 40
0.6633542991972152
 40
0.8105247403618737
 40
1.0
 40
1.0
 40
1.0
 40
1.0
 10
1469.52680503047
 20
2273.029467606847
 30
0.0
 10
1469.533765537979
 20
2273.085901084854
 30
0.0
 10
1469.54449215976
 20
2273.172868963787
 30
0.0
 10
1469.627203776855
 20
2273.250167028755
 30
0.0
 10
1469.721379283002
 20
2273.276346139126
 30
0.0
 10
1469.8313672539
 20
2273.263717636746
 30
0.0
 10
1469.954410746681
 20
2273.218258028624
 30
0.0
 10
1470.10027110837
 20
2273.128784980775
 30
0.0
 10
1470.188911980914
 20
2273.03950480051
 30
0.0
 10
1470.238801975944
 20
2272.989254982093
 30
0.0
  0
SPLINE
  5
11A
330
1F
100
AcDbEntity
  8
0
  6
Continuous
 62
     7
370
    25
100
AcDbSpline
210
0.0
220
0.0
230
1.0
 70
     8
 71
     3
 72
    32
 73
    28
 74
     0
 42
0.000000001
 43
0.00000001
 40
0.0
 40
0.0
 40
0.0
 40
0.0
 40
0.0430379910819623
 40
0.0863861263482019
 40
0.1306715836239583
 40
0.1752669939041237
 40
0.2185320463381783
 40
0.2621050719942163
 40
0.306793857927748
 40
0.3519663346176192
 40
0.385431096501775
 40
0.4193289160972072
 40
0.4528593258451253
 40
0.4875791928901138
 40
0.510638608813678
 40
0.5343801485774067
 40
0.5574353916329481
 40
0.5810375265201487
 40
0.6176166200902719
 40
0.6551846333990791
 40
0.7177265685357839
 40
0.7819044813319174
 40
0.8252890843115638
 40
0.868984338619228
 40
0.9136242089591365
 40
0.958581590889192
 40
1.0
 40
1.0
 40
1.0
 40
1.0
 10
1463.799711252364
 20
2273.246306802515
 30
0.0
 10
1463.829446465072
 20
2273.141832415266
 30
0.0
 10
1463.889131171011
 20
2272.932130768183
 30
0.0
 10
1464.024246168193
 20
2272.609085834339
 30
0.0
 10
1464.191918038832
 20
2272.280144986602
 30
0.0
 10
1464.392609528831
 20
2271.950824060335
 30
0.0
 10
1464.622754146246
 20
2271.625228816757
 30
0.0
 10
1464.883193372038
 20
2271.304151620481
 30
0.0
 10
1465.179036820011
 20
2270.98748647256
 30
0.0
 10
1465.484244786645
 20
2270.709273472241
 30
0.0
 10
1465.790786384327
 20
2270.475408212231
 30
0.0
 10
1466.089493220308
 20
2270.288744586717
 30
0.0
 10
1466.417529174593
 20
2270.135275710434
 30
0.0
 10
1466.732685461559
 20
2270.04627655399
 30
0.0
 10
1467.021031882067
 20
2270.016795458917
 30
0.0
 10
1467.266336573995
 20
2270.029086557189
 30
0.0
 10
1467.504202736083
 20
2270.07776886427
 30
0.0
 10
1467.768744460847
 20
2270.171808368928
 30
0.0
 10
1468.050720139678
 20
2270.32577071481
 30
0.0
 10
1468.395599532524
 20
2270.588726349083
 30
0.0
 10
1468.740410611323
 20
2270.953183208098
 30
0.0
 10
1469.020405300713
 20
2271.359511895628
 30
0.0
 10
1469.216742391686
 20
2271.730902276742
 30
0.0
 10
1469.351749705115
 20
2272.058158176794
 30
0.0
 10
1469.450487546982
 20
2272.390323175495
 30
0.0
 10
1469.512625146762
 20
2272.716009307794
 30
0.0
 10
1469.522209295891
 20
2272.927875014586
 30
0.0
 10
1469.52680503047
 20
2273.029467606847
 30
0.0
  0
SPLINE
  5
11B
330
1F
100
AcDbEntity
  8
0
  6
Continuous
 62
     7
370
    25
100
AcDbSpline
210
0.0
220
0.0
230
1.0
 70
     8
 71
     3
 72
    14
 73
    10
 74
     0
 42
0.000000001
 43
0.00000001
 40
0.0
 40
0.0
 40
0.0
 40
0.0
 40
0.2243030424882407
 40
0.3489011866265178
 40
0.4744001356118412
 40
0.5826741857066293
 40
0.6867417687948103
 40
0.8381564871698013
 40
1.0
 40
1.0
 40
1.0
 40
1.0
 10
1463.006014735038
 20
2273.263566562477
 30
0.0
 10
1463.062058738259
 20
2273.318498564022
 30
0.0
 10
1463.14923463659
 20
2273.403944754633
 30
0.0
 10
1463.314676383338
 20
2273.47979383817
 30
0.0
 10
1463.449758952381
 20
2273.505474796478
 30
0.0
 10
1463.568799692064
 20
2273.492657521955
 30
0.0
 10
1463.673248839773
 20
2273.447246198852
 30
0.0
 10
1463.758392081509
 20
2273.365068507601
 30
0.0
 10
1463.785635867791
 20
2273.286763003281
 30
0.0
 10
1463.799711252364
 20
2273.246306802515
 30
0.0
  0
SPLINE
  5
11C
330
1F
100
AcDbEntity
  8
0
  6
Continuous
 62
     7
370
    25
100
AcDbSpline
210
0.0
220
0.0
230
1.0
 70
     8
 71
     3
 72
    31
 73
    27
 74
     0
 42
0.000000001
 43
0.00000001
 40
0.0
 40
0.0
 40
0.0
 40
0.0
 40
0.0425833337774348
 40
0.0854693441808188
 40
0.129285707294804
 40
0.1734170152399086
 40
0.2449145713515138
 40
0.2814363788217664
 40
0.3182277375026504
 40
0.3578646940443417
 40
0.3981600951410987
 40
0.4288325139380279
 40
0.4602505469959275
 40
0.4856124894106397
 40
0.5117016966526932
 40
0.5370695264658035
 40
0.5631025307145425
 40
0.5995567496813967
 40
0.6370216898153739
 40
0.6960149548444003
 40
0.7565748829862473
 40
0.7982000521028528
 40
0.8401283317747335
 40
0.882957578565859
 40
0.9260808780984702
 40
1.0
 40
1.0
 40
1.0
 40
1.0
 10
1458.93072331095
 20
2273.263566562477
 30
0.0
 10
1458.866053202083
 20
2273.163892014132
 30
0.0
 10
1458.736253317889
 20
2272.96383444412
 30
0.0
 10
1458.582080565646
 20
2272.656878769341
 30
0.0
 10
1458.458555452094
 20
2272.345304543909
 30
0.0
 10
1458.352951390816
 20
2271.966712149966
 30
0.0
 10
1458.308977977923
 20
2271.610147528432
 30
0.0
 10
1458.322805035368
 20
2271.284407623657
 30
0.0
 10
1458.365308923547
 20
2271.041002568057
 30
0.0
 10
1458.446844202854
 20
2270.806727346494
 30
0.0
 10
1458.566685427322
 20
2270.611152456592
 30
0.0
 10
1458.717895049324
 20
2270.464621452707
 30
0.0
 10
1458.880020554921
 20
2270.375205922458
 30
0.0
 10
1459.061766518786
 20
2270.331179819437
 30
0.0
 10
1459.250926129169
 20
2270.329045747053
 30
0.0
 10
1459.456724568124
 20
2270.366215294433
 30
0.0
 10
1459.699906236674
 20
2270.448047319224
 30
0.0
 10
1459.982425105917
 20
2270.585746728225
 30
0.0
 10
1460.356491630836
 20
2270.816534482048
 30
0.0
 10
1460.790807728913
 20
2271.13733602186
 30
0.0
 10
1461.222550022987
 20
2271.497528309506
 30
0.0
 10
1461.596618335439
 20
2271.831579063789
 30
0.0
 10
1461.915444691633
 20
2272.129770050133
 30
0.0
 10
1462.226638875566
 20
2272.433881459101
 30
0.0
 10
1462.601708505606
 20
2272.814851161888
 30
0.0
 10
1462.849512221826
 20
2273.089873745505
 30
0.0
 10
1463.006014735038
 20
2273.263566562477
 30
0.0
  0
SPLINE
  5
11D
330
1F
100
AcDbEntity
  8
0
  6
Continuous
 62
     7
370
    25
100
AcDbSpline
210
0.0
220
0.0
230
1.0
 70
     8
 71
     3
 72
    14
 73
    10
 74
     0
 42
0.000000001
 43
0.00000001
 40
0.0
 40
0.0
 40
0.0
 40
0.0
 40
0.2239799089306828
 40
0.3530600787850952
 40
0.4831615846561592
 40
0.5937368434043704
 40
0.6971871626481411
 40
0.84420130997091
 40
1.0
 40
1.0
 40
1.0
 40
1.0
 10
1458.652996887776
 20
2273.246306802515
 30
0.0
 10
1458.714542301959
 20
2273.30215403282
 30
0.0
 10
1458.811556489008
 20
2273.39018615867
 30
0.0
 10
1458.932304437902
 20
2273.473034858779
 30
0.0
 10
1459.003661850423
 20
2273.504752215486
 30
0.0
 10
1459.036866939254
 20
2273.495711969574
 30
0.0
 10
1459.038000613224
 20
2273.453671292361
 30
0.0
 10
1459.004539197586
 20
2273.376299459283
 30
0.0
 10
1458.955799912288
 20
2273.301863981092
 30
0.0
 10
1458.93072331095
 20
2273.263566562477
 30
0.0
  0
SPLINE
  5
11E
330
1F
100
AcDbEntity
  8
0
  6
Continuous
 62
     7
370
    25
100
AcDbSpline
210
0.0
220
0.0
230
1.0
 70
     8
 71
     3
 72
    18
 73
    14
 74
     0
 42
0.000000001
 43
0.00000001
 40
0.0
 40
0.0
 40
0.0
 40
0.0
 40
0.0325462817353045
 40
0.1043770859888167
 40
0.1781776228110784
 40
0.2999626378021611
 40
0.4249053682307859
 40
0.5147393572586862
 40
0.6052286376222072
 40
0.6976551239865388
 40
0.7907111906583597
 40
0.8948772166217632
 40
1.0
 40
1.0
 40
1.0
 40
1.0
 10
1456.42859058429
 20
2270.084295902681
 30
0.0
 10
1456.428584127521
 20
2270.098078209355
 30
0.0
 10
1456.428563420433
 20
2270.142278558279
 30
0.0
 10
1456.463533344907
 20
2270.269010062016
 30
0.0
 10
1456.549845146741
 20
2270.497137052642
 30
0.0
 10
1456.707704716472
 20
2270.822908927243
 30
0.0
 10
1456.92622773723
 20
2271.195307962441
 30
0.0
 10
1457.160404606451
 20
2271.545851667405
 30
0.0
 10
1457.394277221
 20
2271.864486030873
 30
0.0
 10
1457.654154430363
 20
2272.189471355116
 30
0.0
 10
1457.950107667634
 20
2272.530580498292
 30
0.0
 10
1458.280983452029
 20
2272.885012460765
 30
0.0
 10
1458.528615062407
 20
2273.125508881246
 30
0.0
 10
1458.652996887776
 20
2273.246306802515
 30
0.0
  0
SPLINE
  5
11F
330
1F
100
AcDbEntity
  8
0
  6
Continuous
 62
     7
370
    25
100
AcDbSpline
210
0.0
220
0.0
230
1.0
 70
     8
 71
     3
 72
    16
 73
    12
 74
     0
 42
0.000000001
 43
0.00000001
 40
0.0
 40
0.0
 40
0.0
 40
0.0
 40
0.1096632024349972
 40
0.2201285794244677
 40
0.3329083206503138
 40
0.4464083437871487
 40
0.5591730378228665
 40
0.6726040291465776
 40
0.7882562549511636
 40
0.9047849428720991
 40
1.0
 40
1.0
 40
1.0
 40
1.0
 10
1473.39922883332
 20
2272.672924866504
 30
0.0
 10
1473.506264852434
 20
2272.539075793975
 30
0.0
 10
1473.721119847652
 20
2272.270398557321
 30
0.0
 10
1474.006246913578
 20
2271.854368451924
 30
0.0
 10
1474.26300378101
 20
2271.428676981473
 30
0.0
 10
1474.485430557808
 20
2270.996049737183
 30
0.0
 10
1474.671822909358
 20
2270.560884018646
 30
0.0
 10
1474.822328518541
 20
2270.122936970313
 30
0.0
 10
1474.932374465807
 20
2269.685598867952
 30
0.0
 10
1475.004018610181
 20
2269.274337258874
 30
0.0
 10
1475.005825494519
 20
2269.03321308259
 30
0.0
 10
1475.00663799831
 20
2268.924786492636
 30
0.0
  0
SPLINE
  5
120
330
1F
100
AcDbEntity
  8
0
  6
Continuous
 62
     7
370
    25
100
AcDbSpline
210
0.0
220
0.0
230
1.0
 70
     8
 71
     3
 72
    15
 73
    11
 74
     0
 42
0.000000001
 43
0.00000001
 40
0.0
 40
0.0
 40
0.0
 40
0.0
 40
0.2155767705932368
 40
0.3329005538676629
 40
0.4328760582230739
 40
0.5332634977247316
 40
0.6250838127945484
 40
0.7535547096887676
 40
0.9421338378891938
 40
1.0
 40
1.0
 40
1.0
 40
1.0
 10
1473.305079681731
 20
2272.706798195757
 30
0.0
 10
1473.260898743727
 20
2272.766018646495
 30
0.0
 10
1473.192673124189
 20
2272.857468763301
 30
0.0
 10
1473.135293905391
 20
2272.940619321429
 30
0.0
 10
1473.116579182961
 20
2272.974844565561
 30
0.0
 10
1473.126879890093
 20
2272.973758428117
 30
0.0
 10
1473.165171787443
 20
2272.938949471481
 30
0.0
 10
1473.241060546529
 20
2272.858558720553
 30
0.0
 10
1473.327087186725
 20
2272.759741863911
 30
0.0
 10
1473.385510781687
 20
2272.689433500687
 30
0.0
 10
1473.39922883332
 20
2272.672924866504
 30
0.0
  0
LINE
  5
121
330
1F
100
AcDbEntity
  8
0
  6
Continuous
 62
     7
370
    25
100
AcDbLine
 10
1469.5268050305
 20
2273.0294676068
 30
0.0
 11
1469.5268050305
 21
1916.3506106858
 31
0.0
  0
LINE
  5
122
330
1F
100
AcDbEntity
  8
0
  6
Continuous
 62
     7
370
    25
100
AcDbLine
 10
2101.7184054929
 20
1916.3506106858
 30
0.0
 11
2098.9359199142
 21
1916.3506106858
 31
0.0
  0
LINE
  5
123
330
1F
100
AcDbEntity
  8
0
  6
Continuous
 62
     7
370
    25
100
AcDbLine
 10
2117.9359199142
 20
1916.3506106858
 30
0.0
 11
2101.7184054929
 21
1916.3506106858
 31
0.0
  0
LINE
  5
124
330
1F
100
AcDbEntity
  8
0
  6
Continuous
 62
     7
370
    25
100
AcDbLine
 10
2112.9359199142
 20
1908.3506106858
 30
0.0
 11
2103.9359199142
 21
1908.3506106858
 31
0.0
  0
LINE
  5
125
330
1F
100
AcDbEntity
  8
0
  6
Continuous
 62
     7
370
    25
100
AcDbLine
 10
1475.3847846314
 20
1916.3506106858
 30
0.0
 11
1456.3847846314
 21
1916.3506106858
 31
0.0
  0
LINE
  5
126
330
1F
100
AcDbEntity
  8
0
  6
Continuous
 62
     7
370
    25
100
AcDbLine
 10
1469.0667651467
 20
1908.3506106858
 30
0.0
 11
1461.3847846314
 21
1908.3506106858
 31
0.0
  0
LINE
  5
127
330
1F
100
AcDbEntity
  8
0
  6
Continuous
 62
     7
370
    25
100
AcDbLine
 10
1470.3847846314
 20
1908.3506106858
 30
0.0
 11
1469.0667651467
 21
1908.3506106858
 31
0.0
  0
LINE
  5
128
330
1F
100
AcDbEntity
  8
0
  6
Continuous
 62
     7
370
    25
100
AcDbLine
 10
1342.1603522728
 20
2271.3506106901
 30
0.0
 11
1456.9935733938
 21
2271.3506106901
 31
0.0
  0
LINE
  5
129
330
1F
100
AcDbEntity
  8
0
  6
Continuous
 62
     7
370
    25
100
AcDbLine
 10
1474.2834799786
 20
2271.3506106901
 30
0.0
 11
2100.0414808363
 21
2271.3506106901
 31
0.0
  0
LINE
  5
12A
330
1F
100
AcDbEntity
  8
0
  6
Continuous
 62
     7
370
    25
100
AcDbLine
 10
2117.3271311518
 20
2271.3506106901
 30
0.0
 11
2232.1603522728
 21
2271.3506106901
 31
0.0
  0
LINE
  5
12B
330
1F
100
AcDbEntity
  8
0
  6
Continuous
 62
     7
370
    25
100
AcDbLine
 10
1342.1603522728
 20
2261.3506106901
 30
0.0
 11
1456.4262611977
 21
2261.3506106901
 31
0.0
  0
LINE
  5
12C
330
1F
100
AcDbEntity
  8
0
  6
Continuous
 62
     7
370
    25
100
AcDbLine
 10
1476.0532317277
 20
2261.3506106901
 30
0.0
 11
2098.2674728179
 21
2261.3506106901
 31
0.0
  0
LINE
  5
12D
330
1F
100
AcDbEntity
  8
0
  6
Continuous
 62
     7
370
    25
100
AcDbLine
 10
2117.8944433479
 20
2261.3506106901
 30
0.0
 11
2232.1603522728
 21
2261.3506106901
 31
0.0
  0
LINE
  5
12E
330
1F
100
AcDbEntity
  8
0
  6
Continuous
 62
     8
370
    18
100
AcDbLine
 10
1474.3737213152
 20
2228.8506106901
 30
0.0
 11
1787.1603522728
 21
2228.8506106901
 31
0.0
  0
LINE
  5
12F
330
1F
100
AcDbEntity
  8
0
  6
Continuous
 62
     8
370
    18
100
AcDbLine
 10
1474.3737213152
 20
2258.8506106901
 30
0.0
 11
1787.1603522728
 21
2258.8506106901
 31
0.0
  0
LINE
  5
130
330
1F
100
AcDbEntity
  8
0
  6
Continuous
 62
     8
370
    18
100
AcDbLine
 10
2099.9469832304
 20
2258.8506106901
 30
0.0
 11
1787.1603522728
 21
2258.8506106901
 31
0.0
  0
LINE
  5
131
330
1F
100
AcDbEntity
  8
0
  6
Continuous
 62
     8
370
    18
100
AcDbLine
 10
2099.9469832304
 20
2228.8506106901
 30
0.0
 11
1787.1603522728
 21
2228.8506106901
 31
0.0
  0
LINE
  5
132
330
1F
100
AcDbEntity
  8
0
  6
Continuous
 62
     8
370
    18
100
AcDbLine
 10
2110.5209932932
 20
2273.2463068025
 30
0.0
 11
2110.5209932932
 21
1916.3506106858
 31
0.0
  0
LINE
  5
133
330
1F
100
AcDbEntity
  8
0
  6
Continuous
 62
     8
370
    18
100
AcDbLine
 10
2111.3146898106
 20
2273.2635665625
 30
0.0
 11
2111.3146898106
 21
1916.3506106858
 31
0.0
  0
LINE
  5
134
330
1F
100
AcDbEntity
  8
0
  6
Continuous
 62
     8
370
    18
100
AcDbLine
 10
2104.0819025697
 20
2272.9892549821
 30
0.0
 11
2104.0819025697
 21
1916.3506106858
 31
0.0
  0
LINE
  5
135
330
1F
100
AcDbEntity
  8
0
  6
Continuous
 62
     8
370
    18
100
AcDbLine
 10
2115.6677076578
 20
2273.2463068025
 30
0.0
 11
2115.6677076578
 21
2272.7860078626
 31
0.0
  0
LINE
  5
136
330
1F
100
AcDbEntity
  8
0
  6
Continuous
 62
     8
370
    18
100
AcDbLine
 10
2100.9214757123
 20
2272.6729248665
 30
0.0
 11
2100.9214757123
 21
2272.5719056511
 31
0.0
  0
LINE
  5
137
330
1F
100
AcDbEntity
  8
0
  6
Continuous
 62
     8
370
    18
100
AcDbLine
 10
1463.7997112524
 20
2273.2463068025
 30
0.0
 11
1463.7997112524
 21
1916.3506106858
 31
0.0
  0
LINE
  5
138
330
1F
100
AcDbEntity
  8
0
  6
Continuous
 62
     8
370
    18
100
AcDbLine
 10
1463.006014735
 20
2273.2635665625
 30
0.0
 11
1463.006014735
 21
1916.3506106858
 31
0.0
  0
LINE
  5
139
330
1F
100
AcDbEntity
  8
0
  6
Continuous
 62
     8
370
    18
100
AcDbLine
 10
1470.2388019759
 20
2272.9892549821
 30
0.0
 11
1470.2388019759
 21
1916.3506106858
 31
0.0
  0
LINE
  5
13A
330
1F
100
AcDbEntity
  8
0
  6
Continuous
 62
     8
370
    18
100
AcDbLine
 10
1458.6529968878
 20
2273.2463068025
 30
0.0
 11
1458.6529968878
 21
2272.7857436537
 31
0.0
  0
LINE
  5
13B
330
1F
100
AcDbEntity
  8
0
  6
Continuous
 62
     8
370
    18
100
AcDbLine
 10
1473.3992288333
 20
2272.6729248665
 30
0.0
 11
1473.3992288333
 21
2272.5646688311
 31
0.0
  0
LINE
  5
13C
330
1F
100
AcDbEntity
  8
0
  6
Continuous
 62
     8
370
    18
100
AcDbLine
 10
2098.9359199142
 20
1913.3506106858
 30
0.0
 11
2117.9359199142
 21
1913.3506106858
 31
0.0
  0
LINE
  5
13D
330
1F
100
AcDbEntity
  8
0
  6
Continuous
 62
     8
370
    18
100
AcDbLine
 10
1472.6022990527
 20
1913.3506106858
 30
0.0
 11
1475.3847846314
 21
1913.3506106858
 31
0.0
  0
LINE
  5
13E
330
1F
100
AcDbEntity
  8
0
  6
Continuous
 62
     8
370
    18
100
AcDbLine
 10
1456.3847846314
 20
1913.3506106858
 30
0.0
 11
1472.6022990527
 21
1913.3506106858
 31
0.0
  0
ARC
  5
13F
330
1F
100
AcDbEntity
  8
0
  6
Continuous
 62
     7
370
    25
100
AcDbCircle
 10
2552.9531808634
 20
2266.3506106858
 30
0.0
 40
9.999999999999947
100
AcDbArc
 50
36.1381865699
 51
154.8813968072
  0
LINE
  5
140
330
1F
100
AcDbEntity
  8
0
  6
Continuous
 62
     7
370
    25
100
AcDbLine
 10
2545.6161690035
 20
2271.5005466128
 30
0.0
 11
2545.6161690035
 21
1916.3506106858
 31
0.0
  0
LINE
  5
141
330
1F
100
AcDbEntity
  8
0
  6
Continuous
 62
     7
370
    25
100
AcDbLine
 10
2561.6730747495
 20
1916.3506106858
 30
0.0
 11
2561.6730747495
 21
2269.9907589668
 31
0.0
  0
LINE
  5
142
330
1F
100
AcDbEntity
  8
0
  6
Continuous
 62
     7
370
    25
100
AcDbLine
 10
2543.725614632
 20
2270.0842959027
 30
0.0
 11
2543.725614632
 21
1916.3506106858
 31
0.0
  0
LINE
  5
143
330
1F
100
AcDbEntity
  8
0
  6
Continuous
 62
     7
370
    25
100
AcDbLine
 10
2562.3139719608
 20
1916.3506106858
 30
0.0
 11
2562.3139719608
 21
2226.3506106901
 31
0.0
  0
LINE
  5
144
330
1F
100
AcDbEntity
  8
0
  6
Continuous
 62
     7
370
    25
100
AcDbLine
 10
2562.3139719608
 20
2261.3506106901
 30
0.0
 11
2562.3139719608
 21
2268.9247864926
 31
0.0
  0
ARC
  5
145
330
1F
100
AcDbEntity
  8
0
  6
Continuous
 62
     7
370
    25
100
AcDbCircle
 10
3195.9662305508
 20
2266.3506106858
 30
0.0
 40
10.00000000000011
100
AcDbArc
 50
25.0666759733
 51
143.7592467326
  0
LINE
  5
146
330
1F
100
AcDbEntity
  8
0
  6
Continuous
 62
     7
370
    25
100
AcDbLine
 10
3203.3032424107
 20
1916.3506106858
 30
0.0
 11
3203.3032424107
 21
2271.5017273172
 31
0.0
  0
LINE
  5
147
330
1F
100
AcDbEntity
  8
0
  6
Continuous
 62
     7
370
    25
100
AcDbLine
 10
3187.2463366647
 20
2269.9870534741
 30
0.0
 11
3187.2463366647
 21
1916.3506106858
 31
0.0
  0
LINE
  5
148
330
1F
100
AcDbEntity
  8
0
  6
Continuous
 62
     7
370
    25
100
AcDbLine
 10
3205.1937967822
 20
1916.3506106858
 30
0.0
 11
3205.1937967822
 21
2270.0892583406
 31
0.0
  0
LINE
  5
149
330
1F
100
AcDbEntity
  8
0
  6
Continuous
 62
     7
370
    25
100
AcDbLine
 10
3186.6054394534
 20
2268.9189674906
 30
0.0
 11
3186.6054394534
 21
2261.3506106901
 31
0.0
  0
LINE
  5
14A
330
1F
100
AcDbEntity
  8
0
  6
Continuous
 62
     7
370
    25
100
AcDbLine
 10
3186.6054394534
 20
2226.3506106901
 30
0.0
 11
3186.6054394534
 21
1916.3506106858
 31
0.0
  0
LINE
  5
14B
330
1F
100
AcDbEntity
  8
0
  6
Continuous
 62
     7
370
    25
100
AcDbLine
 10
2562.6841380657
 20
1913.3506106858
 30
0.0
 11
2562.6841380657
 21
1916.3506106858
 31
0.0
  0
LINE
  5
14C
330
1F
100
AcDbEntity
  8
0
  6
Continuous
 62
     7
370
    25
100
AcDbLine
 10
2543.6841380657
 20
1916.3506106858
 30
0.0
 11
2543.6841380657
 21
1913.3506106858
 31
0.0
  0
ARC
  5
14D
330
1F
100
AcDbEntity
  8
0
  6
Continuous
 62
     7
370
    25
100
AcDbCircle
 10
2548.6841380657
 20
1913.3506106858
 30
0.0
 40
5.0
100
AcDbArc
 50
180.0
 51
270.0
  0
ARC
  5
14E
330
1F
100
AcDbEntity
  8
0
  6
Continuous
 62
     7
370
    25
100
AcDbCircle
 10
2557.6841380657
 20
1913.3506106858
 30
0.0
 40
5.000000000000455
100
AcDbArc
 50
270.0
 51
0.0
  0
LINE
  5
14F
330
1F
100
AcDbEntity
  8
0
  6
Continuous
 62
     7
370
    25
100
AcDbLine
 10
3205.2352733485
 20
1913.3506106858
 30
0.0
 11
3205.2352733485
 21
1916.3506106858
 31
0.0
  0
LINE
  5
150
330
1F
100
AcDbEntity
  8
0
  6
Continuous
 62
     7
370
    25
100
AcDbLine
 10
3186.2352733485
 20
1916.3506106858
 30
0.0
 11
3186.2352733485
 21
1913.3506106858
 31
0.0
  0
ARC
  5
151
330
1F
100
AcDbEntity
  8
0
  6
Continuous
 62
     7
370
    25
100
AcDbCircle
 10
3191.2352733485
 20
1913.3506106858
 30
0.0
 40
5.000000000000227
100
AcDbArc
 50
180.0
 51
270.0
  0
ARC
  5
152
330
1F
100
AcDbEntity
  8
0
  6
Continuous
 62
     7
370
    25
100
AcDbCircle
 10
3200.2352733485
 20
1913.3506106858
 30
0.0
 40
5.0
100
AcDbArc
 50
270.0
 51
0.0
  0
LINE
  5
153
330
1F
100
AcDbEntity
  8
0
  6
Continuous
 62
     7
370
    25
100
AcDbLine
 10
3319.4597057071
 20
2261.3506106901
 30
0.0
 11
3319.4597057071
 21
2271.3506106901
 31
0.0
  0
LINE
  5
154
330
1F
100
AcDbEntity
  8
0
  6
Continuous
 62
     7
370
    25
100
AcDbLine
 10
2429.4597057071
 20
2271.3506106901
 30
0.0
 11
2429.4597057071
 21
2261.3506106901
 31
0.0
  0
LINE
  5
155
330
1F
100
AcDbEntity
  8
0
  6
Continuous
 62
     7
370
    25
100
AcDbLine
 10
3186.6080229214
 20
2226.3506106901
 30
0.0
 11
2874.4597057071
 21
2226.3506106901
 31
0.0
  0
LINE
  5
156
330
1F
100
AcDbEntity
  8
0
  6
Continuous
 62
     7
370
    25
100
AcDbLine
 10
3186.6080229214
 20
2261.3506106901
 30
0.0
 11
3185.5668262522
 21
2261.3506106901
 31
0.0
  0
LINE
  5
157
330
1F
100
AcDbEntity
  8
0
  6
Continuous
 62
     7
370
    25
100
AcDbLine
 10
2562.3126478528
 20
2261.3506106901
 30
0.0
 11
2562.3113884928
 21
2261.3506106901
 31
0.0
  0
LINE
  5
158
330
1F
100
AcDbEntity
  8
0
  6
Continuous
 62
     7
370
    25
100
AcDbLine
 10
2563.352585162
 20
2261.3506106901
 30
0.0
 11
2562.3126478528
 21
2261.3506106901
 31
0.0
  0
LINE
  5
159
330
1F
100
AcDbEntity
  8
0
  6
Continuous
 62
     7
370
    25
100
AcDbLine
 10
2874.4597057071
 20
2226.3506106901
 30
0.0
 11
2562.3126478528
 21
2226.3506106901
 31
0.0
  0
LINE
  5
15A
330
1F
100
AcDbEntity
  8
0
  6
Continuous
 62
     7
370
    25
100
AcDbLine
 10
2562.3126478528
 20
2226.3506106901
 30
0.0
 11
2562.3113884928
 21
2226.3506106901
 31
0.0
  0
SPLINE
  5
15B
330
1F
100
AcDbEntity
  8
0
  6
Continuous
 62
     7
370
    25
100
AcDbSpline
210
0.0
220
0.0
230
1.0
 70
     8
 71
     3
 72
    32
 73
    28
 74
     0
 42
0.000000001
 43
0.00000001
 40
0.0
 40
0.0
 40
0.0
 40
0.0
 40
0.0441441928241911
 40
0.0886104352646706
 40
0.1340256948284985
 40
0.1797444149379685
 40
0.2245884288186386
 40
0.2697223103764402
 40
0.3158695723814709
 40
0.3624409759686545
 40
0.3905644447044656
 40
0.4188972546593838
 40
0.4470561788819206
 40
0.4758699108998194
 40
0.4938447275987007
 40
0.5122867846817777
 40
0.5302841812509325
 40
0.5488497088202802
 40
0.5722278000635004
 40
0.5962533137611195
 40
0.6386203767558907
 40
0.6820050825656
 40
0.7223286131288007
 40
0.7629537503048742
 40
0.8459909377782785
 40
0.9222549213514626
 40
1.0
 40
1.0
 40
1.0
 40
1.0
 10
2557.538155410241
 20
2272.989254982093
 30
0.0
 10
2557.645694661188
 20
2272.870600729038
 30
0.0
 10
2557.861557705107
 20
2272.632426592497
 30
0.0
 10
2558.198174345613
 20
2272.264172440346
 30
0.0
 10
2558.54169735333
 20
2271.887982810794
 30
0.0
 10
2558.887150427718
 20
2271.508316226674
 30
0.0
 10
2559.230074346518
 20
2271.129426797215
 30
0.0
 10
2559.570479624569
 20
2270.751916785926
 30
0.0
 10
2559.91011078372
 20
2270.376169577421
 30
0.0
 10
2560.202789772502
 20
2270.057971262499
 30
0.0
 10
2560.448652549635
 20
2269.801899104003
 30
0.0
 10
2560.648438557439
 20
2269.605890300039
 30
0.0
 10
2560.847202640463
 20
2269.430869557681
 30
0.0
 10
2561.018145207907
 20
2269.309128211447
 30
0.0
 10
2561.15975297588
 20
2269.240291578844
 30
0.0
 10
2561.270149184299
 20
2269.213145655426
 30
0.0
 10
2561.369807920276
 20
2269.220298628953
 30
0.0
 10
2561.462082953825
 20
2269.264721677563
 30
0.0
 10
2561.541850844321
 20
2269.352460689232
 30
0.0
 10
2561.619535889313
 20
2269.51397364505
 30
0.0
 10
2561.670127821517
 20
2269.759066351111
 30
0.0
 10
2561.678064823163
 20
2270.074613359047
 30
0.0
 10
2561.646034227537
 20
2270.403586355181
 30
0.0
 10
2561.55864583627
 20
2270.850453078748
 30
0.0
 10
2561.371936591981
 20
2271.408633644271
 30
0.0
 10
2561.047597429636
 20
2272.072191287164
 30
0.0
 10
2560.753098612516
 20
2272.493910676965
 30
0.0
 10
2560.604433116028
 20
2272.706798195757
 30
0.0
  0
SPLINE
  5
15C
330
1F
100
AcDbEntity
  8
0
  6
Continuous
 62
     7
370
    25
100
AcDbSpline
210
0.0
220
0.0
230
1.0
 70
     8
 71
     3
 72
    14
 73
    10
 74
     0
 42
0.000000001
 43
0.00000001
 40
0.0
 40
0.0
 40
0.0
 40
0.0
 40
0.2207653484382555
 40
0.3402146168140586
 40
0.460570499179101
 40
0.5641909618661675
 40
0.6633542991973108
 40
0.8105247403618794
 40
1.0
 40
1.0
 40
1.0
 40
1.0
 10
2556.826158464767
 20
2273.029467606847
 30
0.0
 10
2556.833118972276
 20
2273.085901084854
 30
0.0
 10
2556.843845594057
 20
2273.172868963787
 30
0.0
 10
2556.926557211153
 20
2273.250167028755
 30
0.0
 10
2557.020732717299
 20
2273.276346139126
 30
0.0
 10
2557.130720688197
 20
2273.263717636746
 30
0.0
 10
2557.253764180978
 20
2273.218258028624
 30
0.0
 10
2557.399624542667
 20
2273.128784980775
 30
0.0
 10
2557.488265415212
 20
2273.03950480051
 30
0.0
 10
2557.538155410241
 20
2272.989254982093
 30
0.0
  0
SPLINE
  5
15D
330
1F
100
AcDbEntity
  8
0
  6
Continuous
 62
     7
370
    25
100
AcDbSpline
210
0.0
220
0.0
230
1.0
 70
     8
 71
     3
 72
    32
 73
    28
 74
     0
 42
0.000000001
 43
0.00000001
 40
0.0
 40
0.0
 40
0.0
 40
0.0
 40
0.0430379910819468
 40
0.0863861263481956
 40
0.1306715836239525
 40
0.1752669939041181
 40
0.2185320463381641
 40
0.2621050719942115
 40
0.3067938579277422
 40
0.3519663346176152
 40
0.3854310965017723
 40
0.419328916097205
 40
0.4528593258451235
 40
0.4875791928901135
 40
0.5106386088136778
 40
0.5343801485774025
 40
0.5574353916329462
 40
0.5810375265201486
 40
0.6176166200902758
 40
0.6551846333990784
 40
0.7177265685357834
 40
0.78190448133192
 40
0.8252890843115616
 40
0.8689843386192282
 40
0.9136242089591367
 40
0.9585815908891879
 40
1.0
 40
1.0
 40
1.0
 40
1.0
 10
2551.099064686662
 20
2273.246306802516
 30
0.0
 10
2551.128799899369
 20
2273.141832415267
 30
0.0
 10
2551.188484605309
 20
2272.932130768183
 30
0.0
 10
2551.323599602491
 20
2272.609085834339
 30
0.0
 10
2551.491271473129
 20
2272.280144986602
 30
0.0
 10
2551.691962963128
 20
2271.950824060335
 30
0.0
 10
2551.922107580544
 20
2271.625228816757
 30
0.0
 10
2552.182546806336
 20
2271.304151620482
 30
0.0
 10
2552.478390254309
 20
2270.98748647256
 30
0.0
 10
2552.783598220942
 20
2270.709273472241
 30
0.0
 10
2553.090139818625
 20
2270.475408212232
 30
0.0
 10
2553.388846654605
 20
2270.288744586717
 30
0.0
 10
2553.716882608891
 20
2270.135275710435
 30
0.0
 10
2554.032038895857
 20
2270.04627655399
 30
0.0
 10
2554.320385316364
 20
2270.016795458917
 30
0.0
 10
2554.565690008293
 20
2270.029086557189
 30
0.0
 10
2554.80355617038
 20
2270.07776886427
 30
0.0
 10
2555.068097895145
 20
2270.171808368928
 30
0.0
 10
2555.350073573975
 20
2270.32577071481
 30
0.0
 10
2555.694952966822
 20
2270.588726349084
 30
0.0
 10
2556.03976404562
 20
2270.953183208098
 30
0.0
 10
2556.31975873501
 20
2271.359511895628
 30
0.0
 10
2556.516095825983
 20
2271.730902276743
 30
0.0
 10
2556.651103139412
 20
2272.058158176794
 30
0.0
 10
2556.749840981279
 20
2272.390323175495
 30
0.0
 10
2556.811978581059
 20
2272.716009307794
 30
0.0
 10
2556.821562730189
 20
2272.927875014586
 30
0.0
 10
2556.826158464767
 20
2273.029467606847
 30
0.0
  0
SPLINE
  5
15E
330
1F
100
AcDbEntity
  8
0
  6
Continuous
 62
     7
370
    25
100
AcDbSpline
210
0.0
220
0.0
230
1.0
 70
     8
 71
     3
 72
    14
 73
    10
 74
     0
 42
0.000000001
 43
0.00000001
 40
0.0
 40
0.0
 40
0.0
 40
0.0
 40
0.2243030424881516
 40
0.3489011866264777
 40
0.474400135611841
 40
0.582674185706597
 40
0.6867417687947494
 40
0.8381564871697395
 40
1.0
 40
1.0
 40
1.0
 40
1.0
 10
2550.305368169335
 20
2273.263566562477
 30
0.0
 10
2550.361412172556
 20
2273.318498564023
 30
0.0
 10
2550.448588070887
 20
2273.403944754634
 30
0.0
 10
2550.614029817636
 20
2273.47979383817
 30
0.0
 10
2550.749112386678
 20
2273.505474796478
 30
0.0
 10
2550.868153126361
 20
2273.492657521956
 30
0.0
 10
2550.972602274071
 20
2273.447246198853
 30
0.0
 10
2551.057745515806
 20
2273.365068507601
 30
0.0
 10
2551.084989302089
 20
2273.286763003282
 30
0.0
 10
2551.099064686662
 20
2273.246306802516
 30
0.0
  0
SPLINE
  5
15F
330
1F
100
AcDbEntity
  8
0
  6
Continuous
 62
     7
370
    25
100
AcDbSpline
210
0.0
220
0.0
230
1.0
 70
     8
 71
     3
 72
    31
 73
    27
 74
     0
 42
0.000000001
 43
0.00000001
 40
0.0
 40
0.0
 40
0.0
 40
0.0
 40
0.0425833337774422
 40
0.0854693441808224
 40
0.1292857072947958
 40
0.1734170152399132
 40
0.2449145713515187
 40
0.28143637882176
 40
0.3182277375026505
 40
0.3578646940443373
 40
0.3981600951410955
 40
0.4288325139380245
 40
0.4602505469959281
 40
0.485612489410636
 40
0.5117016966526893
 40
0.5370695264658027
 40
0.5631025307145373
 40
0.5995567496813912
 40
0.6370216898153724
 40
0.6960149548444015
 40
0.7565748829862401
 40
0.7982000521028536
 40
0.8401283317747301
 40
0.8829575785658553
 40
0.9260808780984632
 40
1.0
 40
1.0
 40
1.0
 40
1.0
 10
2546.230076745247
 20
2273.263566562477
 30
0.0
 10
2546.165406636381
 20
2273.163892014132
 30
0.0
 10
2546.035606752187
 20
2272.96383444412
 30
0.0
 10
2545.881433999943
 20
2272.656878769341
 30
0.0
 10
2545.757908886391
 20
2272.345304543909
 30
0.0
 10
2545.652304825113
 20
2271.966712149966
 30
0.0
 10
2545.608331412221
 20
2271.610147528432
 30
0.0
 10
2545.622158469665
 20
2271.284407623657
 30
0.0
 10
2545.664662357844
 20
2271.041002568058
 30
0.0
 10
2545.746197637152
 20
2270.806727346494
 30
0.0
 10
2545.866038861619
 20
2270.611152456592
 30
0.0
 10
2546.017248483622
 20
2270.464621452707
 30
0.0
 10
2546.179373989218
 20
2270.375205922458
 30
0.0
 10
2546.361119953084
 20
2270.331179819437
 30
0.0
 10
2546.550279563467
 20
2270.329045747053
 30
0.0
 10
2546.756078002421
 20
2270.366215294433
 30
0.0
 10
2546.999259670971
 20
2270.448047319224
 30
0.0
 10
2547.281778540214
 20
2270.585746728225
 30
0.0
 10
2547.655845065134
 20
2270.816534482048
 30
0.0
 10
2548.090161163211
 20
2271.13733602186
 30
0.0
 10
2548.521903457284
 20
2271.497528309507
 30
0.0
 10
2548.895971769736
 20
2271.831579063789
 30
0.0
 10
2549.214798125931
 20
2272.129770050134
 30
0.0
 10
2549.525992309863
 20
2272.433881459102
 30
0.0
 10
2549.901061939904
 20
2272.814851161888
 30
0.0
 10
2550.148865656123
 20
2273.089873745505
 30
0.0
 10
2550.305368169335
 20
2273.263566562477
 30
0.0
  0
SPLINE
  5
160
330
1F
100
AcDbEntity
  8
0
  6
Continuous
 62
     7
370
    25
100
AcDbSpline
210
0.0
220
0.0
230
1.0
 70
     8
 71
     3
 72
    14
 73
    10
 74
     0
 42
0.000000001
 43
0.00000001
 40
0.0
 40
0.0
 40
0.0
 40
0.0
 40
0.2239799089307088
 40
0.353060078785158
 40
0.4831615846561127
 40
0.5937368434044221
 40
0.6971871626481504
 40
0.844201309970924
 40
1.0
 40
1.0
 40
1.0
 40
1.0
 10
2545.952350322073
 20
2273.246306802515
 30
0.0
 10
2546.013895736256
 20
2273.30215403282
 30
0.0
 10
2546.110909923306
 20
2273.39018615867
 30
0.0
 10
2546.231657872199
 20
2273.47303485878
 30
0.0
 10
2546.303015284721
 20
2273.504752215487
 30
0.0
 10
2546.336220373551
 20
2273.495711969575
 30
0.0
 10
2546.337354047521
 20
2273.453671292361
 30
0.0
 10
2546.303892631883
 20
2273.376299459284
 30
0.0
 10
2546.255153346585
 20
2273.301863981092
 30
0.0
 10
2546.230076745247
 20
2273.263566562477
 30
0.0
  0
SPLINE
  5
161
330
1F
100
AcDbEntity
  8
0
  6
Continuous
 62
     7
370
    25
100
AcDbSpline
210
0.0
220
0.0
230
1.0
 70
     8
 71
     3
 72
    18
 73
    14
 74
     0
 42
0.000000001
 43
0.00000001
 40
0.0
 40
0.0
 40
0.0
 40
0.0
 40
0.0325462817353226
 40
0.1043770859888222
 40
0.1781776228110791
 40
0.2999626378021675
 40
0.4249053682307741
 40
0.5147393572586775
 40
0.6052286376222015
 40
0.697655123986535
 40
0.7907111906583435
 40
0.8948772166217617
 40
1.0
 40
1.0
 40
1.0
 40
1.0
 10
2543.727944018588
 20
2270.084295902681
 30
0.0
 10
2543.727937561819
 20
2270.098078209356
 30
0.0
 10
2543.727916854731
 20
2270.142278558279
 30
0.0
 10
2543.762886779204
 20
2270.269010062016
 30
0.0
 10
2543.849198581038
 20
2270.497137052642
 30
0.0
 10
2544.007058150769
 20
2270.822908927243
 30
0.0
 10
2544.225581171528
 20
2271.195307962441
 30
0.0
 10
2544.459758040748
 20
2271.545851667405
 30
0.0
 10
2544.693630655298
 20
2271.864486030873
 30
0.0
 10
2544.953507864661
 20
2272.189471355116
 30
0.0
 10
2545.249461101932
 20
2272.530580498292
 30
0.0
 10
2545.580336886327
 20
2272.885012460765
 30
0.0
 10
2545.827968496704
 20
2273.125508881246
 30
0.0
 10
2545.952350322073
 20
2273.246306802515
 30
0.0
  0
SPLINE
  5
162
330
1F
100
AcDbEntity
  8
0
  6
Continuous
 62
     7
370
    25
100
AcDbSpline
210
0.0
220
0.0
230
1.0
 70
     8
 71
     3
 72
    16
 73
    12
 74
     0
 42
0.000000001
 43
0.00000001
 40
0.0
 40
0.0
 40
0.0
 40
0.0
 40
0.109663202434994
 40
0.2201285794244885
 40
0.3329083206503212
 40
0.44640834378717
 40
0.5591730378229003
 40
0.6726040291466155
 40
0.7882562549512115
 40
0.9047849428721499
 40
0.9999999999999999
 40
0.9999999999999999
 40
0.9999999999999999
 40
0.9999999999999999
 10
2560.698582267617
 20
2272.672924866504
 30
0.0
 10
2560.805618286731
 20
2272.539075793976
 30
0.0
 10
2561.020473281949
 20
2272.270398557321
 30
0.0
 10
2561.305600347875
 20
2271.854368451924
 30
0.0
 10
2561.562357215307
 20
2271.428676981473
 30
0.0
 10
2561.784783992105
 20
2270.996049737183
 30
0.0
 10
2561.971176343655
 20
2270.560884018646
 30
0.0
 10
2562.121681952839
 20
2270.122936970313
 30
0.0
 10
2562.231727900104
 20
2269.685598867952
 30
0.0
 10
2562.303372044478
 20
2269.274337258874
 30
0.0
 10
2562.305178928816
 20
2269.03321308259
 30
0.0
 10
2562.305991432607
 20
2268.924786492636
 30
0.0
  0
SPLINE
  5
163
330
1F
100
AcDbEntity
  8
0
  6
Continuous
 62
     7
370
    25
100
AcDbSpline
210
0.0
220
0.0
230
1.0
 70
     8
 71
     3
 72
    15
 73
    11
 74
     0
 42
0.000000001
 43
0.00000001
 40
0.0
 40
0.0
 40
0.0
 40
0.0
 40
0.2155767705932635
 40
0.3329005538676525
 40
0.4328760582230657
 40
0.5332634977247637
 40
0.6250838127945271
 40
0.7535547096887677
 40
0.9421338378892317
 40
1.0
 40
1.0
 40
1.0
 40
1.0
 10
2560.604433116028
 20
2272.706798195757
 30
0.0
 10
2560.560252178024
 20
2272.766018646496
 30
0.0
 10
2560.492026558486
 20
2272.857468763301
 30
0.0
 10
2560.434647339689
 20
2272.94061932143
 30
0.0
 10
2560.415932617258
 20
2272.974844565561
 30
0.0
 10
2560.426233324391
 20
2272.973758428118
 30
0.0
 10
2560.46452522174
 20
2272.938949471481
 30
0.0
 10
2560.540413980827
 20
2272.858558720554
 30
0.0
 10
2560.626440621023
 20
2272.759741863911
 30
0.0
 10
2560.684864215984
 20
2272.689433500688
 30
0.0
 10
2560.698582267617
 20
2272.672924866504
 30
0.0
  0
LINE
  5
164
330
1F
100
AcDbEntity
  8
0
  6
Continuous
 62
     7
370
    25
100
AcDbLine
 10
2556.8261584648
 20
2273.0294676068
 30
0.0
 11
2556.8261584648
 21
1916.3506106858
 31
0.0
  0
SPLINE
  5
165
330
1F
100
AcDbEntity
  8
0
  6
Continuous
 62
     7
370
    25
100
AcDbSpline
210
0.0
220
0.0
230
1.0
 70
     8
 71
     3
 72
    19
 73
    15
 74
     0
 42
0.000000001
 43
0.00000001
 40
0.0
 40
0.0
 40
0.0
 40
0.0
 40
0.0910154949789298
 40
0.1826868738813324
 40
0.2763404741770916
 40
0.3706495540946322
 40
0.4621452318337836
 40
0.5542922024083011
 40
0.6487987504486876
 40
0.7443281936683992
 40
0.815098501265682
 40
0.8867846267474853
 40
0.9576937645425639
 40
1.0
 40
1.0
 40
1.0
 40
1.0
 10
3202.967061092116
 20
2273.246306802516
 30
0.0
 10
3203.074940567253
 20
2273.141832409468
 30
0.0
 10
3203.291476928157
 20
2272.932130750746
 30
0.0
 10
3203.597987864366
 20
2272.609085905305
 30
0.0
 10
3203.889603299999
 20
2272.280144713305
 30
0.0
 10
3204.158902723383
 20
2271.950825074881
 30
0.0
 10
3204.403471005049
 20
2271.625225145892
 30
0.0
 10
3204.623155818409
 20
2271.30416559237
 30
0.0
 10
3204.81786119607
 20
2270.987432603206
 30
0.0
 10
3204.967918271408
 20
2270.709454467922
 30
0.0
 10
3205.077554700885
 20
2270.47492188729
 30
0.0
 10
3205.148953103957
 20
2270.290595811129
 30
0.0
 10
3205.190732512833
 20
2270.151718591729
 30
0.0
 10
3205.189056755787
 20
2270.106249279092
 30
0.0
 10
3205.188430560155
 20
2270.089258340572
 30
0.0
  0
SPLINE
  5
166
330
1F
100
AcDbEntity
  8
0
  6
Continuous
 62
     7
370
    25
100
AcDbSpline
210
0.0
220
0.0
230
1.0
 70
     8
 71
     3
 72
    14
 73
    10
 74
     0
 42
0.000000001
 43
0.00000001
 40
0.0
 40
0.0
 40
0.0
 40
0.0
 40
0.2243030424881818
 40
0.3489011866264609
 40
0.4744001356118215
 40
0.5826741857066199
 40
0.68674176879477
 40
0.8381564871697568
 40
1.0
 40
1.0
 40
1.0
 40
1.0
 10
3202.689334668943
 20
2273.263566562477
 30
0.0
 10
3202.654002584777
 20
2273.318498564022
 30
0.0
 10
3202.599043873764
 20
2273.403944754634
 30
0.0
 10
3202.577547326118
 20
2273.47979383817
 30
0.0
 10
3202.596175687931
 20
2273.505474796478
 30
0.0
 10
3202.648209548403
 20
2273.492657521955
 30
0.0
 10
3202.728025432943
 20
2273.447246198852
 30
0.0
 10
3202.837784438773
 20
2273.365068507601
 30
0.0
 10
3202.923022971931
 20
2273.286763003281
 30
0.0
 10
3202.967061092116
 20
2273.246306802516
 30
0.0
  0
SPLINE
  5
167
330
1F
100
AcDbEntity
  8
0
  6
Continuous
 62
     7
370
    25
100
AcDbSpline
210
0.0
220
0.0
230
1.0
 70
     8
 71
     3
 72
    31
 73
    27
 74
     0
 42
0.000000001
 43
0.00000001
 40
0.0
 40
0.0
 40
0.0
 40
0.0
 40
0.0425833337774423
 40
0.0854693441808192
 40
0.129285707294794
 40
0.1734170152399106
 40
0.2449145713515202
 40
0.2814363788217614
 40
0.3182277375026525
 40
0.3578646940443395
 40
0.3981600951410961
 40
0.4288325139380252
 40
0.4602505469959317
 40
0.4856124894106363
 40
0.5117016966526896
 40
0.5370695264658039
 40
0.5631025307145414
 40
0.5995567496813909
 40
0.6370216898153723
 40
0.6960149548444006
 40
0.7565748829862438
 40
0.7982000521028574
 40
0.8401283317747301
 40
0.8829575785658592
 40
0.9260808780984652
 40
1.0
 40
1.0
 40
1.0
 40
1.0
 10
3198.614043244854
 20
2273.263566562477
 30
0.0
 10
3198.702867354208
 20
2273.163892014132
 30
0.0
 10
3198.881146922773
 20
2272.96383444412
 30
0.0
 10
3199.17325917116
 20
2272.656878769341
 30
0.0
 10
3199.482387594551
 20
2272.345304543909
 30
0.0
 10
3199.87523296819
 20
2271.966712149965
 30
0.0
 10
3200.267471114003
 20
2271.610147528432
 30
0.0
 10
3200.652664060787
 20
2271.284407623657
 30
0.0
 10
3200.959324813838
 20
2271.041002568057
 30
0.0
 10
3201.282318342166
 20
2270.806727346494
 30
0.0
 10
3201.593529801381
 20
2270.611152456592
 30
0.0
 10
3201.882567407152
 20
2270.464621452707
 30
0.0
 10
3202.126410372623
 20
2270.375205922458
 30
0.0
 10
3202.347769489123
 20
2270.331179819437
 30
0.0
 10
3202.53883834686
 20
2270.329045747053
 30
0.0
 10
3202.711228172888
 20
2270.366215294433
 30
0.0
 10
3202.879834018572
 20
2270.448047319224
 30
0.0
 10
3203.033678527011
 20
2270.585746728225
 30
0.0
 10
3203.182892710843
 20
2270.816534482048
 30
0.0
 10
3203.285326504792
 20
2271.13733602186
 30
0.0
 10
3203.312617377729
 20
2271.497528309507
 30
0.0
 10
3203.284784114301
 20
2271.831579063789
 30
0.0
 10
3203.225207345268
 20
2272.129770050133
 30
0.0
 10
3203.129301354838
 20
2272.433881459101
 30
0.0
 10
3202.97016953739
 20
2272.814851161888
 30
0.0
 10
3202.798042770649
 20
2273.089873745505
 30
0.0
 10
3202.689334668943
 20
2273.263566562477
 30
0.0
  0
SPLINE
  5
168
330
1F
100
AcDbEntity
  8
0
  6
Continuous
 62
     7
370
    25
100
AcDbSpline
210
0.0
220
0.0
230
1.0
 70
     8
 71
     3
 72
    14
 73
    10
 74
     0
 42
0.000000001
 43
0.00000001
 40
0.0
 40
0.0
 40
0.0
 40
0.0
 40
0.2239799089307251
 40
0.3530600787851427
 40
0.4831615846561214
 40
0.5937368434044308
 40
0.6971871626481589
 40
0.8442013099708912
 40
1.0
 40
1.0
 40
1.0
 40
1.0
 10
3197.820346727528
 20
2273.246306802515
 30
0.0
 10
3197.841703011124
 20
2273.302154032819
 30
0.0
 10
3197.87536697324
 20
2273.39018615867
 30
0.0
 10
3197.990846689016
 20
2273.473034858779
 30
0.0
 10
3198.111018077672
 20
2273.504752215486
 30
0.0
 10
3198.239656410294
 20
2273.495711969574
 30
0.0
 10
3198.371202978221
 20
2273.453671292361
 30
0.0
 10
3198.503812402067
 20
2273.376299459284
 30
0.0
 10
3198.576595819568
 20
2273.301863981092
 30
0.0
 10
3198.614043244854
 20
2273.263566562477
 30
0.0
  0
SPLINE
  5
169
330
1F
100
AcDbEntity
  8
0
  6
Continuous
 62
     7
370
    25
100
AcDbSpline
210
0.0
220
0.0
230
1.0
 70
     8
 71
     3
 72
    31
 73
    27
 74
     0
 42
0.000000001
 43
0.00000001
 40
0.0
 40
0.0
 40
0.0
 40
0.0
 40
0.0436294341820469
 40
0.0875684828963618
 40
0.1324599668091965
 40
0.1776747310168252
 40
0.2471514348504883
 40
0.3182082976799063
 40
0.3543483336054269
 40
0.3910257028896783
 40
0.4195224726611863
 40
0.4487066439893214
 40
0.4718199668842227
 40
0.4955955638905835
 40
0.5187147629621323
 40
0.5424374424096322
 40
0.5764102163909636
 40
0.6113145862253196
 40
0.6689134789511171
 40
0.7280058305622947
 40
0.7704933098102759
 40
0.8132907126999054
 40
0.8570043278233432
 40
0.9010157064162404
 40
0.9502816013671004
 40
1.0
 40
1.0
 40
1.0
 40
1.0
 10
3192.093252949422
 20
2273.029467606848
 30
0.0
 10
3192.098266854924
 20
2272.922431169647
 30
0.0
 10
3192.108330246905
 20
2272.707598715454
 30
0.0
 10
3192.172626304611
 20
2272.378279734156
 30
0.0
 10
3192.273023443833
 20
2272.044236674558
 30
0.0
 10
3192.438789097773
 20
2271.647942376518
 30
0.0
 10
3192.698626212608
 20
2271.193747224802
 30
0.0
 10
3193.028837452729
 20
2270.783289579266
 30
0.0
 10
3193.357616287039
 20
2270.482057350549
 30
0.0
 10
3193.622005826096
 20
2270.294404297625
 30
0.0
 10
3193.89819730975
 20
2270.1520961302
 30
0.0
 10
3194.157921822954
 20
2270.064858371731
 30
0.0
 10
3194.418208610584
 20
2270.022155239235
 30
0.0
 10
3194.665300595625
 20
2270.019872325469
 30
0.0
 10
3194.914362320431
 20
2270.055244395411
 30
0.0
 10
3195.19172072358
 20
2270.133960672631
 30
0.0
 10
3195.49250182356
 20
2270.267700479906
 30
0.0
 10
3195.870287836297
 20
2270.49775546539
 30
0.0
 10
3196.274242300904
 20
2270.822702196058
 30
0.0
 10
3196.64211086403
 20
2271.195346746171
 30
0.0
 10
3196.935958544631
 20
2271.54584268163
 30
0.0
 10
3197.169435994288
 20
2271.864488502332
 30
0.0
 10
3197.375991080348
 20
2272.189470684671
 30
0.0
 10
3197.559214038533
 20
2272.53058070158
 30
0.0
 10
3197.715733858611
 20
2272.885012407011
 30
0.0
 10
3197.785369658576
 20
2273.125508863273
 30
0.0
 10
3197.820346727528
 20
2273.246306802515
 30
0.0
  0
SPLINE
  5
16A
330
1F
100
AcDbEntity
  8
0
  6
Continuous
 62
     7
370
    25
100
AcDbSpline
210
0.0
220
0.0
230
1.0
 70
     8
 71
     3
 72
    14
 73
    10
 74
     0
 42
0.000000001
 43
0.00000001
 40
0.0
 40
0.0
 40
0.0
 40
0.0
 40
0.2200911109484907
 40
0.3501199592092471
 40
0.4590676183974554
 40
0.5685351145662147
 40
0.6668402217392587
 40
0.7968948941937447
 40
1.0
 40
1.0
 40
1.0
 40
1.0
 10
3191.381256003949
 20
2272.989254982094
 30
0.0
 10
3191.439981749381
 20
2273.047625179743
 30
0.0
 10
3191.533402403704
 20
2273.140480230234
 30
0.0
 10
3191.689290020883
 20
2273.229326966647
 30
0.0
 10
3191.812434650434
 20
2273.269788355142
 30
0.0
 10
3191.917038561285
 20
2273.273458976263
 30
0.0
 10
3192.004085357147
 20
2273.242485405442
 30
0.0
 10
3192.077573798038
 20
2273.166568302208
 30
0.0
 10
3192.087314623428
 20
2273.081393160925
 30
0.0
 10
3192.093252949422
 20
2273.029467606848
 30
0.0
  0
SPLINE
  5
16B
330
1F
100
AcDbEntity
  8
0
  6
Continuous
 62
     7
370
    25
100
AcDbSpline
210
0.0
220
0.0
230
1.0
 70
     8
 71
     3
 72
    32
 73
    28
 74
     0
 42
0.000000001
 43
0.00000001
 40
0.0
 40
0.0
 40
0.0
 40
0.0
 40
0.0453942490664737
 40
0.0911149500211657
 40
0.1378156604218478
 40
0.1848384153738297
 40
0.2588911921182394
 40
0.2966281930595844
 40
0.3346227841547502
 40
0.3627380257352139
 40
0.391088402663781
 40
0.4192466010957455
 40
0.4481819119438887
 40
0.4658254771020926
 40
0.4839564361058756
 40
0.5016138628025639
 40
0.5197789833318694
 40
0.5448703289759751
 40
0.5706414417831395
 40
0.617792377561412
 40
0.6660664783496338
 40
0.7088271620555735
 40
0.7519045224538958
 40
0.7958661863085178
 40
0.840099177263367
 40
0.9191874857499399
 40
1.0
 40
1.0
 40
1.0
 40
1.0
 10
3188.314978298162
 20
2272.706798195756
 30
0.0
 10
3188.225962265082
 20
2272.583022525387
 30
0.0
 10
3188.047290041792
 20
2272.334581054245
 30
0.0
 10
3187.820560640019
 20
2271.952374838355
 30
0.0
 10
3187.625066217206
 20
2271.56335918074
 30
0.0
 10
3187.436246237119
 20
2271.094789546318
 30
0.0
 10
3187.314590858093
 20
2270.654036118748
 30
0.0
 10
3187.254990255485
 20
2270.251165477979
 30
0.0
 10
3187.241835463768
 20
2269.981767198111
 30
0.0
 10
3187.255405588114
 20
2269.750436239277
 30
0.0
 10
3187.290029648478
 20
2269.559158115601
 30
0.0
 10
3187.351983323705
 20
2269.391487112587
 30
0.0
 10
3187.435568651571
 20
2269.281068097192
 30
0.0
 10
3187.531522063452
 20
2269.226155746874
 30
0.0
 10
3187.625381753007
 20
2269.211882129886
 30
0.0
 10
3187.732391345367
 20
2269.230989457564
 30
0.0
 10
3187.862851210381
 20
2269.287375122158
 30
0.0
 10
3188.018699606177
 20
2269.390011275212
 30
0.0
 10
3188.245683803379
 20
2269.579081476207
 30
0.0
 10
3188.532228236561
 20
2269.861883710897
 30
0.0
 10
3188.864356255017
 20
2270.217415453768
 30
0.0
 10
3189.192383230227
 20
2270.578415472041
 30
0.0
 10
3189.514675398561
 20
2270.935807544444
 30
0.0
 10
3189.844814911885
 20
2271.301412919947
 30
0.0
 10
3190.268495649315
 20
2271.768564640734
 30
0.0
 10
3190.789816740099
 20
2272.338504623609
 30
0.0
 10
3191.182697442399
 20
2272.770784442503
 30
0.0
 10
3191.381256003949
 20
2272.989254982094
 30
0.0
  0
SPLINE
  5
16C
330
1F
100
AcDbEntity
  8
0
  6
Continuous
 62
     7
370
    25
100
AcDbSpline
210
0.0
220
0.0
230
1.0
 70
     8
 71
     3
 72
    15
 73
    11
 74
     0
 42
0.000000001
 43
0.00000001
 40
0.0
 40
0.0
 40
0.0
 40
0.0
 40
0.2150763736128449
 40
0.341334992697769
 40
0.4465934903529074
 40
0.5524796219273204
 40
0.6449070621726133
 40
0.7662146539024577
 40
0.940631656051701
 40
1.0
 40
1.0
 40
1.0
 40
1.0
 10
3188.220829146574
 20
2272.672924866504
 30
0.0
 10
3188.271889309311
 20
2272.733567845605
 30
0.0
 10
3188.352923873834
 20
2272.829810731242
 30
0.0
 10
3188.440862872244
 20
2272.924625799368
 30
0.0
 10
3188.487929114641
 20
2272.970015802003
 30
0.0
 10
3188.50364096269
 20
2272.977181687979
 30
0.0
 10
3188.489980748064
 20
2272.948805029051
 30
0.0
 10
3188.442172797332
 20
2272.878318579022
 30
0.0
 10
3188.376028379201
 20
2272.788454456831
 30
0.0
 10
3188.327341922883
 20
2272.72333490383
 30
0.0
 10
3188.314978298162
 20
2272.706798195756
 30
0.0
  0
SPLINE
  5
16D
330
1F
100
AcDbEntity
  8
0
  6
Continuous
 62
     7
370
    25
100
AcDbSpline
210
0.0
220
0.0
230
1.0
 70
     8
 71
     3
 72
    16
 73
    12
 74
     0
 42
0.000000001
 43
0.00000001
 40
0.0
 40
0.0
 40
0.0
 40
0.0
 40
0.0381288389797604
 40
0.1308326465976192
 40
0.2241975698337675
 40
0.4144505129604652
 40
0.5193565037496882
 40
0.624799680001734
 40
0.7319757167743262
 40
0.8397819167714273
 40
1.0
 40
1.0
 40
1.0
 40
1.0
 10
3186.608890347764
 20
2268.918967490556
 30
0.0
 10
3186.608262092031
 20
2268.961565756764
 30
0.0
 10
3186.606106338997
 20
2269.107734485149
 30
0.0
 10
3186.636817671402
 20
2269.382496635859
 30
0.0
 10
3186.719594726924
 20
2269.850910528582
 30
0.0
 10
3186.866331428251
 20
2270.349151102031
 30
0.0
 10
3187.07435206258
 20
2270.86265413842
 30
0.0
 10
3187.271234529979
 20
2271.26893772255
 30
0.0
 10
3187.502409296219
 20
2271.675913477768
 30
0.0
 10
3187.807075416839
 20
2272.148164836626
 30
0.0
 10
3188.066031689107
 20
2272.476596682448
 30
0.0
 10
3188.220829146574
 20
2272.672924866504
 30
0.0
  0
LINE
  5
16E
330
1F
100
AcDbEntity
  8
0
  6
Continuous
 62
     7
370
    25
100
AcDbLine
 10
3192.0932529494
 20
2273.0294676068
 30
0.0
 11
3192.0932529494
 21
1916.3506106858
 31
0.0
  0
LINE
  5
16F
330
1F
100
AcDbEntity
  8
0
  6
Continuous
 62
     7
370
    25
100
AcDbLine
 10
2562.6841380657
 20
1916.3506106858
 30
0.0
 11
2543.6841380657
 21
1916.3506106858
 31
0.0
  0
LINE
  5
170
330
1F
100
AcDbEntity
  8
0
  6
Continuous
 62
     7
370
    25
100
AcDbLine
 10
2556.366118581
 20
1908.3506106858
 30
0.0
 11
2548.6841380657
 21
1908.3506106858
 31
0.0
  0
LINE
  5
171
330
1F
100
AcDbEntity
  8
0
  6
Continuous
 62
     7
370
    25
100
AcDbLine
 10
2557.6841380657
 20
1908.3506106858
 30
0.0
 11
2556.366118581
 21
1908.3506106858
 31
0.0
  0
LINE
  5
172
330
1F
100
AcDbEntity
  8
0
  6
Continuous
 62
     7
370
    25
100
AcDbLine
 10
3189.0177589272
 20
1916.3506106858
 30
0.0
 11
3186.2352733485
 21
1916.3506106858
 31
0.0
  0
LINE
  5
173
330
1F
100
AcDbEntity
  8
0
  6
Continuous
 62
     7
370
    25
100
AcDbLine
 10
3205.2352733485
 20
1916.3506106858
 30
0.0
 11
3189.0177589272
 21
1916.3506106858
 31
0.0
  0
LINE
  5
174
330
1F
100
AcDbEntity
  8
0
  6
Continuous
 62
     7
370
    25
100
AcDbLine
 10
3200.2352733485
 20
1908.3506106858
 30
0.0
 11
3191.2352733485
 21
1908.3506106858
 31
0.0
  0
LINE
  5
175
330
1F
100
AcDbEntity
  8
0
  6
Continuous
 62
     7
370
    25
100
AcDbLine
 10
2429.4597057071
 20
2271.3506106901
 30
0.0
 11
2544.2929268281
 21
2271.3506106901
 31
0.0
  0
LINE
  5
176
330
1F
100
AcDbEntity
  8
0
  6
Continuous
 62
     7
370
    25
100
AcDbLine
 10
2561.5746691153
 20
2271.3506106901
 30
0.0
 11
3187.3429078022
 21
2271.3506106901
 31
0.0
  0
LINE
  5
177
330
1F
100
AcDbEntity
  8
0
  6
Continuous
 62
     7
370
    25
100
AcDbLine
 10
3204.6264845861
 20
2271.3506106901
 30
0.0
 11
3319.4597057071
 21
2271.3506106901
 31
0.0
  0
LINE
  5
178
330
1F
100
AcDbEntity
  8
0
  6
Continuous
 62
     7
370
    25
100
AcDbLine
 10
2429.4597057071
 20
2261.3506106901
 30
0.0
 11
2543.725614632
 21
2261.3506106901
 31
0.0
  0
LINE
  5
179
330
1F
100
AcDbEntity
  8
0
  6
Continuous
 62
     7
370
    25
100
AcDbLine
 10
2563.352585162
 20
2261.3506106901
 30
0.0
 11
3185.5668262522
 21
2261.3506106901
 31
0.0
  0
LINE
  5
17A
330
1F
100
AcDbEntity
  8
0
  6
Continuous
 62
     7
370
    25
100
AcDbLine
 10
3205.1937967822
 20
2261.3506106901
 30
0.0
 11
3319.4597057071
 21
2261.3506106901
 31
0.0
  0
LINE
  5
17B
330
1F
100
AcDbEntity
  8
0
  6
Continuous
 62
     8
370
    18
100
AcDbLine
 10
3187.2463366647
 20
2228.8506106901
 30
0.0
 11
2874.4597057071
 21
2228.8506106901
 31
0.0
  0
LINE
  5
17C
330
1F
100
AcDbEntity
  8
0
  6
Continuous
 62
     8
370
    18
100
AcDbLine
 10
3187.2463366647
 20
2258.8506106901
 30
0.0
 11
2874.4597057071
 21
2258.8506106901
 31
0.0
  0
SPLINE
  5
17D
330
1F
100
AcDbEntity
  8
0
  6
Continuous
 62
     8
370
    18
100
AcDbSpline
210
0.0
220
0.0
230
1.0
 70
     8
 71
     3
 72
    12
 73
     8
 74
     0
 42
0.000000001
 43
0.00000001
 40
0.0
 40
0.0
 40
0.0
 40
0.0
 40
0.0835924945684081
 40
0.3494756567385018
 40
0.6075198326827852
 40
0.8727503361632996
 40
0.9999999999999999
 40
0.9999999999999999
 40
0.9999999999999999
 40
0.9999999999999999
 10
2561.673074749521
 20
2261.239299323741
 30
0.0
 10
2561.706853630869
 20
2261.240347052689
 30
0.0
 10
2561.848073208107
 20
2261.244727299556
 30
0.0
 10
2562.029060446617
 20
2261.275458839738
 30
0.0
 10
2562.207350460388
 20
2261.317012729744
 30
0.0
 10
2562.291209117494
 20
2261.34651668424
 30
0.0
 10
2562.307398833639
 20
2261.349608321465
 30
0.0
 10
2562.312647852847
 20
2261.35061069007
 30
0.0
  0
LINE
  5
17E
330
1F
100
AcDbEntity
  8
0
  6
Continuous
 62
     8
370
    18
100
AcDbLine
 10
2874.4597057071
 20
2258.8506106901
 30
0.0
 11
2561.6730747495
 21
2258.8506106901
 31
0.0
  0
LINE
  5
17F
330
1F
100
AcDbEntity
  8
0
  6
Continuous
 62
     8
370
    18
100
AcDbLine
 10
2874.4597057071
 20
2228.8506106901
 30
0.0
 11
2561.6730747495
 21
2228.8506106901
 31
0.0
  0
SPLINE
  5
180
330
1F
100
AcDbEntity
  8
0
  6
Continuous
 62
     8
370
    18
100
AcDbSpline
210
0.0
220
0.0
230
1.0
 70
     8
 71
     3
 72
    11
 73
     7
 74
     0
 42
0.000000001
 43
0.00000001
 40
0.0
 40
0.0
 40
0.0
 40
0.0
 40
0.2575040019799206
 40
0.5228363098522413
 40
0.7801681835632402
 40
1.0
 40
1.0
 40
1.0
 40
1.0
 10
2562.312647852847
 20
2226.35061069007
 30
0.0
 10
2562.298501796426
 20
2226.354594999798
 30
0.0
 10
2562.269779633347
 20
2226.362684745121
 30
0.0
 10
2562.126966044968
 20
2226.405289552528
 30
0.0
 10
2561.932978272516
 20
2226.44513668034
 30
0.0
 10
2561.75504810949
 20
2226.457375346996
 30
0.0
 10
2561.67307474952
 20
2226.463013764959
 30
0.0
  0
LINE
  5
181
330
1F
100
AcDbEntity
  8
0
  6
Continuous
 62
     8
370
    18
100
AcDbLine
 10
2551.0990646867
 20
2273.2463068025
 30
0.0
 11
2551.0990646867
 21
1916.3506106858
 31
0.0
  0
LINE
  5
182
330
1F
100
AcDbEntity
  8
0
  6
Continuous
 62
     8
370
    18
100
AcDbLine
 10
2550.3053681693
 20
2273.2635665625
 30
0.0
 11
2550.3053681693
 21
1916.3506106858
 31
0.0
  0
LINE
  5
183
330
1F
100
AcDbEntity
  8
0
  6
Continuous
 62
     8
370
    18
100
AcDbLine
 10
2557.5381554102
 20
2272.9892549821
 30
0.0
 11
2557.5381554102
 21
1916.3506106858
 31
0.0
  0
LINE
  5
184
330
1F
100
AcDbEntity
  8
0
  6
Continuous
 62
     8
370
    18
100
AcDbLine
 10
2545.9523503221
 20
2273.2463068025
 30
0.0
 11
2545.9523503221
 21
2272.7857436537
 31
0.0
  0
LINE
  5
185
330
1F
100
AcDbEntity
  8
0
  6
Continuous
 62
     8
370
    18
100
AcDbLine
 10
2560.6985822676
 20
2272.6729248665
 30
0.0
 11
2560.6985822676
 21
2272.5646688311
 31
0.0
  0
LINE
  5
186
330
1F
100
AcDbEntity
  8
0
  6
Continuous
 62
     8
370
    18
100
AcDbLine
 10
3197.8203467275
 20
2273.2463068025
 30
0.0
 11
3197.8203467275
 21
1916.3506106858
 31
0.0
  0
LINE
  5
187
330
1F
100
AcDbEntity
  8
0
  6
Continuous
 62
     8
370
    18
100
AcDbLine
 10
3198.6140432449
 20
2273.2635665625
 30
0.0
 11
3198.6140432449
 21
1916.3506106858
 31
0.0
  0
LINE
  5
188
330
1F
100
AcDbEntity
  8
0
  6
Continuous
 62
     8
370
    18
100
AcDbLine
 10
3191.3812560039
 20
2272.9892549821
 30
0.0
 11
3191.3812560039
 21
1916.3506106858
 31
0.0
  0
LINE
  5
189
330
1F
100
AcDbEntity
  8
0
  6
Continuous
 62
     8
370
    18
100
AcDbLine
 10
3202.9670610921
 20
2273.2463068025
 30
0.0
 11
3202.9670610921
 21
2272.7860078626
 31
0.0
  0
LINE
  5
18A
330
1F
100
AcDbEntity
  8
0
  6
Continuous
 62
     8
370
    18
100
AcDbLine
 10
3188.2208291466
 20
2272.6729248665
 30
0.0
 11
3188.2208291466
 21
2272.5719056511
 31
0.0
  0
LINE
  5
18B
330
1F
100
AcDbEntity
  8
0
  6
Continuous
 62
     8
370
    18
100
AcDbLine
 10
2559.901652487
 20
1913.3506106858
 30
0.0
 11
2562.6841380657
 21
1913.3506106858
 31
0.0
  0
LINE
  5
18C
330
1F
100
AcDbEntity
  8
0
  6
Continuous
 62
     8
370
    18
100
AcDbLine
 10
2543.6841380657
 20
1913.3506106858
 30
0.0
 11
2559.901652487
 21
1913.3506106858
 31
0.0
  0
LINE
  5
18D
330
1F
100
AcDbEntity
  8
0
  6
Continuous
 62
     8
370
    18
100
AcDbLine
 10
3186.2352733485
 20
1913.3506106858
 30
0.0
 11
3205.2352733485
 21
1913.3506106858
 31
0.0
  0
LINE
  5
18E
330
1F
100
AcDbEntity
  8
0
  6
Continuous
 62
     7
370
    25
100
AcDbLine
 10
1474.1383223772
 20
824.1272673594
 30
0.0
 11
1477.8458294154
 21
827.8347743976
 31
0.0
  0
LINE
  5
18F
330
1F
100
AcDbEntity
  8
0
  6
Continuous
 62
     7
370
    25
100
AcDbLine
 10
2107.081476848
 20
1457.0704218302
 30
0.0
 11
2110.7889838863
 21
1460.7779288685
 31
0.0
  0
LINE
  5
190
330
1F
100
AcDbEntity
  8
0
  6
Continuous
 62
     7
370
    25
100
AcDbLine
 10
1463.5317206594
 20
834.7338690772
 30
0.0
 11
1467.2392276976
 21
838.4413761154
 31
0.0
  0
LINE
  5
191
330
1F
100
AcDbEntity
  8
0
  6
Continuous
 62
     7
370
    25
100
AcDbLine
 10
2096.4748751303
 20
1467.677023548
 30
0.0
 11
2100.1823821685
 21
1471.3845305863
 31
0.0
  0
LINE
  5
192
330
1F
100
AcDbEntity
  8
0
  6
Continuous
 62
     7
370
    25
100
AcDbLine
 10
2100.1823821685
 20
824.1272673594
 30
0.0
 11
2096.4748751303
 21
827.8347743976
 31
0.0
  0
LINE
  5
193
330
1F
100
AcDbEntity
  8
0
  6
Continuous
 62
     7
370
    25
100
AcDbLine
 10
1467.2392276976
 20
1457.0704218302
 30
0.0
 11
1463.5317206594
 21
1460.7779288685
 31
0.0
  0
LINE
  5
194
330
1F
100
AcDbEntity
  8
0
  6
Continuous
 62
     7
370
    25
100
AcDbLine
 10
2110.7889838863
 20
834.7338690772
 30
0.0
 11
2107.0814768481
 21
838.4413761154
 31
0.0
  0
LINE
  5
195
330
1F
100
AcDbEntity
  8
0
  6
Continuous
 62
     7
370
    25
100
AcDbLine
 10
1477.8458294154
 20
1467.677023548
 30
0.0
 11
1474.1383223772
 21
1471.3845305863
 31
0.0
  0
SPLINE
  5
196
330
1F
100
AcDbEntity
  8
0
  6
Continuous
 62
     7
370
    25
100
AcDbSpline
210
0.0
220
0.0
230
1.0
 70
     8
 71
     3
 72
    32
 73
    28
 74
     0
 42
0.000000001
 43
0.00000001
 40
0.0
 40
0.0
 40
0.0
 40
0.0
 40
0.0441441928241899
 40
0.088610435264673
 40
0.1340256948284909
 40
0.1797444149379605
 40
0.2245884288186258
 40
0.2697223103764269
 40
0.3158695723814637
 40
0.3624409759686389
 40
0.3905644447044508
 40
0.4188972546593712
 40
0.44705617888191
 40
0.4758699108998086
 40
0.4938447275986935
 40
0.5122867846817717
 40
0.5302841812509197
 40
0.54884970882028
 40
0.572227800063494
 40
0.5962533137611076
 40
0.6386203767558909
 40
0.6820050825655962
 40
0.7223286131287898
 40
0.7629537503048642
 40
0.8459909377782746
 40
0.9222549213514586
 40
0.9999999999999999
 40
0.9999999999999999
 40
0.9999999999999999
 40
0.9999999999999999
 10
2114.575041832544
 20
830.8343486759384
 30
0.0
 10
2114.620842535833
 20
830.9418879268849
 30
0.0
 10
2114.712778076937
 20
831.1577509708044
 30
0.0
 10
2114.798763614177
 20
831.4943676113097
 30
0.0
 10
2114.847195659222
 20
831.837890619027
 30
0.0
 10
2114.853415698765
 20
832.1833436934143
 30
0.0
 10
2114.819121404208
 20
832.5262676122146
 30
0.0
 10
2114.743786512672
 20
832.8666728902651
 30
0.0
 10
2114.624052481097
 20
833.2063040494168
 30
0.0
 10
2114.47716685625
 20
833.4989830381982
 30
0.0
 10
2114.318475686703
 20
833.7448458153316
 30
0.0
 10
2114.164174084322
 20
833.9446318231362
 30
0.0
 10
2113.980191085766
 20
834.1433959061605
 30
0.0
 10
2113.788151845225
 20
834.3143384736038
 30
0.0
 10
2113.598017872245
 20
834.4559462415772
 30
0.0
 10
2113.425891116142
 20
834.5663424499954
 30
0.0
 10
2113.242862456465
 20
834.6660011859723
 30
0.0
 10
2113.040152478752
 20
834.7582762195217
 30
0.0
 10
2112.819919028674
 20
834.8380441100184
 30
0.0
 10
2112.531574931214
 20
834.9157291550096
 30
0.0
 10
2112.199038034318
 20
834.9663210872142
 30
0.0
 10
2111.842284137912
 20
834.9742580888601
 30
0.0
 10
2111.508925802275
 20
834.9422274932338
 30
0.0
 10
2111.089615087898
 20
834.8548391019667
 30
0.0
 10
2110.614644472322
 20
834.6681298576783
 30
0.0
 10
2110.103996286287
 20
834.3437906953328
 30
0.0
 10
2109.832262390524
 20
834.049291878213
 30
0.0
 10
2109.695088819093
 20
833.9006263817247
 30
0.0
  0
SPLINE
  5
197
330
1F
100
AcDbEntity
  8
0
  6
Continuous
 62
     7
370
    25
100
AcDbSpline
210
0.0
220
0.0
230
1.0
 70
     8
 71
     3
 72
    14
 73
    10
 74
     0
 42
0.000000001
 43
0.00000001
 40
0.0
 40
0.0
 40
0.0
 40
0.0
 40
0.2207653484382704
 40
0.3402146168140711
 40
0.4605704991790788
 40
0.5641909618661077
 40
0.6633542991971938
 40
0.8105247403618456
 40
1.0
 40
1.0
 40
1.0
 40
1.0
 10
2115.022419164759
 20
830.1223517304638
 30
0.0
 10
2114.957901868651
 20
830.1293122379731
 30
0.0
 10
2114.858476268898
 20
830.1400388597544
 30
0.0
 10
2114.717864761058
 20
830.2227504768495
 30
0.0
 10
2114.624649641638
 20
830.316925982996
 30
0.0
 10
2114.562794296144
 20
830.4269139538939
 30
0.0
 10
2114.527499297727
 20
830.5499574466747
 30
0.0
 10
2114.523634917037
 20
830.695817808364
 30
0.0
 10
2114.556528335847
 20
830.7844586809084
 30
0.0
 10
2114.575041832544
 20
830.8343486759384
 30
0.0
  0
SPLINE
  5
198
330
1F
100
AcDbEntity
  8
0
  6
Continuous
 62
     7
370
    25
100
AcDbSpline
210
0.0
220
0.0
230
1.0
 70
     8
 71
     3
 72
    32
 73
    28
 74
     0
 42
0.000000001
 43
0.00000001
 40
0.0
 40
0.0
 40
0.0
 40
0.0
 40
0.0430379910819454
 40
0.08638612634819
 40
0.1306715836239461
 40
0.1752669939041165
 40
0.2185320463381646
 40
0.262105071994206
 40
0.3067938579277331
 40
0.3519663346176148
 40
0.3854310965017723
 40
0.4193289160972112
 40
0.4528593258451299
 40
0.487579192890111
 40
0.5106386088136752
 40
0.5343801485774089
 40
0.557435391632944
 40
0.5810375265201537
 40
0.6176166200902868
 40
0.6551846333990746
 40
0.717726568535785
 40
0.7819044813319214
 40
0.8252890843115542
 40
0.8689843386192273
 40
0.9136242089591413
 40
0.9585815908891923
 40
1.0
 40
1.0
 40
1.0
 40
1.0
 10
2115.667707657823
 20
824.3952579523585
 30
0.0
 10
2115.775587129174
 20
824.424993165066
 30
0.0
 10
2115.992123482481
 20
824.4846778710053
 30
0.0
 10
2116.298634476396
 20
824.6197928681875
 30
0.0
 10
2116.590249687307
 20
824.7874647388255
 30
0.0
 10
2116.859549951347
 20
824.988156228825
 30
0.0
 10
2117.104115174555
 20
825.2183008462401
 30
0.0
 10
2117.32381150443
 20
825.4787400720323
 30
0.0
 10
2117.518472597922
 20
825.7745835200051
 30
0.0
 10
2117.668682984176
 20
826.0797914866392
 30
0.0
 10
2117.77788381226
 20
826.3863330843211
 30
0.0
 10
2117.850808078194
 20
826.6850399203016
 30
0.0
 10
2117.893886968942
 20
827.0130758745876
 30
0.0
 10
2117.897830400072
 20
827.3282321615537
 30
0.0
 10
2117.870720921232
 20
827.6165785820606
 30
0.0
 10
2117.826000974349
 20
827.8618832739894
 30
0.0
 10
2117.761113596423
 20
828.0997494360771
 30
0.0
 10
2117.664691299338
 20
828.3642911608413
 30
0.0
 10
2117.527207712494
 20
828.646266839672
 30
0.0
 10
2117.305077041749
 20
828.9911462325184
 30
0.0
 10
2117.000101748631
 20
829.335957311317
 30
0.0
 10
2116.647381989998
 20
829.6159520007067
 30
0.0
 10
2116.310812644538
 20
829.8122890916796
 30
0.0
 10
2116.003408772606
 20
829.9472964051088
 30
0.0
 10
2115.679599648555
 20
830.0460342469758
 30
0.0
 10
2115.351287059723
 20
830.1081718467558
 30
0.0
 10
2115.129006044296
 20
830.1177559958854
 30
0.0
 10
2115.022419164759
 20
830.1223517304638
 30
0.0
  0
SPLINE
  5
199
330
1F
100
AcDbEntity
  8
0
  6
Continuous
 62
     7
370
    25
100
AcDbSpline
210
0.0
220
0.0
230
1.0
 70
     8
 71
     3
 72
    14
 73
    10
 74
     0
 42
0.000000001
 43
0.00000001
 40
0.0
 40
0.0
 40
0.0
 40
0.0
 40
0.2243030424882124
 40
0.3489011866264737
 40
0.474400135611815
 40
0.5826741857065968
 40
0.6867417687947183
 40
0.8381564871697164
 40
1.0
 40
1.0
 40
1.0
 40
1.0
 10
2115.389981234649
 20
823.6015614350318
 30
0.0
 10
2115.354649150483
 20
823.657605438253
 30
0.0
 10
2115.29969043947
 20
823.7447813365834
 30
0.0
 10
2115.278193891825
 20
823.9102230833324
 30
0.0
 10
2115.296822253637
 20
824.0453056523753
 30
0.0
 10
2115.348856114109
 20
824.1643463920574
 30
0.0
 10
2115.428671998649
 20
824.2687955397673
 30
0.0
 10
2115.538431004479
 20
824.3539387815028
 30
0.0
 10
2115.623669537637
 20
824.3811825677856
 30
0.0
 10
2115.667707657823
 20
824.3952579523585
 30
0.0
  0
SPLINE
  5
19A
330
1F
100
AcDbEntity
  8
0
  6
Continuous
 62
     7
370
    25
100
AcDbSpline
210
0.0
220
0.0
230
1.0
 70
     8
 71
     3
 72
    31
 73
    27
 74
     0
 42
0.000000001
 43
0.00000001
 40
0.0
 40
0.0
 40
0.0
 40
0.0
 40
0.0425833337774434
 40
0.0854693441808152
 40
0.1292857072947916
 40
0.1734170152399121
 40
0.2449145713515219
 40
0.2814363788217632
 40
0.3182277375026498
 40
0.3578646940443368
 40
0.3981600951410927
 40
0.428832513938024
 40
0.4602505469959348
 40
0.4856124894106321
 40
0.5117016966526855
 40
0.5370695264658039
 40
0.5631025307145401
 40
0.5995567496813875
 40
0.6370216898153775
 40
0.6960149548444069
 40
0.7565748829862459
 40
0.7982000521028633
 40
0.8401283317747323
 40
0.8829575785658567
 40
0.9260808780984714
 40
1.0
 40
1.0
 40
1.0
 40
1.0
 10
2111.31468981056
 20
819.5262700109438
 30
0.0
 10
2111.403513919914
 20
819.4615999020774
 30
0.0
 10
2111.58179348848
 20
819.3318000178833
 30
0.0
 10
2111.873905736866
 20
819.1776272656401
 30
0.0
 10
2112.183034160257
 20
819.0541021520881
 30
0.0
 10
2112.575879533897
 20
818.9484980908097
 30
0.0
 10
2112.968117679709
 20
818.9045246779176
 30
0.0
 10
2113.353310626493
 20
818.9183517353623
 30
0.0
 10
2113.659971379544
 20
818.960855623541
 30
0.0
 10
2113.982964907872
 20
819.0423909028489
 30
0.0
 10
2114.294176367087
 20
819.1622321273155
 30
0.0
 10
2114.583213972858
 20
819.3134417493186
 30
0.0
 10
2114.827056938329
 20
819.4755672549147
 30
0.0
 10
2115.048416054829
 20
819.6573132187805
 30
0.0
 10
2115.239484912566
 20
819.8464728291634
 30
0.0
 10
2115.411874738594
 20
820.0522712681181
 30
0.0
 10
2115.580480584278
 20
820.2954529366676
 30
0.0
 10
2115.734325092718
 20
820.5779718059114
 30
0.0
 10
2115.883539276549
 20
820.9520383308304
 30
0.0
 10
2115.985973070498
 20
821.3863544289078
 30
0.0
 10
2116.013263943435
 20
821.8180967229805
 30
0.0
 10
2115.985430680007
 20
822.192165035433
 30
0.0
 10
2115.925853910974
 20
822.5109913916275
 30
0.0
 10
2115.829947920544
 20
822.8221855755604
 30
0.0
 10
2115.670816103096
 20
823.1972552056006
 30
0.0
 10
2115.498689336355
 20
823.4450589218199
 30
0.0
 10
2115.389981234649
 20
823.6015614350318
 30
0.0
  0
SPLINE
  5
19B
330
1F
100
AcDbEntity
  8
0
  6
Continuous
 62
     7
370
    25
100
AcDbSpline
210
0.0
220
0.0
230
1.0
 70
     8
 71
     3
 72
    14
 73
    10
 74
     0
 42
0.000000001
 43
0.00000001
 40
0.0
 40
0.0
 40
0.0
 40
0.0
 40
0.2239799089307727
 40
0.3530600787851354
 40
0.4831615846561695
 40
0.59373684340452
 40
0.6971871626482534
 40
0.8442013099709625
 40
1.0
 40
1.0
 40
1.0
 40
1.0
 10
2110.520993293233
 20
819.2485435877701
 30
0.0
 10
2110.54234957683
 20
819.3100890019532
 30
0.0
 10
2110.576013538946
 20
819.4071031890028
 30
0.0
 10
2110.691493254722
 20
819.5278511378964
 30
0.0
 10
2110.811664643378
 20
819.599208550418
 30
0.0
 10
2110.940302976
 20
819.6324136392482
 30
0.0
 10
2111.071849543927
 20
819.6335473132181
 30
0.0
 10
2111.204458967773
 20
819.60008589758
 30
0.0
 10
2111.277242385274
 20
819.551346612282
 30
0.0
 10
2111.31468981056
 20
819.5262700109438
 30
0.0
  0
SPLINE
  5
19C
330
1F
100
AcDbEntity
  8
0
  6
Continuous
 62
     7
370
    25
100
AcDbSpline
210
0.0
220
0.0
230
1.0
 70
     8
 71
     3
 72
    31
 73
    27
 74
     0
 42
0.000000001
 43
0.00000001
 40
0.0
 40
0.0
 40
0.0
 40
0.0
 40
0.0436294341820437
 40
0.0875684828963704
 40
0.132459966809198
 40
0.1776747310168306
 40
0.2471514348504918
 40
0.3182082976799154
 40
0.3543483336054277
 40
0.3910257028896769
 40
0.4195224726611931
 40
0.448706643989333
 40
0.4718199668842232
 40
0.4955955638905864
 40
0.5187147629621399
 40
0.54243744240964
 40
0.5764102163909609
 40
0.6113145862253184
 40
0.6689134789511166
 40
0.7280058305622943
 40
0.7704933098102809
 40
0.8132907126999104
 40
0.8570043278233455
 40
0.9010157064162414
 40
0.9502816013671017
 40
1.0
 40
1.0
 40
1.0
 40
1.0
 10
2104.793899515128
 20
819.8938320808337
 30
0.0
 10
2104.79891342063
 20
819.781578919927
 30
0.0
 10
2104.808976812611
 20
819.5562759980536
 30
0.0
 10
2104.873272870317
 20
819.2247455748975
 30
0.0
 10
2104.973670009539
 20
818.8994545314821
 30
0.0
 10
2105.139435663479
 20
818.5278694472141
 30
0.0
 10
2105.399272778314
 20
818.1219161225514
 30
0.0
 10
2105.729484018435
 20
817.7737468395509
 30
0.0
 10
2106.058262852745
 20
817.5214462663106
 30
0.0
 10
2106.322652391802
 20
817.3616430102921
 30
0.0
 10
2106.598843875456
 20
817.2325181567687
 30
0.0
 10
2106.85856838866
 20
817.1411021758851
 30
0.0
 10
2107.11885517629
 20
817.0763499406913
 30
0.0
 10
2107.36594716133
 20
817.037148044669
 30
0.0
 10
2107.615008886137
 20
817.0195217255222
 30
0.0
 10
2107.892367289286
 20
817.0234054079956
 30
0.0
 10
2108.193148389266
 20
817.0582238140994
 30
0.0
 10
2108.570934402003
 20
817.1457961772758
 30
0.0
 10
2108.974888866611
 20
817.3031162515102
 30
0.0
 10
2109.342757429736
 20
817.5217997947977
 30
0.0
 10
2109.636605110337
 20
817.7559454313673
 30
0.0
 10
2109.870082559994
 20
817.9898255368843
 30
0.0
 10
2110.076637646054
 20
818.2497006920081
 30
0.0
 10
2110.259860604239
 20
818.5456545005421
 30
0.0
 10
2110.416380424317
 20
818.8765301168785
 30
0.0
 10
2110.486016224283
 20
819.12416175065
 30
0.0
 10
2110.520993293233
 20
819.2485435877701
 30
0.0
  0
SPLINE
  5
19D
330
1F
100
AcDbEntity
  8
0
  6
Continuous
 62
     7
370
    25
100
AcDbSpline
210
0.0
220
0.0
230
1.0
 70
     8
 71
     3
 72
    14
 73
    10
 74
     0
 42
0.000000001
 43
0.00000001
 40
0.0
 40
0.0
 40
0.0
 40
0.0
 40
0.2200911109485373
 40
0.3501199592092566
 40
0.4590676183974223
 40
0.5685351145662638
 40
0.6668402217392987
 40
0.7968948941937644
 40
1.0
 40
1.0
 40
1.0
 40
1.0
 10
2104.081902569655
 20
820.3412094130492
 30
0.0
 10
2104.140628315087
 20
820.3622558114647
 30
0.0
 10
2104.23404896941
 20
820.3957363283421
 30
0.0
 10
2104.389936586589
 20
820.3844760438604
 30
0.0
 10
2104.51308121614
 20
820.3437414767818
 30
0.0
 10
2104.617685126992
 20
820.2758313554905
 30
0.0
 10
2104.704731922854
 20
820.1823330185618
 30
0.0
 10
2104.778220363745
 20
820.049626782392
 30
0.0
 10
2104.787961189134
 20
819.9528378078246
 30
0.0
 10
2104.793899515128
 20
819.8938320808337
 30
0.0
  0
SPLINE
  5
19E
330
1F
100
AcDbEntity
  8
0
  6
Continuous
 62
     7
370
    25
100
AcDbSpline
210
0.0
220
0.0
230
1.0
 70
     8
 71
     3
 72
    32
 73
    28
 74
     0
 42
0.000000001
 43
0.00000001
 40
0.0
 40
0.0
 40
0.0
 40
0.0
 40
0.0453942490664868
 40
0.0911149500211738
 40
0.1378156604218476
 40
0.1848384153738267
 40
0.2588911921182414
 40
0.2966281930595898
 40
0.3346227841547554
 40
0.3627380257352188
 40
0.3910884026637816
 40
0.419246601095752
 40
0.4481819119438943
 40
0.4658254771020895
 40
0.4839564361058702
 40
0.5016138628025679
 40
0.5197789833318744
 40
0.5448703289759795
 40
0.5706414417831439
 40
0.617792377561414
 40
0.6660664783496341
 40
0.70882716205557
 40
0.7519045224538909
 40
0.7958661863085225
 40
0.840099177263365
 40
0.9191874857499378
 40
1.0
 40
1.0
 40
1.0
 40
1.0
 10
2101.015624863869
 20
825.2211624265002
 30
0.0
 10
2100.926608830788
 20
825.1431286366116
 30
0.0
 10
2100.747936607498
 20
824.9864998783021
 30
0.0
 10
2100.521207205725
 20
824.7153824558077
 30
0.0
 10
2100.325712782911
 20
824.4197073154251
 30
0.0
 10
2100.136892802825
 20
824.0378528044921
 30
0.0
 10
2100.015237423799
 20
823.6478214579087
 30
0.0
 10
2099.955636821191
 20
823.2558513934149
 30
0.0
 10
2099.942482029474
 20
822.9711613792751
 30
0.0
 10
2099.956052153821
 20
822.7001785784215
 30
0.0
 10
2099.990676214184
 20
822.446361848712
 30
0.0
 10
2100.052629889411
 20
822.1771640405948
 30
0.0
 10
2100.136215217276
 20
821.9291880227223
 30
0.0
 10
2100.232168629158
 20
821.7105781244812
 30
0.0
 10
2100.326028318713
 20
821.5316265475396
 30
0.0
 10
2100.433037911072
 20
821.3584557735159
 30
0.0
 10
2100.563497776086
 20
821.1768076209223
 30
0.0
 10
2100.719346171883
 20
820.9932770673132
 30
0.0
 10
2100.946330369085
 20
820.7695247035672
 30
0.0
 10
2101.232874802266
 20
820.5481174323669
 30
0.0
 10
2101.565002820724
 20
820.3587219278455
 30
0.0
 10
2101.893029795933
 20
820.2228080935199
 30
0.0
 10
2102.215321964267
 20
820.1310535944584
 30
0.0
 10
2102.545461477592
 20
820.0766298234767
 30
0.0
 10
2102.969142215021
 20
820.0575633266498
 30
0.0
 10
2103.490463305804
 20
820.1094902409166
 30
0.0
 10
2103.883344008105
 20
820.2634164285208
 30
0.0
 10
2104.081902569655
 20
820.3412094130492
 30
0.0
  0
SPLINE
  5
19F
330
1F
100
AcDbEntity
  8
0
  6
Continuous
 62
     7
370
    25
100
AcDbSpline
210
0.0
220
0.0
230
1.0
 70
     8
 71
     3
 72
    15
 73
    11
 74
     0
 42
0.000000001
 43
0.00000001
 40
0.0
 40
0.0
 40
0.0
 40
0.0
 40
0.2150763736129211
 40
0.3413349926977266
 40
0.4465934903529363
 40
0.5524796219273221
 40
0.6449070621726777
 40
0.7662146539024559
 40
0.9406316560517382
 40
1.0
 40
1.0
 40
1.0
 40
1.0
 10
2100.92147571228
 20
826.056759258112
 30
0.0
 10
2100.972535875017
 20
826.0255401056426
 30
0.0
 10
2101.05357043954
 20
825.9759940350946
 30
0.0
 10
2101.14150943795
 20
825.853123948597
 30
0.0
 10
2101.188575680347
 20
825.7356420004548
 30
0.0
 10
2101.204287528396
 20
825.6145724738612
 30
0.0
 10
2101.19062731377
 20
825.4910859768754
 30
0.0
 10
2101.142819363039
 20
825.3618347521757
 30
0.0
 10
2101.076674944907
 20
825.2740431843129
 30
0.0
 10
2101.027988488589
 20
825.2318716316873
 30
0.0
 10
2101.015624863869
 20
825.2211624265002
 30
0.0
  0
SPLINE
  5
1A0
330
1F
100
AcDbEntity
  8
0
  6
Continuous
 62
     7
370
    25
100
AcDbSpline
210
0.0
220
0.0
230
1.0
 70
     8
 71
     3
 72
    32
 73
    28
 74
     0
 42
0.000000001
 43
0.00000001
 40
0.0
 40
0.0
 40
0.0
 40
0.0
 40
0.0454582272348887
 40
0.091247305538073
 40
0.1379964247665446
 40
0.1850468267077054
 40
0.2317186214404022
 40
0.2786766574025908
 40
0.326633054807672
 40
0.3750177823805893
 40
0.4231946286303564
 40
0.4431300964846432
 40
0.4634749195353954
 40
0.487868517620946
 40
0.5123762960464914
 40
0.5281103892327662
 40
0.5442744345973727
 40
0.5755617249755922
 40
0.6075311395418788
 40
0.6453567436459859
 40
0.6834521003987363
 40
0.7610803304711896
 40
0.8038847478701012
 40
0.8469083511381571
 40
0.8906390073062275
 40
0.93462678672806
 40
1.0
 40
1.0
 40
1.0
 40
1.0
 10
2102.824983731935
 20
831.4966726399219
 30
0.0
 10
2102.704138666962
 20
831.518211359995
 30
0.0
 10
2102.461569010442
 20
831.561445561832
 30
0.0
 10
2102.0984834254
 20
831.5673852180117
 30
0.0
 10
2101.739018186005
 20
831.5319569309977
 30
0.0
 10
2101.388441305743
 20
831.4516754460194
 30
0.0
 10
2101.051147585121
 20
831.3294881453006
 30
0.0
 10
2100.727558527621
 20
831.1648107913579
 30
0.0
 10
2100.417620963479
 20
830.95431213357
 30
0.0
 10
2100.123547149235
 20
830.6921743517015
 30
0.0
 10
2099.899836714313
 20
830.4292144815429
 30
0.0
 10
2099.736933679766
 20
830.1856712595512
 30
0.0
 10
2099.621560533432
 20
829.9833580094953
 30
0.0
 10
2099.505975527826
 20
829.7320583351168
 30
0.0
 10
2099.421160808629
 20
829.4800331619258
 30
0.0
 10
2099.369824448581
 20
829.2723799045868
 30
0.0
 10
2099.329244886946
 20
829.052306557996
 30
0.0
 10
2099.304613538875
 20
828.7980522541046
 30
0.0
 10
2099.305278730992
 20
828.5011511785486
 30
0.0
 10
2099.336323439286
 20
828.2050847838103
 30
0.0
 10
2099.420922890201
 20
827.8073869239308
 30
0.0
 10
2099.566856083514
 20
827.4265315578251
 30
0.0
 10
2099.775023062739
 20
827.0655221240626
 30
0.0
 10
2099.971874423867
 20
826.7985013988913
 30
0.0
 10
2100.203057641925
 20
826.5519075013899
 30
0.0
 10
2100.50772127644
 20
826.2893834842602
 30
0.0
 10
2100.766677990638
 20
826.1437908330928
 30
0.0
 10
2100.92147571228
 20
826.056759258112
 30
0.0
  0
SPLINE
  5
1A1
330
1F
100
AcDbEntity
  8
0
  6
Continuous
 62
     7
370
    25
100
AcDbSpline
210
0.0
220
0.0
230
1.0
 70
     8
 71
     3
 72
    15
 73
    11
 74
     0
 42
0.000000001
 43
0.00000001
 40
0.0
 40
0.0
 40
0.0
 40
0.0
 40
0.2129294053201978
 40
0.3333107283175242
 40
0.4345062010027507
 40
0.5362836886506035
 40
0.6256367151019722
 40
0.7456368547566838
 40
0.9211927176881759
 40
1.0
 40
1.0
 40
1.0
 40
1.0
 10
2103.419578605671
 20
832.0912675136576
 30
0.0
 10
2103.427051925909
 20
832.0322264407423
 30
0.0
 10
2103.438750346838
 20
831.9398060303978
 30
0.0
 10
2103.398907920452
 20
831.796326057333
 30
0.0
 10
2103.339470946
 20
831.6886615229026
 30
0.0
 10
2103.258482542155
 20
831.6017175563228
 30
0.0
 10
2103.157257537524
 20
831.5341882173551
 30
0.0
 10
2103.028666139152
 20
831.4875878690357
 30
0.0
 10
2102.913641520459
 20
831.480928519697
 30
0.0
 10
2102.84595461888
 20
831.4929485659204
 30
0.0
 10
2102.824983731935
 20
831.4966726399219
 30
0.0
  0
SPLINE
  5
1A2
330
1F
100
AcDbEntity
  8
0
  6
Continuous
 62
     7
370
    25
100
AcDbSpline
210
0.0
220
0.0
230
1.0
 70
     8
 71
     3
 72
    32
 73
    28
 74
     0
 42
0.000000001
 43
0.00000001
 40
0.0
 40
0.0
 40
0.0
 40
0.0
 40
0.0447120024448256
 40
0.0897510683881251
 40
0.1357337494830541
 40
0.1820101047170835
 40
0.2279866507549849
 40
0.2742348602616491
 40
0.3213887139528198
 40
0.3688999197495173
 40
0.4236598558301619
 40
0.4510230069928896
 40
0.4792153189811517
 40
0.5037509674809447
 40
0.5283882607504921
 40
0.5445704263132755
 40
0.5611899076196794
 40
0.6013390629672
 40
0.6426114615938132
 40
0.685503832637691
 40
0.7287054836939676
 40
0.7727266257639952
 40
0.8169894777562732
 40
0.8620202251363052
 40
0.9073149340905271
 40
0.9534905366767258
 40
1.0
 40
1.0
 40
1.0
 40
1.0
 10
2108.859491987481
 20
833.9947755333139
 30
0.0
 10
2108.801498780333
 20
834.1018117041167
 30
0.0
 10
2108.685088151952
 20
834.3166670038224
 30
0.0
 10
2108.465981726489
 20
834.6017917572069
 30
0.0
 10
2108.217716634845
 20
834.8585576229341
 30
0.0
 10
2107.940921427365
 20
835.0809504975382
 30
0.0
 10
2107.640812301385
 20
835.2674689838807
 30
0.0
 10
2107.317802573738
 20
835.417498740602
 30
0.0
 10
2106.970626839167
 20
835.5293612069769
 30
0.0
 10
2106.578521632994
 20
835.602354251697
 30
0.0
 10
2106.209062393666
 20
835.618281867713
 30
0.0
 10
2105.85918931953
 20
835.5872258481116
 30
0.0
 10
2105.578804758195
 20
835.5351833642004
 30
0.0
 10
2105.28116834812
 20
835.4468610613823
 30
0.0
 10
2105.033742357602
 20
835.3434720253151
 30
0.0
 10
2104.841783666954
 20
835.2438663376219
 30
0.0
 10
2104.62224809143
 20
835.1122917491072
 30
0.0
 10
2104.375977976967
 20
834.9280239384103
 30
0.0
 10
2104.121314595659
 20
834.6836036783935
 30
0.0
 10
2103.904438376804
 20
834.4193424877992
 30
0.0
 10
2103.721658190639
 20
834.1346405889993
 30
0.0
 10
2103.573624927727
 20
833.8322132281506
 30
0.0
 10
2103.460574602828
 20
833.5116452496445
 30
0.0
 10
2103.384574960425
 20
833.1755240154748
 30
0.0
 10
2103.349288979746
 20
832.8241889757523
 30
0.0
 10
2103.353937216245
 20
832.4613022260936
 30
0.0
 10
2103.397645661821
 20
832.2149082629115
 30
0.0
 10
2103.419578605671
 20
832.0912675136576
 30
0.0
  0
SPLINE
  5
1A3
330
1F
100
AcDbEntity
  8
0
  6
Continuous
 62
     7
370
    25
100
AcDbSpline
210
0.0
220
0.0
230
1.0
 70
     8
 71
     3
 72
    15
 73
    11
 74
     0
 42
0.000000001
 43
0.00000001
 40
0.0
 40
0.0
 40
0.0
 40
0.0
 40
0.2155767705932147
 40
0.332900553867596
 40
0.4328760582229907
 40
0.5332634977246765
 40
0.6250838127944583
 40
0.7535547096886835
 40
0.9421338378891628
 40
1.0
 40
1.0
 40
1.0
 40
1.0
 10
2109.695088819093
 20
833.9006263817247
 30
0.0
 10
2109.651829270153
 20
833.8564454437211
 30
0.0
 10
2109.585026489118
 20
833.7882198241825
 30
0.0
 10
2109.444432966635
 20
833.7308406053852
 30
0.0
 10
2109.323952151482
 20
833.7121258829553
 30
0.0
 10
2109.207024217508
 20
833.7224265900871
 30
0.0
 10
2109.090344040694
 20
833.7607184874373
 30
0.0
 10
2108.970530353208
 20
833.8366072465232
 30
0.0
 10
2108.897806680149
 20
833.9226338867192
 30
0.0
 10
2108.866777694935
 20
833.9810574816811
 30
0.0
 10
2108.859491987481
 20
833.9947755333139
 30
0.0
  0
SPLINE
  5
1A4
330
1F
100
AcDbEntity
  8
0
  6
Continuous
 62
     7
370
    25
100
AcDbSpline
210
0.0
220
0.0
230
1.0
 70
     8
 71
     3
 72
    32
 73
    28
 74
     0
 42
0.000000001
 43
0.00000001
 40
0.0
 40
0.0
 40
0.0
 40
0.0
 40
0.04414419282419
 40
0.0886104352646739
 40
0.134025694828492
 40
0.1797444149379616
 40
0.2245884288186273
 40
0.2697223103764278
 40
0.3158695723814647
 40
0.3624409759686416
 40
0.3905644447044535
 40
0.4188972546593715
 40
0.4470561788819132
 40
0.4758699108998118
 40
0.493844727598693
 40
0.5122867846817712
 40
0.5302841812509191
 40
0.5488497088202795
 40
0.5722278000634979
 40
0.5962533137611074
 40
0.6386203767558907
 40
0.6820050825655961
 40
0.7223286131287899
 40
0.7629537503048677
 40
0.845990937778275
 40
0.9222549213514538
 40
1.0
 40
1.0
 40
1.0
 40
1.0
 10
2104.081902569696
 20
1475.170588532537
 30
0.0
 10
2103.97436331875
 20
1475.216389235826
 30
0.0
 10
2103.75850027483
 20
1475.308324776929
 30
0.0
 10
2103.421883634325
 20
1475.394310314171
 30
0.0
 10
2103.078360626607
 20
1475.442742359215
 30
0.0
 10
2102.73290755222
 20
1475.448962398757
 30
0.0
 10
2102.38998363342
 20
1475.414668104201
 30
0.0
 10
2102.049578355369
 20
1475.339333212665
 30
0.0
 10
2101.709947196218
 20
1475.21959918109
 30
0.0
 10
2101.417268207436
 20
1475.072713556243
 30
0.0
 10
2101.171405430302
 20
1474.914022386696
 30
0.0
 10
2100.971619422498
 20
1474.759720784314
 30
0.0
 10
2100.772855339474
 20
1474.575737785759
 30
0.0
 10
2100.601912772031
 20
1474.383698545218
 30
0.0
 10
2100.460305004057
 20
1474.193564572238
 30
0.0
 10
2100.349908795639
 20
1474.021437816135
 30
0.0
 10
2100.250250059662
 20
1473.838409156457
 30
0.0
 10
2100.157975026113
 20
1473.635699178745
 30
0.0
 10
2100.078207135616
 20
1473.415465728667
 30
0.0
 10
2100.000522090625
 20
1473.127121631207
 30
0.0
 10
2099.94993015842
 20
1472.794584734311
 30
0.0
 10
2099.941993156775
 20
1472.437830837904
 30
0.0
 10
2099.974023752401
 20
1472.104472502268
 30
0.0
 10
2100.061412143668
 20
1471.68516178789
 30
0.0
 10
2100.248121387956
 20
1471.210191172315
 30
0.0
 10
2100.572460550302
 20
1470.69954298628
 30
0.0
 10
2100.866959367422
 20
1470.427809090516
 30
0.0
 10
2101.01562486391
 20
1470.290635519086
 30
0.0
  0
SPLINE
  5
1A5
330
1F
100
AcDbEntity
  8
0
  6
Continuous
 62
     7
370
    25
100
AcDbSpline
210
0.0
220
0.0
230
1.0
 70
     8
 71
     3
 72
    14
 73
    10
 74
     0
 42
0.000000001
 43
0.00000001
 40
0.0
 40
0.0
 40
0.0
 40
0.0
 40
0.2207653484383067
 40
0.3402146168141069
 40
0.4605704991791142
 40
0.5641909618661191
 40
0.6633542991972048
 40
0.810524740361856
 40
1.0
 40
1.0
 40
1.0
 40
1.0
 10
2104.793899515171
 20
1475.617965864752
 30
0.0
 10
2104.786939007662
 20
1475.553448568644
 30
0.0
 10
2104.77621238588
 20
1475.454022968891
 30
0.0
 10
2104.693500768785
 20
1475.313411461051
 30
0.0
 10
2104.599325262639
 20
1475.220196341631
 30
0.0
 10
2104.48933729174
 20
1475.158340996136
 30
0.0
 10
2104.36629379896
 20
1475.12304599772
 30
0.0
 10
2104.22043343727
 20
1475.119181617029
 30
0.0
 10
2104.131792564726
 20
1475.15207503584
 30
0.0
 10
2104.081902569696
 20
1475.170588532537
 30
0.0
  0
SPLINE
  5
1A6
330
1F
100
AcDbEntity
  8
0
  6
Continuous
 62
     7
370
    25
100
AcDbSpline
210
0.0
220
0.0
230
1.0
 70
     8
 71
     3
 72
    32
 73
    28
 74
     0
 42
0.000000001
 43
0.00000001
 40
0.0
 40
0.0
 40
0.0
 40
0.0
 40
0.0430379910819455
 40
0.0863861263481867
 40
0.130671583623943
 40
0.1752669939041135
 40
0.2185320463381617
 40
0.2621050719942031
 40
0.3067938579277359
 40
0.351966334617616
 40
0.3854310965017749
 40
0.4193289160972129
 40
0.4528593258451301
 40
0.4875791928901113
 40
0.5106386088136754
 40
0.5343801485774082
 40
0.5574353916329433
 40
0.5810375265201532
 40
0.6176166200902863
 40
0.6551846333990743
 40
0.7177265685357848
 40
0.7819044813319243
 40
0.8252890843115572
 40
0.8689843386192271
 40
0.9136242089591411
 40
0.9585815908891959
 40
1.0
 40
1.0
 40
1.0
 40
1.0
 10
2110.520993293276
 20
1476.263254357815
 30
0.0
 10
2110.491258080569
 20
1476.371133829167
 30
0.0
 10
2110.431573374629
 20
1476.587670182474
 30
0.0
 10
2110.296458377447
 20
1476.894181176389
 30
0.0
 10
2110.128786506809
 20
1477.1857963873
 30
0.0
 10
2109.928095016809
 20
1477.45509665134
 30
0.0
 10
2109.697950399394
 20
1477.699661874547
 30
0.0
 10
2109.437511173603
 20
1477.919358204422
 30
0.0
 10
2109.141667725629
 20
1478.114019297914
 30
0.0
 10
2108.836459758995
 20
1478.264229684168
 30
0.0
 10
2108.529918161314
 20
1478.373430512253
 30
0.0
 10
2108.231211325333
 20
1478.446354778187
 30
0.0
 10
2107.903175371047
 20
1478.489433668934
 30
0.0
 10
2107.588019084081
 20
1478.493377100065
 30
0.0
 10
2107.299672663574
 20
1478.466267621225
 30
0.0
 10
2107.054367971645
 20
1478.421547674342
 30
0.0
 10
2106.816501809557
 20
1478.356660296415
 30
0.0
 10
2106.551960084793
 20
1478.260237999331
 30
0.0
 10
2106.269984405963
 20
1478.122754412487
 30
0.0
 10
2105.925105013116
 20
1477.900623741742
 30
0.0
 10
2105.580293934317
 20
1477.595648448624
 30
0.0
 10
2105.300299244928
 20
1477.242928689991
 30
0.0
 10
2105.103962153955
 20
1476.906359344531
 30
0.0
 10
2104.968954840526
 20
1476.598955472599
 30
0.0
 10
2104.870216998659
 20
1476.275146348547
 30
0.0
 10
2104.808079398879
 20
1475.946833759716
 30
0.0
 10
2104.798495249749
 20
1475.724552744289
 30
0.0
 10
2104.793899515171
 20
1475.617965864752
 30
0.0
  0
SPLINE
  5
1A7
330
1F
100
AcDbEntity
  8
0
  6
Continuous
 62
     7
370
    25
100
AcDbSpline
210
0.0
220
0.0
230
1.0
 70
     8
 71
     3
 72
    14
 73
    10
 74
     0
 42
0.000000001
 43
0.00000001
 40
0.0
 40
0.0
 40
0.0
 40
0.0
 40
0.224303042488205
 40
0.3489011866264621
 40
0.4744001356117993
 40
0.5826741857065775
 40
0.6867417687946956
 40
0.8381564871697218
 40
1.0
 40
1.0
 40
1.0
 40
1.0
 10
2111.314689810603
 20
1475.985527934641
 30
0.0
 10
2111.258645807382
 20
1475.950195850476
 30
0.0
 10
2111.171469909051
 20
1475.895237139463
 30
0.0
 10
2111.006028162302
 20
1475.873740591818
 30
0.0
 10
2110.870945593259
 20
1475.89236895363
 30
0.0
 10
2110.751904853577
 20
1475.944402814102
 30
0.0
 10
2110.647455705867
 20
1476.024218698642
 30
0.0
 10
2110.562312464132
 20
1476.133977704472
 30
0.0
 10
2110.535068677849
 20
1476.21921623763
 30
0.0
 10
2110.520993293276
 20
1476.263254357815
 30
0.0
  0
SPLINE
  5
1A8
330
1F
100
AcDbEntity
  8
0
  6
Continuous
 62
     7
370
    25
100
AcDbSpline
210
0.0
220
0.0
230
1.0
 70
     8
 71
     3
 72
    31
 73
    27
 74
     0
 42
0.000000001
 43
0.00000001
 40
0.0
 40
0.0
 40
0.0
 40
0.0
 40
0.0425833337774433
 40
0.0854693441808151
 40
0.1292857072947915
 40
0.1734170152399156
 40
0.2449145713515253
 40
0.2814363788217625
 40
0.3182277375026532
 40
0.3578646940443402
 40
0.398160095141096
 40
0.4288325139380272
 40
0.4602505469959337
 40
0.485612489410635
 40
0.5117016966526884
 40
0.5370695264658067
 40
0.5631025307145429
 40
0.5995567496813878
 40
0.6370216898153778
 40
0.6960149548444071
 40
0.756574882986246
 40
0.7982000521028634
 40
0.8401283317747362
 40
0.8829575785658568
 40
0.9260808780984715
 40
0.9999999999999999
 40
0.9999999999999999
 40
0.9999999999999999
 40
0.9999999999999999
 10
2115.389981234691
 20
1471.910236510553
 30
0.0
 10
2115.454651343557
 20
1471.999060619907
 30
0.0
 10
2115.584451227751
 20
1472.177340188472
 30
0.0
 10
2115.738623979994
 20
1472.469452436859
 30
0.0
 10
2115.862149093547
 20
1472.778580860249
 30
0.0
 10
2115.967753154825
 20
1473.171426233889
 30
0.0
 10
2116.011726567717
 20
1473.563664379702
 30
0.0
 10
2115.997899510272
 20
1473.948857326486
 30
0.0
 10
2115.955395622094
 20
1474.255518079537
 30
0.0
 10
2115.873860342786
 20
1474.578511607865
 30
0.0
 10
2115.754019118319
 20
1474.889723067079
 30
0.0
 10
2115.602809496316
 20
1475.178760672851
 30
0.0
 10
2115.44068399072
 20
1475.422603638322
 30
0.0
 10
2115.258938026854
 20
1475.643962754821
 30
0.0
 10
2115.069778416471
 20
1475.835031612559
 30
0.0
 10
2114.863979977516
 20
1476.007421438586
 30
0.0
 10
2114.620798308967
 20
1476.176027284271
 30
0.0
 10
2114.338279439723
 20
1476.329871792711
 30
0.0
 10
2113.964212914804
 20
1476.479085976541
 30
0.0
 10
2113.529896816727
 20
1476.581519770491
 30
0.0
 10
2113.098154522654
 20
1476.608810643427
 30
0.0
 10
2112.724086210202
 20
1476.58097738
 30
0.0
 10
2112.405259854007
 20
1476.521400610966
 30
0.0
 10
2112.094065670074
 20
1476.425494620537
 30
0.0
 10
2111.718996040034
 20
1476.266362803089
 30
0.0
 10
2111.471192323815
 20
1476.094236036348
 30
0.0
 10
2111.314689810602
 20
1475.985527934641
 30
0.0
  0
SPLINE
  5
1A9
330
1F
100
AcDbEntity
  8
0
  6
Continuous
 62
     7
370
    25
100
AcDbSpline
210
0.0
220
0.0
230
1.0
 70
     8
 71
     3
 72
    14
 73
    10
 74
     0
 42
0.000000001
 43
0.00000001
 40
0.0
 40
0.0
 40
0.0
 40
0.0
 40
0.223979908930777
 40
0.3530600787851116
 40
0.4831615846561482
 40
0.5937368434045482
 40
0.6971871626482375
 40
0.8442013099709597
 40
1.0
 40
1.0
 40
1.0
 40
1.0
 10
2115.667707657864
 20
1471.116539993227
 30
0.0
 10
2115.606162243681
 20
1471.137896276823
 30
0.0
 10
2115.509148056632
 20
1471.171560238939
 30
0.0
 10
2115.388400107738
 20
1471.287039954715
 30
0.0
 10
2115.317042695217
 20
1471.407211343371
 30
0.0
 10
2115.283837606386
 20
1471.535849675992
 30
0.0
 10
2115.282703932417
 20
1471.66739624392
 30
0.0
 10
2115.316165348055
 20
1471.800005667766
 30
0.0
 10
2115.364904633353
 20
1471.872789085267
 30
0.0
 10
2115.389981234691
 20
1471.910236510553
 30
0.0
  0
SPLINE
  5
1AA
330
1F
100
AcDbEntity
  8
0
  6
Continuous
 62
     7
370
    25
100
AcDbSpline
210
0.0
220
0.0
230
1.0
 70
     8
 71
     3
 72
    31
 73
    27
 74
     0
 42
0.000000001
 43
0.00000001
 40
0.0
 40
0.0
 40
0.0
 40
0.0
 40
0.0436294341820471
 40
0.0875684828963737
 40
0.1324599668092012
 40
0.1776747310168353
 40
0.2471514348504912
 40
0.3182082976799175
 40
0.3543483336054297
 40
0.3910257028896826
 40
0.4195224726611946
 40
0.4487066439893344
 40
0.4718199668842245
 40
0.4955955638905869
 40
0.5187147629621404
 40
0.5424374424096403
 40
0.5764102163909632
 40
0.6113145862253251
 40
0.6689134789511193
 40
0.7280058305622988
 40
0.7704933098102801
 40
0.8132907126999095
 40
0.8570043278233468
 40
0.901015706416244
 40
0.9502816013671008
 40
1.0
 40
1.0
 40
1.0
 40
1.0
 10
2115.022419164801
 20
1465.389446215121
 30
0.0
 10
2115.134672325707
 20
1465.394460120622
 30
0.0
 10
2115.359975247581
 20
1465.404523512604
 30
0.0
 10
2115.691505670737
 20
1465.46881957031
 30
0.0
 10
2116.016796714152
 20
1465.569216709532
 30
0.0
 10
2116.38838179842
 20
1465.734982363472
 30
0.0
 10
2116.794335123083
 20
1465.994819478307
 30
0.0
 10
2117.142504406084
 20
1466.325030718428
 30
0.0
 10
2117.394804979324
 20
1466.653809552737
 30
0.0
 10
2117.554608235342
 20
1466.918199091794
 30
0.0
 10
2117.683733088866
 20
1467.194390575449
 30
0.0
 10
2117.77514906975
 20
1467.454115088653
 30
0.0
 10
2117.839901304943
 20
1467.714401876283
 30
0.0
 10
2117.879103200965
 20
1467.961493861324
 30
0.0
 10
2117.896729520112
 20
1468.21055558613
 30
0.0
 10
2117.892845837639
 20
1468.487913989278
 30
0.0
 10
2117.858027431535
 20
1468.788695089259
 30
0.0
 10
2117.770455068359
 20
1469.166481101996
 30
0.0
 10
2117.613134994125
 20
1469.570435566603
 30
0.0
 10
2117.394451450837
 20
1469.938304129729
 30
0.0
 10
2117.160305814267
 20
1470.23215181033
 30
0.0
 10
2116.926425708751
 20
1470.465629259986
 30
0.0
 10
2116.666550553627
 20
1470.672184346047
 30
0.0
 10
2116.370596745092
 20
1470.855407304232
 30
0.0
 10
2116.039721128756
 20
1471.01192712431
 30
0.0
 10
2115.792089494984
 20
1471.081562924275
 30
0.0
 10
2115.667707657864
 20
1471.116539993227
 30
0.0
  0
SPLINE
  5
1AB
330
1F
100
AcDbEntity
  8
0
  6
Continuous
 62
     7
370
    25
100
AcDbSpline
210
0.0
220
0.0
230
1.0
 70
     8
 71
     3
 72
    14
 73
    10
 74
     0
 42
0.000000001
 43
0.00000001
 40
0.0
 40
0.0
 40
0.0
 40
0.0
 40
0.2200911109485353
 40
0.3501199592092534
 40
0.4590676183974619
 40
0.5685351145662356
 40
0.6668402217393018
 40
0.7968948941937664
 40
1.0
 40
1.0
 40
1.0
 40
1.0
 10
2114.575041832585
 20
1464.677449269647
 30
0.0
 10
2114.55399543417
 20
1464.73617501508
 30
0.0
 10
2114.520514917292
 20
1464.829595669403
 30
0.0
 10
2114.531775201774
 20
1464.985483286581
 30
0.0
 10
2114.572509768853
 20
1465.108627916132
 30
0.0
 10
2114.640419890144
 20
1465.213231826984
 30
0.0
 10
2114.733918227073
 20
1465.300278622846
 30
0.0
 10
2114.866624463242
 20
1465.373767063737
 30
0.0
 10
2114.96341343781
 20
1465.383507889127
 30
0.0
 10
2115.022419164801
 20
1465.389446215121
 30
0.0
  0
SPLINE
  5
1AC
330
1F
100
AcDbEntity
  8
0
  6
Continuous
 62
     7
370
    25
100
AcDbSpline
210
0.0
220
0.0
230
1.0
 70
     8
 71
     3
 72
    32
 73
    28
 74
     0
 42
0.000000001
 43
0.00000001
 40
0.0
 40
0.0
 40
0.0
 40
0.0
 40
0.0453942490664868
 40
0.0911149500211716
 40
0.1378156604218491
 40
0.1848384153738266
 40
0.2588911921182413
 40
0.2966281930595892
 40
0.334622784154755
 40
0.3627380257352221
 40
0.3910884026637815
 40
0.4192466010957551
 40
0.4481819119438945
 40
0.4658254771020922
 40
0.4839564361058751
 40
0.5016138628025687
 40
0.5197789833318724
 40
0.5448703289759805
 40
0.5706414417831449
 40
0.6177923775614174
 40
0.6660664783496373
 40
0.7088271620555733
 40
0.7519045224538902
 40
0.7958661863085221
 40
0.8400991772633681
 40
0.9191874857499376
 40
0.9999999999999999
 40
0.9999999999999999
 40
0.9999999999999999
 40
0.9999999999999999
 10
2109.695088819135
 20
1461.611171563861
 30
0.0
 10
2109.773122609023
 20
1461.52215553078
 30
0.0
 10
2109.929751367332
 20
1461.343483307491
 30
0.0
 10
2110.200868789827
 20
1461.116753905718
 30
0.0
 10
2110.49654393021
 20
1460.921259482904
 30
0.0
 10
2110.878398441142
 20
1460.732439502818
 30
0.0
 10
2111.268429787726
 20
1460.610784123792
 30
0.0
 10
2111.66039985222
 20
1460.551183521183
 30
0.0
 10
2111.945089866359
 20
1460.538028729467
 30
0.0
 10
2112.216072667213
 20
1460.551598853813
 30
0.0
 10
2112.469889396923
 20
1460.586222914177
 30
0.0
 10
2112.73908720504
 20
1460.648176589404
 30
0.0
 10
2112.987063222912
 20
1460.731761917269
 30
0.0
 10
2113.205673121153
 20
1460.82771532915
 30
0.0
 10
2113.384624698095
 20
1460.921575018706
 30
0.0
 10
2113.557795472118
 20
1461.028584611065
 30
0.0
 10
2113.739443624712
 20
1461.159044476079
 30
0.0
 10
2113.922974178321
 20
1461.314892871876
 30
0.0
 10
2114.146726542067
 20
1461.541877069077
 30
0.0
 10
2114.368133813267
 20
1461.828421502259
 30
0.0
 10
2114.557529317789
 20
1462.160549520716
 30
0.0
 10
2114.693443152114
 20
1462.488576495926
 30
0.0
 10
2114.785197651176
 20
1462.81086866426
 30
0.0
 10
2114.839621422158
 20
1463.141008177584
 30
0.0
 10
2114.858687918985
 20
1463.564688915014
 30
0.0
 10
2114.806761004718
 20
1464.086010005798
 30
0.0
 10
2114.652834817114
 20
1464.478890708098
 30
0.0
 10
2114.575041832585
 20
1464.677449269647
 30
0.0
  0
SPLINE
  5
1AD
330
1F
100
AcDbEntity
  8
0
  6
Continuous
 62
     7
370
    25
100
AcDbSpline
210
0.0
220
0.0
230
1.0
 70
     8
 71
     3
 72
    15
 73
    11
 74
     0
 42
0.000000001
 43
0.00000001
 40
0.0
 40
0.0
 40
0.0
 40
0.0
 40
0.215076373612891
 40
0.341334992697751
 40
0.4465934903529595
 40
0.5524796219273381
 40
0.6449070621726879
 40
0.7662146539024038
 40
0.940631656051714
 40
1.0
 40
1.0
 40
1.0
 40
1.0
 10
2108.859491987523
 20
1461.517022412272
 30
0.0
 10
2108.890711139992
 20
1461.56808257501
 30
0.0
 10
2108.94025721054
 20
1461.649117139533
 30
0.0
 10
2109.063127297038
 20
1461.737056137943
 30
0.0
 10
2109.180609245179
 20
1461.78412238034
 30
0.0
 10
2109.301678771773
 20
1461.799834228389
 30
0.0
 10
2109.425165268759
 20
1461.786174013763
 30
0.0
 10
2109.554416493459
 20
1461.738366063031
 30
0.0
 10
2109.642208061322
 20
1461.6722216449
 30
0.0
 10
2109.684379613947
 20
1461.623535188582
 30
0.0
 10
2109.695088819135
 20
1461.611171563861
 30
0.0
  0
SPLINE
  5
1AE
330
1F
100
AcDbEntity
  8
0
  6
Continuous
 62
     7
370
    25
100
AcDbSpline
210
0.0
220
0.0
230
1.0
 70
     8
 71
     3
 72
    32
 73
    28
 74
     0
 42
0.000000001
 43
0.00000001
 40
0.0
 40
0.0
 40
0.0
 40
0.0
 40
0.0454582272348883
 40
0.0912473055380756
 40
0.1379964247665443
 40
0.1850468267077086
 40
0.2317186214404017
 40
0.2786766574025903
 40
0.3266330548076756
 40
0.3750177823805886
 40
0.4231946286303605
 40
0.4431300964846452
 40
0.4634749195353995
 40
0.4878685176209482
 40
0.5123762960464936
 40
0.5281103892327684
 40
0.5442744345973748
 40
0.5755617249755908
 40
0.6075311395418805
 40
0.6453567436459877
 40
0.683452100398738
 40
0.7610803304711905
 40
0.8038847478701011
 40
0.846908351138157
 40
0.8906390073062274
 40
0.9346267867280599
 40
0.9999999999999999
 40
0.9999999999999999
 40
0.9999999999999999
 40
0.9999999999999999
 10
2103.419578605713
 20
1463.420530431928
 30
0.0
 10
2103.398039885639
 20
1463.299685366955
 30
0.0
 10
2103.354805683803
 20
1463.057115710434
 30
0.0
 10
2103.348866027623
 20
1462.694030125392
 30
0.0
 10
2103.384294314637
 20
1462.334564885998
 30
0.0
 10
2103.464575799615
 20
1461.983988005735
 30
0.0
 10
2103.586763100334
 20
1461.646694285114
 30
0.0
 10
2103.751440454277
 20
1461.323105227614
 30
0.0
 10
2103.961939112065
 20
1461.013167663472
 30
0.0
 10
2104.224076893933
 20
1460.719093849228
 30
0.0
 10
2104.487036764091
 20
1460.495383414305
 30
0.0
 10
2104.730579986084
 20
1460.332480379759
 30
0.0
 10
2104.932893236139
 20
1460.217107233425
 30
0.0
 10
2105.184192910518
 20
1460.101522227819
 30
0.0
 10
2105.436218083709
 20
1460.016707508621
 30
0.0
 10
2105.643871341048
 20
1459.965371148574
 30
0.0
 10
2105.863944687639
 20
1459.924791586939
 30
0.0
 10
2106.11819899153
 20
1459.900160238868
 30
0.0
 10
2106.415100067086
 20
1459.900825430985
 30
0.0
 10
2106.711166461824
 20
1459.931870139279
 30
0.0
 10
2107.108864321704
 20
1460.016469590194
 30
0.0
 10
2107.48971968781
 20
1460.162402783507
 30
0.0
 10
2107.850729121572
 20
1460.370569762732
 30
0.0
 10
2108.117749846743
 20
1460.56742112386
 30
0.0
 10
2108.364343744244
 20
1460.798604341918
 30
0.0
 10
2108.626867761374
 20
1461.103267976433
 30
0.0
 10
2108.772460412541
 20
1461.362224690631
 30
0.0
 10
2108.859491987523
 20
1461.517022412272
 30
0.0
  0
SPLINE
  5
1AF
330
1F
100
AcDbEntity
  8
0
  6
Continuous
 62
     7
370
    25
100
AcDbSpline
210
0.0
220
0.0
230
1.0
 70
     8
 71
     3
 72
    15
 73
    11
 74
     0
 42
0.000000001
 43
0.00000001
 40
0.0
 40
0.0
 40
0.0
 40
0.0
 40
0.2129294053202025
 40
0.333310728317531
 40
0.4345062010027811
 40
0.5362836886506038
 40
0.6256367151020118
 40
0.745636854756672
 40
0.9211927176881697
 40
1.0
 40
1.0
 40
1.0
 40
1.0
 10
2102.824983731977
 20
1464.015125305664
 30
0.0
 10
2102.884024804892
 20
1464.022598625902
 30
0.0
 10
2102.976445215237
 20
1464.034297046831
 30
0.0
 10
2103.119925188301
 20
1463.994454620445
 30
0.0
 10
2103.227589722732
 20
1463.935017645993
 30
0.0
 10
2103.314533689312
 20
1463.854029242149
 30
0.0
 10
2103.382063028279
 20
1463.752804237517
 30
0.0
 10
2103.428663376599
 20
1463.624212839145
 30
0.0
 10
2103.435322725938
 20
1463.509188220452
 30
0.0
 10
2103.423302679714
 20
1463.441501318872
 30
0.0
 10
2103.419578605713
 20
1463.420530431928
 30
0.0
  0
SPLINE
  5
1B0
330
1F
100
AcDbEntity
  8
0
  6
Continuous
 62
     7
370
    25
100
AcDbSpline
210
0.0
220
0.0
230
1.0
 70
     8
 71
     3
 72
    32
 73
    28
 74
     0
 42
0.000000001
 43
0.00000001
 40
0.0
 40
0.0
 40
0.0
 40
0.0
 40
0.0447120024448255
 40
0.0897510683881274
 40
0.1357337494830543
 40
0.1820101047170837
 40
0.227986650754985
 40
0.2742348602616503
 40
0.321388713952821
 40
0.368899919749518
 40
0.4236598558301626
 40
0.4510230069928902
 40
0.4792153189811523
 40
0.5037509674809454
 40
0.5283882607504927
 40
0.5445704263132761
 40
0.5611899076196778
 40
0.6013390629672006
 40
0.6426114615938114
 40
0.6855038326376914
 40
0.728705483693968
 40
0.7727266257639931
 40
0.8169894777562737
 40
0.8620202251363029
 40
0.9073149340905277
 40
0.9534905366767232
 40
1.0
 40
1.0
 40
1.0
 40
1.0
 10
2100.92147571232
 20
1469.455038687473
 30
0.0
 10
2100.814439541518
 20
1469.397045480326
 30
0.0
 10
2100.599584241812
 20
1469.280634851945
 30
0.0
 10
2100.314459488427
 20
1469.061528426482
 30
0.0
 10
2100.0576936227
 20
1468.813263334838
 30
0.0
 10
2099.835300748096
 20
1468.536468127357
 30
0.0
 10
2099.648782261754
 20
1468.236359001378
 30
0.0
 10
2099.498752505032
 20
1467.913349273731
 30
0.0
 10
2099.386890038658
 20
1467.56617353916
 30
0.0
 10
2099.313896993937
 20
1467.174068332987
 30
0.0
 10
2099.297969377921
 20
1466.804609093659
 30
0.0
 10
2099.329025397523
 20
1466.454736019522
 30
0.0
 10
2099.381067881434
 20
1466.174351458189
 30
0.0
 10
2099.469390184252
 20
1465.876715048113
 30
0.0
 10
2099.572779220319
 20
1465.629289057594
 30
0.0
 10
2099.672384908013
 20
1465.437330366947
 30
0.0
 10
2099.803959496527
 20
1465.217794791423
 30
0.0
 10
2099.988227307224
 20
1464.97152467696
 30
0.0
 10
2100.232647567241
 20
1464.716861295652
 30
0.0
 10
2100.496908757836
 20
1464.499985076797
 30
0.0
 10
2100.781610656635
 20
1464.317204890632
 30
0.0
 10
2101.084038017484
 20
1464.16917162772
 30
0.0
 10
2101.40460599599
 20
1464.056121302821
 30
0.0
 10
2101.74072723016
 20
1463.980121660418
 30
0.0
 10
2102.092062269882
 20
1463.944835679739
 30
0.0
 10
2102.454949019541
 20
1463.949483916238
 30
0.0
 10
2102.701342982723
 20
1463.993192361813
 30
0.0
 10
2102.824983731977
 20
1464.015125305664
 30
0.0
  0
SPLINE
  5
1B1
330
1F
100
AcDbEntity
  8
0
  6
Continuous
 62
     7
370
    25
100
AcDbSpline
210
0.0
220
0.0
230
1.0
 70
     8
 71
     3
 72
    15
 73
    11
 74
     0
 42
0.000000001
 43
0.00000001
 40
0.0
 40
0.0
 40
0.0
 40
0.0
 40
0.2155767705931667
 40
0.332900553867587
 40
0.4328760582229828
 40
0.5332634977247166
 40
0.6250838127944561
 40
0.7535547096886824
 40
0.9421338378891906
 40
0.9999999999999999
 40
0.9999999999999999
 40
0.9999999999999999
 40
0.9999999999999999
 10
2101.01562486391
 20
1470.290635519086
 30
0.0
 10
2101.059805801913
 20
1470.247375970146
 30
0.0
 10
2101.128031421452
 20
1470.180573189111
 30
0.0
 10
2101.185410640249
 20
1470.039979666628
 30
0.0
 10
2101.204125362679
 20
1469.919498851475
 30
0.0
 10
2101.193824655547
 20
1469.802570917501
 30
0.0
 10
2101.155532758197
 20
1469.685890740686
 30
0.0
 10
2101.079643999111
 20
1469.566077053201
 30
0.0
 10
2100.993617358915
 20
1469.493353380141
 30
0.0
 10
2100.935193763954
 20
1469.462324394927
 30
0.0
 10
2100.92147571232
 20
1469.455038687473
 30
0.0
  0
SPLINE
  5
1B2
330
1F
100
AcDbEntity
  8
0
  6
Continuous
 62
     7
370
    25
100
AcDbSpline
210
0.0
220
0.0
230
1.0
 70
     8
 71
     3
 72
    32
 73
    28
 74
     0
 42
0.000000001
 43
0.00000001
 40
0.0
 40
0.0
 40
0.0
 40
0.0
 40
0.0441441928241899
 40
0.0886104352646705
 40
0.1340256948284885
 40
0.1797444149379613
 40
0.2245884288186269
 40
0.2697223103764273
 40
0.3158695723814609
 40
0.3624409759686377
 40
0.3905644447044495
 40
0.4188972546593674
 40
0.4470561788819091
 40
0.4758699108998077
 40
0.4938447275986888
 40
0.5122867846817697
 40
0.5302841812509154
 40
0.5488497088202756
 40
0.5722278000634956
 40
0.5962533137611049
 40
0.6386203767558882
 40
0.6820050825655934
 40
0.7223286131287869
 40
0.7629537503048647
 40
0.8459909377782718
 40
0.922254921351454
 40
1.0
 40
1.0
 40
1.0
 40
1.0
 10
1459.745662713097
 20
1464.677449269688
 30
0.0
 10
1459.699862009808
 20
1464.569910018742
 30
0.0
 10
1459.607926468705
 20
1464.354046974822
 30
0.0
 10
1459.521940931463
 20
1464.017430334317
 30
0.0
 10
1459.473508886418
 20
1463.6739073266
 30
0.0
 10
1459.467288846876
 20
1463.328454252212
 30
0.0
 10
1459.501583141433
 20
1462.985530333412
 30
0.0
 10
1459.576918032968
 20
1462.645125055361
 30
0.0
 10
1459.696652064543
 20
1462.30549389621
 30
0.0
 10
1459.843537689391
 20
1462.012814907428
 30
0.0
 10
1460.002228858937
 20
1461.766952130295
 30
0.0
 10
1460.15653046132
 20
1461.56716612249
 30
0.0
 10
1460.340513459874
 20
1461.368402039466
 30
0.0
 10
1460.532552700415
 20
1461.197459472023
 30
0.0
 10
1460.722686673396
 20
1461.055851704049
 30
0.0
 10
1460.894813429498
 20
1460.945455495631
 30
0.0
 10
1461.077842089176
 20
1460.845796759654
 30
0.0
 10
1461.280552066889
 20
1460.753521726105
 30
0.0
 10
1461.500785516967
 20
1460.673753835608
 30
0.0
 10
1461.789129614427
 20
1460.596068790617
 30
0.0
 10
1462.121666511323
 20
1460.545476858412
 30
0.0
 10
1462.478420407729
 20
1460.537539856766
 30
0.0
 10
1462.811778743365
 20
1460.569570452393
 30
0.0
 10
1463.231089457744
 20
1460.65695884366
 30
0.0
 10
1463.706060073319
 20
1460.843668087948
 30
0.0
 10
1464.216708259353
 20
1461.168007250294
 30
0.0
 10
1464.488442155117
 20
1461.462506067413
 30
0.0
 10
1464.625615726548
 20
1461.611171563902
 30
0.0
  0
SPLINE
  5
1B3
330
1F
100
AcDbEntity
  8
0
  6
Continuous
 62
     7
370
    25
100
AcDbSpline
210
0.0
220
0.0
230
1.0
 70
     8
 71
     3
 72
    14
 73
    10
 74
     0
 42
0.000000001
 43
0.00000001
 40
0.0
 40
0.0
 40
0.0
 40
0.0
 40
0.2207653484382988
 40
0.3402146168140554
 40
0.4605704991790915
 40
0.5641909618660973
 40
0.6633542991972232
 40
0.8105247403618279
 40
1.0
 40
1.0
 40
1.0
 40
1.0
 10
1459.298285380881
 20
1465.389446215163
 30
0.0
 10
1459.362802676989
 20
1465.382485707653
 30
0.0
 10
1459.462228276743
 20
1465.371759085872
 30
0.0
 10
1459.602839784583
 20
1465.289047468777
 30
0.0
 10
1459.696054904003
 20
1465.19487196263
 30
0.0
 10
1459.757910249497
 20
1465.084883991733
 30
0.0
 10
1459.793205247914
 20
1464.961840498952
 30
0.0
 10
1459.797069628604
 20
1464.815980137262
 30
0.0
 10
1459.764176209793
 20
1464.727339264718
 30
0.0
 10
1459.745662713097
 20
1464.677449269688
 30
0.0
  0
SPLINE
  5
1B4
330
1F
100
AcDbEntity
  8
0
  6
Continuous
 62
     7
370
    25
100
AcDbSpline
210
0.0
220
0.0
230
1.0
 70
     8
 71
     3
 72
    32
 73
    28
 74
     0
 42
0.000000001
 43
0.00000001
 40
0.0
 40
0.0
 40
0.0
 40
0.0
 40
0.0430379910819444
 40
0.0863861263481905
 40
0.1306715836239467
 40
0.175266993904115
 40
0.2185320463381657
 40
0.2621050719942041
 40
0.3067938579277346
 40
0.3519663346176128
 40
0.3854310965017703
 40
0.4193289160972082
 40
0.45285932584513
 40
0.4875791928901126
 40
0.5106386088136716
 40
0.5343801485774055
 40
0.5574353916329453
 40
0.5810375265201505
 40
0.6176166200902836
 40
0.6551846333990752
 40
0.7177265685357825
 40
0.7819044813319245
 40
0.8252890843115575
 40
0.8689843386192272
 40
0.9136242089591412
 40
0.958581590889196
 40
1.0
 40
1.0
 40
1.0
 40
1.0
 10
1458.652996887818
 20
1471.116539993268
 30
0.0
 10
1458.545117416467
 20
1471.08680478056
 30
0.0
 10
1458.32858106316
 20
1471.027120074621
 30
0.0
 10
1458.022070069245
 20
1470.892005077439
 30
0.0
 10
1457.730454858334
 20
1470.724333206801
 30
0.0
 10
1457.461154594294
 20
1470.523641716802
 30
0.0
 10
1457.216589371086
 20
1470.293497099386
 30
0.0
 10
1456.996893041211
 20
1470.033057873594
 30
0.0
 10
1456.802231947719
 20
1469.737214425621
 30
0.0
 10
1456.652021561465
 20
1469.432006458987
 30
0.0
 10
1456.54282073338
 20
1469.125464861306
 30
0.0
 10
1456.469896467447
 20
1468.826758025325
 30
0.0
 10
1456.426817576699
 20
1468.498722071039
 30
0.0
 10
1456.422874145569
 20
1468.183565784073
 30
0.0
 10
1456.449983624409
 20
1467.895219363566
 30
0.0
 10
1456.494703571292
 20
1467.649914671637
 30
0.0
 10
1456.559590949218
 20
1467.412048509549
 30
0.0
 10
1456.656013246302
 20
1467.147506784785
 30
0.0
 10
1456.793496833147
 20
1466.865531105954
 30
0.0
 10
1457.015627503892
 20
1466.520651713108
 30
0.0
 10
1457.32060279701
 20
1466.175840634309
 30
0.0
 10
1457.673322555643
 20
1465.89584594492
 30
0.0
 10
1458.009891901103
 20
1465.699508853947
 30
0.0
 10
1458.317295773034
 20
1465.564501540518
 30
0.0
 10
1458.641104897087
 20
1465.46576369865
 30
0.0
 10
1458.969417485918
 20
1465.403626098871
 30
0.0
 10
1459.191698501345
 20
1465.394041949741
 30
0.0
 10
1459.298285380881
 20
1465.389446215163
 30
0.0
  0
SPLINE
  5
1B5
330
1F
100
AcDbEntity
  8
0
  6
Continuous
 62
     7
370
    25
100
AcDbSpline
210
0.0
220
0.0
230
1.0
 70
     8
 71
     3
 72
    14
 73
    10
 74
     0
 42
0.000000001
 43
0.00000001
 40
0.0
 40
0.0
 40
0.0
 40
0.0
 40
0.2243030424882503
 40
0.3489011866265035
 40
0.4744001356118367
 40
0.5826741857066309
 40
0.6867417687947178
 40
0.8381564871697131
 40
1.0
 40
1.0
 40
1.0
 40
1.0
 10
1458.930723310992
 20
1471.910236510595
 30
0.0
 10
1458.966055395158
 20
1471.854192507373
 30
0.0
 10
1459.021014106171
 20
1471.767016609043
 30
0.0
 10
1459.042510653816
 20
1471.601574862294
 30
0.0
 10
1459.023882292004
 20
1471.466492293251
 30
0.0
 10
1458.971848431532
 20
1471.347451553569
 30
0.0
 10
1458.892032546992
 20
1471.243002405859
 30
0.0
 10
1458.782273541162
 20
1471.157859164124
 30
0.0
 10
1458.697035008004
 20
1471.130615377841
 30
0.0
 10
1458.652996887818
 20
1471.116539993268
 30
0.0
  0
SPLINE
  5
1B6
330
1F
100
AcDbEntity
  8
0
  6
Continuous
 62
     7
370
    25
100
AcDbSpline
210
0.0
220
0.0
230
1.0
 70
     8
 71
     3
 72
    31
 73
    27
 74
     0
 42
0.000000001
 43
0.00000001
 40
0.0
 40
0.0
 40
0.0
 40
0.0
 40
0.0425833337774435
 40
0.0854693441808153
 40
0.1292857072947919
 40
0.1734170152399124
 40
0.2449145713515223
 40
0.2814363788217639
 40
0.3182277375026499
 40
0.3578646940443381
 40
0.3981600951410923
 40
0.4288325139380236
 40
0.4602505469959345
 40
0.4856124894106352
 40
0.5117016966526886
 40
0.537069526465803
 40
0.5631025307145392
 40
0.599556749681391
 40
0.6370216898153769
 40
0.6960149548444107
 40
0.7565748829862498
 40
0.7982000521028672
 40
0.8401283317747363
 40
0.8829575785658607
 40
0.9260808780984735
 40
1.0
 40
1.0
 40
1.0
 40
1.0
 10
1463.00601473508
 20
1475.985527934683
 30
0.0
 10
1462.917190625726
 20
1476.050198043549
 30
0.0
 10
1462.738911057161
 20
1476.179997927743
 30
0.0
 10
1462.446798808774
 20
1476.334170679987
 30
0.0
 10
1462.137670385384
 20
1476.457695793538
 30
0.0
 10
1461.744825011744
 20
1476.563299854817
 30
0.0
 10
1461.352586865932
 20
1476.607273267709
 30
0.0
 10
1460.967393919148
 20
1476.593446210264
 30
0.0
 10
1460.660733166097
 20
1476.550942322086
 30
0.0
 10
1460.337739637769
 20
1476.469407042778
 30
0.0
 10
1460.026528178554
 20
1476.349565818311
 30
0.0
 10
1459.737490572783
 20
1476.198356196308
 30
0.0
 10
1459.493647607312
 20
1476.036230690712
 30
0.0
 10
1459.272288490812
 20
1475.854484726846
 30
0.0
 10
1459.081219633075
 20
1475.665325116463
 30
0.0
 10
1458.908829807047
 20
1475.459526677508
 30
0.0
 10
1458.740223961363
 20
1475.216345008959
 30
0.0
 10
1458.586379452923
 20
1474.933826139715
 30
0.0
 10
1458.437165269092
 20
1474.559759614796
 30
0.0
 10
1458.334731475143
 20
1474.125443516719
 30
0.0
 10
1458.307440602206
 20
1473.693701222646
 30
0.0
 10
1458.335273865634
 20
1473.319632910193
 30
0.0
 10
1458.394850634667
 20
1473.000806553999
 30
0.0
 10
1458.490756625097
 20
1472.689612370066
 30
0.0
 10
1458.649888442545
 20
1472.314542740026
 30
0.0
 10
1458.822015209286
 20
1472.066739023807
 30
0.0
 10
1458.930723310992
 20
1471.910236510595
 30
0.0
  0
SPLINE
  5
1B7
330
1F
100
AcDbEntity
  8
0
  6
Continuous
 62
     7
370
    25
100
AcDbSpline
210
0.0
220
0.0
230
1.0
 70
     8
 71
     3
 72
    14
 73
    10
 74
     0
 42
0.000000001
 43
0.00000001
 40
0.0
 40
0.0
 40
0.0
 40
0.0
 40
0.2239799089307656
 40
0.3530600787851243
 40
0.4831615846561783
 40
0.593736843404513
 40
0.6971871626482439
 40
0.8442013099709484
 40
1.0
 40
1.0
 40
1.0
 40
1.0
 10
1463.799711252407
 20
1476.263254357857
 30
0.0
 10
1463.778354968811
 20
1476.201708943673
 30
0.0
 10
1463.744691006694
 20
1476.104694756624
 30
0.0
 10
1463.629211290918
 20
1475.98394680773
 30
0.0
 10
1463.509039902262
 20
1475.912589395208
 30
0.0
 10
1463.380401569641
 20
1475.879384306378
 30
0.0
 10
1463.248855001714
 20
1475.878250632408
 30
0.0
 10
1463.116245577868
 20
1475.911712048047
 30
0.0
 10
1463.043462160367
 20
1475.960451333345
 30
0.0
 10
1463.00601473508
 20
1475.985527934683
 30
0.0
  0
SPLINE
  5
1B8
330
1F
100
AcDbEntity
  8
0
  6
Continuous
 62
     7
370
    25
100
AcDbSpline
210
0.0
220
0.0
230
1.0
 70
     8
 71
     3
 72
    31
 73
    27
 74
     0
 42
0.000000001
 43
0.00000001
 40
0.0
 40
0.0
 40
0.0
 40
0.0
 40
0.0436294341820473
 40
0.0875684828963739
 40
0.1324599668092014
 40
0.1776747310168339
 40
0.2471514348504918
 40
0.318208297679918
 40
0.3543483336054302
 40
0.3910257028896792
 40
0.4195224726611955
 40
0.4487066439893353
 40
0.4718199668842253
 40
0.4955955638905877
 40
0.5187147629621411
 40
0.5424374424096396
 40
0.5764102163909627
 40
0.6113145862253244
 40
0.6689134789511186
 40
0.7280058305622981
 40
0.7704933098102823
 40
0.8132907126999117
 40
0.8570043278233495
 40
0.9010157064162434
 40
0.9502816013671018
 40
1.0
 40
1.0
 40
1.0
 40
1.0
 10
1469.526805030512
 20
1475.617965864793
 30
0.0
 10
1469.521791125011
 20
1475.730219025699
 30
0.0
 10
1469.511727733029
 20
1475.955521947573
 30
0.0
 10
1469.447431675324
 20
1476.287052370729
 30
0.0
 10
1469.347034536102
 20
1476.612343414144
 30
0.0
 10
1469.181268882161
 20
1476.983928498413
 30
0.0
 10
1468.921431767327
 20
1477.389881823075
 30
0.0
 10
1468.591220527206
 20
1477.738051106076
 30
0.0
 10
1468.262441692896
 20
1477.990351679316
 30
0.0
 10
1467.998052153839
 20
1478.150154935334
 30
0.0
 10
1467.721860670185
 20
1478.279279788858
 30
0.0
 10
1467.46213615698
 20
1478.370695769741
 30
0.0
 10
1467.201849369351
 20
1478.435448004935
 30
0.0
 10
1466.95475738431
 20
1478.474649900957
 30
0.0
 10
1466.705695659504
 20
1478.492276220104
 30
0.0
 10
1466.428337256355
 20
1478.488392537631
 30
0.0
 10
1466.127556156374
 20
1478.453574131527
 30
0.0
 10
1465.749770143638
 20
1478.366001768351
 30
0.0
 10
1465.34581567903
 20
1478.208681694116
 30
0.0
 10
1464.977947115904
 20
1477.989998150829
 30
0.0
 10
1464.684099435304
 20
1477.755852514259
 30
0.0
 10
1464.450621985647
 20
1477.521972408742
 30
0.0
 10
1464.244066899587
 20
1477.262097253618
 30
0.0
 10
1464.060843941402
 20
1476.966143445084
 30
0.0
 10
1463.904324121323
 20
1476.635267828748
 30
0.0
 10
1463.834688321358
 20
1476.387636194976
 30
0.0
 10
1463.799711252407
 20
1476.263254357857
 30
0.0
  0
SPLINE
  5
1B9
330
1F
100
AcDbEntity
  8
0
  6
Continuous
 62
     7
370
    25
100
AcDbSpline
210
0.0
220
0.0
230
1.0
 70
     8
 71
     3
 72
    14
 73
    10
 74
     0
 42
0.000000001
 43
0.00000001
 40
0.0
 40
0.0
 40
0.0
 40
0.0
 40
0.2200911109485489
 40
0.350119959209275
 40
0.4590676183974465
 40
0.568535114566266
 40
0.6668402217393401
 40
0.7968948941937537
 40
1.0
 40
1.0
 40
1.0
 40
1.0
 10
1470.238801975986
 20
1475.170588532577
 30
0.0
 10
1470.180076230553
 20
1475.149542134162
 30
0.0
 10
1470.086655576231
 20
1475.116061617284
 30
0.0
 10
1469.930767959052
 20
1475.127321901766
 30
0.0
 10
1469.807623329501
 20
1475.168056468845
 30
0.0
 10
1469.703019418649
 20
1475.235966590136
 30
0.0
 10
1469.615972622787
 20
1475.329464927065
 30
0.0
 10
1469.542484181896
 20
1475.462171163234
 30
0.0
 10
1469.532743356506
 20
1475.558960137802
 30
0.0
 10
1469.526805030512
 20
1475.617965864793
 30
0.0
  0
SPLINE
  5
1BA
330
1F
100
AcDbEntity
  8
0
  6
Continuous
 62
     7
370
    25
100
AcDbSpline
210
0.0
220
0.0
230
1.0
 70
     8
 71
     3
 72
    32
 73
    28
 74
     0
 42
0.000000001
 43
0.00000001
 40
0.0
 40
0.0
 40
0.0
 40
0.0
 40
0.0453942490664868
 40
0.0911149500211736
 40
0.1378156604218475
 40
0.1848384153738279
 40
0.2588911921182425
 40
0.2966281930595869
 40
0.3346227841547561
 40
0.3627380257352195
 40
0.3910884026637823
 40
0.4192466010957526
 40
0.4481819119438948
 40
0.46582547710209
 40
0.4839564361058707
 40
0.5016138628025684
 40
0.5197789833318749
 40
0.54487032897598
 40
0.5706414417831444
 40
0.6177923775614144
 40
0.6660664783496343
 40
0.7088271620555703
 40
0.7519045224538912
 40
0.7958661863085227
 40
0.8400991772633651
 40
0.9191874857499378
 40
1.0
 40
1.0
 40
1.0
 40
1.0
 10
1473.305079681772
 20
1470.290635519126
 30
0.0
 10
1473.394095714853
 20
1470.368669309015
 30
0.0
 10
1473.572767938143
 20
1470.525298067324
 30
0.0
 10
1473.799497339916
 20
1470.796415489819
 30
0.0
 10
1473.994991762729
 20
1471.092090630201
 30
0.0
 10
1474.183811742816
 20
1471.473945141134
 30
0.0
 10
1474.305467121842
 20
1471.863976487718
 30
0.0
 10
1474.36506772445
 20
1472.255946552212
 30
0.0
 10
1474.378222516166
 20
1472.540636566352
 30
0.0
 10
1474.364652391821
 20
1472.811619367205
 30
0.0
 10
1474.330028331457
 20
1473.065436096914
 30
0.0
 10
1474.26807465623
 20
1473.334633905032
 30
0.0
 10
1474.184489328364
 20
1473.582609922904
 30
0.0
 10
1474.088535916483
 20
1473.801219821145
 30
0.0
 10
1473.994676226928
 20
1473.980171398087
 30
0.0
 10
1473.887666634568
 20
1474.153342172111
 30
0.0
 10
1473.757206769554
 20
1474.334990324704
 30
0.0
 10
1473.601358373758
 20
1474.518520878313
 30
0.0
 10
1473.374374176556
 20
1474.742273242059
 30
0.0
 10
1473.087829743374
 20
1474.96368051326
 30
0.0
 10
1472.755701724917
 20
1475.153076017781
 30
0.0
 10
1472.427674749707
 20
1475.288989852107
 30
0.0
 10
1472.105382581374
 20
1475.380744351168
 30
0.0
 10
1471.77524306805
 20
1475.43516812215
 30
0.0
 10
1471.351562330619
 20
1475.454234618977
 30
0.0
 10
1470.830241239836
 20
1475.40230770471
 30
0.0
 10
1470.437360537536
 20
1475.248381517106
 30
0.0
 10
1470.238801975986
 20
1475.170588532577
 30
0.0
  0
SPLINE
  5
1BB
330
1F
100
AcDbEntity
  8
0
  6
Continuous
 62
     7
370
    25
100
AcDbSpline
210
0.0
220
0.0
230
1.0
 70
     8
 71
     3
 72
    15
 73
    11
 74
     0
 42
0.000000001
 43
0.00000001
 40
0.0
 40
0.0
 40
0.0
 40
0.0
 40
0.2150763736128945
 40
0.3413349926977237
 40
0.4465934903529338
 40
0.55247962192732
 40
0.644907062172676
 40
0.7662146539024548
 40
0.9406316560517378
 40
1.0
 40
1.0
 40
1.0
 40
1.0
 10
1473.399228833361
 20
1469.455038687514
 30
0.0
 10
1473.348168670624
 20
1469.486257839984
 30
0.0
 10
1473.2671341061
 20
1469.535803910532
 30
0.0
 10
1473.179195107691
 20
1469.65867399703
 30
0.0
 10
1473.132128865294
 20
1469.776155945171
 30
0.0
 10
1473.116417017245
 20
1469.897225471765
 30
0.0
 10
1473.130077231871
 20
1470.020711968751
 30
0.0
 10
1473.177885182602
 20
1470.149963193451
 30
0.0
 10
1473.244029600734
 20
1470.237754761314
 30
0.0
 10
1473.292716057052
 20
1470.279926313939
 30
0.0
 10
1473.305079681772
 20
1470.290635519126
 30
0.0
  0
SPLINE
  5
1BC
330
1F
100
AcDbEntity
  8
0
  6
Continuous
 62
     7
370
    25
100
AcDbSpline
210
0.0
220
0.0
230
1.0
 70
     8
 71
     3
 72
    32
 73
    28
 74
     0
 42
0.000000001
 43
0.00000001
 40
0.0
 40
0.0
 40
0.0
 40
0.0
 40
0.0454582272348883
 40
0.0912473055380755
 40
0.1379964247665441
 40
0.1850468267077077
 40
0.2317186214404018
 40
0.2786766574025904
 40
0.3266330548076739
 40
0.375017782380589
 40
0.4231946286303561
 40
0.4431300964846429
 40
0.463474919535397
 40
0.4878685176209457
 40
0.5123762960464912
 40
0.528110389232766
 40
0.5442744345973723
 40
0.5755617249755919
 40
0.6075311395418784
 40
0.6453567436459856
 40
0.6834521003987359
 40
0.7610803304711883
 40
0.8038847478701012
 40
0.8469083511381571
 40
0.8906390073062274
 40
0.93462678672806
 40
0.9999999999999999
 40
0.9999999999999999
 40
0.9999999999999999
 40
0.9999999999999999
 10
1471.495720813705
 20
1464.015125305704
 30
0.0
 10
1471.616565878679
 20
1463.993586585631
 30
0.0
 10
1471.859135535199
 20
1463.950352383794
 30
0.0
 10
1472.222221120241
 20
1463.944412727615
 30
0.0
 10
1472.581686359636
 20
1463.979841014629
 30
0.0
 10
1472.932263239898
 20
1464.060122499607
 30
0.0
 10
1473.26955696052
 20
1464.182309800326
 30
0.0
 10
1473.59314601802
 20
1464.346987154268
 30
0.0
 10
1473.903083582162
 20
1464.557485812056
 30
0.0
 10
1474.197157396405
 20
1464.819623593925
 30
0.0
 10
1474.420867831328
 20
1465.082583464084
 30
0.0
 10
1474.583770865875
 20
1465.326126686075
 30
0.0
 10
1474.699144012209
 20
1465.528439936131
 30
0.0
 10
1474.814729017815
 20
1465.77973961051
 30
0.0
 10
1474.899543737012
 20
1466.031764783701
 30
0.0
 10
1474.95088009706
 20
1466.23941804104
 30
0.0
 10
1474.991459658695
 20
1466.459491387631
 30
0.0
 10
1475.016091006766
 20
1466.713745691522
 30
0.0
 10
1475.015425814649
 20
1467.010646767078
 30
0.0
 10
1474.984381106355
 20
1467.306713161816
 30
0.0
 10
1474.89978165544
 20
1467.704411021695
 30
0.0
 10
1474.753848462126
 20
1468.085266387801
 30
0.0
 10
1474.545681482902
 20
1468.446275821564
 30
0.0
 10
1474.348830121774
 20
1468.713296546735
 30
0.0
 10
1474.117646903716
 20
1468.959890444237
 30
0.0
 10
1473.812983269201
 20
1469.222414461366
 30
0.0
 10
1473.554026555003
 20
1469.368007112534
 30
0.0
 10
1473.399228833361
 20
1469.455038687514
 30
0.0
  0
SPLINE
  5
1BD
330
1F
100
AcDbEntity
  8
0
  6
Continuous
 62
     7
370
    25
100
AcDbSpline
210
0.0
220
0.0
230
1.0
 70
     8
 71
     3
 72
    15
 73
    11
 74
     0
 42
0.000000001
 43
0.00000001
 40
0.0
 40
0.0
 40
0.0
 40
0.0
 40
0.2129294053202025
 40
0.333310728317531
 40
0.4345062010027811
 40
0.5362836886506038
 40
0.6256367151020118
 40
0.745636854756672
 40
0.9211927176881697
 40
1.0
 40
1.0
 40
1.0
 40
1.0
 10
1470.901125939969
 20
1463.420530431969
 30
0.0
 10
1470.893652619731
 20
1463.479571504884
 30
0.0
 10
1470.881954198802
 20
1463.571991915229
 30
0.0
 10
1470.921796625189
 20
1463.715471888294
 30
0.0
 10
1470.981233599641
 20
1463.823136422724
 30
0.0
 10
1471.062222003485
 20
1463.910080389304
 30
0.0
 10
1471.163447008117
 20
1463.977609728271
 30
0.0
 10
1471.292038406489
 20
1464.024210076591
 30
0.0
 10
1471.407063025181
 20
1464.030869425929
 30
0.0
 10
1471.474749926761
 20
1464.018849379706
 30
0.0
 10
1471.495720813705
 20
1464.015125305705
 30
0.0
  0
SPLINE
  5
1BE
330
1F
100
AcDbEntity
  8
0
  6
Continuous
 62
     7
370
    25
100
AcDbSpline
210
0.0
220
0.0
230
1.0
 70
     8
 71
     3
 72
    32
 73
    28
 74
     0
 42
0.000000001
 43
0.00000001
 40
0.0
 40
0.0
 40
0.0
 40
0.0
 40
0.0447120024448255
 40
0.0897510683881275
 40
0.1357337494830543
 40
0.1820101047170838
 40
0.2279866507549851
 40
0.2742348602616531
 40
0.3213887139528209
 40
0.368899919749518
 40
0.4236598558301625
 40
0.4510230069928902
 40
0.4792153189811523
 40
0.5037509674809453
 40
0.5283882607504926
 40
0.5445704263132761
 40
0.5611899076196799
 40
0.6013390629672005
 40
0.6426114615938116
 40
0.6855038326376915
 40
0.7287054836939681
 40
0.7727266257639959
 40
0.8169894777562737
 40
0.8620202251363029
 40
0.9073149340905277
 40
0.9534905366767232
 40
1.0
 40
1.0
 40
1.0
 40
1.0
 10
1465.46121255816
 20
1461.517022412313
 30
0.0
 10
1465.519205765308
 20
1461.40998624151
 30
0.0
 10
1465.635616393689
 20
1461.195130941804
 30
0.0
 10
1465.854722819151
 20
1460.910006188419
 30
0.0
 10
1466.102987910796
 20
1460.653240322692
 30
0.0
 10
1466.379783118276
 20
1460.430847448088
 30
0.0
 10
1466.679892244256
 20
1460.244328961746
 30
0.0
 10
1467.002901971903
 20
1460.094299205024
 30
0.0
 10
1467.350077706473
 20
1459.98243673865
 30
0.0
 10
1467.742182912647
 20
1459.909443693929
 30
0.0
 10
1468.111642151974
 20
1459.893516077914
 30
0.0
 10
1468.461515226111
 20
1459.924572097515
 30
0.0
 10
1468.741899787445
 20
1459.976614581426
 30
0.0
 10
1469.03953619752
 20
1460.064936884244
 30
0.0
 10
1469.286962188039
 20
1460.168325920311
 30
0.0
 10
1469.478920878687
 20
1460.267931608005
 30
0.0
 10
1469.69845645421
 20
1460.399506196519
 30
0.0
 10
1469.944726568674
 20
1460.583774007216
 30
0.0
 10
1470.199389949981
 20
1460.828194267233
 30
0.0
 10
1470.416266168836
 20
1461.092455457827
 30
0.0
 10
1470.599046355002
 20
1461.377157356627
 30
0.0
 10
1470.747079617914
 20
1461.679584717476
 30
0.0
 10
1470.860129942813
 20
1462.000152695982
 30
0.0
 10
1470.936129585216
 20
1462.336273930152
 30
0.0
 10
1470.971415565895
 20
1462.687608969874
 30
0.0
 10
1470.966767329395
 20
1463.050495719533
 30
0.0
 10
1470.92305888382
 20
1463.296889682715
 30
0.0
 10
1470.901125939969
 20
1463.420530431969
 30
0.0
  0
SPLINE
  5
1BF
330
1F
100
AcDbEntity
  8
0
  6
Continuous
 62
     7
370
    25
100
AcDbSpline
210
0.0
220
0.0
230
1.0
 70
     8
 71
     3
 72
    15
 73
    11
 74
     0
 42
0.000000001
 43
0.00000001
 40
0.0
 40
0.0
 40
0.0
 40
0.0
 40
0.2155767705931746
 40
0.3329005538675614
 40
0.4328760582229673
 40
0.5332634977247048
 40
0.6250838127944477
 40
0.7535547096887003
 40
0.9421338378891885
 40
1.0
 40
1.0
 40
1.0
 40
1.0
 10
1464.625615726548
 20
1461.611171563902
 30
0.0
 10
1464.668875275488
 20
1461.655352501906
 30
0.0
 10
1464.735678056522
 20
1461.723578121444
 30
0.0
 10
1464.876271579006
 20
1461.780957340241
 30
0.0
 10
1464.996752394158
 20
1461.799672062671
 30
0.0
 10
1465.113680328133
 20
1461.789371355539
 30
0.0
 10
1465.230360504947
 20
1461.751079458189
 30
0.0
 10
1465.350174192433
 20
1461.675190699103
 30
0.0
 10
1465.422897865492
 20
1461.589164058907
 30
0.0
 10
1465.453926850706
 20
1461.530740463945
 30
0.0
 10
1465.46121255816
 20
1461.517022412313
 30
0.0
  0
SPLINE
  5
1C0
330
1F
100
AcDbEntity
  8
0
  6
Continuous
 62
     7
370
    25
100
AcDbSpline
210
0.0
220
0.0
230
1.0
 70
     8
 71
     3
 72
    32
 73
    28
 74
     0
 42
0.000000001
 43
0.00000001
 40
0.0
 40
0.0
 40
0.0
 40
0.0
 40
0.0441441928241911
 40
0.0886104352646741
 40
0.134025694828492
 40
0.1797444149379615
 40
0.2245884288186267
 40
0.2697223103764271
 40
0.3158695723814638
 40
0.3624409759686406
 40
0.3905644447044524
 40
0.4188972546593697
 40
0.4470561788819115
 40
0.47586991089981
 40
0.493844727598692
 40
0.5122867846817729
 40
0.5302841812509208
 40
0.5488497088202811
 40
0.5722278000634952
 40
0.5962533137611086
 40
0.6386203767558918
 40
0.6820050825655971
 40
0.722328613128791
 40
0.7629537503048647
 40
0.8459909377782749
 40
0.9222549213514505
 40
1.0
 40
1.0
 40
1.0
 40
1.0
 10
1470.238801975944
 20
820.3412094130919
 30
0.0
 10
1470.346341226891
 20
820.2954087098029
 30
0.0
 10
1470.56220427081
 20
820.2034731686994
 30
0.0
 10
1470.898820911316
 20
820.1174876314578
 30
0.0
 10
1471.242343919033
 20
820.0690555864136
 30
0.0
 10
1471.58779699342
 20
820.0628355468709
 30
0.0
 10
1471.93072091222
 20
820.0971298414278
 30
0.0
 10
1472.271126190271
 20
820.1724647329634
 30
0.0
 10
1472.610757349423
 20
820.2921987645383
 30
0.0
 10
1472.903436338204
 20
820.4390843893856
 30
0.0
 10
1473.149299115337
 20
820.5977755589322
 30
0.0
 10
1473.349085123142
 20
820.7520771613148
 30
0.0
 10
1473.547849206166
 20
820.9360601598692
 30
0.0
 10
1473.71879177361
 20
821.1280994004103
 30
0.0
 10
1473.860399541583
 20
821.3182333733907
 30
0.0
 10
1473.970795750001
 20
821.4903601294932
 30
0.0
 10
1474.070454485978
 20
821.6733887891712
 30
0.0
 10
1474.162729519527
 20
821.8760987668837
 30
0.0
 10
1474.242497410024
 20
822.0963322169617
 30
0.0
 10
1474.320182455015
 20
822.3846763144214
 30
0.0
 10
1474.37077438722
 20
822.7172132113179
 30
0.0
 10
1474.378711388866
 20
823.0739671077243
 30
0.0
 10
1474.34668079324
 20
823.4073254433604
 30
0.0
 10
1474.259292401972
 20
823.8266361577383
 30
0.0
 10
1474.072583157684
 20
824.3016067733137
 30
0.0
 10
1473.748243995338
 20
824.8122549593486
 30
0.0
 10
1473.453745178219
 20
825.0839888551122
 30
0.0
 10
1473.30507968173
 20
825.2211624265428
 30
0.0
  0
SPLINE
  5
1C1
330
1F
100
AcDbEntity
  8
0
  6
Continuous
 62
     7
370
    25
100
AcDbSpline
210
0.0
220
0.0
230
1.0
 70
     8
 71
     3
 72
    14
 73
    10
 74
     0
 42
0.000000001
 43
0.00000001
 40
0.0
 40
0.0
 40
0.0
 40
0.0
 40
0.2207653484382725
 40
0.3402146168140744
 40
0.4605704991790833
 40
0.5641909618661132
 40
0.6633542991972003
 40
0.8105247403618535
 40
1.0
 40
1.0
 40
1.0
 40
1.0
 10
1469.52680503047
 20
819.8938320808762
 30
0.0
 10
1469.533765537979
 20
819.9583493769843
 30
0.0
 10
1469.54449215976
 20
820.0577749767378
 30
0.0
 10
1469.627203776855
 20
820.1983864845778
 30
0.0
 10
1469.721379283002
 20
820.2916016039982
 30
0.0
 10
1469.8313672539
 20
820.3534569494922
 30
0.0
 10
1469.954410746681
 20
820.3887519479093
 30
0.0
 10
1470.10027110837
 20
820.3926163285989
 30
0.0
 10
1470.188911980914
 20
820.3597229097879
 30
0.0
 10
1470.238801975944
 20
820.3412094130919
 30
0.0
  0
SPLINE
  5
1C2
330
1F
100
AcDbEntity
  8
0
  6
Continuous
 62
     7
370
    25
100
AcDbSpline
210
0.0
220
0.0
230
1.0
 70
     8
 71
     3
 72
    32
 73
    28
 74
     0
 42
0.000000001
 43
0.00000001
 40
0.0
 40
0.0
 40
0.0
 40
0.0
 40
0.0430379910819454
 40
0.08638612634819
 40
0.1306715836239461
 40
0.1752669939041135
 40
0.2185320463381643
 40
0.2621050719942027
 40
0.3067938579277331
 40
0.3519663346176149
 40
0.3854310965017753
 40
0.4193289160972132
 40
0.4528593258451303
 40
0.4875791928901114
 40
0.5106386088136756
 40
0.5343801485774093
 40
0.5574353916329443
 40
0.5810375265201541
 40
0.6176166200902872
 40
0.6551846333990751
 40
0.7177265685357853
 40
0.7819044813319215
 40
0.8252890843115577
 40
0.8689843386192274
 40
0.9136242089591413
 40
0.9585815908891923
 40
1.0
 40
1.0
 40
1.0
 40
1.0
 10
1463.799711252364
 20
819.2485435878134
 30
0.0
 10
1463.829446465072
 20
819.1406641164617
 30
0.0
 10
1463.889131171011
 20
818.9241277631545
 30
0.0
 10
1464.024246168193
 20
818.6176167692398
 30
0.0
 10
1464.191918038831
 20
818.3260015583288
 30
0.0
 10
1464.392609528831
 20
818.0567012942894
 30
0.0
 10
1464.622754146246
 20
817.812136071081
 30
0.0
 10
1464.883193372038
 20
817.5924397412061
 30
0.0
 10
1465.179036820011
 20
817.3977786477142
 30
0.0
 10
1465.484244786645
 20
817.2475682614601
 30
0.0
 10
1465.790786384327
 20
817.1383674333755
 30
0.0
 10
1466.089493220307
 20
817.0654431674419
 30
0.0
 10
1466.417529174593
 20
817.0223642766941
 30
0.0
 10
1466.732685461559
 20
817.0184208455637
 30
0.0
 10
1467.021031882067
 20
817.0455303244038
 30
0.0
 10
1467.266336573995
 20
817.0902502712871
 30
0.0
 10
1467.504202736083
 20
817.1551376492131
 30
0.0
 10
1467.768744460847
 20
817.2515599462974
 30
0.0
 10
1468.050720139678
 20
817.389043533142
 30
0.0
 10
1468.395599532524
 20
817.6111742038869
 30
0.0
 10
1468.740410611323
 20
817.9161494970045
 30
0.0
 10
1469.020405300712
 20
818.2688692556376
 30
0.0
 10
1469.216742391686
 20
818.6054386010981
 30
0.0
 10
1469.351749705115
 20
818.9128424730295
 30
0.0
 10
1469.450487546982
 20
819.2366515970815
 30
0.0
 10
1469.512625146762
 20
819.5649641859127
 30
0.0
 10
1469.522209295891
 20
819.7872452013398
 30
0.0
 10
1469.52680503047
 20
819.8938320808762
 30
0.0
  0
SPLINE
  5
1C3
330
1F
100
AcDbEntity
  8
0
  6
Continuous
 62
     7
370
    25
100
AcDbSpline
210
0.0
220
0.0
230
1.0
 70
     8
 71
     3
 72
    14
 73
    10
 74
     0
 42
0.000000001
 43
0.00000001
 40
0.0
 40
0.0
 40
0.0
 40
0.0
 40
0.2243030424882203
 40
0.3489011866264764
 40
0.4744001356118125
 40
0.582674185706609
 40
0.6867417687946984
 40
0.8381564871697232
 40
1.0
 40
1.0
 40
1.0
 40
1.0
 10
1463.006014735038
 20
819.5262700109871
 30
0.0
 10
1463.062058738259
 20
819.5616020951527
 30
0.0
 10
1463.149234636589
 20
819.6165608061655
 30
0.0
 10
1463.314676383338
 20
819.6380573538114
 30
0.0
 10
1463.449758952381
 20
819.6194289919989
 30
0.0
 10
1463.568799692063
 20
819.5673951315267
 30
0.0
 10
1463.673248839773
 20
819.4875792469871
 30
0.0
 10
1463.758392081509
 20
819.3778202411568
 30
0.0
 10
1463.785635867791
 20
819.2925817079985
 30
0.0
 10
1463.799711252364
 20
819.2485435878134
 30
0.0
  0
SPLINE
  5
1C4
330
1F
100
AcDbEntity
  8
0
  6
Continuous
 62
     7
370
    25
100
AcDbSpline
210
0.0
220
0.0
230
1.0
 70
     8
 71
     3
 72
    31
 73
    27
 74
     0
 42
0.000000001
 43
0.00000001
 40
0.0
 40
0.0
 40
0.0
 40
0.0
 40
0.0425833337774435
 40
0.0854693441808154
 40
0.129285707294792
 40
0.1734170152399125
 40
0.2449145713515225
 40
0.2814363788217599
 40
0.3182277375026507
 40
0.3578646940443378
 40
0.3981600951410938
 40
0.4288325139380251
 40
0.460250546995936
 40
0.4856124894106334
 40
0.5117016966526868
 40
0.5370695264658053
 40
0.5631025307145415
 40
0.5995567496813866
 40
0.6370216898153785
 40
0.6960149548444071
 40
0.7565748829862464
 40
0.7982000521028642
 40
0.8401283317747325
 40
0.8829575785658569
 40
0.9260808780984734
 40
1.0
 40
1.0
 40
1.0
 40
1.0
 10
1458.93072331095
 20
823.6015614350755
 30
0.0
 10
1458.866053202083
 20
823.5127373257216
 30
0.0
 10
1458.736253317889
 20
823.334457757156
 30
0.0
 10
1458.582080565646
 20
823.0423455087694
 30
0.0
 10
1458.458555452094
 20
822.7332170853792
 30
0.0
 10
1458.352951390815
 20
822.340371711739
 30
0.0
 10
1458.308977977923
 20
821.948133565927
 30
0.0
 10
1458.322805035368
 20
821.5629406191429
 30
0.0
 10
1458.365308923547
 20
821.2562798660919
 30
0.0
 10
1458.446844202854
 20
820.9332863377637
 30
0.0
 10
1458.566685427322
 20
820.6220748785493
 30
0.0
 10
1458.717895049324
 20
820.3330372727778
 30
0.0
 10
1458.88002055492
 20
820.0891943073066
 30
0.0
 10
1459.061766518786
 20
819.8678351908071
 30
0.0
 10
1459.250926129169
 20
819.6767663330696
 30
0.0
 10
1459.456724568124
 20
819.504376507042
 30
0.0
 10
1459.699906236673
 20
819.3357706613582
 30
0.0
 10
1459.982425105917
 20
819.1819261529179
 30
0.0
 10
1460.356491630836
 20
819.0327119690871
 30
0.0
 10
1460.790807728913
 20
818.930278175138
 30
0.0
 10
1461.222550022986
 20
818.902987302201
 30
0.0
 10
1461.596618335439
 20
818.9308205656291
 30
0.0
 10
1461.915444691633
 20
818.9903973346618
 30
0.0
 10
1462.226638875566
 20
819.0863033250915
 30
0.0
 10
1462.601708505606
 20
819.2454351425399
 30
0.0
 10
1462.849512221825
 20
819.4175619092806
 30
0.0
 10
1463.006014735038
 20
819.5262700109871
 30
0.0
  0
SPLINE
  5
1C5
330
1F
100
AcDbEntity
  8
0
  6
Continuous
 62
     7
370
    25
100
AcDbSpline
210
0.0
220
0.0
230
1.0
 70
     8
 71
     3
 72
    14
 73
    10
 74
     0
 42
0.000000001
 43
0.00000001
 40
0.0
 40
0.0
 40
0.0
 40
0.0
 40
0.2239799089307739
 40
0.3530600787851373
 40
0.4831615846561721
 40
0.5937368434045233
 40
0.6971871626482103
 40
0.8442013099709618
 40
1.0
 40
1.0
 40
1.0
 40
1.0
 10
1458.652996887776
 20
824.395257952402
 30
0.0
 10
1458.714542301959
 20
824.3739016688058
 30
0.0
 10
1458.811556489008
 20
824.3402377066897
 30
0.0
 10
1458.932304437902
 20
824.2247579909133
 30
0.0
 10
1459.003661850423
 20
824.1045866022575
 30
0.0
 10
1459.036866939254
 20
823.9759482696361
 30
0.0
 10
1459.038000613224
 20
823.8444017017086
 30
0.0
 10
1459.004539197586
 20
823.7117922778626
 30
0.0
 10
1458.955799912288
 20
823.6390088603617
 30
0.0
 10
1458.93072331095
 20
823.6015614350755
 30
0.0
  0
SPLINE
  5
1C6
330
1F
100
AcDbEntity
  8
0
  6
Continuous
 62
     7
370
    25
100
AcDbSpline
210
0.0
220
0.0
230
1.0
 70
     8
 71
     3
 72
    31
 73
    27
 74
     0
 42
0.000000001
 43
0.00000001
 40
0.0
 40
0.0
 40
0.0
 40
0.0
 40
0.043629434182047
 40
0.0875684828963735
 40
0.1324599668092009
 40
0.1776747310168348
 40
0.2471514348504905
 40
0.3182082976799167
 40
0.3543483336054287
 40
0.3910257028896815
 40
0.4195224726611934
 40
0.4487066439893332
 40
0.4718199668842232
 40
0.4955955638905915
 40
0.5187147629621445
 40
0.5424374424096444
 40
0.5764102163909673
 40
0.6113145862253248
 40
0.6689134789511195
 40
0.728005830562297
 40
0.7704933098102804
 40
0.8132907126999097
 40
0.8570043278233468
 40
0.9010157064162406
 40
0.9502816013671008
 40
0.9999999999999999
 40
0.9999999999999999
 40
0.9999999999999999
 40
0.9999999999999999
 10
1459.298285380839
 20
830.1223517305075
 30
0.0
 10
1459.186032219933
 20
830.1173378250061
 30
0.0
 10
1458.960729298059
 20
830.107274433024
 30
0.0
 10
1458.629198874903
 20
830.0429783753186
 30
0.0
 10
1458.303907831488
 20
829.9425812360967
 30
0.0
 10
1457.93232274722
 20
829.7768155821565
 30
0.0
 10
1457.526369422557
 20
829.5169784673216
 30
0.0
 10
1457.178200139557
 20
829.1867672272006
 30
0.0
 10
1456.925899566316
 20
828.8579883928912
 30
0.0
 10
1456.766096310298
 20
828.593598853834
 30
0.0
 10
1456.636971456775
 20
828.3174073701799
 30
0.0
 10
1456.545555475891
 20
828.0576828569752
 30
0.0
 10
1456.480803240697
 20
827.7973960693457
 30
0.0
 10
1456.441601344675
 20
827.550304084305
 30
0.0
 10
1456.423975025528
 20
827.3012423594987
 30
0.0
 10
1456.427858708001
 20
827.02388395635
 30
0.0
 10
1456.462677114105
 20
826.7231028563692
 30
0.0
 10
1456.550249477282
 20
826.3453168436329
 30
0.0
 10
1456.707569551516
 20
825.9413623790251
 30
0.0
 10
1456.926253094804
 20
825.5734938158994
 30
0.0
 10
1457.160398731373
 20
825.2796461352988
 30
0.0
 10
1457.39427883689
 20
825.0461686856424
 30
0.0
 10
1457.654153992014
 20
824.8396135995819
 30
0.0
 10
1457.950107800548
 20
824.6563906413968
 30
0.0
 10
1458.280983416884
 20
824.4998708213186
 30
0.0
 10
1458.528615050656
 20
824.4302350213534
 30
0.0
 10
1458.652996887776
 20
824.395257952402
 30
0.0
  0
SPLINE
  5
1C7
330
1F
100
AcDbEntity
  8
0
  6
Continuous
 62
     7
370
    25
100
AcDbSpline
210
0.0
220
0.0
230
1.0
 70
     8
 71
     3
 72
    14
 73
    10
 74
     0
 42
0.000000001
 43
0.00000001
 40
0.0
 40
0.0
 40
0.0
 40
0.0
 40
0.2200911109485734
 40
0.350119959209293
 40
0.459067618397459
 40
0.568535114566234
 40
0.6668402217393353
 40
0.7968948941937638
 40
1.0
 40
1.0
 40
1.0
 40
1.0
 10
1459.745662713055
 20
830.8343486759812
 30
0.0
 10
1459.76670911147
 20
830.7756229305485
 30
0.0
 10
1459.800189628348
 20
830.6822022762254
 30
0.0
 10
1459.788929343866
 20
830.5263146590473
 30
0.0
 10
1459.748194776787
 20
830.403170029496
 30
0.0
 10
1459.680284655497
 20
830.2985661186442
 30
0.0
 10
1459.586786318567
 20
830.2115193227821
 30
0.0
 10
1459.454080082398
 20
830.1380308818912
 30
0.0
 10
1459.35729110783
 20
830.1282900565013
 30
0.0
 10
1459.298285380839
 20
830.1223517305075
 30
0.0
  0
SPLINE
  5
1C8
330
1F
100
AcDbEntity
  8
0
  6
Continuous
 62
     7
370
    25
100
AcDbSpline
210
0.0
220
0.0
230
1.0
 70
     8
 71
     3
 72
    32
 73
    28
 74
     0
 42
0.000000001
 43
0.00000001
 40
0.0
 40
0.0
 40
0.0
 40
0.0
 40
0.0453942490664834
 40
0.0911149500211704
 40
0.1378156604218481
 40
0.1848384153738257
 40
0.2588911921182406
 40
0.2966281930595886
 40
0.3346227841547545
 40
0.3627380257352219
 40
0.3910884026637808
 40
0.4192466010957555
 40
0.4481819119438935
 40
0.4658254771020932
 40
0.4839564361058739
 40
0.5016138628025675
 40
0.5197789833318713
 40
0.5448703289759794
 40
0.5706414417831439
 40
0.6177923775614165
 40
0.6660664783496366
 40
0.7088271620555727
 40
0.7519045224538928
 40
0.7958661863085249
 40
0.8400991772633677
 40
0.9191874857499408
 40
1.0
 40
1.0
 40
1.0
 40
1.0
 10
1464.625615726506
 20
833.9006263817671
 30
0.0
 10
1464.547581936617
 20
833.989642414848
 30
0.0
 10
1464.390953178308
 20
834.1683146381374
 30
0.0
 10
1464.119835755813
 20
834.395044039911
 30
0.0
 10
1463.824160615431
 20
834.5905384627242
 30
0.0
 10
1463.442306104498
 20
834.7793584428108
 30
0.0
 10
1463.052274757915
 20
834.9010138218367
 30
0.0
 10
1462.660304693421
 20
834.9606144244451
 30
0.0
 10
1462.375614679281
 20
834.9737692161614
 30
0.0
 10
1462.104631878428
 20
834.9601990918156
 30
0.0
 10
1461.850815148718
 20
834.9255750314518
 30
0.0
 10
1461.581617340601
 20
834.8636213562245
 30
0.0
 10
1461.333641322728
 20
834.7800360283596
 30
0.0
 10
1461.115031424487
 20
834.6840826164781
 30
0.0
 10
1460.936079847545
 20
834.5902229269229
 30
0.0
 10
1460.762909073522
 20
834.4832133345633
 30
0.0
 10
1460.581260920928
 20
834.3527534695492
 30
0.0
 10
1460.397730367319
 20
834.196905073753
 30
0.0
 10
1460.173978003573
 20
833.9699208765512
 30
0.0
 10
1459.952570732373
 20
833.6833764433693
 30
0.0
 10
1459.763175227851
 20
833.3512484249123
 30
0.0
 10
1459.627261393526
 20
833.0232214497023
 30
0.0
 10
1459.535506894464
 20
832.7009292813686
 30
0.0
 10
1459.481083123482
 20
832.3707897680443
 30
0.0
 10
1459.462016626656
 20
831.9471090306145
 30
0.0
 10
1459.513943540922
 20
831.4257879398308
 30
0.0
 10
1459.667869728527
 20
831.032907237531
 30
0.0
 10
1459.745662713055
 20
830.8343486759812
 30
0.0
  0
SPLINE
  5
1C9
330
1F
100
AcDbEntity
  8
0
  6
Continuous
 62
     7
370
    25
100
AcDbSpline
210
0.0
220
0.0
230
1.0
 70
     8
 71
     3
 72
    15
 73
    11
 74
     0
 42
0.000000001
 43
0.00000001
 40
0.0
 40
0.0
 40
0.0
 40
0.0
 40
0.2150763736128896
 40
0.3413349926977488
 40
0.4465934903529565
 40
0.5524796219273405
 40
0.6449070621726942
 40
0.7662146539024304
 40
0.9406316560517393
 40
1.0
 40
1.0
 40
1.0
 40
1.0
 10
1465.461212558118
 20
833.994775533356
 30
0.0
 10
1465.429993405648
 20
833.9437153706189
 30
0.0
 10
1465.380447335101
 20
833.8626808060953
 30
0.0
 10
1465.257577248603
 20
833.7747418076859
 30
0.0
 10
1465.140095300461
 20
833.7276755652892
 30
0.0
 10
1465.019025773867
 20
833.7119637172394
 30
0.0
 10
1464.895539276881
 20
833.7256239318656
 30
0.0
 10
1464.766288052182
 20
833.7734318825975
 30
0.0
 10
1464.678496484318
 20
833.8395763007289
 30
0.0
 10
1464.636324931693
 20
833.8882627570467
 30
0.0
 10
1464.625615726506
 20
833.900626381767
 30
0.0
  0
SPLINE
  5
1CA
330
1F
100
AcDbEntity
  8
0
  6
Continuous
 62
     7
370
    25
100
AcDbSpline
210
0.0
220
0.0
230
1.0
 70
     8
 71
     3
 72
    32
 73
    28
 74
     0
 42
0.000000001
 43
0.00000001
 40
0.0
 40
0.0
 40
0.0
 40
0.0
 40
0.0454582272348883
 40
0.0912473055380727
 40
0.1379964247665443
 40
0.1850468267077058
 40
0.2317186214404017
 40
0.2786766574025903
 40
0.3266330548076732
 40
0.3750177823805885
 40
0.4231946286303583
 40
0.4431300964846451
 40
0.4634749195353973
 40
0.4878685176209479
 40
0.5123762960464934
 40
0.5281103892327682
 40
0.5442744345973746
 40
0.5755617249755905
 40
0.6075311395418804
 40
0.6453567436459877
 40
0.683452100398738
 40
0.7610803304711904
 40
0.803884747870101
 40
0.846908351138157
 40
0.8906390073062274
 40
0.93462678672806
 40
1.0
 40
1.0
 40
1.0
 40
1.0
 10
1470.901125939928
 20
832.0912675137001
 30
0.0
 10
1470.922664660001
 20
832.2121125786737
 30
0.0
 10
1470.965898861838
 20
832.4546822351946
 30
0.0
 10
1470.971838518018
 20
832.8177678202362
 30
0.0
 10
1470.936410231003
 20
833.1772330596309
 30
0.0
 10
1470.856128746025
 20
833.5278099398932
 30
0.0
 10
1470.733941445307
 20
833.8651036605148
 30
0.0
 10
1470.569264091364
 20
834.1886927180147
 30
0.0
 10
1470.358765433576
 20
834.4986302821565
 30
0.0
 10
1470.096627651707
 20
834.7927040964006
 30
0.0
 10
1469.833667781548
 20
835.0164145313227
 30
0.0
 10
1469.590124559557
 20
835.1793175658697
 30
0.0
 10
1469.387811309501
 20
835.2946907122036
 30
0.0
 10
1469.136511635123
 20
835.4102757178099
 30
0.0
 10
1468.884486461932
 20
835.495090437007
 30
0.0
 10
1468.676833204592
 20
835.5464267970546
 30
0.0
 10
1468.456759858002
 20
835.5870063586896
 30
0.0
 10
1468.20250555411
 20
835.6116377067607
 30
0.0
 10
1467.905604478555
 20
835.610972514644
 30
0.0
 10
1467.609538083816
 20
835.5799278063497
 30
0.0
 10
1467.211840223937
 20
835.4953283554349
 30
0.0
 10
1466.830984857831
 20
835.3493951621216
 30
0.0
 10
1466.469975424068
 20
835.1412281828971
 30
0.0
 10
1466.202954698897
 20
834.9443768217685
 30
0.0
 10
1465.956360801396
 20
834.7131936037106
 30
0.0
 10
1465.693836784266
 20
834.4085299691959
 30
0.0
 10
1465.548244133098
 20
834.1495732549979
 30
0.0
 10
1465.461212558118
 20
833.994775533356
 30
0.0
  0
SPLINE
  5
1CB
330
1F
100
AcDbEntity
  8
0
  6
Continuous
 62
     7
370
    25
100
AcDbSpline
210
0.0
220
0.0
230
1.0
 70
     8
 71
     3
 72
    15
 73
    11
 74
     0
 42
0.000000001
 43
0.00000001
 40
0.0
 40
0.0
 40
0.0
 40
0.0
 40
0.2129294053201994
 40
0.3333107283175267
 40
0.4345062010027539
 40
0.5362836886506075
 40
0.6256367151019768
 40
0.7456368547566746
 40
0.9211927176881706
 40
1.0
 40
1.0
 40
1.0
 40
1.0
 10
1471.495720813663
 20
831.4966726399646
 30
0.0
 10
1471.436679740748
 20
831.4891993197261
 30
0.0
 10
1471.344259330404
 20
831.4775008987972
 30
0.0
 10
1471.200779357339
 20
831.5173433251839
 30
0.0
 10
1471.093114822909
 20
831.5767802996353
 30
0.0
 10
1471.006170856328
 20
831.6577687034799
 30
0.0
 10
1470.938641517361
 20
831.7589937081119
 30
0.0
 10
1470.892041169041
 20
831.8875851064838
 30
0.0
 10
1470.885381819703
 20
832.0026097251763
 30
0.0
 10
1470.897401865926
 20
832.0702966267561
 30
0.0
 10
1470.901125939928
 20
832.0912675137001
 30
0.0
  0
SPLINE
  5
1CC
330
1F
100
AcDbEntity
  8
0
  6
Continuous
 62
     7
370
    25
100
AcDbSpline
210
0.0
220
0.0
230
1.0
 70
     8
 71
     3
 72
    32
 73
    28
 74
     0
 42
0.000000001
 43
0.00000001
 40
0.0
 40
0.0
 40
0.0
 40
0.0
 40
0.0447120024448255
 40
0.0897510683881274
 40
0.1357337494830521
 40
0.1820101047170815
 40
0.2279866507549853
 40
0.2742348602616494
 40
0.3213887139528181
 40
0.3688999197495151
 40
0.4236598558301629
 40
0.4510230069928905
 40
0.4792153189811525
 40
0.5037509674809456
 40
0.5283882607504928
 40
0.5445704263132763
 40
0.5611899076196801
 40
0.6013390629672007
 40
0.6426114615938116
 40
0.6855038326376895
 40
0.7287054836939677
 40
0.7727266257639928
 40
0.8169894777562734
 40
0.8620202251363025
 40
0.9073149340905271
 40
0.9534905366767229
 40
1.0
 40
1.0
 40
1.0
 40
1.0
 10
1473.39922883332
 20
826.056759258155
 30
0.0
 10
1473.506265004122
 20
826.1147524653029
 30
0.0
 10
1473.721120303828
 20
826.2311630936838
 30
0.0
 10
1474.006245057213
 20
826.4502695191466
 30
0.0
 10
1474.26301092294
 20
826.698534610791
 30
0.0
 10
1474.485403797544
 20
826.9753298182713
 30
0.0
 10
1474.671922283887
 20
827.2754389442507
 30
0.0
 10
1474.821952040608
 20
827.5984486718978
 30
0.0
 10
1474.933814506983
 20
827.9456244064684
 30
0.0
 10
1475.006807551703
 20
828.3377296126421
 30
0.0
 10
1475.022735167719
 20
828.7071888519691
 30
0.0
 10
1474.991679148117
 20
829.0570619261063
 30
0.0
 10
1474.939636664206
 20
829.33744648744
 30
0.0
 10
1474.851314361388
 20
829.6350828975153
 30
0.0
 10
1474.747925325321
 20
829.8825088880346
 30
0.0
 10
1474.648319637628
 20
830.074467578682
 30
0.0
 10
1474.516745049113
 20
830.2940031542055
 30
0.0
 10
1474.332477238416
 20
830.5402732686687
 30
0.0
 10
1474.088056978399
 20
830.7949366499766
 30
0.0
 10
1473.823795787805
 20
831.0118128688312
 30
0.0
 10
1473.539093889005
 20
831.1945930549964
 30
0.0
 10
1473.236666528157
 20
831.342626317909
 30
0.0
 10
1472.91609854965
 20
831.455676642808
 30
0.0
 10
1472.57997731548
 20
831.531676285211
 30
0.0
 10
1472.228642275758
 20
831.5669622658901
 30
0.0
 10
1471.865755526099
 20
831.5623140293903
 30
0.0
 10
1471.619361562917
 20
831.5186055838152
 30
0.0
 10
1471.495720813663
 20
831.4966726399646
 30
0.0
  0
SPLINE
  5
1CD
330
1F
100
AcDbEntity
  8
0
  6
Continuous
 62
     7
370
    25
100
AcDbSpline
210
0.0
220
0.0
230
1.0
 70
     8
 71
     3
 72
    15
 73
    11
 74
     0
 42
0.000000001
 43
0.00000001
 40
0.0
 40
0.0
 40
0.0
 40
0.0
 40
0.2155767705931963
 40
0.3329005538675954
 40
0.4328760582229921
 40
0.5332634977246801
 40
0.6250838127944638
 40
0.7535547096886562
 40
0.94213383788919
 40
1.0
 40
1.0
 40
1.0
 40
1.0
 10
1473.30507968173
 20
825.2211624265428
 30
0.0
 10
1473.260898743727
 20
825.2644219754826
 30
0.0
 10
1473.192673124188
 20
825.3312247565175
 30
0.0
 10
1473.135293905391
 20
825.4718182790006
 30
0.0
 10
1473.116579182961
 20
825.5922990941534
 30
0.0
 10
1473.126879890093
 20
825.7092270281275
 30
0.0
 10
1473.165171787443
 20
825.8259072049422
 30
0.0
 10
1473.241060546529
 20
825.9457208924276
 30
0.0
 10
1473.327087186725
 20
826.0184445654872
 30
0.0
 10
1473.385510781687
 20
826.0494735507014
 30
0.0
 10
1473.39922883332
 20
826.056759258155
 30
0.0
  0
ARC
  5
1CE
330
1F
100
AcDbEntity
  8
0
  6
Continuous
 62
     7
370
    25
100
AcDbCircle
 10
1465.8847846314
 20
1469.0314666142
 30
0.0
 40
9.500000000000242
100
AcDbArc
 50
34.2310404734
 51
45.0
  0
ARC
  5
1CF
330
1F
100
AcDbEntity
  8
0
  6
Continuous
 62
     7
370
    25
100
AcDbCircle
 10
1465.8847846314
 20
1469.0314666142
 30
0.0
 40
9.500000000000176
100
AcDbArc
 50
7.136353638
 51
29.3636346972
  0
ARC
  5
1D0
330
1F
100
AcDbEntity
  8
0
  6
Continuous
 62
     7
370
    25
100
AcDbCircle
 10
1465.8847846314
 20
1469.0314666142
 30
0.0
 40
9.500000000000115
100
AcDbArc
 50
240.5747119338
 51
262.8636463614
  0
ARC
  5
1D1
330
1F
100
AcDbEntity
  8
0
  6
Continuous
 62
     7
370
    25
100
AcDbCircle
 10
1465.8847846314
 20
1469.0314666142
 30
0.0
 40
9.500000000000028
100
AcDbArc
 50
189.0156133075
 51
235.2672544791
  0
ARC
  5
1D2
330
1F
100
AcDbEntity
  8
0
  6
Continuous
 62
     7
370
    25
100
AcDbCircle
 10
1465.8847846314
 20
1469.0314666142
 30
0.0
 40
9.500000000000089
100
AcDbArc
 50
135.6953508025
 51
184.2541595669
  0
ARC
  5
1D3
330
1F
100
AcDbEntity
  8
0
  6
Continuous
 62
     7
370
    25
100
AcDbCircle
 10
1465.8847846314
 20
1469.0314666142
 30
0.0
 40
9.500000000000073
100
AcDbArc
 50
86.4260505265
 51
132.128467789
  0
ARC
  5
1D4
330
1F
100
AcDbEntity
  8
0
  6
Continuous
 62
     7
370
    25
100
AcDbCircle
 10
1465.8847846314
 20
1469.0314666142
 30
0.0
 40
9.50000000000033
100
AcDbArc
 50
45.0
 51
81.5414958834
  0
ARC
  5
1D5
330
1F
100
AcDbEntity
  8
0
  6
Continuous
 62
     7
370
    25
100
AcDbCircle
 10
2108.4359199142
 20
826.4803313314
 30
0.0
 40
9.500000000000478
100
AcDbArc
 50
214.2310404734
 51
225.0
  0
ARC
  5
1D6
330
1F
100
AcDbEntity
  8
0
  6
Continuous
 62
     7
370
    25
100
AcDbCircle
 10
2108.4359199142
 20
826.4803313314
 30
0.0
 40
9.500000000000478
100
AcDbArc
 50
187.136353638
 51
209.3636346972
  0
ARC
  5
1D7
330
1F
100
AcDbEntity
  8
0
  6
Continuous
 62
     7
370
    25
100
AcDbCircle
 10
2108.4359199142
 20
826.4803313314
 30
0.0
 40
9.499999999999904
100
AcDbArc
 50
60.5747119335
 51
82.8636463614
  0
ARC
  5
1D8
330
1F
100
AcDbEntity
  8
0
  6
Continuous
 62
     7
370
    25
100
AcDbCircle
 10
2108.4359199142
 20
826.4803313314
 30
0.0
 40
9.50000000000005
100
AcDbArc
 50
9.0156133075
 51
55.2672544793
  0
ARC
  5
1D9
330
1F
100
AcDbEntity
  8
0
  6
Continuous
 62
     7
370
    25
100
AcDbCircle
 10
2108.4359199142
 20
826.4803313314
 30
0.0
 40
9.500000000000103
100
AcDbArc
 50
315.6953508027
 51
4.2541595668
  0
ARC
  5
1DA
330
1F
100
AcDbEntity
  8
0
  6
Continuous
 62
     7
370
    25
100
AcDbCircle
 10
2108.4359199142
 20
826.4803313314
 30
0.0
 40
9.500000000000309
100
AcDbArc
 50
266.4260505267
 51
312.1284677888
  0
ARC
  5
1DB
330
1F
100
AcDbEntity
  8
0
  6
Continuous
 62
     7
370
    25
100
AcDbCircle
 10
2108.4359199142
 20
826.4803313314
 30
0.0
 40
9.500000000000478
100
AcDbArc
 50
225.0
 51
261.5414958833
  0
ARC
  5
1DC
330
1F
100
AcDbEntity
  8
0
  6
Continuous
 62
     7
370
    25
100
AcDbCircle
 10
2108.4359199142
 20
1469.0314666142
 30
0.0
 40
9.500000000000156
100
AcDbArc
 50
304.2310404734
 51
315.0
  0
ARC
  5
1DD
330
1F
100
AcDbEntity
  8
0
  6
Continuous
 62
     7
370
    25
100
AcDbCircle
 10
2108.4359199142
 20
1469.0314666142
 30
0.0
 40
9.500000000000279
100
AcDbArc
 50
277.136353638
 51
299.3636346972
  0
ARC
  5
1DE
330
1F
100
AcDbEntity
  8
0
  6
Continuous
 62
     7
370
    25
100
AcDbCircle
 10
2108.4359199142
 20
1469.0314666142
 30
0.0
 40
9.500000000000313
100
AcDbArc
 50
150.5747119336
 51
172.8636463614
  0
ARC
  5
1DF
330
1F
100
AcDbEntity
  8
0
  6
Continuous
 62
     7
370
    25
100
AcDbCircle
 10
2108.4359199142
 20
1469.0314666142
 30
0.0
 40
9.500000000000261
100
AcDbArc
 50
99.0156133075
 51
145.2672544792
  0
ARC
  5
1E0
330
1F
100
AcDbEntity
  8
0
  6
Continuous
 62
     7
370
    25
100
AcDbCircle
 10
2108.4359199142
 20
1469.0314666142
 30
0.0
 40
9.499999999999796
100
AcDbArc
 50
45.6953508025
 51
94.2541595669
  0
ARC
  5
1E1
330
1F
100
AcDbEntity
  8
0
  6
Continuous
 62
     7
370
    25
100
AcDbCircle
 10
2108.4359199142
 20
1469.0314666142
 30
0.0
 40
9.49999999999989
100
AcDbArc
 50
356.4260505266
 51
42.1284677889
  0
ARC
  5
1E2
330
1F
100
AcDbEntity
  8
0
  6
Continuous
 62
     7
370
    25
100
AcDbCircle
 10
2108.4359199142
 20
1469.0314666142
 30
0.0
 40
9.500000000000156
100
AcDbArc
 50
315.0
 51
351.5414958834
  0
ARC
  5
1E3
330
1F
100
AcDbEntity
  8
0
  6
Continuous
 62
     7
370
    25
100
AcDbCircle
 10
1465.8847846314
 20
826.4803313314
 30
0.0
 40
9.500000000000158
100
AcDbArc
 50
124.2310404734
 51
135.0
  0
ARC
  5
1E4
330
1F
100
AcDbEntity
  8
0
  6
Continuous
 62
     7
370
    25
100
AcDbCircle
 10
1465.8847846314
 20
826.4803313314
 30
0.0
 40
9.500000000000103
100
AcDbArc
 50
97.1363536379
 51
119.3636346973
  0
ARC
  5
1E5
330
1F
100
AcDbEntity
  8
0
  6
Continuous
 62
     7
370
    25
100
AcDbCircle
 10
1465.8847846314
 20
826.4803313314
 30
0.0
 40
9.50000000000011
100
AcDbArc
 50
330.5747119338
 51
352.8636463614
  0
ARC
  5
1E6
330
1F
100
AcDbEntity
  8
0
  6
Continuous
 62
     7
370
    25
100
AcDbCircle
 10
1465.8847846314
 20
826.4803313314
 30
0.0
 40
9.500000000000009
100
AcDbArc
 50
279.0156133076
 51
325.2672544791
  0
ARC
  5
1E7
330
1F
100
AcDbEntity
  8
0
  6
Continuous
 62
     7
370
    25
100
AcDbCircle
 10
1465.8847846314
 20
826.4803313314
 30
0.0
 40
9.500000000000089
100
AcDbArc
 50
225.6953508027
 51
274.2541595668
  0
ARC
  5
1E8
330
1F
100
AcDbEntity
  8
0
  6
Continuous
 62
     7
370
    25
100
AcDbCircle
 10
1465.8847846314
 20
826.4803313314
 30
0.0
 40
9.500000000000151
100
AcDbArc
 50
176.4260505266
 51
222.1284677889
  0
ARC
  5
1E9
330
1F
100
AcDbEntity
  8
0
  6
Continuous
 62
     7
370
    25
100
AcDbCircle
 10
1465.8847846314
 20
826.4803313314
 30
0.0
 40
9.500000000000156
100
AcDbArc
 50
135.0
 51
171.5414958834
  0
CIRCLE
  5
1EA
330
1F
100
AcDbEntity
  8
0
  6
Continuous
 62
     7
370
    25
100
AcDbCircle
 10
1787.1603522728
 20
1147.7558989728
 30
0.0
 40
445.0
  0
LINE
  5
1EB
330
1F
100
AcDbEntity
  8
0
  6
Continuous
 62
     8
370
    18
100
AcDbLine
 10
1475.0021149041
 20
828.5265937922
 30
0.0
 11
1476.0532317277
 21
829.5777106158
 31
0.0
  0
LINE
  5
1EC
330
1F
100
AcDbEntity
  8
0
  6
Continuous
 62
     8
370
    18
100
AcDbLine
 10
2105.3385406298
 20
1458.8630195179
 30
0.0
 11
2106.3783555037
 21
1459.9028343918
 31
0.0
  0
LINE
  5
1ED
330
1F
100
AcDbEntity
  8
0
  6
Continuous
 62
     8
370
    18
100
AcDbLine
 10
1467.9402602814
 20
835.6068747933
 30
0.0
 11
1468.9821639158
 21
836.6487784277
 31
0.0
  0
LINE
  5
1EE
330
1F
100
AcDbEntity
  8
0
  6
Continuous
 62
     8
370
    18
100
AcDbLine
 10
2098.2674728179
 20
1465.9340873298
 30
0.0
 11
2099.3074101271
 21
1466.9740246389
 31
0.0
  0
LINE
  5
1EF
330
1F
100
AcDbEntity
  8
0
  6
Continuous
 62
     8
370
    18
100
AcDbLine
 10
2108.3691859928
 20
1460.8137164665
 30
0.0
 11
2109.3529006475
 21
1461.7974311212
 31
0.0
  0
LINE
  5
1F0
330
1F
100
AcDbEntity
  8
0
  6
Continuous
 62
     8
370
    18
100
AcDbLine
 10
2101.2017208057
 20
1469.9481913866
 30
0.0
 11
2100.1541475209
 21
1468.9006181018
 31
0.0
  0
LINE
  5
1F1
330
1F
100
AcDbEntity
  8
0
  6
Continuous
 62
     8
370
    18
100
AcDbLine
 10
1464.968059859
 20
1461.7972675057
 30
0.0
 11
1466.0156331439
 21
1460.7496942208
 31
0.0
  0
LINE
  5
1F2
330
1F
100
AcDbEntity
  8
0
  6
Continuous
 62
     8
370
    18
100
AcDbLine
 10
2099.3093764524
 20
828.5358069814
 30
0.0
 11
2098.2674728179
 21
829.5777106158
 31
0.0
  0
LINE
  5
1F3
330
1F
100
AcDbEntity
  8
0
  6
Continuous
 62
     8
370
    18
100
AcDbLine
 10
1468.9821639158
 20
1458.8630195179
 30
0.0
 11
1467.9422266067
 21
1459.9029568271
 31
0.0
  0
LINE
  5
1F4
330
1F
100
AcDbEntity
  8
0
  6
Continuous
 62
     8
370
    18
100
AcDbLine
 10
2106.3896574534
 20
835.5976616041
 30
0.0
 11
2105.3385406298
 21
836.6487784277
 31
0.0
  0
LINE
  5
1F5
330
1F
100
AcDbEntity
  8
0
  6
Continuous
 62
     8
370
    18
100
AcDbLine
 10
1476.0532317277
 20
1465.9340873298
 30
0.0
 11
1475.0134168538
 21
1466.9739022037
 31
0.0
  0
LINE
  5
1F6
330
1F
100
AcDbEntity
  8
0
  6
Continuous
 62
     8
370
    18
100
AcDbLine
 10
1474.1025347792
 20
1468.9647326928
 30
0.0
 11
1473.1188201245
 21
1469.9484473475
 31
0.0
  0
LINE
  5
1F7
330
1F
100
AcDbEntity
  8
0
  6
Continuous
 62
     7
370
    25
100
AcDbLine
 10
294.4252577383
 20
468.3470134197
 30
0.0
 11
306.8850755505
 21
470.3310391581
 31
0.0
  0
LINE
  5
1F8
330
1F
100
AcDbEntity
  8
0
  6
Continuous
 62
     7
370
    25
100
AcDbLine
 10
562.6384344639
 20
407.8213652928
 30
0.0
 11
570.7238149306
 21
394.352111899
 31
0.0
  0
ARC
  5
1F9
330
1F
100
AcDbEntity
  8
0
  6
Continuous
 62
     7
370
    25
100
AcDbCircle
 10
575.5126701072
 20
409.2342645099
 30
0.0
 40
4.999999999999988
100
AcDbArc
 50
32.8885090747
 51
99.0474747534
  0
ARC
  5
1FA
330
1F
100
AcDbEntity
  8
0
  6
Continuous
 62
     7
370
    25
100
AcDbCircle
 10
575.5126701072
 20
409.2342645099
 30
0.0
 40
4.999999999999973
100
AcDbArc
 50
99.0474747534
 51
134.9334006072
  0
LINE
  5
1FB
330
1F
100
AcDbEntity
  8
0
  6
Continuous
 62
     7
370
    25
100
AcDbLine
 10
577.8904483976
 20
257.687448616
 30
0.0
 11
577.8904483976
 21
410.452484921
 31
0.0
  0
LINE
  5
1FC
330
1F
100
AcDbEntity
  8
0
  6
Continuous
 62
     7
370
    25
100
AcDbLine
 10
572.1564494507
 20
410.1994435236
 30
0.0
 11
572.1564494507
 21
257.9062020669
 31
0.0
  0
LINE
  5
1FD
330
1F
100
AcDbEntity
  8
0
  6
Continuous
 62
     7
370
    25
100
AcDbLine
 10
579.9872215248
 20
258.6907696554
 30
0.0
 11
579.9872215248
 21
410.3860122943
 31
0.0
  0
LINE
  5
1FE
330
1F
100
AcDbEntity
  8
0
  6
Continuous
 62
     7
370
    25
100
AcDbLine
 10
570.7238149306
 20
410.4181248996
 30
0.0
 11
570.7238149306
 21
259.1823041978
 31
0.0
  0
LINE
  5
1FF
330
1F
100
AcDbEntity
  8
0
  6
Continuous
 62
     7
370
    25
100
AcDbLine
 10
579.7714896706
 20
411.3143787099
 30
0.0
 11
579.7714896706
 21
411.7925335396
 31
0.0
  0
ARC
  5
200
330
1F
100
AcDbEntity
  8
0
  6
Continuous
 62
     7
370
    25
100
AcDbCircle
 10
725.5582827627
 20
555.6833823225
 30
0.0
 40
5.000000000000012
100
AcDbArc
 50
27.8999112609
 51
99.0474747534
  0
ARC
  5
201
330
1F
100
AcDbEntity
  8
0
  6
Continuous
 62
     7
370
    25
100
AcDbCircle
 10
725.5582827627
 20
555.6833823225
 30
0.0
 40
5.000000000000036
100
AcDbArc
 50
132.6843852823
 51
161.3733929476
  0
ARC
  5
202
330
1F
100
AcDbEntity
  8
0
  6
Continuous
 62
     7
370
    25
100
AcDbCircle
 10
725.5582827627
 20
555.6833823225
 30
0.0
 40
5.00000000000008
100
AcDbArc
 50
99.0474747534
 51
129.4727542851
  0
LINE
  5
203
330
1F
100
AcDbEntity
  8
0
  6
Continuous
 62
     7
370
    25
100
AcDbLine
 10
721.5341566568
 20
556.1173443899
 30
0.0
 11
721.5341566568
 21
556.0749411009
 31
0.0
  0
LINE
  5
204
330
1F
100
AcDbEntity
  8
0
  6
Continuous
 62
     7
370
    25
100
AcDbLine
 10
721.5341566568
 20
486.121909226
 30
0.0
 11
721.5341566568
 21
404.4980507311
 31
0.0
  0
LINE
  5
205
330
1F
100
AcDbEntity
  8
0
  6
Continuous
 62
     7
370
    25
100
AcDbLine
 10
729.5803655842
 20
404.6982642472
 30
0.0
 11
729.5803655842
 21
506.6715304924
 31
0.0
  0
LINE
  5
206
330
1F
100
AcDbEntity
  8
0
  6
Continuous
 62
     7
370
    25
100
AcDbLine
 10
729.5803655842
 20
535.5253198345
 30
0.0
 11
729.5803655842
 21
556.6581867475
 31
0.0
  0
LINE
  5
207
330
1F
100
AcDbEntity
  8
0
  6
Continuous
 62
     7
370
    25
100
AcDbLine
 10
720.6887780633
 20
484.6996673071
 30
0.0
 11
720.6887780633
 21
405.9063479086
 31
0.0
  0
LINE
  5
208
330
1F
100
AcDbEntity
  8
0
  6
Continuous
 62
     7
370
    25
100
AcDbLine
 10
730.0050981653
 20
406.1560100795
 30
0.0
 11
730.0050981653
 21
508.9056027125
 31
0.0
  0
LINE
  5
209
330
1F
100
AcDbEntity
  8
0
  6
Continuous
 62
     7
370
    25
100
AcDbLine
 10
730.0050981653
 20
533.2912476144
 30
0.0
 11
730.0050981653
 21
557.9538838847
 31
0.0
  0
ARC
  5
20A
330
1F
100
AcDbEntity
  8
0
  6
Continuous
 62
     7
370
    25
100
AcDbCircle
 10
441.2120859534
 20
632.9625858133
 30
0.0
 40
5.000000000000002
100
AcDbArc
 50
49.8561874678
 51
153.3649668589
  0
LINE
  5
20B
330
1F
100
AcDbEntity
  8
0
  6
Continuous
 62
     7
370
    25
100
AcDbLine
 10
439.3190527394
 20
633.8762801673
 30
0.0
 11
439.3190527394
 21
632.1804424296
 31
0.0
  0
LINE
  5
20C
330
1F
100
AcDbEntity
  8
0
  6
Continuous
 62
     7
370
    25
100
AcDbLine
 10
444.9570419788
 20
633.0858325421
 30
0.0
 11
444.9570419788
 21
633.4272599885
 31
0.0
  0
LINE
  5
20D
330
1F
100
AcDbEntity
  8
0
  6
Continuous
 62
     7
370
    25
100
AcDbLine
 10
436.9532663901
 20
633.6595406604
 30
0.0
 11
436.9532663901
 21
631.775140815
 31
0.0
  0
LINE
  5
20E
330
1F
100
AcDbEntity
  8
0
  6
Continuous
 62
     7
370
    25
100
AcDbLine
 10
446.0009411301
 20
633.2442422612
 30
0.0
 11
446.0009411301
 21
634.2418115815
 31
0.0
  0
LINE
  5
20F
330
1F
100
AcDbEntity
  8
0
  6
Continuous
 62
     7
370
    25
100
AcDbLine
 10
436.7375345359
 20
635.192768061
 30
0.0
 11
436.7375345359
 21
631.7374259493
 31
0.0
  0
ARC
  5
210
330
1F
100
AcDbEntity
  8
0
  6
Continuous
 62
     7
370
    25
100
AcDbCircle
 10
291.166473298
 20
486.5134680007
 30
0.0
 40
4.999999999999964
100
AcDbArc
 50
39.3838999325
 51
142.751905941
  0
LINE
  5
211
330
1F
100
AcDbEntity
  8
0
  6
Continuous
 62
     7
370
    25
100
AcDbLine
 10
288.6677100651
 20
487.6150541543
 30
0.0
 11
288.6677100651
 21
334.952367003
 31
0.0
  0
LINE
  5
212
330
1F
100
AcDbEntity
  8
0
  6
Continuous
 62
     7
370
    25
100
AcDbLine
 10
294.4252577383
 20
335.0634771219
 30
0.0
 11
294.4252577383
 21
468.5646944576
 31
0.0
  0
LINE
  5
213
330
1F
100
AcDbEntity
  8
0
  6
Continuous
 62
     7
370
    25
100
AcDbLine
 10
294.4252577383
 20
482.2845507698
 30
0.0
 11
294.4252577383
 21
487.2532222498
 31
0.0
  0
LINE
  5
214
330
1F
100
AcDbEntity
  8
0
  6
Continuous
 62
     7
370
    25
100
AcDbLine
 10
286.7196578954
 20
487.8301588033
 30
0.0
 11
286.7196578954
 21
336.032284998
 31
0.0
  0
LINE
  5
215
330
1F
100
AcDbEntity
  8
0
  6
Continuous
 62
     7
370
    25
100
AcDbLine
 10
296.0359779973
 20
336.2819471689
 30
0.0
 11
296.0359779973
 21
468.6034947342
 31
0.0
  0
LINE
  5
216
330
1F
100
AcDbEntity
  8
0
  6
Continuous
 62
     7
370
    25
100
AcDbLine
 10
296.0359779973
 20
484.1433065419
 30
0.0
 11
296.0359779973
 21
487.1841821261
 31
0.0
  0
LINE
  5
217
330
1F
100
AcDbEntity
  8
0
  6
Continuous
 62
     7
370
    25
100
AcDbLine
 10
287.1443904765
 20
489.4499533306
 30
0.0
 11
287.1443904765
 21
489.1074042109
 31
0.0
  0
LINE
  5
218
330
1F
100
AcDbEntity
  8
0
  6
Continuous
 62
     7
370
    25
100
AcDbLine
 10
580.2144320704
 20
258.0245945962
 30
0.0
 11
580.2144320704
 21
259.3103455472
 31
0.0
  0
LINE
  5
219
330
1F
100
AcDbEntity
  8
0
  6
Continuous
 62
     7
370
    25
100
AcDbLine
 10
570.7144320704
 20
259.3103455472
 30
0.0
 11
570.7144320704
 21
258.0245945962
 31
0.0
  0
SPLINE
  5
21A
330
1F
100
AcDbEntity
  8
0
  6
Continuous
 62
     7
370
    25
100
AcDbSpline
210
0.0
220
0.0
230
1.0
 70
     8
 71
     3
 72
    42
 73
    38
 74
     0
 42
0.000000001
 43
0.00000001
 40
0.0
 40
0.0
 40
0.0
 40
0.0
 40
0.0229979262363539
 40
0.0496655020064816
 40
0.0760801897671283
 40
0.102372210680673
 40
0.1286833379045816
 40
0.1551731498985034
 40
0.1820238980700827
 40
0.2094408594166267
 40
0.237641520966732
 40
0.2668222257588367
 40
0.2970905452041484
 40
0.3283738216202668
 40
0.3603743006368209
 40
0.3925969457233739
 40
0.4246878446320996
 40
0.4565530408771907
 40
0.4882474532210831
 40
0.5199086968710332
 40
0.5517062560084263
 40
0.5837822595349661
 40
0.6163393192896398
 40
0.6495610166646253
 40
0.6835524384947256
 40
0.7182269382346227
 40
0.7485634826399452
 40
0.7779161157631721
 40
0.8062971288025491
 40
0.8338481053165913
 40
0.8607418675136674
 40
0.8871389402504262
 40
0.9131748122044627
 40
0.9418218629569143
 40
0.9698646006715809
 40
0.9973278650218586
 40
1.0
 40
1.0
 40
1.0
 40
1.0
 10
570.7170713967973
 20
258.0231708586693
 30
0.0
 10
570.7189608281634
 20
257.9212246359488
 30
0.0
 10
570.7230411768146
 20
257.7010652060487
 30
0.0
 10
570.7786744301336
 20
257.3677827512327
 30
0.0
 10
570.871207307906
 20
257.0290189325309
 30
0.0
 10
571.0005837637875
 20
256.7049163959435
 30
0.0
 10
571.1632957052797
 20
256.3972609032779
 30
0.0
 10
571.3579594860554
 20
256.1073197535552
 30
0.0
 10
571.5832706460437
 20
255.8358840381806
 30
0.0
 10
571.8387421513177
 20
255.5834197162984
 30
0.0
 10
572.1245444349548
 20
255.3503254350359
 30
0.0
 10
572.4412246848243
 20
255.1373135053969
 30
0.0
 10
572.7888667635576
 20
254.9458069266346
 30
0.0
 10
573.1658934027953
 20
254.7780636395857
 30
0.0
 10
573.5679310833266
 20
254.6368300885158
 30
0.0
 10
573.9884468915849
 20
254.52427335955
 30
0.0
 10
574.4206613079396
 20
254.4412916794035
 30
0.0
 10
574.8594510412801
 20
254.3876945764172
 30
0.0
 10
575.3015493518077
 20
254.3629402744715
 30
0.0
 10
575.7447698101798
 20
254.3667096664818
 30
0.0
 10
576.1872912435797
 20
254.3991577683057
 30
0.0
 10
576.627585706146
 20
254.4610166662475
 30
0.0
 10
577.0641862186657
 20
254.5537233660226
 30
0.0
 10
577.4954104974208
 20
254.679556435984
 30
0.0
 10
577.9182068064515
 20
254.8413760162729
 30
0.0
 10
578.3087866619159
 20
255.0328584326627
 30
0.0
 10
578.6598948693493
 20
255.2476798920764
 30
0.0
 10
578.9668152966003
 20
255.4769816256447
 30
0.0
 10
579.2414341929701
 20
255.726637970719
 30
0.0
 10
579.4834136835066
 20
255.9949821838156
 30
0.0
 10
579.6924630167322
 20
256.2805493598621
 30
0.0
 10
579.8681175786259
 20
256.581695597101
 30
0.0
 10
580.0143058759259
 20
256.9078483546051
 30
0.0
 10
580.1264663697204
 20
257.2566545025546
 30
0.0
 10
580.1928845651637
 20
257.6230744346682
 30
0.0
 10
580.2200763710817
 20
257.8809965884391
 30
0.0
 10
580.2131896431301
 20
258.0142940059197
 30
0.0
 10
580.2125789903081
 20
258.0261136167324
 30
0.0
  0
LINE
  5
21B
330
1F
100
AcDbEntity
  8
0
  6
Continuous
 62
     7
370
    25
100
AcDbLine
 10
730.1522580645
 20
404.368509323
 30
0.0
 11
730.1522580645
 21
405.654260274
 31
0.0
  0
LINE
  5
21C
330
1F
100
AcDbEntity
  8
0
  6
Continuous
 62
     7
370
    25
100
AcDbLine
 10
720.6522580645
 20
405.654260274
 30
0.0
 11
720.6522580645
 21
404.368509323
 31
0.0
  0
SPLINE
  5
21D
330
1F
100
AcDbEntity
  8
0
  6
Continuous
 62
     7
370
    25
100
AcDbSpline
210
0.0
220
0.0
230
1.0
 70
     8
 71
     3
 72
    42
 73
    38
 74
     0
 42
0.000000001
 43
0.00000001
 40
0.0
 40
0.0
 40
0.0
 40
0.0
 40
0.0038893051670961
 40
0.0308051511488839
 40
0.0573900302778566
 40
0.0837577999608842
 40
0.1100413116721905
 40
0.1363867447940538
 40
0.1629596810396093
 40
0.189949137901742
 40
0.2175656496260893
 40
0.2460254528602149
 40
0.2755083670881201
 40
0.306080461250197
 40
0.3376055175132298
 40
0.3697330625876789
 40
0.4019405605770945
 40
0.4339710430456222
 40
0.4657793135968493
 40
0.4974495147435393
 40
0.5291337149728149
 40
0.5609905416944815
 40
0.5931828801302301
 40
0.6259115707792839
 40
0.6593462523745794
 40
0.6935518158507464
 40
0.7245431402163041
 40
0.7547010304922126
 40
0.7838576161884688
 40
0.8120641605074899
 40
0.8394740016437555
 40
0.8662597081028266
 40
0.8925772992019526
 40
0.9185572355243
 40
0.9470791189445649
 40
0.9750127125326076
 40
1.0
 40
1.0
 40
1.0
 40
1.0
 10
720.6548588309362
 20
404.3705937344022
 30
0.0
 10
720.6540105145348
 20
404.3533873510374
 30
0.0
 10
720.6472914442005
 20
404.2171045916483
 30
0.0
 10
720.674559320461
 20
403.9628363859507
 30
0.0
 10
720.7376739395522
 20
403.61511728672
 30
0.0
 10
720.8421817998061
 20
403.2802429416945
 30
0.0
 10
720.9807627910099
 20
402.9606110908297
 30
0.0
 10
721.1527135768185
 20
402.6578289390854
 30
0.0
 10
721.3560607067179
 20
402.3730283527351
 30
0.0
 10
721.589878704247
 20
402.1068879334618
 30
0.0
 10
721.8538317924043
 20
401.8598234336906
 30
0.0
 10
722.1482605177255
 20
401.6322789747819
 30
0.0
 10
722.4736852963588
 20
401.4251314633624
 30
0.0
 10
722.8298483545797
 20
401.240047217574
 30
0.0
 10
723.2145124748216
 20
401.079464602762
 30
0.0
 10
723.6224880393137
 20
400.9461178589536
 30
0.0
 10
724.0469812778673
 20
400.8418397401467
 30
0.0
 10
724.4814621025305
 20
400.7671770683338
 30
0.0
 10
724.9214543412721
 20
400.7217484752899
 30
0.0
 10
725.3640617650278
 20
400.70503479161
 30
0.0
 10
725.8072334584045
 20
400.716834931513
 30
0.0
 10
726.249257348911
 20
400.7574528428719
 30
0.0
 10
726.6886439327104
 20
400.8278050623796
 30
0.0
 10
727.1239413956717
 20
400.9295656110664
 30
0.0
 10
727.5531881663458
 20
401.0652188016074
 30
0.0
 10
727.9571186916608
 20
401.2312526441556
 30
0.0
 10
728.3282985212869
 20
401.4234351621076
 30
0.0
 10
728.6603173224528
 20
401.6347910775168
 30
0.0
 10
728.960981355917
 20
401.8682431944946
 30
0.0
 10
729.2292241487393
 20
402.1216771329899
 30
0.0
 10
729.4647784375368
 20
402.3935110233289
 30
0.0
 10
729.6673599134039
 20
402.6822689708977
 30
0.0
 10
729.8362482729424
 20
402.9862370964786
 30
0.0
 10
729.9756528063288
 20
403.3145191299758
 30
0.0
 10
730.0783380112922
 20
403.6644700878811
 30
0.0
 10
730.1416806409849
 20
404.0205885274212
 30
0.0
 10
730.1477099012463
 20
404.2551456640724
 30
0.0
 10
730.1505566954864
 20
404.3658948897872
 30
0.0
  0
LINE
  5
21E
330
1F
100
AcDbEntity
  8
0
  6
Continuous
 62
     7
370
    25
100
AcDbLine
 10
296.0724979961
 20
335.2482838524
 30
0.0
 11
296.0724979961
 21
336.5340348034
 31
0.0
  0
LINE
  5
21F
330
1F
100
AcDbEntity
  8
0
  6
Continuous
 62
     7
370
    25
100
AcDbLine
 10
286.5724979961
 20
336.5340348034
 30
0.0
 11
286.5724979961
 21
335.2482838524
 31
0.0
  0
SPLINE
  5
220
330
1F
100
AcDbEntity
  8
0
  6
Continuous
 62
     7
370
    25
100
AcDbSpline
210
0.0
220
0.0
230
1.0
 70
     8
 71
     3
 72
    28
 73
    24
 74
     0
 42
0.000000001
 43
0.00000001
 40
0.0
 40
0.0
 40
0.0
 40
0.0
 40
0.0041417478641692
 40
0.0508553876000774
 40
0.0969861085616602
 40
0.1427277188143909
 40
0.1883096219227892
 40
0.2339837084492862
 40
0.2800349743763274
 40
0.3267888461454469
 40
0.3746087286024937
 40
0.4238704670073289
 40
0.4748925098768276
 40
0.5278050414616268
 40
0.582394484970065
 40
0.6380700749522495
 40
0.6939320676285948
 40
0.7495007130581411
 40
0.8046812593948128
 40
0.8596101216029332
 40
0.9145463625763381
 40
0.9697690741308311
 40
1.0
 40
1.0
 40
1.0
 40
1.0
 10
286.5741993651711
 20
335.2508982855883
 30
0.0
 10
286.5736324443509
 20
335.2403358941629
 30
0.0
 10
286.5666713788788
 20
335.1106431828878
 30
0.0
 10
286.592465886324
 20
334.8626619735622
 30
0.0
 10
286.6530614353051
 20
334.514317866836
 30
0.0
 10
286.755593703771
 20
334.1786334558759
 30
0.0
 10
286.8922159414149
 20
333.8580908871571
 30
0.0
 10
287.0623426732338
 20
333.5543166223987
 30
0.0
 10
287.2639354738697
 20
333.2684738446312
 30
0.0
 10
287.4960407122654
 20
333.0012616592192
 30
0.0
 10
287.7582788344773
 20
332.7531044947559
 30
0.0
 10
288.0509621616371
 20
332.5244346203631
 30
0.0
 10
288.3746214025911
 20
332.316093174192
 30
0.0
 10
288.7290762221096
 20
332.1296968481909
 30
0.0
 10
289.1122273367035
 20
331.9676514009715
 30
0.0
 10
289.5190442181935
 20
331.8326998943594
 30
0.0
 10
289.9427730681779
 20
331.7267479539912
 30
0.0
 10
290.3768273765277
 20
331.65040147969
 30
0.0
 10
290.8165878547247
 20
331.603349081049
 30
0.0
 10
291.2591346146272
 20
331.5849295403622
 30
0.0
 10
291.7022148084194
 20
331.5954178302301
 30
0.0
 10
292.0766149618085
 20
331.6273873232876
 30
0.0
 10
292.3008833779809
 20
331.6605320891355
 30
0.0
 10
292.3802227960385
 20
331.6722577100629
 30
0.0
  0
SPLINE
  5
221
330
1F
100
AcDbEntity
  8
0
  6
Continuous
 62
     7
370
    25
100
AcDbSpline
210
0.0
220
0.0
230
1.0
 70
     8
 71
     3
 72
    22
 73
    18
 74
     0
 42
0.000000001
 43
0.00000001
 40
0.0
 40
0.0
 40
0.0
 40
0.0
 40
0.0435649966785082
 40
0.1209538216915885
 40
0.200017390161351
 40
0.2808969506128725
 40
0.3539839123007499
 40
0.4250595182303712
 40
0.4937655666226007
 40
0.5602465695151327
 40
0.6248720043478403
 40
0.6880485186833406
 40
0.7501409425627112
 40
0.811453562381932
 40
0.8787158638195868
 40
0.9446010925564581
 40
1.0
 40
1.0
 40
1.0
 40
1.0
 10
292.3802227960385
 20
331.6722577100629
 30
0.0
 10
292.463593764119
 20
331.6865482743945
 30
0.0
 10
292.6950648527517
 20
331.7262245856954
 30
0.0
 10
293.0689603553766
 20
331.8164653826315
 30
0.0
 10
293.4978855629996
 20
331.9538090542225
 30
0.0
 10
293.9008408946999
 20
332.1219497537347
 30
0.0
 10
294.2705385568669
 20
332.315936046806
 30
0.0
 10
294.6006255384357
 20
332.528777731701
 30
0.0
 10
294.8992455692644
 20
332.7635543938989
 30
0.0
 10
295.1654156459484
 20
333.0182021874797
 30
0.0
 10
295.3988840929193
 20
333.2911571689543
 30
0.0
 10
295.599351903503
 20
333.5809369252008
 30
0.0
 10
295.7660673093297
 20
333.8858044931408
 30
0.0
 10
295.903145631024
 20
334.2147517703989
 30
0.0
 10
296.0032338692745
 20
334.5650577308592
 30
0.0
 10
296.0633386691949
 20
334.9145703677499
 30
0.0
 10
296.0678407953284
 20
335.1422172593431
 30
0.0
 10
296.0698972297214
 20
335.2461994409734
 30
0.0
  0
LINE
  5
222
330
1F
100
AcDbEntity
  8
0
  6
Continuous
 62
     7
370
    25
100
AcDbLine
 10
730.8623780303
 20
518.9555069117
 30
0.0
 11
730.8623780303
 21
523.2413434152
 31
0.0
  0
LINE
  5
223
330
1F
100
AcDbEntity
  8
0
  6
Continuous
 62
     7
370
    25
100
AcDbLine
 10
285.8623780303
 20
523.2413434152
 30
0.0
 11
285.8623780303
 21
518.9555069117
 31
0.0
  0
LINE
  5
224
330
1F
100
AcDbEntity
  8
0
  6
Continuous
 62
     7
370
    25
100
AcDbLine
 10
294.4232051185
 20
481.7960796418
 30
0.0
 11
294.4214209951
 21
481.9042567294
 31
0.0
  0
LINE
  5
225
330
1F
100
AcDbEntity
  8
0
  6
Continuous
 62
     7
370
    25
100
AcDbLine
 10
294.4232051185
 20
468.9385701313
 30
0.0
 11
294.4232051185
 21
481.7960796418
 31
0.0
  0
LINE
  5
226
330
1F
100
AcDbEntity
  8
0
  6
Continuous
 62
     7
370
    25
100
AcDbLine
 10
294.4214209951
 20
468.8363373056
 30
0.0
 11
294.4232051185
 21
468.9385701313
 31
0.0
  0
SPLINE
  5
227
330
1F
100
AcDbEntity
  8
0
  6
Continuous
 62
     7
370
    25
100
AcDbSpline
210
0.0
220
0.0
230
1.0
 70
     8
 71
     3
 72
    15
 73
    11
 74
     0
 42
0.000000001
 43
0.00000001
 40
0.0
 40
0.0
 40
0.0
 40
0.0
 40
0.1278409565844938
 40
0.2566145642920309
 40
0.3881365121344957
 40
0.5205372774149926
 40
0.6504049058576041
 40
0.7811119869837613
 40
0.9147538035183523
 40
1.0
 40
1.0
 40
1.0
 40
1.0
 10
579.1952073172729
 20
412.4136668678629
 30
0.0
 10
579.240555094425
 20
412.3818015398888
 30
0.0
 10
579.3315814789764
 20
412.3178384135751
 30
0.0
 10
579.4481498933146
 20
412.2263448037282
 30
0.0
 10
579.5497424133395
 20
412.1375259604531
 30
0.0
 10
579.6330468701019
 20
412.0527692635097
 30
0.0
 10
579.6981108343696
 20
411.9724926646198
 30
0.0
 10
579.7434434501091
 20
411.8977135656856
 30
0.0
 10
579.7691164516286
 20
411.8355791194008
 30
0.0
 10
579.7687507867851
 20
411.8046172646415
 30
0.0
 10
579.7686083781778
 20
411.7925591335548
 30
0.0
  0
SPLINE
  5
228
330
1F
100
AcDbEntity
  8
0
  6
Continuous
 62
     7
370
    25
100
AcDbSpline
210
0.0
220
0.0
230
1.0
 70
     8
 71
     3
 72
    14
 73
    10
 74
     0
 42
0.000000001
 43
0.00000001
 40
0.0
 40
0.0
 40
0.0
 40
0.0
 40
0.220765348438248
 40
0.3402146168140377
 40
0.4605704991790525
 40
0.5641909618660975
 40
0.6633542991972209
 40
0.8105247403618427
 40
1.0
 40
1.0
 40
1.0
 40
1.0
 10
579.2268987814999
 20
412.2149737042702
 30
0.0
 10
579.1999928669596
 20
412.2484993360083
 30
0.0
 10
579.1585289983315
 20
412.3001646450611
 30
0.0
 10
579.1156498806611
 20
412.3690303806299
 30
0.0
 10
579.0964049474806
 20
412.4129020827393
 30
0.0
 10
579.0947173926696
 20
412.4399739265133
 30
0.0
 10
579.1078215399267
 20
412.4527562482523
 30
0.0
 10
579.1401488548851
 20
412.4480943497004
 30
0.0
 10
579.1753787659688
 20
412.4260654540253
 30
0.0
 10
579.1952073172729
 20
412.4136668678629
 30
0.0
  0
SPLINE
  5
229
330
1F
100
AcDbEntity
  8
0
  6
Continuous
 62
     7
370
    25
100
AcDbSpline
210
0.0
220
0.0
230
1.0
 70
     8
 71
     3
 72
    32
 73
    28
 74
     0
 42
0.000000001
 43
0.00000001
 40
0.0
 40
0.0
 40
0.0
 40
0.0
 40
0.0430379910819439
 40
0.0863861263481845
 40
0.1306715836239389
 40
0.1752669939041059
 40
0.2185320463381537
 40
0.2621050719941936
 40
0.3067938579277247
 40
0.3519663346176114
 40
0.3854310965017716
 40
0.4193289160972123
 40
0.4528593258451254
 40
0.4875791928901089
 40
0.5106386088136728
 40
0.5343801485774105
 40
0.5574353916329529
 40
0.5810375265201544
 40
0.6176166200902828
 40
0.6551846333990727
 40
0.7177265685357797
 40
0.7819044813319177
 40
0.8252890843115631
 40
0.8689843386192255
 40
0.9136242089591379
 40
0.9585815908891884
 40
0.9999999999999999
 40
0.9999999999999999
 40
0.9999999999999999
 40
0.9999999999999999
 10
578.1758470708813
 20
410.9259833659372
 30
0.0
 10
578.2304909939213
 20
410.8750144074608
 30
0.0
 10
578.3401726198804
 20
410.7727091934838
 30
0.0
 10
578.5072433317163
 20
410.6281930709536
 30
0.0
 10
578.6753240646996
 20
410.4903552497756
 30
0.0
 10
578.8412419780342
 20
410.3625567762485
 30
0.0
 10
579.0030946515702
 20
410.2460358819266
 30
0.0
 10
579.1610192521608
 20
410.1413398991942
 30
0.0
 10
579.3161345380029
 20
410.0496071277884
 30
0.0
 10
579.453778507183
 20
409.9818293464704
 30
0.0
 10
579.5735988778895
 20
409.9382906716259
 30
0.0
 10
579.6755492005375
 20
409.9175572674939
 30
0.0
 10
579.7711455099914
 20
409.9213173340895
 30
0.0
 10
579.8464303239276
 20
409.9544780811985
 30
0.0
 10
579.9017272391826
 20
410.0107732587341
 30
0.0
 10
579.9391929577736
 20
410.0772848458122
 30
0.0
 10
579.966004691835
 20
410.1601227326354
 30
0.0
 10
579.985096079961
 20
410.2722654118249
 30
0.0
 10
579.990097966692
 20
410.4189955694214
 30
0.0
 10
579.9723465825876
 20
410.636938208595
 30
0.0
 10
579.9179446149028
 20
410.9083235652396
 30
0.0
 10
579.82730485693
 20
411.1886303489993
 30
0.0
 10
579.7242856502833
 20
411.4329687468187
 30
0.0
 10
579.6198525181029
 20
411.6409185020404
 30
0.0
 10
579.499701437221
 20
411.8446833127487
 30
0.0
 10
579.3690183013006
 20
412.0378767569539
 30
0.0
 10
579.2729600613291
 20
412.1575761556528
 30
0.0
 10
579.2268987814999
 20
412.2149737042701
 30
0.0
  0
SPLINE
  5
22A
330
1F
100
AcDbEntity
  8
0
  6
Continuous
 62
     7
370
    25
100
AcDbSpline
210
0.0
220
0.0
230
1.0
 70
     8
 71
     3
 72
    14
 73
    10
 74
     0
 42
0.000000001
 43
0.00000001
 40
0.0
 40
0.0
 40
0.0
 40
0.0
 40
0.2243030424882443
 40
0.3489011866264393
 40
0.4744001356118102
 40
0.5826741857065375
 40
0.6867417687946591
 40
0.838156487169717
 40
1.0
 40
1.0
 40
1.0
 40
1.0
 10
577.8678266776964
 20
410.7859906408015
 30
0.0
 10
577.8652802488803
 20
410.8265441866781
 30
0.0
 10
577.8613193037868
 20
410.8896248302634
 30
0.0
 10
577.8904187858134
 20
410.9623961286876
 30
0.0
 10
577.9301776222438
 20
411.0019294195478
 30
0.0
 10
577.9809653489672
 20
411.017294627083
 30
0.0
 10
578.0406336241165
 20
411.0120283319789
 30
0.0
 10
578.1090380301616
 20
410.9830089130068
 30
0.0
 10
578.1530885565743
 20
410.9454091309963
 30
0.0
 10
578.1758470708813
 20
410.9259833659372
 30
0.0
  0
SPLINE
  5
22B
330
1F
100
AcDbEntity
  8
0
  6
Continuous
 62
     7
370
    25
100
AcDbSpline
210
0.0
220
0.0
230
1.0
 70
     8
 71
     3
 72
    31
 73
    27
 74
     0
 42
0.000000001
 43
0.00000001
 40
0.0
 40
0.0
 40
0.0
 40
0.0
 40
0.0425833337774446
 40
0.085469344180815
 40
0.1292857072947939
 40
0.1734170152399146
 40
0.2449145713515248
 40
0.2814363788217585
 40
0.3182277375026524
 40
0.3578646940443344
 40
0.3981600951411007
 40
0.4288325139380235
 40
0.4602505469959387
 40
0.4856124894106362
 40
0.5117016966526822
 40
0.5370695264658046
 40
0.563102530714538
 40
0.5995567496813835
 40
0.6370216898153824
 40
0.6960149548444069
 40
0.7565748829862471
 40
0.7982000521028648
 40
0.8401283317747263
 40
0.8829575785658583
 40
0.9260808780984698
 40
1.0
 40
1.0
 40
1.0
 40
1.0
 10
575.1147360263221
 20
410.3476052009136
 30
0.0
 10
575.1389242314948
 20
410.27948226735
 30
0.0
 10
575.1874725683583
 20
410.1427521915464
 30
0.0
 10
575.2806713950914
 20
409.9409755583625
 30
0.0
 10
575.3885464844216
 20
409.7421545735468
 30
0.0
 10
575.5376238039283
 20
409.5086309479677
 30
0.0
 10
575.7008139714969
 20
409.2986577016451
 30
0.0
 10
575.8743762947121
 20
409.1159064551539
 30
0.0
 10
576.019902642627
 20
408.9844120867199
 30
0.0
 10
576.18175937689
 20
408.863757269917
 30
0.0
 10
576.3473445774229
 20
408.7698291378364
 30
0.0
 10
576.5104440422933
 20
408.7067296263164
 30
0.0
 10
576.6561052239913
 20
408.6760266397013
 30
0.0
 10
576.796402232653
 20
408.6719476424614
 30
0.0
 10
576.9250345717575
 20
408.6911517485875
 30
0.0
 10
577.0492895060777
 20
408.7332352127666
 30
0.0
 10
577.1805944204416
 20
408.803429253351
 30
0.0
 10
577.3145509828153
 20
408.9083004270214
 30
0.0
 10
577.4678224080773
 20
409.0744746202354
 30
0.0
 10
577.6144662200529
 20
409.2985715671792
 30
0.0
 10
577.7272805602689
 20
409.5479954468864
 30
0.0
 10
577.8022604172716
 20
409.779704964933
 30
0.0
 10
577.8503124253424
 20
409.9872789964844
 30
0.0
 10
577.8805183727372
 20
410.2000183156742
 30
0.0
 10
577.8976704746276
 20
410.4678444297356
 30
0.0
 10
577.8793788846216
 20
410.6628397270233
 30
0.0
 10
577.8678266776964
 20
410.7859906408015
 30
0.0
  0
SPLINE
  5
22C
330
1F
100
AcDbEntity
  8
0
  6
Continuous
 62
     7
370
    25
100
AcDbSpline
210
0.0
220
0.0
230
1.0
 70
     8
 71
     3
 72
    14
 73
    10
 74
     0
 42
0.000000001
 43
0.00000001
 40
0.0
 40
0.0
 40
0.0
 40
0.0
 40
0.2239799089308186
 40
0.3530600787851255
 40
0.4831615846562313
 40
0.5937368434045873
 40
0.6971871626482797
 40
0.8442013099710164
 40
1.0
 40
1.0
 40
1.0
 40
1.0
 10
574.6989494142647
 20
410.3723432931407
 30
0.0
 10
574.7227548368812
 20
410.4077290871034
 30
0.0
 10
574.7602793828313
 20
410.4635078007566
 30
0.0
 10
574.8395218149764
 20
410.5126375956135
 30
0.0
 10
574.9093137795883
 20
410.5280405565086
 30
0.0
 10
574.9739471467678
 20
410.5162685294769
 30
0.0
 10
575.0323827712347
 20
410.4826991276794
 30
0.0
 10
575.0832157158193
 20
410.4259804455198
 30
0.0
 10
575.1040280026629
 20
410.3742306992086
 30
0.0
 10
575.1147360263221
 20
410.3476052009136
 30
0.0
  0
SPLINE
  5
22D
330
1F
100
AcDbEntity
  8
0
  6
Continuous
 62
     7
370
    25
100
AcDbSpline
210
0.0
220
0.0
230
1.0
 70
     8
 71
     3
 72
    31
 73
    27
 74
     0
 42
0.000000001
 43
0.00000001
 40
0.0
 40
0.0
 40
0.0
 40
0.0
 40
0.043629434182047
 40
0.0875684828963807
 40
0.1324599668092054
 40
0.1776747310168429
 40
0.2471514348505015
 40
0.3182082976799274
 40
0.3543483336054401
 40
0.3910257028896866
 40
0.4195224726612024
 40
0.4487066439893481
 40
0.4718199668842268
 40
0.4955955638905949
 40
0.5187147629621537
 40
0.5424374424096535
 40
0.5764102163909648
 40
0.6113145862253264
 40
0.668913478951128
 40
0.7280058305622983
 40
0.770493309810281
 40
0.813290712699918
 40
0.8570043278233526
 40
0.9010157064162423
 40
0.950281601367107
 40
1.0
 40
1.0
 40
1.0
 40
1.0
 10
572.3169532354347
 20
411.1146759293681
 30
0.0
 10
572.2929764135836
 20
411.0426331135334
 30
0.0
 10
572.2448526193255
 20
410.8980362329067
 30
0.0
 10
572.1959230587304
 20
410.6736606651656
 30
0.0
 10
572.1644136683657
 20
410.4443427471581
 30
0.0
 10
572.1510082198023
 20
410.1699451090931
 30
0.0
 10
572.1711822739541
 20
409.8515988048466
 30
0.0
 10
572.2359601768545
 20
409.556700486575
 30
0.0
 10
572.3224753993204
 20
409.3306210772904
 30
0.0
 10
572.4021011277226
 20
409.182025021602
 30
0.0
 10
572.4941045174529
 20
409.0584317943049
 30
0.0
 10
572.5876253421375
 20
408.9690082585091
 30
0.0
 10
572.6876167332501
 20
408.9046767476405
 30
0.0
 10
572.7877353758402
 20
408.8650736767373
 30
0.0
 10
572.8937596663228
 20
408.8462861218716
 30
0.0
 10
573.0173163136462
 20
408.8475734071174
 30
0.0
 10
573.158449236176
 20
408.8766733916074
 30
0.0
 10
573.3459444431122
 20
408.9498127606794
 30
0.0
 10
573.5612870441436
 20
409.0763615339128
 30
0.0
 10
573.7749911565993
 20
409.2416655291364
 30
0.0
 10
573.9595706079297
 20
409.4098945994455
 30
0.0
 10
574.117391835073
 20
409.571668227701
 30
0.0
 10
574.2693736339882
 20
409.7453136155775
 30
0.0
 10
574.4194566251407
 20
409.9368923293529
 30
0.0
 10
574.5658801700071
 20
410.1453433618586
 30
0.0
 10
574.6544580225276
 20
410.296446395076
 30
0.0
 10
574.6989494142647
 20
410.3723432931407
 30
0.0
  0
SPLINE
  5
22E
330
1F
100
AcDbEntity
  8
0
  6
Continuous
 62
     7
370
    25
100
AcDbSpline
210
0.0
220
0.0
230
1.0
 70
     8
 71
     3
 72
    14
 73
    10
 74
     0
 42
0.000000001
 43
0.00000001
 40
0.0
 40
0.0
 40
0.0
 40
0.0
 40
0.2200911109486005
 40
0.3501199592093343
 40
0.4590676183974656
 40
0.568535114566183
 40
0.666840221739381
 40
0.7968948941937986
 40
1.0
 40
1.0
 40
1.0
 40
1.0
 10
572.1064962038852
 20
411.2849035493985
 30
0.0
 10
572.137376389167
 20
411.3076556406269
 30
0.0
 10
572.186500450401
 20
411.3438495660359
 30
0.0
 10
572.2528078057669
 20
411.3606282108631
 30
0.0
 10
572.2977581594353
 20
411.3538919348171
 30
0.0
 10
572.328168286379
 20
411.3274266607557
 30
0.0
 10
572.3448435468674
 20
411.2823956869291
 30
0.0
 10
572.3463741070451
 20
411.2108023573624
 30
0.0
 10
572.3280961042275
 20
411.1510828784499
 30
0.0
 10
572.3169532354347
 20
411.1146759293681
 30
0.0
  0
SPLINE
  5
22F
330
1F
100
AcDbEntity
  8
0
  6
Continuous
 62
     7
370
    25
100
AcDbSpline
210
0.0
220
0.0
230
1.0
 70
     8
 71
     3
 72
    32
 73
    28
 74
     0
 42
0.000000001
 43
0.00000001
 40
0.0
 40
0.0
 40
0.0
 40
0.0
 40
0.0453942490664916
 40
0.0911149500211782
 40
0.1378156604218439
 40
0.1848384153738214
 40
0.2588911921182422
 40
0.2966281930595907
 40
0.3346227841547597
 40
0.3627380257352229
 40
0.3910884026637862
 40
0.4192466010957607
 40
0.4481819119438965
 40
0.4658254771020917
 40
0.4839564361058767
 40
0.5016138628025703
 40
0.519778983331874
 40
0.5448703289759821
 40
0.5706414417831495
 40
0.6177923775614196
 40
0.6660664783496346
 40
0.7088271620555667
 40
0.7519045224538804
 40
0.7958661863085261
 40
0.8400991772633689
 40
0.9191874857499421
 40
1.0
 40
1.0
 40
1.0
 40
1.0
 10
571.8892862041253
 20
412.6437927560978
 30
0.0
 10
571.8317135027761
 20
412.5836701896182
 30
0.0
 10
571.7161540670788
 20
412.4629926863531
 30
0.0
 10
571.5526276457877
 20
412.2646861449908
 30
0.0
 10
571.3971831283574
 20
412.0541141455628
 30
0.0
 10
571.2245803525484
 20
411.7890167184129
 30
0.0
 10
571.0797703261493
 20
411.5259065118792
 30
0.0
 10
570.9619490887951
 20
411.2711327707364
 30
0.0
 10
570.8897001622681
 20
411.0924146213986
 30
0.0
 10
570.8324677823917
 20
410.9299215038439
 30
0.0
 10
570.7885513069133
 20
410.7859737025126
 30
0.0
 10
570.7531310955718
 20
410.6453558635908
 30
0.0
 10
570.7322286528538
 20
410.531508893041
 30
0.0
 10
570.7236480052643
 20
410.4466530048326
 30
0.0
 10
570.7233956725329
 20
410.3884982042934
 30
0.0
 10
570.7303072830039
 20
410.3443861406927
 30
0.0
 10
570.7456106397772
 20
410.3115018787768
 30
0.0
 10
570.7717017809671
 20
410.2949598262691
 30
0.0
 10
570.8198641514256
 20
410.2977519848742
 30
0.0
 10
570.8949118198391
 20
410.334092141319
 30
0.0
 10
570.997586834637
 20
410.4034154302628
 30
0.0
 10
571.1109281553887
 20
410.4877558993401
 30
0.0
 10
571.2320379716504
 20
410.5812967752732
 30
0.0
 10
571.3653289943006
 20
410.6859168630154
 30
0.0
 10
571.5482353322188
 20
410.8308687725055
 30
0.0
 10
571.7908852678946
 20
411.0243084142171
 30
0.0
 10
572.0005389952755
 20
411.1974162986338
 30
0.0
 10
572.1064962038852
 20
411.2849035493985
 30
0.0
  0
SPLINE
  5
230
330
1F
100
AcDbEntity
  8
0
  6
Continuous
 62
     7
370
    25
100
AcDbSpline
210
0.0
220
0.0
230
1.0
 70
     8
 71
     3
 72
    15
 73
    11
 74
     0
 42
0.000000001
 43
0.00000001
 40
0.0
 40
0.0
 40
0.0
 40
0.0
 40
0.215076373612951
 40
0.3413349926977388
 40
0.4465934903529852
 40
0.552479621927475
 40
0.6449070621727934
 40
0.7662146539024691
 40
0.9406316560518101
 40
1.0
 40
1.0
 40
1.0
 40
1.0
 10
572.0426371903814
 20
412.830901264953
 30
0.0
 10
572.0579315397397
 20
412.8436449908877
 30
0.0
 10
572.082204297081
 20
412.86386980464
 30
0.0
 10
572.0924202675757
 20
412.8659530090973
 30
0.0
 10
572.085819244683
 20
412.8529928196266
 30
0.0
 10
572.0645158713526
 20
412.8266015750832
 30
0.0
 10
572.0296599113026
 20
412.7879569220723
 30
0.0
 10
571.9783583270183
 20
412.7340557339484
 30
0.0
 10
571.9286227060425
 20
412.6834959466041
 30
0.0
 10
571.8972524793414
 20
412.6518332916594
 30
0.0
 10
571.8892862041253
 20
412.6437927560978
 30
0.0
  0
SPLINE
  5
231
330
1F
100
AcDbEntity
  8
0
  6
Continuous
 62
     7
370
    25
100
AcDbSpline
210
0.0
220
0.0
230
1.0
 70
     8
 71
     3
 72
    10
 73
     6
 74
     0
 42
0.000000001
 43
0.00000001
 40
0.0
 40
0.0
 40
0.0
 40
0.0
 40
0.0680242554662142
 40
0.4428886606554652
 40
1.0
 40
1.0
 40
1.0
 40
1.0
 10
571.8352823989849
 20
412.58596891856
 30
0.0
 10
571.8379160800439
 20
412.5914929950749
 30
0.0
 10
571.8550633089086
 20
412.6274588550799
 30
0.0
 10
571.9154721121309
 20
412.7087074248457
 30
0.0
 10
571.995060988943
 20
412.7851849501324
 30
0.0
 10
572.0426371903814
 20
412.830901264953
 30
0.0
  0
LWPOLYLINE
  5
232
330
1F
100
AcDbEntity
  8
0
  6
Continuous
 62
     7
370
    25
100
AcDbPolyline
 90
       17
 70
   128
 43
0.0
 10
575.1147360263
 20
257.3805477137
 10
575.2435994329
 20
257.262840221
 10
575.4114909318
 20
257.1589998502
 10
575.6129274192
 20
257.0724178842
 10
575.8413302586
 20
257.0059219698
 10
576.0892401295
 20
256.9616837717
 10
576.348560639
 20
256.941148048
 10
576.6108227385
 20
256.9449854671
 10
576.867461311
 20
256.9730707042
 10
577.1100948964
 20
257.0244865342
 10
577.3307994179
 20
257.0975537875
 10
577.5223669714
 20
257.1898861888
 10
577.678541226
 20
257.2984682896
 10
577.794221747
 20
257.4197539492
 10
577.8656305688
 20
257.5497821457
 10
577.8904355781
 20
257.6843063384
 10
577.8904483976
 20
257.687448616
  0
LWPOLYLINE
  5
233
330
1F
100
AcDbEntity
  8
0
  6
Continuous
 62
     7
370
    25
100
AcDbPolyline
 90
       15
 70
   128
 43
0.0
 10
572.1564494507
 20
257.9062020669
 10
572.1598272026
 20
257.8552254071
 10
572.20129277
 20
257.7217942304
 10
572.288708145
 20
257.5943855581
 10
572.4192184626
 20
257.477160381
 10
572.5885614367
 20
257.3739471111
 10
572.7912065602
 20
257.2881165508
 10
573.0205357242
 20
257.2224718072
 10
573.2690593557
 20
257.1791567468
 10
573.5286610174
 20
257.1595859794
 10
573.7908624785
 20
257.1643986592
 10
574.0471006024
 20
257.1934376107
 10
574.2890070071
 20
257.245754462
 10
574.5086813645
 20
257.3196406172
 10
574.6989494143
 20
257.4126830569
  0
ARC
  5
234
330
1F
100
AcDbEntity
  8
0
  6
Continuous
 62
     7
370
    25
100
AcDbCircle
 10
574.8821717416
 20
257.0774072594
 30
0.0
 40
0.3820736598574527
100
AcDbArc
 50
52.5051832161
 51
118.655828585
  0
ARC
  5
235
330
1F
100
AcDbEntity
  8
0
  6
Continuous
 62
     7
370
    25
100
AcDbCircle
 10
578.1052718384
 20
257.6257524553
 30
0.0
 40
0.3478063364655556
100
AcDbArc
 50
78.2925092538
 51
128.1449069165
  0
LWPOLYLINE
  5
236
330
1F
100
AcDbEntity
  8
0
  6
Continuous
 62
     7
370
    25
100
AcDbPolyline
 90
       12
 70
   128
 43
0.0
 10
578.1758470709
 20
257.9663231296
 10
578.4348729068
 20
257.9448235205
 10
578.6971819698
 20
257.9476854787
 10
578.9542076094
 20
257.9748155369
 10
579.1975557241
 20
258.0253276648
 10
579.4192789017
 20
258.0975722063
 10
579.6121359702
 20
258.1891897548
 10
579.7698284851
 20
258.297188208
 10
579.8872064271
 20
258.4180404861
 10
579.9604363953
 20
258.5477997211
 10
579.9871268004
 20
258.682228156
 10
579.9872215248
 20
258.6907696554
  0
LINE
  5
237
330
1F
100
AcDbEntity
  8
0
  6
Continuous
 62
     7
370
    25
100
AcDbLine
 10
572.1064962039
 20
258.4354115206
 30
0.0
 11
572.1564494507
 21
258.4315538237
 31
0.0
  0
LWPOLYLINE
  5
238
330
1F
100
AcDbEntity
  8
0
  6
Continuous
 62
     7
370
    25
100
AcDbPolyline
 90
       10
 70
   128
 43
0.0
 10
570.7238149306
 20
259.1823041978
 10
570.7279451424
 20
259.1259420777
 10
570.771280347
 20
258.9926685913
 10
570.8604797252
 20
258.8655883411
 10
570.9926301489
 20
258.7488515921
 10
571.1634157682
 20
258.6462708047
 10
571.3672589615
 20
258.5611961255
 10
571.5975024924
 20
258.4964059755
 10
571.8466269262
 20
258.4540163113
 10
572.1064962039
 20
258.4354115206
  0
SPLINE
  5
239
330
1F
100
AcDbEntity
  8
0
  6
Continuous
 62
     7
370
    25
100
AcDbSpline
210
0.0
220
0.0
230
1.0
 70
     8
 71
     3
 72
    19
 73
    15
 74
     0
 42
0.000000001
 43
0.00000001
 40
0.0
 40
0.0
 40
0.0
 40
0.0
 40
0.0905471537389515
 40
0.1817379045040101
 40
0.2749069125459458
 40
0.3687456041357706
 40
0.5207745701869525
 40
0.5984327857957755
 40
0.6766641621402157
 40
0.7609462809729232
 40
0.846628484652669
 40
0.9118488413975403
 40
0.9786546364613583
 40
1.0
 40
1.0
 40
1.0
 40
1.0
 10
729.1491613082669
 20
558.4412109839188
 30
0.0
 10
729.1984859194877
 20
558.410949946251
 30
0.0
 10
729.2974857346512
 20
558.3502127795176
 30
0.0
 10
729.4338260120675
 20
558.2666575786287
 30
0.0
 10
729.5605844592131
 20
558.1886815885227
 30
0.0
 10
729.6989525567498
 20
558.1032042562975
 30
0.0
 10
729.8099285293382
 20
558.0344322569015
 30
0.0
 10
729.8936918335722
 20
557.9842244488766
 30
0.0
 10
729.9464742397726
 20
557.9548319629442
 30
0.0
 10
729.9857094215081
 20
557.9378880764972
 30
0.0
 10
730.0056147577785
 20
557.9389954188257
 30
0.0
 10
730.0053769404227
 20
557.9612353208875
 30
0.0
 10
729.9954348450975
 20
557.9886359713893
 30
0.0
 10
729.9803002734111
 20
558.016327302244
 30
0.0
 10
729.9766355123375
 20
558.023032619943
 30
0.0
  0
SPLINE
  5
23A
330
1F
100
AcDbEntity
  8
0
  6
Continuous
 62
     7
370
    25
100
AcDbSpline
210
0.0
220
0.0
230
1.0
 70
     8
 71
     3
 72
    14
 73
    10
 74
     0
 42
0.000000001
 43
0.00000001
 40
0.0
 40
0.0
 40
0.0
 40
0.0
 40
0.2239799089308108
 40
0.3530600787850934
 40
0.4831615846562056
 40
0.5937368434046143
 40
0.6971871626482649
 40
0.8442013099710086
 40
1.0
 40
1.0
 40
1.0
 40
1.0
 10
729.0867671966056
 20
558.2196677967428
 30
0.0
 10
729.0645346963403
 20
558.2558637056052
 30
0.0
 10
729.0294895517434
 20
558.3129194053582
 30
0.0
 10
729.0030406400988
 20
558.3892398733814
 30
0.0
 10
728.9995274622072
 20
558.4387789329963
 30
0.0
 10
729.0148613293976
 20
558.4681930764103
 30
0.0
 10
729.0450560968368
 20
558.4802717010386
 30
0.0
 10
729.0907971413393
 20
558.4732923003048
 30
0.0
 10
729.1293339375859
 20
558.4521095914961
 30
0.0
 10
729.1491613082669
 20
558.4412109839188
 30
0.0
  0
SPLINE
  5
23B
330
1F
100
AcDbEntity
  8
0
  6
Continuous
 62
     7
370
    25
100
AcDbSpline
210
0.0
220
0.0
230
1.0
 70
     8
 71
     3
 72
    31
 73
    27
 74
     0
 42
0.000000001
 43
0.00000001
 40
0.0
 40
0.0
 40
0.0
 40
0.0
 40
0.043629434182047
 40
0.0875684828963763
 40
0.132459966809201
 40
0.1776747310168435
 40
0.2471514348504999
 40
0.3182082976799229
 40
0.3543483336054382
 40
0.3910257028896886
 40
0.4195224726612
 40
0.4487066439893457
 40
0.4718199668842243
 40
0.4955955638905977
 40
0.5187147629621509
 40
0.5424374424096507
 40
0.5764102163909688
 40
0.611314586225327
 40
0.668913478951127
 40
0.7280058305622973
 40
0.7704933098102823
 40
0.8132907126999142
 40
0.857004327823351
 40
0.9010157064162387
 40
0.9502816013671035
 40
1.0
 40
1.0
 40
1.0
 40
1.0
 10
727.465010649012
 20
556.8999153363371
 30
0.0
 10
727.5158199971617
 20
556.8416922931922
 30
0.0
 10
727.6177992599651
 20
556.7248330294084
 30
0.0
 10
727.7794083538571
 20
556.5584917115783
 30
0.0
 10
727.9466824416335
 20
556.3990977819665
 30
0.0
 10
728.1496817659377
 20
556.2223482086779
 30
0.0
 10
728.3898303960642
 20
556.0380779985974
 30
0.0
 10
728.6208480392814
 20
555.8955256489653
 30
0.0
 10
728.8091374217983
 20
555.8109810744074
 30
0.0
 10
728.9414985589406
 20
555.7715663258552
 30
0.0
 10
729.0630473850899
 20
555.7579606207175
 30
0.0
 10
729.1640784764944
 20
555.7687387292542
 30
0.0
 10
729.2534498233996
 20
555.8019362384341
 30
0.0
 10
729.3284436020527
 20
555.8525227318607
 30
0.0
 10
729.3943560993519
 20
555.9222891691805
 30
0.0
 10
729.4573596436879
 20
556.0196620563934
 30
0.0
 10
729.5121492052441
 20
556.1496695799187
 30
0.0
 10
729.5615794078416
 20
556.344834555814
 30
0.0
 10
729.5862728885485
 20
556.595011050495
 30
0.0
 10
729.5754103253219
 20
556.864786166745
 30
0.0
 10
729.5404376820669
 20
557.110068439479
 30
0.0
 10
729.4914952048443
 20
557.3279187694922
 30
0.0
 10
729.4247752096741
 20
557.5454772326328
 30
0.0
 10
729.336656408816
 20
557.7689698636909
 30
0.0
 10
729.2268637524148
 20
557.996287198474
 30
0.0
 10
729.1336081535848
 20
558.1449810142371
 30
0.0
 10
729.0867671966056
 20
558.2196677967428
 30
0.0
  0
SPLINE
  5
23C
330
1F
100
AcDbEntity
  8
0
  6
Continuous
 62
     7
370
    25
100
AcDbSpline
210
0.0
220
0.0
230
1.0
 70
     8
 71
     3
 72
    14
 73
    10
 74
     0
 42
0.000000001
 43
0.00000001
 40
0.0
 40
0.0
 40
0.0
 40
0.0
 40
0.2200911109485916
 40
0.3501199592093168
 40
0.4590676183974587
 40
0.5685351145662122
 40
0.6668402217393739
 40
0.7968948941937697
 40
1.0
 40
1.0
 40
1.0
 40
1.0
 10
727.1010334934
 20
556.7742874784493
 30
0.0
 10
727.1054301026252
 20
556.8152084620097
 30
0.0
 10
727.1124242090019
 20
556.8803053804323
 30
0.0
 10
727.1537796248916
 20
556.9525344517066
 30
0.0
 10
727.2005283349347
 20
556.9930266849055
 30
0.0
 10
727.2549678873215
 20
557.0102622263433
 30
0.0
 10
727.3166258682098
 20
557.0055758543568
 30
0.0
 10
727.3924581265258
 20
556.9738273218967
 30
0.0
 10
727.4375320872156
 20
556.927908781542
 30
0.0
 10
727.465010649012
 20
556.8999153363371
 30
0.0
  0
SPLINE
  5
23D
330
1F
100
AcDbEntity
  8
0
  6
Continuous
 62
     7
370
    25
100
AcDbSpline
210
0.0
220
0.0
230
1.0
 70
     8
 71
     3
 72
    32
 73
    28
 74
     0
 42
0.000000001
 43
0.00000001
 40
0.0
 40
0.0
 40
0.0
 40
0.0
 40
0.0453942490664892
 40
0.0911149500211758
 40
0.1378156604218426
 40
0.1848384153738231
 40
0.2588911921182419
 40
0.2966281930595899
 40
0.3346227841547627
 40
0.362738025735226
 40
0.391088402663786
 40
0.4192466010957646
 40
0.4481819119438961
 40
0.4658254771020938
 40
0.4839564361058746
 40
0.5016138628025708
 40
0.5197789833318783
 40
0.5448703289759831
 40
0.5706414417831535
 40
0.6177923775614181
 40
0.6660664783496382
 40
0.7088271620555704
 40
0.7519045224538832
 40
0.7958661863085262
 40
0.8400991772633689
 40
0.9191874857499419
 40
1.0
 40
1.0
 40
1.0
 40
1.0
 10
724.2275652211501
 20
556.5413596977667
 30
0.0
 10
724.2413007840006
 20
556.458659335865
 30
0.0
 10
724.2688706887435
 20
556.292663873965
 30
0.0
 10
724.3358544863503
 20
556.0446342055536
 30
0.0
 10
724.4209865396481
 20
555.7978486099566
 30
0.0
 10
724.5457853572825
 20
555.5081303242154
 30
0.0
 10
724.6898727505378
 20
555.2446479340983
 30
0.0
 10
724.8492978014273
 20
555.0113017409877
 30
0.0
 10
724.9721206648921
 20
554.8586310947711
 30
0.0
 10
725.0951182719905
 20
554.7300095732407
 30
0.0
 10
725.2154377743196
 20
554.625412239776
 30
0.0
 10
725.3489362315048
 20
554.535308431784
 30
0.0
 10
725.4780979170271
 20
554.4772190932392
 30
0.0
 10
725.5971597022569
 20
554.449265197475
 30
0.0
 10
725.6981956531929
 20
554.4430177976385
 30
0.0
 10
725.7997437802013
 20
554.4547666284344
 30
0.0
 10
725.9105127478841
 20
554.4868144138057
 30
0.0
 10
726.0280384854759
 20
554.5442405220703
 30
0.0
 10
726.1799500472055
 20
554.6500783735491
 30
0.0
 10
726.3447228315107
 20
554.8099351942865
 30
0.0
 10
726.5059765470662
 20
555.0151918284248
 30
0.0
 10
726.6426232144862
 20
555.2282856296807
 30
0.0
 10
726.7584040197685
 20
555.443834195298
 30
0.0
 10
726.8595079987075
 20
555.6691766334275
 30
0.0
 10
726.9668042996315
 20
555.9635939513605
 30
0.0
 10
727.0654908222517
 20
556.3328348654494
 30
0.0
 10
727.0891010734742
 20
556.626082580352
 30
0.0
 10
727.1010334934
 20
556.7742874784493
 30
0.0
  0
SPLINE
  5
23E
330
1F
100
AcDbEntity
  8
0
  6
Continuous
 62
     7
370
    25
100
AcDbSpline
210
0.0
220
0.0
230
1.0
 70
     8
 71
     3
 72
    15
 73
    11
 74
     0
 42
0.000000001
 43
0.00000001
 40
0.0
 40
0.0
 40
0.0
 40
0.0
 40
0.2150763736129478
 40
0.3413349926977608
 40
0.4465934903529929
 40
0.5524796219274377
 40
0.6449070621727576
 40
0.7662146539024404
 40
0.9406316560517843
 40
1.0
 40
1.0
 40
1.0
 40
1.0
 10
723.836087243544
 20
556.6058237394126
 30
0.0
 10
723.8618074068914
 20
556.6396915010147
 30
0.0
 10
723.9026263570204
 20
556.6934410224752
 30
0.0
 10
723.9774809851081
 20
556.7393388242576
 30
0.0
 10
724.040415366212
 20
556.7553924591534
 30
0.0
 10
724.0976197313812
 20
556.747491592334
 30
0.0
 10
724.1490389996507
 20
556.7173776737026
 30
0.0
 10
724.195039187257
 20
556.6607460644393
 30
0.0
 10
724.2184267665585
 20
556.5966160324334
 30
0.0
 10
724.2257145369057
 20
556.5525499955293
 30
0.0
 10
724.2275652211501
 20
556.5413596977667
 30
0.0
  0
SPLINE
  5
23F
330
1F
100
AcDbEntity
  8
0
  6
Continuous
 62
     7
370
    25
100
AcDbSpline
210
0.0
220
0.0
230
1.0
 70
     8
 71
     3
 72
    13
 73
     9
 74
     0
 42
0.000000001
 43
0.00000001
 40
0.0
 40
0.0
 40
0.0
 40
0.0
 40
0.1684891791252185
 40
0.3382046450702696
 40
0.5114784659549174
 40
0.6858689796812023
 40
0.8588562002822194
 40
1.0
 40
1.0
 40
1.0
 40
1.0
 10
721.8746874637126
 20
557.6371962867158
 30
0.0
 10
721.8369615734327
 20
557.5535434637454
 30
0.0
 10
721.7612352187895
 20
557.3856289813516
 30
0.0
 10
721.6739193782967
 20
557.1214704313019
 30
0.0
 10
721.6055659569553
 20
556.8491565512774
 30
0.0
 10
721.5597871154811
 20
556.5708572870473
 30
0.0
 10
721.5348380021736
 20
556.3074851821259
 30
0.0
 10
721.5358593791439
 20
556.137893617615
 30
0.0
 10
721.5363182992033
 20
556.0616935728349
 30
0.0
  0
SPLINE
  5
240
330
1F
100
AcDbEntity
  8
0
  6
Continuous
 62
     7
370
    25
100
AcDbSpline
210
0.0
220
0.0
230
1.0
 70
     8
 71
     3
 72
    17
 73
    13
 74
     0
 42
0.000000001
 43
0.00000001
 40
0.0
 40
0.0
 40
0.0
 40
0.0
 40
0.0289540616697064
 40
0.1020948974334177
 40
0.1886337451093744
 40
0.2757897430972566
 40
0.4533905438433376
 40
0.5513201088794288
 40
0.6497511356367939
 40
0.7497997847603478
 40
0.850436690188562
 40
1.0
 40
1.0
 40
1.0
 40
1.0
 10
722.19386644373
 20
554.8798430492566
 30
0.0
 10
722.210981243246
 20
554.8867152904681
 30
0.0
 10
722.2713297263404
 20
554.9109474955948
 30
0.0
 10
722.3777910844689
 20
554.985215956239
 30
0.0
 10
722.5162510715785
 20
555.0919684888364
 30
0.0
 10
722.7117547672838
 20
555.265469267246
 30
0.0
 10
722.9142710435472
 20
555.4659095670031
 30
0.0
 10
723.1224797005458
 20
555.6901147360389
 30
0.0
 10
723.2864952538151
 20
555.8769619237858
 30
0.0
 10
723.4494869029365
 20
556.0744076285662
 30
0.0
 10
723.6366700991969
 20
556.3146427053574
 30
0.0
 10
723.7614794159842
 20
556.496884337795
 30
0.0
 10
723.836087243544
 20
556.6058237394126
 30
0.0
  0
SPLINE
  5
241
330
1F
100
AcDbEntity
  8
0
  6
Continuous
 62
     7
370
    25
100
AcDbSpline
210
0.0
220
0.0
230
1.0
 70
     8
 71
     3
 72
    15
 73
    11
 74
     0
 42
0.000000001
 43
0.00000001
 40
0.0
 40
0.0
 40
0.0
 40
0.0
 40
0.2129294053201991
 40
0.3333107283175476
 40
0.4345062010027306
 40
0.5362836886506177
 40
0.625636715101961
 40
0.7456368547567117
 40
0.921192717688171
 40
1.0
 40
1.0
 40
1.0
 40
1.0
 10
721.7504995659451
 20
557.844078111309
 30
0.0
 10
721.7783519453977
 20
557.8648534607838
 30
0.0
 10
721.8219508878111
 20
557.8973743183614
 30
0.0
 10
721.8761018936098
 20
557.9106951008961
 30
0.0
 10
721.9098426453118
 20
557.9025477658312
 30
0.0
 10
721.9293915978033
 20
557.8759020635285
 30
0.0
 10
721.9356330619139
 20
557.8319588497802
 30
0.0
 10
721.926233651841
 20
557.7657662044717
 30
0.0
 10
721.9023377468792
 20
557.6968066714079
 30
0.0
 10
721.8812277910985
 20
557.6512963749187
 30
0.0
 10
721.8746874637125
 20
557.6371962867158
 30
0.0
  0
SPLINE
  5
242
330
1F
100
AcDbEntity
  8
0
  6
Continuous
 62
     7
370
    25
100
AcDbSpline
210
0.0
220
0.0
230
1.0
 70
     8
 71
     3
 72
    14
 73
    10
 74
     0
 42
0.000000001
 43
0.00000001
 40
0.0
 40
0.0
 40
0.0
 40
0.0
 40
0.0000220974891904
 40
0.1622818066521222
 40
0.3254324463961917
 40
0.4914135098054598
 40
0.6583675222624877
 40
0.8285684642130787
 40
1.0
 40
1.0
 40
1.0
 40
1.0
 10
720.9193076868796
 20
557.0779345223066
 30
0.0
 10
720.919311515899
 20
557.0779389774394
 30
0.0
 10
720.9474314604018
 20
557.1106570393907
 30
0.0
 10
721.0177715863471
 20
557.1845050283309
 30
0.0
 10
721.1316369415183
 20
557.2989143219547
 30
0.0
 10
721.2629517074502
 20
557.4223382519564
 30
0.0
 10
721.4099690446317
 20
557.5540869367054
 30
0.0
 10
721.5715557177767
 20
557.6937817525142
 30
0.0
 10
721.6907085498099
 20
557.7938591621482
 30
0.0
 10
721.7504995659452
 20
557.844078111309
 30
0.0
  0
SPLINE
  5
243
330
1F
100
AcDbEntity
  8
0
  6
Continuous
 62
     7
370
    25
100
AcDbSpline
210
0.0
220
0.0
230
1.0
 70
     8
 71
     3
 72
    12
 73
     8
 74
     0
 42
0.000000001
 43
0.00000001
 40
0.0
 40
0.0
 40
0.0
 40
0.0
 40
0.0180051693234185
 40
0.2111914196168408
 40
0.4814890201418167
 40
0.878251922044065
 40
1.0
 40
1.0
 40
1.0
 40
1.0
 10
722.3799597339722
 20
559.5431738575445
 30
0.0
 10
722.3790613849226
 20
559.5424454633416
 30
0.0
 10
722.3685242104206
 20
559.5339017721938
 30
0.0
 10
722.3345965316915
 20
559.5053877995124
 30
0.0
 10
722.2744325124503
 20
559.4539921959599
 30
0.0
 10
722.2189523635633
 20
559.4049921166335
 30
0.0
 10
722.1859025277972
 20
559.3748373291355
 30
0.0
 10
722.1781423180088
 20
559.3677568861716
 30
0.0
  0
LWPOLYLINE
  5
244
330
1F
100
AcDbEntity
  8
0
  6
Continuous
 62
     7
370
    25
100
AcDbPolyline
 90
       17
 70
   128
 43
0.0
 10
724.2275652212
 20
403.8129240296
 10
724.3023425202
 20
403.6833990928
 10
724.4211606519
 20
403.5629207173
 10
724.5801391804
 20
403.45542356
 10
724.7740860874
 20
403.3644183292
 10
724.9966673356
 20
403.2928771296
 10
725.2406137296
 20
403.2431363977
 10
725.4979583181
 20
403.2168205969
 10
725.7602965835
 20
403.2147891648
 10
726.0190609213
 20
403.2371084452
 10
726.2658004467
 20
403.2830495212
 10
726.4924569886
 20
403.351112021
 10
726.6916282584
 20
403.4390731176
 10
726.8568095982
 20
403.5440601235
 10
726.9826064143
 20
403.6626443084
 10
727.0649103569
 20
403.7909528772
 10
727.1010334934
 20
403.9247954497
  0
LWPOLYLINE
  5
245
330
1F
100
AcDbEntity
  8
0
  6
Continuous
 62
     7
370
    25
100
AcDbPolyline
 90
       14
 70
   128
 43
0.0
 10
721.5341566568
 20
404.4980507311
 10
721.5346027885
 20
404.4795150566
 10
721.5647798739
 20
404.3452823934
 10
721.6413711759
 20
404.2160389325
 10
721.7618753286
 20
404.0960055862
 10
721.9223568332
 20
403.9891024775
 10
722.1175745861
 20
403.8988209138
 10
722.341153046
 20
403.8281093658
 10
722.5857904501
 20
403.7792771748
 10
722.8434972796
 20
403.7539191324
 10
723.1058571864
 20
403.7528633973
 10
723.3643018595
 20
403.7761444482
 10
723.6103908537
 20
403.8230019584
 10
723.8360872435
 20
403.8919056263
  0
LWPOLYLINE
  5
246
330
1F
100
AcDbEntity
  8
0
  6
Continuous
 62
     7
370
    25
100
AcDbPolyline
 90
       13
 70
   128
 43
0.0
 10
727.465010649
 20
404.0331888341
 10
727.7082533131
 20
403.9825421549
 10
727.9652222424
 20
403.9552699678
 10
728.2275251874
 20
403.9522629446
 10
728.4865956975
 20
403.9736192906
 10
728.7339728886
 20
404.0186415371
 10
728.9615777644
 20
404.0858593198
 10
729.1619770648
 20
404.1730773992
 10
729.3286260264
 20
404.2774473535
 10
729.4560821248
 20
404.3955606046
 10
729.5401828205
 20
404.5235597374
 10
729.5781815013
 20
404.6572644774
 10
729.5803655842
 20
404.6982642472
  0
ARC
  5
247
330
1F
100
AcDbEntity
  8
0
  6
Continuous
 62
     7
370
    25
100
AcDbCircle
 10
723.9780220456
 20
403.5857304979
 30
0.0
 40
0.337473995020902
100
AcDbArc
 50
42.3159117662
 51
114.8712087101
  0
LWPOLYLINE
  5
248
330
1F
100
AcDbEntity
  8
0
  6
Continuous
 62
     7
370
    25
100
AcDbPolyline
 90
        9
 70
   128
 43
0.0
 10
727.1010334934
 20
403.9247954497
 10
727.1117219959
 20
403.9563908741
 10
727.137239953
 20
403.9856456966
 10
727.176004217
 20
404.010744932
 10
727.2256098318
 20
404.0301314102
 10
727.2829792381
 20
404.0426023835
 10
727.344553207
 20
404.047384146
 10
727.4065116559
 20
404.0441800346
 10
727.465010649
 20
404.0331888341
  0
ARC
  5
249
330
1F
100
AcDbEntity
  8
0
  6
Continuous
 62
     7
370
    25
100
AcDbCircle
 10
721.5849975146
 20
406.1558857726
 30
0.0
 40
0.9303109428652838
100
AcDbArc
 50
195.5590044358
 51
266.8672641082
  0
ARC
  5
24A
330
1F
100
AcDbEntity
  8
0
  6
Continuous
 62
     7
370
    25
100
AcDbCircle
 10
729.3775104089
 20
406.2254807443
 30
0.0
 40
0.6314210681202403
100
AcDbArc
 50
288.7396055208
 51
353.6833745906
  0
SPLINE
  5
24B
330
1F
100
AcDbEntity
  8
0
  6
Continuous
 62
     7
370
    25
100
AcDbSpline
210
0.0
220
0.0
230
1.0
 70
     8
 71
     3
 72
    32
 73
    28
 74
     0
 42
0.000000001
 43
0.00000001
 40
0.0
 40
0.0
 40
0.0
 40
0.0
 40
0.0441441928241972
 40
0.0886104352646734
 40
0.1340256948284942
 40
0.1797444149379634
 40
0.2245884288186215
 40
0.269722310376424
 40
0.3158695723814552
 40
0.3624409759686332
 40
0.3905644447044448
 40
0.4188972546593649
 40
0.4470561788819087
 40
0.4758699108998071
 40
0.4938447275986881
 40
0.5122867846817677
 40
0.5302841812509178
 40
0.548849708820278
 40
0.5722278000634903
 40
0.5962533137611142
 40
0.6386203767558887
 40
0.6820050825655936
 40
0.722328613128783
 40
0.7629537503048619
 40
0.8459909377782703
 40
0.9222549213514546
 40
1.0
 40
1.0
 40
1.0
 40
1.0
 10
437.5295487433845
 20
635.4736122671446
 30
0.0
 10
437.4842012211245
 20
635.4037709090567
 30
0.0
 10
437.3931753482166
 20
635.2635786721231
 30
0.0
 10
437.2766030475669
 20
635.0394190028367
 30
0.0
 10
437.1750256565667
 20
634.8057720720685
 30
0.0
 10
437.091664420268
 20
634.5651222308087
 30
0.0
 10
437.0268091622274
 20
634.320512359824
 30
0.0
 10
436.9806901470448
 20
634.0721349367814
 30
0.0
 10
436.9543854727415
 20
633.8193533117466
 30
0.0
 10
436.9510436597053
 20
633.5986666113395
 30
0.0
 10
436.9638468205552
 20
633.4138499437134
 30
0.0
 10
436.985460782923
 20
633.2657971906618
 30
0.0
 10
437.0204385914078
 20
633.1234051279641
 30
0.0
 10
437.0654710296129
 20
633.0092159959048
 30
0.0
 10
437.1165061490632
 20
632.9246110724905
 30
0.0
 10
437.1668614595125
 20
632.8671468390495
 30
0.0
 10
437.2245432549417
 20
632.8255178368639
 30
0.0
 10
437.2926512774732
 20
632.7991784921776
 30
0.0
 10
437.3714268512576
 20
632.7921461966557
 30
0.0
 10
437.4808075976506
 20
632.8090208465139
 30
0.0
 10
437.616052915783
 20
632.8625757683877
 30
0.0
 10
437.7719606402284
 20
632.9531306342919
 30
0.0
 10
437.9268489823944
 20
633.0613542069448
 30
0.0
 10
438.1326638592244
 20
633.2223830807017
 30
0.0
 10
438.3862683407539
 20
633.4470506477613
 30
0.0
 10
438.6877653912773
 20
633.7439391053723
 30
0.0
 10
438.8766492021186
 20
633.9590967922373
 30
0.0
 10
438.9719993491649
 20
634.067710214369
 30
0.0
  0
SPLINE
  5
24C
330
1F
100
AcDbEntity
  8
0
  6
Continuous
 62
     7
370
    25
100
AcDbSpline
210
0.0
220
0.0
230
1.0
 70
     8
 71
     3
 72
    14
 73
    10
 74
     0
 42
0.000000001
 43
0.00000001
 40
0.0
 40
0.0
 40
0.0
 40
0.0
 40
0.2207653484382755
 40
0.3402146168140431
 40
0.4605704991790858
 40
0.5641909618661073
 40
0.6633542991972701
 40
0.8105247403618856
 40
1.0
 40
1.0
 40
1.0
 40
1.0
 10
437.4978572791575
 20
635.7067743777519
 30
0.0
 10
437.5247631936977
 20
635.721621678026
 30
0.0
 10
437.5662270623259
 20
635.7445023910057
 30
0.0
 10
437.6091061799964
 20
635.7418940291356
 30
0.0
 10
437.6283511131768
 20
635.7204622043973
 30
0.0
 10
437.6300386679877
 20
635.6825656213266
 30
0.0
 10
437.6169345207306
 20
635.6308168100028
 30
0.0
 10
437.5846072057723
 20
635.5587853376439
 30
0.0
 10
437.5493772946885
 20
635.5042861821954
 30
0.0
 10
437.5295487433845
 20
635.4736122671446
 30
0.0
  0
SPLINE
  5
24D
330
1F
100
AcDbEntity
  8
0
  6
Continuous
 62
     7
370
    25
100
AcDbSpline
210
0.0
220
0.0
230
1.0
 70
     8
 71
     3
 72
    16
 73
    12
 74
     0
 42
0.000000001
 43
0.00000001
 40
0.0
 40
0.0
 40
0.0
 40
0.0
 40
0.0722254056287813
 40
0.1633764601466963
 40
0.3151215974911841
 40
0.4708360980170423
 40
0.576099910583624
 40
0.6821174546798411
 40
0.790426915219622
 40
0.89950675230352
 40
1.0
 40
1.0
 40
1.0
 40
1.0
 10
436.743110829289
 20
635.2036783626313
 30
0.0
 10
436.7403485968979
 20
635.1975868336069
 30
0.0
 10
436.7341003280759
 20
635.1838075762909
 30
0.0
 10
436.7531518045102
 20
635.1936105378691
 30
0.0
 10
436.8065620598062
 20
635.2333909163262
 30
0.0
 10
436.8974948975511
 20
635.3017407063023
 30
0.0
 10
437.0004606029395
 20
635.3756793853149
 30
0.0
 10
437.1049062408389
 20
635.4482582572716
 30
0.0
 10
437.225053889645
 20
635.5292101486588
 30
0.0
 10
437.3557379265518
 20
635.6151853291581
 30
0.0
 10
437.4517960535165
 20
635.6770901457583
 30
0.0
 10
437.4978572791575
 20
635.7067743777519
 30
0.0
  0
LINE
  5
24E
330
1F
100
AcDbEntity
  8
0
  6
Continuous
 62
     7
370
    25
100
AcDbLine
 10
444.4078028252
 20
636.8070721527
 30
0.0
 11
444.4348651526
 21
636.7836757043
 31
0.0
  0
SPLINE
  5
24F
330
1F
100
AcDbEntity
  8
0
  6
Continuous
 62
     7
370
    25
100
AcDbSpline
210
0.0
220
0.0
230
1.0
 70
     8
 71
     3
 72
    10
 73
     6
 74
     0
 42
0.000000001
 43
0.00000001
 40
0.0
 40
0.0
 40
0.0
 40
0.0
 40
0.0698576057332158
 40
0.8380005903364318
 40
1.0
 40
1.0
 40
1.0
 40
1.0
 10
444.4695876067333
 20
636.7536567744095
 30
0.0
 10
444.4716809961628
 20
636.7518603223849
 30
0.0
 10
444.4967929586938
 20
636.7303103731518
 30
0.0
 10
444.51803066157
 20
636.7052554949596
 30
0.0
 10
444.5299518964558
 20
636.6827065363168
 30
0.0
 10
444.5320281731914
 20
636.6787792688239
 30
0.0
  0
SPLINE
  5
250
330
1F
100
AcDbEntity
  8
0
  6
Continuous
 62
     7
370
    25
100
AcDbSpline
210
0.0
220
0.0
230
1.0
 70
     8
 71
     3
 72
    14
 73
    10
 74
     0
 42
0.000000001
 43
0.00000001
 40
0.0
 40
0.0
 40
0.0
 40
0.0
 40
0.2200911109486038
 40
0.3501199592093362
 40
0.4590676183974404
 40
0.5685351145661985
 40
0.6668402217393979
 40
0.7968948941937585
 40
0.9999999999999999
 40
0.9999999999999999
 40
0.9999999999999999
 40
0.9999999999999999
 10
444.6182598567723
 20
636.6023755856104
 30
0.0
 10
444.5873796714903
 20
636.6296565191417
 30
0.0
 10
444.5382556102564
 20
636.6730549067187
 30
0.0
 10
444.4719482548904
 20
636.7324327791198
 30
0.0
 10
444.4269979012222
 20
636.7738512343241
 30
0.0
 10
444.3965877742785
 20
636.8034628447831
 30
0.0
 10
444.3799125137899
 20
636.8219442865156
 30
0.0
 10
444.3783819536123
 20
636.828463957627
 30
0.0
 10
444.3966599564299
 20
636.8151740905992
 30
0.0
 10
444.4078028252227
 20
636.8070721526552
 30
0.0
  0
SPLINE
  5
251
330
1F
100
AcDbEntity
  8
0
  6
Continuous
 62
     7
370
    25
100
AcDbSpline
210
0.0
220
0.0
230
1.0
 70
     8
 71
     3
 72
    32
 73
    28
 74
     0
 42
0.000000001
 43
0.00000001
 40
0.0
 40
0.0
 40
0.0
 40
0.0
 40
0.0453942490664916
 40
0.0911149500211782
 40
0.1378156604218412
 40
0.1848384153738216
 40
0.2588911921182425
 40
0.2966281930595909
 40
0.33462278415476
 40
0.3627380257352233
 40
0.3910884026637865
 40
0.4192466010957611
 40
0.4481819119438969
 40
0.4658254771020921
 40
0.4839564361058771
 40
0.5016138628025706
 40
0.5197789833318744
 40
0.5448703289759825
 40
0.5706414417831499
 40
0.61779237756142
 40
0.6660664783496351
 40
0.7088271620555672
 40
0.7519045224538807
 40
0.7958661863085266
 40
0.8400991772633691
 40
0.9191874857499419
 40
0.9999999999999999
 40
0.9999999999999999
 40
0.9999999999999999
 40
0.9999999999999999
 10
444.8354698565321
 20
635.0013736578004
 30
0.0
 10
444.8930425578813
 20
634.9553997670175
 30
0.0
 10
445.0086019935785
 20
634.8631213650808
 30
0.0
 10
445.1721284148696
 20
634.7338132360578
 30
0.0
 10
445.3275729323
 20
634.6109337343172
 30
0.0
 10
445.5001757081089
 20
634.474388592738
 30
0.0
 10
445.6449857345082
 20
634.3596993734866
 30
0.0
 10
445.7628069718621
 20
634.2691455749487
 30
0.0
 10
445.8350558983893
 20
634.2169443279187
 30
0.0
 10
445.8922882782657
 20
634.1811481119212
 30
0.0
 10
445.9362047537442
 20
634.161138560297
 30
0.0
 10
445.9716249650856
 20
634.1580342981596
 30
0.0
 10
445.9925274078037
 20
634.1772336993365
 30
0.0
 10
446.001108055393
 20
634.2150205164486
 30
0.0
 10
446.0013603881245
 20
634.260940439243
 30
0.0
 10
445.9944487776536
 20
634.3214306793325
 30
0.0
 10
445.9791454208801
 20
634.4026468891667
 30
0.0
 10
445.9530542796903
 20
634.5071652959424
 30
0.0
 10
445.9048919092319
 20
634.666437931167
 30
0.0
 10
445.8298442408183
 20
634.8725066028641
 30
0.0
 10
445.7271692260204
 20
635.1079334982714
 30
0.0
 10
445.6138279052687
 20
635.3330304404104
 30
0.0
 10
445.492718089007
 20
635.5458343624717
 30
0.0
 10
445.3594270663568
 20
635.7545992475714
 30
0.0
 10
445.1765207284385
 20
636.0100745176068
 30
0.0
 10
444.9338707927628
 20
636.3051687925781
 30
0.0
 10
444.7242170653819
 20
636.5025970336706
 30
0.0
 10
444.6182598567723
 20
636.6023755856104
 30
0.0
  0
SPLINE
  5
252
330
1F
100
AcDbEntity
  8
0
  6
Continuous
 62
     7
370
    25
100
AcDbSpline
210
0.0
220
0.0
230
1.0
 70
     8
 71
     3
 72
    15
 73
    11
 74
     0
 42
0.000000001
 43
0.00000001
 40
0.0
 40
0.0
 40
0.0
 40
0.0
 40
0.215076373612953
 40
0.3413349926977419
 40
0.4465934903529893
 40
0.5524796219274801
 40
0.6449070621728041
 40
0.766214653902467
 40
0.9406316560518095
 40
1.0
 40
1.0
 40
1.0
 40
1.0
 10
444.682118870276
 20
634.7852300387439
 30
0.0
 10
444.6668245209177
 20
634.8244674915123
 30
0.0
 10
444.6425517635764
 20
634.886738932253
 30
0.0
 10
444.6323357930817
 20
634.9659281038071
 30
0.0
 10
444.6389368159744
 20
635.0177951193152
 30
0.0
 10
444.6602401893048
 20
635.0503287269983
 30
0.0
 10
444.6950961493548
 20
635.0646498358728
 30
0.0
 10
444.7463977336391
 20
635.0581323438895
 30
0.0
 10
444.7961333546151
 20
635.0316635441858
 30
0.0
 10
444.8275035813159
 20
635.007507847661
 30
0.0
 10
444.8354698565321
 20
635.0013736578004
 30
0.0
  0
SPLINE
  5
253
330
1F
100
AcDbEntity
  8
0
  6
Continuous
 62
     7
370
    25
100
AcDbSpline
210
0.0
220
0.0
230
1.0
 70
     8
 71
     3
 72
    12
 73
     8
 74
     0
 42
0.000000001
 43
0.00000001
 40
0.0
 40
0.0
 40
0.0
 40
0.0
 40
0.2409415230648797
 40
0.4836366508159404
 40
0.7314202683038689
 40
0.980800769790263
 40
1.0
 40
1.0
 40
1.0
 40
1.0
 10
442.5709791308703
 20
633.719089672064
 30
0.0
 10
442.6193966083709
 20
633.6409581718058
 30
0.0
 10
442.7165839522604
 20
633.4841265197625
 30
0.0
 10
442.8756859492722
 20
633.2567157420999
 30
0.0
 10
443.0431909727819
 20
633.0363435740624
 30
0.0
 10
443.1629718868109
 20
632.8863879263141
 30
0.0
 10
443.2269500447118
 20
632.8137402511967
 30
0.0
 10
443.2315234776144
 20
632.8085470840505
 30
0.0
  0
SPLINE
  5
254
330
1F
100
AcDbEntity
  8
0
  6
Continuous
 62
     7
370
    25
100
AcDbSpline
210
0.0
220
0.0
230
1.0
 70
     8
 71
     3
 72
    13
 73
     9
 74
     0
 42
0.000000001
 43
0.00000001
 40
0.0
 40
0.0
 40
0.0
 40
0.0
 40
0.1751626608041135
 40
0.3229390319282658
 40
0.4714721121565574
 40
0.622446195395915
 40
0.774307961348471
 40
0.9999999999999999
 40
0.9999999999999999
 40
0.9999999999999999
 40
0.9999999999999999
 10
444.9329462955267
 20
633.0805501473712
 30
0.0
 10
444.9434446955105
 20
633.1816609411828
 30
0.0
 10
444.9628000941555
 20
633.3680740826659
 30
0.0
 10
444.9530551013659
 20
633.6419181146804
 30
0.0
 10
444.9291329246659
 20
633.9004226693835
 30
0.0
 10
444.8842213061036
 20
634.1588188680972
 30
0.0
 10
444.8108210861425
 20
634.4576168636955
 30
0.0
 10
444.7302701601732
 20
634.662660300067
 30
0.0
 10
444.682118870276
 20
634.785230038744
 30
0.0
  0
SPLINE
  5
255
330
1F
100
AcDbEntity
  8
0
  6
Continuous
 62
     7
370
    25
100
AcDbSpline
210
0.0
220
0.0
230
1.0
 70
     8
 71
     3
 72
    15
 73
    11
 74
     0
 42
0.000000001
 43
0.00000001
 40
0.0
 40
0.0
 40
0.0
 40
0.0
 40
0.212929405320195
 40
0.3333107283175412
 40
0.4345062010027222
 40
0.5362836886506415
 40
0.625636715101983
 40
0.7456368547567166
 40
0.9211927176881726
 40
1.0
 40
1.0
 40
1.0
 40
1.0
 10
442.1692965472492
 20
633.6551281762709
 30
0.0
 10
442.1797688755688
 20
633.6956422094581
 30
0.0
 10
442.1961618175118
 20
633.759061171665
 30
0.0
 10
442.2472612203825
 20
633.8265899220642
 30
0.0
 10
442.2986680599186
 20
633.8622968384738
 30
0.0
 10
442.3547700400708
 20
633.8746142468849
 30
0.0
 10
442.4152904698592
 20
633.8650559504481
 30
0.0
 10
442.4830288352069
 20
633.8289100883561
 30
0.0
 10
442.5354477076269
 20
633.774640969543
 30
0.0
 10
442.5625746187321
 20
633.7322296341408
 30
0.0
 10
442.5709791308703
 20
633.719089672064
 30
0.0
  0
SPLINE
  5
256
330
1F
100
AcDbEntity
  8
0
  6
Continuous
 62
     7
370
    25
100
AcDbSpline
210
0.0
220
0.0
230
1.0
 70
     8
 71
     3
 72
    14
 73
    10
 74
     0
 42
0.000000001
 43
0.00000001
 40
0.0
 40
0.0
 40
0.0
 40
0.0
 40
0.1535170031024409
 40
0.3081569666039936
 40
0.4660367977526793
 40
0.624924948172669
 40
0.7827837148304655
 40
0.9415752279388114
 40
1.0
 40
1.0
 40
1.0
 40
1.0
 10
439.3195383518528
 20
633.9313252759896
 30
0.0
 10
439.3202080109456
 20
633.8426125260278
 30
0.0
 10
439.3215522276157
 20
633.6645381018604
 30
0.0
 10
439.3518918641013
 20
633.3949548865079
 30
0.0
 10
439.4018312783847
 20
633.1242256212115
 30
0.0
 10
439.4720737875513
 20
632.8547712330206
 30
0.0
 10
439.5622432357029
 20
632.5901657836625
 30
0.0
 10
439.6438523615518
 20
632.3845221856992
 30
0.0
 10
439.7021517792576
 20
632.2706217639204
 30
0.0
 10
439.7178326025812
 20
632.2399859109275
 30
0.0
  0
SPLINE
  5
257
330
1F
100
AcDbEntity
  8
0
  6
Continuous
 62
     7
370
    25
100
AcDbSpline
210
0.0
220
0.0
230
1.0
 70
     8
 71
     3
 72
    12
 73
     8
 74
     0
 42
0.000000001
 43
0.00000001
 40
0.0
 40
0.0
 40
0.0
 40
0.0
 40
0.0340046658610259
 40
0.2716931404284648
 40
0.5107748990865484
 40
0.7545063310416689
 40
1.0
 40
1.0
 40
1.0
 40
1.0
 10
441.7986543743008
 20
632.5766901087827
 30
0.0
 10
441.8047176249518
 20
632.5882112016644
 30
0.0
 10
441.853162259499
 20
632.680263331188
 30
0.0
 10
441.9309425765105
 20
632.8602941719456
 30
0.0
 10
442.0295787727052
 20
633.1175797782001
 30
0.0
 10
442.1119198259453
 20
633.3831713641117
 30
0.0
 10
442.1501251004272
 20
633.5642584743483
 30
0.0
 10
442.1692965472492
 20
633.6551281762709
 30
0.0
  0
SPLINE
  5
258
330
1F
100
AcDbEntity
  8
0
  6
Continuous
 62
     7
370
    25
100
AcDbSpline
210
0.0
220
0.0
230
1.0
 70
     8
 71
     3
 72
    15
 73
    11
 74
     0
 42
0.000000001
 43
0.00000001
 40
0.0
 40
0.0
 40
0.0
 40
0.0
 40
0.2155767705931995
 40
0.3329005538676457
 40
0.4328760582229343
 40
0.5332634977247049
 40
0.6250838127944922
 40
0.7535547096886271
 40
0.9421338378891807
 40
1.0
 40
1.0
 40
1.0
 40
1.0
 10
438.9719993491649
 20
634.067710214369
 30
0.0
 10
439.0014386336964
 20
634.0979544788247
 30
0.0
 10
439.046899719782
 20
634.1446586406921
 30
0.0
 10
439.1224607577357
 20
634.1764670419973
 30
0.0
 10
439.1801055031852
 20
634.1809180449113
 30
0.0
 10
439.229408448793
 20
634.1640537679917
 30
0.0
 10
439.2720701542374
 20
634.1263910986805
 30
0.0
 10
439.3073443854876
 20
634.0602533684602
 30
0.0
 10
439.3194293344996
 20
633.9895689792369
 30
0.0
 10
439.3195176217232
 20
633.9424005725228
 30
0.0
 10
439.3195383518528
 20
633.9313252759896
 30
0.0
  0
SPLINE
  5
259
330
1F
100
AcDbEntity
  8
0
  6
Continuous
 62
     7
370
    25
100
AcDbSpline
210
0.0
220
0.0
230
1.0
 70
     8
 71
     3
 72
    32
 73
    28
 74
     0
 42
0.000000001
 43
0.00000001
 40
0.0
 40
0.0
 40
0.0
 40
0.0
 40
0.0441441928241951
 40
0.0886104352646735
 40
0.1340256948284909
 40
0.1797444149379599
 40
0.2245884288186174
 40
0.2697223103764197
 40
0.3158695723814539
 40
0.3624409759686318
 40
0.3905644447044433
 40
0.4188972546593602
 40
0.447056178881907
 40
0.4758699108998053
 40
0.4938447275986871
 40
0.5122867846817625
 40
0.5302841812509193
 40
0.5488497088202793
 40
0.5722278000634915
 40
0.5962533137611142
 40
0.6386203767558885
 40
0.6820050825655933
 40
0.7223286131287829
 40
0.7629537503048609
 40
0.8459909377782691
 40
0.9222549213514466
 40
1.0
 40
1.0
 40
1.0
 40
1.0
 10
291.8153339712539
 20
487.4620355311268
 30
0.0
 10
291.8522013139009
 20
487.387826557656
 30
0.0
 10
291.9262049612665
 20
487.2388672264487
 30
0.0
 10
292.0549953628543
 20
487.0210003443481
 30
0.0
 10
292.1956028434242
 20
486.8074553957755
 30
0.0
 10
292.346913891126
 20
486.6018022945714
 30
0.0
 10
292.5065604497661
 20
486.4060135525656
 30
0.0
 10
292.6746699713299
 20
486.2204658850869
 30
0.0
 10
292.8527976074669
 20
486.0458788660421
 30
0.0
 10
293.0164983301315
 20
485.9077831097446
 30
0.0
 10
293.1622512964484
 20
485.8046288846198
 30
0.0
 10
293.2866044024967
 20
485.7317547294855
 30
0.0
 10
293.4174316895127
 20
485.6747586039849
 30
0.0
 10
293.5378359557464
 20
485.645775673699
 30
0.0
 10
293.6448235180637
 20
485.6425584480945
 30
0.0
 10
293.7338071034007
 20
485.6568590512993
 30
0.0
 10
293.8205864151984
 20
485.6896330196792
 30
0.0
 10
293.9086931770674
 20
485.743750236823
 30
0.0
 10
293.9953582288288
 20
485.821926162594
 30
0.0
 10
294.0969956899704
 20
485.9474832238321
 30
0.0
 10
294.1969646190119
 20
486.1221824387617
 30
0.0
 10
294.2837221322735
 20
486.337719141542
 30
0.0
 10
294.3473463117147
 20
486.5584849826673
 30
0.0
 10
294.4065475617491
 20
486.8560072522242
 30
0.0
 10
294.4348163402655
 20
487.2258502805067
 30
0.0
 10
294.4105492007855
 20
487.6655226978089
 30
0.0
 10
294.3437276335333
 20
487.9435470876314
 30
0.0
 10
294.3099955405869
 20
488.0838961537263
 30
0.0
  0
SPLINE
  5
25A
330
1F
100
AcDbEntity
  8
0
  6
Continuous
 62
     7
370
    25
100
AcDbSpline
210
0.0
220
0.0
230
1.0
 70
     8
 71
     3
 72
    14
 73
    10
 74
     0
 42
0.000000001
 43
0.00000001
 40
0.0
 40
0.0
 40
0.0
 40
0.0
 40
0.2207653484382851
 40
0.3402146168140374
 40
0.4605704991790523
 40
0.5641909618660973
 40
0.6633542991972208
 40
0.8105247403618426
 40
1.0
 40
1.0
 40
1.0
 40
1.0
 10
291.3960880016473
 20
487.4629476939074
 30
0.0
 10
291.4142209634359
 20
487.500991730342
 30
0.0
 10
291.442165107253
 20
487.5596202124349
 30
0.0
 10
291.5115523049387
 20
487.614833277503
 30
0.0
 10
291.5749491002717
 20
487.6359650895257
 30
0.0
 10
291.6380205798476
 20
487.6314218748585
 30
0.0
 10
291.7006675337392
 20
487.6051894952894
 30
0.0
 10
291.7660700516199
 20
487.5501930117709
 30
0.0
 10
291.7975922451772
 20
487.4937842406252
 30
0.0
 10
291.815333971254
 20
487.4620355311267
 30
0.0
  0
SPLINE
  5
25B
330
1F
100
AcDbEntity
  8
0
  6
Continuous
 62
     7
370
    25
100
AcDbSpline
210
0.0
220
0.0
230
1.0
 70
     8
 71
     3
 72
    32
 73
    28
 74
     0
 42
0.000000001
 43
0.00000001
 40
0.0
 40
0.0
 40
0.0
 40
0.0
 40
0.0430379910819402
 40
0.0863861263481843
 40
0.1306715836239354
 40
0.1752669939041054
 40
0.2185320463381532
 40
0.2621050719941931
 40
0.3067938579277209
 40
0.3519663346176112
 40
0.3854310965017746
 40
0.4193289160972142
 40
0.4528593258451257
 40
0.4875791928901093
 40
0.5106386088136732
 40
0.5343801485774108
 40
0.5574353916329483
 40
0.5810375265201545
 40
0.617616620090283
 40
0.6551846333990727
 40
0.7177265685357798
 40
0.7819044813319177
 40
0.8252890843115631
 40
0.8689843386192255
 40
0.913624208959138
 40
0.9585815908891885
 40
0.9999999999999999
 40
0.9999999999999999
 40
0.9999999999999999
 40
0.9999999999999999
 10
288.712938658575
 20
488.0972130775943
 30
0.0
 10
288.7009144131403
 20
488.024293362411
 30
0.0
 10
288.676779272088
 20
487.8779284515322
 30
0.0
 10
288.6650047143389
 20
487.6534288967603
 30
0.0
 10
288.6711029976459
 20
487.4258822503423
 30
0.0
 10
288.6970099972244
 20
487.1992866429487
 30
0.0
 10
288.7417133013667
 20
486.9763815555221
 30
0.0
 10
288.8056162547509
 20
486.7574359364286
 30
0.0
 10
288.891017190666
 20
486.5418281531843
 30
0.0
 10
288.9909316716347
 20
486.3516987250233
 30
0.0
 10
289.1010053821864
 20
486.1897558451341
 30
0.0
 10
289.2160795422653
 20
486.0572465692102
 30
0.0
 10
289.3510876536953
 20
485.942236578808
 30
0.0
 10
289.4895324288094
 20
485.8653184498212
 30
0.0
 10
289.6233677630035
 20
485.824203317697
 30
0.0
 10
289.7422790169425
 20
485.8101748098832
 30
0.0
 10
289.8626069091235
 20
485.8172301868636
 30
0.0
 10
290.0020895775037
 20
485.8477011892593
 30
0.0
 10
290.1588632556358
 20
485.9111107713613
 30
0.0
 10
290.3632057279372
 20
486.0329518956744
 30
0.0
 10
290.5868495927775
 20
486.2171712314142
 30
0.0
 10
290.7929721238815
 20
486.4379999900148
 30
0.0
 10
290.9583318452793
 20
486.6502306491281
 30
0.0
 10
291.0897652873421
 20
486.8442742167261
 30
0.0
 10
291.2089881682076
 20
487.0485170857839
 30
0.0
 10
291.3130769635166
 20
487.2554076279811
 30
0.0
 10
291.3691839235755
 20
487.3956834569763
 30
0.0
 10
291.3960880016473
 20
487.4629476939074
 30
0.0
  0
SPLINE
  5
25C
330
1F
100
AcDbEntity
  8
0
  6
Continuous
 62
     7
370
    25
100
AcDbSpline
210
0.0
220
0.0
230
1.0
 70
     8
 71
     3
 72
    14
 73
    10
 74
     0
 42
0.000000001
 43
0.00000001
 40
0.0
 40
0.0
 40
0.0
 40
0.0
 40
0.2243030424882456
 40
0.3489011866264412
 40
0.4744001356118128
 40
0.5826741857064961
 40
0.6867417687946553
 40
0.838156487169681
 40
1.0
 40
1.0
 40
1.0
 40
1.0
 10
288.4267656875966
 20
488.2632525588617
 30
0.0
 10
288.4597935140074
 20
488.2881070244006
 30
0.0
 10
288.5111679746416
 20
488.326767902217
 30
0.0
 10
288.5893439839269
 20
488.3442882381109
 30
0.0
 10
288.6447318346386
 20
488.3348173623914
 30
0.0
 10
288.6852307469596
 20
488.3031664750881
 30
0.0
 10
288.7127942538348
 20
488.2529724908993
 30
0.0
 10
288.7248333558421
 20
488.1825216024008
 30
0.0
 10
288.716990589796
 20
488.1262734451943
 30
0.0
 10
288.712938658575
 20
488.0972130775943
 30
0.0
  0
SPLINE
  5
25D
330
1F
100
AcDbEntity
  8
0
  6
Continuous
 62
     7
370
    25
100
AcDbSpline
210
0.0
220
0.0
230
1.0
 70
     8
 71
     3
 72
    31
 73
    27
 74
     0
 42
0.000000001
 43
0.00000001
 40
0.0
 40
0.0
 40
0.0
 40
0.0
 40
0.0425833337774446
 40
0.0854693441808151
 40
0.129285707294794
 40
0.1734170152399147
 40
0.2449145713515249
 40
0.2814363788217585
 40
0.318227737502653
 40
0.3578646940443307
 40
0.398160095141097
 40
0.4288325139380242
 40
0.4602505469959394
 40
0.4856124894106369
 40
0.511701696652683
 40
0.5370695264658054
 40
0.5631025307145386
 40
0.5995567496813843
 40
0.6370216898153832
 40
0.6960149548444077
 40
0.7565748829862475
 40
0.7982000521028652
 40
0.8401283317747267
 40
0.8829575785658599
 40
0.9260808780984698
 40
1.0
 40
1.0
 40
1.0
 40
1.0
 10
287.5755947523907
 20
489.6811990679981
 30
0.0
 10
287.526270143154
 20
489.6260223395939
 30
0.0
 10
287.4272703319726
 20
489.5152766939994
 30
0.0
 10
287.2909300243101
 20
489.3357195661021
 30
0.0
 10
287.1641716949645
 20
489.1466241688719
 30
0.0
 10
287.0258030599858
 20
488.9075851630288
 30
0.0
 10
286.9148297513623
 20
488.6707182461972
 30
0.0
 10
286.831060315393
 20
488.4417202439182
 30
0.0
 10
286.7782973401589
 20
488.2624492065966
 30
0.0
 10
286.7389831842845
 20
488.0786802961259
 30
0.0
 10
286.7193575831069
 20
487.9095774129789
 30
0.0
 10
286.7187775891222
 20
487.7627741860383
 30
0.0
 10
286.7335707628856
 20
487.6494310970755
 30
0.0
 10
286.7622868353939
 20
487.5583039278753
 30
0.0
 10
286.8013494516128
 20
487.4911387470394
 30
0.0
 10
286.8521286175723
 20
487.4430729851668
 30
0.0
 10
286.9203219694712
 20
487.4105178227473
 30
0.0
 10
287.0093551119579
 20
487.4005408081018
 30
0.0
 10
287.1399519328552
 20
487.4205120462859
 30
0.0
 10
287.3081077570399
 20
487.4824751946392
 30
0.0
 10
287.4926598491463
 20
487.5787440395002
 30
0.0
 10
287.6645710741358
 20
487.6832952499651
 30
0.0
 10
287.8194610793768
 20
487.7863464176621
 30
0.0
 10
287.9794534089443
 20
487.9011263824339
 30
0.0
 10
288.1824456405109
 20
488.0555697827892
 30
0.0
 10
288.3321920733073
 20
488.1828608309086
 30
0.0
 10
288.4267656875966
 20
488.2632525588617
 30
0.0
  0
SPLINE
  5
25E
330
1F
100
AcDbEntity
  8
0
  6
Continuous
 62
     7
370
    25
100
AcDbSpline
210
0.0
220
0.0
230
1.0
 70
     8
 71
     3
 72
    14
 73
    10
 74
     0
 42
0.000000001
 43
0.00000001
 40
0.0
 40
0.0
 40
0.0
 40
0.0
 40
0.2239799089308053
 40
0.3530600787851152
 40
0.4831615846562242
 40
0.5937368434045829
 40
0.6971871626482309
 40
0.8442013099710126
 40
1.0
 40
1.0
 40
1.0
 40
1.0
 10
287.637988864052
 20
489.8879477533171
 30
0.0
 10
287.6602213643173
 20
489.8996222641058
 30
0.0
 10
287.6952665089141
 20
489.918024824043
 30
0.0
 10
287.7217154205589
 20
489.9127195526595
 30
0.0
 10
287.7252285984505
 20
489.8903675740787
 30
0.0
 10
287.70989473126
 20
489.8532044274786
 30
0.0
 10
287.679699963821
 20
489.8050899090437
 30
0.0
 10
287.6339589193183
 20
489.7457487044681
 30
0.0
 10
287.5954221230717
 20
489.7031277553587
 30
0.0
 10
287.5755947523907
 20
489.6811990679981
 30
0.0
  0
SPLINE
  5
25F
330
1F
100
AcDbEntity
  8
0
  6
Continuous
 62
     7
370
    25
100
AcDbSpline
210
0.0
220
0.0
230
1.0
 70
     8
 71
     3
 72
    14
 73
    10
 74
     0
 42
0.000000001
 43
0.00000001
 40
0.0
 40
0.0
 40
0.0
 40
0.0
 40
0.1457216698337556
 40
0.2791661951335993
 40
0.4135841275164576
 40
0.5508796960589025
 40
0.6891104790583074
 40
0.8438446285431226
 40
1.0
 40
1.0
 40
1.0
 40
1.0
 10
287.1476959120731
 20
489.4500331302951
 30
0.0
 10
287.1486960866968
 20
489.463312885068
 30
0.0
 10
287.1506121705881
 20
489.4887535667214
 30
0.0
 10
287.184788392156
 20
489.540201241227
 30
0.0
 10
287.2331315826117
 20
489.5951823062982
 30
0.0
 10
287.3000159194953
 20
489.656270591059
 30
0.0
 10
287.3880890185779
 20
489.7251433288915
 30
0.0
 10
287.4978951198993
 20
489.8016400238221
 30
0.0
 10
287.5911488471436
 20
489.8590909650762
 30
0.0
 10
287.6379888640521
 20
489.887947753317
 30
0.0
  0
SPLINE
  5
260
330
1F
100
AcDbEntity
  8
0
  6
Continuous
 62
     7
370
    25
100
AcDbSpline
210
0.0
220
0.0
230
1.0
 70
     8
 71
     3
 72
    12
 73
     8
 74
     0
 42
0.000000001
 43
0.00000001
 40
0.0
 40
0.0
 40
0.0
 40
0.0
 40
0.216874639098339
 40
0.4353277208768585
 40
0.6583610193038314
 40
0.8828316940553184
 40
1.0
 40
1.0
 40
1.0
 40
1.0
 10
294.8500685969453
 20
489.8670454170884
 30
0.0
 10
294.8877776836475
 20
489.8332626667525
 30
0.0
 10
294.9634703088373
 20
489.7654512906975
 30
0.0
 10
295.0510423141453
 20
489.6652350404913
 30
0.0
 10
295.1183989498526
 20
489.5652495793047
 30
0.0
 10
295.1601342669123
 20
489.4813398315478
 30
0.0
 10
295.1710248510391
 20
489.4316049971431
 30
0.0
 10
295.1747598794316
 20
489.4145479672873
 30
0.0
  0
SPLINE
  5
261
330
1F
100
AcDbEntity
  8
0
  6
Continuous
 62
     7
370
    25
100
AcDbSpline
210
0.0
220
0.0
230
1.0
 70
     8
 71
     3
 72
    15
 73
    11
 74
     0
 42
0.000000001
 43
0.00000001
 40
0.0
 40
0.0
 40
0.0
 40
0.0
 40
0.2129294053201975
 40
0.333310728317534
 40
0.434506201002738
 40
0.5362836886506244
 40
0.625636715101967
 40
0.745636854756678
 40
0.9211927176881716
 40
1.0
 40
1.0
 40
1.0
 40
1.0
 10
294.9742564947126
 20
489.6601635924955
 30
0.0
 10
294.94640411526
 20
489.6917262376054
 30
0.0
 10
294.9028051728466
 20
489.741133073704
 30
0.0
 10
294.8486541670478
 20
489.8070901324057
 30
0.0
 10
294.8149134153459
 20
489.8518957566844
 30
0.0
 10
294.7953644628544
 20
489.8830393660942
 30
0.0
 10
294.7891229987438
 20
489.901436803648
 30
0.0
 10
294.7985224088167
 20
489.9050198329119
 30
0.0
 10
294.8224183137784
 20
489.8900557301285
 30
0.0
 10
294.8435282695593
 20
489.872488217787
 30
0.0
 10
294.8500685969452
 20
489.8670454170885
 30
0.0
  0
SPLINE
  5
262
330
1F
100
AcDbEntity
  8
0
  6
Continuous
 62
     7
370
    25
100
AcDbSpline
210
0.0
220
0.0
230
1.0
 70
     8
 71
     3
 72
    32
 73
    28
 74
     0
 42
0.000000001
 43
0.00000001
 40
0.0
 40
0.0
 40
0.0
 40
0.0
 40
0.0447120024448267
 40
0.0897510683881286
 40
0.1357337494830534
 40
0.1820101047170829
 40
0.227986650754986
 40
0.2742348602616567
 40
0.321388713952818
 40
0.368899919749515
 40
0.423659855830166
 40
0.4510230069928937
 40
0.4792153189811565
 40
0.5037509674809538
 40
0.5283882607505054
 40
0.544570426313285
 40
0.5611899076196833
 40
0.6013390629672041
 40
0.6426114615938127
 40
0.6855038326376931
 40
0.7287054836939664
 40
0.7727266257639926
 40
0.8169894777562733
 40
0.8620202251363054
 40
0.9073149340905278
 40
0.9534905366767237
 40
1.0
 40
1.0
 40
1.0
 40
1.0
 10
294.5466137426488
 20
488.2483744175261
 30
0.0
 10
294.607478688398
 20
488.1913531335399
 30
0.0
 10
294.729653800441
 20
488.0768934609956
 30
0.0
 10
294.9068665290812
 20
487.914225886823
 30
0.0
 10
295.0783428081712
 20
487.7574630415383
 30
0.0
 10
295.2412764758917
 20
487.6083711122749
 30
0.0
 10
295.3937864132014
 20
487.4677582384498
 30
0.0
 10
295.5355045062553
 20
487.3357587566798
 30
0.0
 10
295.6659837596903
 20
487.2133329291195
 30
0.0
 10
295.7897587912919
 20
487.0990045094917
 30
0.0
 10
295.8830145891077
 20
487.0203369586033
 30
0.0
 10
295.9509234110516
 20
486.9851379817361
 30
0.0
 10
295.9933368440684
 20
486.9866800406046
 30
0.0
 10
296.0237326915679
 20
487.0335643255754
 30
0.0
 10
296.0357494074661
 20
487.1177827379515
 30
0.0
 10
296.0364959877521
 20
487.2109050315308
 30
0.0
 10
296.0295406329364
 20
487.3403662891158
 30
0.0
 10
296.0055223008508
 20
487.5278105800827
 30
0.0
 10
295.9568625601117
 20
487.7689758506044
 30
0.0
 10
295.8906114328569
 20
488.0156817968758
 30
0.0
 10
295.8073650086051
 20
488.2645167255303
 30
0.0
 10
295.7081721099972
 20
488.5112343307142
 30
0.0
 10
295.5927940779606
 20
488.7551131906904
 30
0.0
 10
295.4618925640055
 20
488.9936962453768
 30
0.0
 10
295.3147629282885
 20
489.2260353108376
 30
0.0
 10
295.1532064642605
 20
489.4508200280133
 30
0.0
 10
295.0340495562019
 20
489.5902150328221
 30
0.0
 10
294.9742564947126
 20
489.6601635924955
 30
0.0
  0
SPLINE
  5
263
330
1F
100
AcDbEntity
  8
0
  6
Continuous
 62
     7
370
    25
100
AcDbSpline
210
0.0
220
0.0
230
1.0
 70
     8
 71
     3
 72
    15
 73
    11
 74
     0
 42
0.000000001
 43
0.00000001
 40
0.0
 40
0.0
 40
0.0
 40
0.0
 40
0.2155767705931565
 40
0.3329005538676067
 40
0.4328760582229438
 40
0.5332634977247179
 40
0.6250838127945082
 40
0.7535547096886475
 40
0.9421338378892073
 40
1.0
 40
1.0
 40
1.0
 40
1.0
 10
294.3099955405869
 20
488.0838961537263
 30
0.0
 10
294.3005528454941
 20
488.1244394231112
 30
0.0
 10
294.2859711332911
 20
488.1870476382576
 30
0.0
 10
294.2934046971631
 20
488.261601419515
 30
0.0
 10
294.3132427977769
 20
488.305959038304
 30
0.0
 10
294.3450827276151
 20
488.3308864317469
 30
0.0
 10
294.3892428018294
 20
488.3379402846913
 30
0.0
 10
294.4507597464532
 20
488.3216536953613
 30
0.0
 10
294.5057714076626
 20
488.2855266150997
 30
0.0
 10
294.538847392883
 20
488.2554390714208
 30
0.0
 10
294.5466137426488
 20
488.2483744175261
 30
0.0
  0
LWPOLYLINE
  5
264
330
1F
100
AcDbEntity
  8
0
  6
Continuous
 62
     7
370
    25
100
AcDbPolyline
 90
       16
 70
   128
 43
0.0
 10
288.6677100651
 20
334.952367003
 10
288.6767517205
 20
334.8690455186
 10
288.7294275507
 20
334.736667528
 10
288.8275021016
 20
334.6113339834
 10
288.9677723942
 20
334.4971381049
 10
289.1456573953
 20
334.3978093716
 10
289.3553476269
 20
334.3165917223
 10
289.5899948966
 20
334.256137613
 10
289.8419359497
 20
334.2184213912
 10
290.1029427403
 20
334.2046748163
 10
290.3644911483
 20
334.2153468325
 10
290.6180393648
 20
334.2500889066
 10
290.8553068564
 20
334.3077664105
 10
291.0685447955
 20
334.3864956768
 10
291.2507891264
 20
334.4837055167
 10
291.3960880016
 20
334.5962211916
  0
LWPOLYLINE
  5
265
330
1F
100
AcDbEntity
  8
0
  6
Continuous
 62
     7
370
    25
100
AcDbPolyline
 90
       15
 70
   128
 43
0.0
 10
291.8153339713
 20
334.6125435024
 10
291.991821736
 20
334.5125557989
 10
292.2003678214
 20
334.4305604227
 10
292.4341614011
 20
334.3692352291
 10
292.6855671006
 20
334.3305830141
 10
292.9463743582
 20
334.3158661054
 10
293.2080655701
 20
334.3255651369
 10
293.4620942637
 20
334.3593633516
 10
293.7001642138
 20
334.4161569468
 10
293.9145003857
 20
334.4940911221
 10
294.0981028568
 20
334.5906206555
 10
294.2449754249
 20
334.702593026
 10
294.3503214352
 20
334.8263513713
 10
294.410700433
 20
334.957853915
 10
294.4252577383
 20
335.0634771219
  0
ARC
  5
266
330
1F
100
AcDbEntity
  8
0
  6
Continuous
 62
     7
370
    25
100
AcDbCircle
 10
291.6184497954
 20
334.2771802499
 30
0.0
 40
0.3888854456060051
100
AcDbArc
 50
59.5837691787
 51
124.87531931
  0
ARC
  5
267
330
1F
100
AcDbEntity
  8
0
  6
Continuous
 62
     7
370
    25
100
AcDbCircle
 10
288.4783697401
 20
334.9228927084
 30
0.0
 40
0.3768522690196142
100
AcDbArc
 50
59.8393762429
 51
97.8704937925
  0
LWPOLYLINE
  5
268
330
1F
100
AcDbEntity
  8
0
  6
Continuous
 62
     7
370
    25
100
AcDbPolyline
 90
       11
 70
   128
 43
0.0
 10
286.7196578954
 20
336.032284998
 10
286.7299053407
 20
335.9435999607
 10
286.78443575
 20
335.8114213243
 10
286.8842649327
 20
335.6864557896
 10
287.0261326059
 20
335.5727845577
 10
287.2054055679
 20
335.4741199738
 10
287.4162290122
 20
335.3936842863
 10
287.651717737
 20
335.3341044135
 10
287.9041810069
 20
335.2973261514
 10
288.1653737212
 20
335.2845506271
 10
288.4267656876
 20
335.2961950716
  0
ARC
  5
269
330
1F
100
AcDbEntity
  8
0
  6
Continuous
 62
     7
370
    25
100
AcDbCircle
 10
294.5373599061
 20
335.0926674463
 30
0.0
 40
0.4418857642172978
100
AcDbArc
 50
88.8000415865
 51
104.6959979179
  0
LWPOLYLINE
  5
26A
330
1F
100
AcDbEntity
  8
0
  6
Continuous
 62
     7
370
    25
100
AcDbPolyline
 90
       10
 70
   128
 43
0.0
 10
294.5466137426
 20
335.5344563044
 10
294.8084341133
 20
335.5431818454
 10
295.0629300385
 20
335.5760344386
 10
295.3017900337
 20
335.6319411636
 10
295.5172132625
 20
335.7090761844
 10
295.7021643005
 20
335.8049203779
 10
295.8506029032
 20
335.9163436057
 10
295.9576812712
 20
336.0397069394
 10
296.0199023735
 20
336.1709815034
 10
296.0359779973
 20
336.2819471689
  0
ARC
  5
26B
330
1F
100
AcDbEntity
  8
0
  6
Continuous
 62
     7
370
    25
100
AcDbCircle
 10
572.0742680654
 20
259.3146274998
 30
0.0
 40
1.358693247471642
100
AcDbArc
 50
173.6866010832
 51
212.3436391022
  0
LWPOLYLINE
  5
26C
330
1F
100
AcDbEntity
  8
0
  6
Continuous
 62
     7
370
    25
100
AcDbPolyline
 90
       34
 70
   128
 43
0.0
 10
579.9872215248
 20
260.057927447
 10
580.0667883827
 20
259.9155572263
 10
580.1609185682
 20
259.6765352916
 10
580.2083729609
 20
259.4338739986
 10
580.2086799377
 20
259.1899850245
 10
580.1618364478
 20
258.9472922472
 10
580.0683080427
 20
258.7082076568
 10
579.9290242499
 20
258.4751073832
 10
579.7453693342
 20
258.2503080818
 10
579.5191685406
 20
258.0360439089
 10
579.2526699544
 20
257.8344443183
 10
578.9485221581
 20
257.6475128971
 10
578.6097479092
 20
257.4771074538
 10
578.2397140985
 20
257.3249215544
 10
577.8420982881
 20
257.1924676905
 10
577.4208521626
 20
257.0810622484
 10
576.9801622552
 20
256.9918124251
 10
576.5244083404
 20
256.9256052257
 10
576.0581199051
 20
256.883098647
 10
575.5859311334
 20
256.8647151385
 10
575.1125348494
 20
256.8706374038
 10
574.6426358782
 20
256.9008065846
 10
574.1809042866
 20
256.9549228462
 10
573.7319289709
 20
257.0324483568
 10
573.3001720493
 20
257.1326126331
 10
572.8899245161
 20
257.2544201974
 10
572.5052635957
 20
257.3966604716
 10
572.150012221
 20
257.5579198078
 10
571.8277010398
 20
257.7365955383
 10
571.5415333255
 20
257.9309119034
 10
571.2943531414
 20
258.1389376999
 10
571.0886170751
 20
258.3586054738
 10
570.9263698242
 20
258.5877320681
 10
570.9263698242
 20
258.5877320681
  0
LWPOLYLINE
  5
26D
330
1F
100
AcDbEntity
  8
0
  6
Continuous
 62
     7
370
    25
100
AcDbPolyline
 90
       22
 70
   128
 43
0.0
 10
726.8052873052
 20
403.316985431
 10
726.3464702521
 20
403.2566508066
 10
725.8782691942
 20
403.2201447024
 10
725.4053373238
 20
403.2078299323
 10
724.9323748503
 20
403.219828886
 10
724.4640822873
 20
403.2560223125
 10
724.0051137367
 20
403.3160505054
 10
723.5600306341
 20
403.3993168775
 10
723.1332564153
 20
403.5049938901
 10
722.7290325543
 20
403.6320312776
 10
722.3513764095
 20
403.7791664854
 10
722.0040412972
 20
403.9449372177
 10
721.6904791899
 20
404.1276959705
 10
721.4138064086
 20
404.3256264052
 10
721.1767726517
 20
404.5367614001
 10
720.9817336673
 20
404.759002601
 10
720.8306278403
 20
404.9901412748
 10
720.7249569284
 20
405.2278802616
 10
720.6657711365
 20
405.4698568045
 10
720.6536586797
 20
405.7136660319
 10
720.688739937
 20
405.9568848583
 10
720.6887780633
 20
405.9570423399
  0
LWPOLYLINE
  5
26E
330
1F
100
AcDbEntity
  8
0
  6
Continuous
 62
     7
370
    25
100
AcDbPolyline
 90
       17
 70
   128
 43
0.0
 10
730.0050981653
 20
406.2584952097
 10
730.0324794747
 20
406.2001884116
 10
730.115010419
 20
405.9600321135
 10
730.1507039132
 20
405.7168369176
 10
730.1392052192
 20
405.4730198068
 10
730.0806286162
 20
405.2310039452
 10
729.9755562648
 20
404.9931945952
 10
729.8250324212
 20
404.7619552129
 10
729.6305530591
 20
404.5395839592
 10
729.3940510017
 20
404.3282908594
 10
729.1178767126
 20
404.1301758395
 10
728.8047749362
 20
403.9472078554
 10
728.4578574184
 20
403.7812053251
 10
728.0805719815
 20
403.6338180564
 10
727.6766682575
 20
403.5065108502
 10
727.2501604233
 20
403.4005489427
 10
726.8052873052
 20
403.316985431
  0
LWPOLYLINE
  5
26F
330
1F
100
AcDbEntity
  8
0
  6
Continuous
 62
     7
370
    25
100
AcDbPolyline
 90
       37
 70
   128
 43
0.0
 10
296.0359779973
 20
336.8368168693
 10
296.0589849241
 20
336.718438273
 10
296.0710973809
 20
336.4746290456
 10
296.0360161236
 20
336.2314102192
 10
295.9540898056
 20
335.991199012
 10
295.8261326473
 20
335.7563827507
 10
295.6534163445
 20
335.5292951449
 10
295.4376574294
 20
335.3121930932
 10
295.181000211
 20
335.1072342534
 10
294.8859954641
 20
334.9164555985
 10
294.5555750784
 20
334.7417531724
 10
294.1930229202
 20
334.5848632464
 10
293.8019421956
 20
334.447345063
 10
293.3862196406
 20
334.3305653398
 10
292.9499868928
 20
334.235684686
 10
292.4975794291
 20
334.1636460683
 10
292.0334934782
 20
334.1151654388
 10
291.5623413348
 20
334.0907246197
 10
291.0888055205
 20
334.090566515
 10
290.617592247
 20
334.1146926958
 10
290.1533846436
 20
334.1628633855
 10
289.7007962139
 20
334.234599842
 10
289.2643249851
 20
334.3291891163
 10
288.8483088044
 20
334.4456911375
 10
288.4568822274
 20
334.5829480564
 10
288.0939354274
 20
334.7395957518
 10
287.7630755326
 20
334.9140773888
 10
287.4675907775
 20
335.1046588904
 10
287.2104178222
 20
335.3094461719
 10
286.994112567
 20
335.5264039654
 10
286.8208247509
 20
335.753376047
 10
286.692276586
 20
335.9881066659
 10
286.6097456416
 20
336.228262964
 10
286.5740521475
 20
336.4714581599
 10
286.5855508415
 20
336.7152752707
 10
286.6441274445
 20
336.9572911323
 10
286.7196578954
 20
337.1382697391
  0
LWPOLYLINE
  5
270
330
1F
100
AcDbEntity
  8
0
  6
Continuous
 62
     7
370
    25
100
AcDbPolyline
 90
      151
 70
   128
 43
0.0
 10
612.2021020673
 20
624.5920974292
 10
607.0153395288
 20
625.9573472031
 10
601.7609651784
 20
627.2522005588
 10
596.4425801018
 20
628.4757700684
 10
591.0638292543
 20
629.6272171587
 10
585.6283989632
 20
630.7057526851
 10
580.1400144009
 20
631.7106374734
 10
574.6024370319
 20
632.6411828257
 10
569.0194620353
 20
633.4967509928
 10
563.3949157032
 20
634.2767556108
 10
557.7326528188
 20
634.9806621037
 10
552.0365540141
 20
635.6079880491
 10
546.3105231107
 20
636.158303509
 10
540.5584844442
 20
636.6312313249
 10
534.7843801747
 20
637.0264473755
 10
528.9921675847
 20
637.3436807995
 10
523.1858163674
 20
637.5827141811
 10
517.3693059059
 20
637.7433836986
 10
511.546622546
 20
637.8255792372
 10
505.7217568639
 20
637.8292444642
 10
499.8987009317
 20
637.7543768676
 10
494.081445581
 20
637.6010277579
 10
488.273977668
 20
637.369302233
 10
482.4802773412
 20
637.0593591059
 10
476.7043153134
 20
636.6714107962
 10
470.9500501404
 20
636.2057231842
 10
465.2214255081
 20
635.6626154291
 10
459.5223675298
 20
635.0424597497
 10
453.8567820551
 20
634.3456811698
 10
448.2285519932
 20
633.5727572265
 10
442.641534652
 20
632.7242176434
 10
437.0995590939
 20
631.8006439671
 10
431.6064235123
 20
630.8026691689
 10
426.1658926279
 20
629.7309772107
 10
420.7816951088
 20
628.5863025769
 10
415.457521015
 20
627.3694297702
 10
410.1970192695
 20
626.0811927743
 10
405.0037951574
 20
624.7224744827
 10
399.8814078552
 20
623.294206093
 10
394.8333679911
 20
621.7973664689
 10
389.8631352397
 20
620.2329814696
 10
384.97411595
 20
618.6021232464
 10
380.1696608119
 20
616.9059095081
 10
375.4530625587
 20
615.1455027549
 10
370.8275537114
 20
613.3221094815
 10
366.2963043627
 20
611.4369793508
 10
361.8624200045
 20
609.4914043366
 10
357.5289393997
 20
607.486717839
 10
353.2988324994
 20
605.4242937698
 10
349.1749984076
 20
603.3055456117
 10
345.1602633943
 20
601.1319254486
 10
341.2573789582
 20
598.9049229714
 10
337.4690199413
 20
596.6260644562
 10
333.7977826958
 20
594.2969117188
 10
330.2461833043
 20
591.9190610443
 10
326.8166558555
 20
589.4941420926
 10
323.5115507763
 20
587.0238167821
 10
320.3331332205
 20
584.5097781503
 10
317.2835815169
 20
581.9537491938
 10
314.3649856758
 20
579.3574816871
 10
311.5793459571
 20
576.7227549824
 10
308.928571499
 20
574.0513747896
 10
306.41447901
 20
571.3451719393
 10
304.0387915234
 20
568.6060011278
 10
301.8031372168
 20
565.8357396459
 10
299.709048296
 20
563.0362860924
 10
297.757959945
 20
560.2095590731
 10
295.9512093422
 20
557.3574958853
 10
294.2900347442
 20
554.4820511908
 10
292.7755746372
 20
551.5851956757
 10
291.4088669564
 20
548.6689147
 10
290.190848375
 20
545.7352069371
 10
289.1223536621
 20
542.7860830038
 10
288.2041151107
 20
539.8235640822
 10
287.4367620355
 20
536.8496805349
 10
286.8208203421
 20
533.8664705131
 10
286.356712166
 20
530.8759785599
 10
286.0447555839
 20
527.8802542091
 10
285.8851643952
 20
524.8813505806
 10
285.8780479757
 20
521.8813229731
 10
286.0234112027
 20
518.8822274556
 10
286.3211544515
 20
515.8861194586
 10
286.7710736637
 20
512.8950523646
 10
287.3728604873
 20
509.9110761016
 10
288.1261024874
 20
506.9362357381
 10
289.0302834298
 20
503.9725700809
 10
290.0847836339
 20
501.0221102784
 10
291.2888803981
 20
498.0868784284
 10
292.6417484944
 20
495.1688861923
 10
294.1424607347
 20
492.2701334161
 10
295.7899886058
 20
489.3926067601
 10
297.5832029744
 20
486.5382783375
 10
299.520874861
 20
483.7091043624
 10
301.6016762819
 20
480.9070238092
 10
303.8241811599
 20
478.133957084
 10
306.1868663011
 20
475.3918047082
 10
308.6881124392
 20
472.6824460162
 10
311.326205345
 20
470.0077378669
 10
314.0993370013
 20
467.3695133718
 10
317.0056068423
 20
464.7695806382
 10
320.0430230558
 20
462.20972153
 10
323.2095039484
 20
459.6916904469
 10
326.5028793723
 20
457.2172131215
 10
329.9208922125
 20
454.7879854371
 10
333.4611999338
 20
452.4056722649
 10
337.121376186
 20
450.0719063234
 10
340.8989124672
 20
447.7882870592
 10
344.7912198427
 20
445.5563795508
 10
348.7956307195
 20
443.3777134362
 10
352.9094006743
 20
441.2537818644
 10
357.1297103348
 20
439.1860404718
 10
361.4536673114
 20
437.1759063852
 10
365.8783081801
 20
435.2247572501
 10
370.4006005131
 20
433.3339302867
 10
375.0174449571
 20
431.5047213732
 10
379.7256773574
 20
429.7383841581
 10
384.5220709268
 20
428.0361292007
 10
389.4033384568
 20
426.3991231416
 10
394.3661345703
 20
424.8284879028
 10
399.4070580149
 20
423.3252999194
 10
404.5226539934
 20
421.8905894013
 10
409.7094165318
 20
420.5253396273
 10
414.9637908822
 20
419.2304862716
 10
420.2821759589
 20
418.006916762
 10
425.6609268064
 20
416.8554696717
 10
431.0963570975
 20
415.7769341453
 10
436.5847416598
 20
414.772049357
 10
442.1223190287
 20
413.8415040047
 10
447.7052940253
 20
412.9859358376
 10
453.3298403574
 20
412.2059312196
 10
458.9921032419
 20
411.5020247267
 10
464.6882020466
 20
410.8746987814
 10
470.41423295
 20
410.3243833214
 10
476.1662716164
 20
409.8514555055
 10
481.940375886
 20
409.4562394549
 10
487.732588476
 20
409.1390060309
 10
493.5389396933
 20
408.8999726493
 10
499.3554501547
 20
408.7393031318
 10
505.1781335147
 20
408.6571075932
 10
511.0029991968
 20
408.6534423662
 10
516.826055129
 20
408.7283099628
 10
522.6433104797
 20
408.8816590725
 10
528.4507783927
 20
409.1133845974
 10
534.2444787195
 20
409.4233277245
 10
540.0204407473
 20
409.8112760342
 10
545.7747059203
 20
410.2769636462
 10
551.5033305525
 20
410.8200714013
 10
557.2023885308
 20
411.4402270807
 10
562.8679740056
 20
412.1370056606
 10
568.4962040674
 20
412.9099296039
 10
573.0737285583
 20
413.5990742562
  0
LWPOLYLINE
  5
271
330
1F
100
AcDbEntity
  8
0
  6
Continuous
 62
     7
370
    25
100
AcDbPolyline
 90
       91
 70
   128
 43
0.0
 10
576.4578901766
 20
414.1441075848
 10
579.6251969667
 20
414.6820428633
 10
585.1183325483
 20
415.6800176615
 10
590.5588634327
 20
416.7517096197
 10
595.9430609519
 20
417.8963842535
 10
601.2672350457
 20
419.1132570603
 10
606.5277367912
 20
420.4014940561
 10
611.7209609032
 20
421.7602123477
 10
616.8433482055
 20
423.1884807374
 10
621.8913880695
 20
424.6853203615
 10
626.861620821
 20
426.2497053608
 10
631.7506401106
 20
427.880563584
 10
636.5550952488
 20
429.5767773223
 10
641.271693502
 20
431.3371840755
 10
645.8972023493
 20
433.1605773489
 10
650.428451698
 20
435.0457074796
 10
654.8623360562
 20
436.9912824938
 10
659.195816661
 20
438.9959689914
 10
663.4259235613
 20
441.0583930606
 10
667.549757653
 20
443.1771412187
 10
671.5644926664
 20
445.3507613818
 10
675.4673771025
 20
447.577763859
 10
679.2557361193
 20
449.8566223742
 10
682.9269733648
 20
452.1857751116
 10
686.4785727564
 20
454.5636257861
 10
689.9081002052
 20
456.9885447378
 10
693.2132052844
 20
459.4588700484
 10
696.3916228401
 20
461.9729086801
 10
699.4411745437
 20
464.5289376366
 10
702.3597703848
 20
467.1252051433
 10
705.1454101036
 20
469.759931848
 10
707.7961845616
 20
472.4313120408
 10
710.3102770507
 20
475.1375148911
 10
712.6859645373
 20
477.8766857026
 10
714.9216188438
 20
480.6469471845
 10
717.0157077646
 20
483.446400738
 10
718.9667961157
 20
486.2731277573
 10
720.7735467185
 20
489.1251909451
 10
722.4347213164
 20
492.0006356396
 10
723.9491814235
 20
494.8974911547
 10
725.3158891043
 20
497.8137721304
 10
726.5339076857
 20
500.7474798933
 10
727.6024023985
 20
503.6966038266
 10
728.5206409499
 20
506.6591227482
 10
729.2879940251
 20
509.6330062955
 10
729.9039357186
 20
512.6162163173
 10
730.3680438947
 20
515.6067082705
 10
730.6800004768
 20
518.6024326213
 10
730.8395916655
 20
521.6013362498
 10
730.846708085
 20
524.6013638573
 10
730.7013448579
 20
527.6004593748
 10
730.4036016091
 20
530.5965673718
 10
729.9536823969
 20
533.5876344658
 10
729.3518955734
 20
536.5716107288
 10
728.5986535732
 20
539.5464510923
 10
727.6944726309
 20
542.5101167495
 10
726.6399724267
 20
545.460576552
 10
725.4358756626
 20
548.395808402
 10
724.0830075663
 20
551.3138006381
 10
722.5822953259
 20
554.2125534143
 10
720.9347674548
 20
557.0900800703
 10
719.1415530862
 20
559.9444084929
 10
717.2038811997
 20
562.773582468
 10
715.1230797787
 20
565.5756630212
 10
712.9005749007
 20
568.3487297464
 10
710.5378897595
 20
571.0908821222
 10
708.0366436215
 20
573.8002408142
 10
705.3985507157
 20
576.4749489635
 10
702.6254190594
 20
579.1131734586
 10
699.7191492184
 20
581.7131061922
 10
696.6817330049
 20
584.2729653004
 10
693.5152521123
 20
586.7909963835
 10
690.2218766883
 20
589.2654737089
 10
686.8038638481
 20
591.6947013933
 10
683.2635561269
 20
594.0770145655
 10
679.6033798747
 20
596.410780507
 10
675.8258435935
 20
598.6943997712
 10
671.933536218
 20
600.9263072796
 10
667.9291253412
 20
603.1049733942
 10
663.8153553864
 20
605.228904966
 10
659.5950457259
 20
607.2966463586
 10
655.2710887492
 20
609.3067804452
 10
650.8464478805
 20
611.2579295803
 10
646.3241555475
 20
613.1487565437
 10
641.7073111036
 20
614.9779654572
 10
636.9990787033
 20
616.7443026723
 10
632.2026851338
 20
618.4465576297
 10
627.3214176039
 20
620.0835636888
 10
622.3586214903
 20
621.6541989276
 10
617.3176980457
 20
623.157386911
 10
612.2021020673
 20
624.5920974292
  0
ARC
  5
272
330
1F
100
AcDbEntity
  8
0
  6
Continuous
 62
     7
370
    25
100
AcDbCircle
 10
349.1435036659
 20
519.395412132
 30
0.0
 40
63.28265464020965
100
AcDbArc
 50
180.3982910585
 51
206.3008131039
  0
LWPOLYLINE
  5
273
330
1F
100
AcDbEntity
  8
0
  6
Continuous
 62
     7
370
    25
100
AcDbPolyline
 90
       61
 70
   128
 43
0.0
 10
296.0359779973
 20
484.6996673071
 10
297.5832029744
 20
482.252441834
 10
299.520874861
 20
479.4232678589
 10
301.6016762819
 20
476.6211873057
 10
303.8241811599
 20
473.8481205805
 10
306.1868663011
 20
471.1059682047
 10
308.6881124392
 20
468.3966095127
 10
311.326205345
 20
465.7219013634
 10
314.0993370013
 20
463.0836768683
 10
317.0056068423
 20
460.4837441347
 10
320.0430230558
 20
457.9238850265
 10
323.2095039484
 20
455.4058539434
 10
326.5028793723
 20
452.931376618
 10
329.9208922125
 20
450.5021489336
 10
333.4611999338
 20
448.1198357614
 10
337.121376186
 20
445.7860698199
 10
340.8989124672
 20
443.5024505556
 10
344.7912198427
 20
441.2705430473
 10
348.7956307195
 20
439.0918769327
 10
352.9094006743
 20
436.9679453608
 10
357.1297103348
 20
434.9002039683
 10
361.4536673114
 20
432.8900698817
 10
365.8783081801
 20
430.9389207466
 10
370.4006005131
 20
429.0480937832
 10
375.0174449571
 20
427.2188848697
 10
379.7256773574
 20
425.4525476546
 10
384.5220709268
 20
423.7502926972
 10
389.4033384568
 20
422.1132866381
 10
394.3661345703
 20
420.5426513993
 10
399.4070580149
 20
419.0394634159
 10
404.5226539934
 20
417.6047528977
 10
409.7094165318
 20
416.2395031238
 10
414.9637908822
 20
414.9446497681
 10
420.2821759589
 20
413.7210802585
 10
425.6609268064
 20
412.5696331682
 10
431.0963570975
 20
411.4910976418
 10
436.5847416598
 20
410.4862128535
 10
442.1223190287
 20
409.5556675012
 10
447.7052940253
 20
408.7000993341
 10
453.3298403574
 20
407.9200947161
 10
458.9921032419
 20
407.2161882232
 10
464.6882020466
 20
406.5888622778
 10
470.41423295
 20
406.0385468179
 10
476.1662716164
 20
405.565619002
 10
481.940375886
 20
405.1704029514
 10
487.732588476
 20
404.8531695274
 10
493.5389396933
 20
404.6141361458
 10
499.3554501547
 20
404.4534666283
 10
505.1781335147
 20
404.3712710897
 10
511.0029991968
 20
404.3676058627
 10
516.826055129
 20
404.4424734593
 10
522.6433104797
 20
404.595822569
 10
528.4507783927
 20
404.8275480939
 10
534.2444787195
 20
405.137491221
 10
540.0204407473
 20
405.5254395307
 10
545.7747059203
 20
405.9911271427
 10
551.5033305525
 20
406.5342348978
 10
557.2023885308
 20
407.1543905772
 10
562.8679740056
 20
407.8511691571
 10
568.4962040674
 20
408.6240931004
 10
570.7238149306
 20
408.9526080657
  0
LWPOLYLINE
  5
274
330
1F
100
AcDbEntity
  8
0
  6
Continuous
 62
     7
370
    25
100
AcDbPolyline
 90
       49
 70
   128
 43
0.0
 10
579.989223601
 20
410.4597749807
 10
585.1183325483
 20
411.394181158
 10
590.5588634327
 20
412.4658731162
 10
595.9430609519
 20
413.61054775
 10
601.2672350457
 20
414.8274205567
 10
606.5277367912
 20
416.1156575526
 10
611.7209609032
 20
417.4743758442
 10
616.8433482055
 20
418.9026442339
 10
621.8913880695
 20
420.399483858
 10
626.861620821
 20
421.9638688573
 10
631.7506401106
 20
423.5947270805
 10
636.5550952488
 20
425.2909408188
 10
641.271693502
 20
427.051347572
 10
645.8972023493
 20
428.8747408454
 10
650.428451698
 20
430.7598709761
 10
654.8623360562
 20
432.7054459903
 10
659.195816661
 20
434.7101324879
 10
663.4259235613
 20
436.772556557
 10
667.549757653
 20
438.8913047152
 10
671.5644926664
 20
441.0649248783
 10
675.4673771025
 20
443.2919273555
 10
679.2557361193
 20
445.5707858707
 10
682.9269733648
 20
447.8999386081
 10
686.4785727564
 20
450.2777892826
 10
689.9081002052
 20
452.7027082343
 10
693.2132052844
 20
455.1730335448
 10
696.3916228401
 20
457.6870721766
 10
699.4411745437
 20
460.2431011331
 10
702.3597703848
 20
462.8393686397
 10
705.1454101036
 20
465.4740953445
 10
707.7961845616
 20
468.1454755373
 10
710.3102770507
 20
470.8516783876
 10
712.6859645373
 20
473.5908491991
 10
714.9216188438
 20
476.361110681
 10
717.0157077646
 20
479.1605642345
 10
718.9667961157
 20
481.9872912538
 10
720.7735467185
 20
484.8393544416
 10
722.4347213164
 20
487.7147991361
 10
723.9491814235
 20
490.6116546512
 10
725.3158891043
 20
493.5279356269
 10
726.5339076857
 20
496.4616433898
 10
727.6024023985
 20
499.4107673231
 10
728.5206409499
 20
502.3732862447
 10
729.2879940251
 20
505.347169792
 10
729.9039357186
 20
508.3303798138
 10
730.3680438947
 20
511.320871767
 10
730.6800004768
 20
514.3165961178
 10
730.8395916655
 20
517.3154997463
 10
730.8623780303
 20
518.9555069117
  0
LINE
  5
275
330
1F
100
AcDbEntity
  8
0
  6
Continuous
 62
     8
370
    18
100
AcDbLine
 10
294.4232051185
 20
481.7960796418
 30
0.0
 11
297.5553951581
 21
482.2948305666
 31
0.0
  0
LINE
  5
276
330
1F
100
AcDbEntity
  8
0
  6
Continuous
 62
     8
370
    18
100
AcDbLine
 10
295.8384563082
 20
483.7667591694
 30
0.0
 11
296.5418437517
 21
483.8787623152
 31
0.0
  0
LINE
  5
277
330
1F
100
AcDbEntity
  8
0
  6
Continuous
 62
     8
370
    18
100
AcDbLine
 10
723.9058094558
 20
551.6725609012
 30
0.0
 11
724.1197097494
 21
551.7066210852
 31
0.0
  0
SPLINE
  5
278
330
1F
100
AcDbEntity
  8
0
  6
Continuous
 62
     8
370
    18
100
AcDbSpline
210
0.0
220
0.0
230
1.0
 70
     8
 71
     3
 72
    10
 73
     6
 74
     0
 42
0.000000001
 43
0.00000001
 40
0.0
 40
0.0
 40
0.0
 40
0.0
 40
0.4179403185915055
 40
0.8349130387145388
 40
1.0
 40
1.0
 40
1.0
 40
1.0
 10
724.1197097494278
 20
551.7066210852337
 30
0.0
 10
724.1419746403752
 20
551.690351126725
 30
0.0
 10
724.186452875498
 20
551.657848877255
 30
0.0
 10
724.2167240361832
 20
551.6025453414228
 30
0.0
 10
724.2253404228669
 20
551.5683845987928
 30
0.0
 10
724.2277842497463
 20
551.5586957414881
 30
0.0
  0
SPLINE
  5
279
330
1F
100
AcDbEntity
  8
0
  6
Continuous
 62
     8
370
    18
100
AcDbSpline
210
0.0
220
0.0
230
1.0
 70
     8
 71
     3
 72
    11
 73
     7
 74
     0
 42
0.000000001
 43
0.00000001
 40
0.0
 40
0.0
 40
0.0
 40
0.0
 40
0.3080004005845778
 40
0.6146431887840617
 40
0.9476581850669639
 40
0.9999999999999999
 40
0.9999999999999999
 40
0.9999999999999999
 40
0.9999999999999999
 10
724.2277842497463
 20
551.5586957414881
 30
0.0
 10
724.2572394276572
 20
551.4443381520377
 30
0.0
 10
724.3160199501598
 20
551.2161270415717
 30
0.0
 10
724.4415226397233
 20
550.8290232105126
 30
0.0
 10
724.5017499986318
 20
550.549572893432
 30
0.0
 10
724.5136248896398
 20
550.4043465010665
 30
0.0
 10
724.5152378190844
 20
550.3846208527027
 30
0.0
  0
LINE
  5
27A
330
1F
100
AcDbEntity
  8
0
  6
Continuous
 62
     8
370
    18
100
AcDbLine
 10
294.4232051185
 20
468.9385701313
 30
0.0
 11
306.4173785796
 21
470.8484494904
 31
0.0
  0
LINE
  5
27B
330
1F
100
AcDbEntity
  8
0
  6
Continuous
 62
     8
370
    18
100
AcDbLine
 10
570.7238149306
 20
407.4587416951
 30
0.0
 11
569.9008305968
 21
408.8297327791
 31
0.0
  0
LINE
  5
27C
330
1F
100
AcDbEntity
  8
0
  6
Continuous
 62
     8
370
    18
100
AcDbLine
 10
570.7238149306
 20
394.6012321846
 30
0.0
 11
562.7771734394
 21
407.8393634409
 31
0.0
  0
LINE
  5
27D
330
1F
100
AcDbEntity
  8
0
  6
Continuous
 62
     8
370
    18
100
AcDbLine
 10
575.1147360263
 20
410.3476052009
 30
0.0
 11
575.1147360263
 21
257.3805477137
 31
0.0
  0
LINE
  5
27E
330
1F
100
AcDbEntity
  8
0
  6
Continuous
 62
     8
370
    18
100
AcDbLine
 10
574.6989494143
 20
410.3723432931
 30
0.0
 11
574.6989494143
 21
257.4126830569
 31
0.0
  0
LINE
  5
27F
330
1F
100
AcDbEntity
  8
0
  6
Continuous
 62
     8
370
    18
100
AcDbLine
 10
578.1758470709
 20
410.9259833659
 30
0.0
 11
578.1758470709
 21
257.9663231296
 31
0.0
  0
LINE
  5
280
330
1F
100
AcDbEntity
  8
0
  6
Continuous
 62
     8
370
    18
100
AcDbLine
 10
572.1064962039
 20
411.2849035494
 30
0.0
 11
572.1064962039
 21
258.4354115206
 31
0.0
  0
LINE
  5
281
330
1F
100
AcDbEntity
  8
0
  6
Continuous
 62
     8
370
    18
100
AcDbLine
 10
579.1952073173
 20
412.4136668679
 30
0.0
 11
579.1952073173
 21
412.2564489012
 31
0.0
  0
LINE
  5
282
330
1F
100
AcDbEntity
  8
0
  6
Continuous
 62
     8
370
    18
100
AcDbLine
 10
572.0426371904
 20
412.830901265
 30
0.0
 11
572.0426371904
 21
412.8026829678
 31
0.0
  0
LINE
  5
283
330
1F
100
AcDbEntity
  8
0
  6
Continuous
 62
     8
370
    18
100
AcDbLine
 10
727.1010334934
 20
556.7742874784
 30
0.0
 11
727.1010334934
 21
544.2233814768
 31
0.0
  0
LINE
  5
284
330
1F
100
AcDbEntity
  8
0
  6
Continuous
 62
     8
370
    18
100
AcDbLine
 10
727.1010334934
 20
497.9734688501
 30
0.0
 11
727.1010334934
 21
403.9247954497
 31
0.0
  0
LINE
  5
285
330
1F
100
AcDbEntity
  8
0
  6
Continuous
 62
     8
370
    18
100
AcDbLine
 10
724.2275652212
 20
556.5413596978
 30
0.0
 11
724.2275652212
 21
551.5569915341
 31
0.0
  0
LINE
  5
286
330
1F
100
AcDbEntity
  8
0
  6
Continuous
 62
     8
370
    18
100
AcDbLine
 10
724.2275652212
 20
491.1793790984
 30
0.0
 11
724.2275652212
 21
403.8129240296
 31
0.0
  0
LINE
  5
287
330
1F
100
AcDbEntity
  8
0
  6
Continuous
 62
     8
370
    18
100
AcDbLine
 10
723.8360872435
 20
556.6058237394
 30
0.0
 11
723.8360872435
 21
551.8124075721
 31
0.0
  0
LINE
  5
288
330
1F
100
AcDbEntity
  8
0
  6
Continuous
 62
     8
370
    18
100
AcDbLine
 10
723.8360872435
 20
490.3844427548
 30
0.0
 11
723.8360872435
 21
403.8919056263
 31
0.0
  0
LINE
  5
289
330
1F
100
AcDbEntity
  8
0
  6
Continuous
 62
     8
370
    18
100
AcDbLine
 10
727.465010649
 20
556.8999153363
 30
0.0
 11
727.465010649
 21
543.1905863623
 31
0.0
  0
LINE
  5
28A
330
1F
100
AcDbEntity
  8
0
  6
Continuous
 62
     8
370
    18
100
AcDbLine
 10
727.465010649
 20
499.0062639646
 30
0.0
 11
727.465010649
 21
404.0331888341
 31
0.0
  0
LINE
  5
28B
330
1F
100
AcDbEntity
  8
0
  6
Continuous
 62
     8
370
    18
100
AcDbLine
 10
721.7504995659
 20
557.8440781113
 30
0.0
 11
721.7504995659
 21
557.3385806421
 31
0.0
  0
LINE
  5
28C
330
1F
100
AcDbEntity
  8
0
  6
Continuous
 62
     8
370
    18
100
AcDbLine
 10
729.1491613083
 20
558.4412109839
 30
0.0
 11
729.1491613083
 21
558.116000294
 31
0.0
  0
LINE
  5
28D
330
1F
100
AcDbEntity
  8
0
  6
Continuous
 62
     8
370
    18
100
AcDbLine
 10
442.1692965472
 20
633.6551281763
 30
0.0
 11
442.1692965472
 21
632.6487251252
 31
0.0
  0
LINE
  5
28E
330
1F
100
AcDbEntity
  8
0
  6
Continuous
 62
     8
370
    18
100
AcDbLine
 10
442.5709791309
 20
633.7190896721
 30
0.0
 11
442.5709791309
 21
632.7129762028
 31
0.0
  0
LINE
  5
28F
330
1F
100
AcDbEntity
  8
0
  6
Continuous
 62
     8
370
    18
100
AcDbLine
 10
438.9719993492
 20
634.0677102144
 30
0.0
 11
438.9719993492
 21
632.1219338348
 31
0.0
  0
LINE
  5
290
330
1F
100
AcDbEntity
  8
0
  6
Continuous
 62
     8
370
    18
100
AcDbLine
 10
444.8354698565
 20
635.0013736578
 30
0.0
 11
444.8354698565
 21
634.3394821091
 31
0.0
  0
LINE
  5
291
330
1F
100
AcDbEntity
  8
0
  6
Continuous
 62
     8
370
    18
100
AcDbLine
 10
437.4978572792
 20
635.7067743778
 30
0.0
 11
437.4978572792
 21
635.4230528699
 31
0.0
  0
LINE
  5
292
330
1F
100
AcDbEntity
  8
0
  6
Continuous
 62
     8
370
    18
100
AcDbLine
 10
291.3960880016
 20
487.4629476939
 30
0.0
 11
291.3960880016
 21
334.5962211916
 31
0.0
  0
LINE
  5
293
330
1F
100
AcDbEntity
  8
0
  6
Continuous
 62
     8
370
    18
100
AcDbLine
 10
291.8153339713
 20
487.4620355311
 30
0.0
 11
291.8153339713
 21
334.6125435024
 31
0.0
  0
LINE
  5
294
330
1F
100
AcDbEntity
  8
0
  6
Continuous
 62
     8
370
    18
100
AcDbLine
 10
288.4267656876
 20
488.2632525589
 30
0.0
 11
288.4267656876
 21
335.2961950716
 31
0.0
  0
LINE
  5
295
330
1F
100
AcDbEntity
  8
0
  6
Continuous
 62
     8
370
    18
100
AcDbLine
 10
294.5466137426
 20
488.2483744175
 30
0.0
 11
294.5466137426
 21
483.3631040016
 31
0.0
  0
LINE
  5
296
330
1F
100
AcDbEntity
  8
0
  6
Continuous
 62
     8
370
    18
100
AcDbLine
 10
294.5466137426
 20
468.366337413
 30
0.0
 11
294.5466137426
 21
335.5344563044
 31
0.0
  0
LINE
  5
297
330
1F
100
AcDbEntity
  8
0
  6
Continuous
 62
     8
370
    18
100
AcDbLine
 10
287.6379888641
 20
489.8879477533
 30
0.0
 11
287.6379888641
 21
489.752748806
 31
0.0
  0
LINE
  5
298
330
1F
100
AcDbEntity
  8
0
  6
Continuous
 62
     8
370
    18
100
AcDbLine
 10
294.8500685969
 20
489.8670454171
 30
0.0
 11
294.8500685969
 21
489.8061023485
 31
0.0
  0
LWPOLYLINE
  5
299
330
1F
100
AcDbEntity
  8
0
  6
Continuous
 62
     8
370
    18
100
AcDbPolyline
 90
       33
 70
   128
 43
0.0
 10
570.7144320704
 20
258.0245945962
 10
570.7204911798
 20
257.9010661448
 10
570.7679455725
 20
257.6584048518
 10
570.862075758
 20
257.4193829171
 10
571.0019462282
 20
257.1863758479
 10
571.1861668876
 20
256.9616993733
 10
571.4129068685
 20
256.7475864288
 10
571.679912727
 20
256.5461649653
 10
571.984530839
 20
256.3594367997
 10
572.3237337729
 20
256.1892577203
 10
572.6941503775
 20
256.0373190434
 10
573.0920992862
 20
255.9051308037
 10
573.5136255038
 20
255.7940067475
 10
573.9545397136
 20
255.7050512754
 10
574.410459912
 20
255.6391484669
 10
574.8768549592
 20
255.5969532937
 10
575.3490896117
 20
255.5788851105
 10
575.8224705893
 20
255.585123487
 10
576.2922932194
 20
255.6156064233
 10
576.7538881933
 20
255.6700309663
 10
577.2026679731
 20
255.7478562205
 10
577.6341723835
 20
255.8483087236
 10
578.0441129398
 20
255.9703901334
 10
578.4284154687
 20
256.1128871501
 10
578.783260599
 20
256.2743835742
 10
579.1051217203
 20
256.4532743818
 10
579.3908000322
 20
256.6477816756
 10
579.6374563353
 20
256.8559723548
 10
579.8426392485
 20
257.0757773268
 10
580.0043095717
 20
257.3050120712
 10
580.1208605527
 20
257.5413983499
 10
580.1911338554
 20
257.7825868501
 10
580.2144320704
 20
258.0245945962
  0
LWPOLYLINE
  5
29A
330
1F
100
AcDbEntity
  8
0
  6
Continuous
 62
     8
370
    18
100
AcDbPolyline
 90
       34
 70
   128
 43
0.0
 10
720.6522580645
 20
404.368509323
 10
720.6538122159
 20
404.3059326795
 10
720.68950571
 20
404.0627374835
 10
720.7720366544
 20
403.8225811854
 10
720.9005848193
 20
403.5878505665
 10
721.0738726354
 20
403.360878485
 10
721.2901778905
 20
403.1439206914
 10
721.5473508459
 20
402.9391334099
 10
721.842835601
 20
402.7485519083
 10
722.1736954957
 20
402.5740702714
 10
722.5366422958
 20
402.4174225759
 10
722.9280688727
 20
402.2801656571
 10
723.3440850535
 20
402.1636636358
 10
723.7805562823
 20
402.0690743616
 10
724.233144712
 20
401.9973379051
 10
724.6973523154
 20
401.9491672154
 10
725.1685655889
 20
401.9250410345
 10
725.6421014031
 20
401.9251991392
 10
726.1132535466
 20
401.9496399583
 10
726.5773394975
 20
401.9981205878
 10
727.0297469611
 20
402.0701592055
 10
727.465979709
 20
402.1650398593
 10
727.881702264
 20
402.2818195825
 10
728.2727829886
 20
402.4193377659
 10
728.6353351468
 20
402.5762276919
 10
728.9657555325
 20
402.750930118
 10
729.2607602794
 20
402.9417087729
 10
729.5174174978
 20
403.1466676127
 10
729.7331764129
 20
403.3637696644
 10
729.9058927157
 20
403.5908572702
 10
730.033849874
 20
403.8256735315
 10
730.115776192
 20
404.0658847388
 10
730.1508574493
 20
404.3091035651
 10
730.1522580645
 20
404.368509323
  0
LWPOLYLINE
  5
29B
330
1F
100
AcDbEntity
  8
0
  6
Continuous
 62
     8
370
    18
100
AcDbPolyline
 90
       14
 70
   128
 43
0.0
 10
292.7255272368
 20
332.9110090093
 10
293.1704003549
 20
332.9945725211
 10
293.5969081892
 20
333.1005344286
 10
294.0008119131
 20
333.2278416348
 10
294.37809735
 20
333.3752289035
 10
294.7250148678
 20
333.5412314337
 10
295.0381166443
 20
333.7241994178
 10
295.3142909333
 20
333.9223144378
 10
295.5507929907
 20
334.1336075375
 10
295.7452723528
 20
334.3559787913
 10
295.8957961964
 20
334.5872181736
 10
296.0008685478
 20
334.8250275236
 10
296.0594451508
 20
335.0670433852
 10
296.0724979961
 20
335.2482838524
  0
LWPOLYLINE
  5
29C
330
1F
100
AcDbEntity
  8
0
  6
Continuous
 62
     8
370
    18
100
AcDbPolyline
 90
       20
 70
   128
 43
0.0
 10
286.5724979961
 20
335.2482838524
 10
286.5860110682
 20
335.0638803828
 10
286.64519686
 20
334.8219038399
 10
286.7508677719
 20
334.5841648531
 10
286.9019735989
 20
334.3530261793
 10
287.0970125833
 20
334.1307849785
 10
287.3340463402
 20
333.9196499835
 10
287.6107191215
 20
333.7217195488
 10
287.9242812288
 20
333.5389607961
 10
288.2716163411
 20
333.3731900638
 10
288.649272486
 20
333.2260548559
 10
289.0534963469
 20
333.0990174684
 10
289.4802705657
 20
332.9933404558
 10
289.9253536683
 20
332.9100740838
 10
290.3843222189
 20
332.8500458909
 10
290.8526147819
 20
332.8138524643
 10
291.3255772554
 20
332.8018535106
 10
291.7985091258
 20
332.8141682808
 10
292.2667101838
 20
332.850674385
 10
292.7255272368
 20
332.9110090093
  0
ENDSEC
  0
SECTION
  2
OBJECTS
  0
DICTIONARY
  5
C
330
0
100
AcDbDictionary
281
     1
  3
ACAD_GROUP
350
D
  3
ACAD_LAYOUT
350
1A
  3
ACAD_MLINESTYLE
350
17
  3
ACAD_PLOTSETTINGS
350
19
  3
ACAD_PLOTSTYLENAME
350
E
  3
ACAD_SCALELIST
350
47
  0
DICTIONARY
  5
D
102
{ACAD_REACTORS
330
C
102
}
330
C
100
AcDbDictionary
281
     1
  0
DICTIONARY
  5
1A
102
{ACAD_REACTORS
330
C
102
}
330
C
100
AcDbDictionary
281
     1
  3
Layout1
350
1E
  3
Layout2
350
26
  3
Model
350
22
  0
DICTIONARY
  5
17
102
{ACAD_REACTORS
330
C
102
}
330
C
100
AcDbDictionary
281
     1
  3
Standard
350
18
  0
DICTIONARY
  5
19
102
{ACAD_REACTORS
330
C
102
}
330
C
100
AcDbDictionary
281
     1
  0
ACDBDICTIONARYWDFLT
  5
E
102
{ACAD_REACTORS
330
C
102
}
330
C
100
AcDbDictionary
281
     1
  3
Normal
350
F
100
AcDbDictionaryWithDefault
340
F
  0
DICTIONARY
  5
47
102
{ACAD_REACTORS
330
C
102
}
330
C
100
AcDbDictionary
281
     1
  3
A0
350
48
  3
A1
350
49
  3
A2
350
4A
  3
A3
350
4B
  3
A4
350
4C
  3
A5
350
4D
  3
A6
350
4E
  3
A7
350
4F
  3
A8
350
50
  3
A9
350
51
  3
B0
350
52
  3
B1
350
53
  3
B2
350
54
  3
B3
350
55
  3
B4
350
56
  3
B5
350
57
  3
B6
350
58
  3
B7
350
59
  3
B8
350
5A
  3
B9
350
5B
  3
C0
350
5C
  3
C1
350
5D
  3
C2
350
5E
  3
C3
350
5F
  3
C4
350
60
  3
C5
350
61
  3
C6
350
62
  3
C7
350
63
  3
C8
350
64
  3
C9
350
65
  3
D0
350
66
  3
D1
350
67
  3
D2
350
68
  0
LAYOUT
  5
1E
102
{ACAD_REACTORS
330
1A
102
}
330
1A
100
AcDbPlotSettings
  1

  2
none_device
  4

  6

 40
0.0
 41
0.0
 42
0.0
 43
0.0
 44
0.0
 45
0.0
 46
0.0
 47
0.0
 48
0.0
 49
0.0
140
0.0
141
0.0
142
1.0
143
1.0
 70
   688
 72
     1
 73
     0
 74
     5
  7

 75
    16
147
1.0
148
0.0
149
0.0
100
AcDbLayout
  1
Layout1
 70
     1
 71
     1
 10
0.0
 20
0.0
 11
420.0
 21
297.0
 12
0.0
 22
0.0
 32
0.0
 14
1.0000000000E+20
 24
1.0000000000E+20
 34
1.0000000000E+20
 15
-1.0000000000E+20
 25
-1.0000000000E+20
 35
-1.0000000000E+20
146
0.0
 13
0.0
 23
0.0
 33
0.0
 16
1.0
 26
0.0
 36
0.0
 17
0.0
 27
1.0
 37
0.0
 76
     0
330
1B
  0
LAYOUT
  5
26
102
{ACAD_REACTORS
330
1A
102
}
330
1A
100
AcDbPlotSettings
  1

  2
none_device
  4

  6

 40
0.0
 41
0.0
 42
0.0
 43
0.0
 44
0.0
 45
0.0
 46
0.0
 47
0.0
 48
0.0
 49
0.0
140
0.0
141
0.0
142
1.0
143
1.0
 70
   688
 72
     1
 73
     0
 74
     5
  7

 75
    16
147
1.0
148
0.0
149
0.0
100
AcDbLayout
  1
Layout2
 70
     1
 71
     2
 10
0.0
 20
0.0
 11
0.0
 21
0.0
 12
0.0
 22
0.0
 32
0.0
 14
0.0
 24
0.0
 34
0.0
 15
0.0
 25
0.0
 35
0.0
146
0.0
 13
0.0
 23
0.0
 33
0.0
 16
1.0
 26
0.0
 36
0.0
 17
0.0
 27
1.0
 37
0.0
 76
     0
330
23
  0
LAYOUT
  5
22
102
{ACAD_REACTORS
330
1A
102
}
330
1A
100
AcDbPlotSettings
  1

  2
none_device
  4
Letter_(8.50_x_11.00_Inches)
  6

 40
6.35
 41
6.35
 42
6.35000508
 43
6.35000508
 44
215.9
 45
279.4
 46
0.0
 47
0.0
 48
0.0
 49
0.0
140
0.0
141
0.0
142
1.0
143
1.0
 70
  1712
 72
     1
 73
     0
 74
     0
  7

 75
     0
147
1.0
148
0.0
149
0.0
100
AcDbLayout
  1
Model
 70
     1
 71
     0
 10
0.0
 20
0.0
 11
4455.0
 21
3150.0
 12
0.0
 22
0.0
 32
0.0
 14
0.0
 24
0.0
 34
0.0
 15
4455.0
 25
3150.0
 35
0.0
146
0.0
 13
0.0
 23
0.0
 33
0.0
 16
1.0
 26
0.0
 36
0.0
 17
0.0
 27
1.0
 37
0.0
 76
     0
330
1F
331
29
  0
MLINESTYLE
  5
18
102
{ACAD_REACTORS
330
17
102
}
330
17
100
AcDbMlineStyle
  2
Standard
 70
     0
  3

 62
   256
 51
90.0
 52
90.0
 71
     2
 49
0.5
 62
   256
  6
BYLAYER
 49
-0.5
 62
   256
  6
BYLAYER
  0
ACDBPLACEHOLDER
  5
F
102
{ACAD_REACTORS
330
E
102
}
330
E
  0
SCALE
  5
48
102
{ACAD_REACTORS
330
47
102
}
330
47
100
AcDbScale
 70
     0
300
1:1
140
1.0
141
1.0
290
     1
  0
SCALE
  5
49
102
{ACAD_REACTORS
330
47
102
}
330
47
100
AcDbScale
 70
     0
300
1:2
140
1.0
141
2.0
290
     0
  0
SCALE
  5
4A
102
{ACAD_REACTORS
330
47
102
}
330
47
100
AcDbScale
 70
     0
300
1:4
140
1.0
141
4.0
290
     0
  0
SCALE
  5
4B
102
{ACAD_REACTORS
330
47
102
}
330
47
100
AcDbScale
 70
     0
300
1:5
140
1.0
141
5.0
290
     0
  0
SCALE
  5
4C
102
{ACAD_REACTORS
330
47
102
}
330
47
100
AcDbScale
 70
     0
300
1:8
140
1.0
141
8.0
290
     0
  0
SCALE
  5
4D
102
{ACAD_REACTORS
330
47
102
}
330
47
100
AcDbScale
 70
     0
300
1:10
140
1.0
141
10.0
290
     0
  0
SCALE
  5
4E
102
{ACAD_REACTORS
330
47
102
}
330
47
100
AcDbScale
 70
     0
300
1:16
140
1.0
141
16.0
290
     0
  0
SCALE
  5
4F
102
{ACAD_REACTORS
330
47
102
}
330
47
100
AcDbScale
 70
     0
300
1:20
140
1.0
141
20.0
290
     0
  0
SCALE
  5
50
102
{ACAD_REACTORS
330
47
102
}
330
47
100
AcDbScale
 70
     0
300
1:30
140
1.0
141
30.0
290
     0
  0
SCALE
  5
51
102
{ACAD_REACTORS
330
47
102
}
330
47
100
AcDbScale
 70
     0
300
1:40
140
1.0
141
40.0
290
     0
  0
SCALE
  5
52
102
{ACAD_REACTORS
330
47
102
}
330
47
100
AcDbScale
 70
     0
300
1:50
140
1.0
141
50.0
290
     0
  0
SCALE
  5
53
102
{ACAD_REACTORS
330
47
102
}
330
47
100
AcDbScale
 70
     0
300
1:100
140
1.0
141
100.0
290
     0
  0
SCALE
  5
54
102
{ACAD_REACTORS
330
47
102
}
330
47
100
AcDbScale
 70
     0
300
2:1
140
2.0
141
1.0
290
     0
  0
SCALE
  5
55
102
{ACAD_REACTORS
330
47
102
}
330
47
100
AcDbScale
 70
     0
300
4:1
140
4.0
141
1.0
290
     0
  0
SCALE
  5
56
102
{ACAD_REACTORS
330
47
102
}
330
47
100
AcDbScale
 70
     0
300
8:1
140
8.0
141
1.0
290
     0
  0
SCALE
  5
57
102
{ACAD_REACTORS
330
47
102
}
330
47
100
AcDbScale
 70
     0
300
10:1
140
10.0
141
1.0
290
     0
  0
SCALE
  5
58
102
{ACAD_REACTORS
330
47
102
}
330
47
100
AcDbScale
 70
     0
300
100:1
140
100.0
141
1.0
290
     0
  0
SCALE
  5
59
102
{ACAD_REACTORS
330
47
102
}
330
47
100
AcDbScale
 70
     0
300
1/128" = 1'-0"
140
0.0078125
141
12.0
290
     0
  0
SCALE
  5
5A
102
{ACAD_REACTORS
330
47
102
}
330
47
100
AcDbScale
 70
     0
300
1/64" = 1'-0"
140
0.015625
141
12.0
290
     0
  0
SCALE
  5
5B
102
{ACAD_REACTORS
330
47
102
}
330
47
100
AcDbScale
 70
     0
300
1/32" = 1'-0"
140
0.03125
141
12.0
290
     0
  0
SCALE
  5
5C
102
{ACAD_REACTORS
330
47
102
}
330
47
100
AcDbScale
 70
     0
300
1/16" = 1'-0"
140
0.0625
141
12.0
290
     0
  0
SCALE
  5
5D
102
{ACAD_REACTORS
330
47
102
}
330
47
100
AcDbScale
 70
     0
300
3/32" = 1'-0"
140
0.09375
141
12.0
290
     0
  0
SCALE
  5
5E
102
{ACAD_REACTORS
330
47
102
}
330
47
100
AcDbScale
 70
     0
300
1/8" = 1'-0"
140
0.125
141
12.0
290
     0
  0
SCALE
  5
5F
102
{ACAD_REACTORS
330
47
102
}
330
47
100
AcDbScale
 70
     0
300
3/16" = 1'-0"
140
0.1875
141
12.0
290
     0
  0
SCALE
  5
60
102
{ACAD_REACTORS
330
47
102
}
330
47
100
AcDbScale
 70
     0
300
1/4" = 1'-0"
140
0.25
141
12.0
290
     0
  0
SCALE
  5
61
102
{ACAD_REACTORS
330
47
102
}
330
47
100
AcDbScale
 70
     0
300
3/8" = 1'-0"
140
0.375
141
12.0
290
     0
  0
SCALE
  5
62
102
{ACAD_REACTORS
330
47
102
}
330
47
100
AcDbScale
 70
     0
300
1/2" = 1'-0"
140
0.5
141
12.0
290
     0
  0
SCALE
  5
63
102
{ACAD_REACTORS
330
47
102
}
330
47
100
AcDbScale
 70
     0
300
3/4" = 1'-0"
140
0.75
141
12.0
290
     0
  0
SCALE
  5
64
102
{ACAD_REACTORS
330
47
102
}
330
47
100
AcDbScale
 70
     0
300
1" = 1'-0"
140
1.0
141
12.0
290
     0
  0
SCALE
  5
65
102
{ACAD_REACTORS
330
47
102
}
330
47
100
AcDbScale
 70
     0
300
1-1/2" = 1'-0"
140
1.5
141
12.0
290
     0
  0
SCALE
  5
66
102
{ACAD_REACTORS
330
47
102
}
330
47
100
AcDbScale
 70
     0
300
3" = 1'-0"
140
3.0
141
12.0
290
     0
  0
SCALE
  5
67
102
{ACAD_REACTORS
330
47
102
}
330
47
100
AcDbScale
 70
     0
300
6" = 1'-0"
140
6.0
141
12.0
290
     0
  0
SCALE
  5
68
102
{ACAD_REACTORS
330
47
102
}
330
47
100
AcDbScale
 70
     0
300
1'-0" = 1'-0"
140
12.0
141
12.0
290
     0
  0
ENDSEC
  0
EOF
