  0
SECTION
  2
HEADER
  9
$ACADVER
  1
AC1015
  9
$ACADMAINTVER
 70
     6
  9
$DWGCODEPAGE
  3
ANSI_1252
  9
$INSBASE
 10
0.0
 20
0.0
 30
0.0
  9
$EXTMIN
 10
0.0
 20
0.0
 30
0.0
  9
$EXTMAX
 10
4455.0
 20
3150.0
 30
0.0
  9
$LIMMIN
 10
0.0
 20
0.0
  9
$LIMMAX
 10
4455.0
 20
3150.0
  9
$ORTHOMODE
 70
     0
  9
$REGENMODE
 70
     1
  9
$FILLMODE
 70
     1
  9
$QTEXTMODE
 70
     0
  9
$MIRRTEXT
 70
     1
  9
$LTSCALE
 40
15.0
  9
$ATTMODE
 70
     1
  9
$TEXTSIZE
 40
52.5
  9
$TRACEWID
 40
1.0
  9
$TEXTSTYLE
  7
Standard
  9
$CLAYER
  8
0
  9
$CELTYPE
  6
ByLayer
  9
$CECOLOR
 62
   256
  9
$CELTSCALE
 40
1.0
  9
$DISPSILH
 70
     0
  9
$DIMSCALE
 40
1.0
  9
$DIMASZ
 40
37.5
  9
$DIMEXO
 40
0.0
  9
$DIMDLI
 40
3.75
  9
$DIMRND
 40
0.0
  9
$DIMDLE
 40
0.0
  9
$DIMEXE
 40
15.0
  9
$DIMTP
 40
0.0
  9
$DIMTM
 40
0.0
  9
$DIMTXT
 40
45.0
  9
$DIMCEN
 40
2.5
  9
$DIMTSZ
 40
0.0
  9
$DIMTOL
 70
     0
  9
$DIMLIM
 70
     0
  9
$DIMTIH
 70
     1
  9
$DIMTOH
 70
     1
  9
$DIMSE1
 70
     0
  9
$DIMSE2
 70
     0
  9
$DIMTAD
 70
     1
  9
$DIMZIN
 70
     0
  9
$DIMBLK
  1

  9
$DIMASO
 70
     1
  9
$DIMSHO
 70
     1
  9
$DIMPOST
  1

  9
$DIMAPOST
  1

  9
$DIMALT
 70
     0
  9
$DIMALTD
 70
     3
  9
$DIMALTF
 40
0.0393700787
  9
$DIMLFAC
 40
1.0
  9
$DIMTOFL
 70
     1
  9
$DIMTVP
 40
0.0
  9
$DIMTIX
 70
     0
  9
$DIMSOXD
 70
     0
  9
$DIMSAH
 70
     0
  9
$DIMBLK1
  1

  9
$DIMBLK2
  1

  9
$DIMSTYLE
  2
ISO-25
  9
$DIMCLRD
 70
     0
  9
$DIMCLRE
 70
     0
  9
$DIMCLRT
 70
     0
  9
$DIMTFAC
 40
1.0
  9
$DIMGAP
 40
22.5
  9
$DIMJUST
 70
     0
  9
$DIMSD1
 70
     0
  9
$DIMSD2
 70
     0
  9
$DIMTOLJ
 70
     0
  9
$DIMTZIN
 70
     0
  9
$DIMALTZ
 70
     0
  9
$DIMALTTZ
 70
     0
  9
$DIMUPT
 70
     0
  9
$DIMDEC
 70
     1
  9
$DIMTDEC
 70
     1
  9
$DIMALTU
 70
     2
  9
$DIMALTTD
 70
     3
  9
$DIMTXSTY
  7
Standard
  9
$DIMAUNIT
 70
     0
  9
$DIMADEC
 70
     2
  9
$DIMALTRND
 40
0.0
  9
$DIMAZIN
 70
     0
  9
$DIMDSEP
 70
    44
  9
$DIMATFIT
 70
     3
  9
$DIMFRAC
 70
     0
  9
$DIMLDRBLK
  1

  9
$DIMLUNIT
 70
     2
  9
$DIMLWD
 70
    -2
  9
$DIMLWE
 70
    -2
  9
$DIMTMOVE
 70
     0
  9
$LUNITS
 70
     2
  9
$LUPREC
 70
     2
  9
$SKETCHINC
 40
1.0
  9
$FILLETRAD
 40
10.0
  9
$AUNITS
 70
     0
  9
$AUPREC
 70
     2
  9
$MENU
  1
.
  9
$ELEVATION
 40
0.0
  9
$PELEVATION
 40
0.0
  9
$THICKNESS
 40
0.0
  9
$LIMCHECK
 70
     0
  9
$CHAMFERA
 40
0.0
  9
$CHAMFERB
 40
0.0
  9
$CHAMFERC
 40
0.0
  9
$CHAMFERD
 40
0.0
  9
$SKPOLY
 70
     0
  9
$TDCREATE
 40
2459174.716514306
  9
$TDUCREATE
 40
2459174.674847639
  9
$TDUPDATE
 40
2459174.71651515
  9
$TDUUPDATE
 40
2459174.674848484
  9
$TDINDWG
 40
0.0000000116
  9
$TDUSRTIMER
 40
0.0000000116
  9
$USRTIMER
 70
     1
  9
$ANGBASE
 50
0.0
  9
$ANGDIR
 70
     0
  9
$PDMODE
 70
     0
  9
$PDSIZE
 40
-1.0
  9
$PLINEWID
 40
0.0
  9
$SPLFRAME
 70
     0
  9
$SPLINETYPE
 70
     6
  9
$SPLINESEGS
 70
     8
  9
$HANDSEED
  5
29D
  9
$SURFTAB1
 70
     6
  9
$SURFTAB2
 70
     6
  9
$SURFTYPE
 70
     6
  9
$SURFU
 70
     6
  9
$SURFV
 70
     6
  9
$UCSBASE
  2

  9
$UCSNAME
  2

  9
$UCSORG
 10
0.0
 20
0.0
 30
0.0
  9
$UCSXDIR
 10
1.0
 20
0.0
 30
0.0
  9
$UCSYDIR
 10
0.0
 20
1.0
 30
0.0
  9
$UCSORTHOREF
  2

  9
$UCSORTHOVIEW
 70
     0
  9
$UCSORGTOP
 10
0.0
 20
0.0
 30
0.0
  9
$UCSORGBOTTOM
 10
0.0
 20
0.0
 30
0.0
  9
$UCSORGLEFT
 10
0.0
 20
0.0
 30
0.0
  9
$UCSORGRIGHT
 10
0.0
 20
0.0
 30
0.0
  9
$UCSORGFRONT
 10
0.0
 20
0.0
 30
0.0
  9
$UCSORGBACK
 10
0.0
 20
0.0
 30
0.0
  9
$PUCSBASE
  2

  9
$PUCSNAME
  2

  9
$PUCSORG
 10
0.0
 20
0.0
 30
0.0
  9
$PUCSXDIR
 10
1.0
 20
0.0
 30
0.0
  9
$PUCSYDIR
 10
0.0
 20
1.0
 30
0.0
  9
$PUCSORTHOREF
  2

  9
$PUCSORTHOVIEW
 70
     0
  9
$PUCSORGTOP
 10
0.0
 20
0.0
 30
0.0
  9
$PUCSORGBOTTOM
 10
0.0
 20
0.0
 30
0.0
  9
$PUCSORGLEFT
 10
0.0
 20
0.0
 30
0.0
  9
$PUCSORGRIGHT
 10
0.0
 20
0.0
 30
0.0
  9
$PUCSORGFRONT
 10
0.0
 20
0.0
 30
0.0
  9
$PUCSORGBACK
 10
0.0
 20
0.0
 30
0.0
  9
$USERI1
 70
     0
  9
$USERI2
 70
     0
  9
$USERI3
 70
     0
  9
$USERI4
 70
     0
  9
$USERI5
 70
     0
  9
$USERR1
 40
0.0
  9
$USERR2
 40
0.0
  9
$USERR3
 40
0.0
  9
$USERR4
 40
0.0
  9
$USERR5
 40
0.0
  9
$WORLDVIEW
 70
     1
  9
$SHADEDGE
 70
     3
  9
$SHADEDIF
 70
    70
  9
$TILEMODE
 70
     1
  9
$MAXACTVP
 70
    64
  9
$PINSBASE
 10
0.0
 20
0.0
 30
0.0
  9
$PLIMCHECK
 70
     0
  9
$PEXTMIN
 10
1.0000000000E+20
 20
1.0000000000E+20
 30
1.0000000000E+20
  9
$PEXTMAX
 10
-1.0000000000E+20
 20
-1.0000000000E+20
 30
-1.0000000000E+20
  9
$PLIMMIN
 10
0.0
 20
0.0
  9
$PLIMMAX
 10
420.0
 20
297.0
  9
$UNITMODE
 70
     0
  9
$VISRETAIN
 70
     1
  9
$PLINEGEN
 70
     0
  9
$PSLTSCALE
 70
     1
  9
$TREEDEPTH
 70
  3020
  9
$CMLSTYLE
  2
Standard
  9
$CMLJUST
 70
     0
  9
$CMLSCALE
 40
20.0
  9
$PROXYGRAPHICS
 70
     1
  9
$MEASUREMENT
 70
     1
  9
$CELWEIGHT
370
    -1
  9
$ENDCAPS
280
     0
  9
$JOINSTYLE
280
     0
  9
$LWDISPLAY
290
     1
  9
$INSUNITS
 70
     4
  9
$HYPERLINKBASE
  1

  9
$STYLESHEET
  1

  9
$XEDIT
290
     1
  9
$CEPSNTYPE
380
     0
  9
$PSTYLEMODE
290
     1
  9
$FINGERPRINTGUID
  2
{4bf5c3ea-b868-4273-a956-e28caf9fb562}
  9
$VERSIONGUID
  2
{FAEB1C32-E019-11D5-929B-00C0DF256EC4}
  9
$EXTNAMES
290
     1
  9
$PSVPSCALE
 40
0.0
  9
$OLESTARTUP
290
     0
  0
ENDSEC
  0
SECTION
  2
CLASSES
  0
CLASS
  1
ACDBDICTIONARYWDFLT
  2
AcDbDictionaryWithDefault
  3
ObjectDBX Classes
 90
        0
280
     0
281
     0
  0
CLASS
  1
VISUALSTYLE
  2
AcDbVisualStyle
  3
ObjectDBX Classes
 90
     4095
280
     0
281
     0
  0
CLASS
  1
MATERIAL
  2
AcDbMaterial
  3
ObjectDBX Classes
 90
     1153
280
     0
281
     0
  0
CLASS
  1
SCALE
  2
AcDbScale
  3
ObjectDBX Classes
 90
     1153
280
     0
281
     0
  0
CLASS
  1
TABLESTYLE
  2
AcDbTableStyle
  3
ObjectDBX Classes
 90
     4095
280
     0
281
     0
  0
CLASS
  1
MLEADERSTYLE
  2
AcDbMLeaderStyle
  3
ACDB_MLEADERSTYLE_CLASS
 90
     4095
280
     0
281
     0
  0
CLASS
  1
SUN
  2
AcDbSun
  3
SCENEOE
 90
     1153
280
     0
281
     0
  0
CLASS
  1
ACDBPLACEHOLDER
  2
AcDbPlaceHolder
  3
ObjectDBX Classes
 90
        0
280
     0
281
     0
  0
CLASS
  1
LAYOUT
  2
AcDbLayout
  3
ObjectDBX Classes
 90
        0
280
     0
281
     0
  0
ENDSEC
  0
SECTION
  2
TABLES
  0
TABLE
  2
VPORT
  5
8
330
0
100
AcDbSymbolTable
 70
     1
  0
VPORT
  5
29
330
8
100
AcDbSymbolTableRecord
100
AcDbViewportTableRecord
  2
*Active
 70
     0
 10
0.0
 20
0.0
 11
1.0
 21
1.0
 12
2227.5
 22
1575.0
 13
0.0
 23
0.0
 14
10.0
 24
10.0
 15
10.0
 25
10.0
 16
0.0
 26
0.0
 36
1.0
 17
0.0
 27
0.0
 37
0.0
 40
3150.0
 41
1.4142857143
 42
50.0
 43
0.0
 44
0.0
 50
0.0
 51
0.0
 71
     0
 72
  2000
 73
     1
 74
     3
 75
     0
 76
     0
 77
     0
 78
     0
281
     0
 65
     1
110
0.0
120
0.0
130
0.0
111
1.0
121
0.0
131
0.0
112
0.0
122
1.0
132
0.0
 79
     0
146
0.0
  0
ENDTAB
  0
TABLE
  2
LTYPE
  5
5
330
0
100
AcDbSymbolTable
 70
     6
  0
LTYPE
  5
14
330
5
100
AcDbSymbolTableRecord
100
AcDbLinetypeTableRecord
  2
ByBlock
 70
     0
  3

 72
    65
 73
     0
 40
0.0
  0
LTYPE
  5
15
330
5
100
AcDbSymbolTableRecord
100
AcDbLinetypeTableRecord
  2
ByLayer
 70
     0
  3

 72
    65
 73
     0
 40
0.0
  0
LTYPE
  5
16
330
5
100
AcDbSymbolTableRecord
100
AcDbLinetypeTableRecord
  2
Continuous
 70
     0
  3
Solid line
 72
    65
 73
     0
 40
0.0
  0
LTYPE
  5
6E
330
5
100
AcDbSymbolTableRecord
100
AcDbLinetypeTableRecord
  2
HIDDEN
 70
     0
  3
Hidden __ __ __ __ __ __ __ __ __ __ __ __ __ __
 72
    65
 73
     2
 40
1.905
 49
1.27
 74
     0
 49
-0.635
 74
     0
  0
LTYPE
  5
6F
330
5
100
AcDbSymbolTableRecord
100
AcDbLinetypeTableRecord
  2
PHANTOM
 70
     0
  3
Phantom ______  __  __  ______  __  __  ______
 72
    65
 73
     6
 40
12.7
 49
6.35
 74
     0
 49
-1.27
 74
     0
 49
1.27
 74
     0
 49
-1.27
 74
     0
 49
1.27
 74
     0
 49
-1.27
 74
     0
  0
LTYPE
  5
70
330
5
100
AcDbSymbolTableRecord
100
AcDbLinetypeTableRecord
  2
CENTER
 70
     0
  3
Center ____ _ ____ _ ____ _ ____ _ ____ _ ____
 72
    65
 73
     4
 40
10.16
 49
6.35
 74
     0
 49
-1.27
 74
     0
 49
1.27
 74
     0
 49
-1.27
 74
     0
  0
LTYPE
  5
71
330
5
100
AcDbSymbolTableRecord
100
AcDbLinetypeTableRecord
  2
CENTERX2
 70
     0
  3
Center (2x) ________  __  ________  __  _____
 72
    65
 73
     4
 40
20.32
 49
12.7
 74
     0
 49
-2.54
 74
     0
 49
2.54
 74
     0
 49
-2.54
 74
     0
  0
LTYPE
  5
72
330
5
100
AcDbSymbolTableRecord
100
AcDbLinetypeTableRecord
  2
DOT2
 70
     0
  3
Dot (.5x) ........................................
 72
    65
 73
     2
 40
0.635
 49
0.0
 74
     0
 49
-0.635
 74
     0
  0
ENDTAB
  0
TABLE
  2
LAYER
  5
2
330
0
100
AcDbSymbolTable
 70
     2
  0
LAYER
  5
10
330
2
100
AcDbSymbolTableRecord
100
AcDbLayerTableRecord
  2
0
 70
     0
 62
     7
  6
Continuous
370
    -3
390
F
  0
LAYER
  5
73
330
2
100
AcDbSymbolTableRecord
100
AcDbLayerTableRecord
  2
FORMAT
 70
     0
 62
     7
  6
Continuous
370
    -3
390
F
  0
ENDTAB
  0
TABLE
  2
STYLE
  5
3
330
0
100
AcDbSymbolTable
 70
     2
  0
STYLE
  5
11
330
3
100
AcDbSymbolTableRecord
100
AcDbTextStyleTableRecord
  2
Standard
 70
     0
 40
0.0
 41
1.0
 50
0.0
 71
     0
 42
52.5
  3
txt
  4

  0
STYLE
  5
E7
330
3
100
AcDbSymbolTableRecord
100
AcDbTextStyleTableRecord
  2
SLDTEXTSTYLE0
 70
     0
 40
0.0
 41
0.605
 50
0.0
 71
     0
 42
52.5
  3
TXT
  4

  0
ENDTAB
  0
TABLE
  2
VIEW
  5
6
330
0
100
AcDbSymbolTable
 70
     0
  0
ENDTAB
  0
TABLE
  2
UCS
  5
7
330
0
100
AcDbSymbolTable
 70
     0
  0
ENDTAB
  0
TABLE
  2
APPID
  5
9
330
0
100
AcDbSymbolTable
 70
     1
  0
APPID
  5
12
330
9
100
AcDbSymbolTableRecord
100
AcDbRegAppTableRecord
  2
ACAD
 70
     0
  0
ENDTAB
  0
TABLE
  2
DIMSTYLE
  5
A
330
0
100
AcDbSymbolTable
 70
     1
100
AcDbDimStyleTable
  0
DIMSTYLE
105
27
330
A
100
AcDbSymbolTableRecord
100
AcDbDimStyleTableRecord
  2
ISO-25
 70
     0
 41
2.5
 42
0.625
 43
3.75
 44
1.25
 73
     0
 74
     0
 77
     1
 78
     8
140
2.5
141
2.5
143
0.0393700787
147
0.625
171
     3
172
     1
178
     0
271
     2
272
     2
274
     3
278
    44
283
     0
284
     8
340
11
  0
ENDTAB
  0
TABLE
  2
BLOCK_RECORD
  5
1
330
0
100
AcDbSymbolTable
 70
     2
  0
BLOCK_RECORD
  5
1F
330
1
100
AcDbSymbolTableRecord
100
AcDbBlockTableRecord
  2
*Model_Space
340
22
  0
BLOCK_RECORD
  5
1B
330
1
100
AcDbSymbolTableRecord
100
AcDbBlockTableRecord
  2
*Paper_Space
340
1E
  0
BLOCK_RECORD
  5
23
330
1
100
AcDbSymbolTableRecord
100
AcDbBlockTableRecord
  2
*Paper_Space0
340
26
  0
BLOCK_RECORD
  5
EE
330
1
100
AcDbSymbolTableRecord
100
AcDbBlockTableRecord
  2
SW_NOTE_0
340
0
102
{BLKREFS
331
F3
102
}
  0
ENDTAB
  0
ENDSEC
  0
SECTION
  2
BLOCKS
  0
BLOCK
  5
20
330
1F
100
AcDbEntity
  8
0
100
AcDbBlockBegin
  2
*Model_Space
 70
     0
 10
0.0
 20
0.0
 30
0.0
  3
*Model_Space
  1

  0
ENDBLK
  5
21
330
1F
100
AcDbEntity
  8
0
100
AcDbBlockEnd
  0
BLOCK
  5
1C
330
1B
100
AcDbEntity
 67
     1
  8
0
100
AcDbBlockBegin
  2
*Paper_Space
 70
     0
 10
0.0
 20
0.0
 30
0.0
  3
*Paper_Space
  1

  0
ENDBLK
  5
1D
330
1B
100
AcDbEntity
 67
     1
  8
0
100
AcDbBlockEnd
  0
BLOCK
  5
24
330
23
100
AcDbEntity
  8
0
100
AcDbBlockBegin
  2
*Paper_Space0
 70
     0
 10
0.0
 20
0.0
 30
0.0
  3
*Paper_Space0
  1

  0
ENDBLK
  5
25
330
23
100
AcDbEntity
  8
0
100
AcDbBlockEnd
  0
BLOCK
  5
EF
330
EE
100
AcDbEntity
  8
0
100
AcDbBlockBegin
  2
SW_NOTE_0
 70
     0
 10
0.0
 20
0.0
 30
0.0
  3
SW_NOTE_0
  1

  0
MTEXT
  5
F1
330
EE
100
AcDbEntity
  8
0
  6
Continuous
 62
     0
370
     0
100
AcDbMText
 10
49.359375
 20
34.8048289738
 30
0.0
 40
27.0
 41
0.0
 71
     2
 72
     1
  1
SCALA
  7
SLDTEXTSTYLE0
 73
     1
 44
1.0
  0
MTEXT
  5
F2
330
EE
100
AcDbEntity
  8
0
  6
Continuous
 62
     0
370
     0
100
AcDbMText
 10
53.4147810657
 20
-2.4595061469
 30
0.0
 40
55.5625
 41
0.0
 71
     2
 72
     1
  1
1:1
  7
SLDTEXTSTYLE0
 73
     1
 44
1.0
  0
ENDBLK
  5
F0
330
EE
100
AcDbEntity
  8
0
100
AcDbBlockEnd
  0
ENDSEC
  0
SECTION
  2
ENTITIES
  0
HATCH
  5
74
330
1F
100
AcDbEntity
  8
0
  6
Continuous
 62
     7
100
AcDbHatch
 10
0.0
 20
0.0
 30
0.0
210
0.0
220
0.0
230
1.0
  2
SOLID
 70
     1
 71
     0
 91
        2
 92
        0
 93
        6
 72
     1
 10
3510.364839630325
 20
478.9717232620642
 11
3534.971866308667
 21
478.9717232620642
 72
     3
 10
3526.618147735648
 20
497.9339160554321
 11
40.63327027197528
 21
0.0
 40
0.4768529109443385
 50
293.775699558261
 51
426.2243004403767
 73
     1
 72
     1
 10
3534.971866309184
 20
516.8961088487492
 11
3485.984877466922
 21
516.8961088487492
 72
     1
 10
3485.984877466922
 20
516.8961088487492
 11
3485.984877466922
 21
457.3006457872621
 72
     1
 10
3485.984877466922
 20
457.3006457872621
 11
3510.364839630325
 21
457.3006457872621
 72
     1
 10
3510.364839630325
 20
457.3006457872621
 11
3510.364839630325
 21
478.9717232620642
 97
        0
 92
        0
 93
        6
 72
     3
 10
3525.263705395451
 20
497.9339160554321
 11
14.89886576646227
 21
0.0
 40
0.5895245510672578
 50
316.3365658560249
 51
403.6634341442267
 73
     0
 72
     2
 10
3529.385821470631
 20
500.6428007400895
 40
10.83553873881616
 50
69.99121011132848
 51
90.0
 73
     0
 72
     1
 10
3529.385821470631
 20
489.8072620012733
 11
3510.364839629721
 21
489.8072620012733
 72
     1
 10
3510.364839629721
 20
489.8072620012733
 11
3510.364839629721
 21
506.060570109435
 72
     1
 10
3510.364839629721
 20
506.060570109435
 11
3529.385821471518
 21
506.060570109435
 72
     2
 10
3529.385821471518
 20
495.2250313732109
 40
10.83553873622417
 50
270.0000000000008
 51
290.0087898889544
 73
     0
 97
        0
 75
     0
 76
     1
 98
        1
 10
0.0
 20
0.0
  0
HATCH
  5
75
330
1F
100
AcDbEntity
  8
0
  6
Continuous
 62
     7
100
AcDbHatch
 10
0.0
 20
0.0
 30
0.0
210
0.0
220
0.0
230
1.0
  2
SOLID
 70
     1
 71
     0
 91
        1
 92
        0
 93
       12
 72
     1
 10
3653.935727922185
 20
516.89610884631
 11
3572.669187380694
 21
516.89610884631
 72
     1
 10
3572.669187380694
 20
516.89610884631
 11
3572.669187380694
 21
457.300645784823
 72
     1
 10
3572.669187380694
 20
457.300645784823
 11
3653.935727922185
 21
457.300645784823
 72
     1
 10
3653.935727922185
 20
457.300645784823
 11
3653.935727922185
 21
468.136184519505
 72
     1
 10
3653.935727922185
 20
468.136184519505
 11
3599.758034227767
 21
468.136184519505
 72
     1
 10
3599.758034227767
 20
468.136184519505
 11
3599.758034227767
 21
481.6806079430411
 72
     1
 10
3599.758034227767
 20
481.6806079430411
 11
3648.517958554844
 21
481.6806079430411
 72
     1
 10
3648.517958554844
 20
481.6806079430411
 11
3648.517958554844
 21
492.5161466829075
 72
     1
 10
3648.517958554844
 20
492.5161466829075
 11
3599.758034227767
 21
492.5161466829075
 72
     1
 10
3599.758034227767
 20
492.5161466829075
 11
3599.758034227767
 21
506.0605701064436
 72
     1
 10
3599.758034227767
 20
506.0605701064436
 11
3653.935727922185
 21
506.0605701064436
 72
     1
 10
3653.935727922185
 20
506.0605701064436
 11
3653.935727922185
 21
516.89610884631
 97
        0
 75
     0
 76
     1
 98
        1
 10
0.0
 20
0.0
  0
HATCH
  5
76
330
1F
100
AcDbEntity
  8
0
  6
Continuous
 62
     7
100
AcDbHatch
 10
0.0
 20
0.0
 30
0.0
210
0.0
220
0.0
230
1.0
  2
SOLID
 70
     1
 71
     0
 91
        1
 92
        0
 93
        6
 72
     1
 10
3968.166351360068
 20
516.896108849379
 11
3941.077504512995
 21
516.896108849379
 72
     1
 10
3941.077504512995
 20
516.896108849379
 11
3941.077504512995
 21
457.3006457878918
 72
     1
 10
3941.077504512995
 20
457.3006457878918
 11
4014.217391003474
 21
457.3006457878918
 72
     1
 10
4014.217391003474
 20
457.3006457878918
 11
4014.217391003474
 21
470.8450692114284
 72
     1
 10
4014.217391003474
 20
470.8450692114284
 11
3968.166351360068
 21
470.8450692114284
 72
     1
 10
3968.166351360068
 20
470.8450692114284
 11
3968.166351360068
 21
516.896108849379
 97
        0
 75
     0
 76
     1
 98
        1
 10
0.0
 20
0.0
  0
HATCH
  5
77
330
1F
100
AcDbEntity
  8
0
  6
Continuous
 62
     7
100
AcDbHatch
 10
0.0
 20
0.0
 30
0.0
210
0.0
220
0.0
230
1.0
  2
SOLID
 70
     1
 71
     0
 91
        1
 92
        0
 93
        4
 72
     1
 10
4016.926275686005
 20
516.8961088487489
 11
4016.926275686005
 21
457.3006457872619
 72
     1
 10
4016.926275686005
 20
457.3006457872619
 11
4044.015122533078
 21
457.3006457872619
 72
     1
 10
4044.015122533078
 20
457.3006457872619
 11
4044.015122533078
 21
516.8961088487489
 72
     1
 10
4044.015122533078
 20
516.8961088487489
 11
4016.926275686005
 21
516.8961088487489
 97
        0
 75
     0
 76
     1
 98
        1
 10
0.0
 20
0.0
  0
HATCH
  5
78
330
1F
100
AcDbEntity
  8
0
  6
Continuous
 62
     7
100
AcDbHatch
 10
0.0
 20
0.0
 30
0.0
210
0.0
220
0.0
230
1.0
  2
SOLID
 70
     1
 71
     0
 91
        2
 92
        0
 93
        4
 72
     3
 10
3702.695652247627
 20
487.0983773139296
 11
43.3421549567338
 21
0.0
 40
0.6929224243374511
 50
280.2934314618138
 51
439.7065685387132
 73
     1
 72
     1
 10
3708.107289002345
 20
516.8961088463723
 11
3659.353497294997
 21
516.896108846372
 72
     1
 10
3659.353497294997
 20
516.896108846372
 11
3659.353497294997
 21
457.3006457815111
 72
     1
 10
3659.353497294997
 20
457.3006457815111
 11
3708.107289002623
 21
457.3006457815111
 97
        0
 92
        0
 93
        6
 72
     2
 10
3709.420759151997
 20
487.0983773132712
 40
16.25330810997023
 50
56.16906508602241
 51
90.0
 73
     0
 72
     1
 10
3709.420759151997
 20
470.8450692033011
 11
3683.73345945474
 21
470.8450692033011
 72
     1
 10
3683.73345945474
 20
470.8450692033011
 11
3683.73345945474
 21
503.3516854240493
 72
     1
 10
3683.73345945474
 20
503.3516854240493
 11
3709.420759151997
 21
503.3516854240493
 72
     2
 10
3709.420759151997
 20
487.0983773132712
 40
16.25330811077806
 50
270.0000000000008
 51
303.8314447476084
 73
     0
 72
     3
 10
3693.214555856416
 20
487.0983773139296
 11
33.86105856006918
 21
0.0
 40
0.5985848325441406
 50
331.8713554011804
 51
388.1288999924611
 73
     0
 97
        0
 75
     0
 76
     1
 98
        1
 10
0.0
 20
0.0
  0
HATCH
  5
79
330
1F
100
AcDbEntity
  8
0
  6
Continuous
 62
     7
100
AcDbHatch
 10
0.0
 20
0.0
 30
0.0
210
0.0
220
0.0
230
1.0
  2
SOLID
 70
     1
 71
     0
 91
        3
 92
        0
 93
       19
 72
     1
 10
3838.305303288919
 20
472.1564369380282
 11
3840.533301976077
 21
463.4514816274054
 72
     2
 10
3848.180349956368
 20
465.1715759510745
 40
7.838116310390116
 50
192.676878510139
 51
204.7368873206727
 73
     1
 72
     1
 10
3841.061467316795
 20
461.891701371279
 11
3876.06427207871
 21
516.896108849379
 72
     1
 10
3876.06427207871
 20
516.896108849379
 11
3903.153118925783
 21
516.896108849379
 72
     1
 10
3903.153118925783
 20
516.896108849379
 11
3941.077504512995
 21
457.3006457878918
 72
     1
 10
3941.077504512995
 20
457.3006457878918
 11
3913.988657665649
 21
457.3006457878918
 72
     1
 10
3913.988657665649
 20
457.3006457878918
 11
3907.893667124934
 21
468.136184522574
 72
     1
 10
3907.893667124934
 20
468.136184522574
 11
3871.323723879558
 21
468.136184522574
 72
     1
 10
3871.323723879558
 20
468.136184522574
 11
3865.228733338844
 21
457.3006457878918
 72
     1
 10
3865.228733338844
 20
457.3006457878918
 11
3819.177693694659
 21
457.3006457878918
 72
     1
 10
3819.177693694659
 20
457.3006457878918
 11
3819.177693694659
 21
468.1361845239816
 72
     2
 10
3808.342154954792
 20
468.1361845239816
 40
10.83553873986634
 50
0.0
 51
90.0
 73
     1
 72
     1
 10
3808.342154954792
 20
478.9717232638475
 11
3781.253308107446
 21
478.9717232638475
 72
     1
 10
3781.253308107446
 20
478.9717232638475
 11
3781.253308107446
 21
457.3006457892997
 72
     1
 10
3781.253308107446
 20
457.3006457892997
 11
3756.873345944045
 21
457.3006457892997
 72
     1
 10
3756.873345944045
 20
457.3006457892997
 11
3756.873345944045
 21
516.8961088507866
 72
     1
 10
3756.873345944045
 20
516.8961088507866
 11
3813.02888745868
 21
516.8961088507866
 72
     3
 10
3807.044921560378
 20
499.4046031234453
 11
36.48999933802743
 21
0.0
 40
0.4859291160023138
 50
288.8861745463018
 51
398.6942257036358
 73
     0
 72
     2
 10
3823.556377394376
 20
469.4441941062505
 40
14.99623540163429
 50
279.2678272406091
 51
349.5800515720783
 73
     0
 97
        0
 92
        0
 93
        3
 72
     1
 10
3889.608695501106
 20
500.6428007391028
 11
3877.418714419404
 21
478.9717232593709
 72
     1
 10
3877.418714419404
 20
478.9717232593709
 11
3901.798676582808
 21
478.9717232593709
 72
     1
 10
3901.798676582808
 20
478.9717232593709
 11
3889.608695501106
 21
500.6428007391028
 97
        0
 92
        0
 93
        6
 72
     2
 10
3807.717258628007
 20
497.933916056143
 40
8.126654055321543
 50
270.0000000000008
 51
305.5869104965617
 73
     1
 72
     3
 10
3798.861058561583
 20
497.9339160554321
 11
17.6077504512262
 21
0.0
 40
0.5900077182209744
 50
334.0585416903787
 51
385.9414583083991
 73
     1
 72
     2
 10
3807.717258628007
 20
497.933916056143
 40
8.126654054164838
 50
54.41308949502037
 51
90.0
 73
     1
 72
     1
 10
3807.717258628007
 20
506.0605701103083
 11
3781.253308106577
 21
506.0605701103083
 72
     1
 10
3781.253308106577
 20
506.0605701103083
 11
3781.253308106577
 21
489.807262000821
 72
     1
 10
3781.253308106577
 20
489.807262000821
 11
3807.717258628007
 21
489.8072620008215
 97
        0
 75
     0
 76
     1
 98
        1
 10
0.0
 20
0.0
  0
LINE
  5
7A
330
1F
100
AcDbEntity
  8
0
  6
Continuous
 62
     7
370
    25
100
AcDbLine
 10
4305.0
 20
150.0
 30
0.0
 11
4305.0
 21
3000.0
 31
0.0
  0
LINE
  5
7B
330
1F
100
AcDbEntity
  8
0
  6
Continuous
 62
   179
370
    18
100
AcDbLine
 10
3485.9848774669
 20
516.8961088487
 30
0.0
 11
3485.9848774669
 21
457.3006457873
 31
0.0
  0
LINE
  5
7C
330
1F
100
AcDbEntity
  8
0
  6
Continuous
 62
   179
370
    18
100
AcDbLine
 10
3485.9848774669
 20
516.8961088487
 30
0.0
 11
3534.9718663092
 21
516.8961088487
 31
0.0
  0
LINE
  5
7D
330
1F
100
AcDbEntity
  8
0
  6
Continuous
 62
   179
370
    18
100
AcDbLine
 10
3485.9848774669
 20
457.3006457873
 30
0.0
 11
3510.3648396303
 21
457.3006457873
 31
0.0
  0
LINE
  5
7E
330
1F
100
AcDbEntity
  8
0
  6
Continuous
 62
   179
370
    18
100
AcDbLine
 10
3510.3648396303
 20
457.3006457873
 30
0.0
 11
3510.3648396303
 21
478.9717232621
 31
0.0
  0
LINE
  5
7F
330
1F
100
AcDbEntity
  8
0
  6
Continuous
 62
   179
370
    18
100
AcDbLine
 10
3534.9718663087
 20
478.9717232621
 30
0.0
 11
3510.3648396303
 21
478.9717232621
 31
0.0
  0
LINE
  5
80
330
1F
100
AcDbEntity
  8
0
  6
Continuous
 62
   179
370
    18
100
AcDbLine
 10
3510.3648396297
 20
489.8072620013
 30
0.0
 11
3510.3648396297
 21
506.0605701094
 31
0.0
  0
LINE
  5
81
330
1F
100
AcDbEntity
  8
0
  6
Continuous
 62
   179
370
    18
100
AcDbLine
 10
3510.3648396297
 20
506.0605701094
 30
0.0
 11
3529.3858214715
 21
506.0605701094
 31
0.0
  0
LINE
  5
82
330
1F
100
AcDbEntity
  8
0
  6
Continuous
 62
   179
370
    18
100
AcDbLine
 10
3510.3648396297
 20
489.8072620013
 30
0.0
 11
3529.3858214706
 21
489.8072620013
 31
0.0
  0
LINE
  5
83
330
1F
100
AcDbEntity
  8
0
  6
Continuous
 62
   179
370
    18
100
AcDbLine
 10
3572.6691873807
 20
516.8961088463
 30
0.0
 11
3653.9357279222
 21
516.8961088463
 31
0.0
  0
LINE
  5
84
330
1F
100
AcDbEntity
  8
0
  6
Continuous
 62
   179
370
    18
100
AcDbLine
 10
3653.9357279222
 20
516.8961088463
 30
0.0
 11
3653.9357279222
 21
506.0605701064
 31
0.0
  0
LINE
  5
85
330
1F
100
AcDbEntity
  8
0
  6
Continuous
 62
   179
370
    18
100
AcDbLine
 10
3653.9357279222
 20
506.0605701064
 30
0.0
 11
3599.7580342278
 21
506.0605701064
 31
0.0
  0
LINE
  5
86
330
1F
100
AcDbEntity
  8
0
  6
Continuous
 62
   179
370
    18
100
AcDbLine
 10
3599.7580342278
 20
506.0605701064
 30
0.0
 11
3599.7580342278
 21
492.5161466829
 31
0.0
  0
LINE
  5
87
330
1F
100
AcDbEntity
  8
0
  6
Continuous
 62
   179
370
    18
100
AcDbLine
 10
3599.7580342278
 20
492.5161466829
 30
0.0
 11
3648.5179585548
 21
492.5161466829
 31
0.0
  0
LINE
  5
88
330
1F
100
AcDbEntity
  8
0
  6
Continuous
 62
   179
370
    18
100
AcDbLine
 10
3648.5179585548
 20
492.5161466829
 30
0.0
 11
3648.5179585548
 21
481.680607943
 31
0.0
  0
LINE
  5
89
330
1F
100
AcDbEntity
  8
0
  6
Continuous
 62
   179
370
    18
100
AcDbLine
 10
3648.5179585548
 20
481.680607943
 30
0.0
 11
3599.7580342278
 21
481.680607943
 31
0.0
  0
LINE
  5
8A
330
1F
100
AcDbEntity
  8
0
  6
Continuous
 62
   179
370
    18
100
AcDbLine
 10
3599.7580342278
 20
481.680607943
 30
0.0
 11
3599.7580342278
 21
468.1361845195
 31
0.0
  0
LINE
  5
8B
330
1F
100
AcDbEntity
  8
0
  6
Continuous
 62
   179
370
    18
100
AcDbLine
 10
3599.7580342278
 20
468.1361845195
 30
0.0
 11
3653.9357279222
 21
468.1361845195
 31
0.0
  0
LINE
  5
8C
330
1F
100
AcDbEntity
  8
0
  6
Continuous
 62
   179
370
    18
100
AcDbLine
 10
3653.9357279222
 20
468.1361845195
 30
0.0
 11
3653.9357279222
 21
457.3006457848
 31
0.0
  0
LINE
  5
8D
330
1F
100
AcDbEntity
  8
0
  6
Continuous
 62
   179
370
    18
100
AcDbLine
 10
3653.9357279222
 20
457.3006457848
 30
0.0
 11
3572.6691873807
 21
457.3006457848
 31
0.0
  0
LINE
  5
8E
330
1F
100
AcDbEntity
  8
0
  6
Continuous
 62
   179
370
    18
100
AcDbLine
 10
3659.353497295
 20
516.8961088464
 30
0.0
 11
3659.353497295
 21
457.3006457815
 31
0.0
  0
LINE
  5
8F
330
1F
100
AcDbEntity
  8
0
  6
Continuous
 62
   179
370
    18
100
AcDbLine
 10
3659.353497295
 20
516.8961088464
 30
0.0
 11
3708.1072890023
 21
516.8961088464
 31
0.0
  0
LINE
  5
90
330
1F
100
AcDbEntity
  8
0
  6
Continuous
 62
   179
370
    18
100
AcDbLine
 10
3708.1072890026
 20
457.3006457815
 30
0.0
 11
3659.353497295
 21
457.3006457815
 31
0.0
  0
LINE
  5
91
330
1F
100
AcDbEntity
  8
0
  6
Continuous
 62
   179
370
    18
100
AcDbLine
 10
3683.7334594547
 20
487.0983773105
 30
0.0
 11
3683.7334594547
 21
470.8450692033
 31
0.0
  0
LINE
  5
92
330
1F
100
AcDbEntity
  8
0
  6
Continuous
 62
   179
370
    18
100
AcDbLine
 10
3683.7334594547
 20
470.8450692033
 30
0.0
 11
3709.420759152
 21
470.8450692033
 31
0.0
  0
LINE
  5
93
330
1F
100
AcDbEntity
  8
0
  6
Continuous
 62
   179
370
    18
100
AcDbLine
 10
3683.7334594547
 20
487.0983773105
 30
0.0
 11
3683.7334594547
 21
503.351685424
 31
0.0
  0
LINE
  5
94
330
1F
100
AcDbEntity
  8
0
  6
Continuous
 62
   179
370
    18
100
AcDbLine
 10
3683.7334594547
 20
503.351685424
 30
0.0
 11
3709.420759152
 21
503.351685424
 31
0.0
  0
LINE
  5
95
330
1F
100
AcDbEntity
  8
0
  6
Continuous
 62
   179
370
    18
100
AcDbLine
 10
3756.873345944
 20
516.8961088508
 30
0.0
 11
3756.873345944
 21
457.3006457893
 31
0.0
  0
LINE
  5
96
330
1F
100
AcDbEntity
  8
0
  6
Continuous
 62
     7
370
    18
100
AcDbLine
 10
4093.1984921262
 20
420.0000000006
 30
0.0
 11
4093.1984921262
 21
285.0000000003
 31
0.0
  0
LINE
  5
97
330
1F
100
AcDbEntity
  8
0
  6
Continuous
 62
   179
370
    18
100
AcDbLine
 10
3756.873345944
 20
457.3006457893
 30
0.0
 11
3781.2533081074
 21
457.3006457893
 31
0.0
  0
LINE
  5
98
330
1F
100
AcDbEntity
  8
0
  6
Continuous
 62
   179
370
    18
100
AcDbLine
 10
3781.2533081074
 20
457.3006457893
 30
0.0
 11
3781.2533081074
 21
478.9717232638
 31
0.0
  0
LINE
  5
99
330
1F
100
AcDbEntity
  8
0
  6
Continuous
 62
   179
370
    18
100
AcDbLine
 10
3781.2533081074
 20
478.9717232638
 30
0.0
 11
3808.3421549548
 21
478.9717232638
 31
0.0
  0
LINE
  5
9A
330
1F
100
AcDbEntity
  8
0
  6
Continuous
 62
   179
370
    18
100
AcDbLine
 10
3819.1776936947
 20
468.136184524
 30
0.0
 11
3819.1776936947
 21
457.3006457879
 31
0.0
  0
LINE
  5
9B
330
1F
100
AcDbEntity
  8
0
  6
Continuous
 62
   179
370
    18
100
AcDbLine
 10
3781.2533081066
 20
489.8072620008
 30
0.0
 11
3781.2533081066
 21
506.0605701103
 31
0.0
  0
LINE
  5
9C
330
1F
100
AcDbEntity
  8
0
  6
Continuous
 62
   179
370
    18
100
AcDbLine
 10
3781.2533081066
 20
506.0605701103
 30
0.0
 11
3807.717258628
 21
506.0605701103
 31
0.0
  0
LINE
  5
9D
330
1F
100
AcDbEntity
  8
0
  6
Continuous
 62
   179
370
    18
100
AcDbLine
 10
3781.2533081066
 20
489.8072620008
 30
0.0
 11
3807.717258628
 21
489.8072620008
 31
0.0
  0
LINE
  5
9E
330
1F
100
AcDbEntity
  8
0
  6
Continuous
 62
   179
370
    18
100
AcDbLine
 10
3838.3053032889
 20
472.156436938
 30
0.0
 11
3840.5333019761
 21
463.4514816274
 31
0.0
  0
LINE
  5
9F
330
1F
100
AcDbEntity
  8
0
  6
Continuous
 62
     7
370
    25
100
AcDbLine
 10
4305.0
 20
3000.0
 30
0.0
 11
150.0
 21
3000.0
 31
0.0
  0
LINE
  5
A0
330
1F
100
AcDbEntity
  8
0
  6
Continuous
 62
     7
370
    18
100
AcDbLine
 10
4093.1984921262
 20
285.0000000003
 30
0.0
 11
4093.1984921262
 21
150.0
 31
0.0
  0
LINE
  5
A1
330
1F
100
AcDbEntity
  8
0
  6
Continuous
 62
     7
370
    25
100
AcDbLine
 10
150.0
 20
3000.0
 30
0.0
 11
150.0
 21
150.0
 31
0.0
  0
LINE
  5
A2
330
1F
100
AcDbEntity
  8
0
  6
Continuous
 62
     7
370
    25
100
AcDbLine
 10
3225.0
 20
555.0000000009
 30
0.0
 11
4305.0
 21
555.0000000009
 31
0.0
  0
LINE
  5
A3
330
1F
100
AcDbEntity
  8
0
  6
Continuous
 62
    19
370
    18
100
AcDbLine
 10
4192.9326190259
 20
240.4182064643
 30
0.0
 11
4145.1273994681
 21
231.1227471059
 31
0.0
  0
LINE
  5
A4
330
1F
100
AcDbEntity
  8
0
  6
Continuous
 62
    19
370
    18
100
AcDbLine
 10
4232.0258777281
 20
248.2322360861
 30
0.0
 11
4232.0258777281
 21
187.321545177
 31
0.0
  0
LINE
  5
A5
330
1F
100
AcDbEntity
  8
0
  6
Continuous
 62
    19
370
    18
100
AcDbLine
 10
4192.9326190259
 20
240.4182064643
 30
0.0
 11
4192.9326190259
 21
195.1355747988
 31
0.0
  0
LINE
  5
A6
330
1F
100
AcDbEntity
  8
0
  6
Continuous
 62
     7
370
    25
100
AcDbLine
 10
150.0
 20
150.0
 30
0.0
 11
4305.0
 21
150.0
 31
0.0
  0
LINE
  5
A7
330
1F
100
AcDbEntity
  8
0
  6
Continuous
 62
    19
370
    18
100
AcDbLine
 10
4145.1273994681
 20
231.1227471059
 30
0.0
 11
4145.1273994681
 21
204.4310341572
 31
0.0
  0
LINE
  5
A8
330
1F
100
AcDbEntity
  8
0
  6
Continuous
 62
   179
370
    18
100
AcDbLine
 10
3819.1776936947
 20
457.3006457879
 30
0.0
 11
3865.2287333388
 21
457.3006457879
 31
0.0
  0
LINE
  5
A9
330
1F
100
AcDbEntity
  8
0
  6
Continuous
 62
    19
370
    18
100
AcDbLine
 10
4192.9326190259
 20
195.1355747988
 30
0.0
 11
4145.1273994681
 21
204.4310341572
 31
0.0
  0
LINE
  5
AA
330
1F
100
AcDbEntity
  8
0
  6
CENTERX2
 62
    19
370
    18
100
AcDbLine
 10
4258.3810686372
 20
217.7768906315
 30
0.0
 11
4139.1778035964
 21
217.7768906315
 31
0.0
  0
LINE
  5
AB
330
1F
100
AcDbEntity
  8
0
  6
Continuous
 62
   179
370
    18
100
AcDbLine
 10
3756.873345944
 20
516.8961088508
 30
0.0
 11
3813.0288874587
 21
516.8961088508
 31
0.0
  0
LINE
  5
AC
330
1F
100
AcDbEntity
  8
0
  6
Continuous
 62
   179
370
    18
100
AcDbLine
 10
3572.6691873807
 20
516.8961088463
 30
0.0
 11
3572.6691873807
 21
457.3006457848
 31
0.0
  0
LINE
  5
AD
330
1F
100
AcDbEntity
  8
0
  6
Continuous
 62
   179
370
    18
100
AcDbLine
 10
3876.0642720787
 20
516.8961088494
 30
0.0
 11
3903.1531189258
 21
516.8961088494
 31
0.0
  0
LINE
  5
AE
330
1F
100
AcDbEntity
  8
0
  6
Continuous
 62
   179
370
    18
100
AcDbLine
 10
3876.0642720787
 20
516.8961088494
 30
0.0
 11
3841.0614673168
 21
461.8917013713
 31
0.0
  0
LINE
  5
AF
330
1F
100
AcDbEntity
  8
0
  6
Continuous
 62
   179
370
    18
100
AcDbLine
 10
3865.2287333388
 20
457.3006457879
 30
0.0
 11
3871.3237238796
 21
468.1361845226
 31
0.0
  0
LINE
  5
B0
330
1F
100
AcDbEntity
  8
0
  6
Continuous
 62
   179
370
    18
100
AcDbLine
 10
3889.6086955011
 20
500.6428007391
 30
0.0
 11
3901.7986765828
 21
478.9717232594
 31
0.0
  0
LINE
  5
B1
330
1F
100
AcDbEntity
  8
0
  6
Continuous
 62
   179
370
    18
100
AcDbLine
 10
3877.4187144194
 20
478.9717232594
 30
0.0
 11
3889.6086955011
 21
500.6428007391
 31
0.0
  0
LINE
  5
B2
330
1F
100
AcDbEntity
  8
0
  6
Continuous
 62
   179
370
    18
100
AcDbLine
 10
3877.4187144194
 20
478.9717232594
 30
0.0
 11
3901.7986765828
 21
478.9717232594
 31
0.0
  0
LINE
  5
B3
330
1F
100
AcDbEntity
  8
0
  6
Continuous
 62
   179
370
    18
100
AcDbLine
 10
3871.3237238796
 20
468.1361845226
 30
0.0
 11
3907.8936671249
 21
468.1361845226
 31
0.0
  0
LINE
  5
B4
330
1F
100
AcDbEntity
  8
0
  6
Continuous
 62
   179
370
    18
100
AcDbLine
 10
3907.8936671249
 20
468.1361845226
 30
0.0
 11
3913.9886576656
 21
457.3006457879
 31
0.0
  0
LINE
  5
B5
330
1F
100
AcDbEntity
  8
0
  6
Continuous
 62
   179
370
    18
100
AcDbLine
 10
3941.077504513
 20
516.8961088494
 30
0.0
 11
3941.077504513
 21
457.3006457879
 31
0.0
  0
LINE
  5
B6
330
1F
100
AcDbEntity
  8
0
  6
Continuous
 62
   179
370
    18
100
AcDbLine
 10
3903.1531189258
 20
516.8961088494
 30
0.0
 11
3941.077504513
 21
457.3006457879
 31
0.0
  0
LINE
  5
B7
330
1F
100
AcDbEntity
  8
0
  6
Continuous
 62
   179
370
    18
100
AcDbLine
 10
3913.9886576656
 20
457.3006457879
 30
0.0
 11
3941.077504513
 21
457.3006457879
 31
0.0
  0
LINE
  5
B8
330
1F
100
AcDbEntity
  8
0
  6
Continuous
 62
   179
370
    18
100
AcDbLine
 10
3941.077504513
 20
457.3006457879
 30
0.0
 11
4014.2173910035
 21
457.3006457879
 31
0.0
  0
LINE
  5
B9
330
1F
100
AcDbEntity
  8
0
  6
Continuous
 62
   179
370
    18
100
AcDbLine
 10
4014.2173910035
 20
457.3006457879
 30
0.0
 11
4014.2173910035
 21
470.8450692114
 31
0.0
  0
LINE
  5
BA
330
1F
100
AcDbEntity
  8
0
  6
Continuous
 62
   179
370
    18
100
AcDbLine
 10
4014.2173910035
 20
470.8450692114
 30
0.0
 11
3968.1663513601
 21
470.8450692114
 31
0.0
  0
LINE
  5
BB
330
1F
100
AcDbEntity
  8
0
  6
Continuous
 62
   179
370
    18
100
AcDbLine
 10
3968.1663513601
 20
470.8450692114
 30
0.0
 11
3968.1663513601
 21
516.8961088494
 31
0.0
  0
LINE
  5
BC
330
1F
100
AcDbEntity
  8
0
  6
Continuous
 62
   179
370
    18
100
AcDbLine
 10
3941.077504513
 20
516.8961088494
 30
0.0
 11
3968.1663513601
 21
516.8961088494
 31
0.0
  0
LINE
  5
BD
330
1F
100
AcDbEntity
  8
0
  6
Continuous
 62
   179
370
    18
100
AcDbLine
 10
4016.926275686
 20
516.8961088487
 30
0.0
 11
4016.926275686
 21
457.3006457873
 31
0.0
  0
LINE
  5
BE
330
1F
100
AcDbEntity
  8
0
  6
Continuous
 62
   179
370
    18
100
AcDbLine
 10
4044.0151225331
 20
516.8961088487
 30
0.0
 11
4044.0151225331
 21
457.3006457873
 31
0.0
  0
LINE
  5
BF
330
1F
100
AcDbEntity
  8
0
  6
Continuous
 62
   179
370
    18
100
AcDbLine
 10
4016.926275686
 20
516.8961088487
 30
0.0
 11
4044.0151225331
 21
516.8961088487
 31
0.0
  0
LINE
  5
C0
330
1F
100
AcDbEntity
  8
0
  6
Continuous
 62
   179
370
    18
100
AcDbLine
 10
4016.926275686
 20
457.3006457873
 30
0.0
 11
4044.0151225331
 21
457.3006457873
 31
0.0
  0
LINE
  5
C1
330
1F
100
AcDbEntity
  8
0
  6
Continuous
 62
   179
370
    18
100
AcDbLine
 10
4056.1727466361
 20
511.9395831343
 30
0.0
 11
4062.4300319759
 21
511.9395831343
 31
0.0
  0
LINE
  5
C2
330
1F
100
AcDbEntity
  8
0
  6
Continuous
 62
   179
370
    18
100
AcDbLine
 10
4062.4300319759
 20
507.8762561058
 30
0.0
 11
4056.1727466361
 21
507.8762561058
 31
0.0
  0
LINE
  5
C3
330
1F
100
AcDbEntity
  8
0
  6
Continuous
 62
   179
370
    18
100
AcDbLine
 10
4056.1727466361
 20
507.8762561058
 30
0.0
 11
4056.1727466361
 21
511.9395831343
 31
0.0
  0
LINE
  5
C4
330
1F
100
AcDbEntity
  8
0
  6
Continuous
 62
   179
370
    18
100
AcDbLine
 10
4056.1727466361
 20
507.8762561058
 30
0.0
 11
4060.2360736616
 21
507.8762561058
 31
0.0
  0
LINE
  5
C5
330
1F
100
AcDbEntity
  8
0
  6
Continuous
 62
   179
370
    18
100
AcDbLine
 10
4056.1727466361
 20
507.8762561058
 30
0.0
 11
4056.1727466361
 21
501.7812655676
 31
0.0
  0
LINE
  5
C6
330
1F
100
AcDbEntity
  8
0
  6
Continuous
 62
   179
370
    18
100
AcDbLine
 10
4064.2994006871
 20
501.7812655676
 30
0.0
 11
4060.2360736616
 21
507.8762561058
 31
0.0
  0
LINE
  5
C7
330
1F
100
AcDbEntity
  8
0
  6
Continuous
 62
     7
370
    18
100
AcDbLine
 10
3225.0
 20
285.0000000003
 30
0.0
 11
4305.0
 21
285.0000000003
 31
0.0
  0
LINE
  5
C8
330
1F
100
AcDbEntity
  8
0
  6
Continuous
 62
     7
370
    18
100
AcDbLine
 10
4305.0
 20
420.0000000006
 30
0.0
 11
3225.0
 21
420.0000000006
 31
0.0
  0
LINE
  5
C9
330
1F
100
AcDbEntity
  8
0
  6
Continuous
 62
     7
370
    18
100
AcDbLine
 10
150.0
 20
825.0
 30
0.0
 11
150.0
 21
975.0
 31
0.0
  0
LINE
  5
CA
330
1F
100
AcDbEntity
  8
0
  6
Continuous
 62
     7
370
    18
100
AcDbLine
 10
150.0
 20
975.0
 30
0.0
 11
150.0
 21
1125.0
 31
0.0
  0
LINE
  5
CB
330
1F
100
AcDbEntity
  8
0
  6
Continuous
 62
     7
370
    18
100
AcDbLine
 10
150.0
 20
1125.0
 30
0.0
 11
150.0
 21
1275.0
 31
0.0
  0
LINE
  5
CC
330
1F
100
AcDbEntity
  8
0
  6
Continuous
 62
     7
370
    18
100
AcDbLine
 10
150.0
 20
1275.0
 30
0.0
 11
150.0
 21
1425.0
 31
0.0
  0
LINE
  5
CD
330
1F
100
AcDbEntity
  8
0
  6
Continuous
 62
     7
370
    18
100
AcDbLine
 10
150.0
 20
1425.0
 30
0.0
 11
150.0
 21
1575.0
 31
0.0
  0
LINE
  5
CE
330
1F
100
AcDbEntity
  8
0
  6
Continuous
 62
     7
370
    18
100
AcDbLine
 10
150.0
 20
1575.0
 30
0.0
 11
150.0
 21
1725.0
 31
0.0
  0
LINE
  5
CF
330
1F
100
AcDbEntity
  8
0
  6
Continuous
 62
     7
370
    18
100
AcDbLine
 10
150.0
 20
1725.0
 30
0.0
 11
150.0
 21
1875.0
 31
0.0
  0
LINE
  5
D0
330
1F
100
AcDbEntity
  8
0
  6
Continuous
 62
     7
370
    18
100
AcDbLine
 10
150.0
 20
1875.0
 30
0.0
 11
150.0
 21
2025.0
 31
0.0
  0
LINE
  5
D1
330
1F
100
AcDbEntity
  8
0
  6
Continuous
 62
     7
370
    18
100
AcDbLine
 10
150.0
 20
2025.0
 30
0.0
 11
150.0
 21
2175.0
 31
0.0
  0
LINE
  5
D2
330
1F
100
AcDbEntity
  8
0
  6
Continuous
 62
     7
370
    18
100
AcDbLine
 10
150.0
 20
2175.0
 30
0.0
 11
150.0
 21
2325.0
 31
0.0
  0
LINE
  5
D3
330
1F
100
AcDbEntity
  8
0
  6
Continuous
 62
     7
370
    25
100
AcDbLine
 10
3225.0
 20
555.0000000009
 30
0.0
 11
3225.0
 21
150.0
 31
0.0
  0
ARC
  5
D4
330
1F
100
AcDbEntity
  8
0
  6
Continuous
 62
   179
370
    18
100
AcDbCircle
 10
3529.3858214715
 20
495.2250313732
 30
0.0
 40
10.83553873622431
100
AcDbArc
 50
69.991210111
 51
90.0
  0
ARC
  5
D5
330
1F
100
AcDbEntity
  8
0
  6
Continuous
 62
   179
370
    18
100
AcDbCircle
 10
3529.3858214706
 20
500.6428007401
 30
0.0
 40
10.83553873881613
100
AcDbArc
 50
270.0
 51
290.0087898887
  0
ARC
  5
D6
330
1F
100
AcDbEntity
  8
0
  6
Continuous
 62
   179
370
    18
100
AcDbCircle
 10
3709.420759152
 20
487.0983773133
 30
0.0
 40
16.25330811077811
100
AcDbArc
 50
56.1685552524
 51
90.0
  0
ARC
  5
D7
330
1F
100
AcDbEntity
  8
0
  6
Continuous
 62
   179
370
    18
100
AcDbCircle
 10
3709.420759152
 20
487.0983773133
 30
0.0
 40
16.2533081099705
100
AcDbArc
 50
270.0
 51
303.830934914
  0
ARC
  5
D8
330
1F
100
AcDbEntity
  8
0
  6
Continuous
 62
   179
370
    18
100
AcDbCircle
 10
3808.3421549548
 20
468.136184524
 30
0.0
 40
10.83553873986693
100
AcDbArc
 50
0.0
 51
90.0
  0
ARC
  5
D9
330
1F
100
AcDbEntity
  8
0
  6
Continuous
 62
   179
370
    18
100
AcDbCircle
 10
3807.717258628
 20
497.9339160561
 30
0.0
 40
8.126654054165272
100
AcDbArc
 50
54.413089495
 51
90.0
  0
ARC
  5
DA
330
1F
100
AcDbEntity
  8
0
  6
Continuous
 62
   179
370
    18
100
AcDbCircle
 10
3807.717258628
 20
497.9339160561
 30
0.0
 40
8.126654055322035
100
AcDbArc
 50
270.0
 51
305.5869104966
  0
ARC
  5
DB
330
1F
100
AcDbEntity
  8
0
  6
Continuous
 62
   179
370
    18
100
AcDbCircle
 10
3823.5563773944
 20
469.4441941063
 30
0.0
 40
14.99623540163448
100
AcDbArc
 50
10.4199484279
 51
80.7321727594
  0
ARC
  5
DC
330
1F
100
AcDbEntity
  8
0
  6
Continuous
 62
   179
370
    18
100
AcDbCircle
 10
3848.1803499564
 20
465.1715759511
 30
0.0
 40
7.838116310390694
100
AcDbArc
 50
192.6768785101
 51
204.7368873207
  0
CIRCLE
  5
DD
330
1F
100
AcDbEntity
  8
0
  6
Continuous
 62
   179
370
    18
100
AcDbCircle
 10
4059.4296312926
 20
506.8013546003
 30
0.0
 40
8.8951532178462
  0
CIRCLE
  5
DE
330
1F
100
AcDbEntity
  8
0
  6
Continuous
 62
    19
370
    18
100
AcDbCircle
 10
4232.0258777281
 20
217.7768906315
 30
0.0
 40
12.88061814414652
  0
CIRCLE
  5
DF
330
1F
100
AcDbEntity
  8
0
  6
Continuous
 62
    19
370
    18
100
AcDbCircle
 10
4232.0258777281
 20
217.7768906315
 30
0.0
 40
25.16390372495578
  0
ELLIPSE
  5
E0
330
1F
100
AcDbEntity
  8
0
  6
Continuous
 62
   179
370
    18
100
AcDbEllipse
 10
3525.2637053955
 20
497.9339160554
 30
0.0
 11
14.89886576646222
 21
0.0
 31
0.0
210
0.0
220
0.0
230
1.0
 40
0.5895245511
 41
5.265715075739372
 42
7.300655538615912
  0
ELLIPSE
  5
E1
330
1F
100
AcDbEntity
  8
0
  6
Continuous
 62
   179
370
    18
100
AcDbEllipse
 10
3693.2145558564
 20
487.0983773139
 30
0.0
 11
33.86105856006907
 21
0.0
 31
0.0
210
0.0
220
0.0
230
1.0
 40
0.5985848325
 41
5.554193105221739
 42
7.01217218274472
  0
ELLIPSE
  5
E2
330
1F
100
AcDbEntity
  8
0
  6
Continuous
 62
   179
370
    18
100
AcDbEllipse
 10
3798.8610585616
 20
497.9339160554
 30
0.0
 11
17.60775045122637
 21
0.0
 31
0.0
210
0.0
220
0.0
230
1.0
 40
0.5900077182
 41
5.593675727225946
 42
6.972694887106603
  0
ELLIPSE
  5
E3
330
1F
100
AcDbEntity
  8
0
  6
Continuous
 62
   179
370
    18
100
AcDbEllipse
 10
3807.0449215604
 20
499.4046031234
 30
0.0
 11
36.4899993380277
 21
0.0
 31
0.0
210
0.0
220
0.0
230
1.0
 40
0.485929116
 41
5.257694056962845
 42
7.689248379254997
  0
ELLIPSE
  5
E4
330
1F
100
AcDbEntity
  8
0
  6
Continuous
 62
   179
370
    18
100
AcDbEllipse
 10
3702.6956522476
 20
487.0983773139
 30
0.0
 11
43.34215495673379
 21
0.0
 31
0.0
210
0.0
220
0.0
230
1.0
 40
0.6929224243
 41
4.837574201223028
 42
7.728796413142616
  0
ELLIPSE
  5
E5
330
1F
100
AcDbEntity
  8
0
  6
Continuous
 62
   179
370
    18
100
AcDbEllipse
 10
3526.6181477356
 20
497.9339160554
 30
0.0
 11
40.63327027197511
 21
0.0
 31
0.0
210
0.0
220
0.0
230
1.0
 40
0.4768529109
 41
4.919453630382234
 42
7.646916983963976
  0
ELLIPSE
  5
E6
330
1F
100
AcDbEntity
  8
0
  6
Continuous
 62
   179
370
    18
100
AcDbEllipse
 10
4062.064122662
 20
509.90791962
 30
0.0
 11
2.235278033911982
 21
0.0
 31
0.0
210
0.0
220
0.0
230
1.0
 40
0.9213369296
 41
4.876826485633795
 42
7.689544128725418
  0
MTEXT
  5
E8
330
1F
100
AcDbEntity
  8
0
  6
Continuous
 62
     7
370
     0
100
AcDbMText
 10
3347.1674181705
 20
248.4569886556
 30
0.0
 40
55.5625
 41
0.0
 71
     1
 72
     1
  1
BLTD_89X45
  7
SLDTEXTSTYLE0
 73
     1
 44
1.0
  0
MTEXT
  5
E9
330
1F
100
AcDbEntity
  8
0
  6
Continuous
 62
     7
370
     0
100
AcDbMText
 10
3238.3268981734
 20
219.580700246
 30
0.0
 40
27.0
 41
0.0
 71
     1
 72
     1
  1
COD.
  7
SLDTEXTSTYLE0
 73
     1
 44
1.0
  0
MTEXT
  5
EA
330
1F
100
AcDbEntity
  8
0
  6
Continuous
 62
     7
370
     0
100
AcDbMText
 10
160.6282767702
 20
112.0822758273
 30
0.0
 40
27.0
 41
0.0
 71
     1
 72
     1
  1
This document is the property of PEDRALI S.p.A. who willsafeguard its rights according to the civil and penal prevision of the Law.
  7
SLDTEXTSTYLE0
 73
     1
 44
1.0
  0
MTEXT
  5
EB
330
1F
100
AcDbEntity
  8
0
  6
Continuous
 62
     7
370
     0
100
AcDbMText
 10
2161.2908979918
 20
115.1768387873
 30
0.0
 40
27.0
 41
0.0
 71
     1
 72
     1
  1
Questo disegno è posto sotto la tutela delle vigenti Leggi e non puo essere utilizzato da terze persone se non previa autorizzazione scritta della PEDRALI S.p.A.
  7
SLDTEXTSTYLE0
 73
     1
 44
1.0
  0
MTEXT
  5
EC
330
1F
100
AcDbEntity
  8
0
  6
Continuous
 62
     7
370
     0
100
AcDbMText
 10
3238.3268981734
 20
351.4653149456
 30
0.0
 40
27.0
 41
0.0
 71
     1
 72
     1
  1
SERIE:
  7
SLDTEXTSTYLE0
 73
     1
 44
1.0
  0
MTEXT
  5
ED
330
1F
100
AcDbEntity
  8
0
  6
Continuous
 62
     7
370
     0
100
AcDbMText
 10
3347.1674181705
 20
380.3416033552
 30
0.0
 40
55.5625
 41
0.0
 71
     1
 72
     1
  1
BLUME
  7
SLDTEXTSTYLE0
 73
     1
 44
1.0
  0
INSERT
  5
F3
330
1F
100
AcDbEntity
  8
0
  6
Continuous
 62
     7
370
     0
100
AcDbBlockReference
  2
SW_NOTE_0
 10
4150.4824592931
 20
363.9948192571
 30
0.0
  0
LINE
  5
F4
330
1F
100
AcDbEntity
  8
0
  6
Continuous
 62
     7
370
    25
100
AcDbLine
 10
2117.9359199142
 20
1913.3506106858
 30
0.0
 11
2117.9359199142
 21
1916.3506106858
 31
0.0
  0
LINE
  5
F5
330
1F
100
AcDbEntity
  8
0
  6
Continuous
 62
     7
370
    25
100
AcDbLine
 10
2098.9359199142
 20
1916.3506106858
 30
0.0
 11
2098.9359199142
 21
1913.3506106858
 31
0.0
  0
ARC
  5
F6
330
1F
100
AcDbEntity
  8
0
  6
Continuous
 62
     7
370
    25
100
AcDbCircle
 10
2103.9359199142
 20
1913.3506106858
 30
0.0
 40
5.0
100
AcDbArc
 50
180.0
 51
270.0
  0
ARC
  5
F7
330
1F
100
AcDbEntity
  8
0
  6
Continuous
 62
     7
370
    25
100
AcDbCircle
 10
2112.9359199142
 20
1913.3506106858
 30
0.0
 40
5.0
100
AcDbArc
 50
270.0
 51
0.0
  0
LINE
  5
F8
330
1F
100
AcDbEntity
  8
0
  6
Continuous
 62
     7
370
    25
100
AcDbLine
 10
1475.3847846314
 20
1913.3506106858
 30
0.0
 11
1475.3847846314
 21
1916.3506106858
 31
0.0
  0
LINE
  5
F9
330
1F
100
AcDbEntity
  8
0
  6
Continuous
 62
     7
370
    25
100
AcDbLine
 10
1456.3847846314
 20
1916.3506106858
 30
0.0
 11
1456.3847846314
 21
1913.3506106858
 31
0.0
  0
ARC
  5
FA
330
1F
100
AcDbEntity
  8
0
  6
Continuous
 62
     7
370
    25
100
AcDbCircle
 10
1461.3847846314
 20
1913.3506106858
 30
0.0
 40
5.000000000000227
100
AcDbArc
 50
180.0
 51
270.0
  0
ARC
  5
FB
330
1F
100
AcDbEntity
  8
0
  6
Continuous
 62
     7
370
    25
100
AcDbCircle
 10
1470.3847846314
 20
1913.3506106858
 30
0.0
 40
5.000000000000227
100
AcDbArc
 50
270.0
 51
0.0
  0
ARC
  5
FC
330
1F
100
AcDbEntity
  8
0
  6
Continuous
 62
     7
370
    25
100
AcDbCircle
 10
1465.6538274291
 20
2346.3506106858
 30
0.0
 40
10.00000000000024
100
AcDbArc
 50
36.1452713707
 51
154.8831070789
  0
LINE
  5
FD
330
1F
100
AcDbEntity
  8
0
  6
Continuous
 62
     7
370
    25
100
AcDbLine
 10
1458.3168155692
 20
2351.5017778541
 30
0.0
 11
1458.3168155692
 21
1916.3506106858
 31
0.0
  0
LINE
  5
FE
330
1F
100
AcDbEntity
  8
0
  6
Continuous
 62
     7
370
    25
100
AcDbLine
 10
1474.3737213152
 20
1916.3506106858
 30
0.0
 11
1474.3737213152
 21
2349.9907589668
 31
0.0
  0
LINE
  5
FF
330
1F
100
AcDbEntity
  8
0
  6
Continuous
 62
     7
370
    25
100
AcDbLine
 10
1456.4262611977
 20
2350.0842959027
 30
0.0
 11
1456.4262611977
 21
1916.3506106858
 31
0.0
  0
LINE
  5
100
330
1F
100
AcDbEntity
  8
0
  6
Continuous
 62
     7
370
    25
100
AcDbLine
 10
1475.0146185265
 20
1916.3506106858
 30
0.0
 11
1475.0146185265
 21
2306.3506106901
 31
0.0
  0
LINE
  5
101
330
1F
100
AcDbEntity
  8
0
  6
Continuous
 62
     7
370
    25
100
AcDbLine
 10
1475.0146185265
 20
2341.3506106901
 30
0.0
 11
1475.0146185265
 21
2348.9247864926
 31
0.0
  0
ARC
  5
102
330
1F
100
AcDbEntity
  8
0
  6
Continuous
 62
     7
370
    25
100
AcDbCircle
 10
2108.6668771165
 20
2346.3506106858
 30
0.0
 40
9.999999999999996
100
AcDbArc
 50
25.0667314224
 51
143.7663718961
  0
LINE
  5
103
330
1F
100
AcDbEntity
  8
0
  6
Continuous
 62
     7
370
    25
100
AcDbLine
 10
2116.0038889764
 20
1916.3506106858
 30
0.0
 11
2116.0038889764
 21
2351.5017273172
 31
0.0
  0
LINE
  5
104
330
1F
100
AcDbEntity
  8
0
  6
Continuous
 62
     7
370
    25
100
AcDbLine
 10
2099.9469832304
 20
2349.9870534741
 30
0.0
 11
2099.9469832304
 21
1916.3506106858
 31
0.0
  0
LINE
  5
105
330
1F
100
AcDbEntity
  8
0
  6
Continuous
 62
     7
370
    25
100
AcDbLine
 10
2117.8944433479
 20
1916.3506106858
 30
0.0
 11
2117.8944433479
 21
2350.0892583406
 31
0.0
  0
LINE
  5
106
330
1F
100
AcDbEntity
  8
0
  6
Continuous
 62
     7
370
    25
100
AcDbLine
 10
2099.3060860191
 20
2348.9189674906
 30
0.0
 11
2099.3060860191
 21
2341.3506106901
 31
0.0
  0
LINE
  5
107
330
1F
100
AcDbEntity
  8
0
  6
Continuous
 62
     7
370
    25
100
AcDbLine
 10
2099.3060860191
 20
2306.3506106901
 30
0.0
 11
2099.3060860191
 21
1916.3506106858
 31
0.0
  0
LINE
  5
108
330
1F
100
AcDbEntity
  8
0
  6
Continuous
 62
     7
370
    25
100
AcDbLine
 10
2232.1603522728
 20
2341.3506106901
 30
0.0
 11
2232.1603522728
 21
2351.3506106901
 31
0.0
  0
LINE
  5
109
330
1F
100
AcDbEntity
  8
0
  6
Continuous
 62
     7
370
    25
100
AcDbLine
 10
1342.1603522728
 20
2351.3506106901
 30
0.0
 11
1342.1603522728
 21
2341.3506106901
 31
0.0
  0
LINE
  5
10A
330
1F
100
AcDbEntity
  8
0
  6
Continuous
 62
     7
370
    25
100
AcDbLine
 10
1475.0120350585
 20
2341.3506106901
 30
0.0
 11
1476.0532317277
 21
2341.3506106901
 31
0.0
  0
LINE
  5
10B
330
1F
100
AcDbEntity
  8
0
  6
Continuous
 62
     7
370
    25
100
AcDbLine
 10
1475.0120350585
 20
2306.3506106901
 30
0.0
 11
1787.1603522728
 21
2306.3506106901
 31
0.0
  0
LINE
  5
10C
330
1F
100
AcDbEntity
  8
0
  6
Continuous
 62
     7
370
    25
100
AcDbLine
 10
2099.3086694871
 20
2341.3506106901
 30
0.0
 11
2098.2674728179
 21
2341.3506106901
 31
0.0
  0
LINE
  5
10D
330
1F
100
AcDbEntity
  8
0
  6
Continuous
 62
     7
370
    25
100
AcDbLine
 10
2099.3086694871
 20
2306.3506106901
 30
0.0
 11
1787.1603522728
 21
2306.3506106901
 31
0.0
  0
LINE
  5
10E
330
1F
100
AcDbEntity
  8
0
  6
Continuous
 62
     7
370
    25
100
AcDbLine
 10
2101.7184054929
 20
1916.3506106858
 30
0.0
 11
2098.9359199142
 21
1916.3506106858
 31
0.0
  0
LINE
  5
10F
330
1F
100
AcDbEntity
  8
0
  6
Continuous
 62
     7
370
    25
100
AcDbLine
 10
2117.9359199142
 20
1916.3506106858
 30
0.0
 11
2101.7184054929
 21
1916.3506106858
 31
0.0
  0
LINE
  5
110
330
1F
100
AcDbEntity
  8
0
  6
Continuous
 62
     7
370
    25
100
AcDbLine
 10
2112.9359199142
 20
1908.3506106858
 30
0.0
 11
2103.9359199142
 21
1908.3506106858
 31
0.0
  0
LINE
  5
111
330
1F
100
AcDbEntity
  8
0
  6
Continuous
 62
     7
370
    25
100
AcDbLine
 10
1475.3847846314
 20
1916.3506106858
 30
0.0
 11
1456.3847846314
 21
1916.3506106858
 31
0.0
  0
LINE
  5
112
330
1F
100
AcDbEntity
  8
0
  6
Continuous
 62
     7
370
    25
100
AcDbLine
 10
1469.0667651467
 20
1908.3506106858
 30
0.0
 11
1461.3847846314
 21
1908.3506106858
 31
0.0
  0
LINE
  5
113
330
1F
100
AcDbEntity
  8
0
  6
Continuous
 62
     7
370
    25
100
AcDbLine
 10
1470.3847846314
 20
1908.3506106858
 30
0.0
 11
1469.0667651467
 21
1908.3506106858
 31
0.0
  0
SPLINE
  5
114
330
1F
100
AcDbEntity
  8
0
  6
Continuous
 62
     7
370
    25
100
AcDbSpline
210
0.0
220
0.0
230
1.0
 70
     8
 71
     3
 72
    31
 73
    27
 74
     0
 42
0.000000001
 43
0.00000001
 40
0.0
 40
0.0
 40
0.0
 40
0.0
 40
0.0441466678382064
 40
0.0886154033489299
 40
0.134033209191161
 40
0.1797544925930192
 40
0.2246010207242921
 40
0.2697374327845764
 40
0.3158872821088929
 40
0.3624612967955154
 40
0.4188646742144206
 40
0.4470251772116088
 40
0.4758405247169944
 40
0.4938163492024438
 40
0.5122594402685924
 40
0.5302578458902788
 40
0.5488244143653116
 40
0.5722038163381874
 40
0.5962306770642392
 40
0.638600115435467
 40
0.6819872536773496
 40
0.7223130450430946
 40
0.7629404599317686
 40
0.845982303016523
 40
0.9222505624506167
 40
1.0
 40
1.0
 40
1.0
 40
1.0
 10
1470.238801975941
 20
2352.989254982093
 30
0.0
 10
1470.346341231531
 20
2352.870600719216
 30
0.0
 10
1470.562204284772
 20
2352.63242656296
 30
0.0
 10
1470.898820854475
 20
2352.264172560564
 30
0.0
 10
1471.242344137817
 20
2351.887982348026
 30
0.0
 10
1471.58779617778
 20
2351.508317951865
 30
0.0
 10
1471.930723898844
 20
2351.129420480058
 30
0.0
 10
1472.271114850065
 20
2350.751940772121
 30
0.0
 10
1472.610800892261
 20
2350.376077477906
 30
0.0
 10
1472.971743772083
 20
2349.983891639809
 30
0.0
 10
1473.283728232634
 20
2349.663556104109
 30
0.0
 10
1473.547841185985
 20
2349.430853870871
 30
0.0
 10
1473.718793056508
 20
2349.309130720698
 30
0.0
 10
1473.860399259375
 20
2349.240291026875
 30
0.0
 10
1473.970795824265
 20
2349.213145800686
 30
0.0
 10
1474.070454465742
 20
2349.220298589379
 30
0.0
 10
1474.162729526606
 20
2349.264721691414
 30
0.0
 10
1474.242497407919
 20
2349.352460685119
 30
0.0
 10
1474.32018245608
 20
2349.513973647138
 30
0.0
 10
1474.370774386857
 20
2349.759066350407
 30
0.0
 10
1474.378711388953
 20
2350.074613359222
 30
0.0
 10
1474.346680793212
 20
2350.403586355135
 30
0.0
 10
1474.259292401985
 20
2350.850453078775
 30
0.0
 10
1474.072583157676
 20
2351.408633644262
 30
0.0
 10
1473.748243995337
 20
2352.072191287165
 30
0.0
 10
1473.453745178216
 20
2352.493910676966
 30
0.0
 10
1473.305079681727
 20
2352.706798195757
 30
0.0
  0
SPLINE
  5
115
330
1F
100
AcDbEntity
  8
0
  6
Continuous
 62
     7
370
    25
100
AcDbSpline
210
0.0
220
0.0
230
1.0
 70
     8
 71
     3
 72
    14
 73
    10
 74
     0
 42
0.000000001
 43
0.00000001
 40
0.0
 40
0.0
 40
0.0
 40
0.0
 40
0.2207653484385737
 40
0.3402146168139987
 40
0.4605704991790602
 40
0.5641909618660929
 40
0.6633542991972821
 40
0.810524740361829
 40
1.0
 40
1.0
 40
1.0
 40
1.0
 10
1469.526805030466
 20
2353.029467606847
 30
0.0
 10
1469.533765537976
 20
2353.085901084854
 30
0.0
 10
1469.544492159757
 20
2353.172868963786
 30
0.0
 10
1469.627203776852
 20
2353.250167028755
 30
0.0
 10
1469.721379282998
 20
2353.276346139126
 30
0.0
 10
1469.831367253896
 20
2353.263717636746
 30
0.0
 10
1469.954410746677
 20
2353.218258028624
 30
0.0
 10
1470.100271108367
 20
2353.128784980775
 30
0.0
 10
1470.188911980911
 20
2353.03950480051
 30
0.0
 10
1470.238801975941
 20
2352.989254982093
 30
0.0
  0
SPLINE
  5
116
330
1F
100
AcDbEntity
  8
0
  6
Continuous
 62
     7
370
    25
100
AcDbSpline
210
0.0
220
0.0
230
1.0
 70
     8
 71
     3
 72
    32
 73
    28
 74
     0
 42
0.000000001
 43
0.00000001
 40
0.0
 40
0.0
 40
0.0
 40
0.0
 40
0.0430379910819589
 40
0.0863861263482026
 40
0.1306715836239359
 40
0.1752669939041053
 40
0.2185320463381602
 40
0.2621050719941974
 40
0.3067938579277394
 40
0.3519663346175981
 40
0.3854310965017624
 40
0.4193289160971734
 40
0.4528593258451128
 40
0.4875791928901232
 40
0.510638608813686
 40
0.5343801485773979
 40
0.5574353916329382
 40
0.5810375265201473
 40
0.6176166200902915
 40
0.65518463339908
 40
0.7177265685357834
 40
0.7819044813319386
 40
0.8252890843115631
 40
0.8689843386192325
 40
0.913624208959134
 40
0.9585815908891876
 40
1.0
 40
1.0
 40
1.0
 40
1.0
 10
1463.799711252361
 20
2353.246306802516
 30
0.0
 10
1463.829446465068
 20
2353.141832415267
 30
0.0
 10
1463.889131171008
 20
2352.932130768183
 30
0.0
 10
1464.02424616819
 20
2352.609085834339
 30
0.0
 10
1464.191918038828
 20
2352.280144986603
 30
0.0
 10
1464.392609528827
 20
2351.950824060335
 30
0.0
 10
1464.622754146243
 20
2351.625228816757
 30
0.0
 10
1464.883193372035
 20
2351.304151620481
 30
0.0
 10
1465.179036820008
 20
2350.98748647256
 30
0.0
 10
1465.484244786642
 20
2350.709273472241
 30
0.0
 10
1465.790786384323
 20
2350.475408212232
 30
0.0
 10
1466.089493220304
 20
2350.288744586716
 30
0.0
 10
1466.41752917459
 20
2350.135275710434
 30
0.0
 10
1466.732685461556
 20
2350.04627655399
 30
0.0
 10
1467.021031882063
 20
2350.016795458916
 30
0.0
 10
1467.266336573992
 20
2350.02908655719
 30
0.0
 10
1467.50420273608
 20
2350.07776886427
 30
0.0
 10
1467.768744460844
 20
2350.171808368928
 30
0.0
 10
1468.050720139675
 20
2350.32577071481
 30
0.0
 10
1468.395599532521
 20
2350.588726349084
 30
0.0
 10
1468.740410611319
 20
2350.953183208098
 30
0.0
 10
1469.020405300709
 20
2351.359511895628
 30
0.0
 10
1469.216742391682
 20
2351.730902276743
 30
0.0
 10
1469.351749705111
 20
2352.058158176793
 30
0.0
 10
1469.450487546978
 20
2352.390323175495
 30
0.0
 10
1469.512625146759
 20
2352.716009307794
 30
0.0
 10
1469.522209295888
 20
2352.927875014586
 30
0.0
 10
1469.526805030466
 20
2353.029467606847
 30
0.0
  0
SPLINE
  5
117
330
1F
100
AcDbEntity
  8
0
  6
Continuous
 62
     7
370
    25
100
AcDbSpline
210
0.0
220
0.0
230
1.0
 70
     8
 71
     3
 72
    14
 73
    10
 74
     0
 42
0.000000001
 43
0.00000001
 40
0.0
 40
0.0
 40
0.0
 40
0.0
 40
0.2243030424884067
 40
0.3489011866267418
 40
0.4744001356117998
 40
0.582674185706589
 40
0.6867417687947304
 40
0.8381564871696519
 40
1.0
 40
1.0
 40
1.0
 40
1.0
 10
1463.006014735034
 20
2353.263566562477
 30
0.0
 10
1463.062058738255
 20
2353.318498564022
 30
0.0
 10
1463.149234636586
 20
2353.403944754633
 30
0.0
 10
1463.314676383335
 20
2353.47979383817
 30
0.0
 10
1463.449758952378
 20
2353.505474796478
 30
0.0
 10
1463.56879969206
 20
2353.492657521955
 30
0.0
 10
1463.67324883977
 20
2353.447246198852
 30
0.0
 10
1463.758392081505
 20
2353.365068507601
 30
0.0
 10
1463.785635867788
 20
2353.286763003281
 30
0.0
 10
1463.799711252361
 20
2353.246306802515
 30
0.0
  0
SPLINE
  5
118
330
1F
100
AcDbEntity
  8
0
  6
Continuous
 62
     7
370
    25
100
AcDbSpline
210
0.0
220
0.0
230
1.0
 70
     8
 71
     3
 72
    27
 73
    23
 74
     0
 42
0.000000001
 43
0.00000001
 40
0.0
 40
0.0
 40
0.0
 40
0.0
 40
0.0854193893125032
 40
0.1292485505238577
 40
0.173392748556893
 40
0.2449111880238368
 40
0.3181761007994722
 40
0.3578246346969898
 40
0.3981318054712896
 40
0.4288131832180899
 40
0.4602403930085204
 40
0.4856097432632075
 40
0.5117065707683252
 40
0.537081810141032
 40
0.5631224182367767
 40
0.5995872849299381
 40
0.6370631680065997
 40
0.6960736640765735
 40
0.7566512808579767
 40
0.8401548938394173
 40
0.926059287440349
 40
1.0
 40
1.0
 40
1.0
 40
1.0
 10
1458.930723310946
 20
2353.263566562477
 30
0.0
 10
1458.806621151336
 20
2353.062603996746
 30
0.0
 10
1458.618841487075
 20
2352.758526426777
 30
0.0
 10
1458.459197853512
 20
2352.345235596093
 30
0.0
 10
1458.352648372452
 20
2351.966694457086
 30
0.0
 10
1458.298520350237
 20
2351.524430378546
 30
0.0
 10
1458.339884090792
 20
2351.114175062246
 30
0.0
 10
1458.446836464932
 20
2350.806725388791
 30
0.0
 10
1458.566686967921
 20
2350.611152846345
 30
0.0
 10
1458.717894672334
 20
2350.464621357391
 30
0.0
 10
1458.880020635267
 20
2350.375205942564
 30
0.0
 10
1459.061766498517
 20
2350.331179814973
 30
0.0
 10
1459.250926134734
 20
2350.32904574592
 30
0.0
 10
1459.456724565707
 20
2350.366215303116
 30
0.0
 10
1459.699906241667
 20
2350.448047278698
 30
0.0
 10
1459.982425081394
 20
2350.585746951405
 30
0.0
 10
1460.356491746135
 20
2350.816533425613
 30
0.0
 10
1460.790807009612
 20
2351.137342616652
 30
0.0
 10
1461.334666049963
 20
2351.591032421753
 30
0.0
 10
1461.923617279818
 20
2352.131999897259
 30
0.0
 10
1462.510438332602
 20
2352.714322843346
 30
0.0
 10
1462.849276090559
 20
2353.089854263828
 30
0.0
 10
1463.006014735034
 20
2353.263566562477
 30
0.0
  0
SPLINE
  5
119
330
1F
100
AcDbEntity
  8
0
  6
Continuous
 62
     7
370
    25
100
AcDbSpline
210
0.0
220
0.0
230
1.0
 70
     8
 71
     3
 72
    14
 73
    10
 74
     0
 42
0.000000001
 43
0.00000001
 40
0.0
 40
0.0
 40
0.0
 40
0.0
 40
0.2239799089306606
 40
0.353060078785077
 40
0.4831615846560972
 40
0.5937368434045486
 40
0.6971871626482754
 40
0.8442013099708533
 40
1.0
 40
1.0
 40
1.0
 40
1.0
 10
1458.652996887772
 20
2353.246306802515
 30
0.0
 10
1458.714542301956
 20
2353.302154032819
 30
0.0
 10
1458.811556489005
 20
2353.39018615867
 30
0.0
 10
1458.932304437898
 20
2353.473034858779
 30
0.0
 10
1459.00366185042
 20
2353.504752215487
 30
0.0
 10
1459.03686693925
 20
2353.495711969574
 30
0.0
 10
1459.03800061322
 20
2353.453671292362
 30
0.0
 10
1459.004539197583
 20
2353.376299459283
 30
0.0
 10
1458.955799912284
 20
2353.301863981092
 30
0.0
 10
1458.930723310946
 20
2353.263566562477
 30
0.0
  0
SPLINE
  5
11A
330
1F
100
AcDbEntity
  8
0
  6
Continuous
 62
     7
370
    25
100
AcDbSpline
210
0.0
220
0.0
230
1.0
 70
     8
 71
     3
 72
    17
 73
    13
 74
     0
 42
0.000000001
 43
0.00000001
 40
0.0
 40
0.0
 40
0.0
 40
0.0
 40
0.0325513863773694
 40
0.1043934567577653
 40
0.1782055686448794
 40
0.3000096847090637
 40
0.4249720114749554
 40
0.5148200902953268
 40
0.6053235632288965
 40
0.7906783652664873
 40
0.8948607288956896
 40
1.0
 40
1.0
 40
1.0
 40
1.0
 10
1456.428590584287
 20
2350.084295902681
 30
0.0
 10
1456.428584124876
 20
2350.098078208636
 30
0.0
 10
1456.428563409314
 20
2350.142278555253
 30
0.0
 10
1456.46353345849
 20
2350.269010092943
 30
0.0
 10
1456.549844600558
 20
2350.497136903928
 30
0.0
 10
1456.707708303481
 20
2350.822909903915
 30
0.0
 10
1456.926215809189
 20
2351.195304714675
 30
0.0
 10
1457.160435500632
 20
2351.545860079272
 30
0.0
 10
1457.473765343195
 20
2351.972967547038
 30
0.0
 10
1457.849134518973
 20
2352.422596215323
 30
0.0
 10
1458.280982767457
 20
2352.884977863059
 30
0.0
 10
1458.528614833519
 20
2353.125497313583
 30
0.0
 10
1458.652996887772
 20
2353.246306802515
 30
0.0
  0
SPLINE
  5
11B
330
1F
100
AcDbEntity
  8
0
  6
Continuous
 62
     7
370
    25
100
AcDbSpline
210
0.0
220
0.0
230
1.0
 70
     8
 71
     3
 72
    16
 73
    12
 74
     0
 42
0.000000001
 43
0.00000001
 40
0.0
 40
0.0
 40
0.0
 40
0.0
 40
0.1096632024349926
 40
0.2201285794244713
 40
0.3329083206503541
 40
0.4464083437871958
 40
0.5591730378229313
 40
0.6726040291466256
 40
0.7882562549512153
 40
0.9047849428721362
 40
0.9999999999999999
 40
0.9999999999999999
 40
0.9999999999999999
 40
0.9999999999999999
 10
1473.399228833316
 20
2352.672924866504
 30
0.0
 10
1473.50626485243
 20
2352.539075793975
 30
0.0
 10
1473.721119847648
 20
2352.270398557321
 30
0.0
 10
1474.006246913575
 20
2351.854368451924
 30
0.0
 10
1474.263003781007
 20
2351.428676981472
 30
0.0
 10
1474.485430557805
 20
2350.996049737183
 30
0.0
 10
1474.671822909355
 20
2350.560884018646
 30
0.0
 10
1474.822328518538
 20
2350.122936970313
 30
0.0
 10
1474.932374465803
 20
2349.685598867952
 30
0.0
 10
1475.004018610178
 20
2349.274337258874
 30
0.0
 10
1475.005825494516
 20
2349.03321308259
 30
0.0
 10
1475.006637998306
 20
2348.924786492636
 30
0.0
  0
SPLINE
  5
11C
330
1F
100
AcDbEntity
  8
0
  6
Continuous
 62
     7
370
    25
100
AcDbSpline
210
0.0
220
0.0
230
1.0
 70
     8
 71
     3
 72
    15
 73
    11
 74
     0
 42
0.000000001
 43
0.00000001
 40
0.0
 40
0.0
 40
0.0
 40
0.0
 40
0.2155767705934193
 40
0.3329005538677913
 40
0.4328760582230533
 40
0.5332634977247672
 40
0.6250838127945176
 40
0.7535547096888117
 40
0.9421338378891781
 40
1.0
 40
1.0
 40
1.0
 40
1.0
 10
1473.305079681727
 20
2352.706798195757
 30
0.0
 10
1473.260898743724
 20
2352.766018646496
 30
0.0
 10
1473.192673124185
 20
2352.857468763301
 30
0.0
 10
1473.135293905388
 20
2352.940619321429
 30
0.0
 10
1473.116579182958
 20
2352.974844565561
 30
0.0
 10
1473.12687989009
 20
2352.973758428117
 30
0.0
 10
1473.16517178744
 20
2352.938949471481
 30
0.0
 10
1473.241060546526
 20
2352.858558720554
 30
0.0
 10
1473.327087186722
 20
2352.759741863911
 30
0.0
 10
1473.385510781684
 20
2352.689433500687
 30
0.0
 10
1473.399228833316
 20
2352.672924866504
 30
0.0
  0
LINE
  5
11D
330
1F
100
AcDbEntity
  8
0
  6
Continuous
 62
     7
370
    25
100
AcDbLine
 10
1469.5268050305
 20
2353.0294676068
 30
0.0
 11
1469.5268050305
 21
1916.3506106858
 31
0.0
  0
SPLINE
  5
11E
330
1F
100
AcDbEntity
  8
0
  6
Continuous
 62
     7
370
    25
100
AcDbSpline
210
0.0
220
0.0
230
1.0
 70
     8
 71
     3
 72
    19
 73
    15
 74
     0
 42
0.000000001
 43
0.00000001
 40
0.0
 40
0.0
 40
0.0
 40
0.0
 40
0.0910154949789521
 40
0.182686873881343
 40
0.2763404741770552
 40
0.3706495540945983
 40
0.4621452318337622
 40
0.5542922024082694
 40
0.6487987504486717
 40
0.7443281936683445
 40
0.8150985012656459
 40
0.8867846267473932
 40
0.95769376454252
 40
1.0
 40
1.0
 40
1.0
 40
1.0
 10
2115.667707657818
 20
2353.246306802515
 30
0.0
 10
2115.775587132955
 20
2353.141832409468
 30
0.0
 10
2115.99212349386
 20
2352.932130750746
 30
0.0
 10
2116.298634430069
 20
2352.609085905305
 30
0.0
 10
2116.590249865701
 20
2352.280144713304
 30
0.0
 10
2116.859549289086
 20
2351.95082507488
 30
0.0
 10
2117.104117570752
 20
2351.625225145891
 30
0.0
 10
2117.323802384111
 20
2351.304165592369
 30
0.0
 10
2117.518507761773
 20
2350.987432603206
 30
0.0
 10
2117.668564837109
 20
2350.709454467921
 30
0.0
 10
2117.778201266588
 20
2350.47492188729
 30
0.0
 10
2117.849599669659
 20
2350.290595811128
 30
0.0
 10
2117.891379078536
 20
2350.151718591728
 30
0.0
 10
2117.889703321489
 20
2350.106249279092
 30
0.0
 10
2117.889077125858
 20
2350.089258340571
 30
0.0
  0
SPLINE
  5
11F
330
1F
100
AcDbEntity
  8
0
  6
Continuous
 62
     7
370
    25
100
AcDbSpline
210
0.0
220
0.0
230
1.0
 70
     8
 71
     3
 72
    14
 73
    10
 74
     0
 42
0.000000001
 43
0.00000001
 40
0.0
 40
0.0
 40
0.0
 40
0.0
 40
0.2243030424883874
 40
0.3489011866267659
 40
0.4744001356118231
 40
0.5826741857065668
 40
0.6867417687947447
 40
0.8381564871696391
 40
1.0
 40
1.0
 40
1.0
 40
1.0
 10
2115.389981234645
 20
2353.263566562476
 30
0.0
 10
2115.354649150479
 20
2353.318498564022
 30
0.0
 10
2115.299690439466
 20
2353.403944754633
 30
0.0
 10
2115.278193891821
 20
2353.479793838169
 30
0.0
 10
2115.296822253634
 20
2353.505474796478
 30
0.0
 10
2115.348856114105
 20
2353.492657521954
 30
0.0
 10
2115.428671998645
 20
2353.447246198852
 30
0.0
 10
2115.538431004476
 20
2353.3650685076
 30
0.0
 10
2115.623669537634
 20
2353.286763003281
 30
0.0
 10
2115.667707657818
 20
2353.246306802515
 30
0.0
  0
SPLINE
  5
120
330
1F
100
AcDbEntity
  8
0
  6
Continuous
 62
     7
370
    25
100
AcDbSpline
210
0.0
220
0.0
230
1.0
 70
     8
 71
     3
 72
    27
 73
    23
 74
     0
 42
0.000000001
 43
0.00000001
 40
0.0
 40
0.0
 40
0.0
 40
0.0
 40
0.0854193893125033
 40
0.1292485505238592
 40
0.1733927485568934
 40
0.2449111880238372
 40
0.3181761007994726
 40
0.3578246346969902
 40
0.3981318054712901
 40
0.4288131832180904
 40
0.4602403930085208
 40
0.4856097432632046
 40
0.5117065707683222
 40
0.5370818101410331
 40
0.5631224182367778
 40
0.5995872849299374
 40
0.6370631680066016
 40
0.6960736640765753
 40
0.7566512808579747
 40
0.8401548938394158
 40
0.926059287440351
 40
1.0
 40
1.0
 40
1.0
 40
1.0
 10
2111.314689810557
 20
2353.263566562476
 30
0.0
 10
2111.49647361788
 20
2353.062603996745
 30
0.0
 10
2111.771531702401
 20
2352.758526426777
 30
0.0
 10
2112.18339446048
 20
2352.345235596092
 30
0.0
 10
2112.575751662819
 20
2351.966694457085
 30
0.0
 10
2113.062572935225
 20
2351.524430378545
 30
0.0
 10
2113.559174509713
 20
2351.114175062245
 30
0.0
 10
2113.98295027505
 20
2350.80672538879
 30
0.0
 10
2114.294179280602
 20
2350.611152846344
 30
0.0
 10
2114.583213259494
 20
2350.464621357391
 30
0.0
 10
2114.827057091911
 20
2350.375205942563
 30
0.0
 10
2115.048416011623
 20
2350.331179814972
 30
0.0
 10
2115.23948494179
 20
2350.329045745919
 30
0.0
 10
2115.411874665671
 20
2350.366215303115
 30
0.0
 10
2115.580480901083
 20
2350.448047278697
 30
0.0
 10
2115.734323359293
 20
2350.585746951405
 30
0.0
 10
2115.883547478907
 20
2350.816533425612
 30
0.0
 10
2115.985921869036
 20
2351.137342616651
 30
0.0
 10
2116.020575676783
 20
2351.591032421752
 30
0.0
 10
2115.94060000837
 20
2352.131999897258
 30
0.0
 10
2115.732210405396
 20
2352.714322843346
 30
0.0
 10
2115.498219916027
 20
2353.089854263827
 30
0.0
 10
2115.389981234645
 20
2353.263566562476
 30
0.0
  0
SPLINE
  5
121
330
1F
100
AcDbEntity
  8
0
  6
Continuous
 62
     7
370
    25
100
AcDbSpline
210
0.0
220
0.0
230
1.0
 70
     8
 71
     3
 72
    14
 73
    10
 74
     0
 42
0.000000001
 43
0.00000001
 40
0.0
 40
0.0
 40
0.0
 40
0.0
 40
0.2239799089306448
 40
0.353060078785093
 40
0.4831615846561136
 40
0.5937368434045529
 40
0.6971871626483266
 40
0.8442013099709049
 40
1.0
 40
1.0
 40
1.0
 40
1.0
 10
2110.52099329323
 20
2353.246306802514
 30
0.0
 10
2110.542349576826
 20
2353.302154032819
 30
0.0
 10
2110.576013538943
 20
2353.390186158669
 30
0.0
 10
2110.691493254719
 20
2353.473034858779
 30
0.0
 10
2110.811664643375
 20
2353.504752215486
 30
0.0
 10
2110.940302975996
 20
2353.495711969574
 30
0.0
 10
2111.071849543924
 20
2353.453671292361
 30
0.0
 10
2111.20445896777
 20
2353.376299459283
 30
0.0
 10
2111.27724238527
 20
2353.301863981091
 30
0.0
 10
2111.314689810557
 20
2353.263566562476
 30
0.0
  0
SPLINE
  5
122
330
1F
100
AcDbEntity
  8
0
  6
Continuous
 62
     7
370
    25
100
AcDbSpline
210
0.0
220
0.0
230
1.0
 70
     8
 71
     3
 72
    30
 73
    26
 74
     0
 42
0.000000001
 43
0.00000001
 40
0.0
 40
0.0
 40
0.0
 40
0.0
 40
0.0436326703263181
 40
0.0875749781500634
 40
0.1324697918177377
 40
0.1776879097589616
 40
0.2471697669172325
 40
0.318231900277088
 40
0.3543746168326025
 40
0.3910547066027206
 40
0.4195535900770238
 40
0.4487399260949069
 40
0.4718549633840203
 40
0.4956323239076442
 40
0.5187532378092484
 40
0.5424776768489781
 40
0.5764529707070483
 40
0.6113599295178328
 40
0.668963094550417
 40
0.7280598292433371
 40
0.7705504599328832
 40
0.8133510372521779
 40
0.9010083644128274
 40
0.9502779135835188
 40
1.0
 40
1.0
 40
1.0
 40
1.0
 10
2104.793899515125
 20
2353.029467606847
 30
0.0
 10
2104.798913420626
 20
2352.922431169646
 30
0.0
 10
2104.808976812608
 20
2352.707598715454
 30
0.0
 10
2104.873272870313
 20
2352.378279734155
 30
0.0
 10
2104.973670009536
 20
2352.044236674557
 30
0.0
 10
2105.139435663475
 20
2351.647942376517
 30
0.0
 10
2105.39927277831
 20
2351.193747224802
 30
0.0
 10
2105.729484018433
 20
2350.783289579265
 30
0.0
 10
2106.058262852739
 20
2350.482057350549
 30
0.0
 10
2106.322652391806
 20
2350.294404297621
 30
0.0
 10
2106.598843875428
 20
2350.152096130208
 30
0.0
 10
2106.85856838874
 20
2350.0648583717
 30
0.0
 10
2107.118855176043
 20
2350.022155239323
 30
0.0
 10
2107.36594716226
 20
2350.019872325133
 30
0.0
 10
2107.615008882722
 20
2350.055244396637
 30
0.0
 10
2107.892367304795
 20
2350.133960667055
 30
0.0
 10
2108.193148301973
 20
2350.26770051127
 30
0.0
 10
2108.57093482534
 20
2350.497755313277
 30
0.0
 10
2108.974886083881
 20
2350.822703195925
 30
0.0
 10
2109.342766683656
 20
2351.195343421123
 30
0.0
 10
2109.636581142174
 20
2351.545851293682
 30
0.0
 10
2109.949737044281
 20
2351.972972822702
 30
0.0
 10
2110.212378713009
 20
2352.422595257566
 30
0.0
 10
2110.416326074285
 20
2352.884978045796
 30
0.0
 10
2110.485998052474
 20
2353.12549737468
 30
0.0
 10
2110.52099329323
 20
2353.246306802514
 30
0.0
  0
SPLINE
  5
123
330
1F
100
AcDbEntity
  8
0
  6
Continuous
 62
     7
370
    25
100
AcDbSpline
210
0.0
220
0.0
230
1.0
 70
     8
 71
     3
 72
    14
 73
    10
 74
     0
 42
0.000000001
 43
0.00000001
 40
0.0
 40
0.0
 40
0.0
 40
0.0
 40
0.2200911109485835
 40
0.35011995920918
 40
0.459067618397668
 40
0.5685351145661722
 40
0.666840221739005
 40
0.7968948941937023
 40
1.0
 40
1.0
 40
1.0
 40
1.0
 10
2104.081902569651
 20
2352.989254982093
 30
0.0
 10
2104.140628315084
 20
2353.047625179742
 30
0.0
 10
2104.234048969406
 20
2353.140480230233
 30
0.0
 10
2104.389936586585
 20
2353.229326966647
 30
0.0
 10
2104.513081216136
 20
2353.269788355141
 30
0.0
 10
2104.617685126987
 20
2353.273458976262
 30
0.0
 10
2104.70473192285
 20
2353.242485405441
 30
0.0
 10
2104.778220363741
 20
2353.166568302207
 30
0.0
 10
2104.787961189131
 20
2353.081393160924
 30
0.0
 10
2104.793899515125
 20
2353.029467606847
 30
0.0
  0
SPLINE
  5
124
330
1F
100
AcDbEntity
  8
0
  6
Continuous
 62
     7
370
    25
100
AcDbSpline
210
0.0
220
0.0
230
1.0
 70
     8
 71
     3
 72
    32
 73
    28
 74
     0
 42
0.000000001
 43
0.00000001
 40
0.0
 40
0.0
 40
0.0
 40
0.0
 40
0.0453942490664693
 40
0.0911149500211786
 40
0.1378156604218609
 40
0.1848384153738461
 40
0.2588911921182532
 40
0.2966281930596134
 40
0.334622784154755
 40
0.3627380257352026
 40
0.3910884026637617
 40
0.4192466010957422
 40
0.4481819119439007
 40
0.465825477102071
 40
0.4839564361058659
 40
0.5016138628025589
 40
0.5197789833318576
 40
0.5448703289759722
 40
0.5706414417831773
 40
0.6177923775614044
 40
0.6660664783496311
 40
0.7088271620555767
 40
0.75190452245391
 40
0.795866186308548
 40
0.8400991772633736
 40
0.9191874857499399
 40
1.0
 40
1.0
 40
1.0
 40
1.0
 10
2101.015624863865
 20
2352.706798195756
 30
0.0
 10
2100.926608830784
 20
2352.583022525387
 30
0.0
 10
2100.747936607494
 20
2352.334581054244
 30
0.0
 10
2100.521207205721
 20
2351.952374838355
 30
0.0
 10
2100.325712782908
 20
2351.56335918074
 30
0.0
 10
2100.136892802821
 20
2351.094789546318
 30
0.0
 10
2100.015237423796
 20
2350.654036118748
 30
0.0
 10
2099.955636821187
 20
2350.251165477978
 30
0.0
 10
2099.94248202947
 20
2349.981767198111
 30
0.0
 10
2099.956052153817
 20
2349.750436239276
 30
0.0
 10
2099.99067621418
 20
2349.5591581156
 30
0.0
 10
2100.052629889408
 20
2349.391487112587
 30
0.0
 10
2100.136215217273
 20
2349.281068097191
 30
0.0
 10
2100.232168629154
 20
2349.226155746874
 30
0.0
 10
2100.32602831871
 20
2349.211882129886
 30
0.0
 10
2100.433037911069
 20
2349.230989457563
 30
0.0
 10
2100.563497776083
 20
2349.287375122157
 30
0.0
 10
2100.71934617188
 20
2349.390011275212
 30
0.0
 10
2100.946330369082
 20
2349.579081476206
 30
0.0
 10
2101.232874802263
 20
2349.861883710897
 30
0.0
 10
2101.56500282072
 20
2350.217415453767
 30
0.0
 10
2101.89302979593
 20
2350.578415472041
 30
0.0
 10
2102.215321964264
 20
2350.935807544444
 30
0.0
 10
2102.545461477588
 20
2351.301412919946
 30
0.0
 10
2102.969142215018
 20
2351.768564640734
 30
0.0
 10
2103.490463305801
 20
2352.338504623609
 30
0.0
 10
2103.883344008101
 20
2352.770784442502
 30
0.0
 10
2104.081902569651
 20
2352.989254982093
 30
0.0
  0
SPLINE
  5
125
330
1F
100
AcDbEntity
  8
0
  6
Continuous
 62
     7
370
    25
100
AcDbSpline
210
0.0
220
0.0
230
1.0
 70
     8
 71
     3
 72
    15
 73
    11
 74
     0
 42
0.000000001
 43
0.00000001
 40
0.0
 40
0.0
 40
0.0
 40
0.0
 40
0.2150763736125998
 40
0.3413349926977857
 40
0.4465934903530295
 40
0.5524796219272747
 40
0.6449070621726252
 40
0.7662146539023779
 40
0.9406316560516326
 40
1.0
 40
1.0
 40
1.0
 40
1.0
 10
2100.921475712276
 20
2352.672924866503
 30
0.0
 10
2100.972535875013
 20
2352.733567845605
 30
0.0
 10
2101.053570439537
 20
2352.829810731242
 30
0.0
 10
2101.141509437946
 20
2352.924625799367
 30
0.0
 10
2101.188575680344
 20
2352.970015802002
 30
0.0
 10
2101.204287528392
 20
2352.977181687979
 30
0.0
 10
2101.190627313767
 20
2352.948805029051
 30
0.0
 10
2101.142819363035
 20
2352.878318579022
 30
0.0
 10
2101.076674944904
 20
2352.788454456831
 30
0.0
 10
2101.027988488585
 20
2352.72333490383
 30
0.0
 10
2101.015624863865
 20
2352.706798195756
 30
0.0
  0
SPLINE
  5
126
330
1F
100
AcDbEntity
  8
0
  6
Continuous
 62
     7
370
    25
100
AcDbSpline
210
0.0
220
0.0
230
1.0
 70
     8
 71
     3
 72
    15
 73
    11
 74
     0
 42
0.000000001
 43
0.00000001
 40
0.0
 40
0.0
 40
0.0
 40
0.0
 40
0.0381339650031906
 40
0.1308502356777022
 40
0.2242277108506167
 40
0.4145062314942634
 40
0.6247492382456439
 40
0.7319396837146833
 40
0.8397603771270045
 40
1.0
 40
1.0
 40
1.0
 40
1.0
 10
2099.309536913466
 20
2348.918967490556
 30
0.0
 10
2099.308908701917
 20
2348.961565902642
 30
0.0
 10
2099.30675310049
 20
2349.107735131585
 30
0.0
 10
2099.337462018339
 20
2349.382489310223
 30
0.0
 10
2099.42025304089
 20
2349.850949317487
 30
0.0
 10
2099.606649826658
 20
2350.483865222203
 30
0.0
 10
2099.89632462529
 20
2351.135879187372
 30
0.0
 10
2100.203049780195
 20
2351.675911032985
 30
0.0
 10
2100.507724395093
 20
2352.148165806443
 30
0.0
 10
2100.766679157415
 20
2352.476597045284
 30
0.0
 10
2100.921475712276
 20
2352.672924866503
 30
0.0
  0
LINE
  5
127
330
1F
100
AcDbEntity
  8
0
  6
Continuous
 62
     7
370
    25
100
AcDbLine
 10
2104.7938995151
 20
2353.0294676068
 30
0.0
 11
2104.7938995151
 21
1916.3506106858
 31
0.0
  0
LINE
  5
128
330
1F
100
AcDbEntity
  8
0
  6
Continuous
 62
     7
370
    25
100
AcDbLine
 10
1342.1603522728
 20
2351.3506106901
 30
0.0
 11
1456.9935733938
 21
2351.3506106901
 31
0.0
  0
LINE
  5
129
330
1F
100
AcDbEntity
  8
0
  6
Continuous
 62
     7
370
    25
100
AcDbLine
 10
1474.2879701848
 20
2351.3506106901
 30
0.0
 11
2100.037382163
 21
2351.3506106901
 31
0.0
  0
LINE
  5
12A
330
1F
100
AcDbEntity
  8
0
  6
Continuous
 62
     7
370
    25
100
AcDbLine
 10
2117.3271311518
 20
2351.3506106901
 30
0.0
 11
2232.1603522728
 21
2351.3506106901
 31
0.0
  0
LINE
  5
12B
330
1F
100
AcDbEntity
  8
0
  6
Continuous
 62
     7
370
    25
100
AcDbLine
 10
1342.1603522728
 20
2341.3506106901
 30
0.0
 11
1456.4262611978
 21
2341.3506106901
 31
0.0
  0
LINE
  5
12C
330
1F
100
AcDbEntity
  8
0
  6
Continuous
 62
     7
370
    25
100
AcDbLine
 10
1476.0532317277
 20
2341.3506106901
 30
0.0
 11
2098.2674728179
 21
2341.3506106901
 31
0.0
  0
LINE
  5
12D
330
1F
100
AcDbEntity
  8
0
  6
Continuous
 62
     7
370
    25
100
AcDbLine
 10
2117.8944433479
 20
2341.3506106901
 30
0.0
 11
2232.1603522728
 21
2341.3506106901
 31
0.0
  0
LINE
  5
12E
330
1F
100
AcDbEntity
  8
0
  6
Continuous
 62
     8
370
    18
100
AcDbLine
 10
1474.3737213152
 20
2338.8506106901
 30
0.0
 11
1787.1603522728
 21
2338.8506106901
 31
0.0
  0
LINE
  5
12F
330
1F
100
AcDbEntity
  8
0
  6
Continuous
 62
     8
370
    18
100
AcDbLine
 10
1474.3737213152
 20
2308.8506106901
 30
0.0
 11
1787.1603522728
 21
2308.8506106901
 31
0.0
  0
LINE
  5
130
330
1F
100
AcDbEntity
  8
0
  6
Continuous
 62
     8
370
    18
100
AcDbLine
 10
2099.9469832304
 20
2338.8506106901
 30
0.0
 11
1787.1603522728
 21
2338.8506106901
 31
0.0
  0
LINE
  5
131
330
1F
100
AcDbEntity
  8
0
  6
Continuous
 62
     8
370
    18
100
AcDbLine
 10
2099.9469832304
 20
2308.8506106901
 30
0.0
 11
1787.1603522728
 21
2308.8506106901
 31
0.0
  0
LINE
  5
132
330
1F
100
AcDbEntity
  8
0
  6
Continuous
 62
     8
370
    18
100
AcDbLine
 10
2098.9359199142
 20
1913.3506106858
 30
0.0
 11
2117.9359199142
 21
1913.3506106858
 31
0.0
  0
LINE
  5
133
330
1F
100
AcDbEntity
  8
0
  6
Continuous
 62
     8
370
    18
100
AcDbLine
 10
1472.6022990527
 20
1913.3506106858
 30
0.0
 11
1475.3847846314
 21
1913.3506106858
 31
0.0
  0
LINE
  5
134
330
1F
100
AcDbEntity
  8
0
  6
Continuous
 62
     8
370
    18
100
AcDbLine
 10
1456.3847846314
 20
1913.3506106858
 30
0.0
 11
1472.6022990527
 21
1913.3506106858
 31
0.0
  0
LINE
  5
135
330
1F
100
AcDbEntity
  8
0
  6
Continuous
 62
     8
370
    18
100
AcDbLine
 10
1463.7997112524
 20
2353.2463068025
 30
0.0
 11
1463.7997112524
 21
1916.3506106858
 31
0.0
  0
LINE
  5
136
330
1F
100
AcDbEntity
  8
0
  6
Continuous
 62
     8
370
    18
100
AcDbLine
 10
1463.006014735
 20
2353.2635665625
 30
0.0
 11
1463.006014735
 21
1916.3506106858
 31
0.0
  0
LINE
  5
137
330
1F
100
AcDbEntity
  8
0
  6
Continuous
 62
     8
370
    18
100
AcDbLine
 10
1470.2388019759
 20
2352.9892549821
 30
0.0
 11
1470.2388019759
 21
1916.3506106858
 31
0.0
  0
LINE
  5
138
330
1F
100
AcDbEntity
  8
0
  6
Continuous
 62
     8
370
    18
100
AcDbLine
 10
1458.6529968878
 20
2353.2463068025
 30
0.0
 11
1458.6529968878
 21
2352.772945882
 31
0.0
  0
LINE
  5
139
330
1F
100
AcDbEntity
  8
0
  6
Continuous
 62
     8
370
    18
100
AcDbLine
 10
1473.3992288333
 20
2352.6729248665
 30
0.0
 11
1473.3992288333
 21
2352.5646688311
 31
0.0
  0
LINE
  5
13A
330
1F
100
AcDbEntity
  8
0
  6
Continuous
 62
     8
370
    18
100
AcDbLine
 10
2110.5209932932
 20
2353.2463068025
 30
0.0
 11
2110.5209932932
 21
1916.3506106858
 31
0.0
  0
LINE
  5
13B
330
1F
100
AcDbEntity
  8
0
  6
Continuous
 62
     8
370
    18
100
AcDbLine
 10
2111.3146898106
 20
2353.2635665625
 30
0.0
 11
2111.3146898106
 21
1916.3506106858
 31
0.0
  0
LINE
  5
13C
330
1F
100
AcDbEntity
  8
0
  6
Continuous
 62
     8
370
    18
100
AcDbLine
 10
2104.0819025697
 20
2352.9892549821
 30
0.0
 11
2104.0819025696
 21
1916.3506106858
 31
0.0
  0
LINE
  5
13D
330
1F
100
AcDbEntity
  8
0
  6
Continuous
 62
     8
370
    18
100
AcDbLine
 10
2115.6677076578
 20
2353.2463068025
 30
0.0
 11
2115.6677076578
 21
2352.7860078626
 31
0.0
  0
LINE
  5
13E
330
1F
100
AcDbEntity
  8
0
  6
Continuous
 62
     8
370
    18
100
AcDbLine
 10
2100.9214757123
 20
2352.6729248665
 30
0.0
 11
2100.9214757123
 21
2352.5719056511
 31
0.0
  0
LINE
  5
13F
330
1F
100
AcDbEntity
  8
0
  6
Continuous
 62
     7
370
    25
100
AcDbLine
 10
2562.6841380657
 20
1913.3506106858
 30
0.0
 11
2562.6841380657
 21
1916.3506106858
 31
0.0
  0
LINE
  5
140
330
1F
100
AcDbEntity
  8
0
  6
Continuous
 62
     7
370
    25
100
AcDbLine
 10
2543.6841380657
 20
1916.3506106858
 30
0.0
 11
2543.6841380657
 21
1913.3506106858
 31
0.0
  0
ARC
  5
141
330
1F
100
AcDbEntity
  8
0
  6
Continuous
 62
     7
370
    25
100
AcDbCircle
 10
2548.6841380657
 20
1913.3506106858
 30
0.0
 40
4.999999999999773
100
AcDbArc
 50
180.0
 51
270.0
  0
ARC
  5
142
330
1F
100
AcDbEntity
  8
0
  6
Continuous
 62
     7
370
    25
100
AcDbCircle
 10
2557.6841380657
 20
1913.3506106858
 30
0.0
 40
4.999999999999773
100
AcDbArc
 50
270.0
 51
0.0
  0
LINE
  5
143
330
1F
100
AcDbEntity
  8
0
  6
Continuous
 62
     7
370
    25
100
AcDbLine
 10
3205.2352733485
 20
1913.3506106858
 30
0.0
 11
3205.2352733485
 21
1916.3506106858
 31
0.0
  0
LINE
  5
144
330
1F
100
AcDbEntity
  8
0
  6
Continuous
 62
     7
370
    25
100
AcDbLine
 10
3186.2352733485
 20
1916.3506106858
 30
0.0
 11
3186.2352733485
 21
1913.3506106858
 31
0.0
  0
ARC
  5
145
330
1F
100
AcDbEntity
  8
0
  6
Continuous
 62
     7
370
    25
100
AcDbCircle
 10
3191.2352733485
 20
1913.3506106858
 30
0.0
 40
5.000000000000455
100
AcDbArc
 50
180.0
 51
270.0
  0
ARC
  5
146
330
1F
100
AcDbEntity
  8
0
  6
Continuous
 62
     7
370
    25
100
AcDbCircle
 10
3200.2352733485
 20
1913.3506106858
 30
0.0
 40
5.000000000000227
100
AcDbArc
 50
270.0
 51
0.0
  0
ARC
  5
147
330
1F
100
AcDbEntity
  8
0
  6
Continuous
 62
     7
370
    25
100
AcDbCircle
 10
3195.9662305507
 20
2346.3506106858
 30
0.0
 40
10.00000000000019
100
AcDbArc
 50
25.0667314224
 51
143.7663718961
  0
LINE
  5
148
330
1F
100
AcDbEntity
  8
0
  6
Continuous
 62
     7
370
    25
100
AcDbLine
 10
3203.3032424107
 20
1916.3506106858
 30
0.0
 11
3203.3032424107
 21
2351.5017273172
 31
0.0
  0
LINE
  5
149
330
1F
100
AcDbEntity
  8
0
  6
Continuous
 62
     7
370
    25
100
AcDbLine
 10
3187.2463366647
 20
2349.9870534741
 30
0.0
 11
3187.2463366647
 21
1916.3506106858
 31
0.0
  0
LINE
  5
14A
330
1F
100
AcDbEntity
  8
0
  6
Continuous
 62
     7
370
    25
100
AcDbLine
 10
3205.1937967822
 20
1916.3506106858
 30
0.0
 11
3205.1937967822
 21
2350.0892583406
 31
0.0
  0
LINE
  5
14B
330
1F
100
AcDbEntity
  8
0
  6
Continuous
 62
     7
370
    25
100
AcDbLine
 10
3186.6054394534
 20
2348.9189674906
 30
0.0
 11
3186.6054394534
 21
2341.3506106901
 31
0.0
  0
LINE
  5
14C
330
1F
100
AcDbEntity
  8
0
  6
Continuous
 62
     7
370
    25
100
AcDbLine
 10
3186.6054394534
 20
2306.3506106901
 30
0.0
 11
3186.6054394534
 21
1916.3506106858
 31
0.0
  0
ARC
  5
14D
330
1F
100
AcDbEntity
  8
0
  6
Continuous
 62
     7
370
    25
100
AcDbCircle
 10
2552.9531808634
 20
2346.3506106858
 30
0.0
 40
10.00000000000015
100
AcDbArc
 50
36.1452713707
 51
154.8831070789
  0
LINE
  5
14E
330
1F
100
AcDbEntity
  8
0
  6
Continuous
 62
     7
370
    25
100
AcDbLine
 10
2545.6161690035
 20
2351.5017778541
 30
0.0
 11
2545.6161690035
 21
1916.3506106858
 31
0.0
  0
LINE
  5
14F
330
1F
100
AcDbEntity
  8
0
  6
Continuous
 62
     7
370
    25
100
AcDbLine
 10
2561.6730747495
 20
1916.3506106858
 30
0.0
 11
2561.6730747495
 21
2349.9907589668
 31
0.0
  0
LINE
  5
150
330
1F
100
AcDbEntity
  8
0
  6
Continuous
 62
     7
370
    25
100
AcDbLine
 10
2543.725614632
 20
2350.0842959027
 30
0.0
 11
2543.725614632
 21
1916.3506106858
 31
0.0
  0
LINE
  5
151
330
1F
100
AcDbEntity
  8
0
  6
Continuous
 62
     7
370
    25
100
AcDbLine
 10
2562.3139719608
 20
1916.3506106858
 30
0.0
 11
2562.3139719608
 21
2306.3506106901
 31
0.0
  0
LINE
  5
152
330
1F
100
AcDbEntity
  8
0
  6
Continuous
 62
     7
370
    25
100
AcDbLine
 10
2562.3139719608
 20
2341.3506106901
 30
0.0
 11
2562.3139719608
 21
2348.9247864926
 31
0.0
  0
LINE
  5
153
330
1F
100
AcDbEntity
  8
0
  6
Continuous
 62
     7
370
    25
100
AcDbLine
 10
3319.4597057071
 20
2341.3506106901
 30
0.0
 11
3319.4597057071
 21
2351.3506106901
 31
0.0
  0
LINE
  5
154
330
1F
100
AcDbEntity
  8
0
  6
Continuous
 62
     7
370
    25
100
AcDbLine
 10
2429.4597057071
 20
2351.3506106901
 30
0.0
 11
2429.4597057071
 21
2341.3506106901
 31
0.0
  0
LINE
  5
155
330
1F
100
AcDbEntity
  8
0
  6
Continuous
 62
     7
370
    25
100
AcDbLine
 10
3186.6080229214
 20
2341.3506106901
 30
0.0
 11
3185.5668262522
 21
2341.3506106901
 31
0.0
  0
LINE
  5
156
330
1F
100
AcDbEntity
  8
0
  6
Continuous
 62
     7
370
    25
100
AcDbLine
 10
3186.6080229214
 20
2306.3506106901
 30
0.0
 11
2874.4597057071
 21
2306.3506106901
 31
0.0
  0
LINE
  5
157
330
1F
100
AcDbEntity
  8
0
  6
Continuous
 62
     7
370
    25
100
AcDbLine
 10
2563.352585162
 20
2341.3506106901
 30
0.0
 11
2562.3126478528
 21
2341.3506106901
 31
0.0
  0
LINE
  5
158
330
1F
100
AcDbEntity
  8
0
  6
Continuous
 62
     7
370
    25
100
AcDbLine
 10
2562.3126478528
 20
2341.3506106901
 30
0.0
 11
2562.3113884928
 21
2341.3506106901
 31
0.0
  0
LINE
  5
159
330
1F
100
AcDbEntity
  8
0
  6
Continuous
 62
     7
370
    25
100
AcDbLine
 10
2874.4597057071
 20
2306.3506106901
 30
0.0
 11
2562.3126478528
 21
2306.3506106901
 31
0.0
  0
LINE
  5
15A
330
1F
100
AcDbEntity
  8
0
  6
Continuous
 62
     7
370
    25
100
AcDbLine
 10
2562.3126478528
 20
2306.3506106901
 30
0.0
 11
2562.3113884928
 21
2306.3506106901
 31
0.0
  0
LINE
  5
15B
330
1F
100
AcDbEntity
  8
0
  6
Continuous
 62
     7
370
    25
100
AcDbLine
 10
2562.6841380657
 20
1916.3506106858
 30
0.0
 11
2543.6841380657
 21
1916.3506106858
 31
0.0
  0
LINE
  5
15C
330
1F
100
AcDbEntity
  8
0
  6
Continuous
 62
     7
370
    25
100
AcDbLine
 10
2556.366118581
 20
1908.3506106858
 30
0.0
 11
2548.6841380657
 21
1908.3506106858
 31
0.0
  0
LINE
  5
15D
330
1F
100
AcDbEntity
  8
0
  6
Continuous
 62
     7
370
    25
100
AcDbLine
 10
2557.6841380657
 20
1908.3506106858
 30
0.0
 11
2556.366118581
 21
1908.3506106858
 31
0.0
  0
LINE
  5
15E
330
1F
100
AcDbEntity
  8
0
  6
Continuous
 62
     7
370
    25
100
AcDbLine
 10
3189.0177589272
 20
1916.3506106858
 30
0.0
 11
3186.2352733485
 21
1916.3506106858
 31
0.0
  0
LINE
  5
15F
330
1F
100
AcDbEntity
  8
0
  6
Continuous
 62
     7
370
    25
100
AcDbLine
 10
3205.2352733485
 20
1916.3506106858
 30
0.0
 11
3189.0177589272
 21
1916.3506106858
 31
0.0
  0
LINE
  5
160
330
1F
100
AcDbEntity
  8
0
  6
Continuous
 62
     7
370
    25
100
AcDbLine
 10
3200.2352733485
 20
1908.3506106858
 30
0.0
 11
3191.2352733485
 21
1908.3506106858
 31
0.0
  0
SPLINE
  5
161
330
1F
100
AcDbEntity
  8
0
  6
Continuous
 62
     7
370
    25
100
AcDbSpline
210
0.0
220
0.0
230
1.0
 70
     8
 71
     3
 72
    19
 73
    15
 74
     0
 42
0.000000001
 43
0.00000001
 40
0.0
 40
0.0
 40
0.0
 40
0.0
 40
0.0910154949789481
 40
0.182686873881336
 40
0.2763404741770513
 40
0.3706495540945964
 40
0.4621452318337594
 40
0.5542922024082524
 40
0.6487987504486773
 40
0.744328193668326
 40
0.8150985012656424
 40
0.8867846267473891
 40
0.957693764542504
 40
1.0
 40
1.0
 40
1.0
 40
1.0
 10
3202.967061092113
 20
2353.246306802516
 30
0.0
 10
3203.07494056725
 20
2353.141832409468
 30
0.0
 10
3203.291476928154
 20
2352.932130750747
 30
0.0
 10
3203.597987864363
 20
2352.609085905305
 30
0.0
 10
3203.889603299996
 20
2352.280144713305
 30
0.0
 10
3204.15890272338
 20
2351.950825074881
 30
0.0
 10
3204.403471005046
 20
2351.625225145892
 30
0.0
 10
3204.623155818405
 20
2351.304165592369
 30
0.0
 10
3204.817861196067
 20
2350.987432603208
 30
0.0
 10
3204.967918271404
 20
2350.709454467922
 30
0.0
 10
3205.077554700882
 20
2350.474921887291
 30
0.0
 10
3205.148953103953
 20
2350.290595811129
 30
0.0
 10
3205.19073251283
 20
2350.151718591729
 30
0.0
 10
3205.189056755783
 20
2350.106249279092
 30
0.0
 10
3205.188430560152
 20
2350.089258340572
 30
0.0
  0
SPLINE
  5
162
330
1F
100
AcDbEntity
  8
0
  6
Continuous
 62
     7
370
    25
100
AcDbSpline
210
0.0
220
0.0
230
1.0
 70
     8
 71
     3
 72
    14
 73
    10
 74
     0
 42
0.000000001
 43
0.00000001
 40
0.0
 40
0.0
 40
0.0
 40
0.0
 40
0.2243030424884007
 40
0.3489011866267353
 40
0.4744001356116975
 40
0.5826741857065758
 40
0.6867417687947539
 40
0.8381564871695895
 40
1.0
 40
1.0
 40
1.0
 40
1.0
 10
3202.689334668939
 20
2353.263566562477
 30
0.0
 10
3202.654002584773
 20
2353.318498564023
 30
0.0
 10
3202.599043873761
 20
2353.403944754634
 30
0.0
 10
3202.577547326115
 20
2353.47979383817
 30
0.0
 10
3202.596175687928
 20
2353.505474796478
 30
0.0
 10
3202.6482095484
 20
2353.492657521956
 30
0.0
 10
3202.72802543294
 20
2353.447246198852
 30
0.0
 10
3202.83778443877
 20
2353.365068507601
 30
0.0
 10
3202.923022971928
 20
2353.286763003282
 30
0.0
 10
3202.967061092113
 20
2353.246306802516
 30
0.0
  0
SPLINE
  5
163
330
1F
100
AcDbEntity
  8
0
  6
Continuous
 62
     7
370
    25
100
AcDbSpline
210
0.0
220
0.0
230
1.0
 70
     8
 71
     3
 72
    27
 73
    23
 74
     0
 42
0.000000001
 43
0.00000001
 40
0.0
 40
0.0
 40
0.0
 40
0.0
 40
0.0854193893125082
 40
0.1292485505238682
 40
0.1733927485568995
 40
0.244911188023835
 40
0.3181761007994745
 40
0.3578246346969908
 40
0.3981318054712862
 40
0.4288131832180907
 40
0.4602403930085097
 40
0.4856097432632082
 40
0.5117065707683182
 40
0.5370818101410254
 40
0.5631224182367743
 40
0.5995872849299381
 40
0.6370631680065977
 40
0.6960736640765744
 40
0.7566512808579696
 40
0.8401548938394138
 40
0.926059287440345
 40
1.0
 40
1.0
 40
1.0
 40
1.0
 10
3198.614043244851
 20
2353.263566562477
 30
0.0
 10
3198.795827052174
 20
2353.062603996746
 30
0.0
 10
3199.070885136695
 20
2352.758526426777
 30
0.0
 10
3199.482747894774
 20
2352.345235596093
 30
0.0
 10
3199.875105097113
 20
2351.966694457086
 30
0.0
 10
3200.36192636952
 20
2351.524430378546
 30
0.0
 10
3200.858527944007
 20
2351.114175062245
 30
0.0
 10
3201.282303709344
 20
2350.806725388791
 30
0.0
 10
3201.593532714896
 20
2350.611152846345
 30
0.0
 10
3201.882566693789
 20
2350.464621357391
 30
0.0
 10
3202.126410526205
 20
2350.375205942564
 30
0.0
 10
3202.347769445917
 20
2350.331179814973
 30
0.0
 10
3202.538838376085
 20
2350.32904574592
 30
0.0
 10
3202.711228099965
 20
2350.366215303116
 30
0.0
 10
3202.879834335377
 20
2350.448047278698
 30
0.0
 10
3203.033676793587
 20
2350.585746951406
 30
0.0
 10
3203.182900913202
 20
2350.816533425613
 30
0.0
 10
3203.28527530333
 20
2351.137342616652
 30
0.0
 10
3203.319929111078
 20
2351.591032421753
 30
0.0
 10
3203.239953442665
 20
2352.131999897259
 30
0.0
 10
3203.03156383969
 20
2352.714322843346
 30
0.0
 10
3202.797573350321
 20
2353.089854263828
 30
0.0
 10
3202.689334668939
 20
2353.263566562477
 30
0.0
  0
SPLINE
  5
164
330
1F
100
AcDbEntity
  8
0
  6
Continuous
 62
     7
370
    25
100
AcDbSpline
210
0.0
220
0.0
230
1.0
 70
     8
 71
     3
 72
    14
 73
    10
 74
     0
 42
0.000000001
 43
0.00000001
 40
0.0
 40
0.0
 40
0.0
 40
0.0
 40
0.2239799089306171
 40
0.3530600787851118
 40
0.4831615846561407
 40
0.5937368434045701
 40
0.697187162648355
 40
0.8442013099708986
 40
1.0
 40
1.0
 40
1.0
 40
1.0
 10
3197.820346727525
 20
2353.246306802515
 30
0.0
 10
3197.841703011121
 20
2353.302154032819
 30
0.0
 10
3197.875366973237
 20
2353.39018615867
 30
0.0
 10
3197.990846689013
 20
2353.473034858779
 30
0.0
 10
3198.111018077669
 20
2353.504752215487
 30
0.0
 10
3198.239656410291
 20
2353.495711969574
 30
0.0
 10
3198.371202978218
 20
2353.453671292361
 30
0.0
 10
3198.503812402064
 20
2353.376299459283
 30
0.0
 10
3198.576595819565
 20
2353.301863981092
 30
0.0
 10
3198.614043244851
 20
2353.263566562477
 30
0.0
  0
SPLINE
  5
165
330
1F
100
AcDbEntity
  8
0
  6
Continuous
 62
     7
370
    25
100
AcDbSpline
210
0.0
220
0.0
230
1.0
 70
     8
 71
     3
 72
    30
 73
    26
 74
     0
 42
0.000000001
 43
0.00000001
 40
0.0
 40
0.0
 40
0.0
 40
0.0
 40
0.0436326703263179
 40
0.0875749781500498
 40
0.1324697918177378
 40
0.1776879097589635
 40
0.247169766917234
 40
0.3182319002770918
 40
0.3543746168326002
 40
0.3910547066027205
 40
0.4195535900770255
 40
0.4487399260949068
 40
0.4718549633840137
 40
0.4956323239076442
 40
0.518753237809253
 40
0.5424776768489761
 40
0.5764529707070508
 40
0.6113599295178298
 40
0.6689630945504111
 40
0.7280598292433303
 40
0.7705504599328709
 40
0.8133510372521681
 40
0.9010083644128232
 40
0.9502779135835093
 40
1.0
 40
1.0
 40
1.0
 40
1.0
 10
3192.093252949419
 20
2353.029467606848
 30
0.0
 10
3192.09826685492
 20
2352.922431169647
 30
0.0
 10
3192.108330246903
 20
2352.707598715455
 30
0.0
 10
3192.172626304608
 20
2352.378279734156
 30
0.0
 10
3192.27302344383
 20
2352.044236674558
 30
0.0
 10
3192.438789097769
 20
2351.647942376518
 30
0.0
 10
3192.698626212605
 20
2351.193747224803
 30
0.0
 10
3193.028837452727
 20
2350.783289579266
 30
0.0
 10
3193.357616287033
 20
2350.482057350549
 30
0.0
 10
3193.622005826101
 20
2350.294404297622
 30
0.0
 10
3193.898197309723
 20
2350.152096130208
 30
0.0
 10
3194.157921823034
 20
2350.064858371701
 30
0.0
 10
3194.418208610337
 20
2350.022155239324
 30
0.0
 10
3194.665300596555
 20
2350.019872325133
 30
0.0
 10
3194.914362317017
 20
2350.055244396637
 30
0.0
 10
3195.19172073909
 20
2350.133960667055
 30
0.0
 10
3195.492501736267
 20
2350.26770051127
 30
0.0
 10
3195.870288259634
 20
2350.497755313278
 30
0.0
 10
3196.274239518175
 20
2350.822703195926
 30
0.0
 10
3196.642120117951
 20
2351.195343421123
 30
0.0
 10
3196.935934576468
 20
2351.545851293683
 30
0.0
 10
3197.249090478576
 20
2351.972972822703
 30
0.0
 10
3197.511732147304
 20
2352.422595257567
 30
0.0
 10
3197.715679508579
 20
2352.884978045796
 30
0.0
 10
3197.785351486768
 20
2353.125497374681
 30
0.0
 10
3197.820346727525
 20
2353.246306802515
 30
0.0
  0
SPLINE
  5
166
330
1F
100
AcDbEntity
  8
0
  6
Continuous
 62
     7
370
    25
100
AcDbSpline
210
0.0
220
0.0
230
1.0
 70
     8
 71
     3
 72
    14
 73
    10
 74
     0
 42
0.000000001
 43
0.00000001
 40
0.0
 40
0.0
 40
0.0
 40
0.0
 40
0.2200911109486221
 40
0.3501199592091787
 40
0.459067618397712
 40
0.5685351145661497
 40
0.666840221739031
 40
0.7968948941936921
 40
1.0
 40
1.0
 40
1.0
 40
1.0
 10
3191.381256003945
 20
2352.989254982094
 30
0.0
 10
3191.439981749378
 20
2353.047625179743
 30
0.0
 10
3191.533402403701
 20
2353.140480230234
 30
0.0
 10
3191.68929002088
 20
2353.229326966648
 30
0.0
 10
3191.812434650431
 20
2353.269788355142
 30
0.0
 10
3191.917038561282
 20
2353.273458976263
 30
0.0
 10
3192.004085357144
 20
2353.242485405442
 30
0.0
 10
3192.077573798035
 20
2353.166568302208
 30
0.0
 10
3192.087314623425
 20
2353.081393160925
 30
0.0
 10
3192.093252949419
 20
2353.029467606848
 30
0.0
  0
SPLINE
  5
167
330
1F
100
AcDbEntity
  8
0
  6
Continuous
 62
     7
370
    25
100
AcDbSpline
210
0.0
220
0.0
230
1.0
 70
     8
 71
     3
 72
    32
 73
    28
 74
     0
 42
0.000000001
 43
0.00000001
 40
0.0
 40
0.0
 40
0.0
 40
0.0
 40
0.0453942490664624
 40
0.0911149500211697
 40
0.1378156604218513
 40
0.1848384153738383
 40
0.2588911921182538
 40
0.2966281930596108
 40
0.3346227841547524
 40
0.3627380257352001
 40
0.3910884026637549
 40
0.4192466010957406
 40
0.4481819119438931
 40
0.4658254771020678
 40
0.483956436105856
 40
0.5016138628025542
 40
0.5197789833318569
 40
0.5448703289759715
 40
0.5706414417831768
 40
0.6177923775614017
 40
0.6660664783496304
 40
0.7088271620555697
 40
0.7519045224539014
 40
0.7958661863085474
 40
0.8400991772633732
 40
0.9191874857499338
 40
1.0
 40
1.0
 40
1.0
 40
1.0
 10
3188.314978298159
 20
2352.706798195757
 30
0.0
 10
3188.225962265078
 20
2352.583022525388
 30
0.0
 10
3188.047290041789
 20
2352.334581054245
 30
0.0
 10
3187.820560640015
 20
2351.952374838355
 30
0.0
 10
3187.625066217202
 20
2351.56335918074
 30
0.0
 10
3187.436246237115
 20
2351.094789546318
 30
0.0
 10
3187.31459085809
 20
2350.654036118749
 30
0.0
 10
3187.254990255482
 20
2350.251165477978
 30
0.0
 10
3187.241835463765
 20
2349.981767198112
 30
0.0
 10
3187.255405588111
 20
2349.750436239277
 30
0.0
 10
3187.290029648475
 20
2349.559158115601
 30
0.0
 10
3187.351983323702
 20
2349.391487112588
 30
0.0
 10
3187.435568651567
 20
2349.281068097192
 30
0.0
 10
3187.531522063449
 20
2349.226155746875
 30
0.0
 10
3187.625381753004
 20
2349.211882129886
 30
0.0
 10
3187.732391345364
 20
2349.230989457564
 30
0.0
 10
3187.862851210378
 20
2349.287375122158
 30
0.0
 10
3188.018699606174
 20
2349.390011275212
 30
0.0
 10
3188.245683803376
 20
2349.579081476206
 30
0.0
 10
3188.532228236557
 20
2349.861883710897
 30
0.0
 10
3188.864356255014
 20
2350.217415453768
 30
0.0
 10
3189.192383230224
 20
2350.578415472042
 30
0.0
 10
3189.514675398558
 20
2350.935807544444
 30
0.0
 10
3189.844814911882
 20
2351.301412919947
 30
0.0
 10
3190.268495649312
 20
2351.768564640734
 30
0.0
 10
3190.789816740095
 20
2352.338504623609
 30
0.0
 10
3191.182697442395
 20
2352.770784442503
 30
0.0
 10
3191.381256003945
 20
2352.989254982094
 30
0.0
  0
SPLINE
  5
168
330
1F
100
AcDbEntity
  8
0
  6
Continuous
 62
     7
370
    25
100
AcDbSpline
210
0.0
220
0.0
230
1.0
 70
     8
 71
     3
 72
    15
 73
    11
 74
     0
 42
0.000000001
 43
0.00000001
 40
0.0
 40
0.0
 40
0.0
 40
0.0
 40
0.2150763736126623
 40
0.3413349926978402
 40
0.4465934903530291
 40
0.5524796219273324
 40
0.644907062172677
 40
0.7662146539023893
 40
0.9406316560516114
 40
1.0
 40
1.0
 40
1.0
 40
1.0
 10
3188.22082914657
 20
2352.672924866504
 30
0.0
 10
3188.271889309307
 20
2352.733567845606
 30
0.0
 10
3188.352923873832
 20
2352.829810731243
 30
0.0
 10
3188.440862872241
 20
2352.924625799368
 30
0.0
 10
3188.487929114638
 20
2352.970015802003
 30
0.0
 10
3188.503640962687
 20
2352.977181687979
 30
0.0
 10
3188.489980748061
 20
2352.948805029052
 30
0.0
 10
3188.442172797329
 20
2352.878318579022
 30
0.0
 10
3188.376028379198
 20
2352.788454456831
 30
0.0
 10
3188.32734192288
 20
2352.723334903831
 30
0.0
 10
3188.314978298159
 20
2352.706798195757
 30
0.0
  0
SPLINE
  5
169
330
1F
100
AcDbEntity
  8
0
  6
Continuous
 62
     7
370
    25
100
AcDbSpline
210
0.0
220
0.0
230
1.0
 70
     8
 71
     3
 72
    15
 73
    11
 74
     0
 42
0.000000001
 43
0.00000001
 40
0.0
 40
0.0
 40
0.0
 40
0.0
 40
0.0381339650032209
 40
0.13085023567773
 40
0.2242277108506427
 40
0.4145062314942774
 40
0.6247492382456483
 40
0.7319396837147079
 40
0.8397603771270205
 40
1.0
 40
1.0
 40
1.0
 40
1.0
 10
3186.608890347761
 20
2348.918967490556
 30
0.0
 10
3186.608262136211
 20
2348.961565902643
 30
0.0
 10
3186.606106534784
 20
2349.107735131586
 30
0.0
 10
3186.636815452634
 20
2349.382489310223
 30
0.0
 10
3186.719606475184
 20
2349.850949317488
 30
0.0
 10
3186.906003260952
 20
2350.483865222204
 30
0.0
 10
3187.195678059584
 20
2351.135879187373
 30
0.0
 10
3187.502403214489
 20
2351.675911032986
 30
0.0
 10
3187.807077829387
 20
2352.148165806443
 30
0.0
 10
3188.06603259171
 20
2352.476597045284
 30
0.0
 10
3188.22082914657
 20
2352.672924866503
 30
0.0
  0
LINE
  5
16A
330
1F
100
AcDbEntity
  8
0
  6
Continuous
 62
     7
370
    25
100
AcDbLine
 10
3192.0932529494
 20
2353.0294676068
 30
0.0
 11
3192.0932529494
 21
1916.3506106858
 31
0.0
  0
SPLINE
  5
16B
330
1F
100
AcDbEntity
  8
0
  6
Continuous
 62
     7
370
    25
100
AcDbSpline
210
0.0
220
0.0
230
1.0
 70
     8
 71
     3
 72
    31
 73
    27
 74
     0
 42
0.000000001
 43
0.00000001
 40
0.0
 40
0.0
 40
0.0
 40
0.0
 40
0.0441466678382074
 40
0.0886154033489247
 40
0.134033209191162
 40
0.1797544925930166
 40
0.2246010207242823
 40
0.2697374327845687
 40
0.3158872821088816
 40
0.3624612967955037
 40
0.4188646742144147
 40
0.4470251772115992
 40
0.4758405247169875
 40
0.4938163492024396
 40
0.5122594402685813
 40
0.5302578458902719
 40
0.5488244143653066
 40
0.5722038163381908
 40
0.596230677064234
 40
0.6386001154354695
 40
0.6819872536773479
 40
0.722313045043093
 40
0.762940459931764
 40
0.8459823030165173
 40
0.9222505624506173
 40
1.0
 40
1.0
 40
1.0
 40
1.0
 10
2557.538155410239
 20
2352.989254982093
 30
0.0
 10
2557.645694665829
 20
2352.870600719216
 30
0.0
 10
2557.861557719069
 20
2352.63242656296
 30
0.0
 10
2558.198174288772
 20
2352.264172560564
 30
0.0
 10
2558.541697572115
 20
2351.887982348027
 30
0.0
 10
2558.887149612078
 20
2351.508317951866
 30
0.0
 10
2559.230077333142
 20
2351.129420480058
 30
0.0
 10
2559.570468284363
 20
2350.751940772122
 30
0.0
 10
2559.910154326558
 20
2350.376077477906
 30
0.0
 10
2560.271097206381
 20
2349.983891639809
 30
0.0
 10
2560.583081666931
 20
2349.663556104109
 30
0.0
 10
2560.847194620282
 20
2349.430853870871
 30
0.0
 10
2561.018146490806
 20
2349.309130720698
 30
0.0
 10
2561.159752693673
 20
2349.240291026876
 30
0.0
 10
2561.270149258562
 20
2349.213145800686
 30
0.0
 10
2561.369807900039
 20
2349.220298589379
 30
0.0
 10
2561.462082960904
 20
2349.264721691415
 30
0.0
 10
2561.541850842216
 20
2349.35246068512
 30
0.0
 10
2561.619535890378
 20
2349.513973647139
 30
0.0
 10
2561.670127821155
 20
2349.759066350407
 30
0.0
 10
2561.678064823251
 20
2350.074613359222
 30
0.0
 10
2561.64603422751
 20
2350.403586355136
 30
0.0
 10
2561.558645836282
 20
2350.850453078775
 30
0.0
 10
2561.371936591973
 20
2351.408633644262
 30
0.0
 10
2561.047597429634
 20
2352.072191287165
 30
0.0
 10
2560.753098612513
 20
2352.493910676966
 30
0.0
 10
2560.604433116025
 20
2352.706798195757
 30
0.0
  0
SPLINE
  5
16C
330
1F
100
AcDbEntity
  8
0
  6
Continuous
 62
     7
370
    25
100
AcDbSpline
210
0.0
220
0.0
230
1.0
 70
     8
 71
     3
 72
    14
 73
    10
 74
     0
 42
0.000000001
 43
0.00000001
 40
0.0
 40
0.0
 40
0.0
 40
0.0
 40
0.2207653484385864
 40
0.3402146168139792
 40
0.4605704991790614
 40
0.5641909618662047
 40
0.6633542991973003
 40
0.810524740361875
 40
1.0
 40
1.0
 40
1.0
 40
1.0
 10
2556.826158464763
 20
2353.029467606847
 30
0.0
 10
2556.833118972273
 20
2353.085901084854
 30
0.0
 10
2556.843845594054
 20
2353.172868963787
 30
0.0
 10
2556.926557211149
 20
2353.250167028755
 30
0.0
 10
2557.020732717296
 20
2353.276346139126
 30
0.0
 10
2557.130720688194
 20
2353.263717636746
 30
0.0
 10
2557.253764180974
 20
2353.218258028625
 30
0.0
 10
2557.399624542664
 20
2353.128784980775
 30
0.0
 10
2557.488265415208
 20
2353.03950480051
 30
0.0
 10
2557.538155410239
 20
2352.989254982093
 30
0.0
  0
SPLINE
  5
16D
330
1F
100
AcDbEntity
  8
0
  6
Continuous
 62
     7
370
    25
100
AcDbSpline
210
0.0
220
0.0
230
1.0
 70
     8
 71
     3
 72
    32
 73
    28
 74
     0
 42
0.000000001
 43
0.00000001
 40
0.0
 40
0.0
 40
0.0
 40
0.0
 40
0.0430379910819575
 40
0.0863861263482016
 40
0.1306715836239349
 40
0.1752669939041057
 40
0.2185320463381606
 40
0.2621050719941944
 40
0.3067938579277442
 40
0.351966334617592
 40
0.3854310965017617
 40
0.4193289160971717
 40
0.4528593258451079
 40
0.487579192890116
 40
0.5106386088136896
 40
0.5343801485774026
 40
0.5574353916329455
 40
0.5810375265201512
 40
0.6176166200902975
 40
0.6551846333990873
 40
0.7177265685357853
 40
0.781904481331938
 40
0.825289084311571
 40
0.8689843386192321
 40
0.9136242089591335
 40
0.9585815908891915
 40
1.0
 40
1.0
 40
1.0
 40
1.0
 10
2551.099064686658
 20
2353.246306802516
 30
0.0
 10
2551.128799899366
 20
2353.141832415267
 30
0.0
 10
2551.188484605305
 20
2352.932130768183
 30
0.0
 10
2551.323599602487
 20
2352.60908583434
 30
0.0
 10
2551.491271473126
 20
2352.280144986603
 30
0.0
 10
2551.691962963125
 20
2351.950824060335
 30
0.0
 10
2551.92210758054
 20
2351.625228816757
 30
0.0
 10
2552.182546806332
 20
2351.304151620481
 30
0.0
 10
2552.478390254306
 20
2350.987486472561
 30
0.0
 10
2552.783598220939
 20
2350.709273472241
 30
0.0
 10
2553.090139818621
 20
2350.475408212232
 30
0.0
 10
2553.388846654601
 20
2350.288744586717
 30
0.0
 10
2553.716882608887
 20
2350.135275710434
 30
0.0
 10
2554.032038895854
 20
2350.04627655399
 30
0.0
 10
2554.320385316361
 20
2350.016795458917
 30
0.0
 10
2554.565690008289
 20
2350.02908655719
 30
0.0
 10
2554.803556170377
 20
2350.07776886427
 30
0.0
 10
2555.068097895141
 20
2350.171808368928
 30
0.0
 10
2555.350073573972
 20
2350.32577071481
 30
0.0
 10
2555.694952966818
 20
2350.588726349084
 30
0.0
 10
2556.039764045617
 20
2350.953183208098
 30
0.0
 10
2556.319758735007
 20
2351.359511895628
 30
0.0
 10
2556.51609582598
 20
2351.730902276743
 30
0.0
 10
2556.651103139408
 20
2352.058158176794
 30
0.0
 10
2556.749840981276
 20
2352.390323175495
 30
0.0
 10
2556.811978581056
 20
2352.716009307794
 30
0.0
 10
2556.821562730186
 20
2352.927875014586
 30
0.0
 10
2556.826158464763
 20
2353.029467606847
 30
0.0
  0
SPLINE
  5
16E
330
1F
100
AcDbEntity
  8
0
  6
Continuous
 62
     7
370
    25
100
AcDbSpline
210
0.0
220
0.0
230
1.0
 70
     8
 71
     3
 72
    14
 73
    10
 74
     0
 42
0.000000001
 43
0.00000001
 40
0.0
 40
0.0
 40
0.0
 40
0.0
 40
0.2243030424883666
 40
0.3489011866267462
 40
0.474400135611709
 40
0.5826741857065877
 40
0.6867417687947664
 40
0.8381564871696027
 40
1.0
 40
1.0
 40
1.0
 40
1.0
 10
2550.305368169332
 20
2353.263566562478
 30
0.0
 10
2550.361412172553
 20
2353.318498564023
 30
0.0
 10
2550.448588070883
 20
2353.403944754634
 30
0.0
 10
2550.614029817632
 20
2353.47979383817
 30
0.0
 10
2550.749112386675
 20
2353.505474796478
 30
0.0
 10
2550.868153126357
 20
2353.492657521956
 30
0.0
 10
2550.972602274067
 20
2353.447246198853
 30
0.0
 10
2551.057745515802
 20
2353.365068507602
 30
0.0
 10
2551.084989302085
 20
2353.286763003282
 30
0.0
 10
2551.099064686658
 20
2353.246306802516
 30
0.0
  0
SPLINE
  5
16F
330
1F
100
AcDbEntity
  8
0
  6
Continuous
 62
     7
370
    25
100
AcDbSpline
210
0.0
220
0.0
230
1.0
 70
     8
 71
     3
 72
    27
 73
    23
 74
     0
 42
0.000000001
 43
0.00000001
 40
0.0
 40
0.0
 40
0.0
 40
0.0
 40
0.0854193893125071
 40
0.1292485505238672
 40
0.1733927485569013
 40
0.2449111880238332
 40
0.3181761007994729
 40
0.3578246346969935
 40
0.398131805471289
 40
0.4288131832180892
 40
0.4602403930085125
 40
0.485609743263207
 40
0.511706570768317
 40
0.5370818101410244
 40
0.5631224182367763
 40
0.5995872849299378
 40
0.6370631680065932
 40
0.6960736640765743
 40
0.7566512808579697
 40
0.8401548938394101
 40
0.926059287440345
 40
1.0
 40
1.0
 40
1.0
 40
1.0
 10
2546.230076745243
 20
2353.263566562478
 30
0.0
 10
2546.105974585633
 20
2353.062603996746
 30
0.0
 10
2545.918194921372
 20
2352.758526426778
 30
0.0
 10
2545.758551287809
 20
2352.345235596093
 30
0.0
 10
2545.65200180675
 20
2351.966694457086
 30
0.0
 10
2545.597873784535
 20
2351.524430378546
 30
0.0
 10
2545.63923752509
 20
2351.114175062246
 30
0.0
 10
2545.74618989923
 20
2350.806725388792
 30
0.0
 10
2545.866040402218
 20
2350.611152846346
 30
0.0
 10
2546.017248106632
 20
2350.464621357391
 30
0.0
 10
2546.179374069564
 20
2350.375205942565
 30
0.0
 10
2546.361119932814
 20
2350.331179814973
 30
0.0
 10
2546.550279569032
 20
2350.32904574592
 30
0.0
 10
2546.756078000004
 20
2350.366215303116
 30
0.0
 10
2546.999259675964
 20
2350.448047278698
 30
0.0
 10
2547.281778515691
 20
2350.585746951406
 30
0.0
 10
2547.655845180432
 20
2350.816533425614
 30
0.0
 10
2548.09016044391
 20
2351.137342616652
 30
0.0
 10
2548.63401948426
 20
2351.591032421753
 30
0.0
 10
2549.222970714116
 20
2352.131999897259
 30
0.0
 10
2549.809791766899
 20
2352.714322843347
 30
0.0
 10
2550.148629524857
 20
2353.089854263828
 30
0.0
 10
2550.305368169332
 20
2353.263566562478
 30
0.0
  0
SPLINE
  5
170
330
1F
100
AcDbEntity
  8
0
  6
Continuous
 62
     7
370
    25
100
AcDbSpline
210
0.0
220
0.0
230
1.0
 70
     8
 71
     3
 72
    14
 73
    10
 74
     0
 42
0.000000001
 43
0.00000001
 40
0.0
 40
0.0
 40
0.0
 40
0.0
 40
0.2239799089306254
 40
0.3530600787851165
 40
0.4831615846561408
 40
0.5937368434045662
 40
0.6971871626483934
 40
0.8442013099708903
 40
1.0
 40
1.0
 40
1.0
 40
1.0
 10
2545.95235032207
 20
2353.246306802515
 30
0.0
 10
2546.013895736253
 20
2353.302154032819
 30
0.0
 10
2546.110909923302
 20
2353.39018615867
 30
0.0
 10
2546.231657872196
 20
2353.47303485878
 30
0.0
 10
2546.303015284718
 20
2353.504752215487
 30
0.0
 10
2546.336220373548
 20
2353.495711969575
 30
0.0
 10
2546.337354047518
 20
2353.453671292362
 30
0.0
 10
2546.30389263188
 20
2353.376299459283
 30
0.0
 10
2546.255153346582
 20
2353.301863981092
 30
0.0
 10
2546.230076745243
 20
2353.263566562478
 30
0.0
  0
SPLINE
  5
171
330
1F
100
AcDbEntity
  8
0
  6
Continuous
 62
     7
370
    25
100
AcDbSpline
210
0.0
220
0.0
230
1.0
 70
     8
 71
     3
 72
    17
 73
    13
 74
     0
 42
0.000000001
 43
0.00000001
 40
0.0
 40
0.0
 40
0.0
 40
0.0
 40
0.0325513863773865
 40
0.1043934567577758
 40
0.1782055686448764
 40
0.3000096847090812
 40
0.424972011474969
 40
0.5148200902953214
 40
0.6053235632288939
 40
0.7906783652664834
 40
0.8948607288956798
 40
1.0
 40
1.0
 40
1.0
 40
1.0
 10
2543.727944018584
 20
2350.084295902682
 30
0.0
 10
2543.727937559173
 20
2350.098078208636
 30
0.0
 10
2543.727916843611
 20
2350.142278555253
 30
0.0
 10
2543.762886892787
 20
2350.269010092943
 30
0.0
 10
2543.849198034856
 20
2350.497136903928
 30
0.0
 10
2544.007061737778
 20
2350.822909903915
 30
0.0
 10
2544.225569243486
 20
2351.195304714675
 30
0.0
 10
2544.45978893493
 20
2351.545860079272
 30
0.0
 10
2544.773118777493
 20
2351.972967547038
 30
0.0
 10
2545.14848795327
 20
2352.422596215323
 30
0.0
 10
2545.580336201755
 20
2352.88497786306
 30
0.0
 10
2545.827968267816
 20
2353.125497313584
 30
0.0
 10
2545.95235032207
 20
2353.246306802516
 30
0.0
  0
SPLINE
  5
172
330
1F
100
AcDbEntity
  8
0
  6
Continuous
 62
     7
370
    25
100
AcDbSpline
210
0.0
220
0.0
230
1.0
 70
     8
 71
     3
 72
    16
 73
    12
 74
     0
 42
0.000000001
 43
0.00000001
 40
0.0
 40
0.0
 40
0.0
 40
0.0
 40
0.1096632024349969
 40
0.2201285794244616
 40
0.332908320650337
 40
0.446408343787182
 40
0.5591730378229226
 40
0.6726040291466147
 40
0.7882562549511907
 40
0.9047849428721224
 40
1.0
 40
1.0
 40
1.0
 40
1.0
 10
2560.698582267614
 20
2352.672924866504
 30
0.0
 10
2560.805618286728
 20
2352.539075793976
 30
0.0
 10
2561.020473281946
 20
2352.270398557321
 30
0.0
 10
2561.305600347873
 20
2351.854368451925
 30
0.0
 10
2561.562357215304
 20
2351.428676981473
 30
0.0
 10
2561.784783992103
 20
2350.996049737183
 30
0.0
 10
2561.971176343652
 20
2350.560884018646
 30
0.0
 10
2562.121681952835
 20
2350.122936970313
 30
0.0
 10
2562.231727900101
 20
2349.685598867953
 30
0.0
 10
2562.303372044476
 20
2349.274337258874
 30
0.0
 10
2562.305178928813
 20
2349.03321308259
 30
0.0
 10
2562.305991432604
 20
2348.924786492636
 30
0.0
  0
SPLINE
  5
173
330
1F
100
AcDbEntity
  8
0
  6
Continuous
 62
     7
370
    25
100
AcDbSpline
210
0.0
220
0.0
230
1.0
 70
     8
 71
     3
 72
    15
 73
    11
 74
     0
 42
0.000000001
 43
0.00000001
 40
0.0
 40
0.0
 40
0.0
 40
0.0
 40
0.2155767705934263
 40
0.3329005538677349
 40
0.4328760582230412
 40
0.5332634977246496
 40
0.6250838127945216
 40
0.7535547096888416
 40
0.9421338378891982
 40
1.0
 40
1.0
 40
1.0
 40
1.0
 10
2560.604433116025
 20
2352.706798195757
 30
0.0
 10
2560.560252178021
 20
2352.766018646496
 30
0.0
 10
2560.492026558482
 20
2352.857468763301
 30
0.0
 10
2560.434647339686
 20
2352.94061932143
 30
0.0
 10
2560.415932617256
 20
2352.974844565561
 30
0.0
 10
2560.426233324387
 20
2352.973758428118
 30
0.0
 10
2560.464525221737
 20
2352.938949471481
 30
0.0
 10
2560.540413980823
 20
2352.858558720554
 30
0.0
 10
2560.626440621019
 20
2352.759741863911
 30
0.0
 10
2560.684864215981
 20
2352.689433500688
 30
0.0
 10
2560.698582267614
 20
2352.672924866504
 30
0.0
  0
LINE
  5
174
330
1F
100
AcDbEntity
  8
0
  6
Continuous
 62
     7
370
    25
100
AcDbLine
 10
2556.8261584648
 20
2353.0294676068
 30
0.0
 11
2556.8261584648
 21
1916.3506106858
 31
0.0
  0
LINE
  5
175
330
1F
100
AcDbEntity
  8
0
  6
Continuous
 62
     7
370
    25
100
AcDbLine
 10
2429.4597057071
 20
2351.3506106901
 30
0.0
 11
2544.2929268281
 21
2351.3506106901
 31
0.0
  0
LINE
  5
176
330
1F
100
AcDbEntity
  8
0
  6
Continuous
 62
     7
370
    25
100
AcDbLine
 10
2561.5866403361
 20
2351.3506106901
 30
0.0
 11
3187.3449939026
 21
2351.3506106901
 31
0.0
  0
LINE
  5
177
330
1F
100
AcDbEntity
  8
0
  6
Continuous
 62
     7
370
    25
100
AcDbLine
 10
3204.6264845861
 20
2351.3506106901
 30
0.0
 11
3319.4597057071
 21
2351.3506106901
 31
0.0
  0
LINE
  5
178
330
1F
100
AcDbEntity
  8
0
  6
Continuous
 62
     7
370
    25
100
AcDbLine
 10
2429.4597057071
 20
2341.3506106901
 30
0.0
 11
2543.725614632
 21
2341.3506106901
 31
0.0
  0
LINE
  5
179
330
1F
100
AcDbEntity
  8
0
  6
Continuous
 62
     7
370
    25
100
AcDbLine
 10
2563.352585162
 20
2341.3506106901
 30
0.0
 11
3185.5668262522
 21
2341.3506106901
 31
0.0
  0
LINE
  5
17A
330
1F
100
AcDbEntity
  8
0
  6
Continuous
 62
     7
370
    25
100
AcDbLine
 10
3205.1937967822
 20
2341.3506106901
 30
0.0
 11
3319.4597057071
 21
2341.3506106901
 31
0.0
  0
LINE
  5
17B
330
1F
100
AcDbEntity
  8
0
  6
Continuous
 62
     8
370
    18
100
AcDbLine
 10
3187.2463366647
 20
2338.8506106901
 30
0.0
 11
2874.4597057071
 21
2338.8506106901
 31
0.0
  0
LINE
  5
17C
330
1F
100
AcDbEntity
  8
0
  6
Continuous
 62
     8
370
    18
100
AcDbLine
 10
3187.2463366647
 20
2308.8506106901
 30
0.0
 11
2874.4597057071
 21
2308.8506106901
 31
0.0
  0
SPLINE
  5
17D
330
1F
100
AcDbEntity
  8
0
  6
Continuous
 62
     8
370
    18
100
AcDbSpline
210
0.0
220
0.0
230
1.0
 70
     8
 71
     3
 72
    12
 73
     8
 74
     0
 42
0.000000001
 43
0.00000001
 40
0.0
 40
0.0
 40
0.0
 40
0.0
 40
0.0835924945707704
 40
0.3494756567401933
 40
0.6075198326837873
 40
0.8727503361636282
 40
1.0
 40
1.0
 40
1.0
 40
1.0
 10
2561.673074749517
 20
2341.23929932374
 30
0.0
 10
2561.706853630867
 20
2341.240347052689
 30
0.0
 10
2561.848073208106
 20
2341.244727299555
 30
0.0
 10
2562.029060446617
 20
2341.275458839738
 30
0.0
 10
2562.207350460388
 20
2341.317012729744
 30
0.0
 10
2562.291209117493
 20
2341.34651668424
 30
0.0
 10
2562.307398833639
 20
2341.349608321465
 30
0.0
 10
2562.312647852847
 20
2341.35061069007
 30
0.0
  0
LINE
  5
17E
330
1F
100
AcDbEntity
  8
0
  6
Continuous
 62
     8
370
    18
100
AcDbLine
 10
2874.4597057071
 20
2338.8506106901
 30
0.0
 11
2561.6730747495
 21
2338.8506106901
 31
0.0
  0
LINE
  5
17F
330
1F
100
AcDbEntity
  8
0
  6
Continuous
 62
     8
370
    18
100
AcDbLine
 10
2874.4597057071
 20
2308.8506106901
 30
0.0
 11
2561.6730747495
 21
2308.8506106901
 31
0.0
  0
SPLINE
  5
180
330
1F
100
AcDbEntity
  8
0
  6
Continuous
 62
     8
370
    18
100
AcDbSpline
210
0.0
220
0.0
230
1.0
 70
     8
 71
     3
 72
    11
 73
     7
 74
     0
 42
0.000000001
 43
0.00000001
 40
0.0
 40
0.0
 40
0.0
 40
0.0
 40
0.2575040019792602
 40
0.5228363098507646
 40
0.78016818356105
 40
0.9999999999999999
 40
0.9999999999999999
 40
0.9999999999999999
 40
0.9999999999999999
 10
2562.312647852847
 20
2306.35061069007
 30
0.0
 10
2562.298501796426
 20
2306.354594999798
 30
0.0
 10
2562.269779633346
 20
2306.362684745121
 30
0.0
 10
2562.126966044968
 20
2306.405289552528
 30
0.0
 10
2561.932978272515
 20
2306.44513668034
 30
0.0
 10
2561.755048109488
 20
2306.457375346996
 30
0.0
 10
2561.673074749517
 20
2306.463013764959
 30
0.0
  0
LINE
  5
181
330
1F
100
AcDbEntity
  8
0
  6
Continuous
 62
     8
370
    18
100
AcDbLine
 10
2559.901652487
 20
1913.3506106858
 30
0.0
 11
2562.6841380657
 21
1913.3506106858
 31
0.0
  0
LINE
  5
182
330
1F
100
AcDbEntity
  8
0
  6
Continuous
 62
     8
370
    18
100
AcDbLine
 10
2543.6841380657
 20
1913.3506106858
 30
0.0
 11
2559.901652487
 21
1913.3506106858
 31
0.0
  0
LINE
  5
183
330
1F
100
AcDbEntity
  8
0
  6
Continuous
 62
     8
370
    18
100
AcDbLine
 10
3186.2352733485
 20
1913.3506106858
 30
0.0
 11
3205.2352733485
 21
1913.3506106858
 31
0.0
  0
LINE
  5
184
330
1F
100
AcDbEntity
  8
0
  6
Continuous
 62
     8
370
    18
100
AcDbLine
 10
3197.8203467275
 20
2353.2463068025
 30
0.0
 11
3197.8203467275
 21
1916.3506106858
 31
0.0
  0
LINE
  5
185
330
1F
100
AcDbEntity
  8
0
  6
Continuous
 62
     8
370
    18
100
AcDbLine
 10
3198.6140432449
 20
2353.2635665625
 30
0.0
 11
3198.6140432448
 21
1916.3506106858
 31
0.0
  0
LINE
  5
186
330
1F
100
AcDbEntity
  8
0
  6
Continuous
 62
     8
370
    18
100
AcDbLine
 10
3191.3812560039
 20
2352.9892549821
 30
0.0
 11
3191.3812560039
 21
1916.3506106858
 31
0.0
  0
LINE
  5
187
330
1F
100
AcDbEntity
  8
0
  6
Continuous
 62
     8
370
    18
100
AcDbLine
 10
3202.9670610921
 20
2353.2463068025
 30
0.0
 11
3202.9670610921
 21
2352.7860078626
 31
0.0
  0
LINE
  5
188
330
1F
100
AcDbEntity
  8
0
  6
Continuous
 62
     8
370
    18
100
AcDbLine
 10
3188.2208291466
 20
2352.6729248665
 30
0.0
 11
3188.2208291466
 21
2352.5719056511
 31
0.0
  0
LINE
  5
189
330
1F
100
AcDbEntity
  8
0
  6
Continuous
 62
     8
370
    18
100
AcDbLine
 10
2551.0990646867
 20
2353.2463068025
 30
0.0
 11
2551.0990646867
 21
1916.3506106858
 31
0.0
  0
LINE
  5
18A
330
1F
100
AcDbEntity
  8
0
  6
Continuous
 62
     8
370
    18
100
AcDbLine
 10
2550.3053681693
 20
2353.2635665625
 30
0.0
 11
2550.3053681693
 21
1916.3506106858
 31
0.0
  0
LINE
  5
18B
330
1F
100
AcDbEntity
  8
0
  6
Continuous
 62
     8
370
    18
100
AcDbLine
 10
2557.5381554102
 20
2352.9892549821
 30
0.0
 11
2557.5381554102
 21
1916.3506106858
 31
0.0
  0
LINE
  5
18C
330
1F
100
AcDbEntity
  8
0
  6
Continuous
 62
     8
370
    18
100
AcDbLine
 10
2545.9523503221
 20
2353.2463068025
 30
0.0
 11
2545.9523503221
 21
2352.772945882
 31
0.0
  0
LINE
  5
18D
330
1F
100
AcDbEntity
  8
0
  6
Continuous
 62
     8
370
    18
100
AcDbLine
 10
2560.6985822676
 20
2352.6729248665
 30
0.0
 11
2560.6985822676
 21
2352.5646688311
 31
0.0
  0
LINE
  5
18E
330
1F
100
AcDbEntity
  8
0
  6
Continuous
 62
     7
370
    25
100
AcDbLine
 10
1463.5317206594
 20
834.7338690772
 30
0.0
 11
1467.2392276976
 21
838.4413761154
 31
0.0
  0
LINE
  5
18F
330
1F
100
AcDbEntity
  8
0
  6
Continuous
 62
     7
370
    25
100
AcDbLine
 10
2096.4748751303
 20
1467.677023548
 30
0.0
 11
2100.1823821685
 21
1471.3845305863
 31
0.0
  0
LINE
  5
190
330
1F
100
AcDbEntity
  8
0
  6
Continuous
 62
     7
370
    25
100
AcDbLine
 10
1474.1383223772
 20
824.1272673594
 30
0.0
 11
1477.8458294154
 21
827.8347743976
 31
0.0
  0
LINE
  5
191
330
1F
100
AcDbEntity
  8
0
  6
Continuous
 62
     7
370
    25
100
AcDbLine
 10
2107.081476848
 20
1457.0704218302
 30
0.0
 11
2110.7889838863
 21
1460.7779288685
 31
0.0
  0
LINE
  5
192
330
1F
100
AcDbEntity
  8
0
  6
Continuous
 62
     7
370
    25
100
AcDbLine
 10
2100.1823821685
 20
824.1272673594
 30
0.0
 11
2096.4748751303
 21
827.8347743976
 31
0.0
  0
LINE
  5
193
330
1F
100
AcDbEntity
  8
0
  6
Continuous
 62
     7
370
    25
100
AcDbLine
 10
1467.2392276976
 20
1457.0704218302
 30
0.0
 11
1463.5317206594
 21
1460.7779288685
 31
0.0
  0
LINE
  5
194
330
1F
100
AcDbEntity
  8
0
  6
Continuous
 62
     7
370
    25
100
AcDbLine
 10
2110.7889838863
 20
834.7338690772
 30
0.0
 11
2107.0814768481
 21
838.4413761154
 31
0.0
  0
LINE
  5
195
330
1F
100
AcDbEntity
  8
0
  6
Continuous
 62
     7
370
    25
100
AcDbLine
 10
1477.8458294154
 20
1467.677023548
 30
0.0
 11
1474.1383223772
 21
1471.3845305863
 31
0.0
  0
ARC
  5
196
330
1F
100
AcDbEntity
  8
0
  6
Continuous
 62
     7
370
    25
100
AcDbCircle
 10
2108.4359199142
 20
826.4803313314
 30
0.0
 40
9.5000000000004
100
AcDbArc
 50
214.2074903023
 51
225.0
  0
ARC
  5
197
330
1F
100
AcDbEntity
  8
0
  6
Continuous
 62
     7
370
    25
100
AcDbCircle
 10
2108.4359199142
 20
826.4803313314
 30
0.0
 40
9.500000000000263
100
AcDbArc
 50
187.1363536379
 51
209.3055163034
  0
ARC
  5
198
330
1F
100
AcDbEntity
  8
0
  6
Continuous
 62
     7
370
    25
100
AcDbCircle
 10
2108.4359199142
 20
826.4803313314
 30
0.0
 40
9.499999999999906
100
AcDbArc
 50
60.9207332953
 51
82.8636463614
  0
ARC
  5
199
330
1F
100
AcDbEntity
  8
0
  6
Continuous
 62
     7
370
    25
100
AcDbCircle
 10
2108.4359199142
 20
826.4803313314
 30
0.0
 40
9.500000000000234
100
AcDbArc
 50
8.414380276
 51
56.7704779573
  0
ARC
  5
19A
330
1F
100
AcDbEntity
  8
0
  6
Continuous
 62
     7
370
    25
100
AcDbCircle
 10
2108.4359199142
 20
826.4803313314
 30
0.0
 40
9.500000000000206
100
AcDbArc
 50
317.9597701309
 51
3.6029876359
  0
ARC
  5
19B
330
1F
100
AcDbEntity
  8
0
  6
Continuous
 62
     7
370
    25
100
AcDbCircle
 10
2108.4359199142
 20
826.4803313314
 30
0.0
 40
9.500000000000158
100
AcDbArc
 50
265.3952789021
 51
313.8145366813
  0
ARC
  5
19C
330
1F
100
AcDbEntity
  8
0
  6
Continuous
 62
     7
370
    25
100
AcDbCircle
 10
2108.4359199142
 20
826.4803313314
 30
0.0
 40
9.500000000000398
100
AcDbArc
 50
225.0
 51
260.5853774059
  0
ARC
  5
19D
330
1F
100
AcDbEntity
  8
0
  6
Continuous
 62
     7
370
    25
100
AcDbCircle
 10
1465.8847846315
 20
1469.0314666142
 30
0.0
 40
9.500000000000156
100
AcDbArc
 50
34.2074903023
 51
45.0
  0
ARC
  5
19E
330
1F
100
AcDbEntity
  8
0
  6
Continuous
 62
     7
370
    25
100
AcDbCircle
 10
1465.8847846315
 20
1469.0314666142
 30
0.0
 40
9.50000000000014
100
AcDbArc
 50
7.1363536379
 51
29.3055163035
  0
ARC
  5
19F
330
1F
100
AcDbEntity
  8
0
  6
Continuous
 62
     7
370
    25
100
AcDbCircle
 10
1465.8847846315
 20
1469.0314666142
 30
0.0
 40
9.500000000000034
100
AcDbArc
 50
240.9207332954
 51
262.8636463614
  0
ARC
  5
1A0
330
1F
100
AcDbEntity
  8
0
  6
Continuous
 62
     7
370
    25
100
AcDbCircle
 10
1465.8847846315
 20
1469.0314666142
 30
0.0
 40
9.50000000000026
100
AcDbArc
 50
188.4143802761
 51
236.7704779571
  0
ARC
  5
1A1
330
1F
100
AcDbEntity
  8
0
  6
Continuous
 62
     7
370
    25
100
AcDbCircle
 10
1465.8847846315
 20
1469.0314666142
 30
0.0
 40
9.500000000000323
100
AcDbArc
 50
137.9597701308
 51
183.602987636
  0
ARC
  5
1A2
330
1F
100
AcDbEntity
  8
0
  6
Continuous
 62
     7
370
    25
100
AcDbCircle
 10
1465.8847846315
 20
1469.0314666142
 30
0.0
 40
9.500000000000302
100
AcDbArc
 50
85.3952789019
 51
133.8145366815
  0
ARC
  5
1A3
330
1F
100
AcDbEntity
  8
0
  6
Continuous
 62
     7
370
    25
100
AcDbCircle
 10
1465.8847846315
 20
1469.0314666142
 30
0.0
 40
9.500000000000156
100
AcDbArc
 50
45.0
 51
80.5853774061
  0
ARC
  5
1A4
330
1F
100
AcDbEntity
  8
0
  6
Continuous
 62
     7
370
    25
100
AcDbCircle
 10
1465.8847846314
 20
826.4803313314
 30
0.0
 40
9.500000000000076
100
AcDbArc
 50
124.2074903023
 51
135.0
  0
ARC
  5
1A5
330
1F
100
AcDbEntity
  8
0
  6
Continuous
 62
     7
370
    25
100
AcDbCircle
 10
1465.8847846314
 20
826.4803313314
 30
0.0
 40
9.500000000000021
100
AcDbArc
 50
97.1363536379
 51
119.3055163035
  0
ARC
  5
1A6
330
1F
100
AcDbEntity
  8
0
  6
Continuous
 62
     7
370
    25
100
AcDbCircle
 10
1465.8847846314
 20
826.4803313314
 30
0.0
 40
9.500000000000226
100
AcDbArc
 50
330.9207332954
 51
352.8636463614
  0
ARC
  5
1A7
330
1F
100
AcDbEntity
  8
0
  6
Continuous
 62
     7
370
    25
100
AcDbCircle
 10
1465.8847846314
 20
826.4803313314
 30
0.0
 40
9.500000000000213
100
AcDbArc
 50
278.4143802761
 51
326.7704779571
  0
ARC
  5
1A8
330
1F
100
AcDbEntity
  8
0
  6
Continuous
 62
     7
370
    25
100
AcDbCircle
 10
1465.8847846314
 20
826.4803313314
 30
0.0
 40
9.500000000000114
100
AcDbArc
 50
227.9597701309
 51
273.6029876359
  0
ARC
  5
1A9
330
1F
100
AcDbEntity
  8
0
  6
Continuous
 62
     7
370
    25
100
AcDbCircle
 10
1465.8847846314
 20
826.4803313314
 30
0.0
 40
9.500000000000078
100
AcDbArc
 50
175.395278902
 51
223.8145366814
  0
ARC
  5
1AA
330
1F
100
AcDbEntity
  8
0
  6
Continuous
 62
     7
370
    25
100
AcDbCircle
 10
1465.8847846314
 20
826.4803313314
 30
0.0
 40
9.500000000000076
100
AcDbArc
 50
135.0
 51
170.585377406
  0
ARC
  5
1AB
330
1F
100
AcDbEntity
  8
0
  6
Continuous
 62
     7
370
    25
100
AcDbCircle
 10
2108.4359199142
 20
1469.0314666142
 30
0.0
 40
9.500000000000268
100
AcDbArc
 50
304.2074903023
 51
315.0
  0
ARC
  5
1AC
330
1F
100
AcDbEntity
  8
0
  6
Continuous
 62
     7
370
    25
100
AcDbCircle
 10
2108.4359199142
 20
1469.0314666142
 30
0.0
 40
9.49999999999994
100
AcDbArc
 50
277.1363536379
 51
299.3055163034
  0
ARC
  5
1AD
330
1F
100
AcDbEntity
  8
0
  6
Continuous
 62
     7
370
    25
100
AcDbCircle
 10
2108.4359199142
 20
1469.0314666142
 30
0.0
 40
9.500000000000412
100
AcDbArc
 50
150.9207332953
 51
172.8636463614
  0
ARC
  5
1AE
330
1F
100
AcDbEntity
  8
0
  6
Continuous
 62
     7
370
    25
100
AcDbCircle
 10
2108.4359199142
 20
1469.0314666142
 30
0.0
 40
9.500000000000188
100
AcDbArc
 50
98.414380276
 51
146.7704779572
  0
ARC
  5
1AF
330
1F
100
AcDbEntity
  8
0
  6
Continuous
 62
     7
370
    25
100
AcDbCircle
 10
2108.4359199142
 20
1469.0314666142
 30
0.0
 40
9.500000000000014
100
AcDbArc
 50
47.9597701308
 51
93.602987636
  0
ARC
  5
1B0
330
1F
100
AcDbEntity
  8
0
  6
Continuous
 62
     7
370
    25
100
AcDbCircle
 10
2108.4359199142
 20
1469.0314666142
 30
0.0
 40
9.499999999999938
100
AcDbArc
 50
355.395278902
 51
43.8145366814
  0
ARC
  5
1B1
330
1F
100
AcDbEntity
  8
0
  6
Continuous
 62
     7
370
    25
100
AcDbCircle
 10
2108.4359199142
 20
1469.0314666142
 30
0.0
 40
9.500000000000272
100
AcDbArc
 50
315.0
 51
350.585377406
  0
SPLINE
  5
1B2
330
1F
100
AcDbEntity
  8
0
  6
Continuous
 62
     7
370
    25
100
AcDbSpline
210
0.0
220
0.0
230
1.0
 70
     8
 71
     3
 72
    31
 73
    27
 74
     0
 42
0.000000001
 43
0.00000001
 40
0.0
 40
0.0
 40
0.0
 40
0.0
 40
0.0441466678382051
 40
0.0886154033489253
 40
0.1340332091911619
 40
0.1797544925930162
 40
0.2246010207242779
 40
0.2697374327845608
 40
0.3158872821088735
 40
0.3624612967954952
 40
0.4188646742144088
 40
0.4470251772115928
 40
0.4758405247169809
 40
0.4938163492024394
 40
0.5122594402685743
 40
0.5302578458902604
 40
0.54882441436531
 40
0.5722038163381926
 40
0.5962306770642273
 40
0.638600115435467
 40
0.6819872536773414
 40
0.7223130450430894
 40
0.7629404599317537
 40
0.8459823030165082
 40
0.9222505624506059
 40
1.0
 40
1.0
 40
1.0
 40
1.0
 10
1470.238801975941
 20
820.3412094130952
 30
0.0
 10
1470.346341231531
 20
820.2954087103918
 30
0.0
 10
1470.562204284772
 20
820.2034731704637
 30
0.0
 10
1470.898820854475
 20
820.1174876242951
 30
0.0
 10
1471.242344137817
 20
820.0690556140015
 30
0.0
 10
1471.58779617778
 20
820.0628354440393
 30
0.0
 10
1471.930723898845
 20
820.097130217984
 30
0.0
 10
1472.271114850065
 20
820.1724633031989
 30
0.0
 10
1472.610800892261
 20
820.2922042544046
 30
0.0
 10
1472.971743772083
 20
820.4734327158865
 30
0.0
 10
1473.283728232634
 20
820.6916357010166
 30
0.0
 10
1473.547841185984
 20
820.9360419277564
 30
0.0
 10
1473.718793056508
 20
821.1281023168098
 30
0.0
 10
1473.860399259376
 20
821.3182327318643
 30
0.0
 10
1473.970795824265
 20
821.4903602983264
 30
0.0
 10
1474.070454465742
 20
821.67338874318
 30
0.0
 10
1474.162729526606
 20
821.8760987829861
 30
0.0
 10
1474.242497407919
 20
822.0963322121854
 30
0.0
 10
1474.32018245608
 20
822.3846763168523
 30
0.0
 10
1474.370774386858
 20
822.717213210502
 30
0.0
 10
1474.378711388953
 20
823.0739671079316
 30
0.0
 10
1474.346680793212
 20
823.4073254433115
 30
0.0
 10
1474.259292401985
 20
823.8266361577726
 30
0.0
 10
1474.072583157676
 20
824.301606773307
 30
0.0
 10
1473.748243995337
 20
824.8122549593546
 30
0.0
 10
1473.453745178216
 20
825.0839888551162
 30
0.0
 10
1473.305079681727
 20
825.2211624265459
 30
0.0
  0
SPLINE
  5
1B3
330
1F
100
AcDbEntity
  8
0
  6
Continuous
 62
     7
370
    25
100
AcDbSpline
210
0.0
220
0.0
230
1.0
 70
     8
 71
     3
 72
    14
 73
    10
 74
     0
 42
0.000000001
 43
0.00000001
 40
0.0
 40
0.0
 40
0.0
 40
0.0
 40
0.2207653484385771
 40
0.3402146168139649
 40
0.460570499179042
 40
0.5641909618662047
 40
0.6633542991972831
 40
0.8105247403618928
 40
1.0
 40
1.0
 40
1.0
 40
1.0
 10
1469.526805030466
 20
819.893832080879
 30
0.0
 10
1469.533765537976
 20
819.9583493769873
 30
0.0
 10
1469.544492159757
 20
820.057774976741
 30
0.0
 10
1469.627203776852
 20
820.1983864845806
 30
0.0
 10
1469.721379282999
 20
820.2916016040009
 30
0.0
 10
1469.831367253896
 20
820.3534569494955
 30
0.0
 10
1469.954410746677
 20
820.3887519479123
 30
0.0
 10
1470.100271108367
 20
820.3926163286017
 30
0.0
 10
1470.188911980911
 20
820.3597229097912
 30
0.0
 10
1470.238801975941
 20
820.341209413095
 30
0.0
  0
SPLINE
  5
1B4
330
1F
100
AcDbEntity
  8
0
  6
Continuous
 62
     7
370
    25
100
AcDbSpline
210
0.0
220
0.0
230
1.0
 70
     8
 71
     3
 72
    32
 73
    28
 74
     0
 42
0.000000001
 43
0.00000001
 40
0.0
 40
0.0
 40
0.0
 40
0.0
 40
0.0430379910819597
 40
0.0863861263482002
 40
0.1306715836239352
 40
0.1752669939041035
 40
0.2185320463381605
 40
0.2621050719941907
 40
0.3067938579277437
 40
0.3519663346175967
 40
0.3854310965017658
 40
0.4193289160971778
 40
0.4528593258451113
 40
0.4875791928901193
 40
0.5106386088136984
 40
0.5343801485774051
 40
0.5574353916329592
 40
0.5810375265201508
 40
0.6176166200902992
 40
0.6551846333990887
 40
0.7177265685357922
 40
0.781904481331939
 40
0.8252890843115686
 40
0.8689843386192327
 40
0.9136242089591339
 40
0.9585815908891959
 40
1.0
 40
1.0
 40
1.0
 40
1.0
 10
1463.799711252361
 20
819.2485435878164
 30
0.0
 10
1463.829446465068
 20
819.1406641164647
 30
0.0
 10
1463.889131171008
 20
818.9241277631571
 30
0.0
 10
1464.02424616819
 20
818.6176167692427
 30
0.0
 10
1464.191918038828
 20
818.3260015583319
 30
0.0
 10
1464.392609528827
 20
818.0567012942921
 30
0.0
 10
1464.622754146243
 20
817.812136071084
 30
0.0
 10
1464.883193372035
 20
817.5924397412095
 30
0.0
 10
1465.179036820008
 20
817.3977786477171
 30
0.0
 10
1465.484244786642
 20
817.2475682614642
 30
0.0
 10
1465.790786384323
 20
817.1383674333781
 30
0.0
 10
1466.089493220304
 20
817.0654431674461
 30
0.0
 10
1466.41752917459
 20
817.022364276697
 30
0.0
 10
1466.732685461556
 20
817.0184208455676
 30
0.0
 10
1467.021031882063
 20
817.0455303244069
 30
0.0
 10
1467.266336573992
 20
817.0902502712905
 30
0.0
 10
1467.50420273608
 20
817.1551376492164
 30
0.0
 10
1467.768744460843
 20
817.2515599463015
 30
0.0
 10
1468.050720139675
 20
817.3890435331452
 30
0.0
 10
1468.395599532521
 20
817.6111742038905
 30
0.0
 10
1468.74041061132
 20
817.9161494970076
 30
0.0
 10
1469.020405300709
 20
818.2688692556411
 30
0.0
 10
1469.216742391682
 20
818.6054386011011
 30
0.0
 10
1469.351749705111
 20
818.9128424730326
 30
0.0
 10
1469.450487546978
 20
819.2366515970842
 30
0.0
 10
1469.512625146759
 20
819.564964185916
 30
0.0
 10
1469.522209295888
 20
819.7872452013428
 30
0.0
 10
1469.526805030466
 20
819.893832080879
 30
0.0
  0
SPLINE
  5
1B5
330
1F
100
AcDbEntity
  8
0
  6
Continuous
 62
     7
370
    25
100
AcDbSpline
210
0.0
220
0.0
230
1.0
 70
     8
 71
     3
 72
    14
 73
    10
 74
     0
 42
0.000000001
 43
0.00000001
 40
0.0
 40
0.0
 40
0.0
 40
0.0
 40
0.2243030424884301
 40
0.3489011866267548
 40
0.474400135611707
 40
0.5826741857065767
 40
0.6867417687947558
 40
0.838156487169546
 40
1.0
 40
1.0
 40
1.0
 40
1.0
 10
1463.006014735034
 20
819.5262700109903
 30
0.0
 10
1463.062058738255
 20
819.5616020951561
 30
0.0
 10
1463.149234636586
 20
819.616560806169
 30
0.0
 10
1463.314676383335
 20
819.6380573538145
 30
0.0
 10
1463.449758952378
 20
819.6194289920016
 30
0.0
 10
1463.56879969206
 20
819.56739513153
 30
0.0
 10
1463.67324883977
 20
819.4875792469899
 30
0.0
 10
1463.758392081505
 20
819.3778202411597
 30
0.0
 10
1463.785635867788
 20
819.2925817080014
 30
0.0
 10
1463.799711252361
 20
819.2485435878164
 30
0.0
  0
SPLINE
  5
1B6
330
1F
100
AcDbEntity
  8
0
  6
Continuous
 62
     7
370
    25
100
AcDbSpline
210
0.0
220
0.0
230
1.0
 70
     8
 71
     3
 72
    27
 73
    23
 74
     0
 42
0.000000001
 43
0.00000001
 40
0.0
 40
0.0
 40
0.0
 40
0.0
 40
0.0854193893125075
 40
0.12924855052387
 40
0.1733927485569053
 40
0.2449111880238335
 40
0.3181761007994697
 40
0.3578246346969916
 40
0.3981318054712855
 40
0.4288131832180902
 40
0.4602403930085094
 40
0.4856097432632073
 40
0.5117065707683099
 40
0.5370818101410242
 40
0.5631224182367747
 40
0.5995872849299386
 40
0.6370631680065951
 40
0.6960736640765816
 40
0.7566512808579694
 40
0.8401548938394141
 40
0.9260592874403459
 40
1.0
 40
1.0
 40
1.0
 40
1.0
 10
1458.930723310946
 20
823.6015614350786
 30
0.0
 10
1458.806621151336
 20
823.4197776277554
 30
0.0
 10
1458.618841487075
 20
823.1447195432345
 30
0.0
 10
1458.459197853512
 20
822.7328567851556
 30
0.0
 10
1458.352648372452
 20
822.340499582816
 30
0.0
 10
1458.298520350237
 20
821.8536783104099
 30
0.0
 10
1458.339884090792
 20
821.3570767359228
 30
0.0
 10
1458.446836464932
 20
820.9333009705849
 30
0.0
 10
1458.566686967921
 20
820.6220719650333
 30
0.0
 10
1458.717894672334
 20
820.3330379861411
 30
0.0
 10
1458.880020635267
 20
820.0891941537245
 30
0.0
 10
1459.061766498517
 20
819.8678352340128
 30
0.0
 10
1459.250926134734
 20
819.676766303845
 30
0.0
 10
1459.456724565707
 20
819.5043765799643
 30
0.0
 10
1459.699906241667
 20
819.3357703445527
 30
0.0
 10
1459.982425081394
 20
819.1819278863428
 30
0.0
 10
1460.356491746134
 20
819.032703766728
 30
0.0
 10
1460.790807009612
 20
818.9303293765997
 30
0.0
 10
1461.334666049963
 20
818.895675568852
 30
0.0
 10
1461.923617279818
 20
818.9756512372647
 30
0.0
 10
1462.510438332602
 20
819.1840408402394
 30
0.0
 10
1462.849276090559
 20
819.4180313296087
 30
0.0
 10
1463.006014735034
 20
819.5262700109904
 30
0.0
  0
SPLINE
  5
1B7
330
1F
100
AcDbEntity
  8
0
  6
Continuous
 62
     7
370
    25
100
AcDbSpline
210
0.0
220
0.0
230
1.0
 70
     8
 71
     3
 72
    14
 73
    10
 74
     0
 42
0.000000001
 43
0.00000001
 40
0.0
 40
0.0
 40
0.0
 40
0.0
 40
0.2239799089306132
 40
0.3530600787851383
 40
0.4831615846561583
 40
0.5937368434045159
 40
0.6971871626483909
 40
0.8442013099709319
 40
1.0
 40
1.0
 40
1.0
 40
1.0
 10
1458.652996887773
 20
824.3952579524049
 30
0.0
 10
1458.714542301956
 20
824.3739016688087
 30
0.0
 10
1458.811556489005
 20
824.3402377066925
 30
0.0
 10
1458.932304437899
 20
824.2247579909164
 30
0.0
 10
1459.00366185042
 20
824.1045866022604
 30
0.0
 10
1459.03686693925
 20
823.975948269639
 30
0.0
 10
1459.03800061322
 20
823.8444017017116
 30
0.0
 10
1459.004539197583
 20
823.7117922778658
 30
0.0
 10
1458.955799912284
 20
823.6390088603649
 30
0.0
 10
1458.930723310946
 20
823.6015614350786
 30
0.0
  0
SPLINE
  5
1B8
330
1F
100
AcDbEntity
  8
0
  6
Continuous
 62
     7
370
    25
100
AcDbSpline
210
0.0
220
0.0
230
1.0
 70
     8
 71
     3
 72
    30
 73
    26
 74
     0
 42
0.000000001
 43
0.00000001
 40
0.0
 40
0.0
 40
0.0
 40
0.0
 40
0.0436326703263179
 40
0.0875749781500507
 40
0.1324697918177376
 40
0.177687909758967
 40
0.2471697669172388
 40
0.3182319002770966
 40
0.3543746168326026
 40
0.3910547066027251
 40
0.4195535900770259
 40
0.4487399260949119
 40
0.471854963384009
 40
0.4956323239076498
 40
0.5187532378092586
 40
0.5424776768489704
 40
0.5764529707070526
 40
0.6113599295178228
 40
0.6689630945504121
 40
0.7280598292433287
 40
0.7705504599328676
 40
0.813351037252165
 40
0.9010083644128202
 40
0.9502779135835154
 40
1.0
 40
1.0
 40
1.0
 40
1.0
 10
1459.298285380836
 20
830.1223517305104
 30
0.0
 10
1459.186032219929
 20
830.1173378250091
 30
0.0
 10
1458.960729298056
 20
830.107274433027
 30
0.0
 10
1458.6291988749
 20
830.042978375322
 30
0.0
 10
1458.303907831485
 20
829.9425812360993
 30
0.0
 10
1457.932322747216
 20
829.7768155821605
 30
0.0
 10
1457.526369422554
 20
829.516978467325
 30
0.0
 10
1457.178200139552
 20
829.1867672272022
 30
0.0
 10
1456.925899566316
 20
828.8579883928969
 30
0.0
 10
1456.766096310284
 20
828.5935988538291
 30
0.0
 10
1456.636971456802
 20
828.317407370207
 30
0.0
 10
1456.54555547578
 20
828.0576828568953
 30
0.0
 10
1456.480803241009
 20
827.7973960695922
 30
0.0
 10
1456.441601343463
 20
827.5503040833751
 30
0.0
 10
1456.42397502994
 20
827.3012423629133
 30
0.0
 10
1456.427858687917
 20
827.0238839408397
 30
0.0
 10
1456.462677227092
 20
826.7231029436628
 30
0.0
 10
1456.550248929294
 20
826.3453164202951
 30
0.0
 10
1456.707573153552
 20
825.9413651617543
 30
0.0
 10
1456.926241116259
 20
825.5734845619786
 30
0.0
 10
1457.160429756434
 20
825.2796701034619
 30
0.0
 10
1457.473768792532
 20
824.9665142013533
 30
0.0
 10
1457.849133892772
 20
824.7038725326262
 30
0.0
 10
1458.280982886934
 20
824.49992517135
 30
0.0
 10
1458.528614873466
 20
824.4302531931618
 30
0.0
 10
1458.652996887773
 20
824.3952579524049
 30
0.0
  0
SPLINE
  5
1B9
330
1F
100
AcDbEntity
  8
0
  6
Continuous
 62
     7
370
    25
100
AcDbSpline
210
0.0
220
0.0
230
1.0
 70
     8
 71
     3
 72
    14
 73
    10
 74
     0
 42
0.000000001
 43
0.00000001
 40
0.0
 40
0.0
 40
0.0
 40
0.0
 40
0.2200911109486809
 40
0.3501199592092303
 40
0.4590676183977576
 40
0.5685351145661212
 40
0.6668402217391085
 40
0.7968948941937034
 40
1.0
 40
1.0
 40
1.0
 40
1.0
 10
1459.745662713052
 20
830.8343486759848
 30
0.0
 10
1459.766709111467
 20
830.7756229305518
 30
0.0
 10
1459.800189628344
 20
830.6822022762287
 30
0.0
 10
1459.788929343863
 20
830.5263146590504
 30
0.0
 10
1459.748194776784
 20
830.4031700294993
 30
0.0
 10
1459.680284655493
 20
830.2985661186476
 30
0.0
 10
1459.586786318564
 20
830.2115193227859
 30
0.0
 10
1459.454080082395
 20
830.1380308818942
 30
0.0
 10
1459.357291107827
 20
830.1282900565045
 30
0.0
 10
1459.298285380836
 20
830.1223517305103
 30
0.0
  0
SPLINE
  5
1BA
330
1F
100
AcDbEntity
  8
0
  6
Continuous
 62
     7
370
    25
100
AcDbSpline
210
0.0
220
0.0
230
1.0
 70
     8
 71
     3
 72
    32
 73
    28
 74
     0
 42
0.000000001
 43
0.00000001
 40
0.0
 40
0.0
 40
0.0
 40
0.0
 40
0.0453942490664593
 40
0.0911149500211671
 40
0.1378156604218372
 40
0.1848384153738291
 40
0.2588911921182535
 40
0.2966281930596079
 40
0.3346227841547532
 40
0.3627380257352124
 40
0.3910884026637674
 40
0.4192466010957411
 40
0.4481819119438877
 40
0.465825477102067
 40
0.4839564361058553
 40
0.5016138628025537
 40
0.5197789833318565
 40
0.5448703289759617
 40
0.5706414417831761
 40
0.6177923775613928
 40
0.6660664783496301
 40
0.7088271620555663
 40
0.7519045224538984
 40
0.7958661863085486
 40
0.840099177263378
 40
0.9191874857499359
 40
0.9999999999999999
 40
0.9999999999999999
 40
0.9999999999999999
 40
0.9999999999999999
 10
1464.625615726502
 20
833.9006263817705
 30
0.0
 10
1464.547581936614
 20
833.9896424148515
 30
0.0
 10
1464.390953178305
 20
834.1683146381409
 30
0.0
 10
1464.119835755809
 20
834.3950440399138
 30
0.0
 10
1463.824160615428
 20
834.5905384627273
 30
0.0
 10
1463.442306104494
 20
834.7793584428135
 30
0.0
 10
1463.052274757911
 20
834.9010138218393
 30
0.0
 10
1462.660304693417
 20
834.9606144244481
 30
0.0
 10
1462.375614679277
 20
834.9737692161648
 30
0.0
 10
1462.104631878424
 20
834.9601990918178
 30
0.0
 10
1461.850815148714
 20
834.9255750314547
 30
0.0
 10
1461.581617340597
 20
834.8636213562272
 30
0.0
 10
1461.333641322725
 20
834.7800360283622
 30
0.0
 10
1461.115031424484
 20
834.6840826164805
 30
0.0
 10
1460.936079847542
 20
834.5902229269257
 30
0.0
 10
1460.762909073519
 20
834.4832133345661
 30
0.0
 10
1460.581260920925
 20
834.3527534695519
 30
0.0
 10
1460.397730367316
 20
834.1969050737558
 30
0.0
 10
1460.17397800357
 20
833.9699208765534
 30
0.0
 10
1459.952570732369
 20
833.6833764433728
 30
0.0
 10
1459.763175227848
 20
833.3512484249155
 30
0.0
 10
1459.627261393523
 20
833.0232214497057
 30
0.0
 10
1459.53550689446
 20
832.7009292813715
 30
0.0
 10
1459.481083123479
 20
832.3707897680474
 30
0.0
 10
1459.462016626652
 20
831.9471090306174
 30
0.0
 10
1459.513943540919
 20
831.4257879398342
 30
0.0
 10
1459.667869728523
 20
831.0329072375345
 30
0.0
 10
1459.745662713052
 20
830.8343486759848
 30
0.0
  0
SPLINE
  5
1BB
330
1F
100
AcDbEntity
  8
0
  6
Continuous
 62
     7
370
    25
100
AcDbSpline
210
0.0
220
0.0
230
1.0
 70
     8
 71
     3
 72
    15
 73
    11
 74
     0
 42
0.000000001
 43
0.00000001
 40
0.0
 40
0.0
 40
0.0
 40
0.0
 40
0.2150763736126773
 40
0.341334992697864
 40
0.4465934903529866
 40
0.5524796219273499
 40
0.644907062172701
 40
0.766214653902387
 40
0.9406316560516346
 40
1.0
 40
1.0
 40
1.0
 40
1.0
 10
1465.461212558114
 20
833.9947755333593
 30
0.0
 10
1465.429993405645
 20
833.943715370622
 30
0.0
 10
1465.380447335097
 20
833.8626808060985
 30
0.0
 10
1465.257577248599
 20
833.7747418076884
 30
0.0
 10
1465.140095300457
 20
833.7276755652922
 30
0.0
 10
1465.019025773863
 20
833.7119637172424
 30
0.0
 10
1464.895539276878
 20
833.7256239318685
 30
0.0
 10
1464.766288052178
 20
833.7734318826004
 30
0.0
 10
1464.678496484315
 20
833.8395763007321
 30
0.0
 10
1464.63632493169
 20
833.88826275705
 30
0.0
 10
1464.625615726502
 20
833.9006263817705
 30
0.0
  0
SPLINE
  5
1BC
330
1F
100
AcDbEntity
  8
0
  6
Continuous
 62
     7
370
    25
100
AcDbSpline
210
0.0
220
0.0
230
1.0
 70
     8
 71
     3
 72
    31
 73
    27
 74
     0
 42
0.000000001
 43
0.00000001
 40
0.0
 40
0.0
 40
0.0
 40
0.0
 40
0.0454607206422262
 40
0.0912523105000947
 40
0.1380039939419782
 40
0.1850569766220879
 40
0.2317313313269206
 40
0.2786919429616939
 40
0.3266509708000426
 40
0.3750383523003424
 40
0.4232178410751241
 40
0.4431544024001584
 40
0.4635003413749866
 40
0.4878952774620318
 40
0.5124044001519359
 40
0.5281393563613838
 40
0.5443042883322717
 40
0.5755932948345777
 40
0.6075644629398392
 40
0.6453921417979329
 40
0.6834895881007628
 40
0.7611220761218679
 40
0.8468999539818465
 40
0.8906330087990969
 40
0.9346232009734232
 40
1.0
 40
1.0
 40
1.0
 40
1.0
 10
1470.901125939925
 20
832.0912675137037
 30
0.0
 10
1470.922664659998
 20
832.212112578677
 30
0.0
 10
1470.965898861834
 20
832.4546822351977
 30
0.0
 10
1470.971838518015
 20
832.8177678202399
 30
0.0
 10
1470.936410230999
 20
833.1772330596336
 30
0.0
 10
1470.856128746022
 20
833.527809939897
 30
0.0
 10
1470.733941445303
 20
833.8651036605179
 30
0.0
 10
1470.569264091362
 20
834.188692718018
 30
0.0
 10
1470.358765433569
 20
834.4986302821598
 30
0.0
 10
1470.096627651719
 20
834.7927040964038
 30
0.0
 10
1469.833667781503
 20
835.0164145313232
 30
0.0
 10
1469.590124559613
 20
835.1793175658769
 30
0.0
 10
1469.387811309243
 20
835.2946907121878
 30
0.0
 10
1469.136511636289
 20
835.4102757178988
 30
0.0
 10
1468.884486458228
 20
835.495090436738
 30
0.0
 10
1468.676833213122
 20
835.5464267976844
 30
0.0
 10
1468.456759811526
 20
835.5870063552802
 30
0.0
 10
1468.202505918912
 20
835.6116377335542
 30
0.0
 10
1467.905603006973
 20
835.610972406578
 30
0.0
 10
1467.609544710593
 20
835.5799282930072
 30
0.0
 10
1467.211804547918
 20
835.4953257354804
 30
0.0
 10
1466.728061672693
 20
835.3098627573079
 30
0.0
 10
1466.283621294627
 20
835.0198920849384
 30
0.0
 10
1465.956353973236
 20
834.7132079806125
 30
0.0
 10
1465.693839492914
 20
834.4085242660486
 30
0.0
 10
1465.548245146481
 20
834.1495711212845
 30
0.0
 10
1465.461212558114
 20
833.9947755333593
 30
0.0
  0
SPLINE
  5
1BD
330
1F
100
AcDbEntity
  8
0
  6
Continuous
 62
     7
370
    25
100
AcDbSpline
210
0.0
220
0.0
230
1.0
 70
     8
 71
     3
 72
    15
 73
    11
 74
     0
 42
0.000000001
 43
0.00000001
 40
0.0
 40
0.0
 40
0.0
 40
0.0
 40
0.2129294053203105
 40
0.3333107283177046
 40
0.4345062010026958
 40
0.5362836886507508
 40
0.6256367151021854
 40
0.7456368547567734
 40
0.9211927176880736
 40
1.0
 40
1.0
 40
1.0
 40
1.0
 10
1471.49572081366
 20
831.496672639968
 30
0.0
 10
1471.436679740745
 20
831.4891993197297
 30
0.0
 10
1471.3442593304
 20
831.4775008988008
 30
0.0
 10
1471.200779357336
 20
831.5173433251878
 30
0.0
 10
1471.093114822905
 20
831.5767802996388
 30
0.0
 10
1471.006170856326
 20
831.6577687034838
 30
0.0
 10
1470.938641517358
 20
831.7589937081153
 30
0.0
 10
1470.892041169038
 20
831.8875851064873
 30
0.0
 10
1470.885381819699
 20
832.0026097251797
 30
0.0
 10
1470.897401865923
 20
832.0702966267596
 30
0.0
 10
1470.901125939925
 20
832.0912675137037
 30
0.0
  0
SPLINE
  5
1BE
330
1F
100
AcDbEntity
  8
0
  6
Continuous
 62
     7
370
    25
100
AcDbSpline
210
0.0
220
0.0
230
1.0
 70
     8
 71
     3
 72
    32
 73
    28
 74
     0
 42
0.000000001
 43
0.00000001
 40
0.0
 40
0.0
 40
0.0
 40
0.0
 40
0.0447120024448324
 40
0.0897510683881184
 40
0.1357337494830721
 40
0.1820101047170987
 40
0.2279866507550044
 40
0.2742348602616627
 40
0.3213887139528272
 40
0.3688999197495226
 40
0.4236598558301531
 40
0.4510230069928865
 40
0.4792153189811402
 40
0.5037509674809486
 40
0.5283882607504861
 40
0.544570426313259
 40
0.5611899076196738
 40
0.6013390629672151
 40
0.6426114615938092
 40
0.6855038326376897
 40
0.7287054836939747
 40
0.7727266257640004
 40
0.8169894777562816
 40
0.8620202251363114
 40
0.9073149340905196
 40
0.9534905366767346
 40
0.9999999999999999
 40
0.9999999999999999
 40
0.9999999999999999
 40
0.9999999999999999
 10
1473.399228833317
 20
826.0567592581581
 30
0.0
 10
1473.506265004119
 20
826.114752465306
 30
0.0
 10
1473.721120303825
 20
826.2311630936872
 30
0.0
 10
1474.00624505721
 20
826.45026951915
 30
0.0
 10
1474.263010922936
 20
826.6985346107942
 30
0.0
 10
1474.485403797541
 20
826.9753298182751
 30
0.0
 10
1474.671922283883
 20
827.2754389442543
 30
0.0
 10
1474.821952040605
 20
827.5984486719012
 30
0.0
 10
1474.93381450698
 20
827.9456244064723
 30
0.0
 10
1475.0068075517
 20
828.3377296126453
 30
0.0
 10
1475.022735167715
 20
828.7071888519724
 30
0.0
 10
1474.991679148115
 20
829.0570619261097
 30
0.0
 10
1474.939636664204
 20
829.3374464874436
 30
0.0
 10
1474.851314361385
 20
829.6350828975186
 30
0.0
 10
1474.747925325318
 20
829.8825088880378
 30
0.0
 10
1474.648319637624
 20
830.0744675786854
 30
0.0
 10
1474.51674504911
 20
830.2940031542087
 30
0.0
 10
1474.332477238413
 20
830.5402732686724
 30
0.0
 10
1474.088056978396
 20
830.79493664998
 30
0.0
 10
1473.823795787801
 20
831.0118128688343
 30
0.0
 10
1473.539093889002
 20
831.1945930550003
 30
0.0
 10
1473.236666528153
 20
831.342626317912
 30
0.0
 10
1472.916098549648
 20
831.4556766428119
 30
0.0
 10
1472.579977315477
 20
831.5316762852138
 30
0.0
 10
1472.228642275756
 20
831.566962265894
 30
0.0
 10
1471.865755526096
 20
831.562314029394
 30
0.0
 10
1471.619361562914
 20
831.5186055838188
 30
0.0
 10
1471.49572081366
 20
831.496672639968
 30
0.0
  0
SPLINE
  5
1BF
330
1F
100
AcDbEntity
  8
0
  6
Continuous
 62
     7
370
    25
100
AcDbSpline
210
0.0
220
0.0
230
1.0
 70
     8
 71
     3
 72
    15
 73
    11
 74
     0
 42
0.000000001
 43
0.00000001
 40
0.0
 40
0.0
 40
0.0
 40
0.0
 40
0.2155767705933719
 40
0.3329005538677625
 40
0.4328760582230801
 40
0.5332634977246437
 40
0.6250838127945572
 40
0.7535547096888393
 40
0.9421338378891994
 40
1.0
 40
1.0
 40
1.0
 40
1.0
 10
1473.305079681727
 20
825.2211624265459
 30
0.0
 10
1473.260898743724
 20
825.2644219754857
 30
0.0
 10
1473.192673124185
 20
825.3312247565207
 30
0.0
 10
1473.135293905388
 20
825.471818279004
 30
0.0
 10
1473.116579182958
 20
825.5922990941566
 30
0.0
 10
1473.12687989009
 20
825.7092270281308
 30
0.0
 10
1473.16517178744
 20
825.8259072049453
 30
0.0
 10
1473.241060546526
 20
825.945720892431
 30
0.0
 10
1473.327087186722
 20
826.0184445654905
 30
0.0
 10
1473.385510781684
 20
826.0494735507045
 30
0.0
 10
1473.399228833317
 20
826.0567592581581
 30
0.0
  0
SPLINE
  5
1C0
330
1F
100
AcDbEntity
  8
0
  6
Continuous
 62
     7
370
    25
100
AcDbSpline
210
0.0
220
0.0
230
1.0
 70
     8
 71
     3
 72
    31
 73
    27
 74
     0
 42
0.000000001
 43
0.00000001
 40
0.0
 40
0.0
 40
0.0
 40
0.0
 40
0.0441466678382021
 40
0.0886154033489257
 40
0.1340332091911592
 40
0.1797544925930137
 40
0.2246010207242755
 40
0.2697374327845586
 40
0.3158872821088714
 40
0.3624612967954933
 40
0.4188646742144072
 40
0.4470251772115943
 40
0.4758405247169795
 40
0.4938163492024381
 40
0.5122594402685756
 40
0.5302578458902661
 40
0.5488244143653095
 40
0.5722038163381937
 40
0.5962306770642273
 40
0.6386001154354711
 40
0.6819872536773456
 40
0.7223130450430898
 40
0.7629404599317552
 40
0.84598230301651
 40
0.9222505624506117
 40
1.0
 40
1.0
 40
1.0
 40
1.0
 10
2114.57504183254
 20
830.8343486759346
 30
0.0
 10
2114.620842535244
 20
830.9418879315247
 30
0.0
 10
2114.712778075172
 20
831.1577509847654
 30
0.0
 10
2114.79876362134
 20
831.4943675544687
 30
0.0
 10
2114.847195631634
 20
831.8378908378108
 30
0.0
 10
2114.853415801596
 20
832.1833428777738
 30
0.0
 10
2114.819121027651
 20
832.5262705988381
 30
0.0
 10
2114.743787942436
 20
832.8666615500589
 30
0.0
 10
2114.624046991231
 20
833.2063475922542
 30
0.0
 10
2114.442818529749
 20
833.5672904720765
 30
0.0
 10
2114.224615544618
 20
833.8792749326275
 30
0.0
 10
2113.980209317879
 20
834.1433878859782
 30
0.0
 10
2113.788148928826
 20
834.3143397565017
 30
0.0
 10
2113.598018513771
 20
834.4559459593689
 30
0.0
 10
2113.425890947309
 20
834.5663425242584
 30
0.0
 10
2113.242862502455
 20
834.6660011657358
 30
0.0
 10
2113.04015246265
 20
834.7582762265998
 30
0.0
 10
2112.81991903345
 20
834.8380441079125
 30
0.0
 10
2112.531574928783
 20
834.9157291560739
 30
0.0
 10
2112.199038035133
 20
834.966321086851
 30
0.0
 10
2111.842284137704
 20
834.9742580889466
 30
0.0
 10
2111.508925802324
 20
834.9422274932059
 30
0.0
 10
2111.089615087863
 20
834.8548391019784
 30
0.0
 10
2110.614644472328
 20
834.6681298576692
 30
0.0
 10
2110.103996286281
 20
834.3437906953305
 30
0.0
 10
2109.832262390519
 20
834.0492918782097
 30
0.0
 10
2109.69508881909
 20
833.9006263817209
 30
0.0
  0
SPLINE
  5
1C1
330
1F
100
AcDbEntity
  8
0
  6
Continuous
 62
     7
370
    25
100
AcDbSpline
210
0.0
220
0.0
230
1.0
 70
     8
 71
     3
 72
    14
 73
    10
 74
     0
 42
0.000000001
 43
0.00000001
 40
0.0
 40
0.0
 40
0.0
 40
0.0
 40
0.2207653484385674
 40
0.3402146168139767
 40
0.460570499179053
 40
0.564190961866173
 40
0.6633542991972508
 40
0.8105247403618594
 40
1.0
 40
1.0
 40
1.0
 40
1.0
 10
2115.022419164757
 20
830.12235173046
 30
0.0
 10
2114.957901868648
 20
830.1293122379692
 30
0.0
 10
2114.858476268894
 20
830.1400388597502
 30
0.0
 10
2114.717864761054
 20
830.2227504768456
 30
0.0
 10
2114.624649641634
 20
830.3169259829921
 30
0.0
 10
2114.56279429614
 20
830.4269139538898
 30
0.0
 10
2114.527499297723
 20
830.5499574466709
 30
0.0
 10
2114.523634917033
 20
830.69581780836
 30
0.0
 10
2114.556528335844
 20
830.7844586809045
 30
0.0
 10
2114.57504183254
 20
830.8343486759346
 30
0.0
  0
SPLINE
  5
1C2
330
1F
100
AcDbEntity
  8
0
  6
Continuous
 62
     7
370
    25
100
AcDbSpline
210
0.0
220
0.0
230
1.0
 70
     8
 71
     3
 72
    32
 73
    28
 74
     0
 42
0.000000001
 43
0.00000001
 40
0.0
 40
0.0
 40
0.0
 40
0.0
 40
0.0430379910819608
 40
0.0863861263482013
 40
0.1306715836239344
 40
0.1752669939041049
 40
0.2185320463381593
 40
0.2621050719941924
 40
0.3067938579277422
 40
0.3519663346175952
 40
0.3854310965017652
 40
0.4193289160971738
 40
0.4528593258451136
 40
0.4875791928901166
 40
0.5106386088137007
 40
0.5343801485774075
 40
0.5574353916329566
 40
0.5810375265201528
 40
0.6176166200902969
 40
0.6551846333990902
 40
0.7177265685357936
 40
0.7819044813319379
 40
0.8252890843115692
 40
0.868984338619232
 40
0.9136242089591332
 40
0.9585815908891957
 40
0.9999999999999999
 40
0.9999999999999999
 40
0.9999999999999999
 40
0.9999999999999999
 10
2115.667707657818
 20
824.3952579523543
 30
0.0
 10
2115.775587129171
 20
824.424993165062
 30
0.0
 10
2115.992123482478
 20
824.4846778710015
 30
0.0
 10
2116.298634476393
 20
824.6197928681831
 30
0.0
 10
2116.590249687304
 20
824.7874647388218
 30
0.0
 10
2116.859549951343
 20
824.9881562288208
 30
0.0
 10
2117.104115174551
 20
825.2183008462366
 30
0.0
 10
2117.323811504426
 20
825.4787400720282
 30
0.0
 10
2117.518472597918
 20
825.7745835200017
 30
0.0
 10
2117.668682984171
 20
826.0797914866355
 30
0.0
 10
2117.777883812257
 20
826.386333084317
 30
0.0
 10
2117.850808078189
 20
826.6850399202975
 30
0.0
 10
2117.893886968938
 20
827.0130758745835
 30
0.0
 10
2117.897830400068
 20
827.3282321615499
 30
0.0
 10
2117.870720921228
 20
827.616578582057
 30
0.0
 10
2117.826000974344
 20
827.8618832739857
 30
0.0
 10
2117.761113596419
 20
828.0997494360732
 30
0.0
 10
2117.664691299334
 20
828.3642911608371
 30
0.0
 10
2117.52720771249
 20
828.6462668396683
 30
0.0
 10
2117.305077041745
 20
828.9911462325142
 30
0.0
 10
2117.000101748627
 20
829.3359573113135
 30
0.0
 10
2116.647381989994
 20
829.6159520007029
 30
0.0
 10
2116.310812644535
 20
829.812289091676
 30
0.0
 10
2116.003408772603
 20
829.9472964051048
 30
0.0
 10
2115.679599648551
 20
830.0460342469719
 30
0.0
 10
2115.351287059719
 20
830.1081718467524
 30
0.0
 10
2115.129006044293
 20
830.1177559958818
 30
0.0
 10
2115.022419164756
 20
830.1223517304601
 30
0.0
  0
SPLINE
  5
1C3
330
1F
100
AcDbEntity
  8
0
  6
Continuous
 62
     7
370
    25
100
AcDbSpline
210
0.0
220
0.0
230
1.0
 70
     8
 71
     3
 72
    14
 73
    10
 74
     0
 42
0.000000001
 43
0.00000001
 40
0.0
 40
0.0
 40
0.0
 40
0.0
 40
0.2243030424883998
 40
0.3489011866267715
 40
0.4744001356116787
 40
0.5826741857065955
 40
0.6867417687947769
 40
0.8381564871695776
 40
0.9999999999999999
 40
0.9999999999999999
 40
0.9999999999999999
 40
0.9999999999999999
 10
2115.389981234645
 20
823.6015614350279
 30
0.0
 10
2115.354649150479
 20
823.6576054382491
 30
0.0
 10
2115.299690439466
 20
823.7447813365796
 30
0.0
 10
2115.278193891821
 20
823.9102230833286
 30
0.0
 10
2115.296822253634
 20
824.0453056523714
 30
0.0
 10
2115.348856114105
 20
824.1643463920534
 30
0.0
 10
2115.428671998645
 20
824.2687955397633
 30
0.0
 10
2115.538431004476
 20
824.3539387814986
 30
0.0
 10
2115.623669537634
 20
824.3811825677815
 30
0.0
 10
2115.667707657818
 20
824.3952579523543
 30
0.0
  0
SPLINE
  5
1C4
330
1F
100
AcDbEntity
  8
0
  6
Continuous
 62
     7
370
    25
100
AcDbSpline
210
0.0
220
0.0
230
1.0
 70
     8
 71
     3
 72
    27
 73
    23
 74
     0
 42
0.000000001
 43
0.00000001
 40
0.0
 40
0.0
 40
0.0
 40
0.0
 40
0.0854193893125095
 40
0.1292485505238684
 40
0.1733927485569027
 40
0.2449111880238354
 40
0.3181761007994678
 40
0.3578246346969887
 40
0.3981318054712886
 40
0.428813183218089
 40
0.4602403930085053
 40
0.4856097432632066
 40
0.5117065707683092
 40
0.5370818101410235
 40
0.5631224182367727
 40
0.5995872849299367
 40
0.6370631680065914
 40
0.6960736640765779
 40
0.7566512808579698
 40
0.8401548938394106
 40
0.9260592874403459
 40
1.0
 40
1.0
 40
1.0
 40
1.0
 10
2111.314689810557
 20
819.5262700109398
 30
0.0
 10
2111.49647361788
 20
819.4021678513295
 30
0.0
 10
2111.771531702401
 20
819.2143881870683
 30
0.0
 10
2112.18339446048
 20
819.0547445535049
 30
0.0
 10
2112.575751662819
 20
818.948195072446
 30
0.0
 10
2113.062572935225
 20
818.8940670502308
 30
0.0
 10
2113.559174509713
 20
818.9354307907859
 30
0.0
 10
2113.98295027505
 20
819.0423831649262
 30
0.0
 10
2114.294179280602
 20
819.1622336679144
 30
0.0
 10
2114.583213259494
 20
819.3134413723279
 30
0.0
 10
2114.827057091911
 20
819.4755673352606
 30
0.0
 10
2115.048416011623
 20
819.6573131985102
 30
0.0
 10
2115.23948494179
 20
819.8464728347282
 30
0.0
 10
2115.411874665671
 20
820.0522712656999
 30
0.0
 10
2115.580480901083
 20
820.2954529416603
 30
0.0
 10
2115.734323359293
 20
820.5779717813872
 30
0.0
 10
2115.883547478907
 20
820.9520384461283
 30
0.0
 10
2115.985921869036
 20
821.3863537096055
 30
0.0
 10
2116.020575676783
 20
821.9302127499566
 30
0.0
 10
2115.94060000837
 20
822.519163979812
 30
0.0
 10
2115.732210405396
 20
823.105985032595
 30
0.0
 10
2115.498219916027
 20
823.444822790553
 30
0.0
 10
2115.389981234645
 20
823.6015614350279
 30
0.0
  0
SPLINE
  5
1C5
330
1F
100
AcDbEntity
  8
0
  6
Continuous
 62
     7
370
    25
100
AcDbSpline
210
0.0
220
0.0
230
1.0
 70
     8
 71
     3
 72
    14
 73
    10
 74
     0
 42
0.000000001
 43
0.00000001
 40
0.0
 40
0.0
 40
0.0
 40
0.0
 40
0.223979908930613
 40
0.3530600787851074
 40
0.4831615846561514
 40
0.5937368434045438
 40
0.6971871626484187
 40
0.8442013099709181
 40
1.0
 40
1.0
 40
1.0
 40
1.0
 10
2110.52099329323
 20
819.248543587766
 30
0.0
 10
2110.542349576826
 20
819.310089001949
 30
0.0
 10
2110.576013538943
 20
819.4071031889983
 30
0.0
 10
2110.691493254719
 20
819.5278511378924
 30
0.0
 10
2110.811664643375
 20
819.5992085504139
 30
0.0
 10
2110.940302975996
 20
819.6324136392439
 30
0.0
 10
2111.071849543924
 20
819.6335473132137
 30
0.0
 10
2111.204458967769
 20
819.6000858975759
 30
0.0
 10
2111.27724238527
 20
819.5513466122779
 30
0.0
 10
2111.314689810557
 20
819.5262700109397
 30
0.0
  0
SPLINE
  5
1C6
330
1F
100
AcDbEntity
  8
0
  6
Continuous
 62
     7
370
    25
100
AcDbSpline
210
0.0
220
0.0
230
1.0
 70
     8
 71
     3
 72
    30
 73
    26
 74
     0
 42
0.000000001
 43
0.00000001
 40
0.0
 40
0.0
 40
0.0
 40
0.0
 40
0.0436326703263218
 40
0.0875749781500536
 40
0.1324697918177404
 40
0.1776879097589696
 40
0.2471697669172411
 40
0.3182319002770987
 40
0.3543746168326045
 40
0.3910547066027307
 40
0.419553590077027
 40
0.4487399260949176
 40
0.4718549633840096
 40
0.4956323239076546
 40
0.5187532378092586
 40
0.5424776768489703
 40
0.5764529707070503
 40
0.6113599295178213
 40
0.6689630945504159
 40
0.7280598292433287
 40
0.7705504599328674
 40
0.8133510372521672
 40
0.9010083644128211
 40
0.9502779135835145
 40
1.0
 40
1.0
 40
1.0
 40
1.0
 10
2104.793899515125
 20
819.8938320808295
 30
0.0
 10
2104.798913420626
 20
819.781578919923
 30
0.0
 10
2104.808976812608
 20
819.5562759980494
 30
0.0
 10
2104.873272870313
 20
819.2247455748933
 30
0.0
 10
2104.973670009536
 20
818.8994545314781
 30
0.0
 10
2105.139435663475
 20
818.5278694472097
 30
0.0
 10
2105.39927277831
 20
818.1219161225479
 30
0.0
 10
2105.729484018433
 20
817.7737468395453
 30
0.0
 10
2106.058262852739
 20
817.5214462663095
 30
0.0
 10
2106.322652391807
 20
817.361643010277
 30
0.0
 10
2106.598843875428
 20
817.2325181567951
 30
0.0
 10
2106.85856838874
 20
817.1411021757734
 30
0.0
 10
2107.118855176043
 20
817.076349941002
 30
0.0
 10
2107.36594716226
 20
817.037148043457
 30
0.0
 10
2107.615008882722
 20
817.019521729934
 30
0.0
 10
2107.892367304796
 20
817.0234053879104
 30
0.0
 10
2108.193148301973
 20
817.0582239270857
 30
0.0
 10
2108.57093482534
 20
817.1457956292875
 30
0.0
 10
2108.974886083881
 20
817.3031198535451
 30
0.0
 10
2109.342766683656
 20
817.5217878162531
 30
0.0
 10
2109.636581142174
 20
817.7559764564273
 30
0.0
 10
2109.949737044281
 20
818.069315492526
 30
0.0
 10
2110.212378713009
 20
818.444680592766
 30
0.0
 10
2110.416326074285
 20
818.8765295869279
 30
0.0
 10
2110.485998052473
 20
819.1241615734596
 30
0.0
 10
2110.52099329323
 20
819.248543587766
 30
0.0
  0
SPLINE
  5
1C7
330
1F
100
AcDbEntity
  8
0
  6
Continuous
 62
     7
370
    25
100
AcDbSpline
210
0.0
220
0.0
230
1.0
 70
     8
 71
     3
 72
    14
 73
    10
 74
     0
 42
0.000000001
 43
0.00000001
 40
0.0
 40
0.0
 40
0.0
 40
0.0
 40
0.2200911109486864
 40
0.350119959209281
 40
0.4590676183977672
 40
0.5685351145661335
 40
0.6668402217391233
 40
0.7968948941937426
 40
1.0
 40
1.0
 40
1.0
 40
1.0
 10
2104.08190256965
 20
820.3412094130452
 30
0.0
 10
2104.140628315084
 20
820.3622558114605
 30
0.0
 10
2104.234048969406
 20
820.3957363283382
 30
0.0
 10
2104.389936586585
 20
820.3844760438565
 30
0.0
 10
2104.513081216136
 20
820.3437414767775
 30
0.0
 10
2104.617685126988
 20
820.2758313554866
 30
0.0
 10
2104.70473192285
 20
820.1823330185574
 30
0.0
 10
2104.778220363741
 20
820.049626782388
 30
0.0
 10
2104.787961189131
 20
819.9528378078204
 30
0.0
 10
2104.793899515125
 20
819.8938320808295
 30
0.0
  0
SPLINE
  5
1C8
330
1F
100
AcDbEntity
  8
0
  6
Continuous
 62
     7
370
    25
100
AcDbSpline
210
0.0
220
0.0
230
1.0
 70
     8
 71
     3
 72
    32
 73
    28
 74
     0
 42
0.000000001
 43
0.00000001
 40
0.0
 40
0.0
 40
0.0
 40
0.0
 40
0.0453942490664629
 40
0.0911149500211707
 40
0.1378156604218373
 40
0.1848384153738292
 40
0.2588911921182537
 40
0.2966281930596081
 40
0.3346227841547534
 40
0.3627380257352126
 40
0.3910884026637683
 40
0.4192466010957409
 40
0.448181911943889
 40
0.4658254771020664
 40
0.4839564361058548
 40
0.5016138628025532
 40
0.519778983331856
 40
0.5448703289759611
 40
0.5706414417831757
 40
0.6177923775613924
 40
0.6660664783496297
 40
0.7088271620555661
 40
0.7519045224539014
 40
0.7958661863085484
 40
0.8400991772633779
 40
0.9191874857499359
 40
1.0
 40
1.0
 40
1.0
 40
1.0
 10
2101.015624863865
 20
825.2211624264959
 30
0.0
 10
2100.926608830784
 20
825.1431286366075
 30
0.0
 10
2100.747936607494
 20
824.9864998782988
 30
0.0
 10
2100.521207205721
 20
824.7153824558033
 30
0.0
 10
2100.325712782908
 20
824.4197073154213
 30
0.0
 10
2100.136892802821
 20
824.0378528044876
 30
0.0
 10
2100.015237423796
 20
823.6478214579041
 30
0.0
 10
2099.955636821187
 20
823.2558513934108
 30
0.0
 10
2099.94248202947
 20
822.9711613792706
 30
0.0
 10
2099.956052153817
 20
822.7001785784178
 30
0.0
 10
2099.99067621418
 20
822.4463618487082
 30
0.0
 10
2100.052629889408
 20
822.1771640405909
 30
0.0
 10
2100.136215217273
 20
821.9291880227186
 30
0.0
 10
2100.232168629154
 20
821.7105781244777
 30
0.0
 10
2100.32602831871
 20
821.5316265475357
 30
0.0
 10
2100.433037911069
 20
821.3584557735121
 30
0.0
 10
2100.563497776083
 20
821.1768076209186
 30
0.0
 10
2100.719346171879
 20
820.9932770673094
 30
0.0
 10
2100.946330369082
 20
820.7695247035637
 30
0.0
 10
2101.232874802262
 20
820.5481174323625
 30
0.0
 10
2101.56500282072
 20
820.3587219278412
 30
0.0
 10
2101.89302979593
 20
820.2228080935162
 30
0.0
 10
2102.215321964264
 20
820.1310535944539
 30
0.0
 10
2102.545461477588
 20
820.076629823473
 30
0.0
 10
2102.969142215018
 20
820.0575633266451
 30
0.0
 10
2103.490463305801
 20
820.1094902409129
 30
0.0
 10
2103.883344008101
 20
820.263416428517
 30
0.0
 10
2104.08190256965
 20
820.3412094130452
 30
0.0
  0
SPLINE
  5
1C9
330
1F
100
AcDbEntity
  8
0
  6
Continuous
 62
     7
370
    25
100
AcDbSpline
210
0.0
220
0.0
230
1.0
 70
     8
 71
     3
 72
    15
 73
    11
 74
     0
 42
0.000000001
 43
0.00000001
 40
0.0
 40
0.0
 40
0.0
 40
0.0
 40
0.2150763736126753
 40
0.3413349926978608
 40
0.4465934903529823
 40
0.5524796219273447
 40
0.6449070621726902
 40
0.766214653902389
 40
0.940631656051635
 40
1.0
 40
1.0
 40
1.0
 40
1.0
 10
2100.921475712276
 20
826.056759258108
 30
0.0
 10
2100.972535875013
 20
826.0255401056382
 30
0.0
 10
2101.053570439537
 20
825.9759940350905
 30
0.0
 10
2101.141509437947
 20
825.8531239485928
 30
0.0
 10
2101.188575680343
 20
825.7356420004504
 30
0.0
 10
2101.204287528393
 20
825.6145724738569
 30
0.0
 10
2101.190627313767
 20
825.4910859768712
 30
0.0
 10
2101.142819363035
 20
825.3618347521711
 30
0.0
 10
2101.076674944904
 20
825.2740431843088
 30
0.0
 10
2101.027988488585
 20
825.2318716316829
 30
0.0
 10
2101.015624863865
 20
825.2211624264959
 30
0.0
  0
SPLINE
  5
1CA
330
1F
100
AcDbEntity
  8
0
  6
Continuous
 62
     7
370
    25
100
AcDbSpline
210
0.0
220
0.0
230
1.0
 70
     8
 71
     3
 72
    31
 73
    27
 74
     0
 42
0.000000001
 43
0.00000001
 40
0.0
 40
0.0
 40
0.0
 40
0.0
 40
0.0454607206422262
 40
0.0912523105000977
 40
0.1380039939419782
 40
0.185056976622088
 40
0.2317313313269206
 40
0.278691942961694
 40
0.3266509708000426
 40
0.3750383523003424
 40
0.4232178410751241
 40
0.4431544024001584
 40
0.4635003413749866
 40
0.4878952774620318
 40
0.5124044001519359
 40
0.5281393563613838
 40
0.5443042883322717
 40
0.5755932948345777
 40
0.6075644629398391
 40
0.6453921417979329
 40
0.6834895881007628
 40
0.7611220761218679
 40
0.8468999539818465
 40
0.8906330087990969
 40
0.9346232009734232
 40
0.9999999999999999
 40
0.9999999999999999
 40
0.9999999999999999
 40
0.9999999999999999
 10
2102.824983731932
 20
831.4966726399184
 30
0.0
 10
2102.704138666958
 20
831.5182113599914
 30
0.0
 10
2102.461569010437
 20
831.5614455618278
 30
0.0
 10
2102.098483425395
 20
831.5673852180088
 30
0.0
 10
2101.739018186002
 20
831.531956930993
 30
0.0
 10
2101.388441305738
 20
831.4516754460158
 30
0.0
 10
2101.051147585117
 20
831.3294881452962
 30
0.0
 10
2100.727558527617
 20
831.1648107913555
 30
0.0
 10
2100.417620963476
 20
830.9543121335621
 30
0.0
 10
2100.123547149231
 20
830.6921743517123
 30
0.0
 10
2099.899836714312
 20
830.429214481497
 30
0.0
 10
2099.736933679759
 20
830.1856712596067
 30
0.0
 10
2099.621560533447
 20
829.9833580092362
 30
0.0
 10
2099.505975527736
 20
829.7320583362822
 30
0.0
 10
2099.421160808897
 20
829.4800331582211
 30
0.0
 10
2099.369824447951
 20
829.2723799131153
 30
0.0
 10
2099.329244890355
 20
829.0523065115195
 30
0.0
 10
2099.304613512081
 20
828.7980526189058
 30
0.0
 10
2099.305278839057
 20
828.5011497069664
 30
0.0
 10
2099.336322952628
 20
828.2050914105863
 30
0.0
 10
2099.420925510155
 20
827.8073512479114
 30
0.0
 10
2099.606388488327
 20
827.3236083726869
 30
0.0
 10
2099.896359160697
 20
826.8791679946203
 30
0.0
 10
2100.203043265023
 20
826.5519006732288
 30
0.0
 10
2100.507726979587
 20
826.2893861929072
 30
0.0
 10
2100.766680124351
 20
826.1437918464749
 30
0.0
 10
2100.921475712276
 20
826.056759258108
 30
0.0
  0
SPLINE
  5
1CB
330
1F
100
AcDbEntity
  8
0
  6
Continuous
 62
     7
370
    25
100
AcDbSpline
210
0.0
220
0.0
230
1.0
 70
     8
 71
     3
 72
    15
 73
    11
 74
     0
 42
0.000000001
 43
0.00000001
 40
0.0
 40
0.0
 40
0.0
 40
0.0
 40
0.2129294053203131
 40
0.3333107283177087
 40
0.4345062010027012
 40
0.5362836886507574
 40
0.6256367151021931
 40
0.7456368547567678
 40
0.9211927176880728
 40
1.0
 40
1.0
 40
1.0
 40
1.0
 10
2103.419578605667
 20
832.091267513654
 30
0.0
 10
2103.427051925906
 20
832.0322264407386
 30
0.0
 10
2103.438750346835
 20
831.9398060303939
 30
0.0
 10
2103.398907920448
 20
831.7963260573291
 30
0.0
 10
2103.339470945996
 20
831.6886615228989
 30
0.0
 10
2103.258482542151
 20
831.6017175563189
 30
0.0
 10
2103.15725753752
 20
831.5341882173514
 30
0.0
 10
2103.028666139148
 20
831.4875878690318
 30
0.0
 10
2102.913641520456
 20
831.4809285196932
 30
0.0
 10
2102.845954618876
 20
831.4929485659167
 30
0.0
 10
2102.824983731932
 20
831.4966726399184
 30
0.0
  0
SPLINE
  5
1CC
330
1F
100
AcDbEntity
  8
0
  6
Continuous
 62
     7
370
    25
100
AcDbSpline
210
0.0
220
0.0
230
1.0
 70
     8
 71
     3
 72
    32
 73
    28
 74
     0
 42
0.000000001
 43
0.00000001
 40
0.0
 40
0.0
 40
0.0
 40
0.0
 40
0.0447120024448323
 40
0.0897510683881183
 40
0.135733749483072
 40
0.1820101047170986
 40
0.2279866507550043
 40
0.2742348602616625
 40
0.321388713952827
 40
0.3688999197495225
 40
0.4236598558301562
 40
0.4510230069928859
 40
0.4792153189811396
 40
0.503750967480948
 40
0.5283882607504896
 40
0.5445704263132588
 40
0.561189907619677
 40
0.6013390629672154
 40
0.6426114615938096
 40
0.6855038326376899
 40
0.7287054836939748
 40
0.7727266257640006
 40
0.8169894777562817
 40
0.8620202251363115
 40
0.9073149340905197
 40
0.9534905366767347
 40
1.0
 40
1.0
 40
1.0
 40
1.0
 10
2108.859491987477
 20
833.9947755333101
 30
0.0
 10
2108.801498780329
 20
834.1018117041127
 30
0.0
 10
2108.685088151949
 20
834.3166670038183
 30
0.0
 10
2108.465981726485
 20
834.6017917572032
 30
0.0
 10
2108.217716634841
 20
834.85855762293
 30
0.0
 10
2107.94092142736
 20
835.0809504975347
 30
0.0
 10
2107.640812301381
 20
835.2674689838766
 30
0.0
 10
2107.317802573734
 20
835.4174987405988
 30
0.0
 10
2106.970626839163
 20
835.529361206973
 30
0.0
 10
2106.57852163299
 20
835.6023542516934
 30
0.0
 10
2106.209062393662
 20
835.6182818677089
 30
0.0
 10
2105.859189319526
 20
835.5872258481079
 30
0.0
 10
2105.578804758192
 20
835.5351833641971
 30
0.0
 10
2105.281168348117
 20
835.4468610613786
 30
0.0
 10
2105.033742357597
 20
835.3434720253117
 30
0.0
 10
2104.84178366695
 20
835.2438663376174
 30
0.0
 10
2104.622248091427
 20
835.1122917491039
 30
0.0
 10
2104.375977976963
 20
834.9280239384067
 30
0.0
 10
2104.121314595655
 20
834.6836036783899
 30
0.0
 10
2103.904438376801
 20
834.4193424877949
 30
0.0
 10
2103.721658190635
 20
834.1346405889958
 30
0.0
 10
2103.573624927723
 20
833.8322132281463
 30
0.0
 10
2103.460574602823
 20
833.5116452496411
 30
0.0
 10
2103.384574960422
 20
833.1755240154702
 30
0.0
 10
2103.349288979741
 20
832.824188975749
 30
0.0
 10
2103.353937216241
 20
832.4613022260899
 30
0.0
 10
2103.397645661817
 20
832.2149082629079
 30
0.0
 10
2103.419578605667
 20
832.091267513654
 30
0.0
  0
SPLINE
  5
1CD
330
1F
100
AcDbEntity
  8
0
  6
Continuous
 62
     7
370
    25
100
AcDbSpline
210
0.0
220
0.0
230
1.0
 70
     8
 71
     3
 72
    15
 73
    11
 74
     0
 42
0.000000001
 43
0.00000001
 40
0.0
 40
0.0
 40
0.0
 40
0.0
 40
0.2155767705933926
 40
0.332900553867782
 40
0.432876058223137
 40
0.5332634977246484
 40
0.625083812794561
 40
0.7535547096888419
 40
0.9421338378892
 40
1.0
 40
1.0
 40
1.0
 40
1.0
 10
2109.69508881909
 20
833.9006263817209
 30
0.0
 10
2109.65182927015
 20
833.8564454437172
 30
0.0
 10
2109.585026489115
 20
833.7882198241786
 30
0.0
 10
2109.444432966631
 20
833.730840605382
 30
0.0
 10
2109.323952151478
 20
833.7121258829516
 30
0.0
 10
2109.207024217505
 20
833.7224265900835
 30
0.0
 10
2109.09034404069
 20
833.7607184874337
 30
0.0
 10
2108.970530353204
 20
833.8366072465196
 30
0.0
 10
2108.897806680145
 20
833.9226338867153
 30
0.0
 10
2108.866777694931
 20
833.9810574816773
 30
0.0
 10
2108.859491987477
 20
833.9947755333101
 30
0.0
  0
SPLINE
  5
1CE
330
1F
100
AcDbEntity
  8
0
  6
Continuous
 62
     7
370
    25
100
AcDbSpline
210
0.0
220
0.0
230
1.0
 70
     8
 71
     3
 72
    31
 73
    27
 74
     0
 42
0.000000001
 43
0.00000001
 40
0.0
 40
0.0
 40
0.0
 40
0.0
 40
0.0441466678382054
 40
0.0886154033489259
 40
0.1340332091911627
 40
0.1797544925930173
 40
0.224601020724276
 40
0.2697374327845624
 40
0.3158872821088752
 40
0.3624612967954972
 40
0.4188646742144082
 40
0.4470251772115953
 40
0.4758405247169807
 40
0.4938163492024422
 40
0.5122594402685772
 40
0.5302578458902634
 40
0.5488244143653112
 40
0.5722038163381954
 40
0.5962306770642302
 40
0.6386001154354696
 40
0.6819872536773478
 40
0.7223130450430922
 40
0.7629404599317571
 40
0.8459823030165133
 40
0.9222505624506114
 40
1.0
 40
1.0
 40
1.0
 40
1.0
 10
2104.081902569699
 20
1475.170588532534
 30
0.0
 10
2103.974363314108
 20
1475.216389235238
 30
0.0
 10
2103.758500260868
 20
1475.308324775166
 30
0.0
 10
2103.421883691165
 20
1475.394310321334
 30
0.0
 10
2103.078360407822
 20
1475.442742331628
 30
0.0
 10
2102.73290836786
 20
1475.44896250159
 30
0.0
 10
2102.389980646795
 20
1475.414667727645
 30
0.0
 10
2102.049589695574
 20
1475.33933464243
 30
0.0
 10
2101.709903653379
 20
1475.219593691224
 30
0.0
 10
2101.348960773556
 20
1475.038365229743
 30
0.0
 10
2101.036976313006
 20
1474.820162244612
 30
0.0
 10
2100.772863359655
 20
1474.575756017873
 30
0.0
 10
2100.601911489131
 20
1474.383695628819
 30
0.0
 10
2100.460305286264
 20
1474.193565213765
 30
0.0
 10
2100.349908721375
 20
1474.021437647303
 30
0.0
 10
2100.250250079897
 20
1473.838409202449
 30
0.0
 10
2100.157975019034
 20
1473.635699162643
 30
0.0
 10
2100.078207137721
 20
1473.415465733444
 30
0.0
 10
2100.000522089559
 20
1473.127121628777
 30
0.0
 10
2099.949930158782
 20
1472.794584735127
 30
0.0
 10
2099.941993156686
 20
1472.437830837698
 30
0.0
 10
2099.974023752427
 20
1472.104472502318
 30
0.0
 10
2100.061412143655
 20
1471.685161787856
 30
0.0
 10
2100.248121387964
 20
1471.210191172322
 30
0.0
 10
2100.572460550303
 20
1470.699542986275
 30
0.0
 10
2100.866959367424
 20
1470.427809090513
 30
0.0
 10
2101.015624863912
 20
1470.290635519083
 30
0.0
  0
SPLINE
  5
1CF
330
1F
100
AcDbEntity
  8
0
  6
Continuous
 62
     7
370
    25
100
AcDbSpline
210
0.0
220
0.0
230
1.0
 70
     8
 71
     3
 72
    14
 73
    10
 74
     0
 42
0.000000001
 43
0.00000001
 40
0.0
 40
0.0
 40
0.0
 40
0.0
 40
0.2207653484385781
 40
0.3402146168139664
 40
0.460570499179044
 40
0.5641909618661654
 40
0.6633542991972879
 40
0.8105247403618571
 40
1.0
 40
1.0
 40
1.0
 40
1.0
 10
2104.793899515173
 20
1475.61796586475
 30
0.0
 10
2104.786939007664
 20
1475.553448568642
 30
0.0
 10
2104.776212385883
 20
1475.454022968888
 30
0.0
 10
2104.693500768788
 20
1475.313411461049
 30
0.0
 10
2104.599325262641
 20
1475.220196341628
 30
0.0
 10
2104.489337291743
 20
1475.158340996134
 30
0.0
 10
2104.366293798962
 20
1475.123045997717
 30
0.0
 10
2104.220433437273
 20
1475.119181617027
 30
0.0
 10
2104.131792564729
 20
1475.152075035838
 30
0.0
 10
2104.081902569699
 20
1475.170588532534
 30
0.0
  0
SPLINE
  5
1D0
330
1F
100
AcDbEntity
  8
0
  6
Continuous
 62
     7
370
    25
100
AcDbSpline
210
0.0
220
0.0
230
1.0
 70
     8
 71
     3
 72
    32
 73
    28
 74
     0
 42
0.000000001
 43
0.00000001
 40
0.0
 40
0.0
 40
0.0
 40
0.0
 40
0.0430379910819607
 40
0.0863861263482011
 40
0.1306715836239341
 40
0.1752669939041045
 40
0.2185320463381588
 40
0.2621050719941918
 40
0.3067938579277449
 40
0.3519663346175979
 40
0.3854310965017677
 40
0.4193289160971796
 40
0.4528593258451131
 40
0.487579192890116
 40
0.5106386088137
 40
0.5343801485774068
 40
0.5574353916329557
 40
0.5810375265201521
 40
0.6176166200903002
 40
0.6551846333990897
 40
0.717726568535793
 40
0.7819044813319398
 40
0.8252890843115691
 40
0.8689843386192317
 40
0.913624208959134
 40
0.9585815908891958
 40
0.9999999999999999
 40
0.9999999999999999
 40
0.9999999999999999
 40
0.9999999999999999
 10
2110.520993293279
 20
1476.263254357813
 30
0.0
 10
2110.491258080571
 20
1476.371133829165
 30
0.0
 10
2110.431573374632
 20
1476.587670182472
 30
0.0
 10
2110.29645837745
 20
1476.894181176387
 30
0.0
 10
2110.128786506811
 20
1477.185796387297
 30
0.0
 10
2109.928095016812
 20
1477.455096651337
 30
0.0
 10
2109.697950399397
 20
1477.699661874545
 30
0.0
 10
2109.437511173605
 20
1477.91935820442
 30
0.0
 10
2109.141667725632
 20
1478.114019297912
 30
0.0
 10
2108.836459758998
 20
1478.264229684165
 30
0.0
 10
2108.529918161316
 20
1478.373430512251
 30
0.0
 10
2108.231211325336
 20
1478.446354778183
 30
0.0
 10
2107.90317537105
 20
1478.489433668932
 30
0.0
 10
2107.588019084083
 20
1478.493377100061
 30
0.0
 10
2107.299672663577
 20
1478.466267621222
 30
0.0
 10
2107.054367971648
 20
1478.421547674339
 30
0.0
 10
2106.81650180956
 20
1478.356660296413
 30
0.0
 10
2106.551960084796
 20
1478.260237999328
 30
0.0
 10
2106.269984405965
 20
1478.122754412484
 30
0.0
 10
2105.925105013119
 20
1477.900623741738
 30
0.0
 10
2105.58029393432
 20
1477.595648448621
 30
0.0
 10
2105.300299244931
 20
1477.242928689988
 30
0.0
 10
2105.103962153957
 20
1476.906359344528
 30
0.0
 10
2104.968954840529
 20
1476.598955472597
 30
0.0
 10
2104.870216998661
 20
1476.275146348545
 30
0.0
 10
2104.808079398881
 20
1475.946833759713
 30
0.0
 10
2104.798495249751
 20
1475.724552744286
 30
0.0
 10
2104.793899515173
 20
1475.61796586475
 30
0.0
  0
SPLINE
  5
1D1
330
1F
100
AcDbEntity
  8
0
  6
Continuous
 62
     7
370
    25
100
AcDbSpline
210
0.0
220
0.0
230
1.0
 70
     8
 71
     3
 72
    14
 73
    10
 74
     0
 42
0.000000001
 43
0.00000001
 40
0.0
 40
0.0
 40
0.0
 40
0.0
 40
0.224303042488396
 40
0.3489011866267656
 40
0.4744001356117184
 40
0.5826741857065886
 40
0.6867417687947682
 40
0.8381564871695592
 40
1.0
 40
1.0
 40
1.0
 40
1.0
 10
2111.314689810606
 20
1475.985527934639
 30
0.0
 10
2111.258645807384
 20
1475.950195850473
 30
0.0
 10
2111.171469909053
 20
1475.89523713946
 30
0.0
 10
2111.006028162305
 20
1475.873740591815
 30
0.0
 10
2110.870945593262
 20
1475.892368953628
 30
0.0
 10
2110.75190485358
 20
1475.944402814099
 30
0.0
 10
2110.64745570587
 20
1476.024218698639
 30
0.0
 10
2110.562312464134
 20
1476.133977704469
 30
0.0
 10
2110.535068677852
 20
1476.219216237628
 30
0.0
 10
2110.520993293279
 20
1476.263254357813
 30
0.0
  0
SPLINE
  5
1D2
330
1F
100
AcDbEntity
  8
0
  6
Continuous
 62
     7
370
    25
100
AcDbSpline
210
0.0
220
0.0
230
1.0
 70
     8
 71
     3
 72
    27
 73
    23
 74
     0
 42
0.000000001
 43
0.00000001
 40
0.0
 40
0.0
 40
0.0
 40
0.0
 40
0.0854193893125073
 40
0.1292485505238698
 40
0.173392748556905
 40
0.2449111880238336
 40
0.3181761007994701
 40
0.3578246346969908
 40
0.3981318054712863
 40
0.428813183218091
 40
0.4602403930085073
 40
0.4856097432632085
 40
0.511706570768311
 40
0.5370818101410253
 40
0.5631224182367758
 40
0.5995872849299354
 40
0.637063168006596
 40
0.6960736640765824
 40
0.7566512808579702
 40
0.8401548938394108
 40
0.926059287440346
 40
1.0
 40
1.0
 40
1.0
 40
1.0
 10
2115.389981234694
 20
1471.910236510551
 30
0.0
 10
2115.514083394304
 20
1472.092020317874
 30
0.0
 10
2115.701863058565
 20
1472.367078402395
 30
0.0
 10
2115.861506692128
 20
1472.778941160474
 30
0.0
 10
2115.968056173187
 20
1473.171298362813
 30
0.0
 10
2116.022184195403
 20
1473.658119635219
 30
0.0
 10
2115.980820454848
 20
1474.154721209707
 30
0.0
 10
2115.873868080707
 20
1474.578496975044
 30
0.0
 10
2115.754017577719
 20
1474.889725980596
 30
0.0
 10
2115.602809873305
 20
1475.178759959488
 30
0.0
 10
2115.440683910373
 20
1475.422603791905
 30
0.0
 10
2115.258938047123
 20
1475.643962711616
 30
0.0
 10
2115.069778410906
 20
1475.835031641784
 30
0.0
 10
2114.863979979933
 20
1476.007421365665
 30
0.0
 10
2114.620798303973
 20
1476.176027601077
 30
0.0
 10
2114.338279464246
 20
1476.329870059287
 30
0.0
 10
2113.964212799505
 20
1476.479094178901
 30
0.0
 10
2113.529897536027
 20
1476.581468569029
 30
0.0
 10
2112.986038495677
 20
1476.616122376778
 30
0.0
 10
2112.397087265821
 20
1476.536146708364
 30
0.0
 10
2111.810266213038
 20
1476.32775710539
 30
0.0
 10
2111.47142845508
 20
1476.093766616021
 30
0.0
 10
2111.314689810606
 20
1475.985527934639
 30
0.0
  0
SPLINE
  5
1D3
330
1F
100
AcDbEntity
  8
0
  6
Continuous
 62
     7
370
    25
100
AcDbSpline
210
0.0
220
0.0
230
1.0
 70
     8
 71
     3
 72
    14
 73
    10
 74
     0
 42
0.000000001
 43
0.00000001
 40
0.0
 40
0.0
 40
0.0
 40
0.0
 40
0.2239799089305839
 40
0.3530600787851438
 40
0.4831615846561671
 40
0.5937368434045625
 40
0.6971871626483932
 40
0.8442013099709279
 40
1.0
 40
1.0
 40
1.0
 40
1.0
 10
2115.667707657867
 20
1471.116539993224
 30
0.0
 10
2115.606162243685
 20
1471.137896276821
 30
0.0
 10
2115.509148056635
 20
1471.171560238937
 30
0.0
 10
2115.388400107741
 20
1471.287039954713
 30
0.0
 10
2115.31704269522
 20
1471.407211343369
 30
0.0
 10
2115.28383760639
 20
1471.53584967599
 30
0.0
 10
2115.28270393242
 20
1471.667396243918
 30
0.0
 10
2115.316165348057
 20
1471.800005667764
 30
0.0
 10
2115.364904633355
 20
1471.872789085264
 30
0.0
 10
2115.389981234694
 20
1471.910236510551
 30
0.0
  0
SPLINE
  5
1D4
330
1F
100
AcDbEntity
  8
0
  6
Continuous
 62
     7
370
    25
100
AcDbSpline
210
0.0
220
0.0
230
1.0
 70
     8
 71
     3
 72
    30
 73
    26
 74
     0
 42
0.000000001
 43
0.00000001
 40
0.0
 40
0.0
 40
0.0
 40
0.0
 40
0.0436326703263179
 40
0.0875749781500505
 40
0.1324697918177374
 40
0.1776879097589667
 40
0.2471697669172415
 40
0.3182319002770964
 40
0.3543746168326048
 40
0.3910547066027273
 40
0.4195535900770261
 40
0.4487399260949137
 40
0.4718549633840095
 40
0.4956323239076502
 40
0.5187532378092594
 40
0.5424776768489712
 40
0.5764529707070528
 40
0.6113599295178239
 40
0.6689630945504162
 40
0.7280598292433292
 40
0.770550459932868
 40
0.8133510372521653
 40
0.9010083644128204
 40
0.9502779135835155
 40
1.0
 40
1.0
 40
1.0
 40
1.0
 10
2115.022419164804
 20
1465.389446215119
 30
0.0
 10
2115.13467232571
 20
1465.39446012062
 30
0.0
 10
2115.359975247584
 20
1465.404523512602
 30
0.0
 10
2115.69150567074
 20
1465.468819570307
 30
0.0
 10
2116.016796714155
 20
1465.56921670953
 30
0.0
 10
2116.388381798424
 20
1465.734982363469
 30
0.0
 10
2116.794335123085
 20
1465.994819478304
 30
0.0
 10
2117.142504406088
 20
1466.325030718427
 30
0.0
 10
2117.394804979324
 20
1466.653809552732
 30
0.0
 10
2117.554608235356
 20
1466.9181990918
 30
0.0
 10
2117.683733088838
 20
1467.194390575422
 30
0.0
 10
2117.77514906986
 20
1467.454115088734
 30
0.0
 10
2117.839901304631
 20
1467.714401876037
 30
0.0
 10
2117.879103202176
 20
1467.961493862254
 30
0.0
 10
2117.896729515699
 20
1468.210555582716
 30
0.0
 10
2117.892845857722
 20
1468.487914004789
 30
0.0
 10
2117.858027318548
 20
1468.788695001967
 30
0.0
 10
2117.770455616346
 20
1469.166481525334
 30
0.0
 10
2117.613131392088
 20
1469.570432783875
 30
0.0
 10
2117.39446342938
 20
1469.938313383651
 30
0.0
 10
2117.160274789206
 20
1470.232127842167
 30
0.0
 10
2116.846935753108
 20
1470.545283744276
 30
0.0
 10
2116.471570652867
 20
1470.807925413003
 30
0.0
 10
2116.039721658705
 20
1471.011872774279
 30
0.0
 10
2115.792089672173
 20
1471.081544752468
 30
0.0
 10
2115.667707657867
 20
1471.116539993224
 30
0.0
  0
SPLINE
  5
1D5
330
1F
100
AcDbEntity
  8
0
  6
Continuous
 62
     7
370
    25
100
AcDbSpline
210
0.0
220
0.0
230
1.0
 70
     8
 71
     3
 72
    14
 73
    10
 74
     0
 42
0.000000001
 43
0.00000001
 40
0.0
 40
0.0
 40
0.0
 40
0.0
 40
0.2200911109486842
 40
0.3501199592092389
 40
0.4590676183977529
 40
0.5685351145661182
 40
0.666840221739141
 40
0.7968948941937002
 40
1.0
 40
1.0
 40
1.0
 40
1.0
 10
2114.575041832588
 20
1464.677449269645
 30
0.0
 10
2114.553995434173
 20
1464.736175015078
 30
0.0
 10
2114.520514917295
 20
1464.8295956694
 30
0.0
 10
2114.531775201777
 20
1464.985483286579
 30
0.0
 10
2114.572509768856
 20
1465.10862791613
 30
0.0
 10
2114.640419890147
 20
1465.213231826982
 30
0.0
 10
2114.733918227076
 20
1465.300278622843
 30
0.0
 10
2114.866624463245
 20
1465.373767063735
 30
0.0
 10
2114.963413437813
 20
1465.383507889125
 30
0.0
 10
2115.022419164804
 20
1465.389446215119
 30
0.0
  0
SPLINE
  5
1D6
330
1F
100
AcDbEntity
  8
0
  6
Continuous
 62
     7
370
    25
100
AcDbSpline
210
0.0
220
0.0
230
1.0
 70
     8
 71
     3
 72
    32
 73
    28
 74
     0
 42
0.000000001
 43
0.00000001
 40
0.0
 40
0.0
 40
0.0
 40
0.0
 40
0.0453942490664604
 40
0.0911149500211681
 40
0.1378156604218409
 40
0.1848384153738298
 40
0.2588911921182572
 40
0.2966281930596116
 40
0.3346227841547532
 40
0.3627380257352124
 40
0.3910884026637674
 40
0.419246601095741
 40
0.4481819119438918
 40
0.4658254771020691
 40
0.4839564361058554
 40
0.5016138628025537
 40
0.5197789833318603
 40
0.5448703289759619
 40
0.5706414417831733
 40
0.6177923775613955
 40
0.6660664783496308
 40
0.708827162055567
 40
0.7519045224538989
 40
0.7958661863085491
 40
0.8400991772633783
 40
0.9191874857499361
 40
1.0
 40
1.0
 40
1.0
 40
1.0
 10
2109.695088819138
 20
1461.611171563859
 30
0.0
 10
2109.773122609026
 20
1461.522155530778
 30
0.0
 10
2109.929751367335
 20
1461.343483307488
 30
0.0
 10
2110.20086878983
 20
1461.116753905715
 30
0.0
 10
2110.496543930212
 20
1460.921259482902
 30
0.0
 10
2110.878398441145
 20
1460.732439502816
 30
0.0
 10
2111.268429787729
 20
1460.61078412379
 30
0.0
 10
2111.660399852222
 20
1460.551183521181
 30
0.0
 10
2111.945089866363
 20
1460.538028729464
 30
0.0
 10
2112.216072667215
 20
1460.551598853811
 30
0.0
 10
2112.469889396925
 20
1460.586222914175
 30
0.0
 10
2112.739087205042
 20
1460.648176589402
 30
0.0
 10
2112.987063222914
 20
1460.731761917267
 30
0.0
 10
2113.205673121156
 20
1460.827715329149
 30
0.0
 10
2113.384624698097
 20
1460.921575018704
 30
0.0
 10
2113.557795472121
 20
1461.028584611063
 30
0.0
 10
2113.739443624715
 20
1461.159044476077
 30
0.0
 10
2113.922974178324
 20
1461.314892871873
 30
0.0
 10
2114.14672654207
 20
1461.541877069076
 30
0.0
 10
2114.368133813271
 20
1461.828421502257
 30
0.0
 10
2114.557529317792
 20
1462.160549520714
 30
0.0
 10
2114.693443152117
 20
1462.488576495924
 30
0.0
 10
2114.78519765118
 20
1462.810868664258
 30
0.0
 10
2114.83962142216
 20
1463.141008177582
 30
0.0
 10
2114.858687918988
 20
1463.564688915012
 30
0.0
 10
2114.806761004721
 20
1464.086010005795
 30
0.0
 10
2114.652834817116
 20
1464.478890708095
 30
0.0
 10
2114.575041832588
 20
1464.677449269645
 30
0.0
  0
SPLINE
  5
1D7
330
1F
100
AcDbEntity
  8
0
  6
Continuous
 62
     7
370
    25
100
AcDbSpline
210
0.0
220
0.0
230
1.0
 70
     8
 71
     3
 72
    15
 73
    11
 74
     0
 42
0.000000001
 43
0.00000001
 40
0.0
 40
0.0
 40
0.0
 40
0.0
 40
0.2150763736127015
 40
0.3413349926978574
 40
0.4465934903530232
 40
0.5524796219273415
 40
0.6449070621726941
 40
0.7662146539023609
 40
0.9406316560516111
 40
1.0
 40
1.0
 40
1.0
 40
1.0
 10
2108.859491987525
 20
1461.51702241227
 30
0.0
 10
2108.890711139995
 20
1461.568082575007
 30
0.0
 10
2108.940257210543
 20
1461.649117139531
 30
0.0
 10
2109.06312729704
 20
1461.737056137941
 30
0.0
 10
2109.180609245183
 20
1461.784122380337
 30
0.0
 10
2109.301678771776
 20
1461.799834228387
 30
0.0
 10
2109.425165268762
 20
1461.786174013761
 30
0.0
 10
2109.554416493462
 20
1461.738366063029
 30
0.0
 10
2109.642208061324
 20
1461.672221644897
 30
0.0
 10
2109.68437961395
 20
1461.623535188579
 30
0.0
 10
2109.695088819138
 20
1461.611171563859
 30
0.0
  0
SPLINE
  5
1D8
330
1F
100
AcDbEntity
  8
0
  6
Continuous
 62
     7
370
    25
100
AcDbSpline
210
0.0
220
0.0
230
1.0
 70
     8
 71
     3
 72
    31
 73
    27
 74
     0
 42
0.000000001
 43
0.00000001
 40
0.0
 40
0.0
 40
0.0
 40
0.0
 40
0.0454607206422263
 40
0.0912523105000979
 40
0.1380039939419785
 40
0.185056976622089
 40
0.2317313313269218
 40
0.2786919429616951
 40
0.3266509708000439
 40
0.3750383523003438
 40
0.4232178410751255
 40
0.4431544024001567
 40
0.4635003413749885
 40
0.4878952774620296
 40
0.5124044001519351
 40
0.5281393563613821
 40
0.5443042883322701
 40
0.575593294834576
 40
0.6075644629398409
 40
0.6453921417979316
 40
0.6834895881007615
 40
0.7611220761218694
 40
0.8468999539818457
 40
0.8906330087990985
 40
0.9346232009734248
 40
1.0
 40
1.0
 40
1.0
 40
1.0
 10
2103.419578605715
 20
1463.420530431926
 30
0.0
 10
2103.398039885642
 20
1463.299685366952
 30
0.0
 10
2103.354805683805
 20
1463.057115710432
 30
0.0
 10
2103.348866027624
 20
1462.694030125389
 30
0.0
 10
2103.38429431464
 20
1462.334564885995
 30
0.0
 10
2103.464575799618
 20
1461.983988005732
 30
0.0
 10
2103.586763100337
 20
1461.646694285111
 30
0.0
 10
2103.751440454278
 20
1461.323105227611
 30
0.0
 10
2103.961939112071
 20
1461.01316766347
 30
0.0
 10
2104.224076893921
 20
1460.719093849225
 30
0.0
 10
2104.487036764136
 20
1460.495383414306
 30
0.0
 10
2104.730579986026
 20
1460.332480379752
 30
0.0
 10
2104.932893236397
 20
1460.217107233441
 30
0.0
 10
2105.184192909351
 20
1460.101522227731
 30
0.0
 10
2105.436218087412
 20
1460.016707508891
 30
0.0
 10
2105.643871332518
 20
1459.965371147945
 30
0.0
 10
2105.863944734113
 20
1459.924791590349
 30
0.0
 10
2106.118198626727
 20
1459.900160212075
 30
0.0
 10
2106.415101538667
 20
1459.900825539051
 30
0.0
 10
2106.711159835047
 20
1459.931869652622
 30
0.0
 10
2107.108899997722
 20
1460.016472210149
 30
0.0
 10
2107.592642872947
 20
1460.201935188321
 30
0.0
 10
2108.037083251013
 20
1460.491905860691
 30
0.0
 10
2108.364350572404
 20
1460.798589965017
 30
0.0
 10
2108.626865052726
 20
1461.103273679581
 30
0.0
 10
2108.772459399158
 20
1461.362226824345
 30
0.0
 10
2108.859491987525
 20
1461.51702241227
 30
0.0
  0
SPLINE
  5
1D9
330
1F
100
AcDbEntity
  8
0
  6
Continuous
 62
     7
370
    25
100
AcDbSpline
210
0.0
220
0.0
230
1.0
 70
     8
 71
     3
 72
    15
 73
    11
 74
     0
 42
0.000000001
 43
0.00000001
 40
0.0
 40
0.0
 40
0.0
 40
0.0
 40
0.212929405320344
 40
0.3333107283176995
 40
0.4345062010027289
 40
0.5362836886507495
 40
0.6256367151021839
 40
0.7456368547567715
 40
0.921192717688074
 40
1.0
 40
1.0
 40
1.0
 40
1.0
 10
2102.82498373198
 20
1464.015125305661
 30
0.0
 10
2102.884024804895
 20
1464.0225986259
 30
0.0
 10
2102.976445215239
 20
1464.034297046828
 30
0.0
 10
2103.119925188304
 20
1463.994454620442
 30
0.0
 10
2103.227589722734
 20
1463.93501764599
 30
0.0
 10
2103.314533689314
 20
1463.854029242146
 30
0.0
 10
2103.382063028282
 20
1463.752804237514
 30
0.0
 10
2103.428663376601
 20
1463.624212839142
 30
0.0
 10
2103.43532272594
 20
1463.50918822045
 30
0.0
 10
2103.423302679716
 20
1463.44150131887
 30
0.0
 10
2103.419578605715
 20
1463.420530431926
 30
0.0
  0
SPLINE
  5
1DA
330
1F
100
AcDbEntity
  8
0
  6
Continuous
 62
     7
370
    25
100
AcDbSpline
210
0.0
220
0.0
230
1.0
 70
     8
 71
     3
 72
    32
 73
    28
 74
     0
 42
0.000000001
 43
0.00000001
 40
0.0
 40
0.0
 40
0.0
 40
0.0
 40
0.0447120024448325
 40
0.0897510683881186
 40
0.1357337494830703
 40
0.182010104717097
 40
0.2279866507550028
 40
0.2742348602616624
 40
0.3213887139528261
 40
0.3688999197495217
 40
0.4236598558301525
 40
0.4510230069928861
 40
0.4792153189811392
 40
0.503750967480949
 40
0.528388260750489
 40
0.5445704263132581
 40
0.5611899076196785
 40
0.601339062967217
 40
0.642611461593809
 40
0.6855038326376895
 40
0.728705483693977
 40
0.7727266257640029
 40
0.8169894777562842
 40
0.8620202251363112
 40
0.9073149340905194
 40
0.9534905366767377
 40
1.0
 40
1.0
 40
1.0
 40
1.0
 10
2100.921475712323
 20
1469.455038687471
 30
0.0
 10
2100.814439541521
 20
1469.397045480323
 30
0.0
 10
2100.599584241815
 20
1469.280634851942
 30
0.0
 10
2100.31445948843
 20
1469.061528426479
 30
0.0
 10
2100.057693622703
 20
1468.813263334835
 30
0.0
 10
2099.835300748099
 20
1468.536468127354
 30
0.0
 10
2099.648782261757
 20
1468.236359001375
 30
0.0
 10
2099.498752505035
 20
1467.913349273728
 30
0.0
 10
2099.38689003866
 20
1467.566173539157
 30
0.0
 10
2099.31389699394
 20
1467.174068332984
 30
0.0
 10
2099.297969377924
 20
1466.804609093657
 30
0.0
 10
2099.329025397525
 20
1466.454736019519
 30
0.0
 10
2099.381067881436
 20
1466.174351458186
 30
0.0
 10
2099.469390184255
 20
1465.876715048111
 30
0.0
 10
2099.572779220322
 20
1465.629289057591
 30
0.0
 10
2099.672384908016
 20
1465.437330366944
 30
0.0
 10
2099.803959496529
 20
1465.21779479142
 30
0.0
 10
2099.988227307227
 20
1464.971524676957
 30
0.0
 10
2100.232647567243
 20
1464.716861295649
 30
0.0
 10
2100.496908757838
 20
1464.499985076795
 30
0.0
 10
2100.781610656637
 20
1464.317204890629
 30
0.0
 10
2101.084038017487
 20
1464.169171627717
 30
0.0
 10
2101.404605995992
 20
1464.056121302817
 30
0.0
 10
2101.740727230163
 20
1463.980121660415
 30
0.0
 10
2102.092062269884
 20
1463.944835679735
 30
0.0
 10
2102.454949019543
 20
1463.949483916235
 30
0.0
 10
2102.701342982725
 20
1463.993192361811
 30
0.0
 10
2102.82498373198
 20
1464.015125305661
 30
0.0
  0
SPLINE
  5
1DB
330
1F
100
AcDbEntity
  8
0
  6
Continuous
 62
     7
370
    25
100
AcDbSpline
210
0.0
220
0.0
230
1.0
 70
     8
 71
     3
 72
    15
 73
    11
 74
     0
 42
0.000000001
 43
0.00000001
 40
0.0
 40
0.0
 40
0.0
 40
0.0
 40
0.2155767705933626
 40
0.3329005538677706
 40
0.4328760582231289
 40
0.5332634977246369
 40
0.6250838127945465
 40
0.7535547096888231
 40
0.9421338378892018
 40
1.0
 40
1.0
 40
1.0
 40
1.0
 10
2101.015624863912
 20
1470.290635519083
 30
0.0
 10
2101.059805801916
 20
1470.247375970144
 30
0.0
 10
2101.128031421455
 20
1470.180573189109
 30
0.0
 10
2101.185410640251
 20
1470.039979666625
 30
0.0
 10
2101.204125362682
 20
1469.919498851473
 30
0.0
 10
2101.19382465555
 20
1469.802570917499
 30
0.0
 10
2101.1555327582
 20
1469.685890740684
 30
0.0
 10
2101.079643999114
 20
1469.566077053198
 30
0.0
 10
2100.993617358918
 20
1469.493353380139
 30
0.0
 10
2100.935193763956
 20
1469.462324394925
 30
0.0
 10
2100.921475712323
 20
1469.455038687471
 30
0.0
  0
SPLINE
  5
1DC
330
1F
100
AcDbEntity
  8
0
  6
Continuous
 62
     7
370
    25
100
AcDbSpline
210
0.0
220
0.0
230
1.0
 70
     8
 71
     3
 72
    31
 73
    27
 74
     0
 42
0.000000001
 43
0.00000001
 40
0.0
 40
0.0
 40
0.0
 40
0.0
 40
0.0441466678382051
 40
0.0886154033489253
 40
0.1340332091911619
 40
0.1797544925930162
 40
0.2246010207242746
 40
0.2697374327845607
 40
0.3158872821088733
 40
0.362461296795495
 40
0.4188646742144057
 40
0.4470251772115955
 40
0.4758405247169835
 40
0.4938163492024421
 40
0.5122594402685728
 40
0.5302578458902634
 40
0.5488244143653066
 40
0.5722038163381907
 40
0.5962306770642254
 40
0.6386001154354685
 40
0.6819872536773427
 40
0.7223130450430904
 40
0.7629404599317549
 40
0.8459823030165106
 40
0.9222505624506119
 40
1.0
 40
1.0
 40
1.0
 40
1.0
 10
1459.7456627131
 20
1464.677449269691
 30
0.0
 10
1459.699862010397
 20
1464.569910014101
 30
0.0
 10
1459.607926470469
 20
1464.35404696086
 30
0.0
 10
1459.5219409243
 20
1464.017430391157
 30
0.0
 10
1459.473508914006
 20
1463.673907107815
 30
0.0
 10
1459.467288744044
 20
1463.328455067852
 30
0.0
 10
1459.501583517989
 20
1462.985527346788
 30
0.0
 10
1459.576916603204
 20
1462.645136395567
 30
0.0
 10
1459.696657554409
 20
1462.305450353371
 30
0.0
 10
1459.877886015891
 20
1461.944507473549
 30
0.0
 10
1460.096089001021
 20
1461.632523012998
 30
0.0
 10
1460.340495227761
 20
1461.368410059648
 30
0.0
 10
1460.532555616815
 20
1461.197458189124
 30
0.0
 10
1460.722686031869
 20
1461.055851986257
 30
0.0
 10
1460.894813598331
 20
1460.945455421367
 30
0.0
 10
1461.077842043185
 20
1460.84579677989
 30
0.0
 10
1461.280552082991
 20
1460.753521719026
 30
0.0
 10
1461.500785512191
 20
1460.673753837713
 30
0.0
 10
1461.789129616857
 20
1460.596068789552
 30
0.0
 10
1462.121666510507
 20
1460.545476858775
 30
0.0
 10
1462.478420407936
 20
1460.537539856679
 30
0.0
 10
1462.811778743316
 20
1460.56957045242
 30
0.0
 10
1463.231089457778
 20
1460.656958843647
 30
0.0
 10
1463.706060073312
 20
1460.843668087957
 30
0.0
 10
1464.21670825936
 20
1461.168007250295
 30
0.0
 10
1464.488442155121
 20
1461.462506067416
 30
0.0
 10
1464.625615726551
 20
1461.611171563905
 30
0.0
  0
SPLINE
  5
1DD
330
1F
100
AcDbEntity
  8
0
  6
Continuous
 62
     7
370
    25
100
AcDbSpline
210
0.0
220
0.0
230
1.0
 70
     8
 71
     3
 72
    14
 73
    10
 74
     0
 42
0.000000001
 43
0.00000001
 40
0.0
 40
0.0
 40
0.0
 40
0.0
 40
0.2207653484385725
 40
0.3402146168139784
 40
0.460570499179053
 40
0.5641909618661763
 40
0.6633542991972964
 40
0.810524740361862
 40
1.0
 40
1.0
 40
1.0
 40
1.0
 10
1459.298285380884
 20
1465.389446215166
 30
0.0
 10
1459.362802676992
 20
1465.382485707657
 30
0.0
 10
1459.462228276746
 20
1465.371759085875
 30
0.0
 10
1459.602839784586
 20
1465.28904746878
 30
0.0
 10
1459.696054904006
 20
1465.194871962634
 30
0.0
 10
1459.757910249501
 20
1465.084883991736
 30
0.0
 10
1459.793205247917
 20
1464.961840498955
 30
0.0
 10
1459.797069628607
 20
1464.815980137266
 30
0.0
 10
1459.764176209796
 20
1464.727339264721
 30
0.0
 10
1459.7456627131
 20
1464.677449269691
 30
0.0
  0
SPLINE
  5
1DE
330
1F
100
AcDbEntity
  8
0
  6
Continuous
 62
     7
370
    25
100
AcDbSpline
210
0.0
220
0.0
230
1.0
 70
     8
 71
     3
 72
    32
 73
    28
 74
     0
 42
0.000000001
 43
0.00000001
 40
0.0
 40
0.0
 40
0.0
 40
0.0
 40
0.0430379910819609
 40
0.0863861263482014
 40
0.1306715836239345
 40
0.1752669939041051
 40
0.2185320463381622
 40
0.2621050719941924
 40
0.3067938579277454
 40
0.3519663346175985
 40
0.3854310965017645
 40
0.4193289160971766
 40
0.4528593258451102
 40
0.4875791928901196
 40
0.5106386088136986
 40
0.5343801485774055
 40
0.5574353916329545
 40
0.5810375265201526
 40
0.6176166200902988
 40
0.6551846333990885
 40
0.717726568535792
 40
0.7819044813319389
 40
0.8252890843115717
 40
0.8689843386192325
 40
0.9136242089591338
 40
0.9585815908891958
 40
1.0
 40
1.0
 40
1.0
 40
1.0
 10
1458.652996887821
 20
1471.116539993272
 30
0.0
 10
1458.54511741647
 20
1471.086804780564
 30
0.0
 10
1458.328581063162
 20
1471.027120074624
 30
0.0
 10
1458.022070069248
 20
1470.892005077442
 30
0.0
 10
1457.730454858337
 20
1470.724333206804
 30
0.0
 10
1457.461154594297
 20
1470.523641716805
 30
0.0
 10
1457.216589371089
 20
1470.293497099389
 30
0.0
 10
1456.996893041214
 20
1470.033057873598
 30
0.0
 10
1456.802231947722
 20
1469.737214425624
 30
0.0
 10
1456.652021561469
 20
1469.432006458991
 30
0.0
 10
1456.542820733383
 20
1469.125464861309
 30
0.0
 10
1456.469896467451
 20
1468.826758025328
 30
0.0
 10
1456.426817576702
 20
1468.498722071042
 30
0.0
 10
1456.422874145572
 20
1468.183565784076
 30
0.0
 10
1456.449983624412
 20
1467.895219363569
 30
0.0
 10
1456.494703571296
 20
1467.64991467164
 30
0.0
 10
1456.559590949221
 20
1467.412048509553
 30
0.0
 10
1456.656013246307
 20
1467.147506784789
 30
0.0
 10
1456.79349683315
 20
1466.865531105957
 30
0.0
 10
1457.015627503896
 20
1466.520651713111
 30
0.0
 10
1457.320602797012
 20
1466.175840634313
 30
0.0
 10
1457.673322555646
 20
1465.895845944923
 30
0.0
 10
1458.009891901106
 20
1465.69950885395
 30
0.0
 10
1458.317295773038
 20
1465.564501540521
 30
0.0
 10
1458.641104897089
 20
1465.465763698654
 30
0.0
 10
1458.969417485921
 20
1465.403626098873
 30
0.0
 10
1459.191698501348
 20
1465.394041949744
 30
0.0
 10
1459.298285380884
 20
1465.389446215166
 30
0.0
  0
SPLINE
  5
1DF
330
1F
100
AcDbEntity
  8
0
  6
Continuous
 62
     7
370
    25
100
AcDbSpline
210
0.0
220
0.0
230
1.0
 70
     8
 71
     3
 72
    14
 73
    10
 74
     0
 42
0.000000001
 43
0.00000001
 40
0.0
 40
0.0
 40
0.0
 40
0.0
 40
0.224303042488396
 40
0.3489011866267655
 40
0.4744001356117183
 40
0.5826741857065886
 40
0.6867417687947682
 40
0.8381564871695592
 40
1.0
 40
1.0
 40
1.0
 40
1.0
 10
1458.930723310995
 20
1471.910236510598
 30
0.0
 10
1458.966055395161
 20
1471.854192507377
 30
0.0
 10
1459.021014106174
 20
1471.767016609046
 30
0.0
 10
1459.042510653819
 20
1471.601574862297
 30
0.0
 10
1459.023882292006
 20
1471.466492293255
 30
0.0
 10
1458.971848431535
 20
1471.347451553572
 30
0.0
 10
1458.892032546995
 20
1471.243002405863
 30
0.0
 10
1458.782273541165
 20
1471.157859164127
 30
0.0
 10
1458.697035008007
 20
1471.130615377844
 30
0.0
 10
1458.652996887821
 20
1471.116539993272
 30
0.0
  0
SPLINE
  5
1E0
330
1F
100
AcDbEntity
  8
0
  6
Continuous
 62
     7
370
    25
100
AcDbSpline
210
0.0
220
0.0
230
1.0
 70
     8
 71
     3
 72
    27
 73
    23
 74
     0
 42
0.000000001
 43
0.00000001
 40
0.0
 40
0.0
 40
0.0
 40
0.0
 40
0.0854193893125076
 40
0.1292485505238666
 40
0.173392748556902
 40
0.2449111880238347
 40
0.3181761007994674
 40
0.3578246346969883
 40
0.3981318054712882
 40
0.4288131832180886
 40
0.4602403930085051
 40
0.4856097432632064
 40
0.5117065707683089
 40
0.5370818101410233
 40
0.5631224182367768
 40
0.5995872849299384
 40
0.6370631680065949
 40
0.6960736640765816
 40
0.7566512808579695
 40
0.8401548938394103
 40
0.9260592874403458
 40
1.0
 40
1.0
 40
1.0
 40
1.0
 10
1463.006014735083
 20
1475.985527934686
 30
0.0
 10
1462.82423092776
 20
1476.109630094296
 30
0.0
 10
1462.549172843239
 20
1476.297409758557
 30
0.0
 10
1462.13731008516
 20
1476.457053392121
 30
0.0
 10
1461.744952882821
 20
1476.56360287318
 30
0.0
 10
1461.258131610415
 20
1476.617730895395
 30
0.0
 10
1460.761530035928
 20
1476.57636715484
 30
0.0
 10
1460.33775427059
 20
1476.4694147807
 30
0.0
 10
1460.026525265038
 20
1476.349564277711
 30
0.0
 10
1459.737491286146
 20
1476.198356573298
 30
0.0
 10
1459.493647453729
 20
1476.036230610365
 30
0.0
 10
1459.272288534018
 20
1475.854484747116
 30
0.0
 10
1459.08121960385
 20
1475.665325110898
 30
0.0
 10
1458.908829879969
 20
1475.459526679926
 30
0.0
 10
1458.740223644557
 20
1475.216345003966
 30
0.0
 10
1458.586381186348
 20
1474.933826164239
 30
0.0
 10
1458.437157066733
 20
1474.559759499497
 30
0.0
 10
1458.334782676604
 20
1474.12544423602
 30
0.0
 10
1458.300128868857
 20
1473.581585195669
 30
0.0
 10
1458.38010453727
 20
1472.992633965814
 30
0.0
 10
1458.588494140244
 20
1472.405812913031
 30
0.0
 10
1458.822484629614
 20
1472.066975155073
 30
0.0
 10
1458.930723310995
 20
1471.910236510598
 30
0.0
  0
SPLINE
  5
1E1
330
1F
100
AcDbEntity
  8
0
  6
Continuous
 62
     7
370
    25
100
AcDbSpline
210
0.0
220
0.0
230
1.0
 70
     8
 71
     3
 72
    14
 73
    10
 74
     0
 42
0.000000001
 43
0.00000001
 40
0.0
 40
0.0
 40
0.0
 40
0.0
 40
0.223979908930624
 40
0.3530600787851468
 40
0.4831615846561638
 40
0.5937368434045536
 40
0.697187162648426
 40
0.8442013099709218
 40
1.0
 40
1.0
 40
1.0
 40
1.0
 10
1463.79971125241
 20
1476.26325435786
 30
0.0
 10
1463.778354968814
 20
1476.201708943677
 30
0.0
 10
1463.744691006697
 20
1476.104694756627
 30
0.0
 10
1463.629211290921
 20
1475.983946807733
 30
0.0
 10
1463.509039902265
 20
1475.912589395212
 30
0.0
 10
1463.380401569644
 20
1475.879384306382
 30
0.0
 10
1463.248855001716
 20
1475.878250632412
 30
0.0
 10
1463.116245577871
 20
1475.91171204805
 30
0.0
 10
1463.04346216037
 20
1475.960451333348
 30
0.0
 10
1463.006014735083
 20
1475.985527934686
 30
0.0
  0
SPLINE
  5
1E2
330
1F
100
AcDbEntity
  8
0
  6
Continuous
 62
     7
370
    25
100
AcDbSpline
210
0.0
220
0.0
230
1.0
 70
     8
 71
     3
 72
    30
 73
    26
 74
     0
 42
0.000000001
 43
0.00000001
 40
0.0
 40
0.0
 40
0.0
 40
0.0
 40
0.0436326703263215
 40
0.0875749781500541
 40
0.1324697918177409
 40
0.1776879097589701
 40
0.2471697669172416
 40
0.3182319002770992
 40
0.354374616832605
 40
0.3910547066027313
 40
0.4195535900770276
 40
0.4487399260949183
 40
0.4718549633840102
 40
0.4956323239076552
 40
0.5187532378092593
 40
0.5424776768489695
 40
0.5764529707070517
 40
0.6113599295178227
 40
0.6689630945504174
 40
0.7280598292433301
 40
0.7705504599328689
 40
0.8133510372521687
 40
0.9010083644128257
 40
0.9502779135835192
 40
1.0
 40
1.0
 40
1.0
 40
1.0
 10
1469.526805030515
 20
1475.617965864796
 30
0.0
 10
1469.521791125014
 20
1475.730219025703
 30
0.0
 10
1469.511727733032
 20
1475.955521947576
 30
0.0
 10
1469.447431675327
 20
1476.287052370732
 30
0.0
 10
1469.347034536104
 20
1476.612343414148
 30
0.0
 10
1469.181268882165
 20
1476.983928498416
 30
0.0
 10
1468.92143176733
 20
1477.389881823078
 30
0.0
 10
1468.591220527207
 20
1477.73805110608
 30
0.0
 10
1468.262441692902
 20
1477.990351679317
 30
0.0
 10
1467.998052153834
 20
1478.150154935349
 30
0.0
 10
1467.721860670212
 20
1478.279279788831
 30
0.0
 10
1467.4621361569
 20
1478.370695769852
 30
0.0
 10
1467.201849369597
 20
1478.435448004624
 30
0.0
 10
1466.95475738338
 20
1478.474649902169
 30
0.0
 10
1466.705695662918
 20
1478.492276215692
 30
0.0
 10
1466.428337240845
 20
1478.488392557715
 30
0.0
 10
1466.127556243668
 20
1478.45357401854
 30
0.0
 10
1465.7497697203
 20
1478.366002316339
 30
0.0
 10
1465.345818461759
 20
1478.20867809208
 30
0.0
 10
1464.977937861983
 20
1477.990010129373
 30
0.0
 10
1464.684123403467
 20
1477.755821489199
 30
0.0
 10
1464.370967501358
 20
1477.4424824531
 30
0.0
 10
1464.108325832631
 20
1477.06711735286
 30
0.0
 10
1463.904378471355
 20
1476.635268358698
 30
0.0
 10
1463.834706493167
 20
1476.387636372166
 30
0.0
 10
1463.79971125241
 20
1476.26325435786
 30
0.0
  0
SPLINE
  5
1E3
330
1F
100
AcDbEntity
  8
0
  6
Continuous
 62
     7
370
    25
100
AcDbSpline
210
0.0
220
0.0
230
1.0
 70
     8
 71
     3
 72
    14
 73
    10
 74
     0
 42
0.000000001
 43
0.00000001
 40
0.0
 40
0.0
 40
0.0
 40
0.0
 40
0.2200911109486944
 40
0.3501199592092937
 40
0.4590676183977839
 40
0.5685351145661528
 40
0.6668402217391463
 40
0.7968948941937277
 40
1.0
 40
1.0
 40
1.0
 40
1.0
 10
1470.23880197599
 20
1475.17058853258
 30
0.0
 10
1470.180076230557
 20
1475.149542134165
 30
0.0
 10
1470.086655576234
 20
1475.116061617288
 30
0.0
 10
1469.930767959055
 20
1475.127321901769
 30
0.0
 10
1469.807623329505
 20
1475.168056468848
 30
0.0
 10
1469.703019418652
 20
1475.235966590139
 30
0.0
 10
1469.615972622791
 20
1475.329464927068
 30
0.0
 10
1469.542484181899
 20
1475.462171163238
 30
0.0
 10
1469.532743356509
 20
1475.558960137805
 30
0.0
 10
1469.526805030515
 20
1475.617965864796
 30
0.0
  0
SPLINE
  5
1E4
330
1F
100
AcDbEntity
  8
0
  6
Continuous
 62
     7
370
    25
100
AcDbSpline
210
0.0
220
0.0
230
1.0
 70
     8
 71
     3
 72
    32
 73
    28
 74
     0
 42
0.000000001
 43
0.00000001
 40
0.0
 40
0.0
 40
0.0
 40
0.0
 40
0.0453942490664628
 40
0.0911149500211706
 40
0.1378156604218371
 40
0.184838415373829
 40
0.2588911921182534
 40
0.2966281930596079
 40
0.3346227841547531
 40
0.3627380257352123
 40
0.3910884026637673
 40
0.419246601095741
 40
0.4481819119438876
 40
0.4658254771020669
 40
0.4839564361058552
 40
0.5016138628025536
 40
0.5197789833318565
 40
0.5448703289759615
 40
0.570641441783176
 40
0.6177923775613927
 40
0.66606647834963
 40
0.7088271620555663
 40
0.7519045224538984
 40
0.7958661863085486
 40
0.840099177263378
 40
0.9191874857499359
 40
0.9999999999999999
 40
0.9999999999999999
 40
0.9999999999999999
 40
0.9999999999999999
 10
1473.305079681775
 20
1470.29063551913
 30
0.0
 10
1473.394095714857
 20
1470.368669309018
 30
0.0
 10
1473.572767938146
 20
1470.525298067327
 30
0.0
 10
1473.799497339919
 20
1470.796415489823
 30
0.0
 10
1473.994991762732
 20
1471.092090630204
 30
0.0
 10
1474.183811742819
 20
1471.473945141139
 30
0.0
 10
1474.305467121844
 20
1471.863976487722
 30
0.0
 10
1474.365067724453
 20
1472.255946552215
 30
0.0
 10
1474.37822251617
 20
1472.540636566355
 30
0.0
 10
1474.364652391823
 20
1472.811619367208
 30
0.0
 10
1474.33002833146
 20
1473.065436096918
 30
0.0
 10
1474.268074656232
 20
1473.334633905035
 30
0.0
 10
1474.184489328367
 20
1473.582609922907
 30
0.0
 10
1474.088535916485
 20
1473.801219821148
 30
0.0
 10
1473.994676226931
 20
1473.98017139809
 30
0.0
 10
1473.887666634571
 20
1474.153342172114
 30
0.0
 10
1473.757206769557
 20
1474.334990324707
 30
0.0
 10
1473.601358373761
 20
1474.518520878316
 30
0.0
 10
1473.374374176558
 20
1474.742273242062
 30
0.0
 10
1473.087829743378
 20
1474.963680513263
 30
0.0
 10
1472.75570172492
 20
1475.153076017785
 30
0.0
 10
1472.427674749711
 20
1475.28898985211
 30
0.0
 10
1472.105382581376
 20
1475.380744351172
 30
0.0
 10
1471.775243068052
 20
1475.435168122153
 30
0.0
 10
1471.351562330622
 20
1475.454234618981
 30
0.0
 10
1470.830241239839
 20
1475.402307704713
 30
0.0
 10
1470.437360537539
 20
1475.248381517109
 30
0.0
 10
1470.23880197599
 20
1475.17058853258
 30
0.0
  0
SPLINE
  5
1E5
330
1F
100
AcDbEntity
  8
0
  6
Continuous
 62
     7
370
    25
100
AcDbSpline
210
0.0
220
0.0
230
1.0
 70
     8
 71
     3
 72
    15
 73
    11
 74
     0
 42
0.000000001
 43
0.00000001
 40
0.0
 40
0.0
 40
0.0
 40
0.0
 40
0.2150763736126773
 40
0.341334992697864
 40
0.4465934903529866
 40
0.5524796219273499
 40
0.644907062172701
 40
0.766214653902387
 40
0.9406316560516346
 40
1.0
 40
1.0
 40
1.0
 40
1.0
 10
1473.399228833364
 20
1469.455038687518
 30
0.0
 10
1473.348168670627
 20
1469.486257839988
 30
0.0
 10
1473.267134106103
 20
1469.535803910535
 30
0.0
 10
1473.179195107693
 20
1469.658673997033
 30
0.0
 10
1473.132128865297
 20
1469.776155945175
 30
0.0
 10
1473.116417017247
 20
1469.897225471769
 30
0.0
 10
1473.130077231873
 20
1470.020711968755
 30
0.0
 10
1473.177885182605
 20
1470.149963193454
 30
0.0
 10
1473.244029600737
 20
1470.237754761317
 30
0.0
 10
1473.292716057055
 20
1470.279926313943
 30
0.0
 10
1473.305079681775
 20
1470.29063551913
 30
0.0
  0
SPLINE
  5
1E6
330
1F
100
AcDbEntity
  8
0
  6
Continuous
 62
     7
370
    25
100
AcDbSpline
210
0.0
220
0.0
230
1.0
 70
     8
 71
     3
 72
    31
 73
    27
 74
     0
 42
0.000000001
 43
0.00000001
 40
0.0
 40
0.0
 40
0.0
 40
0.0
 40
0.0454607206422233
 40
0.0912523105000948
 40
0.1380039939419754
 40
0.1850569766220852
 40
0.2317313313269179
 40
0.2786919429616913
 40
0.32665097080004
 40
0.3750383523003422
 40
0.4232178410751216
 40
0.443154402400156
 40
0.4635003413749842
 40
0.4878952774620312
 40
0.5124044001519353
 40
0.5281393563613822
 40
0.544304288332271
 40
0.5755932948345769
 40
0.6075644629398385
 40
0.645392141797932
 40
0.6834895881007625
 40
0.7611220761218677
 40
0.8468999539818464
 40
0.8906330087990968
 40
0.9346232009734232
 40
1.0
 40
1.0
 40
1.0
 40
1.0
 10
1471.495720813708
 20
1464.015125305707
 30
0.0
 10
1471.616565878682
 20
1463.993586585634
 30
0.0
 10
1471.859135535202
 20
1463.950352383798
 30
0.0
 10
1472.222221120245
 20
1463.944412727617
 30
0.0
 10
1472.581686359639
 20
1463.979841014633
 30
0.0
 10
1472.932263239902
 20
1464.06012249961
 30
0.0
 10
1473.269556960523
 20
1464.18230980033
 30
0.0
 10
1473.593146018023
 20
1464.34698715427
 30
0.0
 10
1473.903083582165
 20
1464.557485812064
 30
0.0
 10
1474.197157396409
 20
1464.819623593913
 30
0.0
 10
1474.420867831328
 20
1465.082583464129
 30
0.0
 10
1474.583770865882
 20
1465.326126686019
 30
0.0
 10
1474.699144012193
 20
1465.528439936389
 30
0.0
 10
1474.814729017904
 20
1465.779739609343
 30
0.0
 10
1474.899543736743
 20
1466.031764787405
 30
0.0
 10
1474.950880097689
 20
1466.23941803251
 30
0.0
 10
1474.991459655285
 20
1466.459491434106
 30
0.0
 10
1475.016091033559
 20
1466.71374532672
 30
0.0
 10
1475.015425706583
 20
1467.010648238659
 30
0.0
 10
1474.984381593012
 20
1467.30670653504
 30
0.0
 10
1474.899779035485
 20
1467.704446697714
 30
0.0
 10
1474.714316057313
 20
1468.188189572939
 30
0.0
 10
1474.424345384943
 20
1468.632629951006
 30
0.0
 10
1474.117661280618
 20
1468.959897272397
 30
0.0
 10
1473.812977566054
 20
1469.222411752718
 30
0.0
 10
1473.554024421289
 20
1469.368006099151
 30
0.0
 10
1473.399228833364
 20
1469.455038687518
 30
0.0
  0
SPLINE
  5
1E7
330
1F
100
AcDbEntity
  8
0
  6
Continuous
 62
     7
370
    25
100
AcDbSpline
210
0.0
220
0.0
230
1.0
 70
     8
 71
     3
 72
    15
 73
    11
 74
     0
 42
0.000000001
 43
0.00000001
 40
0.0
 40
0.0
 40
0.0
 40
0.0
 40
0.2129294053203079
 40
0.333310728317711
 40
0.4345062010026786
 40
0.5362836886507318
 40
0.625636715102165
 40
0.745636854756775
 40
0.921192717688075
 40
1.0
 40
1.0
 40
1.0
 40
1.0
 10
1470.901125939973
 20
1463.420530431972
 30
0.0
 10
1470.893652619735
 20
1463.479571504887
 30
0.0
 10
1470.881954198805
 20
1463.571991915232
 30
0.0
 10
1470.921796625193
 20
1463.715471888297
 30
0.0
 10
1470.981233599644
 20
1463.823136422727
 30
0.0
 10
1471.062222003489
 20
1463.910080389307
 30
0.0
 10
1471.16344700812
 20
1463.977609728275
 30
0.0
 10
1471.292038406492
 20
1464.024210076594
 30
0.0
 10
1471.407063025184
 20
1464.030869425933
 30
0.0
 10
1471.474749926765
 20
1464.018849379709
 30
0.0
 10
1471.495720813708
 20
1464.015125305707
 30
0.0
  0
SPLINE
  5
1E8
330
1F
100
AcDbEntity
  8
0
  6
Continuous
 62
     7
370
    25
100
AcDbSpline
210
0.0
220
0.0
230
1.0
 70
     8
 71
     3
 72
    32
 73
    28
 74
     0
 42
0.000000001
 43
0.00000001
 40
0.0
 40
0.0
 40
0.0
 40
0.0
 40
0.0447120024448324
 40
0.0897510683881185
 40
0.1357337494830722
 40
0.182010104717099
 40
0.2279866507550023
 40
0.2742348602616632
 40
0.321388713952825
 40
0.3688999197495205
 40
0.4236598558301544
 40
0.4510230069928877
 40
0.4792153189811414
 40
0.5037509674809499
 40
0.5283882607504857
 40
0.5445704263132607
 40
0.5611899076196755
 40
0.601339062967214
 40
0.6426114615938104
 40
0.685503832637691
 40
0.728705483693976
 40
0.7727266257640006
 40
0.8169894777562818
 40
0.8620202251363117
 40
0.9073149340905199
 40
0.953490536676735
 40
1.0
 40
1.0
 40
1.0
 40
1.0
 10
1465.461212558163
 20
1461.517022412316
 30
0.0
 10
1465.519205765311
 20
1461.409986241513
 30
0.0
 10
1465.635616393692
 20
1461.195130941807
 30
0.0
 10
1465.854722819155
 20
1460.910006188423
 30
0.0
 10
1466.102987910799
 20
1460.653240322696
 30
0.0
 10
1466.37978311828
 20
1460.430847448091
 30
0.0
 10
1466.679892244259
 20
1460.244328961749
 30
0.0
 10
1467.002901971906
 20
1460.094299205027
 30
0.0
 10
1467.350077706477
 20
1459.982436738652
 30
0.0
 10
1467.74218291265
 20
1459.909443693932
 30
0.0
 10
1468.111642151978
 20
1459.893516077917
 30
0.0
 10
1468.461515226114
 20
1459.924572097518
 30
0.0
 10
1468.741899787448
 20
1459.976614581429
 30
0.0
 10
1469.039536197524
 20
1460.064936884247
 30
0.0
 10
1469.286962188043
 20
1460.168325920314
 30
0.0
 10
1469.47892087869
 20
1460.267931608008
 30
0.0
 10
1469.698456454214
 20
1460.399506196522
 30
0.0
 10
1469.944726568677
 20
1460.583774007219
 30
0.0
 10
1470.199389949985
 20
1460.828194267236
 30
0.0
 10
1470.416266168839
 20
1461.092455457831
 30
0.0
 10
1470.599046355005
 20
1461.37715735663
 30
0.0
 10
1470.747079617917
 20
1461.679584717479
 30
0.0
 10
1470.860129942817
 20
1462.000152695985
 30
0.0
 10
1470.936129585219
 20
1462.336273930155
 30
0.0
 10
1470.971415565899
 20
1462.687608969877
 30
0.0
 10
1470.966767329399
 20
1463.050495719536
 30
0.0
 10
1470.923058883824
 20
1463.296889682718
 30
0.0
 10
1470.901125939973
 20
1463.420530431972
 30
0.0
  0
SPLINE
  5
1E9
330
1F
100
AcDbEntity
  8
0
  6
Continuous
 62
     7
370
    25
100
AcDbSpline
210
0.0
220
0.0
230
1.0
 70
     8
 71
     3
 72
    15
 73
    11
 74
     0
 42
0.000000001
 43
0.00000001
 40
0.0
 40
0.0
 40
0.0
 40
0.0
 40
0.2155767705933957
 40
0.3329005538677869
 40
0.4328760582230984
 40
0.5332634977246112
 40
0.6250838127945686
 40
0.753554709688816
 40
0.9421338378892274
 40
1.0
 40
1.0
 40
1.0
 40
1.0
 10
1464.625615726551
 20
1461.611171563905
 30
0.0
 10
1464.668875275491
 20
1461.655352501909
 30
0.0
 10
1464.735678056526
 20
1461.723578121447
 30
0.0
 10
1464.876271579009
 20
1461.780957340244
 30
0.0
 10
1464.996752394162
 20
1461.799672062674
 30
0.0
 10
1465.113680328136
 20
1461.789371355542
 30
0.0
 10
1465.23036050495
 20
1461.751079458192
 30
0.0
 10
1465.350174192436
 20
1461.675190699106
 30
0.0
 10
1465.422897865496
 20
1461.58916405891
 30
0.0
 10
1465.453926850709
 20
1461.530740463948
 30
0.0
 10
1465.461212558163
 20
1461.517022412316
 30
0.0
  0
CIRCLE
  5
1EA
330
1F
100
AcDbEntity
  8
0
  6
Continuous
 62
     7
370
    25
100
AcDbCircle
 10
1787.1603522728
 20
1147.7558989728
 30
0.0
 40
445.0
  0
LINE
  5
1EB
330
1F
100
AcDbEntity
  8
0
  6
Continuous
 62
     8
370
    18
100
AcDbLine
 10
2101.2017208057
 20
1469.9481913866
 30
0.0
 11
2100.1541475209
 21
1468.9006181018
 31
0.0
  0
LINE
  5
1EC
330
1F
100
AcDbEntity
  8
0
  6
Continuous
 62
     8
370
    18
100
AcDbLine
 10
1467.9402602814
 20
835.6068747933
 30
0.0
 11
1468.9821639158
 21
836.6487784277
 31
0.0
  0
LINE
  5
1ED
330
1F
100
AcDbEntity
  8
0
  6
Continuous
 62
     8
370
    18
100
AcDbLine
 10
2098.2674728179
 20
1465.9340873298
 30
0.0
 11
2099.3074101271
 21
1466.9740246389
 31
0.0
  0
LINE
  5
1EE
330
1F
100
AcDbEntity
  8
0
  6
Continuous
 62
     8
370
    18
100
AcDbLine
 10
1475.0021149041
 20
828.5265937922
 30
0.0
 11
1476.0532317277
 21
829.5777106158
 31
0.0
  0
LINE
  5
1EF
330
1F
100
AcDbEntity
  8
0
  6
Continuous
 62
     8
370
    18
100
AcDbLine
 10
2105.3385406298
 20
1458.8630195179
 30
0.0
 11
2106.3783555037
 21
1459.9028343918
 31
0.0
  0
LINE
  5
1F0
330
1F
100
AcDbEntity
  8
0
  6
Continuous
 62
     8
370
    18
100
AcDbLine
 10
2108.3691859928
 20
1460.8137164665
 30
0.0
 11
2109.3529006475
 21
1461.7974311212
 31
0.0
  0
LINE
  5
1F1
330
1F
100
AcDbEntity
  8
0
  6
Continuous
 62
     8
370
    18
100
AcDbLine
 10
1464.968059859
 20
1461.7972675057
 30
0.0
 11
1466.0156331439
 21
1460.7496942208
 31
0.0
  0
LINE
  5
1F2
330
1F
100
AcDbEntity
  8
0
  6
Continuous
 62
     8
370
    18
100
AcDbLine
 10
2099.3093764524
 20
828.5358069814
 30
0.0
 11
2098.2674728179
 21
829.5777106158
 31
0.0
  0
LINE
  5
1F3
330
1F
100
AcDbEntity
  8
0
  6
Continuous
 62
     8
370
    18
100
AcDbLine
 10
1468.9821639158
 20
1458.8630195179
 30
0.0
 11
1467.9422266067
 21
1459.9029568271
 31
0.0
  0
LINE
  5
1F4
330
1F
100
AcDbEntity
  8
0
  6
Continuous
 62
     8
370
    18
100
AcDbLine
 10
2106.3896574534
 20
835.5976616041
 30
0.0
 11
2105.3385406298
 21
836.6487784277
 31
0.0
  0
LINE
  5
1F5
330
1F
100
AcDbEntity
  8
0
  6
Continuous
 62
     8
370
    18
100
AcDbLine
 10
1476.0532317277
 20
1465.9340873298
 30
0.0
 11
1475.0134168538
 21
1466.9739022037
 31
0.0
  0
LINE
  5
1F6
330
1F
100
AcDbEntity
  8
0
  6
Continuous
 62
     8
370
    18
100
AcDbLine
 10
1474.1025347792
 20
1468.9647326928
 30
0.0
 11
1473.1188201245
 21
1469.9484473475
 31
0.0
  0
LINE
  5
1F7
330
1F
100
AcDbEntity
  8
0
  6
Continuous
 62
     7
370
    25
100
AcDbLine
 10
294.4252577383
 20
502.6337054478
 30
0.0
 11
306.8850755505
 21
504.6177311862
 31
0.0
  0
LINE
  5
1F8
330
1F
100
AcDbEntity
  8
0
  6
Continuous
 62
     7
370
    25
100
AcDbLine
 10
562.6384344639
 20
442.1080573209
 30
0.0
 11
570.7238149306
 21
428.6388039271
 31
0.0
  0
LINE
  5
1F9
330
1F
100
AcDbEntity
  8
0
  6
Continuous
 62
     7
370
    25
100
AcDbLine
 10
580.2144320704
 20
258.0245945962
 30
0.0
 11
580.2144320704
 21
259.3103455472
 31
0.0
  0
LINE
  5
1FA
330
1F
100
AcDbEntity
  8
0
  6
Continuous
 62
     7
370
    25
100
AcDbLine
 10
570.7144320704
 20
259.3103455472
 30
0.0
 11
570.7144320704
 21
258.0245945962
 31
0.0
  0
SPLINE
  5
1FB
330
1F
100
AcDbEntity
  8
0
  6
Continuous
 62
     7
370
    25
100
AcDbSpline
210
0.0
220
0.0
230
1.0
 70
     8
 71
     3
 72
    41
 73
    37
 74
     0
 42
0.000000001
 43
0.00000001
 40
0.0
 40
0.0
 40
0.0
 40
0.0
 40
0.011053343001578
 40
0.0384067410795732
 40
0.0654349821335771
 40
0.0922705277679904
 40
0.1190588983597882
 40
0.1459619592158157
 40
0.1731641467487899
 40
0.2008753168148042
 40
0.2293244341461175
 40
0.258733147603423
 40
0.2892547513525983
 40
0.3208778939976259
 40
0.3533510625836459
 40
0.3861969977047467
 40
0.418959506304132
 40
0.4514969376376864
 40
0.4838425389781096
 40
0.516130900760693
 40
0.5485460299556476
 40
0.5812285302932688
 40
0.6143940978922503
 40
0.6482424176339078
 40
0.6828959766046172
 40
0.7182791998736957
 40
0.7492063452241008
 40
0.7791072452272586
 40
0.8080019247045946
 40
0.8360448449968524
 40
0.863419658638909
 40
0.890294475274141
 40
0.9168098788025113
 40
0.9459644348792191
 40
0.9744944245238849
 40
1.0
 40
1.0
 40
1.0
 40
1.0
 10
570.7197057450204
 20
258.0256807379724
 30
0.0
 10
570.7183632136739
 20
257.9767116870112
 30
0.0
 10
570.7136983576382
 20
257.8065602983399
 30
0.0
 10
570.7507216170903
 20
257.5177271193409
 30
0.0
 10
570.8278261482775
 20
257.1666431096858
 30
0.0
 10
570.9457089410886
 20
256.8299279337367
 30
0.0
 10
571.0986252694979
 20
256.5097407532347
 30
0.0
 10
571.2854171405424
 20
256.2076008200257
 30
0.0
 10
571.5043225066954
 20
255.924494302199
 30
0.0
 10
571.7545887653384
 20
255.6609875966995
 30
0.0
 10
572.0361586540168
 20
255.4174677803958
 30
0.0
 10
572.3495634039596
 20
255.1945184736215
 30
0.0
 10
572.695173429557
 20
254.9933712591332
 30
0.0
 10
573.0719689533472
 20
254.8161702169567
 30
0.0
 10
573.4762178863203
 20
254.6657413842307
 30
0.0
 10
573.9014301477027
 20
254.54464499876
 30
0.0
 10
574.3403469433715
 20
254.4541630602506
 30
0.0
 10
574.7870076863705
 20
254.3943149208775
 30
0.0
 10
575.237636907588
 20
254.3645556821362
 30
0.0
 10
575.6897776028167
 20
254.364497380786
 30
0.0
 10
576.1414168194602
 20
254.394237489785
 30
0.0
 10
576.5909046210211
 20
254.4544784504605
 30
0.0
 10
577.0366630750816
 20
254.5466633946833
 30
0.0
 10
577.4769843332939
 20
254.6731546691611
 30
0.0
 10
577.9087691260039
 20
254.8369887176417
 30
0.0
 10
578.307423410212
 20
255.0318065438691
 30
0.0
 10
578.6653019129458
 20
255.2510558040473
 30
0.0
 10
578.9774271272938
 20
255.4854494019253
 30
0.0
 10
579.255962120138
 20
255.7409539099347
 30
0.0
 10
579.5005478137177
 20
256.0158259452037
 30
0.0
 10
579.7109082526274
 20
256.308513136075
 30
0.0
 10
579.8863119684933
 20
256.6172403592902
 30
0.0
 10
580.0312167646501
 20
256.9514356789964
 30
0.0
 10
580.137964469698
 20
257.3083547825578
 30
0.0
 10
580.2037106341694
 20
257.6720133972636
 30
0.0
 10
580.2097937762356
 20
257.9115485096725
 30
0.0
 10
580.2126651080845
 20
258.0246125791436
 30
0.0
  0
LINE
  5
1FC
330
1F
100
AcDbEntity
  8
0
  6
Continuous
 62
     7
370
    25
100
AcDbLine
 10
296.0724979961
 20
335.2482838524
 30
0.0
 11
296.0724979961
 21
336.5340348034
 31
0.0
  0
LINE
  5
1FD
330
1F
100
AcDbEntity
  8
0
  6
Continuous
 62
     7
370
    25
100
AcDbLine
 10
286.5724979961
 20
336.5340348034
 30
0.0
 11
286.5724979961
 21
335.2482838524
 31
0.0
  0
SPLINE
  5
1FE
330
1F
100
AcDbEntity
  8
0
  6
Continuous
 62
     7
370
    25
100
AcDbSpline
210
0.0
220
0.0
230
1.0
 70
     8
 71
     3
 72
    28
 73
    24
 74
     0
 42
0.000000001
 43
0.00000001
 40
0.0
 40
0.0
 40
0.0
 40
0.0
 40
0.0046128444927666
 40
0.0522686644297225
 40
0.0993087507374361
 40
0.1459421185462796
 40
0.1924150933701971
 40
0.2389986918925283
 40
0.2860001777912056
 40
0.3337704918143276
 40
0.3826996383257465
 40
0.4331839428844971
 40
0.485540561309893
 40
0.5398547944470486
 40
0.5958194447275292
 40
0.6527440767136002
 40
0.7096712430873829
 40
0.7662447244580272
 40
0.8224439486212607
 40
0.8784615113092686
 40
0.9345971844866744
 40
0.9880619092393355
 40
1.0
 40
1.0
 40
1.0
 40
1.0
 10
286.5744129762988
 20
335.2483881703929
 30
0.0
 10
286.5737855559285
 20
335.236627974282
 30
0.0
 10
286.56667618451
 20
335.1033718575599
 30
0.0
 10
286.5939302933764
 20
334.8495811112126
 30
0.0
 10
286.6575797639376
 20
334.4948097811896
 30
0.0
 10
286.7646143732773
 20
334.1534738047882
 30
0.0
 10
286.9068889136233
 20
333.8281251154163
 30
0.0
 10
287.0837397436672
 20
333.5204148467257
 30
0.0
 10
287.2930614906768
 20
333.2314951292378
 30
0.0
 10
287.5339177931485
 20
332.962036073471
 30
0.0
 10
287.8060098586881
 20
332.7124465450647
 30
0.0
 10
288.1097504063602
 20
332.4832035628822
 30
0.0
 10
288.4456673006675
 20
332.2752995580192
 30
0.0
 10
288.8133047650496
 20
332.0906031890236
 30
0.0
 10
289.2099358800191
 20
331.9317643166846
 30
0.0
 10
289.6296652438437
 20
331.8016119211518
 30
0.0
 10
290.0652497490659
 20
331.7018489887524
 30
0.0
 10
290.5100524536096
 20
331.632826705584
 30
0.0
 10
290.95978908224
 20
331.5940781876114
 30
0.0
 10
291.4116968858731
 20
331.5850496484894
 30
0.0
 10
291.8553770502494
 20
331.6055595268014
 30
0.0
 10
292.1777344919288
 20
331.6409776389796
 30
0.0
 10
292.3489673599577
 20
331.6674294200221
 30
0.0
 10
292.3802227960378
 20
331.6722577100641
 30
0.0
  0
SPLINE
  5
1FF
330
1F
100
AcDbEntity
  8
0
  6
Continuous
 62
     7
370
    25
100
AcDbSpline
210
0.0
220
0.0
230
1.0
 70
     8
 71
     3
 72
    22
 73
    18
 74
     0
 42
0.000000001
 43
0.00000001
 40
0.0
 40
0.0
 40
0.0
 40
0.0
 40
0.0444327591347768
 40
0.1233986517812554
 40
0.2041251268805656
 40
0.2867557888576975
 40
0.3611279175712231
 40
0.4333362596648915
 40
0.5030746307790306
 40
0.570546755341927
 40
0.6361613754061581
 40
0.7003460082545001
 40
0.7634754188721051
 40
0.8258587352093848
 40
0.8941566862350689
 40
0.9610519184487597
 40
1.0
 40
1.0
 40
1.0
 40
1.0
 10
292.3802227960378
 20
331.6722577100641
 30
0.0
 10
292.4652600191093
 20
331.6868547608797
 30
0.0
 10
292.7014253818411
 20
331.7273936881421
 30
0.0
 10
293.0828149540266
 20
331.8201041102691
 30
0.0
 10
293.5201230684145
 20
331.9617346580264
 30
0.0
 10
293.9300299270012
 20
332.1354293801523
 30
0.0
 10
294.3048392798445
 20
332.3358457079994
 30
0.0
 10
294.6380234068255
 20
332.5554474547874
 30
0.0
 10
294.9383041142826
 20
332.7975772242778
 30
0.0
 10
295.2048050166682
 20
333.060139729302
 30
0.0
 10
295.4372728535384
 20
333.3415228339939
 30
0.0
 10
295.6353470630586
 20
333.6401300473724
 30
0.0
 10
295.7980956613112
 20
333.9540432047206
 30
0.0
 10
295.9294858443682
 20
334.2920181596367
 30
0.0
 10
296.020991042179
 20
334.6508380182
 30
0.0
 10
296.0692016600314
 20
334.9752133436388
 30
0.0
 10
296.0677310227805
 20
335.173896854843
 30
0.0
 10
296.0671898596448
 20
335.247008148528
 30
0.0
  0
LINE
  5
200
330
1F
100
AcDbEntity
  8
0
  6
Continuous
 62
     7
370
    25
100
AcDbLine
 10
730.1522580645
 20
404.368509323
 30
0.0
 11
730.1522580645
 21
405.654260274
 31
0.0
  0
LINE
  5
201
330
1F
100
AcDbEntity
  8
0
  6
Continuous
 62
     7
370
    25
100
AcDbLine
 10
720.6522580645
 20
405.654260274
 30
0.0
 11
720.6522580645
 21
404.368509323
 31
0.0
  0
SPLINE
  5
202
330
1F
100
AcDbEntity
  8
0
  6
Continuous
 62
     7
370
    25
100
AcDbSpline
210
0.0
220
0.0
230
1.0
 70
     8
 71
     3
 72
    41
 73
    37
 74
     0
 42
0.000000001
 43
0.00000001
 40
0.0
 40
0.0
 40
0.0
 40
0.0
 40
0.0112823649036757
 40
0.0386328199062582
 40
0.0656588970392207
 40
0.0924933719863323
 40
0.11928186407605
 40
0.146186392290903
 40
0.173391586772784
 40
0.201107493701898
 40
0.2295631576324679
 40
0.258979982461161
 40
0.289510379355491
 40
0.3211413165099081
 40
0.3536193978597876
 40
0.3864656418339099
 40
0.4192265228831908
 40
0.4517620026822713
 40
0.4841064000273703
 40
0.5163948500734027
 40
0.5488112275791057
 40
0.5814965119141974
 40
0.6146665306451138
 40
0.6485206671766341
 40
0.6831804140571881
 40
0.7185680408625876
 40
0.749486425786068
 40
0.7793778774576782
 40
0.8082641060597273
 40
0.8363001792892403
 40
0.8636697405849706
 40
0.890540676569736
 40
0.9170533238598292
 40
0.946201772512963
 40
0.9747264243817947
 40
1.0
 40
1.0
 40
1.0
 40
1.0
 10
720.6575662010127
 20
404.3697850268478
 30
0.0
 10
720.6562319988692
 20
404.3197995269007
 30
0.0
 10
720.6516634539255
 20
404.148640303292
 30
0.0
 10
720.6889881514218
 20
403.8588521575749
 30
0.0
 10
720.7664303953966
 20
403.5078683831094
 30
0.0
 10
720.8845933781266
 20
403.1712752159036
 30
0.0
 10
721.0377823364951
 20
402.8512237633956
 30
0.0
 10
721.2248299814852
 20
402.5492293646231
 30
0.0
 10
721.4439825210163
 20
402.2662741696255
 30
0.0
 10
721.694492469
 20
402.002922116534
 30
0.0
 10
721.9763085732424
 20
401.7595601708476
 30
0.0
 10
722.2899643628509
 20
401.536775280458
 30
0.0
 10
722.6358246633673
 20
401.335805632177
 30
0.0
 10
723.0128535285648
 20
401.1588021730228
 30
0.0
 10
723.4172928396126
 20
401.0085942126993
 30
0.0
 10
723.8426390417169
 20
400.8877340111582
 30
0.0
 10
724.2816353304373
 20
400.7974926336929
 30
0.0
 10
724.7283395784322
 20
400.737881578221
 30
0.0
 10
725.1789887920404
 20
400.7083551806399
 30
0.0
 10
725.6311321013447
 20
400.7085283658354
 30
0.0
 10
726.082760026324
 20
400.7385028055236
 30
0.0
 10
726.5322244068333
 20
400.7989862366674
 30
0.0
 10
726.9779480914657
 20
400.8914285319277
 30
0.0
 10
727.4182173895996
 20
401.0181988675312
 30
0.0
 10
727.8499172042143
 20
401.1823365961101
 30
0.0
 10
728.2484029056552
 20
401.3774454017391
 30
0.0
 10
728.6060374982953
 20
401.5969478815162
 30
0.0
 10
728.9178684892685
 20
401.8315374419158
 30
0.0
 10
729.1961037180008
 20
402.0872204361265
 30
0.0
 10
729.4403877488543
 20
402.3622571759757
 30
0.0
 10
729.6504428445497
 20
402.6550947559217
 30
0.0
 10
729.8255326792556
 20
402.9639548178808
 30
0.0
 10
729.9701008835664
 20
403.2982489403688
 30
0.0
 10
730.0764712780405
 20
403.6552213905957
 30
0.0
 10
730.1417344745115
 20
404.0178793735397
 30
0.0
 10
730.1475915301585
 20
404.2563671393406
 30
0.0
 10
730.1503430843586
 20
404.3684050049829
 30
0.0
  0
ARC
  5
203
330
1F
100
AcDbEntity
  8
0
  6
Continuous
 62
     7
370
    25
100
AcDbCircle
 10
291.166473298
 20
520.8001600288
 30
0.0
 40
5.000000000000061
100
AcDbArc
 50
39.3902010381
 51
142.7543047467
  0
LINE
  5
204
330
1F
100
AcDbEntity
  8
0
  6
Continuous
 62
     7
370
    25
100
AcDbLine
 10
288.6677100651
 20
521.9017461824
 30
0.0
 11
288.6677100651
 21
334.952367003
 31
0.0
  0
LINE
  5
205
330
1F
100
AcDbEntity
  8
0
  6
Continuous
 62
     7
370
    25
100
AcDbLine
 10
294.4252577383
 20
335.0634771219
 30
0.0
 11
294.4252577383
 21
502.8513864857
 31
0.0
  0
LINE
  5
206
330
1F
100
AcDbEntity
  8
0
  6
Continuous
 62
     7
370
    25
100
AcDbLine
 10
294.4252577383
 20
516.5712427979
 30
0.0
 11
294.4252577383
 21
521.5399142778
 31
0.0
  0
LINE
  5
207
330
1F
100
AcDbEntity
  8
0
  6
Continuous
 62
     7
370
    25
100
AcDbLine
 10
286.7196578954
 20
522.1168508314
 30
0.0
 11
286.7196578954
 21
336.032284998
 31
0.0
  0
LINE
  5
208
330
1F
100
AcDbEntity
  8
0
  6
Continuous
 62
     7
370
    25
100
AcDbLine
 10
296.0359779973
 20
336.2819471689
 30
0.0
 11
296.0359779973
 21
502.8901867623
 31
0.0
  0
LINE
  5
209
330
1F
100
AcDbEntity
  8
0
  6
Continuous
 62
     7
370
    25
100
AcDbLine
 10
296.0359779973
 20
518.4299985699
 30
0.0
 11
296.0359779973
 21
521.4708741542
 31
0.0
  0
LINE
  5
20A
330
1F
100
AcDbEntity
  8
0
  6
Continuous
 62
     7
370
    25
100
AcDbLine
 10
287.1443904765
 20
523.7366453587
 30
0.0
 11
287.1443904765
 21
523.394096239
 31
0.0
  0
ARC
  5
20B
330
1F
100
AcDbEntity
  8
0
  6
Continuous
 62
     7
370
    25
100
AcDbCircle
 10
575.5126701072
 20
443.520956538
 30
0.0
 40
5.000000000000008
100
AcDbArc
 50
32.8812467093
 51
99.0474747534
  0
ARC
  5
20C
330
1F
100
AcDbEntity
  8
0
  6
Continuous
 62
     7
370
    25
100
AcDbCircle
 10
575.5126701072
 20
443.520956538
 30
0.0
 40
4.999999999999964
100
AcDbArc
 50
99.0474747534
 51
134.9333896719
  0
LINE
  5
20D
330
1F
100
AcDbEntity
  8
0
  6
Continuous
 62
     7
370
    25
100
AcDbLine
 10
577.8904483975
 20
257.687448616
 30
0.0
 11
577.8904483975
 21
444.7391769491
 31
0.0
  0
LINE
  5
20E
330
1F
100
AcDbEntity
  8
0
  6
Continuous
 62
     7
370
    25
100
AcDbLine
 10
572.1564494507
 20
444.4861355517
 30
0.0
 11
572.1564494507
 21
257.9062020669
 31
0.0
  0
LINE
  5
20F
330
1F
100
AcDbEntity
  8
0
  6
Continuous
 62
     7
370
    25
100
AcDbLine
 10
579.9872215248
 20
258.6907696554
 30
0.0
 11
579.9872215248
 21
444.6727043223
 31
0.0
  0
LINE
  5
210
330
1F
100
AcDbEntity
  8
0
  6
Continuous
 62
     7
370
    25
100
AcDbLine
 10
570.7238149306
 20
444.7048169277
 30
0.0
 11
570.7238149306
 21
259.1823041978
 31
0.0
  0
LINE
  5
211
330
1F
100
AcDbEntity
  8
0
  6
Continuous
 62
     7
370
    25
100
AcDbLine
 10
579.7714896706
 20
445.601070738
 30
0.0
 11
579.7714896706
 21
446.0792255677
 31
0.0
  0
ARC
  5
212
330
1F
100
AcDbEntity
  8
0
  6
Continuous
 62
     7
370
    25
100
AcDbCircle
 10
725.5582827627
 20
589.9700743506
 30
0.0
 40
5.000000000000143
100
AcDbArc
 50
27.9096171758
 51
99.0474747534
  0
ARC
  5
213
330
1F
100
AcDbEntity
  8
0
  6
Continuous
 62
     7
370
    25
100
AcDbCircle
 10
725.5582827627
 20
589.9700743506
 30
0.0
 40
5.00000000000002
100
AcDbArc
 50
132.7081887376
 51
161.3733929476
  0
ARC
  5
214
330
1F
100
AcDbEntity
  8
0
  6
Continuous
 62
     7
370
    25
100
AcDbCircle
 10
725.5582827627
 20
589.9700743506
 30
0.0
 40
5.000000000000094
100
AcDbArc
 50
99.0474747534
 51
129.4721934657
  0
LINE
  5
215
330
1F
100
AcDbEntity
  8
0
  6
Continuous
 62
     7
370
    25
100
AcDbLine
 10
721.5341566568
 20
590.404036418
 30
0.0
 11
721.5341566568
 21
590.361633129
 31
0.0
  0
LINE
  5
216
330
1F
100
AcDbEntity
  8
0
  6
Continuous
 62
     7
370
    25
100
AcDbLine
 10
721.5341566568
 20
520.4086012541
 30
0.0
 11
721.5341566568
 21
404.4980507311
 31
0.0
  0
LINE
  5
217
330
1F
100
AcDbEntity
  8
0
  6
Continuous
 62
     7
370
    25
100
AcDbLine
 10
729.5803655842
 20
404.6982642472
 30
0.0
 11
729.5803655842
 21
540.9582225204
 31
0.0
  0
LINE
  5
218
330
1F
100
AcDbEntity
  8
0
  6
Continuous
 62
     7
370
    25
100
AcDbLine
 10
729.5803655842
 20
569.8120118626
 30
0.0
 11
729.5803655842
 21
590.9448787756
 31
0.0
  0
LINE
  5
219
330
1F
100
AcDbEntity
  8
0
  6
Continuous
 62
     7
370
    25
100
AcDbLine
 10
720.6887780633
 20
518.9863593352
 30
0.0
 11
720.6887780633
 21
405.9063479086
 31
0.0
  0
LINE
  5
21A
330
1F
100
AcDbEntity
  8
0
  6
Continuous
 62
     7
370
    25
100
AcDbLine
 10
730.0050981653
 20
406.1560100795
 30
0.0
 11
730.0050981653
 21
543.1922947406
 31
0.0
  0
LINE
  5
21B
330
1F
100
AcDbEntity
  8
0
  6
Continuous
 62
     7
370
    25
100
AcDbLine
 10
730.0050981653
 20
567.5779396425
 30
0.0
 11
730.0050981653
 21
592.2405759128
 31
0.0
  0
ARC
  5
21C
330
1F
100
AcDbEntity
  8
0
  6
Continuous
 62
     7
370
    25
100
AcDbCircle
 10
441.2120859534
 20
667.2492778414
 30
0.0
 40
5.000000000000073
100
AcDbArc
 50
49.857357453
 51
153.3689895633
  0
LINE
  5
21D
330
1F
100
AcDbEntity
  8
0
  6
Continuous
 62
     7
370
    25
100
AcDbLine
 10
439.3190527394
 20
668.1629721954
 30
0.0
 11
439.3190527394
 21
666.4671344577
 31
0.0
  0
LINE
  5
21E
330
1F
100
AcDbEntity
  8
0
  6
Continuous
 62
     7
370
    25
100
AcDbLine
 10
444.9570419788
 20
667.3725245701
 30
0.0
 11
444.9570419788
 21
667.7137849018
 31
0.0
  0
LINE
  5
21F
330
1F
100
AcDbEntity
  8
0
  6
Continuous
 62
     7
370
    25
100
AcDbLine
 10
436.9532663901
 20
667.9462326885
 30
0.0
 11
436.9532663901
 21
666.0618328431
 31
0.0
  0
LINE
  5
220
330
1F
100
AcDbEntity
  8
0
  6
Continuous
 62
     7
370
    25
100
AcDbLine
 10
446.0009411301
 20
667.5309342893
 30
0.0
 11
446.0009411301
 21
668.5285036096
 31
0.0
  0
LINE
  5
221
330
1F
100
AcDbEntity
  8
0
  6
Continuous
 62
     7
370
    25
100
AcDbLine
 10
436.7375345359
 20
669.4794600891
 30
0.0
 11
436.7375345359
 21
666.0241179774
 31
0.0
  0
LINE
  5
222
330
1F
100
AcDbEntity
  8
0
  6
Continuous
 62
     7
370
    25
100
AcDbLine
 10
730.8623780303
 20
553.2421989398
 30
0.0
 11
730.8623780303
 21
557.5280354433
 31
0.0
  0
LINE
  5
223
330
1F
100
AcDbEntity
  8
0
  6
Continuous
 62
     7
370
    25
100
AcDbLine
 10
285.8623780303
 20
557.5280354433
 30
0.0
 11
285.8623780303
 21
553.2421989398
 31
0.0
  0
LINE
  5
224
330
1F
100
AcDbEntity
  8
0
  6
Continuous
 62
     7
370
    25
100
AcDbLine
 10
294.4232051185
 20
516.0827716699
 30
0.0
 11
294.4214209951
 21
516.1909487575
 31
0.0
  0
LINE
  5
225
330
1F
100
AcDbEntity
  8
0
  6
Continuous
 62
     7
370
    25
100
AcDbLine
 10
294.4232051185
 20
503.2252621594
 30
0.0
 11
294.4232051185
 21
516.0827716699
 31
0.0
  0
LINE
  5
226
330
1F
100
AcDbEntity
  8
0
  6
Continuous
 62
     7
370
    25
100
AcDbLine
 10
294.4214209951
 20
503.1230293336
 30
0.0
 11
294.4232051185
 21
503.2252621594
 31
0.0
  0
ARC
  5
227
330
1F
100
AcDbEntity
  8
0
  6
Continuous
 62
     7
370
    25
100
AcDbCircle
 10
572.0732525694
 20
259.3143927718
 30
0.0
 40
1.357709766364496
100
AcDbArc
 50
173.6720430203
 51
212.358197165
  0
LWPOLYLINE
  5
228
330
1F
100
AcDbEntity
  8
0
  6
Continuous
 62
     7
370
    25
100
AcDbPolyline
 90
       34
 70
   128
 43
0.0
 10
579.9872215248
 20
260.057927447
 10
580.0024943165
 20
260.0329590264
 10
580.1211531007
 20
259.7927933564
 10
580.1920276255
 20
259.5476771191
 10
580.2143906225
 20
259.3001255386
 10
580.188012617
 20
259.0526788293
 10
580.1131642831
 20
258.8078761292
 10
579.990613666
 20
258.5682294453
 10
579.8216183007
 20
258.3361978768
 10
579.6079123086
 20
258.1141623816
 10
579.3516886021
 20
257.9044013444
 10
579.0555763834
 20
257.7090671973
 10
578.7226141644
 20
257.5301643329
 10
578.3562185881
 20
257.3695285368
 10
577.9601493689
 20
257.2288081495
 10
577.538470713
 20
257.1094471527
 10
577.095509614
 20
257.0126703518
 10
576.6358114522
 20
256.9394708075
 10
576.1640933528
 20
256.8905996465
 10
575.6851957818
 20
256.8665583528
 10
575.2040328764
 20
256.8675936226
 10
574.7255420192
 20
256.8936948328
 10
574.2546331737
 20
256.9445941496
 10
573.7961385021
 20
257.0197692771
 10
573.35476278
 20
257.1184488168
 10
572.9350351196
 20
257.239620183
 10
572.5412624949
 20
257.3820399936
 10
572.1774855456
 20
257.5442468286
 10
571.8474371156
 20
257.7245762264
 10
571.5545039484
 20
257.9211777633
 10
571.3016919348
 20
258.1320340415
 10
571.091595268
 20
258.3549813903
 10
570.9263698242
 20
258.5877320681
 10
570.9263698242
 20
258.5877320681
  0
LWPOLYLINE
  5
229
330
1F
100
AcDbEntity
  8
0
  6
Continuous
 62
     7
370
    25
100
AcDbPolyline
 90
       36
 70
   128
 43
0.0
 10
296.0359779973
 20
336.8368168693
 10
296.0673650526
 20
336.6477365204
 10
296.0653549684
 20
336.3999193039
 10
296.0146767536
 20
336.1534782939
 10
295.9158504352
 20
335.9109423087
 10
295.769890105
 20
335.6748000956
 10
295.5782935134
 20
335.4474747934
 10
295.3430267009
 20
335.2312990673
 10
295.0665038232
 20
335.0284911726
 10
294.7515623792
 20
334.841132193
 10
294.4014340944
 20
334.671144685
 10
294.0197117588
 20
334.5202729505
 10
293.61031236
 20
334.3900651377
 10
293.17743689
 20
334.2818573549
 10
292.7255272368
 20
334.1967599604
 10
292.259220605
 20
334.1356461686
 10
291.7833019316
 20
334.0991430898
 10
291.3026547863
 20
334.0876252949
 10
290.8222112591
 20
334.101210972
 10
290.3469013509
 20
334.1397607138
 10
289.8816023845
 20
334.2028789478
 10
289.4310889568
 20
334.2899179953
 10
288.9999839454
 20
334.3999847181
 10
288.5927110711
 20
334.5319496826
 10
288.2134495045
 20
334.6844587497
 10
287.8660909827
 20
334.85594697
 10
287.5541998742
 20
335.0446546423
 10
287.2809766037
 20
335.2486453705
 10
287.0492248117
 20
335.4658259337
 10
286.8613225852
 20
335.6939677654
 10
286.7191980555
 20
335.9307298217
 10
286.6243096123
 20
336.1736826035
 10
286.5776309397
 20
336.4203330865
 10
286.5796410238
 20
336.668150303
 10
286.6303192386
 20
336.914591313
 10
286.7196578954
 20
337.1382697391
  0
LWPOLYLINE
  5
22A
330
1F
100
AcDbEntity
  8
0
  6
Continuous
 62
     7
370
    25
100
AcDbPolyline
 90
       21
 70
   128
 43
0.0
 10
726.8052873052
 20
403.316985431
 10
726.3389806734
 20
403.2558716392
 10
725.863062
 20
403.2193685604
 10
725.3824148547
 20
403.2078507654
 10
724.9019713275
 20
403.2214364426
 10
724.4266614193
 20
403.2599861844
 10
723.9613624529
 20
403.3231044183
 10
723.5108490252
 20
403.4101434659
 10
723.0797440138
 20
403.5202101887
 10
722.6724711395
 20
403.6521751532
 10
722.2932095729
 20
403.8046842203
 10
721.9458510511
 20
403.9761724406
 10
721.6339599426
 20
404.1648801129
 10
721.360736672
 20
404.3688708411
 10
721.1289848801
 20
404.5860514043
 10
720.9410826536
 20
404.8141932359
 10
720.7989581238
 20
405.0509552922
 10
720.7040696807
 20
405.2939080741
 10
720.657391008
 20
405.5405585571
 10
720.6594010922
 20
405.7883757736
 10
720.6887780633
 20
405.9570423399
  0
LWPOLYLINE
  5
22B
330
1F
100
AcDbEntity
  8
0
  6
Continuous
 62
     7
370
    25
100
AcDbPolyline
 90
       17
 70
   128
 43
0.0
 10
730.0050981653
 20
406.2584952097
 10
730.0055580052
 20
406.2575652558
 10
730.1004464483
 20
406.014612474
 10
730.147125121
 20
405.767961991
 10
730.1451150368
 20
405.5201447745
 10
730.094436822
 20
405.2737037645
 10
729.9956105036
 20
405.0311677793
 10
729.8496501734
 20
404.7950255662
 10
729.6580535818
 20
404.567700264
 10
729.4227867693
 20
404.3515245378
 10
729.1462638915
 20
404.1487166432
 10
728.8313224476
 20
403.9613576636
 10
728.4811941628
 20
403.7913701556
 10
728.0994718272
 20
403.6404984211
 10
727.6900724284
 20
403.5102906083
 10
727.2571969584
 20
403.4020828255
 10
726.8052873052
 20
403.316985431
  0
SPLINE
  5
22C
330
1F
100
AcDbEntity
  8
0
  6
Continuous
 62
     7
370
    25
100
AcDbSpline
210
0.0
220
0.0
230
1.0
 70
     8
 71
     3
 72
    31
 73
    27
 74
     0
 42
0.000000001
 43
0.00000001
 40
0.0
 40
0.0
 40
0.0
 40
0.0
 40
0.0441466678382048
 40
0.0886154033489256
 40
0.1340332091911615
 40
0.1797544925930155
 40
0.2246010207242733
 40
0.2697374327845558
 40
0.3158872821088681
 40
0.3624612967954896
 40
0.4188646742144029
 40
0.447025177211598
 40
0.4758405247169863
 40
0.4938163492024438
 40
0.5122594402685676
 40
0.5302578458902537
 40
0.5488244143653013
 40
0.5722038163381852
 40
0.5962306770642197
 40
0.6386001154354625
 40
0.6819872536773365
 40
0.7223130450430832
 40
0.7629404599317421
 40
0.845982303016496
 40
0.9222505624506004
 40
1.0
 40
1.0
 40
1.0
 40
1.0
 10
291.8153339712533
 20
521.7487275592133
 30
0.0
 10
291.8522013160904
 20
521.6745185811083
 30
0.0
 10
291.9262049678521
 20
521.5255592405983
 30
0.0
 10
292.0549953360476
 20
521.3076924291571
 30
0.0
 10
292.1956029466103
 20
521.0941472055155
 30
0.0
 10
292.3469135064473
 20
520.8884951366516
 30
0.0
 10
292.506561858347
 20
520.6927026000419
 30
0.0
 10
292.674664622956
 20
520.5071692305276
 30
0.0
 10
292.8528181435522
 20
520.3325274390165
 30
0.0
 10
293.0547195991131
 20
520.162339420037
 30
0.0
 10
293.2435991179151
 20
520.0372503473349
 30
0.0
 10
293.4174238884943
 20
519.9614407204032
 30
0.0
 10
293.5378372035907
 20
519.9324692872489
 30
0.0
 10
293.6448232435703
 20
519.9292501274213
 30
0.0
 10
293.7338071756377
 20
519.943551171168
 30
0.0
 10
293.820586395518
 20
519.9763250227616
 30
0.0
 10
293.9086931839552
 20
520.0304422736615
 30
0.0
 10
293.9953582267833
 20
520.1086181880823
 30
0.0
 10
294.0969956910085
 20
520.2341752532384
 30
0.0
 10
294.1969646186613
 20
520.4088744664027
 30
0.0
 10
294.2837221323604
 20
520.6244111697393
 30
0.0
 10
294.3473463116916
 20
520.8451770107254
 30
0.0
 10
294.4065475617625
 20
521.1426992803275
 30
0.0
 10
294.4348163402603
 20
521.5125423085881
 30
0.0
 10
294.4105492007861
 20
521.9522147258967
 30
0.0
 10
294.3437276335331
 20
522.2302391157183
 30
0.0
 10
294.3099955405863
 20
522.3705881818128
 30
0.0
  0
SPLINE
  5
22D
330
1F
100
AcDbEntity
  8
0
  6
Continuous
 62
     7
370
    25
100
AcDbSpline
210
0.0
220
0.0
230
1.0
 70
     8
 71
     3
 72
    14
 73
    10
 74
     0
 42
0.000000001
 43
0.00000001
 40
0.0
 40
0.0
 40
0.0
 40
0.0
 40
0.2207653484385715
 40
0.3402146168139769
 40
0.460570499179051
 40
0.5641909618662155
 40
0.6633542991972915
 40
0.8105247403618975
 40
1.0
 40
1.0
 40
1.0
 40
1.0
 10
291.3960880016464
 20
521.749639721994
 30
0.0
 10
291.4142209634351
 20
521.7876837584286
 30
0.0
 10
291.4421651072522
 20
521.8463122405215
 30
0.0
 10
291.5115523049379
 20
521.9015253055895
 30
0.0
 10
291.5749491002711
 20
521.9226571176122
 30
0.0
 10
291.6380205798467
 20
521.918113902945
 30
0.0
 10
291.7006675337385
 20
521.8918815233759
 30
0.0
 10
291.7660700516192
 20
521.8368850398572
 30
0.0
 10
291.7975922451764
 20
521.7804762687117
 30
0.0
 10
291.8153339712534
 20
521.7487275592133
 30
0.0
  0
SPLINE
  5
22E
330
1F
100
AcDbEntity
  8
0
  6
Continuous
 62
     7
370
    25
100
AcDbSpline
210
0.0
220
0.0
230
1.0
 70
     8
 71
     3
 72
    32
 73
    28
 74
     0
 42
0.000000001
 43
0.00000001
 40
0.0
 40
0.0
 40
0.0
 40
0.0
 40
0.0430379910819605
 40
0.0863861263481991
 40
0.1306715836239337
 40
0.1752669939041017
 40
0.2185320463381584
 40
0.2621050719941883
 40
0.3067938579277444
 40
0.3519663346175971
 40
0.3854310965017688
 40
0.4193289160971794
 40
0.4528593258451155
 40
0.4875791928901246
 40
0.5106386088137035
 40
0.53438014857741
 40
0.5574353916329639
 40
0.5810375265201634
 40
0.617616620090303
 40
0.6551846333990924
 40
0.717726568535795
 40
0.7819044813319407
 40
0.8252890843115699
 40
0.8689843386192337
 40
0.9136242089591345
 40
0.9585815908891961
 40
1.0
 40
1.0
 40
1.0
 40
1.0
 10
288.7129386585742
 20
522.3839051056808
 30
0.0
 10
288.7009144131395
 20
522.3109853904974
 30
0.0
 10
288.6767792720872
 20
522.1646204796187
 30
0.0
 10
288.665004714338
 20
521.9401209248468
 30
0.0
 10
288.6711029976453
 20
521.7125742784289
 30
0.0
 10
288.6970099972235
 20
521.4859786710352
 30
0.0
 10
288.7417133013661
 20
521.2630735836087
 30
0.0
 10
288.8056162547504
 20
521.044127964515
 30
0.0
 10
288.8910171906655
 20
520.8285201812711
 30
0.0
 10
288.9909316716342
 20
520.6383907531098
 30
0.0
 10
289.1010053821855
 20
520.4764478732208
 30
0.0
 10
289.2160795422648
 20
520.3439385972969
 30
0.0
 10
289.3510876536945
 20
520.2289286068944
 30
0.0
 10
289.4895324288089
 20
520.152010477908
 30
0.0
 10
289.6233677630029
 20
520.1108953457835
 30
0.0
 10
289.7422790169418
 20
520.09686683797
 30
0.0
 10
289.8626069091227
 20
520.10392221495
 30
0.0
 10
290.0020895775032
 20
520.1343932173461
 30
0.0
 10
290.158863255635
 20
520.1978027994478
 30
0.0
 10
290.3632057279367
 20
520.3196439237611
 30
0.0
 10
290.5868495927767
 20
520.5038632595008
 30
0.0
 10
290.7929721238811
 20
520.7246920181013
 30
0.0
 10
290.9583318452786
 20
520.9369226772145
 30
0.0
 10
291.0897652873413
 20
521.1309662448126
 30
0.0
 10
291.2089881682066
 20
521.3352091138703
 30
0.0
 10
291.3130769635162
 20
521.5420996560673
 30
0.0
 10
291.3691839235747
 20
521.6823754850627
 30
0.0
 10
291.3960880016464
 20
521.749639721994
 30
0.0
  0
SPLINE
  5
22F
330
1F
100
AcDbEntity
  8
0
  6
Continuous
 62
     7
370
    25
100
AcDbSpline
210
0.0
220
0.0
230
1.0
 70
     8
 71
     3
 72
    14
 73
    10
 74
     0
 42
0.000000001
 43
0.00000001
 40
0.0
 40
0.0
 40
0.0
 40
0.0
 40
0.224303042488453
 40
0.348901186626774
 40
0.4744001356117224
 40
0.5826741857065889
 40
0.686741768794765
 40
0.8381564871695508
 40
1.0
 40
1.0
 40
1.0
 40
1.0
 10
288.4267656875959
 20
522.5499445869482
 30
0.0
 10
288.4597935140068
 20
522.5747990524872
 30
0.0
 10
288.511167974641
 20
522.6134599303036
 30
0.0
 10
288.5893439839264
 20
522.6309802661974
 30
0.0
 10
288.6447318346378
 20
522.6215093904779
 30
0.0
 10
288.685230746959
 20
522.5898585031746
 30
0.0
 10
288.7127942538339
 20
522.5396645189859
 30
0.0
 10
288.7248333558413
 20
522.4692136304873
 30
0.0
 10
288.716990589795
 20
522.4129654732808
 30
0.0
 10
288.7129386585742
 20
522.3839051056808
 30
0.0
  0
SPLINE
  5
230
330
1F
100
AcDbEntity
  8
0
  6
Continuous
 62
     7
370
    25
100
AcDbSpline
210
0.0
220
0.0
230
1.0
 70
     8
 71
     3
 72
    27
 73
    23
 74
     0
 42
0.000000001
 43
0.00000001
 40
0.0
 40
0.0
 40
0.0
 40
0.0
 40
0.0854193893125077
 40
0.1292485505238638
 40
0.173392748556905
 40
0.2449111880238338
 40
0.3181761007994627
 40
0.3578246346969911
 40
0.398131805471284
 40
0.4288131832180888
 40
0.460240393008501
 40
0.4856097432632064
 40
0.5117065707683053
 40
0.537081810141023
 40
0.563122418236775
 40
0.5995872849299391
 40
0.6370631680065938
 40
0.6960736640765847
 40
0.7566512808579688
 40
0.8401548938394138
 40
0.9260592874403458
 40
1.0
 40
1.0
 40
1.0
 40
1.0
 10
287.57559475239
 20
523.9678910960846
 30
0.0
 10
287.4782968206108
 20
523.8552747086296
 30
0.0
 10
287.3310747817663
 20
523.6848742297578
 30
0.0
 10
287.1643716954657
 20
523.4331273813561
 30
0.0
 10
287.0256989009411
 20
523.1943351490892
 30
0.0
 10
286.8881643775396
 20
522.9004175239904
 30
0.0
 10
286.7905749659291
 20
522.6065143417151
 30
0.0
 10
286.7389831770402
 20
522.3653757478293
 30
0.0
 10
286.7193575845118
 20
522.1962687593859
 30
0.0
 10
286.7187775888754
 20
522.0494663810525
 30
0.0
 10
286.7335707625777
 20
521.9361230891427
 30
0.0
 10
286.7622868365123
 20
521.8449959663236
 30
0.0
 10
286.8013494472544
 20
521.7778307673143
 30
0.0
 10
286.8521286335195
 20
521.7297650338725
 30
0.0
 10
286.9203218977535
 20
521.6972097607096
 30
0.0
 10
287.0093555056041
 20
521.6872333295811
 30
0.0
 10
287.1399500698398
 20
521.7072017396194
 30
0.0
 10
287.3081193867013
 20
521.7691817969556
 30
0.0
 10
287.540532396021
 20
521.8903706865705
 30
0.0
 10
287.8196341040928
 20
522.0696534259429
 30
0.0
 10
288.1277589241287
 20
522.2961633067142
 30
0.0
 10
288.3321971920732
 20
522.4696798010107
 30
0.0
 10
288.4267656875959
 20
522.5499445869482
 30
0.0
  0
SPLINE
  5
231
330
1F
100
AcDbEntity
  8
0
  6
Continuous
 62
     7
370
    25
100
AcDbSpline
210
0.0
220
0.0
230
1.0
 70
     8
 71
     3
 72
    14
 73
    10
 74
     0
 42
0.000000001
 43
0.00000001
 40
0.0
 40
0.0
 40
0.0
 40
0.0
 40
0.2239799089306201
 40
0.3530600787851492
 40
0.4831615846561731
 40
0.5937368434045341
 40
0.6971871626484123
 40
0.8442013099709579
 40
1.0
 40
1.0
 40
1.0
 40
1.0
 10
287.6379888640512
 20
524.1746397814035
 30
0.0
 10
287.6602213643166
 20
524.1863142921922
 30
0.0
 10
287.6952665089133
 20
524.2047168521295
 30
0.0
 10
287.7217154205581
 20
524.199411580746
 30
0.0
 10
287.7252285984495
 20
524.1770596021652
 30
0.0
 10
287.7098947312591
 20
524.139896455565
 30
0.0
 10
287.6796999638199
 20
524.0917819371302
 30
0.0
 10
287.6339589193177
 20
524.0324407325546
 30
0.0
 10
287.595422123071
 20
523.9898197834451
 30
0.0
 10
287.57559475239
 20
523.9678910960846
 30
0.0
  0
SPLINE
  5
232
330
1F
100
AcDbEntity
  8
0
  6
Continuous
 62
     7
370
    25
100
AcDbSpline
210
0.0
220
0.0
230
1.0
 70
     8
 71
     3
 72
    13
 73
     9
 74
     0
 42
0.000000001
 43
0.00000001
 40
0.0
 40
0.0
 40
0.0
 40
0.0
 40
0.145755623071702
 40
0.2792312410272171
 40
0.413680492870224
 40
0.6890380416104467
 40
0.8438082442463781
 40
1.0
 40
1.0
 40
1.0
 40
1.0
 10
287.1476959120725
 20
523.7367251583817
 30
0.0
 10
287.1486952465246
 20
523.7500048984039
 30
0.0
 10
287.1506097208576
 20
523.775445551799
 30
0.0
 10
287.1847972625096
 20
523.826893425047
 30
0.0
 10
287.2495488758069
 20
523.9006001707882
 30
0.0
 10
287.354577964675
 20
523.9885346589413
 30
0.0
 10
287.4978951974424
 20
524.0883235465111
 30
0.0
 10
287.5911488730694
 20
524.1457801494029
 30
0.0
 10
287.6379888640512
 20
524.1746397814035
 30
0.0
  0
SPLINE
  5
233
330
1F
100
AcDbEntity
  8
0
  6
Continuous
 62
     7
370
    25
100
AcDbSpline
210
0.0
220
0.0
230
1.0
 70
     8
 71
     3
 72
    12
 73
     8
 74
     0
 42
0.000000001
 43
0.00000001
 40
0.0
 40
0.0
 40
0.0
 40
0.0
 40
0.2168746390987182
 40
0.4353277208776146
 40
0.6583610193048478
 40
0.8828316940567237
 40
1.0
 40
1.0
 40
1.0
 40
1.0
 10
294.8500685969448
 20
524.153737445175
 30
0.0
 10
294.887777683647
 20
524.119954694839
 30
0.0
 10
294.9634703088366
 20
524.052143318784
 30
0.0
 10
295.0510423141452
 20
523.951927068578
 30
0.0
 10
295.1183989498516
 20
523.8519416073912
 30
0.0
 10
295.1601342669115
 20
523.7680318596348
 30
0.0
 10
295.1710248510384
 20
523.7182970252301
 30
0.0
 10
295.1747598794308
 20
523.7012399953745
 30
0.0
  0
SPLINE
  5
234
330
1F
100
AcDbEntity
  8
0
  6
Continuous
 62
     7
370
    25
100
AcDbSpline
210
0.0
220
0.0
230
1.0
 70
     8
 71
     3
 72
    15
 73
    11
 74
     0
 42
0.000000001
 43
0.00000001
 40
0.0
 40
0.0
 40
0.0
 40
0.0
 40
0.2129294053203186
 40
0.333310728317701
 40
0.4345062010026908
 40
0.5362836886507815
 40
0.6256367151022073
 40
0.7456368547567942
 40
0.9211927176880707
 40
1.0
 40
1.0
 40
1.0
 40
1.0
 10
294.9742564947119
 20
523.946855620582
 30
0.0
 10
294.9464041152595
 20
523.978418265692
 30
0.0
 10
294.9028051728461
 20
524.0278251017905
 30
0.0
 10
294.8486541670472
 20
524.0937821604923
 30
0.0
 10
294.8149134153453
 20
524.1385877847712
 30
0.0
 10
294.7953644628541
 20
524.169731394181
 30
0.0
 10
294.7891229987429
 20
524.1881288317347
 30
0.0
 10
294.7985224088163
 20
524.1917118609985
 30
0.0
 10
294.8224183137778
 20
524.1767477582149
 30
0.0
 10
294.8435282695588
 20
524.1591802458736
 30
0.0
 10
294.8500685969448
 20
524.153737445175
 30
0.0
  0
SPLINE
  5
235
330
1F
100
AcDbEntity
  8
0
  6
Continuous
 62
     7
370
    25
100
AcDbSpline
210
0.0
220
0.0
230
1.0
 70
     8
 71
     3
 72
    32
 73
    28
 74
     0
 42
0.000000001
 43
0.00000001
 40
0.0
 40
0.0
 40
0.0
 40
0.0
 40
0.0447120024448325
 40
0.0897510683881187
 40
0.1357337494830726
 40
0.1820101047170999
 40
0.2279866507550048
 40
0.2742348602616632
 40
0.321388713952828
 40
0.3688999197495236
 40
0.4236598558301543
 40
0.4510230069928946
 40
0.4792153189811413
 40
0.5037509674809498
 40
0.5283882607504874
 40
0.5445704263132605
 40
0.5611899076196752
 40
0.6013390629672166
 40
0.642611461593811
 40
0.6855038326376915
 40
0.7287054836939798
 40
0.7727266257640034
 40
0.816989477756281
 40
0.8620202251363144
 40
0.9073149340905227
 40
0.953490536676738
 40
1.0
 40
1.0
 40
1.0
 40
1.0
 10
294.5466137426482
 20
522.5350664456125
 30
0.0
 10
294.6074786883973
 20
522.4780451616264
 30
0.0
 10
294.7296538004402
 20
522.3635854890822
 30
0.0
 10
294.9068665290807
 20
522.2009179149097
 30
0.0
 10
295.0783428081704
 20
522.0441550696247
 30
0.0
 10
295.2412764758913
 20
521.8950631403617
 30
0.0
 10
295.3937864132008
 20
521.7544502665363
 30
0.0
 10
295.5355045062549
 20
521.6224507847663
 30
0.0
 10
295.6659837596899
 20
521.5000249572063
 30
0.0
 10
295.7897587912915
 20
521.3856965375783
 30
0.0
 10
295.8830145891069
 20
521.3070289866897
 30
0.0
 10
295.9509234110511
 20
521.2718300098227
 30
0.0
 10
295.993336844068
 20
521.2733720686912
 30
0.0
 10
296.0237326915674
 20
521.3202563536618
 30
0.0
 10
296.0357494074656
 20
521.4044747660382
 30
0.0
 10
296.0364959877514
 20
521.4975970596171
 30
0.0
 10
296.0295406329358
 20
521.6270583172025
 30
0.0
 10
296.0055223008504
 20
521.814502608169
 30
0.0
 10
295.9568625601112
 20
522.055667878691
 30
0.0
 10
295.890611432856
 20
522.3023738249623
 30
0.0
 10
295.807365008605
 20
522.5512087536171
 30
0.0
 10
295.7081721099962
 20
522.7979263588005
 30
0.0
 10
295.5927940779606
 20
523.0418052187771
 30
0.0
 10
295.4618925640043
 20
523.2803882734632
 30
0.0
 10
295.3147629282882
 20
523.5127273389243
 30
0.0
 10
295.15320646426
 20
523.7375120561001
 30
0.0
 10
295.0340495562014
 20
523.8769070609087
 30
0.0
 10
294.9742564947119
 20
523.9468556205821
 30
0.0
  0
SPLINE
  5
236
330
1F
100
AcDbEntity
  8
0
  6
Continuous
 62
     7
370
    25
100
AcDbSpline
210
0.0
220
0.0
230
1.0
 70
     8
 71
     3
 72
    15
 73
    11
 74
     0
 42
0.000000001
 43
0.00000001
 40
0.0
 40
0.0
 40
0.0
 40
0.0
 40
0.2155767705933373
 40
0.3329005538677875
 40
0.4328760582231423
 40
0.5332634977246065
 40
0.6250838127945049
 40
0.753554709688807
 40
0.942133837889273
 40
1.0
 40
1.0
 40
1.0
 40
1.0
 10
294.3099955405863
 20
522.3705881818128
 30
0.0
 10
294.3005528454934
 20
522.4111314511978
 30
0.0
 10
294.2859711332904
 20
522.4737396663442
 30
0.0
 10
294.2934046971629
 20
522.5482934476015
 30
0.0
 10
294.3132427977762
 20
522.5926510663905
 30
0.0
 10
294.3450827276145
 20
522.6175784598335
 30
0.0
 10
294.3892428018289
 20
522.6246323127777
 30
0.0
 10
294.4507597464527
 20
522.6083457234479
 30
0.0
 10
294.5057714076622
 20
522.5722186431861
 30
0.0
 10
294.5388473928824
 20
522.5421310995074
 30
0.0
 10
294.5466137426482
 20
522.5350664456125
 30
0.0
  0
LWPOLYLINE
  5
237
330
1F
100
AcDbEntity
  8
0
  6
Continuous
 62
     7
370
    25
100
AcDbPolyline
 90
       15
 70
   128
 43
0.0
 10
288.6677100651
 20
334.952367003
 10
288.6810747469
 20
334.8511420028
 10
288.7454922314
 20
334.7109020921
 10
288.8609472316
 20
334.5796312191
 10
289.0231512558
 20
334.4622053445
 10
289.226079354
 20
334.3629861665
 10
289.4621939103
 20
334.2856591091
 10
289.7227246221
 20
334.2330964292
 10
289.9979942664
 20
334.2072505292
 10
290.2777781535
 20
334.2090814362
 10
290.5516839152
 20
334.2385211425
 10
290.8095375222
 20
334.2944761317
 10
291.0417611907
 20
334.3748679966
 10
291.2397291421
 20
334.4767106401
 10
291.3960880016
 20
334.5962211916
  0
LWPOLYLINE
  5
238
330
1F
100
AcDbEntity
  8
0
  6
Continuous
 62
     7
370
    25
100
AcDbPolyline
 90
       14
 70
   128
 43
0.0
 10
291.8153339713
 20
334.6125435024
 10
292.004797638
 20
334.5064967003
 10
292.2302408493
 20
334.4211385291
 10
292.4832896816
 20
334.3596395555
 10
292.7545448211
 20
334.3242841141
 10
293.0339306938
 20
334.3163854569
 10
293.3110697156
 20
334.3362369736
 10
293.57566776
 20
334.3831012943
 10
293.817896526
 20
334.4552376779
 10
294.028758603
 20
334.5499666713
 10
294.2004216734
 20
334.6637696352
 10
294.3265094377
 20
334.7924194416
 10
294.4023384582
 20
334.9311374874
 10
294.4252577383
 20
335.0634771219
  0
ARC
  5
239
330
1F
100
AcDbEntity
  8
0
  6
Continuous
 62
     7
370
    25
100
AcDbCircle
 10
291.6184497954
 20
334.2771802499
 30
0.0
 40
0.3888854456057803
100
AcDbArc
 50
59.5837691787
 51
124.87531931
  0
ARC
  5
23A
330
1F
100
AcDbEntity
  8
0
  6
Continuous
 62
     7
370
    25
100
AcDbCircle
 10
288.4783697401
 20
334.9228927084
 30
0.0
 40
0.3768522690182188
100
AcDbArc
 50
59.8393762429
 51
97.8704937926
  0
LWPOLYLINE
  5
23B
330
1F
100
AcDbEntity
  8
0
  6
Continuous
 62
     7
370
    25
100
AcDbPolyline
 90
       11
 70
   128
 43
0.0
 10
286.7196578954
 20
336.032284998
 10
286.7197349891
 20
336.0245792644
 10
286.7495669806
 20
335.8812896802
 10
286.8322146983
 20
335.7436087069
 10
286.9646082533
 20
335.6166504034
 10
287.1418299835
 20
335.5051305432
 10
287.3572971173
 20
335.4131914501
 10
287.6030062856
 20
335.3442481344
 10
287.8698308007
 20
335.3008614454
 10
288.147859661
 20
335.2846429497
 10
288.4267656876
 20
335.2961950716
  0
ARC
  5
23C
330
1F
100
AcDbEntity
  8
0
  6
Continuous
 62
     7
370
    25
100
AcDbCircle
 10
294.5373599061
 20
335.0926674465
 30
0.0
 40
0.4418857640969881
100
AcDbArc
 50
88.8000415843
 51
104.6959979201
  0
LWPOLYLINE
  5
23D
330
1F
100
AcDbEntity
  8
0
  6
Continuous
 62
     7
370
    25
100
AcDbPolyline
 90
       10
 70
   128
 43
0.0
 10
294.5466137426
 20
335.5344563044
 10
294.8257222109
 20
335.5446291044
 10
295.0958580686
 20
335.5821890452
 10
295.3469873168
 20
335.6457409902
 10
295.569781943
 20
335.7329243489
 10
295.7559664036
 20
335.840500759
 10
295.898625013
 20
335.9644743734
 10
295.9924588212
 20
336.1002402829
 10
296.03398244
 20
336.2427555619
 10
296.0359779973
 20
336.2819471689
  0
SPLINE
  5
23E
330
1F
100
AcDbEntity
  8
0
  6
Continuous
 62
     7
370
    25
100
AcDbSpline
210
0.0
220
0.0
230
1.0
 70
     8
 71
     3
 72
    15
 73
    11
 74
     0
 42
0.000000001
 43
0.00000001
 40
0.0
 40
0.0
 40
0.0
 40
0.0
 40
0.1278409565844471
 40
0.256614564291989
 40
0.3881365121345245
 40
0.5205372774150173
 40
0.6504049058576369
 40
0.7811119869837705
 40
0.9147538035184003
 40
1.0
 40
1.0
 40
1.0
 40
1.0
 10
579.1952073172704
 20
446.7003588959479
 30
0.0
 10
579.2405550944223
 20
446.6684935679738
 30
0.0
 10
579.3315814789738
 20
446.60453044166
 30
0.0
 10
579.4481498933121
 20
446.513036831813
 30
0.0
 10
579.5497424133367
 20
446.4242179885381
 30
0.0
 10
579.6330468700992
 20
446.3394612915947
 30
0.0
 10
579.698110834367
 20
446.2591846927048
 30
0.0
 10
579.7434434501064
 20
446.1844055937704
 30
0.0
 10
579.7691164516259
 20
446.1222711474858
 30
0.0
 10
579.7687507867823
 20
446.0913092927264
 30
0.0
 10
579.768608378175
 20
446.0792511616397
 30
0.0
  0
SPLINE
  5
23F
330
1F
100
AcDbEntity
  8
0
  6
Continuous
 62
     7
370
    25
100
AcDbSpline
210
0.0
220
0.0
230
1.0
 70
     8
 71
     3
 72
    14
 73
    10
 74
     0
 42
0.000000001
 43
0.00000001
 40
0.0
 40
0.0
 40
0.0
 40
0.0
 40
0.2207653484385619
 40
0.3402146168139887
 40
0.4605704991790618
 40
0.5641909618661839
 40
0.6633542991972592
 40
0.8105247403618641
 40
0.9999999999999999
 40
0.9999999999999999
 40
0.9999999999999999
 40
0.9999999999999999
 10
579.2268987814977
 20
446.501665732355
 30
0.0
 10
579.1999928669572
 20
446.5351913640931
 30
0.0
 10
579.1585289983288
 20
446.5868566731459
 30
0.0
 10
579.1156498806587
 20
446.6557224087147
 30
0.0
 10
579.0964049474782
 20
446.6995941108242
 30
0.0
 10
579.094717392667
 20
446.7266659545983
 30
0.0
 10
579.1078215399242
 20
446.7394482763372
 30
0.0
 10
579.1401488548827
 20
446.7347863777852
 30
0.0
 10
579.1753787659665
 20
446.7127574821102
 30
0.0
 10
579.1952073172704
 20
446.7003588959479
 30
0.0
  0
SPLINE
  5
240
330
1F
100
AcDbEntity
  8
0
  6
Continuous
 62
     7
370
    25
100
AcDbSpline
210
0.0
220
0.0
230
1.0
 70
     8
 71
     3
 72
    32
 73
    28
 74
     0
 42
0.000000001
 43
0.00000001
 40
0.0
 40
0.0
 40
0.0
 40
0.0
 40
0.0430379910819605
 40
0.0863861263482007
 40
0.1306715836239334
 40
0.1752669939041036
 40
0.2185320463381577
 40
0.2621050719941904
 40
0.3067938579277433
 40
0.351966334617596
 40
0.3854310965017687
 40
0.4193289160971751
 40
0.452859325845118
 40
0.4875791928901221
 40
0.510638608813706
 40
0.5343801485774127
 40
0.5574353916329615
 40
0.581037526520161
 40
0.6176166200903007
 40
0.6551846333990937
 40
0.7177265685357963
 40
0.7819044813319397
 40
0.8252890843115707
 40
0.868984338619233
 40
0.9136242089591339
 40
0.9585815908891961
 40
1.0
 40
1.0
 40
1.0
 40
1.0
 10
578.1758470708788
 20
445.212675394022
 30
0.0
 10
578.2304909939189
 20
445.1617064355456
 30
0.0
 10
578.3401726198783
 20
445.0594012215688
 30
0.0
 10
578.5072433317138
 20
444.9148850990385
 30
0.0
 10
578.6753240646972
 20
444.7770472778607
 30
0.0
 10
578.8412419780317
 20
444.6492488043334
 30
0.0
 10
579.0030946515678
 20
444.5327279100117
 30
0.0
 10
579.1610192521582
 20
444.4280319272791
 30
0.0
 10
579.3161345380005
 20
444.3362991558737
 30
0.0
 10
579.45377850718
 20
444.2685213745552
 30
0.0
 10
579.5735988778873
 20
444.2249826997109
 30
0.0
 10
579.6755492005345
 20
444.2042492955788
 30
0.0
 10
579.7711455099889
 20
444.2080093621743
 30
0.0
 10
579.8464303239248
 20
444.2411701092836
 30
0.0
 10
579.9017272391802
 20
444.2974652868189
 30
0.0
 10
579.9391929577708
 20
444.3639768738973
 30
0.0
 10
579.9660046918325
 20
444.4468147607203
 30
0.0
 10
579.9850960799579
 20
444.5589574399099
 30
0.0
 10
579.9900979666896
 20
444.7056875975063
 30
0.0
 10
579.9723465825849
 20
444.9236302366799
 30
0.0
 10
579.9179446149003
 20
445.1950155933246
 30
0.0
 10
579.8273048569272
 20
445.475322377084
 30
0.0
 10
579.7242856502809
 20
445.7196607749037
 30
0.0
 10
579.6198525181004
 20
445.9276105301253
 30
0.0
 10
579.4997014372187
 20
446.1313753408336
 30
0.0
 10
579.3690183012982
 20
446.3245687850388
 30
0.0
 10
579.2729600613268
 20
446.4442681837377
 30
0.0
 10
579.2268987814977
 20
446.501665732355
 30
0.0
  0
SPLINE
  5
241
330
1F
100
AcDbEntity
  8
0
  6
Continuous
 62
     7
370
    25
100
AcDbSpline
210
0.0
220
0.0
230
1.0
 70
     8
 71
     3
 72
    14
 73
    10
 74
     0
 42
0.000000001
 43
0.00000001
 40
0.0
 40
0.0
 40
0.0
 40
0.0
 40
0.2243030424884226
 40
0.3489011866267907
 40
0.4744001356116942
 40
0.5826741857066078
 40
0.6867417687947862
 40
0.8381564871695824
 40
1.0
 40
1.0
 40
1.0
 40
1.0
 10
577.8678266776939
 20
445.0726826688864
 30
0.0
 10
577.8652802488778
 20
445.1132362147631
 30
0.0
 10
577.8613193037842
 20
445.1763168583483
 30
0.0
 10
577.8904187858107
 20
445.2490881567725
 30
0.0
 10
577.9301776222417
 20
445.2886214476327
 30
0.0
 10
577.9809653489647
 20
445.303986655168
 30
0.0
 10
578.0406336241141
 20
445.2987203600638
 30
0.0
 10
578.1090380301591
 20
445.2697009410916
 30
0.0
 10
578.1530885565718
 20
445.2321011590811
 30
0.0
 10
578.1758470708788
 20
445.212675394022
 30
0.0
  0
SPLINE
  5
242
330
1F
100
AcDbEntity
  8
0
  6
Continuous
 62
     7
370
    25
100
AcDbSpline
210
0.0
220
0.0
230
1.0
 70
     8
 71
     3
 72
    27
 73
    23
 74
     0
 42
0.000000001
 43
0.00000001
 40
0.0
 40
0.0
 40
0.0
 40
0.0
 40
0.0854193893125097
 40
0.1292485505238659
 40
0.1733927485569023
 40
0.2449111880238311
 40
0.3181761007994642
 40
0.3578246346969883
 40
0.3981318054712855
 40
0.428813183218086
 40
0.4602403930084953
 40
0.4856097432632041
 40
0.511706570768303
 40
0.5370818101410213
 40
0.5631224182367721
 40
0.5995872849299361
 40
0.6370631680065909
 40
0.696073664076585
 40
0.7566512808579691
 40
0.84015489383941
 40
0.9260592874403457
 40
1.0
 40
1.0
 40
1.0
 40
1.0
 10
575.1147360263197
 20
444.6342972289984
 30
0.0
 10
575.1661635202087
 20
444.4980558195172
 30
0.0
 10
575.2439787457179
 20
444.2919081891196
 30
0.0
 10
575.3888557153344
 20
444.0289200595982
 30
0.0
 10
575.5374965495427
 20
443.7952617473005
 30
0.0
 10
575.7401426780199
 20
443.5348790779341
 30
0.0
 10
575.9693965273779
 20
443.3087880942105
 30
0.0
 10
576.1817511004973
 20
443.1504484552319
 30
0.0
 10
576.3473462253008
 20
443.056521333687
 30
0.0
 10
576.5104436388674
 20
442.9934216134238
 30
0.0
 10
576.656105310655
 20
442.9627186762451
 30
0.0
 10
576.7964022088167
 20
442.9586396692094
 30
0.0
 10
576.925034585979
 20
442.9778437739423
 30
0.0
 10
577.0492894732664
 20
443.0199272527867
 30
0.0
 10
577.1805945617008
 20
443.0901212271298
 30
0.0
 10
577.3145502105563
 20
443.1949927535009
 30
0.0
 10
577.4678260621391
 20
443.3611652360262
 30
0.0
 10
577.614443410455
 20
443.5852724114029
 30
0.0
 10
577.7566758914135
 20
443.8994179931041
 30
0.0
 10
577.8587403378339
 20
444.275015814907
 30
0.0
 10
577.9035219069443
 20
444.6832859229679
 30
0.0
 10
577.8791162020124
 20
444.9495260419394
 30
0.0
 10
577.8678266776939
 20
445.0726826688864
 30
0.0
  0
SPLINE
  5
243
330
1F
100
AcDbEntity
  8
0
  6
Continuous
 62
     7
370
    25
100
AcDbSpline
210
0.0
220
0.0
230
1.0
 70
     8
 71
     3
 72
    14
 73
    10
 74
     0
 42
0.000000001
 43
0.00000001
 40
0.0
 40
0.0
 40
0.0
 40
0.0
 40
0.2239799089306199
 40
0.3530600787851182
 40
0.4831615846561662
 40
0.593736843404562
 40
0.6971871626484402
 40
0.844201309970944
 40
1.0
 40
1.0
 40
1.0
 40
1.0
 10
574.6989494142623
 20
444.6590353212256
 30
0.0
 10
574.7227548368788
 20
444.6944211151883
 30
0.0
 10
574.7602793828288
 20
444.7501998288415
 30
0.0
 10
574.8395218149739
 20
444.7993296236982
 30
0.0
 10
574.9093137795859
 20
444.8147325845935
 30
0.0
 10
574.9739471467653
 20
444.8029605575616
 30
0.0
 10
575.0323827712322
 20
444.7693911557643
 30
0.0
 10
575.0832157158168
 20
444.7126724736046
 30
0.0
 10
575.1040280026604
 20
444.6609227272934
 30
0.0
 10
575.1147360263197
 20
444.6342972289984
 30
0.0
  0
SPLINE
  5
244
330
1F
100
AcDbEntity
  8
0
  6
Continuous
 62
     7
370
    25
100
AcDbSpline
210
0.0
220
0.0
230
1.0
 70
     8
 71
     3
 72
    30
 73
    26
 74
     0
 42
0.000000001
 43
0.00000001
 40
0.0
 40
0.0
 40
0.0
 40
0.0
 40
0.0436326703263255
 40
0.0875749781500572
 40
0.1324697918177437
 40
0.1776879097589763
 40
0.2471697669172421
 40
0.318231900277105
 40
0.3543746168326105
 40
0.3910547066027366
 40
0.4195535900770222
 40
0.4487399260949237
 40
0.4718549633840155
 40
0.4956323239076603
 40
0.5187532378092643
 40
0.5424776768489744
 40
0.5764529707070521
 40
0.611359929517822
 40
0.6689630945504178
 40
0.7280598292433269
 40
0.7705504599328654
 40
0.8133510372521651
 40
0.9010083644128215
 40
0.9502779135835149
 40
1.0
 40
1.0
 40
1.0
 40
1.0
 10
572.3169532354323
 20
445.4013679574529
 30
0.0
 10
572.2929764135811
 20
445.3293251416181
 30
0.0
 10
572.244852619323
 20
445.1847282609916
 30
0.0
 10
572.1959230587277
 20
444.9603526932505
 30
0.0
 10
572.1644136683634
 20
444.7310347752431
 30
0.0
 10
572.1510082197993
 20
444.4566371371781
 30
0.0
 10
572.1711822739514
 20
444.1382908329317
 30
0.0
 10
572.2359601768524
 20
443.8433925146593
 30
0.0
 10
572.3224753993173
 20
443.6173131053766
 30
0.0
 10
572.4021011277209
 20
443.4687170496824
 30
0.0
 10
572.494104517447
 20
443.3451238224033
 30
0.0
 10
572.5876253421467
 20
443.2557002865465
 30
0.0
 10
572.6876167332134
 20
443.191368775864
 30
0.0
 10
572.7877353759684
 20
443.1517657042911
 30
0.0
 10
572.8937596658421
 20
443.1329781518979
 30
0.0
 10
573.0173163158179
 20
443.1342654263751
 30
0.0
 10
573.158449223939
 20
443.1633654693596
 30
0.0
 10
573.3459445024439
 20
443.2365045478875
 30
0.0
 10
573.561286654122
 20
443.3630551453415
 30
0.0
 10
573.7749924536008
 20
443.5283522918297
 30
0.0
 10
573.959567248617
 20
443.6966002651773
 30
0.0
 10
574.1711645676439
 20
443.9133859464982
 30
0.0
 10
574.3748976740326
 20
444.1600128130693
 30
0.0
 10
574.5658560122677
 20
444.4320270745376
 30
0.0
 10
574.6544499454421
 20
444.5831356429242
 30
0.0
 10
574.6989494142623
 20
444.6590353212256
 30
0.0
  0
SPLINE
  5
245
330
1F
100
AcDbEntity
  8
0
  6
Continuous
 62
     7
370
    25
100
AcDbSpline
210
0.0
220
0.0
230
1.0
 70
     8
 71
     3
 72
    14
 73
    10
 74
     0
 42
0.000000001
 43
0.00000001
 40
0.0
 40
0.0
 40
0.0
 40
0.0
 40
0.2200911109486972
 40
0.3501199592092981
 40
0.4590676183977896
 40
0.5685351145661598
 40
0.6668402217390973
 40
0.7968948941937768
 40
1.0
 40
1.0
 40
1.0
 40
1.0
 10
572.1064962038824
 20
445.5715955774834
 30
0.0
 10
572.1373763891644
 20
445.5943476687119
 30
0.0
 10
572.1865004503983
 20
445.6305415941206
 30
0.0
 10
572.2528078057645
 20
445.6473202389482
 30
0.0
 10
572.2977581594325
 20
445.640583962902
 30
0.0
 10
572.3281682863764
 20
445.6141186888406
 30
0.0
 10
572.3448435468647
 20
445.569087715014
 30
0.0
 10
572.3463741070425
 20
445.4974943854474
 30
0.0
 10
572.328096104225
 20
445.4377749065347
 30
0.0
 10
572.3169532354323
 20
445.4013679574529
 30
0.0
  0
SPLINE
  5
246
330
1F
100
AcDbEntity
  8
0
  6
Continuous
 62
     7
370
    25
100
AcDbSpline
210
0.0
220
0.0
230
1.0
 70
     8
 71
     3
 72
    32
 73
    28
 74
     0
 42
0.000000001
 43
0.00000001
 40
0.0
 40
0.0
 40
0.0
 40
0.0
 40
0.0453942490664593
 40
0.0911149500211672
 40
0.1378156604218266
 40
0.1848384153738185
 40
0.2588911921182513
 40
0.2966281930596053
 40
0.3346227841547507
 40
0.3627380257352099
 40
0.391088402663765
 40
0.4192466010957387
 40
0.448181911943885
 40
0.4658254771020624
 40
0.4839564361058508
 40
0.5016138628025492
 40
0.519778983331852
 40
0.5448703289759572
 40
0.5706414417831718
 40
0.6177923775613886
 40
0.666066478349626
 40
0.7088271620555587
 40
0.7519045224538942
 40
0.7958661863085448
 40
0.8400991772633742
 40
0.9191874857499324
 40
1.0
 40
1.0
 40
1.0
 40
1.0
 10
571.8892862041226
 20
446.9304847841827
 30
0.0
 10
571.8317135027735
 20
446.8703622177031
 30
0.0
 10
571.7161540670764
 20
446.749684714438
 30
0.0
 10
571.5526276457852
 20
446.5513781730757
 30
0.0
 10
571.397183128355
 20
446.3408061736476
 30
0.0
 10
571.2245803525459
 20
446.0757087464977
 30
0.0
 10
571.0797703261467
 20
445.812598539964
 30
0.0
 10
570.9619490887927
 20
445.5578247988211
 30
0.0
 10
570.8897001622654
 20
445.3791066494836
 30
0.0
 10
570.8324677823897
 20
445.2166135319288
 30
0.0
 10
570.7885513069108
 20
445.0726657305976
 30
0.0
 10
570.7531310955695
 20
444.9320478916758
 30
0.0
 10
570.7322286528515
 20
444.8182009211259
 30
0.0
 10
570.7236480052621
 20
444.7333450329174
 30
0.0
 10
570.7233956725306
 20
444.6751902323783
 30
0.0
 10
570.7303072830016
 20
444.6310781687777
 30
0.0
 10
570.745610639775
 20
444.5981939068615
 30
0.0
 10
570.7717017809647
 20
444.5816518543541
 30
0.0
 10
570.8198641514235
 20
444.5844440129589
 30
0.0
 10
570.8949118198362
 20
444.620784169404
 30
0.0
 10
570.9975868346345
 20
444.6901074583475
 30
0.0
 10
571.1109281553862
 20
444.7744479274253
 30
0.0
 10
571.232037971648
 20
444.8679888033578
 30
0.0
 10
571.3653289942982
 20
444.9726088911004
 30
0.0
 10
571.5482353322162
 20
445.1175608005901
 30
0.0
 10
571.790885267892
 20
445.3110004423021
 30
0.0
 10
572.0005389952729
 20
445.4841083267188
 30
0.0
 10
572.1064962038824
 20
445.5715955774834
 30
0.0
  0
SPLINE
  5
247
330
1F
100
AcDbEntity
  8
0
  6
Continuous
 62
     7
370
    25
100
AcDbSpline
210
0.0
220
0.0
230
1.0
 70
     8
 71
     3
 72
    15
 73
    11
 74
     0
 42
0.000000001
 43
0.00000001
 40
0.0
 40
0.0
 40
0.0
 40
0.0
 40
0.2150763736126849
 40
0.3413349926978761
 40
0.4465934903530023
 40
0.5524796219273694
 40
0.6449070621727334
 40
0.7662146539023745
 40
0.9406316560516798
 40
0.9999999999999999
 40
0.9999999999999999
 40
0.9999999999999999
 40
0.9999999999999999
 10
572.0426371903787
 20
447.1175932930378
 30
0.0
 10
572.0579315397371
 20
447.1303370189725
 30
0.0
 10
572.0822042970783
 20
447.150561832725
 30
0.0
 10
572.0924202675734
 20
447.1526450371821
 30
0.0
 10
572.0858192446805
 20
447.1396848477114
 30
0.0
 10
572.0645158713501
 20
447.113293603168
 30
0.0
 10
572.0296599113
 20
447.0746489501572
 30
0.0
 10
571.9783583270157
 20
447.0207477620332
 30
0.0
 10
571.92862270604
 20
446.9701879746888
 30
0.0
 10
571.8972524793387
 20
446.9385253197442
 30
0.0
 10
571.8892862041226
 20
446.9304847841827
 30
0.0
  0
SPLINE
  5
248
330
1F
100
AcDbEntity
  8
0
  6
Continuous
 62
     7
370
    25
100
AcDbSpline
210
0.0
220
0.0
230
1.0
 70
     8
 71
     3
 72
    10
 73
     6
 74
     0
 42
0.000000001
 43
0.00000001
 40
0.0
 40
0.0
 40
0.0
 40
0.0
 40
0.0680242554640649
 40
0.4428886606540566
 40
1.0
 40
1.0
 40
1.0
 40
1.0
 10
571.8352823989826
 20
446.8726609466455
 30
0.0
 10
571.8379160800416
 20
446.8781850231601
 30
0.0
 10
571.8550633089062
 20
446.9141508831648
 30
0.0
 10
571.9154721121283
 20
446.9953994529307
 30
0.0
 10
571.9950609889404
 20
447.0718769782173
 30
0.0
 10
572.0426371903787
 20
447.1175932930379
 30
0.0
  0
LWPOLYLINE
  5
249
330
1F
100
AcDbEntity
  8
0
  6
Continuous
 62
     7
370
    25
100
AcDbPolyline
 90
       16
 70
   128
 43
0.0
 10
575.1147360263
 20
257.3805477137
 10
575.2536321833
 20
257.2554459107
 10
575.4365442745
 20
257.1463905325
 10
575.656678164
 20
257.0574323614
 10
575.9058571393
 20
256.9918756838
 10
576.1748256294
 20
256.9521555546
 10
576.4535929963
 20
256.9397473488
 10
576.7318046298
 20
256.9551119603
 10
576.9991265621
 20
256.9976786817
 10
577.2456293153
 20
257.0658664034
 10
577.4621567249
 20
257.1571423422
 10
577.6406660382
 20
257.26811612
 10
577.7745266575
 20
257.394665697
 10
577.8587664277
 20
257.5320904816
 10
577.8902563242
 20
257.6752859305
 10
577.8904483975
 20
257.687448616
  0
LWPOLYLINE
  5
24A
330
1F
100
AcDbEntity
  8
0
  6
Continuous
 62
     7
370
    25
100
AcDbPolyline
 90
       14
 70
   128
 43
0.0
 10
572.1564494507
 20
257.9062020669
 10
572.1643572151
 20
257.8282648437
 10
572.2202022594
 20
257.6870532828
 10
572.3276059296
 20
257.5539818434
 10
572.4825787948
 20
257.4339933669
 10
572.6793645012
 20
257.3315447374
 10
572.9106535875
 20
257.2504413346
 10
573.1678549896
 20
257.193695685
 10
573.4414151493
 20
257.1634155644
 10
573.7211728744
 20
257.1607257057
 10
573.9967367687
 20
257.1857260217
 10
574.2578712125
 20
257.237487894
 10
574.4948765578
 20
257.3140886656
 10
574.6989494143
 20
257.4126830569
  0
ARC
  5
24B
330
1F
100
AcDbEntity
  8
0
  6
Continuous
 62
     7
370
    25
100
AcDbCircle
 10
574.8821717416
 20
257.0774072594
 30
0.0
 40
0.3820736598567751
100
AcDbArc
 50
52.5051832161
 51
118.655828585
  0
ARC
  5
24C
330
1F
100
AcDbEntity
  8
0
  6
Continuous
 62
     7
370
    25
100
AcDbCircle
 10
578.1052718384
 20
257.6257524553
 30
0.0
 40
0.3478063364651809
100
AcDbArc
 50
78.2925092538
 51
128.1449069165
  0
LWPOLYLINE
  5
24D
330
1F
100
AcDbEntity
  8
0
  6
Continuous
 62
     7
370
    25
100
AcDbPolyline
 90
       11
 70
   128
 43
0.0
 10
578.1758470709
 20
257.9663231296
 10
578.4523528403
 20
257.9442531609
 10
578.7319435082
 20
257.9499120019
 10
579.0042338834
 20
257.9830894592
 10
579.2591099389
 20
258.0425531802
 10
579.4871044899
 20
258.1260944285
 10
579.6797488453
 20
258.2306101256
 10
579.8298873715
 20
258.3522181121
 10
579.9319432824
 20
258.4864013484
 10
579.9821257858
 20
258.6281756961
 10
579.9872215248
 20
258.6907696554
  0
LINE
  5
24E
330
1F
100
AcDbEntity
  8
0
  6
Continuous
 62
     7
370
    25
100
AcDbLine
 10
572.1064962039
 20
258.4354115206
 30
0.0
 11
572.1564494507
 21
258.4315538237
 31
0.0
  0
LWPOLYLINE
  5
24F
330
1F
100
AcDbEntity
  8
0
  6
Continuous
 62
     7
370
    25
100
AcDbPolyline
 90
        9
 70
   128
 43
0.0
 10
570.7238149306
 20
259.1823041978
 10
570.7452278981
 20
259.054353874
 10
570.8194500473
 20
258.9154054847
 10
570.9440465774
 20
258.7863708531
 10
571.1143894412
 20
258.6720428764
 10
571.3241513776
 20
258.5766681835
 10
571.5655409326
 20
258.5037893979
 10
571.8295918678
 20
258.4561135487
 10
572.1064962039
 20
258.4354115206
  0
SPLINE
  5
250
330
1F
100
AcDbEntity
  8
0
  6
Continuous
 62
     7
370
    25
100
AcDbSpline
210
0.0
220
0.0
230
1.0
 70
     8
 71
     3
 72
    17
 73
    13
 74
     0
 42
0.000000001
 43
0.00000001
 40
0.0
 40
0.0
 40
0.0
 40
0.0
 40
0.1815748361903584
 40
0.2747418891436099
 40
0.3685786115917124
 40
0.5206043874174847
 40
0.6763426178450793
 40
0.7606229680743851
 40
0.8463033737708398
 40
0.9115223619105133
 40
0.9783267550997073
 40
1.0
 40
1.0
 40
1.0
 40
1.0
 10
729.1491613082676
 20
592.7279030120034
 30
0.0
 10
729.2464593123068
 20
592.6682607677094
 30
0.0
 10
729.3936814604883
 20
592.5780157579168
 30
0.0
 10
729.5603840276401
 20
592.47550387967
 30
0.0
 10
729.6990588032394
 20
592.3898205105024
 30
0.0
 10
729.8365810565155
 20
592.3046594069509
 30
0.0
 10
729.9342133748288
 20
592.246850674208
 30
0.0
 10
729.9857115616721
 20
592.2245722954917
 30
0.0
 10
730.0056123758148
 20
592.22569148328
 30
0.0
 10
730.0053827922269
 20
592.2479196760495
 30
0.0
 10
729.9953975957376
 20
592.2754069160966
 30
0.0
 10
729.9801981171704
 20
592.3032121953977
 30
0.0
 10
729.9764748936707
 20
592.3100233020324
 30
0.0
  0
SPLINE
  5
251
330
1F
100
AcDbEntity
  8
0
  6
Continuous
 62
     7
370
    25
100
AcDbSpline
210
0.0
220
0.0
230
1.0
 70
     8
 71
     3
 72
    14
 73
    10
 74
     0
 42
0.000000001
 43
0.00000001
 40
0.0
 40
0.0
 40
0.0
 40
0.0
 40
0.2239799089305908
 40
0.3530600787851546
 40
0.4831615846561819
 40
0.5937368434045807
 40
0.6971871626484146
 40
0.8442013099709538
 40
1.0
 40
1.0
 40
1.0
 40
1.0
 10
729.0867671966063
 20
592.5063598248274
 30
0.0
 10
729.0645346963411
 20
592.5425557336898
 30
0.0
 10
729.0294895517443
 20
592.599611433443
 30
0.0
 10
729.0030406400996
 20
592.675931901466
 30
0.0
 10
728.999527462208
 20
592.7254709610811
 30
0.0
 10
729.0148613293985
 20
592.7548851044949
 30
0.0
 10
729.0450560968378
 20
592.7669637291235
 30
0.0
 10
729.0907971413399
 20
592.7599843283894
 30
0.0
 10
729.1293339375866
 20
592.7388016195806
 30
0.0
 10
729.1491613082677
 20
592.7279030120034
 30
0.0
  0
SPLINE
  5
252
330
1F
100
AcDbEntity
  8
0
  6
Continuous
 62
     7
370
    25
100
AcDbSpline
210
0.0
220
0.0
230
1.0
 70
     8
 71
     3
 72
    30
 73
    26
 74
     0
 42
0.000000001
 43
0.00000001
 40
0.0
 40
0.0
 40
0.0
 40
0.0
 40
0.0436326703263252
 40
0.0875749781500573
 40
0.1324697918177438
 40
0.1776879097589762
 40
0.247169766917243
 40
0.3182319002771055
 40
0.3543746168326136
 40
0.3910547066027356
 40
0.4195535900770255
 40
0.4487399260949222
 40
0.4718549633840177
 40
0.4956323239076582
 40
0.5187532378092672
 40
0.5424776768489772
 40
0.5764529707070565
 40
0.6113599295178218
 40
0.6689630945504189
 40
0.7280598292433278
 40
0.7705504599328662
 40
0.813351037252163
 40
0.9010083644128193
 40
0.9502779135835124
 40
1.0
 40
1.0
 40
1.0
 40
1.0
 10
727.4650106490127
 20
591.1866073644217
 30
0.0
 10
727.5158199971623
 20
591.1283843212767
 30
0.0
 10
727.6177992599658
 20
591.011525057493
 30
0.0
 10
727.7794083538578
 20
590.845183739663
 30
0.0
 10
727.9466824416343
 20
590.6857898100512
 30
0.0
 10
728.1496817659383
 20
590.5090402367622
 30
0.0
 10
728.3898303960646
 20
590.3247700266819
 30
0.0
 10
728.6208480392833
 20
590.18221767705
 30
0.0
 10
728.8091374217969
 20
590.097673102492
 30
0.0
 10
728.9414985589483
 20
590.0582583539393
 30
0.0
 10
729.0630473850713
 20
590.0446526488039
 30
0.0
 10
729.164078476562
 20
590.0554307573318
 30
0.0
 10
729.2534498232043
 20
590.0886282665388
 30
0.0
 10
729.3284436028055
 20
590.1392147598689
 30
0.0
 10
729.3943560966037
 20
590.2089811975445
 30
0.0
 10
729.4573596561886
 20
590.3063540832085
 30
0.0
 10
729.5121491349104
 20
590.4363616151443
 30
0.0
 10
729.5615797489515
 20
590.6315265492655
 30
0.0
 10
729.586270646352
 20
590.8817033062318
 30
0.0
 10
729.5754177817234
 20
591.151477437775
 30
0.0
 10
729.5404183695883
 20
591.3967624283756
 30
0.0
 10
729.4749312164761
 20
591.688800408274
 30
0.0
 10
729.3702281958955
 20
591.9864315395979
 30
0.0
 10
729.2268513043089
 20
592.2829520577493
 30
0.0
 10
729.1336039915902
 20
592.4316639584937
 30
0.0
 10
729.0867671966063
 20
592.5063598248274
 30
0.0
  0
SPLINE
  5
253
330
1F
100
AcDbEntity
  8
0
  6
Continuous
 62
     7
370
    25
100
AcDbSpline
210
0.0
220
0.0
230
1.0
 70
     8
 71
     3
 72
    14
 73
    10
 74
     0
 42
0.000000001
 43
0.00000001
 40
0.0
 40
0.0
 40
0.0
 40
0.0
 40
0.2200911109487056
 40
0.3501199592092729
 40
0.4590676183977975
 40
0.5685351145661719
 40
0.666840221739115
 40
0.7968948941937618
 40
1.0
 40
1.0
 40
1.0
 40
1.0
 10
727.1010334934005
 20
591.0609795065338
 30
0.0
 10
727.1054301026256
 20
591.1019004900942
 30
0.0
 10
727.1124242090026
 20
591.1669974085169
 30
0.0
 10
727.1537796248922
 20
591.2392264797912
 30
0.0
 10
727.2005283349354
 20
591.2797187129901
 30
0.0
 10
727.2549678873222
 20
591.2969542544279
 30
0.0
 10
727.3166258682105
 20
591.2922678824413
 30
0.0
 10
727.3924581265262
 20
591.2605193499812
 30
0.0
 10
727.4375320872163
 20
591.2146008096265
 30
0.0
 10
727.4650106490127
 20
591.1866073644217
 30
0.0
  0
SPLINE
  5
254
330
1F
100
AcDbEntity
  8
0
  6
Continuous
 62
     7
370
    25
100
AcDbSpline
210
0.0
220
0.0
230
1.0
 70
     8
 71
     3
 72
    32
 73
    28
 74
     0
 42
0.000000001
 43
0.00000001
 40
0.0
 40
0.0
 40
0.0
 40
0.0
 40
0.0453942490664569
 40
0.0911149500211647
 40
0.1378156604218275
 40
0.1848384153738193
 40
0.2588911921182518
 40
0.2966281930596092
 40
0.3346227841547508
 40
0.3627380257352137
 40
0.3910884026637687
 40
0.4192466010957383
 40
0.4481819119438873
 40
0.4658254771020647
 40
0.4839564361058509
 40
0.5016138628025493
 40
0.5197789833318559
 40
0.5448703289759576
 40
0.570641441783169
 40
0.6177923775613913
 40
0.6660664783496266
 40
0.7088271620555593
 40
0.7519045224538913
 40
0.7958661863085452
 40
0.8400991772633746
 40
0.9191874857499325
 40
1.0
 40
1.0
 40
1.0
 40
1.0
 10
724.2275652211509
 20
590.8280517258512
 30
0.0
 10
724.2413007840013
 20
590.7453513639496
 30
0.0
 10
724.2688706887436
 20
590.5793559020493
 30
0.0
 10
724.3358544863513
 20
590.3313262336383
 30
0.0
 10
724.4209865396487
 20
590.084540638041
 30
0.0
 10
724.5457853572836
 20
589.7948223523
 30
0.0
 10
724.6898727505388
 20
589.531339962183
 30
0.0
 10
724.8492978014281
 20
589.2979937690724
 30
0.0
 10
724.9721206648928
 20
589.1453231228556
 30
0.0
 10
725.0951182719914
 20
589.0167016013255
 30
0.0
 10
725.2154377743202
 20
588.9121042678606
 30
0.0
 10
725.3489362315056
 20
588.8220004598688
 30
0.0
 10
725.4780979170276
 20
588.763911121324
 30
0.0
 10
725.5971597022577
 20
588.7359572255599
 30
0.0
 10
725.6981956531936
 20
588.729709825723
 30
0.0
 10
725.7997437802019
 20
588.7414586565191
 30
0.0
 10
725.9105127478848
 20
588.7735064418904
 30
0.0
 10
726.0280384854766
 20
588.8309325501551
 30
0.0
 10
726.179950047206
 20
588.9367704016339
 30
0.0
 10
726.3447228315115
 20
589.0966272223709
 30
0.0
 10
726.505976547067
 20
589.3018838565093
 30
0.0
 10
726.6426232144864
 20
589.5149776577653
 30
0.0
 10
726.7584040197694
 20
589.7305262233824
 30
0.0
 10
726.8595079987083
 20
589.9558686615121
 30
0.0
 10
726.9668042996324
 20
590.2502859794448
 30
0.0
 10
727.0654908222522
 20
590.619526893534
 30
0.0
 10
727.0891010734748
 20
590.9127746084365
 30
0.0
 10
727.1010334934005
 20
591.0609795065338
 30
0.0
  0
SPLINE
  5
255
330
1F
100
AcDbEntity
  8
0
  6
Continuous
 62
     7
370
    25
100
AcDbSpline
210
0.0
220
0.0
230
1.0
 70
     8
 71
     3
 72
    15
 73
    11
 74
     0
 42
0.000000001
 43
0.00000001
 40
0.0
 40
0.0
 40
0.0
 40
0.0
 40
0.2150763736127091
 40
0.3413349926978694
 40
0.446593490353039
 40
0.552479621927361
 40
0.6449070621727264
 40
0.7662146539023484
 40
0.9406316560516563
 40
1.0
 40
1.0
 40
1.0
 40
1.0
 10
723.8360872435449
 20
590.8925157674972
 30
0.0
 10
723.8618074068922
 20
590.9263835290993
 30
0.0
 10
723.9026263570211
 20
590.9801330505599
 30
0.0
 10
723.9774809851089
 20
591.0260308523425
 30
0.0
 10
724.0404153662128
 20
591.042084487238
 30
0.0
 10
724.097619731382
 20
591.0341836204185
 30
0.0
 10
724.1490389996513
 20
591.0040697017871
 30
0.0
 10
724.1950391872577
 20
590.9474380925238
 30
0.0
 10
724.2184267665592
 20
590.883308060518
 30
0.0
 10
724.2257145369065
 20
590.8392420236138
 30
0.0
 10
724.2275652211509
 20
590.8280517258512
 30
0.0
  0
SPLINE
  5
256
330
1F
100
AcDbEntity
  8
0
  6
Continuous
 62
     7
370
    25
100
AcDbSpline
210
0.0
220
0.0
230
1.0
 70
     8
 71
     3
 72
    13
 73
     9
 74
     0
 42
0.000000001
 43
0.00000001
 40
0.0
 40
0.0
 40
0.0
 40
0.0
 40
0.1658446623519406
 40
0.3328963643763109
 40
0.5034505712887525
 40
0.6751039440244753
 40
0.8453760489793666
 40
1.0
 40
1.0
 40
1.0
 40
1.0
 10
721.8746874637128
 20
591.9238883148004
 30
0.0
 10
721.8369619857347
 20
591.8402354861036
 30
0.0
 10
721.7612364586951
 20
591.6723209922147
 30
0.0
 10
721.6739143328073
 20
591.4081625294639
 30
0.0
 10
721.605585369123
 20
591.1358483097439
 30
0.0
 10
721.5597144233179
 20
590.8575503247615
 30
0.0
 10
721.5342820072262
 20
590.5855769391998
 30
0.0
 10
721.5355033704358
 20
590.4073746037682
 30
0.0
 10
721.5360846394343
 20
590.3225648663806
 30
0.0
  0
SPLINE
  5
257
330
1F
100
AcDbEntity
  8
0
  6
Continuous
 62
     7
370
    25
100
AcDbSpline
210
0.0
220
0.0
230
1.0
 70
     8
 71
     3
 72
    16
 73
    12
 74
     0
 42
0.000000001
 43
0.00000001
 40
0.0
 40
0.0
 40
0.0
 40
0.0
 40
0.0224018355948444
 40
0.0960457127372023
 40
0.1831797494177879
 40
0.2709351809905755
 40
0.4497574683483078
 40
0.6473422258977718
 40
0.7480789805079971
 40
0.8494080372784102
 40
1.0
 40
1.0
 40
1.0
 40
1.0
 10
722.2057060834923
 20
589.1716068947925
 30
0.0
 10
722.2188477286725
 20
589.1769441889204
 30
0.0
 10
722.2751912667956
 20
589.1998273234938
 30
0.0
 10
722.3777567485228
 20
589.2721134205499
 30
0.0
 10
722.5162578214685
 20
589.3786013877308
 30
0.0
 10
722.711765830978
 20
589.5522020176581
 30
0.0
 10
722.96901955302
 20
589.8068611195529
 30
0.0
 10
723.233199813084
 20
590.0991536282711
 30
0.0
 10
723.449487092954
 20
590.3610883799282
 30
0.0
 10
723.6366700238201
 20
590.6013392067881
 30
0.0
 10
723.7614793877841
 20
590.7835780394902
 30
0.0
 10
723.8360872435449
 20
590.8925157674972
 30
0.0
  0
SPLINE
  5
258
330
1F
100
AcDbEntity
  8
0
  6
Continuous
 62
     7
370
    25
100
AcDbSpline
210
0.0
220
0.0
230
1.0
 70
     8
 71
     3
 72
    15
 73
    11
 74
     0
 42
0.000000001
 43
0.00000001
 40
0.0
 40
0.0
 40
0.0
 40
0.0
 40
0.212929405320352
 40
0.3333107283176957
 40
0.4345062010027238
 40
0.53628368865078
 40
0.6256367151022056
 40
0.7456368547567922
 40
0.9211927176880709
 40
1.0
 40
1.0
 40
1.0
 40
1.0
 10
721.7504995659455
 20
592.1307701393936
 30
0.0
 10
721.7783519453981
 20
592.1515454888682
 30
0.0
 10
721.8219508878116
 20
592.1840663464459
 30
0.0
 10
721.8761018936103
 20
592.1973871289805
 30
0.0
 10
721.9098426453123
 20
592.1892397939156
 30
0.0
 10
721.9293915978034
 20
592.1625940916128
 30
0.0
 10
721.9356330619146
 20
592.1186508778649
 30
0.0
 10
721.9262336518412
 20
592.0524582325562
 30
0.0
 10
721.9023377468799
 20
591.9834986994923
 30
0.0
 10
721.8812277910989
 20
591.9379884030033
 30
0.0
 10
721.8746874637128
 20
591.9238883148004
 30
0.0
  0
SPLINE
  5
259
330
1F
100
AcDbEntity
  8
0
  6
Continuous
 62
     7
370
    25
100
AcDbSpline
210
0.0
220
0.0
230
1.0
 70
     8
 71
     3
 72
    14
 73
    10
 74
     0
 42
0.000000001
 43
0.00000001
 40
0.0
 40
0.0
 40
0.0
 40
0.0
 40
0.000947004621496
 40
0.1630566353057869
 40
0.3260563725249468
 40
0.4918839154724265
 40
0.6586835075602201
 40
0.8287270259671015
 40
0.9999999999999999
 40
0.9999999999999999
 40
0.9999999999999999
 40
0.9999999999999999
 10
720.918826426226
 20
591.3640665980471
 30
0.0
 10
720.9189905969157
 20
591.3642576575824
 30
0.0
 10
720.9472577454239
 20
591.3971545666903
 30
0.0
 10
721.0177593306979
 20
591.4711898199804
 30
0.0
 10
721.1316402957383
 20
591.5856083305621
 30
0.0
 10
721.2629507971712
 20
591.7090297425597
 30
0.0
 10
721.4099692932023
 20
591.84077911156
 30
0.0
 10
721.5715556546085
 20
591.9804737433003
 30
0.0
 10
721.6907085287033
 20
592.0805511777702
 30
0.0
 10
721.7504995659455
 20
592.1307701393936
 30
0.0
  0
SPLINE
  5
25A
330
1F
100
AcDbEntity
  8
0
  6
Continuous
 62
     7
370
    25
100
AcDbSpline
210
0.0
220
0.0
230
1.0
 70
     8
 71
     3
 72
    12
 73
     8
 74
     0
 42
0.000000001
 43
0.00000001
 40
0.0
 40
0.0
 40
0.0
 40
0.0
 40
0.0182150527498658
 40
0.2113600130174261
 40
0.4815998423764359
 40
0.8782779434681453
 40
1.0
 40
1.0
 40
1.0
 40
1.0
 10
722.3799921074732
 20
593.8298921725634
 30
0.0
 10
722.3790832065405
 20
593.8291552343422
 30
0.0
 10
722.3685366923135
 20
593.8206041050015
 30
0.0
 10
722.3345981120004
 20
593.7920812692776
 30
0.0
 10
722.2744317605063
 20
593.7406835380622
 30
0.0
 10
722.2189524192263
 20
593.6916841954977
 30
0.0
 10
722.1859025383822
 20
593.6615293668763
 30
0.0
 10
722.1781423180093
 20
593.6544489142564
 30
0.0
  0
LINE
  5
25B
330
1F
100
AcDbEntity
  8
0
  6
Continuous
 62
     7
370
    25
100
AcDbLine
 10
727.1010334934
 20
591.0609795065
 30
0.0
 11
727.1010334934
 21
578.5100735048
 31
0.0
  0
LINE
  5
25C
330
1F
100
AcDbEntity
  8
0
  6
Continuous
 62
     7
370
    25
100
AcDbLine
 10
727.1010334934
 20
532.2601608782
 30
0.0
 11
727.1010334934
 21
403.9247954497
 31
0.0
  0
LWPOLYLINE
  5
25D
330
1F
100
AcDbEntity
  8
0
  6
Continuous
 62
     7
370
    25
100
AcDbPolyline
 90
       16
 70
   128
 43
0.0
 10
724.2275652212
 20
403.8129240296
 10
724.3089290351
 20
403.6750403523
 10
724.4401380303
 20
403.5477562592
 10
724.6163185445
 20
403.4357996248
 10
724.8309264812
 20
403.3433289966
 10
725.0759903855
 20
403.2737791285
 10
725.3424075377
 20
403.2297333995
 10
725.6202820673
 20
403.212827856
 10
725.899292528
 20
403.223690442
 10
726.1690752801
 20
403.2619176749
 10
726.4196094403
 20
403.3260896319
 10
726.6415891004
 20
403.4138226925
 10
726.826768988
 20
403.5218580764
 10
726.9682707316
 20
403.6461828882
 10
727.0608383523
 20
403.7821791735
 10
727.1010334934
 20
403.9247954497
  0
LWPOLYLINE
  5
25E
330
1F
100
AcDbEntity
  8
0
  6
Continuous
 62
     7
370
    25
100
AcDbPolyline
 90
       13
 70
   128
 43
0.0
 10
721.5341566568
 20
404.4980507311
 10
721.5380284366
 20
404.4434779819
 10
721.5852460843
 20
404.3014337354
 10
721.68449273
 20
404.1666926835
 10
721.8320819294
 20
404.0442596842
 10
722.0225315896
 20
403.9386824217
 10
722.2487675972
 20
403.8538824864
 10
722.5023865809
 20
403.7930097098
 10
722.7739680489
 20
403.7583251668
 10
723.0534243061
 20
403.7511171894
 10
723.3303751538
 20
403.7716535127
 10
723.5945334554
 20
403.8191713298
 10
723.8360872435
 20
403.8919056263
  0
LWPOLYLINE
  5
25F
330
1F
100
AcDbEntity
  8
0
  6
Continuous
 62
     7
370
    25
100
AcDbPolyline
 90
       12
 70
   128
 43
0.0
 10
727.465010649
 20
404.0331888341
 10
727.7250485658
 20
403.979982777
 10
728.0000742002
 20
403.9534567603
 10
728.279871926
 20
403.9545960735
 10
728.5540488612
 20
403.9833583976
 10
728.8124209037
 20
404.0386753772
 10
729.0453910129
 20
404.1184923033
 10
729.2443056843
 20
404.2198444347
 10
729.4017763778
 20
404.3389671205
 10
729.5119539594
 20
404.4714356355
 10
729.5707459635
 20
404.6123295335
 10
729.5803655842
 20
404.6982642472
  0
ARC
  5
260
330
1F
100
AcDbEntity
  8
0
  6
Continuous
 62
     7
370
    25
100
AcDbCircle
 10
723.9780220456
 20
403.5857304979
 30
0.0
 40
0.3374739950212204
100
AcDbArc
 50
42.3159117662
 51
114.8712087101
  0
LWPOLYLINE
  5
261
330
1F
100
AcDbEntity
  8
0
  6
Continuous
 62
     7
370
    25
100
AcDbPolyline
 90
        9
 70
   128
 43
0.0
 10
727.1010334934
 20
403.9247954497
 10
727.1117219959
 20
403.9563908741
 10
727.137239953
 20
403.9856456966
 10
727.176004217
 20
404.010744932
 10
727.2256098318
 20
404.0301314102
 10
727.2829792381
 20
404.0426023835
 10
727.344553207
 20
404.047384146
 10
727.4065116559
 20
404.0441800346
 10
727.465010649
 20
404.0331888341
  0
LWPOLYLINE
  5
262
330
1F
100
AcDbEntity
  8
0
  6
Continuous
 62
     7
370
    25
100
AcDbPolyline
 90
        8
 70
   128
 43
0.0
 10
720.6887780633
 20
405.9063479086
 10
720.7031025557
 20
405.801568493
 10
720.7688260953
 20
405.6614894252
 10
720.8855029866
 20
405.5305054469
 10
721.0487993517
 20
405.4134818622
 10
721.2526496665
 20
405.3147654267
 10
721.48948206
 20
405.2380228902
 10
721.5341566568
 20
405.2269650776
  0
ARC
  5
263
330
1F
100
AcDbEntity
  8
0
  6
Continuous
 62
     7
370
    25
100
AcDbCircle
 10
729.3310458815
 20
406.2628238444
 30
0.0
 40
0.6824629379570031
100
AcDbArc
 50
291.4274886136
 51
350.9954914978
  0
SPLINE
  5
264
330
1F
100
AcDbEntity
  8
0
  6
Continuous
 62
     7
370
    25
100
AcDbSpline
210
0.0
220
0.0
230
1.0
 70
     8
 71
     3
 72
    31
 73
    27
 74
     0
 42
0.000000001
 43
0.00000001
 40
0.0
 40
0.0
 40
0.0
 40
0.0
 40
0.0441466678382048
 40
0.0886154033489246
 40
0.1340332091911608
 40
0.1797544925930148
 40
0.2246010207242693
 40
0.269737432784555
 40
0.3158872821088672
 40
0.3624612967954886
 40
0.4188646742143988
 40
0.4470251772115966
 40
0.4758405247169845
 40
0.4938163492024429
 40
0.5122594402685653
 40
0.5302578458902556
 40
0.5488244143653032
 40
0.5722038163381871
 40
0.5962306770642174
 40
0.6386001154354641
 40
0.681987253677338
 40
0.7223130450430847
 40
0.7629404599317434
 40
0.8459823030164986
 40
0.9222505624506064
 40
1.0
 40
1.0
 40
1.0
 40
1.0
 10
437.5295487433866
 20
669.7603042952303
 30
0.0
 10
437.4842012203019
 20
669.690462931805
 30
0.0
 10
437.3931753457387
 20
669.5502706841575
 30
0.0
 10
437.2766030576629
 20
669.326111096252
 30
0.0
 10
437.1750256177135
 20
669.0924638486744
 30
0.0
 10
437.0916645651226
 20
668.8518151964072
 30
0.0
 10
437.0268086318219
 20
668.6072009550065
 30
0.0
 10
436.9806921610007
 20
668.3588399995741
 30
0.0
 10
436.954377739789
 20
668.1059952906202
 30
0.0
 10
436.9502934186982
 20
667.8339239155189
 30
0.0
 10
436.9739839012462
 20
667.5993531985379
 30
0.0
 10
437.0204324004933
 20
667.4100944507609
 30
0.0
 10
437.0654720199098
 20
667.2959084567267
 30
0.0
 10
437.1165059312269
 20
667.2113030053858
 30
0.0
 10
437.1668615168427
 20
667.1538388921862
 30
0.0
 10
437.2245432393259
 20
667.1122098581249
 30
0.0
 10
437.2926512829419
 20
667.085870522652
 30
0.0
 10
437.3714268496367
 20
667.078838224032
 30
0.0
 10
437.480807598477
 20
667.0957128749601
 30
0.0
 10
437.6160529155067
 20
667.1492677963516
 30
0.0
 10
437.7719606402995
 20
667.2398226624078
 30
0.0
 10
437.9268489823791
 20
667.3480462350227
 30
0.0
 10
438.1326638592365
 20
667.5090751087916
 30
0.0
 10
438.3862683407528
 20
667.7337426758459
 30
0.0
 10
438.6877653912804
 20
668.0306311334582
 30
0.0
 10
438.8766492021211
 20
668.2457888203232
 30
0.0
 10
438.971999349167
 20
668.3544022424546
 30
0.0
  0
SPLINE
  5
265
330
1F
100
AcDbEntity
  8
0
  6
Continuous
 62
     7
370
    25
100
AcDbSpline
210
0.0
220
0.0
230
1.0
 70
     8
 71
     3
 72
    14
 73
    10
 74
     0
 42
0.000000001
 43
0.00000001
 40
0.0
 40
0.0
 40
0.0
 40
0.0
 40
0.220765348438567
 40
0.3402146168139903
 40
0.460570499179062
 40
0.5641909618661872
 40
0.6633542991973049
 40
0.8105247403618667
 40
1.0
 40
1.0
 40
1.0
 40
1.0
 10
437.4978572791595
 20
669.9934664058377
 30
0.0
 10
437.5247631936998
 20
670.0083137061117
 30
0.0
 10
437.5662270623282
 20
670.0311944190913
 30
0.0
 10
437.6091061799984
 20
670.0285860572213
 30
0.0
 10
437.6283511131788
 20
670.0071542324832
 30
0.0
 10
437.63003866799
 20
669.9692576494124
 30
0.0
 10
437.6169345207327
 20
669.9175088380886
 30
0.0
 10
437.5846072057742
 20
669.8454773657296
 30
0.0
 10
437.5493772946905
 20
669.7909782102812
 30
0.0
 10
437.5295487433866
 20
669.7603042952303
 30
0.0
  0
SPLINE
  5
266
330
1F
100
AcDbEntity
  8
0
  6
Continuous
 62
     7
370
    25
100
AcDbSpline
210
0.0
220
0.0
230
1.0
 70
     8
 71
     3
 72
    16
 73
    12
 74
     0
 42
0.000000001
 43
0.00000001
 40
0.0
 40
0.0
 40
0.0
 40
0.0
 40
0.0722438274634329
 40
0.1633930720916808
 40
0.3151351963941617
 40
0.4708466050625935
 40
0.5761083275174443
 40
0.682123766535899
 40
0.7904310764897353
 40
0.8995087476912104
 40
1.0
 40
1.0
 40
1.0
 40
1.0
 10
436.7431122410691
 20
669.490374401377
 30
0.0
 10
436.7403490958633
 20
669.4842810182116
 30
0.0
 10
436.734099720662
 20
669.4704996803481
 30
0.0
 10
436.753151499316
 20
669.4803022089754
 30
0.0
 10
436.8065621623397
 20
669.5200830643398
 30
0.0
 10
436.8974948795893
 20
669.588432713376
 30
0.0
 10
437.0004606069737
 20
669.6623714181169
 30
0.0
 10
437.1049062397316
 20
669.7349502840598
 30
0.0
 10
437.2250538899485
 20
669.8159021770974
 30
0.0
 10
437.3557379264851
 20
669.9018773571631
 30
0.0
 10
437.4517960534963
 20
669.963782173818
 30
0.0
 10
437.4978572791595
 20
669.9934664058377
 30
0.0
  0
LINE
  5
267
330
1F
100
AcDbEntity
  8
0
  6
Continuous
 62
     7
370
    25
100
AcDbLine
 10
444.4078028252
 20
671.0937641807
 30
0.0
 11
444.4348627475
 21
671.0703698116
 31
0.0
  0
SPLINE
  5
268
330
1F
100
AcDbEntity
  8
0
  6
Continuous
 62
     7
370
    25
100
AcDbSpline
210
0.0
220
0.0
230
1.0
 70
     8
 71
     3
 72
    10
 73
     6
 74
     0
 42
0.000000001
 43
0.00000001
 40
0.0
 40
0.0
 40
0.0
 40
0.0
 40
0.0549652234027609
 40
0.8354068400047515
 40
1.0
 40
1.0
 40
1.0
 40
1.0
 10
444.4709928271676
 20
671.0391339340589
 30
0.0
 10
444.4726112687931
 20
671.0377429335292
 30
0.0
 10
444.4972096806682
 20
671.0166013591863
 30
0.0
 10
444.5180246384638
 20
670.9919479791755
 30
0.0
 10
444.5299510030391
 20
670.9693986320611
 30
0.0
 10
444.5320281731933
 20
670.9654712969099
 30
0.0
  0
SPLINE
  5
269
330
1F
100
AcDbEntity
  8
0
  6
Continuous
 62
     7
370
    25
100
AcDbSpline
210
0.0
220
0.0
230
1.0
 70
     8
 71
     3
 72
    14
 73
    10
 74
     0
 42
0.000000001
 43
0.00000001
 40
0.0
 40
0.0
 40
0.0
 40
0.0
 40
0.2200911109487052
 40
0.3501199592093109
 40
0.4590676183978065
 40
0.5685351145661794
 40
0.6668402217391205
 40
0.7968948941937622
 40
1.0
 40
1.0
 40
1.0
 40
1.0
 10
444.6182598567746
 20
670.8890676136962
 30
0.0
 10
444.5873796714927
 20
670.9163485472274
 30
0.0
 10
444.5382556102587
 20
670.9597469348043
 30
0.0
 10
444.4719482548925
 20
671.0191248072056
 30
0.0
 10
444.4269979012244
 20
671.06054326241
 30
0.0
 10
444.3965877742806
 20
671.090154872869
 30
0.0
 10
444.3799125137923
 20
671.1086363146015
 30
0.0
 10
444.3783819536145
 20
671.1151559857129
 30
0.0
 10
444.396659956432
 20
671.101866118685
 30
0.0
 10
444.4078028252248
 20
671.093764180741
 30
0.0
  0
SPLINE
  5
26A
330
1F
100
AcDbEntity
  8
0
  6
Continuous
 62
     7
370
    25
100
AcDbSpline
210
0.0
220
0.0
230
1.0
 70
     8
 71
     3
 72
    32
 73
    28
 74
     0
 42
0.000000001
 43
0.00000001
 40
0.0
 40
0.0
 40
0.0
 40
0.0
 40
0.0453942490664593
 40
0.0911149500211672
 40
0.1378156604218265
 40
0.1848384153738184
 40
0.2588911921182512
 40
0.2966281930596051
 40
0.3346227841547504
 40
0.3627380257352097
 40
0.3910884026637648
 40
0.4192466010957385
 40
0.4481819119438833
 40
0.4658254771020626
 40
0.4839564361058509
 40
0.5016138628025494
 40
0.5197789833318522
 40
0.5448703289759573
 40
0.5706414417831718
 40
0.6177923775613886
 40
0.666066478349626
 40
0.7088271620555587
 40
0.7519045224538908
 40
0.7958661863085449
 40
0.8400991772633744
 40
0.9191874857499324
 40
1.0
 40
1.0
 40
1.0
 40
1.0
 10
444.8354698565344
 20
669.2880656858864
 30
0.0
 10
444.8930425578835
 20
669.2420917951034
 30
0.0
 10
445.0086019935806
 20
669.1498133931663
 30
0.0
 10
445.1721284148718
 20
669.0205052641439
 30
0.0
 10
445.327572932302
 20
668.8976257624028
 30
0.0
 10
445.500175708111
 20
668.7610806208243
 30
0.0
 10
445.6449857345103
 20
668.6463914015728
 30
0.0
 10
445.7628069718642
 20
668.5558376030344
 30
0.0
 10
445.8350558983917
 20
668.5036363560044
 30
0.0
 10
445.8922882782672
 20
668.4678401400068
 30
0.0
 10
445.9362047537462
 20
668.4478305883828
 30
0.0
 10
445.9716249650875
 20
668.4447263262454
 30
0.0
 10
445.9925274078055
 20
668.4639257274226
 30
0.0
 10
446.0011080553948
 20
668.5017125445344
 30
0.0
 10
446.0013603881264
 20
668.5476324673286
 30
0.0
 10
445.9944487776554
 20
668.6081227074184
 30
0.0
 10
445.979145420882
 20
668.6893389172525
 30
0.0
 10
445.9530542796923
 20
668.7938573240283
 30
0.0
 10
445.9048919092334
 20
668.9531299592527
 30
0.0
 10
445.8298442408206
 20
669.1591986309501
 30
0.0
 10
445.7271692260225
 20
669.3946255263573
 30
0.0
 10
445.6138279052708
 20
669.6197224684962
 30
0.0
 10
445.4927180890091
 20
669.8325263905575
 30
0.0
 10
445.3594270663588
 20
670.0412912756572
 30
0.0
 10
445.1765207284407
 20
670.2967665456927
 30
0.0
 10
444.933870792765
 20
670.5918608206639
 30
0.0
 10
444.7242170653842
 20
670.7892890617563
 30
0.0
 10
444.6182598567746
 20
670.8890676136962
 30
0.0
  0
SPLINE
  5
26B
330
1F
100
AcDbEntity
  8
0
  6
Continuous
 62
     7
370
    25
100
AcDbSpline
210
0.0
220
0.0
230
1.0
 70
     8
 71
     3
 72
    15
 73
    11
 74
     0
 42
0.000000001
 43
0.00000001
 40
0.0
 40
0.0
 40
0.0
 40
0.0
 40
0.2150763736126849
 40
0.3413349926978761
 40
0.4465934903530023
 40
0.5524796219273694
 40
0.6449070621727334
 40
0.7662146539023745
 40
0.9406316560516798
 40
0.9999999999999999
 40
0.9999999999999999
 40
0.9999999999999999
 40
0.9999999999999999
 10
444.6821188702783
 20
669.0719220668298
 30
0.0
 10
444.6668245209199
 20
669.1111595195981
 30
0.0
 10
444.6425517635786
 20
669.173430960339
 30
0.0
 10
444.6323357930837
 20
669.2526201318929
 30
0.0
 10
444.6389368159765
 20
669.304487147401
 30
0.0
 10
444.660240189307
 20
669.337020755084
 30
0.0
 10
444.695096149357
 20
669.351341863959
 30
0.0
 10
444.7463977336412
 20
669.3448243719755
 30
0.0
 10
444.796133354617
 20
669.3183555722715
 30
0.0
 10
444.8275035813182
 20
669.294199875747
 30
0.0
 10
444.8354698565344
 20
669.2880656858864
 30
0.0
  0
SPLINE
  5
26C
330
1F
100
AcDbEntity
  8
0
  6
Continuous
 62
     7
370
    25
100
AcDbSpline
210
0.0
220
0.0
230
1.0
 70
     8
 71
     3
 72
    12
 73
     8
 74
     0
 42
0.000000001
 43
0.00000001
 40
0.0
 40
0.0
 40
0.0
 40
0.0
 40
0.2405634787363126
 40
0.4828778107015431
 40
0.730272648413606
 40
0.9792618645663643
 40
1.0
 40
1.0
 40
1.0
 40
1.0
 10
442.5709791308724
 20
668.0057817001496
 30
0.0
 10
442.6193965541409
 20
667.9276500267464
 30
0.0
 10
442.7165837891713
 20
667.7708180271534
 30
0.0
 10
442.8756866129339
 20
667.5434098890258
 30
0.0
 10
443.0431884194005
 20
667.3230274500589
 30
0.0
 10
443.163342301203
 20
667.1726423356536
 30
0.0
 10
443.2276978024076
 20
667.0995791634678
 30
0.0
 10
443.2326458104314
 20
667.0939616613827
 30
0.0
  0
SPLINE
  5
26D
330
1F
100
AcDbEntity
  8
0
  6
Continuous
 62
     7
370
    25
100
AcDbSpline
210
0.0
220
0.0
230
1.0
 70
     8
 71
     3
 72
    12
 73
     8
 74
     0
 42
0.000000001
 43
0.00000001
 40
0.0
 40
0.0
 40
0.0
 40
0.0
 40
0.1804775898023665
 40
0.4747571618288916
 40
0.6247928700571332
 40
0.7757107436323865
 40
1.0
 40
1.0
 40
1.0
 40
1.0
 10
444.9320694018834
 20
667.3560709647551
 30
0.0
 10
444.9426708725066
 20
667.4609027573647
 30
0.0
 10
444.9705586790192
 20
667.7366690970158
 30
0.0
 10
444.9426893818937
 20
668.1027642029259
 30
0.0
 10
444.8844342158928
 20
668.4454846770573
 30
0.0
 10
444.8107366272824
 20
668.744319292607
 30
0.0
 10
444.7302385616273
 20
668.9493562194081
 30
0.0
 10
444.6821188702783
 20
669.0719220668298
 30
0.0
  0
SPLINE
  5
26E
330
1F
100
AcDbEntity
  8
0
  6
Continuous
 62
     7
370
    25
100
AcDbSpline
210
0.0
220
0.0
230
1.0
 70
     8
 71
     3
 72
    15
 73
    11
 74
     0
 42
0.000000001
 43
0.00000001
 40
0.0
 40
0.0
 40
0.0
 40
0.0
 40
0.212929405320311
 40
0.3333107283176887
 40
0.4345062010026744
 40
0.536283688650761
 40
0.6256367151021833
 40
0.7456368547568043
 40
0.9211927176880738
 40
1.0
 40
1.0
 40
1.0
 40
1.0
 10
442.1692965472514
 20
667.9418202043565
 30
0.0
 10
442.179768875571
 20
667.9823342375438
 30
0.0
 10
442.1961618175142
 20
668.0457531997506
 30
0.0
 10
442.2472612203849
 20
668.1132819501498
 30
0.0
 10
442.2986680599208
 20
668.1489888665593
 30
0.0
 10
442.3547700400731
 20
668.1613062749705
 30
0.0
 10
442.4152904698615
 20
668.1517479785339
 30
0.0
 10
442.4830288352092
 20
668.1156021164418
 30
0.0
 10
442.5354477076292
 20
668.0613329976287
 30
0.0
 10
442.5625746187342
 20
668.0189216622266
 30
0.0
 10
442.5709791308724
 20
668.0057817001496
 30
0.0
  0
SPLINE
  5
26F
330
1F
100
AcDbEntity
  8
0
  6
Continuous
 62
     7
370
    25
100
AcDbSpline
210
0.0
220
0.0
230
1.0
 70
     8
 71
     3
 72
    14
 73
    10
 74
     0
 42
0.000000001
 43
0.00000001
 40
0.0
 40
0.0
 40
0.0
 40
0.0
 40
0.1532474215011465
 40
0.3076158314408449
 40
0.4652184196990142
 40
0.6238275565820206
 40
0.7814091173392397
 40
0.9399217866093168
 40
1.0
 40
1.0
 40
1.0
 40
1.0
 10
439.3195383518548
 20
668.2180173040754
 30
0.0
 10
439.3202079896204
 20
668.1293045440784
 30
0.0
 10
439.3215521634802
 20
667.9512300997673
 30
0.0
 10
439.3518921251063
 20
667.6816470374043
 30
0.0
 10
439.4018302742405
 20
667.4109171768116
 30
0.0
 10
439.472077550014
 20
667.1414650314745
 30
0.0
 10
439.5622292637683
 20
666.8768512374671
 30
0.0
 10
439.6442738253758
 20
666.6702679470628
 30
0.0
 10
439.7030662714252
 20
666.5554549321537
 30
0.0
 10
439.7192249742793
 20
666.5238993579881
 30
0.0
  0
SPLINE
  5
270
330
1F
100
AcDbEntity
  8
0
  6
Continuous
 62
     7
370
    25
100
AcDbSpline
210
0.0
220
0.0
230
1.0
 70
     8
 71
     3
 72
    12
 73
     8
 74
     0
 42
0.000000001
 43
0.00000001
 40
0.0
 40
0.0
 40
0.0
 40
0.0
 40
0.0241970361687524
 40
0.2642987320617079
 40
0.5058078578841572
 40
0.7520138645547344
 40
1.0
 40
1.0
 40
1.0
 40
1.0
 10
441.8039980161914
 20
666.8736152568744
 30
0.0
 10
441.808262252272
 20
666.8817346499815
 30
0.0
 10
441.8548395347725
 20
666.9704209373583
 30
0.0
 10
441.9308788317685
 20
667.1470196477885
 30
0.0
 10
442.0295961794954
 20
667.4042626727012
 30
0.0
 10
442.1119154023874
 20
667.6698657133014
 30
0.0
 10
442.1501236223727
 20
667.850951277991
 30
0.0
 10
442.1692965472514
 20
667.9418202043565
 30
0.0
  0
SPLINE
  5
271
330
1F
100
AcDbEntity
  8
0
  6
Continuous
 62
     7
370
    25
100
AcDbSpline
210
0.0
220
0.0
230
1.0
 70
     8
 71
     3
 72
    15
 73
    11
 74
     0
 42
0.000000001
 43
0.00000001
 40
0.0
 40
0.0
 40
0.0
 40
0.0
 40
0.215576770593361
 40
0.3329005538677731
 40
0.4328760582231669
 40
0.5332634977245803
 40
0.6250838127945365
 40
0.7535547096887822
 40
0.9421338378892727
 40
1.0
 40
1.0
 40
1.0
 40
1.0
 10
438.971999349167
 20
668.3544022424546
 30
0.0
 10
439.0014386336984
 20
668.3846465069105
 30
0.0
 10
439.0468997197841
 20
668.4313506687779
 30
0.0
 10
439.1224607577378
 20
668.4631590700827
 30
0.0
 10
439.1801055031872
 20
668.4676100729971
 30
0.0
 10
439.2294084487952
 20
668.4507457960775
 30
0.0
 10
439.2720701542395
 20
668.4130831267662
 30
0.0
 10
439.3073443854896
 20
668.346945396546
 30
0.0
 10
439.3194293345019
 20
668.2762610073224
 30
0.0
 10
439.3195176217253
 20
668.2290926006086
 30
0.0
 10
439.3195383518548
 20
668.2180173040754
 30
0.0
  0
LWPOLYLINE
  5
272
330
1F
100
AcDbEntity
  8
0
  6
Continuous
 62
     7
370
    25
100
AcDbPolyline
 90
      151
 70
   128
 43
0.0
 10
612.2021020673
 20
658.8787894572
 10
607.0153395288
 20
660.2440392312
 10
601.7609651784
 20
661.5388925869
 10
596.4425801018
 20
662.7624620965
 10
591.0638292543
 20
663.9139091867
 10
585.6283989632
 20
664.9924447132
 10
580.1400144009
 20
665.9973295015
 10
574.6024370319
 20
666.9278748538
 10
569.0194620353
 20
667.7834430208
 10
563.3949157032
 20
668.5634476389
 10
557.7326528188
 20
669.2673541318
 10
552.0365540141
 20
669.8946800771
 10
546.3105231107
 20
670.4449955371
 10
540.5584844442
 20
670.9179233529
 10
534.7843801747
 20
671.3131394036
 10
528.9921675847
 20
671.6303728276
 10
523.1858163674
 20
671.8694062092
 10
517.3693059059
 20
672.0300757267
 10
511.546622546
 20
672.1122712653
 10
505.7217568639
 20
672.1159364923
 10
499.8987009317
 20
672.0410688957
 10
494.081445581
 20
671.887719786
 10
488.273977668
 20
671.6559942611
 10
482.4802773412
 20
671.346051134
 10
476.7043153134
 20
670.9581028243
 10
470.9500501404
 20
670.4924152123
 10
465.2214255081
 20
669.9493074572
 10
459.5223675298
 20
669.3291517778
 10
453.8567820551
 20
668.6323731979
 10
448.2285519932
 20
667.8594492546
 10
442.641534652
 20
667.0109096715
 10
437.0995590939
 20
666.0873359952
 10
431.6064235123
 20
665.0893611969
 10
426.1658926279
 20
664.0176692388
 10
420.7816951088
 20
662.872994605
 10
415.457521015
 20
661.6561217982
 10
410.1970192695
 20
660.3678848024
 10
405.0037951574
 20
659.0091665108
 10
399.8814078552
 20
657.5808981211
 10
394.8333679911
 20
656.084058497
 10
389.8631352397
 20
654.5196734977
 10
384.97411595
 20
652.8888152745
 10
380.1696608119
 20
651.1926015362
 10
375.4530625587
 20
649.432194783
 10
370.8275537114
 20
647.6088015096
 10
366.2963043627
 20
645.7236713789
 10
361.8624200045
 20
643.7780963647
 10
357.5289393997
 20
641.7734098671
 10
353.2988324994
 20
639.7109857979
 10
349.1749984076
 20
637.5922376398
 10
345.1602633943
 20
635.4186174767
 10
341.2573789582
 20
633.1916149995
 10
337.4690199413
 20
630.9127564843
 10
333.7977826958
 20
628.5836037469
 10
330.2461833043
 20
626.2057530723
 10
326.8166558555
 20
623.7808341206
 10
323.5115507763
 20
621.3105088101
 10
320.3331332205
 20
618.7964701784
 10
317.2835815169
 20
616.2404412219
 10
314.3649856758
 20
613.6441737152
 10
311.5793459571
 20
611.0094470105
 10
308.928571499
 20
608.3380668177
 10
306.41447901
 20
605.6318639674
 10
304.0387915234
 20
602.8926931558
 10
301.8031372168
 20
600.1224316739
 10
299.709048296
 20
597.3229781205
 10
297.757959945
 20
594.4962511012
 10
295.9512093422
 20
591.6441879134
 10
294.2900347442
 20
588.7687432189
 10
292.7755746372
 20
585.8718877038
 10
291.4088669564
 20
582.9556067281
 10
290.190848375
 20
580.0218989652
 10
289.1223536621
 20
577.0727750319
 10
288.2041151107
 20
574.1102561103
 10
287.4367620355
 20
571.136372563
 10
286.8208203421
 20
568.1531625412
 10
286.356712166
 20
565.162670588
 10
286.0447555839
 20
562.1669462372
 10
285.8851643952
 20
559.1680426087
 10
285.8780479757
 20
556.1680150012
 10
286.0234112027
 20
553.1689194837
 10
286.3211544515
 20
550.1728114866
 10
286.7710736637
 20
547.1817443926
 10
287.3728604873
 20
544.1977681297
 10
288.1261024874
 20
541.2229277662
 10
289.0302834298
 20
538.2592621089
 10
290.0847836339
 20
535.3088023065
 10
291.2888803981
 20
532.3735704565
 10
292.6417484944
 20
529.4555782204
 10
294.1424607347
 20
526.5568254442
 10
295.7899886058
 20
523.6792987882
 10
297.5832029744
 20
520.8249703656
 10
299.520874861
 20
517.9957963905
 10
301.6016762819
 20
515.1937158373
 10
303.8241811599
 20
512.4206491121
 10
306.1868663011
 20
509.6784967363
 10
308.6881124392
 20
506.9691380443
 10
311.326205345
 20
504.294429895
 10
314.0993370013
 20
501.6562053999
 10
317.0056068423
 20
499.0562726663
 10
320.0430230558
 20
496.4964135581
 10
323.2095039484
 20
493.978382475
 10
326.5028793723
 20
491.5039051496
 10
329.9208922125
 20
489.0746774652
 10
333.4611999338
 20
486.692364293
 10
337.121376186
 20
484.3585983515
 10
340.8989124672
 20
482.0749790872
 10
344.7912198427
 20
479.8430715789
 10
348.7956307195
 20
477.6644054643
 10
352.9094006743
 20
475.5404738924
 10
357.1297103348
 20
473.4727324999
 10
361.4536673114
 20
471.4625984133
 10
365.8783081801
 20
469.5114492782
 10
370.4006005131
 20
467.6206223148
 10
375.0174449571
 20
465.7914134013
 10
379.7256773574
 20
464.0250761862
 10
384.5220709268
 20
462.3228212288
 10
389.4033384568
 20
460.6858151697
 10
394.3661345703
 20
459.1151799309
 10
399.4070580149
 20
457.6119919475
 10
404.5226539934
 20
456.1772814293
 10
409.7094165318
 20
454.8120316554
 10
414.9637908822
 20
453.5171782997
 10
420.2821759589
 20
452.29360879
 10
425.6609268064
 20
451.1421616998
 10
431.0963570975
 20
450.0636261734
 10
436.5847416598
 20
449.0587413851
 10
442.1223190287
 20
448.1281960328
 10
447.7052940253
 20
447.2726278657
 10
453.3298403574
 20
446.4926232477
 10
458.9921032419
 20
445.7887167548
 10
464.6882020466
 20
445.1613908094
 10
470.41423295
 20
444.6110753495
 10
476.1662716164
 20
444.1381475336
 10
481.940375886
 20
443.742931483
 10
487.732588476
 20
443.425698059
 10
493.5389396933
 20
443.1866646774
 10
499.3554501547
 20
443.0259951599
 10
505.1781335147
 20
442.9437996213
 10
511.0029991968
 20
442.9401343943
 10
516.826055129
 20
443.0150019909
 10
522.6433104797
 20
443.1683511006
 10
528.4507783927
 20
443.4000766255
 10
534.2444787195
 20
443.7100197526
 10
540.0204407473
 20
444.0979680623
 10
545.7747059203
 20
444.5636556742
 10
551.5033305525
 20
445.1067634294
 10
557.2023885308
 20
445.7269191088
 10
562.8679740056
 20
446.4236976887
 10
568.4962040674
 20
447.196621632
 10
573.0737285583
 20
447.8857662843
  0
LWPOLYLINE
  5
273
330
1F
100
AcDbEntity
  8
0
  6
Continuous
 62
     7
370
    25
100
AcDbPolyline
 90
       91
 70
   128
 43
0.0
 10
576.4578901766
 20
448.4307996129
 10
579.6251969667
 20
448.9687348914
 10
585.1183325483
 20
449.9667096896
 10
590.5588634327
 20
451.0384016477
 10
595.9430609519
 20
452.1830762816
 10
601.2672350457
 20
453.3999490883
 10
606.5277367912
 20
454.6881860842
 10
611.7209609032
 20
456.0469043758
 10
616.8433482055
 20
457.4751727655
 10
621.8913880695
 20
458.9720123896
 10
626.861620821
 20
460.5363973889
 10
631.7506401106
 20
462.1672556121
 10
636.5550952488
 20
463.8634693504
 10
641.271693502
 20
465.6238761036
 10
645.8972023493
 20
467.4472693769
 10
650.428451698
 20
469.3323995077
 10
654.8623360562
 20
471.2779745219
 10
659.195816661
 20
473.2826610195
 10
663.4259235613
 20
475.3450850886
 10
667.549757653
 20
477.4638332468
 10
671.5644926664
 20
479.6374534099
 10
675.4673771025
 20
481.8644558871
 10
679.2557361193
 20
484.1433144023
 10
682.9269733648
 20
486.4724671397
 10
686.4785727564
 20
488.8503178142
 10
689.9081002052
 20
491.2752367659
 10
693.2132052844
 20
493.7455620764
 10
696.3916228401
 20
496.2596007082
 10
699.4411745437
 20
498.8156296647
 10
702.3597703848
 20
501.4118971713
 10
705.1454101036
 20
504.0466238761
 10
707.7961845616
 20
506.7180040689
 10
710.3102770507
 20
509.4242069192
 10
712.6859645373
 20
512.1633777307
 10
714.9216188438
 20
514.9336392126
 10
717.0157077646
 20
517.7330927661
 10
718.9667961157
 20
520.5598197854
 10
720.7735467185
 20
523.4118829732
 10
722.4347213164
 20
526.2873276677
 10
723.9491814235
 20
529.1841831828
 10
725.3158891043
 20
532.1004641585
 10
726.5339076857
 20
535.0341719214
 10
727.6024023985
 20
537.9832958547
 10
728.5206409499
 20
540.9458147763
 10
729.2879940251
 20
543.9196983236
 10
729.9039357186
 20
546.9029083454
 10
730.3680438947
 20
549.8934002986
 10
730.6800004768
 20
552.8891246494
 10
730.8395916655
 20
555.8880282779
 10
730.846708085
 20
558.8880558854
 10
730.7013448579
 20
561.8871514028
 10
730.4036016091
 20
564.8832593999
 10
729.9536823969
 20
567.8743264939
 10
729.3518955734
 20
570.8583027568
 10
728.5986535732
 20
573.8331431204
 10
727.6944726309
 20
576.7968087776
 10
726.6399724267
 20
579.7472685801
 10
725.4358756626
 20
582.6825004301
 10
724.0830075663
 20
585.6004926662
 10
722.5822953259
 20
588.4992454424
 10
720.9347674548
 20
591.3767720983
 10
719.1415530862
 20
594.231100521
 10
717.2038811997
 20
597.0602744961
 10
715.1230797787
 20
599.8623550493
 10
712.9005749007
 20
602.6354217745
 10
710.5378897595
 20
605.3775741503
 10
708.0366436215
 20
608.0869328423
 10
705.3985507157
 20
610.7616409916
 10
702.6254190594
 20
613.3998654867
 10
699.7191492184
 20
615.9997982203
 10
696.6817330049
 20
618.5596573285
 10
693.5152521123
 20
621.0776884116
 10
690.2218766883
 20
623.552165737
 10
686.8038638481
 20
625.9813934214
 10
683.2635561269
 20
628.3637065936
 10
679.6033798747
 20
630.6974725351
 10
675.8258435935
 20
632.9810917993
 10
671.933536218
 20
635.2129993077
 10
667.9291253412
 20
637.3916654223
 10
663.8153553864
 20
639.5155969941
 10
659.5950457259
 20
641.5833383867
 10
655.2710887492
 20
643.5934724733
 10
650.8464478805
 20
645.5446216083
 10
646.3241555475
 20
647.4354485718
 10
641.7073111036
 20
649.2646574853
 10
636.9990787033
 20
651.0309947004
 10
632.2026851338
 20
652.7332496577
 10
627.3214176039
 20
654.3702557169
 10
622.3586214903
 20
655.9408909557
 10
617.3176980457
 20
657.4440789391
 10
612.2021020673
 20
658.8787894572
  0
ARC
  5
274
330
1F
100
AcDbEntity
  8
0
  6
Continuous
 62
     7
370
    25
100
AcDbCircle
 10
349.1435036659
 20
553.68210416
 30
0.0
 40
63.28265464020639
100
AcDbArc
 50
180.3982910585
 51
206.3008131039
  0
LWPOLYLINE
  5
275
330
1F
100
AcDbEntity
  8
0
  6
Continuous
 62
     7
370
    25
100
AcDbPolyline
 90
       61
 70
   128
 43
0.0
 10
296.0359779973
 20
518.9863593352
 10
297.5832029744
 20
516.5391338621
 10
299.520874861
 20
513.7099598869
 10
301.6016762819
 20
510.9078793337
 10
303.8241811599
 20
508.1348126086
 10
306.1868663011
 20
505.3926602328
 10
308.6881124392
 20
502.6833015407
 10
311.326205345
 20
500.0085933915
 10
314.0993370013
 20
497.3703688964
 10
317.0056068423
 20
494.7704361627
 10
320.0430230558
 20
492.2105770546
 10
323.2095039484
 20
489.6925459714
 10
326.5028793723
 20
487.2180686461
 10
329.9208922125
 20
484.7888409617
 10
333.4611999338
 20
482.4065277895
 10
337.121376186
 20
480.072761848
 10
340.8989124672
 20
477.7891425837
 10
344.7912198427
 20
475.5572350754
 10
348.7956307195
 20
473.3785689608
 10
352.9094006743
 20
471.2546373889
 10
357.1297103348
 20
469.1868959964
 10
361.4536673114
 20
467.1767619098
 10
365.8783081801
 20
465.2256127747
 10
370.4006005131
 20
463.3347858113
 10
375.0174449571
 20
461.5055768978
 10
379.7256773574
 20
459.7392396827
 10
384.5220709268
 20
458.0369847253
 10
389.4033384568
 20
456.3999786662
 10
394.3661345703
 20
454.8293434274
 10
399.4070580149
 20
453.326155444
 10
404.5226539934
 20
451.8914449258
 10
409.7094165318
 20
450.5261951519
 10
414.9637908822
 20
449.2313417962
 10
420.2821759589
 20
448.0077722865
 10
425.6609268064
 20
446.8563251963
 10
431.0963570975
 20
445.7777896699
 10
436.5847416598
 20
444.7729048816
 10
442.1223190287
 20
443.8423595292
 10
447.7052940253
 20
442.9867913622
 10
453.3298403574
 20
442.2067867442
 10
458.9921032419
 20
441.5028802513
 10
464.6882020466
 20
440.8755543059
 10
470.41423295
 20
440.325238846
 10
476.1662716164
 20
439.8523110301
 10
481.940375886
 20
439.4570949795
 10
487.732588476
 20
439.1398615554
 10
493.5389396933
 20
438.9008281739
 10
499.3554501547
 20
438.7401586564
 10
505.1781335147
 20
438.6579631178
 10
511.0029991968
 20
438.6542978908
 10
516.826055129
 20
438.7291654874
 10
522.6433104797
 20
438.8825145971
 10
528.4507783927
 20
439.114240122
 10
534.2444787195
 20
439.4241832491
 10
540.0204407473
 20
439.8121315588
 10
545.7747059203
 20
440.2778191707
 10
551.5033305525
 20
440.8209269259
 10
557.2023885308
 20
441.4410826053
 10
562.8679740056
 20
442.1378611852
 10
568.4962040674
 20
442.9107851285
 10
570.7238149306
 20
443.2393000938
  0
LWPOLYLINE
  5
276
330
1F
100
AcDbEntity
  8
0
  6
Continuous
 62
     7
370
    25
100
AcDbPolyline
 90
       49
 70
   128
 43
0.0
 10
579.984482606
 20
444.7456367847
 10
585.1183325483
 20
445.6808731861
 10
590.5588634327
 20
446.7525651442
 10
595.9430609519
 20
447.8972397781
 10
601.2672350457
 20
449.1141125848
 10
606.5277367912
 20
450.4023495807
 10
611.7209609032
 20
451.7610678723
 10
616.8433482055
 20
453.189336262
 10
621.8913880695
 20
454.6861758861
 10
626.861620821
 20
456.2505608854
 10
631.7506401106
 20
457.8814191086
 10
636.5550952488
 20
459.5776328469
 10
641.271693502
 20
461.3380396001
 10
645.8972023493
 20
463.1614328734
 10
650.428451698
 20
465.0465630042
 10
654.8623360562
 20
466.9921380184
 10
659.195816661
 20
468.996824516
 10
663.4259235613
 20
471.0592485851
 10
667.549757653
 20
473.1779967433
 10
671.5644926664
 20
475.3516169063
 10
675.4673771025
 20
477.5786193836
 10
679.2557361193
 20
479.8574778988
 10
682.9269733648
 20
482.1866306362
 10
686.4785727564
 20
484.5644813107
 10
689.9081002052
 20
486.9894002624
 10
693.2132052844
 20
489.4597255729
 10
696.3916228401
 20
491.9737642047
 10
699.4411745437
 20
494.5297931612
 10
702.3597703848
 20
497.1260606678
 10
705.1454101036
 20
499.7607873726
 10
707.7961845616
 20
502.4321675654
 10
710.3102770507
 20
505.1383704157
 10
712.6859645373
 20
507.8775412272
 10
714.9216188438
 20
510.6478027091
 10
717.0157077646
 20
513.4472562626
 10
718.9667961157
 20
516.2739832819
 10
720.7735467185
 20
519.1260464697
 10
722.4347213164
 20
522.0014911642
 10
723.9491814235
 20
524.8983466793
 10
725.3158891043
 20
527.814627655
 10
726.5339076857
 20
530.7483354178
 10
727.6024023985
 20
533.6974593512
 10
728.5206409499
 20
536.6599782728
 10
729.2879940251
 20
539.6338618201
 10
729.9039357186
 20
542.6170718419
 10
730.3680438947
 20
545.6075637951
 10
730.6800004768
 20
548.6032881459
 10
730.8395916655
 20
551.6021917744
 10
730.8623780303
 20
553.2421989398
  0
LINE
  5
277
330
1F
100
AcDbEntity
  8
0
  6
Continuous
 62
     8
370
    18
100
AcDbLine
 10
294.4232051185
 20
516.0827716699
 30
0.0
 11
297.5553951581
 21
516.5815225946
 31
0.0
  0
LINE
  5
278
330
1F
100
AcDbEntity
  8
0
  6
Continuous
 62
     8
370
    18
100
AcDbLine
 10
295.8384563082
 20
518.0534511975
 30
0.0
 11
296.5418437517
 21
518.1654543433
 31
0.0
  0
LINE
  5
279
330
1F
100
AcDbEntity
  8
0
  6
Continuous
 62
     8
370
    18
100
AcDbLine
 10
723.9058094558
 20
585.9592529293
 30
0.0
 11
724.1197097494
 21
585.9933131133
 31
0.0
  0
SPLINE
  5
27A
330
1F
100
AcDbEntity
  8
0
  6
Continuous
 62
     8
370
    18
100
AcDbSpline
210
0.0
220
0.0
230
1.0
 70
     8
 71
     3
 72
    10
 73
     6
 74
     0
 42
0.000000001
 43
0.00000001
 40
0.0
 40
0.0
 40
0.0
 40
0.0
 40
0.417940318591458
 40
0.8349130387145446
 40
1.0
 40
1.0
 40
1.0
 40
1.0
 10
724.1197097494278
 20
585.993313113319
 30
0.0
 10
724.1419746403752
 20
585.9770431548102
 30
0.0
 10
724.186452875498
 20
585.9445409053403
 30
0.0
 10
724.2167240361833
 20
585.889237369508
 30
0.0
 10
724.2253404228669
 20
585.8550766268781
 30
0.0
 10
724.2277842497463
 20
585.8453877695733
 30
0.0
  0
SPLINE
  5
27B
330
1F
100
AcDbEntity
  8
0
  6
Continuous
 62
     8
370
    18
100
AcDbSpline
210
0.0
220
0.0
230
1.0
 70
     8
 71
     3
 72
    11
 73
     7
 74
     0
 42
0.000000001
 43
0.00000001
 40
0.0
 40
0.0
 40
0.0
 40
0.0
 40
0.3080004005845778
 40
0.6146431887840617
 40
0.9476581850669639
 40
0.9999999999999999
 40
0.9999999999999999
 40
0.9999999999999999
 40
0.9999999999999999
 10
724.2277842497463
 20
585.8453877695733
 30
0.0
 10
724.2572394276572
 20
585.731030180123
 30
0.0
 10
724.3160199501598
 20
585.5028190696569
 30
0.0
 10
724.4415226397233
 20
585.1157152385978
 30
0.0
 10
724.5017499986318
 20
584.8362649215173
 30
0.0
 10
724.5136248896398
 20
584.6910385291517
 30
0.0
 10
724.5152378190844
 20
584.6713128807879
 30
0.0
  0
LINE
  5
27C
330
1F
100
AcDbEntity
  8
0
  6
Continuous
 62
     8
370
    18
100
AcDbLine
 10
294.4232051185
 20
503.2252621594
 30
0.0
 11
306.4173785796
 21
505.1351415185
 31
0.0
  0
LINE
  5
27D
330
1F
100
AcDbEntity
  8
0
  6
Continuous
 62
     8
370
    18
100
AcDbLine
 10
570.7238149306
 20
441.7454337232
 30
0.0
 11
569.9008305968
 21
443.1164248072
 31
0.0
  0
LINE
  5
27E
330
1F
100
AcDbEntity
  8
0
  6
Continuous
 62
     8
370
    18
100
AcDbLine
 10
570.7238149306
 20
428.8879242127
 30
0.0
 11
562.7771734394
 21
442.126055469
 31
0.0
  0
LWPOLYLINE
  5
27F
330
1F
100
AcDbEntity
  8
0
  6
Continuous
 62
     8
370
    18
100
AcDbPolyline
 90
       33
 70
   128
 43
0.0
 10
570.7144320704
 20
258.0245945962
 10
570.7368365152
 20
257.7872630243
 10
570.8077110401
 20
257.542146787
 10
570.9263698242
 20
257.301981117
 10
571.091595268
 20
257.0692304392
 10
571.3016919348
 20
256.8462830904
 10
571.5545039484
 20
256.6354268122
 10
571.8474371156
 20
256.4388252754
 10
572.1774855456
 20
256.2584958776
 10
572.5412624949
 20
256.0962890426
 10
572.9350351196
 20
255.953869232
 10
573.35476278
 20
255.8326978657
 10
573.7961385021
 20
255.7340183261
 10
574.2546331737
 20
255.6588431986
 10
574.7255420192
 20
255.6079438818
 10
575.2040328764
 20
255.5818426716
 10
575.6851957818
 20
255.5808074017
 10
576.1640933528
 20
255.6048486954
 10
576.6358114522
 20
255.6537198565
 10
577.095509614
 20
255.7269194007
 10
577.538470713
 20
255.8236962017
 10
577.9601493689
 20
255.9430571985
 10
578.3562185881
 20
256.0837775858
 10
578.7226141644
 20
256.2444133819
 10
579.0555763834
 20
256.4233162463
 10
579.3516886021
 20
256.6186503934
 10
579.6079123086
 20
256.8284114306
 10
579.8216183007
 20
257.0504469257
 10
579.990613666
 20
257.2824784942
 10
580.1131642831
 20
257.5221251781
 10
580.188012617
 20
257.7669278783
 10
580.2143906225
 20
258.0143745876
 10
580.2144320704
 20
258.0245945962
  0
LWPOLYLINE
  5
280
330
1F
100
AcDbEntity
  8
0
  6
Continuous
 62
     8
370
    18
100
AcDbPolyline
 90
       14
 70
   128
 43
0.0
 10
292.7255272368
 20
332.9110090093
 10
293.17743689
 20
332.9961064038
 10
293.61031236
 20
333.1043141866
 10
294.0197117588
 20
333.2345219994
 10
294.4014340944
 20
333.3853937339
 10
294.7515623792
 20
333.5553812419
 10
295.0665038232
 20
333.7427402216
 10
295.3430267009
 20
333.9455481162
 10
295.5782935134
 20
334.1617238424
 10
295.769890105
 20
334.3890491446
 10
295.9158504352
 20
334.6251913576
 10
296.0146767536
 20
334.8677273429
 10
296.0653549684
 20
335.1141683528
 10
296.0724979961
 20
335.2482838524
  0
LWPOLYLINE
  5
281
330
1F
100
AcDbEntity
  8
0
  6
Continuous
 62
     8
370
    18
100
AcDbPolyline
 90
       20
 70
   128
 43
0.0
 10
286.5724979961
 20
335.2482838524
 10
286.5776309397
 20
335.1345821354
 10
286.6243096123
 20
334.8879316524
 10
286.7191980555
 20
334.6449788706
 10
286.8613225852
 20
334.4082168143
 10
287.0492248117
 20
334.1800749826
 10
287.2809766037
 20
333.9628944194
 10
287.5541998742
 20
333.7589036913
 10
287.8660909827
 20
333.570196019
 10
288.2134495045
 20
333.3987077987
 10
288.5927110711
 20
333.2461987316
 10
288.9999839454
 20
333.1142337671
 10
289.4310889568
 20
333.0041670443
 10
289.8816023845
 20
332.9171279967
 10
290.3469013509
 20
332.8540097628
 10
290.8222112591
 20
332.815460021
 10
291.3026547863
 20
332.8018743438
 10
291.7833019316
 20
332.8133921387
 10
292.259220605
 20
332.8498952176
 10
292.7255272368
 20
332.9110090093
  0
LWPOLYLINE
  5
282
330
1F
100
AcDbEntity
  8
0
  6
Continuous
 62
     8
370
    18
100
AcDbPolyline
 90
       33
 70
   128
 43
0.0
 10
720.6522580645
 20
404.368509323
 10
720.657391008
 20
404.254807606
 10
720.7040696807
 20
404.008157123
 10
720.7989581238
 20
403.7652043412
 10
720.9410826536
 20
403.5284422849
 10
721.1289848801
 20
403.3003004532
 10
721.360736672
 20
403.08311989
 10
721.6339599426
 20
402.8791291618
 10
721.9458510511
 20
402.6904214896
 10
722.2932095729
 20
402.5189332693
 10
722.6724711395
 20
402.3664242022
 10
723.0797440138
 20
402.2344592377
 10
723.5108490252
 20
402.1243925149
 10
723.9613624529
 20
402.0373534673
 10
724.4266614193
 20
401.9742352334
 10
724.9019713275
 20
401.9356854915
 10
725.3824148547
 20
401.9220998144
 10
725.863062
 20
401.9336176093
 10
726.3389806734
 20
401.9701206881
 10
726.8052873052
 20
402.0312344799
 10
727.2571969584
 20
402.1163318744
 10
727.6900724284
 20
402.2245396572
 10
728.0994718272
 20
402.35474747
 10
728.4811941628
 20
402.5056192045
 10
728.8313224476
 20
402.6756067125
 10
729.1462638915
 20
402.8629656922
 10
729.4227867693
 20
403.0657735868
 10
729.6580535818
 20
403.281949313
 10
729.8496501734
 20
403.5092746152
 10
729.9956105036
 20
403.7454168282
 10
730.094436822
 20
403.9879528134
 10
730.1451150368
 20
404.2343938234
 10
730.1522580645
 20
404.368509323
  0
LINE
  5
283
330
1F
100
AcDbEntity
  8
0
  6
Continuous
 62
     8
370
    18
100
AcDbLine
 10
291.3960880016
 20
521.749639722
 30
0.0
 11
291.3960880016
 21
334.5962211916
 31
0.0
  0
LINE
  5
284
330
1F
100
AcDbEntity
  8
0
  6
Continuous
 62
     8
370
    18
100
AcDbLine
 10
291.8153339713
 20
521.7487275592
 30
0.0
 11
291.8153339713
 21
334.6125435024
 31
0.0
  0
LINE
  5
285
330
1F
100
AcDbEntity
  8
0
  6
Continuous
 62
     8
370
    18
100
AcDbLine
 10
288.4267656876
 20
522.5499445869
 30
0.0
 11
288.4267656876
 21
335.2961950716
 31
0.0
  0
LINE
  5
286
330
1F
100
AcDbEntity
  8
0
  6
Continuous
 62
     8
370
    18
100
AcDbLine
 10
294.5466137426
 20
522.5350664456
 30
0.0
 11
294.5466137426
 21
517.6497960296
 31
0.0
  0
LINE
  5
287
330
1F
100
AcDbEntity
  8
0
  6
Continuous
 62
     8
370
    18
100
AcDbLine
 10
294.5466137426
 20
502.6530294411
 30
0.0
 11
294.5466137426
 21
335.5344563044
 31
0.0
  0
LINE
  5
288
330
1F
100
AcDbEntity
  8
0
  6
Continuous
 62
     8
370
    18
100
AcDbLine
 10
287.6379888641
 20
524.1746397814
 30
0.0
 11
287.6379888641
 21
524.0394408341
 31
0.0
  0
LINE
  5
289
330
1F
100
AcDbEntity
  8
0
  6
Continuous
 62
     8
370
    18
100
AcDbLine
 10
294.8500685969
 20
524.1537374452
 30
0.0
 11
294.8500685969
 21
524.0927943766
 31
0.0
  0
LINE
  5
28A
330
1F
100
AcDbEntity
  8
0
  6
Continuous
 62
     8
370
    18
100
AcDbLine
 10
575.1147360263
 20
444.634297229
 30
0.0
 11
575.1147360263
 21
257.3805477137
 31
0.0
  0
LINE
  5
28B
330
1F
100
AcDbEntity
  8
0
  6
Continuous
 62
     8
370
    18
100
AcDbLine
 10
574.6989494143
 20
444.6590353212
 30
0.0
 11
574.6989494143
 21
257.4126830569
 31
0.0
  0
LINE
  5
28C
330
1F
100
AcDbEntity
  8
0
  6
Continuous
 62
     8
370
    18
100
AcDbLine
 10
578.1758470709
 20
445.212675394
 30
0.0
 11
578.1758470709
 21
257.9663231296
 31
0.0
  0
LINE
  5
28D
330
1F
100
AcDbEntity
  8
0
  6
Continuous
 62
     8
370
    18
100
AcDbLine
 10
572.1064962039
 20
445.5715955775
 30
0.0
 11
572.1064962039
 21
258.4354115206
 31
0.0
  0
LINE
  5
28E
330
1F
100
AcDbEntity
  8
0
  6
Continuous
 62
     8
370
    18
100
AcDbLine
 10
579.1952073173
 20
446.7003588959
 30
0.0
 11
579.1952073173
 21
446.5431409293
 31
0.0
  0
LINE
  5
28F
330
1F
100
AcDbEntity
  8
0
  6
Continuous
 62
     8
370
    18
100
AcDbLine
 10
572.0426371904
 20
447.117593293
 30
0.0
 11
572.0426371904
 21
447.0893749959
 31
0.0
  0
LINE
  5
290
330
1F
100
AcDbEntity
  8
0
  6
Continuous
 62
     8
370
    18
100
AcDbLine
 10
724.2275652212
 20
590.8280517259
 30
0.0
 11
724.2275652212
 21
585.8436835622
 31
0.0
  0
LINE
  5
291
330
1F
100
AcDbEntity
  8
0
  6
Continuous
 62
     8
370
    18
100
AcDbLine
 10
724.2275652212
 20
525.4660711265
 30
0.0
 11
724.2275652212
 21
403.8129240296
 31
0.0
  0
LINE
  5
292
330
1F
100
AcDbEntity
  8
0
  6
Continuous
 62
     8
370
    18
100
AcDbLine
 10
723.8360872435
 20
590.8925157675
 30
0.0
 11
723.8360872435
 21
586.0990996002
 31
0.0
  0
LINE
  5
293
330
1F
100
AcDbEntity
  8
0
  6
Continuous
 62
     8
370
    18
100
AcDbLine
 10
723.8360872435
 20
524.6711347829
 30
0.0
 11
723.8360872435
 21
403.8919056263
 31
0.0
  0
LINE
  5
294
330
1F
100
AcDbEntity
  8
0
  6
Continuous
 62
     8
370
    18
100
AcDbLine
 10
727.465010649
 20
591.1866073644
 30
0.0
 11
727.465010649
 21
577.4772783904
 31
0.0
  0
LINE
  5
295
330
1F
100
AcDbEntity
  8
0
  6
Continuous
 62
     8
370
    18
100
AcDbLine
 10
727.465010649
 20
533.2929559927
 30
0.0
 11
727.465010649
 21
404.0331888341
 31
0.0
  0
LINE
  5
296
330
1F
100
AcDbEntity
  8
0
  6
Continuous
 62
     8
370
    18
100
AcDbLine
 10
721.7504995659
 20
592.1307701394
 30
0.0
 11
721.7504995659
 21
591.6252726702
 31
0.0
  0
LINE
  5
297
330
1F
100
AcDbEntity
  8
0
  6
Continuous
 62
     8
370
    18
100
AcDbLine
 10
729.1491613083
 20
592.727903012
 30
0.0
 11
729.1491613083
 21
592.4026923221
 31
0.0
  0
LINE
  5
298
330
1F
100
AcDbEntity
  8
0
  6
Continuous
 62
     8
370
    18
100
AcDbLine
 10
442.1692965473
 20
667.9418202044
 30
0.0
 11
442.1692965473
 21
666.9354171533
 31
0.0
  0
LINE
  5
299
330
1F
100
AcDbEntity
  8
0
  6
Continuous
 62
     8
370
    18
100
AcDbLine
 10
442.5709791309
 20
668.0057817001
 30
0.0
 11
442.5709791309
 21
666.9996682309
 31
0.0
  0
LINE
  5
29A
330
1F
100
AcDbEntity
  8
0
  6
Continuous
 62
     8
370
    18
100
AcDbLine
 10
438.9719993492
 20
668.3544022425
 30
0.0
 11
438.9719993492
 21
666.4086258629
 31
0.0
  0
LINE
  5
29B
330
1F
100
AcDbEntity
  8
0
  6
Continuous
 62
     8
370
    18
100
AcDbLine
 10
444.8354698565
 20
669.2880656859
 30
0.0
 11
444.8354698565
 21
668.6261741372
 31
0.0
  0
LINE
  5
29C
330
1F
100
AcDbEntity
  8
0
  6
Continuous
 62
     8
370
    18
100
AcDbLine
 10
437.4978572792
 20
669.9934664058
 30
0.0
 11
437.4978572792
 21
669.709744898
 31
0.0
  0
ENDSEC
  0
SECTION
  2
OBJECTS
  0
DICTIONARY
  5
C
330
0
100
AcDbDictionary
281
     1
  3
ACAD_GROUP
350
D
  3
ACAD_LAYOUT
350
1A
  3
ACAD_MLINESTYLE
350
17
  3
ACAD_PLOTSETTINGS
350
19
  3
ACAD_PLOTSTYLENAME
350
E
  3
ACAD_SCALELIST
350
47
  0
DICTIONARY
  5
D
102
{ACAD_REACTORS
330
C
102
}
330
C
100
AcDbDictionary
281
     1
  0
DICTIONARY
  5
1A
102
{ACAD_REACTORS
330
C
102
}
330
C
100
AcDbDictionary
281
     1
  3
Layout1
350
1E
  3
Layout2
350
26
  3
Model
350
22
  0
DICTIONARY
  5
17
102
{ACAD_REACTORS
330
C
102
}
330
C
100
AcDbDictionary
281
     1
  3
Standard
350
18
  0
DICTIONARY
  5
19
102
{ACAD_REACTORS
330
C
102
}
330
C
100
AcDbDictionary
281
     1
  0
ACDBDICTIONARYWDFLT
  5
E
102
{ACAD_REACTORS
330
C
102
}
330
C
100
AcDbDictionary
281
     1
  3
Normal
350
F
100
AcDbDictionaryWithDefault
340
F
  0
DICTIONARY
  5
47
102
{ACAD_REACTORS
330
C
102
}
330
C
100
AcDbDictionary
281
     1
  3
A0
350
48
  3
A1
350
49
  3
A2
350
4A
  3
A3
350
4B
  3
A4
350
4C
  3
A5
350
4D
  3
A6
350
4E
  3
A7
350
4F
  3
A8
350
50
  3
A9
350
51
  3
B0
350
52
  3
B1
350
53
  3
B2
350
54
  3
B3
350
55
  3
B4
350
56
  3
B5
350
57
  3
B6
350
58
  3
B7
350
59
  3
B8
350
5A
  3
B9
350
5B
  3
C0
350
5C
  3
C1
350
5D
  3
C2
350
5E
  3
C3
350
5F
  3
C4
350
60
  3
C5
350
61
  3
C6
350
62
  3
C7
350
63
  3
C8
350
64
  3
C9
350
65
  3
D0
350
66
  3
D1
350
67
  3
D2
350
68
  0
LAYOUT
  5
1E
102
{ACAD_REACTORS
330
1A
102
}
330
1A
100
AcDbPlotSettings
  1

  2
none_device
  4

  6

 40
0.0
 41
0.0
 42
0.0
 43
0.0
 44
0.0
 45
0.0
 46
0.0
 47
0.0
 48
0.0
 49
0.0
140
0.0
141
0.0
142
1.0
143
1.0
 70
   688
 72
     1
 73
     0
 74
     5
  7

 75
    16
147
1.0
148
0.0
149
0.0
100
AcDbLayout
  1
Layout1
 70
     1
 71
     1
 10
0.0
 20
0.0
 11
420.0
 21
297.0
 12
0.0
 22
0.0
 32
0.0
 14
1.0000000000E+20
 24
1.0000000000E+20
 34
1.0000000000E+20
 15
-1.0000000000E+20
 25
-1.0000000000E+20
 35
-1.0000000000E+20
146
0.0
 13
0.0
 23
0.0
 33
0.0
 16
1.0
 26
0.0
 36
0.0
 17
0.0
 27
1.0
 37
0.0
 76
     0
330
1B
  0
LAYOUT
  5
26
102
{ACAD_REACTORS
330
1A
102
}
330
1A
100
AcDbPlotSettings
  1

  2
none_device
  4

  6

 40
0.0
 41
0.0
 42
0.0
 43
0.0
 44
0.0
 45
0.0
 46
0.0
 47
0.0
 48
0.0
 49
0.0
140
0.0
141
0.0
142
1.0
143
1.0
 70
   688
 72
     1
 73
     0
 74
     5
  7

 75
    16
147
1.0
148
0.0
149
0.0
100
AcDbLayout
  1
Layout2
 70
     1
 71
     2
 10
0.0
 20
0.0
 11
0.0
 21
0.0
 12
0.0
 22
0.0
 32
0.0
 14
0.0
 24
0.0
 34
0.0
 15
0.0
 25
0.0
 35
0.0
146
0.0
 13
0.0
 23
0.0
 33
0.0
 16
1.0
 26
0.0
 36
0.0
 17
0.0
 27
1.0
 37
0.0
 76
     0
330
23
  0
LAYOUT
  5
22
102
{ACAD_REACTORS
330
1A
102
}
330
1A
100
AcDbPlotSettings
  1

  2
none_device
  4
Letter_(8.50_x_11.00_Inches)
  6

 40
6.35
 41
6.35
 42
6.35000508
 43
6.35000508
 44
215.9
 45
279.4
 46
0.0
 47
0.0
 48
0.0
 49
0.0
140
0.0
141
0.0
142
1.0
143
1.0
 70
  1712
 72
     1
 73
     0
 74
     0
  7

 75
     0
147
1.0
148
0.0
149
0.0
100
AcDbLayout
  1
Model
 70
     1
 71
     0
 10
0.0
 20
0.0
 11
4455.0
 21
3150.0
 12
0.0
 22
0.0
 32
0.0
 14
0.0
 24
0.0
 34
0.0
 15
4455.0
 25
3150.0
 35
0.0
146
0.0
 13
0.0
 23
0.0
 33
0.0
 16
1.0
 26
0.0
 36
0.0
 17
0.0
 27
1.0
 37
0.0
 76
     0
330
1F
331
29
  0
MLINESTYLE
  5
18
102
{ACAD_REACTORS
330
17
102
}
330
17
100
AcDbMlineStyle
  2
Standard
 70
     0
  3

 62
   256
 51
90.0
 52
90.0
 71
     2
 49
0.5
 62
   256
  6
BYLAYER
 49
-0.5
 62
   256
  6
BYLAYER
  0
ACDBPLACEHOLDER
  5
F
102
{ACAD_REACTORS
330
E
102
}
330
E
  0
SCALE
  5
48
102
{ACAD_REACTORS
330
47
102
}
330
47
100
AcDbScale
 70
     0
300
1:1
140
1.0
141
1.0
290
     1
  0
SCALE
  5
49
102
{ACAD_REACTORS
330
47
102
}
330
47
100
AcDbScale
 70
     0
300
1:2
140
1.0
141
2.0
290
     0
  0
SCALE
  5
4A
102
{ACAD_REACTORS
330
47
102
}
330
47
100
AcDbScale
 70
     0
300
1:4
140
1.0
141
4.0
290
     0
  0
SCALE
  5
4B
102
{ACAD_REACTORS
330
47
102
}
330
47
100
AcDbScale
 70
     0
300
1:5
140
1.0
141
5.0
290
     0
  0
SCALE
  5
4C
102
{ACAD_REACTORS
330
47
102
}
330
47
100
AcDbScale
 70
     0
300
1:8
140
1.0
141
8.0
290
     0
  0
SCALE
  5
4D
102
{ACAD_REACTORS
330
47
102
}
330
47
100
AcDbScale
 70
     0
300
1:10
140
1.0
141
10.0
290
     0
  0
SCALE
  5
4E
102
{ACAD_REACTORS
330
47
102
}
330
47
100
AcDbScale
 70
     0
300
1:16
140
1.0
141
16.0
290
     0
  0
SCALE
  5
4F
102
{ACAD_REACTORS
330
47
102
}
330
47
100
AcDbScale
 70
     0
300
1:20
140
1.0
141
20.0
290
     0
  0
SCALE
  5
50
102
{ACAD_REACTORS
330
47
102
}
330
47
100
AcDbScale
 70
     0
300
1:30
140
1.0
141
30.0
290
     0
  0
SCALE
  5
51
102
{ACAD_REACTORS
330
47
102
}
330
47
100
AcDbScale
 70
     0
300
1:40
140
1.0
141
40.0
290
     0
  0
SCALE
  5
52
102
{ACAD_REACTORS
330
47
102
}
330
47
100
AcDbScale
 70
     0
300
1:50
140
1.0
141
50.0
290
     0
  0
SCALE
  5
53
102
{ACAD_REACTORS
330
47
102
}
330
47
100
AcDbScale
 70
     0
300
1:100
140
1.0
141
100.0
290
     0
  0
SCALE
  5
54
102
{ACAD_REACTORS
330
47
102
}
330
47
100
AcDbScale
 70
     0
300
2:1
140
2.0
141
1.0
290
     0
  0
SCALE
  5
55
102
{ACAD_REACTORS
330
47
102
}
330
47
100
AcDbScale
 70
     0
300
4:1
140
4.0
141
1.0
290
     0
  0
SCALE
  5
56
102
{ACAD_REACTORS
330
47
102
}
330
47
100
AcDbScale
 70
     0
300
8:1
140
8.0
141
1.0
290
     0
  0
SCALE
  5
57
102
{ACAD_REACTORS
330
47
102
}
330
47
100
AcDbScale
 70
     0
300
10:1
140
10.0
141
1.0
290
     0
  0
SCALE
  5
58
102
{ACAD_REACTORS
330
47
102
}
330
47
100
AcDbScale
 70
     0
300
100:1
140
100.0
141
1.0
290
     0
  0
SCALE
  5
59
102
{ACAD_REACTORS
330
47
102
}
330
47
100
AcDbScale
 70
     0
300
1/128" = 1'-0"
140
0.0078125
141
12.0
290
     0
  0
SCALE
  5
5A
102
{ACAD_REACTORS
330
47
102
}
330
47
100
AcDbScale
 70
     0
300
1/64" = 1'-0"
140
0.015625
141
12.0
290
     0
  0
SCALE
  5
5B
102
{ACAD_REACTORS
330
47
102
}
330
47
100
AcDbScale
 70
     0
300
1/32" = 1'-0"
140
0.03125
141
12.0
290
     0
  0
SCALE
  5
5C
102
{ACAD_REACTORS
330
47
102
}
330
47
100
AcDbScale
 70
     0
300
1/16" = 1'-0"
140
0.0625
141
12.0
290
     0
  0
SCALE
  5
5D
102
{ACAD_REACTORS
330
47
102
}
330
47
100
AcDbScale
 70
     0
300
3/32" = 1'-0"
140
0.09375
141
12.0
290
     0
  0
SCALE
  5
5E
102
{ACAD_REACTORS
330
47
102
}
330
47
100
AcDbScale
 70
     0
300
1/8" = 1'-0"
140
0.125
141
12.0
290
     0
  0
SCALE
  5
5F
102
{ACAD_REACTORS
330
47
102
}
330
47
100
AcDbScale
 70
     0
300
3/16" = 1'-0"
140
0.1875
141
12.0
290
     0
  0
SCALE
  5
60
102
{ACAD_REACTORS
330
47
102
}
330
47
100
AcDbScale
 70
     0
300
1/4" = 1'-0"
140
0.25
141
12.0
290
     0
  0
SCALE
  5
61
102
{ACAD_REACTORS
330
47
102
}
330
47
100
AcDbScale
 70
     0
300
3/8" = 1'-0"
140
0.375
141
12.0
290
     0
  0
SCALE
  5
62
102
{ACAD_REACTORS
330
47
102
}
330
47
100
AcDbScale
 70
     0
300
1/2" = 1'-0"
140
0.5
141
12.0
290
     0
  0
SCALE
  5
63
102
{ACAD_REACTORS
330
47
102
}
330
47
100
AcDbScale
 70
     0
300
3/4" = 1'-0"
140
0.75
141
12.0
290
     0
  0
SCALE
  5
64
102
{ACAD_REACTORS
330
47
102
}
330
47
100
AcDbScale
 70
     0
300
1" = 1'-0"
140
1.0
141
12.0
290
     0
  0
SCALE
  5
65
102
{ACAD_REACTORS
330
47
102
}
330
47
100
AcDbScale
 70
     0
300
1-1/2" = 1'-0"
140
1.5
141
12.0
290
     0
  0
SCALE
  5
66
102
{ACAD_REACTORS
330
47
102
}
330
47
100
AcDbScale
 70
     0
300
3" = 1'-0"
140
3.0
141
12.0
290
     0
  0
SCALE
  5
67
102
{ACAD_REACTORS
330
47
102
}
330
47
100
AcDbScale
 70
     0
300
6" = 1'-0"
140
6.0
141
12.0
290
     0
  0
SCALE
  5
68
102
{ACAD_REACTORS
330
47
102
}
330
47
100
AcDbScale
 70
     0
300
1'-0" = 1'-0"
140
12.0
141
12.0
290
     0
  0
ENDSEC
  0
EOF
