  0
SECTION
  2
HEADER
  9
$ACADVER
  1
AC1015
  9
$ACADMAINTVER
 70
     6
  9
$DWGCODEPAGE
  3
ANSI_1252
  9
$INSBASE
 10
0.0
 20
0.0
 30
0.0
  9
$EXTMIN
 10
0.0
 20
0.0
 30
0.0
  9
$EXTMAX
 10
2970.0
 20
2100.0
 30
0.0
  9
$LIMMIN
 10
0.0
 20
0.0
  9
$LIMMAX
 10
2970.0
 20
2100.0
  9
$ORTHOMODE
 70
     0
  9
$REGENMODE
 70
     1
  9
$FILLMODE
 70
     1
  9
$QTEXTMODE
 70
     0
  9
$MIRRTEXT
 70
     1
  9
$LTSCALE
 40
10.0
  9
$ATTMODE
 70
     1
  9
$TEXTSIZE
 40
35.0
  9
$TRACEWID
 40
1.0
  9
$TEXTSTYLE
  7
Standard
  9
$CLAYER
  8
0
  9
$CELTYPE
  6
ByLayer
  9
$CECOLOR
 62
   256
  9
$CELTSCALE
 40
1.0
  9
$DISPSILH
 70
     0
  9
$DIMSCALE
 40
1.0
  9
$DIMASZ
 40
25.0
  9
$DIMEXO
 40
0.0
  9
$DIMDLI
 40
3.75
  9
$DIMRND
 40
0.0
  9
$DIMDLE
 40
0.0
  9
$DIMEXE
 40
10.0
  9
$DIMTP
 40
0.0
  9
$DIMTM
 40
0.0
  9
$DIMTXT
 40
30.0
  9
$DIMCEN
 40
2.5
  9
$DIMTSZ
 40
0.0
  9
$DIMTOL
 70
     0
  9
$DIMLIM
 70
     0
  9
$DIMTIH
 70
     1
  9
$DIMTOH
 70
     1
  9
$DIMSE1
 70
     0
  9
$DIMSE2
 70
     0
  9
$DIMTAD
 70
     1
  9
$DIMZIN
 70
     0
  9
$DIMBLK
  1

  9
$DIMASO
 70
     1
  9
$DIMSHO
 70
     1
  9
$DIMPOST
  1

  9
$DIMAPOST
  1

  9
$DIMALT
 70
     0
  9
$DIMALTD
 70
     3
  9
$DIMALTF
 40
0.0393700787
  9
$DIMLFAC
 40
1.0
  9
$DIMTOFL
 70
     1
  9
$DIMTVP
 40
0.0
  9
$DIMTIX
 70
     0
  9
$DIMSOXD
 70
     0
  9
$DIMSAH
 70
     0
  9
$DIMBLK1
  1

  9
$DIMBLK2
  1

  9
$DIMSTYLE
  2
ISO-25
  9
$DIMCLRD
 70
     0
  9
$DIMCLRE
 70
     0
  9
$DIMCLRT
 70
     0
  9
$DIMTFAC
 40
1.0
  9
$DIMGAP
 40
15.0
  9
$DIMJUST
 70
     0
  9
$DIMSD1
 70
     0
  9
$DIMSD2
 70
     0
  9
$DIMTOLJ
 70
     0
  9
$DIMTZIN
 70
     0
  9
$DIMALTZ
 70
     0
  9
$DIMALTTZ
 70
     0
  9
$DIMUPT
 70
     0
  9
$DIMDEC
 70
     1
  9
$DIMTDEC
 70
     1
  9
$DIMALTU
 70
     2
  9
$DIMALTTD
 70
     3
  9
$DIMTXSTY
  7
Standard
  9
$DIMAUNIT
 70
     0
  9
$DIMADEC
 70
     2
  9
$DIMALTRND
 40
0.0
  9
$DIMAZIN
 70
     0
  9
$DIMDSEP
 70
    44
  9
$DIMATFIT
 70
     3
  9
$DIMFRAC
 70
     0
  9
$DIMLDRBLK
  1

  9
$DIMLUNIT
 70
     2
  9
$DIMLWD
 70
    -2
  9
$DIMLWE
 70
    -2
  9
$DIMTMOVE
 70
     0
  9
$LUNITS
 70
     2
  9
$LUPREC
 70
     2
  9
$SKETCHINC
 40
1.0
  9
$FILLETRAD
 40
10.0
  9
$AUNITS
 70
     0
  9
$AUPREC
 70
     2
  9
$MENU
  1
.
  9
$ELEVATION
 40
0.0
  9
$PELEVATION
 40
0.0
  9
$THICKNESS
 40
0.0
  9
$LIMCHECK
 70
     0
  9
$CHAMFERA
 40
0.0
  9
$CHAMFERB
 40
0.0
  9
$CHAMFERC
 40
0.0
  9
$CHAMFERD
 40
0.0
  9
$SKPOLY
 70
     0
  9
$TDCREATE
 40
2459174.711931898
  9
$TDUCREATE
 40
2459174.670265231
  9
$TDUPDATE
 40
2459174.711932812
  9
$TDUUPDATE
 40
2459174.670266146
  9
$TDINDWG
 40
0.0000000116
  9
$TDUSRTIMER
 40
0.0000000116
  9
$USRTIMER
 70
     1
  9
$ANGBASE
 50
0.0
  9
$ANGDIR
 70
     0
  9
$PDMODE
 70
     0
  9
$PDSIZE
 40
-1.0
  9
$PLINEWID
 40
0.0
  9
$SPLFRAME
 70
     0
  9
$SPLINETYPE
 70
     6
  9
$SPLINESEGS
 70
     8
  9
$HANDSEED
  5
2C8
  9
$SURFTAB1
 70
     6
  9
$SURFTAB2
 70
     6
  9
$SURFTYPE
 70
     6
  9
$SURFU
 70
     6
  9
$SURFV
 70
     6
  9
$UCSBASE
  2

  9
$UCSNAME
  2

  9
$UCSORG
 10
0.0
 20
0.0
 30
0.0
  9
$UCSXDIR
 10
1.0
 20
0.0
 30
0.0
  9
$UCSYDIR
 10
0.0
 20
1.0
 30
0.0
  9
$UCSORTHOREF
  2

  9
$UCSORTHOVIEW
 70
     0
  9
$UCSORGTOP
 10
0.0
 20
0.0
 30
0.0
  9
$UCSORGBOTTOM
 10
0.0
 20
0.0
 30
0.0
  9
$UCSORGLEFT
 10
0.0
 20
0.0
 30
0.0
  9
$UCSORGRIGHT
 10
0.0
 20
0.0
 30
0.0
  9
$UCSORGFRONT
 10
0.0
 20
0.0
 30
0.0
  9
$UCSORGBACK
 10
0.0
 20
0.0
 30
0.0
  9
$PUCSBASE
  2

  9
$PUCSNAME
  2

  9
$PUCSORG
 10
0.0
 20
0.0
 30
0.0
  9
$PUCSXDIR
 10
1.0
 20
0.0
 30
0.0
  9
$PUCSYDIR
 10
0.0
 20
1.0
 30
0.0
  9
$PUCSORTHOREF
  2

  9
$PUCSORTHOVIEW
 70
     0
  9
$PUCSORGTOP
 10
0.0
 20
0.0
 30
0.0
  9
$PUCSORGBOTTOM
 10
0.0
 20
0.0
 30
0.0
  9
$PUCSORGLEFT
 10
0.0
 20
0.0
 30
0.0
  9
$PUCSORGRIGHT
 10
0.0
 20
0.0
 30
0.0
  9
$PUCSORGFRONT
 10
0.0
 20
0.0
 30
0.0
  9
$PUCSORGBACK
 10
0.0
 20
0.0
 30
0.0
  9
$USERI1
 70
     0
  9
$USERI2
 70
     0
  9
$USERI3
 70
     0
  9
$USERI4
 70
     0
  9
$USERI5
 70
     0
  9
$USERR1
 40
0.0
  9
$USERR2
 40
0.0
  9
$USERR3
 40
0.0
  9
$USERR4
 40
0.0
  9
$USERR5
 40
0.0
  9
$WORLDVIEW
 70
     1
  9
$SHADEDGE
 70
     3
  9
$SHADEDIF
 70
    70
  9
$TILEMODE
 70
     1
  9
$MAXACTVP
 70
    64
  9
$PINSBASE
 10
0.0
 20
0.0
 30
0.0
  9
$PLIMCHECK
 70
     0
  9
$PEXTMIN
 10
1.0000000000E+20
 20
1.0000000000E+20
 30
1.0000000000E+20
  9
$PEXTMAX
 10
-1.0000000000E+20
 20
-1.0000000000E+20
 30
-1.0000000000E+20
  9
$PLIMMIN
 10
0.0
 20
0.0
  9
$PLIMMAX
 10
420.0
 20
297.0
  9
$UNITMODE
 70
     0
  9
$VISRETAIN
 70
     1
  9
$PLINEGEN
 70
     0
  9
$PSLTSCALE
 70
     1
  9
$TREEDEPTH
 70
  3020
  9
$CMLSTYLE
  2
Standard
  9
$CMLJUST
 70
     0
  9
$CMLSCALE
 40
20.0
  9
$PROXYGRAPHICS
 70
     1
  9
$MEASUREMENT
 70
     1
  9
$CELWEIGHT
370
    -1
  9
$ENDCAPS
280
     0
  9
$JOINSTYLE
280
     0
  9
$LWDISPLAY
290
     1
  9
$INSUNITS
 70
     4
  9
$HYPERLINKBASE
  1

  9
$STYLESHEET
  1

  9
$XEDIT
290
     1
  9
$CEPSNTYPE
380
     0
  9
$PSTYLEMODE
290
     1
  9
$FINGERPRINTGUID
  2
{35604754-23d9-4590-b738-7ddfbcc1c5b2}
  9
$VERSIONGUID
  2
{FAEB1C32-E019-11D5-929B-00C0DF256EC4}
  9
$EXTNAMES
290
     1
  9
$PSVPSCALE
 40
0.0
  9
$OLESTARTUP
290
     0
  0
ENDSEC
  0
SECTION
  2
CLASSES
  0
CLASS
  1
ACDBDICTIONARYWDFLT
  2
AcDbDictionaryWithDefault
  3
ObjectDBX Classes
 90
        0
280
     0
281
     0
  0
CLASS
  1
VISUALSTYLE
  2
AcDbVisualStyle
  3
ObjectDBX Classes
 90
     4095
280
     0
281
     0
  0
CLASS
  1
MATERIAL
  2
AcDbMaterial
  3
ObjectDBX Classes
 90
     1153
280
     0
281
     0
  0
CLASS
  1
SCALE
  2
AcDbScale
  3
ObjectDBX Classes
 90
     1153
280
     0
281
     0
  0
CLASS
  1
TABLESTYLE
  2
AcDbTableStyle
  3
ObjectDBX Classes
 90
     4095
280
     0
281
     0
  0
CLASS
  1
MLEADERSTYLE
  2
AcDbMLeaderStyle
  3
ACDB_MLEADERSTYLE_CLASS
 90
     4095
280
     0
281
     0
  0
CLASS
  1
SUN
  2
AcDbSun
  3
SCENEOE
 90
     1153
280
     0
281
     0
  0
CLASS
  1
ACDBPLACEHOLDER
  2
AcDbPlaceHolder
  3
ObjectDBX Classes
 90
        0
280
     0
281
     0
  0
CLASS
  1
LAYOUT
  2
AcDbLayout
  3
ObjectDBX Classes
 90
        0
280
     0
281
     0
  0
ENDSEC
  0
SECTION
  2
TABLES
  0
TABLE
  2
VPORT
  5
8
330
0
100
AcDbSymbolTable
 70
     1
  0
VPORT
  5
29
330
8
100
AcDbSymbolTableRecord
100
AcDbViewportTableRecord
  2
*Active
 70
     0
 10
0.0
 20
0.0
 11
1.0
 21
1.0
 12
1485.0
 22
1050.0
 13
0.0
 23
0.0
 14
10.0
 24
10.0
 15
10.0
 25
10.0
 16
0.0
 26
0.0
 36
1.0
 17
0.0
 27
0.0
 37
0.0
 40
2100.0
 41
1.4142857143
 42
50.0
 43
0.0
 44
0.0
 50
0.0
 51
0.0
 71
     0
 72
  2000
 73
     1
 74
     3
 75
     0
 76
     0
 77
     0
 78
     0
281
     0
 65
     1
110
0.0
120
0.0
130
0.0
111
1.0
121
0.0
131
0.0
112
0.0
122
1.0
132
0.0
 79
     0
146
0.0
  0
ENDTAB
  0
TABLE
  2
LTYPE
  5
5
330
0
100
AcDbSymbolTable
 70
     6
  0
LTYPE
  5
14
330
5
100
AcDbSymbolTableRecord
100
AcDbLinetypeTableRecord
  2
ByBlock
 70
     0
  3

 72
    65
 73
     0
 40
0.0
  0
LTYPE
  5
15
330
5
100
AcDbSymbolTableRecord
100
AcDbLinetypeTableRecord
  2
ByLayer
 70
     0
  3

 72
    65
 73
     0
 40
0.0
  0
LTYPE
  5
16
330
5
100
AcDbSymbolTableRecord
100
AcDbLinetypeTableRecord
  2
Continuous
 70
     0
  3
Solid line
 72
    65
 73
     0
 40
0.0
  0
LTYPE
  5
6E
330
5
100
AcDbSymbolTableRecord
100
AcDbLinetypeTableRecord
  2
HIDDEN
 70
     0
  3
Hidden __ __ __ __ __ __ __ __ __ __ __ __ __ __
 72
    65
 73
     2
 40
1.905
 49
1.27
 74
     0
 49
-0.635
 74
     0
  0
LTYPE
  5
6F
330
5
100
AcDbSymbolTableRecord
100
AcDbLinetypeTableRecord
  2
PHANTOM
 70
     0
  3
Phantom ______  __  __  ______  __  __  ______
 72
    65
 73
     6
 40
12.7
 49
6.35
 74
     0
 49
-1.27
 74
     0
 49
1.27
 74
     0
 49
-1.27
 74
     0
 49
1.27
 74
     0
 49
-1.27
 74
     0
  0
LTYPE
  5
70
330
5
100
AcDbSymbolTableRecord
100
AcDbLinetypeTableRecord
  2
CENTER
 70
     0
  3
Center ____ _ ____ _ ____ _ ____ _ ____ _ ____
 72
    65
 73
     4
 40
10.16
 49
6.35
 74
     0
 49
-1.27
 74
     0
 49
1.27
 74
     0
 49
-1.27
 74
     0
  0
LTYPE
  5
71
330
5
100
AcDbSymbolTableRecord
100
AcDbLinetypeTableRecord
  2
CENTERX2
 70
     0
  3
Center (2x) ________  __  ________  __  _____
 72
    65
 73
     4
 40
20.32
 49
12.7
 74
     0
 49
-2.54
 74
     0
 49
2.54
 74
     0
 49
-2.54
 74
     0
  0
LTYPE
  5
72
330
5
100
AcDbSymbolTableRecord
100
AcDbLinetypeTableRecord
  2
DOT2
 70
     0
  3
Dot (.5x) ........................................
 72
    65
 73
     2
 40
0.635
 49
0.0
 74
     0
 49
-0.635
 74
     0
  0
ENDTAB
  0
TABLE
  2
LAYER
  5
2
330
0
100
AcDbSymbolTable
 70
     2
  0
LAYER
  5
10
330
2
100
AcDbSymbolTableRecord
100
AcDbLayerTableRecord
  2
0
 70
     0
 62
     7
  6
Continuous
370
    -3
390
F
  0
LAYER
  5
73
330
2
100
AcDbSymbolTableRecord
100
AcDbLayerTableRecord
  2
FORMAT
 70
     0
 62
     7
  6
Continuous
370
    -3
390
F
  0
ENDTAB
  0
TABLE
  2
STYLE
  5
3
330
0
100
AcDbSymbolTable
 70
     2
  0
STYLE
  5
11
330
3
100
AcDbSymbolTableRecord
100
AcDbTextStyleTableRecord
  2
Standard
 70
     0
 40
0.0
 41
1.0
 50
0.0
 71
     0
 42
35.0
  3
txt
  4

  0
STYLE
  5
E7
330
3
100
AcDbSymbolTableRecord
100
AcDbTextStyleTableRecord
  2
SLDTEXTSTYLE0
 70
     0
 40
0.0
 41
0.605
 50
0.0
 71
     0
 42
35.0
  3
TXT
  4

  0
ENDTAB
  0
TABLE
  2
VIEW
  5
6
330
0
100
AcDbSymbolTable
 70
     0
  0
ENDTAB
  0
TABLE
  2
UCS
  5
7
330
0
100
AcDbSymbolTable
 70
     0
  0
ENDTAB
  0
TABLE
  2
APPID
  5
9
330
0
100
AcDbSymbolTable
 70
     1
  0
APPID
  5
12
330
9
100
AcDbSymbolTableRecord
100
AcDbRegAppTableRecord
  2
ACAD
 70
     0
  0
ENDTAB
  0
TABLE
  2
DIMSTYLE
  5
A
330
0
100
AcDbSymbolTable
 70
     1
100
AcDbDimStyleTable
  0
DIMSTYLE
105
27
330
A
100
AcDbSymbolTableRecord
100
AcDbDimStyleTableRecord
  2
ISO-25
 70
     0
 41
2.5
 42
0.625
 43
3.75
 44
1.25
 73
     0
 74
     0
 77
     1
 78
     8
140
2.5
141
2.5
143
0.0393700787
147
0.625
171
     3
172
     1
178
     0
271
     2
272
     2
274
     3
278
    44
283
     0
284
     8
340
11
  0
ENDTAB
  0
TABLE
  2
BLOCK_RECORD
  5
1
330
0
100
AcDbSymbolTable
 70
     2
  0
BLOCK_RECORD
  5
1F
330
1
100
AcDbSymbolTableRecord
100
AcDbBlockTableRecord
  2
*Model_Space
340
22
  0
BLOCK_RECORD
  5
1B
330
1
100
AcDbSymbolTableRecord
100
AcDbBlockTableRecord
  2
*Paper_Space
340
1E
  0
BLOCK_RECORD
  5
23
330
1
100
AcDbSymbolTableRecord
100
AcDbBlockTableRecord
  2
*Paper_Space0
340
26
  0
BLOCK_RECORD
  5
EE
330
1
100
AcDbSymbolTableRecord
100
AcDbBlockTableRecord
  2
SW_NOTE_0
340
0
102
{BLKREFS
331
F3
102
}
  0
ENDTAB
  0
ENDSEC
  0
SECTION
  2
BLOCKS
  0
BLOCK
  5
20
330
1F
100
AcDbEntity
  8
0
100
AcDbBlockBegin
  2
*Model_Space
 70
     0
 10
0.0
 20
0.0
 30
0.0
  3
*Model_Space
  1

  0
ENDBLK
  5
21
330
1F
100
AcDbEntity
  8
0
100
AcDbBlockEnd
  0
BLOCK
  5
1C
330
1B
100
AcDbEntity
 67
     1
  8
0
100
AcDbBlockBegin
  2
*Paper_Space
 70
     0
 10
0.0
 20
0.0
 30
0.0
  3
*Paper_Space
  1

  0
ENDBLK
  5
1D
330
1B
100
AcDbEntity
 67
     1
  8
0
100
AcDbBlockEnd
  0
BLOCK
  5
24
330
23
100
AcDbEntity
  8
0
100
AcDbBlockBegin
  2
*Paper_Space0
 70
     0
 10
0.0
 20
0.0
 30
0.0
  3
*Paper_Space0
  1

  0
ENDBLK
  5
25
330
23
100
AcDbEntity
  8
0
100
AcDbBlockEnd
  0
BLOCK
  5
EF
330
EE
100
AcDbEntity
  8
0
100
AcDbBlockBegin
  2
SW_NOTE_0
 70
     0
 10
0.0
 20
0.0
 30
0.0
  3
SW_NOTE_0
  1

  0
MTEXT
  5
F1
330
EE
100
AcDbEntity
  8
0
  6
Continuous
 62
     0
370
     0
100
AcDbMText
 10
32.90625
 20
23.2032193159
 30
0.0
 40
18.0
 41
0.0
 71
     2
 72
     1
  1
SCALA
  7
SLDTEXTSTYLE0
 73
     1
 44
1.0
  0
MTEXT
  5
F2
330
EE
100
AcDbEntity
  8
0
  6
Continuous
 62
     0
370
     0
100
AcDbMText
 10
35.6098540438
 20
-1.6396707646
 30
0.0
 40
37.0416666667
 41
0.0
 71
     2
 72
     1
  1
1:1
  7
SLDTEXTSTYLE0
 73
     1
 44
1.0
  0
ENDBLK
  5
F0
330
EE
100
AcDbEntity
  8
0
100
AcDbBlockEnd
  0
ENDSEC
  0
SECTION
  2
ENTITIES
  0
HATCH
  5
74
330
1F
100
AcDbEntity
  8
0
  6
Continuous
 62
     7
100
AcDbHatch
 10
0.0
 20
0.0
 30
0.0
210
0.0
220
0.0
230
1.0
  2
SOLID
 70
     1
 71
     0
 91
        2
 92
        0
 93
        6
 72
     1
 10
2340.243226420216
 20
319.3144821747094
 11
2356.647910872445
 21
319.3144821747094
 72
     3
 10
2351.078765157099
 20
331.9559440369547
 11
27.08884684798352
 21
0.0
 40
0.4768529109443384
 50
293.7756995582609
 51
426.2243004403791
 73
     1
 72
     1
 10
2356.647910872789
 20
344.5974058991662
 11
2323.989918311282
 21
344.5974058991662
 72
     1
 10
2323.989918311282
 20
344.5974058991662
 11
2323.989918311282
 21
304.8670971915081
 72
     1
 10
2323.989918311282
 20
304.8670971915081
 11
2340.243226420216
 21
304.8670971915081
 72
     1
 10
2340.243226420216
 20
304.8670971915081
 11
2340.243226420216
 21
319.3144821747094
 97
        0
 92
        0
 93
        6
 72
     3
 10
2350.175803596967
 20
331.9559440369547
 11
9.932577177641511
 21
0.0
 40
0.5895245510672578
 50
316.3365658560252
 51
403.663434144226
 73
     0
 72
     2
 10
2352.923880980421
 20
333.7618671600596
 40
7.223692492544108
 50
69.99121011132742
 51
90.0
 73
     0
 72
     1
 10
2352.923880980421
 20
326.5381746675155
 11
2340.243226419814
 21
326.5381746675155
 72
     1
 10
2340.243226419814
 20
326.5381746675155
 11
2340.243226419814
 21
337.37371340629
 72
     1
 10
2340.243226419814
 20
337.37371340629
 11
2352.923880981012
 21
337.37371340629
 72
     2
 10
2352.923880981012
 20
330.150020915474
 40
7.223692490816113
 50
270.0000000000008
 51
290.0087898889545
 73
     0
 97
        0
 75
     0
 76
     1
 98
        1
 10
0.0
 20
0.0
  0
HATCH
  5
75
330
1F
100
AcDbEntity
  8
0
  6
Continuous
 62
     7
100
AcDbHatch
 10
0.0
 20
0.0
 30
0.0
210
0.0
220
0.0
230
1.0
  2
SOLID
 70
     1
 71
     0
 91
        1
 92
        0
 93
       12
 72
     1
 10
2435.957151948124
 20
344.59740589754
 11
2381.779458253796
 21
344.59740589754
 72
     1
 10
2381.779458253796
 20
344.59740589754
 11
2381.779458253796
 21
304.867097189882
 72
     1
 10
2381.779458253796
 20
304.867097189882
 11
2435.957151948124
 21
304.867097189882
 72
     1
 10
2435.957151948124
 20
304.867097189882
 11
2435.957151948124
 21
312.09078967967
 72
     1
 10
2435.957151948124
 20
312.09078967967
 11
2399.838689485178
 21
312.09078967967
 72
     1
 10
2399.838689485178
 20
312.09078967967
 11
2399.838689485178
 21
321.1204052953607
 72
     1
 10
2399.838689485178
 20
321.1204052953607
 11
2432.345305703229
 21
321.1204052953607
 72
     1
 10
2432.345305703229
 20
321.1204052953607
 11
2432.345305703229
 21
328.344097788605
 72
     1
 10
2432.345305703229
 20
328.344097788605
 11
2399.838689485178
 21
328.344097788605
 72
     1
 10
2399.838689485178
 20
328.344097788605
 11
2399.838689485178
 21
337.3737134042958
 72
     1
 10
2399.838689485178
 20
337.3737134042958
 11
2435.957151948124
 21
337.3737134042958
 72
     1
 10
2435.957151948124
 20
337.3737134042958
 11
2435.957151948124
 21
344.59740589754
 97
        0
 75
     0
 76
     1
 98
        1
 10
0.0
 20
0.0
  0
HATCH
  5
76
330
1F
100
AcDbEntity
  8
0
  6
Continuous
 62
     7
100
AcDbHatch
 10
0.0
 20
0.0
 30
0.0
210
0.0
220
0.0
230
1.0
  2
SOLID
 70
     1
 71
     0
 91
        1
 92
        0
 93
        6
 72
     1
 10
2645.444234240045
 20
344.597405899586
 11
2627.385003008663
 21
344.597405899586
 72
     1
 10
2627.385003008663
 20
344.597405899586
 11
2627.385003008663
 21
304.8670971919279
 72
     1
 10
2627.385003008663
 20
304.8670971919279
 11
2676.14492733565
 21
304.8670971919279
 72
     1
 10
2676.14492733565
 20
304.8670971919279
 11
2676.14492733565
 21
313.8967128076189
 72
     1
 10
2676.14492733565
 20
313.8967128076189
 11
2645.444234240045
 21
313.8967128076189
 72
     1
 10
2645.444234240045
 20
313.8967128076189
 11
2645.444234240045
 21
344.597405899586
 97
        0
 75
     0
 76
     1
 98
        1
 10
0.0
 20
0.0
  0
HATCH
  5
77
330
1F
100
AcDbEntity
  8
0
  6
Continuous
 62
     7
100
AcDbHatch
 10
0.0
 20
0.0
 30
0.0
210
0.0
220
0.0
230
1.0
  2
SOLID
 70
     1
 71
     0
 91
        1
 92
        0
 93
        4
 72
     1
 10
2677.950850457337
 20
344.5974058991659
 11
2677.950850457337
 21
304.8670971915079
 72
     1
 10
2677.950850457337
 20
304.8670971915079
 11
2696.010081688719
 21
304.8670971915079
 72
     1
 10
2696.010081688719
 20
304.8670971915079
 11
2696.010081688719
 21
344.5974058991659
 72
     1
 10
2696.010081688719
 20
344.5974058991659
 11
2677.950850457337
 21
344.5974058991659
 97
        0
 75
     0
 76
     1
 98
        1
 10
0.0
 20
0.0
  0
HATCH
  5
78
330
1F
100
AcDbEntity
  8
0
  6
Continuous
 62
     7
100
AcDbHatch
 10
0.0
 20
0.0
 30
0.0
210
0.0
220
0.0
230
1.0
  2
SOLID
 70
     1
 71
     0
 91
        2
 92
        0
 93
        4
 72
     3
 10
2468.463768165085
 20
324.7322515426197
 11
28.89476997115586
 21
0.0
 40
0.6929224243374513
 50
280.2934314618138
 51
439.7065685387129
 73
     1
 72
     1
 10
2472.071526001564
 20
344.5974058975816
 11
2439.568998196665
 21
344.5974058975813
 72
     1
 10
2439.568998196665
 20
344.5974058975813
 11
2439.568998196665
 21
304.8670971876741
 72
     1
 10
2439.568998196665
 20
304.8670971876741
 11
2472.071526001749
 21
304.8670971876741
 97
        0
 92
        0
 93
        6
 72
     2
 10
2472.947172767998
 20
324.7322515421808
 40
10.83553873998016
 50
56.16906508602374
 51
90.0
 73
     0
 72
     1
 10
2472.947172767998
 20
313.8967128022008
 11
2455.82230630316
 21
313.8967128022008
 72
     1
 10
2455.82230630316
 20
313.8967128022008
 11
2455.82230630316
 21
335.5677902826995
 72
     1
 10
2455.82230630316
 20
335.5677902826995
 11
2472.947172767998
 21
335.5677902826995
 72
     2
 10
2472.947172767998
 20
324.7322515421808
 40
10.83553874051871
 50
270.0000000000008
 51
303.8314447476077
 73
     0
 72
     3
 10
2462.14303723761
 20
324.7322515426197
 11
22.57403904004612
 21
0.0
 40
0.5985848325441405
 50
331.8713554011807
 51
388.1288999924611
 73
     0
 97
        0
 75
     0
 76
     1
 98
        1
 10
0.0
 20
0.0
  0
HATCH
  5
79
330
1F
100
AcDbEntity
  8
0
  6
Continuous
 62
     7
100
AcDbHatch
 10
0.0
 20
0.0
 30
0.0
210
0.0
220
0.0
230
1.0
  2
SOLID
 70
     1
 71
     0
 91
        3
 92
        0
 93
       19
 72
     1
 10
2558.870202192612
 20
314.7709579586855
 11
2560.355534650718
 21
308.9676544182703
 72
     2
 10
2565.453566637579
 20
310.114383967383
 40
5.225410873593411
 50
192.6768785101394
 51
204.7368873206736
 73
     1
 72
     1
 10
2560.707644877863
 20
307.927800914186
 11
2584.042848052473
 21
344.597405899586
 72
     1
 10
2584.042848052473
 20
344.597405899586
 11
2602.102079283856
 21
344.597405899586
 72
     1
 10
2602.102079283856
 20
344.597405899586
 11
2627.385003008663
 21
304.8670971919279
 72
     1
 10
2627.385003008663
 20
304.8670971919279
 11
2609.325771777099
 21
304.8670971919279
 72
     1
 10
2609.325771777099
 20
304.8670971919279
 11
2605.262444749956
 21
312.090789681716
 72
     1
 10
2605.262444749956
 20
312.090789681716
 11
2580.882482586372
 21
312.090789681716
 72
     1
 10
2580.882482586372
 20
312.090789681716
 11
2576.819155559229
 21
304.8670971919279
 72
     1
 10
2576.819155559229
 20
304.8670971919279
 11
2546.118462463106
 21
304.8670971919279
 72
     1
 10
2546.118462463106
 20
304.8670971919279
 11
2546.118462463106
 21
312.0907896826544
 72
     2
 10
2538.894769969861
 20
312.0907896826544
 40
7.223692493244227
 50
0.0
 51
90.0
 73
     1
 72
     1
 10
2538.894769969861
 20
319.3144821758984
 11
2520.835538738298
 21
319.3144821758984
 72
     1
 10
2520.835538738298
 20
319.3144821758984
 11
2520.835538738298
 21
304.8670971928664
 72
     1
 10
2520.835538738298
 20
304.8670971928664
 11
2504.582230629363
 21
304.8670971928664
 72
     1
 10
2504.582230629363
 20
304.8670971928664
 11
2504.582230629363
 21
344.5974059005244
 72
     1
 10
2504.582230629363
 20
344.5974059005244
 11
2542.019258305786
 21
344.5974059005244
 72
     3
 10
2538.029947706919
 20
332.9364020822968
 11
24.32666622535162
 21
0.0
 40
0.4859291160023137
 50
288.8861745463018
 51
398.6942257036357
 73
     0
 72
     2
 10
2549.037584929584
 20
312.9627960708336
 40
9.997490267756193
 50
279.2678272406082
 51
349.5800515720779
 73
     0
 97
        0
 92
        0
 93
        3
 72
     1
 10
2593.072463667404
 20
333.7618671594018
 11
2584.945809612937
 21
319.3144821729139
 72
     1
 10
2584.945809612937
 20
319.3144821729139
 11
2601.199117721872
 21
319.3144821729139
 72
     1
 10
2601.199117721872
 20
319.3144821729139
 11
2593.072463667404
 21
333.7618671594018
 97
        0
 92
        0
 93
        6
 72
     2
 10
2538.478172418671
 20
331.9559440374287
 40
5.417769370214362
 50
270.0000000000008
 51
305.5869104965606
 73
     1
 72
     3
 10
2532.574039041056
 20
331.9559440369547
 11
11.73850030081747
 21
0.0
 40
0.5900077182209745
 50
334.058541690378
 51
385.9414583083995
 73
     1
 72
     2
 10
2538.478172418671
 20
331.9559440374287
 40
5.417769369443226
 50
54.41308949502037
 51
90.0
 73
     1
 72
     1
 10
2538.478172418671
 20
337.3737134068722
 11
2520.835538737718
 21
337.3737134068722
 72
     1
 10
2520.835538737718
 20
337.3737134068722
 11
2520.835538737718
 21
326.538174667214
 72
     1
 10
2520.835538737718
 20
326.538174667214
 11
2538.478172418671
 21
326.5381746672143
 97
        0
 75
     0
 76
     1
 98
        1
 10
0.0
 20
0.0
  0
LINE
  5
7A
330
1F
100
AcDbEntity
  8
0
  6
Continuous
 62
     7
370
    25
100
AcDbLine
 10
2870.0
 20
100.0
 30
0.0
 11
2870.0
 21
2000.0
 31
0.0
  0
LINE
  5
7B
330
1F
100
AcDbEntity
  8
0
  6
Continuous
 62
   179
370
    18
100
AcDbLine
 10
2323.9899183113
 20
344.5974058992
 30
0.0
 11
2323.9899183113
 21
304.8670971915
 31
0.0
  0
LINE
  5
7C
330
1F
100
AcDbEntity
  8
0
  6
Continuous
 62
   179
370
    18
100
AcDbLine
 10
2323.9899183113
 20
344.5974058992
 30
0.0
 11
2356.6479108728
 21
344.5974058992
 31
0.0
  0
LINE
  5
7D
330
1F
100
AcDbEntity
  8
0
  6
Continuous
 62
   179
370
    18
100
AcDbLine
 10
2323.9899183113
 20
304.8670971915
 30
0.0
 11
2340.2432264202
 21
304.8670971915
 31
0.0
  0
LINE
  5
7E
330
1F
100
AcDbEntity
  8
0
  6
Continuous
 62
   179
370
    18
100
AcDbLine
 10
2340.2432264202
 20
304.8670971915
 30
0.0
 11
2340.2432264202
 21
319.3144821747
 31
0.0
  0
LINE
  5
7F
330
1F
100
AcDbEntity
  8
0
  6
Continuous
 62
   179
370
    18
100
AcDbLine
 10
2356.6479108724
 20
319.3144821747
 30
0.0
 11
2340.2432264202
 21
319.3144821747
 31
0.0
  0
LINE
  5
80
330
1F
100
AcDbEntity
  8
0
  6
Continuous
 62
   179
370
    18
100
AcDbLine
 10
2340.2432264198
 20
326.5381746675
 30
0.0
 11
2340.2432264198
 21
337.3737134063
 31
0.0
  0
LINE
  5
81
330
1F
100
AcDbEntity
  8
0
  6
Continuous
 62
   179
370
    18
100
AcDbLine
 10
2340.2432264198
 20
337.3737134063
 30
0.0
 11
2352.923880981
 21
337.3737134063
 31
0.0
  0
LINE
  5
82
330
1F
100
AcDbEntity
  8
0
  6
Continuous
 62
   179
370
    18
100
AcDbLine
 10
2340.2432264198
 20
326.5381746675
 30
0.0
 11
2352.9238809804
 21
326.5381746675
 31
0.0
  0
LINE
  5
83
330
1F
100
AcDbEntity
  8
0
  6
Continuous
 62
   179
370
    18
100
AcDbLine
 10
2381.7794582538
 20
344.5974058975
 30
0.0
 11
2435.9571519481
 21
344.5974058975
 31
0.0
  0
LINE
  5
84
330
1F
100
AcDbEntity
  8
0
  6
Continuous
 62
   179
370
    18
100
AcDbLine
 10
2435.9571519481
 20
344.5974058975
 30
0.0
 11
2435.9571519481
 21
337.3737134043
 31
0.0
  0
LINE
  5
85
330
1F
100
AcDbEntity
  8
0
  6
Continuous
 62
   179
370
    18
100
AcDbLine
 10
2435.9571519481
 20
337.3737134043
 30
0.0
 11
2399.8386894852
 21
337.3737134043
 31
0.0
  0
LINE
  5
86
330
1F
100
AcDbEntity
  8
0
  6
Continuous
 62
   179
370
    18
100
AcDbLine
 10
2399.8386894852
 20
337.3737134043
 30
0.0
 11
2399.8386894852
 21
328.3440977886
 31
0.0
  0
LINE
  5
87
330
1F
100
AcDbEntity
  8
0
  6
Continuous
 62
   179
370
    18
100
AcDbLine
 10
2399.8386894852
 20
328.3440977886
 30
0.0
 11
2432.3453057032
 21
328.3440977886
 31
0.0
  0
LINE
  5
88
330
1F
100
AcDbEntity
  8
0
  6
Continuous
 62
   179
370
    18
100
AcDbLine
 10
2432.3453057032
 20
328.3440977886
 30
0.0
 11
2432.3453057032
 21
321.1204052954
 31
0.0
  0
LINE
  5
89
330
1F
100
AcDbEntity
  8
0
  6
Continuous
 62
   179
370
    18
100
AcDbLine
 10
2432.3453057032
 20
321.1204052954
 30
0.0
 11
2399.8386894852
 21
321.1204052954
 31
0.0
  0
LINE
  5
8A
330
1F
100
AcDbEntity
  8
0
  6
Continuous
 62
   179
370
    18
100
AcDbLine
 10
2399.8386894852
 20
321.1204052954
 30
0.0
 11
2399.8386894852
 21
312.0907896797
 31
0.0
  0
LINE
  5
8B
330
1F
100
AcDbEntity
  8
0
  6
Continuous
 62
   179
370
    18
100
AcDbLine
 10
2399.8386894852
 20
312.0907896797
 30
0.0
 11
2435.9571519481
 21
312.0907896797
 31
0.0
  0
LINE
  5
8C
330
1F
100
AcDbEntity
  8
0
  6
Continuous
 62
   179
370
    18
100
AcDbLine
 10
2435.9571519481
 20
312.0907896797
 30
0.0
 11
2435.9571519481
 21
304.8670971899
 31
0.0
  0
LINE
  5
8D
330
1F
100
AcDbEntity
  8
0
  6
Continuous
 62
   179
370
    18
100
AcDbLine
 10
2435.9571519481
 20
304.8670971899
 30
0.0
 11
2381.7794582538
 21
304.8670971899
 31
0.0
  0
LINE
  5
8E
330
1F
100
AcDbEntity
  8
0
  6
Continuous
 62
   179
370
    18
100
AcDbLine
 10
2439.5689981967
 20
344.5974058976
 30
0.0
 11
2439.5689981967
 21
304.8670971877
 31
0.0
  0
LINE
  5
8F
330
1F
100
AcDbEntity
  8
0
  6
Continuous
 62
   179
370
    18
100
AcDbLine
 10
2439.5689981967
 20
344.5974058976
 30
0.0
 11
2472.0715260016
 21
344.5974058976
 31
0.0
  0
LINE
  5
90
330
1F
100
AcDbEntity
  8
0
  6
Continuous
 62
   179
370
    18
100
AcDbLine
 10
2472.0715260017
 20
304.8670971877
 30
0.0
 11
2439.5689981967
 21
304.8670971877
 31
0.0
  0
LINE
  5
91
330
1F
100
AcDbEntity
  8
0
  6
Continuous
 62
   179
370
    18
100
AcDbLine
 10
2455.8223063032
 20
324.7322515403
 30
0.0
 11
2455.8223063032
 21
313.8967128022
 31
0.0
  0
LINE
  5
92
330
1F
100
AcDbEntity
  8
0
  6
Continuous
 62
   179
370
    18
100
AcDbLine
 10
2455.8223063032
 20
313.8967128022
 30
0.0
 11
2472.947172768
 21
313.8967128022
 31
0.0
  0
LINE
  5
93
330
1F
100
AcDbEntity
  8
0
  6
Continuous
 62
   179
370
    18
100
AcDbLine
 10
2455.8223063032
 20
324.7322515403
 30
0.0
 11
2455.8223063032
 21
335.5677902827
 31
0.0
  0
LINE
  5
94
330
1F
100
AcDbEntity
  8
0
  6
Continuous
 62
   179
370
    18
100
AcDbLine
 10
2455.8223063032
 20
335.5677902827
 30
0.0
 11
2472.947172768
 21
335.5677902827
 31
0.0
  0
LINE
  5
95
330
1F
100
AcDbEntity
  8
0
  6
Continuous
 62
   179
370
    18
100
AcDbLine
 10
2504.5822306294
 20
344.5974059005
 30
0.0
 11
2504.5822306294
 21
304.8670971929
 31
0.0
  0
LINE
  5
96
330
1F
100
AcDbEntity
  8
0
  6
Continuous
 62
     7
370
    18
100
AcDbLine
 10
2728.7989947508
 20
280.0000000004
 30
0.0
 11
2728.7989947508
 21
190.0000000002
 31
0.0
  0
LINE
  5
97
330
1F
100
AcDbEntity
  8
0
  6
Continuous
 62
   179
370
    18
100
AcDbLine
 10
2504.5822306294
 20
304.8670971929
 30
0.0
 11
2520.8355387383
 21
304.8670971929
 31
0.0
  0
LINE
  5
98
330
1F
100
AcDbEntity
  8
0
  6
Continuous
 62
   179
370
    18
100
AcDbLine
 10
2520.8355387383
 20
304.8670971929
 30
0.0
 11
2520.8355387383
 21
319.3144821759
 31
0.0
  0
LINE
  5
99
330
1F
100
AcDbEntity
  8
0
  6
Continuous
 62
   179
370
    18
100
AcDbLine
 10
2520.8355387383
 20
319.3144821759
 30
0.0
 11
2538.8947699699
 21
319.3144821759
 31
0.0
  0
LINE
  5
9A
330
1F
100
AcDbEntity
  8
0
  6
Continuous
 62
   179
370
    18
100
AcDbLine
 10
2546.1184624631
 20
312.0907896827
 30
0.0
 11
2546.1184624631
 21
304.8670971919
 31
0.0
  0
LINE
  5
9B
330
1F
100
AcDbEntity
  8
0
  6
Continuous
 62
   179
370
    18
100
AcDbLine
 10
2520.8355387377
 20
326.5381746672
 30
0.0
 11
2520.8355387377
 21
337.3737134069
 31
0.0
  0
LINE
  5
9C
330
1F
100
AcDbEntity
  8
0
  6
Continuous
 62
   179
370
    18
100
AcDbLine
 10
2520.8355387377
 20
337.3737134069
 30
0.0
 11
2538.4781724187
 21
337.3737134069
 31
0.0
  0
LINE
  5
9D
330
1F
100
AcDbEntity
  8
0
  6
Continuous
 62
   179
370
    18
100
AcDbLine
 10
2520.8355387377
 20
326.5381746672
 30
0.0
 11
2538.4781724187
 21
326.5381746672
 31
0.0
  0
LINE
  5
9E
330
1F
100
AcDbEntity
  8
0
  6
Continuous
 62
   179
370
    18
100
AcDbLine
 10
2558.8702021926
 20
314.7709579587
 30
0.0
 11
2560.3555346507
 21
308.9676544183
 31
0.0
  0
LINE
  5
9F
330
1F
100
AcDbEntity
  8
0
  6
Continuous
 62
     7
370
    25
100
AcDbLine
 10
2870.0
 20
2000.0
 30
0.0
 11
100.0
 21
2000.0
 31
0.0
  0
LINE
  5
A0
330
1F
100
AcDbEntity
  8
0
  6
Continuous
 62
     7
370
    18
100
AcDbLine
 10
2728.7989947508
 20
190.0000000002
 30
0.0
 11
2728.7989947508
 21
100.0
 31
0.0
  0
LINE
  5
A1
330
1F
100
AcDbEntity
  8
0
  6
Continuous
 62
     7
370
    25
100
AcDbLine
 10
100.0
 20
2000.0
 30
0.0
 11
100.0
 21
100.0
 31
0.0
  0
LINE
  5
A2
330
1F
100
AcDbEntity
  8
0
  6
Continuous
 62
     7
370
    25
100
AcDbLine
 10
2150.0
 20
370.0000000006
 30
0.0
 11
2870.0
 21
370.0000000006
 31
0.0
  0
LINE
  5
A3
330
1F
100
AcDbEntity
  8
0
  6
Continuous
 62
    19
370
    18
100
AcDbLine
 10
2795.2884126839
 20
160.2788043096
 30
0.0
 11
2763.4182663121
 21
154.0818314039
 31
0.0
  0
LINE
  5
A4
330
1F
100
AcDbEntity
  8
0
  6
Continuous
 62
    19
370
    18
100
AcDbLine
 10
2821.3505851521
 20
165.4881573907
 30
0.0
 11
2821.3505851521
 21
124.881030118
 31
0.0
  0
LINE
  5
A5
330
1F
100
AcDbEntity
  8
0
  6
Continuous
 62
    19
370
    18
100
AcDbLine
 10
2795.2884126839
 20
160.2788043096
 30
0.0
 11
2795.2884126839
 21
130.0903831992
 31
0.0
  0
LINE
  5
A6
330
1F
100
AcDbEntity
  8
0
  6
Continuous
 62
     7
370
    25
100
AcDbLine
 10
100.0
 20
100.0
 30
0.0
 11
2870.0
 21
100.0
 31
0.0
  0
LINE
  5
A7
330
1F
100
AcDbEntity
  8
0
  6
Continuous
 62
    19
370
    18
100
AcDbLine
 10
2763.4182663121
 20
154.0818314039
 30
0.0
 11
2763.4182663121
 21
136.2873561048
 31
0.0
  0
LINE
  5
A8
330
1F
100
AcDbEntity
  8
0
  6
Continuous
 62
   179
370
    18
100
AcDbLine
 10
2546.1184624631
 20
304.8670971919
 30
0.0
 11
2576.8191555592
 21
304.8670971919
 31
0.0
  0
LINE
  5
A9
330
1F
100
AcDbEntity
  8
0
  6
Continuous
 62
    19
370
    18
100
AcDbLine
 10
2795.2884126839
 20
130.0903831992
 30
0.0
 11
2763.4182663121
 21
136.2873561048
 31
0.0
  0
LINE
  5
AA
330
1F
100
AcDbEntity
  8
0
  6
CENTERX2
 62
    19
370
    18
100
AcDbLine
 10
2838.9207124248
 20
145.1845937544
 30
0.0
 11
2759.4518690643
 21
145.1845937544
 31
0.0
  0
LINE
  5
AB
330
1F
100
AcDbEntity
  8
0
  6
Continuous
 62
   179
370
    18
100
AcDbLine
 10
2504.5822306294
 20
344.5974059005
 30
0.0
 11
2542.0192583058
 21
344.5974059005
 31
0.0
  0
LINE
  5
AC
330
1F
100
AcDbEntity
  8
0
  6
Continuous
 62
   179
370
    18
100
AcDbLine
 10
2381.7794582538
 20
344.5974058975
 30
0.0
 11
2381.7794582538
 21
304.8670971899
 31
0.0
  0
LINE
  5
AD
330
1F
100
AcDbEntity
  8
0
  6
Continuous
 62
   179
370
    18
100
AcDbLine
 10
2584.0428480525
 20
344.5974058996
 30
0.0
 11
2602.1020792839
 21
344.5974058996
 31
0.0
  0
LINE
  5
AE
330
1F
100
AcDbEntity
  8
0
  6
Continuous
 62
   179
370
    18
100
AcDbLine
 10
2584.0428480525
 20
344.5974058996
 30
0.0
 11
2560.7076448779
 21
307.9278009142
 31
0.0
  0
LINE
  5
AF
330
1F
100
AcDbEntity
  8
0
  6
Continuous
 62
   179
370
    18
100
AcDbLine
 10
2576.8191555592
 20
304.8670971919
 30
0.0
 11
2580.8824825864
 21
312.0907896817
 31
0.0
  0
LINE
  5
B0
330
1F
100
AcDbEntity
  8
0
  6
Continuous
 62
   179
370
    18
100
AcDbLine
 10
2593.0724636674
 20
333.7618671594
 30
0.0
 11
2601.1991177219
 21
319.3144821729
 31
0.0
  0
LINE
  5
B1
330
1F
100
AcDbEntity
  8
0
  6
Continuous
 62
   179
370
    18
100
AcDbLine
 10
2584.9458096129
 20
319.3144821729
 30
0.0
 11
2593.0724636674
 21
333.7618671594
 31
0.0
  0
LINE
  5
B2
330
1F
100
AcDbEntity
  8
0
  6
Continuous
 62
   179
370
    18
100
AcDbLine
 10
2584.9458096129
 20
319.3144821729
 30
0.0
 11
2601.1991177219
 21
319.3144821729
 31
0.0
  0
LINE
  5
B3
330
1F
100
AcDbEntity
  8
0
  6
Continuous
 62
   179
370
    18
100
AcDbLine
 10
2580.8824825864
 20
312.0907896817
 30
0.0
 11
2605.26244475
 21
312.0907896817
 31
0.0
  0
LINE
  5
B4
330
1F
100
AcDbEntity
  8
0
  6
Continuous
 62
   179
370
    18
100
AcDbLine
 10
2605.26244475
 20
312.0907896817
 30
0.0
 11
2609.3257717771
 21
304.8670971919
 31
0.0
  0
LINE
  5
B5
330
1F
100
AcDbEntity
  8
0
  6
Continuous
 62
   179
370
    18
100
AcDbLine
 10
2627.3850030087
 20
344.5974058996
 30
0.0
 11
2627.3850030087
 21
304.8670971919
 31
0.0
  0
LINE
  5
B6
330
1F
100
AcDbEntity
  8
0
  6
Continuous
 62
   179
370
    18
100
AcDbLine
 10
2602.1020792839
 20
344.5974058996
 30
0.0
 11
2627.3850030087
 21
304.8670971919
 31
0.0
  0
LINE
  5
B7
330
1F
100
AcDbEntity
  8
0
  6
Continuous
 62
   179
370
    18
100
AcDbLine
 10
2609.3257717771
 20
304.8670971919
 30
0.0
 11
2627.3850030087
 21
304.8670971919
 31
0.0
  0
LINE
  5
B8
330
1F
100
AcDbEntity
  8
0
  6
Continuous
 62
   179
370
    18
100
AcDbLine
 10
2627.3850030087
 20
304.8670971919
 30
0.0
 11
2676.1449273357
 21
304.8670971919
 31
0.0
  0
LINE
  5
B9
330
1F
100
AcDbEntity
  8
0
  6
Continuous
 62
   179
370
    18
100
AcDbLine
 10
2676.1449273357
 20
304.8670971919
 30
0.0
 11
2676.1449273357
 21
313.8967128076
 31
0.0
  0
LINE
  5
BA
330
1F
100
AcDbEntity
  8
0
  6
Continuous
 62
   179
370
    18
100
AcDbLine
 10
2676.1449273357
 20
313.8967128076
 30
0.0
 11
2645.44423424
 21
313.8967128076
 31
0.0
  0
LINE
  5
BB
330
1F
100
AcDbEntity
  8
0
  6
Continuous
 62
   179
370
    18
100
AcDbLine
 10
2645.44423424
 20
313.8967128076
 30
0.0
 11
2645.44423424
 21
344.5974058996
 31
0.0
  0
LINE
  5
BC
330
1F
100
AcDbEntity
  8
0
  6
Continuous
 62
   179
370
    18
100
AcDbLine
 10
2627.3850030087
 20
344.5974058996
 30
0.0
 11
2645.44423424
 21
344.5974058996
 31
0.0
  0
LINE
  5
BD
330
1F
100
AcDbEntity
  8
0
  6
Continuous
 62
   179
370
    18
100
AcDbLine
 10
2677.9508504573
 20
344.5974058992
 30
0.0
 11
2677.9508504573
 21
304.8670971915
 31
0.0
  0
LINE
  5
BE
330
1F
100
AcDbEntity
  8
0
  6
Continuous
 62
   179
370
    18
100
AcDbLine
 10
2696.0100816887
 20
344.5974058992
 30
0.0
 11
2696.0100816887
 21
304.8670971915
 31
0.0
  0
LINE
  5
BF
330
1F
100
AcDbEntity
  8
0
  6
Continuous
 62
   179
370
    18
100
AcDbLine
 10
2677.9508504573
 20
344.5974058992
 30
0.0
 11
2696.0100816887
 21
344.5974058992
 31
0.0
  0
LINE
  5
C0
330
1F
100
AcDbEntity
  8
0
  6
Continuous
 62
   179
370
    18
100
AcDbLine
 10
2677.9508504573
 20
304.8670971915
 30
0.0
 11
2696.0100816887
 21
304.8670971915
 31
0.0
  0
LINE
  5
C1
330
1F
100
AcDbEntity
  8
0
  6
Continuous
 62
   179
370
    18
100
AcDbLine
 10
2704.1151644241
 20
341.2930554229
 30
0.0
 11
2708.2866879839
 21
341.2930554229
 31
0.0
  0
LINE
  5
C2
330
1F
100
AcDbEntity
  8
0
  6
Continuous
 62
   179
370
    18
100
AcDbLine
 10
2708.2866879839
 20
338.5841707372
 30
0.0
 11
2704.1151644241
 21
338.5841707372
 31
0.0
  0
LINE
  5
C3
330
1F
100
AcDbEntity
  8
0
  6
Continuous
 62
   179
370
    18
100
AcDbLine
 10
2704.1151644241
 20
338.5841707372
 30
0.0
 11
2704.1151644241
 21
341.2930554229
 31
0.0
  0
LINE
  5
C4
330
1F
100
AcDbEntity
  8
0
  6
Continuous
 62
   179
370
    18
100
AcDbLine
 10
2704.1151644241
 20
338.5841707372
 30
0.0
 11
2706.8240491077
 21
338.5841707372
 31
0.0
  0
LINE
  5
C5
330
1F
100
AcDbEntity
  8
0
  6
Continuous
 62
   179
370
    18
100
AcDbLine
 10
2704.1151644241
 20
338.5841707372
 30
0.0
 11
2704.1151644241
 21
334.5208437117
 31
0.0
  0
LINE
  5
C6
330
1F
100
AcDbEntity
  8
0
  6
Continuous
 62
   179
370
    18
100
AcDbLine
 10
2709.5329337914
 20
334.5208437117
 30
0.0
 11
2706.8240491077
 21
338.5841707372
 31
0.0
  0
LINE
  5
C7
330
1F
100
AcDbEntity
  8
0
  6
Continuous
 62
     7
370
    18
100
AcDbLine
 10
2150.0
 20
190.0000000002
 30
0.0
 11
2870.0
 21
190.0000000002
 31
0.0
  0
LINE
  5
C8
330
1F
100
AcDbEntity
  8
0
  6
Continuous
 62
     7
370
    18
100
AcDbLine
 10
2870.0
 20
280.0000000004
 30
0.0
 11
2150.0
 21
280.0000000004
 31
0.0
  0
LINE
  5
C9
330
1F
100
AcDbEntity
  8
0
  6
Continuous
 62
     7
370
    18
100
AcDbLine
 10
100.0
 20
550.0
 30
0.0
 11
100.0
 21
650.0
 31
0.0
  0
LINE
  5
CA
330
1F
100
AcDbEntity
  8
0
  6
Continuous
 62
     7
370
    18
100
AcDbLine
 10
100.0
 20
650.0
 30
0.0
 11
100.0
 21
750.0
 31
0.0
  0
LINE
  5
CB
330
1F
100
AcDbEntity
  8
0
  6
Continuous
 62
     7
370
    18
100
AcDbLine
 10
100.0
 20
750.0
 30
0.0
 11
100.0
 21
850.0
 31
0.0
  0
LINE
  5
CC
330
1F
100
AcDbEntity
  8
0
  6
Continuous
 62
     7
370
    18
100
AcDbLine
 10
100.0
 20
850.0
 30
0.0
 11
100.0
 21
950.0
 31
0.0
  0
LINE
  5
CD
330
1F
100
AcDbEntity
  8
0
  6
Continuous
 62
     7
370
    18
100
AcDbLine
 10
100.0
 20
950.0
 30
0.0
 11
100.0
 21
1050.0
 31
0.0
  0
LINE
  5
CE
330
1F
100
AcDbEntity
  8
0
  6
Continuous
 62
     7
370
    18
100
AcDbLine
 10
100.0
 20
1050.0
 30
0.0
 11
100.0
 21
1150.0
 31
0.0
  0
LINE
  5
CF
330
1F
100
AcDbEntity
  8
0
  6
Continuous
 62
     7
370
    18
100
AcDbLine
 10
100.0
 20
1150.0
 30
0.0
 11
100.0
 21
1250.0
 31
0.0
  0
LINE
  5
D0
330
1F
100
AcDbEntity
  8
0
  6
Continuous
 62
     7
370
    18
100
AcDbLine
 10
100.0
 20
1250.0
 30
0.0
 11
100.0
 21
1350.0
 31
0.0
  0
LINE
  5
D1
330
1F
100
AcDbEntity
  8
0
  6
Continuous
 62
     7
370
    18
100
AcDbLine
 10
100.0
 20
1350.0
 30
0.0
 11
100.0
 21
1450.0
 31
0.0
  0
LINE
  5
D2
330
1F
100
AcDbEntity
  8
0
  6
Continuous
 62
     7
370
    18
100
AcDbLine
 10
100.0
 20
1450.0
 30
0.0
 11
100.0
 21
1550.0
 31
0.0
  0
LINE
  5
D3
330
1F
100
AcDbEntity
  8
0
  6
Continuous
 62
     7
370
    25
100
AcDbLine
 10
2150.0
 20
370.0000000006
 30
0.0
 11
2150.0
 21
100.0
 31
0.0
  0
ARC
  5
D4
330
1F
100
AcDbEntity
  8
0
  6
Continuous
 62
   179
370
    18
100
AcDbCircle
 10
2352.923880981
 20
330.1500209155
 30
0.0
 40
7.223692490816169
100
AcDbArc
 50
69.991210111
 51
90.0
  0
ARC
  5
D5
330
1F
100
AcDbEntity
  8
0
  6
Continuous
 62
   179
370
    18
100
AcDbCircle
 10
2352.9238809804
 20
333.7618671601
 30
0.0
 40
7.223692492544103
100
AcDbArc
 50
270.0
 51
290.0087898887
  0
ARC
  5
D6
330
1F
100
AcDbEntity
  8
0
  6
Continuous
 62
   179
370
    18
100
AcDbCircle
 10
2472.947172768
 20
324.7322515422
 30
0.0
 40
10.8355387405187
100
AcDbArc
 50
56.1685552524
 51
90.0
  0
ARC
  5
D7
330
1F
100
AcDbEntity
  8
0
  6
Continuous
 62
   179
370
    18
100
AcDbCircle
 10
2472.947172768
 20
324.7322515422
 30
0.0
 40
10.83553873998012
100
AcDbArc
 50
270.0
 51
303.830934914
  0
ARC
  5
D8
330
1F
100
AcDbEntity
  8
0
  6
Continuous
 62
   179
370
    18
100
AcDbCircle
 10
2538.8947699699
 20
312.0907896827
 30
0.0
 40
7.223692493244471
100
AcDbArc
 50
0.0
 51
90.0
  0
ARC
  5
D9
330
1F
100
AcDbEntity
  8
0
  6
Continuous
 62
   179
370
    18
100
AcDbCircle
 10
2538.4781724187
 20
331.9559440374
 30
0.0
 40
5.417769369443558
100
AcDbArc
 50
54.413089495
 51
90.0
  0
ARC
  5
DA
330
1F
100
AcDbEntity
  8
0
  6
Continuous
 62
   179
370
    18
100
AcDbCircle
 10
2538.4781724187
 20
331.9559440374
 30
0.0
 40
5.417769370214614
100
AcDbArc
 50
270.0
 51
305.5869104966
  0
ARC
  5
DB
330
1F
100
AcDbEntity
  8
0
  6
Continuous
 62
   179
370
    18
100
AcDbCircle
 10
2549.0375849296
 20
312.9627960708
 30
0.0
 40
9.997490267756625
100
AcDbArc
 50
10.4199484279
 51
80.7321727594
  0
ARC
  5
DC
330
1F
100
AcDbEntity
  8
0
  6
Continuous
 62
   179
370
    18
100
AcDbCircle
 10
2565.4535666376
 20
310.1143839674
 30
0.0
 40
5.225410873593643
100
AcDbArc
 50
192.6768785101
 51
204.7368873207
  0
CIRCLE
  5
DD
330
1F
100
AcDbEntity
  8
0
  6
Continuous
 62
   179
370
    18
100
AcDbCircle
 10
2706.2864208618
 20
337.8675697335
 30
0.0
 40
5.930102145230649
  0
CIRCLE
  5
DE
330
1F
100
AcDbEntity
  8
0
  6
Continuous
 62
    19
370
    18
100
AcDbCircle
 10
2821.3505851521
 20
145.1845937544
 30
0.0
 40
8.587078762764193
  0
CIRCLE
  5
DF
330
1F
100
AcDbEntity
  8
0
  6
Continuous
 62
    19
370
    18
100
AcDbCircle
 10
2821.3505851521
 20
145.1845937544
 30
0.0
 40
16.77593581663705
  0
ELLIPSE
  5
E0
330
1F
100
AcDbEntity
  8
0
  6
Continuous
 62
   179
370
    18
100
AcDbEllipse
 10
2350.175803597
 20
331.955944037
 30
0.0
 11
9.932577177642086
 21
0.0
 31
0.0
210
0.0
220
0.0
230
1.0
 40
0.5895245511
 41
5.265715075739357
 42
7.300655538615938
  0
ELLIPSE
  5
E1
330
1F
100
AcDbEntity
  8
0
  6
Continuous
 62
   179
370
    18
100
AcDbEllipse
 10
2462.1430372376
 20
324.7322515426
 30
0.0
 11
22.57403904004605
 21
0.0
 31
0.0
210
0.0
220
0.0
230
1.0
 40
0.5985848325
 41
5.554193105221712
 42
7.012172182744729
  0
ELLIPSE
  5
E2
330
1F
100
AcDbEntity
  8
0
  6
Continuous
 62
   179
370
    18
100
AcDbEllipse
 10
2532.5740390411
 20
331.955944037
 30
0.0
 11
11.73850030081758
 21
0.0
 31
0.0
210
0.0
220
0.0
230
1.0
 40
0.5900077182
 41
5.593675727225931
 42
6.97269488710657
  0
ELLIPSE
  5
E3
330
1F
100
AcDbEntity
  8
0
  6
Continuous
 62
   179
370
    18
100
AcDbEllipse
 10
2538.0299477069
 20
332.9364020823
 30
0.0
 11
24.3266662253518
 21
0.0
 31
0.0
210
0.0
220
0.0
230
1.0
 40
0.485929116
 41
5.257694056962849
 42
7.689248379254996
  0
ELLIPSE
  5
E4
330
1F
100
AcDbEntity
  8
0
  6
Continuous
 62
   179
370
    18
100
AcDbEllipse
 10
2468.4637681651
 20
324.7322515426
 30
0.0
 11
28.89476997115571
 21
0.0
 31
0.0
210
0.0
220
0.0
230
1.0
 40
0.6929224243
 41
4.837574201223028
 42
7.72879641314261
  0
ELLIPSE
  5
E5
330
1F
100
AcDbEntity
  8
0
  6
Continuous
 62
   179
370
    18
100
AcDbEllipse
 10
2351.0787651571
 20
331.955944037
 30
0.0
 11
27.0888468479834
 21
0.0
 31
0.0
210
0.0
220
0.0
230
1.0
 40
0.4768529109
 41
4.919453630382234
 42
7.646916983963972
  0
ELLIPSE
  5
E6
330
1F
100
AcDbEntity
  8
0
  6
Continuous
 62
   179
370
    18
100
AcDbEllipse
 10
2708.0427484413
 20
339.93861308
 30
0.0
 11
1.490185355941776
 21
0.0
 31
0.0
210
0.0
220
0.0
230
1.0
 40
0.9213369296
 41
4.876826485633947
 42
7.68954412872528
  0
MTEXT
  5
E8
330
1F
100
AcDbEntity
  8
0
  6
Continuous
 62
     7
370
     0
100
AcDbMText
 10
2231.444945447
 20
165.6379924371
 30
0.0
 40
37.0416666667
 41
0.0
 71
     1
 72
     1
  1
BLT_100X25X30
  7
SLDTEXTSTYLE0
 73
     1
 44
1.0
  0
MTEXT
  5
E9
330
1F
100
AcDbEntity
  8
0
  6
Continuous
 62
     7
370
     0
100
AcDbMText
 10
2158.8845987823
 20
146.3871334973
 30
0.0
 40
18.0
 41
0.0
 71
     1
 72
     1
  1
COD.
  7
SLDTEXTSTYLE0
 73
     1
 44
1.0
  0
MTEXT
  5
EA
330
1F
100
AcDbEntity
  8
0
  6
Continuous
 62
     7
370
     0
100
AcDbMText
 10
107.0855178468
 20
74.7215172182
 30
0.0
 40
18.0
 41
0.0
 71
     1
 72
     1
  1
This document is the property of PEDRALI S.p.A. who willsafeguard its rights according to the civil and penal prevision of the Law.
  7
SLDTEXTSTYLE0
 73
     1
 44
1.0
  0
MTEXT
  5
EB
330
1F
100
AcDbEntity
  8
0
  6
Continuous
 62
     7
370
     0
100
AcDbMText
 10
1440.8605986612
 20
76.7845591915
 30
0.0
 40
18.0
 41
0.0
 71
     1
 72
     1
  1
Questo disegno è posto sotto la tutela delle vigenti Leggi e non puo essere utilizzato da terze persone se non previa autorizzazione scritta della PEDRALI S.p.A.
  7
SLDTEXTSTYLE0
 73
     1
 44
1.0
  0
MTEXT
  5
EC
330
1F
100
AcDbEntity
  8
0
  6
Continuous
 62
     7
370
     0
100
AcDbMText
 10
2158.8845987823
 20
234.3102099637
 30
0.0
 40
18.0
 41
0.0
 71
     1
 72
     1
  1
SERIE:
  7
SLDTEXTSTYLE0
 73
     1
 44
1.0
  0
MTEXT
  5
ED
330
1F
100
AcDbEntity
  8
0
  6
Continuous
 62
     7
370
     0
100
AcDbMText
 10
2231.444945447
 20
253.5610689035
 30
0.0
 40
37.0416666667
 41
0.0
 71
     1
 72
     1
  1
BLUME
  7
SLDTEXTSTYLE0
 73
     1
 44
1.0
  0
INSERT
  5
F3
330
1F
100
AcDbEntity
  8
0
  6
Continuous
 62
     7
370
     0
100
AcDbBlockReference
  2
SW_NOTE_0
 10
2766.9883061954
 20
242.6632128381
 30
0.0
  0
ARC
  5
F4
330
1F
100
AcDbEntity
  8
0
  6
Continuous
 62
     7
370
    25
100
AcDbCircle
 10
837.8943270851
 20
1529.911661643
 30
0.0
 40
9.999999999999893
100
AcDbArc
 50
90.0017723797
 51
150.6008602155
  0
ARC
  5
F5
330
1F
100
AcDbEntity
  8
0
  6
Continuous
 62
     7
370
    25
100
AcDbCircle
 10
837.8943270851
 20
1529.911661643
 30
0.0
 40
9.999999999999893
100
AcDbArc
 50
29.4264406102
 51
90.0017723797
  0
LINE
  5
F6
330
1F
100
AcDbEntity
  8
0
  6
Continuous
 62
     7
370
    25
100
AcDbLine
 10
829.8334465267
 20
1534.4691888303
 30
0.0
 11
829.8334465267
 21
1249.911661643
 31
0.0
  0
LINE
  5
F7
330
1F
100
AcDbEntity
  8
0
  6
Continuous
 62
     7
370
    25
100
AcDbLine
 10
845.9552076434
 20
1249.911661643
 30
0.0
 11
845.9552076434
 21
1534.4641979798
 31
0.0
  0
LINE
  5
F8
330
1F
100
AcDbEntity
  8
0
  6
Continuous
 62
     7
370
    25
100
AcDbLine
 10
828.5597117585
 20
1533.0220124716
 30
0.0
 11
828.5597117585
 21
1249.911661643
 31
0.0
  0
LINE
  5
F9
330
1F
100
AcDbEntity
  8
0
  6
Continuous
 62
     7
370
    25
100
AcDbLine
 10
847.2289424116
 20
1249.911661643
 30
0.0
 11
847.2289424116
 21
1533.0194121937
 31
0.0
  0
ARC
  5
FA
330
1F
100
AcDbEntity
  8
0
  6
Continuous
 62
     7
370
    25
100
AcDbCircle
 10
1637.8943270851
 20
1529.911661643
 30
0.0
 40
9.999999999999893
100
AcDbArc
 50
90.0017723797
 51
150.6008602155
  0
ARC
  5
FB
330
1F
100
AcDbEntity
  8
0
  6
Continuous
 62
     7
370
    25
100
AcDbCircle
 10
1637.8943270851
 20
1529.911661643
 30
0.0
 40
10.00000000000019
100
AcDbArc
 50
29.4264406102
 51
90.0017723797
  0
LINE
  5
FC
330
1F
100
AcDbEntity
  8
0
  6
Continuous
 62
     7
370
    25
100
AcDbLine
 10
1629.8334465267
 20
1534.4691888303
 30
0.0
 11
1629.8334465267
 21
1249.911661643
 31
0.0
  0
LINE
  5
FD
330
1F
100
AcDbEntity
  8
0
  6
Continuous
 62
     7
370
    25
100
AcDbLine
 10
1645.9552076434
 20
1249.911661643
 30
0.0
 11
1645.9552076434
 21
1534.4641979798
 31
0.0
  0
LINE
  5
FE
330
1F
100
AcDbEntity
  8
0
  6
Continuous
 62
     7
370
    25
100
AcDbLine
 10
1628.5597117585
 20
1533.0220124716
 30
0.0
 11
1628.5597117585
 21
1249.911661643
 31
0.0
  0
LINE
  5
FF
330
1F
100
AcDbEntity
  8
0
  6
Continuous
 62
     7
370
    25
100
AcDbLine
 10
1647.2289424116
 20
1249.911661643
 30
0.0
 11
1647.2289424116
 21
1533.0194121937
 31
0.0
  0
ARC
  5
100
330
1F
100
AcDbEntity
  8
0
  6
Continuous
 62
     7
370
    25
100
AcDbCircle
 10
833.3943270851
 20
1246.911661643
 30
0.0
 40
5.0
100
AcDbArc
 50
180.0
 51
270.0
  0
ARC
  5
101
330
1F
100
AcDbEntity
  8
0
  6
Continuous
 62
     7
370
    25
100
AcDbCircle
 10
842.3943270851
 20
1246.911661643
 30
0.0
 40
5.0
100
AcDbArc
 50
270.0
 51
0.0
  0
LINE
  5
102
330
1F
100
AcDbEntity
  8
0
  6
Continuous
 62
     7
370
    25
100
AcDbLine
 10
847.3943270851
 20
1246.911661643
 30
0.0
 11
847.3943270851
 21
1249.911661643
 31
0.0
  0
LINE
  5
103
330
1F
100
AcDbEntity
  8
0
  6
Continuous
 62
     7
370
    25
100
AcDbLine
 10
828.3943270851
 20
1249.911661643
 30
0.0
 11
828.3943270851
 21
1246.911661643
 31
0.0
  0
ARC
  5
104
330
1F
100
AcDbEntity
  8
0
  6
Continuous
 62
     7
370
    25
100
AcDbCircle
 10
1633.3943270851
 20
1246.911661643
 30
0.0
 40
5.0
100
AcDbArc
 50
180.0
 51
270.0
  0
ARC
  5
105
330
1F
100
AcDbEntity
  8
0
  6
Continuous
 62
     7
370
    25
100
AcDbCircle
 10
1642.3943270851
 20
1246.911661643
 30
0.0
 40
5.0
100
AcDbArc
 50
270.0
 51
0.0
  0
LINE
  5
106
330
1F
100
AcDbEntity
  8
0
  6
Continuous
 62
     7
370
    25
100
AcDbLine
 10
1647.3943270851
 20
1246.911661643
 30
0.0
 11
1647.3943270851
 21
1249.911661643
 31
0.0
  0
LINE
  5
107
330
1F
100
AcDbEntity
  8
0
  6
Continuous
 62
     7
370
    25
100
AcDbLine
 10
1628.3943270851
 20
1249.911661643
 30
0.0
 11
1628.3943270851
 21
1246.911661643
 31
0.0
  0
LINE
  5
108
330
1F
100
AcDbEntity
  8
0
  6
Continuous
 62
     7
370
    25
100
AcDbLine
 10
1700.8943270851
 20
1524.9116616473
 30
0.0
 11
1647.2289424116
 21
1524.9116616473
 31
0.0
  0
LINE
  5
109
330
1F
100
AcDbEntity
  8
0
  6
Continuous
 62
     7
370
    25
100
AcDbLine
 10
1628.5597117585
 20
1524.9116616473
 30
0.0
 11
847.2289424117
 21
1524.9116616473
 31
0.0
  0
LINE
  5
10A
330
1F
100
AcDbEntity
  8
0
  6
Continuous
 62
     7
370
    25
100
AcDbLine
 10
828.5597117585
 20
1524.9116616473
 30
0.0
 11
774.8943270851
 21
1524.9116616473
 31
0.0
  0
LINE
  5
10B
330
1F
100
AcDbEntity
  8
0
  6
Continuous
 62
     7
370
    25
100
AcDbLine
 10
1700.8943270851
 20
1534.9116616473
 30
0.0
 11
1646.5545811204
 21
1534.9116616473
 31
0.0
  0
LINE
  5
10C
330
1F
100
AcDbEntity
  8
0
  6
Continuous
 62
     7
370
    25
100
AcDbLine
 10
1629.2340730497
 20
1534.9116616473
 30
0.0
 11
846.5545811204
 21
1534.9116616473
 31
0.0
  0
LINE
  5
10D
330
1F
100
AcDbEntity
  8
0
  6
Continuous
 62
     7
370
    25
100
AcDbLine
 10
829.2340730497
 20
1534.9116616473
 30
0.0
 11
774.8943270851
 21
1534.9116616473
 31
0.0
  0
LINE
  5
10E
330
1F
100
AcDbEntity
  8
0
  6
Continuous
 62
     7
370
    25
100
AcDbLine
 10
737.8943270851
 20
1524.9116616473
 30
0.0
 11
737.8943270851
 21
1534.9116616473
 31
0.0
  0
LINE
  5
10F
330
1F
100
AcDbEntity
  8
0
  6
Continuous
 62
     7
370
    25
100
AcDbLine
 10
774.8943270851
 20
1524.9116616473
 30
0.0
 11
737.8943270851
 21
1524.9116616473
 31
0.0
  0
LINE
  5
110
330
1F
100
AcDbEntity
  8
0
  6
Continuous
 62
     7
370
    25
100
AcDbLine
 10
737.8943270851
 20
1534.9116616473
 30
0.0
 11
774.8943270851
 21
1534.9116616473
 31
0.0
  0
LINE
  5
111
330
1F
100
AcDbEntity
  8
0
  6
Continuous
 62
     7
370
    25
100
AcDbLine
 10
1737.8943270851
 20
1534.9116616473
 30
0.0
 11
1737.8943270851
 21
1524.9116616473
 31
0.0
  0
LINE
  5
112
330
1F
100
AcDbEntity
  8
0
  6
Continuous
 62
     7
370
    25
100
AcDbLine
 10
1737.8943270851
 20
1524.9116616473
 30
0.0
 11
1700.8943270851
 21
1524.9116616473
 31
0.0
  0
LINE
  5
113
330
1F
100
AcDbEntity
  8
0
  6
Continuous
 62
     7
370
    25
100
AcDbLine
 10
1700.8943270851
 20
1534.9116616473
 30
0.0
 11
1737.8943270851
 21
1534.9116616473
 31
0.0
  0
LINE
  5
114
330
1F
100
AcDbEntity
  8
0
  6
Continuous
 62
     7
370
    25
100
AcDbLine
 10
1628.5597117585
 20
1489.9116616473
 30
0.0
 11
847.2289424117
 21
1489.9116616473
 31
0.0
  0
SPLINE
  5
115
330
1F
100
AcDbEntity
  8
0
  6
Continuous
 62
     7
370
    25
100
AcDbSpline
210
0.0
220
0.0
230
1.0
 70
     8
 71
     3
 72
    31
 73
    27
 74
     0
 42
0.000000001
 43
0.00000001
 40
0.0
 40
0.0
 40
0.0
 40
0.0
 40
0.0425768439200338
 40
0.0854562266634101
 40
0.129265521299303
 40
0.1733896051365592
 40
0.244892792882775
 40
0.2814175395970622
 40
0.3182118727426363
 40
0.3578509173303935
 40
0.3981484105825088
 40
0.4288224096626725
 40
0.4602420416076469
 40
0.4856042083258864
 40
0.5116936315327073
 40
0.5370616943793033
 40
0.563094990978846
 40
0.5995472643023703
 40
0.6370102149324253
 40
0.6959998903666353
 40
0.7565561265102948
 40
0.7981804952569115
 40
0.8401079728424065
 40
0.8829363933459073
 40
0.9260588511262499
 40
1.0
 40
1.0
 40
1.0
 40
1.0
 10
835.0126608837711
 20
1536.824617519713
 30
0.0
 10
835.0297371952813
 20
1536.72495824514
 30
0.0
 10
835.0640111576661
 20
1536.524931545815
 30
0.0
 10
835.1615254687754
 20
1536.218024445254
 30
0.0
 10
835.2927325542704
 20
1535.906500247452
 30
0.0
 10
835.4958090044324
 20
1535.527927229302
 30
0.0
 10
835.7420491973821
 20
1535.171355293218
 30
0.0
 10
836.0242029014104
 20
1534.845583177183
 30
0.0
 10
836.2711039585267
 20
1534.602154591944
 30
0.0
 10
836.5571539633006
 20
1534.367856624628
 30
0.0
 10
836.8619588801031
 20
1534.172260822057
 30
0.0
 10
837.173267689654
 20
1534.025709618521
 30
0.0
 10
837.4603362599092
 20
1533.936277985993
 30
0.0
 10
837.7453787011075
 20
1533.892237757796
 30
0.0
 10
838.0142430541005
 20
1533.890091018801
 30
0.0
 10
838.2816674608939
 20
1533.927249230904
 30
0.0
 10
838.5728449737974
 20
1534.009069120728
 30
0.0
 10
838.8813960379159
 20
1534.146753188537
 30
0.0
 10
839.2514015838674
 20
1534.377516731443
 30
0.0
 10
839.6309337261118
 20
1534.698289683202
 30
0.0
 10
839.955520294701
 20
1535.058457405768
 30
0.0
 10
840.2003531545748
 20
1535.392492297982
 30
0.0
 10
840.3836818442469
 20
1535.690675766786
 30
0.0
 10
840.5359265727445
 20
1535.994780638588
 30
0.0
 10
840.6886586909103
 20
1536.375799315082
 30
0.0
 10
840.742184597626
 20
1536.650872454601
 30
0.0
 10
840.7759932863396
 20
1536.824617519712
 30
0.0
  0
SPLINE
  5
116
330
1F
100
AcDbEntity
  8
0
  6
Continuous
 62
     7
370
    25
100
AcDbSpline
210
0.0
220
0.0
230
1.0
 70
     8
 71
     3
 72
    18
 73
    14
 74
     0
 42
0.000000001
 43
0.00000001
 40
0.0
 40
0.0
 40
0.0
 40
0.0
 40
0.0994393580251002
 40
0.1996035160115407
 40
0.3019034527585311
 40
0.4048863148432609
 40
0.5059427308785606
 40
0.6076522284672541
 40
0.7116444511471902
 40
0.8165917800980498
 40
0.8799943249806098
 40
0.9438684988625994
 40
1.0
 40
1.0
 40
1.0
 40
1.0
 10
845.3140970137792
 20
1536.550305939329
 30
0.0
 10
845.4224758371847
 20
1536.431706609066
 30
0.0
 10
845.6400234425049
 20
1536.193643494147
 30
0.0
 10
845.9387256332498
 20
1535.825566444432
 30
0.0
 10
846.2157775328973
 20
1535.449562290647
 30
0.0
 10
846.4644112492473
 20
1535.070027808151
 30
0.0
 10
846.6826545753919
 20
1534.691220212668
 30
0.0
 10
846.8701600026643
 20
1534.313699980252
 30
0.0
 10
847.02563717142
 20
1533.938055905934
 30
0.0
 10
847.129050511739
 20
1533.61950179499
 30
0.0
 10
847.1901818641742
 20
1533.364094425416
 30
0.0
 10
847.2230242503236
 20
1533.173150032389
 30
0.0
 10
847.2261887071575
 20
1533.068405460514
 30
0.0
 10
847.2276688514286
 20
1533.0194121937
 30
0.0
  0
SPLINE
  5
117
330
1F
100
AcDbEntity
  8
0
  6
Continuous
 62
     7
370
    25
100
AcDbSpline
210
0.0
220
0.0
230
1.0
 70
     8
 71
     3
 72
    14
 73
    10
 74
     0
 42
0.000000001
 43
0.00000001
 40
0.0
 40
0.0
 40
0.0
 40
0.0
 40
0.2204300636816468
 40
0.3399443732551065
 40
0.4603671101701679
 40
0.5640212293774038
 40
0.6631726788869601
 40
0.8102691653342999
 40
1.0
 40
1.0
 40
1.0
 40
1.0
 10
845.1269826908093
 20
1536.590518564083
 30
0.0
 10
845.0863441843809
 20
1536.646866476709
 30
0.0
 10
845.0236720090564
 20
1536.733765493668
 30
0.0
 10
844.9826579846637
 20
1536.81111700803
 30
0.0
 10
844.9832612904385
 20
1536.837389652933
 30
0.0
 10
845.0172537077231
 20
1536.824819430393
 30
0.0
 10
845.0792565485882
 20
1536.77941429798
 30
0.0
 10
845.1796754630111
 20
1536.689951071135
 30
0.0
 10
845.265661883216
 20
1536.6006232445
 30
0.0
 10
845.3140970137795
 20
1536.550305939329
 30
0.0
  0
SPLINE
  5
118
330
1F
100
AcDbEntity
  8
0
  6
Continuous
 62
     7
370
    25
100
AcDbSpline
210
0.0
220
0.0
230
1.0
 70
     8
 71
     3
 72
    25
 73
    21
 74
     0
 42
0.000000001
 43
0.00000001
 40
0.0
 40
0.0
 40
0.0
 40
0.0
 40
0.0863534354811905
 40
0.1752012878124599
 40
0.2620202071647384
 40
0.306739053662444
 40
0.3519417885941311
 40
0.3854351630923001
 40
0.419361938251751
 40
0.452921017224374
 40
0.4876706301567008
 40
0.5343321995009287
 40
0.5808912372373959
 40
0.6174915337674353
 40
0.6550813421275928
 40
0.7176592106518791
 40
0.7818739695914252
 40
0.8689355796086901
 40
0.9585132438224565
 40
1.0
 40
1.0
 40
1.0
 40
1.0
 10
841.5336037130861
 20
1536.807357759751
 30
0.0
 10
841.73190549801
 20
1536.596532845547
 30
0.0
 10
842.1342372396552
 20
1536.168793100562
 30
0.0
 10
842.7917423328922
 20
1535.512818766861
 30
0.0
 10
843.3582605541895
 20
1534.967952374123
 30
0.0
 10
843.817350416362
 20
1534.548779550657
 30
0.0
 10
844.1393869800304
 20
1534.270543253316
 30
0.0
 10
844.4333925848957
 20
1534.036642512693
 30
0.0
 10
844.6962047266551
 20
1533.849900871998
 30
0.0
 10
844.9587283736631
 20
1533.69646735469
 30
0.0
 10
845.242397086823
 20
1533.584062047082
 30
0.0
 10
845.5227482392033
 20
1533.571698331206
 30
0.0
 10
845.7284441012389
 20
1533.696791390879
 30
0.0
 10
845.8542801878011
 20
1533.886709009664
 30
0.0
 10
845.9411900140301
 20
1534.149647776062
 30
0.0
 10
845.9693047292767
 20
1534.514042521773
 30
0.0
 10
845.9049726401203
 20
1535.024465365157
 30
0.0
 10
845.7116691179086
 20
1535.622193820138
 30
0.0
 10
845.4266363223478
 20
1536.167548581716
 30
0.0
 10
845.1990288941246
 20
1536.488823212722
 30
0.0
 10
845.1269826908093
 20
1536.590518564083
 30
0.0
  0
SPLINE
  5
119
330
1F
100
AcDbEntity
  8
0
  6
Continuous
 62
     7
370
    25
100
AcDbSpline
210
0.0
220
0.0
230
1.0
 70
     8
 71
     3
 72
    14
 73
    10
 74
     0
 42
0.000000001
 43
0.00000001
 40
0.0
 40
0.0
 40
0.0
 40
0.0
 40
0.2240635092468812
 40
0.3487071205324254
 40
0.4742528072796943
 40
0.582549286062515
 40
0.6866084231150325
 40
0.8379727149430984
 40
1.0
 40
1.0
 40
1.0
 40
1.0
 10
840.7759932863396
 20
1536.824617519712
 30
0.0
 10
840.7906159418159
 20
1536.879491140936
 30
0.0
 10
840.8133729900424
 20
1536.964890242799
 30
0.0
 10
840.9150471887874
 20
1537.040776172115
 30
0.0
 10
841.0237317909098
 20
1537.066520891071
 30
0.0
 10
841.1447123588475
 20
1537.053744060772
 30
0.0
 10
841.2750017257683
 20
1537.008370566989
 30
0.0
 10
841.4128835084242
 20
1536.926197272417
 30
0.0
 10
841.4924611153083
 20
1536.847859399749
 30
0.0
 10
841.5336037130861
 20
1536.807357759751
 30
0.0
  0
SPLINE
  5
11A
330
1F
100
AcDbEntity
  8
0
  6
Continuous
 62
     7
370
    25
100
AcDbSpline
210
0.0
220
0.0
230
1.0
 70
     8
 71
     3
 72
    14
 73
    10
 74
     0
 42
0.000000001
 43
0.00000001
 40
0.0
 40
0.0
 40
0.0
 40
0.0
 40
0.2236978580034598
 40
0.3528357075717348
 40
0.4829964006464933
 40
0.5936020866478993
 40
0.697046383985613
 40
0.8440092931474584
 40
1.0
 40
1.0
 40
1.0
 40
1.0
 10
834.2550504570216
 20
1536.807357759747
 30
0.0
 10
834.31358875691
 20
1536.863134910686
 30
0.0
 10
834.4059204521955
 20
1536.951111481824
 30
0.0
 10
834.5728642318606
 20
1537.033997779745
 30
0.0
 10
834.7083536453566
 20
1537.065791036509
 30
0.0
 10
834.8228510684097
 20
1537.056797337548
 30
0.0
 10
834.916700578623
 20
1537.014796366817
 30
0.0
 10
834.9868815035036
 20
1536.937430381691
 30
0.0
 10
835.003898723418
 20
1536.862961513101
 30
0.0
 10
835.0126608837711
 20
1536.824617519712
 30
0.0
  0
SPLINE
  5
11B
330
1F
100
AcDbEntity
  8
0
  6
Continuous
 62
     7
370
    25
100
AcDbSpline
210
0.0
220
0.0
230
1.0
 70
     8
 71
     3
 72
    25
 73
    21
 74
     0
 42
0.000000001
 43
0.00000001
 40
0.0
 40
0.0
 40
0.0
 40
0.0
 40
0.0875279947747077
 40
0.1775894167757405
 40
0.2471189321081224
 40
0.3182300544307207
 40
0.3543941983068584
 40
0.3910959660048202
 40
0.4196128949804163
 40
0.4488176980690849
 40
0.4955677239741458
 40
0.5422939578261109
 40
0.576285278595724
 40
0.6112087183676487
 40
0.6688382656568885
 40
0.7279620571790819
 40
0.8132217551468687
 40
0.9009245334796622
 40
0.9502356752284362
 40
1.0
 40
1.0
 40
1.0
 40
1.0
 10
830.6616714793015
 20
1536.590518564083
 30
0.0
 10
830.5156253948219
 20
1536.374809594814
 30
0.0
 10
830.219306039719
 20
1535.937148134108
 30
0.0
 10
829.9662197768371
 20
1535.318491934187
 30
0.0
 10
829.8365509065113
 20
1534.755073896925
 30
0.0
 10
829.8241237458155
 20
1534.344470954885
 30
0.0
 10
829.8781535904707
 20
1534.043214722994
 30
0.0
 10
829.9520696697595
 20
1533.855516075328
 30
0.0
 10
830.056149004364
 20
1533.713239452719
 30
0.0
 10
830.2095022729443
 20
1533.600234214455
 30
0.0
 10
830.4539594729544
 20
1533.561586199549
 30
0.0
 10
830.7642895751123
 20
1533.661798009172
 30
0.0
 10
831.0600607763153
 20
1533.828694325162
 30
0.0
 10
831.3891951718841
 20
1534.058714179326
 30
0.0
 10
831.7860357904808
 20
1534.383634173793
 30
0.0
 10
832.3118959914597
 20
1534.8561834524
 30
0.0
 10
832.9108142885149
 20
1535.428065313496
 30
0.0
 10
833.4682019724135
 20
1535.983416835459
 30
0.0
 10
833.9178887368085
 20
1536.445929298108
 30
0.0
 10
834.1423210235846
 20
1536.686514783615
 30
0.0
 10
834.2550504570215
 20
1536.807357759747
 30
0.0
  0
SPLINE
  5
11C
330
1F
100
AcDbEntity
  8
0
  6
Continuous
 62
     7
370
    25
100
AcDbSpline
210
0.0
220
0.0
230
1.0
 70
     8
 71
     3
 72
    14
 73
    10
 74
     0
 42
0.000000001
 43
0.00000001
 40
0.0
 40
0.0
 40
0.0
 40
0.0
 40
0.2198296104785076
 40
0.349917795829291
 40
0.4588983161343722
 40
0.5683999765788834
 40
0.6667094681233259
 40
0.7967198733580303
 40
1.0
 40
1.0
 40
1.0
 40
1.0
 10
830.4745571563254
 20
1536.550305939323
 30
0.0
 10
830.5308956269992
 20
1536.608606765675
 30
0.0
 10
830.6205734162447
 20
1536.7014081704
 30
0.0
 10
830.722836674761
 20
1536.790276691098
 30
0.0
 10
830.7811727248051
 20
1536.830807742974
 30
0.0
 10
830.8071702131807
 20
1536.834530553547
 30
0.0
 10
830.8026475811735
 20
1536.803598176083
 30
0.0
 10
830.7608024810273
 20
1536.727696960863
 30
0.0
 10
830.6992273207644
 20
1536.642488684751
 30
0.0
 10
830.6616714793015
 20
1536.590518564083
 30
0.0
  0
SPLINE
  5
11D
330
1F
100
AcDbEntity
  8
0
  6
Continuous
 62
     7
370
    25
100
AcDbSpline
210
0.0
220
0.0
230
1.0
 70
     8
 71
     3
 72
    17
 73
    13
 74
     0
 42
0.000000001
 43
0.00000001
 40
0.0
 40
0.0
 40
0.0
 40
0.0
 40
0.0318013634362217
 40
0.1380918789683971
 40
0.2469143174288899
 40
0.3433156696650871
 40
0.4404309617128278
 40
0.539539772429159
 40
0.6392602037809926
 40
0.8176166262985181
 40
0.9085382439993716
 40
1.0
 40
1.0
 40
1.0
 40
1.0
 10
828.5624158569276
 20
1533.022012471637
 30
0.0
 10
828.5621174003169
 20
1533.048256727839
 30
0.0
 10
828.560821404494
 20
1533.162217837033
 30
0.0
 10
828.6077690343063
 20
1533.424754238416
 30
0.0
 10
828.7067970617753
 20
1533.777790500186
 30
0.0
 10
828.8430617375108
 20
1534.139329920499
 30
0.0
 10
829.0058884749047
 20
1534.496550531924
 30
0.0
 10
829.2009851382443
 20
1534.862128862565
 30
0.0
 10
829.4863921344869
 20
1535.329495975077
 30
0.0
 10
829.8150764524883
 20
1535.785404627065
 30
0.0
 10
830.175769338933
 20
1536.224000371763
 30
0.0
 10
830.3747647719217
 20
1536.44132287932
 30
0.0
 10
830.4745571563254
 20
1536.550305939323
 30
0.0
  0
SPLINE
  5
11E
330
1F
100
AcDbEntity
  8
0
  6
Continuous
 62
     7
370
    25
100
AcDbSpline
210
0.0
220
0.0
230
1.0
 70
     8
 71
     3
 72
    31
 73
    27
 74
     0
 42
0.000000001
 43
0.00000001
 40
0.0
 40
0.0
 40
0.0
 40
0.0
 40
0.0425768439200338
 40
0.0854562266634101
 40
0.129265521299303
 40
0.1733896051365592
 40
0.244892792882775
 40
0.2814175395970622
 40
0.3182118727426363
 40
0.3578509173303935
 40
0.3981484105825088
 40
0.4288224096626725
 40
0.4602420416076469
 40
0.4856042083258864
 40
0.5116936315327073
 40
0.5370616943793033
 40
0.563094990978846
 40
0.5995472643023703
 40
0.6370102149324253
 40
0.6959998903666353
 40
0.7565561265102948
 40
0.7981804952569115
 40
0.8401079728424065
 40
0.8829363933459073
 40
0.9260588511262499
 40
1.0
 40
1.0
 40
1.0
 40
1.0
 10
1635.012660883771
 20
1536.824617519713
 30
0.0
 10
1635.029737195281
 20
1536.72495824514
 30
0.0
 10
1635.064011157667
 20
1536.524931545815
 30
0.0
 10
1635.161525468775
 20
1536.218024445254
 30
0.0
 10
1635.292732554271
 20
1535.906500247452
 30
0.0
 10
1635.495809004432
 20
1535.527927229303
 30
0.0
 10
1635.742049197382
 20
1535.171355293218
 30
0.0
 10
1636.02420290141
 20
1534.845583177184
 30
0.0
 10
1636.271103958527
 20
1534.602154591944
 30
0.0
 10
1636.557153963301
 20
1534.367856624628
 30
0.0
 10
1636.861958880103
 20
1534.172260822058
 30
0.0
 10
1637.173267689654
 20
1534.025709618521
 30
0.0
 10
1637.460336259909
 20
1533.936277985993
 30
0.0
 10
1637.745378701107
 20
1533.892237757796
 30
0.0
 10
1638.014243054101
 20
1533.890091018802
 30
0.0
 10
1638.281667460893
 20
1533.927249230904
 30
0.0
 10
1638.572844973797
 20
1534.009069120729
 30
0.0
 10
1638.881396037916
 20
1534.146753188538
 30
0.0
 10
1639.251401583867
 20
1534.377516731443
 30
0.0
 10
1639.630933726112
 20
1534.698289683202
 30
0.0
 10
1639.955520294701
 20
1535.058457405768
 30
0.0
 10
1640.200353154575
 20
1535.392492297983
 30
0.0
 10
1640.383681844247
 20
1535.690675766786
 30
0.0
 10
1640.535926572745
 20
1535.994780638589
 30
0.0
 10
1640.68865869091
 20
1536.375799315082
 30
0.0
 10
1640.742184597626
 20
1536.650872454601
 30
0.0
 10
1640.775993286339
 20
1536.824617519713
 30
0.0
  0
SPLINE
  5
11F
330
1F
100
AcDbEntity
  8
0
  6
Continuous
 62
     7
370
    25
100
AcDbSpline
210
0.0
220
0.0
230
1.0
 70
     8
 71
     3
 72
    18
 73
    14
 74
     0
 42
0.000000001
 43
0.00000001
 40
0.0
 40
0.0
 40
0.0
 40
0.0
 40
0.0994393580250996
 40
0.1996035160115394
 40
0.3019034527585293
 40
0.4048863148432584
 40
0.5059427308785575
 40
0.6076522284672502
 40
0.7116444511471858
 40
0.8165917800980447
 40
0.8799943249806043
 40
0.9438684988625935
 40
1.0
 40
1.0
 40
1.0
 40
1.0
 10
1645.314097013779
 20
1536.550305939329
 30
0.0
 10
1645.422475837185
 20
1536.431706609067
 30
0.0
 10
1645.640023442505
 20
1536.193643494147
 30
0.0
 10
1645.93872563325
 20
1535.825566444433
 30
0.0
 10
1646.215777532897
 20
1535.449562290648
 30
0.0
 10
1646.464411249247
 20
1535.070027808152
 30
0.0
 10
1646.682654575392
 20
1534.691220212669
 30
0.0
 10
1646.870160002664
 20
1534.313699980253
 30
0.0
 10
1647.02563717142
 20
1533.938055905935
 30
0.0
 10
1647.129050511739
 20
1533.61950179499
 30
0.0
 10
1647.190181864174
 20
1533.364094425416
 30
0.0
 10
1647.223024250324
 20
1533.173150032389
 30
0.0
 10
1647.226188707158
 20
1533.068405460514
 30
0.0
 10
1647.227668851429
 20
1533.019412193701
 30
0.0
  0
SPLINE
  5
120
330
1F
100
AcDbEntity
  8
0
  6
Continuous
 62
     7
370
    25
100
AcDbSpline
210
0.0
220
0.0
230
1.0
 70
     8
 71
     3
 72
    14
 73
    10
 74
     0
 42
0.000000001
 43
0.00000001
 40
0.0
 40
0.0
 40
0.0
 40
0.0
 40
0.2204300636816468
 40
0.3399443732551065
 40
0.4603671101701679
 40
0.5640212293774038
 40
0.6631726788869601
 40
0.8102691653342999
 40
1.0
 40
1.0
 40
1.0
 40
1.0
 10
1645.126982690809
 20
1536.590518564083
 30
0.0
 10
1645.086344184381
 20
1536.64686647671
 30
0.0
 10
1645.023672009057
 20
1536.733765493668
 30
0.0
 10
1644.982657984664
 20
1536.81111700803
 30
0.0
 10
1644.983261290438
 20
1536.837389652933
 30
0.0
 10
1645.017253707723
 20
1536.824819430394
 30
0.0
 10
1645.079256548588
 20
1536.77941429798
 30
0.0
 10
1645.179675463011
 20
1536.689951071135
 30
0.0
 10
1645.265661883216
 20
1536.6006232445
 30
0.0
 10
1645.314097013779
 20
1536.550305939329
 30
0.0
  0
SPLINE
  5
121
330
1F
100
AcDbEntity
  8
0
  6
Continuous
 62
     7
370
    25
100
AcDbSpline
210
0.0
220
0.0
230
1.0
 70
     8
 71
     3
 72
    25
 73
    21
 74
     0
 42
0.000000001
 43
0.00000001
 40
0.0
 40
0.0
 40
0.0
 40
0.0
 40
0.0863534354811911
 40
0.1752012878124603
 40
0.2620202071647387
 40
0.3067390536624442
 40
0.3519417885941312
 40
0.3854351630923012
 40
0.4193619382517519
 40
0.4529210172243749
 40
0.4876706301567016
 40
0.5343321995009295
 40
0.5808912372373964
 40
0.6174915337674358
 40
0.6550813421275934
 40
0.7176592106518795
 40
0.7818739695914256
 40
0.8689355796086903
 40
0.9585132438224566
 40
1.0
 40
1.0
 40
1.0
 40
1.0
 10
1641.533603713086
 20
1536.807357759751
 30
0.0
 10
1641.73190549801
 20
1536.596532845548
 30
0.0
 10
1642.134237239655
 20
1536.168793100562
 30
0.0
 10
1642.791742332892
 20
1535.512818766862
 30
0.0
 10
1643.358260554189
 20
1534.967952374124
 30
0.0
 10
1643.817350416362
 20
1534.548779550657
 30
0.0
 10
1644.13938698003
 20
1534.270543253316
 30
0.0
 10
1644.433392584895
 20
1534.036642512693
 30
0.0
 10
1644.696204726655
 20
1533.849900871998
 30
0.0
 10
1644.958728373663
 20
1533.69646735469
 30
0.0
 10
1645.242397086823
 20
1533.584062047083
 30
0.0
 10
1645.522748239203
 20
1533.571698331206
 30
0.0
 10
1645.728444101239
 20
1533.69679139088
 30
0.0
 10
1645.854280187801
 20
1533.886709009664
 30
0.0
 10
1645.94119001403
 20
1534.149647776062
 30
0.0
 10
1645.969304729277
 20
1534.514042521774
 30
0.0
 10
1645.90497264012
 20
1535.024465365158
 30
0.0
 10
1645.711669117909
 20
1535.622193820138
 30
0.0
 10
1645.426636322348
 20
1536.167548581717
 30
0.0
 10
1645.199028894124
 20
1536.488823212723
 30
0.0
 10
1645.126982690809
 20
1536.590518564083
 30
0.0
  0
SPLINE
  5
122
330
1F
100
AcDbEntity
  8
0
  6
Continuous
 62
     7
370
    25
100
AcDbSpline
210
0.0
220
0.0
230
1.0
 70
     8
 71
     3
 72
    14
 73
    10
 74
     0
 42
0.000000001
 43
0.00000001
 40
0.0
 40
0.0
 40
0.0
 40
0.0
 40
0.2240635092468812
 40
0.3487071205324254
 40
0.4742528072796943
 40
0.582549286062515
 40
0.6866084231150325
 40
0.8379727149430984
 40
1.0
 40
1.0
 40
1.0
 40
1.0
 10
1640.775993286339
 20
1536.824617519713
 30
0.0
 10
1640.790615941816
 20
1536.879491140936
 30
0.0
 10
1640.813372990042
 20
1536.9648902428
 30
0.0
 10
1640.915047188787
 20
1537.040776172115
 30
0.0
 10
1641.02373179091
 20
1537.066520891072
 30
0.0
 10
1641.144712358847
 20
1537.053744060772
 30
0.0
 10
1641.275001725768
 20
1537.008370566989
 30
0.0
 10
1641.412883508425
 20
1536.926197272417
 30
0.0
 10
1641.492461115308
 20
1536.847859399749
 30
0.0
 10
1641.533603713086
 20
1536.807357759751
 30
0.0
  0
SPLINE
  5
123
330
1F
100
AcDbEntity
  8
0
  6
Continuous
 62
     7
370
    25
100
AcDbSpline
210
0.0
220
0.0
230
1.0
 70
     8
 71
     3
 72
    14
 73
    10
 74
     0
 42
0.000000001
 43
0.00000001
 40
0.0
 40
0.0
 40
0.0
 40
0.0
 40
0.2236978580034598
 40
0.3528357075717348
 40
0.4829964006464933
 40
0.5936020866478993
 40
0.697046383985613
 40
0.8440092931474584
 40
1.0
 40
1.0
 40
1.0
 40
1.0
 10
1634.255050457021
 20
1536.807357759748
 30
0.0
 10
1634.31358875691
 20
1536.863134910687
 30
0.0
 10
1634.405920452195
 20
1536.951111481824
 30
0.0
 10
1634.57286423186
 20
1537.033997779745
 30
0.0
 10
1634.708353645356
 20
1537.065791036509
 30
0.0
 10
1634.82285106841
 20
1537.056797337549
 30
0.0
 10
1634.916700578623
 20
1537.014796366817
 30
0.0
 10
1634.986881503503
 20
1536.937430381691
 30
0.0
 10
1635.003898723418
 20
1536.862961513102
 30
0.0
 10
1635.012660883771
 20
1536.824617519713
 30
0.0
  0
SPLINE
  5
124
330
1F
100
AcDbEntity
  8
0
  6
Continuous
 62
     7
370
    25
100
AcDbSpline
210
0.0
220
0.0
230
1.0
 70
     8
 71
     3
 72
    25
 73
    21
 74
     0
 42
0.000000001
 43
0.00000001
 40
0.0
 40
0.0
 40
0.0
 40
0.0
 40
0.0875279947747077
 40
0.1775894167757406
 40
0.2471189321081225
 40
0.3182300544307208
 40
0.3543941983068585
 40
0.3910959660048203
 40
0.4196128949804164
 40
0.4488176980690851
 40
0.4955677239741459
 40
0.542293957826111
 40
0.5762852785957241
 40
0.6112087183676489
 40
0.6688382656568888
 40
0.7279620571790816
 40
0.8132217551468686
 40
0.9009245334796622
 40
0.9502356752284361
 40
1.0
 40
1.0
 40
1.0
 40
1.0
 10
1630.661671479302
 20
1536.590518564083
 30
0.0
 10
1630.515625394822
 20
1536.374809594814
 30
0.0
 10
1630.219306039719
 20
1535.937148134108
 30
0.0
 10
1629.966219776837
 20
1535.318491934187
 30
0.0
 10
1629.836550906511
 20
1534.755073896925
 30
0.0
 10
1629.824123745816
 20
1534.344470954886
 30
0.0
 10
1629.87815359047
 20
1534.043214722994
 30
0.0
 10
1629.952069669759
 20
1533.855516075329
 30
0.0
 10
1630.056149004364
 20
1533.713239452719
 30
0.0
 10
1630.209502272944
 20
1533.600234214455
 30
0.0
 10
1630.453959472954
 20
1533.561586199549
 30
0.0
 10
1630.764289575112
 20
1533.661798009172
 30
0.0
 10
1631.060060776315
 20
1533.828694325163
 30
0.0
 10
1631.389195171884
 20
1534.058714179326
 30
0.0
 10
1631.786035790481
 20
1534.383634173793
 30
0.0
 10
1632.31189599146
 20
1534.8561834524
 30
0.0
 10
1632.910814288515
 20
1535.428065313496
 30
0.0
 10
1633.468201972413
 20
1535.98341683546
 30
0.0
 10
1633.917888736809
 20
1536.445929298109
 30
0.0
 10
1634.142321023584
 20
1536.686514783615
 30
0.0
 10
1634.255050457021
 20
1536.807357759748
 30
0.0
  0
SPLINE
  5
125
330
1F
100
AcDbEntity
  8
0
  6
Continuous
 62
     7
370
    25
100
AcDbSpline
210
0.0
220
0.0
230
1.0
 70
     8
 71
     3
 72
    14
 73
    10
 74
     0
 42
0.000000001
 43
0.00000001
 40
0.0
 40
0.0
 40
0.0
 40
0.0
 40
0.2198296104785076
 40
0.349917795829291
 40
0.4588983161343722
 40
0.5683999765788834
 40
0.6667094681233259
 40
0.7967198733580303
 40
1.0
 40
1.0
 40
1.0
 40
1.0
 10
1630.474557156326
 20
1536.550305939323
 30
0.0
 10
1630.530895626999
 20
1536.608606765676
 30
0.0
 10
1630.620573416245
 20
1536.7014081704
 30
0.0
 10
1630.722836674761
 20
1536.790276691098
 30
0.0
 10
1630.781172724805
 20
1536.830807742975
 30
0.0
 10
1630.807170213181
 20
1536.834530553547
 30
0.0
 10
1630.802647581173
 20
1536.803598176083
 30
0.0
 10
1630.760802481027
 20
1536.727696960863
 30
0.0
 10
1630.699227320764
 20
1536.642488684751
 30
0.0
 10
1630.661671479302
 20
1536.590518564083
 30
0.0
  0
SPLINE
  5
126
330
1F
100
AcDbEntity
  8
0
  6
Continuous
 62
     7
370
    25
100
AcDbSpline
210
0.0
220
0.0
230
1.0
 70
     8
 71
     3
 72
    17
 73
    13
 74
     0
 42
0.000000001
 43
0.00000001
 40
0.0
 40
0.0
 40
0.0
 40
0.0
 40
0.0318013634362272
 40
0.1380918789684011
 40
0.2469143174288933
 40
0.34331566966509
 40
0.4404309617128302
 40
0.539539772429161
 40
0.6392602037809942
 40
0.8176166262985188
 40
0.9085382439993719
 40
1.0
 40
1.0
 40
1.0
 40
1.0
 10
1628.562415856928
 20
1533.022012471637
 30
0.0
 10
1628.562117400317
 20
1533.048256727839
 30
0.0
 10
1628.560821404494
 20
1533.162217837033
 30
0.0
 10
1628.607769034306
 20
1533.424754238416
 30
0.0
 10
1628.706797061775
 20
1533.777790500186
 30
0.0
 10
1628.843061737511
 20
1534.1393299205
 30
0.0
 10
1629.005888474905
 20
1534.496550531924
 30
0.0
 10
1629.200985138244
 20
1534.862128862565
 30
0.0
 10
1629.486392134487
 20
1535.329495975077
 30
0.0
 10
1629.815076452488
 20
1535.785404627065
 30
0.0
 10
1630.175769338933
 20
1536.224000371763
 30
0.0
 10
1630.374764771922
 20
1536.44132287932
 30
0.0
 10
1630.474557156326
 20
1536.550305939323
 30
0.0
  0
LINE
  5
127
330
1F
100
AcDbEntity
  8
0
  6
Continuous
 62
     7
370
    25
100
AcDbLine
 10
842.3943270851
 20
1241.911661643
 30
0.0
 11
833.3943270851
 21
1241.911661643
 31
0.0
  0
LINE
  5
128
330
1F
100
AcDbEntity
  8
0
  6
Continuous
 62
     7
370
    25
100
AcDbLine
 10
847.3943270851
 20
1249.911661643
 30
0.0
 11
828.3943270851
 21
1249.911661643
 31
0.0
  0
LINE
  5
129
330
1F
100
AcDbEntity
  8
0
  6
Continuous
 62
     7
370
    25
100
AcDbLine
 10
1642.3943270851
 20
1241.911661643
 30
0.0
 11
1633.3943270851
 21
1241.911661643
 31
0.0
  0
LINE
  5
12A
330
1F
100
AcDbEntity
  8
0
  6
Continuous
 62
     7
370
    25
100
AcDbLine
 10
1647.3943270851
 20
1249.911661643
 30
0.0
 11
1628.3943270851
 21
1249.911661643
 31
0.0
  0
LINE
  5
12B
330
1F
100
AcDbEntity
  8
0
  6
Continuous
 62
     8
370
    18
100
AcDbLine
 10
1700.8943270851
 20
1524.9116616473
 30
0.0
 11
1700.8943270851
 21
1534.9116616473
 31
0.0
  0
LINE
  5
12C
330
1F
100
AcDbEntity
  8
0
  6
Continuous
 62
     8
370
    18
100
AcDbLine
 10
774.8943270851
 20
1534.9116616473
 30
0.0
 11
774.8943270851
 21
1524.9116616473
 31
0.0
  0
LINE
  5
12D
330
1F
100
AcDbEntity
  8
0
  6
Continuous
 62
     8
370
    18
100
AcDbLine
 10
1628.5597117585
 20
1492.4116616473
 30
0.0
 11
847.2289424116
 21
1492.4116616473
 31
0.0
  0
LINE
  5
12E
330
1F
100
AcDbEntity
  8
0
  6
Continuous
 62
     8
370
    18
100
AcDbLine
 10
1628.5597117585
 20
1522.4116616473
 30
0.0
 11
847.2289424116
 21
1522.4116616473
 31
0.0
  0
LINE
  5
12F
330
1F
100
AcDbEntity
  8
0
  6
Continuous
 62
     8
370
    18
100
AcDbLine
 10
840.7759932863
 20
1536.8246175197
 30
0.0
 11
840.7759932863
 21
1249.911661643
 31
0.0
  0
LINE
  5
130
330
1F
100
AcDbEntity
  8
0
  6
Continuous
 62
     8
370
    18
100
AcDbLine
 10
835.0126608838
 20
1536.8246175197
 30
0.0
 11
835.0126608838
 21
1249.911661643
 31
0.0
  0
LINE
  5
131
330
1F
100
AcDbEntity
  8
0
  6
Continuous
 62
     8
370
    18
100
AcDbLine
 10
834.255050457
 20
1536.8073577597
 30
0.0
 11
834.255050457
 21
1249.911661643
 31
0.0
  0
LINE
  5
132
330
1F
100
AcDbEntity
  8
0
  6
Continuous
 62
     8
370
    18
100
AcDbLine
 10
841.5336037131
 20
1536.8073577598
 30
0.0
 11
841.5336037131
 21
1249.911661643
 31
0.0
  0
LINE
  5
133
330
1F
100
AcDbEntity
  8
0
  6
Continuous
 62
     8
370
    18
100
AcDbLine
 10
845.3140970138
 20
1536.5503059393
 30
0.0
 11
845.3140970138
 21
1536.3187469572
 31
0.0
  0
LINE
  5
134
330
1F
100
AcDbEntity
  8
0
  6
Continuous
 62
     8
370
    18
100
AcDbLine
 10
830.4745571563
 20
1536.5503059393
 30
0.0
 11
830.4745571563
 21
1536.2946610592
 31
0.0
  0
LINE
  5
135
330
1F
100
AcDbEntity
  8
0
  6
Continuous
 62
     8
370
    18
100
AcDbLine
 10
1640.7759932863
 20
1536.8246175197
 30
0.0
 11
1640.7759932863
 21
1249.911661643
 31
0.0
  0
LINE
  5
136
330
1F
100
AcDbEntity
  8
0
  6
Continuous
 62
     8
370
    18
100
AcDbLine
 10
1635.0126608838
 20
1536.8246175197
 30
0.0
 11
1635.0126608838
 21
1249.911661643
 31
0.0
  0
LINE
  5
137
330
1F
100
AcDbEntity
  8
0
  6
Continuous
 62
     8
370
    18
100
AcDbLine
 10
1634.255050457
 20
1536.8073577597
 30
0.0
 11
1634.255050457
 21
1249.911661643
 31
0.0
  0
LINE
  5
138
330
1F
100
AcDbEntity
  8
0
  6
Continuous
 62
     8
370
    18
100
AcDbLine
 10
1641.5336037131
 20
1536.8073577598
 30
0.0
 11
1641.5336037131
 21
1249.911661643
 31
0.0
  0
LINE
  5
139
330
1F
100
AcDbEntity
  8
0
  6
Continuous
 62
     8
370
    18
100
AcDbLine
 10
1645.3140970138
 20
1536.5503059393
 30
0.0
 11
1645.3140970138
 21
1536.3187469572
 31
0.0
  0
LINE
  5
13A
330
1F
100
AcDbEntity
  8
0
  6
Continuous
 62
     8
370
    18
100
AcDbLine
 10
1630.4745571563
 20
1536.5503059393
 30
0.0
 11
1630.4745571563
 21
1536.2946610592
 31
0.0
  0
LINE
  5
13B
330
1F
100
AcDbEntity
  8
0
  6
Continuous
 62
     8
370
    18
100
AcDbLine
 10
828.3943270851
 20
1246.911661643
 30
0.0
 11
847.3943270851
 21
1246.911661643
 31
0.0
  0
LINE
  5
13C
330
1F
100
AcDbEntity
  8
0
  6
Continuous
 62
     8
370
    18
100
AcDbLine
 10
1628.3943270851
 20
1246.911661643
 30
0.0
 11
1647.3943270851
 21
1246.911661643
 31
0.0
  0
LINE
  5
13D
330
1F
100
AcDbEntity
  8
0
  6
Continuous
 62
     7
370
    25
100
AcDbLine
 10
2196.7744015271
 20
1535.9581738549
 30
0.0
 11
2196.7744015271
 21
1524.461610862
 31
0.0
  0
LINE
  5
13E
330
1F
100
AcDbEntity
  8
0
  6
Continuous
 62
     7
370
    25
100
AcDbLine
 10
2196.7744015271
 20
1490.3617124326
 30
0.0
 11
2196.7744015271
 21
1249.911661643
 31
0.0
  0
ARC
  5
13F
330
1F
100
AcDbEntity
  8
0
  6
Continuous
 62
     7
370
    25
100
AcDbCircle
 10
2201.4724876786
 20
1529.911661643
 30
0.0
 40
9.999999999999984
100
AcDbArc
 50
90.0017723797
 51
139.5998140565
  0
ARC
  5
140
330
1F
100
AcDbEntity
  8
0
  6
Continuous
 62
     7
370
    25
100
AcDbCircle
 10
2201.4724876786
 20
1529.911661643
 30
0.0
 40
9.999999999999893
100
AcDbArc
 50
23.4944062377
 51
90.0017723797
  0
LINE
  5
141
330
1F
100
AcDbEntity
  8
0
  6
Continuous
 62
     7
370
    25
100
AcDbLine
 10
2208.1622657143
 20
1249.911661643
 30
0.0
 11
2208.1622657143
 21
1535.2680565502
 31
0.0
  0
LINE
  5
142
330
1F
100
AcDbEntity
  8
0
  6
Continuous
 62
     7
370
    25
100
AcDbLine
 10
2192.2991104864
 20
1532.681483485
 30
0.0
 11
2192.2991104864
 21
1524.9116616473
 31
0.0
  0
LINE
  5
143
330
1F
100
AcDbEntity
  8
0
  6
Continuous
 62
     7
370
    25
100
AcDbLine
 10
2192.2991104864
 20
1489.9116616473
 30
0.0
 11
2192.2991104864
 21
1249.911661643
 31
0.0
  0
LINE
  5
144
330
1F
100
AcDbEntity
  8
0
  6
Continuous
 62
     7
370
    25
100
AcDbLine
 10
2210.6458648708
 20
1249.911661643
 30
0.0
 11
2210.6458648708
 21
1533.897737681
 31
0.0
  0
ARC
  5
145
330
1F
100
AcDbEntity
  8
0
  6
Continuous
 62
     7
370
    25
100
AcDbCircle
 10
1932.1147120279
 20
1529.911661643
 30
0.0
 40
10.00000000000001
100
AcDbArc
 50
90.0017723797
 51
156.5063598731
  0
ARC
  5
146
330
1F
100
AcDbEntity
  8
0
  6
Continuous
 62
     7
370
    25
100
AcDbCircle
 10
1932.1147120279
 20
1529.911661643
 30
0.0
 40
9.999999999999893
100
AcDbArc
 50
40.4011557872
 51
90.0017723797
  0
LINE
  5
147
330
1F
100
AcDbEntity
  8
0
  6
Continuous
 62
     7
370
    25
100
AcDbLine
 10
1936.8127981794
 20
1249.911661643
 30
0.0
 11
1936.8127981794
 21
1490.3617124326
 31
0.0
  0
LINE
  5
148
330
1F
100
AcDbEntity
  8
0
  6
Continuous
 62
     7
370
    25
100
AcDbLine
 10
1936.8127981794
 20
1524.461610862
 30
0.0
 11
1936.8127981794
 21
1535.9551965753
 31
0.0
  0
LINE
  5
149
330
1F
100
AcDbEntity
  8
0
  6
Continuous
 62
     7
370
    25
100
AcDbLine
 10
1925.4249339922
 20
1535.2685543375
 30
0.0
 11
1925.4249339922
 21
1249.911661643
 31
0.0
  0
LINE
  5
14A
330
1F
100
AcDbEntity
  8
0
  6
Continuous
 62
     7
370
    25
100
AcDbLine
 10
1941.2880892201
 20
1249.911661643
 30
0.0
 11
1941.2880892201
 21
1489.9116616473
 31
0.0
  0
LINE
  5
14B
330
1F
100
AcDbEntity
  8
0
  6
Continuous
 62
     7
370
    25
100
AcDbLine
 10
1941.2880892201
 20
1524.9116616473
 30
0.0
 11
1941.2880892201
 21
1532.6844732418
 31
0.0
  0
LINE
  5
14C
330
1F
100
AcDbEntity
  8
0
  6
Continuous
 62
     7
370
    25
100
AcDbLine
 10
1922.9413348357
 20
1533.897737681
 30
0.0
 11
1922.9413348357
 21
1249.911661643
 31
0.0
  0
ARC
  5
14D
330
1F
100
AcDbEntity
  8
0
  6
Continuous
 62
     7
370
    25
100
AcDbCircle
 10
2196.6458648708
 20
1246.911661643
 30
0.0
 40
5.0
100
AcDbArc
 50
180.0
 51
270.0
  0
ARC
  5
14E
330
1F
100
AcDbEntity
  8
0
  6
Continuous
 62
     7
370
    25
100
AcDbCircle
 10
2205.6458648708
 20
1246.911661643
 30
0.0
 40
5.0
100
AcDbArc
 50
270.0
 51
0.0
  0
LINE
  5
14F
330
1F
100
AcDbEntity
  8
0
  6
Continuous
 62
     7
370
    25
100
AcDbLine
 10
2210.6458648708
 20
1246.911661643
 30
0.0
 11
2210.6458648708
 21
1249.911661643
 31
0.0
  0
LINE
  5
150
330
1F
100
AcDbEntity
  8
0
  6
Continuous
 62
     7
370
    25
100
AcDbLine
 10
2191.6458648708
 20
1249.911661643
 30
0.0
 11
2191.6458648708
 21
1246.911661643
 31
0.0
  0
ARC
  5
151
330
1F
100
AcDbEntity
  8
0
  6
Continuous
 62
     7
370
    25
100
AcDbCircle
 10
1927.9413348357
 20
1246.911661643
 30
0.0
 40
5.0
100
AcDbArc
 50
180.0
 51
270.0
  0
ARC
  5
152
330
1F
100
AcDbEntity
  8
0
  6
Continuous
 62
     7
370
    25
100
AcDbCircle
 10
1936.9413348357
 20
1246.911661643
 30
0.0
 40
5.0
100
AcDbArc
 50
270.0
 51
0.0
  0
LINE
  5
153
330
1F
100
AcDbEntity
  8
0
  6
Continuous
 62
     7
370
    25
100
AcDbLine
 10
1941.9413348357
 20
1246.911661643
 30
0.0
 11
1941.9413348357
 21
1249.911661643
 31
0.0
  0
LINE
  5
154
330
1F
100
AcDbEntity
  8
0
  6
Continuous
 62
     7
370
    25
100
AcDbLine
 10
1922.9413348357
 20
1249.911661643
 30
0.0
 11
1922.9413348357
 21
1246.911661643
 31
0.0
  0
LINE
  5
155
330
1F
100
AcDbEntity
  8
0
  6
Continuous
 62
     7
370
    25
100
AcDbLine
 10
1941.7935998533
 20
1524.9116616473
 30
0.0
 11
1941.7935998533
 21
1534.9116616473
 31
0.0
  0
LINE
  5
156
330
1F
100
AcDbEntity
  8
0
  6
Continuous
 62
     7
370
    25
100
AcDbLine
 10
1941.7935998533
 20
1534.9116616473
 30
0.0
 11
1978.7935998533
 21
1534.9116616473
 31
0.0
  0
LINE
  5
157
330
1F
100
AcDbEntity
  8
0
  6
Continuous
 62
     7
370
    25
100
AcDbLine
 10
1978.7935998533
 20
1524.9116616473
 30
0.0
 11
1941.7935998533
 21
1524.9116616473
 31
0.0
  0
LINE
  5
158
330
1F
100
AcDbEntity
  8
0
  6
Continuous
 62
     7
370
    25
100
AcDbLine
 10
2154.7935998533
 20
1534.9116616473
 30
0.0
 11
1978.7935998533
 21
1534.9116616473
 31
0.0
  0
LINE
  5
159
330
1F
100
AcDbEntity
  8
0
  6
Continuous
 62
     7
370
    25
100
AcDbLine
 10
2154.7935998533
 20
1524.9116616473
 30
0.0
 11
1978.7935998533
 21
1524.9116616473
 31
0.0
  0
LINE
  5
15A
330
1F
100
AcDbEntity
  8
0
  6
Continuous
 62
     7
370
    25
100
AcDbLine
 10
2191.7935998533
 20
1534.9116616473
 30
0.0
 11
2191.7935998533
 21
1524.9116616473
 31
0.0
  0
LINE
  5
15B
330
1F
100
AcDbEntity
  8
0
  6
Continuous
 62
     7
370
    25
100
AcDbLine
 10
2154.7935998533
 20
1534.9116616473
 30
0.0
 11
2191.7935998533
 21
1534.9116616473
 31
0.0
  0
LINE
  5
15C
330
1F
100
AcDbEntity
  8
0
  6
Continuous
 62
     7
370
    25
100
AcDbLine
 10
2191.7935998533
 20
1524.9116616473
 30
0.0
 11
2154.7935998533
 21
1524.9116616473
 31
0.0
  0
SPLINE
  5
15D
330
1F
100
AcDbEntity
  8
0
  6
Continuous
 62
     7
370
    25
100
AcDbSpline
210
0.0
220
0.0
230
1.0
 70
     8
 71
     3
 72
    33
 73
    29
 74
     0
 42
0.000000001
 43
0.00000001
 40
0.0
 40
0.0
 40
0.0
 40
0.0
 40
0.0453846795159052
 40
0.0910956457676959
 40
0.1377861112474767
 40
0.1847984484385705
 40
0.2588563244583131
 40
0.2965960583089471
 40
0.3345934417298375
 40
0.3627068189222558
 40
0.3910552764359991
 40
0.4192115960367016
 40
0.4481447873352776
 40
0.4657876556063235
 40
0.4839178616272925
 40
0.5015746029079658
 40
0.51973908825263
 40
0.5448263126108651
 40
0.5705932132964527
 40
0.6177342306539255
 40
0.6659981837890079
 40
0.7087532480230768
 40
0.7518249524472854
 40
0.7957808044145552
 40
0.8400079168875255
 40
0.9191109597848038
 40
0.9594357012421731
 40
1.0
 40
1.0
 40
1.0
 40
1.0
 10
2196.789290793653
 20
1536.267849152992
 30
0.0
 10
2196.781525701078
 20
1536.144092186038
 30
0.0
 10
2196.765939689893
 20
1535.895688518915
 30
0.0
 10
2196.797311970169
 20
1535.51354210266
 30
0.0
 10
2196.868123567642
 20
1535.124588413206
 30
0.0
 10
2197.004588568197
 20
1534.656033527903
 30
0.0
 10
2197.194343091032
 20
1534.215257068443
 30
0.0
 10
2197.42937711438
 20
1533.812328412309
 30
0.0
 10
2197.621390321333
 20
1533.542900089591
 30
0.0
 10
2197.822601798157
 20
1533.311552928543
 30
0.0
 10
2198.026550452854
 20
1533.120269494163
 30
0.0
 10
2198.260697510656
 20
1532.952589231272
 30
0.0
 10
2198.495135662084
 20
1532.842154732163
 30
0.0
 10
2198.717559250108
 20
1532.787222967952
 30
0.0
 10
2198.910466498475
 20
1532.77293165165
 30
0.0
 10
2199.108588287303
 20
1532.792022730622
 30
0.0
 10
2199.329278472343
 20
1532.8483914308
 30
0.0
 10
2199.569244491865
 20
1532.951005726882
 30
0.0
 10
2199.887933900418
 20
1533.140035047778
 30
0.0
 10
2200.24707361333
 20
1533.422781379767
 30
0.0
 10
2200.615823324351
 20
1533.778256884915
 30
0.0
 10
2200.943848525375
 20
1534.13921051696
 30
0.0
 10
2201.236680638206
 20
1534.496583312588
 30
0.0
 10
2201.508380851966
 20
1534.862120098118
 30
0.0
 10
2201.822588484486
 20
1535.329500522071
 30
0.0
 10
2202.082792460993
 20
1535.785403913915
 30
0.0
 10
2202.288796134287
 20
1536.224000499953
 30
0.0
 10
2202.36826986956
 20
1536.441322922134
 30
0.0
 10
2202.408124420096
 20
1536.550305939323
 30
0.0
  0
SPLINE
  5
15E
330
1F
100
AcDbEntity
  8
0
  6
Continuous
 62
     7
370
    25
100
AcDbSpline
210
0.0
220
0.0
230
1.0
 70
     8
 71
     3
 72
    20
 73
    16
 74
     0
 42
0.000000001
 43
0.00000001
 40
0.0
 40
0.0
 40
0.0
 40
0.0
 40
0.0851485150504282
 40
0.170902070991184
 40
0.2585153377391624
 40
0.3467581446451746
 40
0.4897558329989011
 40
0.5628008889254438
 40
0.6363850849616892
 40
0.715658358269697
 40
0.7962484489095
 40
0.8575927203928351
 40
0.9204281670165979
 40
0.9711494191266761
 40
0.9999999999999999
 40
0.9999999999999999
 40
0.9999999999999999
 40
0.9999999999999999
 10
2208.098726502507
 20
1536.824617519713
 30
0.0
 10
2208.207246880419
 20
1536.724958246481
 30
0.0
 10
2208.425058750878
 20
1536.52493154985
 30
0.0
 10
2208.740583504488
 20
1536.218024428834
 30
0.0
 10
2209.046472474149
 20
1535.906500310695
 30
0.0
 10
2209.398921941616
 20
1535.527926929056
 30
0.0
 10
2209.707385128138
 20
1535.171356795137
 30
0.0
 10
2209.970016197058
 20
1534.845580530823
 30
0.0
 10
2210.156817358783
 20
1534.602165090998
 30
0.0
 10
2210.32760801458
 20
1534.367813697691
 30
0.0
 10
2210.462823445372
 20
1534.172407134678
 30
0.0
 10
2210.560648870462
 20
1534.02530268563
 30
0.0
 10
2210.617264447797
 20
1533.937723900681
 30
0.0
 10
2210.644481480331
 20
1533.894942732086
 30
0.0
 10
2210.643175860138
 20
1533.896994179105
 30
0.0
 10
2210.642702477792
 20
1533.897737977958
 30
0.0
  0
SPLINE
  5
15F
330
1F
100
AcDbEntity
  8
0
  6
Continuous
 62
     7
370
    25
100
AcDbSpline
210
0.0
220
0.0
230
1.0
 70
     8
 71
     3
 72
    14
 73
    10
 74
     0
 42
0.000000001
 43
0.00000001
 40
0.0
 40
0.0
 40
0.0
 40
0.0
 40
0.2236978580034598
 40
0.3528357075717348
 40
0.4829964006464933
 40
0.5936020866478993
 40
0.697046383985613
 40
0.8440092931474584
 40
1.0
 40
1.0
 40
1.0
 40
1.0
 10
2207.733880550044
 20
1536.807357759747
 30
0.0
 10
2207.705494523856
 20
1536.863134910687
 30
0.0
 10
2207.660721615771
 20
1536.951111481824
 30
0.0
 10
2207.656910604023
 20
1537.033997779745
 30
0.0
 10
2207.691375657876
 20
1537.065791036509
 30
0.0
 10
2207.758836058809
 20
1537.056797337549
 30
0.0
 10
2207.851025204316
 20
1537.014796366817
 30
0.0
 10
2207.968486746725
 20
1536.937430381691
 30
0.0
 10
2208.05445927759
 20
1536.862961513101
 30
0.0
 10
2208.098726502507
 20
1536.824617519713
 30
0.0
  0
SPLINE
  5
160
330
1F
100
AcDbEntity
  8
0
  6
Continuous
 62
     7
370
    25
100
AcDbSpline
210
0.0
220
0.0
230
1.0
 70
     8
 71
     3
 72
    25
 73
    21
 74
     0
 42
0.000000001
 43
0.00000001
 40
0.0
 40
0.0
 40
0.0
 40
0.0
 40
0.0875279947747076
 40
0.1775894167757404
 40
0.2471189321081223
 40
0.3182300544307205
 40
0.3543941983068582
 40
0.3910959660048199
 40
0.419612894980416
 40
0.4488176980690846
 40
0.4955677239741455
 40
0.5422939578261106
 40
0.5762852785957236
 40
0.6112087183676483
 40
0.6688382656568881
 40
0.7279620571790819
 40
0.8132217551468688
 40
0.9009245334796623
 40
0.9502356752284362
 40
1.0
 40
1.0
 40
1.0
 40
1.0
 10
2203.227925833786
 20
1536.590518564083
 30
0.0
 10
2203.3989768822
 20
1536.374809594814
 30
0.0
 10
2203.74602991369
 20
1535.937148134108
 30
0.0
 10
2204.32540529713
 20
1535.318491934187
 30
0.0
 10
2204.908437525833
 20
1534.755073896925
 30
0.0
 10
2205.388461726519
 20
1534.344470954885
 30
0.0
 10
2205.799348811383
 20
1534.043214722994
 30
0.0
 10
2206.099287516527
 20
1533.855516075328
 30
0.0
 10
2206.385998268573
 20
1533.713239452719
 30
0.0
 10
2206.706455018213
 20
1533.600234214455
 30
0.0
 10
2207.076450055382
 20
1533.561586199549
 30
0.0
 10
2207.402255132477
 20
1533.661798009172
 30
0.0
 10
2207.636474776274
 20
1533.828694325162
 30
0.0
 10
2207.841826074646
 20
1534.058714179326
 30
0.0
 10
2208.016201326496
 20
1534.383634173793
 30
0.0
 10
2208.149905748219
 20
1534.8561834524
 30
0.0
 10
2208.182422440809
 20
1535.428065313496
 30
0.0
 10
2208.08414762716
 20
1535.98341683546
 30
0.0
 10
2207.922970992062
 20
1536.445929298108
 30
0.0
 10
2207.797102609724
 20
1536.686514783615
 30
0.0
 10
2207.733880550044
 20
1536.807357759747
 30
0.0
  0
SPLINE
  5
161
330
1F
100
AcDbEntity
  8
0
  6
Continuous
 62
     7
370
    25
100
AcDbSpline
210
0.0
220
0.0
230
1.0
 70
     8
 71
     3
 72
    14
 73
    10
 74
     0
 42
0.000000001
 43
0.00000001
 40
0.0
 40
0.0
 40
0.0
 40
0.0
 40
0.2198296104785076
 40
0.349917795829291
 40
0.4588983161343722
 40
0.5683999765788834
 40
0.6667094681233259
 40
0.7967198733580303
 40
1.0
 40
1.0
 40
1.0
 40
1.0
 10
2202.408124420096
 20
1536.550305939323
 30
0.0
 10
2202.434728655027
 20
1536.608606765676
 30
0.0
 10
2202.477076431683
 20
1536.7014081704
 30
0.0
 10
2202.595150885298
 20
1536.790276691098
 30
0.0
 10
2202.711032286261
 20
1536.830807742974
 30
0.0
 10
2202.833036470217
 20
1536.834530553547
 30
0.0
 10
2202.96071145315
 20
1536.803598176083
 30
0.0
 10
2203.106592504049
 20
1536.727696960863
 30
0.0
 10
2203.181958626591
 20
1536.642488684751
 30
0.0
 10
2203.227925833786
 20
1536.590518564083
 30
0.0
  0
SPLINE
  5
162
330
1F
100
AcDbEntity
  8
0
  6
Continuous
 62
     7
370
    25
100
AcDbSpline
210
0.0
220
0.0
230
1.0
 70
     8
 71
     3
 72
    15
 73
    11
 74
     0
 42
0.000000001
 43
0.00000001
 40
0.0
 40
0.0
 40
0.0
 40
0.0
 40
0.2148110296556637
 40
0.3411322673416562
 40
0.4464287003091745
 40
0.5523542512426545
 40
0.6447889097414623
 40
0.7660552293890822
 40
0.9403894463275483
 40
1.0
 40
1.0
 40
1.0
 40
1.0
 10
2196.131861104151
 20
1536.233975823739
 30
0.0
 10
2196.189963868757
 20
1536.294544023833
 30
0.0
 10
2196.282234400027
 20
1536.390729808427
 30
0.0
 10
2196.431220232861
 20
1536.485564153302
 30
0.0
 10
2196.547624554933
 20
1536.531028971567
 30
0.0
 10
2196.644396731046
 20
1536.538249420093
 30
0.0
 10
2196.722091666272
 20
1536.509912167262
 30
0.0
 10
2196.779708755105
 20
1536.439483314471
 30
0.0
 10
2196.795066625552
 20
1536.34961409172
 30
0.0
 10
2196.790463657876
 20
1536.284452678343
 30
0.0
 10
2196.789290793653
 20
1536.267849152992
 30
0.0
  0
SPLINE
  5
163
330
1F
100
AcDbEntity
  8
0
  6
Continuous
 62
     7
370
    25
100
AcDbSpline
210
0.0
220
0.0
230
1.0
 70
     8
 71
     3
 72
    33
 73
    29
 74
     0
 42
0.000000001
 43
0.00000001
 40
0.0
 40
0.0
 40
0.0
 40
0.0
 40
0.0454432397232603
 40
0.0912170391423937
 40
0.137950021517985
 40
0.1849840146143992
 40
0.23165165087071
 40
0.2786054666831018
 40
0.3265572669076812
 40
0.3749371050177973
 40
0.3989747636382652
 40
0.4231769206047895
 40
0.4431234955496033
 40
0.4634796340440158
 40
0.4878744888887387
 40
0.5123837511182208
 40
0.5281127512287178
 40
0.5442716110769352
 40
0.575541891250846
 40
0.6074940067964228
 40
0.6452969753465772
 40
0.6833694665812783
 40
0.7609503045067262
 40
0.8037406836446799
 40
0.8467500403233572
 40
0.8904656812725393
 40
0.934438123637836
 40
1.0
 40
1.0
 40
1.0
 40
1.0
 10
2193.631244891547
 20
1536.103441679703
 30
0.0
 10
2193.530592099567
 20
1535.96647540967
 30
0.0
 10
2193.32855435486
 20
1535.691546560169
 30
0.0
 10
2193.067674148584
 20
1535.2666006753
 30
0.0
 10
2192.838587045304
 20
1534.832321125529
 30
0.0
 10
2192.647460384395
 20
1534.391847665873
 30
0.0
 10
2192.495333024741
 20
1533.949644102749
 30
0.0
 10
2192.382907951528
 20
1533.506112640488
 30
0.0
 10
2192.312586734946
 20
1533.063139359408
 30
0.0
 10
2192.293578212322
 20
1532.702113515558
 30
0.0
 10
2192.307306586472
 20
1532.429085239431
 30
0.0
 10
2192.333005949773
 20
1532.249252495182
 30
0.0
 10
2192.374614656851
 20
1532.098576529703
 30
0.0
 10
2192.436070830478
 20
1531.976854687239
 30
0.0
 10
2192.532037463858
 20
1531.906458743163
 30
0.0
 10
2192.650260574643
 20
1531.936489157114
 30
0.0
 10
2192.760776798192
 20
1532.018395775551
 30
0.0
 10
2192.8876462105
 20
1532.143280793271
 30
0.0
 10
2193.049938120423
 20
1532.340675092336
 30
0.0
 10
2193.260233034379
 20
1532.622250202529
 30
0.0
 10
2193.491397617082
 20
1532.941941607412
 30
0.0
 10
2193.832214073027
 20
1533.411534456632
 30
0.0
 10
2194.204487539083
 20
1533.908873484134
 30
0.0
 10
2194.606745181719
 20
1534.422280107763
 30
0.0
 10
2194.934627701012
 20
1534.828428150846
 30
0.0
 10
2195.272344371089
 20
1535.235304095573
 30
0.0
 10
2195.673825314661
 20
1535.708088622225
 30
0.0
 10
2195.960357172929
 20
1536.037066052693
 30
0.0
 10
2196.131861104151
 20
1536.233975823739
 30
0.0
  0
SPLINE
  5
164
330
1F
100
AcDbEntity
  8
0
  6
Continuous
 62
     7
370
    25
100
AcDbSpline
210
0.0
220
0.0
230
1.0
 70
     8
 71
     3
 72
    15
 73
    11
 74
     0
 42
0.000000001
 43
0.00000001
 40
0.0
 40
0.0
 40
0.0
 40
0.0
 40
0.0462502615453783
 40
0.1921526081006567
 40
0.3147837786431679
 40
0.4381220402568616
 40
0.5463644720299059
 40
0.6916609852821057
 40
0.9041898041718569
 40
1.0
 40
1.0
 40
1.0
 40
1.0
 10
2193.741039030048
 20
1536.245302228384
 30
0.0
 10
2193.749219271371
 20
1536.255892528644
 30
0.0
 10
2193.783205126858
 20
1536.299891281244
 30
0.0
 10
2193.824463305445
 20
1536.351565269645
 30
0.0
 10
2193.859408322716
 20
1536.395514517976
 30
0.0
 10
2193.863479081334
 20
1536.400554730059
 30
0.0
 10
2193.83973744882
 20
1536.370866373339
 30
0.0
 10
2193.781798269879
 20
1536.297868933611
 30
0.0
 10
2193.705172385984
 20
1536.199964707165
 30
0.0
 10
2193.648770616042
 20
1536.126324045724
 30
0.0
 10
2193.631244891547
 20
1536.103441679703
 30
0.0
  0
SPLINE
  5
165
330
1F
100
AcDbEntity
  8
0
  6
Continuous
 62
     7
370
    25
100
AcDbSpline
210
0.0
220
0.0
230
1.0
 70
     8
 71
     3
 72
    33
 73
    29
 74
     0
 42
0.000000001
 43
0.00000001
 40
0.0
 40
0.0
 40
0.0
 40
0.0
 40
0.044121364730135
 40
0.0885643240892558
 40
0.1339549310956324
 40
0.1796485529093073
 40
0.2244874082555803
 40
0.2696160366855505
 40
0.3157575130293611
 40
0.3623227711932918
 40
0.3904545578735323
 40
0.4187956069174326
 40
0.446962820108263
 40
0.4757844533845477
 40
0.4937613087931181
 40
0.5122052114429713
 40
0.530204712012878
 40
0.5487727969964513
 40
0.5721373294163207
 40
0.5961490192902965
 40
0.6384785624501105
 40
0.6818249414600178
 40
0.7221252442697592
 40
0.7627269998852245
 40
0.8041331317540927
 40
0.8457735509867836
 40
0.9221430649462568
 40
1.0
 40
1.0
 40
1.0
 40
1.0
 10
1931.179075286414
 20
1536.550305939329
 30
0.0
 10
1931.222709291391
 20
1536.431706600928
 30
0.0
 10
1931.310295343675
 20
1536.193643469672
 30
0.0
 10
1931.487410795618
 20
1535.825566544041
 30
0.0
 10
1931.695935623054
 20
1535.449561907225
 30
0.0
 10
1931.935679293573
 20
1535.070029237796
 30
0.0
 10
1932.202306943762
 20
1534.691214975193
 30
0.0
 10
1932.496209555163
 20
1534.313719866511
 30
0.0
 10
1932.820951844084
 20
1533.937979549954
 30
0.0
 10
1933.131722091585
 20
1533.619741277003
 30
0.0
 10
1933.417773631121
 20
1533.363582140485
 30
0.0
 10
1933.668190258883
 20
1533.167452145899
 30
0.0
 10
1933.938875236344
 20
1532.992297449761
 30
0.0
 10
1934.195577656511
 20
1532.870427626955
 30
0.0
 10
1934.430187594323
 20
1532.80147235639
 30
0.0
 10
1934.62999124255
 20
1532.774224627688
 30
0.0
 10
1934.829932019408
 20
1532.781281825459
 30
0.0
 10
1935.038530753383
 20
1532.825612749931
 30
0.0
 10
1935.250643088545
 20
1532.913241100051
 30
0.0
 10
1935.509369620478
 20
1533.074552573896
 30
0.0
 10
1935.780189750979
 20
1533.319368668581
 30
0.0
 10
1936.037999574272
 20
1533.63461125026
 30
0.0
 10
1936.25112556546
 20
1533.963332289894
 30
0.0
 10
1936.426148478416
 20
1534.296603028787
 30
0.0
 10
1936.570199215256
 20
1534.639080111262
 30
0.0
 10
1936.712640086505
 20
1535.083692383826
 30
0.0
 10
1936.822233609195
 20
1535.632379759057
 30
0.0
 10
1936.806069110585
 20
1536.054668448431
 30
0.0
 10
1936.797908912859
 20
1536.267849152992
 30
0.0
  0
SPLINE
  5
166
330
1F
100
AcDbEntity
  8
0
  6
Continuous
 62
     7
370
    25
100
AcDbSpline
210
0.0
220
0.0
230
1.0
 70
     8
 71
     3
 72
    14
 73
    10
 74
     0
 42
0.000000001
 43
0.00000001
 40
0.0
 40
0.0
 40
0.0
 40
0.0
 40
0.2204300636816468
 40
0.3399443732551065
 40
0.4603671101701679
 40
0.5640212293774038
 40
0.6631726788869601
 40
0.8102691653342999
 40
1.0
 40
1.0
 40
1.0
 40
1.0
 10
1930.359273872726
 20
1536.590518564083
 30
0.0
 10
1930.409728350566
 20
1536.646866476709
 30
0.0
 10
1930.487538589156
 20
1536.733765493668
 30
0.0
 10
1930.645311978569
 20
1536.81111700803
 30
0.0
 10
1930.777868014919
 20
1536.837389652933
 30
0.0
 10
1930.899437143861
 20
1536.824819430393
 30
0.0
 10
1931.011423139201
 20
1536.77941429798
 30
0.0
 10
1931.117401125447
 20
1536.689951071135
 30
0.0
 10
1931.156852688759
 20
1536.6006232445
 30
0.0
 10
1931.179075286414
 20
1536.550305939329
 30
0.0
  0
SPLINE
  5
167
330
1F
100
AcDbEntity
  8
0
  6
Continuous
 62
     7
370
    25
100
AcDbSpline
210
0.0
220
0.0
230
1.0
 70
     8
 71
     3
 72
    25
 73
    21
 74
     0
 42
0.000000001
 43
0.00000001
 40
0.0
 40
0.0
 40
0.0
 40
0.0
 40
0.0863534354811912
 40
0.1752012878124605
 40
0.2620202071647389
 40
0.3067390536624445
 40
0.3519417885941315
 40
0.3854351630923006
 40
0.4193619382517513
 40
0.4529210172243743
 40
0.4876706301567011
 40
0.5343321995009289
 40
0.580891237237396
 40
0.6174915337674354
 40
0.655081342127593
 40
0.7176592106518792
 40
0.7818739695914253
 40
0.8689355796086902
 40
0.9585132438224565
 40
1.0
 40
1.0
 40
1.0
 40
1.0
 10
1925.85331915647
 20
1536.807357759751
 30
0.0
 10
1925.749498684489
 20
1536.596532845547
 30
0.0
 10
1925.538858768533
 20
1536.168793100562
 30
0.0
 10
1925.412721113421
 20
1535.512818766861
 30
0.0
 10
1925.425039655393
 20
1534.967952374124
 30
0.0
 10
1925.519925753217
 20
1534.548779550657
 30
0.0
 10
1925.62944440212
 20
1534.270543253316
 30
0.0
 10
1925.768982434159
 20
1534.036642512693
 30
0.0
 10
1925.928590063459
 20
1533.849900871998
 30
0.0
 10
1926.13023608531
 20
1533.69646735469
 30
0.0
 10
1926.406482747397
 20
1533.584062047082
 30
0.0
 10
1926.776535650965
 20
1533.571698331206
 30
0.0
 10
1927.178511720657
 20
1533.696791390879
 30
0.0
 10
1927.544111351451
 20
1533.886709009664
 30
0.0
 10
1927.945166590246
 20
1534.149647776062
 30
0.0
 10
1928.404530772972
 20
1534.514042521773
 30
0.0
 10
1928.966625892639
 20
1535.024465365157
 30
0.0
 10
1929.552811053794
 20
1535.622193820138
 30
0.0
 10
1930.031580568939
 20
1536.167548581716
 30
0.0
 10
1930.280486046033
 20
1536.488823212722
 30
0.0
 10
1930.359273872726
 20
1536.590518564083
 30
0.0
  0
SPLINE
  5
168
330
1F
100
AcDbEntity
  8
0
  6
Continuous
 62
     7
370
    25
100
AcDbSpline
210
0.0
220
0.0
230
1.0
 70
     8
 71
     3
 72
    14
 73
    10
 74
     0
 42
0.000000001
 43
0.00000001
 40
0.0
 40
0.0
 40
0.0
 40
0.0
 40
0.2240635092468812
 40
0.3487071205324254
 40
0.4742528072796943
 40
0.582549286062515
 40
0.6866084231150325
 40
0.8379727149430984
 40
1.0
 40
1.0
 40
1.0
 40
1.0
 10
1925.488473204005
 20
1536.824617519712
 30
0.0
 10
1925.553012977394
 20
1536.879491140936
 30
0.0
 10
1925.65345538595
 20
1536.964890242799
 30
0.0
 10
1925.785622789488
 20
1537.040776172115
 30
0.0
 10
1925.868033715898
 20
1537.066520891071
 30
0.0
 10
1925.915464321291
 20
1537.053744060772
 30
0.0
 10
1925.932919800743
 20
1537.008370566989
 30
0.0
 10
1925.915550101017
 20
1536.926197272417
 30
0.0
 10
1925.874528056239
 20
1536.847859399749
 30
0.0
 10
1925.85331915647
 20
1536.807357759751
 30
0.0
  0
SPLINE
  5
169
330
1F
100
AcDbEntity
  8
0
  6
Continuous
 62
     7
370
    25
100
AcDbSpline
210
0.0
220
0.0
230
1.0
 70
     8
 71
     3
 72
    19
 73
    15
 74
     0
 42
0.000000001
 43
0.00000001
 40
0.0
 40
0.0
 40
0.0
 40
0.0
 40
0.0233250737783168
 40
0.0740644302746382
 40
0.1261343389991005
 40
0.1990435281022749
 40
0.2739742005354506
 40
0.3919610641583587
 40
0.5130812487128078
 40
0.5963352873652832
 40
0.6801955822985803
 40
0.7658578778093741
 40
0.8521082853215886
 40
1.0
 40
1.0
 40
1.0
 40
1.0
 10
1922.944497152633
 20
1533.897737858285
 30
0.0
 10
1922.943779986741
 20
1533.896609639808
 30
0.0
 10
1922.941502759935
 20
1533.89302719203
 30
0.0
 10
1922.964147829487
 20
1533.928654651042
 30
0.0
 10
1923.015627853939
 20
1534.008516744893
 30
0.0
 10
1923.107063382492
 20
1534.146924067119
 30
0.0
 10
1923.26588192546
 20
1534.377440095504
 30
0.0
 10
1923.500597919782
 20
1534.698314983629
 30
0.0
 10
1923.786543264818
 20
1535.058452889508
 30
0.0
 10
1924.070713493233
 20
1535.392493320518
 30
0.0
 10
1924.338270582918
 20
1535.690675485878
 30
0.0
 10
1924.626120722558
 20
1535.994780713438
 30
0.0
 10
1925.00389714945
 20
1536.375799280086
 30
0.0
 10
1925.300885674618
 20
1536.650872441053
 30
0.0
 10
1925.488473204005
 20
1536.824617519713
 30
0.0
  0
SPLINE
  5
16A
330
1F
100
AcDbEntity
  8
0
  6
Continuous
 62
     7
370
    25
100
AcDbSpline
210
0.0
220
0.0
230
1.0
 70
     8
 71
     3
 72
    14
 73
    10
 74
     0
 42
0.000000001
 43
0.00000001
 40
0.0
 40
0.0
 40
0.0
 40
0.0
 40
0.2581146589838684
 40
0.4043299557266232
 40
0.5272241614342144
 40
0.6508269748731961
 40
0.7593015789869604
 40
0.9049097429571609
 40
1.0
 40
1.0
 40
1.0
 40
1.0
 10
1939.955954814965
 20
1536.103441679703
 30
0.0
 10
1939.908990430814
 20
1536.164412793623
 30
0.0
 10
1939.835421934398
 20
1536.259922470946
 30
0.0
 10
1939.762108434741
 20
1536.352453934373
 30
0.0
 10
1939.727973904008
 20
1536.395256469941
 30
0.0
 10
1939.723586780227
 20
1536.400743190289
 30
0.0
 10
1939.747837065999
 20
1536.370339485915
 30
0.0
 10
1939.789172918479
 20
1536.318548622615
 30
0.0
 10
1939.83002260836
 20
1536.266044495501
 30
0.0
 10
1939.846160676464
 20
1536.245302228384
 30
0.0
  0
SPLINE
  5
16B
330
1F
100
AcDbEntity
  8
0
  6
Continuous
 62
     7
370
    25
100
AcDbSpline
210
0.0
220
0.0
230
1.0
 70
     8
 71
     3
 72
    26
 73
    22
 74
     0
 42
0.000000001
 43
0.00000001
 40
0.0
 40
0.0
 40
0.0
 40
0.0
 40
0.0896959764739914
 40
0.1819074482087703
 40
0.2741027935358051
 40
0.3212761778329846
 40
0.3688069727726445
 40
0.4236032023576916
 40
0.4509844832888552
 40
0.4791952421398642
 40
0.5037433136994383
 40
0.5283932366349161
 40
0.5611050865776558
 40
0.6012574653172079
 40
0.6425332155015527
 40
0.6854357108624528
 40
0.728647557496622
 40
0.8168921308727657
 40
0.9072309307633619
 40
0.95344823837161
 40
1.0
 40
1.0
 40
1.0
 40
1.0
 10
1937.455338602362
 20
1536.233975823739
 30
0.0
 10
1937.690521767269
 20
1535.963577692696
 30
0.0
 10
1938.16748373448
 20
1535.415198200638
 30
0.0
 10
1938.878487299297
 20
1534.557145685869
 30
0.0
 10
1939.445573326637
 20
1533.827555726032
 30
0.0
 10
1939.875832829699
 20
1533.245834914474
 30
0.0
 10
1940.20475532437
 20
1532.791137603502
 30
0.0
 10
1940.477300070491
 20
1532.415650323644
 30
0.0
 10
1940.702792278166
 20
1532.138789446089
 30
0.0
 10
1940.864275638713
 20
1531.978745340936
 30
0.0
 10
1941.012334305754
 20
1531.905098155696
 30
0.0
 10
1941.139839021763
 20
1531.950363613338
 30
0.0
 10
1941.234613421448
 20
1532.135776933822
 30
0.0
 10
1941.285504544324
 20
1532.431351977833
 30
0.0
 10
1941.292830448015
 20
1532.790316966389
 30
0.0
 10
1941.259374354575
 20
1533.176408497172
 30
0.0
 10
1941.162866219039
 20
1533.717030906103
 30
0.0
 10
1940.948201416972
 20
1534.415911899373
 30
0.0
 10
1940.609019651044
 20
1535.119789064263
 30
0.0
 10
1940.264133245264
 20
1535.683651106713
 30
0.0
 10
1940.058927563098
 20
1535.963175571854
 30
0.0
 10
1939.955954814965
 20
1536.103441679703
 30
0.0
  0
SPLINE
  5
16C
330
1F
100
AcDbEntity
  8
0
  6
Continuous
 62
     7
370
    25
100
AcDbSpline
210
0.0
220
0.0
230
1.0
 70
     8
 71
     3
 72
    15
 73
    11
 74
     0
 42
0.000000001
 43
0.00000001
 40
0.0
 40
0.0
 40
0.0
 40
0.0
 40
0.2153296810343193
 40
0.3327055588565636
 40
0.4327106172887984
 40
0.5331289091056565
 40
0.6249491950544266
 40
0.7533679527279796
 40
0.9418458044828419
 40
1.0
 40
1.0
 40
1.0
 40
1.0
 10
1936.797908912859
 20
1536.267849152992
 30
0.0
 10
1936.797252841659
 20
1536.327001744418
 30
0.0
 10
1936.796239147056
 20
1536.418398322417
 30
0.0
 10
1936.854979998603
 20
1536.501576333695
 30
0.0
 10
1936.926913273661
 20
1536.535871146358
 30
0.0
 10
1937.016870465698
 20
1536.534836949475
 30
0.0
 10
1937.126439823758
 20
1536.500071845456
 30
0.0
 10
1937.264782392366
 20
1536.419750917946
 30
0.0
 10
1937.377104728709
 20
1536.320924930558
 30
0.0
 10
1937.440411327617
 20
1536.250565993005
 30
0.0
 10
1937.455338602362
 20
1536.233975823739
 30
0.0
  0
LINE
  5
16D
330
1F
100
AcDbEntity
  8
0
  6
Continuous
 62
     7
370
    25
100
AcDbLine
 10
1940.3509971809
 20
1489.9116616473
 30
0.0
 11
1940.3492161768
 21
1489.9116616473
 31
0.0
  0
LINE
  5
16E
330
1F
100
AcDbEntity
  8
0
  6
Continuous
 62
     7
370
    25
100
AcDbLine
 10
1940.3509971809
 20
1524.9116616473
 30
0.0
 11
1940.3492161768
 21
1524.9116616473
 31
0.0
  0
LINE
  5
16F
330
1F
100
AcDbEntity
  8
0
  6
Continuous
 62
     7
370
    25
100
AcDbLine
 10
2196.9735998533
 20
1492.4116616473
 30
0.0
 11
2196.9735998533
 21
1492.1661904157
 31
0.0
  0
LINE
  5
170
330
1F
100
AcDbEntity
  8
0
  6
Continuous
 62
     7
370
    25
100
AcDbLine
 10
2193.2379835297
 20
1489.9116616473
 30
0.0
 11
1940.3509971809
 21
1489.9116616473
 31
0.0
  0
LINE
  5
171
330
1F
100
AcDbEntity
  8
0
  6
Continuous
 62
     7
370
    25
100
AcDbLine
 10
1936.6135998533
 20
1492.4116616473
 30
0.0
 11
1936.6135998533
 21
1492.1788734587
 31
0.0
  0
LINE
  5
172
330
1F
100
AcDbEntity
  8
0
  6
Continuous
 62
     7
370
    25
100
AcDbLine
 10
2193.2379835297
 20
1524.9116616473
 30
0.0
 11
2191.7935998533
 21
1524.9116616473
 31
0.0
  0
LINE
  5
173
330
1F
100
AcDbEntity
  8
0
  6
Continuous
 62
     7
370
    25
100
AcDbLine
 10
1941.7935998533
 20
1524.9116616473
 30
0.0
 11
1940.3509971809
 21
1524.9116616473
 31
0.0
  0
LINE
  5
174
330
1F
100
AcDbEntity
  8
0
  6
Continuous
 62
     7
370
    25
100
AcDbLine
 10
2196.9735998533
 20
1522.6571328789
 30
0.0
 11
2196.9735998533
 21
1522.4116616473
 31
0.0
  0
LINE
  5
175
330
1F
100
AcDbEntity
  8
0
  6
Continuous
 62
     7
370
    25
100
AcDbLine
 10
1936.6135998533
 20
1522.6444498359
 30
0.0
 11
1936.6135998533
 21
1522.4116616473
 31
0.0
  0
LINE
  5
176
330
1F
100
AcDbEntity
  8
0
  6
Continuous
 62
     7
370
    25
100
AcDbLine
 10
2196.9735998533
 20
1522.4116616473
 30
0.0
 11
2196.9735998533
 21
1492.4116616473
 31
0.0
  0
LINE
  5
177
330
1F
100
AcDbEntity
  8
0
  6
Continuous
 62
     7
370
    25
100
AcDbLine
 10
1936.6135998533
 20
1522.4116616473
 30
0.0
 11
1936.6135998533
 21
1492.4116616473
 31
0.0
  0
LINE
  5
178
330
1F
100
AcDbEntity
  8
0
  6
Continuous
 62
     7
370
    25
100
AcDbLine
 10
2205.6458648708
 20
1241.911661643
 30
0.0
 11
2196.6458648708
 21
1241.911661643
 31
0.0
  0
LINE
  5
179
330
1F
100
AcDbEntity
  8
0
  6
Continuous
 62
     7
370
    25
100
AcDbLine
 10
2201.1458648708
 20
1249.911661643
 30
0.0
 11
2191.6458648708
 21
1249.911661643
 31
0.0
  0
LINE
  5
17A
330
1F
100
AcDbEntity
  8
0
  6
Continuous
 62
     7
370
    25
100
AcDbLine
 10
2210.6458648708
 20
1249.911661643
 30
0.0
 11
2201.1458648708
 21
1249.911661643
 31
0.0
  0
LINE
  5
17B
330
1F
100
AcDbEntity
  8
0
  6
Continuous
 62
     7
370
    25
100
AcDbLine
 10
1932.4413348357
 20
1241.911661643
 30
0.0
 11
1927.9413348357
 21
1241.911661643
 31
0.0
  0
LINE
  5
17C
330
1F
100
AcDbEntity
  8
0
  6
Continuous
 62
     7
370
    25
100
AcDbLine
 10
1936.9413348357
 20
1241.911661643
 30
0.0
 11
1932.4413348357
 21
1241.911661643
 31
0.0
  0
LINE
  5
17D
330
1F
100
AcDbEntity
  8
0
  6
Continuous
 62
     7
370
    25
100
AcDbLine
 10
1941.9413348357
 20
1249.911661643
 30
0.0
 11
1922.9413348357
 21
1249.911661643
 31
0.0
  0
LINE
  5
17E
330
1F
100
AcDbEntity
  8
0
  6
Continuous
 62
     8
370
    18
100
AcDbLine
 10
1978.7935998533
 20
1534.9116616473
 30
0.0
 11
1978.7935998533
 21
1524.9116616473
 31
0.0
  0
LINE
  5
17F
330
1F
100
AcDbEntity
  8
0
  6
Continuous
 62
     8
370
    18
100
AcDbLine
 10
2154.7935998533
 20
1524.9116616473
 30
0.0
 11
2154.7935998533
 21
1534.9116616473
 31
0.0
  0
LINE
  5
180
330
1F
100
AcDbEntity
  8
0
  6
Continuous
 62
     8
370
    18
100
AcDbLine
 10
2202.4081244201
 20
1536.5503059393
 30
0.0
 11
2202.4081244201
 21
1249.911661643
 31
0.0
  0
LINE
  5
181
330
1F
100
AcDbEntity
  8
0
  6
Continuous
 62
     8
370
    18
100
AcDbLine
 10
2203.2279258338
 20
1536.5905185641
 30
0.0
 11
2203.2279258338
 21
1249.911661643
 31
0.0
  0
LINE
  5
182
330
1F
100
AcDbEntity
  8
0
  6
Continuous
 62
     8
370
    18
100
AcDbLine
 10
2196.1318611042
 20
1536.2339758237
 30
0.0
 11
2196.1318611042
 21
1524.8353365803
 31
0.0
  0
LINE
  5
183
330
1F
100
AcDbEntity
  8
0
  6
Continuous
 62
     8
370
    18
100
AcDbLine
 10
2196.1318611042
 20
1489.9879867143
 30
0.0
 11
2196.1318611042
 21
1249.911661643
 31
0.0
  0
LINE
  5
184
330
1F
100
AcDbEntity
  8
0
  6
Continuous
 62
     8
370
    18
100
AcDbLine
 10
2208.0987265025
 20
1536.8246175197
 30
0.0
 11
2208.0987265025
 21
1535.7614292521
 31
0.0
  0
LINE
  5
185
330
1F
100
AcDbEntity
  8
0
  6
Continuous
 62
     8
370
    18
100
AcDbLine
 10
1931.1790752864
 20
1536.5503059393
 30
0.0
 11
1931.1790752864
 21
1249.911661643
 31
0.0
  0
LINE
  5
186
330
1F
100
AcDbEntity
  8
0
  6
Continuous
 62
     8
370
    18
100
AcDbLine
 10
1930.3592738727
 20
1536.5905185641
 30
0.0
 11
1930.3592738727
 21
1249.911661643
 31
0.0
  0
LINE
  5
187
330
1F
100
AcDbEntity
  8
0
  6
Continuous
 62
     8
370
    18
100
AcDbLine
 10
1937.4553386024
 20
1536.2339758237
 30
0.0
 11
1937.4553386024
 21
1524.8353365803
 31
0.0
  0
LINE
  5
188
330
1F
100
AcDbEntity
  8
0
  6
Continuous
 62
     8
370
    18
100
AcDbLine
 10
1937.4553386024
 20
1489.9879867143
 30
0.0
 11
1937.4553386024
 21
1249.911661643
 31
0.0
  0
LINE
  5
189
330
1F
100
AcDbEntity
  8
0
  6
Continuous
 62
     8
370
    18
100
AcDbLine
 10
1925.488473204
 20
1536.8246175197
 30
0.0
 11
1925.488473204
 21
1535.7643068266
 31
0.0
  0
LINE
  5
18A
330
1F
100
AcDbEntity
  8
0
  6
Continuous
 62
     8
370
    18
100
AcDbLine
 10
1938.3899561257
 20
1490.0311248517
 30
0.0
 11
1936.913814895
 21
1490.0311248517
 31
0.0
  0
SPLINE
  5
18B
330
1F
100
AcDbEntity
  8
0
  6
Continuous
 62
     8
370
    18
100
AcDbSpline
210
0.0
220
0.0
230
1.0
 70
     8
 71
     3
 72
    12
 73
     8
 74
     0
 42
0.000000001
 43
0.00000001
 40
0.0
 40
0.0
 40
0.0
 40
0.0
 40
0.219578120873526
 40
0.4458315737196779
 40
0.6652629178381352
 40
0.8909105091177146
 40
1.0
 40
1.0
 40
1.0
 40
1.0
 10
1940.350997180889
 20
1489.911661647306
 30
0.0
 10
1940.229599741725
 20
1489.915608839162
 30
0.0
 10
1939.983114294393
 20
1489.92362322033
 30
0.0
 10
1939.559079598365
 20
1489.966800570154
 30
0.0
 10
1939.103376191497
 20
1490.006905872712
 30
0.0
 10
1938.708833179877
 20
1490.028626501703
 30
0.0
 10
1938.468333892193
 20
1490.030510774638
 30
0.0
 10
1938.389956125734
 20
1490.031124851733
 30
0.0
  0
SPLINE
  5
18C
330
1F
100
AcDbEntity
  8
0
  6
Continuous
 62
     8
370
    18
100
AcDbSpline
210
0.0
220
0.0
230
1.0
 70
     8
 71
     3
 72
    14
 73
    10
 74
     0
 42
0.000000001
 43
0.00000001
 40
0.0
 40
0.0
 40
0.0
 40
0.0
 40
0.1539479718609648
 40
0.3080248841198518
 40
0.4611937374070068
 40
0.6144069403333149
 40
0.7809098285381585
 40
0.9473480597504336
 40
1.0
 40
1.0
 40
1.0
 40
1.0
 10
1936.796596622863
 20
1490.183584936547
 30
0.0
 10
1936.804214189804
 20
1490.247677441329
 30
0.0
 10
1936.819455703843
 20
1490.375916132101
 30
0.0
 10
1936.796887908352
 20
1490.630793068232
 30
0.0
 10
1936.755617071388
 20
1490.92329691413
 30
0.0
 10
1936.702827421694
 20
1491.259220953977
 30
0.0
 10
1936.652338754986
 20
1491.635451633817
 30
0.0
 10
1936.623308293811
 20
1491.951708548214
 30
0.0
 10
1936.615480931712
 20
1492.13485866385
 30
0.0
 10
1936.613599853256
 20
1492.178873458675
 30
0.0
  0
SPLINE
  5
18D
330
1F
100
AcDbEntity
  8
0
  6
Continuous
 62
     8
370
    18
100
AcDbSpline
210
0.0
220
0.0
230
1.0
 70
     8
 71
     3
 72
    12
 73
     8
 74
     0
 42
0.000000001
 43
0.00000001
 40
0.0
 40
0.0
 40
0.0
 40
0.0
 40
0.2197775069035125
 40
0.4461484417016928
 40
0.6658453222826375
 40
0.8916605883560174
 40
1.0
 40
1.0
 40
1.0
 40
1.0
 10
1938.389956125734
 20
1524.792198442879
 30
0.0
 10
1938.548023461347
 20
1524.79466382016
 30
0.0
 10
1938.868900226496
 20
1524.799668537192
 30
0.0
 10
1939.333894916363
 20
1524.835795775346
 30
0.0
 10
1939.775541324336
 20
1524.878262093601
 30
0.0
 10
1940.111513995089
 20
1524.907546375875
 30
0.0
 10
1940.292362572943
 20
1524.910654072072
 30
0.0
 10
1940.350997180889
 20
1524.911661647306
 30
0.0
  0
LINE
  5
18E
330
1F
100
AcDbEntity
  8
0
  6
Continuous
 62
     8
370
    18
100
AcDbLine
 10
1936.913814895
 20
1524.7921984429
 30
0.0
 11
1938.3899561257
 21
1524.7921984429
 31
0.0
  0
SPLINE
  5
18F
330
1F
100
AcDbEntity
  8
0
  6
Continuous
 62
     8
370
    18
100
AcDbSpline
210
0.0
220
0.0
230
1.0
 70
     8
 71
     3
 72
    13
 73
     9
 74
     0
 42
0.000000001
 43
0.00000001
 40
0.0
 40
0.0
 40
0.0
 40
0.0
 40
0.2330222149063591
 40
0.3953908221547959
 40
0.5577675836118797
 40
0.7271543319660794
 40
0.8963824501519558
 40
1.0
 40
1.0
 40
1.0
 40
1.0
 10
1936.613599853256
 20
1522.644449835937
 30
0.0
 10
1936.62588011622
 20
1522.838643601711
 30
0.0
 10
1936.646717199377
 20
1523.168150523347
 30
0.0
 10
1936.708253754829
 20
1523.595913165176
 30
0.0
 10
1936.762459863943
 20
1523.944551322953
 30
0.0
 10
1936.804550954295
 20
1524.254772944886
 30
0.0
 10
1936.818666663187
 20
1524.487626487546
 30
0.0
 10
1936.802671169844
 20
1524.597871162076
 30
0.0
 10
1936.796596622863
 20
1524.639738358066
 30
0.0
  0
LINE
  5
190
330
1F
100
AcDbEntity
  8
0
  6
Continuous
 62
     8
370
    18
100
AcDbLine
 10
2196.9735998533
 20
1492.4116616473
 30
0.0
 11
1936.6135998533
 21
1492.4116616473
 31
0.0
  0
LINE
  5
191
330
1F
100
AcDbEntity
  8
0
  6
Continuous
 62
     8
370
    18
100
AcDbLine
 10
2196.9735998533
 20
1522.4116616473
 30
0.0
 11
1936.6135998533
 21
1522.4116616473
 31
0.0
  0
LINE
  5
192
330
1F
100
AcDbEntity
  8
0
  6
Continuous
 62
     8
370
    18
100
AcDbLine
 10
2191.6458648708
 20
1246.911661643
 30
0.0
 11
2210.6458648708
 21
1246.911661643
 31
0.0
  0
LINE
  5
193
330
1F
100
AcDbEntity
  8
0
  6
Continuous
 62
     8
370
    18
100
AcDbLine
 10
1932.4413348357
 20
1246.911661643
 30
0.0
 11
1941.9413348357
 21
1246.911661643
 31
0.0
  0
LINE
  5
194
330
1F
100
AcDbEntity
  8
0
  6
Continuous
 62
     8
370
    18
100
AcDbLine
 10
1922.9413348357
 20
1246.911661643
 30
0.0
 11
1932.4413348357
 21
1246.911661643
 31
0.0
  0
ARC
  5
195
330
1F
100
AcDbEntity
  8
0
  6
Continuous
 62
     7
370
    25
100
AcDbCircle
 10
1700.8943270851
 20
848.9005192214
 30
0.0
 40
37.00000000000011
100
AcDbArc
 50
0.0
 51
90.0
  0
LINE
  5
196
330
1F
100
AcDbEntity
  8
0
  6
Continuous
 62
     7
370
    25
100
AcDbLine
 10
1737.8943270851
 20
848.9005192214
 30
0.0
 11
1737.8943270851
 21
672.9005192214
 31
0.0
  0
ARC
  5
197
330
1F
100
AcDbEntity
  8
0
  6
Continuous
 62
     7
370
    25
100
AcDbCircle
 10
1700.8943270851
 20
672.9005192214
 30
0.0
 40
37.0
100
AcDbArc
 50
270.0
 51
0.0
  0
LINE
  5
198
330
1F
100
AcDbEntity
  8
0
  6
Continuous
 62
     7
370
    25
100
AcDbLine
 10
1700.8943270851
 20
635.9005192214
 30
0.0
 11
774.8943270851
 21
635.9005192214
 31
0.0
  0
ARC
  5
199
330
1F
100
AcDbEntity
  8
0
  6
Continuous
 62
     7
370
    25
100
AcDbCircle
 10
774.8943270851
 20
672.9005192214
 30
0.0
 40
37.00000000000011
100
AcDbArc
 50
180.0
 51
270.0
  0
LINE
  5
19A
330
1F
100
AcDbEntity
  8
0
  6
Continuous
 62
     7
370
    25
100
AcDbLine
 10
737.8943270851
 20
672.9005192214
 30
0.0
 11
737.8943270851
 21
848.9005192214
 31
0.0
  0
ARC
  5
19B
330
1F
100
AcDbEntity
  8
0
  6
Continuous
 62
     7
370
    25
100
AcDbCircle
 10
774.8943270851
 20
848.9005192214
 30
0.0
 40
37.0
100
AcDbArc
 50
90.0
 51
180.0
  0
LINE
  5
19C
330
1F
100
AcDbEntity
  8
0
  6
Continuous
 62
     7
370
    25
100
AcDbLine
 10
774.8943270851
 20
885.9005192214
 30
0.0
 11
1700.8943270851
 21
885.9005192214
 31
0.0
  0
SPLINE
  5
19D
330
1F
100
AcDbEntity
  8
0
  6
Continuous
 62
     7
370
    25
100
AcDbSpline
210
0.0
220
0.0
230
1.0
 70
     8
 71
     3
 72
    33
 73
    29
 74
     0
 42
0.000000001
 43
0.00000001
 40
0.0
 40
0.0
 40
0.0
 40
0.0
 40
0.0441213647301349
 40
0.0885643240892556
 40
0.1339549310956321
 40
0.1796485529093068
 40
0.2244874082555797
 40
0.2696160366855498
 40
0.3157575130293603
 40
0.3623227711932909
 40
0.3904545578735313
 40
0.4187956069174315
 40
0.4469628201082619
 40
0.4757844533845464
 40
0.4937613087931168
 40
0.5122052114429699
 40
0.5302047120128767
 40
0.5487727969964499
 40
0.5721373294163192
 40
0.596149019290295
 40
0.6384785624501088
 40
0.6818249414600187
 40
0.72212524426976
 40
0.7627269998852252
 40
0.8041331317540933
 40
0.8457735509867841
 40
0.922143064946257
 40
1.0
 40
1.0
 40
1.0
 40
1.0
 10
1630.474557156348
 20
896.5150437882154
 30
0.0
 10
1630.366178326588
 20
896.4714097832384
 30
0.0
 10
1630.148630708512
 20
896.3838237309543
 30
0.0
 10
1629.849928614656
 20
896.2067082790104
 30
0.0
 10
1629.572876337839
 20
895.9981834515753
 30
0.0
 10
1629.324244037202
 20
895.758439781056
 30
0.0
 10
1629.105995505109
 20
895.4918121308672
 30
0.0
 10
1628.918509695435
 20
895.1979095194661
 30
0.0
 10
1628.762957376958
 20
894.8731672305445
 30
0.0
 10
1628.659790655352
 20
894.5623969830436
 30
0.0
 10
1628.598072293754
 20
894.2763454435074
 30
0.0
 10
1628.565840193834
 20
894.0259288157455
 30
0.0
 10
1628.555322046358
 20
893.755243838285
 30
0.0
 10
1628.570183917139
 20
893.498541418118
 30
0.0
 10
1628.604450754853
 20
893.2639314803056
 30
0.0
 10
1628.648063455083
 20
893.0641278320793
 30
0.0
 10
1628.706986467744
 20
892.8641870552214
 30
0.0
 10
1628.785037341428
 20
892.6555883212458
 30
0.0
 10
1628.884302345299
 20
892.4434759860837
 30
0.0
 10
1629.033130310936
 20
892.1847494541514
 30
0.0
 10
1629.232305752265
 20
891.9139293236498
 30
0.0
 10
1629.478734202356
 20
891.6561195003563
 30
0.0
 10
1629.736870723093
 20
891.4429935091689
 30
0.0
 10
1630.004130268717
 20
891.2679705962129
 30
0.0
 10
1630.286732222221
 20
891.1239198593734
 30
0.0
 10
1630.665687820657
 20
890.9814789881244
 30
0.0
 10
1631.153657383341
 20
890.871885465434
 30
0.0
 10
1631.554609656998
 20
890.8880499640444
 30
0.0
 10
1631.757019265269
 20
890.89621016177
 30
0.0
  0
SPLINE
  5
19E
330
1F
100
AcDbEntity
  8
0
  6
Continuous
 62
     7
370
    25
100
AcDbSpline
210
0.0
220
0.0
230
1.0
 70
     8
 71
     3
 72
    14
 73
    10
 74
     0
 42
0.000000001
 43
0.00000001
 40
0.0
 40
0.0
 40
0.0
 40
0.0
 40
0.2204300636816468
 40
0.3399443732551065
 40
0.4603671101701679
 40
0.5640212293774038
 40
0.6631726788869601
 40
0.8102691653342999
 40
1.0
 40
1.0
 40
1.0
 40
1.0
 10
1630.661671479318
 20
897.3348452019034
 30
0.0
 10
1630.702309985747
 20
897.2843907240626
 30
0.0
 10
1630.764982161071
 20
897.206580485473
 30
0.0
 10
1630.805996185464
 20
897.0488070960598
 30
0.0
 10
1630.805392879689
 20
896.9162510597097
 30
0.0
 10
1630.771400462405
 20
896.794681930768
 30
0.0
 10
1630.709397621539
 20
896.6826959354275
 30
0.0
 10
1630.608978707116
 20
896.5767179491819
 30
0.0
 10
1630.522992286911
 20
896.5372663858698
 30
0.0
 10
1630.474557156348
 20
896.5150437882154
 30
0.0
  0
SPLINE
  5
19F
330
1F
100
AcDbEntity
  8
0
  6
Continuous
 62
     7
370
    25
100
AcDbSpline
210
0.0
220
0.0
230
1.0
 70
     8
 71
     3
 72
    25
 73
    21
 74
     0
 42
0.000000001
 43
0.00000001
 40
0.0
 40
0.0
 40
0.0
 40
0.0
 40
0.0863534354811913
 40
0.1752012878124606
 40
0.2620202071647391
 40
0.3067390536624447
 40
0.3519417885941311
 40
0.3854351630923001
 40
0.4193619382517509
 40
0.4529210172243739
 40
0.4876706301567008
 40
0.5343321995009286
 40
0.5808912372373958
 40
0.6174915337674352
 40
0.6550813421275927
 40
0.717659210651879
 40
0.7818739695914252
 40
0.8689355796086901
 40
0.9585132438224564
 40
0.9999999999999999
 40
0.9999999999999999
 40
0.9999999999999999
 40
0.9999999999999999
 10
1634.255050457041
 20
901.8407999181595
 30
0.0
 10
1634.056748672117
 20
901.9446203901398
 30
0.0
 10
1633.654416930472
 20
902.1552603060953
 30
0.0
 10
1632.996911837235
 20
902.2813979612076
 30
0.0
 10
1632.430393615938
 20
902.2690794192357
 30
0.0
 10
1631.971303753765
 20
902.1741933214125
 30
0.0
 10
1631.649267190097
 20
902.0646746725088
 30
0.0
 10
1631.355261585232
 20
901.9251366404694
 30
0.0
 10
1631.092449443472
 20
901.7655290111702
 30
0.0
 10
1630.829925796464
 20
901.5638829893188
 30
0.0
 10
1630.546257083305
 20
901.2876363272322
 30
0.0
 10
1630.265905930924
 20
900.9175834236635
 30
0.0
 10
1630.060210068888
 20
900.5156073539721
 30
0.0
 10
1629.934373982326
 20
900.1500077231777
 30
0.0
 10
1629.847464156097
 20
899.7489524843826
 30
0.0
 10
1629.819349440851
 20
899.2895883016572
 30
0.0
 10
1629.883681530007
 20
898.7274931819896
 30
0.0
 10
1630.076985052219
 20
898.1413080208351
 30
0.0
 10
1630.362017847779
 20
897.6625385056897
 30
0.0
 10
1630.589625276003
 20
897.4136330285965
 30
0.0
 10
1630.661671479318
 20
897.3348452019032
 30
0.0
  0
SPLINE
  5
1A0
330
1F
100
AcDbEntity
  8
0
  6
Continuous
 62
     7
370
    25
100
AcDbSpline
210
0.0
220
0.0
230
1.0
 70
     8
 71
     3
 72
    14
 73
    10
 74
     0
 42
0.000000001
 43
0.00000001
 40
0.0
 40
0.0
 40
0.0
 40
0.0
 40
0.2240635092468812
 40
0.3487071205324254
 40
0.4742528072796943
 40
0.582549286062515
 40
0.6866084231150325
 40
0.8379727149430984
 40
1.0
 40
1.0
 40
1.0
 40
1.0
 10
1635.012660883788
 20
902.2056458706244
 30
0.0
 10
1634.998038228311
 20
902.141106097235
 30
0.0
 10
1634.975281180085
 20
902.0406636886785
 30
0.0
 10
1634.87360698134
 20
901.9084962851414
 30
0.0
 10
1634.764922379218
 20
901.8260853587307
 30
0.0
 10
1634.64394181128
 20
901.7786547533377
 30
0.0
 10
1634.513652444359
 20
901.7611992738858
 30
0.0
 10
1634.375770661703
 20
901.7785689736119
 30
0.0
 10
1634.296193054819
 20
901.8195910183897
 30
0.0
 10
1634.255050457041
 20
901.8407999181595
 30
0.0
  0
SPLINE
  5
1A1
330
1F
100
AcDbEntity
  8
0
  6
Continuous
 62
     7
370
    25
100
AcDbSpline
210
0.0
220
0.0
230
1.0
 70
     8
 71
     3
 72
    31
 73
    27
 74
     0
 42
0.000000001
 43
0.00000001
 40
0.0
 40
0.0
 40
0.0
 40
0.0
 40
0.0425768439200337
 40
0.0854562266634099
 40
0.1292655212993027
 40
0.1733896051365588
 40
0.2448927928827744
 40
0.2814175395970614
 40
0.3182118727426355
 40
0.3578509173303925
 40
0.3981484105825077
 40
0.4288224096626714
 40
0.4602420416076457
 40
0.4856042083258851
 40
0.511693631532706
 40
0.5370616943793018
 40
0.5630949909788445
 40
0.5995472643023694
 40
0.637010214932426
 40
0.695999890366636
 40
0.7565561265102955
 40
0.798180495256912
 40
0.8401079728424069
 40
0.8829363933459077
 40
0.9260588511262501
 40
1.0
 40
1.0
 40
1.0
 40
1.0
 10
1640.775993286356
 20
902.2056458706247
 30
0.0
 10
1640.758916974846
 20
902.3141662493898
 30
0.0
 10
1640.724643012461
 20
902.5319781215608
 30
0.0
 10
1640.627128701352
 20
902.8475028621638
 30
0.0
 10
1640.495921615857
 20
903.1533918824822
 30
0.0
 10
1640.292845165695
 20
903.5058411188119
 30
0.0
 10
1640.046604972745
 20
903.8143054513002
 30
0.0
 10
1639.764451268717
 20
904.0769338823995
 30
0.0
 10
1639.517550211601
 20
904.2637434030729
 30
0.0
 10
1639.231500206827
 20
904.434500086179
 30
0.0
 10
1638.926695290024
 20
904.5698358512268
 30
0.0
 10
1638.615386480473
 20
904.6673094767913
 30
0.0
 10
1638.328317910218
 20
904.7251032487684
 30
0.0
 10
1638.043275469021
 20
904.7531230592253
 30
0.0
 10
1637.774411116027
 20
904.7544811132467
 30
0.0
 10
1637.506986709234
 20
904.7308649322541
 30
0.0
 10
1637.21580919633
 20
904.6781399725812
 30
0.0
 10
1636.907258132211
 20
904.587164351449
 30
0.0
 10
1636.53725258626
 20
904.4281884174408
 30
0.0
 10
1636.157720444016
 20
904.1935372430361
 30
0.0
 10
1635.833133875426
 20
903.9075729379841
 30
0.0
 10
1635.588301015553
 20
903.6234062316122
 30
0.0
 10
1635.404972325881
 20
903.3558483130852
 30
0.0
 10
1635.252727597383
 20
903.0679983996664
 30
0.0
 10
1635.099995479217
 20
902.6902219029258
 30
0.0
 10
1635.046469572501
 20
902.3932333913958
 30
0.0
 10
1635.012660883788
 20
902.2056458706244
 30
0.0
  0
SPLINE
  5
1A2
330
1F
100
AcDbEntity
  8
0
  6
Continuous
 62
     7
370
    25
100
AcDbSpline
210
0.0
220
0.0
230
1.0
 70
     8
 71
     3
 72
    14
 73
    10
 74
     0
 42
0.000000001
 43
0.00000001
 40
0.0
 40
0.0
 40
0.0
 40
0.0
 40
0.2236978580034598
 40
0.3528357075717348
 40
0.4829964006464933
 40
0.5936020866478993
 40
0.697046383985613
 40
0.8440092931474584
 40
1.0
 40
1.0
 40
1.0
 40
1.0
 10
1641.533603713106
 20
901.8407999181616
 30
0.0
 10
1641.475065413217
 20
901.8124138919736
 30
0.0
 10
1641.382733717932
 20
901.7676409838886
 30
0.0
 10
1641.215789938267
 20
901.76382997214
 30
0.0
 10
1641.080300524771
 20
901.7982950259928
 30
0.0
 10
1640.965803101718
 20
901.8657554269265
 30
0.0
 10
1640.871953591505
 20
901.9579445724332
 30
0.0
 10
1640.801772666624
 20
902.0754061148423
 30
0.0
 10
1640.784755446709
 20
902.1613786457075
 30
0.0
 10
1640.775993286356
 20
902.2056458706247
 30
0.0
  0
SPLINE
  5
1A3
330
1F
100
AcDbEntity
  8
0
  6
Continuous
 62
     7
370
    25
100
AcDbSpline
210
0.0
220
0.0
230
1.0
 70
     8
 71
     3
 72
    25
 73
    21
 74
     0
 42
0.000000001
 43
0.00000001
 40
0.0
 40
0.0
 40
0.0
 40
0.0
 40
0.0875279947747076
 40
0.1775894167757404
 40
0.2471189321081223
 40
0.3182300544307205
 40
0.3543941983068582
 40
0.3910959660048199
 40
0.419612894980416
 40
0.4488176980690846
 40
0.4955677239741455
 40
0.5422939578261106
 40
0.5762852785957236
 40
0.6112087183676483
 40
0.6688382656568881
 40
0.7279620571790819
 40
0.8132217551468688
 40
0.9009245334796623
 40
0.9502356752284362
 40
1.0
 40
1.0
 40
1.0
 40
1.0
 10
1645.126982690826
 20
897.3348452019037
 30
0.0
 10
1645.273028775305
 20
897.5058962503177
 30
0.0
 10
1645.569348130408
 20
897.8529492818069
 30
0.0
 10
1645.82243439329
 20
898.432324665247
 30
0.0
 10
1645.952103263616
 20
899.0153568939504
 30
0.0
 10
1645.964530424312
 20
899.4953810946363
 30
0.0
 10
1645.910500579657
 20
899.9062681795003
 30
0.0
 10
1645.836584500368
 20
900.2062068846446
 30
0.0
 10
1645.732505165763
 20
900.4929176366902
 30
0.0
 10
1645.579151897183
 20
900.8133743863298
 30
0.0
 10
1645.334694697173
 20
901.1833694234997
 30
0.0
 10
1645.024364595015
 20
901.5091745005943
 30
0.0
 10
1644.728593393812
 20
901.7433941443911
 30
0.0
 10
1644.399458998243
 20
901.9487454427631
 30
0.0
 10
1644.002618379647
 20
902.1231206946131
 30
0.0
 10
1643.476758178668
 20
902.2568251163361
 30
0.0
 10
1642.877839881612
 20
902.2893418089266
 30
0.0
 10
1642.320452197714
 20
902.1910669952779
 30
0.0
 10
1641.870765433319
 20
902.0298903601793
 30
0.0
 10
1641.646333146543
 20
901.9040219778412
 30
0.0
 10
1641.533603713106
 20
901.8407999181616
 30
0.0
  0
SPLINE
  5
1A4
330
1F
100
AcDbEntity
  8
0
  6
Continuous
 62
     7
370
    25
100
AcDbSpline
210
0.0
220
0.0
230
1.0
 70
     8
 71
     3
 72
    14
 73
    10
 74
     0
 42
0.000000001
 43
0.00000001
 40
0.0
 40
0.0
 40
0.0
 40
0.0
 40
0.2198296104785076
 40
0.349917795829291
 40
0.4588983161343722
 40
0.5683999765788834
 40
0.6667094681233259
 40
0.7967198733580303
 40
1.0
 40
1.0
 40
1.0
 40
1.0
 10
1645.314097013802
 20
896.5150437882138
 30
0.0
 10
1645.257758543128
 20
896.5416480231447
 30
0.0
 10
1645.168080753883
 20
896.5839957998003
 30
0.0
 10
1645.065817495366
 20
896.702070253415
 30
0.0
 10
1645.007481445323
 20
896.8179516543787
 30
0.0
 10
1644.981483956946
 20
896.9399558383343
 30
0.0
 10
1644.986006588954
 20
897.0676308212675
 30
0.0
 10
1645.0278516891
 20
897.2135118721665
 30
0.0
 10
1645.089426849363
 20
897.2888779947087
 30
0.0
 10
1645.126982690826
 20
897.3348452019037
 30
0.0
  0
SPLINE
  5
1A5
330
1F
100
AcDbEntity
  8
0
  6
Continuous
 62
     7
370
    25
100
AcDbSpline
210
0.0
220
0.0
230
1.0
 70
     8
 71
     3
 72
    33
 73
    29
 74
     0
 42
0.000000001
 43
0.00000001
 40
0.0
 40
0.0
 40
0.0
 40
0.0
 40
0.0453846795159054
 40
0.0910956457676961
 40
0.1377861112474771
 40
0.184798448438571
 40
0.2588563244583138
 40
0.2965960583089478
 40
0.3345934417298384
 40
0.3627068189222542
 40
0.3910552764359976
 40
0.4192115960367001
 40
0.4481447873352762
 40
0.4657876556063221
 40
0.4839178616272912
 40
0.5015746029079646
 40
0.5197390882526288
 40
0.5448263126108639
 40
0.5705932132964516
 40
0.6177342306539245
 40
0.6659981837890069
 40
0.7087532480230759
 40
0.7518249524472848
 40
0.7957808044145547
 40
0.8400079168875251
 40
0.9191109597848035
 40
0.959435701242173
 40
1.0
 40
1.0
 40
1.0
 40
1.0
 10
1644.031634904876
 20
890.8962101617708
 30
0.0
 10
1644.149739245256
 20
890.8884450691958
 30
0.0
 10
1644.386797020472
 20
890.8728590580107
 30
0.0
 10
1644.738775296482
 20
890.9042313382864
 30
0.0
 10
1645.086033765912
 20
890.9750429357596
 30
0.0
 10
1645.489556736718
 20
891.1115079363145
 30
0.0
 10
1645.851399261114
 20
891.3012624591495
 30
0.0
 10
1646.170756606189
 20
891.5362964824977
 30
0.0
 10
1646.381388408961
 20
891.7283096894504
 30
0.0
 10
1646.563418515571
 20
891.9295211662748
 30
0.0
 10
1646.718413039684
 20
892.1334698209711
 30
0.0
 10
1646.864959298691
 20
892.3676168787733
 30
0.0
 10
1646.9812058784
 20
892.6020550302015
 30
0.0
 10
1647.067944299866
 20
892.8244786182253
 30
0.0
 10
1647.128121384532
 20
893.0173858665929
 30
0.0
 10
1647.174912876149
 20
893.2155076554201
 30
0.0
 10
1647.211115343051
 20
893.4361978404602
 30
0.0
 10
1647.230697220664
 20
893.6761638599819
 30
0.0
 10
1647.22842562239
 20
893.9948532685358
 30
0.0
 10
1647.182390112876
 20
894.353992981447
 30
0.0
 10
1647.081501331056
 20
894.7227426924685
 30
0.0
 10
1646.945683518507
 20
895.0507678934929
 30
0.0
 10
1646.782740688795
 20
895.343600006323
 30
0.0
 10
1646.587675717761
 20
895.6153002200832
 30
0.0
 10
1646.302258567008
 20
895.9295078526036
 30
0.0
 10
1645.973578261659
 20
896.18971182911
 30
0.0
 10
1645.612884733406
 20
896.3957155024041
 30
0.0
 10
1645.413889365545
 20
896.4751892376779
 30
0.0
 10
1645.314097013802
 20
896.5150437882137
 30
0.0
  0
SPLINE
  5
1A6
330
1F
100
AcDbEntity
  8
0
  6
Continuous
 62
     7
370
    25
100
AcDbSpline
210
0.0
220
0.0
230
1.0
 70
     8
 71
     3
 72
    15
 73
    11
 74
     0
 42
0.000000001
 43
0.00000001
 40
0.0
 40
0.0
 40
0.0
 40
0.0
 40
0.2148110296556637
 40
0.3411322673416562
 40
0.4464287003091745
 40
0.5523542512426545
 40
0.6447889097414623
 40
0.7660552293890822
 40
0.9403894463275483
 40
1.0
 40
1.0
 40
1.0
 40
1.0
 10
1643.507352222436
 20
890.2387804722683
 30
0.0
 10
1643.493335651619
 20
890.2968832368748
 30
0.0
 10
1643.471076531168
 20
890.3891537681446
 30
0.0
 10
1643.495691318089
 20
890.5381396009783
 30
0.0
 10
1643.545445610913
 20
890.6545439230504
 30
0.0
 10
1643.619930486687
 20
890.7513160991631
 30
0.0
 10
1643.716895829763
 20
890.8290110343893
 30
0.0
 10
1643.842057921048
 20
890.8866281232222
 30
0.0
 10
1643.950958416472
 20
890.9019859936694
 30
0.0
 10
1644.015252404733
 20
890.897383025994
 30
0.0
 10
1644.031634904876
 20
890.8962101617708
 30
0.0
  0
SPLINE
  5
1A7
330
1F
100
AcDbEntity
  8
0
  6
Continuous
 62
     7
370
    25
100
AcDbSpline
210
0.0
220
0.0
230
1.0
 70
     8
 71
     3
 72
    33
 73
    29
 74
     0
 42
0.000000001
 43
0.00000001
 40
0.0
 40
0.0
 40
0.0
 40
0.0
 40
0.0454432397232603
 40
0.0912170391423937
 40
0.137950021517985
 40
0.1849840146143992
 40
0.23165165087071
 40
0.2786054666831018
 40
0.3265572669076812
 40
0.3749371050177973
 40
0.3989747636382652
 40
0.4231769206047895
 40
0.4431234955496033
 40
0.4634796340440158
 40
0.4878744888887387
 40
0.5123837511182208
 40
0.5281127512287178
 40
0.5442716110769352
 40
0.575541891250846
 40
0.6074940067964228
 40
0.6452969753465772
 40
0.6833694665812783
 40
0.7609503045067262
 40
0.8037406836446799
 40
0.8467500403233572
 40
0.8904656812725393
 40
0.934438123637836
 40
1.0
 40
1.0
 40
1.0
 40
1.0
 10
1638.314769152349
 20
887.7381642596642
 30
0.0
 10
1638.384968397062
 20
887.637511467684
 30
0.0
 10
1638.525877524399
 20
887.4354737229776
 30
0.0
 10
1638.77833152504
 20
887.1745935167014
 30
0.0
 10
1639.057462631499
 20
886.945506413422
 30
0.0
 10
1639.362038215957
 20
886.7543797525125
 30
0.0
 10
1639.686873865375
 20
886.6022523928582
 30
0.0
 10
1640.032098381942
 20
886.4898273196452
 30
0.0
 10
1640.400036374706
 20
886.4195061030636
 30
0.0
 10
1640.727676634154
 20
886.4004975804393
 30
0.0
 10
1641.00730334204
 20
886.4142259545891
 30
0.0
 10
1641.215414148927
 20
886.4399253178904
 30
0.0
 10
1641.425061258343
 20
886.4815340249685
 30
0.0
 10
1641.649749705893
 20
886.5429901985955
 30
0.0
 10
1641.909237519737
 20
886.6389568319755
 30
0.0
 10
1642.147436438166
 20
886.7571799427607
 30
0.0
 10
1642.330570065294
 20
886.8676961663092
 30
0.0
 10
1642.514835303815
 20
886.9945655786174
 30
0.0
 10
1642.711987873925
 20
887.1568574885405
 30
0.0
 10
1642.921402870777
 20
887.367152402497
 30
0.0
 10
1643.108761553352
 20
887.5983169851993
 30
0.0
 10
1643.330127927139
 20
887.9391334411442
 30
0.0
 10
1643.496283825262
 20
888.3114069072003
 30
0.0
 10
1643.60446972601
 20
888.7136645498366
 30
0.0
 10
1643.654209171186
 20
889.0415470691295
 30
0.0
 10
1643.665256306371
 20
889.3792637392061
 30
0.0
 10
1643.635633546202
 20
889.7807446827786
 30
0.0
 10
1643.555385043961
 20
890.0672765410459
 30
0.0
 10
1643.507352222436
 20
890.2387804722683
 30
0.0
  0
SPLINE
  5
1A8
330
1F
100
AcDbEntity
  8
0
  6
Continuous
 62
     7
370
    25
100
AcDbSpline
210
0.0
220
0.0
230
1.0
 70
     8
 71
     3
 72
    15
 73
    11
 74
     0
 42
0.000000001
 43
0.00000001
 40
0.0
 40
0.0
 40
0.0
 40
0.0
 40
0.2126307822085924
 40
0.3330806359273478
 40
0.4343189429316079
 40
0.5361409898009256
 40
0.6255006565989226
 40
0.7454503639221153
 40
0.9209037802014183
 40
1.0
 40
1.0
 40
1.0
 40
1.0
 10
1637.473885017794
 20
887.738164259664
 30
0.0
 10
1637.510289751601
 20
887.78513038714
 30
0.0
 10
1637.567316828118
 20
887.8587016144302
 30
0.0
 10
1637.696813025711
 20
887.9320019407737
 30
0.0
 10
1637.814989763429
 20
887.9661725420472
 30
0.0
 10
1637.933772562732
 20
887.9704340700708
 30
0.0
 10
1638.053121329532
 20
887.9466444027769
 30
0.0
 10
1638.176995045113
 20
887.8887233935627
 30
0.0
 10
1638.263125437417
 20
887.8120910936356
 30
0.0
 10
1638.302526163097
 20
887.7556898275855
 30
0.0
 10
1638.314769152349
 20
887.7381642596642
 30
0.0
  0
SPLINE
  5
1A9
330
1F
100
AcDbEntity
  8
0
  6
Continuous
 62
     7
370
    25
100
AcDbSpline
210
0.0
220
0.0
230
1.0
 70
     8
 71
     3
 72
    26
 73
    22
 74
     0
 42
0.000000001
 43
0.00000001
 40
0.0
 40
0.0
 40
0.0
 40
0.0
 40
0.0896959764739918
 40
0.1819074482087704
 40
0.274102793535805
 40
0.3212761778329857
 40
0.3688069727726453
 40
0.4236032023576924
 40
0.4509844832888558
 40
0.4791952421398648
 40
0.5037433136994388
 40
0.5283932366349167
 40
0.5611050865776562
 40
0.6012574653172083
 40
0.6425332155015528
 40
0.6854357108624528
 40
0.728647557496622
 40
0.8168921308727652
 40
0.9072309307633623
 40
0.9534482383716101
 40
1.0
 40
1.0
 40
1.0
 40
1.0
 10
1632.281301947708
 20
890.2387804722674
 30
0.0
 10
1632.220924650095
 20
890.00359730736
 30
0.0
 10
1632.098476792674
 20
889.5266353401488
 30
0.0
 10
1632.144411818094
 20
888.8156317753318
 30
0.0
 10
1632.310883445397
 20
888.2485457479924
 30
0.0
 10
1632.531720085275
 20
887.8182862449299
 30
0.0
 10
1632.757280266554
 20
887.4893637502585
 30
0.0
 10
1633.007271604164
 20
887.2168190041374
 30
0.0
 10
1633.276652303742
 20
886.9913267964627
 30
0.0
 10
1633.511714671061
 20
886.8298434359164
 30
0.0
 10
1633.78467989108
 20
886.681784768875
 30
0.0
 10
1634.095287455399
 20
886.5542800528654
 30
0.0
 10
1634.437858789881
 20
886.4595056531813
 30
0.0
 10
1634.791232477762
 20
886.4086145303049
 30
0.0
 10
1635.144316377943
 20
886.4012886266137
 30
0.0
 10
1635.484421262627
 20
886.4347447200544
 30
0.0
 10
1635.927078306616
 20
886.5312528555897
 30
0.0
 10
1636.452184739253
 20
886.7459176576564
 30
0.0
 10
1636.922731670579
 20
887.0850994235846
 30
0.0
 10
1637.258500559311
 20
887.4299858293653
 30
0.0
 10
1637.401917847433
 20
887.6351915115316
 30
0.0
 10
1637.473885017794
 20
887.738164259664
 30
0.0
  0
SPLINE
  5
1AA
330
1F
100
AcDbEntity
  8
0
  6
Continuous
 62
     7
370
    25
100
AcDbSpline
210
0.0
220
0.0
230
1.0
 70
     8
 71
     3
 72
    15
 73
    11
 74
     0
 42
0.000000001
 43
0.00000001
 40
0.0
 40
0.0
 40
0.0
 40
0.0
 40
0.2153296810343193
 40
0.3327055588565636
 40
0.4327106172887984
 40
0.5331289091056565
 40
0.6249491950544266
 40
0.7533679527279796
 40
0.9418458044828419
 40
1.0
 40
1.0
 40
1.0
 40
1.0
 10
1631.757019265269
 20
890.8962101617701
 30
0.0
 10
1631.81877298329
 20
890.8968662329705
 30
0.0
 10
1631.91418855799
 20
890.8978799275727
 30
0.0
 10
1632.054118565288
 20
890.8391390760257
 30
0.0
 10
1632.152597686448
 20
890.7672058009678
 30
0.0
 10
1632.228045146394
 20
890.677248608931
 30
0.0
 10
1632.283510816913
 20
890.567679250871
 30
0.0
 10
1632.314610632916
 20
890.4293366822629
 30
0.0
 10
1632.305249650487
 20
890.3170143459201
 30
0.0
 10
1632.28587124643
 20
890.2537077470118
 30
0.0
 10
1632.281301947708
 20
890.2387804722674
 30
0.0
  0
SPLINE
  5
1AB
330
1F
100
AcDbEntity
  8
0
  6
Continuous
 62
     7
370
    25
100
AcDbSpline
210
0.0
220
0.0
230
1.0
 70
     8
 71
     3
 72
    33
 73
    29
 74
     0
 42
0.000000001
 43
0.00000001
 40
0.0
 40
0.0
 40
0.0
 40
0.0
 40
0.0441213647301349
 40
0.0885643240892556
 40
0.1339549310956321
 40
0.1796485529093068
 40
0.2244874082555797
 40
0.2696160366855498
 40
0.3157575130293603
 40
0.3623227711932909
 40
0.3904545578735313
 40
0.4187956069174315
 40
0.4469628201082619
 40
0.4757844533845464
 40
0.4937613087931168
 40
0.5122052114429699
 40
0.5302047120128767
 40
0.5487727969964499
 40
0.5721373294163192
 40
0.596149019290295
 40
0.6384785624501088
 40
0.6818249414600187
 40
0.72212524426976
 40
0.7627269998852252
 40
0.8041331317540933
 40
0.8457735509867841
 40
0.922143064946257
 40
1.0
 40
1.0
 40
1.0
 40
1.0
 10
845.3140970137795
 20
625.2859946545307
 30
0.0
 10
845.4224758435396
 20
625.3296286595078
 30
0.0
 10
845.6400234616154
 20
625.4172147117919
 30
0.0
 10
845.9387255554718
 20
625.5943301637357
 30
0.0
 10
846.2157778322885
 20
625.8028549911708
 30
0.0
 10
846.4644101329249
 20
626.0425986616902
 30
0.0
 10
846.6826586650184
 20
626.309226311879
 30
0.0
 10
846.8701444746921
 20
626.6031289232801
 30
0.0
 10
847.0256967931692
 20
626.9278712122016
 30
0.0
 10
847.1288635147752
 20
627.2386414597024
 30
0.0
 10
847.1905818763731
 20
627.5246929992387
 30
0.0
 10
847.2228139762933
 20
627.7751096270007
 30
0.0
 10
847.2333321237701
 20
628.0457946044611
 30
0.0
 10
847.2184702529889
 20
628.3024970246281
 30
0.0
 10
847.1842034152742
 20
628.5371069624404
 30
0.0
 10
847.1405907150446
 20
628.7369106106669
 30
0.0
 10
847.0816677023834
 20
628.9368513875248
 30
0.0
 10
847.003616828699
 20
629.1454501215003
 30
0.0
 10
846.9043518248287
 20
629.3575624566623
 30
0.0
 10
846.7555238591912
 20
629.6162889885948
 30
0.0
 10
846.5563484178624
 20
629.8871091190965
 30
0.0
 10
846.3099199677716
 20
630.1449189423896
 30
0.0
 10
846.0517834470346
 20
630.3580449335772
 30
0.0
 10
845.7845239014102
 20
630.5330678465333
 30
0.0
 10
845.5019219479062
 20
630.6771185833729
 30
0.0
 10
845.1229663494704
 20
630.8195594546216
 30
0.0
 10
844.6349967867865
 20
630.929152977312
 30
0.0
 10
844.2340445131296
 20
630.9129884787018
 30
0.0
 10
844.0316349048587
 20
630.9048282809761
 30
0.0
  0
SPLINE
  5
1AC
330
1F
100
AcDbEntity
  8
0
  6
Continuous
 62
     7
370
    25
100
AcDbSpline
210
0.0
220
0.0
230
1.0
 70
     8
 71
     3
 72
    14
 73
    10
 74
     0
 42
0.000000001
 43
0.00000001
 40
0.0
 40
0.0
 40
0.0
 40
0.0
 40
0.2204300636816468
 40
0.3399443732551065
 40
0.4603671101701679
 40
0.5640212293774038
 40
0.6631726788869601
 40
0.8102691653342999
 40
1.0
 40
1.0
 40
1.0
 40
1.0
 10
845.1269826908093
 20
624.4661932408428
 30
0.0
 10
845.0863441843809
 20
624.5166477186833
 30
0.0
 10
845.0236720090564
 20
624.5944579572731
 30
0.0
 10
844.9826579846637
 20
624.7522313466864
 30
0.0
 10
844.9832612904385
 20
624.8847873830365
 30
0.0
 10
845.0172537077231
 20
625.0063565119781
 30
0.0
 10
845.0792565485882
 20
625.1183425073185
 30
0.0
 10
845.1796754630111
 20
625.224320493564
 30
0.0
 10
845.265661883216
 20
625.2637720568763
 30
0.0
 10
845.3140970137795
 20
625.2859946545307
 30
0.0
  0
SPLINE
  5
1AD
330
1F
100
AcDbEntity
  8
0
  6
Continuous
 62
     7
370
    25
100
AcDbSpline
210
0.0
220
0.0
230
1.0
 70
     8
 71
     3
 72
    25
 73
    21
 74
     0
 42
0.000000001
 43
0.00000001
 40
0.0
 40
0.0
 40
0.0
 40
0.0
 40
0.0863534354811913
 40
0.1752012878124607
 40
0.2620202071647393
 40
0.306739053662445
 40
0.3519417885941307
 40
0.3854351630922998
 40
0.4193619382517506
 40
0.4529210172243737
 40
0.4876706301567005
 40
0.5343321995009284
 40
0.5808912372373956
 40
0.6174915337674349
 40
0.6550813421275926
 40
0.7176592106518789
 40
0.7818739695914251
 40
0.8689355796086901
 40
0.9585132438224565
 40
1.0
 40
1.0
 40
1.0
 40
1.0
 10
841.5336037130861
 20
619.9602385245867
 30
0.0
 10
841.7319054980101
 20
619.8564180526064
 30
0.0
 10
842.1342372396554
 20
619.6457781366508
 30
0.0
 10
842.7917423328923
 20
619.5196404815385
 30
0.0
 10
843.3582605541893
 20
619.5319590235105
 30
0.0
 10
843.817350416362
 20
619.6268451213336
 30
0.0
 10
844.1393869800303
 20
619.7363637702373
 30
0.0
 10
844.4333925848957
 20
619.8759018022768
 30
0.0
 10
844.6962047266551
 20
620.0355094315759
 30
0.0
 10
844.9587283736631
 20
620.2371554534274
 30
0.0
 10
845.2423970868231
 20
620.5134021155139
 30
0.0
 10
845.5227482392033
 20
620.8834550190826
 30
0.0
 10
845.728444101239
 20
621.2854310887742
 30
0.0
 10
845.8542801878009
 20
621.6510307195684
 30
0.0
 10
845.94119001403
 20
622.0520859583636
 30
0.0
 10
845.9693047292769
 20
622.511450141089
 30
0.0
 10
845.9049726401199
 20
623.0735452607565
 30
0.0
 10
845.7116691179086
 20
623.6597304219109
 30
0.0
 10
845.4266363223478
 20
624.1384999370565
 30
0.0
 10
845.1990288941246
 20
624.3874054141497
 30
0.0
 10
845.1269826908093
 20
624.4661932408428
 30
0.0
  0
SPLINE
  5
1AE
330
1F
100
AcDbEntity
  8
0
  6
Continuous
 62
     7
370
    25
100
AcDbSpline
210
0.0
220
0.0
230
1.0
 70
     8
 71
     3
 72
    14
 73
    10
 74
     0
 42
0.000000001
 43
0.00000001
 40
0.0
 40
0.0
 40
0.0
 40
0.0
 40
0.2240635092468812
 40
0.3487071205324254
 40
0.4742528072796943
 40
0.582549286062515
 40
0.6866084231150325
 40
0.8379727149430984
 40
1.0
 40
1.0
 40
1.0
 40
1.0
 10
840.7759932863396
 20
619.5953925721218
 30
0.0
 10
840.7906159418159
 20
619.659932345511
 30
0.0
 10
840.8133729900424
 20
619.7603747540677
 30
0.0
 10
840.9150471887874
 20
619.8925421576049
 30
0.0
 10
841.0237317909098
 20
619.9749530840155
 30
0.0
 10
841.1447123588475
 20
620.0223836894086
 30
0.0
 10
841.2750017257683
 20
620.0398391688603
 30
0.0
 10
841.4128835084242
 20
620.0224694691342
 30
0.0
 10
841.4924611153083
 20
619.9814474243565
 30
0.0
 10
841.5336037130861
 20
619.9602385245867
 30
0.0
  0
SPLINE
  5
1AF
330
1F
100
AcDbEntity
  8
0
  6
Continuous
 62
     7
370
    25
100
AcDbSpline
210
0.0
220
0.0
230
1.0
 70
     8
 71
     3
 72
    31
 73
    27
 74
     0
 42
0.000000001
 43
0.00000001
 40
0.0
 40
0.0
 40
0.0
 40
0.0
 40
0.0425768439200337
 40
0.0854562266634099
 40
0.1292655212993027
 40
0.1733896051365588
 40
0.2448927928827744
 40
0.2814175395970614
 40
0.3182118727426355
 40
0.3578509173303925
 40
0.3981484105825077
 40
0.4288224096626714
 40
0.4602420416076457
 40
0.4856042083258851
 40
0.511693631532706
 40
0.5370616943793018
 40
0.5630949909788445
 40
0.5995472643023694
 40
0.637010214932426
 40
0.695999890366636
 40
0.7565561265102955
 40
0.798180495256912
 40
0.8401079728424069
 40
0.8829363933459077
 40
0.9260588511262501
 40
1.0
 40
1.0
 40
1.0
 40
1.0
 10
835.0126608837711
 20
619.5953925721215
 30
0.0
 10
835.0297371952814
 20
619.4868721933564
 30
0.0
 10
835.0640111576663
 20
619.2690603211855
 30
0.0
 10
835.1615254687754
 20
618.9535355805823
 30
0.0
 10
835.2927325542704
 20
618.647646560264
 30
0.0
 10
835.4958090044324
 20
618.2951973239344
 30
0.0
 10
835.7420491973821
 20
617.9867329914459
 30
0.0
 10
836.0242029014105
 20
617.7241045603466
 30
0.0
 10
836.2711039585266
 20
617.5372950396734
 30
0.0
 10
836.5571539633007
 20
617.3665383565672
 30
0.0
 10
836.861958880103
 20
617.2312025915194
 30
0.0
 10
837.173267689654
 20
617.1337289659549
 30
0.0
 10
837.4603362599095
 20
617.0759351939778
 30
0.0
 10
837.745378701107
 20
617.0479153835207
 30
0.0
 10
838.0142430541007
 20
617.0465573294995
 30
0.0
 10
838.2816674608938
 20
617.0701735104919
 30
0.0
 10
838.5728449737974
 20
617.1228984701651
 30
0.0
 10
838.881396037916
 20
617.2138740912972
 30
0.0
 10
839.2514015838673
 20
617.3728500253054
 30
0.0
 10
839.6309337261117
 20
617.6075011997101
 30
0.0
 10
839.9555202947013
 20
617.893465504762
 30
0.0
 10
840.2003531545747
 20
618.177632211134
 30
0.0
 10
840.3836818442469
 20
618.4451901296609
 30
0.0
 10
840.5359265727445
 20
618.7330400430798
 30
0.0
 10
840.6886586909104
 20
619.1108165398203
 30
0.0
 10
840.742184597626
 20
619.4078050513501
 30
0.0
 10
840.7759932863396
 20
619.5953925721218
 30
0.0
  0
SPLINE
  5
1B0
330
1F
100
AcDbEntity
  8
0
  6
Continuous
 62
     7
370
    25
100
AcDbSpline
210
0.0
220
0.0
230
1.0
 70
     8
 71
     3
 72
    14
 73
    10
 74
     0
 42
0.000000001
 43
0.00000001
 40
0.0
 40
0.0
 40
0.0
 40
0.0
 40
0.2236978580034598
 40
0.3528357075717348
 40
0.4829964006464933
 40
0.5936020866478993
 40
0.697046383985613
 40
0.8440092931474584
 40
1.0
 40
1.0
 40
1.0
 40
1.0
 10
834.2550504570216
 20
619.9602385245845
 30
0.0
 10
834.31358875691
 20
619.9886245507726
 30
0.0
 10
834.4059204521955
 20
620.0333974588575
 30
0.0
 10
834.5728642318606
 20
620.0372084706061
 30
0.0
 10
834.7083536453566
 20
620.0027434167532
 30
0.0
 10
834.8228510684097
 20
619.9352830158197
 30
0.0
 10
834.916700578623
 20
619.8430938703129
 30
0.0
 10
834.9868815035036
 20
619.7256323279038
 30
0.0
 10
835.003898723418
 20
619.6396597970386
 30
0.0
 10
835.0126608837711
 20
619.5953925721215
 30
0.0
  0
SPLINE
  5
1B1
330
1F
100
AcDbEntity
  8
0
  6
Continuous
 62
     7
370
    25
100
AcDbSpline
210
0.0
220
0.0
230
1.0
 70
     8
 71
     3
 72
    25
 73
    21
 74
     0
 42
0.000000001
 43
0.00000001
 40
0.0
 40
0.0
 40
0.0
 40
0.0
 40
0.0875279947747076
 40
0.1775894167757404
 40
0.2471189321081222
 40
0.3182300544307204
 40
0.3543941983068581
 40
0.3910959660048198
 40
0.4196128949804159
 40
0.4488176980690845
 40
0.4955677239741453
 40
0.5422939578261103
 40
0.5762852785957234
 40
0.6112087183676481
 40
0.6688382656568879
 40
0.7279620571790822
 40
0.8132217551468689
 40
0.9009245334796623
 40
0.9502356752284363
 40
1.0
 40
1.0
 40
1.0
 40
1.0
 10
830.6616714793015
 20
624.4661932408425
 30
0.0
 10
830.515625394822
 20
624.2951421924284
 30
0.0
 10
830.219306039719
 20
623.9480891609393
 30
0.0
 10
829.9662197768372
 20
623.3687137774991
 30
0.0
 10
829.8365509065113
 20
622.7856815487957
 30
0.0
 10
829.8241237458155
 20
622.3056573481099
 30
0.0
 10
829.8781535904704
 20
621.8947702632458
 30
0.0
 10
829.9520696697592
 20
621.5948315581015
 30
0.0
 10
830.056149004364
 20
621.308120806056
 30
0.0
 10
830.2095022729443
 20
620.9876640564164
 30
0.0
 10
830.4539594729544
 20
620.6176690192466
 30
0.0
 10
830.7642895751125
 20
620.2918639421518
 30
0.0
 10
831.0600607763151
 20
620.057644298355
 30
0.0
 10
831.3891951718844
 20
619.8522929999831
 30
0.0
 10
831.7860357904805
 20
619.6779177481329
 30
0.0
 10
832.3118959914597
 20
619.54421332641
 30
0.0
 10
832.910814288515
 20
619.5116966338196
 30
0.0
 10
833.4682019724132
 20
619.6099714474683
 30
0.0
 10
833.9178887368088
 20
619.7711480825669
 30
0.0
 10
834.1423210235846
 20
619.8970164649049
 30
0.0
 10
834.2550504570216
 20
619.9602385245845
 30
0.0
  0
SPLINE
  5
1B2
330
1F
100
AcDbEntity
  8
0
  6
Continuous
 62
     7
370
    25
100
AcDbSpline
210
0.0
220
0.0
230
1.0
 70
     8
 71
     3
 72
    14
 73
    10
 74
     0
 42
0.000000001
 43
0.00000001
 40
0.0
 40
0.0
 40
0.0
 40
0.0
 40
0.2198296104785076
 40
0.349917795829291
 40
0.4588983161343722
 40
0.5683999765788834
 40
0.6667094681233259
 40
0.7967198733580303
 40
1.0
 40
1.0
 40
1.0
 40
1.0
 10
830.4745571563254
 20
625.2859946545324
 30
0.0
 10
830.5308956269992
 20
625.2593904196013
 30
0.0
 10
830.6205734162447
 20
625.217042642946
 30
0.0
 10
830.722836674761
 20
625.0989681893312
 30
0.0
 10
830.7811727248051
 20
624.9830867883676
 30
0.0
 10
830.8071702131807
 20
624.861082604412
 30
0.0
 10
830.8026475811735
 20
624.7334076214787
 30
0.0
 10
830.7608024810273
 20
624.5875265705797
 30
0.0
 10
830.6992273207644
 20
624.5121604480374
 30
0.0
 10
830.6616714793015
 20
624.4661932408425
 30
0.0
  0
SPLINE
  5
1B3
330
1F
100
AcDbEntity
  8
0
  6
Continuous
 62
     7
370
    25
100
AcDbSpline
210
0.0
220
0.0
230
1.0
 70
     8
 71
     3
 72
    33
 73
    29
 74
     0
 42
0.000000001
 43
0.00000001
 40
0.0
 40
0.0
 40
0.0
 40
0.0
 40
0.0453846795159054
 40
0.0910956457676959
 40
0.1377861112474769
 40
0.1847984484385709
 40
0.2588563244583137
 40
0.2965960583089478
 40
0.3345934417298383
 40
0.3627068189222541
 40
0.3910552764359975
 40
0.4192115960367001
 40
0.4481447873352761
 40
0.4657876556063221
 40
0.4839178616272911
 40
0.5015746029079645
 40
0.5197390882526287
 40
0.5448263126108639
 40
0.5705932132964516
 40
0.6177342306539244
 40
0.6659981837890069
 40
0.7087532480230759
 40
0.7518249524472848
 40
0.7957808044145547
 40
0.8400079168875251
 40
0.9191109597848035
 40
0.959435701242173
 40
1.0
 40
1.0
 40
1.0
 40
1.0
 10
831.7570192652513
 20
630.9048282809754
 30
0.0
 10
831.638914924871
 20
630.9125933735503
 30
0.0
 10
831.4018571496551
 20
630.9281793847354
 30
0.0
 10
831.0498788736452
 20
630.8968071044598
 30
0.0
 10
830.7026204042153
 20
630.8259955069867
 30
0.0
 10
830.2990974334093
 20
630.6895305064317
 30
0.0
 10
829.9372549090137
 20
630.4997759835967
 30
0.0
 10
829.6178975639383
 20
630.2647419602484
 30
0.0
 10
829.4072657611667
 20
630.0727287532958
 30
0.0
 10
829.2252356545564
 20
629.8715172764714
 30
0.0
 10
829.0702411304432
 20
629.6675686217751
 30
0.0
 10
828.9236948714365
 20
629.4334215639728
 30
0.0
 10
828.8074482917274
 20
629.1989834125447
 30
0.0
 10
828.7207098702606
 20
628.9765598245209
 30
0.0
 10
828.660532785596
 20
628.7836525761534
 30
0.0
 10
828.6137412939781
 20
628.5855307873262
 30
0.0
 10
828.5775388270762
 20
628.364840602286
 30
0.0
 10
828.5579569494633
 20
628.1248745827643
 30
0.0
 10
828.5602285477378
 20
627.8061851742103
 30
0.0
 10
828.6062640572516
 20
627.4470454612991
 30
0.0
 10
828.707152839072
 20
627.0782957502777
 30
0.0
 10
828.8429706516205
 20
626.7502705492534
 30
0.0
 10
829.0059134813323
 20
626.4574384364232
 30
0.0
 10
829.2009784523663
 20
626.185738222663
 30
0.0
 10
829.4863956031193
 20
625.8715305901425
 30
0.0
 10
829.8150759084685
 20
625.6113266136363
 30
0.0
 10
830.1757694367215
 20
625.4053229403421
 30
0.0
 10
830.3747648045822
 20
625.3258492050683
 30
0.0
 10
830.4745571563254
 20
625.2859946545325
 30
0.0
  0
SPLINE
  5
1B4
330
1F
100
AcDbEntity
  8
0
  6
Continuous
 62
     7
370
    25
100
AcDbSpline
210
0.0
220
0.0
230
1.0
 70
     8
 71
     3
 72
    15
 73
    11
 74
     0
 42
0.000000001
 43
0.00000001
 40
0.0
 40
0.0
 40
0.0
 40
0.0
 40
0.2148110296556599
 40
0.3411322673416501
 40
0.4464287003091845
 40
0.5523542512426626
 40
0.6447889097414687
 40
0.7660552293890864
 40
0.9403894463275494
 40
1.0
 40
1.0
 40
1.0
 40
1.0
 10
832.2813019476912
 20
631.5622579704777
 30
0.0
 10
832.2953185185087
 20
631.5041552058715
 30
0.0
 10
832.3175776389596
 20
631.4118846746014
 30
0.0
 10
832.2929628520387
 20
631.2628988417679
 30
0.0
 10
832.2432085592146
 20
631.1464945196958
 30
0.0
 10
832.1687236834404
 20
631.049722343583
 30
0.0
 10
832.071758340365
 20
630.9720274083569
 30
0.0
 10
831.9465962490793
 20
630.9144103195239
 30
0.0
 10
831.8376957536552
 20
630.8990524490767
 30
0.0
 10
831.7734017653945
 20
630.9036554167521
 30
0.0
 10
831.7570192652513
 20
630.9048282809754
 30
0.0
  0
SPLINE
  5
1B5
330
1F
100
AcDbEntity
  8
0
  6
Continuous
 62
     7
370
    25
100
AcDbSpline
210
0.0
220
0.0
230
1.0
 70
     8
 71
     3
 72
    33
 73
    29
 74
     0
 42
0.000000001
 43
0.00000001
 40
0.0
 40
0.0
 40
0.0
 40
0.0
 40
0.0454432397232603
 40
0.0912170391423937
 40
0.137950021517985
 40
0.1849840146143992
 40
0.23165165087071
 40
0.2786054666831018
 40
0.3265572669076812
 40
0.3749371050177973
 40
0.3989747636382652
 40
0.4231769206047895
 40
0.4431234955496033
 40
0.4634796340440158
 40
0.4878744888887387
 40
0.5123837511182208
 40
0.5281127512287178
 40
0.5442716110769352
 40
0.575541891250846
 40
0.6074940067964228
 40
0.6452969753465772
 40
0.6833694665812783
 40
0.7609503045067262
 40
0.8037406836446799
 40
0.8467500403233572
 40
0.8904656812725393
 40
0.934438123637836
 40
1.0
 40
1.0
 40
1.0
 40
1.0
 10
837.4738850177786
 20
634.062874183082
 30
0.0
 10
837.4036857730656
 20
634.163526975062
 30
0.0
 10
837.2627766457289
 20
634.3655647197685
 30
0.0
 10
837.0103226450872
 20
634.6264449260447
 30
0.0
 10
836.7311915386285
 20
634.8555320293242
 30
0.0
 10
836.4266159541704
 20
635.0466586902337
 30
0.0
 10
836.1017803047532
 20
635.198786049888
 30
0.0
 10
835.7565557881854
 20
635.311211123101
 30
0.0
 10
835.3886177954217
 20
635.3815323396826
 30
0.0
 10
835.0609775359733
 20
635.4005408623069
 30
0.0
 10
834.7813508280875
 20
635.3868124881569
 30
0.0
 10
834.5732400212003
 20
635.3611131248558
 30
0.0
 10
834.3635929117844
 20
635.3195044177776
 30
0.0
 10
834.1389044642349
 20
635.2580482441506
 30
0.0
 10
833.87941665039
 20
635.1620816107705
 30
0.0
 10
833.6412177319615
 20
635.0438584999854
 30
0.0
 10
833.4580841048335
 20
634.933342276437
 30
0.0
 10
833.2738188663129
 20
634.8064728641288
 30
0.0
 10
833.0766662962022
 20
634.6441809542057
 30
0.0
 10
832.8672512993506
 20
634.4338860402491
 30
0.0
 10
832.6798926167752
 20
634.2027214575469
 30
0.0
 10
832.4585262429887
 20
633.861905001602
 30
0.0
 10
832.2923703448661
 20
633.489631535546
 30
0.0
 10
832.184184444117
 20
633.0873738929097
 30
0.0
 10
832.1344449989411
 20
632.7594913736168
 30
0.0
 10
832.123397863757
 20
632.4217747035401
 30
0.0
 10
832.1530206239253
 20
632.0202937599676
 30
0.0
 10
832.2332691261669
 20
631.7337619017002
 30
0.0
 10
832.2813019476912
 20
631.5622579704777
 30
0.0
  0
SPLINE
  5
1B6
330
1F
100
AcDbEntity
  8
0
  6
Continuous
 62
     7
370
    25
100
AcDbSpline
210
0.0
220
0.0
230
1.0
 70
     8
 71
     3
 72
    15
 73
    11
 74
     0
 42
0.000000001
 43
0.00000001
 40
0.0
 40
0.0
 40
0.0
 40
0.0
 40
0.2126307822085924
 40
0.3330806359273478
 40
0.4343189429316079
 40
0.5361409898009256
 40
0.6255006565989226
 40
0.7454503639221153
 40
0.9209037802014183
 40
1.0
 40
1.0
 40
1.0
 40
1.0
 10
838.3147691523329
 20
634.0628741830822
 30
0.0
 10
838.2783644185268
 20
634.0159080556061
 30
0.0
 10
838.2213373420099
 20
633.9423368283159
 30
0.0
 10
838.0918411444163
 20
633.8690365019725
 30
0.0
 10
837.9736644066982
 20
633.834865900699
 30
0.0
 10
837.8548816073956
 20
633.8306043726753
 30
0.0
 10
837.7355328405949
 20
633.8543940399693
 30
0.0
 10
837.6116591250153
 20
633.9123150491835
 30
0.0
 10
837.5255287327102
 20
633.9889473491105
 30
0.0
 10
837.4861280070306
 20
634.0453486151606
 30
0.0
 10
837.4738850177788
 20
634.062874183082
 30
0.0
  0
SPLINE
  5
1B7
330
1F
100
AcDbEntity
  8
0
  6
Continuous
 62
     7
370
    25
100
AcDbSpline
210
0.0
220
0.0
230
1.0
 70
     8
 71
     3
 72
    26
 73
    22
 74
     0
 42
0.000000001
 43
0.00000001
 40
0.0
 40
0.0
 40
0.0
 40
0.0
 40
0.0896959764739922
 40
0.1819074482087706
 40
0.2741027935358051
 40
0.321276177832987
 40
0.3688069727726466
 40
0.4236032023576935
 40
0.4509844832888569
 40
0.4791952421398658
 40
0.5037433136994397
 40
0.5283932366349176
 40
0.5611050865776571
 40
0.6012574653172089
 40
0.6425332155015536
 40
0.6854357108624535
 40
0.7286475574966225
 40
0.8168921308727656
 40
0.9072309307633624
 40
0.9534482383716101
 40
0.9999999999999999
 40
0.9999999999999999
 40
0.9999999999999999
 40
0.9999999999999999
 10
843.5073522224194
 20
631.5622579704786
 30
0.0
 10
843.5677295200323
 20
631.7974411353861
 30
0.0
 10
843.6901773774531
 20
632.2744031025973
 30
0.0
 10
843.6442423520331
 20
632.9854066674144
 30
0.0
 10
843.4777707247301
 20
633.5524926947539
 30
0.0
 10
843.2569340848522
 20
633.9827521978161
 30
0.0
 10
843.0313739035738
 20
634.3116746924876
 30
0.0
 10
842.7813825659636
 20
634.5842194386087
 30
0.0
 10
842.5120018663854
 20
634.8097116462835
 30
0.0
 10
842.2769394990665
 20
634.9711950068297
 30
0.0
 10
842.003974279048
 20
635.1192536738712
 30
0.0
 10
841.6933667147281
 20
635.2467583898809
 30
0.0
 10
841.3507953802463
 20
635.3415327895649
 30
0.0
 10
840.9974216923657
 20
635.3924239124411
 30
0.0
 10
840.6443377921845
 20
635.3997498161325
 30
0.0
 10
840.3042329075004
 20
635.3662937226918
 30
0.0
 10
839.8615758635116
 20
635.2697855871564
 30
0.0
 10
839.3364694308747
 20
635.0551207850898
 30
0.0
 10
838.8659224995483
 20
634.7159390191616
 30
0.0
 10
838.5301536108169
 20
634.3710526133808
 30
0.0
 10
838.3867363226948
 20
634.1658469312146
 30
0.0
 10
838.3147691523329
 20
634.0628741830822
 30
0.0
  0
SPLINE
  5
1B8
330
1F
100
AcDbEntity
  8
0
  6
Continuous
 62
     7
370
    25
100
AcDbSpline
210
0.0
220
0.0
230
1.0
 70
     8
 71
     3
 72
    15
 73
    11
 74
     0
 42
0.000000001
 43
0.00000001
 40
0.0
 40
0.0
 40
0.0
 40
0.0
 40
0.2153296810343193
 40
0.3327055588565636
 40
0.4327106172887984
 40
0.5331289091056565
 40
0.6249491950544266
 40
0.7533679527279796
 40
0.9418458044828419
 40
1.0
 40
1.0
 40
1.0
 40
1.0
 10
844.0316349048587
 20
630.9048282809761
 30
0.0
 10
843.9698811868375
 20
630.9041722097757
 30
0.0
 10
843.874465612138
 20
630.9031585151733
 30
0.0
 10
843.7345356048392
 20
630.9618993667204
 30
0.0
 10
843.6360564836795
 20
631.0338326417783
 30
0.0
 10
843.5606090237335
 20
631.1237898338153
 30
0.0
 10
843.5051433532151
 20
631.233359191875
 30
0.0
 10
843.474043537211
 20
631.3717017604832
 30
0.0
 10
843.4834045196402
 20
631.4840240968258
 30
0.0
 10
843.5027829236977
 20
631.5473306957342
 30
0.0
 10
843.5073522224196
 20
631.5622579704786
 30
0.0
  0
SPLINE
  5
1B9
330
1F
100
AcDbEntity
  8
0
  6
Continuous
 62
     7
370
    25
100
AcDbSpline
210
0.0
220
0.0
230
1.0
 70
     8
 71
     3
 72
    33
 73
    29
 74
     0
 42
0.000000001
 43
0.00000001
 40
0.0
 40
0.0
 40
0.0
 40
0.0
 40
0.0441213647301349
 40
0.0885643240892556
 40
0.1339549310956321
 40
0.1796485529093068
 40
0.2244874082555797
 40
0.2696160366855498
 40
0.3157575130293603
 40
0.3623227711932909
 40
0.3904545578735313
 40
0.4187956069174315
 40
0.4469628201082619
 40
0.4757844533845464
 40
0.4937613087931168
 40
0.5122052114429699
 40
0.5302047120128767
 40
0.5487727969964499
 40
0.5721373294163192
 40
0.596149019290295
 40
0.6384785624501088
 40
0.6818249414600187
 40
0.72212524426976
 40
0.7627269998852252
 40
0.8041331317540933
 40
0.8457735509867841
 40
0.922143064946257
 40
1.0
 40
1.0
 40
1.0
 40
1.0
 10
1645.314097013779
 20
625.2859946545307
 30
0.0
 10
1645.42247584354
 20
625.3296286595078
 30
0.0
 10
1645.640023461615
 20
625.4172147117919
 30
0.0
 10
1645.938725555472
 20
625.5943301637357
 30
0.0
 10
1646.215777832289
 20
625.8028549911708
 30
0.0
 10
1646.464410132925
 20
626.0425986616902
 30
0.0
 10
1646.682658665018
 20
626.309226311879
 30
0.0
 10
1646.870144474692
 20
626.6031289232801
 30
0.0
 10
1647.025696793169
 20
626.9278712122016
 30
0.0
 10
1647.128863514775
 20
627.2386414597024
 30
0.0
 10
1647.190581876373
 20
627.5246929992387
 30
0.0
 10
1647.222813976293
 20
627.7751096270007
 30
0.0
 10
1647.23333212377
 20
628.0457946044611
 30
0.0
 10
1647.218470252989
 20
628.3024970246281
 30
0.0
 10
1647.184203415274
 20
628.5371069624404
 30
0.0
 10
1647.140590715045
 20
628.7369106106669
 30
0.0
 10
1647.081667702383
 20
628.9368513875248
 30
0.0
 10
1647.003616828699
 20
629.1454501215003
 30
0.0
 10
1646.904351824829
 20
629.3575624566623
 30
0.0
 10
1646.755523859191
 20
629.6162889885948
 30
0.0
 10
1646.556348417862
 20
629.8871091190965
 30
0.0
 10
1646.309919967771
 20
630.1449189423896
 30
0.0
 10
1646.051783447034
 20
630.3580449335772
 30
0.0
 10
1645.78452390141
 20
630.5330678465333
 30
0.0
 10
1645.501921947906
 20
630.6771185833729
 30
0.0
 10
1645.122966349471
 20
630.8195594546216
 30
0.0
 10
1644.634996786786
 20
630.929152977312
 30
0.0
 10
1644.234044513129
 20
630.9129884787018
 30
0.0
 10
1644.031634904859
 20
630.9048282809761
 30
0.0
  0
SPLINE
  5
1BA
330
1F
100
AcDbEntity
  8
0
  6
Continuous
 62
     7
370
    25
100
AcDbSpline
210
0.0
220
0.0
230
1.0
 70
     8
 71
     3
 72
    14
 73
    10
 74
     0
 42
0.000000001
 43
0.00000001
 40
0.0
 40
0.0
 40
0.0
 40
0.0
 40
0.2204300636816468
 40
0.3399443732551065
 40
0.4603671101701679
 40
0.5640212293774038
 40
0.6631726788869601
 40
0.8102691653342999
 40
1.0
 40
1.0
 40
1.0
 40
1.0
 10
1645.126982690809
 20
624.4661932408428
 30
0.0
 10
1645.086344184381
 20
624.5166477186833
 30
0.0
 10
1645.023672009057
 20
624.5944579572731
 30
0.0
 10
1644.982657984664
 20
624.7522313466864
 30
0.0
 10
1644.983261290438
 20
624.8847873830365
 30
0.0
 10
1645.017253707723
 20
625.0063565119781
 30
0.0
 10
1645.079256548588
 20
625.1183425073185
 30
0.0
 10
1645.179675463011
 20
625.224320493564
 30
0.0
 10
1645.265661883216
 20
625.2637720568763
 30
0.0
 10
1645.314097013779
 20
625.2859946545307
 30
0.0
  0
SPLINE
  5
1BB
330
1F
100
AcDbEntity
  8
0
  6
Continuous
 62
     7
370
    25
100
AcDbSpline
210
0.0
220
0.0
230
1.0
 70
     8
 71
     3
 72
    25
 73
    21
 74
     0
 42
0.000000001
 43
0.00000001
 40
0.0
 40
0.0
 40
0.0
 40
0.0
 40
0.0863534354811913
 40
0.1752012878124606
 40
0.2620202071647391
 40
0.3067390536624447
 40
0.3519417885941311
 40
0.3854351630923001
 40
0.4193619382517509
 40
0.4529210172243739
 40
0.4876706301567008
 40
0.5343321995009286
 40
0.5808912372373958
 40
0.6174915337674352
 40
0.6550813421275927
 40
0.717659210651879
 40
0.7818739695914252
 40
0.8689355796086901
 40
0.9585132438224564
 40
0.9999999999999999
 40
0.9999999999999999
 40
0.9999999999999999
 40
0.9999999999999999
 10
1641.533603713086
 20
619.9602385245867
 30
0.0
 10
1641.73190549801
 20
619.8564180526064
 30
0.0
 10
1642.134237239655
 20
619.6457781366508
 30
0.0
 10
1642.791742332892
 20
619.5196404815385
 30
0.0
 10
1643.358260554189
 20
619.5319590235104
 30
0.0
 10
1643.817350416362
 20
619.6268451213336
 30
0.0
 10
1644.13938698003
 20
619.7363637702374
 30
0.0
 10
1644.433392584895
 20
619.8759018022768
 30
0.0
 10
1644.696204726655
 20
620.0355094315759
 30
0.0
 10
1644.958728373663
 20
620.2371554534274
 30
0.0
 10
1645.242397086823
 20
620.5134021155139
 30
0.0
 10
1645.522748239203
 20
620.8834550190826
 30
0.0
 10
1645.728444101239
 20
621.2854310887741
 30
0.0
 10
1645.854280187801
 20
621.6510307195684
 30
0.0
 10
1645.94119001403
 20
622.0520859583636
 30
0.0
 10
1645.969304729277
 20
622.511450141089
 30
0.0
 10
1645.90497264012
 20
623.0735452607564
 30
0.0
 10
1645.711669117909
 20
623.6597304219109
 30
0.0
 10
1645.426636322348
 20
624.1384999370565
 30
0.0
 10
1645.199028894124
 20
624.3874054141497
 30
0.0
 10
1645.126982690809
 20
624.4661932408428
 30
0.0
  0
SPLINE
  5
1BC
330
1F
100
AcDbEntity
  8
0
  6
Continuous
 62
     7
370
    25
100
AcDbSpline
210
0.0
220
0.0
230
1.0
 70
     8
 71
     3
 72
    14
 73
    10
 74
     0
 42
0.000000001
 43
0.00000001
 40
0.0
 40
0.0
 40
0.0
 40
0.0
 40
0.2240635092468668
 40
0.3487071205324133
 40
0.4742528072796846
 40
0.5825492860625072
 40
0.6866084231150267
 40
0.8379727149430954
 40
1.0
 40
1.0
 40
1.0
 40
1.0
 10
1640.775993286339
 20
619.5953925721218
 30
0.0
 10
1640.790615941816
 20
619.659932345511
 30
0.0
 10
1640.813372990042
 20
619.7603747540676
 30
0.0
 10
1640.915047188787
 20
619.8925421576049
 30
0.0
 10
1641.02373179091
 20
619.9749530840154
 30
0.0
 10
1641.144712358847
 20
620.0223836894085
 30
0.0
 10
1641.275001725768
 20
620.0398391688603
 30
0.0
 10
1641.412883508424
 20
620.0224694691343
 30
0.0
 10
1641.492461115308
 20
619.9814474243565
 30
0.0
 10
1641.533603713086
 20
619.9602385245867
 30
0.0
  0
SPLINE
  5
1BD
330
1F
100
AcDbEntity
  8
0
  6
Continuous
 62
     7
370
    25
100
AcDbSpline
210
0.0
220
0.0
230
1.0
 70
     8
 71
     3
 72
    31
 73
    27
 74
     0
 42
0.000000001
 43
0.00000001
 40
0.0
 40
0.0
 40
0.0
 40
0.0
 40
0.0425768439200337
 40
0.0854562266634099
 40
0.1292655212993027
 40
0.1733896051365588
 40
0.2448927928827744
 40
0.2814175395970614
 40
0.3182118727426355
 40
0.3578509173303925
 40
0.3981484105825077
 40
0.4288224096626714
 40
0.4602420416076457
 40
0.4856042083258851
 40
0.511693631532706
 40
0.5370616943793018
 40
0.5630949909788445
 40
0.5995472643023694
 40
0.637010214932426
 40
0.695999890366636
 40
0.7565561265102955
 40
0.798180495256912
 40
0.8401079728424069
 40
0.8829363933459077
 40
0.9260588511262501
 40
1.0
 40
1.0
 40
1.0
 40
1.0
 10
1635.012660883771
 20
619.5953925721215
 30
0.0
 10
1635.029737195281
 20
619.4868721933564
 30
0.0
 10
1635.064011157666
 20
619.2690603211855
 30
0.0
 10
1635.161525468775
 20
618.9535355805823
 30
0.0
 10
1635.292732554271
 20
618.647646560264
 30
0.0
 10
1635.495809004432
 20
618.2951973239344
 30
0.0
 10
1635.742049197382
 20
617.9867329914459
 30
0.0
 10
1636.02420290141
 20
617.7241045603466
 30
0.0
 10
1636.271103958527
 20
617.5372950396734
 30
0.0
 10
1636.557153963301
 20
617.3665383565672
 30
0.0
 10
1636.861958880103
 20
617.2312025915194
 30
0.0
 10
1637.173267689654
 20
617.1337289659549
 30
0.0
 10
1637.460336259909
 20
617.0759351939778
 30
0.0
 10
1637.745378701107
 20
617.0479153835207
 30
0.0
 10
1638.014243054101
 20
617.0465573294995
 30
0.0
 10
1638.281667460894
 20
617.0701735104919
 30
0.0
 10
1638.572844973797
 20
617.1228984701651
 30
0.0
 10
1638.881396037916
 20
617.2138740912972
 30
0.0
 10
1639.251401583867
 20
617.3728500253054
 30
0.0
 10
1639.630933726112
 20
617.6075011997101
 30
0.0
 10
1639.955520294701
 20
617.893465504762
 30
0.0
 10
1640.200353154575
 20
618.177632211134
 30
0.0
 10
1640.383681844247
 20
618.4451901296609
 30
0.0
 10
1640.535926572745
 20
618.7330400430798
 30
0.0
 10
1640.68865869091
 20
619.1108165398203
 30
0.0
 10
1640.742184597626
 20
619.4078050513501
 30
0.0
 10
1640.775993286339
 20
619.5953925721218
 30
0.0
  0
SPLINE
  5
1BE
330
1F
100
AcDbEntity
  8
0
  6
Continuous
 62
     7
370
    25
100
AcDbSpline
210
0.0
220
0.0
230
1.0
 70
     8
 71
     3
 72
    14
 73
    10
 74
     0
 42
0.000000001
 43
0.00000001
 40
0.0
 40
0.0
 40
0.0
 40
0.0
 40
0.2236978580034598
 40
0.3528357075717348
 40
0.4829964006464933
 40
0.5936020866478993
 40
0.697046383985613
 40
0.8440092931474584
 40
1.0
 40
1.0
 40
1.0
 40
1.0
 10
1634.255050457021
 20
619.9602385245845
 30
0.0
 10
1634.31358875691
 20
619.9886245507726
 30
0.0
 10
1634.405920452195
 20
620.0333974588575
 30
0.0
 10
1634.57286423186
 20
620.0372084706061
 30
0.0
 10
1634.708353645356
 20
620.0027434167532
 30
0.0
 10
1634.82285106841
 20
619.9352830158197
 30
0.0
 10
1634.916700578623
 20
619.8430938703129
 30
0.0
 10
1634.986881503503
 20
619.7256323279038
 30
0.0
 10
1635.003898723418
 20
619.6396597970386
 30
0.0
 10
1635.012660883771
 20
619.5953925721215
 30
0.0
  0
SPLINE
  5
1BF
330
1F
100
AcDbEntity
  8
0
  6
Continuous
 62
     7
370
    25
100
AcDbSpline
210
0.0
220
0.0
230
1.0
 70
     8
 71
     3
 72
    25
 73
    21
 74
     0
 42
0.000000001
 43
0.00000001
 40
0.0
 40
0.0
 40
0.0
 40
0.0
 40
0.0875279947747076
 40
0.1775894167757404
 40
0.2471189321081223
 40
0.3182300544307205
 40
0.3543941983068582
 40
0.3910959660048199
 40
0.419612894980416
 40
0.4488176980690846
 40
0.4955677239741455
 40
0.5422939578261106
 40
0.5762852785957236
 40
0.6112087183676483
 40
0.6688382656568881
 40
0.7279620571790819
 40
0.8132217551468688
 40
0.9009245334796623
 40
0.9502356752284362
 40
1.0
 40
1.0
 40
1.0
 40
1.0
 10
1630.661671479302
 20
624.4661932408424
 30
0.0
 10
1630.515625394822
 20
624.2951421924284
 30
0.0
 10
1630.219306039719
 20
623.9480891609393
 30
0.0
 10
1629.966219776837
 20
623.3687137774991
 30
0.0
 10
1629.836550906511
 20
622.7856815487957
 30
0.0
 10
1629.824123745816
 20
622.3056573481099
 30
0.0
 10
1629.87815359047
 20
621.8947702632458
 30
0.0
 10
1629.95206966976
 20
621.5948315581015
 30
0.0
 10
1630.056149004364
 20
621.308120806056
 30
0.0
 10
1630.209502272944
 20
620.9876640564164
 30
0.0
 10
1630.453959472954
 20
620.6176690192465
 30
0.0
 10
1630.764289575112
 20
620.2918639421518
 30
0.0
 10
1631.060060776315
 20
620.0576442983551
 30
0.0
 10
1631.389195171884
 20
619.852292999983
 30
0.0
 10
1631.78603579048
 20
619.6779177481329
 30
0.0
 10
1632.31189599146
 20
619.54421332641
 30
0.0
 10
1632.910814288515
 20
619.5116966338195
 30
0.0
 10
1633.468201972413
 20
619.6099714474683
 30
0.0
 10
1633.917888736809
 20
619.7711480825669
 30
0.0
 10
1634.142321023584
 20
619.8970164649049
 30
0.0
 10
1634.255050457022
 20
619.9602385245845
 30
0.0
  0
SPLINE
  5
1C0
330
1F
100
AcDbEntity
  8
0
  6
Continuous
 62
     7
370
    25
100
AcDbSpline
210
0.0
220
0.0
230
1.0
 70
     8
 71
     3
 72
    14
 73
    10
 74
     0
 42
0.000000001
 43
0.00000001
 40
0.0
 40
0.0
 40
0.0
 40
0.0
 40
0.2198296104785076
 40
0.349917795829291
 40
0.4588983161343722
 40
0.5683999765788834
 40
0.6667094681233259
 40
0.7967198733580303
 40
1.0
 40
1.0
 40
1.0
 40
1.0
 10
1630.474557156326
 20
625.2859946545324
 30
0.0
 10
1630.530895626999
 20
625.2593904196013
 30
0.0
 10
1630.620573416245
 20
625.2170426429458
 30
0.0
 10
1630.722836674761
 20
625.0989681893312
 30
0.0
 10
1630.781172724805
 20
624.9830867883676
 30
0.0
 10
1630.807170213181
 20
624.861082604412
 30
0.0
 10
1630.802647581173
 20
624.7334076214787
 30
0.0
 10
1630.760802481027
 20
624.5875265705797
 30
0.0
 10
1630.699227320764
 20
624.5121604480374
 30
0.0
 10
1630.661671479302
 20
624.4661932408424
 30
0.0
  0
SPLINE
  5
1C1
330
1F
100
AcDbEntity
  8
0
  6
Continuous
 62
     7
370
    25
100
AcDbSpline
210
0.0
220
0.0
230
1.0
 70
     8
 71
     3
 72
    33
 73
    29
 74
     0
 42
0.000000001
 43
0.00000001
 40
0.0
 40
0.0
 40
0.0
 40
0.0
 40
0.0453846795159054
 40
0.0910956457676961
 40
0.1377861112474771
 40
0.184798448438571
 40
0.258856324458311
 40
0.296596058308945
 40
0.3345934417298356
 40
0.3627068189222515
 40
0.3910552764359972
 40
0.4192115960366998
 40
0.4481447873352759
 40
0.4657876556063218
 40
0.4839178616272909
 40
0.5015746029079643
 40
0.5197390882526285
 40
0.5448263126108637
 40
0.5705932132964514
 40
0.6177342306539243
 40
0.6659981837890068
 40
0.7087532480230758
 40
0.7518249524472846
 40
0.7957808044145547
 40
0.840007916887525
 40
0.9191109597848035
 40
0.959435701242173
 40
1.0
 40
1.0
 40
1.0
 40
1.0
 10
1631.757019265251
 20
630.9048282809754
 30
0.0
 10
1631.638914924871
 20
630.9125933735503
 30
0.0
 10
1631.401857149655
 20
630.9281793847354
 30
0.0
 10
1631.049878873645
 20
630.8968071044598
 30
0.0
 10
1630.702620404215
 20
630.8259955069866
 30
0.0
 10
1630.299097433409
 20
630.6895305064317
 30
0.0
 10
1629.937254909014
 20
630.4997759835967
 30
0.0
 10
1629.617897563938
 20
630.2647419602484
 30
0.0
 10
1629.407265761167
 20
630.0727287532958
 30
0.0
 10
1629.225235654556
 20
629.8715172764714
 30
0.0
 10
1629.070241130443
 20
629.6675686217751
 30
0.0
 10
1628.923694871437
 20
629.4334215639728
 30
0.0
 10
1628.807448291727
 20
629.1989834125447
 30
0.0
 10
1628.72070987026
 20
628.9765598245209
 30
0.0
 10
1628.660532785596
 20
628.7836525761533
 30
0.0
 10
1628.613741293978
 20
628.585530787326
 30
0.0
 10
1628.577538827076
 20
628.3648406022859
 30
0.0
 10
1628.557956949463
 20
628.1248745827643
 30
0.0
 10
1628.560228547738
 20
627.8061851742102
 30
0.0
 10
1628.606264057252
 20
627.4470454612991
 30
0.0
 10
1628.707152839072
 20
627.0782957502777
 30
0.0
 10
1628.842970651621
 20
626.7502705492534
 30
0.0
 10
1629.005913481333
 20
626.4574384364232
 30
0.0
 10
1629.200978452366
 20
626.185738222663
 30
0.0
 10
1629.486395603119
 20
625.8715305901425
 30
0.0
 10
1629.815075908468
 20
625.611326613636
 30
0.0
 10
1630.175769436722
 20
625.4053229403421
 30
0.0
 10
1630.374764804582
 20
625.3258492050683
 30
0.0
 10
1630.474557156326
 20
625.2859946545324
 30
0.0
  0
SPLINE
  5
1C2
330
1F
100
AcDbEntity
  8
0
  6
Continuous
 62
     7
370
    25
100
AcDbSpline
210
0.0
220
0.0
230
1.0
 70
     8
 71
     3
 72
    15
 73
    11
 74
     0
 42
0.000000001
 43
0.00000001
 40
0.0
 40
0.0
 40
0.0
 40
0.0
 40
0.2148110296556637
 40
0.3411322673416562
 40
0.4464287003091745
 40
0.5523542512426545
 40
0.6447889097414623
 40
0.7660552293890822
 40
0.9403894463275483
 40
1.0
 40
1.0
 40
1.0
 40
1.0
 10
1632.281301947691
 20
631.5622579704777
 30
0.0
 10
1632.295318518509
 20
631.5041552058715
 30
0.0
 10
1632.31757763896
 20
631.4118846746014
 30
0.0
 10
1632.292962852038
 20
631.2628988417679
 30
0.0
 10
1632.243208559215
 20
631.1464945196958
 30
0.0
 10
1632.16872368344
 20
631.049722343583
 30
0.0
 10
1632.071758340365
 20
630.9720274083569
 30
0.0
 10
1631.946596249079
 20
630.914410319524
 30
0.0
 10
1631.837695753655
 20
630.8990524490767
 30
0.0
 10
1631.773401765395
 20
630.9036554167521
 30
0.0
 10
1631.757019265251
 20
630.9048282809754
 30
0.0
  0
SPLINE
  5
1C3
330
1F
100
AcDbEntity
  8
0
  6
Continuous
 62
     7
370
    25
100
AcDbSpline
210
0.0
220
0.0
230
1.0
 70
     8
 71
     3
 72
    33
 73
    29
 74
     0
 42
0.000000001
 43
0.00000001
 40
0.0
 40
0.0
 40
0.0
 40
0.0
 40
0.0454432397232604
 40
0.0912170391423937
 40
0.137950021517985
 40
0.1849840146143992
 40
0.2316516508707101
 40
0.2786054666831019
 40
0.3265572669076812
 40
0.3749371050177973
 40
0.3989747636382652
 40
0.4231769206047896
 40
0.4431234955496033
 40
0.4634796340440159
 40
0.4878744888887388
 40
0.5123837511182209
 40
0.5281127512287179
 40
0.5442716110769353
 40
0.5755418912508461
 40
0.607494006796423
 40
0.6452969753465773
 40
0.6833694665812784
 40
0.7609503045067263
 40
0.80374068364468
 40
0.8467500403233574
 40
0.8904656812725396
 40
0.9344381236378358
 40
0.9999999999999999
 40
0.9999999999999999
 40
0.9999999999999999
 40
0.9999999999999999
 10
1637.473885017779
 20
634.062874183082
 30
0.0
 10
1637.403685773066
 20
634.163526975062
 30
0.0
 10
1637.262776645729
 20
634.3655647197685
 30
0.0
 10
1637.010322645087
 20
634.6264449260447
 30
0.0
 10
1636.731191538629
 20
634.8555320293242
 30
0.0
 10
1636.426615954171
 20
635.0466586902336
 30
0.0
 10
1636.101780304753
 20
635.1987860498879
 30
0.0
 10
1635.756555788185
 20
635.3112111231009
 30
0.0
 10
1635.388617795422
 20
635.3815323396826
 30
0.0
 10
1635.060977535973
 20
635.4005408623069
 30
0.0
 10
1634.781350828087
 20
635.386812488157
 30
0.0
 10
1634.5732400212
 20
635.3611131248558
 30
0.0
 10
1634.363592911785
 20
635.3195044177777
 30
0.0
 10
1634.138904464235
 20
635.2580482441506
 30
0.0
 10
1633.87941665039
 20
635.1620816107705
 30
0.0
 10
1633.641217731961
 20
635.0438584999854
 30
0.0
 10
1633.458084104833
 20
634.933342276437
 30
0.0
 10
1633.273818866313
 20
634.8064728641288
 30
0.0
 10
1633.076666296202
 20
634.6441809542057
 30
0.0
 10
1632.867251299351
 20
634.4338860402491
 30
0.0
 10
1632.679892616775
 20
634.2027214575469
 30
0.0
 10
1632.458526242989
 20
633.861905001602
 30
0.0
 10
1632.292370344866
 20
633.489631535546
 30
0.0
 10
1632.184184444117
 20
633.0873738929097
 30
0.0
 10
1632.134444998941
 20
632.7594913736166
 30
0.0
 10
1632.123397863757
 20
632.4217747035401
 30
0.0
 10
1632.153020623925
 20
632.0202937599676
 30
0.0
 10
1632.233269126167
 20
631.7337619017002
 30
0.0
 10
1632.281301947691
 20
631.5622579704777
 30
0.0
  0
SPLINE
  5
1C4
330
1F
100
AcDbEntity
  8
0
  6
Continuous
 62
     7
370
    25
100
AcDbSpline
210
0.0
220
0.0
230
1.0
 70
     8
 71
     3
 72
    15
 73
    11
 74
     0
 42
0.000000001
 43
0.00000001
 40
0.0
 40
0.0
 40
0.0
 40
0.0
 40
0.2126307822085924
 40
0.3330806359273478
 40
0.4343189429316079
 40
0.5361409898009256
 40
0.6255006565989226
 40
0.7454503639221153
 40
0.9209037802014183
 40
1.0
 40
1.0
 40
1.0
 40
1.0
 10
1638.314769152333
 20
634.0628741830822
 30
0.0
 10
1638.278364418527
 20
634.0159080556061
 30
0.0
 10
1638.22133734201
 20
633.9423368283159
 30
0.0
 10
1638.091841144416
 20
633.8690365019725
 30
0.0
 10
1637.973664406698
 20
633.834865900699
 30
0.0
 10
1637.854881607395
 20
633.8306043726753
 30
0.0
 10
1637.735532840595
 20
633.8543940399693
 30
0.0
 10
1637.611659125015
 20
633.9123150491835
 30
0.0
 10
1637.52552873271
 20
633.9889473491105
 30
0.0
 10
1637.48612800703
 20
634.0453486151606
 30
0.0
 10
1637.473885017779
 20
634.062874183082
 30
0.0
  0
SPLINE
  5
1C5
330
1F
100
AcDbEntity
  8
0
  6
Continuous
 62
     7
370
    25
100
AcDbSpline
210
0.0
220
0.0
230
1.0
 70
     8
 71
     3
 72
    26
 73
    22
 74
     0
 42
0.000000001
 43
0.00000001
 40
0.0
 40
0.0
 40
0.0
 40
0.0
 40
0.0896959764739919
 40
0.1819074482087707
 40
0.2741027935358047
 40
0.3212761778329855
 40
0.3688069727726453
 40
0.4236032023576924
 40
0.4509844832888559
 40
0.4791952421398649
 40
0.5037433136994389
 40
0.5283932366349169
 40
0.5611050865776565
 40
0.6012574653172086
 40
0.6425332155015533
 40
0.6854357108624534
 40
0.7286475574966226
 40
0.816892130872766
 40
0.9072309307633631
 40
0.9534482383716111
 40
1.0
 40
1.0
 40
1.0
 40
1.0
 10
1643.50735222242
 20
631.5622579704786
 30
0.0
 10
1643.567729520032
 20
631.7974411353861
 30
0.0
 10
1643.690177377453
 20
632.2744031025973
 30
0.0
 10
1643.644242352033
 20
632.9854066674143
 30
0.0
 10
1643.47777072473
 20
633.5524926947539
 30
0.0
 10
1643.256934084852
 20
633.9827521978161
 30
0.0
 10
1643.031373903573
 20
634.3116746924876
 30
0.0
 10
1642.781382565964
 20
634.5842194386087
 30
0.0
 10
1642.512001866385
 20
634.8097116462835
 30
0.0
 10
1642.276939499067
 20
634.9711950068297
 30
0.0
 10
1642.003974279048
 20
635.1192536738712
 30
0.0
 10
1641.693366714728
 20
635.2467583898809
 30
0.0
 10
1641.350795380246
 20
635.3415327895649
 30
0.0
 10
1640.997421692366
 20
635.3924239124411
 30
0.0
 10
1640.644337792184
 20
635.3997498161324
 30
0.0
 10
1640.3042329075
 20
635.3662937226918
 30
0.0
 10
1639.861575863511
 20
635.2697855871564
 30
0.0
 10
1639.336469430875
 20
635.0551207850897
 30
0.0
 10
1638.865922499548
 20
634.7159390191615
 30
0.0
 10
1638.530153610817
 20
634.3710526133808
 30
0.0
 10
1638.386736322695
 20
634.1658469312146
 30
0.0
 10
1638.314769152333
 20
634.0628741830822
 30
0.0
  0
SPLINE
  5
1C6
330
1F
100
AcDbEntity
  8
0
  6
Continuous
 62
     7
370
    25
100
AcDbSpline
210
0.0
220
0.0
230
1.0
 70
     8
 71
     3
 72
    15
 73
    11
 74
     0
 42
0.000000001
 43
0.00000001
 40
0.0
 40
0.0
 40
0.0
 40
0.0
 40
0.2153296810343193
 40
0.3327055588565636
 40
0.4327106172887984
 40
0.5331289091056565
 40
0.6249491950544266
 40
0.7533679527279796
 40
0.9418458044828419
 40
1.0
 40
1.0
 40
1.0
 40
1.0
 10
1644.031634904859
 20
630.9048282809761
 30
0.0
 10
1643.969881186837
 20
630.9041722097757
 30
0.0
 10
1643.874465612138
 20
630.9031585151733
 30
0.0
 10
1643.734535604839
 20
630.9618993667204
 30
0.0
 10
1643.63605648368
 20
631.0338326417783
 30
0.0
 10
1643.560609023733
 20
631.1237898338153
 30
0.0
 10
1643.505143353215
 20
631.233359191875
 30
0.0
 10
1643.474043537211
 20
631.3717017604832
 30
0.0
 10
1643.48340451964
 20
631.4840240968258
 30
0.0
 10
1643.502782923698
 20
631.5473306957342
 30
0.0
 10
1643.50735222242
 20
631.5622579704786
 30
0.0
  0
SPLINE
  5
1C7
330
1F
100
AcDbEntity
  8
0
  6
Continuous
 62
     7
370
    25
100
AcDbSpline
210
0.0
220
0.0
230
1.0
 70
     8
 71
     3
 72
    33
 73
    29
 74
     0
 42
0.000000001
 43
0.00000001
 40
0.0
 40
0.0
 40
0.0
 40
0.0
 40
0.0441213647301349
 40
0.0885643240892556
 40
0.1339549310956321
 40
0.1796485529093068
 40
0.2244874082555797
 40
0.2696160366855498
 40
0.3157575130293603
 40
0.3623227711932909
 40
0.3904545578735313
 40
0.4187956069174315
 40
0.4469628201082619
 40
0.4757844533845464
 40
0.4937613087931168
 40
0.5122052114429699
 40
0.5302047120128767
 40
0.5487727969964499
 40
0.5721373294163192
 40
0.596149019290295
 40
0.6384785624501088
 40
0.6818249414600187
 40
0.72212524426976
 40
0.7627269998852252
 40
0.8041331317540933
 40
0.8457735509867841
 40
0.922143064946257
 40
1.0
 40
1.0
 40
1.0
 40
1.0
 10
830.4745571563482
 20
896.5150437882153
 30
0.0
 10
830.366178326588
 20
896.4714097832383
 30
0.0
 10
830.1486307085122
 20
896.3838237309542
 30
0.0
 10
829.849928614656
 20
896.2067082790103
 30
0.0
 10
829.5728763378389
 20
895.9981834515751
 30
0.0
 10
829.3242440372028
 20
895.7584397810558
 30
0.0
 10
829.1059955051095
 20
895.491812130867
 30
0.0
 10
828.9185096954353
 20
895.197909519466
 30
0.0
 10
828.7629573769582
 20
894.8731672305444
 30
0.0
 10
828.6597906553525
 20
894.5623969830435
 30
0.0
 10
828.5980722937545
 20
894.2763454435072
 30
0.0
 10
828.5658401938343
 20
894.0259288157454
 30
0.0
 10
828.5553220463573
 20
893.7552438382849
 30
0.0
 10
828.5701839171387
 20
893.4985414181177
 30
0.0
 10
828.6044507548536
 20
893.2639314803056
 30
0.0
 10
828.648063455083
 20
893.0641278320792
 30
0.0
 10
828.7069864677443
 20
892.8641870552212
 30
0.0
 10
828.7850373414285
 20
892.6555883212455
 30
0.0
 10
828.884302345299
 20
892.4434759860836
 30
0.0
 10
829.0331303109365
 20
892.1847494541513
 30
0.0
 10
829.2323057522652
 20
891.9139293236494
 30
0.0
 10
829.4787342023561
 20
891.6561195003562
 30
0.0
 10
829.736870723093
 20
891.4429935091688
 30
0.0
 10
830.0041302687174
 20
891.2679705962126
 30
0.0
 10
830.2867322222215
 20
891.1239198593731
 30
0.0
 10
830.6656878206572
 20
890.9814789881243
 30
0.0
 10
831.1536573833412
 20
890.8718854654339
 30
0.0
 10
831.5546096569981
 20
890.8880499640443
 30
0.0
 10
831.7570192652689
 20
890.8962101617699
 30
0.0
  0
SPLINE
  5
1C8
330
1F
100
AcDbEntity
  8
0
  6
Continuous
 62
     7
370
    25
100
AcDbSpline
210
0.0
220
0.0
230
1.0
 70
     8
 71
     3
 72
    14
 73
    10
 74
     0
 42
0.000000001
 43
0.00000001
 40
0.0
 40
0.0
 40
0.0
 40
0.0
 40
0.2204300636816468
 40
0.3399443732551065
 40
0.4603671101701679
 40
0.5640212293774038
 40
0.6631726788869601
 40
0.8102691653342999
 40
1.0
 40
1.0
 40
1.0
 40
1.0
 10
830.6616714793183
 20
897.3348452019031
 30
0.0
 10
830.7023099857466
 20
897.2843907240625
 30
0.0
 10
830.764982161071
 20
897.2065804854728
 30
0.0
 10
830.8059961854638
 20
897.0488070960597
 30
0.0
 10
830.8053928796894
 20
896.9162510597096
 30
0.0
 10
830.7714004624046
 20
896.7946819307679
 30
0.0
 10
830.7093976215394
 20
896.6826959354274
 30
0.0
 10
830.6089787071163
 20
896.5767179491818
 30
0.0
 10
830.5229922869116
 20
896.5372663858697
 30
0.0
 10
830.4745571563482
 20
896.5150437882153
 30
0.0
  0
SPLINE
  5
1C9
330
1F
100
AcDbEntity
  8
0
  6
Continuous
 62
     7
370
    25
100
AcDbSpline
210
0.0
220
0.0
230
1.0
 70
     8
 71
     3
 72
    25
 73
    21
 74
     0
 42
0.000000001
 43
0.00000001
 40
0.0
 40
0.0
 40
0.0
 40
0.0
 40
0.0863534354811913
 40
0.1752012878124606
 40
0.2620202071647391
 40
0.3067390536624447
 40
0.3519417885941311
 40
0.3854351630923001
 40
0.4193619382517509
 40
0.4529210172243739
 40
0.4876706301567008
 40
0.5343321995009286
 40
0.5808912372373958
 40
0.6174915337674352
 40
0.6550813421275927
 40
0.717659210651879
 40
0.7818739695914252
 40
0.8689355796086901
 40
0.9585132438224564
 40
0.9999999999999999
 40
0.9999999999999999
 40
0.9999999999999999
 40
0.9999999999999999
 10
834.2550504570416
 20
901.8407999181594
 30
0.0
 10
834.0567486721176
 20
901.9446203901396
 30
0.0
 10
833.6544169304724
 20
902.1552603060952
 30
0.0
 10
832.9969118372356
 20
902.2813979612074
 30
0.0
 10
832.4303936159381
 20
902.2690794192356
 30
0.0
 10
831.9713037537657
 20
902.1741933214122
 30
0.0
 10
831.6492671900971
 20
902.0646746725087
 30
0.0
 10
831.3552615852323
 20
901.9251366404693
 30
0.0
 10
831.0924494434723
 20
901.7655290111701
 30
0.0
 10
830.8299257964646
 20
901.5638829893187
 30
0.0
 10
830.5462570833046
 20
901.2876363272321
 30
0.0
 10
830.2659059309244
 20
900.9175834236634
 30
0.0
 10
830.0602100688885
 20
900.5156073539719
 30
0.0
 10
829.9343739823267
 20
900.1500077231776
 30
0.0
 10
829.8474641560978
 20
899.7489524843824
 30
0.0
 10
829.8193494408509
 20
899.289588301657
 30
0.0
 10
829.8836815300076
 20
898.7274931819895
 30
0.0
 10
830.0769850522191
 20
898.141308020835
 30
0.0
 10
830.36201784778
 20
897.6625385056896
 30
0.0
 10
830.5896252760031
 20
897.4136330285963
 30
0.0
 10
830.6616714793183
 20
897.3348452019031
 30
0.0
  0
SPLINE
  5
1CA
330
1F
100
AcDbEntity
  8
0
  6
Continuous
 62
     7
370
    25
100
AcDbSpline
210
0.0
220
0.0
230
1.0
 70
     8
 71
     3
 72
    14
 73
    10
 74
     0
 42
0.000000001
 43
0.00000001
 40
0.0
 40
0.0
 40
0.0
 40
0.0
 40
0.2240635092468812
 40
0.3487071205324254
 40
0.4742528072796943
 40
0.582549286062515
 40
0.6866084231150325
 40
0.8379727149430984
 40
1.0
 40
1.0
 40
1.0
 40
1.0
 10
835.0126608837883
 20
902.2056458706243
 30
0.0
 10
834.9980382283118
 20
902.1411060972349
 30
0.0
 10
834.9752811800854
 20
902.0406636886784
 30
0.0
 10
834.8736069813402
 20
901.9084962851412
 30
0.0
 10
834.7649223792181
 20
901.8260853587306
 30
0.0
 10
834.6439418112802
 20
901.7786547533374
 30
0.0
 10
834.5136524443592
 20
901.7611992738857
 30
0.0
 10
834.3757706617032
 20
901.7785689736119
 30
0.0
 10
834.2961930548192
 20
901.8195910183896
 30
0.0
 10
834.2550504570416
 20
901.8407999181594
 30
0.0
  0
SPLINE
  5
1CB
330
1F
100
AcDbEntity
  8
0
  6
Continuous
 62
     7
370
    25
100
AcDbSpline
210
0.0
220
0.0
230
1.0
 70
     8
 71
     3
 72
    31
 73
    27
 74
     0
 42
0.000000001
 43
0.00000001
 40
0.0
 40
0.0
 40
0.0
 40
0.0
 40
0.0425768439200337
 40
0.0854562266634099
 40
0.1292655212993027
 40
0.1733896051365588
 40
0.2448927928827744
 40
0.2814175395970614
 40
0.3182118727426355
 40
0.3578509173303925
 40
0.3981484105825077
 40
0.4288224096626714
 40
0.4602420416076457
 40
0.4856042083258851
 40
0.511693631532706
 40
0.5370616943793018
 40
0.5630949909788445
 40
0.5995472643023694
 40
0.637010214932426
 40
0.695999890366636
 40
0.7565561265102955
 40
0.798180495256912
 40
0.8401079728424069
 40
0.8829363933459077
 40
0.9260588511262501
 40
1.0
 40
1.0
 40
1.0
 40
1.0
 10
840.7759932863565
 20
902.2056458706246
 30
0.0
 10
840.7589169748464
 20
902.3141662493897
 30
0.0
 10
840.7246430124616
 20
902.5319781215605
 30
0.0
 10
840.6271287013523
 20
902.8475028621637
 30
0.0
 10
840.4959216158572
 20
903.1533918824821
 30
0.0
 10
840.2928451656951
 20
903.5058411188115
 30
0.0
 10
840.0466049727451
 20
903.8143054513001
 30
0.0
 10
839.7644512687175
 20
904.0769338823994
 30
0.0
 10
839.5175502116008
 20
904.2637434030726
 30
0.0
 10
839.231500206827
 20
904.4345000861789
 30
0.0
 10
838.9266952900247
 20
904.5698358512267
 30
0.0
 10
838.6153864804735
 20
904.6673094767912
 30
0.0
 10
838.3283179102184
 20
904.7251032487683
 30
0.0
 10
838.04327546902
 20
904.7531230592253
 30
0.0
 10
837.7744111160272
 20
904.7544811132466
 30
0.0
 10
837.5069867092338
 20
904.7308649322541
 30
0.0
 10
837.2158091963304
 20
904.6781399725809
 30
0.0
 10
836.9072581322115
 20
904.5871643514489
 30
0.0
 10
836.5372525862603
 20
904.4281884174405
 30
0.0
 10
836.157720444016
 20
904.193537243036
 30
0.0
 10
835.8331338754266
 20
903.907572937984
 30
0.0
 10
835.5883010155527
 20
903.6234062316121
 30
0.0
 10
835.4049723258807
 20
903.3558483130851
 30
0.0
 10
835.2527275973832
 20
903.0679983996663
 30
0.0
 10
835.0999954792173
 20
902.6902219029256
 30
0.0
 10
835.0464695725017
 20
902.3932333913958
 30
0.0
 10
835.0126608837883
 20
902.2056458706243
 30
0.0
  0
SPLINE
  5
1CC
330
1F
100
AcDbEntity
  8
0
  6
Continuous
 62
     7
370
    25
100
AcDbSpline
210
0.0
220
0.0
230
1.0
 70
     8
 71
     3
 72
    14
 73
    10
 74
     0
 42
0.000000001
 43
0.00000001
 40
0.0
 40
0.0
 40
0.0
 40
0.0
 40
0.2236978580034598
 40
0.3528357075717348
 40
0.4829964006464933
 40
0.5936020866478993
 40
0.697046383985613
 40
0.8440092931474584
 40
1.0
 40
1.0
 40
1.0
 40
1.0
 10
841.533603713106
 20
901.8407999181615
 30
0.0
 10
841.4750654132176
 20
901.8124138919734
 30
0.0
 10
841.3827337179322
 20
901.7676409838884
 30
0.0
 10
841.2157899382673
 20
901.76382997214
 30
0.0
 10
841.0803005247712
 20
901.7982950259928
 30
0.0
 10
840.9658031017178
 20
901.8657554269263
 30
0.0
 10
840.871953591505
 20
901.9579445724331
 30
0.0
 10
840.801772666624
 20
902.0754061148423
 30
0.0
 10
840.7847554467097
 20
902.1613786457075
 30
0.0
 10
840.7759932863565
 20
902.2056458706246
 30
0.0
  0
SPLINE
  5
1CD
330
1F
100
AcDbEntity
  8
0
  6
Continuous
 62
     7
370
    25
100
AcDbSpline
210
0.0
220
0.0
230
1.0
 70
     8
 71
     3
 72
    25
 73
    21
 74
     0
 42
0.000000001
 43
0.00000001
 40
0.0
 40
0.0
 40
0.0
 40
0.0
 40
0.0875279947747076
 40
0.1775894167757404
 40
0.2471189321081223
 40
0.3182300544307205
 40
0.3543941983068582
 40
0.3910959660048199
 40
0.419612894980416
 40
0.4488176980690846
 40
0.4955677239741455
 40
0.5422939578261106
 40
0.5762852785957236
 40
0.6112087183676483
 40
0.6688382656568881
 40
0.7279620571790819
 40
0.8132217551468688
 40
0.9009245334796623
 40
0.9502356752284362
 40
1.0
 40
1.0
 40
1.0
 40
1.0
 10
845.1269826908261
 20
897.3348452019037
 30
0.0
 10
845.2730287753059
 20
897.5058962503175
 30
0.0
 10
845.5693481304088
 20
897.8529492818067
 30
0.0
 10
845.8224343932906
 20
898.4323246652469
 30
0.0
 10
845.9521032636163
 20
899.0153568939503
 30
0.0
 10
845.964530424312
 20
899.4953810946362
 30
0.0
 10
845.9105005796572
 20
899.9062681795002
 30
0.0
 10
845.8365845003683
 20
900.2062068846445
 30
0.0
 10
845.7325051657638
 20
900.4929176366901
 30
0.0
 10
845.5791518971834
 20
900.8133743863297
 30
0.0
 10
845.3346946971731
 20
901.1833694234996
 30
0.0
 10
845.0243645950153
 20
901.5091745005942
 30
0.0
 10
844.7285933938126
 20
901.743394144391
 30
0.0
 10
844.3994589982432
 20
901.948745442763
 30
0.0
 10
844.0026183796473
 20
902.123120694613
 30
0.0
 10
843.4767581786679
 20
902.256825116336
 30
0.0
 10
842.8778398816125
 20
902.2893418089265
 30
0.0
 10
842.3204521977143
 20
902.1910669952778
 30
0.0
 10
841.8707654333191
 20
902.0298903601791
 30
0.0
 10
841.646333146543
 20
901.9040219778411
 30
0.0
 10
841.533603713106
 20
901.8407999181615
 30
0.0
  0
SPLINE
  5
1CE
330
1F
100
AcDbEntity
  8
0
  6
Continuous
 62
     7
370
    25
100
AcDbSpline
210
0.0
220
0.0
230
1.0
 70
     8
 71
     3
 72
    14
 73
    10
 74
     0
 42
0.000000001
 43
0.00000001
 40
0.0
 40
0.0
 40
0.0
 40
0.0
 40
0.2198296104785076
 40
0.349917795829291
 40
0.4588983161343722
 40
0.5683999765788834
 40
0.6667094681233259
 40
0.7967198733580303
 40
1.0
 40
1.0
 40
1.0
 40
1.0
 10
845.3140970138021
 20
896.5150437882136
 30
0.0
 10
845.2577585431287
 20
896.5416480231447
 30
0.0
 10
845.1680807538829
 20
896.5839957998
 30
0.0
 10
845.0658174953666
 20
896.7020702534148
 30
0.0
 10
845.0074814453228
 20
896.8179516543785
 30
0.0
 10
844.9814839569467
 20
896.9399558383341
 30
0.0
 10
844.9860065889542
 20
897.0676308212671
 30
0.0
 10
845.0278516891003
 20
897.2135118721664
 30
0.0
 10
845.0894268493633
 20
897.2888779947086
 30
0.0
 10
845.1269826908261
 20
897.3348452019037
 30
0.0
  0
SPLINE
  5
1CF
330
1F
100
AcDbEntity
  8
0
  6
Continuous
 62
     7
370
    25
100
AcDbSpline
210
0.0
220
0.0
230
1.0
 70
     8
 71
     3
 72
    33
 73
    29
 74
     0
 42
0.000000001
 43
0.00000001
 40
0.0
 40
0.0
 40
0.0
 40
0.0
 40
0.0453846795159054
 40
0.0910956457676961
 40
0.1377861112474771
 40
0.184798448438571
 40
0.2588563244583138
 40
0.2965960583089478
 40
0.3345934417298384
 40
0.3627068189222542
 40
0.3910552764359976
 40
0.4192115960367001
 40
0.4481447873352762
 40
0.4657876556063221
 40
0.4839178616272912
 40
0.5015746029079646
 40
0.5197390882526288
 40
0.5448263126108639
 40
0.5705932132964516
 40
0.6177342306539245
 40
0.6659981837890069
 40
0.7087532480230759
 40
0.7518249524472848
 40
0.7957808044145547
 40
0.8400079168875251
 40
0.9191109597848035
 40
0.959435701242173
 40
1.0
 40
1.0
 40
1.0
 40
1.0
 10
844.0316349048765
 20
890.8962101617707
 30
0.0
 10
844.1497392452568
 20
890.8884450691957
 30
0.0
 10
844.3867970204726
 20
890.8728590580106
 30
0.0
 10
844.7387752964825
 20
890.9042313382863
 30
0.0
 10
845.0860337659124
 20
890.9750429357593
 30
0.0
 10
845.4895567367184
 20
891.1115079363144
 30
0.0
 10
845.851399261114
 20
891.3012624591493
 30
0.0
 10
846.1707566061891
 20
891.5362964824976
 30
0.0
 10
846.3813884089609
 20
891.7283096894503
 30
0.0
 10
846.5634185155712
 20
891.9295211662745
 30
0.0
 10
846.7184130396846
 20
892.133469820971
 30
0.0
 10
846.8649592986911
 20
892.3676168787731
 30
0.0
 10
846.9812058784003
 20
892.6020550302013
 30
0.0
 10
847.0679442998671
 20
892.8244786182252
 30
0.0
 10
847.1281213845315
 20
893.0173858665928
 30
0.0
 10
847.1749128761498
 20
893.2155076554199
 30
0.0
 10
847.2111153430515
 20
893.4361978404601
 30
0.0
 10
847.2306972206643
 20
893.6761638599816
 30
0.0
 10
847.22842562239
 20
893.9948532685357
 30
0.0
 10
847.1823901128761
 20
894.3539929814469
 30
0.0
 10
847.0815013310556
 20
894.7227426924684
 30
0.0
 10
846.9456835185072
 20
895.0507678934927
 30
0.0
 10
846.7827406887952
 20
895.3436000063228
 30
0.0
 10
846.5876757177614
 20
895.6153002200831
 30
0.0
 10
846.3022585670083
 20
895.9295078526035
 30
0.0
 10
845.9735782616594
 20
896.1897118291098
 30
0.0
 10
845.612884733406
 20
896.395715502404
 30
0.0
 10
845.4138893655454
 20
896.4751892376778
 30
0.0
 10
845.3140970138022
 20
896.5150437882136
 30
0.0
  0
SPLINE
  5
1D0
330
1F
100
AcDbEntity
  8
0
  6
Continuous
 62
     7
370
    25
100
AcDbSpline
210
0.0
220
0.0
230
1.0
 70
     8
 71
     3
 72
    15
 73
    11
 74
     0
 42
0.000000001
 43
0.00000001
 40
0.0
 40
0.0
 40
0.0
 40
0.0
 40
0.2148110296556637
 40
0.3411322673416562
 40
0.4464287003091745
 40
0.5523542512426545
 40
0.6447889097414623
 40
0.7660552293890822
 40
0.9403894463275483
 40
1.0
 40
1.0
 40
1.0
 40
1.0
 10
843.5073522224365
 20
890.2387804722682
 30
0.0
 10
843.4933356516188
 20
890.2968832368746
 30
0.0
 10
843.4710765311677
 20
890.3891537681445
 30
0.0
 10
843.4956913180894
 20
890.5381396009782
 30
0.0
 10
843.5454456109129
 20
890.6545439230503
 30
0.0
 10
843.6199304866873
 20
890.751316099163
 30
0.0
 10
843.7168958297625
 20
890.8290110343892
 30
0.0
 10
843.8420579210484
 20
890.8866281232221
 30
0.0
 10
843.9509584164722
 20
890.9019859936693
 30
0.0
 10
844.0152524047332
 20
890.8973830259939
 30
0.0
 10
844.0316349048765
 20
890.8962101617707
 30
0.0
  0
SPLINE
  5
1D1
330
1F
100
AcDbEntity
  8
0
  6
Continuous
 62
     7
370
    25
100
AcDbSpline
210
0.0
220
0.0
230
1.0
 70
     8
 71
     3
 72
    33
 73
    29
 74
     0
 42
0.000000001
 43
0.00000001
 40
0.0
 40
0.0
 40
0.0
 40
0.0
 40
0.0454432397232603
 40
0.0912170391423937
 40
0.137950021517985
 40
0.1849840146143992
 40
0.23165165087071
 40
0.2786054666831018
 40
0.3265572669076812
 40
0.3749371050177973
 40
0.3989747636382652
 40
0.4231769206047895
 40
0.4431234955496033
 40
0.4634796340440158
 40
0.4878744888887387
 40
0.5123837511182208
 40
0.5281127512287178
 40
0.5442716110769352
 40
0.575541891250846
 40
0.6074940067964228
 40
0.6452969753465772
 40
0.6833694665812783
 40
0.7609503045067262
 40
0.8037406836446799
 40
0.8467500403233572
 40
0.8904656812725393
 40
0.934438123637836
 40
1.0
 40
1.0
 40
1.0
 40
1.0
 10
838.3147691523491
 20
887.738164259664
 30
0.0
 10
838.384968397062
 20
887.6375114676839
 30
0.0
 10
838.5258775243988
 20
887.4354737229776
 30
0.0
 10
838.7783315250404
 20
887.1745935167012
 30
0.0
 10
839.0574626314993
 20
886.9455064134219
 30
0.0
 10
839.3620382159573
 20
886.7543797525124
 30
0.0
 10
839.6868738653747
 20
886.6022523928581
 30
0.0
 10
840.0320983819422
 20
886.4898273196451
 30
0.0
 10
840.400036374706
 20
886.4195061030633
 30
0.0
 10
840.7276766341544
 20
886.4004975804392
 30
0.0
 10
841.0073033420404
 20
886.414225954589
 30
0.0
 10
841.2154141489275
 20
886.4399253178902
 30
0.0
 10
841.425061258343
 20
886.4815340249684
 30
0.0
 10
841.6497497058931
 20
886.5429901985955
 30
0.0
 10
841.9092375197376
 20
886.6389568319755
 30
0.0
 10
842.1474364381661
 20
886.7571799427607
 30
0.0
 10
842.3305700652943
 20
886.8676961663091
 30
0.0
 10
842.5148353038147
 20
886.9945655786171
 30
0.0
 10
842.7119878739253
 20
887.1568574885404
 30
0.0
 10
842.9214028707771
 20
887.3671524024969
 30
0.0
 10
843.1087615533527
 20
887.5983169851992
 30
0.0
 10
843.330127927139
 20
887.939133441144
 30
0.0
 10
843.4962838252619
 20
888.3114069072001
 30
0.0
 10
843.6044697260107
 20
888.7136645498364
 30
0.0
 10
843.6542091711866
 20
889.0415470691293
 30
0.0
 10
843.6652563063707
 20
889.3792637392058
 30
0.0
 10
843.6356335462024
 20
889.7807446827785
 30
0.0
 10
843.5553850439607
 20
890.0672765410457
 30
0.0
 10
843.5073522224365
 20
890.2387804722682
 30
0.0
  0
SPLINE
  5
1D2
330
1F
100
AcDbEntity
  8
0
  6
Continuous
 62
     7
370
    25
100
AcDbSpline
210
0.0
220
0.0
230
1.0
 70
     8
 71
     3
 72
    15
 73
    11
 74
     0
 42
0.000000001
 43
0.00000001
 40
0.0
 40
0.0
 40
0.0
 40
0.0
 40
0.2126307822085924
 40
0.3330806359273478
 40
0.4343189429316079
 40
0.5361409898009256
 40
0.6255006565989226
 40
0.7454503639221153
 40
0.9209037802014183
 40
1.0
 40
1.0
 40
1.0
 40
1.0
 10
837.4738850177947
 20
887.7381642596639
 30
0.0
 10
837.5102897516007
 20
887.7851303871399
 30
0.0
 10
837.5673168281177
 20
887.8587016144301
 30
0.0
 10
837.6968130257114
 20
887.9320019407735
 30
0.0
 10
837.8149897634294
 20
887.966172542047
 30
0.0
 10
837.9337725627323
 20
887.9704340700707
 30
0.0
 10
838.0531213295325
 20
887.9466444027767
 30
0.0
 10
838.1769950451126
 20
887.8887233935626
 30
0.0
 10
838.2631254374173
 20
887.8120910936354
 30
0.0
 10
838.3025261630972
 20
887.7556898275855
 30
0.0
 10
838.3147691523491
 20
887.738164259664
 30
0.0
  0
SPLINE
  5
1D3
330
1F
100
AcDbEntity
  8
0
  6
Continuous
 62
     7
370
    25
100
AcDbSpline
210
0.0
220
0.0
230
1.0
 70
     8
 71
     3
 72
    26
 73
    22
 74
     0
 42
0.000000001
 43
0.00000001
 40
0.0
 40
0.0
 40
0.0
 40
0.0
 40
0.0896959764739918
 40
0.1819074482087704
 40
0.274102793535805
 40
0.3212761778329857
 40
0.3688069727726453
 40
0.4236032023576924
 40
0.4509844832888558
 40
0.4791952421398648
 40
0.5037433136994388
 40
0.5283932366349167
 40
0.5611050865776562
 40
0.6012574653172083
 40
0.6425332155015528
 40
0.6854357108624528
 40
0.728647557496622
 40
0.8168921308727652
 40
0.9072309307633623
 40
0.9534482383716101
 40
1.0
 40
1.0
 40
1.0
 40
1.0
 10
832.2813019477082
 20
890.2387804722672
 30
0.0
 10
832.2209246500954
 20
890.0035973073599
 30
0.0
 10
832.0984767926748
 20
889.5266353401486
 30
0.0
 10
832.1444118180946
 20
888.8156317753317
 30
0.0
 10
832.3108834453976
 20
888.2485457479921
 30
0.0
 10
832.5317200852754
 20
887.8182862449299
 30
0.0
 10
832.757280266554
 20
887.4893637502583
 30
0.0
 10
833.0072716041642
 20
887.2168190041373
 30
0.0
 10
833.2766523037425
 20
886.9913267964625
 30
0.0
 10
833.5117146710612
 20
886.8298434359162
 30
0.0
 10
833.7846798910797
 20
886.6817847688749
 30
0.0
 10
834.0952874553996
 20
886.554280052865
 30
0.0
 10
834.4378587898813
 20
886.4595056531812
 30
0.0
 10
834.7912324777619
 20
886.4086145303047
 30
0.0
 10
835.1443163779436
 20
886.4012886266136
 30
0.0
 10
835.484421262627
 20
886.434744720054
 30
0.0
 10
835.9270783066164
 20
886.5312528555896
 30
0.0
 10
836.452184739253
 20
886.7459176576563
 30
0.0
 10
836.9227316705793
 20
887.0850994235844
 30
0.0
 10
837.2585005593107
 20
887.4299858293653
 30
0.0
 10
837.4019178474331
 20
887.6351915115313
 30
0.0
 10
837.4738850177947
 20
887.7381642596639
 30
0.0
  0
SPLINE
  5
1D4
330
1F
100
AcDbEntity
  8
0
  6
Continuous
 62
     7
370
    25
100
AcDbSpline
210
0.0
220
0.0
230
1.0
 70
     8
 71
     3
 72
    15
 73
    11
 74
     0
 42
0.000000001
 43
0.00000001
 40
0.0
 40
0.0
 40
0.0
 40
0.0
 40
0.2153296810343193
 40
0.3327055588565636
 40
0.4327106172887984
 40
0.5331289091056565
 40
0.6249491950544266
 40
0.7533679527279796
 40
0.9418458044828419
 40
1.0
 40
1.0
 40
1.0
 40
1.0
 10
831.7570192652687
 20
890.8962101617699
 30
0.0
 10
831.8187729832902
 20
890.8968662329703
 30
0.0
 10
831.9141885579896
 20
890.8978799275726
 30
0.0
 10
832.0541185652887
 20
890.8391390760256
 30
0.0
 10
832.1525976864477
 20
890.7672058009676
 30
0.0
 10
832.2280451463943
 20
890.6772486089308
 30
0.0
 10
832.2835108169126
 20
890.5676792508708
 30
0.0
 10
832.3146106329169
 20
890.4293366822627
 30
0.0
 10
832.3052496504872
 20
890.31701434592
 30
0.0
 10
832.28587124643
 20
890.2537077470118
 30
0.0
 10
832.2813019477082
 20
890.2387804722672
 30
0.0
  0
LINE
  5
1D5
330
1F
100
AcDbEntity
  8
0
  6
Continuous
 62
     7
370
    25
100
AcDbLine
 10
1630.3943270851
 20
891.0805192214
 30
0.0
 11
1630.3943270851
 21
885.9005192214
 31
0.0
  0
LINE
  5
1D6
330
1F
100
AcDbEntity
  8
0
  6
Continuous
 62
     7
370
    25
100
AcDbLine
 10
1630.3943270851
 20
635.9005192214
 30
0.0
 11
1630.3943270851
 21
630.7205192214
 31
0.0
  0
LINE
  5
1D7
330
1F
100
AcDbEntity
  8
0
  6
Continuous
 62
     7
370
    25
100
AcDbLine
 10
1645.3943270851
 20
891.0805192214
 30
0.0
 11
1645.3943270851
 21
885.9005192214
 31
0.0
  0
LINE
  5
1D8
330
1F
100
AcDbEntity
  8
0
  6
Continuous
 62
     7
370
    25
100
AcDbLine
 10
1645.3943270851
 20
635.9005192214
 30
0.0
 11
1645.3943270851
 21
630.7205192214
 31
0.0
  0
LINE
  5
1D9
330
1F
100
AcDbEntity
  8
0
  6
Continuous
 62
     7
370
    25
100
AcDbLine
 10
845.3943270851
 20
630.7205192214
 30
0.0
 11
845.3943270851
 21
635.9005192214
 31
0.0
  0
LINE
  5
1DA
330
1F
100
AcDbEntity
  8
0
  6
Continuous
 62
     7
370
    25
100
AcDbLine
 10
845.3943270851
 20
885.9005192214
 30
0.0
 11
845.3943270851
 21
891.0805192214
 31
0.0
  0
LINE
  5
1DB
330
1F
100
AcDbEntity
  8
0
  6
Continuous
 62
     7
370
    25
100
AcDbLine
 10
830.3943270851
 20
630.7205192214
 30
0.0
 11
830.3943270851
 21
635.9005192214
 31
0.0
  0
LINE
  5
1DC
330
1F
100
AcDbEntity
  8
0
  6
Continuous
 62
     7
370
    25
100
AcDbLine
 10
830.3943270851
 20
885.9005192214
 30
0.0
 11
830.3943270851
 21
891.0805192214
 31
0.0
  0
ARC
  5
1DD
330
1F
100
AcDbEntity
  8
0
  6
Continuous
 62
     7
370
    25
100
AcDbCircle
 10
1637.8943270851
 20
895.2527842389
 30
0.0
 40
9.5
100
AcDbArc
 50
349.4013915509
 51
0.0
  0
ARC
  5
1DE
330
1F
100
AcDbEntity
  8
0
  6
Continuous
 62
     7
370
    25
100
AcDbCircle
 10
1637.8943270851
 20
895.2527842389
 30
0.0
 40
9.500000000000139
100
AcDbArc
 50
322.1363536382
 51
344.9305532749
  0
ARC
  5
1DF
330
1F
100
AcDbEntity
  8
0
  6
Continuous
 62
     7
370
    25
100
AcDbCircle
 10
1637.8943270851
 20
895.2527842389
 30
0.0
 40
9.500000000000243
100
AcDbArc
 50
195.5971638161
 51
217.8636463616
  0
ARC
  5
1E0
330
1F
100
AcDbEntity
  8
0
  6
Continuous
 62
     7
370
    25
100
AcDbCircle
 10
1637.8943270851
 20
895.2527842389
 30
0.0
 40
9.500000000000187
100
AcDbArc
 50
143.8090698459
 51
191.7910088902
  0
ARC
  5
1E1
330
1F
100
AcDbEntity
  8
0
  6
Continuous
 62
     7
370
    25
100
AcDbCircle
 10
1637.8943270851
 20
895.2527842389
 30
0.0
 40
9.499999999999995
100
AcDbArc
 50
92.4276462233
 51
140.2215132573
  0
ARC
  5
1E2
330
1F
100
AcDbEntity
  8
0
  6
Continuous
 62
     7
370
    25
100
AcDbCircle
 10
1637.8943270851
 20
895.2527842389
 30
0.0
 40
9.5000000000001
100
AcDbArc
 50
39.0286813911
 51
87.4213143166
  0
ARC
  5
1E3
330
1F
100
AcDbEntity
  8
0
  6
Continuous
 62
     7
370
    25
100
AcDbCircle
 10
1637.8943270851
 20
895.2527842389
 30
0.0
 40
9.5
100
AcDbArc
 50
0.0
 51
36.3971769681
  0
ARC
  5
1E4
330
1F
100
AcDbEntity
  8
0
  6
Continuous
 62
     7
370
    25
100
AcDbCircle
 10
837.8943270851
 20
626.5482542038
 30
0.0
 40
9.500000000000016
100
AcDbArc
 50
169.4013915509
 51
180.0
  0
ARC
  5
1E5
330
1F
100
AcDbEntity
  8
0
  6
Continuous
 62
     7
370
    25
100
AcDbCircle
 10
837.8943270851
 20
626.5482542038
 30
0.0
 40
9.499999999999973
100
AcDbArc
 50
142.1363536382
 51
164.930553275
  0
ARC
  5
1E6
330
1F
100
AcDbEntity
  8
0
  6
Continuous
 62
     7
370
    25
100
AcDbCircle
 10
837.8943270851
 20
626.5482542038
 30
0.0
 40
9.500000000000064
100
AcDbArc
 50
15.597163816
 51
37.8636463616
  0
ARC
  5
1E7
330
1F
100
AcDbEntity
  8
0
  6
Continuous
 62
     7
370
    25
100
AcDbCircle
 10
837.8943270851
 20
626.5482542038
 30
0.0
 40
9.500000000000089
100
AcDbArc
 50
323.8090698459
 51
11.7910088902
  0
ARC
  5
1E8
330
1F
100
AcDbEntity
  8
0
  6
Continuous
 62
     7
370
    25
100
AcDbCircle
 10
837.8943270851
 20
626.5482542038
 30
0.0
 40
9.49999999999991
100
AcDbArc
 50
272.4276462234
 51
320.221513257
  0
ARC
  5
1E9
330
1F
100
AcDbEntity
  8
0
  6
Continuous
 62
     7
370
    25
100
AcDbCircle
 10
837.8943270851
 20
626.5482542038
 30
0.0
 40
9.500000000000009
100
AcDbArc
 50
219.0286813911
 51
267.4213143165
  0
ARC
  5
1EA
330
1F
100
AcDbEntity
  8
0
  6
Continuous
 62
     7
370
    25
100
AcDbCircle
 10
837.8943270851
 20
626.5482542038
 30
0.0
 40
9.500000000000018
100
AcDbArc
 50
180.0
 51
216.3971769679
  0
ARC
  5
1EB
330
1F
100
AcDbEntity
  8
0
  6
Continuous
 62
     7
370
    25
100
AcDbCircle
 10
1637.8943270851
 20
626.5482542038
 30
0.0
 40
9.500000000000009
100
AcDbArc
 50
169.4013915509
 51
180.0
  0
ARC
  5
1EC
330
1F
100
AcDbEntity
  8
0
  6
Continuous
 62
     7
370
    25
100
AcDbCircle
 10
1637.8943270851
 20
626.5482542038
 30
0.0
 40
9.500000000000119
100
AcDbArc
 50
142.1363536382
 51
164.930553275
  0
ARC
  5
1ED
330
1F
100
AcDbEntity
  8
0
  6
Continuous
 62
     7
370
    25
100
AcDbCircle
 10
1637.8943270851
 20
626.5482542038
 30
0.0
 40
9.500000000000188
100
AcDbArc
 50
15.597163816
 51
37.8636463617
  0
ARC
  5
1EE
330
1F
100
AcDbEntity
  8
0
  6
Continuous
 62
     7
370
    25
100
AcDbCircle
 10
1637.8943270851
 20
626.5482542038
 30
0.0
 40
9.500000000000123
100
AcDbArc
 50
323.8090698459
 51
11.7910088903
  0
ARC
  5
1EF
330
1F
100
AcDbEntity
  8
0
  6
Continuous
 62
     7
370
    25
100
AcDbCircle
 10
1637.8943270851
 20
626.5482542038
 30
0.0
 40
9.499999999999984
100
AcDbArc
 50
272.4276462234
 51
320.221513257
  0
ARC
  5
1F0
330
1F
100
AcDbEntity
  8
0
  6
Continuous
 62
     7
370
    25
100
AcDbCircle
 10
1637.8943270851
 20
626.5482542038
 30
0.0
 40
9.499999999999927
100
AcDbArc
 50
219.0286813911
 51
267.4213143165
  0
ARC
  5
1F1
330
1F
100
AcDbEntity
  8
0
  6
Continuous
 62
     7
370
    25
100
AcDbCircle
 10
1637.8943270851
 20
626.5482542038
 30
0.0
 40
9.500000000000071
100
AcDbArc
 50
180.0
 51
216.3971769678
  0
ARC
  5
1F2
330
1F
100
AcDbEntity
  8
0
  6
Continuous
 62
     7
370
    25
100
AcDbCircle
 10
837.8943270851
 20
895.2527842389
 30
0.0
 40
9.500000000000114
100
AcDbArc
 50
349.4013915509
 51
0.0
  0
ARC
  5
1F3
330
1F
100
AcDbEntity
  8
0
  6
Continuous
 62
     7
370
    25
100
AcDbCircle
 10
837.8943270851
 20
895.2527842389
 30
0.0
 40
9.500000000000139
100
AcDbArc
 50
322.1363536382
 51
344.9305532749
  0
ARC
  5
1F4
330
1F
100
AcDbEntity
  8
0
  6
Continuous
 62
     7
370
    25
100
AcDbCircle
 10
837.8943270851
 20
895.2527842389
 30
0.0
 40
9.50000000000003
100
AcDbArc
 50
195.5971638161
 51
217.8636463616
  0
ARC
  5
1F5
330
1F
100
AcDbEntity
  8
0
  6
Continuous
 62
     7
370
    25
100
AcDbCircle
 10
837.8943270851
 20
895.2527842389
 30
0.0
 40
9.500000000000004
100
AcDbArc
 50
143.8090698459
 51
191.7910088902
  0
ARC
  5
1F6
330
1F
100
AcDbEntity
  8
0
  6
Continuous
 62
     7
370
    25
100
AcDbCircle
 10
837.8943270851
 20
895.2527842389
 30
0.0
 40
9.499999999999995
100
AcDbArc
 50
92.4276462233
 51
140.2215132573
  0
ARC
  5
1F7
330
1F
100
AcDbEntity
  8
0
  6
Continuous
 62
     7
370
    25
100
AcDbCircle
 10
837.8943270851
 20
895.2527842389
 30
0.0
 40
9.500000000000076
100
AcDbArc
 50
39.0286813911
 51
87.4213143166
  0
ARC
  5
1F8
330
1F
100
AcDbEntity
  8
0
  6
Continuous
 62
     7
370
    25
100
AcDbCircle
 10
837.8943270851
 20
895.2527842389
 30
0.0
 40
9.500000000000114
100
AcDbArc
 50
0.0
 51
36.3971769681
  0
LINE
  5
1F9
330
1F
100
AcDbEntity
  8
0
  6
Continuous
 62
     8
370
    18
100
AcDbLine
 10
1632.8943270851
 20
887.3589410786
 30
0.0
 11
1632.8943270851
 21
885.9005192214
 31
0.0
  0
LINE
  5
1FA
330
1F
100
AcDbEntity
  8
0
  6
Continuous
 62
     8
370
    18
100
AcDbLine
 10
1632.8943270851
 20
635.9005192214
 30
0.0
 11
1632.8943270851
 21
634.4580896986
 31
0.0
  0
LINE
  5
1FB
330
1F
100
AcDbEntity
  8
0
  6
Continuous
 62
     8
370
    18
100
AcDbLine
 10
1642.8943270851
 20
887.3458731916
 30
0.0
 11
1642.8943270851
 21
885.9005192214
 31
0.0
  0
LINE
  5
1FC
330
1F
100
AcDbEntity
  8
0
  6
Continuous
 62
     8
370
    18
100
AcDbLine
 10
1642.8943270851
 20
635.9005192214
 30
0.0
 11
1642.8943270851
 21
634.457916549
 31
0.0
  0
LINE
  5
1FD
330
1F
100
AcDbEntity
  8
0
  6
Continuous
 62
     8
370
    18
100
AcDbLine
 10
1632.1306882378
 20
632.4071746495
 30
0.0
 11
1632.1306882378
 21
631.0150864615
 31
0.0
  0
LINE
  5
1FE
330
1F
100
AcDbEntity
  8
0
  6
Continuous
 62
     8
370
    18
100
AcDbLine
 10
1643.6579006342
 20
631.0153831468
 30
0.0
 11
1643.6579006342
 21
632.4968754939
 31
0.0
  0
LINE
  5
1FF
330
1F
100
AcDbEntity
  8
0
  6
Continuous
 62
     8
370
    18
100
AcDbLine
 10
842.8943270851
 20
634.4420973642
 30
0.0
 11
842.8943270851
 21
635.9005192214
 31
0.0
  0
LINE
  5
200
330
1F
100
AcDbEntity
  8
0
  6
Continuous
 62
     8
370
    18
100
AcDbLine
 10
842.8943270851
 20
885.9005192214
 30
0.0
 11
842.8943270851
 21
887.3429487441
 31
0.0
  0
LINE
  5
201
330
1F
100
AcDbEntity
  8
0
  6
Continuous
 62
     8
370
    18
100
AcDbLine
 10
843.6579659323
 20
889.3938637932
 30
0.0
 11
843.6579659323
 21
890.7859519812
 31
0.0
  0
LINE
  5
202
330
1F
100
AcDbEntity
  8
0
  6
Continuous
 62
     8
370
    18
100
AcDbLine
 10
832.8943270851
 20
634.4551652512
 30
0.0
 11
832.8943270851
 21
635.9005192214
 31
0.0
  0
LINE
  5
203
330
1F
100
AcDbEntity
  8
0
  6
Continuous
 62
     8
370
    18
100
AcDbLine
 10
832.8943270851
 20
885.9005192214
 30
0.0
 11
832.8943270851
 21
887.3431218937
 31
0.0
  0
LINE
  5
204
330
1F
100
AcDbEntity
  8
0
  6
Continuous
 62
     8
370
    18
100
AcDbLine
 10
832.1307535359
 20
890.7856552959
 30
0.0
 11
832.1307535359
 21
889.3041629489
 31
0.0
  0
LINE
  5
205
330
1F
100
AcDbEntity
  8
0
  6
Continuous
 62
     7
370
    25
100
AcDbLine
 10
687.0663006792
 20
315.5130324791
 30
0.0
 11
687.0663006792
 21
319.7988689826
 31
0.0
  0
LINE
  5
206
330
1F
100
AcDbEntity
  8
0
  6
Continuous
 62
     7
370
    25
100
AcDbLine
 10
199.5115161167
 20
391.0034856225
 30
0.0
 11
199.5115161167
 21
386.717649119
 31
0.0
  0
ARC
  5
207
330
1F
100
AcDbEntity
  8
0
  6
Continuous
 62
     7
370
    25
100
AcDbCircle
 10
651.5995407006
 20
335.8588033276
 30
0.0
 40
4.999999999999993
100
AcDbArc
 50
55.8203077778
 51
160.1975640006
  0
ARC
  5
208
330
1F
100
AcDbEntity
  8
0
  6
Continuous
 62
     7
370
    25
100
AcDbCircle
 10
651.5995407006
 20
335.8588033276
 30
0.0
 40
4.999999999999991
100
AcDbArc
 50
28.0863980491
 51
47.717535136
  0
LINE
  5
209
330
1F
100
AcDbEntity
  8
0
  6
Continuous
 62
     7
370
    25
100
AcDbLine
 10
655.4764645738
 20
214.6737923003
 30
0.0
 11
655.4764645738
 21
282.3206269039
 31
0.0
  0
LINE
  5
20A
330
1F
100
AcDbEntity
  8
0
  6
Continuous
 62
     7
370
    25
100
AcDbLine
 10
655.4764645738
 20
334.1298220035
 30
0.0
 11
655.4764645738
 21
336.5373354303
 31
0.0
  0
LINE
  5
20B
330
1F
100
AcDbEntity
  8
0
  6
Continuous
 62
     7
370
    25
100
AcDbLine
 10
647.4190665277
 20
274.4563594
 30
0.0
 11
647.4190665277
 21
214.7713892605
 31
0.0
  0
LINE
  5
20C
330
1F
100
AcDbEntity
  8
0
  6
Continuous
 62
     7
370
    25
100
AcDbLine
 10
656.2154268798
 20
216.0978795172
 30
0.0
 11
656.2154268798
 21
283.0418767685
 31
0.0
  0
LINE
  5
20D
330
1F
100
AcDbEntity
  8
0
  6
Continuous
 62
     7
370
    25
100
AcDbLine
 10
656.2154268798
 20
333.9289878828
 30
0.0
 11
656.2154268798
 21
337.6997794303
 31
0.0
  0
LINE
  5
20E
330
1F
100
AcDbEntity
  8
0
  6
Continuous
 62
     7
370
    25
100
AcDbLine
 10
646.885154175
 20
337.5164062934
 30
0.0
 11
646.885154175
 21
336.4647560804
 31
0.0
  0
LINE
  5
20F
330
1F
100
AcDbEntity
  8
0
  6
Continuous
 62
     7
370
    25
100
AcDbLine
 10
646.885154175
 20
273.9352445759
 30
0.0
 11
646.885154175
 21
216.219580936
 31
0.0
  0
ARC
  5
210
330
1F
100
AcDbEntity
  8
0
  6
Continuous
 62
     7
370
    25
100
AcDbCircle
 10
234.9782760953
 20
370.6577147703
 30
0.0
 40
5.000000000000028
100
AcDbArc
 50
35.9616135904
 51
74.7954868413
  0
ARC
  5
211
330
1F
100
AcDbEntity
  8
0
  6
Continuous
 62
     7
370
    25
100
AcDbCircle
 10
234.9782760953
 20
370.6577147703
 30
0.0
 40
5.00000000000003
100
AcDbArc
 50
74.7954868413
 51
138.5304757153
  0
LINE
  5
212
330
1F
100
AcDbEntity
  8
0
  6
Continuous
 62
     7
370
    25
100
AcDbLine
 10
237.8271862036
 20
249.1721681456
 30
0.0
 11
237.8271862036
 21
371.6893116361
 31
0.0
  0
LINE
  5
213
330
1F
100
AcDbEntity
  8
0
  6
Continuous
 62
     7
370
    25
100
AcDbLine
 10
232.063429038
 20
371.7750636086
 30
0.0
 11
232.063429038
 21
249.2263303723
 31
0.0
  0
LINE
  5
214
330
1F
100
AcDbEntity
  8
0
  6
Continuous
 62
     7
370
    25
100
AcDbLine
 10
239.6926626209
 20
250.2900929654
 30
0.0
 11
239.6926626209
 21
371.5869183228
 31
0.0
  0
LINE
  5
215
330
1F
100
AcDbEntity
  8
0
  6
Continuous
 62
     7
370
    25
100
AcDbLine
 10
230.3623899161
 20
372.0136942972
 30
0.0
 11
230.3623899161
 21
250.4117943841
 31
0.0
  0
LINE
  5
216
330
1F
100
AcDbEntity
  8
0
  6
Continuous
 62
     7
370
    25
100
AcDbLine
 10
239.1587502682
 20
373.1855714711
 30
0.0
 11
239.1587502682
 21
373.250278197
 31
0.0
  0
ARC
  5
217
330
1F
100
AcDbEntity
  8
0
  6
Continuous
 62
     7
370
    25
100
AcDbCircle
 10
588.7455247663
 20
274.5113568968
 30
0.0
 40
5.00000000000006
100
AcDbArc
 50
35.9616135904
 51
74.7954868413
  0
ARC
  5
218
330
1F
100
AcDbEntity
  8
0
  6
Continuous
 62
     7
370
    25
100
AcDbCircle
 10
588.7455247663
 20
274.5113568968
 30
0.0
 40
5.00000000000006
100
AcDbArc
 50
74.7954868413
 51
138.5304757153
  0
LINE
  5
219
330
1F
100
AcDbEntity
  8
0
  6
Continuous
 62
     7
370
    25
100
AcDbLine
 10
591.5944348746
 20
153.025810272
 30
0.0
 11
591.5944348746
 21
275.5429537625
 31
0.0
  0
LINE
  5
21A
330
1F
100
AcDbEntity
  8
0
  6
Continuous
 62
     7
370
    25
100
AcDbLine
 10
585.830677709
 20
275.6287057351
 30
0.0
 11
585.830677709
 21
153.0799724987
 31
0.0
  0
LINE
  5
21B
330
1F
100
AcDbEntity
  8
0
  6
Continuous
 62
     7
370
    25
100
AcDbLine
 10
593.4599112918
 20
154.1437350918
 30
0.0
 11
593.4599112918
 21
275.4405604493
 31
0.0
  0
LINE
  5
21C
330
1F
100
AcDbEntity
  8
0
  6
Continuous
 62
     7
370
    25
100
AcDbLine
 10
584.129638587
 20
275.8673364236
 30
0.0
 11
584.129638587
 21
154.2654365106
 31
0.0
  0
LINE
  5
21D
330
1F
100
AcDbEntity
  8
0
  6
Continuous
 62
     7
370
    25
100
AcDbLine
 10
592.9259989392
 20
277.0392135976
 30
0.0
 11
592.9259989392
 21
277.1039203234
 31
0.0
  0
ARC
  5
21E
330
1F
100
AcDbEntity
  8
0
  6
Continuous
 62
     7
370
    25
100
AcDbCircle
 10
297.8322920296
 20
432.0051612012
 30
0.0
 40
5.000000000000034
100
AcDbArc
 50
55.8203077778
 51
160.1975640006
  0
ARC
  5
21F
330
1F
100
AcDbEntity
  8
0
  6
Continuous
 62
     7
370
    25
100
AcDbCircle
 10
297.8322920296
 20
432.0051612012
 30
0.0
 40
4.999999999999956
100
AcDbArc
 50
28.0863980491
 51
47.717535136
  0
LINE
  5
220
330
1F
100
AcDbEntity
  8
0
  6
Continuous
 62
     7
370
    25
100
AcDbLine
 10
301.7092159028
 20
310.8201501738
 30
0.0
 11
301.7092159028
 21
353.1969916932
 31
0.0
  0
LINE
  5
221
330
1F
100
AcDbEntity
  8
0
  6
Continuous
 62
     7
370
    25
100
AcDbLine
 10
301.7092159028
 20
430.2761798771
 30
0.0
 11
301.7092159028
 21
432.6836933039
 31
0.0
  0
LINE
  5
222
330
1F
100
AcDbEntity
  8
0
  6
Continuous
 62
     7
370
    25
100
AcDbLine
 10
293.6518178567
 20
355.386819833
 30
0.0
 11
293.6518178567
 21
310.9177471341
 31
0.0
  0
LINE
  5
223
330
1F
100
AcDbEntity
  8
0
  6
Continuous
 62
     7
370
    25
100
AcDbLine
 10
302.4481782088
 20
312.2442373908
 30
0.0
 11
302.4481782088
 21
352.9961575725
 31
0.0
  0
LINE
  5
224
330
1F
100
AcDbEntity
  8
0
  6
Continuous
 62
     7
370
    25
100
AcDbLine
 10
302.4481782088
 20
430.0753457563
 30
0.0
 11
302.4481782088
 21
433.8461373039
 31
0.0
  0
LINE
  5
225
330
1F
100
AcDbEntity
  8
0
  6
Continuous
 62
     7
370
    25
100
AcDbLine
 10
293.117905504
 20
433.662764167
 30
0.0
 11
293.117905504
 21
432.6111139539
 31
0.0
  0
LINE
  5
226
330
1F
100
AcDbEntity
  8
0
  6
Continuous
 62
     7
370
    25
100
AcDbLine
 10
293.117905504
 20
355.5319257701
 30
0.0
 11
293.117905504
 21
312.3659388095
 31
0.0
  0
LINE
  5
227
330
1F
100
AcDbEntity
  8
0
  6
Continuous
 62
     7
370
    25
100
AcDbLine
 10
593.4599112918
 20
258.5351837135
 30
0.0
 11
605.7776759603
 21
270.5576996485
 31
0.0
  0
LINE
  5
228
330
1F
100
AcDbEntity
  8
0
  6
Continuous
 62
     7
370
    25
100
AcDbLine
 10
239.6926626209
 20
354.6815415871
 30
0.0
 11
252.0104272894
 21
366.7040575221
 31
0.0
  0
LINE
  5
229
330
1F
100
AcDbEntity
  8
0
  6
Continuous
 62
     7
370
    25
100
AcDbLine
 10
656.2733240214
 20
214.4952404629
 30
0.0
 11
656.2733240214
 21
215.7809914139
 31
0.0
  0
LINE
  5
22A
330
1F
100
AcDbEntity
  8
0
  6
Continuous
 62
     7
370
    25
100
AcDbLine
 10
646.7733240214
 20
215.7809914139
 30
0.0
 11
646.7733240214
 21
214.4952404629
 31
0.0
  0
SPLINE
  5
22B
330
1F
100
AcDbEntity
  8
0
  6
Continuous
 62
     7
370
    25
100
AcDbSpline
210
0.0
220
0.0
230
1.0
 70
     8
 71
     3
 72
    48
 73
    44
 74
     0
 42
0.000000001
 43
0.00000001
 40
0.0
 40
0.0
 40
0.0
 40
0.0
 40
0.0101831383747155
 40
0.0332179759378508
 40
0.0560580123148096
 40
0.0787771033359359
 40
0.1014550524212958
 40
0.1241793618574394
 40
0.1470482119836766
 40
0.1701728683635508
 40
0.1936783604515519
 40
0.2177001303090441
 40
0.2423727325068238
 40
0.2678054164240071
 40
0.2940418914037165
 40
0.3210144651117586
 40
0.3485264665629769
 40
0.3762755087118907
 40
0.4039688250635757
 40
0.4314904668489016
 40
0.4588265072902173
 40
0.4860315202290607
 40
0.513198173236807
 40
0.5404387708251178
 40
0.5678360672857179
 40
0.5955153229835906
 40
0.6235970031694228
 40
0.6521770291406457
 40
0.6812889957321789
 40
0.7108455647654366
 40
0.7371615647769529
 40
0.7627991671251215
 40
0.7876982170453417
 40
0.8119048683780011
 40
0.8355155332670526
 40
0.8586390379791097
 40
0.8813777759131004
 40
0.9038210842417856
 40
0.9284456532313231
 40
0.9526383226740862
 40
0.9764055416528808
 40
0.9998211670044936
 40
1.0
 40
1.0
 40
1.0
 40
1.0
 10
646.7771298146816
 20
214.4949264375123
 30
0.0
 10
646.7762530985088
 20
214.4498034549769
 30
0.0
 10
646.7733932005425
 20
214.3026097222641
 30
0.0
 10
646.8008190239019
 20
214.0549953560838
 30
0.0
 10
646.8572212576984
 20
213.7565766430972
 30
0.0
 10
646.943252516319
 20
213.467119283584
 30
0.0
 10
647.0553476562475
 20
213.1881833713814
 30
0.0
 10
647.1928551928229
 20
212.9210139455385
 30
0.0
 10
647.3545441194921
 20
212.6665605118872
 30
0.0
 10
647.5396506276157
 20
212.4254967118311
 30
0.0
 10
647.7477039151463
 20
212.1982772540064
 30
0.0
 10
647.9786327564741
 20
211.9852417932062
 30
0.0
 10
648.2326761478218
 20
211.7867776512536
 30
0.0
 10
648.5101258930428
 20
211.6035282209279
 30
0.0
 10
648.8108210490368
 20
211.4365785967466
 30
0.0
 10
649.1335153968058
 20
211.287480296423
 30
0.0
 10
649.4753659105661
 20
211.1580343014441
 30
0.0
 10
649.8320788730169
 20
211.0498005055352
 30
0.0
 10
650.1990589142523
 20
210.9635788053256
 30
0.0
 10
650.5724583781313
 20
210.8994100780145
 30
0.0
 10
650.9496883690169
 20
210.8569073707641
 30
0.0
 10
651.328976101355
 20
210.8356546274483
 30
0.0
 10
651.7090804529508
 20
210.8354125538355
 30
0.0
 10
652.0888740352948
 20
210.856219161808
 30
0.0
 10
652.4673757207479
 20
210.8984172777788
 30
0.0
 10
652.8436446859606
 20
210.962702839915
 30
0.0
 10
653.21678560085
 20
211.0502122556145
 30
0.0
 10
653.5854618634845
 20
211.1624805447724
 30
0.0
 10
653.9473952779462
 20
211.301233237256
 30
0.0
 10
654.2852157695089
 20
211.4614422978348
 30
0.0
 10
654.5939876928242
 20
211.6388583115924
 30
0.0
 10
654.8701499897859
 20
211.8277224227996
 30
0.0
 10
655.1226902303123
 20
212.0323797099192
 30
0.0
 10
655.3511133667212
 20
212.2515454320736
 30
0.0
 10
655.5552915876548
 20
212.4842117261435
 30
0.0
 10
655.7350773079218
 20
212.7294329200369
 30
0.0
 10
655.890120647524
 20
212.9861569512962
 30
0.0
 10
656.0246433371235
 20
213.2626225421849
 30
0.0
 10
656.134130356714
 20
213.557705874965
 30
0.0
 10
656.2155885860424
 20
213.8688423369916
 30
0.0
 10
656.260339365558
 20
214.1816018560034
 30
0.0
 10
656.2784447193562
 20
214.3917624173258
 30
0.0
 10
656.2732459562628
 20
214.4961436349671
 30
0.0
 10
656.2732065525026
 20
214.4969347870907
 30
0.0
  0
LINE
  5
22C
330
1F
100
AcDbEntity
  8
0
  6
Continuous
 62
     7
370
    25
100
AcDbLine
 10
239.8044927744
 20
249.4429315364
 30
0.0
 11
239.8044927744
 21
250.7286824874
 31
0.0
  0
LINE
  5
22D
330
1F
100
AcDbEntity
  8
0
  6
Continuous
 62
     7
370
    25
100
AcDbLine
 10
230.3044927744
 20
250.7286824874
 30
0.0
 11
230.3044927744
 21
249.4429315364
 31
0.0
  0
SPLINE
  5
22E
330
1F
100
AcDbEntity
  8
0
  6
Continuous
 62
     7
370
    25
100
AcDbSpline
210
0.0
220
0.0
230
1.0
 70
     8
 71
     3
 72
    38
 73
    34
 74
     0
 42
0.000000001
 43
0.00000001
 40
0.0
 40
0.0
 40
0.0
 40
0.0
 40
0.0286259524975152
 40
0.0572027409930138
 40
0.0855867937812543
 40
0.1138745974767603
 40
0.142170544222961
 40
0.1705907383643778
 40
0.1992664283364668
 40
0.2283460597665765
 40
0.2579937912327215
 40
0.2883805262326265
 40
0.3196614856009858
 40
0.3519345512497986
 40
0.3851828424759635
 40
0.4192302898667534
 40
0.4537627548678844
 40
0.4883515545094058
 40
0.5227727248399467
 40
0.5569568961622874
 40
0.5909398480319576
 40
0.6248198399745437
 40
0.6587280851128308
 40
0.6927853734567753
 40
0.7271248760096416
 40
0.7619017072051627
 40
0.7972531999816993
 40
0.8332632611375028
 40
0.8698996402186947
 40
0.9030526590318401
 40
0.9354571838315454
 40
0.9669558057537011
 40
1.0
 40
1.0
 40
1.0
 40
1.0
 10
230.3046102433773
 20
249.4412372121465
 30
0.0
 10
230.307514821556
 20
249.3394970236559
 30
0.0
 10
230.3133189894091
 20
249.1361913816405
 30
0.0
 10
230.3599794936528
 20
248.8351963248542
 30
0.0
 10
230.4330258896187
 20
248.5415644112947
 30
0.0
 10
230.5337738812884
 20
248.2578058916615
 30
0.0
 10
230.660187208409
 20
247.985299985277
 30
0.0
 10
230.8113042171787
 20
247.7251263889389
 30
0.0
 10
230.9861364748292
 20
247.4780758478983
 30
0.0
 10
231.1840772060917
 20
247.2446902778451
 30
0.0
 10
231.4048784762167
 20
247.0253436895918
 30
0.0
 10
231.6486613012446
 20
246.8203785683328
 30
0.0
 10
231.9157419715424
 20
246.6302983709567
 30
0.0
 10
232.2062357000205
 20
246.455976565374
 30
0.0
 10
232.5194501080934
 20
246.2987721532695
 30
0.0
 10
232.8533243388825
 20
246.1604033109734
 30
0.0
 10
233.2040592403605
 20
246.0426404974893
 30
0.0
 10
233.567064400625
 20
245.9466406010856
 30
0.0
 10
233.9380032102294
 20
245.8727614054224
 30
0.0
 10
234.3138010313845
 20
245.8207392973565
 30
0.0
 10
234.6923574814176
 20
245.7901387477822
 30
0.0
 10
235.0722306465016
 20
245.7806241110971
 30
0.0
 10
235.4522668054282
 20
245.7921038380563
 30
0.0
 10
235.8314334918062
 20
245.8247796004958
 30
0.0
 10
236.2087872693029
 20
245.8791860085258
 30
0.0
 10
236.58344087669
 20
245.9562595028227
 30
0.0
 10
236.9543009332097
 20
246.0573744255328
 30
0.0
 10
237.3195865869638
 20
246.1842008781911
 30
0.0
 10
237.663585099033
 20
246.3329690453429
 30
0.0
 10
237.9814440996241
 20
246.5000545176989
 30
0.0
 10
238.2684387832814
 20
246.680935716535
 30
0.0
 10
238.5407062937562
 20
246.8818642645873
 30
0.0
 10
238.7060019786756
 20
247.0347542572612
 30
0.0
 10
238.7906289448479
 20
247.1130298410697
 30
0.0
  0
SPLINE
  5
22F
330
1F
100
AcDbEntity
  8
0
  6
Continuous
 62
     7
370
    25
100
AcDbSpline
210
0.0
220
0.0
230
1.0
 70
     8
 71
     3
 72
    16
 73
    12
 74
     0
 42
0.000000001
 43
0.00000001
 40
0.0
 40
0.0
 40
0.0
 40
0.0
 40
0.1088610603426954
 40
0.2269488563497192
 40
0.3428184669272374
 40
0.4569745506530821
 40
0.5698342095671528
 40
0.693174660983467
 40
0.814467196434231
 40
0.9337791113958601
 40
1.0
 40
1.0
 40
1.0
 40
1.0
 10
238.7906289448479
 20
247.1130298410697
 30
0.0
 10
238.8562713562346
 20
247.1799786208055
 30
0.0
 10
238.9931198321301
 20
247.3195505572461
 30
0.0
 10
239.1779407461558
 20
247.5514592082902
 30
0.0
 10
239.3458335615352
 20
247.8022434011807
 30
0.0
 10
239.4884900288442
 20
248.0642558953137
 30
0.0
 10
239.6095830403759
 20
248.3448554743572
 30
0.0
 10
239.7054932534937
 20
248.6426719901635
 30
0.0
 10
239.7703000479346
 20
248.9547910930642
 30
0.0
 10
239.8027376813639
 20
249.2225043679362
 30
0.0
 10
239.8012263940906
 20
249.3851821511022
 30
0.0
 10
239.8006869811983
 20
249.4432455617249
 30
0.0
  0
LINE
  5
230
330
1F
100
AcDbEntity
  8
0
  6
Continuous
 62
     7
370
    25
100
AcDbLine
 10
593.5717414454
 20
153.2965736628
 30
0.0
 11
593.5717414454
 21
154.5823246139
 31
0.0
  0
LINE
  5
231
330
1F
100
AcDbEntity
  8
0
  6
Continuous
 62
     7
370
    25
100
AcDbLine
 10
584.0717414454
 20
154.5823246139
 30
0.0
 11
584.0717414454
 21
153.2965736628
 31
0.0
  0
SPLINE
  5
232
330
1F
100
AcDbEntity
  8
0
  6
Continuous
 62
     7
370
    25
100
AcDbSpline
210
0.0
220
0.0
230
1.0
 70
     8
 71
     3
 72
    38
 73
    34
 74
     0
 42
0.000000001
 43
0.00000001
 40
0.0
 40
0.0
 40
0.0
 40
0.0
 40
0.0286259524975125
 40
0.0572027409930101
 40
0.0855867937812519
 40
0.1138745974767564
 40
0.1421705442229572
 40
0.1705907383643741
 40
0.199266428336463
 40
0.2283460597665727
 40
0.2579937912327178
 40
0.2883805262326232
 40
0.3196614856009825
 40
0.3519345512497954
 40
0.3851828424759604
 40
0.4192302898667503
 40
0.4537627548678812
 40
0.4883515545094026
 40
0.5227727248399436
 40
0.5569568961622815
 40
0.5909398480319518
 40
0.62481983997454
 40
0.6587280851128265
 40
0.692785373456769
 40
0.7271248760096372
 40
0.7619017072051574
 40
0.7972531999816923
 40
0.8332632611374974
 40
0.8698996402186893
 40
0.9030526590318346
 40
0.9354571838315398
 40
0.9669558057536952
 40
1.0
 40
1.0
 40
1.0
 40
1.0
 10
584.071858914346
 20
153.2948793385781
 30
0.0
 10
584.0747634925247
 20
153.1931391500875
 30
0.0
 10
584.0805676603777
 20
152.9898335080721
 30
0.0
 10
584.1272281646213
 20
152.6888384512858
 30
0.0
 10
584.2002745605873
 20
152.3952065377263
 30
0.0
 10
584.301022552257
 20
152.1114480180931
 30
0.0
 10
584.4274358793778
 20
151.8389421117087
 30
0.0
 10
584.5785528881473
 20
151.5787685153705
 30
0.0
 10
584.7533851457978
 20
151.3317179743299
 30
0.0
 10
584.9513258770602
 20
151.0983324042768
 30
0.0
 10
585.1721271471853
 20
150.8789858160235
 30
0.0
 10
585.4159099722132
 20
150.6740206947644
 30
0.0
 10
585.682990642511
 20
150.4839404973883
 30
0.0
 10
585.973484370989
 20
150.3096186918056
 30
0.0
 10
586.286698779062
 20
150.1524142797011
 30
0.0
 10
586.6205730098512
 20
150.014045437405
 30
0.0
 10
586.9713079113291
 20
149.896282623921
 30
0.0
 10
587.3343130715937
 20
149.8002827275173
 30
0.0
 10
587.7052518811979
 20
149.726403531854
 30
0.0
 10
588.0810497023532
 20
149.6743814237881
 30
0.0
 10
588.4596061523862
 20
149.6437808742138
 30
0.0
 10
588.8394793174701
 20
149.6342662375287
 30
0.0
 10
589.2195154763967
 20
149.6457459644879
 30
0.0
 10
589.5986821627747
 20
149.6784217269275
 30
0.0
 10
589.9760359402715
 20
149.7328281349574
 30
0.0
 10
590.3506895476585
 20
149.8099016292543
 30
0.0
 10
590.7215496041781
 20
149.9110165519645
 30
0.0
 10
591.0868352579325
 20
150.0378430046226
 30
0.0
 10
591.4308337700015
 20
150.1866111717745
 30
0.0
 10
591.7486927705927
 20
150.3536966441305
 30
0.0
 10
592.03568745425
 20
150.5345778429666
 30
0.0
 10
592.3079549647248
 20
150.735506391019
 30
0.0
 10
592.4732506496442
 20
150.8883963836929
 30
0.0
 10
592.5578776158164
 20
150.9666719675014
 30
0.0
  0
SPLINE
  5
233
330
1F
100
AcDbEntity
  8
0
  6
Continuous
 62
     7
370
    25
100
AcDbSpline
210
0.0
220
0.0
230
1.0
 70
     8
 71
     3
 72
    16
 73
    12
 74
     0
 42
0.000000001
 43
0.00000001
 40
0.0
 40
0.0
 40
0.0
 40
0.0
 40
0.1088610603426917
 40
0.2269488563497153
 40
0.342818466927229
 40
0.4569745506530741
 40
0.5698342095671454
 40
0.6931746609834655
 40
0.8144671964342304
 40
0.9337791113958601
 40
1.0
 40
1.0
 40
1.0
 40
1.0
 10
592.5578776158164
 20
150.9666719675014
 30
0.0
 10
592.6235200272033
 20
151.033620747237
 30
0.0
 10
592.7603685030988
 20
151.1731926836777
 30
0.0
 10
592.9451894171244
 20
151.4051013347218
 30
0.0
 10
593.1130822325039
 20
151.6558855276124
 30
0.0
 10
593.2557386998127
 20
151.9178980217453
 30
0.0
 10
593.3768317113446
 20
152.1984976007887
 30
0.0
 10
593.4727419244623
 20
152.4963141165951
 30
0.0
 10
593.5375487189032
 20
152.8084332194958
 30
0.0
 10
593.5699863523325
 20
153.0761464943677
 30
0.0
 10
593.5684750650591
 20
153.2388242775339
 30
0.0
 10
593.5679356521669
 20
153.2968876881565
 30
0.0
  0
LINE
  5
234
330
1F
100
AcDbEntity
  8
0
  6
Continuous
 62
     7
370
    25
100
AcDbLine
 10
302.5060753505
 20
310.6415983364
 30
0.0
 11
302.5060753505
 21
311.9273492875
 31
0.0
  0
LINE
  5
235
330
1F
100
AcDbEntity
  8
0
  6
Continuous
 62
     7
370
    25
100
AcDbLine
 10
293.0060753505
 20
311.9273492875
 30
0.0
 11
293.0060753505
 21
310.6415983364
 31
0.0
  0
SPLINE
  5
236
330
1F
100
AcDbEntity
  8
0
  6
Continuous
 62
     7
370
    25
100
AcDbSpline
210
0.0
220
0.0
230
1.0
 70
     8
 71
     3
 72
    48
 73
    44
 74
     0
 42
0.000000001
 43
0.00000001
 40
0.0
 40
0.0
 40
0.0
 40
0.0
 40
0.0101831383747142
 40
0.0332179759378494
 40
0.0560580123148085
 40
0.0787771033359354
 40
0.1014550524212953
 40
0.1241793618574371
 40
0.1470482119836742
 40
0.1701728683635487
 40
0.1936783604515496
 40
0.2177001303090421
 40
0.2423727325068216
 40
0.267805416424007
 40
0.2940418914037145
 40
0.3210144651117567
 40
0.348526466562975
 40
0.3762755087118869
 40
0.4039688250635737
 40
0.4314904668488977
 40
0.4588265072902152
 40
0.4860315202290568
 40
0.5131981732368049
 40
0.5404387708251135
 40
0.5678360672857135
 40
0.595515322983587
 40
0.62359700316942
 40
0.6521770291406414
 40
0.6812889957321745
 40
0.710845564765433
 40
0.7371615647769494
 40
0.7627991671251189
 40
0.7876982170453382
 40
0.8119048683779976
 40
0.83551553326705
 40
0.8586390379791075
 40
0.8813777759130991
 40
0.9038210842417835
 40
0.9284456532313217
 40
0.9526383226740847
 40
0.9764055416528783
 40
0.9998211670044914
 40
1.0
 40
1.0
 40
1.0
 40
1.0
 10
293.0098811437132
 20
310.6412843110807
 30
0.0
 10
293.0090044275404
 20
310.5961613285453
 30
0.0
 10
293.0061445295739
 20
310.4489675958325
 30
0.0
 10
293.0335703529335
 20
310.2013532296522
 30
0.0
 10
293.0899725867299
 20
309.9029345166657
 30
0.0
 10
293.1760038453506
 20
309.6134771571524
 30
0.0
 10
293.288098985279
 20
309.3345412449498
 30
0.0
 10
293.4256065218543
 20
309.0673718191068
 30
0.0
 10
293.5872954485237
 20
308.8129183854555
 30
0.0
 10
293.7724019566471
 20
308.5718545853995
 30
0.0
 10
293.9804552441778
 20
308.3446351275748
 30
0.0
 10
294.2113840855055
 20
308.1315996667746
 30
0.0
 10
294.4654274768534
 20
307.9331355248219
 30
0.0
 10
294.7428772220741
 20
307.7498860944963
 30
0.0
 10
295.0435723780684
 20
307.582936470315
 30
0.0
 10
295.3662667258372
 20
307.4338381699913
 30
0.0
 10
295.7081172395975
 20
307.3043921750124
 30
0.0
 10
296.0648302020485
 20
307.1961583791036
 30
0.0
 10
296.4318102432837
 20
307.109936678894
 30
0.0
 10
296.8052097071627
 20
307.0457679515829
 30
0.0
 10
297.1824396980483
 20
307.0032652443325
 30
0.0
 10
297.5617274303866
 20
306.9820125010166
 30
0.0
 10
297.9418317819823
 20
306.9817704274039
 30
0.0
 10
298.3216253643262
 20
307.0025770353763
 30
0.0
 10
298.7001270497794
 20
307.0447751513472
 30
0.0
 10
299.0763960149921
 20
307.1090607134833
 30
0.0
 10
299.4495369298815
 20
307.1965701291829
 30
0.0
 10
299.8182131925161
 20
307.3088384183407
 30
0.0
 10
300.1801466069778
 20
307.4475911108243
 30
0.0
 10
300.5179670985404
 20
307.6078001714031
 30
0.0
 10
300.8267390218556
 20
307.7852161851608
 30
0.0
 10
301.1029013188174
 20
307.9740802963678
 30
0.0
 10
301.3554415593438
 20
308.1787375834875
 30
0.0
 10
301.5838646957525
 20
308.3979033056419
 30
0.0
 10
301.7880429166862
 20
308.6305695997119
 30
0.0
 10
301.9678286369532
 20
308.8757907936052
 30
0.0
 10
302.1228719765556
 20
309.1325148248645
 30
0.0
 10
302.2573946661549
 20
309.4089804157533
 30
0.0
 10
302.3668816857453
 20
309.7040637485334
 30
0.0
 10
302.4483399150739
 20
310.01520021056
 30
0.0
 10
302.4930906945895
 20
310.3279597295717
 30
0.0
 10
302.5111960483881
 20
310.5381202908943
 30
0.0
 10
302.5059972852943
 20
310.6425015085355
 30
0.0
 10
302.5059578815341
 20
310.643292660659
 30
0.0
  0
LWPOLYLINE
  5
237
330
1F
100
AcDbEntity
  8
0
  6
Continuous
 62
     7
370
    25
100
AcDbPolyline
 90
       37
 70
   128
 43
0.0
 10
267.7145750377
 20
439.5151948472
 10
266.9926686438
 20
439.7011396316
 10
266.2557013875
 20
439.8706893448
 10
265.505076128
 20
440.0235212392
 10
264.742221723
 20
440.1593443908
 10
263.9685903094
 20
440.2779002523
 10
263.1856545384
 20
440.3789631459
 10
262.3949047729
 20
440.4623406928
 10
261.5978462499
 20
440.527874179
 10
260.7959962156
 20
440.5754388577
 10
259.9908810372
 20
440.604944187
 10
259.1840332971
 20
440.6163340017
 10
258.3769888759
 20
440.6095866207
 10
257.5712840285
 20
440.584714888
 10
256.7684524599
 20
440.5417661483
 10
255.9700224056
 20
440.4808221571
 10
255.1775137226
 20
440.4019989247
 10
254.3924349962
 20
440.3054464955
 10
253.6162806684
 20
440.1913486627
 10
252.850528193
 20
440.0599226179
 10
252.0966352235
 20
439.9114185381
 10
251.3560368379
 20
439.7461191092
 10
250.6301428074
 20
439.5643389881
 10
249.9203349124
 20
439.3664242036
 10
249.2279643128
 20
439.1527514977
 10
248.5543489752
 20
438.9237276086
 10
247.9007711647
 20
438.6797884962
 10
247.2684750039
 20
438.4213985125
 10
246.6586641044
 20
438.1490495176
 10
246.072499276
 20
437.8632599432
 10
245.5110963166
 20
437.5645738061
 10
244.9755238888
 20
437.2535596722
 10
244.4668014851
 20
436.9308095746
 10
243.9858974876
 20
436.5969378866
 10
243.5337273242
 20
436.2525801518
 10
243.1111517266
 20
435.8983918747
 10
242.7189750915
 20
435.5350472729
  0
LINE
  5
238
330
1F
100
AcDbEntity
  8
0
  6
Continuous
 62
     7
370
    25
100
AcDbLine
 10
267.7145750377
 20
439.5151948472
 30
0.0
 11
677.2001653744
 21
328.2257856085
 31
0.0
  0
LWPOLYLINE
  5
239
330
1F
100
AcDbEntity
  8
0
  6
Continuous
 62
     7
370
    25
100
AcDbPolyline
 90
       37
 70
   128
 43
0.0
 10
684.9280359302
 20
315.352099931
 10
685.2890670723
 20
315.7239092104
 10
685.6182654781
 20
316.1034754073
 10
685.9150044998
 20
316.490075996
 10
686.1787192777
 20
316.8829750601
 10
686.4089078157
 20
317.2814246941
 10
686.605131937
 20
317.6846664264
 10
686.7670181177
 20
318.0919326633
 10
686.8942581983
 20
318.5024481506
 10
686.9866099701
 20
318.9154314486
 10
687.0438976362
 20
319.3300964202
 10
687.0660121463
 20
319.745653727
 10
687.0529114042
 20
320.1613123321
 10
687.0046203478
 20
320.5762810056
 10
686.921230902
 20
320.9897698312
 10
686.8029018033
 20
321.4009917093
 10
686.6498582978
 20
321.8091638557
 10
686.4623917126
 20
322.2135092916
 10
686.240858901
 20
322.6132583225
 10
685.9856815632
 20
323.0076500032
 10
685.6973454439
 20
323.395933587
 10
685.3763994072
 20
323.7773699538
 10
685.0234543922
 20
324.1512330178
 10
684.6391822497
 20
324.5168111096
 10
684.2243144636
 20
324.8734083304
 10
683.7796407583
 20
325.2203458771
 10
683.3060075955
 20
325.5569633344
 10
682.8043165629
 20
325.8826199318
 10
682.2755226577
 20
326.1966957636
 10
681.7206324694
 20
326.4985929684
 10
681.1407022629
 20
326.7877368678
 10
680.5368359682
 20
327.06357706
 10
679.9101830793
 20
327.3255884674
 10
679.2619364655
 20
327.5732723366
 10
678.593330101
 20
327.8061571871
 10
677.9056367162
 20
328.0237997093
 10
677.2001653744
 20
328.2257856085
  0
LINE
  5
23A
330
1F
100
AcDbEntity
  8
0
  6
Continuous
 62
     7
370
    25
100
AcDbLine
 10
684.9280359302
 20
315.352099931
 30
0.0
 11
643.8588417044
 21
275.2673073322
 31
0.0
  0
LWPOLYLINE
  5
23B
330
1F
100
AcDbEntity
  8
0
  6
Continuous
 62
     7
370
    25
100
AcDbPolyline
 90
       37
 70
   128
 43
0.0
 10
618.8632417581
 20
271.287159758
 10
619.5851481521
 20
271.1012149736
 10
620.3221154084
 20
270.9316652604
 10
621.0727406679
 20
270.7788333659
 10
621.8355950729
 20
270.6430102144
 10
622.6092264865
 20
270.5244543529
 10
623.3921622574
 20
270.4233914592
 10
624.182912023
 20
270.3400139123
 10
624.979970546
 20
270.2744804261
 10
625.7818205803
 20
270.2269157474
 10
626.5869357587
 20
270.1974104181
 10
627.3937834988
 20
270.1860206034
 10
628.20082792
 20
270.1927679844
 10
629.0065327674
 20
270.2176397171
 10
629.809364336
 20
270.2605884568
 10
630.6077943903
 20
270.321532448
 10
631.4003030733
 20
270.4003556804
 10
632.1853817997
 20
270.4969081096
 10
632.9615361275
 20
270.6110059424
 10
633.7272886029
 20
270.7424319872
 10
634.4811815724
 20
270.890936067
 10
635.221779958
 20
271.0562354959
 10
635.9476739885
 20
271.238015617
 10
636.6574818835
 20
271.4359304015
 10
637.3498524831
 20
271.6496031074
 10
638.0234678207
 20
271.8786269965
 10
638.6770456312
 20
272.1225661089
 10
639.309341792
 20
272.3809560926
 10
639.9191526915
 20
272.6533050875
 10
640.5053175199
 20
272.9390946619
 10
641.0667204793
 20
273.237780799
 10
641.6022929071
 20
273.5487949329
 10
642.1110153107
 20
273.8715450305
 10
642.5919193083
 20
274.2054167185
 10
643.0440894717
 20
274.5497744533
 10
643.4666650693
 20
274.9039627304
 10
643.8588417044
 20
275.2673073322
  0
LINE
  5
23C
330
1F
100
AcDbEntity
  8
0
  6
Continuous
 62
     7
370
    25
100
AcDbLine
 10
618.8632417581
 20
271.287159758
 30
0.0
 11
591.392827427
 21
278.7530297534
 31
0.0
  0
LINE
  5
23D
330
1F
100
AcDbEntity
  8
0
  6
Continuous
 62
     7
370
    25
100
AcDbLine
 10
588.6094071178
 20
279.5095037519
 30
0.0
 11
237.625578756
 21
374.899387627
 31
0.0
  0
LINE
  5
23E
330
1F
100
AcDbEntity
  8
0
  6
Continuous
 62
     7
370
    25
100
AcDbLine
 10
234.8421584469
 20
375.6558616255
 30
0.0
 11
209.3776514215
 21
382.5765689966
 31
0.0
  0
LWPOLYLINE
  5
23F
330
1F
100
AcDbEntity
  8
0
  6
Continuous
 62
     7
370
    25
100
AcDbPolyline
 90
       37
 70
   128
 43
0.0
 10
201.6497808657
 20
395.4502546742
 10
201.2887497236
 20
395.0784453947
 10
200.9595513177
 20
394.6988791978
 10
200.6628122961
 20
394.3122786091
 10
200.3990975182
 20
393.919379545
 10
200.1689089801
 20
393.520929911
 10
199.9726848589
 20
393.1176881788
 10
199.8107986781
 20
392.7104219418
 10
199.6835585975
 20
392.2999064545
 10
199.5912068258
 20
391.8869231565
 10
199.5339191597
 20
391.4722581849
 10
199.5118046496
 20
391.0567008781
 10
199.5249053917
 20
390.6410422731
 10
199.5731964481
 20
390.2260735995
 10
199.6565858939
 20
389.8125847739
 10
199.7749149926
 20
389.4013628958
 10
199.9279584981
 20
388.9931907494
 10
200.1154250833
 20
388.5888453135
 10
200.3369578949
 20
388.1890962826
 10
200.5921352326
 20
387.7947046019
 10
200.880471352
 20
387.4064210182
 10
201.2014173886
 20
387.0249846514
 10
201.5543624037
 20
386.6511215873
 10
201.9386345462
 20
386.2855434955
 10
202.3535023323
 20
385.9289462747
 10
202.7981760376
 20
385.582008728
 10
203.2718092004
 20
385.2453912707
 10
203.773500233
 20
384.9197346733
 10
204.3022941381
 20
384.6056588416
 10
204.8571843265
 20
384.3037616367
 10
205.437114533
 20
384.0146177373
 10
206.0409808277
 20
383.7387775451
 10
206.6676337166
 20
383.4767661377
 10
207.3158803304
 20
383.2290822685
 10
207.9844866948
 20
382.9961974181
 10
208.6721800797
 20
382.7785548958
 10
209.3776514215
 20
382.5765689966
  0
LINE
  5
240
330
1F
100
AcDbEntity
  8
0
  6
Continuous
 62
     7
370
    25
100
AcDbLine
 10
201.6497808657
 20
395.4502546742
 30
0.0
 11
242.7189750915
 21
435.5350472729
 31
0.0
  0
LWPOLYLINE
  5
241
330
1F
100
AcDbEntity
  8
0
  6
Continuous
 62
     7
370
    25
100
AcDbPolyline
 90
       37
 70
   128
 43
0.0
 10
643.8588417044
 20
270.9814708287
 10
643.4666650693
 20
270.6181262269
 10
643.0440894717
 20
270.2639379498
 10
642.5919193083
 20
269.919580215
 10
642.1110153107
 20
269.585708527
 10
641.6022929071
 20
269.2629584294
 10
641.0667204793
 20
268.9519442955
 10
640.5053175199
 20
268.6532581584
 10
639.9191526915
 20
268.367468584
 10
639.309341792
 20
268.0951195891
 10
638.6770456312
 20
267.8367296054
 10
638.0234678207
 20
267.592790493
 10
637.3498524831
 20
267.3637666039
 10
636.6574818835
 20
267.150093898
 10
635.9476739885
 20
266.9521791135
 10
635.221779958
 20
266.7703989924
 10
634.4811815724
 20
266.6050995635
 10
633.7272886029
 20
266.4565954837
 10
632.9615361275
 20
266.3251694389
 10
632.1853817997
 20
266.2110716061
 10
631.4003030733
 20
266.1145191769
 10
630.6077943903
 20
266.0356959445
 10
629.809364336
 20
265.9747519533
 10
629.0065327674
 20
265.9318032136
 10
628.20082792
 20
265.9069314809
 10
627.3937834988
 20
265.9001840999
 10
626.5869357587
 20
265.9115739146
 10
625.7818205803
 20
265.9410792439
 10
624.979970546
 20
265.9886439226
 10
624.182912023
 20
266.0541774088
 10
623.3921622574
 20
266.1375549557
 10
622.6092264865
 20
266.2386178493
 10
621.8355950729
 20
266.3571737109
 10
621.0727406679
 20
266.4929968624
 10
620.3221154084
 20
266.6458287568
 10
619.5851481521
 20
266.81537847
 10
618.8632417581
 20
267.0013232545
  0
LINE
  5
242
330
1F
100
AcDbEntity
  8
0
  6
Continuous
 62
     7
370
    25
100
AcDbLine
 10
618.8632417581
 20
267.0013232545
 30
0.0
 11
593.4599112918
 21
273.9054041477
 31
0.0
  0
LINE
  5
243
330
1F
100
AcDbEntity
  8
0
  6
Continuous
 62
     7
370
    25
100
AcDbLine
 10
584.2404596275
 20
276.4110535611
 30
0.0
 11
239.6926626209
 21
370.0517620212
 31
0.0
  0
LINE
  5
244
330
1F
100
AcDbEntity
  8
0
  6
Continuous
 62
     7
370
    25
100
AcDbLine
 10
230.4732109566
 20
372.5574114346
 30
0.0
 11
209.3776514215
 21
378.2907324931
 31
0.0
  0
LINE
  5
245
330
1F
100
AcDbEntity
  8
0
  6
Continuous
 62
     7
370
    25
100
AcDbLine
 10
684.9280359302
 20
311.0662634275
 30
0.0
 11
643.8588417044
 21
270.9814708287
 31
0.0
  0
ARC
  5
246
330
1F
100
AcDbEntity
  8
0
  6
Continuous
 62
     7
370
    25
100
AcDbCircle
 10
680.8282563165
 20
315.7751609553
 30
0.0
 40
6.243549375867584
100
AcDbArc
 50
311.0443075172
 51
357.5937931885
  0
LWPOLYLINE
  5
247
330
1F
100
AcDbEntity
  8
0
  6
Continuous
 62
     7
370
    25
100
AcDbPolyline
 90
       26
 70
   128
 43
0.0
 10
209.3776514215
 20
378.2907324931
 10
208.6721800797
 20
378.4927183923
 10
207.9844866948
 20
378.7103609145
 10
207.3158803304
 20
378.943245765
 10
206.6676337166
 20
379.1909296342
 10
206.0409808277
 20
379.4529410416
 10
205.437114533
 20
379.7287812338
 10
204.8571843265
 20
380.0179251332
 10
204.3022941381
 20
380.3198223381
 10
203.773500233
 20
380.6338981698
 10
203.2718092004
 20
380.9595547672
 10
202.7981760376
 20
381.2961722245
 10
202.3535023323
 20
381.6431097712
 10
201.9386345462
 20
381.999706992
 10
201.5543624037
 20
382.3652850838
 10
201.2014173886
 20
382.7391481478
 10
200.880471352
 20
383.1205845146
 10
200.5921352326
 20
383.5088680984
 10
200.3369578949
 20
383.9032597791
 10
200.1154250833
 20
384.30300881
 10
199.9279584981
 20
384.7073542459
 10
199.7749149926
 20
385.1155263923
 10
199.6565858939
 20
385.5267482704
 10
199.5731964481
 20
385.940237096
 10
199.5249053917
 20
386.3552057695
 10
199.5115161167
 20
386.717649119
  0
SPLINE
  5
248
330
1F
100
AcDbEntity
  8
0
  6
Continuous
 62
     7
370
    25
100
AcDbSpline
210
0.0
220
0.0
230
1.0
 70
     8
 71
     3
 72
    18
 73
    14
 74
     0
 42
0.000000001
 43
0.00000001
 40
0.0
 40
0.0
 40
0.0
 40
0.0
 40
0.0120877056315505
 40
0.0632417776292387
 40
0.1158127296400292
 40
0.2084886051728498
 40
0.3033907308762724
 40
0.3916238080212274
 40
0.480516882903385
 40
0.5711710510546212
 40
0.6623381656009217
 40
0.8295408104177773
 40
1.0
 40
1.0
 40
1.0
 40
1.0
 10
646.8953727309452
 20
337.5524676906403
 30
0.0
 10
646.8939934384053
 20
337.5488284556328
 30
0.0
 10
646.8867771051529
 20
337.5297883087183
 30
0.0
 10
646.8839344643318
 20
337.5147653173133
 30
0.0
 10
646.8886647085964
 20
337.5057232317516
 30
0.0
 10
646.9138662252533
 20
337.5256441019577
 30
0.0
 10
646.9625790588401
 20
337.5722243243524
 30
0.0
 10
647.027022283631
 20
337.6335935817798
 30
0.0
 10
647.10435897773
 20
337.7044327779851
 30
0.0
 10
647.1957160427194
 20
337.7844442321486
 30
0.0
 10
647.3300548069168
 20
337.8970111048214
 30
0.0
 10
647.5202662382989
 20
338.0485640144888
 30
0.0
 10
647.7013428729088
 20
338.1850438725851
 30
0.0
 10
647.792754377685
 20
338.2539419345969
 30
0.0
  0
SPLINE
  5
249
330
1F
100
AcDbEntity
  8
0
  6
Continuous
 62
     7
370
    25
100
AcDbSpline
210
0.0
220
0.0
230
1.0
 70
     8
 71
     3
 72
    13
 73
     9
 74
     0
 42
0.000000001
 43
0.00000001
 40
0.0
 40
0.0
 40
0.0
 40
0.0
 40
0.3097824447302726
 40
0.4886158010418546
 40
0.6688656168798842
 40
0.8220351649318575
 40
0.9652874410541732
 40
1.0
 40
1.0
 40
1.0
 40
1.0
 10
654.6699433910929
 20
339.8028673737044
 30
0.0
 10
654.6374179230432
 20
339.8273544951276
 30
0.0
 10
654.5861159274144
 20
339.8659777116879
 30
0.0
 10
654.5115273785337
 20
339.9206030798622
 30
0.0
 10
654.459263991049
 20
339.9586573325029
 30
0.0
 10
654.425609000311
 20
339.9829958891877
 30
0.0
 10
654.4092335955917
 20
339.9948167937089
 30
0.0
 10
654.4084884854282
 20
339.9951243511584
 30
0.0
 10
654.4083431495226
 20
339.9951843411339
 30
0.0
  0
SPLINE
  5
24A
330
1F
100
AcDbEntity
  8
0
  6
Continuous
 62
     7
370
    25
100
AcDbSpline
210
0.0
220
0.0
230
1.0
 70
     8
 71
     3
 72
    19
 73
    15
 74
     0
 42
0.000000001
 43
0.00000001
 40
0.0
 40
0.0
 40
0.0
 40
0.0
 40
0.1464893432378107
 40
0.2972187023868783
 40
0.4135852781652954
 40
0.5325988764175333
 40
0.5931242168964167
 40
0.654549339905115
 40
0.7022760838748224
 40
0.7511540735381352
 40
0.8293962474712907
 40
0.9075986023472263
 40
0.9644874442331052
 40
1.0
 40
1.0
 40
1.0
 40
1.0
 10
655.2075139896655
 20
338.2518192844745
 30
0.0
 10
655.3120112615208
 20
338.1807753436777
 30
0.0
 10
655.5240303944984
 20
338.0366311525077
 30
0.0
 10
655.7711433112626
 20
337.8730239347237
 30
0.0
 10
655.9645333832403
 20
337.7487563590906
 30
0.0
 10
656.0820410380461
 20
337.6806129277674
 30
0.0
 10
656.1540287090204
 20
337.6515739982196
 30
0.0
 10
656.1913306104897
 20
337.6483260896525
 30
0.0
 10
656.2122143046103
 20
337.6651544244231
 30
0.0
 10
656.2191553224156
 20
337.7081487783222
 30
0.0
 10
656.1975284280525
 20
337.8051681717735
 30
0.0
 10
656.1358219099603
 20
337.9598531118555
 30
0.0
 10
656.0699400355111
 20
338.1006822889809
 30
0.0
 10
656.0266063204077
 20
338.1814755357346
 30
0.0
 10
656.0099519081014
 20
338.2125267400866
 30
0.0
  0
SPLINE
  5
24B
330
1F
100
AcDbEntity
  8
0
  6
Continuous
 62
     7
370
    25
100
AcDbSpline
210
0.0
220
0.0
230
1.0
 70
     8
 71
     3
 72
     9
 73
     5
 74
     0
 42
0.000000001
 43
0.00000001
 40
0.0
 40
0.0
 40
0.0
 40
0.0
 40
0.3446073996825906
 40
1.0
 40
1.0
 40
1.0
 40
1.0
 10
654.9622398444699
 20
339.5567830940275
 30
0.0
 10
654.9292683330364
 20
339.5872393889935
 30
0.0
 10
654.8335898552558
 20
339.675619078443
 30
0.0
 10
654.7347332673193
 20
339.7524880310027
 30
0.0
 10
654.6699433910929
 20
339.8028673737044
 30
0.0
  0
SPLINE
  5
24C
330
1F
100
AcDbEntity
  8
0
  6
Continuous
 62
     7
370
    25
100
AcDbSpline
210
0.0
220
0.0
230
1.0
 70
     8
 71
     3
 72
    14
 73
    10
 74
     0
 42
0.000000001
 43
0.00000001
 40
0.0
 40
0.0
 40
0.0
 40
0.0
 40
0.2198296104785076
 40
0.349917795829291
 40
0.4588983161343722
 40
0.5683999765788834
 40
0.6667094681233259
 40
0.7967198733580303
 40
1.0
 40
1.0
 40
1.0
 40
1.0
 10
655.0989588688944
 20
338.025383396276
 30
0.0
 10
655.0802535235731
 20
338.0632003350222
 30
0.0
 10
655.0504789486608
 20
338.1233961376817
 30
0.0
 10
655.0328096106803
 20
338.2006660210444
 30
0.0
 10
655.0340535385235
 20
338.2514404765709
 30
0.0
 10
655.051026608646
 20
338.2839474694219
 30
0.0
 10
655.0828192204067
 20
338.2992253672648
 30
0.0
 10
655.1353645097363
 20
338.2948913462156
 30
0.0
 10
655.1801801144633
 20
338.2681371617688
 30
0.0
 10
655.2075139896655
 20
338.2518192844745
 30
0.0
  0
SPLINE
  5
24D
330
1F
100
AcDbEntity
  8
0
  6
Continuous
 62
     7
370
    25
100
AcDbSpline
210
0.0
220
0.0
230
1.0
 70
     8
 71
     3
 72
    33
 73
    29
 74
     0
 42
0.000000001
 43
0.00000001
 40
0.0
 40
0.0
 40
0.0
 40
0.0
 40
0.0453846795159055
 40
0.0910956457676962
 40
0.1377861112474773
 40
0.1847984484385714
 40
0.2588563244583115
 40
0.2965960583089457
 40
0.3345934417298363
 40
0.3627068189222498
 40
0.3910552764359956
 40
0.4192115960366982
 40
0.4481447873352744
 40
0.4657876556063204
 40
0.4839178616272896
 40
0.5015746029079631
 40
0.5197390882526273
 40
0.5448263126108625
 40
0.5705932132964503
 40
0.6177342306539233
 40
0.6659981837890059
 40
0.708753248023075
 40
0.751824952447284
 40
0.795780804414554
 40
0.8400079168875245
 40
0.9191109597848033
 40
0.9594357012421729
 40
1.0
 40
1.0
 40
1.0
 40
1.0
 10
653.2207006318322
 20
336.7787424495394
 30
0.0
 10
653.271115474823
 20
336.7097395743616
 30
0.0
 10
653.3723076111899
 20
336.5712377375921
 30
0.0
 10
653.5352762433322
 20
336.3722994230491
 30
0.0
 10
653.7053608079788
 20
336.1799933448771
 30
0.0
 10
653.9156461151805
 20
335.9617623202258
 30
0.0
 10
654.1199349384827
 20
335.7725828823026
 30
0.0
 10
654.3160022975896
 20
335.6150429983095
 30
0.0
 10
654.4539514284253
 20
335.517987945986
 30
0.0
 10
654.5813990251306
 20
335.4427862404712
 30
0.0
 10
654.6975299564367
 20
335.3886278137531
 30
0.0
 10
654.8169717161051
 20
335.3524784801348
 30
0.0
 10
654.9230826090746
 20
335.3445715475713
 30
0.0
 10
655.0133411564299
 20
335.361262186241
 30
0.0
 10
655.0849664701758
 20
335.3918403968893
 30
0.0
 10
655.1518893543855
 20
335.4395221114585
 30
0.0
 10
655.2193959591443
 20
335.5095930790726
 30
0.0
 10
655.2840507602583
 20
335.6058718225093
 30
0.0
 10
655.3574116776554
 20
335.7597426542428
 30
0.0
 10
655.4208587822266
 20
335.9682514795118
 30
0.0
 10
655.4622917436702
 20
336.216711987585
 30
0.0
 10
655.4787758007233
 20
336.4624430145906
 30
0.0
 10
655.4750527034204
 20
336.7018839338375
 30
0.0
 10
655.4521938242434
 20
336.9438714541188
 30
0.0
 10
655.3992994006936
 20
337.2500475400286
 30
0.0
 10
655.3146719895574
 20
337.5442046751951
 30
0.0
 10
655.2032405253925
 20
337.8224474766935
 30
0.0
 10
655.1337879835562
 20
337.9576046646228
 30
0.0
 10
655.0989588688943
 20
338.025383396276
 30
0.0
  0
SPLINE
  5
24E
330
1F
100
AcDbEntity
  8
0
  6
Continuous
 62
     7
370
    25
100
AcDbSpline
210
0.0
220
0.0
230
1.0
 70
     8
 71
     3
 72
    15
 73
    11
 74
     0
 42
0.000000001
 43
0.00000001
 40
0.0
 40
0.0
 40
0.0
 40
0.0
 40
0.2148110296556599
 40
0.3411322673416501
 40
0.4464287003091845
 40
0.5523542512426626
 40
0.6447889097414687
 40
0.7660552293890864
 40
0.9403894463275494
 40
1.0
 40
1.0
 40
1.0
 40
1.0
 10
652.8354483768982
 20
336.6775021600002
 30
0.0
 10
652.8428082684437
 20
336.7183784193834
 30
0.0
 10
652.8544961994329
 20
336.7832922697857
 30
0.0
 10
652.9001465818396
 20
336.854910636221
 30
0.0
 10
652.9493110611235
 20
336.8949281050088
 30
0.0
 10
653.0048305122705
 20
336.9111111582062
 30
0.0
 10
653.0658393995723
 20
336.9050080656152
 30
0.0
 10
653.1346320252532
 20
336.8729036132246
 30
0.0
 10
653.1863725347204
 20
336.8247969753333
 30
0.0
 10
653.213729826992
 20
336.7880944713036
 30
0.0
 10
653.2207006318322
 20
336.7787424495394
 30
0.0
  0
SPLINE
  5
24F
330
1F
100
AcDbEntity
  8
0
  6
Continuous
 62
     7
370
    25
100
AcDbSpline
210
0.0
220
0.0
230
1.0
 70
     8
 71
     3
 72
    12
 73
     8
 74
     0
 42
0.000000001
 43
0.00000001
 40
0.0
 40
0.0
 40
0.0
 40
0.0
 40
0.2386562917623178
 40
0.4790485986437941
 40
0.7244782894992987
 40
0.9714888118018957
 40
1.0
 40
1.0
 40
1.0
 40
1.0
 10
649.9557280661946
 20
336.6760906940336
 30
0.0
 10
649.9633072913316
 20
336.5860372016035
 30
0.0
 10
649.9785208738181
 20
336.4052751566009
 30
0.0
 10
650.028923059669
 20
336.1332574613864
 30
0.0
 10
650.1002991483845
 20
335.861937290059
 30
0.0
 10
650.1602111588312
 20
335.6705868656193
 30
0.0
 10
650.2008293770084
 20
335.5726217664441
 30
0.0
 10
650.2050325799452
 20
335.5624842663017
 30
0.0
  0
SPLINE
  5
250
330
1F
100
AcDbEntity
  8
0
  6
Continuous
 62
     7
370
    25
100
AcDbSpline
210
0.0
220
0.0
230
1.0
 70
     8
 71
     3
 72
    13
 73
     9
 74
     0
 42
0.000000001
 43
0.00000001
 40
0.0
 40
0.0
 40
0.0
 40
0.0
 40
0.1920672109966405
 40
0.3366888148355414
 40
0.4820505122137412
 40
0.6297992873889681
 40
0.7784159920711248
 40
0.9999999999999999
 40
0.9999999999999999
 40
0.9999999999999999
 40
0.9999999999999999
 10
652.2360523685758
 20
335.0104966072417
 30
0.0
 10
652.2957622415812
 20
335.1084624764156
 30
0.0
 10
652.4004320926808
 20
335.2801940916938
 30
0.0
 10
652.5221274835333
 20
335.5422761609851
 30
0.0
 10
652.6211232765249
 20
335.7847111289984
 30
0.0
 10
652.7046807138559
 20
336.0347706148414
 30
0.0
 10
652.785305106362
 20
336.3323709912477
 30
0.0
 10
652.816673057985
 20
336.5482734979902
 30
0.0
 10
652.8354483768981
 20
336.6775021600002
 30
0.0
  0
SPLINE
  5
251
330
1F
100
AcDbEntity
  8
0
  6
Continuous
 62
     7
370
    25
100
AcDbSpline
210
0.0
220
0.0
230
1.0
 70
     8
 71
     3
 72
    15
 73
    11
 74
     0
 42
0.000000001
 43
0.00000001
 40
0.0
 40
0.0
 40
0.0
 40
0.0
 40
0.2126307822086021
 40
0.3330806359273561
 40
0.4343189429316149
 40
0.5361409898009313
 40
0.6255006565989271
 40
0.7454503639221183
 40
0.9209037802014192
 40
1.0
 40
1.0
 40
1.0
 40
1.0
 10
649.5838814827792
 20
336.7771506276974
 30
0.0
 10
649.61093942349
 20
336.8096044191798
 30
0.0
 10
649.6533249897061
 20
336.8604424464538
 30
0.0
 10
649.727693843782
 20
336.9012232287075
 30
0.0
 10
649.7879262990069
 20
336.9131691021336
 30
0.0
 10
649.8414475468697
 20
336.902139884422
 30
0.0
 10
649.8886733889336
 20
336.8696249133762
 30
0.0
 10
649.9299357344015
 20
336.8102711464296
 30
0.0
 10
649.9501414037828
 20
336.740502348101
 30
0.0
 10
649.9544036562843
 20
336.6913605325704
 30
0.0
 10
649.9557280661946
 20
336.6760906940336
 30
0.0
  0
SPLINE
  5
252
330
1F
100
AcDbEntity
  8
0
  6
Continuous
 62
     7
370
    25
100
AcDbSpline
210
0.0
220
0.0
230
1.0
 70
     8
 71
     3
 72
    11
 73
     7
 74
     0
 42
0.000000001
 43
0.00000001
 40
0.0
 40
0.0
 40
0.0
 40
0.0
 40
0.3033147486604082
 40
0.6151358634118648
 40
0.9269024453124155
 40
1.0
 40
1.0
 40
1.0
 40
1.0
 10
647.8711872279822
 20
338.0266819690258
 30
0.0
 10
647.789455128003
 20
337.8644816035585
 30
0.0
 10
647.6236987771787
 20
337.5355320147301
 30
0.0
 10
647.4804818069639
 20
337.0003989110855
 30
0.0
 10
647.4214717072241
 20
336.5893185146161
 30
0.0
 10
647.422015482763
 20
336.3619961337083
 30
0.0
 10
647.4221187624879
 20
336.3188206112566
 30
0.0
  0
SPLINE
  5
253
330
1F
100
AcDbEntity
  8
0
  6
Continuous
 62
     7
370
    25
100
AcDbSpline
210
0.0
220
0.0
230
1.0
 70
     8
 71
     3
 72
    11
 73
     7
 74
     0
 42
0.000000001
 43
0.00000001
 40
0.0
 40
0.0
 40
0.0
 40
0.0
 40
0.0395574656283864
 40
0.5134050743225059
 40
0.7558253933545283
 40
1.0
 40
1.0
 40
1.0
 40
1.0
 10
648.8693776990962
 20
335.9254866432943
 30
0.0
 10
648.8789446421516
 20
335.9350993301729
 30
0.0
 10
649.0031112699279
 20
336.0598596539939
 30
0.0
 10
649.187881251244
 20
336.2744840772439
 30
0.0
 10
649.4167028803097
 20
336.5526773773921
 30
0.0
 10
649.528021505465
 20
336.7021465872012
 30
0.0
 10
649.5838814827792
 20
336.7771506276974
 30
0.0
  0
SPLINE
  5
254
330
1F
100
AcDbEntity
  8
0
  6
Continuous
 62
     7
370
    25
100
AcDbSpline
210
0.0
220
0.0
230
1.0
 70
     8
 71
     3
 72
    15
 73
    11
 74
     0
 42
0.000000001
 43
0.00000001
 40
0.0
 40
0.0
 40
0.0
 40
0.0
 40
0.2153296810343193
 40
0.3327055588565636
 40
0.4327106172887984
 40
0.5331289091056565
 40
0.6249491950544266
 40
0.7533679527279796
 40
0.9418458044828419
 40
1.0
 40
1.0
 40
1.0
 40
1.0
 10
647.792754377685
 20
338.2539419345969
 30
0.0
 10
647.8202155240365
 20
338.2720214474874
 30
0.0
 10
647.8626456990121
 20
338.2999560750368
 30
0.0
 10
647.9108169738435
 20
338.3054091165669
 30
0.0
 10
647.9375798696335
 20
338.2918886741949
 30
0.0
 10
647.9499521166766
 20
338.2618897806139
 30
0.0
 10
647.9489117816581
 20
338.2153690829363
 30
0.0
 10
647.9303824826545
 20
338.1456990360625
 30
0.0
 10
647.9000328131834
 20
338.0788869461616
 30
0.0
 10
647.876691058425
 20
338.0366428465888
 30
0.0
 10
647.8711872279822
 20
338.0266819690258
 30
0.0
  0
LWPOLYLINE
  5
255
330
1F
100
AcDbEntity
  8
0
  6
Continuous
 62
     7
370
    25
100
AcDbPolyline
 90
       19
 70
   128
 43
0.0
 10
649.9557280662
 20
214.0189729054
 10
649.9944509028
 20
213.900490207
 10
650.0695189844
 20
213.7867313348
 10
650.1789941183
 20
213.6806334437
 10
650.3200497522
 20
213.584935889
 10
650.4890439523
 20
213.5021094979
 10
650.6816134359
 20
213.4342927758
 10
650.8927862265
 20
213.3832366913
 10
651.1171100269
 20
213.350259468
 10
651.3487929919
 20
213.3362125491
 10
651.5818532693
 20
213.3414586139
 10
651.8102734459
 20
213.3658622134
 10
652.0281559118
 20
213.408793268
 10
652.2298751315
 20
213.4691433353
 10
652.4102228907
 20
213.5453542291
 10
652.5645427673
 20
213.6354582506
 10
652.6888503566
 20
213.7371289925
 10
652.7799361451
 20
213.8477414048
 10
652.8354483769
 20
213.9644395715
  0
LWPOLYLINE
  5
256
330
1F
100
AcDbEntity
  8
0
  6
Continuous
 62
     7
370
    25
100
AcDbPolyline
 90
       15
 70
   128
 43
0.0
 10
653.2207006318
 20
214.0511623059
 10
653.4247015095
 20
213.9928821918
 10
653.6441924746
 20
213.9521825833
 10
653.8735064619
 20
213.9301143089
 10
654.1067227839
 20
213.9272471521
 10
654.3378199985
 20
213.9436551404
 10
654.560831377
 20
213.9789146338
 10
654.7699989599
 20
214.0321152631
 10
654.9599222226
 20
214.1018834342
 10
655.1256975119
 20
214.1864177939
 10
655.2630446543
 20
214.2835357385
 10
655.3684174663
 20
214.3907297675
 10
655.4390953138
 20
214.5052322244
 10
655.4732533562
 20
214.6240867556
 10
655.4764645738
 20
214.6737923003
  0
LWPOLYLINE
  5
257
330
1F
100
AcDbEntity
  8
0
  6
Continuous
 62
     7
370
    25
100
AcDbPolyline
 90
       14
 70
   128
 43
0.0
 10
647.4190665277
 20
214.7713892605
 10
647.4362207334
 20
214.6567828562
 10
647.4903813133
 20
214.5399163309
 10
647.5801852543
 20
214.429026235
 10
647.7033138969
 20
214.326975654
 10
647.8565881669
 20
214.236399445
 10
648.0360506562
 20
214.1596362069
 10
648.2370677997
 20
214.0986678994
 10
648.4544495099
 20
214.0550686712
 10
648.6825831806
 20
214.0299642164
 10
648.9155785992
 20
214.0240027101
 10
649.1474200271
 20
214.0373380732
 10
649.3721215205
 20
214.0696259982
 10
649.5838814828
 20
214.1200328391
  0
ARC
  5
258
330
1F
100
AcDbEntity
  8
0
  6
Continuous
 62
     7
370
    25
100
AcDbCircle
 10
653.0853036576
 20
213.7535693293
 30
0.0
 40
0.326946356946236
100
AcDbArc
 50
65.5357138737
 51
139.8366539865
  0
LWPOLYLINE
  5
259
330
1F
100
AcDbEntity
  8
0
  6
Continuous
 62
     7
370
    25
100
AcDbPolyline
 90
        9
 70
   128
 43
0.0
 10
649.5838814828
 20
214.1200328391
 10
649.6415110851
 20
214.1321814137
 10
649.7031824761
 20
214.136617659
 10
649.7650695291
 20
214.1330663478
 10
649.8233327379
 20
214.1217478055
 10
649.8743574212
 20
214.1033642405
 10
649.9149779802
 20
214.0790561792
 10
649.9426742933
 20
214.0503317069
 10
649.9557280662
 20
214.0189729054
  0
LWPOLYLINE
  5
25A
330
1F
100
AcDbEntity
  8
0
  6
Continuous
 62
     7
370
    25
100
AcDbPolyline
 90
        8
 70
   128
 43
0.0
 10
655.4764645738
 20
215.446481436
 10
655.6218087618
 20
215.4947641822
 10
655.7982834928
 20
215.5733433851
 10
655.9480438558
 20
215.6654656538
 10
656.0672231687
 20
215.7687524716
 10
656.1527443255
 20
215.880537063
 10
656.2023992445
 20
215.997933247
 10
656.2154268798
 20
216.0978795172
  0
ARC
  5
25B
330
1F
100
AcDbEntity
  8
0
  6
Continuous
 62
     7
370
    25
100
AcDbCircle
 10
647.6449251709
 20
216.384100852
 30
0.0
 40
0.7773794240337711
100
AcDbArc
 50
192.218125948
 51
253.1098026851
  0
SPLINE
  5
25C
330
1F
100
AcDbEntity
  8
0
  6
Continuous
 62
     7
370
    25
100
AcDbSpline
210
0.0
220
0.0
230
1.0
 70
     8
 71
     3
 72
    33
 73
    29
 74
     0
 42
0.000000001
 43
0.00000001
 40
0.0
 40
0.0
 40
0.0
 40
0.0
 40
0.0441213647301347
 40
0.0885643240892554
 40
0.1339549310956317
 40
0.1796485529093064
 40
0.2244874082555791
 40
0.2696160366855491
 40
0.3157575130293595
 40
0.3623227711932899
 40
0.3904545578735303
 40
0.4187956069174305
 40
0.4469628201082607
 40
0.4757844533845452
 40
0.4937613087931155
 40
0.5122052114429686
 40
0.5302047120128752
 40
0.5487727969964484
 40
0.5721373294163178
 40
0.5961490192902934
 40
0.6384785624501071
 40
0.6818249414600195
 40
0.7221252442697605
 40
0.7627269998852257
 40
0.8041331317540936
 40
0.8457735509867843
 40
0.9221430649462571
 40
1.0
 40
1.0
 40
1.0
 40
1.0
 10
238.0410369106284
 20
372.3981038761742
 30
0.0
 10
238.0991449056131
 20
372.3441866927379
 30
0.0
 10
238.215784436858
 20
372.2359593308458
 30
0.0
 10
238.3892026916179
 20
372.082647522234
 30
0.0
 10
238.560376506473
 20
371.9356935917625
 30
0.0
 10
238.7262675954098
 20
371.797753432799
 30
0.0
 10
238.8849960212685
 20
371.6698957295498
 30
0.0
 10
239.0364854418526
 20
371.5525125439981
 30
0.0
 10
239.1810499509328
 20
371.4467431701903
 30
0.0
 10
239.2991887307666
 20
371.3687318922092
 30
0.0
 10
239.3932306167343
 20
371.3166783061421
 30
0.0
 10
239.4659180861128
 20
371.285779963051
 30
0.0
 10
239.5337330216471
 20
371.2710971446597
 30
0.0
 10
239.5870618856362
 20
371.2791170067946
 30
0.0
 10
239.6266544675994
 20
371.3071156646573
 30
0.0
 10
239.6539922570497
 20
371.3461854171616
 30
0.0
 10
239.6745916862682
 20
371.4018289704145
 30
0.0
 10
239.6887529163603
 20
371.4777181649571
 30
0.0
 10
239.6943529566022
 20
371.5755137434189
 30
0.0
 10
239.6889131214144
 20
371.7214619200776
 30
0.0
 10
239.6640311896297
 20
371.9120040915128
 30
0.0
 10
239.6152176240269
 20
372.1354457536321
 30
0.0
 10
239.5507997742978
 20
372.3558942289095
 30
0.0
 10
239.473456374844
 20
372.570710915262
 30
0.0
 10
239.3821011377211
 20
372.7842631331613
 30
0.0
 10
239.247761787341
 20
373.0528022345547
 30
0.0
 10
239.0575506211567
 20
373.3715667113258
 30
0.0
 10
238.8764739442988
 20
373.5970588279575
 30
0.0
 10
238.785062418195
 20
373.7108922540141
 30
0.0
  0
SPLINE
  5
25D
330
1F
100
AcDbEntity
  8
0
  6
Continuous
 62
     7
370
    25
100
AcDbSpline
210
0.0
220
0.0
230
1.0
 70
     8
 71
     3
 72
    14
 73
    10
 74
     0
 42
0.000000001
 43
0.00000001
 40
0.0
 40
0.0
 40
0.0
 40
0.0
 40
0.2204300636816468
 40
0.3399443732551065
 40
0.4603671101701679
 40
0.5640212293774038
 40
0.6631726788869601
 40
0.8102691653342999
 40
1.0
 40
1.0
 40
1.0
 40
1.0
 10
237.766994491795
 20
372.251112836643
 30
0.0
 10
237.760797212113
 20
372.2916379207492
 30
0.0
 10
237.7512398481028
 20
372.3541351776455
 30
0.0
 10
237.7699191315623
 20
372.4281495583208
 30
0.0
 10
237.8011175643121
 20
372.4695273115435
 30
0.0
 10
237.8445171951917
 20
372.4877425273763
 30
0.0
 10
237.8980670870452
 20
372.4863362605799
 30
0.0
 10
237.9672029596371
 20
372.460062106771
 30
0.0
 10
238.0144328651027
 20
372.420428830553
 30
0.0
 10
238.0410369106284
 20
372.3981038761742
 30
0.0
  0
SPLINE
  5
25E
330
1F
100
AcDbEntity
  8
0
  6
Continuous
 62
     7
370
    25
100
AcDbSpline
210
0.0
220
0.0
230
1.0
 70
     8
 71
     3
 72
    25
 73
    21
 74
     0
 42
0.000000001
 43
0.00000001
 40
0.0
 40
0.0
 40
0.0
 40
0.0
 40
0.0863534354811914
 40
0.1752012878124608
 40
0.2620202071647394
 40
0.3067390536624451
 40
0.3519417885941303
 40
0.3854351630922994
 40
0.4193619382517502
 40
0.4529210172243733
 40
0.4876706301567001
 40
0.534332199500928
 40
0.5808912372373952
 40
0.6174915337674347
 40
0.6550813421275924
 40
0.7176592106518787
 40
0.781873969591425
 40
0.86893557960869
 40
0.9585132438224564
 40
1.0
 40
1.0
 40
1.0
 40
1.0
 10
235.1265156044163
 20
371.7496579683676
 30
0.0
 10
235.1899801827153
 20
371.6118237840392
 30
0.0
 10
235.3187425855833
 20
371.3321739187576
 30
0.0
 10
235.5800633643547
 20
370.9432847252855
 30
0.0
 10
235.8334573583108
 20
370.6444836715835
 30
0.0
 10
236.0586125072665
 20
370.4312690161331
 30
0.0
 10
236.2265759178646
 20
370.2982615502794
 30
0.0
 10
236.3891487383399
 20
370.1944614721083
 30
0.0
 10
236.5426107210405
 20
370.1191928766232
 30
0.0
 10
236.705754690729
 20
370.0678087036144
 30
0.0
 10
236.8956570876662
 20
370.0484579058848
 30
0.0
 10
237.1059818993432
 20
370.0937468069037
 30
0.0
 10
237.290742662405
 20
370.2141903722287
 30
0.0
 10
237.4317003510064
 20
370.3637295691438
 30
0.0
 10
237.5637179789667
 20
370.557317883145
 30
0.0
 10
237.6833421337505
 20
370.8147348654062
 30
0.0
 10
237.7860575012672
 20
371.1692450657744
 30
0.0
 10
237.8373618881383
 20
371.58215980624
 30
0.0
 10
237.8230375658443
 20
371.9591879353194
 30
0.0
 10
237.7804690179893
 20
372.1809248643312
 30
0.0
 10
237.7669944917951
 20
372.251112836643
 30
0.0
  0
SPLINE
  5
25F
330
1F
100
AcDbEntity
  8
0
  6
Continuous
 62
     7
370
    25
100
AcDbSpline
210
0.0
220
0.0
230
1.0
 70
     8
 71
     3
 72
    14
 73
    10
 74
     0
 42
0.000000001
 43
0.00000001
 40
0.0
 40
0.0
 40
0.0
 40
0.0
 40
0.2240635092468668
 40
0.3487071205324133
 40
0.4742528072796846
 40
0.5825492860625072
 40
0.6866084231150267
 40
0.8379727149430954
 40
1.0
 40
1.0
 40
1.0
 40
1.0
 10
234.7063574472805
 20
371.7650117645975
 30
0.0
 10
234.7278839253474
 20
371.8014715316943
 30
0.0
 10
234.7613853027342
 20
371.8582133922603
 30
0.0
 10
234.8371875135718
 20
371.9086190773414
 30
0.0
 10
234.9044792290804
 20
371.9253602667749
 30
0.0
 10
234.9690457548235
 20
371.9161470589565
 30
0.0
 10
235.0307340892927
 20
371.8850177252924
 30
0.0
 10
235.0876534835232
 20
371.8292725283834
 30
0.0
 10
235.1132710227559
 20
371.7767913701801
 30
0.0
 10
235.1265156044163
 20
371.7496579683676
 30
0.0
  0
SPLINE
  5
260
330
1F
100
AcDbEntity
  8
0
  6
Continuous
 62
     7
370
    25
100
AcDbSpline
210
0.0
220
0.0
230
1.0
 70
     8
 71
     3
 72
    31
 73
    27
 74
     0
 42
0.000000001
 43
0.00000001
 40
0.0
 40
0.0
 40
0.0
 40
0.0
 40
0.0425768439200336
 40
0.0854562266634098
 40
0.1292655212993025
 40
0.1733896051365585
 40
0.244892792882774
 40
0.281417539597061
 40
0.318211872742635
 40
0.357850917330392
 40
0.3981484105825071
 40
0.4288224096626707
 40
0.460242041607645
 40
0.4856042083258844
 40
0.5116936315327052
 40
0.5370616943793011
 40
0.5630949909788436
 40
0.5995472643023692
 40
0.6370102149324267
 40
0.6959998903666366
 40
0.7565561265102958
 40
0.7981804952569124
 40
0.8401079728424071
 40
0.8829363933459079
 40
0.9260588511262502
 40
1.0
 40
1.0
 40
1.0
 40
1.0
 10
232.1577596382394
 20
372.4576660392495
 30
0.0
 10
232.1399879577276
 20
372.3881854171402
 30
0.0
 10
232.1043183162468
 20
372.248730463578
 30
0.0
 10
232.0738130574144
 20
372.0336133601766
 30
0.0
 10
232.0604555218131
 20
371.8146627261441
 30
0.0
 10
232.0680145514041
 20
371.5477342929904
 30
0.0
 10
232.1049247550585
 20
371.2950653780043
 30
0.0
 10
232.1684119406306
 20
371.0617199036741
 30
0.0
 10
232.2340022542651
 20
370.8851703856546
 30
0.0
 10
232.3206504799116
 20
370.7114851713281
 30
0.0
 10
232.4238576871574
 20
370.5602003250423
 30
0.0
 10
232.5387760176631
 20
370.4377768078166
 30
0.0
 10
232.6522342970668
 20
370.351784333592
 30
0.0
 10
232.7717442891185
 20
370.2922705331126
 30
0.0
 10
232.8903216433739
 20
370.2587282625806
 30
0.0
 10
233.014089920534
 20
370.2478925029387
 30
0.0
 10
233.1551545028327
 20
370.2599729452978
 30
0.0
 10
233.3128275305612
 20
370.3026196167958
 30
0.0
 10
233.5135440032178
 20
370.39326022624
 30
0.0
 10
233.7361318659486
 20
370.5385678390721
 30
0.0
 10
233.9463960988885
 20
370.7190497241552
 30
0.0
 10
234.1209730536914
 20
370.8975071299925
 30
0.0
 10
234.2644766848002
 20
371.0642082281349
 30
0.0
 10
234.3989697968549
 20
371.2418044980784
 30
0.0
 10
234.5546625979265
 20
371.4727873755993
 30
0.0
 10
234.6476338233138
 20
371.6518867955791
 30
0.0
 10
234.7063574472805
 20
371.7650117645975
 30
0.0
  0
SPLINE
  5
261
330
1F
100
AcDbEntity
  8
0
  6
Continuous
 62
     7
370
    25
100
AcDbSpline
210
0.0
220
0.0
230
1.0
 70
     8
 71
     3
 72
    14
 73
    10
 74
     0
 42
0.000000001
 43
0.00000001
 40
0.0
 40
0.0
 40
0.0
 40
0.0
 40
0.2236978580034598
 40
0.3528357075717348
 40
0.4829964006464933
 40
0.5936020866478993
 40
0.697046383985613
 40
0.8440092931474584
 40
1.0
 40
1.0
 40
1.0
 40
1.0
 10
231.907873404787
 20
372.6244159510649
 30
0.0
 10
231.9403833851698
 20
372.6477508659055
 30
0.0
 10
231.9916609523037
 20
372.684556722083
 30
0.0
 10
232.0663742951273
 20
372.7008846138178
 30
0.0
 10
232.1182466005668
 20
372.690377595586
 30
0.0
 10
232.1531366694581
 20
372.6573979953758
 30
0.0
 10
232.173125648671
 20
372.6071214622234
 30
0.0
 10
232.1767509094417
 20
372.5387767202453
 30
0.0
 10
232.1642145864135
 20
372.4852347699896
 30
0.0
 10
232.1577596382394
 20
372.4576660392495
 30
0.0
  0
SPLINE
  5
262
330
1F
100
AcDbEntity
  8
0
  6
Continuous
 62
     7
370
    25
100
AcDbSpline
210
0.0
220
0.0
230
1.0
 70
     8
 71
     3
 72
    25
 73
    21
 74
     0
 42
0.000000001
 43
0.00000001
 40
0.0
 40
0.0
 40
0.0
 40
0.0
 40
0.0875279947747075
 40
0.1775894167757402
 40
0.247118932108122
 40
0.3182300544307202
 40
0.3543941983068578
 40
0.3910959660048196
 40
0.4196128949804155
 40
0.4488176980690842
 40
0.4955677239741449
 40
0.54229395782611
 40
0.576285278595723
 40
0.6112087183676477
 40
0.6688382656568874
 40
0.7279620571790821
 40
0.8132217551468689
 40
0.9009245334796623
 40
0.9502356752284362
 40
1.0
 40
1.0
 40
1.0
 40
1.0
 10
231.3703028062145
 20
373.9895965722607
 30
0.0
 10
231.2658055365743
 20
373.8757418370906
 30
0.0
 10
231.0537864080908
 20
373.6447369332529
 30
0.0
 10
230.806673459515
 20
373.2780523010443
 30
0.0
 10
230.6132834837816
 20
372.9193763132592
 30
0.0
 10
230.4957755402039
 20
372.6355644648665
 30
0.0
 10
230.4237884731276
 20
372.4063761193688
 30
0.0
 10
230.3864848278045
 20
372.2487357046803
 30
0.0
 10
230.3656063596446
 20
372.1099500442602
 30
0.0
 10
230.3586427208159
 20
371.9701019310578
 30
0.0
 10
230.3804064207605
 20
371.8398904010027
 30
0.0
 10
230.4416113402008
 20
371.7713395843131
 30
0.0
 10
230.5177494314293
 20
371.7539773832912
 30
0.0
 10
230.6153773913533
 20
371.7662341073267
 30
0.0
 10
230.7501738456143
 20
371.8180812805691
 30
0.0
 10
230.9515143726729
 20
371.9269569623494
 30
0.0
 10
231.2087737750853
 20
372.0926705886174
 30
0.0
 10
231.4781878604939
 20
372.2860792078449
 30
0.0
 10
231.7146536184507
 20
372.4669685111811
 30
0.0
 10
231.8432707060324
 20
372.5717736739908
 30
0.0
 10
231.907873404787
 20
372.6244159510649
 30
0.0
  0
SPLINE
  5
263
330
1F
100
AcDbEntity
  8
0
  6
Continuous
 62
     7
370
    25
100
AcDbSpline
210
0.0
220
0.0
230
1.0
 70
     8
 71
     3
 72
    14
 73
    10
 74
     0
 42
0.000000001
 43
0.00000001
 40
0.0
 40
0.0
 40
0.0
 40
0.0
 40
0.2198296104785076
 40
0.349917795829291
 40
0.4588983161343722
 40
0.5683999765788834
 40
0.6667094681233259
 40
0.7967198733580303
 40
1.0
 40
1.0
 40
1.0
 40
1.0
 10
231.4788579269855
 20
374.1815635134392
 30
0.0
 10
231.4975632723069
 20
374.1937201366466
 30
0.0
 10
231.5273378472191
 20
374.213070663576
 30
0.0
 10
231.5450071851997
 20
374.2119759702172
 30
0.0
 10
231.5437632573564
 20
374.1959434070225
 30
0.0
 10
231.5267901872341
 20
374.1666274856609
 30
0.0
 10
231.4949975754733
 20
374.124835365323
 30
0.0
 10
231.4424522861436
 20
374.064109346602
 30
0.0
 10
231.3976366814167
 20
374.0178257830162
 30
0.0
 10
231.3703028062145
 20
373.9895965722607
 30
0.0
  0
SPLINE
  5
264
330
1F
100
AcDbEntity
  8
0
  6
Continuous
 62
     7
370
    25
100
AcDbSpline
210
0.0
220
0.0
230
1.0
 70
     8
 71
     3
 72
    13
 73
     9
 74
     0
 42
0.000000001
 43
0.00000001
 40
0.0
 40
0.0
 40
0.0
 40
0.0
 40
0.1061445246906391
 40
0.2644609200747733
 40
0.4237543181457066
 40
0.7086608335452641
 40
0.8538990083639788
 40
1.0
 40
1.0
 40
1.0
 40
1.0
 10
231.103424067756
 20
373.6994473215666
 30
0.0
 10
231.1034852901349
 20
373.7144166260681
 30
0.0
 10
231.1036378267514
 20
373.7517129072741
 30
0.0
 10
231.1260831135382
 20
373.8161281249314
 30
0.0
 10
231.1782786736313
 20
373.910407625597
 30
0.0
 10
231.2631822473753
 20
374.007102210734
 30
0.0
 10
231.3745695403915
 20
374.1047994660676
 30
0.0
 10
231.4440265645335
 20
374.1559250272702
 30
0.0
 10
231.4788579269855
 20
374.1815635134392
 30
0.0
  0
SPLINE
  5
265
330
1F
100
AcDbEntity
  8
0
  6
Continuous
 62
     7
370
    25
100
AcDbSpline
210
0.0
220
0.0
230
1.0
 70
     8
 71
     3
 72
    11
 73
     7
 74
     0
 42
0.000000001
 43
0.00000001
 40
0.0
 40
0.0
 40
0.0
 40
0.0
 40
0.2973647691087933
 40
0.6030690390159831
 40
0.9087198458169767
 40
1.0
 40
1.0
 40
1.0
 40
1.0
 10
238.7066295678978
 20
373.9091171093838
 30
0.0
 10
238.7883361015465
 20
373.8395078571483
 30
0.0
 10
238.9540406027102
 20
373.6983371832379
 30
0.0
 10
239.0976547881544
 20
373.4984912600022
 30
0.0
 10
239.1571967681265
 20
373.3475257060344
 30
0.0
 10
239.1561753690069
 20
373.2684728470584
 30
0.0
 10
239.1559404831495
 20
373.2502934711335
 30
0.0
  0
SPLINE
  5
266
330
1F
100
AcDbEntity
  8
0
  6
Continuous
 62
     7
370
    25
100
AcDbSpline
210
0.0
220
0.0
230
1.0
 70
     8
 71
     3
 72
    15
 73
    11
 74
     0
 42
0.000000001
 43
0.00000001
 40
0.0
 40
0.0
 40
0.0
 40
0.0
 40
0.2153296810343193
 40
0.3327055588565636
 40
0.4327106172887984
 40
0.5331289091056565
 40
0.6249491950544266
 40
0.7533679527279796
 40
0.9418458044828419
 40
1.0
 40
1.0
 40
1.0
 40
1.0
 10
238.785062418195
 20
373.7108922540143
 30
0.0
 10
238.7576012718434
 20
373.743516408246
 30
0.0
 10
238.7151710968679
 20
373.7939239387534
 30
0.0
 10
238.6669998220364
 20
373.859768368628
 30
0.0
 10
238.6402369262464
 20
373.9026852029991
 30
0.0
 10
238.6278646792033
 20
373.9317976168292
 30
0.0
 10
238.6289050142218
 20
373.9485188041361
 30
0.0
 10
238.6474343132255
 20
373.949340378386
 30
0.0
 10
238.6777839826965
 20
373.9314420634379
 30
0.0
 10
238.701125737455
 20
373.9133767824291
 30
0.0
 10
238.7066295678978
 20
373.9091171093838
 30
0.0
  0
LWPOLYLINE
  5
267
330
1F
100
AcDbEntity
  8
0
  6
Continuous
 62
     7
370
    25
100
AcDbPolyline
 90
       18
 70
   128
 43
0.0
 10
235.1265156044
 20
248.7908532567
 10
235.2612171035
 20
248.6927572964
 10
235.4246850419
 20
248.6070393065
 10
235.6126988197
 20
248.5359124507
 10
235.8204040852
 20
248.4812131624
 10
236.0424380694
 20
248.4443537297
 10
236.2730680483
 20
248.4262858309
 10
236.5063393569
 20
248.4274759634
 10
236.7362291332
 20
248.4478933991
 10
236.9568018236
 20
248.4870109776
 10
237.1623624335
 20
248.5438187171
 10
237.3476035669
 20
248.6168498911
 10
237.5077424594
 20
248.7042188986
 10
237.6386444642
 20
248.8036699478
 10
237.7369298057
 20
248.9126352994
 10
237.800060842
 20
249.0283015629
 10
237.8264075848
 20
249.1476823361
 10
237.8271862036
 20
249.1721681456
  0
LWPOLYLINE
  5
268
330
1F
100
AcDbEntity
  8
0
  6
Continuous
 62
     7
370
    25
100
AcDbPolyline
 90
       17
 70
   128
 43
0.0
 10
232.063429038
 20
249.2263303723
 10
232.0738879474
 20
249.1367382391
 10
232.1203561513
 20
249.0189964921
 10
232.2028391935
 20
248.9066079253
 10
232.3192074338
 20
248.8024743133
 10
232.4664563455
 20
248.7092842955
 10
232.64078409
 20
248.6294439568
 10
232.837689677
 20
248.5650147051
 10
233.0520891758
 20
248.5176600476
 10
233.2784469782
 20
248.4886026404
 10
233.5109187229
 20
248.4785927202
 10
233.7435021922
 20
248.4878887346
 10
233.9701922835
 20
248.5162506686
 10
234.1851360563
 20
248.5629462416
 10
234.3827838496
 20
248.6267698148
 10
234.5580325697
 20
248.7060735191
 10
234.7063574473
 20
248.798809802
  0
ARC
  5
269
330
1F
100
AcDbEntity
  8
0
  6
Continuous
 62
     7
370
    25
100
AcDbCircle
 10
234.9101999565
 20
248.4654994638
 30
0.0
 40
0.3907013566541675
100
AcDbArc
 50
56.3815430533
 51
121.448693132
  0
LWPOLYLINE
  5
26A
330
1F
100
AcDbEntity
  8
0
  6
Continuous
 62
     7
370
    25
100
AcDbPolyline
 90
       12
 70
   128
 43
0.0
 10
238.0410369106
 20
249.549467372
 10
238.2739322911
 20
249.5425461954
 10
238.5059734056
 20
249.554926025
 10
238.7311691546
 20
249.5862872243
 10
238.9437051804
 20
249.6358200745
 10
239.1380939878
 20
249.7022456805
 10
239.3093166273
 20
249.7838489911
 10
239.4529522795
 20
249.87852308
 10
239.5652923971
 20
249.9838235446
 10
239.6434364562
 20
250.0970316188
 10
239.6853668452
 20
250.2152243686
 10
239.6926626209
 20
250.2900929654
  0
ARC
  5
26B
330
1F
100
AcDbEntity
  8
0
  6
Continuous
 62
     7
370
    25
100
AcDbCircle
 10
238.0025009795
 20
249.1444575733
 30
0.0
 40
0.406838979266218
100
AcDbArc
 50
84.5647754414
 51
115.52591659
  0
ARC
  5
26C
330
1F
100
AcDbEntity
  8
0
  6
Continuous
 62
     7
370
    25
100
AcDbCircle
 10
231.9267113844
 20
249.2306495287
 30
0.0
 40
0.4353694513894553
100
AcDbArc
 50
71.6979304477
 51
92.4799025142
  0
LWPOLYLINE
  5
26D
330
1F
100
AcDbEntity
  8
0
  6
Continuous
 62
     7
370
    25
100
AcDbPolyline
 90
       12
 70
   128
 43
0.0
 10
230.3623899161
 20
250.4117943841
 10
230.3629109169
 20
250.3917639446
 10
230.3878754773
 20
250.2723044035
 10
230.4496666695
 20
250.156446372
 10
230.5466890988
 20
250.0471812037
 10
230.6764377304
 20
249.94733003
 10
230.835562568
 20
249.8594709211
 10
231.0199551467
 20
249.7858723227
 10
231.224854611
 20
249.7284344865
 10
231.4449706352
 20
249.6886404072
 10
231.6746200154
 20
249.6675175335
 10
231.9078734048
 20
249.6656112394
  0
SPLINE
  5
26E
330
1F
100
AcDbEntity
  8
0
  6
Continuous
 62
     7
370
    25
100
AcDbSpline
210
0.0
220
0.0
230
1.0
 70
     8
 71
     3
 72
    33
 73
    29
 74
     0
 42
0.000000001
 43
0.00000001
 40
0.0
 40
0.0
 40
0.0
 40
0.0
 40
0.0441213647301347
 40
0.0885643240892554
 40
0.1339549310956317
 40
0.1796485529093064
 40
0.2244874082555791
 40
0.2696160366855491
 40
0.3157575130293595
 40
0.3623227711932899
 40
0.3904545578735303
 40
0.4187956069174305
 40
0.4469628201082607
 40
0.4757844533845452
 40
0.4937613087931155
 40
0.5122052114429686
 40
0.5302047120128752
 40
0.5487727969964484
 40
0.5721373294163178
 40
0.5961490192902934
 40
0.6384785624501071
 40
0.6818249414600195
 40
0.7221252442697605
 40
0.7627269998852257
 40
0.8041331317540936
 40
0.8457735509867843
 40
0.9221430649462571
 40
1.0
 40
1.0
 40
1.0
 40
1.0
 10
591.8082855815969
 20
276.2517460026058
 30
0.0
 10
591.8663935765817
 20
276.1978288191696
 30
0.0
 10
591.9830331078264
 20
276.0896014572775
 30
0.0
 10
592.1564513625865
 20
275.9362896486656
 30
0.0
 10
592.3276251774415
 20
275.7893357181941
 30
0.0
 10
592.4935162663783
 20
275.6513955592307
 30
0.0
 10
592.652244692237
 20
275.5235378559813
 30
0.0
 10
592.8037341128212
 20
275.4061546704297
 30
0.0
 10
592.9482986219014
 20
275.3003852966219
 30
0.0
 10
593.0664374017351
 20
275.2223740186408
 30
0.0
 10
593.160479287703
 20
275.1703204325738
 30
0.0
 10
593.2331667570813
 20
275.1394220894827
 30
0.0
 10
593.3009816926157
 20
275.1247392710913
 30
0.0
 10
593.3543105566047
 20
275.1327591332263
 30
0.0
 10
593.393903138568
 20
275.1607577910888
 30
0.0
 10
593.4212409280182
 20
275.1998275435932
 30
0.0
 10
593.4418403572369
 20
275.2554710968461
 30
0.0
 10
593.4560015873288
 20
275.3313602913887
 30
0.0
 10
593.4616016275706
 20
275.4291558698505
 30
0.0
 10
593.456161792383
 20
275.5751040465092
 30
0.0
 10
593.4312798605982
 20
275.7656462179443
 30
0.0
 10
593.3824662949954
 20
275.9890878800637
 30
0.0
 10
593.3180484452664
 20
276.2095363553411
 30
0.0
 10
593.2407050458124
 20
276.4243530416937
 30
0.0
 10
593.1493498086899
 20
276.6379052595929
 30
0.0
 10
593.0150104583093
 20
276.9064443609864
 30
0.0
 10
592.8247992921251
 20
277.2252088377574
 30
0.0
 10
592.6437226152673
 20
277.4507009543892
 30
0.0
 10
592.5523110891635
 20
277.5645343804458
 30
0.0
  0
SPLINE
  5
26F
330
1F
100
AcDbEntity
  8
0
  6
Continuous
 62
     7
370
    25
100
AcDbSpline
210
0.0
220
0.0
230
1.0
 70
     8
 71
     3
 72
    14
 73
    10
 74
     0
 42
0.000000001
 43
0.00000001
 40
0.0
 40
0.0
 40
0.0
 40
0.0
 40
0.2204300636816468
 40
0.3399443732551065
 40
0.4603671101701679
 40
0.5640212293774038
 40
0.6631726788869601
 40
0.8102691653342999
 40
1.0
 40
1.0
 40
1.0
 40
1.0
 10
591.5342431627636
 20
276.1047549630746
 30
0.0
 10
591.5280458830816
 20
276.1452800471807
 30
0.0
 10
591.5184885190713
 20
276.2077773040771
 30
0.0
 10
591.5371678025309
 20
276.2817916847525
 30
0.0
 10
591.5683662352806
 20
276.3231694379751
 30
0.0
 10
591.6117658661603
 20
276.3413846538079
 30
0.0
 10
591.6653157580138
 20
276.3399783870115
 30
0.0
 10
591.7344516306056
 20
276.3137042332027
 30
0.0
 10
591.7816815360712
 20
276.2740709569845
 30
0.0
 10
591.8082855815969
 20
276.2517460026058
 30
0.0
  0
SPLINE
  5
270
330
1F
100
AcDbEntity
  8
0
  6
Continuous
 62
     7
370
    25
100
AcDbSpline
210
0.0
220
0.0
230
1.0
 70
     8
 71
     3
 72
    25
 73
    21
 74
     0
 42
0.000000001
 43
0.00000001
 40
0.0
 40
0.0
 40
0.0
 40
0.0
 40
0.0863534354811921
 40
0.1752012878124614
 40
0.2620202071647399
 40
0.3067390536624455
 40
0.3519417885941312
 40
0.3854351630923003
 40
0.4193619382517511
 40
0.4529210172243741
 40
0.4876706301567009
 40
0.5343321995009288
 40
0.5808912372373959
 40
0.6174915337674353
 40
0.655081342127593
 40
0.7176592106518791
 40
0.7818739695914252
 40
0.8689355796086901
 40
0.9585132438224564
 40
0.9999999999999999
 40
0.9999999999999999
 40
0.9999999999999999
 40
0.9999999999999999
 10
588.8937642753848
 20
275.6033000947991
 30
0.0
 10
588.9572288536838
 20
275.4654659104708
 30
0.0
 10
589.0859912565518
 20
275.1858160451892
 30
0.0
 10
589.3473120353232
 20
274.7969268517172
 30
0.0
 10
589.6007060292793
 20
274.4981257980152
 30
0.0
 10
589.8258611782351
 20
274.2849111425647
 30
0.0
 10
589.9938245888333
 20
274.1519036767109
 30
0.0
 10
590.1563974093084
 20
274.04810359854
 30
0.0
 10
590.309859392009
 20
273.9728350030547
 30
0.0
 10
590.4730033616975
 20
273.9214508300461
 30
0.0
 10
590.6629057586348
 20
273.9021000323164
 30
0.0
 10
590.8732305703118
 20
273.9473889333353
 30
0.0
 10
591.0579913333736
 20
274.0678324986603
 30
0.0
 10
591.1989490219748
 20
274.2173716955755
 30
0.0
 10
591.3309666499351
 20
274.4109600095766
 30
0.0
 10
591.450590804719
 20
274.6683769918379
 30
0.0
 10
591.5533061722357
 20
275.022887192206
 30
0.0
 10
591.6046105591067
 20
275.4358019326717
 30
0.0
 10
591.590286236813
 20
275.812830061751
 30
0.0
 10
591.5477176889578
 20
276.0345669907629
 30
0.0
 10
591.5342431627636
 20
276.1047549630746
 30
0.0
  0
SPLINE
  5
271
330
1F
100
AcDbEntity
  8
0
  6
Continuous
 62
     7
370
    25
100
AcDbSpline
210
0.0
220
0.0
230
1.0
 70
     8
 71
     3
 72
    14
 73
    10
 74
     0
 42
0.000000001
 43
0.00000001
 40
0.0
 40
0.0
 40
0.0
 40
0.0
 40
0.2240635092468668
 40
0.3487071205324133
 40
0.4742528072796846
 40
0.5825492860625072
 40
0.6866084231150267
 40
0.8379727149430954
 40
1.0
 40
1.0
 40
1.0
 40
1.0
 10
588.473606118249
 20
275.6186538910292
 30
0.0
 10
588.4951325963159
 20
275.6551136581259
 30
0.0
 10
588.5286339737028
 20
275.7118555186919
 30
0.0
 10
588.6044361845402
 20
275.762261203773
 30
0.0
 10
588.6717279000491
 20
275.7790023932064
 30
0.0
 10
588.736294425792
 20
275.7697891853882
 30
0.0
 10
588.7979827602613
 20
275.7386598517239
 30
0.0
 10
588.8549021544917
 20
275.682914654815
 30
0.0
 10
588.8805196937244
 20
275.6304334966118
 30
0.0
 10
588.8937642753848
 20
275.6033000947991
 30
0.0
  0
SPLINE
  5
272
330
1F
100
AcDbEntity
  8
0
  6
Continuous
 62
     7
370
    25
100
AcDbSpline
210
0.0
220
0.0
230
1.0
 70
     8
 71
     3
 72
    31
 73
    27
 74
     0
 42
0.000000001
 43
0.00000001
 40
0.0
 40
0.0
 40
0.0
 40
0.0
 40
0.0425768439200336
 40
0.0854562266634098
 40
0.1292655212993025
 40
0.1733896051365585
 40
0.244892792882774
 40
0.281417539597061
 40
0.318211872742635
 40
0.357850917330392
 40
0.3981484105825071
 40
0.4288224096626707
 40
0.460242041607645
 40
0.4856042083258844
 40
0.5116936315327052
 40
0.5370616943793011
 40
0.5630949909788436
 40
0.5995472643023692
 40
0.6370102149324267
 40
0.6959998903666366
 40
0.7565561265102958
 40
0.7981804952569124
 40
0.8401079728424071
 40
0.8829363933459079
 40
0.9260588511262502
 40
1.0
 40
1.0
 40
1.0
 40
1.0
 10
585.9250083092079
 20
276.3113081656812
 30
0.0
 10
585.9072366286961
 20
276.2418275435718
 30
0.0
 10
585.8715669872154
 20
276.1023725900096
 30
0.0
 10
585.8410617283829
 20
275.8872554866082
 30
0.0
 10
585.8277041927815
 20
275.6683048525757
 30
0.0
 10
585.8352632223729
 20
275.401376419422
 30
0.0
 10
585.8721734260268
 20
275.148707504436
 30
0.0
 10
585.9356606115994
 20
274.9153620301057
 30
0.0
 10
586.0012509252336
 20
274.7388125120862
 30
0.0
 10
586.0878991508803
 20
274.5651272977598
 30
0.0
 10
586.1911063581258
 20
274.4138424514739
 30
0.0
 10
586.3060246886317
 20
274.2914189342483
 30
0.0
 10
586.4194829680353
 20
274.2054264600236
 30
0.0
 10
586.5389929600872
 20
274.1459126595441
 30
0.0
 10
586.6575703143425
 20
274.1123703890123
 30
0.0
 10
586.7813385915024
 20
274.1015346293702
 30
0.0
 10
586.9224031738014
 20
274.1136150717294
 30
0.0
 10
587.0800762015299
 20
274.1562617432275
 30
0.0
 10
587.2807926741863
 20
274.2469023526717
 30
0.0
 10
587.5033805369171
 20
274.3922099655038
 30
0.0
 10
587.7136447698572
 20
274.5726918505868
 30
0.0
 10
587.88822172466
 20
274.7511492564241
 30
0.0
 10
588.0317253557687
 20
274.9178503545665
 30
0.0
 10
588.1662184678236
 20
275.0954466245099
 30
0.0
 10
588.3219112688951
 20
275.3264295020309
 30
0.0
 10
588.4148824942824
 20
275.5055289220107
 30
0.0
 10
588.473606118249
 20
275.6186538910292
 30
0.0
  0
SPLINE
  5
273
330
1F
100
AcDbEntity
  8
0
  6
Continuous
 62
     7
370
    25
100
AcDbSpline
210
0.0
220
0.0
230
1.0
 70
     8
 71
     3
 72
    14
 73
    10
 74
     0
 42
0.000000001
 43
0.00000001
 40
0.0
 40
0.0
 40
0.0
 40
0.0
 40
0.2236978580034598
 40
0.3528357075717348
 40
0.4829964006464933
 40
0.5936020866478993
 40
0.697046383985613
 40
0.8440092931474584
 40
1.0
 40
1.0
 40
1.0
 40
1.0
 10
585.6751220757556
 20
276.4780580774965
 30
0.0
 10
585.7076320561383
 20
276.5013929923371
 30
0.0
 10
585.7589096232722
 20
276.5381988485146
 30
0.0
 10
585.8336229660958
 20
276.5545267402495
 30
0.0
 10
585.8854952715352
 20
276.5440197220176
 30
0.0
 10
585.9203853404267
 20
276.5110401218074
 30
0.0
 10
585.9403743196394
 20
276.4607635886551
 30
0.0
 10
585.9439995804104
 20
276.3924188466769
 30
0.0
 10
585.9314632573819
 20
276.3388768964213
 30
0.0
 10
585.9250083092079
 20
276.3113081656812
 30
0.0
  0
SPLINE
  5
274
330
1F
100
AcDbEntity
  8
0
  6
Continuous
 62
     7
370
    25
100
AcDbSpline
210
0.0
220
0.0
230
1.0
 70
     8
 71
     3
 72
    25
 73
    21
 74
     0
 42
0.000000001
 43
0.00000001
 40
0.0
 40
0.0
 40
0.0
 40
0.0
 40
0.0875279947747076
 40
0.1775894167757404
 40
0.2471189321081222
 40
0.3182300544307204
 40
0.3543941983068581
 40
0.3910959660048198
 40
0.4196128949804159
 40
0.4488176980690845
 40
0.4955677239741453
 40
0.5422939578261103
 40
0.5762852785957234
 40
0.6112087183676481
 40
0.6688382656568879
 40
0.7279620571790822
 40
0.8132217551468689
 40
0.9009245334796623
 40
0.9502356752284363
 40
1.0
 40
1.0
 40
1.0
 40
1.0
 10
585.1375514771829
 20
277.8432386986923
 30
0.0
 10
585.0330542075428
 20
277.7293839635221
 30
0.0
 10
584.8210350790592
 20
277.4983790596846
 30
0.0
 10
584.5739221304837
 20
277.1316944274758
 30
0.0
 10
584.38053215475
 20
276.7730184396909
 30
0.0
 10
584.2630242111725
 20
276.4892065912982
 30
0.0
 10
584.1910371440962
 20
276.2600182458004
 30
0.0
 10
584.153733498773
 20
276.102377831112
 30
0.0
 10
584.1328550306131
 20
275.9635921706919
 30
0.0
 10
584.1258913917844
 20
275.8237440574894
 30
0.0
 10
584.147655091729
 20
275.6935325274342
 30
0.0
 10
584.2088600111692
 20
275.6249817107446
 30
0.0
 10
584.2849981023978
 20
275.6076195097228
 30
0.0
 10
584.3826260623217
 20
275.6198762337584
 30
0.0
 10
584.5174225165829
 20
275.6717234070007
 30
0.0
 10
584.7187630436415
 20
275.7805990887811
 30
0.0
 10
584.9760224460538
 20
275.9463127150489
 30
0.0
 10
585.2454365314625
 20
276.1397213342765
 30
0.0
 10
585.4819022894192
 20
276.3206106376127
 30
0.0
 10
585.6105193770009
 20
276.4254158004225
 30
0.0
 10
585.6751220757556
 20
276.4780580774965
 30
0.0
  0
SPLINE
  5
275
330
1F
100
AcDbEntity
  8
0
  6
Continuous
 62
     7
370
    25
100
AcDbSpline
210
0.0
220
0.0
230
1.0
 70
     8
 71
     3
 72
    14
 73
    10
 74
     0
 42
0.000000001
 43
0.00000001
 40
0.0
 40
0.0
 40
0.0
 40
0.0
 40
0.2198296104785076
 40
0.349917795829291
 40
0.4588983161343722
 40
0.5683999765788834
 40
0.6667094681233259
 40
0.7967198733580303
 40
1.0
 40
1.0
 40
1.0
 40
1.0
 10
585.246106597954
 20
278.0352056398708
 30
0.0
 10
585.2648119432755
 20
278.0473622630782
 30
0.0
 10
585.2945865181877
 20
278.0667127900076
 30
0.0
 10
585.3122558561683
 20
278.0656180966488
 30
0.0
 10
585.3110119283249
 20
278.0495855334541
 30
0.0
 10
585.2940388582028
 20
278.0202696120925
 30
0.0
 10
585.2622462464418
 20
277.9784774917546
 30
0.0
 10
585.2097009571122
 20
277.9177514730336
 30
0.0
 10
585.1648853523852
 20
277.8714679094479
 30
0.0
 10
585.1375514771829
 20
277.8432386986923
 30
0.0
  0
SPLINE
  5
276
330
1F
100
AcDbEntity
  8
0
  6
Continuous
 62
     7
370
    25
100
AcDbSpline
210
0.0
220
0.0
230
1.0
 70
     8
 71
     3
 72
    13
 73
     9
 74
     0
 42
0.000000001
 43
0.00000001
 40
0.0
 40
0.0
 40
0.0
 40
0.0
 40
0.1061445246906391
 40
0.2644609200747733
 40
0.4237543181457066
 40
0.7086608335452641
 40
0.8538990083639788
 40
1.0
 40
1.0
 40
1.0
 40
1.0
 10
584.8706727387245
 20
277.5530894479982
 30
0.0
 10
584.8707339611034
 20
277.5680587524997
 30
0.0
 10
584.8708864977199
 20
277.6053550337057
 30
0.0
 10
584.8933317845067
 20
277.669770251363
 30
0.0
 10
584.9455273445998
 20
277.7640497520287
 30
0.0
 10
585.0304309183439
 20
277.8607443371657
 30
0.0
 10
585.14181821136
 20
277.9584415924992
 30
0.0
 10
585.2112752355021
 20
278.0095671537018
 30
0.0
 10
585.246106597954
 20
278.0352056398708
 30
0.0
  0
SPLINE
  5
277
330
1F
100
AcDbEntity
  8
0
  6
Continuous
 62
     7
370
    25
100
AcDbSpline
210
0.0
220
0.0
230
1.0
 70
     8
 71
     3
 72
    11
 73
     7
 74
     0
 42
0.000000001
 43
0.00000001
 40
0.0
 40
0.0
 40
0.0
 40
0.0
 40
0.2973647691087928
 40
0.6030690390159839
 40
0.9087198458169763
 40
1.0
 40
1.0
 40
1.0
 40
1.0
 10
592.4738782388664
 20
277.7627592358155
 30
0.0
 10
592.555584772515
 20
277.69314998358
 30
0.0
 10
592.7212892736786
 20
277.5519793096695
 30
0.0
 10
592.8649034591228
 20
277.3521333864338
 30
0.0
 10
592.9244454390948
 20
277.2011678324661
 30
0.0
 10
592.9234240399754
 20
277.12211497349
 30
0.0
 10
592.9231891541182
 20
277.1039355975652
 30
0.0
  0
SPLINE
  5
278
330
1F
100
AcDbEntity
  8
0
  6
Continuous
 62
     7
370
    25
100
AcDbSpline
210
0.0
220
0.0
230
1.0
 70
     8
 71
     3
 72
    15
 73
    11
 74
     0
 42
0.000000001
 43
0.00000001
 40
0.0
 40
0.0
 40
0.0
 40
0.0
 40
0.2153296810343193
 40
0.3327055588565636
 40
0.4327106172887984
 40
0.5331289091056565
 40
0.6249491950544266
 40
0.7533679527279796
 40
0.9418458044828419
 40
1.0
 40
1.0
 40
1.0
 40
1.0
 10
592.5523110891635
 20
277.5645343804458
 30
0.0
 10
592.5248499428121
 20
277.5971585346775
 30
0.0
 10
592.4824197678364
 20
277.647566065185
 30
0.0
 10
592.4342484930049
 20
277.7134104950596
 30
0.0
 10
592.4074855972151
 20
277.7563273294306
 30
0.0
 10
592.3951133501718
 20
277.7854397432608
 30
0.0
 10
592.3961536851904
 20
277.8021609305678
 30
0.0
 10
592.414682984194
 20
277.8029825048176
 30
0.0
 10
592.4450326536652
 20
277.7850841898695
 30
0.0
 10
592.4683744084236
 20
277.7670189088607
 30
0.0
 10
592.4738782388663
 20
277.7627592358155
 30
0.0
  0
LWPOLYLINE
  5
279
330
1F
100
AcDbEntity
  8
0
  6
Continuous
 62
     7
370
    25
100
AcDbPolyline
 90
       18
 70
   128
 43
0.0
 10
588.8937642754
 20
152.6444953831
 10
589.0284657745
 20
152.5463994228
 10
589.1919337128
 20
152.4606814329
 10
589.3799474907
 20
152.3895545771
 10
589.5876527562
 20
152.3348552888
 10
589.8096867404
 20
152.2979958561
 10
590.0403167193
 20
152.2799279573
 10
590.2735880279
 20
152.2811180899
 10
590.5034778042
 20
152.3015355256
 10
590.7240504946
 20
152.340653104
 10
590.9296111044
 20
152.3974608435
 10
591.1148522379
 20
152.4704920176
 10
591.2749911304
 20
152.5578610251
 10
591.4058931352
 20
152.6573120743
 10
591.5041784767
 20
152.7662774258
 10
591.567309513
 20
152.8819436893
 10
591.5936562557
 20
153.0013244625
 10
591.5944348746
 20
153.025810272
  0
LWPOLYLINE
  5
27A
330
1F
100
AcDbEntity
  8
0
  6
Continuous
 62
     7
370
    25
100
AcDbPolyline
 90
       17
 70
   128
 43
0.0
 10
585.830677709
 20
153.0799724987
 10
585.8411366184
 20
152.9903803655
 10
585.8876048223
 20
152.8726386185
 10
585.9700878645
 20
152.7602500517
 10
586.0864561047
 20
152.6561164398
 10
586.2337050164
 20
152.5629264219
 10
586.408032761
 20
152.4830860832
 10
586.604938348
 20
152.4186568315
 10
586.8193378468
 20
152.3713021741
 10
587.0456956492
 20
152.3422447668
 10
587.2781673939
 20
152.3322348467
 10
587.5107508632
 20
152.3415308611
 10
587.7374409545
 20
152.369892795
 10
587.9523847273
 20
152.4165883681
 10
588.1500325206
 20
152.4804119413
 10
588.3252812406
 20
152.5597156455
 10
588.4736061182
 20
152.6524519284
  0
ARC
  5
27B
330
1F
100
AcDbEntity
  8
0
  6
Continuous
 62
     7
370
    25
100
AcDbCircle
 10
588.6774486274
 20
152.3191415902
 30
0.0
 40
0.3907013566544005
100
AcDbArc
 50
56.3815430533
 51
121.448693132
  0
LWPOLYLINE
  5
27C
330
1F
100
AcDbEntity
  8
0
  6
Continuous
 62
     7
370
    25
100
AcDbPolyline
 90
       12
 70
   128
 43
0.0
 10
591.8082855816
 20
153.4031094984
 10
592.0411809621
 20
153.3961883219
 10
592.2732220765
 20
153.4085681514
 10
592.4984178256
 20
153.4399293507
 10
592.7109538513
 20
153.4894622009
 10
592.9053426588
 20
153.5558878069
 10
593.0765652982
 20
153.6374911176
 10
593.2202009505
 20
153.7321652064
 10
593.3325410681
 20
153.837465671
 10
593.4106851271
 20
153.9506737452
 10
593.4526155161
 20
154.0688664951
 10
593.4599112918
 20
154.1437350918
  0
ARC
  5
27D
330
1F
100
AcDbEntity
  8
0
  6
Continuous
 62
     7
370
    25
100
AcDbCircle
 10
591.7697496504
 20
152.9980996997
 30
0.0
 40
0.4068389792662665
100
AcDbArc
 50
84.5647754415
 51
115.52591659
  0
ARC
  5
27E
330
1F
100
AcDbEntity
  8
0
  6
Continuous
 62
     7
370
    25
100
AcDbCircle
 10
585.6939600553
 20
153.0842916551
 30
0.0
 40
0.4353694513885942
100
AcDbArc
 50
71.6979304477
 51
92.4799025142
  0
LWPOLYLINE
  5
27F
330
1F
100
AcDbEntity
  8
0
  6
Continuous
 62
     7
370
    25
100
AcDbPolyline
 90
       12
 70
   128
 43
0.0
 10
584.129638587
 20
154.2654365106
 10
584.1301595878
 20
154.2454060711
 10
584.1551241483
 20
154.1259465299
 10
584.2169153405
 20
154.0100884985
 10
584.3139377697
 20
153.9008233302
 10
584.4436864014
 20
153.8009721564
 10
584.6028112389
 20
153.7131130476
 10
584.7872038177
 20
153.6395144492
 10
584.9921032819
 20
153.5820766129
 10
585.2122193062
 20
153.5422825337
 10
585.4418686864
 20
153.5211596599
 10
585.6751220758
 20
153.5192533658
  0
SPLINE
  5
280
330
1F
100
AcDbEntity
  8
0
  6
Continuous
 62
     7
370
    25
100
AcDbSpline
210
0.0
220
0.0
230
1.0
 70
     8
 71
     3
 72
    18
 73
    14
 74
     0
 42
0.000000001
 43
0.00000001
 40
0.0
 40
0.0
 40
0.0
 40
0.0
 40
0.0120877056315505
 40
0.0632417776292387
 40
0.1158127296400292
 40
0.2084886051728498
 40
0.3033907308762724
 40
0.3916238080212274
 40
0.480516882903385
 40
0.5711710510546212
 40
0.6623381656009217
 40
0.8295408104177773
 40
1.0
 40
1.0
 40
1.0
 40
1.0
 10
293.1281240599766
 20
433.6988255642087
 30
0.0
 10
293.1267447674368
 20
433.6951863292011
 30
0.0
 10
293.1195284341844
 20
433.6761461822866
 30
0.0
 10
293.1166857933632
 20
433.6611231908818
 30
0.0
 10
293.121416037628
 20
433.65208110532
 30
0.0
 10
293.1466175542848
 20
433.6720019755259
 30
0.0
 10
293.1953303878715
 20
433.7185821979208
 30
0.0
 10
293.2597736126627
 20
433.7799514553482
 30
0.0
 10
293.3371103067615
 20
433.8507906515534
 30
0.0
 10
293.428467371751
 20
433.930802105717
 30
0.0
 10
293.5628061359483
 20
434.0433689783898
 30
0.0
 10
293.7530175673303
 20
434.1949218880571
 30
0.0
 10
293.9340942019404
 20
434.3314017461535
 30
0.0
 10
294.0255057067165
 20
434.4002998081653
 30
0.0
  0
SPLINE
  5
281
330
1F
100
AcDbEntity
  8
0
  6
Continuous
 62
     7
370
    25
100
AcDbSpline
210
0.0
220
0.0
230
1.0
 70
     8
 71
     3
 72
    13
 73
     9
 74
     0
 42
0.000000001
 43
0.00000001
 40
0.0
 40
0.0
 40
0.0
 40
0.0
 40
0.3097824447302726
 40
0.4886158010418546
 40
0.6688656168798842
 40
0.8220351649318575
 40
0.9652874410541732
 40
1.0
 40
1.0
 40
1.0
 40
1.0
 10
300.9026947201245
 20
435.9492252472729
 30
0.0
 10
300.8701692520746
 20
435.9737123686961
 30
0.0
 10
300.8188672564458
 20
436.0123355852563
 30
0.0
 10
300.7442787075655
 20
436.0669609534304
 30
0.0
 10
300.6920153200804
 20
436.1050152060712
 30
0.0
 10
300.6583603293425
 20
436.1293537627561
 30
0.0
 10
300.6419849246232
 20
436.1411746672773
 30
0.0
 10
300.6412398144597
 20
436.1414822247267
 30
0.0
 10
300.6410944785541
 20
436.1415422147022
 30
0.0
  0
SPLINE
  5
282
330
1F
100
AcDbEntity
  8
0
  6
Continuous
 62
     7
370
    25
100
AcDbSpline
210
0.0
220
0.0
230
1.0
 70
     8
 71
     3
 72
    19
 73
    15
 74
     0
 42
0.000000001
 43
0.00000001
 40
0.0
 40
0.0
 40
0.0
 40
0.0
 40
0.1464893432378107
 40
0.2972187023868783
 40
0.4135852781652954
 40
0.5325988764175333
 40
0.5931242168964167
 40
0.654549339905115
 40
0.7022760838748224
 40
0.7511540735381352
 40
0.8293962474712907
 40
0.9075986023472263
 40
0.9644874442331052
 40
1.0
 40
1.0
 40
1.0
 40
1.0
 10
301.440265318697
 20
434.3981771580429
 30
0.0
 10
301.5447625905521
 20
434.3271332172462
 30
0.0
 10
301.7567817235299
 20
434.1829890260761
 30
0.0
 10
302.0038946402941
 20
434.019381808292
 30
0.0
 10
302.1972847122719
 20
433.895114232659
 30
0.0
 10
302.3147923670776
 20
433.8269708013358
 30
0.0
 10
302.3867800380519
 20
433.7979318717879
 30
0.0
 10
302.4240819395212
 20
433.7946839632209
 30
0.0
 10
302.4449656336417
 20
433.8115122979915
 30
0.0
 10
302.4519066514471
 20
433.8545066518906
 30
0.0
 10
302.430279757084
 20
433.9515260453418
 30
0.0
 10
302.3685732389918
 20
434.1062109854238
 30
0.0
 10
302.3026913645426
 20
434.2470401625494
 30
0.0
 10
302.2593576494393
 20
434.327833409303
 30
0.0
 10
302.242703237133
 20
434.3588846136549
 30
0.0
  0
SPLINE
  5
283
330
1F
100
AcDbEntity
  8
0
  6
Continuous
 62
     7
370
    25
100
AcDbSpline
210
0.0
220
0.0
230
1.0
 70
     8
 71
     3
 72
     9
 73
     5
 74
     0
 42
0.000000001
 43
0.00000001
 40
0.0
 40
0.0
 40
0.0
 40
0.0
 40
0.3446073996825906
 40
1.0
 40
1.0
 40
1.0
 40
1.0
 10
301.1949911735014
 20
435.703140967596
 30
0.0
 10
301.1620196620679
 20
435.7335972625619
 30
0.0
 10
301.0663411842873
 20
435.8219769520114
 30
0.0
 10
300.9674845963507
 20
435.898845904571
 30
0.0
 10
300.9026947201245
 20
435.9492252472729
 30
0.0
  0
SPLINE
  5
284
330
1F
100
AcDbEntity
  8
0
  6
Continuous
 62
     7
370
    25
100
AcDbSpline
210
0.0
220
0.0
230
1.0
 70
     8
 71
     3
 72
    14
 73
    10
 74
     0
 42
0.000000001
 43
0.00000001
 40
0.0
 40
0.0
 40
0.0
 40
0.0
 40
0.2198296104785076
 40
0.349917795829291
 40
0.4588983161343722
 40
0.5683999765788834
 40
0.6667094681233259
 40
0.7967198733580303
 40
1.0
 40
1.0
 40
1.0
 40
1.0
 10
301.3317101979259
 20
434.1717412698444
 30
0.0
 10
301.3130048526046
 20
434.2095582085906
 30
0.0
 10
301.2832302776923
 20
434.2697540112501
 30
0.0
 10
301.2655609397117
 20
434.3470238946127
 30
0.0
 10
301.2668048675551
 20
434.3977983501393
 30
0.0
 10
301.2837779376773
 20
434.4303053429902
 30
0.0
 10
301.3155705494381
 20
434.4455832408332
 30
0.0
 10
301.3681158387679
 20
434.441249219784
 30
0.0
 10
301.4129314434948
 20
434.4144950353372
 30
0.0
 10
301.440265318697
 20
434.3981771580429
 30
0.0
  0
SPLINE
  5
285
330
1F
100
AcDbEntity
  8
0
  6
Continuous
 62
     7
370
    25
100
AcDbSpline
210
0.0
220
0.0
230
1.0
 70
     8
 71
     3
 72
    33
 73
    29
 74
     0
 42
0.000000001
 43
0.00000001
 40
0.0
 40
0.0
 40
0.0
 40
0.0
 40
0.0453846795159055
 40
0.0910956457676962
 40
0.1377861112474773
 40
0.1847984484385714
 40
0.2588563244583115
 40
0.2965960583089457
 40
0.3345934417298363
 40
0.3627068189222498
 40
0.3910552764359956
 40
0.4192115960366982
 40
0.4481447873352744
 40
0.4657876556063204
 40
0.4839178616272896
 40
0.5015746029079631
 40
0.5197390882526273
 40
0.5448263126108625
 40
0.5705932132964503
 40
0.6177342306539233
 40
0.6659981837890059
 40
0.708753248023075
 40
0.751824952447284
 40
0.795780804414554
 40
0.8400079168875245
 40
0.9191109597848033
 40
0.9594357012421729
 40
1.0
 40
1.0
 40
1.0
 40
1.0
 10
299.4534519608636
 20
432.9251003231077
 30
0.0
 10
299.5038668038546
 20
432.8560974479299
 30
0.0
 10
299.6050589402213
 20
432.7175956111605
 30
0.0
 10
299.7680275723636
 20
432.5186572966175
 30
0.0
 10
299.9381121370103
 20
432.3263512184456
 30
0.0
 10
300.1483974442119
 20
432.1081201937942
 30
0.0
 10
300.3526862675143
 20
431.9189407558709
 30
0.0
 10
300.5487536266211
 20
431.7614008718779
 30
0.0
 10
300.6867027574568
 20
431.6643458195543
 30
0.0
 10
300.8141503541621
 20
431.5891441140396
 30
0.0
 10
300.9302812854681
 20
431.5349856873214
 30
0.0
 10
301.0497230451367
 20
431.4988363537031
 30
0.0
 10
301.1558339381061
 20
431.4909294211397
 30
0.0
 10
301.2460924854615
 20
431.5076200598093
 30
0.0
 10
301.3177177992072
 20
431.5381982704576
 30
0.0
 10
301.384640683417
 20
431.5858799850269
 30
0.0
 10
301.4521472881759
 20
431.655950952641
 30
0.0
 10
301.5168020892898
 20
431.7522296960777
 30
0.0
 10
301.5901630066868
 20
431.9061005278112
 30
0.0
 10
301.6536101112581
 20
432.11460935308
 30
0.0
 10
301.6950430727016
 20
432.3630698611535
 30
0.0
 10
301.7115271297548
 20
432.608800888159
 30
0.0
 10
301.7078040324517
 20
432.8482418074059
 30
0.0
 10
301.684945153275
 20
433.0902293276873
 30
0.0
 10
301.6320507297251
 20
433.3964054135971
 30
0.0
 10
301.547423318589
 20
433.6905625487635
 30
0.0
 10
301.435991854424
 20
433.9688053502618
 30
0.0
 10
301.3665393125877
 20
434.1039625381912
 30
0.0
 10
301.331710197926
 20
434.1717412698444
 30
0.0
  0
SPLINE
  5
286
330
1F
100
AcDbEntity
  8
0
  6
Continuous
 62
     7
370
    25
100
AcDbSpline
210
0.0
220
0.0
230
1.0
 70
     8
 71
     3
 72
    15
 73
    11
 74
     0
 42
0.000000001
 43
0.00000001
 40
0.0
 40
0.0
 40
0.0
 40
0.0
 40
0.2148110296556599
 40
0.3411322673416501
 40
0.4464287003091845
 40
0.5523542512426626
 40
0.6447889097414687
 40
0.7660552293890864
 40
0.9403894463275494
 40
1.0
 40
1.0
 40
1.0
 40
1.0
 10
299.0681997059296
 20
432.8238600335686
 30
0.0
 10
299.0755595974751
 20
432.8647362929518
 30
0.0
 10
299.0872475284642
 20
432.9296501433541
 30
0.0
 10
299.1328979108713
 20
433.0012685097892
 30
0.0
 10
299.1820623901548
 20
433.0412859785771
 30
0.0
 10
299.2375818413019
 20
433.0574690317745
 30
0.0
 10
299.2985907286038
 20
433.0513659391835
 30
0.0
 10
299.3673833542849
 20
433.019261486793
 30
0.0
 10
299.4191238637518
 20
432.9711548489017
 30
0.0
 10
299.4464811560235
 20
432.9344523448719
 30
0.0
 10
299.4534519608636
 20
432.9251003231077
 30
0.0
  0
SPLINE
  5
287
330
1F
100
AcDbEntity
  8
0
  6
Continuous
 62
     7
370
    25
100
AcDbSpline
210
0.0
220
0.0
230
1.0
 70
     8
 71
     3
 72
    12
 73
     8
 74
     0
 42
0.000000001
 43
0.00000001
 40
0.0
 40
0.0
 40
0.0
 40
0.0
 40
0.2386562917622586
 40
0.4790485986436754
 40
0.7244782894991192
 40
0.9714888118016551
 40
1.0
 40
1.0
 40
1.0
 40
1.0
 10
296.1884793952262
 20
432.822448567602
 30
0.0
 10
296.196058620363
 20
432.7323950751718
 30
0.0
 10
296.2112722028494
 20
432.5516330301693
 30
0.0
 10
296.2616743887006
 20
432.2796153349547
 30
0.0
 10
296.3330504774161
 20
432.0082951636276
 30
0.0
 10
296.3929624878627
 20
431.8169447391874
 30
0.0
 10
296.4335807060401
 20
431.7189796400123
 30
0.0
 10
296.4377839089769
 20
431.7088421398698
 30
0.0
  0
SPLINE
  5
288
330
1F
100
AcDbEntity
  8
0
  6
Continuous
 62
     7
370
    25
100
AcDbSpline
210
0.0
220
0.0
230
1.0
 70
     8
 71
     3
 72
    13
 73
     9
 74
     0
 42
0.000000001
 43
0.00000001
 40
0.0
 40
0.0
 40
0.0
 40
0.0
 40
0.1920672109967412
 40
0.336688814835624
 40
0.4820505122138058
 40
0.6297992873890143
 40
0.7784159920711524
 40
1.0
 40
1.0
 40
1.0
 40
1.0
 10
298.4688036976071
 20
431.15685448081
 30
0.0
 10
298.5285135706125
 20
431.2548203499838
 30
0.0
 10
298.6331834217123
 20
431.4265519652623
 30
0.0
 10
298.7548788125648
 20
431.6886340345534
 30
0.0
 10
298.8538746055565
 20
431.9310690025667
 30
0.0
 10
298.9374320428874
 20
432.1811284884097
 30
0.0
 10
299.0180564353935
 20
432.4787288648161
 30
0.0
 10
299.0494243870165
 20
432.6946313715586
 30
0.0
 10
299.0681997059297
 20
432.8238600335686
 30
0.0
  0
SPLINE
  5
289
330
1F
100
AcDbEntity
  8
0
  6
Continuous
 62
     7
370
    25
100
AcDbSpline
210
0.0
220
0.0
230
1.0
 70
     8
 71
     3
 72
    15
 73
    11
 74
     0
 42
0.000000001
 43
0.00000001
 40
0.0
 40
0.0
 40
0.0
 40
0.0
 40
0.2126307822086021
 40
0.3330806359273561
 40
0.4343189429316149
 40
0.5361409898009313
 40
0.6255006565989271
 40
0.7454503639221183
 40
0.9209037802014192
 40
1.0
 40
1.0
 40
1.0
 40
1.0
 10
295.8166328118107
 20
432.9235085012658
 30
0.0
 10
295.8436907525217
 20
432.9559622927482
 30
0.0
 10
295.8860763187378
 20
433.0068003200221
 30
0.0
 10
295.9604451728134
 20
433.047581102276
 30
0.0
 10
296.0206776280385
 20
433.059526975702
 30
0.0
 10
296.0741988759012
 20
433.0484977579903
 30
0.0
 10
296.1214247179652
 20
433.0159827869447
 30
0.0
 10
296.1626870634331
 20
432.9566290199979
 30
0.0
 10
296.1828927328144
 20
432.8868602216693
 30
0.0
 10
296.1871549853158
 20
432.8377184061388
 30
0.0
 10
296.1884793952262
 20
432.822448567602
 30
0.0
  0
SPLINE
  5
28A
330
1F
100
AcDbEntity
  8
0
  6
Continuous
 62
     7
370
    25
100
AcDbSpline
210
0.0
220
0.0
230
1.0
 70
     8
 71
     3
 72
    11
 73
     7
 74
     0
 42
0.000000001
 43
0.00000001
 40
0.0
 40
0.0
 40
0.0
 40
0.0
 40
0.3033147486603668
 40
0.6151358634117808
 40
0.926902445312289
 40
1.0
 40
1.0
 40
1.0
 40
1.0
 10
294.1039385570137
 20
434.1730398425942
 30
0.0
 10
294.0222064570345
 20
434.0108394771268
 30
0.0
 10
293.8564501062102
 20
433.6818898882983
 30
0.0
 10
293.7132331359954
 20
433.1467567846539
 30
0.0
 10
293.6542230362556
 20
432.7356763881844
 30
0.0
 10
293.6547668117945
 20
432.5083540072765
 30
0.0
 10
293.6548700915195
 20
432.4651784848247
 30
0.0
  0
SPLINE
  5
28B
330
1F
100
AcDbEntity
  8
0
  6
Continuous
 62
     7
370
    25
100
AcDbSpline
210
0.0
220
0.0
230
1.0
 70
     8
 71
     3
 72
    11
 73
     7
 74
     0
 42
0.000000001
 43
0.00000001
 40
0.0
 40
0.0
 40
0.0
 40
0.0
 40
0.0395574656286393
 40
0.5134050743226339
 40
0.7558253933545925
 40
1.0
 40
1.0
 40
1.0
 40
1.0
 10
295.1021290281275
 20
432.0718445168625
 30
0.0
 10
295.1116959711831
 20
432.0814572037411
 30
0.0
 10
295.2358625989592
 20
432.2062175275624
 30
0.0
 10
295.4206325802755
 20
432.4208419508121
 30
0.0
 10
295.6494542093412
 20
432.6990352509605
 30
0.0
 10
295.7607728344964
 20
432.8485044607697
 30
0.0
 10
295.8166328118107
 20
432.9235085012658
 30
0.0
  0
SPLINE
  5
28C
330
1F
100
AcDbEntity
  8
0
  6
Continuous
 62
     7
370
    25
100
AcDbSpline
210
0.0
220
0.0
230
1.0
 70
     8
 71
     3
 72
    15
 73
    11
 74
     0
 42
0.000000001
 43
0.00000001
 40
0.0
 40
0.0
 40
0.0
 40
0.0
 40
0.2153296810343193
 40
0.3327055588565636
 40
0.4327106172887984
 40
0.5331289091056565
 40
0.6249491950544266
 40
0.7533679527279796
 40
0.9418458044828419
 40
1.0
 40
1.0
 40
1.0
 40
1.0
 10
294.0255057067165
 20
434.4002998081653
 30
0.0
 10
294.052966853068
 20
434.4183793210557
 30
0.0
 10
294.0953970280436
 20
434.4463139486052
 30
0.0
 10
294.1435683028751
 20
434.4517669901352
 30
0.0
 10
294.1703311986649
 20
434.4382465477633
 30
0.0
 10
294.1827034457082
 20
434.4082476541822
 30
0.0
 10
294.1816631106896
 20
434.3617269565048
 30
0.0
 10
294.1631338116861
 20
434.2920569096308
 30
0.0
 10
294.1327841422147
 20
434.2252448197301
 30
0.0
 10
294.1094423874565
 20
434.1830007201572
 30
0.0
 10
294.1039385570137
 20
434.1730398425942
 30
0.0
  0
LWPOLYLINE
  5
28D
330
1F
100
AcDbEntity
  8
0
  6
Continuous
 62
     7
370
    25
100
AcDbPolyline
 90
       19
 70
   128
 43
0.0
 10
296.1884793952
 20
310.165330779
 10
296.2272022319
 20
310.0468480806
 10
296.3022703134
 20
309.9330892084
 10
296.4117454474
 20
309.8269913173
 10
296.5528010812
 20
309.7312937625
 10
296.7217952814
 20
309.6484673715
 10
296.9143647649
 20
309.5806506493
 10
297.1255375555
 20
309.5295945648
 10
297.3498613559
 20
309.4966173416
 10
297.5815443209
 20
309.4825704227
 10
297.8146045983
 20
309.4878164874
 10
298.0430247749
 20
309.5122200869
 10
298.2609072408
 20
309.5551511415
 10
298.4626264606
 20
309.6155012088
 10
298.6429742197
 20
309.6917121027
 10
298.7972940963
 20
309.7818161242
 10
298.9216016857
 20
309.8834868661
 10
299.0126874741
 20
309.9940992784
 10
299.0681997059
 20
310.110797445
  0
LWPOLYLINE
  5
28E
330
1F
100
AcDbEntity
  8
0
  6
Continuous
 62
     7
370
    25
100
AcDbPolyline
 90
       15
 70
   128
 43
0.0
 10
299.4534519609
 20
310.1975201795
 10
299.6574528385
 20
310.1392400654
 10
299.8769438037
 20
310.0985404569
 10
300.1062577909
 20
310.0764721824
 10
300.3394741129
 20
310.0736050256
 10
300.5705713275
 20
310.0900130139
 10
300.793582706
 20
310.1252725074
 10
301.0027502889
 20
310.1784731366
 10
301.1926735516
 20
310.2482413078
 10
301.3584488409
 20
310.3327756674
 10
301.4957959833
 20
310.4298936121
 10
301.6011687954
 20
310.5370876411
 10
301.6718466428
 20
310.651590098
 10
301.7060046852
 20
310.7704446292
 10
301.7092159028
 20
310.8201501738
  0
LWPOLYLINE
  5
28F
330
1F
100
AcDbEntity
  8
0
  6
Continuous
 62
     7
370
    25
100
AcDbPolyline
 90
       14
 70
   128
 43
0.0
 10
293.6518178567
 20
310.9177471341
 10
293.6689720625
 20
310.8031407297
 10
293.7231326423
 20
310.6862742045
 10
293.8129365833
 20
310.5753841085
 10
293.9360652259
 20
310.4733335276
 10
294.0893394959
 20
310.3827573186
 10
294.2688019852
 20
310.3059940804
 10
294.4698191287
 20
310.245025773
 10
294.687200839
 20
310.2014265448
 10
294.9153345097
 20
310.17632209
 10
295.1483299283
 20
310.1703605837
 10
295.3801713561
 20
310.1836959468
 10
295.6048728495
 20
310.2159838718
 10
295.8166328118
 20
310.2663907127
  0
ARC
  5
290
330
1F
100
AcDbEntity
  8
0
  6
Continuous
 62
     7
370
    25
100
AcDbCircle
 10
299.3180549867
 20
309.8999272029
 30
0.0
 40
0.3269463569464217
100
AcDbArc
 50
65.5357138737
 51
139.8366539865
  0
LWPOLYLINE
  5
291
330
1F
100
AcDbEntity
  8
0
  6
Continuous
 62
     7
370
    25
100
AcDbPolyline
 90
        9
 70
   128
 43
0.0
 10
295.8166328118
 20
310.2663907127
 10
295.8742624142
 20
310.2785392873
 10
295.9359338051
 20
310.2829755326
 10
295.9978208581
 20
310.2794242214
 10
296.0560840669
 20
310.2681056791
 10
296.1071087503
 20
310.2497221141
 10
296.1477293093
 20
310.2254140528
 10
296.1754256223
 20
310.1966895805
 10
296.1884793952
 20
310.165330779
  0
LWPOLYLINE
  5
292
330
1F
100
AcDbEntity
  8
0
  6
Continuous
 62
     7
370
    25
100
AcDbPolyline
 90
        8
 70
   128
 43
0.0
 10
301.7092159028
 20
311.5928393096
 10
301.8545600909
 20
311.6411220558
 10
302.0310348218
 20
311.7197012587
 10
302.1807951848
 20
311.8118235274
 10
302.2999744977
 20
311.9151103452
 10
302.3854956545
 20
312.0268949365
 10
302.4351505736
 20
312.1442911206
 10
302.4481782088
 20
312.2442373908
  0
ARC
  5
293
330
1F
100
AcDbEntity
  8
0
  6
Continuous
 62
     7
370
    25
100
AcDbCircle
 10
293.8776764999
 20
312.5304587256
 30
0.0
 40
0.7773794240361392
100
AcDbArc
 50
192.2181259481
 51
253.109802685
  0
LWPOLYLINE
  5
294
330
1F
100
AcDbEntity
  8
0
  6
Continuous
 62
     7
370
    25
100
AcDbPolyline
 90
       35
 70
   128
 43
0.0
 10
655.7243100994
 20
214.6392534142
 10
655.5211779629
 20
214.4598746919
 10
655.2892411971
 20
214.2900146458
 10
655.0301709117
 20
214.1308971215
 10
654.7458337142
 20
213.9836685644
 10
654.4382782605
 20
213.8493897597
 10
654.1097204947
 20
213.7290281891
 10
653.762527683
 20
213.6234510605
 10
653.3992013576
 20
213.5334190597
 10
653.0223592931
 20
213.4595808692
 10
652.634716645
 20
213.4024684948
 10
652.2390663877
 20
213.3624934326
 10
651.8382591902
 20
213.3399437037
 10
651.4351828776
 20
213.3349817795
 10
651.0327416239
 20
213.3476434109
 10
650.6338350277
 20
213.3778373703
 10
650.24133722
 20
213.4253461097
 10
649.8580761566
 20
213.4898273274
 10
649.4868132423
 20
213.5708164349
 10
649.1302234348
 20
213.6677299038
 10
648.7908759718
 20
213.7798694703
 10
648.4712158597
 20
213.9064271663
 10
648.1735462568
 20
214.0464911406
 10
647.9000118794
 20
214.1990522291
 10
647.6525835491
 20
214.3630112257
 10
647.4330439926
 20
214.5371868021
 10
647.2429749974
 20
214.7203240192
 10
647.083746015
 20
214.9111033691
 10
646.9565042939
 20
215.1081502824
 10
646.8621666135
 20
215.3100450314
 10
646.8014126791
 20
215.5153329599
 10
646.7746802241
 20
215.7225349637
 10
646.7821618565
 20
215.9301581475
 10
646.823803671
 20
216.1367065816
 10
646.885154175
 20
216.3087183547
  0
ARC
  5
295
330
1F
100
AcDbEntity
  8
0
  6
Continuous
 62
     7
370
    25
100
AcDbCircle
 10
654.7801867288
 20
215.7842727294
 30
0.0
 40
1.484061377174828
100
AcDbArc
 50
309.5072178213
 51
14.7371624303
  0
LWPOLYLINE
  5
296
330
1F
100
AcDbEntity
  8
0
  6
Continuous
 62
     7
370
    25
100
AcDbPolyline
 90
       44
 70
   128
 43
0.0
 10
239.6926626209
 20
251.2564094282
 10
239.7156501824
 20
251.1996288699
 10
239.7764041168
 20
250.9943409414
 10
239.8031365717
 20
250.7871389376
 10
239.7956549394
 20
250.5795157538
 10
239.7540131249
 20
250.3729673197
 10
239.6785111587
 20
250.1689818216
 10
239.569693034
 20
249.9690289795
 10
239.428342788
 20
249.7745494584
 10
239.2554788524
 20
249.5869444877
 10
239.0523467159
 20
249.4075657654
 10
238.8204099501
 20
249.2377057193
 10
238.5613396647
 20
249.078588195
 10
238.2770024672
 20
248.9313596379
 10
237.9694470135
 20
248.7970808332
 10
237.6408892477
 20
248.6767192626
 10
237.293696436
 20
248.5711421341
 10
236.9303701106
 20
248.4811101332
 10
236.5535280461
 20
248.4072719427
 10
236.165885398
 20
248.3501595683
 10
235.7702351407
 20
248.3101845061
 10
235.3694279432
 20
248.2876347772
 10
234.9663516306
 20
248.2826728531
 10
234.5639103769
 20
248.2953344844
 10
234.1650037807
 20
248.3255284438
 10
233.772505973
 20
248.3730371832
 10
233.3892449096
 20
248.4375184009
 10
233.0179819953
 20
248.5185075085
 10
232.6613921878
 20
248.6154209773
 10
232.3220447248
 20
248.7275605438
 10
232.0023846127
 20
248.8541182398
 10
231.7047150098
 20
248.9941822141
 10
231.4311806324
 20
249.1467433026
 10
231.1837523021
 20
249.3107022992
 10
230.9642127456
 20
249.4848778756
 10
230.7741437504
 20
249.6680150927
 10
230.614914768
 20
249.8587944426
 10
230.4876730469
 20
250.0558413559
 10
230.3933353665
 20
250.2577361049
 10
230.3325814321
 20
250.4630240335
 10
230.3058489771
 20
250.6702260372
 10
230.3133306095
 20
250.877849221
 10
230.354972424
 20
251.0843976551
 10
230.3623899161
 20
251.1094871535
  0
LWPOLYLINE
  5
297
330
1F
100
AcDbEntity
  8
0
  6
Continuous
 62
     7
370
    25
100
AcDbPolyline
 90
       44
 70
   128
 43
0.0
 10
593.4599112918
 20
155.1100515547
 10
593.4828988533
 20
155.0532709963
 10
593.5436527877
 20
154.8479830678
 10
593.5703852427
 20
154.6407810641
 10
593.5629036103
 20
154.4331578803
 10
593.5212617959
 20
154.2266094462
 10
593.4457598296
 20
154.022623948
 10
593.336941705
 20
153.822671106
 10
593.195591459
 20
153.6281915849
 10
593.0227275234
 20
153.4405866141
 10
592.8195953868
 20
153.2612078918
 10
592.5876586211
 20
153.0913478457
 10
592.3285883357
 20
152.9322303215
 10
592.0442511382
 20
152.7850017644
 10
591.7366956844
 20
152.6507229596
 10
591.4081379186
 20
152.530361389
 10
591.060945107
 20
152.4247842605
 10
590.6976187816
 20
152.3347522596
 10
590.320776717
 20
152.2609140691
 10
589.933134069
 20
152.2038016947
 10
589.5374838117
 20
152.1638266325
 10
589.1366766141
 20
152.1412769037
 10
588.7336003015
 20
152.1363149795
 10
588.3311590479
 20
152.1489766108
 10
587.9322524516
 20
152.1791705702
 10
587.539754644
 20
152.2266793096
 10
587.1564935806
 20
152.2911605274
 10
586.7852306663
 20
152.3721496349
 10
586.4286408587
 20
152.4690631038
 10
586.0892933958
 20
152.5812026703
 10
585.7696332837
 20
152.7077603662
 10
585.4719636808
 20
152.8478243405
 10
585.1984293034
 20
153.0003854291
 10
584.9510009731
 20
153.1643444257
 10
584.7314614165
 20
153.338520002
 10
584.5413924214
 20
153.5216572191
 10
584.382163439
 20
153.7124365691
 10
584.2549217178
 20
153.9094834823
 10
584.1605840375
 20
154.1113782314
 10
584.0998301031
 20
154.3166661599
 10
584.0730976481
 20
154.5238681636
 10
584.0805792805
 20
154.7314913475
 10
584.1222210949
 20
154.9380397816
 10
584.129638587
 20
154.9631292799
  0
LWPOLYLINE
  5
298
330
1F
100
AcDbEntity
  8
0
  6
Continuous
 62
     7
370
    25
100
AcDbPolyline
 90
       35
 70
   128
 43
0.0
 10
301.9570614284
 20
310.7856112877
 10
301.7539292919
 20
310.6062325654
 10
301.5219925261
 20
310.4363725194
 10
301.2629222408
 20
310.2772549951
 10
300.9785850432
 20
310.130026438
 10
300.6710295895
 20
309.9957476332
 10
300.3424718237
 20
309.8753860626
 10
299.995279012
 20
309.7698089341
 10
299.6319526867
 20
309.6797769333
 10
299.2551106221
 20
309.6059387427
 10
298.8674679741
 20
309.5488263684
 10
298.4718177167
 20
309.5088513061
 10
298.0710105192
 20
309.4863015773
 10
297.6679342066
 20
309.4813396531
 10
297.2654929529
 20
309.4940012844
 10
296.8665863567
 20
309.5241952438
 10
296.474088549
 20
309.5717039832
 10
296.0908274857
 20
309.636185201
 10
295.7195645713
 20
309.7171743085
 10
295.3629747638
 20
309.8140877774
 10
295.0236273008
 20
309.9262273439
 10
294.7039671887
 20
310.0527850398
 10
294.4062975858
 20
310.1928490142
 10
294.1327632085
 20
310.3454101027
 10
293.8853348781
 20
310.5093690993
 10
293.6657953216
 20
310.6835446756
 10
293.4757263264
 20
310.8666818927
 10
293.316497344
 20
311.0574612427
 10
293.1892556229
 20
311.254508156
 10
293.0949179425
 20
311.456402905
 10
293.0341640081
 20
311.6616908335
 10
293.0074315532
 20
311.8688928373
 10
293.0149131856
 20
312.0765160211
 10
293.056555
 20
312.2830644552
 10
293.117905504
 20
312.4550762283
  0
ARC
  5
299
330
1F
100
AcDbEntity
  8
0
  6
Continuous
 62
     7
370
    25
100
AcDbCircle
 10
301.0129380578
 20
311.930630603
 30
0.0
 40
1.484061377174916
100
AcDbArc
 50
309.5072178213
 51
14.7371624303
  0
LINE
  5
29A
330
1F
100
AcDbEntity
  8
0
  6
Continuous
 62
     8
370
    18
100
AcDbLine
 10
643.8588417044
 20
275.2673073322
 30
0.0
 11
643.8588417044
 21
270.9814708287
 31
0.0
  0
LINE
  5
29B
330
1F
100
AcDbEntity
  8
0
  6
Continuous
 62
     8
370
    18
100
AcDbLine
 10
618.8632417581
 20
267.0013232545
 30
0.0
 11
618.8632417581
 21
271.287159758
 31
0.0
  0
LINE
  5
29C
330
1F
100
AcDbEntity
  8
0
  6
Continuous
 62
     8
370
    18
100
AcDbLine
 10
209.3776514215
 20
382.5765689966
 30
0.0
 11
209.3776514215
 21
378.2907324931
 31
0.0
  0
LINE
  5
29D
330
1F
100
AcDbEntity
  8
0
  6
Continuous
 62
     8
370
    18
100
AcDbLine
 10
684.9280359302
 20
311.0662634275
 30
0.0
 11
684.9280359302
 21
315.352099931
 31
0.0
  0
LINE
  5
29E
330
1F
100
AcDbEntity
  8
0
  6
Continuous
 62
     8
370
    18
100
AcDbLine
 10
652.8354483769
 20
336.67750216
 30
0.0
 11
652.8354483769
 21
334.8475936157
 31
0.0
  0
LINE
  5
29F
330
1F
100
AcDbEntity
  8
0
  6
Continuous
 62
     8
370
    18
100
AcDbLine
 10
652.8354483769
 20
279.7429141317
 30
0.0
 11
652.8354483769
 21
213.9644395715
 31
0.0
  0
LINE
  5
2A0
330
1F
100
AcDbEntity
  8
0
  6
Continuous
 62
     8
370
    18
100
AcDbLine
 10
649.9557280662
 20
336.676090694
 30
0.0
 11
649.9557280662
 21
335.6302398912
 31
0.0
  0
LINE
  5
2A1
330
1F
100
AcDbEntity
  8
0
  6
Continuous
 62
     8
370
    18
100
AcDbLine
 10
649.9557280662
 20
276.9322188265
 30
0.0
 11
649.9557280662
 21
214.0189729054
 31
0.0
  0
LINE
  5
2A2
330
1F
100
AcDbEntity
  8
0
  6
Continuous
 62
     8
370
    18
100
AcDbLine
 10
653.2207006318
 20
336.7787424495
 30
0.0
 11
653.2207006318
 21
334.7428903077
 31
0.0
  0
LINE
  5
2A3
330
1F
100
AcDbEntity
  8
0
  6
Continuous
 62
     8
370
    18
100
AcDbLine
 10
653.2207006318
 20
280.1189321429
 30
0.0
 11
653.2207006318
 21
214.0511623059
 31
0.0
  0
LINE
  5
2A4
330
1F
100
AcDbEntity
  8
0
  6
Continuous
 62
     8
370
    18
100
AcDbLine
 10
649.5838814828
 20
336.7771506277
 30
0.0
 11
649.5838814828
 21
335.7312998249
 31
0.0
  0
LINE
  5
2A5
330
1F
100
AcDbEntity
  8
0
  6
Continuous
 62
     8
370
    18
100
AcDbLine
 10
649.5838814828
 20
276.5692851616
 30
0.0
 11
649.5838814828
 21
214.1200328391
 31
0.0
  0
LINE
  5
2A6
330
1F
100
AcDbEntity
  8
0
  6
Continuous
 62
     8
370
    18
100
AcDbLine
 10
655.2075139897
 20
338.2518192845
 30
0.0
 11
655.2075139897
 21
337.8024936777
 31
0.0
  0
LINE
  5
2A7
330
1F
100
AcDbEntity
  8
0
  6
Continuous
 62
     8
370
    18
100
AcDbLine
 10
647.7927543777
 20
338.2539419346
 30
0.0
 11
647.7927543777
 21
337.8571019523
 31
0.0
  0
LINE
  5
2A8
330
1F
100
AcDbEntity
  8
0
  6
Continuous
 62
     8
370
    18
100
AcDbLine
 10
235.1265156044
 20
371.7496579684
 30
0.0
 11
235.1265156044
 21
248.7908532567
 31
0.0
  0
LINE
  5
2A9
330
1F
100
AcDbEntity
  8
0
  6
Continuous
 62
     8
370
    18
100
AcDbLine
 10
234.7063574473
 20
371.7650117646
 30
0.0
 11
234.7063574473
 21
248.798809802
 31
0.0
  0
LINE
  5
2AA
330
1F
100
AcDbEntity
  8
0
  6
Continuous
 62
     8
370
    18
100
AcDbLine
 10
238.0410369106
 20
372.3981038762
 30
0.0
 11
238.0410369106
 21
249.549467372
 31
0.0
  0
LINE
  5
2AB
330
1F
100
AcDbEntity
  8
0
  6
Continuous
 62
     8
370
    18
100
AcDbLine
 10
231.9078734048
 20
372.6244159511
 30
0.0
 11
231.9078734048
 21
249.6656112394
 31
0.0
  0
LINE
  5
2AC
330
1F
100
AcDbEntity
  8
0
  6
Continuous
 62
     8
370
    18
100
AcDbLine
 10
238.7066295679
 20
373.9091171094
 30
0.0
 11
238.7066295679
 21
373.8067878553
 31
0.0
  0
LINE
  5
2AD
330
1F
100
AcDbEntity
  8
0
  6
Continuous
 62
     8
370
    18
100
AcDbLine
 10
231.478857927
 20
374.1815635134
 30
0.0
 11
231.478857927
 21
374.1071850391
 31
0.0
  0
LINE
  5
2AE
330
1F
100
AcDbEntity
  8
0
  6
Continuous
 62
     8
370
    18
100
AcDbLine
 10
588.8937642754
 20
275.6033000948
 30
0.0
 11
588.8937642754
 21
152.6444953831
 31
0.0
  0
LINE
  5
2AF
330
1F
100
AcDbEntity
  8
0
  6
Continuous
 62
     8
370
    18
100
AcDbLine
 10
588.4736061182
 20
275.618653891
 30
0.0
 11
588.4736061182
 21
152.6524519284
 31
0.0
  0
LINE
  5
2B0
330
1F
100
AcDbEntity
  8
0
  6
Continuous
 62
     8
370
    18
100
AcDbLine
 10
591.8082855816
 20
276.2517460026
 30
0.0
 11
591.8082855816
 21
153.4031094984
 31
0.0
  0
LINE
  5
2B1
330
1F
100
AcDbEntity
  8
0
  6
Continuous
 62
     8
370
    18
100
AcDbLine
 10
585.6751220758
 20
276.4780580775
 30
0.0
 11
585.6751220758
 21
153.5192533658
 31
0.0
  0
LINE
  5
2B2
330
1F
100
AcDbEntity
  8
0
  6
Continuous
 62
     8
370
    18
100
AcDbLine
 10
592.4738782389
 20
277.7627592358
 30
0.0
 11
592.4738782389
 21
277.6604299817
 31
0.0
  0
LINE
  5
2B3
330
1F
100
AcDbEntity
  8
0
  6
Continuous
 62
     8
370
    18
100
AcDbLine
 10
585.246106598
 20
278.0352056399
 30
0.0
 11
585.246106598
 21
277.9608271655
 31
0.0
  0
LINE
  5
2B4
330
1F
100
AcDbEntity
  8
0
  6
Continuous
 62
     8
370
    18
100
AcDbLine
 10
299.0681997059
 20
432.8238600336
 30
0.0
 11
299.0681997059
 21
430.9939514893
 31
0.0
  0
LINE
  5
2B5
330
1F
100
AcDbEntity
  8
0
  6
Continuous
 62
     8
370
    18
100
AcDbLine
 10
299.0681997059
 20
353.9147633054
 30
0.0
 11
299.0681997059
 21
310.110797445
 31
0.0
  0
LINE
  5
2B6
330
1F
100
AcDbEntity
  8
0
  6
Continuous
 62
     8
370
    18
100
AcDbLine
 10
296.1884793952
 20
432.8224485676
 30
0.0
 11
296.1884793952
 21
431.7765977648
 31
0.0
  0
LINE
  5
2B7
330
1F
100
AcDbEntity
  8
0
  6
Continuous
 62
     8
370
    18
100
AcDbLine
 10
296.1884793952
 20
354.6974095809
 30
0.0
 11
296.1884793952
 21
310.165330779
 31
0.0
  0
LINE
  5
2B8
330
1F
100
AcDbEntity
  8
0
  6
Continuous
 62
     8
370
    18
100
AcDbLine
 10
299.4534519609
 20
432.9251003231
 30
0.0
 11
299.4534519609
 21
430.8892481813
 31
0.0
  0
LINE
  5
2B9
330
1F
100
AcDbEntity
  8
0
  6
Continuous
 62
     8
370
    18
100
AcDbLine
 10
299.4534519609
 20
353.8100599974
 30
0.0
 11
299.4534519609
 21
310.1975201795
 31
0.0
  0
LINE
  5
2BA
330
1F
100
AcDbEntity
  8
0
  6
Continuous
 62
     8
370
    18
100
AcDbLine
 10
295.8166328118
 20
432.9235085013
 30
0.0
 11
295.8166328118
 21
431.8776576984
 31
0.0
  0
LINE
  5
2BB
330
1F
100
AcDbEntity
  8
0
  6
Continuous
 62
     8
370
    18
100
AcDbLine
 10
295.8166328118
 20
354.7984695145
 30
0.0
 11
295.8166328118
 21
310.2663907127
 31
0.0
  0
LINE
  5
2BC
330
1F
100
AcDbEntity
  8
0
  6
Continuous
 62
     8
370
    18
100
AcDbLine
 10
301.4402653187
 20
434.398177158
 30
0.0
 11
301.4402653187
 21
433.9488515512
 31
0.0
  0
LINE
  5
2BD
330
1F
100
AcDbEntity
  8
0
  6
Continuous
 62
     8
370
    18
100
AcDbLine
 10
294.0255057067
 20
434.4002998082
 30
0.0
 11
294.0255057067
 21
434.0034598259
 31
0.0
  0
LINE
  5
2BE
330
1F
100
AcDbEntity
  8
0
  6
Continuous
 62
     8
370
    18
100
AcDbLine
 10
595.1793111056
 20
273.4381081206
 30
0.0
 11
593.4599112918
 21
271.7599211916
 31
0.0
  0
LINE
  5
2BF
330
1F
100
AcDbEntity
  8
0
  6
Continuous
 62
     8
370
    18
100
AcDbLine
 10
605.4833777944
 20
270.637683584
 30
0.0
 11
593.4599112918
 21
258.9024116811
 31
0.0
  0
LINE
  5
2C0
330
1F
100
AcDbEntity
  8
0
  6
Continuous
 62
     8
370
    18
100
AcDbLine
 10
239.6926626209
 20
367.9062790652
 30
0.0
 11
241.4120624347
 21
369.5844659941
 31
0.0
  0
LINE
  5
2C1
330
1F
100
AcDbEntity
  8
0
  6
Continuous
 62
     8
370
    18
100
AcDbLine
 10
239.6926626209
 20
355.0487695547
 30
0.0
 11
251.7161291234
 21
366.7840414576
 31
0.0
  0
LWPOLYLINE
  5
2C2
330
1F
100
AcDbEntity
  8
0
  6
Continuous
 62
     8
370
    18
100
AcDbPolyline
 90
       39
 70
   128
 43
0.0
 10
646.7733240214
 20
214.4952404629
 10
646.7746802241
 20
214.4367840126
 10
646.8014126791
 20
214.2295820089
 10
646.8621666135
 20
214.0242940804
 10
646.9565042939
 20
213.8223993313
 10
647.083746015
 20
213.6253524181
 10
647.2429749974
 20
213.4345730681
 10
647.4330439926
 20
213.251435851
 10
647.6525835491
 20
213.0772602747
 10
647.9000118794
 20
212.9133012781
 10
648.1735462568
 20
212.7607401895
 10
648.4712158597
 20
212.6206762152
 10
648.7908759718
 20
212.4941185193
 10
649.1302234348
 20
212.3819789528
 10
649.4868132423
 20
212.2850654839
 10
649.8580761566
 20
212.2040763764
 10
650.24133722
 20
212.1395951586
 10
650.6338350277
 20
212.0920864192
 10
651.0327416239
 20
212.0618924598
 10
651.4351828776
 20
212.0492308285
 10
651.8382591902
 20
212.0541927527
 10
652.2390663877
 20
212.0767424815
 10
652.634716645
 20
212.1167175437
 10
653.0223592931
 20
212.1738299181
 10
653.3992013576
 20
212.2476681086
 10
653.762527683
 20
212.3377001095
 10
654.1097204947
 20
212.443277238
 10
654.4382782605
 20
212.5636388086
 10
654.7458337142
 20
212.6979176134
 10
655.0301709117
 20
212.8451461705
 10
655.2892411971
 20
213.0042636947
 10
655.5211779629
 20
213.1741237408
 10
655.7243100994
 20
213.3535024631
 10
655.897174035
 20
213.5411074339
 10
656.038524281
 20
213.735586955
 10
656.1473424057
 20
213.935539797
 10
656.2228443719
 20
214.1395252952
 10
656.2644861863
 20
214.3460737293
 10
656.2733240214
 20
214.4952404629
  0
ARC
  5
2C3
330
1F
100
AcDbEntity
  8
0
  6
Continuous
 62
     8
370
    18
100
AcDbCircle
 10
238.191577554
 20
249.5156469385
 30
0.0
 40
1.614553510433666
100
AcDbArc
 50
311.2194306961
 51
357.4186700096
  0
LWPOLYLINE
  5
2C4
330
1F
100
AcDbEntity
  8
0
  6
Continuous
 62
     8
370
    18
100
AcDbPolyline
 90
       33
 70
   128
 43
0.0
 10
230.3044927744
 20
249.4429315364
 10
230.3058489771
 20
249.3844750862
 10
230.3325814321
 20
249.1772730824
 10
230.3933353665
 20
248.9719851539
 10
230.4876730469
 20
248.7700904049
 10
230.614914768
 20
248.5730434916
 10
230.7741437504
 20
248.3822641416
 10
230.9642127456
 20
248.1991269245
 10
231.1837523021
 20
248.0249513482
 10
231.4311806324
 20
247.8609923516
 10
231.7047150098
 20
247.7084312631
 10
232.0023846127
 20
247.5683672887
 10
232.3220447248
 20
247.4418095928
 10
232.6613921878
 20
247.3296700263
 10
233.0179819953
 20
247.2327565574
 10
233.3892449096
 20
247.1517674499
 10
233.772505973
 20
247.0872862321
 10
234.1650037807
 20
247.0397774927
 10
234.5639103769
 20
247.0095835333
 10
234.9663516306
 20
246.996921902
 10
235.3694279432
 20
247.0018838262
 10
235.7702351407
 20
247.024433555
 10
236.165885398
 20
247.0644086173
 10
236.5535280461
 20
247.1215209916
 10
236.9303701106
 20
247.1953591821
 10
237.293696436
 20
247.285391183
 10
237.6408892477
 20
247.3909683115
 10
237.9694470135
 20
247.5113298821
 10
238.2770024672
 20
247.6456086869
 10
238.5613396647
 20
247.792837244
 10
238.8204099501
 20
247.9519547683
 10
239.0523467159
 20
248.1218148143
 10
239.2554788524
 20
248.3011935366
  0
ARC
  5
2C5
330
1F
100
AcDbEntity
  8
0
  6
Continuous
 62
     8
370
    18
100
AcDbCircle
 10
591.958826225
 20
153.3692890649
 30
0.0
 40
1.614553510433636
100
AcDbArc
 50
311.2194306961
 51
357.4186700096
  0
LWPOLYLINE
  5
2C6
330
1F
100
AcDbEntity
  8
0
  6
Continuous
 62
     8
370
    18
100
AcDbPolyline
 90
       33
 70
   128
 43
0.0
 10
584.0717414454
 20
153.2965736628
 10
584.0730976481
 20
153.2381172126
 10
584.0998301031
 20
153.0309152088
 10
584.1605840375
 20
152.8256272803
 10
584.2549217178
 20
152.6237325313
 10
584.382163439
 20
152.426685618
 10
584.5413924214
 20
152.2359062681
 10
584.7314614165
 20
152.052769051
 10
584.9510009731
 20
151.8785934746
 10
585.1984293034
 20
151.714634478
 10
585.4719636808
 20
151.5620733895
 10
585.7696332837
 20
151.4220094152
 10
586.0892933958
 20
151.2954517192
 10
586.4286408587
 20
151.1833121527
 10
586.7852306663
 20
151.0863986838
 10
587.1564935806
 20
151.0054095763
 10
587.539754644
 20
150.9409283585
 10
587.9322524516
 20
150.8934196192
 10
588.3311590479
 20
150.8632256597
 10
588.7336003015
 20
150.8505640284
 10
589.1366766141
 20
150.8555259526
 10
589.5374838117
 20
150.8780756815
 10
589.933134069
 20
150.9180507437
 10
590.320776717
 20
150.975163118
 10
590.6976187816
 20
151.0490013086
 10
591.060945107
 20
151.1390333094
 10
591.4081379186
 20
151.244610438
 10
591.7366956844
 20
151.3649720086
 10
592.0442511382
 20
151.4992508133
 10
592.3285883357
 20
151.6464793704
 10
592.5876586211
 20
151.8055968947
 10
592.8195953868
 20
151.9754569407
 10
593.0227275234
 20
152.1548356631
  0
LWPOLYLINE
  5
2C7
330
1F
100
AcDbEntity
  8
0
  6
Continuous
 62
     8
370
    18
100
AcDbPolyline
 90
       39
 70
   128
 43
0.0
 10
293.0060753505
 20
310.6415983364
 10
293.0074315532
 20
310.5831418862
 10
293.0341640081
 20
310.3759398825
 10
293.0949179425
 20
310.1706519539
 10
293.1892556229
 20
309.9687572049
 10
293.316497344
 20
309.7717102916
 10
293.4757263264
 20
309.5809309417
 10
293.6657953216
 20
309.3977937246
 10
293.8853348781
 20
309.2236181482
 10
294.1327632085
 20
309.0596591516
 10
294.4062975858
 20
308.9070980631
 10
294.7039671887
 20
308.7670340888
 10
295.0236273008
 20
308.6404763928
 10
295.3629747638
 20
308.5283368263
 10
295.7195645713
 20
308.4314233575
 10
296.0908274857
 20
308.3504342499
 10
296.474088549
 20
308.2859530322
 10
296.8665863567
 20
308.2384442928
 10
297.2654929529
 20
308.2082503334
 10
297.6679342066
 20
308.1955887021
 10
298.0710105192
 20
308.2005506262
 10
298.4718177167
 20
308.2231003551
 10
298.8674679741
 20
308.2630754173
 10
299.2551106221
 20
308.3201877917
 10
299.6319526867
 20
308.3940259822
 10
299.995279012
 20
308.4840579831
 10
300.3424718237
 20
308.5896351116
 10
300.6710295895
 20
308.7099966822
 10
300.9785850432
 20
308.8442754869
 10
301.2629222408
 20
308.991504044
 10
301.5219925261
 20
309.1506215683
 10
301.7539292919
 20
309.3204816144
 10
301.9570614284
 20
309.4998603367
 10
302.129925364
 20
309.6874653074
 10
302.27127561
 20
309.8819448285
 10
302.3800937347
 20
310.0818976706
 10
302.4555957009
 20
310.2858831687
 10
302.4972375154
 20
310.4924316028
 10
302.5060753505
 20
310.6415983364
  0
ENDSEC
  0
SECTION
  2
OBJECTS
  0
DICTIONARY
  5
C
330
0
100
AcDbDictionary
281
     1
  3
ACAD_GROUP
350
D
  3
ACAD_LAYOUT
350
1A
  3
ACAD_MLINESTYLE
350
17
  3
ACAD_PLOTSETTINGS
350
19
  3
ACAD_PLOTSTYLENAME
350
E
  3
ACAD_SCALELIST
350
47
  0
DICTIONARY
  5
D
102
{ACAD_REACTORS
330
C
102
}
330
C
100
AcDbDictionary
281
     1
  0
DICTIONARY
  5
1A
102
{ACAD_REACTORS
330
C
102
}
330
C
100
AcDbDictionary
281
     1
  3
Layout1
350
1E
  3
Layout2
350
26
  3
Model
350
22
  0
DICTIONARY
  5
17
102
{ACAD_REACTORS
330
C
102
}
330
C
100
AcDbDictionary
281
     1
  3
Standard
350
18
  0
DICTIONARY
  5
19
102
{ACAD_REACTORS
330
C
102
}
330
C
100
AcDbDictionary
281
     1
  0
ACDBDICTIONARYWDFLT
  5
E
102
{ACAD_REACTORS
330
C
102
}
330
C
100
AcDbDictionary
281
     1
  3
Normal
350
F
100
AcDbDictionaryWithDefault
340
F
  0
DICTIONARY
  5
47
102
{ACAD_REACTORS
330
C
102
}
330
C
100
AcDbDictionary
281
     1
  3
A0
350
48
  3
A1
350
49
  3
A2
350
4A
  3
A3
350
4B
  3
A4
350
4C
  3
A5
350
4D
  3
A6
350
4E
  3
A7
350
4F
  3
A8
350
50
  3
A9
350
51
  3
B0
350
52
  3
B1
350
53
  3
B2
350
54
  3
B3
350
55
  3
B4
350
56
  3
B5
350
57
  3
B6
350
58
  3
B7
350
59
  3
B8
350
5A
  3
B9
350
5B
  3
C0
350
5C
  3
C1
350
5D
  3
C2
350
5E
  3
C3
350
5F
  3
C4
350
60
  3
C5
350
61
  3
C6
350
62
  3
C7
350
63
  3
C8
350
64
  3
C9
350
65
  3
D0
350
66
  3
D1
350
67
  3
D2
350
68
  0
LAYOUT
  5
1E
102
{ACAD_REACTORS
330
1A
102
}
330
1A
100
AcDbPlotSettings
  1

  2
none_device
  4

  6

 40
0.0
 41
0.0
 42
0.0
 43
0.0
 44
0.0
 45
0.0
 46
0.0
 47
0.0
 48
0.0
 49
0.0
140
0.0
141
0.0
142
1.0
143
1.0
 70
   688
 72
     1
 73
     0
 74
     5
  7

 75
    16
147
1.0
148
0.0
149
0.0
100
AcDbLayout
  1
Layout1
 70
     1
 71
     1
 10
0.0
 20
0.0
 11
420.0
 21
297.0
 12
0.0
 22
0.0
 32
0.0
 14
1.0000000000E+20
 24
1.0000000000E+20
 34
1.0000000000E+20
 15
-1.0000000000E+20
 25
-1.0000000000E+20
 35
-1.0000000000E+20
146
0.0
 13
0.0
 23
0.0
 33
0.0
 16
1.0
 26
0.0
 36
0.0
 17
0.0
 27
1.0
 37
0.0
 76
     0
330
1B
  0
LAYOUT
  5
26
102
{ACAD_REACTORS
330
1A
102
}
330
1A
100
AcDbPlotSettings
  1

  2
none_device
  4

  6

 40
0.0
 41
0.0
 42
0.0
 43
0.0
 44
0.0
 45
0.0
 46
0.0
 47
0.0
 48
0.0
 49
0.0
140
0.0
141
0.0
142
1.0
143
1.0
 70
   688
 72
     1
 73
     0
 74
     5
  7

 75
    16
147
1.0
148
0.0
149
0.0
100
AcDbLayout
  1
Layout2
 70
     1
 71
     2
 10
0.0
 20
0.0
 11
0.0
 21
0.0
 12
0.0
 22
0.0
 32
0.0
 14
0.0
 24
0.0
 34
0.0
 15
0.0
 25
0.0
 35
0.0
146
0.0
 13
0.0
 23
0.0
 33
0.0
 16
1.0
 26
0.0
 36
0.0
 17
0.0
 27
1.0
 37
0.0
 76
     0
330
23
  0
LAYOUT
  5
22
102
{ACAD_REACTORS
330
1A
102
}
330
1A
100
AcDbPlotSettings
  1

  2
none_device
  4
Letter_(8.50_x_11.00_Inches)
  6

 40
6.35
 41
6.35
 42
6.35000508
 43
6.35000508
 44
215.9
 45
279.4
 46
0.0
 47
0.0
 48
0.0
 49
0.0
140
0.0
141
0.0
142
1.0
143
1.0
 70
  1712
 72
     1
 73
     0
 74
     0
  7

 75
     0
147
1.0
148
0.0
149
0.0
100
AcDbLayout
  1
Model
 70
     1
 71
     0
 10
0.0
 20
0.0
 11
2970.0
 21
2100.0
 12
0.0
 22
0.0
 32
0.0
 14
0.0
 24
0.0
 34
0.0
 15
2970.0
 25
2100.0
 35
0.0
146
0.0
 13
0.0
 23
0.0
 33
0.0
 16
1.0
 26
0.0
 36
0.0
 17
0.0
 27
1.0
 37
0.0
 76
     0
330
1F
331
29
  0
MLINESTYLE
  5
18
102
{ACAD_REACTORS
330
17
102
}
330
17
100
AcDbMlineStyle
  2
Standard
 70
     0
  3

 62
   256
 51
90.0
 52
90.0
 71
     2
 49
0.5
 62
   256
  6
BYLAYER
 49
-0.5
 62
   256
  6
BYLAYER
  0
ACDBPLACEHOLDER
  5
F
102
{ACAD_REACTORS
330
E
102
}
330
E
  0
SCALE
  5
48
102
{ACAD_REACTORS
330
47
102
}
330
47
100
AcDbScale
 70
     0
300
1:1
140
1.0
141
1.0
290
     1
  0
SCALE
  5
49
102
{ACAD_REACTORS
330
47
102
}
330
47
100
AcDbScale
 70
     0
300
1:2
140
1.0
141
2.0
290
     0
  0
SCALE
  5
4A
102
{ACAD_REACTORS
330
47
102
}
330
47
100
AcDbScale
 70
     0
300
1:4
140
1.0
141
4.0
290
     0
  0
SCALE
  5
4B
102
{ACAD_REACTORS
330
47
102
}
330
47
100
AcDbScale
 70
     0
300
1:5
140
1.0
141
5.0
290
     0
  0
SCALE
  5
4C
102
{ACAD_REACTORS
330
47
102
}
330
47
100
AcDbScale
 70
     0
300
1:8
140
1.0
141
8.0
290
     0
  0
SCALE
  5
4D
102
{ACAD_REACTORS
330
47
102
}
330
47
100
AcDbScale
 70
     0
300
1:10
140
1.0
141
10.0
290
     0
  0
SCALE
  5
4E
102
{ACAD_REACTORS
330
47
102
}
330
47
100
AcDbScale
 70
     0
300
1:16
140
1.0
141
16.0
290
     0
  0
SCALE
  5
4F
102
{ACAD_REACTORS
330
47
102
}
330
47
100
AcDbScale
 70
     0
300
1:20
140
1.0
141
20.0
290
     0
  0
SCALE
  5
50
102
{ACAD_REACTORS
330
47
102
}
330
47
100
AcDbScale
 70
     0
300
1:30
140
1.0
141
30.0
290
     0
  0
SCALE
  5
51
102
{ACAD_REACTORS
330
47
102
}
330
47
100
AcDbScale
 70
     0
300
1:40
140
1.0
141
40.0
290
     0
  0
SCALE
  5
52
102
{ACAD_REACTORS
330
47
102
}
330
47
100
AcDbScale
 70
     0
300
1:50
140
1.0
141
50.0
290
     0
  0
SCALE
  5
53
102
{ACAD_REACTORS
330
47
102
}
330
47
100
AcDbScale
 70
     0
300
1:100
140
1.0
141
100.0
290
     0
  0
SCALE
  5
54
102
{ACAD_REACTORS
330
47
102
}
330
47
100
AcDbScale
 70
     0
300
2:1
140
2.0
141
1.0
290
     0
  0
SCALE
  5
55
102
{ACAD_REACTORS
330
47
102
}
330
47
100
AcDbScale
 70
     0
300
4:1
140
4.0
141
1.0
290
     0
  0
SCALE
  5
56
102
{ACAD_REACTORS
330
47
102
}
330
47
100
AcDbScale
 70
     0
300
8:1
140
8.0
141
1.0
290
     0
  0
SCALE
  5
57
102
{ACAD_REACTORS
330
47
102
}
330
47
100
AcDbScale
 70
     0
300
10:1
140
10.0
141
1.0
290
     0
  0
SCALE
  5
58
102
{ACAD_REACTORS
330
47
102
}
330
47
100
AcDbScale
 70
     0
300
100:1
140
100.0
141
1.0
290
     0
  0
SCALE
  5
59
102
{ACAD_REACTORS
330
47
102
}
330
47
100
AcDbScale
 70
     0
300
1/128" = 1'-0"
140
0.0078125
141
12.0
290
     0
  0
SCALE
  5
5A
102
{ACAD_REACTORS
330
47
102
}
330
47
100
AcDbScale
 70
     0
300
1/64" = 1'-0"
140
0.015625
141
12.0
290
     0
  0
SCALE
  5
5B
102
{ACAD_REACTORS
330
47
102
}
330
47
100
AcDbScale
 70
     0
300
1/32" = 1'-0"
140
0.03125
141
12.0
290
     0
  0
SCALE
  5
5C
102
{ACAD_REACTORS
330
47
102
}
330
47
100
AcDbScale
 70
     0
300
1/16" = 1'-0"
140
0.0625
141
12.0
290
     0
  0
SCALE
  5
5D
102
{ACAD_REACTORS
330
47
102
}
330
47
100
AcDbScale
 70
     0
300
3/32" = 1'-0"
140
0.09375
141
12.0
290
     0
  0
SCALE
  5
5E
102
{ACAD_REACTORS
330
47
102
}
330
47
100
AcDbScale
 70
     0
300
1/8" = 1'-0"
140
0.125
141
12.0
290
     0
  0
SCALE
  5
5F
102
{ACAD_REACTORS
330
47
102
}
330
47
100
AcDbScale
 70
     0
300
3/16" = 1'-0"
140
0.1875
141
12.0
290
     0
  0
SCALE
  5
60
102
{ACAD_REACTORS
330
47
102
}
330
47
100
AcDbScale
 70
     0
300
1/4" = 1'-0"
140
0.25
141
12.0
290
     0
  0
SCALE
  5
61
102
{ACAD_REACTORS
330
47
102
}
330
47
100
AcDbScale
 70
     0
300
3/8" = 1'-0"
140
0.375
141
12.0
290
     0
  0
SCALE
  5
62
102
{ACAD_REACTORS
330
47
102
}
330
47
100
AcDbScale
 70
     0
300
1/2" = 1'-0"
140
0.5
141
12.0
290
     0
  0
SCALE
  5
63
102
{ACAD_REACTORS
330
47
102
}
330
47
100
AcDbScale
 70
     0
300
3/4" = 1'-0"
140
0.75
141
12.0
290
     0
  0
SCALE
  5
64
102
{ACAD_REACTORS
330
47
102
}
330
47
100
AcDbScale
 70
     0
300
1" = 1'-0"
140
1.0
141
12.0
290
     0
  0
SCALE
  5
65
102
{ACAD_REACTORS
330
47
102
}
330
47
100
AcDbScale
 70
     0
300
1-1/2" = 1'-0"
140
1.5
141
12.0
290
     0
  0
SCALE
  5
66
102
{ACAD_REACTORS
330
47
102
}
330
47
100
AcDbScale
 70
     0
300
3" = 1'-0"
140
3.0
141
12.0
290
     0
  0
SCALE
  5
67
102
{ACAD_REACTORS
330
47
102
}
330
47
100
AcDbScale
 70
     0
300
6" = 1'-0"
140
6.0
141
12.0
290
     0
  0
SCALE
  5
68
102
{ACAD_REACTORS
330
47
102
}
330
47
100
AcDbScale
 70
     0
300
1'-0" = 1'-0"
140
12.0
141
12.0
290
     0
  0
ENDSEC
  0
EOF
