  0
SECTION
  2
HEADER
  9
$ACADVER
  1
AC1015
  9
$ACADMAINTVER
 70
     6
  9
$DWGCODEPAGE
  3
ANSI_1252
  9
$INSBASE
 10
0.0
 20
0.0
 30
0.0
  9
$EXTMIN
 10
0.0
 20
0.0
 30
0.0
  9
$EXTMAX
 10
2970.0
 20
2100.0
 30
0.0
  9
$LIMMIN
 10
0.0
 20
0.0
  9
$LIMMAX
 10
2970.0
 20
2100.0
  9
$ORTHOMODE
 70
     0
  9
$REGENMODE
 70
     1
  9
$FILLMODE
 70
     1
  9
$QTEXTMODE
 70
     0
  9
$MIRRTEXT
 70
     1
  9
$LTSCALE
 40
10.0
  9
$ATTMODE
 70
     1
  9
$TEXTSIZE
 40
35.0
  9
$TRACEWID
 40
1.0
  9
$TEXTSTYLE
  7
Standard
  9
$CLAYER
  8
0
  9
$CELTYPE
  6
ByLayer
  9
$CECOLOR
 62
   256
  9
$CELTSCALE
 40
1.0
  9
$DISPSILH
 70
     0
  9
$DIMSCALE
 40
1.0
  9
$DIMASZ
 40
25.0
  9
$DIMEXO
 40
0.0
  9
$DIMDLI
 40
3.75
  9
$DIMRND
 40
0.0
  9
$DIMDLE
 40
0.0
  9
$DIMEXE
 40
10.0
  9
$DIMTP
 40
0.0
  9
$DIMTM
 40
0.0
  9
$DIMTXT
 40
30.0
  9
$DIMCEN
 40
2.5
  9
$DIMTSZ
 40
0.0
  9
$DIMTOL
 70
     0
  9
$DIMLIM
 70
     0
  9
$DIMTIH
 70
     1
  9
$DIMTOH
 70
     1
  9
$DIMSE1
 70
     0
  9
$DIMSE2
 70
     0
  9
$DIMTAD
 70
     1
  9
$DIMZIN
 70
     0
  9
$DIMBLK
  1

  9
$DIMASO
 70
     1
  9
$DIMSHO
 70
     1
  9
$DIMPOST
  1

  9
$DIMAPOST
  1

  9
$DIMALT
 70
     0
  9
$DIMALTD
 70
     3
  9
$DIMALTF
 40
0.0393700787
  9
$DIMLFAC
 40
1.0
  9
$DIMTOFL
 70
     1
  9
$DIMTVP
 40
0.0
  9
$DIMTIX
 70
     0
  9
$DIMSOXD
 70
     0
  9
$DIMSAH
 70
     0
  9
$DIMBLK1
  1

  9
$DIMBLK2
  1

  9
$DIMSTYLE
  2
ISO-25
  9
$DIMCLRD
 70
     0
  9
$DIMCLRE
 70
     0
  9
$DIMCLRT
 70
     0
  9
$DIMTFAC
 40
1.0
  9
$DIMGAP
 40
15.0
  9
$DIMJUST
 70
     0
  9
$DIMSD1
 70
     0
  9
$DIMSD2
 70
     0
  9
$DIMTOLJ
 70
     0
  9
$DIMTZIN
 70
     0
  9
$DIMALTZ
 70
     0
  9
$DIMALTTZ
 70
     0
  9
$DIMUPT
 70
     0
  9
$DIMDEC
 70
     1
  9
$DIMTDEC
 70
     1
  9
$DIMALTU
 70
     2
  9
$DIMALTTD
 70
     3
  9
$DIMTXSTY
  7
Standard
  9
$DIMAUNIT
 70
     0
  9
$DIMADEC
 70
     2
  9
$DIMALTRND
 40
0.0
  9
$DIMAZIN
 70
     0
  9
$DIMDSEP
 70
    44
  9
$DIMATFIT
 70
     3
  9
$DIMFRAC
 70
     0
  9
$DIMLDRBLK
  1

  9
$DIMLUNIT
 70
     2
  9
$DIMLWD
 70
    -2
  9
$DIMLWE
 70
    -2
  9
$DIMTMOVE
 70
     0
  9
$LUNITS
 70
     2
  9
$LUPREC
 70
     2
  9
$SKETCHINC
 40
1.0
  9
$FILLETRAD
 40
10.0
  9
$AUNITS
 70
     0
  9
$AUPREC
 70
     2
  9
$MENU
  1
.
  9
$ELEVATION
 40
0.0
  9
$PELEVATION
 40
0.0
  9
$THICKNESS
 40
0.0
  9
$LIMCHECK
 70
     0
  9
$CHAMFERA
 40
0.0
  9
$CHAMFERB
 40
0.0
  9
$CHAMFERC
 40
0.0
  9
$CHAMFERD
 40
0.0
  9
$SKPOLY
 70
     0
  9
$TDCREATE
 40
2459174.712430995
  9
$TDUCREATE
 40
2459174.670764329
  9
$TDUPDATE
 40
2459174.712431887
  9
$TDUUPDATE
 40
2459174.67076522
  9
$TDINDWG
 40
0.0000000116
  9
$TDUSRTIMER
 40
0.0000000116
  9
$USRTIMER
 70
     1
  9
$ANGBASE
 50
0.0
  9
$ANGDIR
 70
     0
  9
$PDMODE
 70
     0
  9
$PDSIZE
 40
-1.0
  9
$PLINEWID
 40
0.0
  9
$SPLFRAME
 70
     0
  9
$SPLINETYPE
 70
     6
  9
$SPLINESEGS
 70
     8
  9
$HANDSEED
  5
2C4
  9
$SURFTAB1
 70
     6
  9
$SURFTAB2
 70
     6
  9
$SURFTYPE
 70
     6
  9
$SURFU
 70
     6
  9
$SURFV
 70
     6
  9
$UCSBASE
  2

  9
$UCSNAME
  2

  9
$UCSORG
 10
0.0
 20
0.0
 30
0.0
  9
$UCSXDIR
 10
1.0
 20
0.0
 30
0.0
  9
$UCSYDIR
 10
0.0
 20
1.0
 30
0.0
  9
$UCSORTHOREF
  2

  9
$UCSORTHOVIEW
 70
     0
  9
$UCSORGTOP
 10
0.0
 20
0.0
 30
0.0
  9
$UCSORGBOTTOM
 10
0.0
 20
0.0
 30
0.0
  9
$UCSORGLEFT
 10
0.0
 20
0.0
 30
0.0
  9
$UCSORGRIGHT
 10
0.0
 20
0.0
 30
0.0
  9
$UCSORGFRONT
 10
0.0
 20
0.0
 30
0.0
  9
$UCSORGBACK
 10
0.0
 20
0.0
 30
0.0
  9
$PUCSBASE
  2

  9
$PUCSNAME
  2

  9
$PUCSORG
 10
0.0
 20
0.0
 30
0.0
  9
$PUCSXDIR
 10
1.0
 20
0.0
 30
0.0
  9
$PUCSYDIR
 10
0.0
 20
1.0
 30
0.0
  9
$PUCSORTHOREF
  2

  9
$PUCSORTHOVIEW
 70
     0
  9
$PUCSORGTOP
 10
0.0
 20
0.0
 30
0.0
  9
$PUCSORGBOTTOM
 10
0.0
 20
0.0
 30
0.0
  9
$PUCSORGLEFT
 10
0.0
 20
0.0
 30
0.0
  9
$PUCSORGRIGHT
 10
0.0
 20
0.0
 30
0.0
  9
$PUCSORGFRONT
 10
0.0
 20
0.0
 30
0.0
  9
$PUCSORGBACK
 10
0.0
 20
0.0
 30
0.0
  9
$USERI1
 70
     0
  9
$USERI2
 70
     0
  9
$USERI3
 70
     0
  9
$USERI4
 70
     0
  9
$USERI5
 70
     0
  9
$USERR1
 40
0.0
  9
$USERR2
 40
0.0
  9
$USERR3
 40
0.0
  9
$USERR4
 40
0.0
  9
$USERR5
 40
0.0
  9
$WORLDVIEW
 70
     1
  9
$SHADEDGE
 70
     3
  9
$SHADEDIF
 70
    70
  9
$TILEMODE
 70
     1
  9
$MAXACTVP
 70
    64
  9
$PINSBASE
 10
0.0
 20
0.0
 30
0.0
  9
$PLIMCHECK
 70
     0
  9
$PEXTMIN
 10
1.0000000000E+20
 20
1.0000000000E+20
 30
1.0000000000E+20
  9
$PEXTMAX
 10
-1.0000000000E+20
 20
-1.0000000000E+20
 30
-1.0000000000E+20
  9
$PLIMMIN
 10
0.0
 20
0.0
  9
$PLIMMAX
 10
420.0
 20
297.0
  9
$UNITMODE
 70
     0
  9
$VISRETAIN
 70
     1
  9
$PLINEGEN
 70
     0
  9
$PSLTSCALE
 70
     1
  9
$TREEDEPTH
 70
  3020
  9
$CMLSTYLE
  2
Standard
  9
$CMLJUST
 70
     0
  9
$CMLSCALE
 40
20.0
  9
$PROXYGRAPHICS
 70
     1
  9
$MEASUREMENT
 70
     1
  9
$CELWEIGHT
370
    -1
  9
$ENDCAPS
280
     0
  9
$JOINSTYLE
280
     0
  9
$LWDISPLAY
290
     1
  9
$INSUNITS
 70
     4
  9
$HYPERLINKBASE
  1

  9
$STYLESHEET
  1

  9
$XEDIT
290
     1
  9
$CEPSNTYPE
380
     0
  9
$PSTYLEMODE
290
     1
  9
$FINGERPRINTGUID
  2
{be301603-0a9a-44c8-9390-a2df9d32acb8}
  9
$VERSIONGUID
  2
{FAEB1C32-E019-11D5-929B-00C0DF256EC4}
  9
$EXTNAMES
290
     1
  9
$PSVPSCALE
 40
0.0
  9
$OLESTARTUP
290
     0
  0
ENDSEC
  0
SECTION
  2
CLASSES
  0
CLASS
  1
ACDBDICTIONARYWDFLT
  2
AcDbDictionaryWithDefault
  3
ObjectDBX Classes
 90
        0
280
     0
281
     0
  0
CLASS
  1
VISUALSTYLE
  2
AcDbVisualStyle
  3
ObjectDBX Classes
 90
     4095
280
     0
281
     0
  0
CLASS
  1
MATERIAL
  2
AcDbMaterial
  3
ObjectDBX Classes
 90
     1153
280
     0
281
     0
  0
CLASS
  1
SCALE
  2
AcDbScale
  3
ObjectDBX Classes
 90
     1153
280
     0
281
     0
  0
CLASS
  1
TABLESTYLE
  2
AcDbTableStyle
  3
ObjectDBX Classes
 90
     4095
280
     0
281
     0
  0
CLASS
  1
MLEADERSTYLE
  2
AcDbMLeaderStyle
  3
ACDB_MLEADERSTYLE_CLASS
 90
     4095
280
     0
281
     0
  0
CLASS
  1
SUN
  2
AcDbSun
  3
SCENEOE
 90
     1153
280
     0
281
     0
  0
CLASS
  1
ACDBPLACEHOLDER
  2
AcDbPlaceHolder
  3
ObjectDBX Classes
 90
        0
280
     0
281
     0
  0
CLASS
  1
LAYOUT
  2
AcDbLayout
  3
ObjectDBX Classes
 90
        0
280
     0
281
     0
  0
ENDSEC
  0
SECTION
  2
TABLES
  0
TABLE
  2
VPORT
  5
8
330
0
100
AcDbSymbolTable
 70
     1
  0
VPORT
  5
29
330
8
100
AcDbSymbolTableRecord
100
AcDbViewportTableRecord
  2
*Active
 70
     0
 10
0.0
 20
0.0
 11
1.0
 21
1.0
 12
1485.0
 22
1050.0
 13
0.0
 23
0.0
 14
10.0
 24
10.0
 15
10.0
 25
10.0
 16
0.0
 26
0.0
 36
1.0
 17
0.0
 27
0.0
 37
0.0
 40
2100.0
 41
1.4142857143
 42
50.0
 43
0.0
 44
0.0
 50
0.0
 51
0.0
 71
     0
 72
  2000
 73
     1
 74
     3
 75
     0
 76
     0
 77
     0
 78
     0
281
     0
 65
     1
110
0.0
120
0.0
130
0.0
111
1.0
121
0.0
131
0.0
112
0.0
122
1.0
132
0.0
 79
     0
146
0.0
  0
ENDTAB
  0
TABLE
  2
LTYPE
  5
5
330
0
100
AcDbSymbolTable
 70
     6
  0
LTYPE
  5
14
330
5
100
AcDbSymbolTableRecord
100
AcDbLinetypeTableRecord
  2
ByBlock
 70
     0
  3

 72
    65
 73
     0
 40
0.0
  0
LTYPE
  5
15
330
5
100
AcDbSymbolTableRecord
100
AcDbLinetypeTableRecord
  2
ByLayer
 70
     0
  3

 72
    65
 73
     0
 40
0.0
  0
LTYPE
  5
16
330
5
100
AcDbSymbolTableRecord
100
AcDbLinetypeTableRecord
  2
Continuous
 70
     0
  3
Solid line
 72
    65
 73
     0
 40
0.0
  0
LTYPE
  5
6E
330
5
100
AcDbSymbolTableRecord
100
AcDbLinetypeTableRecord
  2
HIDDEN
 70
     0
  3
Hidden __ __ __ __ __ __ __ __ __ __ __ __ __ __
 72
    65
 73
     2
 40
1.905
 49
1.27
 74
     0
 49
-0.635
 74
     0
  0
LTYPE
  5
6F
330
5
100
AcDbSymbolTableRecord
100
AcDbLinetypeTableRecord
  2
PHANTOM
 70
     0
  3
Phantom ______  __  __  ______  __  __  ______
 72
    65
 73
     6
 40
12.7
 49
6.35
 74
     0
 49
-1.27
 74
     0
 49
1.27
 74
     0
 49
-1.27
 74
     0
 49
1.27
 74
     0
 49
-1.27
 74
     0
  0
LTYPE
  5
70
330
5
100
AcDbSymbolTableRecord
100
AcDbLinetypeTableRecord
  2
CENTER
 70
     0
  3
Center ____ _ ____ _ ____ _ ____ _ ____ _ ____
 72
    65
 73
     4
 40
10.16
 49
6.35
 74
     0
 49
-1.27
 74
     0
 49
1.27
 74
     0
 49
-1.27
 74
     0
  0
LTYPE
  5
71
330
5
100
AcDbSymbolTableRecord
100
AcDbLinetypeTableRecord
  2
CENTERX2
 70
     0
  3
Center (2x) ________  __  ________  __  _____
 72
    65
 73
     4
 40
20.32
 49
12.7
 74
     0
 49
-2.54
 74
     0
 49
2.54
 74
     0
 49
-2.54
 74
     0
  0
LTYPE
  5
72
330
5
100
AcDbSymbolTableRecord
100
AcDbLinetypeTableRecord
  2
DOT2
 70
     0
  3
Dot (.5x) ........................................
 72
    65
 73
     2
 40
0.635
 49
0.0
 74
     0
 49
-0.635
 74
     0
  0
ENDTAB
  0
TABLE
  2
LAYER
  5
2
330
0
100
AcDbSymbolTable
 70
     2
  0
LAYER
  5
10
330
2
100
AcDbSymbolTableRecord
100
AcDbLayerTableRecord
  2
0
 70
     0
 62
     7
  6
Continuous
370
    -3
390
F
  0
LAYER
  5
73
330
2
100
AcDbSymbolTableRecord
100
AcDbLayerTableRecord
  2
FORMAT
 70
     0
 62
     7
  6
Continuous
370
    -3
390
F
  0
ENDTAB
  0
TABLE
  2
STYLE
  5
3
330
0
100
AcDbSymbolTable
 70
     2
  0
STYLE
  5
11
330
3
100
AcDbSymbolTableRecord
100
AcDbTextStyleTableRecord
  2
Standard
 70
     0
 40
0.0
 41
1.0
 50
0.0
 71
     0
 42
35.0
  3
txt
  4

  0
STYLE
  5
E7
330
3
100
AcDbSymbolTableRecord
100
AcDbTextStyleTableRecord
  2
SLDTEXTSTYLE0
 70
     0
 40
0.0
 41
0.605
 50
0.0
 71
     0
 42
35.0
  3
TXT
  4

  0
ENDTAB
  0
TABLE
  2
VIEW
  5
6
330
0
100
AcDbSymbolTable
 70
     0
  0
ENDTAB
  0
TABLE
  2
UCS
  5
7
330
0
100
AcDbSymbolTable
 70
     0
  0
ENDTAB
  0
TABLE
  2
APPID
  5
9
330
0
100
AcDbSymbolTable
 70
     1
  0
APPID
  5
12
330
9
100
AcDbSymbolTableRecord
100
AcDbRegAppTableRecord
  2
ACAD
 70
     0
  0
ENDTAB
  0
TABLE
  2
DIMSTYLE
  5
A
330
0
100
AcDbSymbolTable
 70
     1
100
AcDbDimStyleTable
  0
DIMSTYLE
105
27
330
A
100
AcDbSymbolTableRecord
100
AcDbDimStyleTableRecord
  2
ISO-25
 70
     0
 41
2.5
 42
0.625
 43
3.75
 44
1.25
 73
     0
 74
     0
 77
     1
 78
     8
140
2.5
141
2.5
143
0.0393700787
147
0.625
171
     3
172
     1
178
     0
271
     2
272
     2
274
     3
278
    44
283
     0
284
     8
340
11
  0
ENDTAB
  0
TABLE
  2
BLOCK_RECORD
  5
1
330
0
100
AcDbSymbolTable
 70
     2
  0
BLOCK_RECORD
  5
1F
330
1
100
AcDbSymbolTableRecord
100
AcDbBlockTableRecord
  2
*Model_Space
340
22
  0
BLOCK_RECORD
  5
1B
330
1
100
AcDbSymbolTableRecord
100
AcDbBlockTableRecord
  2
*Paper_Space
340
1E
  0
BLOCK_RECORD
  5
23
330
1
100
AcDbSymbolTableRecord
100
AcDbBlockTableRecord
  2
*Paper_Space0
340
26
  0
BLOCK_RECORD
  5
EE
330
1
100
AcDbSymbolTableRecord
100
AcDbBlockTableRecord
  2
SW_NOTE_0
340
0
102
{BLKREFS
331
F3
102
}
  0
ENDTAB
  0
ENDSEC
  0
SECTION
  2
BLOCKS
  0
BLOCK
  5
20
330
1F
100
AcDbEntity
  8
0
100
AcDbBlockBegin
  2
*Model_Space
 70
     0
 10
0.0
 20
0.0
 30
0.0
  3
*Model_Space
  1

  0
ENDBLK
  5
21
330
1F
100
AcDbEntity
  8
0
100
AcDbBlockEnd
  0
BLOCK
  5
1C
330
1B
100
AcDbEntity
 67
     1
  8
0
100
AcDbBlockBegin
  2
*Paper_Space
 70
     0
 10
0.0
 20
0.0
 30
0.0
  3
*Paper_Space
  1

  0
ENDBLK
  5
1D
330
1B
100
AcDbEntity
 67
     1
  8
0
100
AcDbBlockEnd
  0
BLOCK
  5
24
330
23
100
AcDbEntity
  8
0
100
AcDbBlockBegin
  2
*Paper_Space0
 70
     0
 10
0.0
 20
0.0
 30
0.0
  3
*Paper_Space0
  1

  0
ENDBLK
  5
25
330
23
100
AcDbEntity
  8
0
100
AcDbBlockEnd
  0
BLOCK
  5
EF
330
EE
100
AcDbEntity
  8
0
100
AcDbBlockBegin
  2
SW_NOTE_0
 70
     0
 10
0.0
 20
0.0
 30
0.0
  3
SW_NOTE_0
  1

  0
MTEXT
  5
F1
330
EE
100
AcDbEntity
  8
0
  6
Continuous
 62
     0
370
     0
100
AcDbMText
 10
32.90625
 20
23.2032193159
 30
0.0
 40
18.0
 41
0.0
 71
     2
 72
     1
  1
SCALA
  7
SLDTEXTSTYLE0
 73
     1
 44
1.0
  0
MTEXT
  5
F2
330
EE
100
AcDbEntity
  8
0
  6
Continuous
 62
     0
370
     0
100
AcDbMText
 10
35.6098540438
 20
-1.6396707646
 30
0.0
 40
37.0416666667
 41
0.0
 71
     2
 72
     1
  1
1:1
  7
SLDTEXTSTYLE0
 73
     1
 44
1.0
  0
ENDBLK
  5
F0
330
EE
100
AcDbEntity
  8
0
100
AcDbBlockEnd
  0
ENDSEC
  0
SECTION
  2
ENTITIES
  0
HATCH
  5
74
330
1F
100
AcDbEntity
  8
0
  6
Continuous
 62
     7
100
AcDbHatch
 10
0.0
 20
0.0
 30
0.0
210
0.0
220
0.0
230
1.0
  2
SOLID
 70
     1
 71
     0
 91
        2
 92
        0
 93
        6
 72
     1
 10
2340.243226420216
 20
319.3144821747094
 11
2356.647910872445
 21
319.3144821747094
 72
     3
 10
2351.078765157099
 20
331.9559440369547
 11
27.08884684798352
 21
0.0
 40
0.4768529109443384
 50
293.7756995582609
 51
426.2243004403791
 73
     1
 72
     1
 10
2356.647910872789
 20
344.5974058991662
 11
2323.989918311282
 21
344.5974058991662
 72
     1
 10
2323.989918311282
 20
344.5974058991662
 11
2323.989918311282
 21
304.8670971915081
 72
     1
 10
2323.989918311282
 20
304.8670971915081
 11
2340.243226420216
 21
304.8670971915081
 72
     1
 10
2340.243226420216
 20
304.8670971915081
 11
2340.243226420216
 21
319.3144821747094
 97
        0
 92
        0
 93
        6
 72
     3
 10
2350.175803596967
 20
331.9559440369547
 11
9.932577177641511
 21
0.0
 40
0.5895245510672578
 50
316.3365658560252
 51
403.663434144226
 73
     0
 72
     2
 10
2352.923880980421
 20
333.7618671600596
 40
7.223692492544108
 50
69.99121011132742
 51
90.0
 73
     0
 72
     1
 10
2352.923880980421
 20
326.5381746675155
 11
2340.243226419814
 21
326.5381746675155
 72
     1
 10
2340.243226419814
 20
326.5381746675155
 11
2340.243226419814
 21
337.37371340629
 72
     1
 10
2340.243226419814
 20
337.37371340629
 11
2352.923880981012
 21
337.37371340629
 72
     2
 10
2352.923880981012
 20
330.150020915474
 40
7.223692490816113
 50
270.0000000000008
 51
290.0087898889545
 73
     0
 97
        0
 75
     0
 76
     1
 98
        1
 10
0.0
 20
0.0
  0
HATCH
  5
75
330
1F
100
AcDbEntity
  8
0
  6
Continuous
 62
     7
100
AcDbHatch
 10
0.0
 20
0.0
 30
0.0
210
0.0
220
0.0
230
1.0
  2
SOLID
 70
     1
 71
     0
 91
        1
 92
        0
 93
       12
 72
     1
 10
2435.957151948124
 20
344.59740589754
 11
2381.779458253796
 21
344.59740589754
 72
     1
 10
2381.779458253796
 20
344.59740589754
 11
2381.779458253796
 21
304.867097189882
 72
     1
 10
2381.779458253796
 20
304.867097189882
 11
2435.957151948124
 21
304.867097189882
 72
     1
 10
2435.957151948124
 20
304.867097189882
 11
2435.957151948124
 21
312.09078967967
 72
     1
 10
2435.957151948124
 20
312.09078967967
 11
2399.838689485178
 21
312.09078967967
 72
     1
 10
2399.838689485178
 20
312.09078967967
 11
2399.838689485178
 21
321.1204052953607
 72
     1
 10
2399.838689485178
 20
321.1204052953607
 11
2432.345305703229
 21
321.1204052953607
 72
     1
 10
2432.345305703229
 20
321.1204052953607
 11
2432.345305703229
 21
328.344097788605
 72
     1
 10
2432.345305703229
 20
328.344097788605
 11
2399.838689485178
 21
328.344097788605
 72
     1
 10
2399.838689485178
 20
328.344097788605
 11
2399.838689485178
 21
337.3737134042958
 72
     1
 10
2399.838689485178
 20
337.3737134042958
 11
2435.957151948124
 21
337.3737134042958
 72
     1
 10
2435.957151948124
 20
337.3737134042958
 11
2435.957151948124
 21
344.59740589754
 97
        0
 75
     0
 76
     1
 98
        1
 10
0.0
 20
0.0
  0
HATCH
  5
76
330
1F
100
AcDbEntity
  8
0
  6
Continuous
 62
     7
100
AcDbHatch
 10
0.0
 20
0.0
 30
0.0
210
0.0
220
0.0
230
1.0
  2
SOLID
 70
     1
 71
     0
 91
        1
 92
        0
 93
        6
 72
     1
 10
2645.444234240045
 20
344.597405899586
 11
2627.385003008663
 21
344.597405899586
 72
     1
 10
2627.385003008663
 20
344.597405899586
 11
2627.385003008663
 21
304.8670971919279
 72
     1
 10
2627.385003008663
 20
304.8670971919279
 11
2676.14492733565
 21
304.8670971919279
 72
     1
 10
2676.14492733565
 20
304.8670971919279
 11
2676.14492733565
 21
313.8967128076189
 72
     1
 10
2676.14492733565
 20
313.8967128076189
 11
2645.444234240045
 21
313.8967128076189
 72
     1
 10
2645.444234240045
 20
313.8967128076189
 11
2645.444234240045
 21
344.597405899586
 97
        0
 75
     0
 76
     1
 98
        1
 10
0.0
 20
0.0
  0
HATCH
  5
77
330
1F
100
AcDbEntity
  8
0
  6
Continuous
 62
     7
100
AcDbHatch
 10
0.0
 20
0.0
 30
0.0
210
0.0
220
0.0
230
1.0
  2
SOLID
 70
     1
 71
     0
 91
        1
 92
        0
 93
        4
 72
     1
 10
2677.950850457337
 20
344.5974058991659
 11
2677.950850457337
 21
304.8670971915079
 72
     1
 10
2677.950850457337
 20
304.8670971915079
 11
2696.010081688719
 21
304.8670971915079
 72
     1
 10
2696.010081688719
 20
304.8670971915079
 11
2696.010081688719
 21
344.5974058991659
 72
     1
 10
2696.010081688719
 20
344.5974058991659
 11
2677.950850457337
 21
344.5974058991659
 97
        0
 75
     0
 76
     1
 98
        1
 10
0.0
 20
0.0
  0
HATCH
  5
78
330
1F
100
AcDbEntity
  8
0
  6
Continuous
 62
     7
100
AcDbHatch
 10
0.0
 20
0.0
 30
0.0
210
0.0
220
0.0
230
1.0
  2
SOLID
 70
     1
 71
     0
 91
        2
 92
        0
 93
        4
 72
     3
 10
2468.463768165085
 20
324.7322515426197
 11
28.89476997115586
 21
0.0
 40
0.6929224243374513
 50
280.2934314618138
 51
439.7065685387129
 73
     1
 72
     1
 10
2472.071526001564
 20
344.5974058975816
 11
2439.568998196665
 21
344.5974058975813
 72
     1
 10
2439.568998196665
 20
344.5974058975813
 11
2439.568998196665
 21
304.8670971876741
 72
     1
 10
2439.568998196665
 20
304.8670971876741
 11
2472.071526001749
 21
304.8670971876741
 97
        0
 92
        0
 93
        6
 72
     2
 10
2472.947172767998
 20
324.7322515421808
 40
10.83553873998016
 50
56.16906508602374
 51
90.0
 73
     0
 72
     1
 10
2472.947172767998
 20
313.8967128022008
 11
2455.82230630316
 21
313.8967128022008
 72
     1
 10
2455.82230630316
 20
313.8967128022008
 11
2455.82230630316
 21
335.5677902826995
 72
     1
 10
2455.82230630316
 20
335.5677902826995
 11
2472.947172767998
 21
335.5677902826995
 72
     2
 10
2472.947172767998
 20
324.7322515421808
 40
10.83553874051871
 50
270.0000000000008
 51
303.8314447476077
 73
     0
 72
     3
 10
2462.14303723761
 20
324.7322515426197
 11
22.57403904004612
 21
0.0
 40
0.5985848325441405
 50
331.8713554011807
 51
388.1288999924611
 73
     0
 97
        0
 75
     0
 76
     1
 98
        1
 10
0.0
 20
0.0
  0
HATCH
  5
79
330
1F
100
AcDbEntity
  8
0
  6
Continuous
 62
     7
100
AcDbHatch
 10
0.0
 20
0.0
 30
0.0
210
0.0
220
0.0
230
1.0
  2
SOLID
 70
     1
 71
     0
 91
        3
 92
        0
 93
       19
 72
     1
 10
2558.870202192612
 20
314.7709579586855
 11
2560.355534650718
 21
308.9676544182703
 72
     2
 10
2565.453566637579
 20
310.114383967383
 40
5.225410873593411
 50
192.6768785101394
 51
204.7368873206736
 73
     1
 72
     1
 10
2560.707644877863
 20
307.927800914186
 11
2584.042848052473
 21
344.597405899586
 72
     1
 10
2584.042848052473
 20
344.597405899586
 11
2602.102079283856
 21
344.597405899586
 72
     1
 10
2602.102079283856
 20
344.597405899586
 11
2627.385003008663
 21
304.8670971919279
 72
     1
 10
2627.385003008663
 20
304.8670971919279
 11
2609.325771777099
 21
304.8670971919279
 72
     1
 10
2609.325771777099
 20
304.8670971919279
 11
2605.262444749956
 21
312.090789681716
 72
     1
 10
2605.262444749956
 20
312.090789681716
 11
2580.882482586372
 21
312.090789681716
 72
     1
 10
2580.882482586372
 20
312.090789681716
 11
2576.819155559229
 21
304.8670971919279
 72
     1
 10
2576.819155559229
 20
304.8670971919279
 11
2546.118462463106
 21
304.8670971919279
 72
     1
 10
2546.118462463106
 20
304.8670971919279
 11
2546.118462463106
 21
312.0907896826544
 72
     2
 10
2538.894769969861
 20
312.0907896826544
 40
7.223692493244227
 50
0.0
 51
90.0
 73
     1
 72
     1
 10
2538.894769969861
 20
319.3144821758984
 11
2520.835538738298
 21
319.3144821758984
 72
     1
 10
2520.835538738298
 20
319.3144821758984
 11
2520.835538738298
 21
304.8670971928664
 72
     1
 10
2520.835538738298
 20
304.8670971928664
 11
2504.582230629363
 21
304.8670971928664
 72
     1
 10
2504.582230629363
 20
304.8670971928664
 11
2504.582230629363
 21
344.5974059005244
 72
     1
 10
2504.582230629363
 20
344.5974059005244
 11
2542.019258305786
 21
344.5974059005244
 72
     3
 10
2538.029947706919
 20
332.9364020822968
 11
24.32666622535162
 21
0.0
 40
0.4859291160023137
 50
288.8861745463018
 51
398.6942257036357
 73
     0
 72
     2
 10
2549.037584929584
 20
312.9627960708336
 40
9.997490267756193
 50
279.2678272406082
 51
349.5800515720779
 73
     0
 97
        0
 92
        0
 93
        3
 72
     1
 10
2593.072463667404
 20
333.7618671594018
 11
2584.945809612937
 21
319.3144821729139
 72
     1
 10
2584.945809612937
 20
319.3144821729139
 11
2601.199117721872
 21
319.3144821729139
 72
     1
 10
2601.199117721872
 20
319.3144821729139
 11
2593.072463667404
 21
333.7618671594018
 97
        0
 92
        0
 93
        6
 72
     2
 10
2538.478172418671
 20
331.9559440374287
 40
5.417769370214362
 50
270.0000000000008
 51
305.5869104965606
 73
     1
 72
     3
 10
2532.574039041056
 20
331.9559440369547
 11
11.73850030081747
 21
0.0
 40
0.5900077182209745
 50
334.058541690378
 51
385.9414583083995
 73
     1
 72
     2
 10
2538.478172418671
 20
331.9559440374287
 40
5.417769369443226
 50
54.41308949502037
 51
90.0
 73
     1
 72
     1
 10
2538.478172418671
 20
337.3737134068722
 11
2520.835538737718
 21
337.3737134068722
 72
     1
 10
2520.835538737718
 20
337.3737134068722
 11
2520.835538737718
 21
326.538174667214
 72
     1
 10
2520.835538737718
 20
326.538174667214
 11
2538.478172418671
 21
326.5381746672143
 97
        0
 75
     0
 76
     1
 98
        1
 10
0.0
 20
0.0
  0
LINE
  5
7A
330
1F
100
AcDbEntity
  8
0
  6
Continuous
 62
     7
370
    25
100
AcDbLine
 10
2870.0
 20
100.0
 30
0.0
 11
2870.0
 21
2000.0
 31
0.0
  0
LINE
  5
7B
330
1F
100
AcDbEntity
  8
0
  6
Continuous
 62
   179
370
    18
100
AcDbLine
 10
2323.9899183113
 20
344.5974058992
 30
0.0
 11
2323.9899183113
 21
304.8670971915
 31
0.0
  0
LINE
  5
7C
330
1F
100
AcDbEntity
  8
0
  6
Continuous
 62
   179
370
    18
100
AcDbLine
 10
2323.9899183113
 20
344.5974058992
 30
0.0
 11
2356.6479108728
 21
344.5974058992
 31
0.0
  0
LINE
  5
7D
330
1F
100
AcDbEntity
  8
0
  6
Continuous
 62
   179
370
    18
100
AcDbLine
 10
2323.9899183113
 20
304.8670971915
 30
0.0
 11
2340.2432264202
 21
304.8670971915
 31
0.0
  0
LINE
  5
7E
330
1F
100
AcDbEntity
  8
0
  6
Continuous
 62
   179
370
    18
100
AcDbLine
 10
2340.2432264202
 20
304.8670971915
 30
0.0
 11
2340.2432264202
 21
319.3144821747
 31
0.0
  0
LINE
  5
7F
330
1F
100
AcDbEntity
  8
0
  6
Continuous
 62
   179
370
    18
100
AcDbLine
 10
2356.6479108724
 20
319.3144821747
 30
0.0
 11
2340.2432264202
 21
319.3144821747
 31
0.0
  0
LINE
  5
80
330
1F
100
AcDbEntity
  8
0
  6
Continuous
 62
   179
370
    18
100
AcDbLine
 10
2340.2432264198
 20
326.5381746675
 30
0.0
 11
2340.2432264198
 21
337.3737134063
 31
0.0
  0
LINE
  5
81
330
1F
100
AcDbEntity
  8
0
  6
Continuous
 62
   179
370
    18
100
AcDbLine
 10
2340.2432264198
 20
337.3737134063
 30
0.0
 11
2352.923880981
 21
337.3737134063
 31
0.0
  0
LINE
  5
82
330
1F
100
AcDbEntity
  8
0
  6
Continuous
 62
   179
370
    18
100
AcDbLine
 10
2340.2432264198
 20
326.5381746675
 30
0.0
 11
2352.9238809804
 21
326.5381746675
 31
0.0
  0
LINE
  5
83
330
1F
100
AcDbEntity
  8
0
  6
Continuous
 62
   179
370
    18
100
AcDbLine
 10
2381.7794582538
 20
344.5974058975
 30
0.0
 11
2435.9571519481
 21
344.5974058975
 31
0.0
  0
LINE
  5
84
330
1F
100
AcDbEntity
  8
0
  6
Continuous
 62
   179
370
    18
100
AcDbLine
 10
2435.9571519481
 20
344.5974058975
 30
0.0
 11
2435.9571519481
 21
337.3737134043
 31
0.0
  0
LINE
  5
85
330
1F
100
AcDbEntity
  8
0
  6
Continuous
 62
   179
370
    18
100
AcDbLine
 10
2435.9571519481
 20
337.3737134043
 30
0.0
 11
2399.8386894852
 21
337.3737134043
 31
0.0
  0
LINE
  5
86
330
1F
100
AcDbEntity
  8
0
  6
Continuous
 62
   179
370
    18
100
AcDbLine
 10
2399.8386894852
 20
337.3737134043
 30
0.0
 11
2399.8386894852
 21
328.3440977886
 31
0.0
  0
LINE
  5
87
330
1F
100
AcDbEntity
  8
0
  6
Continuous
 62
   179
370
    18
100
AcDbLine
 10
2399.8386894852
 20
328.3440977886
 30
0.0
 11
2432.3453057032
 21
328.3440977886
 31
0.0
  0
LINE
  5
88
330
1F
100
AcDbEntity
  8
0
  6
Continuous
 62
   179
370
    18
100
AcDbLine
 10
2432.3453057032
 20
328.3440977886
 30
0.0
 11
2432.3453057032
 21
321.1204052954
 31
0.0
  0
LINE
  5
89
330
1F
100
AcDbEntity
  8
0
  6
Continuous
 62
   179
370
    18
100
AcDbLine
 10
2432.3453057032
 20
321.1204052954
 30
0.0
 11
2399.8386894852
 21
321.1204052954
 31
0.0
  0
LINE
  5
8A
330
1F
100
AcDbEntity
  8
0
  6
Continuous
 62
   179
370
    18
100
AcDbLine
 10
2399.8386894852
 20
321.1204052954
 30
0.0
 11
2399.8386894852
 21
312.0907896797
 31
0.0
  0
LINE
  5
8B
330
1F
100
AcDbEntity
  8
0
  6
Continuous
 62
   179
370
    18
100
AcDbLine
 10
2399.8386894852
 20
312.0907896797
 30
0.0
 11
2435.9571519481
 21
312.0907896797
 31
0.0
  0
LINE
  5
8C
330
1F
100
AcDbEntity
  8
0
  6
Continuous
 62
   179
370
    18
100
AcDbLine
 10
2435.9571519481
 20
312.0907896797
 30
0.0
 11
2435.9571519481
 21
304.8670971899
 31
0.0
  0
LINE
  5
8D
330
1F
100
AcDbEntity
  8
0
  6
Continuous
 62
   179
370
    18
100
AcDbLine
 10
2435.9571519481
 20
304.8670971899
 30
0.0
 11
2381.7794582538
 21
304.8670971899
 31
0.0
  0
LINE
  5
8E
330
1F
100
AcDbEntity
  8
0
  6
Continuous
 62
   179
370
    18
100
AcDbLine
 10
2439.5689981967
 20
344.5974058976
 30
0.0
 11
2439.5689981967
 21
304.8670971877
 31
0.0
  0
LINE
  5
8F
330
1F
100
AcDbEntity
  8
0
  6
Continuous
 62
   179
370
    18
100
AcDbLine
 10
2439.5689981967
 20
344.5974058976
 30
0.0
 11
2472.0715260016
 21
344.5974058976
 31
0.0
  0
LINE
  5
90
330
1F
100
AcDbEntity
  8
0
  6
Continuous
 62
   179
370
    18
100
AcDbLine
 10
2472.0715260017
 20
304.8670971877
 30
0.0
 11
2439.5689981967
 21
304.8670971877
 31
0.0
  0
LINE
  5
91
330
1F
100
AcDbEntity
  8
0
  6
Continuous
 62
   179
370
    18
100
AcDbLine
 10
2455.8223063032
 20
324.7322515403
 30
0.0
 11
2455.8223063032
 21
313.8967128022
 31
0.0
  0
LINE
  5
92
330
1F
100
AcDbEntity
  8
0
  6
Continuous
 62
   179
370
    18
100
AcDbLine
 10
2455.8223063032
 20
313.8967128022
 30
0.0
 11
2472.947172768
 21
313.8967128022
 31
0.0
  0
LINE
  5
93
330
1F
100
AcDbEntity
  8
0
  6
Continuous
 62
   179
370
    18
100
AcDbLine
 10
2455.8223063032
 20
324.7322515403
 30
0.0
 11
2455.8223063032
 21
335.5677902827
 31
0.0
  0
LINE
  5
94
330
1F
100
AcDbEntity
  8
0
  6
Continuous
 62
   179
370
    18
100
AcDbLine
 10
2455.8223063032
 20
335.5677902827
 30
0.0
 11
2472.947172768
 21
335.5677902827
 31
0.0
  0
LINE
  5
95
330
1F
100
AcDbEntity
  8
0
  6
Continuous
 62
   179
370
    18
100
AcDbLine
 10
2504.5822306294
 20
344.5974059005
 30
0.0
 11
2504.5822306294
 21
304.8670971929
 31
0.0
  0
LINE
  5
96
330
1F
100
AcDbEntity
  8
0
  6
Continuous
 62
     7
370
    18
100
AcDbLine
 10
2728.7989947508
 20
280.0000000004
 30
0.0
 11
2728.7989947508
 21
190.0000000002
 31
0.0
  0
LINE
  5
97
330
1F
100
AcDbEntity
  8
0
  6
Continuous
 62
   179
370
    18
100
AcDbLine
 10
2504.5822306294
 20
304.8670971929
 30
0.0
 11
2520.8355387383
 21
304.8670971929
 31
0.0
  0
LINE
  5
98
330
1F
100
AcDbEntity
  8
0
  6
Continuous
 62
   179
370
    18
100
AcDbLine
 10
2520.8355387383
 20
304.8670971929
 30
0.0
 11
2520.8355387383
 21
319.3144821759
 31
0.0
  0
LINE
  5
99
330
1F
100
AcDbEntity
  8
0
  6
Continuous
 62
   179
370
    18
100
AcDbLine
 10
2520.8355387383
 20
319.3144821759
 30
0.0
 11
2538.8947699699
 21
319.3144821759
 31
0.0
  0
LINE
  5
9A
330
1F
100
AcDbEntity
  8
0
  6
Continuous
 62
   179
370
    18
100
AcDbLine
 10
2546.1184624631
 20
312.0907896827
 30
0.0
 11
2546.1184624631
 21
304.8670971919
 31
0.0
  0
LINE
  5
9B
330
1F
100
AcDbEntity
  8
0
  6
Continuous
 62
   179
370
    18
100
AcDbLine
 10
2520.8355387377
 20
326.5381746672
 30
0.0
 11
2520.8355387377
 21
337.3737134069
 31
0.0
  0
LINE
  5
9C
330
1F
100
AcDbEntity
  8
0
  6
Continuous
 62
   179
370
    18
100
AcDbLine
 10
2520.8355387377
 20
337.3737134069
 30
0.0
 11
2538.4781724187
 21
337.3737134069
 31
0.0
  0
LINE
  5
9D
330
1F
100
AcDbEntity
  8
0
  6
Continuous
 62
   179
370
    18
100
AcDbLine
 10
2520.8355387377
 20
326.5381746672
 30
0.0
 11
2538.4781724187
 21
326.5381746672
 31
0.0
  0
LINE
  5
9E
330
1F
100
AcDbEntity
  8
0
  6
Continuous
 62
   179
370
    18
100
AcDbLine
 10
2558.8702021926
 20
314.7709579587
 30
0.0
 11
2560.3555346507
 21
308.9676544183
 31
0.0
  0
LINE
  5
9F
330
1F
100
AcDbEntity
  8
0
  6
Continuous
 62
     7
370
    25
100
AcDbLine
 10
2870.0
 20
2000.0
 30
0.0
 11
100.0
 21
2000.0
 31
0.0
  0
LINE
  5
A0
330
1F
100
AcDbEntity
  8
0
  6
Continuous
 62
     7
370
    18
100
AcDbLine
 10
2728.7989947508
 20
190.0000000002
 30
0.0
 11
2728.7989947508
 21
100.0
 31
0.0
  0
LINE
  5
A1
330
1F
100
AcDbEntity
  8
0
  6
Continuous
 62
     7
370
    25
100
AcDbLine
 10
100.0
 20
2000.0
 30
0.0
 11
100.0
 21
100.0
 31
0.0
  0
LINE
  5
A2
330
1F
100
AcDbEntity
  8
0
  6
Continuous
 62
     7
370
    25
100
AcDbLine
 10
2150.0
 20
370.0000000006
 30
0.0
 11
2870.0
 21
370.0000000006
 31
0.0
  0
LINE
  5
A3
330
1F
100
AcDbEntity
  8
0
  6
Continuous
 62
    19
370
    18
100
AcDbLine
 10
2795.2884126839
 20
160.2788043096
 30
0.0
 11
2763.4182663121
 21
154.0818314039
 31
0.0
  0
LINE
  5
A4
330
1F
100
AcDbEntity
  8
0
  6
Continuous
 62
    19
370
    18
100
AcDbLine
 10
2821.3505851521
 20
165.4881573907
 30
0.0
 11
2821.3505851521
 21
124.881030118
 31
0.0
  0
LINE
  5
A5
330
1F
100
AcDbEntity
  8
0
  6
Continuous
 62
    19
370
    18
100
AcDbLine
 10
2795.2884126839
 20
160.2788043096
 30
0.0
 11
2795.2884126839
 21
130.0903831992
 31
0.0
  0
LINE
  5
A6
330
1F
100
AcDbEntity
  8
0
  6
Continuous
 62
     7
370
    25
100
AcDbLine
 10
100.0
 20
100.0
 30
0.0
 11
2870.0
 21
100.0
 31
0.0
  0
LINE
  5
A7
330
1F
100
AcDbEntity
  8
0
  6
Continuous
 62
    19
370
    18
100
AcDbLine
 10
2763.4182663121
 20
154.0818314039
 30
0.0
 11
2763.4182663121
 21
136.2873561048
 31
0.0
  0
LINE
  5
A8
330
1F
100
AcDbEntity
  8
0
  6
Continuous
 62
   179
370
    18
100
AcDbLine
 10
2546.1184624631
 20
304.8670971919
 30
0.0
 11
2576.8191555592
 21
304.8670971919
 31
0.0
  0
LINE
  5
A9
330
1F
100
AcDbEntity
  8
0
  6
Continuous
 62
    19
370
    18
100
AcDbLine
 10
2795.2884126839
 20
130.0903831992
 30
0.0
 11
2763.4182663121
 21
136.2873561048
 31
0.0
  0
LINE
  5
AA
330
1F
100
AcDbEntity
  8
0
  6
CENTERX2
 62
    19
370
    18
100
AcDbLine
 10
2838.9207124248
 20
145.1845937544
 30
0.0
 11
2759.4518690643
 21
145.1845937544
 31
0.0
  0
LINE
  5
AB
330
1F
100
AcDbEntity
  8
0
  6
Continuous
 62
   179
370
    18
100
AcDbLine
 10
2504.5822306294
 20
344.5974059005
 30
0.0
 11
2542.0192583058
 21
344.5974059005
 31
0.0
  0
LINE
  5
AC
330
1F
100
AcDbEntity
  8
0
  6
Continuous
 62
   179
370
    18
100
AcDbLine
 10
2381.7794582538
 20
344.5974058975
 30
0.0
 11
2381.7794582538
 21
304.8670971899
 31
0.0
  0
LINE
  5
AD
330
1F
100
AcDbEntity
  8
0
  6
Continuous
 62
   179
370
    18
100
AcDbLine
 10
2584.0428480525
 20
344.5974058996
 30
0.0
 11
2602.1020792839
 21
344.5974058996
 31
0.0
  0
LINE
  5
AE
330
1F
100
AcDbEntity
  8
0
  6
Continuous
 62
   179
370
    18
100
AcDbLine
 10
2584.0428480525
 20
344.5974058996
 30
0.0
 11
2560.7076448779
 21
307.9278009142
 31
0.0
  0
LINE
  5
AF
330
1F
100
AcDbEntity
  8
0
  6
Continuous
 62
   179
370
    18
100
AcDbLine
 10
2576.8191555592
 20
304.8670971919
 30
0.0
 11
2580.8824825864
 21
312.0907896817
 31
0.0
  0
LINE
  5
B0
330
1F
100
AcDbEntity
  8
0
  6
Continuous
 62
   179
370
    18
100
AcDbLine
 10
2593.0724636674
 20
333.7618671594
 30
0.0
 11
2601.1991177219
 21
319.3144821729
 31
0.0
  0
LINE
  5
B1
330
1F
100
AcDbEntity
  8
0
  6
Continuous
 62
   179
370
    18
100
AcDbLine
 10
2584.9458096129
 20
319.3144821729
 30
0.0
 11
2593.0724636674
 21
333.7618671594
 31
0.0
  0
LINE
  5
B2
330
1F
100
AcDbEntity
  8
0
  6
Continuous
 62
   179
370
    18
100
AcDbLine
 10
2584.9458096129
 20
319.3144821729
 30
0.0
 11
2601.1991177219
 21
319.3144821729
 31
0.0
  0
LINE
  5
B3
330
1F
100
AcDbEntity
  8
0
  6
Continuous
 62
   179
370
    18
100
AcDbLine
 10
2580.8824825864
 20
312.0907896817
 30
0.0
 11
2605.26244475
 21
312.0907896817
 31
0.0
  0
LINE
  5
B4
330
1F
100
AcDbEntity
  8
0
  6
Continuous
 62
   179
370
    18
100
AcDbLine
 10
2605.26244475
 20
312.0907896817
 30
0.0
 11
2609.3257717771
 21
304.8670971919
 31
0.0
  0
LINE
  5
B5
330
1F
100
AcDbEntity
  8
0
  6
Continuous
 62
   179
370
    18
100
AcDbLine
 10
2627.3850030087
 20
344.5974058996
 30
0.0
 11
2627.3850030087
 21
304.8670971919
 31
0.0
  0
LINE
  5
B6
330
1F
100
AcDbEntity
  8
0
  6
Continuous
 62
   179
370
    18
100
AcDbLine
 10
2602.1020792839
 20
344.5974058996
 30
0.0
 11
2627.3850030087
 21
304.8670971919
 31
0.0
  0
LINE
  5
B7
330
1F
100
AcDbEntity
  8
0
  6
Continuous
 62
   179
370
    18
100
AcDbLine
 10
2609.3257717771
 20
304.8670971919
 30
0.0
 11
2627.3850030087
 21
304.8670971919
 31
0.0
  0
LINE
  5
B8
330
1F
100
AcDbEntity
  8
0
  6
Continuous
 62
   179
370
    18
100
AcDbLine
 10
2627.3850030087
 20
304.8670971919
 30
0.0
 11
2676.1449273357
 21
304.8670971919
 31
0.0
  0
LINE
  5
B9
330
1F
100
AcDbEntity
  8
0
  6
Continuous
 62
   179
370
    18
100
AcDbLine
 10
2676.1449273357
 20
304.8670971919
 30
0.0
 11
2676.1449273357
 21
313.8967128076
 31
0.0
  0
LINE
  5
BA
330
1F
100
AcDbEntity
  8
0
  6
Continuous
 62
   179
370
    18
100
AcDbLine
 10
2676.1449273357
 20
313.8967128076
 30
0.0
 11
2645.44423424
 21
313.8967128076
 31
0.0
  0
LINE
  5
BB
330
1F
100
AcDbEntity
  8
0
  6
Continuous
 62
   179
370
    18
100
AcDbLine
 10
2645.44423424
 20
313.8967128076
 30
0.0
 11
2645.44423424
 21
344.5974058996
 31
0.0
  0
LINE
  5
BC
330
1F
100
AcDbEntity
  8
0
  6
Continuous
 62
   179
370
    18
100
AcDbLine
 10
2627.3850030087
 20
344.5974058996
 30
0.0
 11
2645.44423424
 21
344.5974058996
 31
0.0
  0
LINE
  5
BD
330
1F
100
AcDbEntity
  8
0
  6
Continuous
 62
   179
370
    18
100
AcDbLine
 10
2677.9508504573
 20
344.5974058992
 30
0.0
 11
2677.9508504573
 21
304.8670971915
 31
0.0
  0
LINE
  5
BE
330
1F
100
AcDbEntity
  8
0
  6
Continuous
 62
   179
370
    18
100
AcDbLine
 10
2696.0100816887
 20
344.5974058992
 30
0.0
 11
2696.0100816887
 21
304.8670971915
 31
0.0
  0
LINE
  5
BF
330
1F
100
AcDbEntity
  8
0
  6
Continuous
 62
   179
370
    18
100
AcDbLine
 10
2677.9508504573
 20
344.5974058992
 30
0.0
 11
2696.0100816887
 21
344.5974058992
 31
0.0
  0
LINE
  5
C0
330
1F
100
AcDbEntity
  8
0
  6
Continuous
 62
   179
370
    18
100
AcDbLine
 10
2677.9508504573
 20
304.8670971915
 30
0.0
 11
2696.0100816887
 21
304.8670971915
 31
0.0
  0
LINE
  5
C1
330
1F
100
AcDbEntity
  8
0
  6
Continuous
 62
   179
370
    18
100
AcDbLine
 10
2704.1151644241
 20
341.2930554229
 30
0.0
 11
2708.2866879839
 21
341.2930554229
 31
0.0
  0
LINE
  5
C2
330
1F
100
AcDbEntity
  8
0
  6
Continuous
 62
   179
370
    18
100
AcDbLine
 10
2708.2866879839
 20
338.5841707372
 30
0.0
 11
2704.1151644241
 21
338.5841707372
 31
0.0
  0
LINE
  5
C3
330
1F
100
AcDbEntity
  8
0
  6
Continuous
 62
   179
370
    18
100
AcDbLine
 10
2704.1151644241
 20
338.5841707372
 30
0.0
 11
2704.1151644241
 21
341.2930554229
 31
0.0
  0
LINE
  5
C4
330
1F
100
AcDbEntity
  8
0
  6
Continuous
 62
   179
370
    18
100
AcDbLine
 10
2704.1151644241
 20
338.5841707372
 30
0.0
 11
2706.8240491077
 21
338.5841707372
 31
0.0
  0
LINE
  5
C5
330
1F
100
AcDbEntity
  8
0
  6
Continuous
 62
   179
370
    18
100
AcDbLine
 10
2704.1151644241
 20
338.5841707372
 30
0.0
 11
2704.1151644241
 21
334.5208437117
 31
0.0
  0
LINE
  5
C6
330
1F
100
AcDbEntity
  8
0
  6
Continuous
 62
   179
370
    18
100
AcDbLine
 10
2709.5329337914
 20
334.5208437117
 30
0.0
 11
2706.8240491077
 21
338.5841707372
 31
0.0
  0
LINE
  5
C7
330
1F
100
AcDbEntity
  8
0
  6
Continuous
 62
     7
370
    18
100
AcDbLine
 10
2150.0
 20
190.0000000002
 30
0.0
 11
2870.0
 21
190.0000000002
 31
0.0
  0
LINE
  5
C8
330
1F
100
AcDbEntity
  8
0
  6
Continuous
 62
     7
370
    18
100
AcDbLine
 10
2870.0
 20
280.0000000004
 30
0.0
 11
2150.0
 21
280.0000000004
 31
0.0
  0
LINE
  5
C9
330
1F
100
AcDbEntity
  8
0
  6
Continuous
 62
     7
370
    18
100
AcDbLine
 10
100.0
 20
550.0
 30
0.0
 11
100.0
 21
650.0
 31
0.0
  0
LINE
  5
CA
330
1F
100
AcDbEntity
  8
0
  6
Continuous
 62
     7
370
    18
100
AcDbLine
 10
100.0
 20
650.0
 30
0.0
 11
100.0
 21
750.0
 31
0.0
  0
LINE
  5
CB
330
1F
100
AcDbEntity
  8
0
  6
Continuous
 62
     7
370
    18
100
AcDbLine
 10
100.0
 20
750.0
 30
0.0
 11
100.0
 21
850.0
 31
0.0
  0
LINE
  5
CC
330
1F
100
AcDbEntity
  8
0
  6
Continuous
 62
     7
370
    18
100
AcDbLine
 10
100.0
 20
850.0
 30
0.0
 11
100.0
 21
950.0
 31
0.0
  0
LINE
  5
CD
330
1F
100
AcDbEntity
  8
0
  6
Continuous
 62
     7
370
    18
100
AcDbLine
 10
100.0
 20
950.0
 30
0.0
 11
100.0
 21
1050.0
 31
0.0
  0
LINE
  5
CE
330
1F
100
AcDbEntity
  8
0
  6
Continuous
 62
     7
370
    18
100
AcDbLine
 10
100.0
 20
1050.0
 30
0.0
 11
100.0
 21
1150.0
 31
0.0
  0
LINE
  5
CF
330
1F
100
AcDbEntity
  8
0
  6
Continuous
 62
     7
370
    18
100
AcDbLine
 10
100.0
 20
1150.0
 30
0.0
 11
100.0
 21
1250.0
 31
0.0
  0
LINE
  5
D0
330
1F
100
AcDbEntity
  8
0
  6
Continuous
 62
     7
370
    18
100
AcDbLine
 10
100.0
 20
1250.0
 30
0.0
 11
100.0
 21
1350.0
 31
0.0
  0
LINE
  5
D1
330
1F
100
AcDbEntity
  8
0
  6
Continuous
 62
     7
370
    18
100
AcDbLine
 10
100.0
 20
1350.0
 30
0.0
 11
100.0
 21
1450.0
 31
0.0
  0
LINE
  5
D2
330
1F
100
AcDbEntity
  8
0
  6
Continuous
 62
     7
370
    18
100
AcDbLine
 10
100.0
 20
1450.0
 30
0.0
 11
100.0
 21
1550.0
 31
0.0
  0
LINE
  5
D3
330
1F
100
AcDbEntity
  8
0
  6
Continuous
 62
     7
370
    25
100
AcDbLine
 10
2150.0
 20
370.0000000006
 30
0.0
 11
2150.0
 21
100.0
 31
0.0
  0
ARC
  5
D4
330
1F
100
AcDbEntity
  8
0
  6
Continuous
 62
   179
370
    18
100
AcDbCircle
 10
2352.923880981
 20
330.1500209155
 30
0.0
 40
7.223692490816169
100
AcDbArc
 50
69.991210111
 51
90.0
  0
ARC
  5
D5
330
1F
100
AcDbEntity
  8
0
  6
Continuous
 62
   179
370
    18
100
AcDbCircle
 10
2352.9238809804
 20
333.7618671601
 30
0.0
 40
7.223692492544103
100
AcDbArc
 50
270.0
 51
290.0087898887
  0
ARC
  5
D6
330
1F
100
AcDbEntity
  8
0
  6
Continuous
 62
   179
370
    18
100
AcDbCircle
 10
2472.947172768
 20
324.7322515422
 30
0.0
 40
10.8355387405187
100
AcDbArc
 50
56.1685552524
 51
90.0
  0
ARC
  5
D7
330
1F
100
AcDbEntity
  8
0
  6
Continuous
 62
   179
370
    18
100
AcDbCircle
 10
2472.947172768
 20
324.7322515422
 30
0.0
 40
10.83553873998012
100
AcDbArc
 50
270.0
 51
303.830934914
  0
ARC
  5
D8
330
1F
100
AcDbEntity
  8
0
  6
Continuous
 62
   179
370
    18
100
AcDbCircle
 10
2538.8947699699
 20
312.0907896827
 30
0.0
 40
7.223692493244471
100
AcDbArc
 50
0.0
 51
90.0
  0
ARC
  5
D9
330
1F
100
AcDbEntity
  8
0
  6
Continuous
 62
   179
370
    18
100
AcDbCircle
 10
2538.4781724187
 20
331.9559440374
 30
0.0
 40
5.417769369443558
100
AcDbArc
 50
54.413089495
 51
90.0
  0
ARC
  5
DA
330
1F
100
AcDbEntity
  8
0
  6
Continuous
 62
   179
370
    18
100
AcDbCircle
 10
2538.4781724187
 20
331.9559440374
 30
0.0
 40
5.417769370214614
100
AcDbArc
 50
270.0
 51
305.5869104966
  0
ARC
  5
DB
330
1F
100
AcDbEntity
  8
0
  6
Continuous
 62
   179
370
    18
100
AcDbCircle
 10
2549.0375849296
 20
312.9627960708
 30
0.0
 40
9.997490267756625
100
AcDbArc
 50
10.4199484279
 51
80.7321727594
  0
ARC
  5
DC
330
1F
100
AcDbEntity
  8
0
  6
Continuous
 62
   179
370
    18
100
AcDbCircle
 10
2565.4535666376
 20
310.1143839674
 30
0.0
 40
5.225410873593643
100
AcDbArc
 50
192.6768785101
 51
204.7368873207
  0
CIRCLE
  5
DD
330
1F
100
AcDbEntity
  8
0
  6
Continuous
 62
   179
370
    18
100
AcDbCircle
 10
2706.2864208618
 20
337.8675697335
 30
0.0
 40
5.930102145230649
  0
CIRCLE
  5
DE
330
1F
100
AcDbEntity
  8
0
  6
Continuous
 62
    19
370
    18
100
AcDbCircle
 10
2821.3505851521
 20
145.1845937544
 30
0.0
 40
8.587078762764193
  0
CIRCLE
  5
DF
330
1F
100
AcDbEntity
  8
0
  6
Continuous
 62
    19
370
    18
100
AcDbCircle
 10
2821.3505851521
 20
145.1845937544
 30
0.0
 40
16.77593581663705
  0
ELLIPSE
  5
E0
330
1F
100
AcDbEntity
  8
0
  6
Continuous
 62
   179
370
    18
100
AcDbEllipse
 10
2350.175803597
 20
331.955944037
 30
0.0
 11
9.932577177642086
 21
0.0
 31
0.0
210
0.0
220
0.0
230
1.0
 40
0.5895245511
 41
5.265715075739357
 42
7.300655538615938
  0
ELLIPSE
  5
E1
330
1F
100
AcDbEntity
  8
0
  6
Continuous
 62
   179
370
    18
100
AcDbEllipse
 10
2462.1430372376
 20
324.7322515426
 30
0.0
 11
22.57403904004605
 21
0.0
 31
0.0
210
0.0
220
0.0
230
1.0
 40
0.5985848325
 41
5.554193105221712
 42
7.012172182744729
  0
ELLIPSE
  5
E2
330
1F
100
AcDbEntity
  8
0
  6
Continuous
 62
   179
370
    18
100
AcDbEllipse
 10
2532.5740390411
 20
331.955944037
 30
0.0
 11
11.73850030081758
 21
0.0
 31
0.0
210
0.0
220
0.0
230
1.0
 40
0.5900077182
 41
5.593675727225931
 42
6.97269488710657
  0
ELLIPSE
  5
E3
330
1F
100
AcDbEntity
  8
0
  6
Continuous
 62
   179
370
    18
100
AcDbEllipse
 10
2538.0299477069
 20
332.9364020823
 30
0.0
 11
24.3266662253518
 21
0.0
 31
0.0
210
0.0
220
0.0
230
1.0
 40
0.485929116
 41
5.257694056962849
 42
7.689248379254996
  0
ELLIPSE
  5
E4
330
1F
100
AcDbEntity
  8
0
  6
Continuous
 62
   179
370
    18
100
AcDbEllipse
 10
2468.4637681651
 20
324.7322515426
 30
0.0
 11
28.89476997115571
 21
0.0
 31
0.0
210
0.0
220
0.0
230
1.0
 40
0.6929224243
 41
4.837574201223028
 42
7.72879641314261
  0
ELLIPSE
  5
E5
330
1F
100
AcDbEntity
  8
0
  6
Continuous
 62
   179
370
    18
100
AcDbEllipse
 10
2351.0787651571
 20
331.955944037
 30
0.0
 11
27.0888468479834
 21
0.0
 31
0.0
210
0.0
220
0.0
230
1.0
 40
0.4768529109
 41
4.919453630382234
 42
7.646916983963972
  0
ELLIPSE
  5
E6
330
1F
100
AcDbEntity
  8
0
  6
Continuous
 62
   179
370
    18
100
AcDbEllipse
 10
2708.0427484413
 20
339.93861308
 30
0.0
 11
1.490185355941776
 21
0.0
 31
0.0
210
0.0
220
0.0
230
1.0
 40
0.9213369296
 41
4.876826485633947
 42
7.68954412872528
  0
MTEXT
  5
E8
330
1F
100
AcDbEntity
  8
0
  6
Continuous
 62
     7
370
     0
100
AcDbMText
 10
2231.444945447
 20
165.6379924371
 30
0.0
 40
37.0416666667
 41
0.0
 71
     1
 72
     1
  1
BLT_100X25X37
  7
SLDTEXTSTYLE0
 73
     1
 44
1.0
  0
MTEXT
  5
E9
330
1F
100
AcDbEntity
  8
0
  6
Continuous
 62
     7
370
     0
100
AcDbMText
 10
2158.8845987823
 20
146.3871334973
 30
0.0
 40
18.0
 41
0.0
 71
     1
 72
     1
  1
COD.
  7
SLDTEXTSTYLE0
 73
     1
 44
1.0
  0
MTEXT
  5
EA
330
1F
100
AcDbEntity
  8
0
  6
Continuous
 62
     7
370
     0
100
AcDbMText
 10
107.0855178468
 20
74.7215172182
 30
0.0
 40
18.0
 41
0.0
 71
     1
 72
     1
  1
This document is the property of PEDRALI S.p.A. who willsafeguard its rights according to the civil and penal prevision of the Law.
  7
SLDTEXTSTYLE0
 73
     1
 44
1.0
  0
MTEXT
  5
EB
330
1F
100
AcDbEntity
  8
0
  6
Continuous
 62
     7
370
     0
100
AcDbMText
 10
1440.8605986612
 20
76.7845591915
 30
0.0
 40
18.0
 41
0.0
 71
     1
 72
     1
  1
Questo disegno è posto sotto la tutela delle vigenti Leggi e non puo essere utilizzato da terze persone se non previa autorizzazione scritta della PEDRALI S.p.A.
  7
SLDTEXTSTYLE0
 73
     1
 44
1.0
  0
MTEXT
  5
EC
330
1F
100
AcDbEntity
  8
0
  6
Continuous
 62
     7
370
     0
100
AcDbMText
 10
2158.8845987823
 20
234.3102099637
 30
0.0
 40
18.0
 41
0.0
 71
     1
 72
     1
  1
SERIE:
  7
SLDTEXTSTYLE0
 73
     1
 44
1.0
  0
MTEXT
  5
ED
330
1F
100
AcDbEntity
  8
0
  6
Continuous
 62
     7
370
     0
100
AcDbMText
 10
2231.444945447
 20
253.5610689035
 30
0.0
 40
37.0416666667
 41
0.0
 71
     1
 72
     1
  1
BLUME
  7
SLDTEXTSTYLE0
 73
     1
 44
1.0
  0
INSERT
  5
F3
330
1F
100
AcDbEntity
  8
0
  6
Continuous
 62
     7
370
     0
100
AcDbBlockReference
  2
SW_NOTE_0
 10
2766.9883061954
 20
242.6632128381
 30
0.0
  0
ARC
  5
F4
330
1F
100
AcDbEntity
  8
0
  6
Continuous
 62
     7
370
    25
100
AcDbCircle
 10
860.0153829825
 20
1511.8765965485
 30
0.0
 40
10.00000000000004
100
AcDbArc
 50
29.5246008881
 51
150.4598721408
  0
LINE
  5
F5
330
1F
100
AcDbEntity
  8
0
  6
Continuous
 62
     7
370
    25
100
AcDbLine
 10
851.9545024242
 20
1516.4341253797
 30
0.0
 11
851.9545024242
 21
1161.8765965485
 31
0.0
  0
LINE
  5
F6
330
1F
100
AcDbEntity
  8
0
  6
Continuous
 62
     7
370
    25
100
AcDbLine
 10
868.0762635409
 20
1161.8765965485
 30
0.0
 11
868.0762635409
 21
1516.4291452707
 31
0.0
  0
LINE
  5
F7
330
1F
100
AcDbEntity
  8
0
  6
Continuous
 62
     7
370
    25
100
AcDbLine
 10
850.680767656
 20
1514.9869469125
 30
0.0
 11
850.680767656
 21
1161.8765965485
 31
0.0
  0
LINE
  5
F8
330
1F
100
AcDbEntity
  8
0
  6
Continuous
 62
     7
370
    25
100
AcDbLine
 10
869.3499983091
 20
1161.8765965485
 30
0.0
 11
869.3499983091
 21
1514.9843870601
 31
0.0
  0
ARC
  5
F9
330
1F
100
AcDbEntity
  8
0
  6
Continuous
 62
     7
370
    25
100
AcDbCircle
 10
1660.0153829825
 20
1511.8765965485
 30
0.0
 40
10.0
100
AcDbArc
 50
29.5246008881
 51
150.4598721408
  0
LINE
  5
FA
330
1F
100
AcDbEntity
  8
0
  6
Continuous
 62
     7
370
    25
100
AcDbLine
 10
1651.9545024242
 20
1516.4341253797
 30
0.0
 11
1651.9545024242
 21
1161.8765965485
 31
0.0
  0
LINE
  5
FB
330
1F
100
AcDbEntity
  8
0
  6
Continuous
 62
     7
370
    25
100
AcDbLine
 10
1668.0762635409
 20
1161.8765965485
 30
0.0
 11
1668.0762635409
 21
1516.4291452707
 31
0.0
  0
LINE
  5
FC
330
1F
100
AcDbEntity
  8
0
  6
Continuous
 62
     7
370
    25
100
AcDbLine
 10
1650.680767656
 20
1514.9869469125
 30
0.0
 11
1650.680767656
 21
1161.8765965485
 31
0.0
  0
LINE
  5
FD
330
1F
100
AcDbEntity
  8
0
  6
Continuous
 62
     7
370
    25
100
AcDbLine
 10
1669.3499983091
 20
1161.8765965485
 30
0.0
 11
1669.3499983091
 21
1514.9843870601
 31
0.0
  0
ARC
  5
FE
330
1F
100
AcDbEntity
  8
0
  6
Continuous
 62
     7
370
    25
100
AcDbCircle
 10
855.5153829825
 20
1158.8765965485
 30
0.0
 40
5.0
100
AcDbArc
 50
180.0
 51
270.0
  0
ARC
  5
FF
330
1F
100
AcDbEntity
  8
0
  6
Continuous
 62
     7
370
    25
100
AcDbCircle
 10
864.5153829825
 20
1158.8765965485
 30
0.0
 40
5.0
100
AcDbArc
 50
270.0
 51
0.0
  0
LINE
  5
100
330
1F
100
AcDbEntity
  8
0
  6
Continuous
 62
     7
370
    25
100
AcDbLine
 10
869.5153829825
 20
1158.8765965485
 30
0.0
 11
869.5153829825
 21
1161.8765965485
 31
0.0
  0
LINE
  5
101
330
1F
100
AcDbEntity
  8
0
  6
Continuous
 62
     7
370
    25
100
AcDbLine
 10
850.5153829825
 20
1161.8765965485
 30
0.0
 11
850.5153829825
 21
1158.8765965485
 31
0.0
  0
ARC
  5
102
330
1F
100
AcDbEntity
  8
0
  6
Continuous
 62
     7
370
    25
100
AcDbCircle
 10
1655.5153829825
 20
1158.8765965485
 30
0.0
 40
5.0
100
AcDbArc
 50
180.0
 51
270.0
  0
ARC
  5
103
330
1F
100
AcDbEntity
  8
0
  6
Continuous
 62
     7
370
    25
100
AcDbCircle
 10
1664.5153829825
 20
1158.8765965485
 30
0.0
 40
5.0
100
AcDbArc
 50
270.0
 51
0.0
  0
LINE
  5
104
330
1F
100
AcDbEntity
  8
0
  6
Continuous
 62
     7
370
    25
100
AcDbLine
 10
1669.5153829825
 20
1158.8765965485
 30
0.0
 11
1669.5153829825
 21
1161.8765965485
 31
0.0
  0
LINE
  5
105
330
1F
100
AcDbEntity
  8
0
  6
Continuous
 62
     7
370
    25
100
AcDbLine
 10
1650.5153829825
 20
1161.8765965485
 30
0.0
 11
1650.5153829825
 21
1158.8765965485
 31
0.0
  0
LINE
  5
106
330
1F
100
AcDbEntity
  8
0
  6
Continuous
 62
     7
370
    25
100
AcDbLine
 10
1723.0153829825
 20
1506.8765965528
 30
0.0
 11
1669.3499983091
 21
1506.8765965528
 31
0.0
  0
LINE
  5
107
330
1F
100
AcDbEntity
  8
0
  6
Continuous
 62
     7
370
    25
100
AcDbLine
 10
1650.680767656
 20
1506.8765965528
 30
0.0
 11
869.3499983091
 21
1506.8765965528
 31
0.0
  0
LINE
  5
108
330
1F
100
AcDbEntity
  8
0
  6
Continuous
 62
     7
370
    25
100
AcDbLine
 10
850.680767656
 20
1506.8765965528
 30
0.0
 11
797.0153829825
 21
1506.8765965528
 31
0.0
  0
LINE
  5
109
330
1F
100
AcDbEntity
  8
0
  6
Continuous
 62
     7
370
    25
100
AcDbLine
 10
1723.0153829825
 20
1516.8765965528
 30
0.0
 11
1668.6756370179
 21
1516.8765965528
 31
0.0
  0
LINE
  5
10A
330
1F
100
AcDbEntity
  8
0
  6
Continuous
 62
     7
370
    25
100
AcDbLine
 10
1651.3551289472
 20
1516.8765965528
 30
0.0
 11
868.6756370179
 21
1516.8765965528
 31
0.0
  0
LINE
  5
10B
330
1F
100
AcDbEntity
  8
0
  6
Continuous
 62
     7
370
    25
100
AcDbLine
 10
851.3551289472
 20
1516.8765965528
 30
0.0
 11
797.0153829825
 21
1516.8765965528
 31
0.0
  0
LINE
  5
10C
330
1F
100
AcDbEntity
  8
0
  6
Continuous
 62
     7
370
    25
100
AcDbLine
 10
760.0153829825
 20
1506.8765965528
 30
0.0
 11
760.0153829825
 21
1516.8765965528
 31
0.0
  0
LINE
  5
10D
330
1F
100
AcDbEntity
  8
0
  6
Continuous
 62
     7
370
    25
100
AcDbLine
 10
797.0153829825
 20
1506.8765965528
 30
0.0
 11
760.0153829825
 21
1506.8765965528
 31
0.0
  0
LINE
  5
10E
330
1F
100
AcDbEntity
  8
0
  6
Continuous
 62
     7
370
    25
100
AcDbLine
 10
760.0153829825
 20
1516.8765965528
 30
0.0
 11
797.0153829825
 21
1516.8765965528
 31
0.0
  0
LINE
  5
10F
330
1F
100
AcDbEntity
  8
0
  6
Continuous
 62
     7
370
    25
100
AcDbLine
 10
1760.0153829825
 20
1516.8765965528
 30
0.0
 11
1760.0153829825
 21
1506.8765965528
 31
0.0
  0
LINE
  5
110
330
1F
100
AcDbEntity
  8
0
  6
Continuous
 62
     7
370
    25
100
AcDbLine
 10
1760.0153829825
 20
1506.8765965528
 30
0.0
 11
1723.0153829825
 21
1506.8765965528
 31
0.0
  0
LINE
  5
111
330
1F
100
AcDbEntity
  8
0
  6
Continuous
 62
     7
370
    25
100
AcDbLine
 10
1723.0153829825
 20
1516.8765965528
 30
0.0
 11
1760.0153829825
 21
1516.8765965528
 31
0.0
  0
LINE
  5
112
330
1F
100
AcDbEntity
  8
0
  6
Continuous
 62
     7
370
    25
100
AcDbLine
 10
1650.680767656
 20
1471.8765965528
 30
0.0
 11
869.3499983091
 21
1471.8765965528
 31
0.0
  0
SPLINE
  5
113
330
1F
100
AcDbEntity
  8
0
  6
Continuous
 62
     7
370
    25
100
AcDbSpline
210
0.0
220
0.0
230
1.0
 70
     8
 71
     3
 72
    26
 73
    22
 74
     0
 42
0.000000001
 43
0.00000001
 40
0.0
 40
0.0
 40
0.0
 40
0.0
 40
0.0854261159361
 40
0.1733276547195619
 40
0.2448517261352487
 40
0.3181224083912769
 40
0.3577740645396708
 40
0.3980844094313256
 40
0.4287682032815373
 40
0.4601978879083272
 40
0.4855692359538131
 40
0.5116681185372495
 40
0.5370453561645256
 40
0.5630880149114169
 40
0.5995557531473645
 40
0.6370345873825535
 40
0.6960497304231579
 40
0.7566321175831454
 40
0.8401423063242425
 40
0.9260534647419585
 40
1.0
 40
1.0
 40
1.0
 40
1.0
 10
857.1337167812512
 20
1518.789552425174
 30
0.0
 10
857.1751383572259
 20
1518.588585234836
 30
0.0
 10
857.2591817968677
 20
1518.180827356638
 30
0.0
 10
857.5477562611906
 20
1517.594744712434
 30
0.0
 10
857.9221237927078
 20
1517.050506231208
 30
0.0
 10
858.3030888938254
 20
1516.640148604458
 30
0.0
 10
858.678288360244
 20
1516.33271374868
 30
0.0
 10
858.9831241746276
 20
1516.137138211858
 30
0.0
 10
859.2944186296145
 20
1515.990607341748
 30
0.0
 10
859.5814834415744
 20
1515.901191779338
 30
0.0
 10
859.8665213876092
 20
1515.857165684188
 30
0.0
 10
860.1353836308336
 20
1515.855031606907
 30
0.0
 10
860.4028030276805
 20
1515.892201166274
 30
0.0
 10
860.6939810557753
 20
1515.974033141213
 30
0.0
 10
861.002535087281
 20
1516.111732814159
 30
0.0
 10
861.3725575498809
 20
1516.342519288285
 30
0.0
 10
861.7520544431542
 20
1516.663328479357
 30
0.0
 10
862.1611248011103
 20
1517.117018284447
 30
0.0
 10
862.5210248720417
 20
1517.657985759957
 30
0.0
 10
862.7886163164222
 20
1518.240308706043
 30
0.0
 10
862.8627545310295
 20
1518.615840126525
 30
0.0
 10
862.8970491838195
 20
1518.789552425174
 30
0.0
  0
SPLINE
  5
114
330
1F
100
AcDbEntity
  8
0
  6
Continuous
 62
     7
370
    25
100
AcDbSpline
210
0.0
220
0.0
230
1.0
 70
     8
 71
     3
 72
    15
 73
    11
 74
     0
 42
0.000000001
 43
0.00000001
 40
0.0
 40
0.0
 40
0.0
 40
0.0
 40
0.1996207116986735
 40
0.4049403999649587
 40
0.6076585131248962
 40
0.7117115050426002
 40
0.8167208527374658
 40
0.8801337387445669
 40
0.9440186479927588
 40
1.0
 40
1.0
 40
1.0
 40
1.0
 10
867.4351529112596
 20
1518.51524084479
 30
0.0
 10
867.6484746115576
 20
1518.27556016544
 30
0.0
 10
868.0812081385789
 20
1517.789356157178
 30
0.0
 10
868.599247953322
 20
1517.03493825674
 30
0.0
 10
868.9412469884033
 20
1516.399912744841
 30
0.0
 10
869.146942519409
 20
1515.902226700495
 30
0.0
 10
869.25031874244
 20
1515.583717258339
 30
0.0
 10
869.3113625921441
 20
1515.328399458891
 30
0.0
 10
869.3441193709483
 20
1515.137726529528
 30
0.0
 10
869.3472426244264
 20
1515.033202910693
 30
0.0
 10
869.3487012830223
 20
1514.984387060114
 30
0.0
  0
SPLINE
  5
115
330
1F
100
AcDbEntity
  8
0
  6
Continuous
 62
     7
370
    25
100
AcDbSpline
210
0.0
220
0.0
230
1.0
 70
     8
 71
     3
 72
    14
 73
    10
 74
     0
 42
0.000000001
 43
0.00000001
 40
0.0
 40
0.0
 40
0.0
 40
0.0
 40
0.220765348438179
 40
0.3402146168140553
 40
0.4605704991790948
 40
0.5641909618660854
 40
0.6633542991971745
 40
0.8105247403618525
 40
1.0
 40
1.0
 40
1.0
 40
1.0
 10
867.2480385882894
 20
1518.555453469545
 30
0.0
 10
867.2073397927679
 20
1518.611886947551
 30
0.0
 10
867.1446201439594
 20
1518.698854826484
 30
0.0
 10
867.1036787385835
 20
1518.776152891452
 30
0.0
 10
867.1043578345506
 20
1518.802332001823
 30
0.0
 10
867.1383927403698
 20
1518.789703499444
 30
0.0
 10
867.2004402957733
 20
1518.744243891322
 30
0.0
 10
867.3008466168392
 20
1518.654770843472
 30
0.0
 10
867.3867843384033
 20
1518.565490663207
 30
0.0
 10
867.4351529112596
 20
1518.51524084479
 30
0.0
  0
SPLINE
  5
116
330
1F
100
AcDbEntity
  8
0
  6
Continuous
 62
     7
370
    25
100
AcDbSpline
210
0.0
220
0.0
230
1.0
 70
     8
 71
     3
 72
    24
 73
    20
 74
     0
 42
0.000000001
 43
0.00000001
 40
0.0
 40
0.0
 40
0.0
 40
0.0
 40
0.0863790768596674
 40
0.1752542427071621
 40
0.2620842456789202
 40
0.307064913285087
 40
0.3520190851009454
 40
0.4193200542314496
 40
0.4528774529345997
 40
0.4876252663406365
 40
0.5342920749946538
 40
0.5808562308580024
 40
0.6174647672988515
 40
0.6550630194695283
 40
0.7176552952224026
 40
0.7818848654491519
 40
0.8689583501259792
 40
0.9585482528060157
 40
1.0
 40
1.0
 40
1.0
 40
1.0
 10
863.6546596105661
 20
1518.772292665212
 30
0.0
 10
863.852999333905
 20
1518.561433010083
 30
0.0
 10
864.2554101870442
 20
1518.133620505937
 30
0.0
 10
864.9130006206996
 20
1517.477494463637
 30
0.0
 10
865.4802608219152
 20
1516.932156589118
 30
0.0
 10
865.9393079903949
 20
1516.512598258997
 30
0.0
 10
866.349282249691
 20
1516.159061054993
 30
0.0
 10
866.7318350983322
 20
1515.864851251668
 30
0.0
 10
867.0799143943991
 20
1515.661319829409
 30
0.0
 10
867.3635655278639
 20
1515.548978727444
 30
0.0
 10
867.6438782045859
 20
1515.536650969013
 30
0.0
 10
867.8495579978918
 20
1515.661781873224
 30
0.0
 10
867.97538012861
 20
1515.851733557611
 30
0.0
 10
868.0622732084389
 20
1516.114721892227
 30
0.0
 10
868.0903572895743
 20
1516.479174868459
 30
0.0
 10
868.0259722116671
 20
1516.989650493217
 30
0.0
 10
867.8326056026153
 20
1517.587412289951
 30
0.0
 10
867.5475681101275
 20
1518.132675471265
 30
0.0
 10
867.3200182827437
 20
1518.453856034502
 30
0.0
 10
867.2480385882894
 20
1518.555453469545
 30
0.0
  0
SPLINE
  5
117
330
1F
100
AcDbEntity
  8
0
  6
Continuous
 62
     7
370
    25
100
AcDbSpline
210
0.0
220
0.0
230
1.0
 70
     8
 71
     3
 72
    14
 73
    10
 74
     0
 42
0.000000001
 43
0.00000001
 40
0.0
 40
0.0
 40
0.0
 40
0.0
 40
0.2243030424883259
 40
0.3489011866266116
 40
0.4744001356117633
 40
0.5826741857066091
 40
0.6867417687947664
 40
0.8381564871696764
 40
1.0
 40
1.0
 40
1.0
 40
1.0
 10
862.8970491838195
 20
1518.789552425174
 30
0.0
 10
862.9116947222351
 20
1518.84448442672
 30
0.0
 10
862.934475713858
 20
1518.92993061733
 30
0.0
 10
863.0362603402635
 20
1519.005779700867
 30
0.0
 10
863.1449503818139
 20
1519.031460659175
 30
0.0
 10
863.2659183916713
 20
1519.018643384652
 30
0.0
 10
863.3962134455107
 20
1518.973232061549
 30
0.0
 10
863.5340301464328
 20
1518.891054370298
 30
0.0
 10
863.6135671572732
 20
1518.812748865978
 30
0.0
 10
863.6546596105661
 20
1518.772292665212
 30
0.0
  0
SPLINE
  5
118
330
1F
100
AcDbEntity
  8
0
  6
Continuous
 62
     7
370
    25
100
AcDbSpline
210
0.0
220
0.0
230
1.0
 70
     8
 71
     3
 72
    14
 73
    10
 74
     0
 42
0.000000001
 43
0.00000001
 40
0.0
 40
0.0
 40
0.0
 40
0.0
 40
0.2239799089306602
 40
0.3530600787850526
 40
0.4831615846560798
 40
0.5937368434044649
 40
0.6971871626482021
 40
0.8442013099711085
 40
1.0
 40
1.0
 40
1.0
 40
1.0
 10
856.3761063545047
 20
1518.772292665212
 30
0.0
 10
856.4347267071762
 20
1518.828139895516
 30
0.0
 10
856.527130112604
 20
1518.916172021367
 30
0.0
 10
856.6941682961965
 20
1518.999020721476
 30
0.0
 10
856.8295996103011
 20
1519.030738078184
 30
0.0
 10
856.9440401911
 20
1519.021697832271
 30
0.0
 10
857.0378592898752
 20
1518.979657155058
 30
0.0
 10
857.1079675188204
 20
1518.902285321981
 30
0.0
 10
857.1249692877486
 20
1518.827849843789
 30
0.0
 10
857.1337167812512
 20
1518.789552425174
 30
0.0
  0
SPLINE
  5
119
330
1F
100
AcDbEntity
  8
0
  6
Continuous
 62
     7
370
    25
100
AcDbSpline
210
0.0
220
0.0
230
1.0
 70
     8
 71
     3
 72
    25
 73
    21
 74
     0
 42
0.000000001
 43
0.00000001
 40
0.0
 40
0.0
 40
0.0
 40
0.0
 40
0.0875462653424556
 40
0.17762759296003
 40
0.2471474788262655
 40
0.3182485058085609
 40
0.3544110039426031
 40
0.3911111694055484
 40
0.4196256508468988
 40
0.448827961087345
 40
0.4955774367114221
 40
0.5423030312794791
 40
0.5762969204455034
 40
0.6112229844817038
 40
0.6688576767939514
 40
0.7279867562248817
 40
0.8132488808160991
 40
0.9009541844562668
 40
0.9502506997642258
 40
1.0
 40
1.0
 40
1.0
 40
1.0
 10
852.7827273767818
 20
1518.555453469545
 30
0.0
 10
852.6366532956816
 20
1518.339699019778
 30
0.0
 10
852.3402752912269
 20
1517.901942555438
 30
0.0
 10
852.0872025639457
 20
1517.283214133047
 30
0.0
 10
851.9575839422583
 20
1516.719805075519
 30
0.0
 10
851.945189852398
 20
1516.309263937869
 30
0.0
 10
851.9992375932534
 20
1516.008049261244
 30
0.0
 10
852.0731667087323
 20
1515.82037477678
 30
0.0
 10
852.1772550296139
 20
1515.678124886076
 30
0.0
 10
852.330616306553
 20
1515.565146849688
 30
0.0
 10
852.5750817716107
 20
1515.526529420974
 30
0.0
 10
852.8854218822371
 20
1515.626767183659
 30
0.0
 10
853.1812073243467
 20
1515.793686377701
 30
0.0
 10
853.5103696539062
 20
1516.023739620057
 30
0.0
 10
853.9072443417846
 20
1516.348700321016
 30
0.0
 10
854.4331369178245
 20
1516.821290760699
 30
0.0
 10
855.0320783281401
 20
1517.393203306397
 30
0.0
 10
855.5894349460522
 20
1517.948530925846
 30
0.0
 10
856.039047740719
 20
1518.410973485432
 30
0.0
 10
856.2634115924056
 20
1518.651486439405
 30
0.0
 10
856.3761063545047
 20
1518.772292665212
 30
0.0
  0
SPLINE
  5
11A
330
1F
100
AcDbEntity
  8
0
  6
Continuous
 62
     7
370
    25
100
AcDbSpline
210
0.0
220
0.0
230
1.0
 70
     8
 71
     3
 72
    14
 73
    10
 74
     0
 42
0.000000001
 43
0.00000001
 40
0.0
 40
0.0
 40
0.0
 40
0.0
 40
0.2200911109485595
 40
0.3501199592092341
 40
0.4590676183976581
 40
0.5685351145661265
 40
0.6668402217390302
 40
0.7968948941937074
 40
1.0
 40
1.0
 40
1.0
 40
1.0
 10
852.5956130538119
 20
1518.515240844791
 30
0.0
 10
852.6520204776766
 20
1518.573611042439
 30
0.0
 10
852.7417531563727
 20
1518.66646609293
 30
0.0
 10
852.844020124068
 20
1518.755312829345
 30
0.0
 10
852.9022928380799
 20
1518.795774217839
 30
0.0
 10
852.9282392655058
 20
1518.799444838959
 30
0.0
 10
852.9236773370683
 20
1518.768471268138
 30
0.0
 10
852.8818040324599
 20
1518.692554164905
 30
0.0
 10
852.8202516958866
 20
1518.607379023622
 30
0.0
 10
852.7827273767818
 20
1518.555453469545
 30
0.0
  0
SPLINE
  5
11B
330
1F
100
AcDbEntity
  8
0
  6
Continuous
 62
     7
370
    25
100
AcDbSpline
210
0.0
220
0.0
230
1.0
 70
     8
 71
     3
 72
    14
 73
    10
 74
     0
 42
0.000000001
 43
0.00000001
 40
0.0
 40
0.0
 40
0.0
 40
0.0
 40
0.031846861633327
 40
0.1382021891221084
 40
0.2470909675484781
 40
0.4405387664055675
 40
0.6393220179585416
 40
0.8177164190617351
 40
1.0
 40
1.0
 40
1.0
 40
1.0
 10
850.6834716472507
 20
1514.986946912489
 30
0.0
 10
850.6831750376032
 20
1515.0132194195
 30
0.0
 10
850.6818878745828
 20
1515.127231218354
 30
0.0
 10
850.7288090467808
 20
1515.389787829767
 30
0.0
 10
850.8589863455069
 20
1515.853077017898
 30
0.0
 10
851.1142685271617
 20
1516.46470335367
 30
0.0
 10
851.5207814749887
 20
1517.172183947208
 30
0.0
 10
852.0136163206371
 20
1517.864444909156
 30
0.0
 10
852.4002245477907
 20
1518.296755003995
 30
0.0
 10
852.5956130538119
 20
1518.515240844791
 30
0.0
  0
SPLINE
  5
11C
330
1F
100
AcDbEntity
  8
0
  6
Continuous
 62
     7
370
    25
100
AcDbSpline
210
0.0
220
0.0
230
1.0
 70
     8
 71
     3
 72
    26
 73
    22
 74
     0
 42
0.000000001
 43
0.00000001
 40
0.0
 40
0.0
 40
0.0
 40
0.0
 40
0.0854261159361
 40
0.1733276547195619
 40
0.2448517261352487
 40
0.3181224083912769
 40
0.3577740645396708
 40
0.3980844094313256
 40
0.4287682032815373
 40
0.4601978879083272
 40
0.4855692359538131
 40
0.5116681185372495
 40
0.5370453561645256
 40
0.5630880149114169
 40
0.5995557531473645
 40
0.6370345873825535
 40
0.6960497304231579
 40
0.7566321175831454
 40
0.8401423063242425
 40
0.9260534647419585
 40
1.0
 40
1.0
 40
1.0
 40
1.0
 10
1657.133716781251
 20
1518.789552425174
 30
0.0
 10
1657.175138357226
 20
1518.588585234836
 30
0.0
 10
1657.259181796867
 20
1518.180827356638
 30
0.0
 10
1657.54775626119
 20
1517.594744712434
 30
0.0
 10
1657.922123792708
 20
1517.050506231208
 30
0.0
 10
1658.303088893826
 20
1516.640148604458
 30
0.0
 10
1658.678288360244
 20
1516.33271374868
 30
0.0
 10
1658.983124174627
 20
1516.137138211858
 30
0.0
 10
1659.294418629615
 20
1515.990607341748
 30
0.0
 10
1659.581483441575
 20
1515.901191779339
 30
0.0
 10
1659.866521387609
 20
1515.857165684188
 30
0.0
 10
1660.135383630834
 20
1515.855031606907
 30
0.0
 10
1660.402803027681
 20
1515.892201166275
 30
0.0
 10
1660.693981055775
 20
1515.974033141214
 30
0.0
 10
1661.002535087281
 20
1516.111732814159
 30
0.0
 10
1661.372557549881
 20
1516.342519288285
 30
0.0
 10
1661.752054443154
 20
1516.663328479358
 30
0.0
 10
1662.16112480111
 20
1517.117018284447
 30
0.0
 10
1662.521024872042
 20
1517.657985759957
 30
0.0
 10
1662.788616316422
 20
1518.240308706044
 30
0.0
 10
1662.86275453103
 20
1518.615840126525
 30
0.0
 10
1662.89704918382
 20
1518.789552425174
 30
0.0
  0
SPLINE
  5
11D
330
1F
100
AcDbEntity
  8
0
  6
Continuous
 62
     7
370
    25
100
AcDbSpline
210
0.0
220
0.0
230
1.0
 70
     8
 71
     3
 72
    15
 73
    11
 74
     0
 42
0.000000001
 43
0.00000001
 40
0.0
 40
0.0
 40
0.0
 40
0.0
 40
0.1996207116986734
 40
0.4049403999649583
 40
0.6076585131248956
 40
0.7117115050425996
 40
0.816720852737465
 40
0.8801337387445661
 40
0.944018647992758
 40
1.0
 40
1.0
 40
1.0
 40
1.0
 10
1667.43515291126
 20
1518.515240844791
 30
0.0
 10
1667.648474611558
 20
1518.275560165441
 30
0.0
 10
1668.081208138579
 20
1517.789356157178
 30
0.0
 10
1668.599247953322
 20
1517.034938256741
 30
0.0
 10
1668.941246988403
 20
1516.399912744841
 30
0.0
 10
1669.146942519409
 20
1515.902226700496
 30
0.0
 10
1669.25031874244
 20
1515.58371725834
 30
0.0
 10
1669.311362592144
 20
1515.328399458892
 30
0.0
 10
1669.344119370948
 20
1515.137726529528
 30
0.0
 10
1669.347242624426
 20
1515.033202910694
 30
0.0
 10
1669.348701283022
 20
1514.984387060114
 30
0.0
  0
SPLINE
  5
11E
330
1F
100
AcDbEntity
  8
0
  6
Continuous
 62
     7
370
    25
100
AcDbSpline
210
0.0
220
0.0
230
1.0
 70
     8
 71
     3
 72
    14
 73
    10
 74
     0
 42
0.000000001
 43
0.00000001
 40
0.0
 40
0.0
 40
0.0
 40
0.0
 40
0.220765348438179
 40
0.3402146168140553
 40
0.4605704991790948
 40
0.5641909618660854
 40
0.6633542991971745
 40
0.8105247403618525
 40
1.0
 40
1.0
 40
1.0
 40
1.0
 10
1667.248038588289
 20
1518.555453469545
 30
0.0
 10
1667.207339792768
 20
1518.611886947552
 30
0.0
 10
1667.144620143959
 20
1518.698854826485
 30
0.0
 10
1667.103678738584
 20
1518.776152891453
 30
0.0
 10
1667.10435783455
 20
1518.802332001824
 30
0.0
 10
1667.13839274037
 20
1518.789703499444
 30
0.0
 10
1667.200440295773
 20
1518.744243891322
 30
0.0
 10
1667.300846616839
 20
1518.654770843473
 30
0.0
 10
1667.386784338403
 20
1518.565490663208
 30
0.0
 10
1667.43515291126
 20
1518.515240844791
 30
0.0
  0
SPLINE
  5
11F
330
1F
100
AcDbEntity
  8
0
  6
Continuous
 62
     7
370
    25
100
AcDbSpline
210
0.0
220
0.0
230
1.0
 70
     8
 71
     3
 72
    24
 73
    20
 74
     0
 42
0.000000001
 43
0.00000001
 40
0.0
 40
0.0
 40
0.0
 40
0.0
 40
0.0863790768596673
 40
0.1752542427071619
 40
0.26208424567892
 40
0.3070649132850867
 40
0.352019085100945
 40
0.4193200542314502
 40
0.4528774529346004
 40
0.4876252663406371
 40
0.5342920749946544
 40
0.580856230858003
 40
0.6174647672988519
 40
0.6550630194695288
 40
0.717655295222403
 40
0.7818848654491521
 40
0.8689583501259794
 40
0.9585482528060159
 40
1.0
 40
1.0
 40
1.0
 40
1.0
 10
1663.654659610566
 20
1518.772292665213
 30
0.0
 10
1663.852999333905
 20
1518.561433010084
 30
0.0
 10
1664.255410187044
 20
1518.133620505937
 30
0.0
 10
1664.913000620699
 20
1517.477494463637
 30
0.0
 10
1665.480260821915
 20
1516.932156589118
 30
0.0
 10
1665.939307990395
 20
1516.512598258997
 30
0.0
 10
1666.349282249691
 20
1516.159061054994
 30
0.0
 10
1666.731835098332
 20
1515.864851251668
 30
0.0
 10
1667.079914394399
 20
1515.661319829409
 30
0.0
 10
1667.363565527864
 20
1515.548978727444
 30
0.0
 10
1667.643878204586
 20
1515.536650969014
 30
0.0
 10
1667.849557997892
 20
1515.661781873225
 30
0.0
 10
1667.97538012861
 20
1515.851733557612
 30
0.0
 10
1668.062273208439
 20
1516.114721892228
 30
0.0
 10
1668.090357289574
 20
1516.479174868459
 30
0.0
 10
1668.025972211667
 20
1516.989650493217
 30
0.0
 10
1667.832605602615
 20
1517.587412289952
 30
0.0
 10
1667.547568110127
 20
1518.132675471265
 30
0.0
 10
1667.320018282744
 20
1518.453856034502
 30
0.0
 10
1667.248038588289
 20
1518.555453469545
 30
0.0
  0
SPLINE
  5
120
330
1F
100
AcDbEntity
  8
0
  6
Continuous
 62
     7
370
    25
100
AcDbSpline
210
0.0
220
0.0
230
1.0
 70
     8
 71
     3
 72
    14
 73
    10
 74
     0
 42
0.000000001
 43
0.00000001
 40
0.0
 40
0.0
 40
0.0
 40
0.0
 40
0.2243030424883259
 40
0.3489011866266116
 40
0.4744001356117633
 40
0.5826741857066091
 40
0.6867417687947664
 40
0.8381564871696764
 40
1.0
 40
1.0
 40
1.0
 40
1.0
 10
1662.89704918382
 20
1518.789552425174
 30
0.0
 10
1662.911694722235
 20
1518.84448442672
 30
0.0
 10
1662.934475713858
 20
1518.929930617331
 30
0.0
 10
1663.036260340263
 20
1519.005779700867
 30
0.0
 10
1663.144950381814
 20
1519.031460659175
 30
0.0
 10
1663.265918391671
 20
1519.018643384652
 30
0.0
 10
1663.396213445511
 20
1518.97323206155
 30
0.0
 10
1663.534030146433
 20
1518.891054370298
 30
0.0
 10
1663.613567157273
 20
1518.812748865978
 30
0.0
 10
1663.654659610566
 20
1518.772292665213
 30
0.0
  0
SPLINE
  5
121
330
1F
100
AcDbEntity
  8
0
  6
Continuous
 62
     7
370
    25
100
AcDbSpline
210
0.0
220
0.0
230
1.0
 70
     8
 71
     3
 72
    14
 73
    10
 74
     0
 42
0.000000001
 43
0.00000001
 40
0.0
 40
0.0
 40
0.0
 40
0.0
 40
0.2239799089306602
 40
0.3530600787850526
 40
0.4831615846560798
 40
0.5937368434044649
 40
0.6971871626482021
 40
0.8442013099711085
 40
1.0
 40
1.0
 40
1.0
 40
1.0
 10
1656.376106354505
 20
1518.772292665213
 30
0.0
 10
1656.434726707176
 20
1518.828139895517
 30
0.0
 10
1656.527130112604
 20
1518.916172021367
 30
0.0
 10
1656.694168296196
 20
1518.999020721476
 30
0.0
 10
1656.829599610301
 20
1519.030738078184
 30
0.0
 10
1656.9440401911
 20
1519.021697832272
 30
0.0
 10
1657.037859289876
 20
1518.979657155059
 30
0.0
 10
1657.10796751882
 20
1518.902285321981
 30
0.0
 10
1657.124969287749
 20
1518.827849843789
 30
0.0
 10
1657.133716781251
 20
1518.789552425174
 30
0.0
  0
SPLINE
  5
122
330
1F
100
AcDbEntity
  8
0
  6
Continuous
 62
     7
370
    25
100
AcDbSpline
210
0.0
220
0.0
230
1.0
 70
     8
 71
     3
 72
    25
 73
    21
 74
     0
 42
0.000000001
 43
0.00000001
 40
0.0
 40
0.0
 40
0.0
 40
0.0
 40
0.0875462653424556
 40
0.17762759296003
 40
0.2471474788262656
 40
0.318248505808561
 40
0.3544110039426032
 40
0.3911111694055485
 40
0.4196256508468989
 40
0.4488279610873451
 40
0.4955774367114223
 40
0.5423030312794792
 40
0.5762969204455036
 40
0.6112229844817039
 40
0.6688576767939515
 40
0.7279867562248815
 40
0.8132488808160989
 40
0.9009541844562668
 40
0.9502506997642257
 40
1.0
 40
1.0
 40
1.0
 40
1.0
 10
1652.782727376782
 20
1518.555453469545
 30
0.0
 10
1652.636653295682
 20
1518.339699019778
 30
0.0
 10
1652.340275291227
 20
1517.901942555438
 30
0.0
 10
1652.087202563946
 20
1517.283214133047
 30
0.0
 10
1651.957583942258
 20
1516.719805075519
 30
0.0
 10
1651.945189852398
 20
1516.30926393787
 30
0.0
 10
1651.999237593254
 20
1516.008049261245
 30
0.0
 10
1652.073166708732
 20
1515.82037477678
 30
0.0
 10
1652.177255029614
 20
1515.678124886076
 30
0.0
 10
1652.330616306553
 20
1515.565146849689
 30
0.0
 10
1652.575081771611
 20
1515.526529420974
 30
0.0
 10
1652.885421882237
 20
1515.626767183659
 30
0.0
 10
1653.181207324347
 20
1515.793686377701
 30
0.0
 10
1653.510369653906
 20
1516.023739620058
 30
0.0
 10
1653.907244341785
 20
1516.348700321016
 30
0.0
 10
1654.433136917824
 20
1516.821290760699
 30
0.0
 10
1655.03207832814
 20
1517.393203306397
 30
0.0
 10
1655.589434946052
 20
1517.948530925846
 30
0.0
 10
1656.039047740719
 20
1518.410973485432
 30
0.0
 10
1656.263411592406
 20
1518.651486439406
 30
0.0
 10
1656.376106354505
 20
1518.772292665213
 30
0.0
  0
SPLINE
  5
123
330
1F
100
AcDbEntity
  8
0
  6
Continuous
 62
     7
370
    25
100
AcDbSpline
210
0.0
220
0.0
230
1.0
 70
     8
 71
     3
 72
    14
 73
    10
 74
     0
 42
0.000000001
 43
0.00000001
 40
0.0
 40
0.0
 40
0.0
 40
0.0
 40
0.2200911109485595
 40
0.3501199592092341
 40
0.4590676183976581
 40
0.5685351145661265
 40
0.6668402217390302
 40
0.7968948941937074
 40
1.0
 40
1.0
 40
1.0
 40
1.0
 10
1652.595613053812
 20
1518.515240844791
 30
0.0
 10
1652.652020477677
 20
1518.57361104244
 30
0.0
 10
1652.741753156373
 20
1518.66646609293
 30
0.0
 10
1652.844020124068
 20
1518.755312829345
 30
0.0
 10
1652.90229283808
 20
1518.795774217839
 30
0.0
 10
1652.928239265506
 20
1518.799444838959
 30
0.0
 10
1652.923677337068
 20
1518.768471268138
 30
0.0
 10
1652.88180403246
 20
1518.692554164905
 30
0.0
 10
1652.820251695887
 20
1518.607379023622
 30
0.0
 10
1652.782727376782
 20
1518.555453469545
 30
0.0
  0
SPLINE
  5
124
330
1F
100
AcDbEntity
  8
0
  6
Continuous
 62
     7
370
    25
100
AcDbSpline
210
0.0
220
0.0
230
1.0
 70
     8
 71
     3
 72
    14
 73
    10
 74
     0
 42
0.000000001
 43
0.00000001
 40
0.0
 40
0.0
 40
0.0
 40
0.0
 40
0.0318468616333316
 40
0.1382021891221125
 40
0.2470909675484817
 40
0.4405387664055702
 40
0.6393220179585433
 40
0.817716419061736
 40
1.0
 40
1.0
 40
1.0
 40
1.0
 10
1650.683471647251
 20
1514.986946912489
 30
0.0
 10
1650.683175037603
 20
1515.0132194195
 30
0.0
 10
1650.681887874583
 20
1515.127231218354
 30
0.0
 10
1650.728809046781
 20
1515.389787829767
 30
0.0
 10
1650.858986345507
 20
1515.853077017899
 30
0.0
 10
1651.114268527162
 20
1516.46470335367
 30
0.0
 10
1651.520781474989
 20
1517.172183947208
 30
0.0
 10
1652.013616320637
 20
1517.864444909156
 30
0.0
 10
1652.400224547791
 20
1518.296755003995
 30
0.0
 10
1652.595613053812
 20
1518.515240844791
 30
0.0
  0
LINE
  5
125
330
1F
100
AcDbEntity
  8
0
  6
Continuous
 62
     7
370
    25
100
AcDbLine
 10
864.5153829825
 20
1153.8765965485
 30
0.0
 11
855.5153829825
 21
1153.8765965485
 31
0.0
  0
LINE
  5
126
330
1F
100
AcDbEntity
  8
0
  6
Continuous
 62
     7
370
    25
100
AcDbLine
 10
869.5153829825
 20
1161.8765965485
 30
0.0
 11
850.5153829825
 21
1161.8765965485
 31
0.0
  0
LINE
  5
127
330
1F
100
AcDbEntity
  8
0
  6
Continuous
 62
     7
370
    25
100
AcDbLine
 10
1664.5153829825
 20
1153.8765965485
 30
0.0
 11
1655.5153829825
 21
1153.8765965485
 31
0.0
  0
LINE
  5
128
330
1F
100
AcDbEntity
  8
0
  6
Continuous
 62
     7
370
    25
100
AcDbLine
 10
1669.5153829825
 20
1161.8765965485
 30
0.0
 11
1650.5153829825
 21
1161.8765965485
 31
0.0
  0
LINE
  5
129
330
1F
100
AcDbEntity
  8
0
  6
Continuous
 62
     8
370
    18
100
AcDbLine
 10
1723.0153829825
 20
1506.8765965528
 30
0.0
 11
1723.0153829825
 21
1516.8765965528
 31
0.0
  0
LINE
  5
12A
330
1F
100
AcDbEntity
  8
0
  6
Continuous
 62
     8
370
    18
100
AcDbLine
 10
797.0153829825
 20
1516.8765965528
 30
0.0
 11
797.0153829825
 21
1506.8765965528
 31
0.0
  0
LINE
  5
12B
330
1F
100
AcDbEntity
  8
0
  6
Continuous
 62
     8
370
    18
100
AcDbLine
 10
1650.680767656
 20
1504.3765965528
 30
0.0
 11
869.3499983091
 21
1504.3765965528
 31
0.0
  0
LINE
  5
12C
330
1F
100
AcDbEntity
  8
0
  6
Continuous
 62
     8
370
    18
100
AcDbLine
 10
1650.680767656
 20
1474.3765965528
 30
0.0
 11
869.3499983091
 21
1474.3765965528
 31
0.0
  0
LINE
  5
12D
330
1F
100
AcDbEntity
  8
0
  6
Continuous
 62
     8
370
    18
100
AcDbLine
 10
862.8970491838
 20
1518.7895524252
 30
0.0
 11
862.8970491838
 21
1161.8765965485
 31
0.0
  0
LINE
  5
12E
330
1F
100
AcDbEntity
  8
0
  6
Continuous
 62
     8
370
    18
100
AcDbLine
 10
857.1337167813
 20
1518.7895524252
 30
0.0
 11
857.1337167813
 21
1161.8765965485
 31
0.0
  0
LINE
  5
12F
330
1F
100
AcDbEntity
  8
0
  6
Continuous
 62
     8
370
    18
100
AcDbLine
 10
856.3761063545
 20
1518.7722926652
 30
0.0
 11
856.3761063545
 21
1161.8765965485
 31
0.0
  0
LINE
  5
130
330
1F
100
AcDbEntity
  8
0
  6
Continuous
 62
     8
370
    18
100
AcDbLine
 10
863.6546596106
 20
1518.7722926652
 30
0.0
 11
863.6546596106
 21
1161.8765965485
 31
0.0
  0
LINE
  5
131
330
1F
100
AcDbEntity
  8
0
  6
Continuous
 62
     8
370
    18
100
AcDbLine
 10
867.4351529113
 20
1518.5152408448
 30
0.0
 11
867.4351529113
 21
1518.2837011245
 31
0.0
  0
LINE
  5
132
330
1F
100
AcDbEntity
  8
0
  6
Continuous
 62
     8
370
    18
100
AcDbLine
 10
852.5956130538
 20
1518.5152408448
 30
0.0
 11
852.5956130538
 21
1518.2595856342
 31
0.0
  0
LINE
  5
133
330
1F
100
AcDbEntity
  8
0
  6
Continuous
 62
     8
370
    18
100
AcDbLine
 10
1662.8970491838
 20
1518.7895524252
 30
0.0
 11
1662.8970491838
 21
1161.8765965485
 31
0.0
  0
LINE
  5
134
330
1F
100
AcDbEntity
  8
0
  6
Continuous
 62
     8
370
    18
100
AcDbLine
 10
1657.1337167813
 20
1518.7895524252
 30
0.0
 11
1657.1337167813
 21
1161.8765965485
 31
0.0
  0
LINE
  5
135
330
1F
100
AcDbEntity
  8
0
  6
Continuous
 62
     8
370
    18
100
AcDbLine
 10
1656.3761063545
 20
1518.7722926652
 30
0.0
 11
1656.3761063545
 21
1161.8765965485
 31
0.0
  0
LINE
  5
136
330
1F
100
AcDbEntity
  8
0
  6
Continuous
 62
     8
370
    18
100
AcDbLine
 10
1663.6546596106
 20
1518.7722926652
 30
0.0
 11
1663.6546596106
 21
1161.8765965485
 31
0.0
  0
LINE
  5
137
330
1F
100
AcDbEntity
  8
0
  6
Continuous
 62
     8
370
    18
100
AcDbLine
 10
1667.4351529113
 20
1518.5152408448
 30
0.0
 11
1667.4351529113
 21
1518.2837011245
 31
0.0
  0
LINE
  5
138
330
1F
100
AcDbEntity
  8
0
  6
Continuous
 62
     8
370
    18
100
AcDbLine
 10
1652.5956130538
 20
1518.5152408448
 30
0.0
 11
1652.5956130538
 21
1518.2595856342
 31
0.0
  0
LINE
  5
139
330
1F
100
AcDbEntity
  8
0
  6
Continuous
 62
     8
370
    18
100
AcDbLine
 10
850.5153829825
 20
1158.8765965485
 30
0.0
 11
869.5153829825
 21
1158.8765965485
 31
0.0
  0
LINE
  5
13A
330
1F
100
AcDbEntity
  8
0
  6
Continuous
 62
     8
370
    18
100
AcDbLine
 10
1650.5153829825
 20
1158.8765965485
 30
0.0
 11
1669.5153829825
 21
1158.8765965485
 31
0.0
  0
LINE
  5
13B
330
1F
100
AcDbEntity
  8
0
  6
Continuous
 62
     7
370
    25
100
AcDbLine
 10
1924.1473816781
 20
1161.8765965485
 30
0.0
 11
1924.1473816781
 21
1472.3266473381
 31
0.0
  0
LINE
  5
13C
330
1F
100
AcDbEntity
  8
0
  6
Continuous
 62
     7
370
    25
100
AcDbLine
 10
1924.1473816781
 20
1506.4265457675
 30
0.0
 11
1924.1473816781
 21
1517.9201404832
 31
0.0
  0
ARC
  5
13D
330
1F
100
AcDbEntity
  8
0
  6
Continuous
 62
     7
370
    25
100
AcDbCircle
 10
1919.4492955266
 20
1511.8765965485
 30
0.0
 40
10.00000000000024
100
AcDbArc
 50
40.4014496487
 51
156.5075378224
  0
LINE
  5
13E
330
1F
100
AcDbEntity
  8
0
  6
Continuous
 62
     7
370
    25
100
AcDbLine
 10
1912.7595174909
 20
1517.2334896401
 30
0.0
 11
1912.7595174909
 21
1161.8765965485
 31
0.0
  0
LINE
  5
13F
330
1F
100
AcDbEntity
  8
0
  6
Continuous
 62
     7
370
    25
100
AcDbLine
 10
1928.6226727188
 20
1161.8765965485
 30
0.0
 11
1928.6226727188
 21
1471.8765965528
 31
0.0
  0
LINE
  5
140
330
1F
100
AcDbEntity
  8
0
  6
Continuous
 62
     7
370
    25
100
AcDbLine
 10
1928.6226727188
 20
1506.8765965528
 30
0.0
 11
1928.6226727188
 21
1514.6494203415
 31
0.0
  0
LINE
  5
141
330
1F
100
AcDbEntity
  8
0
  6
Continuous
 62
     7
370
    25
100
AcDbLine
 10
1910.2759183344
 20
1515.8626731771
 30
0.0
 11
1910.2759183344
 21
1161.8765965485
 31
0.0
  0
LINE
  5
142
330
1F
100
AcDbEntity
  8
0
  6
Continuous
 62
     7
370
    25
100
AcDbLine
 10
2184.1089850258
 20
1517.9191910292
 30
0.0
 11
2184.1089850258
 21
1506.4265457675
 31
0.0
  0
LINE
  5
143
330
1F
100
AcDbEntity
  8
0
  6
Continuous
 62
     7
370
    25
100
AcDbLine
 10
2184.1089850258
 20
1472.3266473381
 30
0.0
 11
2184.1089850258
 21
1161.8765965485
 31
0.0
  0
ARC
  5
144
330
1F
100
AcDbEntity
  8
0
  6
Continuous
 62
     7
370
    25
100
AcDbCircle
 10
2188.8070711773
 20
1511.8765965485
 30
0.0
 40
10.00000000000014
100
AcDbArc
 50
23.4945514087
 51
139.6010711931
  0
LINE
  5
145
330
1F
100
AcDbEntity
  8
0
  6
Continuous
 62
     7
370
    25
100
AcDbLine
 10
2195.496849213
 20
1161.8765965485
 30
0.0
 11
2195.496849213
 21
1517.2329936093
 31
0.0
  0
LINE
  5
146
330
1F
100
AcDbEntity
  8
0
  6
Continuous
 62
     7
370
    25
100
AcDbLine
 10
2179.6336939851
 20
1514.6464484896
 30
0.0
 11
2179.6336939851
 21
1506.8765965528
 31
0.0
  0
LINE
  5
147
330
1F
100
AcDbEntity
  8
0
  6
Continuous
 62
     7
370
    25
100
AcDbLine
 10
2179.6336939851
 20
1471.8765965528
 30
0.0
 11
2179.6336939851
 21
1161.8765965485
 31
0.0
  0
LINE
  5
148
330
1F
100
AcDbEntity
  8
0
  6
Continuous
 62
     7
370
    25
100
AcDbLine
 10
2197.9804483695
 20
1161.8765965485
 30
0.0
 11
2197.9804483695
 21
1515.8626731771
 31
0.0
  0
ARC
  5
149
330
1F
100
AcDbEntity
  8
0
  6
Continuous
 62
     7
370
    25
100
AcDbCircle
 10
2183.9804483695
 20
1158.8765965485
 30
0.0
 40
5.0
100
AcDbArc
 50
180.0
 51
270.0
  0
ARC
  5
14A
330
1F
100
AcDbEntity
  8
0
  6
Continuous
 62
     7
370
    25
100
AcDbCircle
 10
2192.9804483695
 20
1158.8765965485
 30
0.0
 40
5.0
100
AcDbArc
 50
270.0
 51
0.0
  0
LINE
  5
14B
330
1F
100
AcDbEntity
  8
0
  6
Continuous
 62
     7
370
    25
100
AcDbLine
 10
2197.9804483695
 20
1158.8765965485
 30
0.0
 11
2197.9804483695
 21
1161.8765965485
 31
0.0
  0
LINE
  5
14C
330
1F
100
AcDbEntity
  8
0
  6
Continuous
 62
     7
370
    25
100
AcDbLine
 10
2178.9804483695
 20
1161.8765965485
 30
0.0
 11
2178.9804483695
 21
1158.8765965485
 31
0.0
  0
ARC
  5
14D
330
1F
100
AcDbEntity
  8
0
  6
Continuous
 62
     7
370
    25
100
AcDbCircle
 10
1915.2759183344
 20
1158.8765965485
 30
0.0
 40
5.000000000000227
100
AcDbArc
 50
180.0
 51
270.0
  0
ARC
  5
14E
330
1F
100
AcDbEntity
  8
0
  6
Continuous
 62
     7
370
    25
100
AcDbCircle
 10
1924.2759183344
 20
1158.8765965485
 30
0.0
 40
5.0
100
AcDbArc
 50
270.0
 51
0.0
  0
LINE
  5
14F
330
1F
100
AcDbEntity
  8
0
  6
Continuous
 62
     7
370
    25
100
AcDbLine
 10
1929.2759183344
 20
1158.8765965485
 30
0.0
 11
1929.2759183344
 21
1161.8765965485
 31
0.0
  0
LINE
  5
150
330
1F
100
AcDbEntity
  8
0
  6
Continuous
 62
     7
370
    25
100
AcDbLine
 10
1910.2759183344
 20
1161.8765965485
 30
0.0
 11
1910.2759183344
 21
1158.8765965485
 31
0.0
  0
LINE
  5
151
330
1F
100
AcDbEntity
  8
0
  6
Continuous
 62
     7
370
    25
100
AcDbLine
 10
1929.128183352
 20
1506.8765965528
 30
0.0
 11
1929.128183352
 21
1516.8765965528
 31
0.0
  0
LINE
  5
152
330
1F
100
AcDbEntity
  8
0
  6
Continuous
 62
     7
370
    25
100
AcDbLine
 10
1929.128183352
 20
1516.8765965528
 30
0.0
 11
1966.128183352
 21
1516.8765965528
 31
0.0
  0
LINE
  5
153
330
1F
100
AcDbEntity
  8
0
  6
Continuous
 62
     7
370
    25
100
AcDbLine
 10
1966.128183352
 20
1506.8765965528
 30
0.0
 11
1929.128183352
 21
1506.8765965528
 31
0.0
  0
LINE
  5
154
330
1F
100
AcDbEntity
  8
0
  6
Continuous
 62
     7
370
    25
100
AcDbLine
 10
2142.128183352
 20
1516.8765965528
 30
0.0
 11
1966.128183352
 21
1516.8765965528
 31
0.0
  0
LINE
  5
155
330
1F
100
AcDbEntity
  8
0
  6
Continuous
 62
     7
370
    25
100
AcDbLine
 10
2142.128183352
 20
1506.8765965528
 30
0.0
 11
1966.128183352
 21
1506.8765965528
 31
0.0
  0
LINE
  5
156
330
1F
100
AcDbEntity
  8
0
  6
Continuous
 62
     7
370
    25
100
AcDbLine
 10
2179.128183352
 20
1516.8765965528
 30
0.0
 11
2179.128183352
 21
1506.8765965528
 31
0.0
  0
LINE
  5
157
330
1F
100
AcDbEntity
  8
0
  6
Continuous
 62
     7
370
    25
100
AcDbLine
 10
2142.128183352
 20
1516.8765965528
 30
0.0
 11
2179.128183352
 21
1516.8765965528
 31
0.0
  0
LINE
  5
158
330
1F
100
AcDbEntity
  8
0
  6
Continuous
 62
     7
370
    25
100
AcDbLine
 10
2179.128183352
 20
1506.8765965528
 30
0.0
 11
2142.128183352
 21
1506.8765965528
 31
0.0
  0
SPLINE
  5
159
330
1F
100
AcDbEntity
  8
0
  6
Continuous
 62
     7
370
    25
100
AcDbSpline
210
0.0
220
0.0
230
1.0
 70
     8
 71
     3
 72
    28
 73
    24
 74
     0
 42
0.000000001
 43
0.00000001
 40
0.0
 40
0.0
 40
0.0
 40
0.0
 40
0.088557790427232
 40
0.1796438193735516
 40
0.2695757108504266
 40
0.3157367678527884
 40
0.3623220932277406
 40
0.3904539690316888
 40
0.4187952486339983
 40
0.446962590523528
 40
0.4757849359529022
 40
0.4937651259402155
 40
0.5122126959858438
 40
0.5302154725933181
 40
0.5487865500347935
 40
0.5721716297902768
 40
0.5962043255368826
 40
0.6385840534980266
 40
0.6819817284823833
 40
0.7628828890611788
 40
0.8459448991942599
 40
0.9222316806844277
 40
1.0
 40
1.0
 40
1.0
 40
1.0
 10
1918.51365878512
 20
1518.51524084479
 30
0.0
 10
1918.608578221656
 20
1518.27556130992
 30
0.0
 10
1918.801126952037
 20
1517.789359623293
 30
0.0
 10
1919.258386232572
 20
1517.034924005105
 30
0.0
 10
1919.725784734627
 20
1516.39995457798
 30
0.0
 10
1920.156254287132
 20
1515.90215182312
 30
0.0
 10
1920.467043952287
 20
1515.583957680356
 30
0.0
 10
1920.753111539921
 20
1515.327884849217
 30
0.0
 10
1921.003488239234
 20
1515.131876194141
 30
0.0
 10
1921.274131579929
 20
1514.956855411521
 30
0.0
 10
1921.530798403887
 20
1514.835114075946
 30
0.0
 10
1921.765375256505
 20
1514.766277440331
 30
0.0
 10
1921.965149137813
 20
1514.739131521689
 30
0.0
 10
1922.165039387351
 20
1514.746284478799
 30
0.0
 10
1922.373624979408
 20
1514.790707595323
 30
0.0
 10
1922.585759436912
 20
1514.878446283481
 30
0.0
 10
1922.844573714583
 20
1515.039960864546
 30
0.0
 10
1923.115536646006
 20
1515.285042619135
 30
0.0
 10
1923.456091610531
 20
1515.702147605168
 30
0.0
 10
1923.779946471328
 20
1516.264584198133
 30
0.0
 10
1924.025014281209
 20
1516.934490699674
 30
0.0
 10
1924.156706045075
 20
1517.598208909291
 30
0.0
 10
1924.140615204256
 20
1518.019907193795
 30
0.0
 10
1924.132492411565
 20
1518.232784058454
 30
0.0
  0
SPLINE
  5
15A
330
1F
100
AcDbEntity
  8
0
  6
Continuous
 62
     7
370
    25
100
AcDbSpline
210
0.0
220
0.0
230
1.0
 70
     8
 71
     3
 72
    14
 73
    10
 74
     0
 42
0.000000001
 43
0.00000001
 40
0.0
 40
0.0
 40
0.0
 40
0.0
 40
0.220765348438179
 40
0.3402146168140553
 40
0.4605704991790948
 40
0.5641909618660854
 40
0.6633542991971745
 40
0.8105247403618525
 40
1.0
 40
1.0
 40
1.0
 40
1.0
 10
1917.693857371432
 20
1518.555453469545
 30
0.0
 10
1917.744399811074
 20
1518.611886947551
 30
0.0
 10
1917.822289193884
 20
1518.698854826484
 30
0.0
 10
1917.980202489921
 20
1518.776152891452
 30
0.0
 10
1918.11270767199
 20
1518.802332001823
 30
0.0
 10
1918.234219246313
 20
1518.789703499444
 30
0.0
 10
1918.346181467162
 20
1518.744243891322
 30
0.0
 10
1918.452052847809
 20
1518.654770843472
 30
0.0
 10
1918.491472250378
 20
1518.565490663207
 30
0.0
 10
1918.51365878512
 20
1518.51524084479
 30
0.0
  0
SPLINE
  5
15B
330
1F
100
AcDbEntity
  8
0
  6
Continuous
 62
     7
370
    25
100
AcDbSpline
210
0.0
220
0.0
230
1.0
 70
     8
 71
     3
 72
    24
 73
    20
 74
     0
 42
0.000000001
 43
0.00000001
 40
0.0
 40
0.0
 40
0.0
 40
0.0
 40
0.0863790768596674
 40
0.1752542427071621
 40
0.2620842456789202
 40
0.307064913285087
 40
0.3520190851009454
 40
0.4193200542314496
 40
0.4528774529345997
 40
0.4876252663406365
 40
0.5342920749946538
 40
0.5808562308580024
 40
0.6174647672988515
 40
0.6550630194695283
 40
0.7176552952224026
 40
0.7818848654491519
 40
0.8689583501259792
 40
0.9585482528060157
 40
1.0
 40
1.0
 40
1.0
 40
1.0
 10
1913.187902655176
 20
1518.772292665212
 30
0.0
 10
1913.084067740486
 20
1518.561433010083
 30
0.0
 10
1912.873397402227
 20
1518.133620505937
 30
0.0
 10
1912.747256457446
 20
1517.477494463637
 30
0.0
 10
1912.759734631163
 20
1516.932156589118
 30
0.0
 10
1912.854636595127
 20
1516.512598258997
 30
0.0
 10
1912.994470834339
 20
1516.159061054993
 30
0.0
 10
1913.197586777759
 20
1515.864851251668
 30
0.0
 10
1913.464925873681
 20
1515.661319829409
 30
0.0
 10
1913.741198193826
 20
1515.548978727444
 30
0.0
 10
1914.111238121054
 20
1515.536650969013
 30
0.0
 10
1914.51322905227
 20
1515.661781873224
 30
0.0
 10
1914.878848337633
 20
1515.851733557611
 30
0.0
 10
1915.279941571446
 20
1516.114721892227
 30
0.0
 10
1915.739347147777
 20
1516.479174868459
 30
0.0
 10
1916.301468504849
 20
1516.989650493217
 30
0.0
 10
1916.887658174076
 20
1517.587412289951
 30
0.0
 10
1917.366319784399
 20
1518.132675471265
 30
0.0
 10
1917.615147081734
 20
1518.453856034502
 30
0.0
 10
1917.693857371432
 20
1518.555453469545
 30
0.0
  0
SPLINE
  5
15C
330
1F
100
AcDbEntity
  8
0
  6
Continuous
 62
     7
370
    25
100
AcDbSpline
210
0.0
220
0.0
230
1.0
 70
     8
 71
     3
 72
    14
 73
    10
 74
     0
 42
0.000000001
 43
0.00000001
 40
0.0
 40
0.0
 40
0.0
 40
0.0
 40
0.2243030424883259
 40
0.3489011866266116
 40
0.4744001356117633
 40
0.5826741857066091
 40
0.6867417687947664
 40
0.8381564871696764
 40
1.0
 40
1.0
 40
1.0
 40
1.0
 10
1912.823056702711
 20
1518.789552425174
 30
0.0
 10
1912.887669353741
 20
1518.84448442672
 30
0.0
 10
1912.988173699849
 20
1518.92993061733
 30
0.0
 10
1913.120359035478
 20
1519.005779700867
 30
0.0
 10
1913.202704595108
 20
1519.031460659175
 30
0.0
 10
1913.250085613785
 20
1519.018643384652
 30
0.0
 10
1913.267503961214
 20
1518.973232061549
 30
0.0
 10
1913.250097987499
 20
1518.891054370298
 30
0.0
 10
1913.20908950871
 20
1518.812748865978
 30
0.0
 10
1913.187902655176
 20
1518.772292665212
 30
0.0
  0
SPLINE
  5
15D
330
1F
100
AcDbEntity
  8
0
  6
Continuous
 62
     7
370
    25
100
AcDbSpline
210
0.0
220
0.0
230
1.0
 70
     8
 71
     3
 72
    17
 73
    13
 74
     0
 42
0.000000001
 43
0.00000001
 40
0.0
 40
0.0
 40
0.0
 40
0.0
 40
0.0233489277471378
 40
0.0741027435030429
 40
0.1261873842053452
 40
0.1991219129608503
 40
0.2740786074386763
 40
0.3921073598459852
 40
0.5132705597628292
 40
0.6802887669987056
 40
0.8521088511918937
 40
1.0
 40
1.0
 40
1.0
 40
1.0
 10
1910.279081046906
 20
1515.862673387585
 30
0.0
 10
1910.278364312657
 20
1515.861545851248
 30
0.0
 10
1910.276089605451
 20
1515.85796737703
 30
0.0
 10
1910.298741721917
 20
1515.89360575705
 30
0.0
 10
1910.350230298227
 20
1515.973481055732
 30
0.0
 10
1910.44167789571
 20
1516.111903586856
 30
0.0
 10
1910.60050834708
 20
1516.342442788766
 30
0.0
 10
1910.83529032213
 20
1516.663353149754
 30
0.0
 10
1911.195331042193
 20
1517.117008746007
 30
0.0
 10
1911.668341750626
 20
1517.657988743489
 30
0.0
 10
1912.230638297778
 20
1518.240308072568
 30
0.0
 10
1912.635689311335
 20
1518.615839926172
 30
0.0
 10
1912.823056702711
 20
1518.789552425174
 30
0.0
  0
SPLINE
  5
15E
330
1F
100
AcDbEntity
  8
0
  6
Continuous
 62
     7
370
    25
100
AcDbSpline
210
0.0
220
0.0
230
1.0
 70
     8
 71
     3
 72
    14
 73
    10
 74
     0
 42
0.000000001
 43
0.00000001
 40
0.0
 40
0.0
 40
0.0
 40
0.0
 40
0.258585440404029
 40
0.4047787638525838
 40
0.5276724329154445
 40
0.6512729118022775
 40
0.7597848933278445
 40
0.9055153006169051
 40
1.0
 40
1.0
 40
1.0
 40
1.0
 10
1927.290538313671
 20
1518.068376585164
 30
0.0
 10
1927.243507293158
 20
1518.129433367104
 30
0.0
 10
1927.16988691331
 20
1518.22500908351
 30
0.0
 10
1927.096590842496
 20
1518.317515893777
 30
0.0
 10
1927.062525091168
 20
1518.360231687949
 30
0.0
 10
1927.058187516758
 20
1518.365656668619
 30
0.0
 10
1927.082477605968
 20
1518.335202521426
 30
0.0
 10
1927.123754767448
 20
1518.283486216963
 30
0.0
 10
1927.16450864649
 20
1518.231104073913
 30
0.0
 10
1927.180538520978
 20
1518.21050041119
 30
0.0
  0
SPLINE
  5
15F
330
1F
100
AcDbEntity
  8
0
  6
Continuous
 62
     7
370
    25
100
AcDbSpline
210
0.0
220
0.0
230
1.0
 70
     8
 71
     3
 72
    25
 73
    21
 74
     0
 42
0.000000001
 43
0.00000001
 40
0.0
 40
0.0
 40
0.0
 40
0.0
 40
0.0897174329458049
 40
0.1819517780464739
 40
0.274156428625012
 40
0.3213347009144684
 40
0.3688705103640604
 40
0.4236588038487546
 40
0.4510361250048936
 40
0.4792430363670707
 40
0.503791390639524
 40
0.5284414423184045
 40
0.5611619013115611
 40
0.6013318478780326
 40
0.6426256193945182
 40
0.728691389586683
 40
0.8169611916237418
 40
0.9072669371779624
 40
0.9534664517756425
 40
1.0
 40
1.0
 40
1.0
 40
1.0
 10
1924.789922101068
 20
1518.198910729201
 30
0.0
 10
1925.025144776399
 20
1517.928466946122
 30
0.0
 10
1925.5021890097
 20
1517.379992412499
 30
0.0
 10
1926.21327458157
 20
1516.521829369663
 30
0.0
 10
1926.780395906578
 20
1515.792175778475
 30
0.0
 10
1927.210654516861
 20
1515.210443343603
 30
0.0
 10
1927.539545906068
 20
1514.755784195534
 30
0.0
 10
1927.812049695205
 20
1514.380365023577
 30
0.0
 10
1928.037490629805
 20
1514.103596428024
 30
0.0
 10
1928.198944951589
 20
1513.943614803574
 30
0.0
 10
1928.346978201494
 20
1513.870027885458
 30
0.0
 10
1928.474470653956
 20
1513.915345846566
 30
0.0
 10
1928.569236139114
 20
1514.100843021913
 30
0.0
 10
1928.620132386672
 20
1514.396514433987
 30
0.0
 10
1928.629835436235
 20
1514.880364804285
 30
0.0
 10
1928.538515003169
 20
1515.548396391648
 30
0.0
 10
1928.282619097437
 20
1516.381219434636
 30
0.0
 10
1927.943335371472
 20
1517.085207496484
 30
0.0
 10
1927.598580728045
 20
1517.648776188299
 30
0.0
 10
1927.393465400334
 20
1517.92817431302
 30
0.0
 10
1927.290538313671
 20
1518.068376585164
 30
0.0
  0
SPLINE
  5
160
330
1F
100
AcDbEntity
  8
0
  6
Continuous
 62
     7
370
    25
100
AcDbSpline
210
0.0
220
0.0
230
1.0
 70
     8
 71
     3
 72
    15
 73
    11
 74
     0
 42
0.000000001
 43
0.00000001
 40
0.0
 40
0.0
 40
0.0
 40
0.0
 40
0.215576770593262
 40
0.3329005538677274
 40
0.4328760582231185
 40
0.5332634977247642
 40
0.6250838127945316
 40
0.7535547096889093
 40
0.942133837889228
 40
1.0
 40
1.0
 40
1.0
 40
1.0
 10
1924.132492411565
 20
1518.232784058454
 30
0.0
 10
1924.13184089111
 20
1518.292004509193
 30
0.0
 10
1924.130834792356
 20
1518.383454625998
 30
0.0
 10
1924.189676190783
 20
1518.466605184126
 30
0.0
 10
1924.261635685043
 20
1518.500830428258
 30
0.0
 10
1924.35159991993
 20
1518.499744290814
 30
0.0
 10
1924.461181724466
 20
1518.464935334178
 30
0.0
 10
1924.599564251532
 20
1518.384544583251
 30
0.0
 10
1924.71181767455
 20
1518.285727726608
 30
0.0
 10
1924.775070200587
 20
1518.215419363385
 30
0.0
 10
1924.789922101068
 20
1518.198910729201
 30
0.0
  0
SPLINE
  5
161
330
1F
100
AcDbEntity
  8
0
  6
Continuous
 62
     7
370
    25
100
AcDbSpline
210
0.0
220
0.0
230
1.0
 70
     8
 71
     3
 72
    27
 73
    23
 74
     0
 42
0.000000001
 43
0.00000001
 40
0.0
 40
0.0
 40
0.0
 40
0.0
 40
0.0910683471803929
 40
0.1847464164708984
 40
0.2588266946055559
 40
0.3345190598259135
 40
0.3626447427195279
 40
0.3910056482847556
 40
0.4191743039829986
 40
0.4481203606979753
 40
0.4657704782447668
 40
0.4839081706433218
 40
0.5015721548764689
 40
0.5197440214872963
 40
0.5448446854435518
 40
0.5706253690117599
 40
0.6177938154944831
 40
0.666085844103159
 40
0.7518796859636311
 40
0.8400397940083099
 40
0.9191574739584848
 40
1.0
 40
1.0
 40
1.0
 40
1.0
 10
2184.12387429236
 20
1518.232784058454
 30
0.0
 10
2184.116889338906
 20
1517.983095771939
 30
0.0
 10
2184.10271926599
 20
1517.476563946157
 30
0.0
 10
2184.285270805555
 20
1516.749551720636
 30
0.0
 10
2184.573903884452
 20
1516.075415899312
 30
0.0
 10
2184.875942335576
 20
1515.600062575867
 30
0.0
 10
2185.157225351844
 20
1515.276413057094
 30
0.0
 10
2185.361212507006
 20
1515.085146392667
 30
0.0
 10
2185.595364224234
 20
1514.917472299836
 30
0.0
 10
2185.829815455033
 20
1514.807054065575
 30
0.0
 10
2186.052244987904
 20
1514.75214158625
 30
0.0
 10
2186.245151739834
 20
1514.737867999974
 30
0.0
 10
2186.443269221741
 20
1514.756975313653
 30
0.0
 10
2186.663962647222
 20
1514.81336100777
 30
0.0
 10
2186.903941246047
 20
1514.915997017303
 30
0.0
 10
2187.222652637914
 20
1515.105067958323
 30
0.0
 10
2187.581881158615
 20
1515.387865013502
 30
0.0
 10
2188.065133698756
 20
1515.854060209844
 30
0.0
 10
2188.587096140045
 20
1516.464369374105
 30
0.0
 10
2189.08564168099
 20
1517.172263721387
 30
0.0
 10
2189.488206370013
 20
1517.864425385319
 30
0.0
 10
2189.657266412755
 20
1518.296748449433
 30
0.0
 10
2189.742707918805
 20
1518.515240844791
 30
0.0
  0
SPLINE
  5
162
330
1F
100
AcDbEntity
  8
0
  6
Continuous
 62
     7
370
    25
100
AcDbSpline
210
0.0
220
0.0
230
1.0
 70
     8
 71
     3
 72
    17
 73
    13
 74
     0
 42
0.000000001
 43
0.00000001
 40
0.0
 40
0.0
 40
0.0
 40
0.0
 40
0.1708549265907581
 40
0.3466607769620551
 40
0.4897111759798476
 40
0.636254851774175
 40
0.7155594148600513
 40
0.7961813762104136
 40
0.8575499318137765
 40
0.9204102924989989
 40
0.9711537889148089
 40
1.0
 40
1.0
 40
1.0
 40
1.0
 10
2195.433310001214
 20
1518.789552425174
 30
0.0
 10
2195.649376847603
 20
1518.588585030998
 30
0.0
 10
2196.087771585992
 20
1518.180826739215
 30
0.0
 10
2196.644880586766
 20
1517.594747067053
 30
0.0
 10
2197.11637021554
 20
1517.050499150753
 30
0.0
 10
2197.438161710833
 20
1516.640170639653
 30
0.0
 10
2197.662243624061
 20
1516.332671846584
 30
0.0
 10
2197.797446379242
 20
1516.137284388915
 30
0.0
 10
2197.895256637469
 20
1515.990200257295
 30
0.0
 10
2197.951861007214
 20
1515.902638426383
 30
0.0
 10
2197.979068595398
 20
1515.859871930717
 30
0.0
 10
2197.977759903016
 20
1515.861928224672
 30
0.0
 10
2197.977285585195
 20
1515.862673500554
 30
0.0
  0
SPLINE
  5
163
330
1F
100
AcDbEntity
  8
0
  6
Continuous
 62
     7
370
    25
100
AcDbSpline
210
0.0
220
0.0
230
1.0
 70
     8
 71
     3
 72
    14
 73
    10
 74
     0
 42
0.000000001
 43
0.00000001
 40
0.0
 40
0.0
 40
0.0
 40
0.0
 40
0.2239799089306602
 40
0.3530600787850526
 40
0.4831615846560798
 40
0.5937368434044649
 40
0.6971871626482021
 40
0.8442013099711085
 40
1.0
 40
1.0
 40
1.0
 40
1.0
 10
2195.068464048748
 20
1518.772292665212
 30
0.0
 10
2195.040046041981
 20
1518.828139895516
 30
0.0
 10
2194.995250668341
 20
1518.916172021367
 30
0.0
 10
2194.991525464979
 20
1518.999020721476
 30
0.0
 10
2195.02604215852
 20
1519.030738078184
 30
0.0
 10
2195.093523652356
 20
1519.021697832272
 30
0.0
 10
2195.185739494027
 20
1518.979657155058
 30
0.0
 10
2195.303169310784
 20
1518.902285321981
 30
0.0
 10
2195.389098838001
 20
1518.827849843789
 30
0.0
 10
2195.433310001214
 20
1518.789552425174
 30
0.0
  0
SPLINE
  5
164
330
1F
100
AcDbEntity
  8
0
  6
Continuous
 62
     7
370
    25
100
AcDbSpline
210
0.0
220
0.0
230
1.0
 70
     8
 71
     3
 72
    25
 73
    21
 74
     0
 42
0.000000001
 43
0.00000001
 40
0.0
 40
0.0
 40
0.0
 40
0.0
 40
0.0875462653424555
 40
0.1776275929600298
 40
0.2471474788262653
 40
0.3182485058085606
 40
0.3544110039426028
 40
0.3911111694055481
 40
0.4196256508468985
 40
0.4488279610873446
 40
0.4955774367114218
 40
0.5423030312794787
 40
0.576296920445503
 40
0.6112229844817033
 40
0.6688576767939508
 40
0.7279867562248817
 40
0.813248880816099
 40
0.9009541844562668
 40
0.9502506997642257
 40
1.0
 40
1.0
 40
1.0
 40
1.0
 10
2190.562509332492
 20
1518.555453469545
 30
0.0
 10
2190.733598064936
 20
1518.339699019778
 30
0.0
 10
2191.080729717071
 20
1517.901942555438
 30
0.0
 10
2191.660194808498
 20
1517.283214133047
 30
0.0
 10
2192.243246746488
 20
1516.719805075519
 30
0.0
 10
2192.723223618948
 20
1516.30926393787
 30
0.0
 10
2193.134079696729
 20
1516.008049261244
 30
0.0
 10
2193.434006053426
 20
1515.82037477678
 30
0.0
 10
2193.720699455988
 20
1515.678124886076
 30
0.0
 10
2194.041139164587
 20
1515.565146849688
 30
0.0
 10
2194.411116091035
 20
1515.526529420974
 30
0.0
 10
2194.736909055198
 20
1515.626767183659
 30
0.0
 10
2194.971123019093
 20
1515.793686377701
 30
0.0
 10
2195.176472837583
 20
1516.023739620057
 30
0.0
 10
2195.350839401176
 20
1516.348700321016
 30
0.0
 10
2195.484517818267
 20
1516.821290760699
 30
0.0
 10
2195.516994744038
 20
1517.393203306397
 30
0.0
 10
2195.418683248396
 20
1517.948530925846
 30
0.0
 10
2195.257501870119
 20
1518.410973485431
 30
0.0
 10
2195.131668403825
 20
1518.651486439406
 30
0.0
 10
2195.068464048748
 20
1518.772292665212
 30
0.0
  0
SPLINE
  5
165
330
1F
100
AcDbEntity
  8
0
  6
Continuous
 62
     7
370
    25
100
AcDbSpline
210
0.0
220
0.0
230
1.0
 70
     8
 71
     3
 72
    14
 73
    10
 74
     0
 42
0.000000001
 43
0.00000001
 40
0.0
 40
0.0
 40
0.0
 40
0.0
 40
0.2200911109485595
 40
0.3501199592092341
 40
0.4590676183976581
 40
0.5685351145661265
 40
0.6668402217390302
 40
0.7968948941937074
 40
1.0
 40
1.0
 40
1.0
 40
1.0
 10
2189.742707918805
 20
1518.515240844791
 30
0.0
 10
2189.769351240592
 20
1518.573611042439
 30
0.0
 10
2189.811735318244
 20
1518.66646609293
 30
0.0
 10
2189.929926732969
 20
1518.755312829345
 30
0.0
 10
2190.045806824202
 20
1518.795774217839
 30
0.0
 10
2190.16779266618
 20
1518.799444838959
 30
0.0
 10
2190.295457353886
 20
1518.768471268138
 30
0.0
 10
2190.441259008281
 20
1518.692554164905
 30
0.0
 10
2190.516586952229
 20
1518.607379023622
 30
0.0
 10
2190.562509332492
 20
1518.555453469545
 30
0.0
  0
SPLINE
  5
166
330
1F
100
AcDbEntity
  8
0
  6
Continuous
 62
     7
370
    25
100
AcDbSpline
210
0.0
220
0.0
230
1.0
 70
     8
 71
     3
 72
    15
 73
    11
 74
     0
 42
0.000000001
 43
0.00000001
 40
0.0
 40
0.0
 40
0.0
 40
0.0
 40
0.2150763736127623
 40
0.3413349926978211
 40
0.4465934903530034
 40
0.5524796219272401
 40
0.6449070621727223
 40
0.766214653902494
 40
0.940631656051666
 40
1.0
 40
1.0
 40
1.0
 40
1.0
 10
2183.466444602857
 20
1518.198910729201
 30
0.0
 10
2183.524624864591
 20
1518.259553708303
 30
0.0
 10
2183.616959317142
 20
1518.35579659394
 30
0.0
 10
2183.766023850616
 20
1518.450611662065
 30
0.0
 10
2183.882376991978
 20
1518.4960016647
 30
0.0
 10
2183.979096029528
 20
1518.503167550677
 30
0.0
 10
2184.056754938537
 20
1518.474790891749
 30
0.0
 10
2184.114344029842
 20
1518.40430444172
 30
0.0
 10
2184.12965087621
 20
1518.314440319529
 30
0.0
 10
2184.125044143631
 20
1518.249320766528
 30
0.0
 10
2184.12387429236
 20
1518.232784058454
 30
0.0
  0
SPLINE
  5
167
330
1F
100
AcDbEntity
  8
0
  6
Continuous
 62
     7
370
    25
100
AcDbSpline
210
0.0
220
0.0
230
1.0
 70
     8
 71
     3
 72
    26
 73
    22
 74
     0
 42
0.000000001
 43
0.00000001
 40
0.0
 40
0.0
 40
0.0
 40
0.0
 40
0.0912035599485179
 40
0.1849670362499738
 40
0.2785634207445331
 40
0.3265394520589691
 40
0.3749439889046064
 40
0.4231405593180605
 40
0.4430841889857804
 40
0.4634373414447684
 40
0.4878409265543515
 40
0.5123587387507043
 40
0.5280992736585401
 40
0.5442699367721684
 40
0.5755700365325771
 40
0.6075525397506848
 40
0.6834424014570646
 40
0.7611024134338046
 40
0.8469107031299091
 40
0.9346000221708253
 40
1.0
 40
1.0
 40
1.0
 40
1.0
 10
2180.965828390254
 20
1518.068376585164
 30
0.0
 10
2180.770364664561
 20
1517.791677542418
 30
0.0
 10
2180.373950905534
 20
1517.230513023193
 30
0.0
 10
2179.963667260086
 20
1516.355956050168
 30
0.0
 10
2179.740031646681
 20
1515.614678062587
 30
0.0
 10
2179.647115321558
 20
1515.027348267275
 30
0.0
 10
2179.624478720234
 20
1514.594711263111
 30
0.0
 10
2179.652245177494
 20
1514.270010785689
 30
0.0
 10
2179.709265024886
 20
1514.063287110443
 30
0.0
 10
2179.770741218717
 20
1513.941699803631
 30
0.0
 10
2179.8667059435
 20
1513.871378627386
 30
0.0
 10
2179.984941447118
 20
1513.901474771504
 30
0.0
 10
2180.095474595866
 20
1513.983427950829
 30
0.0
 10
2180.222394005486
 20
1514.108402846784
 30
0.0
 10
2180.384775891466
 20
1514.305890108166
 30
0.0
 10
2180.67427060003
 20
1514.693865297333
 30
0.0
 10
2181.078949743352
 20
1515.259765919348
 30
0.0
 10
2181.640820437593
 20
1516.0095592849
 30
0.0
 10
2182.269681563176
 20
1516.79959122217
 30
0.0
 10
2182.895079753318
 20
1517.542836245541
 30
0.0
 10
2183.295419052319
 20
1518.002529205464
 30
0.0
 10
2183.466444602857
 20
1518.198910729201
 30
0.0
  0
SPLINE
  5
168
330
1F
100
AcDbEntity
  8
0
  6
Continuous
 62
     7
370
    25
100
AcDbSpline
210
0.0
220
0.0
230
1.0
 70
     8
 71
     3
 72
    12
 73
     8
 74
     0
 42
0.000000001
 43
0.00000001
 40
0.0
 40
0.0
 40
0.0
 40
0.0
 40
0.0733176097793486
 40
0.2518791011455962
 40
0.4916852358885527
 40
0.8425129352748579
 40
1.0
 40
1.0
 40
1.0
 40
1.0
 10
2181.191845007267
 20
1518.357719971471
 30
0.0
 10
2181.192761424299
 20
1518.358866853297
 30
0.0
 10
2181.195909730674
 20
1518.362806910319
 30
0.0
 10
2181.172886804396
 20
1518.334003170546
 30
0.0
 10
2181.116911625701
 20
1518.26346688176
 30
0.0
 10
2181.039579271024
 20
1518.164673962194
 30
0.0
 10
2180.983273235297
 20
1518.091154520869
 30
0.0
 10
2180.965828390254
 20
1518.068376585164
 30
0.0
  0
LINE
  5
169
330
1F
100
AcDbEntity
  8
0
  6
Continuous
 62
     7
370
    25
100
AcDbLine
 10
1927.6855806796
 20
1471.8765965528
 30
0.0
 11
1927.6837996755
 21
1471.8765965528
 31
0.0
  0
LINE
  5
16A
330
1F
100
AcDbEntity
  8
0
  6
Continuous
 62
     7
370
    25
100
AcDbLine
 10
2184.308183352
 20
1504.3765965528
 30
0.0
 11
2184.308183352
 21
1474.3765965528
 31
0.0
  0
LINE
  5
16B
330
1F
100
AcDbEntity
  8
0
  6
Continuous
 62
     7
370
    25
100
AcDbLine
 10
1923.948183352
 20
1504.3765965528
 30
0.0
 11
1923.948183352
 21
1474.3765965528
 31
0.0
  0
LINE
  5
16C
330
1F
100
AcDbEntity
  8
0
  6
Continuous
 62
     7
370
    25
100
AcDbLine
 10
2184.308183352
 20
1474.3765965528
 30
0.0
 11
2184.308183352
 21
1474.1311253212
 31
0.0
  0
LINE
  5
16D
330
1F
100
AcDbEntity
  8
0
  6
Continuous
 62
     7
370
    25
100
AcDbLine
 10
2180.5725670284
 20
1471.8765965528
 30
0.0
 11
1927.6855806796
 21
1471.8765965528
 31
0.0
  0
LINE
  5
16E
330
1F
100
AcDbEntity
  8
0
  6
Continuous
 62
     7
370
    25
100
AcDbLine
 10
1923.948183352
 20
1474.3765965528
 30
0.0
 11
1923.948183352
 21
1474.1438083641
 31
0.0
  0
LINE
  5
16F
330
1F
100
AcDbEntity
  8
0
  6
Continuous
 62
     7
370
    25
100
AcDbLine
 10
1927.6855806796
 20
1506.8765965528
 30
0.0
 11
1927.6837996755
 21
1506.8765965528
 31
0.0
  0
LINE
  5
170
330
1F
100
AcDbEntity
  8
0
  6
Continuous
 62
     7
370
    25
100
AcDbLine
 10
2180.5725670284
 20
1506.8765965528
 30
0.0
 11
2179.128183352
 21
1506.8765965528
 31
0.0
  0
LINE
  5
171
330
1F
100
AcDbEntity
  8
0
  6
Continuous
 62
     7
370
    25
100
AcDbLine
 10
1929.128183352
 20
1506.8765965528
 30
0.0
 11
1927.6855806796
 21
1506.8765965528
 31
0.0
  0
LINE
  5
172
330
1F
100
AcDbEntity
  8
0
  6
Continuous
 62
     7
370
    25
100
AcDbLine
 10
2184.308183352
 20
1504.6220677843
 30
0.0
 11
2184.308183352
 21
1504.3765965528
 31
0.0
  0
LINE
  5
173
330
1F
100
AcDbEntity
  8
0
  6
Continuous
 62
     7
370
    25
100
AcDbLine
 10
1923.948183352
 20
1504.6093847414
 30
0.0
 11
1923.948183352
 21
1504.3765965528
 31
0.0
  0
LINE
  5
174
330
1F
100
AcDbEntity
  8
0
  6
Continuous
 62
     7
370
    25
100
AcDbLine
 10
2192.9804483695
 20
1153.8765965485
 30
0.0
 11
2183.9804483695
 21
1153.8765965485
 31
0.0
  0
LINE
  5
175
330
1F
100
AcDbEntity
  8
0
  6
Continuous
 62
     7
370
    25
100
AcDbLine
 10
2188.4804483695
 20
1161.8765965485
 30
0.0
 11
2178.9804483695
 21
1161.8765965485
 31
0.0
  0
LINE
  5
176
330
1F
100
AcDbEntity
  8
0
  6
Continuous
 62
     7
370
    25
100
AcDbLine
 10
2197.9804483695
 20
1161.8765965485
 30
0.0
 11
2188.4804483695
 21
1161.8765965485
 31
0.0
  0
LINE
  5
177
330
1F
100
AcDbEntity
  8
0
  6
Continuous
 62
     7
370
    25
100
AcDbLine
 10
1919.7759183344
 20
1153.8765965485
 30
0.0
 11
1915.2759183344
 21
1153.8765965485
 31
0.0
  0
LINE
  5
178
330
1F
100
AcDbEntity
  8
0
  6
Continuous
 62
     7
370
    25
100
AcDbLine
 10
1924.2759183344
 20
1153.8765965485
 30
0.0
 11
1919.7759183344
 21
1153.8765965485
 31
0.0
  0
LINE
  5
179
330
1F
100
AcDbEntity
  8
0
  6
Continuous
 62
     7
370
    25
100
AcDbLine
 10
1929.2759183344
 20
1161.8765965485
 30
0.0
 11
1910.2759183344
 21
1161.8765965485
 31
0.0
  0
LINE
  5
17A
330
1F
100
AcDbEntity
  8
0
  6
Continuous
 62
     8
370
    18
100
AcDbLine
 10
1966.128183352
 20
1516.8765965528
 30
0.0
 11
1966.128183352
 21
1506.8765965528
 31
0.0
  0
LINE
  5
17B
330
1F
100
AcDbEntity
  8
0
  6
Continuous
 62
     8
370
    18
100
AcDbLine
 10
2142.128183352
 20
1506.8765965528
 30
0.0
 11
2142.128183352
 21
1516.8765965528
 31
0.0
  0
LINE
  5
17C
330
1F
100
AcDbEntity
  8
0
  6
Continuous
 62
     8
370
    18
100
AcDbLine
 10
1918.5136587851
 20
1518.5152408448
 30
0.0
 11
1918.5136587851
 21
1161.8765965485
 31
0.0
  0
LINE
  5
17D
330
1F
100
AcDbEntity
  8
0
  6
Continuous
 62
     8
370
    18
100
AcDbLine
 10
1917.6938573714
 20
1518.5554534695
 30
0.0
 11
1917.6938573714
 21
1161.8765965485
 31
0.0
  0
LINE
  5
17E
330
1F
100
AcDbEntity
  8
0
  6
Continuous
 62
     8
370
    18
100
AcDbLine
 10
1924.7899221011
 20
1518.1989107292
 30
0.0
 11
1924.7899221011
 21
1506.8002714858
 31
0.0
  0
LINE
  5
17F
330
1F
100
AcDbEntity
  8
0
  6
Continuous
 62
     8
370
    18
100
AcDbLine
 10
1924.7899221011
 20
1471.9529216197
 30
0.0
 11
1924.7899221011
 21
1161.8765965485
 31
0.0
  0
LINE
  5
180
330
1F
100
AcDbEntity
  8
0
  6
Continuous
 62
     8
370
    18
100
AcDbLine
 10
1912.8230567027
 20
1518.7895524252
 30
0.0
 11
1912.8230567027
 21
1517.7291816035
 31
0.0
  0
LINE
  5
181
330
1F
100
AcDbEntity
  8
0
  6
Continuous
 62
     8
370
    18
100
AcDbLine
 10
2189.7427079188
 20
1518.5152408448
 30
0.0
 11
2189.7427079188
 21
1161.8765965485
 31
0.0
  0
LINE
  5
182
330
1F
100
AcDbEntity
  8
0
  6
Continuous
 62
     8
370
    18
100
AcDbLine
 10
2190.5625093325
 20
1518.5554534695
 30
0.0
 11
2190.5625093325
 21
1161.8765965485
 31
0.0
  0
LINE
  5
183
330
1F
100
AcDbEntity
  8
0
  6
Continuous
 62
     8
370
    18
100
AcDbLine
 10
2183.4664446029
 20
1518.1989107292
 30
0.0
 11
2183.4664446029
 21
1506.8002714858
 31
0.0
  0
LINE
  5
184
330
1F
100
AcDbEntity
  8
0
  6
Continuous
 62
     8
370
    18
100
AcDbLine
 10
2183.4664446029
 20
1471.9529216197
 30
0.0
 11
2183.4664446029
 21
1161.8765965485
 31
0.0
  0
LINE
  5
185
330
1F
100
AcDbEntity
  8
0
  6
Continuous
 62
     8
370
    18
100
AcDbLine
 10
2195.4333100012
 20
1518.7895524252
 30
0.0
 11
2195.4333100012
 21
1517.7263534642
 31
0.0
  0
LINE
  5
186
330
1F
100
AcDbEntity
  8
0
  6
Continuous
 62
     8
370
    18
100
AcDbLine
 10
1925.7245396244
 20
1471.9960597572
 30
0.0
 11
1924.2483983937
 21
1471.9960597572
 31
0.0
  0
SPLINE
  5
187
330
1F
100
AcDbEntity
  8
0
  6
Continuous
 62
     8
370
    18
100
AcDbSpline
210
0.0
220
0.0
230
1.0
 70
     8
 71
     3
 72
    12
 73
     8
 74
     0
 42
0.000000001
 43
0.00000001
 40
0.0
 40
0.0
 40
0.0
 40
0.0
 40
0.219578120873526
 40
0.4458315737196786
 40
0.6652629178381348
 40
0.8909105091177149
 40
1.0
 40
1.0
 40
1.0
 40
1.0
 10
1927.685580679596
 20
1471.876596552768
 30
0.0
 10
1927.564183240432
 20
1471.880543744624
 30
0.0
 10
1927.3176977931
 20
1471.888558125792
 30
0.0
 10
1926.893663097071
 20
1471.931735475616
 30
0.0
 10
1926.437959690204
 20
1471.971840778173
 30
0.0
 10
1926.043416678584
 20
1471.993561407165
 30
0.0
 10
1925.8029173909
 20
1471.9954456801
 30
0.0
 10
1925.72453962444
 20
1471.996059757195
 30
0.0
  0
SPLINE
  5
188
330
1F
100
AcDbEntity
  8
0
  6
Continuous
 62
     8
370
    18
100
AcDbSpline
210
0.0
220
0.0
230
1.0
 70
     8
 71
     3
 72
    14
 73
    10
 74
     0
 42
0.000000001
 43
0.00000001
 40
0.0
 40
0.0
 40
0.0
 40
0.0
 40
0.1514976907177828
 40
0.3080363893103095
 40
0.4611987766387211
 40
0.6144055117340753
 40
0.778476706310818
 40
0.9473502824299542
 40
1.0
 40
1.0
 40
1.0
 40
1.0
 10
1924.13118012157
 20
1472.148519842008
 30
0.0
 10
1924.138822976299
 20
1472.211386153887
 30
0.0
 10
1924.154362997824
 20
1472.339210621895
 30
0.0
 10
1924.131631688661
 20
1472.594260125859
 30
0.0
 10
1924.090195397313
 20
1472.888192754462
 30
0.0
 10
1924.037764941137
 20
1473.222492723017
 30
0.0
 10
1923.986803012989
 20
1473.598229526803
 30
0.0
 10
1923.958003679975
 20
1473.914612628704
 30
0.0
 10
1923.950069159373
 20
1474.099795677829
 30
0.0
 10
1923.948183351962
 20
1474.143808364137
 30
0.0
  0
LINE
  5
189
330
1F
100
AcDbEntity
  8
0
  6
Continuous
 62
     8
370
    18
100
AcDbLine
 10
2184.308183352
 20
1504.3765965528
 30
0.0
 11
1923.948183352
 21
1504.3765965528
 31
0.0
  0
LINE
  5
18A
330
1F
100
AcDbEntity
  8
0
  6
Continuous
 62
     8
370
    18
100
AcDbLine
 10
2184.308183352
 20
1474.3765965528
 30
0.0
 11
1923.948183352
 21
1474.3765965528
 31
0.0
  0
SPLINE
  5
18B
330
1F
100
AcDbEntity
  8
0
  6
Continuous
 62
     8
370
    18
100
AcDbSpline
210
0.0
220
0.0
230
1.0
 70
     8
 71
     3
 72
    12
 73
     8
 74
     0
 42
0.000000001
 43
0.00000001
 40
0.0
 40
0.0
 40
0.0
 40
0.0
 40
0.2197775069035125
 40
0.4461484417016928
 40
0.6658453222826375
 40
0.8916605883560174
 40
1.0
 40
1.0
 40
1.0
 40
1.0
 10
1925.72453962444
 20
1506.757133348341
 30
0.0
 10
1925.882606960053
 20
1506.759598725622
 30
0.0
 10
1926.203483725203
 20
1506.764603442654
 30
0.0
 10
1926.668478415069
 20
1506.800730680807
 30
0.0
 10
1927.110124823042
 20
1506.843196999063
 30
0.0
 10
1927.446097493795
 20
1506.872481281337
 30
0.0
 10
1927.626946071649
 20
1506.875588977534
 30
0.0
 10
1927.685580679596
 20
1506.876596552768
 30
0.0
  0
LINE
  5
18C
330
1F
100
AcDbEntity
  8
0
  6
Continuous
 62
     8
370
    18
100
AcDbLine
 10
1924.2483983937
 20
1506.7571333483
 30
0.0
 11
1925.7245396244
 21
1506.7571333483
 31
0.0
  0
SPLINE
  5
18D
330
1F
100
AcDbEntity
  8
0
  6
Continuous
 62
     8
370
    18
100
AcDbSpline
210
0.0
220
0.0
230
1.0
 70
     8
 71
     3
 72
    13
 73
     9
 74
     0
 42
0.000000001
 43
0.00000001
 40
0.0
 40
0.0
 40
0.0
 40
0.0
 40
0.2330222149063591
 40
0.3953908221547959
 40
0.5577675836118797
 40
0.7271543319660794
 40
0.8963824501519558
 40
1.0
 40
1.0
 40
1.0
 40
1.0
 10
1923.948183351962
 20
1504.609384741399
 30
0.0
 10
1923.960463614926
 20
1504.803578507172
 30
0.0
 10
1923.981300698083
 20
1505.133085428808
 30
0.0
 10
1924.042837253535
 20
1505.560848070638
 30
0.0
 10
1924.097043362649
 20
1505.909486228414
 30
0.0
 10
1924.139134453002
 20
1506.219707850348
 30
0.0
 10
1924.153250161894
 20
1506.452561393008
 30
0.0
 10
1924.13725466855
 20
1506.562806067538
 30
0.0
 10
1924.13118012157
 20
1506.604673263528
 30
0.0
  0
LINE
  5
18E
330
1F
100
AcDbEntity
  8
0
  6
Continuous
 62
     8
370
    18
100
AcDbLine
 10
2178.9804483695
 20
1158.8765965485
 30
0.0
 11
2197.9804483695
 21
1158.8765965485
 31
0.0
  0
LINE
  5
18F
330
1F
100
AcDbEntity
  8
0
  6
Continuous
 62
     8
370
    18
100
AcDbLine
 10
1919.7759183344
 20
1158.8765965485
 30
0.0
 11
1929.2759183344
 21
1158.8765965485
 31
0.0
  0
LINE
  5
190
330
1F
100
AcDbEntity
  8
0
  6
Continuous
 62
     8
370
    18
100
AcDbLine
 10
1910.2759183344
 20
1158.8765965485
 30
0.0
 11
1919.7759183344
 21
1158.8765965485
 31
0.0
  0
ARC
  5
191
330
1F
100
AcDbEntity
  8
0
  6
Continuous
 62
     7
370
    25
100
AcDbCircle
 10
1723.0153829825
 20
805.3321451695
 30
0.0
 40
37.00000000000023
100
AcDbArc
 50
0.0
 51
90.0
  0
LINE
  5
192
330
1F
100
AcDbEntity
  8
0
  6
Continuous
 62
     7
370
    25
100
AcDbLine
 10
1760.0153829825
 20
805.3321451695
 30
0.0
 11
1760.0153829825
 21
629.3321451695
 31
0.0
  0
ARC
  5
193
330
1F
100
AcDbEntity
  8
0
  6
Continuous
 62
     7
370
    25
100
AcDbCircle
 10
1723.0153829825
 20
629.3321451695
 30
0.0
 40
37.0
100
AcDbArc
 50
270.0
 51
0.0
  0
LINE
  5
194
330
1F
100
AcDbEntity
  8
0
  6
Continuous
 62
     7
370
    25
100
AcDbLine
 10
1723.0153829825
 20
592.3321451695
 30
0.0
 11
797.0153829825
 21
592.3321451695
 31
0.0
  0
ARC
  5
195
330
1F
100
AcDbEntity
  8
0
  6
Continuous
 62
     7
370
    25
100
AcDbCircle
 10
797.0153829825
 20
629.3321451695
 30
0.0
 40
36.99999999999989
100
AcDbArc
 50
180.0
 51
270.0
  0
LINE
  5
196
330
1F
100
AcDbEntity
  8
0
  6
Continuous
 62
     7
370
    25
100
AcDbLine
 10
760.0153829825
 20
629.3321451695
 30
0.0
 11
760.0153829825
 21
805.3321451695
 31
0.0
  0
ARC
  5
197
330
1F
100
AcDbEntity
  8
0
  6
Continuous
 62
     7
370
    25
100
AcDbCircle
 10
797.0153829825
 20
805.3321451695
 30
0.0
 40
37.00000000000011
100
AcDbArc
 50
90.0
 51
180.0
  0
LINE
  5
198
330
1F
100
AcDbEntity
  8
0
  6
Continuous
 62
     7
370
    25
100
AcDbLine
 10
797.0153829825
 20
842.3321451695
 30
0.0
 11
1723.0153829825
 21
842.3321451695
 31
0.0
  0
SPLINE
  5
199
330
1F
100
AcDbEntity
  8
0
  6
Continuous
 62
     7
370
    25
100
AcDbSpline
210
0.0
220
0.0
230
1.0
 70
     8
 71
     3
 72
    28
 73
    24
 74
     0
 42
0.000000001
 43
0.00000001
 40
0.0
 40
0.0
 40
0.0
 40
0.0
 40
0.0885577904272321
 40
0.1796438193735517
 40
0.2695757108504267
 40
0.3157367678527885
 40
0.3623220932277408
 40
0.3904539690316889
 40
0.4187952486339985
 40
0.4469625905235283
 40
0.4757849359529024
 40
0.4937651259402158
 40
0.5122126959858442
 40
0.5302154725933184
 40
0.5487865500347937
 40
0.572171629790277
 40
0.5962043255368829
 40
0.6385840534980269
 40
0.6819817284823861
 40
0.7628828890611816
 40
0.8459448991942597
 40
0.9222316806844277
 40
1.0
 40
1.0
 40
1.0
 40
1.0
 10
852.5956130538282
 20
852.9466697363272
 30
0.0
 10
852.3822922472049
 20
852.8517502997912
 30
0.0
 10
851.9495605330466
 20
852.6592015694101
 30
0.0
 10
851.4315068832867
 20
852.2019422888748
 30
0.0
 10
851.0895516423539
 20
851.7345437868202
 30
0.0
 10
850.8837649772104
 20
851.3040742343151
 30
0.0
 10
850.7806349576896
 20
850.9932845691601
 30
0.0
 10
850.7190015367463
 20
850.707216981526
 30
0.0
 10
850.6868378301291
 20
850.4568402822134
 30
0.0
 10
850.6763863957018
 20
850.1861969415183
 30
0.0
 10
850.691303902202
 20
849.9295301175603
 30
0.0
 10
850.7256171279113
 20
849.6949532649422
 30
0.0
 10
850.7692672086898
 20
849.4951793836339
 30
0.0
 10
850.8282186648075
 20
849.295289134096
 30
0.0
 10
850.9063078926414
 20
849.0867035420387
 30
0.0
 10
851.0056323750206
 20
848.8745690845345
 30
0.0
 10
851.1545891486307
 20
848.6157548068642
 30
0.0
 10
851.3539656040689
 20
848.3447918754408
 30
0.0
 10
851.6798936292406
 20
848.0042369109161
 30
0.0
 10
852.1233179810886
 20
847.6803820501194
 30
0.0
 10
852.6850825540508
 20
847.4353142402385
 30
0.0
 10
853.2755846312662
 20
847.3036224763715
 30
0.0
 10
853.6759615194744
 20
847.3197133171907
 30
0.0
 10
853.8780751627484
 20
847.327836109882
 30
0.0
  0
SPLINE
  5
19A
330
1F
100
AcDbEntity
  8
0
  6
Continuous
 62
     7
370
    25
100
AcDbSpline
210
0.0
220
0.0
230
1.0
 70
     8
 71
     3
 72
    14
 73
    10
 74
     0
 42
0.000000001
 43
0.00000001
 40
0.0
 40
0.0
 40
0.0
 40
0.0
 40
0.220765348438179
 40
0.3402146168140553
 40
0.4605704991790948
 40
0.5641909618660854
 40
0.6633542991971745
 40
0.8105247403618525
 40
1.0
 40
1.0
 40
1.0
 40
1.0
 10
852.7827273767984
 20
853.766471150015
 30
0.0
 10
852.82342617232
 20
853.7159287103731
 30
0.0
 10
852.8861458211285
 20
853.6380393275632
 30
0.0
 10
852.9270872265041
 20
853.4801260315257
 30
0.0
 10
852.9264081305377
 20
853.3476208494566
 30
0.0
 10
852.8923732247179
 20
853.2261092751341
 30
0.0
 10
852.8303256693148
 20
853.1141470542855
 30
0.0
 10
852.7299193482485
 20
853.0082756736377
 30
0.0
 10
852.6439816266845
 20
852.968856271069
 30
0.0
 10
852.5956130538282
 20
852.9466697363272
 30
0.0
  0
SPLINE
  5
19B
330
1F
100
AcDbEntity
  8
0
  6
Continuous
 62
     7
370
    25
100
AcDbSpline
210
0.0
220
0.0
230
1.0
 70
     8
 71
     3
 72
    24
 73
    20
 74
     0
 42
0.000000001
 43
0.00000001
 40
0.0
 40
0.0
 40
0.0
 40
0.0
 40
0.0863790768596674
 40
0.1752542427071622
 40
0.2620842456789204
 40
0.3070649132850872
 40
0.3520190851009449
 40
0.4193200542314492
 40
0.4528774529345994
 40
0.4876252663406361
 40
0.5342920749946535
 40
0.5808562308580021
 40
0.6174647672988511
 40
0.655063019469528
 40
0.7176552952224023
 40
0.7818848654491517
 40
0.8689583501259791
 40
0.9585482528060156
 40
0.9999999999999999
 40
0.9999999999999999
 40
0.9999999999999999
 40
0.9999999999999999
 10
856.3761063545217
 20
858.2724258662713
 30
0.0
 10
856.1777666311826
 20
858.3762607809612
 30
0.0
 10
855.7753557780431
 20
858.5869311192201
 30
0.0
 10
855.1177653443885
 20
858.7130720640013
 30
0.0
 10
854.5505051431726
 20
858.7005938902842
 30
0.0
 10
854.0914579746931
 20
858.6056919263197
 30
0.0
 10
853.6814837153968
 20
858.4658576871079
 30
0.0
 10
853.2989308667555
 20
858.2627417436881
 30
0.0
 10
852.9508515706888
 20
857.9954026477667
 30
0.0
 10
852.6672004372239
 20
857.7191303276209
 30
0.0
 10
852.3868877605018
 20
857.349090400393
 30
0.0
 10
852.1812079671959
 20
856.947099469177
 30
0.0
 10
852.055385836478
 20
856.5814801838143
 30
0.0
 10
851.968492756649
 20
856.1803869500006
 30
0.0
 10
851.9404086755134
 20
855.7209813736699
 30
0.0
 10
852.0047937534206
 20
855.1588600165983
 30
0.0
 10
852.1981603624725
 20
854.5726703473713
 30
0.0
 10
852.4831978549605
 20
854.0940087370477
 30
0.0
 10
852.7107476823439
 20
853.845181439713
 30
0.0
 10
852.7827273767984
 20
853.766471150015
 30
0.0
  0
SPLINE
  5
19C
330
1F
100
AcDbEntity
  8
0
  6
Continuous
 62
     7
370
    25
100
AcDbSpline
210
0.0
220
0.0
230
1.0
 70
     8
 71
     3
 72
    14
 73
    10
 74
     0
 42
0.000000001
 43
0.00000001
 40
0.0
 40
0.0
 40
0.0
 40
0.0
 40
0.2243030424883259
 40
0.3489011866266116
 40
0.4744001356117633
 40
0.5826741857066091
 40
0.6867417687947664
 40
0.8381564871696764
 40
1.0
 40
1.0
 40
1.0
 40
1.0
 10
857.1337167812682
 20
858.6372718187363
 30
0.0
 10
857.1190712428528
 20
858.5726591677064
 30
0.0
 10
857.09629025123
 20
858.4721548215983
 30
0.0
 10
856.9945056248243
 20
858.3399694859689
 30
0.0
 10
856.8858155832737
 20
858.2576239263389
 30
0.0
 10
856.7648475734165
 20
858.2102429076624
 30
0.0
 10
856.634552519577
 20
858.1928245602331
 30
0.0
 10
856.496735818655
 20
858.2102305339481
 30
0.0
 10
856.4171988078147
 20
858.2512390127368
 30
0.0
 10
856.3761063545217
 20
858.2724258662713
 30
0.0
  0
SPLINE
  5
19D
330
1F
100
AcDbEntity
  8
0
  6
Continuous
 62
     7
370
    25
100
AcDbSpline
210
0.0
220
0.0
230
1.0
 70
     8
 71
     3
 72
    26
 73
    22
 74
     0
 42
0.000000001
 43
0.00000001
 40
0.0
 40
0.0
 40
0.0
 40
0.0
 40
0.0854261159360998
 40
0.1733276547195616
 40
0.2448517261352482
 40
0.3181224083912763
 40
0.3577740645396701
 40
0.3980844094313248
 40
0.4287682032815365
 40
0.4601978879083263
 40
0.4855692359538121
 40
0.5116681185372485
 40
0.5370453561645246
 40
0.5630880149114158
 40
0.5995557531473634
 40
0.637034587382554
 40
0.6960497304231583
 40
0.7566321175831459
 40
0.8401423063242427
 40
0.9260534647419586
 40
0.9999999999999999
 40
0.9999999999999999
 40
0.9999999999999999
 40
0.9999999999999999
 10
862.8970491838365
 20
858.6372718187362
 30
0.0
 10
862.8556276078617
 20
858.853338535508
 30
0.0
 10
862.7715841682201
 20
859.2917330109049
 30
0.0
 10
862.4830097038974
 20
859.8488439015526
 30
0.0
 10
862.1086421723801
 20
860.3203275307167
 30
0.0
 10
861.7276770712622
 20
860.642137540176
 30
0.0
 10
861.352477604844
 20
860.866178796726
 30
0.0
 10
861.0476417904603
 20
861.0015011483653
 30
0.0
 10
860.7363473354728
 20
861.0989595966417
 30
0.0
 10
860.4492825235134
 20
861.1567427239486
 30
0.0
 10
860.1642445774785
 20
861.1847534138896
 30
0.0
 10
859.8953823342539
 20
861.1861034812093
 30
0.0
 10
859.6279629374072
 20
861.1624799598225
 30
0.0
 10
859.3367849093122
 20
861.1097471595242
 30
0.0
 10
859.0282308778067
 20
861.0187592177874
 30
0.0
 10
858.6582084152071
 20
860.8597715293569
 30
0.0
 10
858.2787115219336
 20
860.6250538868888
 30
0.0
 10
857.8696411639775
 20
860.2649914138892
 30
0.0
 10
857.5097410930458
 20
859.791988668009
 30
0.0
 10
857.2421496486655
 20
859.2296898208502
 30
0.0
 10
857.1680114340583
 20
858.8246390827101
 30
0.0
 10
857.1337167812682
 20
858.6372718187363
 30
0.0
  0
SPLINE
  5
19E
330
1F
100
AcDbEntity
  8
0
  6
Continuous
 62
     7
370
    25
100
AcDbSpline
210
0.0
220
0.0
230
1.0
 70
     8
 71
     3
 72
    14
 73
    10
 74
     0
 42
0.000000001
 43
0.00000001
 40
0.0
 40
0.0
 40
0.0
 40
0.0
 40
0.2239799089306602
 40
0.3530600787850526
 40
0.4831615846560798
 40
0.5937368434044649
 40
0.6971871626482021
 40
0.8442013099711085
 40
1.0
 40
1.0
 40
1.0
 40
1.0
 10
863.6546596105832
 20
858.2724258662712
 30
0.0
 10
863.5960392579115
 20
858.2440078595033
 30
0.0
 10
863.5036358524834
 20
858.1992124858631
 30
0.0
 10
863.3365976688917
 20
858.1954872825014
 30
0.0
 10
863.2011663547864
 20
858.2300039760423
 30
0.0
 10
863.0867257739877
 20
858.2974854698779
 30
0.0
 10
862.9929066752123
 20
858.3897013115494
 30
0.0
 10
862.9227984462676
 20
858.507131128306
 30
0.0
 10
862.905796677339
 20
858.593060655523
 30
0.0
 10
862.8970491838365
 20
858.6372718187362
 30
0.0
  0
SPLINE
  5
19F
330
1F
100
AcDbEntity
  8
0
  6
Continuous
 62
     7
370
    25
100
AcDbSpline
210
0.0
220
0.0
230
1.0
 70
     8
 71
     3
 72
    25
 73
    21
 74
     0
 42
0.000000001
 43
0.00000001
 40
0.0
 40
0.0
 40
0.0
 40
0.0
 40
0.0875462653424555
 40
0.1776275929600298
 40
0.2471474788262653
 40
0.3182485058085606
 40
0.3544110039426028
 40
0.3911111694055481
 40
0.4196256508468985
 40
0.4488279610873446
 40
0.4955774367114218
 40
0.5423030312794787
 40
0.576296920445503
 40
0.6112229844817033
 40
0.6688576767939508
 40
0.7279867562248817
 40
0.813248880816099
 40
0.9009541844562668
 40
0.9502506997642257
 40
1.0
 40
1.0
 40
1.0
 40
1.0
 10
867.2480385883058
 20
853.766471150015
 30
0.0
 10
867.3941126694061
 20
853.9375598824589
 30
0.0
 10
867.6904906738611
 20
854.2846915345937
 30
0.0
 10
867.943563401142
 20
854.8641566260205
 30
0.0
 10
868.0731820228297
 20
855.4472085640106
 30
0.0
 10
868.0855761126899
 20
855.9271854364706
 30
0.0
 10
868.0315283718343
 20
856.338041514251
 30
0.0
 10
867.9575992563557
 20
856.6379678709488
 30
0.0
 10
867.8535109354739
 20
856.9246612735104
 30
0.0
 10
867.7001496585349
 20
857.2451009821092
 30
0.0
 10
867.4556841934769
 20
857.6150779085572
 30
0.0
 10
867.1453440828506
 20
857.94087087272
 30
0.0
 10
866.8495586407411
 20
858.1750848366153
 30
0.0
 10
866.5203963111817
 20
858.3804346551055
 30
0.0
 10
866.1235216233032
 20
858.554801218698
 30
0.0
 10
865.5976290472634
 20
858.6884796357893
 30
0.0
 10
864.9986876369476
 20
858.7209565615599
 30
0.0
 10
864.4413310190357
 20
858.6226450659179
 30
0.0
 10
863.9917182243687
 20
858.4614636876418
 30
0.0
 10
863.767354372682
 20
858.335630221347
 30
0.0
 10
863.6546596105832
 20
858.2724258662712
 30
0.0
  0
SPLINE
  5
1A0
330
1F
100
AcDbEntity
  8
0
  6
Continuous
 62
     7
370
    25
100
AcDbSpline
210
0.0
220
0.0
230
1.0
 70
     8
 71
     3
 72
    14
 73
    10
 74
     0
 42
0.000000001
 43
0.00000001
 40
0.0
 40
0.0
 40
0.0
 40
0.0
 40
0.2200911109485595
 40
0.3501199592092341
 40
0.4590676183976581
 40
0.5685351145661265
 40
0.6668402217390302
 40
0.7968948941937074
 40
1.0
 40
1.0
 40
1.0
 40
1.0
 10
867.4351529112758
 20
852.9466697363272
 30
0.0
 10
867.378745487411
 20
852.973313058114
 30
0.0
 10
867.2890128087148
 20
853.0156971357669
 30
0.0
 10
867.1867458410198
 20
853.1338885504917
 30
0.0
 10
867.1284731270076
 20
853.2497686417244
 30
0.0
 10
867.1025266995819
 20
853.3717544837023
 30
0.0
 10
867.1070886280197
 20
853.4994191714089
 30
0.0
 10
867.1489619326278
 20
853.6452208258031
 30
0.0
 10
867.210514269201
 20
853.7205487697516
 30
0.0
 10
867.2480385883058
 20
853.766471150015
 30
0.0
  0
SPLINE
  5
1A1
330
1F
100
AcDbEntity
  8
0
  6
Continuous
 62
     7
370
    25
100
AcDbSpline
210
0.0
220
0.0
230
1.0
 70
     8
 71
     3
 72
    27
 73
    23
 74
     0
 42
0.000000001
 43
0.00000001
 40
0.0
 40
0.0
 40
0.0
 40
0.0
 40
0.0910683471803931
 40
0.1847464164708989
 40
0.2588266946055565
 40
0.3345190598259142
 40
0.3626447427195263
 40
0.3910056482847541
 40
0.4191743039829972
 40
0.448120360697974
 40
0.4657704782447655
 40
0.4839081706433205
 40
0.5015721548764676
 40
0.5197440214872951
 40
0.5448446854435506
 40
0.5706253690117588
 40
0.6177938154944821
 40
0.6660858441031582
 40
0.7518796859636304
 40
0.8400397940083094
 40
0.9191574739584846
 40
0.9999999999999999
 40
0.9999999999999999
 40
0.9999999999999999
 40
0.9999999999999999
 10
866.1526908023557
 20
847.3278361098822
 30
0.0
 10
866.3892481487443
 20
847.3208511564281
 30
0.0
 10
866.8691418043146
 20
847.3066810835124
 30
0.0
 10
867.5047412221801
 20
847.4892326230777
 30
0.0
 10
868.058734284227
 20
847.7778657019741
 30
0.0
 10
868.4299472118939
 20
848.0799041530983
 30
0.0
 10
868.6845225732665
 20
848.3611871693664
 30
0.0
 10
868.8395203294225
 20
848.5651743245281
 30
0.0
 10
868.9860626771942
 20
848.799326041757
 30
0.0
 10
869.102304798224
 20
849.0337772725558
 30
0.0
 10
869.1890359750461
 20
849.2562068054259
 30
0.0
 10
869.2492050348912
 20
849.449113557357
 30
0.0
 10
869.2959880655471
 20
849.647231039263
 30
0.0
 10
869.3321835920577
 20
849.8679244647439
 30
0.0
 10
869.3517581460835
 20
850.1079030635699
 30
0.0
 10
869.3494712728527
 20
850.4266144554358
 30
0.0
 10
869.3034237006997
 20
850.7858429761371
 30
0.0
 10
869.1710296110331
 20
851.2690955162784
 30
0.0
 10
868.916752207638
 20
851.7910579575669
 30
0.0
 10
868.5099236359433
 20
852.2896034985125
 30
0.0
 10
868.017164537824
 20
852.6921681875359
 30
0.0
 10
867.6305464173147
 20
852.8612282302777
 30
0.0
 10
867.4351529112758
 20
852.9466697363272
 30
0.0
  0
SPLINE
  5
1A2
330
1F
100
AcDbEntity
  8
0
  6
Continuous
 62
     7
370
    25
100
AcDbSpline
210
0.0
220
0.0
230
1.0
 70
     8
 71
     3
 72
    15
 73
    11
 74
     0
 42
0.000000001
 43
0.00000001
 40
0.0
 40
0.0
 40
0.0
 40
0.0
 40
0.2150763736127623
 40
0.3413349926978211
 40
0.4465934903530034
 40
0.5524796219272401
 40
0.6449070621727223
 40
0.766214653902494
 40
0.940631656051666
 40
1.0
 40
1.0
 40
1.0
 40
1.0
 10
865.6284081199161
 20
846.6704064203798
 30
0.0
 10
865.6143784070105
 20
846.7285866821138
 30
0.0
 10
865.5921126793909
 20
846.8209211346646
 30
0.0
 10
865.6168126886521
 20
846.9699856681383
 30
0.0
 10
865.6666041116868
 20
847.0863388095004
 30
0.0
 10
865.7411032406353
 20
847.1830578470505
 30
0.0
 10
865.8380806104335
 20
847.2607167560598
 30
0.0
 10
865.9632803540526
 20
847.3183058473643
 30
0.0
 10
866.0721295336177
 20
847.3336126937328
 30
0.0
 10
866.1363758478667
 20
847.3290059611531
 30
0.0
 10
866.1526908023557
 20
847.3278361098822
 30
0.0
  0
SPLINE
  5
1A3
330
1F
100
AcDbEntity
  8
0
  6
Continuous
 62
     7
370
    25
100
AcDbSpline
210
0.0
220
0.0
230
1.0
 70
     8
 71
     3
 72
    26
 73
    22
 74
     0
 42
0.000000001
 43
0.00000001
 40
0.0
 40
0.0
 40
0.0
 40
0.0
 40
0.0912035599485179
 40
0.1849670362499738
 40
0.2785634207445331
 40
0.3265394520589691
 40
0.3749439889046064
 40
0.4231405593180605
 40
0.4430841889857804
 40
0.4634373414447684
 40
0.4878409265543515
 40
0.5123587387507043
 40
0.5280992736585401
 40
0.5442699367721684
 40
0.5755700365325771
 40
0.6075525397506848
 40
0.6834424014570646
 40
0.7611024134338046
 40
0.8469107031299091
 40
0.9346000221708253
 40
1.0
 40
1.0
 40
1.0
 40
1.0
 10
860.4358250498292
 20
844.1697902077761
 30
0.0
 10
860.5834480038352
 20
843.9743264820833
 30
0.0
 10
860.8828374169278
 20
843.5779127230569
 30
0.0
 10
861.4758556831733
 20
843.1676290776086
 30
0.0
 10
862.0338412347237
 20
842.943993464204
 30
0.0
 10
862.5216091667163
 20
842.8510771390802
 30
0.0
 10
862.914891305453
 20
842.8284405377565
 30
0.0
 10
863.2590236489795
 20
842.8562069950168
 30
0.0
 10
863.5464240841291
 20
842.9132268424079
 30
0.0
 10
863.7710623545383
 20
842.9747030362396
 30
0.0
 10
864.0304890941385
 20
843.070667761023
 30
0.0
 10
864.2686704492116
 20
843.1889032646409
 30
0.0
 10
864.4518048298562
 20
843.2994364133883
 30
0.0
 10
864.6361094702712
 20
843.4263558230084
 30
0.0
 10
864.8333472877661
 20
843.5887377089888
 30
0.0
 10
865.1214124640092
 20
843.8782324175526
 30
0.0
 10
865.4116853160665
 20
844.2829115608739
 30
0.0
 10
865.663143333166
 20
844.8447822551154
 30
0.0
 10
865.792570502067
 20
845.4736433806986
 30
0.0
 10
865.7868941990158
 20
846.0990415708405
 30
0.0
 10
865.6758474556623
 20
846.499380869841
 30
0.0
 10
865.6284081199161
 20
846.6704064203798
 30
0.0
  0
SPLINE
  5
1A4
330
1F
100
AcDbEntity
  8
0
  6
Continuous
 62
     7
370
    25
100
AcDbSpline
210
0.0
220
0.0
230
1.0
 70
     8
 71
     3
 72
    15
 73
    11
 74
     0
 42
0.000000001
 43
0.00000001
 40
0.0
 40
0.0
 40
0.0
 40
0.0
 40
0.2129294053202189
 40
0.3333107283175603
 40
0.4345062010026767
 40
0.5362836886506531
 40
0.6256367151020122
 40
0.7456368547566248
 40
0.921192717688107
 40
1.0
 40
1.0
 40
1.0
 40
1.0
 10
859.5949409152751
 20
844.1697902077761
 30
0.0
 10
859.6314048228834
 20
844.2168229862218
 30
0.0
 10
859.6884838889902
 20
844.2904461178647
 30
0.0
 10
859.8181124007856
 20
844.3637289299058
 30
0.0
 10
859.9362710108621
 20
844.3978309646072
 30
0.0
 10
860.0550171287701
 20
844.4020421834031
 30
0.0
 10
860.1743444694841
 20
844.3782157497154
 30
0.0
 10
860.2982237415774
 20
844.3202393222266
 30
0.0
 10
860.3842673005339
 20
844.2436135054214
 30
0.0
 10
860.4236297114437
 20
844.1872521821219
 30
0.0
 10
860.4358250498292
 20
844.1697902077761
 30
0.0
  0
SPLINE
  5
1A5
330
1F
100
AcDbEntity
  8
0
  6
Continuous
 62
     7
370
    25
100
AcDbSpline
210
0.0
220
0.0
230
1.0
 70
     8
 71
     3
 72
    25
 73
    21
 74
     0
 42
0.000000001
 43
0.00000001
 40
0.0
 40
0.0
 40
0.0
 40
0.0
 40
0.0897174329458047
 40
0.1819517780464734
 40
0.2741564286250114
 40
0.321334700914469
 40
0.3688705103640609
 40
0.4236588038487549
 40
0.4510361250048939
 40
0.4792430363670709
 40
0.5037913906395243
 40
0.5284414423184046
 40
0.5611619013115611
 40
0.6013318478780325
 40
0.642625619394518
 40
0.7286913895866827
 40
0.8169611916237413
 40
0.9072669371779625
 40
0.9534664517756425
 40
1.0
 40
1.0
 40
1.0
 40
1.0
 10
854.4023578451879
 20
846.6704064203792
 30
0.0
 10
854.3419735375194
 20
846.435183745048
 30
0.0
 10
854.219510914753
 20
845.9581395117468
 30
0.0
 10
854.2654974538137
 20
845.2470539398767
 30
0.0
 10
854.4320311328012
 20
844.679932614869
 30
0.0
 10
854.6529170902472
 20
844.2496740045855
 30
0.0
 10
854.8785032966204
 20
843.9207826153792
 30
0.0
 10
855.1285027919698
 20
843.6482788262416
 30
0.0
 10
855.3978618501166
 20
843.422837891642
 30
0.0
 10
855.6329121974626
 20
843.261383569858
 30
0.0
 10
855.9058643720755
 20
843.1133503199526
 30
0.0
 10
856.2164828132146
 20
842.9858578674907
 30
0.0
 10
856.559093983982
 20
842.8910923823328
 30
0.0
 10
856.9126076802451
 20
842.840196134775
 30
0.0
 10
857.3880175538155
 20
842.8304930852115
 30
0.0
 10
857.9471446828077
 20
842.9218135182776
 30
0.0
 10
858.5736818623163
 20
843.1777094240103
 30
0.0
 10
859.0440682757278
 20
843.5169931499751
 30
0.0
 10
859.3796613071955
 20
843.8617477934018
 30
0.0
 10
859.5230089284978
 20
844.0668631211132
 30
0.0
 10
859.5949409152751
 20
844.1697902077761
 30
0.0
  0
SPLINE
  5
1A6
330
1F
100
AcDbEntity
  8
0
  6
Continuous
 62
     7
370
    25
100
AcDbSpline
210
0.0
220
0.0
230
1.0
 70
     8
 71
     3
 72
    15
 73
    11
 74
     0
 42
0.000000001
 43
0.00000001
 40
0.0
 40
0.0
 40
0.0
 40
0.0
 40
0.215576770593262
 40
0.3329005538677274
 40
0.4328760582231185
 40
0.5332634977247642
 40
0.6250838127945316
 40
0.7535547096889093
 40
0.942133837889228
 40
1.0
 40
1.0
 40
1.0
 40
1.0
 10
853.8780751627484
 20
847.327836109882
 30
0.0
 10
853.9399049240163
 20
847.328487630337
 30
0.0
 10
854.0353844217144
 20
847.3294937290914
 30
0.0
 10
854.1753722895644
 20
847.2706523306634
 30
0.0
 10
854.2737983980999
 20
847.198692836404
 30
0.0
 10
854.3491952332591
 20
847.1087286015169
 30
0.0
 10
854.4046241172343
 20
846.9991467969807
 30
0.0
 10
854.4356837319683
 20
846.8607642699151
 30
0.0
 10
854.4262771136966
 20
846.7485108468967
 30
0.0
 10
854.4069061993758
 20
846.6852583208598
 30
0.0
 10
854.4023578451879
 20
846.6704064203793
 30
0.0
  0
SPLINE
  5
1A7
330
1F
100
AcDbEntity
  8
0
  6
Continuous
 62
     7
370
    25
100
AcDbSpline
210
0.0
220
0.0
230
1.0
 70
     8
 71
     3
 72
    28
 73
    24
 74
     0
 42
0.000000001
 43
0.00000001
 40
0.0
 40
0.0
 40
0.0
 40
0.0
 40
0.0885577904272324
 40
0.1796438193735523
 40
0.2695757108504275
 40
0.3157367678527895
 40
0.3623220932277419
 40
0.3904539690316902
 40
0.4187952486339998
 40
0.4469625905235297
 40
0.4757849359529039
 40
0.4937651259402173
 40
0.5122126959858457
 40
0.5302154725933199
 40
0.5487865500347955
 40
0.5721716297902788
 40
0.5962043255368847
 40
0.6385840534980289
 40
0.6819817284823882
 40
0.762882889061184
 40
0.8459448991942593
 40
0.9222316806844274
 40
1.0
 40
1.0
 40
1.0
 40
1.0
 10
867.4351529112595
 20
581.7176206026421
 30
0.0
 10
867.6484737178828
 20
581.8125400391782
 30
0.0
 10
868.0812054320411
 20
582.0050887695594
 30
0.0
 10
868.5992590818009
 20
582.4623480500946
 30
0.0
 10
868.941214322734
 20
582.9297465521493
 30
0.0
 10
869.1470009878772
 20
583.3602161046543
 30
0.0
 10
869.2501310073983
 20
583.6710057698093
 30
0.0
 10
869.3117644283415
 20
583.9570733574433
 30
0.0
 10
869.3439281349588
 20
584.2074500567561
 30
0.0
 10
869.3543795693859
 20
584.4780933974511
 30
0.0
 10
869.3394620628858
 20
584.7347602214091
 30
0.0
 10
869.3051488371766
 20
584.9693370740272
 30
0.0
 10
869.2614987563979
 20
585.1691109553356
 30
0.0
 10
869.2025473002801
 20
585.3690012048735
 30
0.0
 10
869.1244580724466
 20
585.5775867969307
 30
0.0
 10
869.0251335900673
 20
585.7897212544349
 30
0.0
 10
868.8761768164568
 20
586.0485355321053
 30
0.0
 10
868.676800361019
 20
586.3194984635287
 30
0.0
 10
868.3508723358473
 20
586.6600534280533
 30
0.0
 10
867.9074479839991
 20
586.9839082888501
 30
0.0
 10
867.3456834110374
 20
587.2289760987309
 30
0.0
 10
866.7551813338217
 20
587.3606678625978
 30
0.0
 10
866.3548044456132
 20
587.3445770217787
 30
0.0
 10
866.1526908023394
 20
587.3364542290874
 30
0.0
  0
SPLINE
  5
1A8
330
1F
100
AcDbEntity
  8
0
  6
Continuous
 62
     7
370
    25
100
AcDbSpline
210
0.0
220
0.0
230
1.0
 70
     8
 71
     3
 72
    14
 73
    10
 74
     0
 42
0.000000001
 43
0.00000001
 40
0.0
 40
0.0
 40
0.0
 40
0.0
 40
0.220765348438179
 40
0.3402146168140553
 40
0.4605704991790948
 40
0.5641909618660854
 40
0.6633542991971745
 40
0.8105247403618525
 40
1.0
 40
1.0
 40
1.0
 40
1.0
 10
867.2480385882894
 20
580.8978191889543
 30
0.0
 10
867.2073397927679
 20
580.9483616285963
 30
0.0
 10
867.1446201439594
 20
581.0262510114062
 30
0.0
 10
867.1036787385835
 20
581.1841643074437
 30
0.0
 10
867.1043578345506
 20
581.3166694895128
 30
0.0
 10
867.1383927403698
 20
581.4381810638351
 30
0.0
 10
867.2004402957733
 20
581.5501432846839
 30
0.0
 10
867.3008466168392
 20
581.6560146653316
 30
0.0
 10
867.3867843384033
 20
581.6954340679005
 30
0.0
 10
867.4351529112596
 20
581.7176206026421
 30
0.0
  0
SPLINE
  5
1A9
330
1F
100
AcDbEntity
  8
0
  6
Continuous
 62
     7
370
    25
100
AcDbSpline
210
0.0
220
0.0
230
1.0
 70
     8
 71
     3
 72
    24
 73
    20
 74
     0
 42
0.000000001
 43
0.00000001
 40
0.0
 40
0.0
 40
0.0
 40
0.0
 40
0.0863790768596675
 40
0.1752542427071623
 40
0.2620842456789206
 40
0.3070649132850874
 40
0.3520190851009445
 40
0.4193200542314489
 40
0.452877452934599
 40
0.4876252663406359
 40
0.5342920749946533
 40
0.5808562308580019
 40
0.617464767298851
 40
0.6550630194695279
 40
0.7176552952224022
 40
0.7818848654491517
 40
0.8689583501259791
 40
0.9585482528060157
 40
1.0
 40
1.0
 40
1.0
 40
1.0
 10
863.6546596105661
 20
576.3918644726981
 30
0.0
 10
863.852999333905
 20
576.2880295580084
 30
0.0
 10
864.2554101870445
 20
576.0773592197494
 30
0.0
 10
864.9130006206992
 20
575.951218274968
 30
0.0
 10
865.4802608219153
 20
575.9636964486853
 30
0.0
 10
865.9393079903949
 20
576.0585984126499
 30
0.0
 10
866.349282249691
 20
576.1984326518616
 30
0.0
 10
866.7318350983323
 20
576.4015485952812
 30
0.0
 10
867.0799143943989
 20
576.6688876912028
 30
0.0
 10
867.3635655278639
 20
576.9451600113485
 30
0.0
 10
867.6438782045859
 20
577.3151999385765
 30
0.0
 10
867.8495579978918
 20
577.7171908697924
 30
0.0
 10
867.97538012861
 20
578.0828101551551
 30
0.0
 10
868.0622732084389
 20
578.4839033889687
 30
0.0
 10
868.0903572895743
 20
578.9433089652995
 30
0.0
 10
868.0259722116671
 20
579.5054303223711
 30
0.0
 10
867.8326056026153
 20
580.0916199915981
 30
0.0
 10
867.5475681101275
 20
580.5702816019216
 30
0.0
 10
867.3200182827438
 20
580.8191088992563
 30
0.0
 10
867.2480385882894
 20
580.8978191889543
 30
0.0
  0
SPLINE
  5
1AA
330
1F
100
AcDbEntity
  8
0
  6
Continuous
 62
     7
370
    25
100
AcDbSpline
210
0.0
220
0.0
230
1.0
 70
     8
 71
     3
 72
    14
 73
    10
 74
     0
 42
0.000000001
 43
0.00000001
 40
0.0
 40
0.0
 40
0.0
 40
0.0
 40
0.2243030424883259
 40
0.3489011866266116
 40
0.4744001356117633
 40
0.5826741857066091
 40
0.6867417687947664
 40
0.8381564871696764
 40
1.0
 40
1.0
 40
1.0
 40
1.0
 10
862.8970491838195
 20
576.0270185202331
 30
0.0
 10
862.9116947222351
 20
576.0916311712629
 30
0.0
 10
862.934475713858
 20
576.1921355173711
 30
0.0
 10
863.0362603402635
 20
576.3243208530006
 30
0.0
 10
863.1449503818139
 20
576.4066664126306
 30
0.0
 10
863.2659183916713
 20
576.4540474313069
 30
0.0
 10
863.3962134455107
 20
576.4714657787363
 30
0.0
 10
863.5340301464328
 20
576.4540598050213
 30
0.0
 10
863.6135671572732
 20
576.4130513262326
 30
0.0
 10
863.6546596105661
 20
576.3918644726981
 30
0.0
  0
SPLINE
  5
1AB
330
1F
100
AcDbEntity
  8
0
  6
Continuous
 62
     7
370
    25
100
AcDbSpline
210
0.0
220
0.0
230
1.0
 70
     8
 71
     3
 72
    26
 73
    22
 74
     0
 42
0.000000001
 43
0.00000001
 40
0.0
 40
0.0
 40
0.0
 40
0.0
 40
0.0854261159360998
 40
0.1733276547195616
 40
0.2448517261352482
 40
0.3181224083912763
 40
0.3577740645396701
 40
0.3980844094313248
 40
0.4287682032815365
 40
0.4601978879083263
 40
0.4855692359538121
 40
0.5116681185372485
 40
0.5370453561645246
 40
0.5630880149114158
 40
0.5995557531473634
 40
0.637034587382554
 40
0.6960497304231583
 40
0.7566321175831459
 40
0.8401423063242427
 40
0.9260534647419586
 40
0.9999999999999999
 40
0.9999999999999999
 40
0.9999999999999999
 40
0.9999999999999999
 10
857.1337167812512
 20
576.0270185202332
 30
0.0
 10
857.1751383572259
 20
575.8109518034615
 30
0.0
 10
857.2591817968676
 20
575.3725573280647
 30
0.0
 10
857.5477562611903
 20
574.8154464374168
 30
0.0
 10
857.9221237927076
 20
574.3439628082527
 30
0.0
 10
858.3030888938254
 20
574.0221527987934
 30
0.0
 10
858.678288360244
 20
573.7981115422434
 30
0.0
 10
858.9831241746276
 20
573.6627891906041
 30
0.0
 10
859.2944186296145
 20
573.5653307423278
 30
0.0
 10
859.5814834415746
 20
573.5075476150208
 30
0.0
 10
859.866521387609
 20
573.4795369250799
 30
0.0
 10
860.1353836308336
 20
573.4781868577602
 30
0.0
 10
860.4028030276809
 20
573.501810379147
 30
0.0
 10
860.6939810557753
 20
573.5545431794453
 30
0.0
 10
861.002535087281
 20
573.645531121182
 30
0.0
 10
861.3725575498809
 20
573.8045188096125
 30
0.0
 10
861.7520544431542
 20
574.0392364520806
 30
0.0
 10
862.1611248011102
 20
574.3992989250802
 30
0.0
 10
862.5210248720416
 20
574.8723016709605
 30
0.0
 10
862.7886163164222
 20
575.4346005181192
 30
0.0
 10
862.8627545310295
 20
575.8396512562593
 30
0.0
 10
862.8970491838195
 20
576.0270185202331
 30
0.0
  0
SPLINE
  5
1AC
330
1F
100
AcDbEntity
  8
0
  6
Continuous
 62
     7
370
    25
100
AcDbSpline
210
0.0
220
0.0
230
1.0
 70
     8
 71
     3
 72
    14
 73
    10
 74
     0
 42
0.000000001
 43
0.00000001
 40
0.0
 40
0.0
 40
0.0
 40
0.0
 40
0.2239799089306602
 40
0.3530600787850526
 40
0.4831615846560798
 40
0.5937368434044649
 40
0.6971871626482021
 40
0.8442013099711085
 40
1.0
 40
1.0
 40
1.0
 40
1.0
 10
856.3761063545047
 20
576.3918644726982
 30
0.0
 10
856.4347267071762
 20
576.4202824794662
 30
0.0
 10
856.527130112604
 20
576.4650778531063
 30
0.0
 10
856.6941682961965
 20
576.468803056468
 30
0.0
 10
856.8295996103011
 20
576.4342863629271
 30
0.0
 10
856.9440401911
 20
576.3668048690915
 30
0.0
 10
857.0378592898752
 20
576.2745890274201
 30
0.0
 10
857.1079675188204
 20
576.1571592106635
 30
0.0
 10
857.1249692877486
 20
576.0712296834464
 30
0.0
 10
857.1337167812512
 20
576.0270185202332
 30
0.0
  0
SPLINE
  5
1AD
330
1F
100
AcDbEntity
  8
0
  6
Continuous
 62
     7
370
    25
100
AcDbSpline
210
0.0
220
0.0
230
1.0
 70
     8
 71
     3
 72
    25
 73
    21
 74
     0
 42
0.000000001
 43
0.00000001
 40
0.0
 40
0.0
 40
0.0
 40
0.0
 40
0.0875462653424555
 40
0.1776275929600298
 40
0.2471474788262652
 40
0.3182485058085605
 40
0.3544110039426027
 40
0.391111169405548
 40
0.4196256508468983
 40
0.4488279610873445
 40
0.4955774367114216
 40
0.5423030312794784
 40
0.5762969204455028
 40
0.6112229844817031
 40
0.6688576767939506
 40
0.727986756224882
 40
0.8132488808160993
 40
0.900954184456267
 40
0.9502506997642257
 40
1.0
 40
1.0
 40
1.0
 40
1.0
 10
852.7827273767818
 20
580.8978191889544
 30
0.0
 10
852.6366532956816
 20
580.7267304565106
 30
0.0
 10
852.3402752912269
 20
580.3795988043757
 30
0.0
 10
852.0872025639458
 20
579.800133712949
 30
0.0
 10
851.9575839422581
 20
579.217081774959
 30
0.0
 10
851.945189852398
 20
578.737104902499
 30
0.0
 10
851.9992375932534
 20
578.3262488247184
 30
0.0
 10
852.0731667087323
 20
578.0263224680205
 30
0.0
 10
852.1772550296139
 20
577.739629065459
 30
0.0
 10
852.3306163065528
 20
577.4191893568602
 30
0.0
 10
852.575081771611
 20
577.0492124304124
 30
0.0
 10
852.8854218822373
 20
576.7234194662494
 30
0.0
 10
853.1812073243467
 20
576.4892055023541
 30
0.0
 10
853.510369653906
 20
576.283855683864
 30
0.0
 10
853.9072443417847
 20
576.1094891202714
 30
0.0
 10
854.4331369178245
 20
575.9758107031802
 30
0.0
 10
855.0320783281401
 20
575.9433337774095
 30
0.0
 10
855.5894349460519
 20
576.0416452730516
 30
0.0
 10
856.0390477407193
 20
576.2028266513277
 30
0.0
 10
856.2634115924056
 20
576.3286601176225
 30
0.0
 10
856.3761063545047
 20
576.3918644726982
 30
0.0
  0
SPLINE
  5
1AE
330
1F
100
AcDbEntity
  8
0
  6
Continuous
 62
     7
370
    25
100
AcDbSpline
210
0.0
220
0.0
230
1.0
 70
     8
 71
     3
 72
    14
 73
    10
 74
     0
 42
0.000000001
 43
0.00000001
 40
0.0
 40
0.0
 40
0.0
 40
0.0
 40
0.2200911109485595
 40
0.3501199592092341
 40
0.4590676183976581
 40
0.5685351145661265
 40
0.6668402217390302
 40
0.7968948941937074
 40
1.0
 40
1.0
 40
1.0
 40
1.0
 10
852.5956130538119
 20
581.7176206026422
 30
0.0
 10
852.6520204776766
 20
581.6909772808555
 30
0.0
 10
852.7417531563727
 20
581.6485932032026
 30
0.0
 10
852.844020124068
 20
581.5304017884777
 30
0.0
 10
852.9022928380799
 20
581.4145216972452
 30
0.0
 10
852.9282392655058
 20
581.2925358552671
 30
0.0
 10
852.9236773370683
 20
581.1648711675606
 30
0.0
 10
852.8818040324599
 20
581.0190695131663
 30
0.0
 10
852.8202516958866
 20
580.9437415692179
 30
0.0
 10
852.7827273767818
 20
580.8978191889544
 30
0.0
  0
SPLINE
  5
1AF
330
1F
100
AcDbEntity
  8
0
  6
Continuous
 62
     7
370
    25
100
AcDbSpline
210
0.0
220
0.0
230
1.0
 70
     8
 71
     3
 72
    27
 73
    23
 74
     0
 42
0.000000001
 43
0.00000001
 40
0.0
 40
0.0
 40
0.0
 40
0.0
 40
0.0910683471803928
 40
0.1847464164708984
 40
0.2588266946055559
 40
0.3345190598259135
 40
0.3626447427195279
 40
0.3910056482847556
 40
0.4191743039829986
 40
0.4481203606979753
 40
0.4657704782447668
 40
0.4839081706433218
 40
0.5015721548764689
 40
0.5197440214872963
 40
0.5448446854435518
 40
0.5706253690117599
 40
0.6177938154944831
 40
0.666085844103159
 40
0.7518796859636311
 40
0.8400397940083099
 40
0.9191574739584848
 40
1.0
 40
1.0
 40
1.0
 40
1.0
 10
853.8780751627323
 20
587.3364542290873
 30
0.0
 10
853.6415178163437
 20
587.3434391825414
 30
0.0
 10
853.1616241607732
 20
587.3576092554571
 30
0.0
 10
852.5260247429078
 20
587.175057715892
 30
0.0
 10
851.9720316808607
 20
586.8864246369953
 30
0.0
 10
851.600818753194
 20
586.5843861858712
 30
0.0
 10
851.3462433918212
 20
586.3031031696031
 30
0.0
 10
851.1912456356655
 20
586.0991160144414
 30
0.0
 10
851.0447032878934
 20
585.8649642972124
 30
0.0
 10
850.9284611668638
 20
585.6305130664138
 30
0.0
 10
850.8417299900417
 20
585.4080835335435
 30
0.0
 10
850.7815609301966
 20
585.2151767816123
 30
0.0
 10
850.7347778995405
 20
585.0170592997065
 30
0.0
 10
850.69858237303
 20
584.7963658742257
 30
0.0
 10
850.679007819004
 20
584.5563872753996
 30
0.0
 10
850.6812946922352
 20
584.2376758835337
 30
0.0
 10
850.7273422643882
 20
583.8784473628324
 30
0.0
 10
850.8597363540546
 20
583.3951948226911
 30
0.0
 10
851.1140137574499
 20
582.8732323814025
 30
0.0
 10
851.5208423291442
 20
582.3746868404569
 30
0.0
 10
852.0136014272638
 20
581.9721221514336
 30
0.0
 10
852.4002195477731
 20
581.8030621086918
 30
0.0
 10
852.5956130538119
 20
581.7176206026422
 30
0.0
  0
SPLINE
  5
1B0
330
1F
100
AcDbEntity
  8
0
  6
Continuous
 62
     7
370
    25
100
AcDbSpline
210
0.0
220
0.0
230
1.0
 70
     8
 71
     3
 72
    15
 73
    11
 74
     0
 42
0.000000001
 43
0.00000001
 40
0.0
 40
0.0
 40
0.0
 40
0.0
 40
0.2150763736127623
 40
0.3413349926978211
 40
0.4465934903530034
 40
0.5524796219272401
 40
0.6449070621727223
 40
0.766214653902494
 40
0.940631656051666
 40
1.0
 40
1.0
 40
1.0
 40
1.0
 10
854.4023578451718
 20
587.9938839185897
 30
0.0
 10
854.4163875580774
 20
587.9357036568557
 30
0.0
 10
854.4386532856971
 20
587.8433692043048
 30
0.0
 10
854.4139532764357
 20
587.6943046708312
 30
0.0
 10
854.3641618534012
 20
587.577951529469
 30
0.0
 10
854.2896627244526
 20
587.4812324919191
 30
0.0
 10
854.1926853546544
 20
587.4035735829096
 30
0.0
 10
854.0674856110353
 20
587.345984491605
 30
0.0
 10
853.9586364314699
 20
587.3306776452366
 30
0.0
 10
853.8943901172211
 20
587.3352843778163
 30
0.0
 10
853.8780751627323
 20
587.3364542290873
 30
0.0
  0
SPLINE
  5
1B1
330
1F
100
AcDbEntity
  8
0
  6
Continuous
 62
     7
370
    25
100
AcDbSpline
210
0.0
220
0.0
230
1.0
 70
     8
 71
     3
 72
    26
 73
    22
 74
     0
 42
0.000000001
 43
0.00000001
 40
0.0
 40
0.0
 40
0.0
 40
0.0
 40
0.0912035599485179
 40
0.1849670362499738
 40
0.2785634207445331
 40
0.3265394520589691
 40
0.3749439889046064
 40
0.4231405593180605
 40
0.4430841889857804
 40
0.4634373414447684
 40
0.4878409265543515
 40
0.5123587387507043
 40
0.5280992736585401
 40
0.5442699367721684
 40
0.5755700365325771
 40
0.6075525397506848
 40
0.6834424014570646
 40
0.7611024134338046
 40
0.8469107031299091
 40
0.9346000221708253
 40
1.0
 40
1.0
 40
1.0
 40
1.0
 10
859.5949409152583
 20
590.4945001311933
 30
0.0
 10
859.4473179612526
 20
590.6899638568862
 30
0.0
 10
859.1479285481598
 20
591.0863776159125
 30
0.0
 10
858.5549102819147
 20
591.4966612613608
 30
0.0
 10
857.9969247303643
 20
591.7202968747654
 30
0.0
 10
857.5091567983711
 20
591.8132131998892
 30
0.0
 10
857.1158746596349
 20
591.835849801213
 30
0.0
 10
856.7717423161083
 20
591.8080833439526
 30
0.0
 10
856.4843418809589
 20
591.7510634965615
 30
0.0
 10
856.2597036105493
 20
591.6895873027299
 30
0.0
 10
856.0002768709493
 20
591.5936225779466
 30
0.0
 10
855.7620955158762
 20
591.4753870743285
 30
0.0
 10
855.5789611352316
 20
591.3648539255811
 30
0.0
 10
855.3946564948167
 20
591.237934515961
 30
0.0
 10
855.1974186773217
 20
591.0755526299807
 30
0.0
 10
854.9093535010787
 20
590.786057921417
 30
0.0
 10
854.6190806490212
 20
590.3813787780955
 30
0.0
 10
854.3676226319219
 20
589.819508083854
 30
0.0
 10
854.238195463021
 20
589.1906469582708
 30
0.0
 10
854.2438717660718
 20
588.5652487681289
 30
0.0
 10
854.3549185094257
 20
588.1649094691284
 30
0.0
 10
854.4023578451718
 20
587.9938839185897
 30
0.0
  0
SPLINE
  5
1B2
330
1F
100
AcDbEntity
  8
0
  6
Continuous
 62
     7
370
    25
100
AcDbSpline
210
0.0
220
0.0
230
1.0
 70
     8
 71
     3
 72
    15
 73
    11
 74
     0
 42
0.000000001
 43
0.00000001
 40
0.0
 40
0.0
 40
0.0
 40
0.0
 40
0.2129294053202189
 40
0.3333107283175603
 40
0.4345062010026767
 40
0.5362836886506531
 40
0.6256367151020122
 40
0.7456368547566248
 40
0.921192717688107
 40
1.0
 40
1.0
 40
1.0
 40
1.0
 10
860.4358250498128
 20
590.4945001311933
 30
0.0
 10
860.3993611422045
 20
590.4474673527476
 30
0.0
 10
860.3422820760978
 20
590.3738442211048
 30
0.0
 10
860.2126535643023
 20
590.3005614090636
 30
0.0
 10
860.0944949542258
 20
590.2664593743623
 30
0.0
 10
859.9757488363174
 20
590.2622481555663
 30
0.0
 10
859.8564214956037
 20
590.2860745892541
 30
0.0
 10
859.73254222351
 20
590.3440510167429
 30
0.0
 10
859.6464986645539
 20
590.420676833548
 30
0.0
 10
859.607136253644
 20
590.4770381568475
 30
0.0
 10
859.5949409152586
 20
590.4945001311933
 30
0.0
  0
SPLINE
  5
1B3
330
1F
100
AcDbEntity
  8
0
  6
Continuous
 62
     7
370
    25
100
AcDbSpline
210
0.0
220
0.0
230
1.0
 70
     8
 71
     3
 72
    25
 73
    21
 74
     0
 42
0.000000001
 43
0.00000001
 40
0.0
 40
0.0
 40
0.0
 40
0.0
 40
0.0897174329458046
 40
0.1819517780464732
 40
0.2741564286250111
 40
0.3213347009144699
 40
0.3688705103640618
 40
0.4236588038487557
 40
0.4510361250048946
 40
0.4792430363670717
 40
0.5037913906395249
 40
0.5284414423184053
 40
0.5611619013115617
 40
0.6013318478780331
 40
0.6426256193945186
 40
0.728691389586683
 40
0.8169611916237415
 40
0.9072669371779627
 40
0.9534664517756426
 40
1.0
 40
1.0
 40
1.0
 40
1.0
 10
865.6284081199001
 20
587.9938839185901
 30
0.0
 10
865.6887924275687
 20
588.2291065939214
 30
0.0
 10
865.8112550503349
 20
588.7061508272226
 30
0.0
 10
865.7652685112744
 20
589.4172363990926
 30
0.0
 10
865.5987348322866
 20
589.9843577241003
 30
0.0
 10
865.3778488748407
 20
590.4146163343839
 30
0.0
 10
865.1522626684674
 20
590.7435077235904
 30
0.0
 10
864.9022631731176
 20
591.0160115127278
 30
0.0
 10
864.6329041149717
 20
591.2414524473274
 30
0.0
 10
864.3978537676253
 20
591.4029067691115
 30
0.0
 10
864.1249015930125
 20
591.5509400190168
 30
0.0
 10
863.8142831518732
 20
591.6784324714787
 30
0.0
 10
863.4716719811056
 20
591.7731979566366
 30
0.0
 10
863.1181582848429
 20
591.8240942041944
 30
0.0
 10
862.642748411272
 20
591.8337972537579
 30
0.0
 10
862.0836212822805
 20
591.7424768206918
 30
0.0
 10
861.4570841027714
 20
591.4865809149591
 30
0.0
 10
860.9866976893602
 20
591.1472971889945
 30
0.0
 10
860.6511046578925
 20
590.8025425455676
 30
0.0
 10
860.50775703659
 20
590.5974272178562
 30
0.0
 10
860.4358250498128
 20
590.4945001311933
 30
0.0
  0
SPLINE
  5
1B4
330
1F
100
AcDbEntity
  8
0
  6
Continuous
 62
     7
370
    25
100
AcDbSpline
210
0.0
220
0.0
230
1.0
 70
     8
 71
     3
 72
    15
 73
    11
 74
     0
 42
0.000000001
 43
0.00000001
 40
0.0
 40
0.0
 40
0.0
 40
0.0
 40
0.215576770593262
 40
0.3329005538677274
 40
0.4328760582231185
 40
0.5332634977247642
 40
0.6250838127945316
 40
0.7535547096889093
 40
0.942133837889228
 40
1.0
 40
1.0
 40
1.0
 40
1.0
 10
866.1526908023395
 20
587.3364542290875
 30
0.0
 10
866.0908610410714
 20
587.3358027086324
 30
0.0
 10
865.9953815433732
 20
587.3347966098781
 30
0.0
 10
865.8553936755235
 20
587.393638008306
 30
0.0
 10
865.7569675669882
 20
587.4655975025653
 30
0.0
 10
865.6815707318285
 20
587.5555617374524
 30
0.0
 10
865.6261418478539
 20
587.6651435419889
 30
0.0
 10
865.5950822331193
 20
587.8035260690543
 30
0.0
 10
865.6044888513917
 20
587.9157794920728
 30
0.0
 10
865.6238597657119
 20
587.9790320181097
 30
0.0
 10
865.6284081199001
 20
587.9938839185901
 30
0.0
  0
SPLINE
  5
1B5
330
1F
100
AcDbEntity
  8
0
  6
Continuous
 62
     7
370
    25
100
AcDbSpline
210
0.0
220
0.0
230
1.0
 70
     8
 71
     3
 72
    28
 73
    24
 74
     0
 42
0.000000001
 43
0.00000001
 40
0.0
 40
0.0
 40
0.0
 40
0.0
 40
0.0885577904272321
 40
0.1796438193735517
 40
0.2695757108504267
 40
0.3157367678527885
 40
0.3623220932277408
 40
0.3904539690316889
 40
0.4187952486339985
 40
0.4469625905235283
 40
0.4757849359529024
 40
0.4937651259402158
 40
0.5122126959858442
 40
0.5302154725933184
 40
0.5487865500347937
 40
0.572171629790277
 40
0.5962043255368829
 40
0.6385840534980269
 40
0.6819817284823861
 40
0.7628828890611816
 40
0.8459448991942597
 40
0.9222316806844277
 40
1.0
 40
1.0
 40
1.0
 40
1.0
 10
1652.595613053828
 20
852.9466697363275
 30
0.0
 10
1652.382292247205
 20
852.8517502997913
 30
0.0
 10
1651.949560533046
 20
852.6592015694102
 30
0.0
 10
1651.431506883287
 20
852.2019422888749
 30
0.0
 10
1651.089551642353
 20
851.7345437868203
 30
0.0
 10
1650.88376497721
 20
851.3040742343152
 30
0.0
 10
1650.780634957689
 20
850.9932845691602
 30
0.0
 10
1650.719001536746
 20
850.7072169815264
 30
0.0
 10
1650.686837830129
 20
850.4568402822135
 30
0.0
 10
1650.676386395702
 20
850.1861969415185
 30
0.0
 10
1650.691303902202
 20
849.9295301175605
 30
0.0
 10
1650.725617127911
 20
849.6949532649425
 30
0.0
 10
1650.76926720869
 20
849.4951793836341
 30
0.0
 10
1650.828218664807
 20
849.2952891340962
 30
0.0
 10
1650.906307892641
 20
849.0867035420388
 30
0.0
 10
1651.00563237502
 20
848.8745690845346
 30
0.0
 10
1651.154589148631
 20
848.6157548068643
 30
0.0
 10
1651.353965604068
 20
848.3447918754409
 30
0.0
 10
1651.67989362924
 20
848.0042369109162
 30
0.0
 10
1652.123317981089
 20
847.6803820501196
 30
0.0
 10
1652.68508255405
 20
847.4353142402385
 30
0.0
 10
1653.275584631266
 20
847.3036224763716
 30
0.0
 10
1653.675961519474
 20
847.3197133171908
 30
0.0
 10
1653.878075162748
 20
847.3278361098821
 30
0.0
  0
SPLINE
  5
1B6
330
1F
100
AcDbEntity
  8
0
  6
Continuous
 62
     7
370
    25
100
AcDbSpline
210
0.0
220
0.0
230
1.0
 70
     8
 71
     3
 72
    14
 73
    10
 74
     0
 42
0.000000001
 43
0.00000001
 40
0.0
 40
0.0
 40
0.0
 40
0.0
 40
0.220765348438179
 40
0.3402146168140553
 40
0.4605704991790948
 40
0.5641909618660854
 40
0.6633542991971745
 40
0.8105247403618525
 40
1.0
 40
1.0
 40
1.0
 40
1.0
 10
1652.782727376798
 20
853.7664711500153
 30
0.0
 10
1652.82342617232
 20
853.7159287103732
 30
0.0
 10
1652.886145821128
 20
853.6380393275633
 30
0.0
 10
1652.927087226504
 20
853.4801260315259
 30
0.0
 10
1652.926408130537
 20
853.3476208494567
 30
0.0
 10
1652.892373224718
 20
853.2261092751345
 30
0.0
 10
1652.830325669314
 20
853.1141470542855
 30
0.0
 10
1652.729919348248
 20
853.0082756736379
 30
0.0
 10
1652.643981626684
 20
852.9688562710691
 30
0.0
 10
1652.595613053828
 20
852.9466697363273
 30
0.0
  0
SPLINE
  5
1B7
330
1F
100
AcDbEntity
  8
0
  6
Continuous
 62
     7
370
    25
100
AcDbSpline
210
0.0
220
0.0
230
1.0
 70
     8
 71
     3
 72
    24
 73
    20
 74
     0
 42
0.000000001
 43
0.00000001
 40
0.0
 40
0.0
 40
0.0
 40
0.0
 40
0.0863790768596674
 40
0.1752542427071622
 40
0.2620842456789204
 40
0.3070649132850872
 40
0.3520190851009449
 40
0.4193200542314492
 40
0.4528774529345994
 40
0.4876252663406361
 40
0.5342920749946535
 40
0.5808562308580021
 40
0.6174647672988511
 40
0.655063019469528
 40
0.7176552952224023
 40
0.7818848654491517
 40
0.8689583501259791
 40
0.9585482528060156
 40
0.9999999999999999
 40
0.9999999999999999
 40
0.9999999999999999
 40
0.9999999999999999
 10
1656.376106354521
 20
858.2724258662715
 30
0.0
 10
1656.177766631183
 20
858.3762607809613
 30
0.0
 10
1655.775355778043
 20
858.5869311192203
 30
0.0
 10
1655.117765344388
 20
858.7130720640014
 30
0.0
 10
1654.550505143173
 20
858.7005938902844
 30
0.0
 10
1654.091457974693
 20
858.6056919263198
 30
0.0
 10
1653.681483715397
 20
858.4658576871079
 30
0.0
 10
1653.298930866755
 20
858.2627417436884
 30
0.0
 10
1652.950851570689
 20
857.9954026477668
 30
0.0
 10
1652.667200437224
 20
857.7191303276211
 30
0.0
 10
1652.386887760502
 20
857.349090400393
 30
0.0
 10
1652.181207967196
 20
856.9470994691771
 30
0.0
 10
1652.055385836478
 20
856.5814801838145
 30
0.0
 10
1651.968492756648
 20
856.1803869500008
 30
0.0
 10
1651.940408675513
 20
855.72098137367
 30
0.0
 10
1652.00479375342
 20
855.1588600165985
 30
0.0
 10
1652.198160362472
 20
854.5726703473715
 30
0.0
 10
1652.48319785496
 20
854.0940087370478
 30
0.0
 10
1652.710747682344
 20
853.8451814397133
 30
0.0
 10
1652.782727376798
 20
853.7664711500153
 30
0.0
  0
SPLINE
  5
1B8
330
1F
100
AcDbEntity
  8
0
  6
Continuous
 62
     7
370
    25
100
AcDbSpline
210
0.0
220
0.0
230
1.0
 70
     8
 71
     3
 72
    14
 73
    10
 74
     0
 42
0.000000001
 43
0.00000001
 40
0.0
 40
0.0
 40
0.0
 40
0.0
 40
0.2243030424883259
 40
0.3489011866266116
 40
0.4744001356117633
 40
0.5826741857066091
 40
0.6867417687947664
 40
0.8381564871696764
 40
1.0
 40
1.0
 40
1.0
 40
1.0
 10
1657.133716781268
 20
858.6372718187364
 30
0.0
 10
1657.119071242852
 20
858.5726591677068
 30
0.0
 10
1657.09629025123
 20
858.4721548215985
 30
0.0
 10
1656.994505624824
 20
858.339969485969
 30
0.0
 10
1656.885815583274
 20
858.257623926339
 30
0.0
 10
1656.764847573416
 20
858.2102429076626
 30
0.0
 10
1656.634552519577
 20
858.1928245602332
 30
0.0
 10
1656.496735818655
 20
858.2102305339482
 30
0.0
 10
1656.417198807814
 20
858.251239012737
 30
0.0
 10
1656.376106354521
 20
858.2724258662715
 30
0.0
  0
SPLINE
  5
1B9
330
1F
100
AcDbEntity
  8
0
  6
Continuous
 62
     7
370
    25
100
AcDbSpline
210
0.0
220
0.0
230
1.0
 70
     8
 71
     3
 72
    26
 73
    22
 74
     0
 42
0.000000001
 43
0.00000001
 40
0.0
 40
0.0
 40
0.0
 40
0.0
 40
0.0854261159360998
 40
0.1733276547195616
 40
0.2448517261352482
 40
0.3181224083912763
 40
0.3577740645396701
 40
0.3980844094313248
 40
0.4287682032815365
 40
0.4601978879083263
 40
0.4855692359538121
 40
0.5116681185372485
 40
0.5370453561645246
 40
0.5630880149114158
 40
0.5995557531473634
 40
0.637034587382554
 40
0.6960497304231583
 40
0.7566321175831459
 40
0.8401423063242427
 40
0.9260534647419586
 40
0.9999999999999999
 40
0.9999999999999999
 40
0.9999999999999999
 40
0.9999999999999999
 10
1662.897049183836
 20
858.6372718187363
 30
0.0
 10
1662.855627607862
 20
858.8533385355081
 30
0.0
 10
1662.77158416822
 20
859.291733010905
 30
0.0
 10
1662.483009703897
 20
859.8488439015528
 30
0.0
 10
1662.10864217238
 20
860.3203275307168
 30
0.0
 10
1661.727677071262
 20
860.6421375401761
 30
0.0
 10
1661.352477604844
 20
860.8661787967262
 30
0.0
 10
1661.04764179046
 20
861.0015011483654
 30
0.0
 10
1660.736347335473
 20
861.0989595966417
 30
0.0
 10
1660.449282523513
 20
861.1567427239487
 30
0.0
 10
1660.164244577479
 20
861.1847534138898
 30
0.0
 10
1659.895382334254
 20
861.1861034812094
 30
0.0
 10
1659.627962937407
 20
861.1624799598228
 30
0.0
 10
1659.336784909312
 20
861.1097471595242
 30
0.0
 10
1659.028230877806
 20
861.0187592177875
 30
0.0
 10
1658.658208415207
 20
860.859771529357
 30
0.0
 10
1658.278711521933
 20
860.625053886889
 30
0.0
 10
1657.869641163977
 20
860.2649914138893
 30
0.0
 10
1657.509741093046
 20
859.7919886680091
 30
0.0
 10
1657.242149648665
 20
859.2296898208506
 30
0.0
 10
1657.168011434058
 20
858.8246390827102
 30
0.0
 10
1657.133716781268
 20
858.6372718187364
 30
0.0
  0
SPLINE
  5
1BA
330
1F
100
AcDbEntity
  8
0
  6
Continuous
 62
     7
370
    25
100
AcDbSpline
210
0.0
220
0.0
230
1.0
 70
     8
 71
     3
 72
    14
 73
    10
 74
     0
 42
0.000000001
 43
0.00000001
 40
0.0
 40
0.0
 40
0.0
 40
0.0
 40
0.2239799089306602
 40
0.3530600787850526
 40
0.4831615846560798
 40
0.5937368434044649
 40
0.6971871626482021
 40
0.8442013099711085
 40
1.0
 40
1.0
 40
1.0
 40
1.0
 10
1663.654659610583
 20
858.2724258662713
 30
0.0
 10
1663.596039257911
 20
858.2440078595033
 30
0.0
 10
1663.503635852484
 20
858.1992124858632
 30
0.0
 10
1663.336597668891
 20
858.1954872825015
 30
0.0
 10
1663.201166354787
 20
858.2300039760423
 30
0.0
 10
1663.086725773988
 20
858.297485469878
 30
0.0
 10
1662.992906675212
 20
858.3897013115495
 30
0.0
 10
1662.922798446267
 20
858.5071311283061
 30
0.0
 10
1662.905796677339
 20
858.5930606555231
 30
0.0
 10
1662.897049183836
 20
858.6372718187363
 30
0.0
  0
SPLINE
  5
1BB
330
1F
100
AcDbEntity
  8
0
  6
Continuous
 62
     7
370
    25
100
AcDbSpline
210
0.0
220
0.0
230
1.0
 70
     8
 71
     3
 72
    25
 73
    21
 74
     0
 42
0.000000001
 43
0.00000001
 40
0.0
 40
0.0
 40
0.0
 40
0.0
 40
0.0875462653424555
 40
0.1776275929600298
 40
0.2471474788262653
 40
0.3182485058085606
 40
0.3544110039426028
 40
0.3911111694055481
 40
0.4196256508468985
 40
0.4488279610873446
 40
0.4955774367114218
 40
0.5423030312794787
 40
0.576296920445503
 40
0.6112229844817033
 40
0.6688576767939508
 40
0.7279867562248817
 40
0.813248880816099
 40
0.9009541844562668
 40
0.9502506997642257
 40
1.0
 40
1.0
 40
1.0
 40
1.0
 10
1667.248038588306
 20
853.7664711500153
 30
0.0
 10
1667.394112669406
 20
853.9375598824589
 30
0.0
 10
1667.690490673861
 20
854.2846915345938
 30
0.0
 10
1667.943563401142
 20
854.8641566260206
 30
0.0
 10
1668.073182022829
 20
855.4472085640106
 30
0.0
 10
1668.08557611269
 20
855.9271854364706
 30
0.0
 10
1668.031528371834
 20
856.3380415142511
 30
0.0
 10
1667.957599256355
 20
856.6379678709491
 30
0.0
 10
1667.853510935474
 20
856.9246612735105
 30
0.0
 10
1667.700149658534
 20
857.2451009821094
 30
0.0
 10
1667.455684193477
 20
857.6150779085573
 30
0.0
 10
1667.14534408285
 20
857.9408708727201
 30
0.0
 10
1666.849558640741
 20
858.1750848366154
 30
0.0
 10
1666.520396311182
 20
858.3804346551057
 30
0.0
 10
1666.123521623303
 20
858.5548012186982
 30
0.0
 10
1665.597629047263
 20
858.6884796357893
 30
0.0
 10
1664.998687636947
 20
858.72095656156
 30
0.0
 10
1664.441331019036
 20
858.622645065918
 30
0.0
 10
1663.991718224368
 20
858.4614636876418
 30
0.0
 10
1663.767354372682
 20
858.3356302213472
 30
0.0
 10
1663.654659610583
 20
858.2724258662713
 30
0.0
  0
SPLINE
  5
1BC
330
1F
100
AcDbEntity
  8
0
  6
Continuous
 62
     7
370
    25
100
AcDbSpline
210
0.0
220
0.0
230
1.0
 70
     8
 71
     3
 72
    14
 73
    10
 74
     0
 42
0.000000001
 43
0.00000001
 40
0.0
 40
0.0
 40
0.0
 40
0.0
 40
0.2200911109485595
 40
0.3501199592092341
 40
0.4590676183976581
 40
0.5685351145661265
 40
0.6668402217390302
 40
0.7968948941937074
 40
1.0
 40
1.0
 40
1.0
 40
1.0
 10
1667.435152911276
 20
852.9466697363273
 30
0.0
 10
1667.378745487411
 20
852.9733130581141
 30
0.0
 10
1667.289012808715
 20
853.015697135767
 30
0.0
 10
1667.18674584102
 20
853.1338885504919
 30
0.0
 10
1667.128473127008
 20
853.2497686417245
 30
0.0
 10
1667.102526699582
 20
853.3717544837025
 30
0.0
 10
1667.107088628019
 20
853.499419171409
 30
0.0
 10
1667.148961932628
 20
853.6452208258033
 30
0.0
 10
1667.210514269201
 20
853.7205487697518
 30
0.0
 10
1667.248038588306
 20
853.7664711500153
 30
0.0
  0
SPLINE
  5
1BD
330
1F
100
AcDbEntity
  8
0
  6
Continuous
 62
     7
370
    25
100
AcDbSpline
210
0.0
220
0.0
230
1.0
 70
     8
 71
     3
 72
    27
 73
    23
 74
     0
 42
0.000000001
 43
0.00000001
 40
0.0
 40
0.0
 40
0.0
 40
0.0
 40
0.0910683471803931
 40
0.1847464164708989
 40
0.2588266946055565
 40
0.3345190598259142
 40
0.3626447427195263
 40
0.3910056482847541
 40
0.4191743039829972
 40
0.448120360697974
 40
0.4657704782447655
 40
0.4839081706433205
 40
0.5015721548764676
 40
0.5197440214872951
 40
0.5448446854435506
 40
0.5706253690117588
 40
0.6177938154944821
 40
0.6660858441031582
 40
0.7518796859636304
 40
0.8400397940083094
 40
0.9191574739584846
 40
0.9999999999999999
 40
0.9999999999999999
 40
0.9999999999999999
 40
0.9999999999999999
 10
1666.152690802355
 20
847.3278361098824
 30
0.0
 10
1666.389248148744
 20
847.3208511564283
 30
0.0
 10
1666.869141804314
 20
847.3066810835126
 30
0.0
 10
1667.50474122218
 20
847.4892326230778
 30
0.0
 10
1668.058734284227
 20
847.7778657019741
 30
0.0
 10
1668.429947211893
 20
848.0799041530984
 30
0.0
 10
1668.684522573266
 20
848.3611871693665
 30
0.0
 10
1668.839520329422
 20
848.5651743245282
 30
0.0
 10
1668.986062677194
 20
848.7993260417571
 30
0.0
 10
1669.102304798224
 20
849.0337772725559
 30
0.0
 10
1669.189035975046
 20
849.256206805426
 30
0.0
 10
1669.249205034891
 20
849.4491135573574
 30
0.0
 10
1669.295988065547
 20
849.6472310392631
 30
0.0
 10
1669.332183592058
 20
849.8679244647439
 30
0.0
 10
1669.351758146084
 20
850.10790306357
 30
0.0
 10
1669.349471272853
 20
850.4266144554359
 30
0.0
 10
1669.303423700699
 20
850.7858429761372
 30
0.0
 10
1669.171029611033
 20
851.2690955162785
 30
0.0
 10
1668.916752207638
 20
851.791057957567
 30
0.0
 10
1668.509923635944
 20
852.2896034985126
 30
0.0
 10
1668.017164537824
 20
852.692168187536
 30
0.0
 10
1667.630546417314
 20
852.8612282302778
 30
0.0
 10
1667.435152911276
 20
852.9466697363273
 30
0.0
  0
SPLINE
  5
1BE
330
1F
100
AcDbEntity
  8
0
  6
Continuous
 62
     7
370
    25
100
AcDbSpline
210
0.0
220
0.0
230
1.0
 70
     8
 71
     3
 72
    15
 73
    11
 74
     0
 42
0.000000001
 43
0.00000001
 40
0.0
 40
0.0
 40
0.0
 40
0.0
 40
0.2150763736127623
 40
0.3413349926978211
 40
0.4465934903530034
 40
0.5524796219272401
 40
0.6449070621727223
 40
0.766214653902494
 40
0.940631656051666
 40
1.0
 40
1.0
 40
1.0
 40
1.0
 10
1665.628408119916
 20
846.6704064203799
 30
0.0
 10
1665.61437840701
 20
846.7285866821139
 30
0.0
 10
1665.592112679391
 20
846.8209211346647
 30
0.0
 10
1665.616812688652
 20
846.9699856681384
 30
0.0
 10
1665.666604111687
 20
847.0863388095005
 30
0.0
 10
1665.741103240635
 20
847.1830578470506
 30
0.0
 10
1665.838080610433
 20
847.2607167560599
 30
0.0
 10
1665.963280354053
 20
847.3183058473646
 30
0.0
 10
1666.072129533617
 20
847.3336126937328
 30
0.0
 10
1666.136375847866
 20
847.3290059611533
 30
0.0
 10
1666.152690802355
 20
847.3278361098824
 30
0.0
  0
SPLINE
  5
1BF
330
1F
100
AcDbEntity
  8
0
  6
Continuous
 62
     7
370
    25
100
AcDbSpline
210
0.0
220
0.0
230
1.0
 70
     8
 71
     3
 72
    26
 73
    22
 74
     0
 42
0.000000001
 43
0.00000001
 40
0.0
 40
0.0
 40
0.0
 40
0.0
 40
0.0912035599485179
 40
0.1849670362499738
 40
0.2785634207445331
 40
0.3265394520589691
 40
0.3749439889046064
 40
0.4231405593180605
 40
0.4430841889857804
 40
0.4634373414447684
 40
0.4878409265543515
 40
0.5123587387507043
 40
0.5280992736585401
 40
0.5442699367721684
 40
0.5755700365325771
 40
0.6075525397506848
 40
0.6834424014570646
 40
0.7611024134338046
 40
0.8469107031299091
 40
0.9346000221708253
 40
1.0
 40
1.0
 40
1.0
 40
1.0
 10
1660.435825049829
 20
844.1697902077764
 30
0.0
 10
1660.583448003835
 20
843.9743264820834
 30
0.0
 10
1660.882837416928
 20
843.5779127230571
 30
0.0
 10
1661.475855683173
 20
843.1676290776087
 30
0.0
 10
1662.033841234723
 20
842.9439934642041
 30
0.0
 10
1662.521609166717
 20
842.8510771390803
 30
0.0
 10
1662.914891305453
 20
842.8284405377565
 30
0.0
 10
1663.259023648979
 20
842.856206995017
 30
0.0
 10
1663.546424084129
 20
842.913226842408
 30
0.0
 10
1663.771062354538
 20
842.9747030362397
 30
0.0
 10
1664.030489094138
 20
843.0706677610231
 30
0.0
 10
1664.268670449212
 20
843.1889032646411
 30
0.0
 10
1664.451804829856
 20
843.2994364133883
 30
0.0
 10
1664.636109470271
 20
843.4263558230086
 30
0.0
 10
1664.833347287766
 20
843.5887377089889
 30
0.0
 10
1665.121412464009
 20
843.8782324175527
 30
0.0
 10
1665.411685316066
 20
844.2829115608741
 30
0.0
 10
1665.663143333166
 20
844.8447822551155
 30
0.0
 10
1665.792570502067
 20
845.4736433806988
 30
0.0
 10
1665.786894199016
 20
846.0990415708407
 30
0.0
 10
1665.675847455662
 20
846.4993808698413
 30
0.0
 10
1665.628408119916
 20
846.6704064203799
 30
0.0
  0
SPLINE
  5
1C0
330
1F
100
AcDbEntity
  8
0
  6
Continuous
 62
     7
370
    25
100
AcDbSpline
210
0.0
220
0.0
230
1.0
 70
     8
 71
     3
 72
    15
 73
    11
 74
     0
 42
0.000000001
 43
0.00000001
 40
0.0
 40
0.0
 40
0.0
 40
0.0
 40
0.2129294053202189
 40
0.3333107283175603
 40
0.4345062010026767
 40
0.5362836886506531
 40
0.6256367151020122
 40
0.7456368547566248
 40
0.921192717688107
 40
1.0
 40
1.0
 40
1.0
 40
1.0
 10
1659.594940915275
 20
844.1697902077764
 30
0.0
 10
1659.631404822883
 20
844.2168229862219
 30
0.0
 10
1659.68848388899
 20
844.2904461178648
 30
0.0
 10
1659.818112400785
 20
844.3637289299061
 30
0.0
 10
1659.936271010862
 20
844.3978309646074
 30
0.0
 10
1660.05501712877
 20
844.4020421834031
 30
0.0
 10
1660.174344469484
 20
844.3782157497155
 30
0.0
 10
1660.298223741577
 20
844.3202393222267
 30
0.0
 10
1660.384267300534
 20
844.2436135054215
 30
0.0
 10
1660.423629711443
 20
844.1872521821219
 30
0.0
 10
1660.435825049829
 20
844.1697902077764
 30
0.0
  0
SPLINE
  5
1C1
330
1F
100
AcDbEntity
  8
0
  6
Continuous
 62
     7
370
    25
100
AcDbSpline
210
0.0
220
0.0
230
1.0
 70
     8
 71
     3
 72
    25
 73
    21
 74
     0
 42
0.000000001
 43
0.00000001
 40
0.0
 40
0.0
 40
0.0
 40
0.0
 40
0.0897174329458047
 40
0.1819517780464734
 40
0.2741564286250114
 40
0.321334700914469
 40
0.3688705103640609
 40
0.4236588038487549
 40
0.4510361250048939
 40
0.4792430363670709
 40
0.5037913906395243
 40
0.5284414423184046
 40
0.5611619013115611
 40
0.6013318478780325
 40
0.642625619394518
 40
0.7286913895866827
 40
0.8169611916237413
 40
0.9072669371779625
 40
0.9534664517756425
 40
1.0
 40
1.0
 40
1.0
 40
1.0
 10
1654.402357845188
 20
846.6704064203795
 30
0.0
 10
1654.341973537519
 20
846.4351837450482
 30
0.0
 10
1654.219510914753
 20
845.958139511747
 30
0.0
 10
1654.265497453813
 20
845.2470539398768
 30
0.0
 10
1654.432031132801
 20
844.6799326148692
 30
0.0
 10
1654.652917090247
 20
844.2496740045857
 30
0.0
 10
1654.87850329662
 20
843.9207826153792
 30
0.0
 10
1655.12850279197
 20
843.6482788262417
 30
0.0
 10
1655.397861850116
 20
843.4228378916421
 30
0.0
 10
1655.632912197462
 20
843.2613835698581
 30
0.0
 10
1655.905864372075
 20
843.1133503199527
 30
0.0
 10
1656.216482813214
 20
842.985857867491
 30
0.0
 10
1656.559093983982
 20
842.891092382333
 30
0.0
 10
1656.912607680245
 20
842.840196134775
 30
0.0
 10
1657.388017553816
 20
842.8304930852116
 30
0.0
 10
1657.947144682807
 20
842.9218135182779
 30
0.0
 10
1658.573681862316
 20
843.1777094240105
 30
0.0
 10
1659.044068275728
 20
843.5169931499752
 30
0.0
 10
1659.379661307195
 20
843.8617477934018
 30
0.0
 10
1659.523008928498
 20
844.0668631211133
 30
0.0
 10
1659.594940915275
 20
844.1697902077764
 30
0.0
  0
SPLINE
  5
1C2
330
1F
100
AcDbEntity
  8
0
  6
Continuous
 62
     7
370
    25
100
AcDbSpline
210
0.0
220
0.0
230
1.0
 70
     8
 71
     3
 72
    15
 73
    11
 74
     0
 42
0.000000001
 43
0.00000001
 40
0.0
 40
0.0
 40
0.0
 40
0.0
 40
0.215576770593262
 40
0.3329005538677274
 40
0.4328760582231185
 40
0.5332634977247642
 40
0.6250838127945316
 40
0.7535547096889093
 40
0.942133837889228
 40
1.0
 40
1.0
 40
1.0
 40
1.0
 10
1653.878075162748
 20
847.3278361098821
 30
0.0
 10
1653.939904924016
 20
847.3284876303372
 30
0.0
 10
1654.035384421715
 20
847.3294937290915
 30
0.0
 10
1654.175372289564
 20
847.2706523306637
 30
0.0
 10
1654.2737983981
 20
847.1986928364042
 30
0.0
 10
1654.349195233259
 20
847.1087286015171
 30
0.0
 10
1654.404624117234
 20
846.9991467969808
 30
0.0
 10
1654.435683731969
 20
846.8607642699152
 30
0.0
 10
1654.426277113696
 20
846.7485108468967
 30
0.0
 10
1654.406906199376
 20
846.6852583208599
 30
0.0
 10
1654.402357845188
 20
846.6704064203795
 30
0.0
  0
SPLINE
  5
1C3
330
1F
100
AcDbEntity
  8
0
  6
Continuous
 62
     7
370
    25
100
AcDbSpline
210
0.0
220
0.0
230
1.0
 70
     8
 71
     3
 72
    28
 73
    24
 74
     0
 42
0.000000001
 43
0.00000001
 40
0.0
 40
0.0
 40
0.0
 40
0.0
 40
0.0885577904272321
 40
0.1796438193735517
 40
0.2695757108504267
 40
0.3157367678527885
 40
0.3623220932277408
 40
0.3904539690316889
 40
0.4187952486339985
 40
0.4469625905235283
 40
0.4757849359529024
 40
0.4937651259402158
 40
0.5122126959858442
 40
0.5302154725933184
 40
0.5487865500347937
 40
0.572171629790277
 40
0.5962043255368829
 40
0.6385840534980269
 40
0.6819817284823861
 40
0.7628828890611816
 40
0.8459448991942597
 40
0.9222316806844277
 40
1.0
 40
1.0
 40
1.0
 40
1.0
 10
1667.43515291126
 20
581.7176206026421
 30
0.0
 10
1667.648473717883
 20
581.8125400391782
 30
0.0
 10
1668.081205432041
 20
582.0050887695593
 30
0.0
 10
1668.599259081801
 20
582.4623480500946
 30
0.0
 10
1668.941214322734
 20
582.9297465521493
 30
0.0
 10
1669.147000987877
 20
583.3602161046543
 30
0.0
 10
1669.250131007398
 20
583.6710057698093
 30
0.0
 10
1669.311764428341
 20
583.9570733574433
 30
0.0
 10
1669.343928134958
 20
584.2074500567561
 30
0.0
 10
1669.354379569386
 20
584.478093397451
 30
0.0
 10
1669.339462062886
 20
584.7347602214091
 30
0.0
 10
1669.305148837177
 20
584.9693370740272
 30
0.0
 10
1669.261498756398
 20
585.1691109553354
 30
0.0
 10
1669.20254730028
 20
585.3690012048734
 30
0.0
 10
1669.124458072446
 20
585.5775867969307
 30
0.0
 10
1669.025133590067
 20
585.7897212544349
 30
0.0
 10
1668.876176816457
 20
586.0485355321053
 30
0.0
 10
1668.676800361019
 20
586.3194984635287
 30
0.0
 10
1668.350872335847
 20
586.6600534280533
 30
0.0
 10
1667.907447983999
 20
586.9839082888499
 30
0.0
 10
1667.345683411037
 20
587.228976098731
 30
0.0
 10
1666.755181333822
 20
587.3606678625979
 30
0.0
 10
1666.354804445613
 20
587.3445770217787
 30
0.0
 10
1666.15269080234
 20
587.3364542290874
 30
0.0
  0
SPLINE
  5
1C4
330
1F
100
AcDbEntity
  8
0
  6
Continuous
 62
     7
370
    25
100
AcDbSpline
210
0.0
220
0.0
230
1.0
 70
     8
 71
     3
 72
    14
 73
    10
 74
     0
 42
0.000000001
 43
0.00000001
 40
0.0
 40
0.0
 40
0.0
 40
0.0
 40
0.220765348438179
 40
0.3402146168140553
 40
0.4605704991790948
 40
0.5641909618660854
 40
0.6633542991971745
 40
0.8105247403618525
 40
1.0
 40
1.0
 40
1.0
 40
1.0
 10
1667.248038588289
 20
580.8978191889543
 30
0.0
 10
1667.207339792768
 20
580.9483616285963
 30
0.0
 10
1667.144620143959
 20
581.0262510114062
 30
0.0
 10
1667.103678738584
 20
581.1841643074437
 30
0.0
 10
1667.10435783455
 20
581.3166694895128
 30
0.0
 10
1667.13839274037
 20
581.4381810638351
 30
0.0
 10
1667.200440295773
 20
581.5501432846839
 30
0.0
 10
1667.300846616839
 20
581.6560146653316
 30
0.0
 10
1667.386784338403
 20
581.6954340679005
 30
0.0
 10
1667.43515291126
 20
581.7176206026421
 30
0.0
  0
SPLINE
  5
1C5
330
1F
100
AcDbEntity
  8
0
  6
Continuous
 62
     7
370
    25
100
AcDbSpline
210
0.0
220
0.0
230
1.0
 70
     8
 71
     3
 72
    24
 73
    20
 74
     0
 42
0.000000001
 43
0.00000001
 40
0.0
 40
0.0
 40
0.0
 40
0.0
 40
0.0863790768596674
 40
0.1752542427071622
 40
0.2620842456789204
 40
0.3070649132850872
 40
0.3520190851009449
 40
0.4193200542314492
 40
0.4528774529345994
 40
0.4876252663406361
 40
0.5342920749946535
 40
0.5808562308580021
 40
0.6174647672988511
 40
0.655063019469528
 40
0.7176552952224023
 40
0.7818848654491517
 40
0.8689583501259791
 40
0.9585482528060156
 40
0.9999999999999999
 40
0.9999999999999999
 40
0.9999999999999999
 40
0.9999999999999999
 10
1663.654659610566
 20
576.3918644726981
 30
0.0
 10
1663.852999333905
 20
576.2880295580082
 30
0.0
 10
1664.255410187045
 20
576.0773592197494
 30
0.0
 10
1664.913000620699
 20
575.9512182749681
 30
0.0
 10
1665.480260821915
 20
575.9636964486851
 30
0.0
 10
1665.939307990395
 20
576.0585984126498
 30
0.0
 10
1666.349282249691
 20
576.1984326518616
 30
0.0
 10
1666.731835098332
 20
576.4015485952813
 30
0.0
 10
1667.079914394399
 20
576.6688876912028
 30
0.0
 10
1667.363565527864
 20
576.9451600113485
 30
0.0
 10
1667.643878204586
 20
577.3151999385765
 30
0.0
 10
1667.849557997892
 20
577.7171908697924
 30
0.0
 10
1667.97538012861
 20
578.0828101551551
 30
0.0
 10
1668.062273208439
 20
578.4839033889688
 30
0.0
 10
1668.090357289574
 20
578.9433089652995
 30
0.0
 10
1668.025972211667
 20
579.5054303223711
 30
0.0
 10
1667.832605602615
 20
580.0916199915981
 30
0.0
 10
1667.547568110127
 20
580.5702816019217
 30
0.0
 10
1667.320018282744
 20
580.8191088992563
 30
0.0
 10
1667.248038588289
 20
580.8978191889543
 30
0.0
  0
SPLINE
  5
1C6
330
1F
100
AcDbEntity
  8
0
  6
Continuous
 62
     7
370
    25
100
AcDbSpline
210
0.0
220
0.0
230
1.0
 70
     8
 71
     3
 72
    14
 73
    10
 74
     0
 42
0.000000001
 43
0.00000001
 40
0.0
 40
0.0
 40
0.0
 40
0.0
 40
0.2243030424883259
 40
0.3489011866266116
 40
0.4744001356117633
 40
0.5826741857066091
 40
0.6867417687947664
 40
0.8381564871696764
 40
1.0
 40
1.0
 40
1.0
 40
1.0
 10
1662.89704918382
 20
576.027018520233
 30
0.0
 10
1662.911694722235
 20
576.0916311712629
 30
0.0
 10
1662.934475713858
 20
576.1921355173711
 30
0.0
 10
1663.036260340263
 20
576.3243208530006
 30
0.0
 10
1663.144950381814
 20
576.4066664126306
 30
0.0
 10
1663.265918391671
 20
576.4540474313069
 30
0.0
 10
1663.396213445511
 20
576.4714657787362
 30
0.0
 10
1663.534030146433
 20
576.4540598050213
 30
0.0
 10
1663.613567157273
 20
576.4130513262324
 30
0.0
 10
1663.654659610566
 20
576.3918644726981
 30
0.0
  0
SPLINE
  5
1C7
330
1F
100
AcDbEntity
  8
0
  6
Continuous
 62
     7
370
    25
100
AcDbSpline
210
0.0
220
0.0
230
1.0
 70
     8
 71
     3
 72
    26
 73
    22
 74
     0
 42
0.000000001
 43
0.00000001
 40
0.0
 40
0.0
 40
0.0
 40
0.0
 40
0.0854261159360998
 40
0.1733276547195616
 40
0.2448517261352482
 40
0.3181224083912763
 40
0.3577740645396701
 40
0.3980844094313248
 40
0.4287682032815365
 40
0.4601978879083263
 40
0.4855692359538121
 40
0.5116681185372485
 40
0.5370453561645246
 40
0.5630880149114158
 40
0.5995557531473634
 40
0.637034587382554
 40
0.6960497304231583
 40
0.7566321175831459
 40
0.8401423063242427
 40
0.9260534647419586
 40
0.9999999999999999
 40
0.9999999999999999
 40
0.9999999999999999
 40
0.9999999999999999
 10
1657.133716781251
 20
576.0270185202332
 30
0.0
 10
1657.175138357226
 20
575.8109518034615
 30
0.0
 10
1657.259181796868
 20
575.3725573280647
 30
0.0
 10
1657.54775626119
 20
574.8154464374168
 30
0.0
 10
1657.922123792708
 20
574.3439628082527
 30
0.0
 10
1658.303088893826
 20
574.0221527987934
 30
0.0
 10
1658.678288360244
 20
573.7981115422434
 30
0.0
 10
1658.983124174628
 20
573.662789190604
 30
0.0
 10
1659.294418629615
 20
573.5653307423278
 30
0.0
 10
1659.581483441574
 20
573.5075476150208
 30
0.0
 10
1659.866521387609
 20
573.4795369250799
 30
0.0
 10
1660.135383630834
 20
573.4781868577601
 30
0.0
 10
1660.402803027681
 20
573.5018103791468
 30
0.0
 10
1660.693981055775
 20
573.5545431794453
 30
0.0
 10
1661.002535087281
 20
573.6455311211819
 30
0.0
 10
1661.372557549881
 20
573.8045188096124
 30
0.0
 10
1661.752054443154
 20
574.0392364520806
 30
0.0
 10
1662.16112480111
 20
574.3992989250802
 30
0.0
 10
1662.521024872042
 20
574.8723016709605
 30
0.0
 10
1662.788616316422
 20
575.434600518119
 30
0.0
 10
1662.86275453103
 20
575.8396512562593
 30
0.0
 10
1662.89704918382
 20
576.027018520233
 30
0.0
  0
SPLINE
  5
1C8
330
1F
100
AcDbEntity
  8
0
  6
Continuous
 62
     7
370
    25
100
AcDbSpline
210
0.0
220
0.0
230
1.0
 70
     8
 71
     3
 72
    14
 73
    10
 74
     0
 42
0.000000001
 43
0.00000001
 40
0.0
 40
0.0
 40
0.0
 40
0.0
 40
0.2239799089306602
 40
0.3530600787850526
 40
0.4831615846560798
 40
0.5937368434044649
 40
0.6971871626482021
 40
0.8442013099711085
 40
1.0
 40
1.0
 40
1.0
 40
1.0
 10
1656.376106354505
 20
576.3918644726982
 30
0.0
 10
1656.434726707176
 20
576.4202824794662
 30
0.0
 10
1656.527130112604
 20
576.4650778531062
 30
0.0
 10
1656.694168296196
 20
576.468803056468
 30
0.0
 10
1656.829599610301
 20
576.4342863629271
 30
0.0
 10
1656.9440401911
 20
576.3668048690915
 30
0.0
 10
1657.037859289876
 20
576.27458902742
 30
0.0
 10
1657.10796751882
 20
576.1571592106634
 30
0.0
 10
1657.124969287749
 20
576.0712296834464
 30
0.0
 10
1657.133716781251
 20
576.0270185202332
 30
0.0
  0
SPLINE
  5
1C9
330
1F
100
AcDbEntity
  8
0
  6
Continuous
 62
     7
370
    25
100
AcDbSpline
210
0.0
220
0.0
230
1.0
 70
     8
 71
     3
 72
    25
 73
    21
 74
     0
 42
0.000000001
 43
0.00000001
 40
0.0
 40
0.0
 40
0.0
 40
0.0
 40
0.0875462653424555
 40
0.1776275929600298
 40
0.2471474788262653
 40
0.3182485058085606
 40
0.3544110039426028
 40
0.3911111694055481
 40
0.4196256508468985
 40
0.4488279610873446
 40
0.4955774367114218
 40
0.5423030312794787
 40
0.576296920445503
 40
0.6112229844817033
 40
0.6688576767939508
 40
0.7279867562248817
 40
0.813248880816099
 40
0.9009541844562668
 40
0.9502506997642257
 40
1.0
 40
1.0
 40
1.0
 40
1.0
 10
1652.782727376782
 20
580.8978191889544
 30
0.0
 10
1652.636653295682
 20
580.7267304565106
 30
0.0
 10
1652.340275291227
 20
580.3795988043757
 30
0.0
 10
1652.087202563946
 20
579.8001337129489
 30
0.0
 10
1651.957583942258
 20
579.217081774959
 30
0.0
 10
1651.945189852398
 20
578.7371049024989
 30
0.0
 10
1651.999237593254
 20
578.3262488247184
 30
0.0
 10
1652.073166708732
 20
578.0263224680205
 30
0.0
 10
1652.177255029614
 20
577.739629065459
 30
0.0
 10
1652.330616306553
 20
577.4191893568602
 30
0.0
 10
1652.575081771611
 20
577.0492124304122
 30
0.0
 10
1652.885421882237
 20
576.7234194662494
 30
0.0
 10
1653.181207324347
 20
576.4892055023541
 30
0.0
 10
1653.510369653906
 20
576.2838556838639
 30
0.0
 10
1653.907244341785
 20
576.1094891202714
 30
0.0
 10
1654.433136917824
 20
575.9758107031801
 30
0.0
 10
1655.03207832814
 20
575.9433337774095
 30
0.0
 10
1655.589434946052
 20
576.0416452730516
 30
0.0
 10
1656.039047740719
 20
576.2028266513278
 30
0.0
 10
1656.263411592406
 20
576.3286601176223
 30
0.0
 10
1656.376106354505
 20
576.3918644726982
 30
0.0
  0
SPLINE
  5
1CA
330
1F
100
AcDbEntity
  8
0
  6
Continuous
 62
     7
370
    25
100
AcDbSpline
210
0.0
220
0.0
230
1.0
 70
     8
 71
     3
 72
    14
 73
    10
 74
     0
 42
0.000000001
 43
0.00000001
 40
0.0
 40
0.0
 40
0.0
 40
0.0
 40
0.2200911109485595
 40
0.3501199592092341
 40
0.4590676183976581
 40
0.5685351145661265
 40
0.6668402217390302
 40
0.7968948941937074
 40
1.0
 40
1.0
 40
1.0
 40
1.0
 10
1652.595613053812
 20
581.7176206026422
 30
0.0
 10
1652.652020477677
 20
581.6909772808555
 30
0.0
 10
1652.741753156373
 20
581.6485932032025
 30
0.0
 10
1652.844020124068
 20
581.5304017884775
 30
0.0
 10
1652.90229283808
 20
581.414521697245
 30
0.0
 10
1652.928239265506
 20
581.2925358552671
 30
0.0
 10
1652.923677337068
 20
581.1648711675605
 30
0.0
 10
1652.88180403246
 20
581.0190695131662
 30
0.0
 10
1652.820251695887
 20
580.9437415692179
 30
0.0
 10
1652.782727376782
 20
580.8978191889544
 30
0.0
  0
SPLINE
  5
1CB
330
1F
100
AcDbEntity
  8
0
  6
Continuous
 62
     7
370
    25
100
AcDbSpline
210
0.0
220
0.0
230
1.0
 70
     8
 71
     3
 72
    27
 73
    23
 74
     0
 42
0.000000001
 43
0.00000001
 40
0.0
 40
0.0
 40
0.0
 40
0.0
 40
0.0910683471803931
 40
0.1847464164708989
 40
0.2588266946055565
 40
0.3345190598259142
 40
0.3626447427195263
 40
0.3910056482847541
 40
0.4191743039829972
 40
0.448120360697974
 40
0.4657704782447655
 40
0.4839081706433205
 40
0.5015721548764676
 40
0.5197440214872951
 40
0.5448446854435506
 40
0.5706253690117588
 40
0.6177938154944821
 40
0.6660858441031582
 40
0.7518796859636304
 40
0.8400397940083094
 40
0.9191574739584846
 40
0.9999999999999999
 40
0.9999999999999999
 40
0.9999999999999999
 40
0.9999999999999999
 10
1653.878075162732
 20
587.3364542290873
 30
0.0
 10
1653.641517816344
 20
587.3434391825413
 30
0.0
 10
1653.161624160773
 20
587.357609255457
 30
0.0
 10
1652.526024742908
 20
587.1750577158917
 30
0.0
 10
1651.972031680861
 20
586.8864246369953
 30
0.0
 10
1651.600818753194
 20
586.5843861858712
 30
0.0
 10
1651.346243391821
 20
586.303103169603
 30
0.0
 10
1651.191245635665
 20
586.0991160144413
 30
0.0
 10
1651.044703287894
 20
585.8649642972123
 30
0.0
 10
1650.928461166864
 20
585.6305130664138
 30
0.0
 10
1650.841729990042
 20
585.4080835335435
 30
0.0
 10
1650.781560930197
 20
585.2151767816123
 30
0.0
 10
1650.734777899541
 20
585.0170592997065
 30
0.0
 10
1650.69858237303
 20
584.7963658742256
 30
0.0
 10
1650.679007819004
 20
584.5563872753995
 30
0.0
 10
1650.681294692235
 20
584.2376758835337
 30
0.0
 10
1650.727342264388
 20
583.8784473628323
 30
0.0
 10
1650.859736354055
 20
583.3951948226911
 30
0.0
 10
1651.11401375745
 20
582.8732323814024
 30
0.0
 10
1651.520842329144
 20
582.3746868404568
 30
0.0
 10
1652.013601427264
 20
581.9721221514336
 30
0.0
 10
1652.400219547773
 20
581.8030621086917
 30
0.0
 10
1652.595613053812
 20
581.7176206026422
 30
0.0
  0
SPLINE
  5
1CC
330
1F
100
AcDbEntity
  8
0
  6
Continuous
 62
     7
370
    25
100
AcDbSpline
210
0.0
220
0.0
230
1.0
 70
     8
 71
     3
 72
    15
 73
    11
 74
     0
 42
0.000000001
 43
0.00000001
 40
0.0
 40
0.0
 40
0.0
 40
0.0
 40
0.2150763736127623
 40
0.3413349926978211
 40
0.4465934903530034
 40
0.5524796219272401
 40
0.6449070621727223
 40
0.766214653902494
 40
0.940631656051666
 40
1.0
 40
1.0
 40
1.0
 40
1.0
 10
1654.402357845172
 20
587.9938839185896
 30
0.0
 10
1654.416387558078
 20
587.9357036568556
 30
0.0
 10
1654.438653285697
 20
587.8433692043048
 30
0.0
 10
1654.413953276436
 20
587.6943046708311
 30
0.0
 10
1654.364161853401
 20
587.577951529469
 30
0.0
 10
1654.289662724452
 20
587.481232491919
 30
0.0
 10
1654.192685354654
 20
587.4035735829096
 30
0.0
 10
1654.067485611035
 20
587.345984491605
 30
0.0
 10
1653.95863643147
 20
587.3306776452366
 30
0.0
 10
1653.894390117221
 20
587.3352843778163
 30
0.0
 10
1653.878075162732
 20
587.3364542290873
 30
0.0
  0
SPLINE
  5
1CD
330
1F
100
AcDbEntity
  8
0
  6
Continuous
 62
     7
370
    25
100
AcDbSpline
210
0.0
220
0.0
230
1.0
 70
     8
 71
     3
 72
    26
 73
    22
 74
     0
 42
0.000000001
 43
0.00000001
 40
0.0
 40
0.0
 40
0.0
 40
0.0
 40
0.0912035599485179
 40
0.1849670362499738
 40
0.2785634207445331
 40
0.3265394520589691
 40
0.3749439889046064
 40
0.4231405593180605
 40
0.4430841889857804
 40
0.4634373414447684
 40
0.4878409265543515
 40
0.5123587387507043
 40
0.5280992736585401
 40
0.5442699367721684
 40
0.5755700365325771
 40
0.6075525397506848
 40
0.6834424014570646
 40
0.7611024134338046
 40
0.8469107031299091
 40
0.9346000221708253
 40
1.0
 40
1.0
 40
1.0
 40
1.0
 10
1659.594940915259
 20
590.4945001311931
 30
0.0
 10
1659.447317961253
 20
590.689963856886
 30
0.0
 10
1659.14792854816
 20
591.0863776159125
 30
0.0
 10
1658.554910281914
 20
591.4966612613608
 30
0.0
 10
1657.996924730364
 20
591.7202968747654
 30
0.0
 10
1657.509156798371
 20
591.8132131998892
 30
0.0
 10
1657.115874659635
 20
591.835849801213
 30
0.0
 10
1656.771742316108
 20
591.8080833439526
 30
0.0
 10
1656.484341880959
 20
591.7510634965615
 30
0.0
 10
1656.259703610549
 20
591.6895873027299
 30
0.0
 10
1656.000276870949
 20
591.5936225779466
 30
0.0
 10
1655.762095515876
 20
591.4753870743285
 30
0.0
 10
1655.578961135232
 20
591.3648539255811
 30
0.0
 10
1655.394656494817
 20
591.237934515961
 30
0.0
 10
1655.197418677322
 20
591.0755526299807
 30
0.0
 10
1654.909353501079
 20
590.786057921417
 30
0.0
 10
1654.619080649021
 20
590.3813787780955
 30
0.0
 10
1654.367622631921
 20
589.8195080838539
 30
0.0
 10
1654.238195463021
 20
589.1906469582707
 30
0.0
 10
1654.243871766072
 20
588.5652487681289
 30
0.0
 10
1654.354918509425
 20
588.1649094691284
 30
0.0
 10
1654.402357845172
 20
587.9938839185896
 30
0.0
  0
SPLINE
  5
1CE
330
1F
100
AcDbEntity
  8
0
  6
Continuous
 62
     7
370
    25
100
AcDbSpline
210
0.0
220
0.0
230
1.0
 70
     8
 71
     3
 72
    15
 73
    11
 74
     0
 42
0.000000001
 43
0.00000001
 40
0.0
 40
0.0
 40
0.0
 40
0.0
 40
0.2129294053202189
 40
0.3333107283175603
 40
0.4345062010026767
 40
0.5362836886506531
 40
0.6256367151020122
 40
0.7456368547566248
 40
0.921192717688107
 40
1.0
 40
1.0
 40
1.0
 40
1.0
 10
1660.435825049813
 20
590.4945001311933
 30
0.0
 10
1660.399361142204
 20
590.4474673527476
 30
0.0
 10
1660.342282076098
 20
590.3738442211048
 30
0.0
 10
1660.212653564302
 20
590.3005614090636
 30
0.0
 10
1660.094494954226
 20
590.2664593743623
 30
0.0
 10
1659.975748836318
 20
590.2622481555663
 30
0.0
 10
1659.856421495604
 20
590.286074589254
 30
0.0
 10
1659.73254222351
 20
590.3440510167428
 30
0.0
 10
1659.646498664554
 20
590.420676833548
 30
0.0
 10
1659.607136253644
 20
590.4770381568475
 30
0.0
 10
1659.594940915258
 20
590.4945001311933
 30
0.0
  0
SPLINE
  5
1CF
330
1F
100
AcDbEntity
  8
0
  6
Continuous
 62
     7
370
    25
100
AcDbSpline
210
0.0
220
0.0
230
1.0
 70
     8
 71
     3
 72
    25
 73
    21
 74
     0
 42
0.000000001
 43
0.00000001
 40
0.0
 40
0.0
 40
0.0
 40
0.0
 40
0.0897174329458047
 40
0.1819517780464734
 40
0.2741564286250114
 40
0.321334700914469
 40
0.3688705103640609
 40
0.4236588038487549
 40
0.4510361250048939
 40
0.4792430363670709
 40
0.5037913906395243
 40
0.5284414423184046
 40
0.5611619013115611
 40
0.6013318478780325
 40
0.642625619394518
 40
0.7286913895866827
 40
0.8169611916237413
 40
0.9072669371779625
 40
0.9534664517756425
 40
1.0
 40
1.0
 40
1.0
 40
1.0
 10
1665.6284081199
 20
587.9938839185901
 30
0.0
 10
1665.688792427568
 20
588.2291065939214
 30
0.0
 10
1665.811255050335
 20
588.7061508272226
 30
0.0
 10
1665.765268511274
 20
589.4172363990926
 30
0.0
 10
1665.598734832286
 20
589.9843577241003
 30
0.0
 10
1665.377848874841
 20
590.4146163343839
 30
0.0
 10
1665.152262668467
 20
590.7435077235904
 30
0.0
 10
1664.902263173118
 20
591.0160115127278
 30
0.0
 10
1664.632904114971
 20
591.2414524473274
 30
0.0
 10
1664.397853767625
 20
591.4029067691114
 30
0.0
 10
1664.124901593012
 20
591.5509400190168
 30
0.0
 10
1663.814283151873
 20
591.6784324714787
 30
0.0
 10
1663.471671981106
 20
591.7731979566366
 30
0.0
 10
1663.118158284843
 20
591.8240942041944
 30
0.0
 10
1662.642748411272
 20
591.833797253758
 30
0.0
 10
1662.08362128228
 20
591.7424768206918
 30
0.0
 10
1661.457084102771
 20
591.4865809149591
 30
0.0
 10
1660.98669768936
 20
591.1472971889943
 30
0.0
 10
1660.651104657892
 20
590.8025425455676
 30
0.0
 10
1660.50775703659
 20
590.5974272178562
 30
0.0
 10
1660.435825049813
 20
590.4945001311933
 30
0.0
  0
SPLINE
  5
1D0
330
1F
100
AcDbEntity
  8
0
  6
Continuous
 62
     7
370
    25
100
AcDbSpline
210
0.0
220
0.0
230
1.0
 70
     8
 71
     3
 72
    15
 73
    11
 74
     0
 42
0.000000001
 43
0.00000001
 40
0.0
 40
0.0
 40
0.0
 40
0.0
 40
0.215576770593262
 40
0.3329005538677274
 40
0.4328760582231185
 40
0.5332634977247642
 40
0.6250838127945316
 40
0.7535547096889093
 40
0.942133837889228
 40
1.0
 40
1.0
 40
1.0
 40
1.0
 10
1666.15269080234
 20
587.3364542290875
 30
0.0
 10
1666.090861041071
 20
587.3358027086324
 30
0.0
 10
1665.995381543373
 20
587.3347966098781
 30
0.0
 10
1665.855393675524
 20
587.393638008306
 30
0.0
 10
1665.756967566988
 20
587.4655975025653
 30
0.0
 10
1665.681570731829
 20
587.5555617374524
 30
0.0
 10
1665.626141847853
 20
587.6651435419889
 30
0.0
 10
1665.595082233119
 20
587.8035260690543
 30
0.0
 10
1665.604488851391
 20
587.9157794920728
 30
0.0
 10
1665.623859765712
 20
587.9790320181097
 30
0.0
 10
1665.6284081199
 20
587.9938839185901
 30
0.0
  0
LINE
  5
1D1
330
1F
100
AcDbEntity
  8
0
  6
Continuous
 62
     7
370
    25
100
AcDbLine
 10
867.5153829825
 20
587.1521451695
 30
0.0
 11
867.5153829825
 21
592.3321451695
 31
0.0
  0
LINE
  5
1D2
330
1F
100
AcDbEntity
  8
0
  6
Continuous
 62
     7
370
    25
100
AcDbLine
 10
867.5153829825
 20
842.3321451695
 30
0.0
 11
867.5153829825
 21
847.5121451695
 31
0.0
  0
LINE
  5
1D3
330
1F
100
AcDbEntity
  8
0
  6
Continuous
 62
     7
370
    25
100
AcDbLine
 10
852.5153829825
 20
587.1521451695
 30
0.0
 11
852.5153829825
 21
592.3321451695
 31
0.0
  0
LINE
  5
1D4
330
1F
100
AcDbEntity
  8
0
  6
Continuous
 62
     7
370
    25
100
AcDbLine
 10
852.5153829825
 20
842.3321451695
 30
0.0
 11
852.5153829825
 21
847.5121451695
 31
0.0
  0
LINE
  5
1D5
330
1F
100
AcDbEntity
  8
0
  6
Continuous
 62
     7
370
    25
100
AcDbLine
 10
1652.5153829825
 20
847.5121451695
 30
0.0
 11
1652.5153829825
 21
842.3321451695
 31
0.0
  0
LINE
  5
1D6
330
1F
100
AcDbEntity
  8
0
  6
Continuous
 62
     7
370
    25
100
AcDbLine
 10
1652.5153829825
 20
592.3321451695
 30
0.0
 11
1652.5153829825
 21
587.1521451695
 31
0.0
  0
LINE
  5
1D7
330
1F
100
AcDbEntity
  8
0
  6
Continuous
 62
     7
370
    25
100
AcDbLine
 10
1667.5153829825
 20
847.5121451695
 30
0.0
 11
1667.5153829825
 21
842.3321451695
 31
0.0
  0
LINE
  5
1D8
330
1F
100
AcDbEntity
  8
0
  6
Continuous
 62
     7
370
    25
100
AcDbLine
 10
1667.5153829825
 20
592.3321451695
 30
0.0
 11
1667.5153829825
 21
587.1521451695
 31
0.0
  0
ARC
  5
1D9
330
1F
100
AcDbEntity
  8
0
  6
Continuous
 62
     7
370
    25
100
AcDbCircle
 10
860.0153829825
 20
582.9798801519
 30
0.0
 40
9.5
100
AcDbArc
 50
169.3903770781
 51
180.0
  0
ARC
  5
1DA
330
1F
100
AcDbEntity
  8
0
  6
Continuous
 62
     7
370
    25
100
AcDbCircle
 10
860.0153829825
 20
582.9798801519
 30
0.0
 40
9.500000000000059
100
AcDbArc
 50
142.1363536382
 51
164.8755224609
  0
ARC
  5
1DB
330
1F
100
AcDbEntity
  8
0
  6
Continuous
 62
     7
370
    25
100
AcDbCircle
 10
860.0153829825
 20
582.9798801519
 30
0.0
 40
9.499999999999975
100
AcDbArc
 50
15.4163766839
 51
37.8636463616
  0
ARC
  5
1DC
330
1F
100
AcDbEntity
  8
0
  6
Continuous
 62
     7
370
    25
100
AcDbCircle
 10
860.0153829825
 20
582.9798801519
 30
0.0
 40
9.50000000000008
100
AcDbArc
 50
323.8504706834
 51
10.9028625138
  0
ARC
  5
1DD
330
1F
100
AcDbEntity
  8
0
  6
Continuous
 62
     7
370
    25
100
AcDbCircle
 10
860.0153829825
 20
582.9798801519
 30
0.0
 40
9.499999999999966
100
AcDbArc
 50
272.6500308617
 51
319.8237390731
  0
ARC
  5
1DE
330
1F
100
AcDbEntity
  8
0
  6
Continuous
 62
     7
370
    25
100
AcDbCircle
 10
860.0153829825
 20
582.9798801519
 30
0.0
 40
9.500000000000039
100
AcDbArc
 50
221.1328695421
 51
268.4829481011
  0
ARC
  5
1DF
330
1F
100
AcDbEntity
  8
0
  6
Continuous
 62
     7
370
    25
100
AcDbCircle
 10
860.0153829825
 20
582.9798801519
 30
0.0
 40
9.500000000000064
100
AcDbArc
 50
180.0
 51
217.6022992353
  0
ARC
  5
1E0
330
1F
100
AcDbEntity
  8
0
  6
Continuous
 62
     7
370
    25
100
AcDbCircle
 10
860.0153829826
 20
851.6844101871
 30
0.0
 40
9.500000000000002
100
AcDbArc
 50
349.3903770782
 51
0.0
  0
ARC
  5
1E1
330
1F
100
AcDbEntity
  8
0
  6
Continuous
 62
     7
370
    25
100
AcDbCircle
 10
860.0153829826
 20
851.6844101871
 30
0.0
 40
9.499999999999961
100
AcDbArc
 50
322.1363536382
 51
344.8755224609
  0
ARC
  5
1E2
330
1F
100
AcDbEntity
  8
0
  6
Continuous
 62
     7
370
    25
100
AcDbCircle
 10
860.0153829826
 20
851.6844101871
 30
0.0
 40
9.500000000000083
100
AcDbArc
 50
195.4163766839
 51
217.8636463616
  0
ARC
  5
1E3
330
1F
100
AcDbEntity
  8
0
  6
Continuous
 62
     7
370
    25
100
AcDbCircle
 10
860.0153829826
 20
851.6844101871
 30
0.0
 40
9.500000000000021
100
AcDbArc
 50
143.8504706834
 51
190.9028625138
  0
ARC
  5
1E4
330
1F
100
AcDbEntity
  8
0
  6
Continuous
 62
     7
370
    25
100
AcDbCircle
 10
860.0153829826
 20
851.6844101871
 30
0.0
 40
9.500000000000092
100
AcDbArc
 50
92.6500308616
 51
139.8237390732
  0
ARC
  5
1E5
330
1F
100
AcDbEntity
  8
0
  6
Continuous
 62
     7
370
    25
100
AcDbCircle
 10
860.0153829826
 20
851.6844101871
 30
0.0
 40
9.499999999999982
100
AcDbArc
 50
41.1328695418
 51
88.4829481012
  0
ARC
  5
1E6
330
1F
100
AcDbEntity
  8
0
  6
Continuous
 62
     7
370
    25
100
AcDbCircle
 10
860.0153829826
 20
851.6844101871
 30
0.0
 40
9.500000000000062
100
AcDbArc
 50
0.0
 51
37.6022992354
  0
ARC
  5
1E7
330
1F
100
AcDbEntity
  8
0
  6
Continuous
 62
     7
370
    25
100
AcDbCircle
 10
1660.0153829825
 20
582.9798801519
 30
0.0
 40
9.5
100
AcDbArc
 50
169.3903770781
 51
180.0
  0
ARC
  5
1E8
330
1F
100
AcDbEntity
  8
0
  6
Continuous
 62
     7
370
    25
100
AcDbCircle
 10
1660.0153829825
 20
582.9798801519
 30
0.0
 40
9.499999999999938
100
AcDbArc
 50
142.1363536382
 51
164.8755224609
  0
ARC
  5
1E9
330
1F
100
AcDbEntity
  8
0
  6
Continuous
 62
     7
370
    25
100
AcDbCircle
 10
1660.0153829825
 20
582.9798801519
 30
0.0
 40
9.500000000000094
100
AcDbArc
 50
15.4163766839
 51
37.8636463617
  0
ARC
  5
1EA
330
1F
100
AcDbEntity
  8
0
  6
Continuous
 62
     7
370
    25
100
AcDbCircle
 10
1660.0153829825
 20
582.9798801519
 30
0.0
 40
9.500000000000158
100
AcDbArc
 50
323.8504706834
 51
10.9028625138
  0
ARC
  5
1EB
330
1F
100
AcDbEntity
  8
0
  6
Continuous
 62
     7
370
    25
100
AcDbCircle
 10
1660.0153829825
 20
582.9798801519
 30
0.0
 40
9.500000000000094
100
AcDbArc
 50
272.6500308617
 51
319.8237390731
  0
ARC
  5
1EC
330
1F
100
AcDbEntity
  8
0
  6
Continuous
 62
     7
370
    25
100
AcDbCircle
 10
1660.0153829825
 20
582.9798801519
 30
0.0
 40
9.500000000000005
100
AcDbArc
 50
221.1328695421
 51
268.4829481011
  0
ARC
  5
1ED
330
1F
100
AcDbEntity
  8
0
  6
Continuous
 62
     7
370
    25
100
AcDbCircle
 10
1660.0153829825
 20
582.9798801519
 30
0.0
 40
9.5
100
AcDbArc
 50
180.0
 51
217.6022992353
  0
ARC
  5
1EE
330
1F
100
AcDbEntity
  8
0
  6
Continuous
 62
     7
370
    25
100
AcDbCircle
 10
1660.0153829826
 20
851.6844101871
 30
0.0
 40
9.500000000000227
100
AcDbArc
 50
349.3903770782
 51
0.0
  0
ARC
  5
1EF
330
1F
100
AcDbEntity
  8
0
  6
Continuous
 62
     7
370
    25
100
AcDbCircle
 10
1660.0153829826
 20
851.6844101871
 30
0.0
 40
9.500000000000078
100
AcDbArc
 50
322.1363536382
 51
344.8755224609
  0
ARC
  5
1F0
330
1F
100
AcDbEntity
  8
0
  6
Continuous
 62
     7
370
    25
100
AcDbCircle
 10
1660.0153829826
 20
851.6844101871
 30
0.0
 40
9.499999999999897
100
AcDbArc
 50
195.4163766839
 51
217.8636463616
  0
ARC
  5
1F1
330
1F
100
AcDbEntity
  8
0
  6
Continuous
 62
     7
370
    25
100
AcDbCircle
 10
1660.0153829826
 20
851.6844101871
 30
0.0
 40
9.500000000000055
100
AcDbArc
 50
143.8504706834
 51
190.9028625138
  0
ARC
  5
1F2
330
1F
100
AcDbEntity
  8
0
  6
Continuous
 62
     7
370
    25
100
AcDbCircle
 10
1660.0153829826
 20
851.6844101871
 30
0.0
 40
9.50000000000009
100
AcDbArc
 50
92.6500308616
 51
139.8237390732
  0
ARC
  5
1F3
330
1F
100
AcDbEntity
  8
0
  6
Continuous
 62
     7
370
    25
100
AcDbCircle
 10
1660.0153829826
 20
851.6844101871
 30
0.0
 40
9.50000000000014
100
AcDbArc
 50
41.1328695418
 51
88.4829481012
  0
ARC
  5
1F4
330
1F
100
AcDbEntity
  8
0
  6
Continuous
 62
     7
370
    25
100
AcDbCircle
 10
1660.0153829826
 20
851.6844101871
 30
0.0
 40
9.500000000000227
100
AcDbArc
 50
0.0
 51
37.6022992354
  0
LINE
  5
1F5
330
1F
100
AcDbEntity
  8
0
  6
Continuous
 62
     8
370
    18
100
AcDbLine
 10
865.0153829825
 20
590.8737322761
 30
0.0
 11
865.0153829825
 21
592.3321451695
 31
0.0
  0
LINE
  5
1F6
330
1F
100
AcDbEntity
  8
0
  6
Continuous
 62
     8
370
    18
100
AcDbLine
 10
865.0153829825
 20
842.3321451695
 30
0.0
 11
865.0153829825
 21
843.7745746922
 31
0.0
  0
LINE
  5
1F7
330
1F
100
AcDbEntity
  8
0
  6
Continuous
 62
     8
370
    18
100
AcDbLine
 10
865.7790218298
 20
845.735686883
 30
0.0
 11
865.7790218298
 21
847.2175779293
 31
0.0
  0
LINE
  5
1F8
330
1F
100
AcDbEntity
  8
0
  6
Continuous
 62
     8
370
    18
100
AcDbLine
 10
855.0153829825
 20
590.8867616932
 30
0.0
 11
855.0153829825
 21
592.3321451695
 31
0.0
  0
LINE
  5
1F9
330
1F
100
AcDbEntity
  8
0
  6
Continuous
 62
     8
370
    18
100
AcDbLine
 10
855.0153829825
 20
842.3321451695
 30
0.0
 11
855.0153829825
 21
843.7747478419
 31
0.0
  0
LINE
  5
1FA
330
1F
100
AcDbEntity
  8
0
  6
Continuous
 62
     8
370
    18
100
AcDbLine
 10
854.2518094334
 20
847.2172812441
 30
0.0
 11
854.2518094334
 21
845.735788897
 31
0.0
  0
LINE
  5
1FB
330
1F
100
AcDbEntity
  8
0
  6
Continuous
 62
     8
370
    18
100
AcDbLine
 10
1655.0153829825
 20
843.7905580628
 30
0.0
 11
1655.0153829825
 21
842.3321451695
 31
0.0
  0
LINE
  5
1FC
330
1F
100
AcDbEntity
  8
0
  6
Continuous
 62
     8
370
    18
100
AcDbLine
 10
1655.0153829825
 20
592.3321451695
 30
0.0
 11
1655.0153829825
 21
590.8897156467
 31
0.0
  0
LINE
  5
1FD
330
1F
100
AcDbEntity
  8
0
  6
Continuous
 62
     8
370
    18
100
AcDbLine
 10
1654.2517441353
 20
588.9286034559
 30
0.0
 11
1654.2517441353
 21
587.4467124096
 31
0.0
  0
LINE
  5
1FE
330
1F
100
AcDbEntity
  8
0
  6
Continuous
 62
     8
370
    18
100
AcDbLine
 10
1665.0153829825
 20
843.7775286457
 30
0.0
 11
1665.0153829825
 21
842.3321451695
 31
0.0
  0
LINE
  5
1FF
330
1F
100
AcDbEntity
  8
0
  6
Continuous
 62
     8
370
    18
100
AcDbLine
 10
1665.0153829825
 20
592.3321451695
 30
0.0
 11
1665.0153829825
 21
590.8895424971
 31
0.0
  0
LINE
  5
200
330
1F
100
AcDbEntity
  8
0
  6
Continuous
 62
     8
370
    18
100
AcDbLine
 10
1665.7789565317
 20
587.4470090949
 30
0.0
 11
1665.7789565317
 21
588.928501442
 31
0.0
  0
LINE
  5
201
330
1F
100
AcDbEntity
  8
0
  6
Continuous
 62
     7
370
    25
100
AcDbLine
 10
687.0663006792
 20
345.5138880037
 30
0.0
 11
687.0663006792
 21
349.7997245072
 31
0.0
  0
LINE
  5
202
330
1F
100
AcDbEntity
  8
0
  6
Continuous
 62
     7
370
    25
100
AcDbLine
 10
199.5115161167
 20
421.0043411471
 30
0.0
 11
199.5115161167
 21
416.7185046436
 31
0.0
  0
ARC
  5
203
330
1F
100
AcDbEntity
  8
0
  6
Continuous
 62
     7
370
    25
100
AcDbCircle
 10
297.8322920296
 20
462.0060167257
 30
0.0
 40
5.000000000000077
100
AcDbArc
 50
55.82383037
 51
160.2026493222
  0
ARC
  5
204
330
1F
100
AcDbEntity
  8
0
  6
Continuous
 62
     7
370
    25
100
AcDbCircle
 10
297.8322920296
 20
462.0060167257
 30
0.0
 40
5.000000000000019
100
AcDbArc
 50
28.1394202166
 51
47.7816965351
  0
LINE
  5
205
330
1F
100
AcDbEntity
  8
0
  6
Continuous
 62
     7
370
    25
100
AcDbLine
 10
301.7092159028
 20
310.8201501738
 30
0.0
 11
301.7092159028
 21
383.1978472178
 31
0.0
  0
LINE
  5
206
330
1F
100
AcDbEntity
  8
0
  6
Continuous
 62
     7
370
    25
100
AcDbLine
 10
301.7092159028
 20
460.2770354017
 30
0.0
 11
301.7092159028
 21
462.6872098884
 31
0.0
  0
LINE
  5
207
330
1F
100
AcDbEntity
  8
0
  6
Continuous
 62
     7
370
    25
100
AcDbLine
 10
293.6518178567
 20
385.3876753575
 30
0.0
 11
293.6518178567
 21
310.9177471341
 31
0.0
  0
LINE
  5
208
330
1F
100
AcDbEntity
  8
0
  6
Continuous
 62
     7
370
    25
100
AcDbLine
 10
302.4481782088
 20
312.2442373908
 30
0.0
 11
302.4481782088
 21
382.997013097
 31
0.0
  0
LINE
  5
209
330
1F
100
AcDbEntity
  8
0
  6
Continuous
 62
     7
370
    25
100
AcDbLine
 10
302.4481782088
 20
460.0762012809
 30
0.0
 11
302.4481782088
 21
463.8469954438
 31
0.0
  0
LINE
  5
20A
330
1F
100
AcDbEntity
  8
0
  6
Continuous
 62
     7
370
    25
100
AcDbLine
 10
293.117905504
 20
463.6636036308
 30
0.0
 11
293.117905504
 21
462.6119694785
 31
0.0
  0
LINE
  5
20B
330
1F
100
AcDbEntity
  8
0
  6
Continuous
 62
     7
370
    25
100
AcDbLine
 10
293.117905504
 20
385.5327812946
 30
0.0
 11
293.117905504
 21
312.3659388095
 31
0.0
  0
ARC
  5
20C
330
1F
100
AcDbEntity
  8
0
  6
Continuous
 62
     7
370
    25
100
AcDbCircle
 10
234.9782760953
 20
400.6585702949
 30
0.0
 40
5.000000000000001
100
AcDbArc
 50
35.9566773937
 51
74.7954868413
  0
ARC
  5
20D
330
1F
100
AcDbEntity
  8
0
  6
Continuous
 62
     7
370
    25
100
AcDbCircle
 10
234.9782760953
 20
400.6585702949
 30
0.0
 40
4.999999999999951
100
AcDbArc
 50
74.7954868413
 51
138.5310077969
  0
LINE
  5
20E
330
1F
100
AcDbEntity
  8
0
  6
Continuous
 62
     7
370
    25
100
AcDbLine
 10
237.8271862036
 20
249.1721681456
 30
0.0
 11
237.8271862036
 21
401.69016698
 31
0.0
  0
LINE
  5
20F
330
1F
100
AcDbEntity
  8
0
  6
Continuous
 62
     7
370
    25
100
AcDbLine
 10
232.063429038
 20
401.7761745069
 30
0.0
 11
232.063429038
 21
249.2263303723
 31
0.0
  0
LINE
  5
210
330
1F
100
AcDbEntity
  8
0
  6
Continuous
 62
     7
370
    25
100
AcDbLine
 10
239.6926626209
 20
250.2900929654
 30
0.0
 11
239.6926626209
 21
401.5877577866
 31
0.0
  0
LINE
  5
211
330
1F
100
AcDbEntity
  8
0
  6
Continuous
 62
     7
370
    25
100
AcDbLine
 10
230.3623899161
 20
402.0145524372
 30
0.0
 11
230.3623899161
 21
250.4117943841
 31
0.0
  0
LINE
  5
212
330
1F
100
AcDbEntity
  8
0
  6
Continuous
 62
     7
370
    25
100
AcDbLine
 10
239.1587502682
 20
403.1864549942
 30
0.0
 11
239.1587502682
 21
403.251134652
 31
0.0
  0
ARC
  5
213
330
1F
100
AcDbEntity
  8
0
  6
Continuous
 62
     7
370
    25
100
AcDbCircle
 10
651.5995407006
 20
365.8596588522
 30
0.0
 40
5.000000000000004
100
AcDbArc
 50
55.82383037
 51
160.2026493222
  0
ARC
  5
214
330
1F
100
AcDbEntity
  8
0
  6
Continuous
 62
     7
370
    25
100
AcDbCircle
 10
651.5995407006
 20
365.8596588522
 30
0.0
 40
4.99999999999999
100
AcDbArc
 50
28.1394202166
 51
47.7816965351
  0
LINE
  5
215
330
1F
100
AcDbEntity
  8
0
  6
Continuous
 62
     7
370
    25
100
AcDbLine
 10
655.4764645738
 20
214.6737923003
 30
0.0
 11
655.4764645738
 21
312.3214824285
 31
0.0
  0
LINE
  5
216
330
1F
100
AcDbEntity
  8
0
  6
Continuous
 62
     7
370
    25
100
AcDbLine
 10
655.4764645738
 20
364.1306775281
 30
0.0
 11
655.4764645738
 21
366.5408520149
 31
0.0
  0
LINE
  5
217
330
1F
100
AcDbEntity
  8
0
  6
Continuous
 62
     7
370
    25
100
AcDbLine
 10
647.4190665277
 20
304.4572149245
 30
0.0
 11
647.4190665277
 21
214.7713892605
 31
0.0
  0
LINE
  5
218
330
1F
100
AcDbEntity
  8
0
  6
Continuous
 62
     7
370
    25
100
AcDbLine
 10
656.2154268798
 20
216.0978795172
 30
0.0
 11
656.2154268798
 21
313.0427322931
 31
0.0
  0
LINE
  5
219
330
1F
100
AcDbEntity
  8
0
  6
Continuous
 62
     7
370
    25
100
AcDbLine
 10
656.2154268798
 20
363.9298434073
 30
0.0
 11
656.2154268798
 21
367.7006375703
 31
0.0
  0
LINE
  5
21A
330
1F
100
AcDbEntity
  8
0
  6
Continuous
 62
     7
370
    25
100
AcDbLine
 10
646.885154175
 20
367.5172457572
 30
0.0
 11
646.885154175
 21
366.4656116049
 31
0.0
  0
LINE
  5
21B
330
1F
100
AcDbEntity
  8
0
  6
Continuous
 62
     7
370
    25
100
AcDbLine
 10
646.885154175
 20
303.9361001005
 30
0.0
 11
646.885154175
 21
216.219580936
 31
0.0
  0
ARC
  5
21C
330
1F
100
AcDbEntity
  8
0
  6
Continuous
 62
     7
370
    25
100
AcDbCircle
 10
588.7455247663
 20
304.5122124213
 30
0.0
 40
5.000000000000034
100
AcDbArc
 50
35.9566773937
 51
74.7954868413
  0
ARC
  5
21D
330
1F
100
AcDbEntity
  8
0
  6
Continuous
 62
     7
370
    25
100
AcDbCircle
 10
588.7455247663
 20
304.5122124213
 30
0.0
 40
5.000000000000007
100
AcDbArc
 50
74.7954868413
 51
138.5310077969
  0
LINE
  5
21E
330
1F
100
AcDbEntity
  8
0
  6
Continuous
 62
     7
370
    25
100
AcDbLine
 10
591.5944348746
 20
153.025810272
 30
0.0
 11
591.5944348746
 21
305.5438091064
 31
0.0
  0
LINE
  5
21F
330
1F
100
AcDbEntity
  8
0
  6
Continuous
 62
     7
370
    25
100
AcDbLine
 10
585.830677709
 20
305.6298166334
 30
0.0
 11
585.830677709
 21
153.0799724987
 31
0.0
  0
LINE
  5
220
330
1F
100
AcDbEntity
  8
0
  6
Continuous
 62
     7
370
    25
100
AcDbLine
 10
593.4599112918
 20
154.1437350918
 30
0.0
 11
593.4599112918
 21
305.4413999131
 31
0.0
  0
LINE
  5
221
330
1F
100
AcDbEntity
  8
0
  6
Continuous
 62
     7
370
    25
100
AcDbLine
 10
584.129638587
 20
305.8681945636
 30
0.0
 11
584.129638587
 21
154.2654365106
 31
0.0
  0
LINE
  5
222
330
1F
100
AcDbEntity
  8
0
  6
Continuous
 62
     7
370
    25
100
AcDbLine
 10
592.9259989392
 20
307.0400971206
 30
0.0
 11
592.9259989392
 21
307.1047767784
 31
0.0
  0
LINE
  5
223
330
1F
100
AcDbEntity
  8
0
  6
Continuous
 62
     7
370
    25
100
AcDbLine
 10
239.6926626209
 20
384.6823971117
 30
0.0
 11
252.0104272894
 21
396.7049130467
 31
0.0
  0
LINE
  5
224
330
1F
100
AcDbEntity
  8
0
  6
Continuous
 62
     7
370
    25
100
AcDbLine
 10
593.4599112918
 20
288.5360392381
 30
0.0
 11
605.7776759603
 21
300.5585551731
 31
0.0
  0
LINE
  5
225
330
1F
100
AcDbEntity
  8
0
  6
Continuous
 62
     7
370
    25
100
AcDbLine
 10
239.8044927744
 20
249.4429315364
 30
0.0
 11
239.8044927744
 21
250.7286824874
 31
0.0
  0
LINE
  5
226
330
1F
100
AcDbEntity
  8
0
  6
Continuous
 62
     7
370
    25
100
AcDbLine
 10
230.3044927744
 20
250.7286824874
 30
0.0
 11
230.3044927744
 21
249.4429315364
 31
0.0
  0
SPLINE
  5
227
330
1F
100
AcDbEntity
  8
0
  6
Continuous
 62
     7
370
    25
100
AcDbSpline
210
0.0
220
0.0
230
1.0
 70
     8
 71
     3
 72
    38
 73
    34
 74
     0
 42
0.000000001
 43
0.00000001
 40
0.0
 40
0.0
 40
0.0
 40
0.0
 40
0.0187505612682738
 40
0.0478772038793849
 40
0.0767668839802493
 40
0.1055194868329387
 40
0.1342419624848924
 40
0.1630524111188585
 40
0.1920839821461693
 40
0.2214876870248966
 40
0.2514321666451997
 40
0.2820966517134073
 40
0.3136510283008332
 40
0.3462160599260521
 40
0.3798038898811266
 40
0.4142633465296798
 40
0.449285514302346
 40
0.4844308713273776
 40
0.5194258003592405
 40
0.5541809106499925
 40
0.5887239583451693
 40
0.6231534240117306
 40
0.6576050825458452
 40
0.692207719414019
 40
0.7270984569917713
 40
0.7624406771940216
 40
0.7983794416196252
 40
0.8350030863381547
 40
0.8722750057372375
 40
0.9059086945608207
 40
0.9387467235846387
 40
0.9706422907074167
 40
1.0
 40
1.0
 40
1.0
 40
1.0
 10
230.3081705121467
 20
249.4432739671112
 30
0.0
 10
230.3079586578558
 20
249.3766041236324
 30
0.0
 10
230.3074177145243
 20
249.2063710493703
 30
0.0
 10
230.3419903439699
 20
248.9350571495654
 30
0.0
 10
230.4064219907915
 20
248.6337458934614
 30
0.0
 10
230.5005498092789
 20
248.3421743810644
 30
0.0
 10
230.6213614568713
 20
248.0618671291827
 30
0.0
 10
230.7680101319924
 20
247.7940400590699
 30
0.0
 10
230.9393167591882
 20
247.5395922872251
 30
0.0
 10
231.1345608436225
 20
247.2991442607211
 30
0.0
 10
231.3533733716134
 20
247.0731110433044
 30
0.0
 10
231.595800142862
 20
246.8618338633638
 30
0.0
 10
231.8621557348097
 20
246.6657745915469
 30
0.0
 10
232.1526589407702
 20
246.4857436766617
 30
0.0
 10
232.4668155647452
 20
246.3230582303501
 30
0.0
 10
232.8027737286193
 20
246.1794668738477
 30
0.0
 10
233.1568537541555
 20
246.0568515245031
 30
0.0
 10
233.5243206823928
 20
245.9565488286597
 30
0.0
 10
233.9005446862664
 20
245.8790529291454
 30
0.0
 10
234.2821045914295
 20
245.8241598322437
 30
0.0
 10
234.6666970452232
 20
245.7914248828107
 30
0.0
 10
235.0527519835765
 20
245.7804865040271
 30
0.0
 10
235.4390417593362
 20
245.791233298317
 30
0.0
 10
235.8244723632097
 20
245.8238640458808
 30
0.0
 10
236.2080521906112
 20
245.8789308636635
 30
0.0
 10
236.5888449392623
 20
245.9574118725848
 30
0.0
 10
236.965708202404
 20
246.0607549760367
 30
0.0
 10
237.3367630995731
 20
246.1907268844368
 30
0.0
 10
237.6856228920826
 20
246.3433670368181
 30
0.0
 10
238.0072024107738
 20
246.5148322945159
 30
0.0
 10
238.2966890262678
 20
246.7002682390467
 30
0.0
 10
238.5591429206776
 20
246.8977240146734
 30
0.0
 10
238.7156281118938
 20
247.0432713475388
 30
0.0
 10
238.7906289448479
 20
247.1130298410697
 30
0.0
  0
SPLINE
  5
228
330
1F
100
AcDbEntity
  8
0
  6
Continuous
 62
     7
370
    25
100
AcDbSpline
210
0.0
220
0.0
230
1.0
 70
     8
 71
     3
 72
    16
 73
    12
 74
     0
 42
0.000000001
 43
0.00000001
 40
0.0
 40
0.0
 40
0.0
 40
0.0
 40
0.1106591402007553
 40
0.2305804906319521
 40
0.348232788964529
 40
0.4641422452141378
 40
0.5787420116427144
 40
0.7039745936870863
 40
0.8270958050635846
 40
0.9481841995140526
 40
1.0
 40
1.0
 40
1.0
 40
1.0
 10
238.7906289448479
 20
247.1130298410697
 30
0.0
 10
238.8573409582889
 20
247.1811191680713
 30
0.0
 10
238.9963488049281
 20
247.3229969234771
 30
0.0
 10
239.1836457195137
 20
247.5590202789003
 30
0.0
 10
239.3532873577702
 20
247.8143391345265
 30
0.0
 10
239.4968530286215
 20
248.0812017319746
 30
0.0
 10
239.6179496982872
 20
248.3670223109854
 30
0.0
 10
239.7129529590463
 20
248.6702933093607
 30
0.0
 10
239.7752820640424
 20
248.9878731549476
 30
0.0
 10
239.8045617757828
 20
249.2465652346855
 30
0.0
 10
239.8014978005486
 20
249.3981487456338
 30
0.0
 10
239.8005795907302
 20
249.4435751794063
 30
0.0
  0
LINE
  5
229
330
1F
100
AcDbEntity
  8
0
  6
Continuous
 62
     7
370
    25
100
AcDbLine
 10
302.5060753505
 20
310.6415983364
 30
0.0
 11
302.5060753505
 21
311.9273492875
 31
0.0
  0
LINE
  5
22A
330
1F
100
AcDbEntity
  8
0
  6
Continuous
 62
     7
370
    25
100
AcDbLine
 10
293.0060753505
 20
311.9273492875
 30
0.0
 11
293.0060753505
 21
310.6415983364
 31
0.0
  0
SPLINE
  5
22B
330
1F
100
AcDbEntity
  8
0
  6
Continuous
 62
     7
370
    25
100
AcDbSpline
210
0.0
220
0.0
230
1.0
 70
     8
 71
     3
 72
    47
 73
    43
 74
     0
 42
0.000000001
 43
0.00000001
 40
0.0
 40
0.0
 40
0.0
 40
0.0
 40
0.0133818073074847
 40
0.0367646315167884
 40
0.0599520661122148
 40
0.0830239703788546
 40
0.1060656608079304
 40
0.1291711771096856
 40
0.1524464370008462
 40
0.1760115886469498
 40
0.2000010646674905
 40
0.2245584366231786
 40
0.2498213070010709
 40
0.2758905943647371
 40
0.3027835564340505
 40
0.3303884417010302
 40
0.3584642221478856
 40
0.386662613351227
 40
0.4147493738048806
 40
0.4426451970523331
 40
0.4703672138001427
 40
0.4979915959532273
 40
0.5256258224687522
 40
0.5533753220790258
 40
0.5813469857509086
 40
0.6096722263603723
 40
0.6384691504867421
 40
0.6678131483281678
 40
0.6976837941584563
 40
0.724705883424707
 40
0.751104289165883
 40
0.7767501544329872
 40
0.8016501439103191
 40
0.8258889166937843
 40
0.8495787778433288
 40
0.8728313417720412
 40
0.8957459683413965
 40
0.9184072960415949
 40
0.9431552057338821
 40
0.9674894585283771
 40
0.9914267430688483
 40
1.0
 40
1.0
 40
1.0
 40
1.0
 10
293.0099885341812
 20
310.6409546933992
 30
0.0
 10
293.0094597673454
 20
310.5816520127628
 30
0.0
 10
293.0080070549106
 20
310.4187262470979
 30
0.0
 10
293.0403203782715
 20
310.1543933567152
 30
0.0
 10
293.1026412439805
 20
309.8524897173177
 30
0.0
 10
293.1949297200751
 20
309.5602079715844
 30
0.0
 10
293.31394725156
 20
309.2790975802715
 30
0.0
 10
293.4588949068786
 20
309.0103952591556
 30
0.0
 10
293.6285603152416
 20
308.755020842163
 30
0.0
 10
293.8222032256742
 20
308.5136118080034
 30
0.0
 10
294.0394255418436
 20
308.2865936815231
 30
0.0
 10
294.2802480886538
 20
308.0743072212143
 30
0.0
 10
294.5449755513471
 20
307.8771989756536
 30
0.0
 10
294.8338504264725
 20
307.6960492333606
 30
0.0
 10
295.1464488316739
 20
307.5321397590649
 30
0.0
 10
295.4810250068762
 20
307.3871989905093
 30
0.0
 10
295.834019162442
 20
307.2631160451338
 30
0.0
 10
296.2007286766093
 20
307.1612808648757
 30
0.0
 10
296.5764848302246
 20
307.082243388028
 30
0.0
 10
296.9577665675906
 20
307.0258352749159
 30
0.0
 10
297.3422099265788
 20
306.9916153273562
 30
0.0
 10
297.7282051966818
 20
306.9792097766253
 30
0.0
 10
298.1145158938428
 20
306.9884873706337
 30
0.0
 10
298.5000368950966
 20
307.0196250612368
 30
0.0
 10
298.8837734973547
 20
307.0731492231729
 30
0.0
 10
299.2647849118167
 20
307.1500067225008
 30
0.0
 10
299.6419636363992
 20
307.251613066234
 30
0.0
 10
300.0134883006602
 20
307.3797328699207
 30
0.0
 10
300.3632918648989
 20
307.5305384291817
 30
0.0
 10
300.6861482568839
 20
307.7004694653493
 30
0.0
 10
300.9776735577585
 20
307.8842378942072
 30
0.0
 10
301.2453439072112
 20
308.0850613359992
 30
0.0
 10
301.488267298153
 20
308.3014182012946
 30
0.0
 10
301.7062078033186
 20
308.532152562037
 30
0.0
 10
301.8990492083659
 20
308.77627300187
 30
0.0
 10
302.0665106962188
 20
309.0327360618704
 30
0.0
 10
302.2081853214866
 20
309.3003150860882
 30
0.0
 10
302.3271427715801
 20
309.5867591105189
 30
0.0
 10
302.4199736362614
 20
309.8903929005456
 30
0.0
 10
302.479813442652
 20
310.2080535503234
 30
0.0
 10
302.5070436568865
 20
310.4592797771899
 30
0.0
 10
302.503367136799
 20
310.6032816149603
 30
0.0
 10
302.5023976127647
 20
310.6412559056944
 30
0.0
  0
LINE
  5
22C
330
1F
100
AcDbEntity
  8
0
  6
Continuous
 62
     7
370
    25
100
AcDbLine
 10
593.5717414454
 20
153.2965736628
 30
0.0
 11
593.5717414454
 21
154.5823246139
 31
0.0
  0
LINE
  5
22D
330
1F
100
AcDbEntity
  8
0
  6
Continuous
 62
     7
370
    25
100
AcDbLine
 10
584.0717414454
 20
154.5823246139
 30
0.0
 11
584.0717414454
 21
153.2965736628
 31
0.0
  0
SPLINE
  5
22E
330
1F
100
AcDbEntity
  8
0
  6
Continuous
 62
     7
370
    25
100
AcDbSpline
210
0.0
220
0.0
230
1.0
 70
     8
 71
     3
 72
    38
 73
    34
 74
     0
 42
0.000000001
 43
0.00000001
 40
0.0
 40
0.0
 40
0.0
 40
0.0
 40
0.0187505612682699
 40
0.0478772038793822
 40
0.0767668839802462
 40
0.1055194868329364
 40
0.1342419624848894
 40
0.1630524111188557
 40
0.192083982146167
 40
0.2214876870248939
 40
0.2514321666451996
 40
0.2820966517134046
 40
0.3136510283008308
 40
0.3462160599260497
 40
0.3798038898811241
 40
0.4142633465296772
 40
0.4492855143023434
 40
0.4844308713273773
 40
0.5194258003592401
 40
0.5541809106499919
 40
0.5887239583451663
 40
0.6231534240117302
 40
0.6576050825458448
 40
0.6922077194140186
 40
0.7270984569917709
 40
0.7624406771940211
 40
0.798379441619626
 40
0.8350030863381549
 40
0.8722750057372366
 40
0.9059086945608208
 40
0.938746723584639
 40
0.9706422907074169
 40
1.0
 40
1.0
 40
1.0
 40
1.0
 10
584.0754191831154
 20
153.2969160935428
 30
0.0
 10
584.0752073288245
 20
153.2302462500641
 30
0.0
 10
584.0746663854928
 20
153.060013175802
 30
0.0
 10
584.1092390149386
 20
152.7886992759971
 30
0.0
 10
584.1736706617601
 20
152.4873880198931
 30
0.0
 10
584.2677984802475
 20
152.1958165074961
 30
0.0
 10
584.38861012784
 20
151.9155092556143
 30
0.0
 10
584.5352588029609
 20
151.6476821855015
 30
0.0
 10
584.7065654301567
 20
151.3932344136567
 30
0.0
 10
584.901809514591
 20
151.1527863871528
 30
0.0
 10
585.120622042582
 20
150.926753169736
 30
0.0
 10
585.3630488138306
 20
150.7154759897954
 30
0.0
 10
585.6294044057782
 20
150.5194167179786
 30
0.0
 10
585.9199076117387
 20
150.3393858030933
 30
0.0
 10
586.2340642357137
 20
150.1767003567818
 30
0.0
 10
586.5700223995879
 20
150.0331090002793
 30
0.0
 10
586.924102425124
 20
149.9104936509348
 30
0.0
 10
587.2915693533614
 20
149.8101909550913
 30
0.0
 10
587.6677933572349
 20
149.7326950555771
 30
0.0
 10
588.0493532623982
 20
149.6778019586753
 30
0.0
 10
588.4339457161917
 20
149.6450670092424
 30
0.0
 10
588.8200006545451
 20
149.6341286304587
 30
0.0
 10
589.2062904303048
 20
149.6448754247486
 30
0.0
 10
589.5917210341784
 20
149.6775061723124
 30
0.0
 10
589.9753008615797
 20
149.7325729900951
 30
0.0
 10
590.3560936102311
 20
149.8110539990164
 30
0.0
 10
590.7329568733726
 20
149.9143971024683
 30
0.0
 10
591.1040117705417
 20
150.0443690108685
 30
0.0
 10
591.4528715630513
 20
150.1970091632497
 30
0.0
 10
591.7744510817424
 20
150.3684744209475
 30
0.0
 10
592.0639376972365
 20
150.5539103654783
 30
0.0
 10
592.3263915916463
 20
150.751366141105
 30
0.0
 10
592.4828767828624
 20
150.8969134739704
 30
0.0
 10
592.5578776158166
 20
150.9666719675014
 30
0.0
  0
SPLINE
  5
22F
330
1F
100
AcDbEntity
  8
0
  6
Continuous
 62
     7
370
    25
100
AcDbSpline
210
0.0
220
0.0
230
1.0
 70
     8
 71
     3
 72
    16
 73
    12
 74
     0
 42
0.000000001
 43
0.00000001
 40
0.0
 40
0.0
 40
0.0
 40
0.0
 40
0.1106591402007561
 40
0.230580490631949
 40
0.3482327889645273
 40
0.4641422452141364
 40
0.5787420116427137
 40
0.7039745936870909
 40
0.8270958050635911
 40
0.9481841995140611
 40
1.0
 40
1.0
 40
1.0
 40
1.0
 10
592.5578776158166
 20
150.9666719675014
 30
0.0
 10
592.6245896292575
 20
151.0347612945029
 30
0.0
 10
592.7635974758967
 20
151.1766390499087
 30
0.0
 10
592.9508943904823
 20
151.4126624053319
 30
0.0
 10
593.1205360287389
 20
151.6679812609581
 30
0.0
 10
593.2641016995901
 20
151.9348438584062
 30
0.0
 10
593.3851983692558
 20
152.220664437417
 30
0.0
 10
593.4802016300151
 20
152.5239354357923
 30
0.0
 10
593.5425307350109
 20
152.8415152813792
 30
0.0
 10
593.5718104467513
 20
153.1002073611172
 30
0.0
 10
593.5687464715172
 20
153.2517908720655
 30
0.0
 10
593.5678282616989
 20
153.2972173058379
 30
0.0
  0
LINE
  5
230
330
1F
100
AcDbEntity
  8
0
  6
Continuous
 62
     7
370
    25
100
AcDbLine
 10
656.2733240214
 20
214.4952404629
 30
0.0
 11
656.2733240214
 21
215.7809914139
 31
0.0
  0
LINE
  5
231
330
1F
100
AcDbEntity
  8
0
  6
Continuous
 62
     7
370
    25
100
AcDbLine
 10
646.7733240214
 20
215.7809914139
 30
0.0
 11
646.7733240214
 21
214.4952404629
 31
0.0
  0
SPLINE
  5
232
330
1F
100
AcDbEntity
  8
0
  6
Continuous
 62
     7
370
    25
100
AcDbSpline
210
0.0
220
0.0
230
1.0
 70
     8
 71
     3
 72
    47
 73
    43
 74
     0
 42
0.000000001
 43
0.00000001
 40
0.0
 40
0.0
 40
0.0
 40
0.0
 40
0.0133818073074834
 40
0.0367646315167872
 40
0.0599520661122134
 40
0.0830239703788533
 40
0.1060656608079277
 40
0.1291711771096846
 40
0.1524464370008435
 40
0.1760115886469471
 40
0.2000010646674882
 40
0.2245584366231744
 40
0.2498213070010684
 40
0.2758905943647348
 40
0.3027835564340482
 40
0.3303884417010259
 40
0.3584642221478834
 40
0.3866626133512229
 40
0.4147493738048781
 40
0.4426451970523307
 40
0.4703672138001403
 40
0.4979915959532248
 40
0.5256258224687493
 40
0.5533753220790235
 40
0.5813469857509077
 40
0.6096722263603714
 40
0.6384691504867412
 40
0.667813148328167
 40
0.6976837941584554
 40
0.7247058834247061
 40
0.751104289165882
 40
0.7767501544329862
 40
0.8016501439103171
 40
0.8258889166937815
 40
0.8495787778433255
 40
0.8728313417720389
 40
0.8957459683413951
 40
0.9184072960415928
 40
0.9431552057338817
 40
0.967489458528377
 40
0.9914267430688471
 40
1.0
 40
1.0
 40
1.0
 40
1.0
 10
646.7772372051497
 20
214.4945968198309
 30
0.0
 10
646.7767084383139
 20
214.4352941391945
 30
0.0
 10
646.7752557258791
 20
214.2723683735295
 30
0.0
 10
646.80756904924
 20
214.0080354831468
 30
0.0
 10
646.869889914949
 20
213.7061318437493
 30
0.0
 10
646.9621783910437
 20
213.413850098016
 30
0.0
 10
647.0811959225284
 20
213.1327397067031
 30
0.0
 10
647.2261435778472
 20
212.8640373855873
 30
0.0
 10
647.39580898621
 20
212.6086629685947
 30
0.0
 10
647.5894518966427
 20
212.367253934435
 30
0.0
 10
647.8066742128121
 20
212.1402358079547
 30
0.0
 10
648.0474967596222
 20
211.9279493476459
 30
0.0
 10
648.3122242223156
 20
211.7308411020852
 30
0.0
 10
648.6010990974409
 20
211.5496913597922
 30
0.0
 10
648.9136975026423
 20
211.3857818854965
 30
0.0
 10
649.2482736778446
 20
211.2408411169409
 30
0.0
 10
649.6012678334104
 20
211.1167581715654
 30
0.0
 10
649.9679773475777
 20
211.0149229913074
 30
0.0
 10
650.343733501193
 20
210.9358855144596
 30
0.0
 10
650.725015238559
 20
210.8794774013475
 30
0.0
 10
651.1094585975471
 20
210.8452574537878
 30
0.0
 10
651.4954538676502
 20
210.8328519030569
 30
0.0
 10
651.8817645648114
 20
210.8421294970653
 30
0.0
 10
652.2672855660652
 20
210.8732671876683
 30
0.0
 10
652.6510221683233
 20
210.9267913496045
 30
0.0
 10
653.0320335827854
 20
211.0036488489324
 30
0.0
 10
653.4092123073676
 20
211.1052551926657
 30
0.0
 10
653.7807369716286
 20
211.2333749963524
 30
0.0
 10
654.1305405358675
 20
211.3841805556132
 30
0.0
 10
654.4533969278524
 20
211.5541115917809
 30
0.0
 10
654.7449222287269
 20
211.7378800206388
 30
0.0
 10
655.0125925781797
 20
211.9387034624308
 30
0.0
 10
655.2555159691215
 20
212.1550603277262
 30
0.0
 10
655.473456474287
 20
212.3857946884686
 30
0.0
 10
655.6662978793344
 20
212.6299151283015
 30
0.0
 10
655.8337593671873
 20
212.8863781883021
 30
0.0
 10
655.975433992455
 20
213.1539572125198
 30
0.0
 10
656.0943914425486
 20
213.4404012369505
 30
0.0
 10
656.1872223072298
 20
213.7440350269772
 30
0.0
 10
656.2470621136205
 20
214.061695676755
 30
0.0
 10
656.274292327855
 20
214.3129219036216
 30
0.0
 10
656.2706158077675
 20
214.4569237413919
 30
0.0
 10
656.2696462837332
 20
214.494898032126
 30
0.0
  0
LWPOLYLINE
  5
233
330
1F
100
AcDbEntity
  8
0
  6
Continuous
 62
     7
370
    25
100
AcDbPolyline
 90
       37
 70
   128
 43
0.0
 10
267.7145750377
 20
469.5160503717
 10
266.9926686438
 20
469.7019951561
 10
266.2557013875
 20
469.8715448693
 10
265.505076128
 20
470.0243767638
 10
264.742221723
 20
470.1601999153
 10
263.9685903094
 20
470.2787557768
 10
263.1856545384
 20
470.3798186705
 10
262.3949047729
 20
470.4631962174
 10
261.5978462499
 20
470.5287297035
 10
260.7959962156
 20
470.5762943823
 10
259.9908810372
 20
470.6057997116
 10
259.1840332971
 20
470.6171895263
 10
258.3769888759
 20
470.6104421453
 10
257.5712840285
 20
470.5855704126
 10
256.7684524599
 20
470.5426216729
 10
255.9700224056
 20
470.4816776817
 10
255.1775137226
 20
470.4028544493
 10
254.3924349962
 20
470.3063020201
 10
253.6162806684
 20
470.1922041873
 10
252.850528193
 20
470.0607781425
 10
252.0966352235
 20
469.9122740627
 10
251.3560368379
 20
469.7469746338
 10
250.6301428074
 20
469.5651945127
 10
249.9203349124
 20
469.3672797282
 10
249.2279643128
 20
469.1536070223
 10
248.5543489752
 20
468.9245831332
 10
247.9007711647
 20
468.6806440208
 10
247.2684750039
 20
468.4222540371
 10
246.6586641044
 20
468.1499050422
 10
246.072499276
 20
467.8641154678
 10
245.5110963166
 20
467.5654293307
 10
244.9755238888
 20
467.2544151968
 10
244.4668014851
 20
466.9316650992
 10
243.9858974876
 20
466.5977934112
 10
243.5337273242
 20
466.2534356763
 10
243.1111517266
 20
465.8992473993
 10
242.7189750915
 20
465.5359027975
  0
LINE
  5
234
330
1F
100
AcDbEntity
  8
0
  6
Continuous
 62
     7
370
    25
100
AcDbLine
 10
267.7145750377
 20
469.5160503717
 30
0.0
 11
677.2001653744
 21
358.2266411331
 31
0.0
  0
LWPOLYLINE
  5
235
330
1F
100
AcDbEntity
  8
0
  6
Continuous
 62
     7
370
    25
100
AcDbPolyline
 90
       37
 70
   128
 43
0.0
 10
684.9280359302
 20
345.3529554555
 10
685.2890670723
 20
345.724764735
 10
685.6182654781
 20
346.1043309319
 10
685.9150044998
 20
346.4909315205
 10
686.1787192777
 20
346.8838305847
 10
686.4089078157
 20
347.2822802187
 10
686.605131937
 20
347.6855219509
 10
686.7670181177
 20
348.0927881879
 10
686.8942581983
 20
348.5033036752
 10
686.9866099701
 20
348.9162869732
 10
687.0438976362
 20
349.3309519448
 10
687.0660121463
 20
349.7465092516
 10
687.0529114042
 20
350.1621678566
 10
687.0046203478
 20
350.5771365302
 10
686.921230902
 20
350.9906253558
 10
686.8029018033
 20
351.4018472339
 10
686.6498582978
 20
351.8100193803
 10
686.4623917126
 20
352.2143648162
 10
686.240858901
 20
352.6141138471
 10
685.9856815632
 20
353.0085055278
 10
685.6973454439
 20
353.3967891115
 10
685.3763994072
 20
353.7782254783
 10
685.0234543922
 20
354.1520885424
 10
684.6391822497
 20
354.5176666342
 10
684.2243144636
 20
354.874263855
 10
683.7796407583
 20
355.2212014017
 10
683.3060075955
 20
355.557818859
 10
682.8043165629
 20
355.8834754564
 10
682.2755226577
 20
356.1975512881
 10
681.7206324694
 20
356.4994484929
 10
681.1407022629
 20
356.7885923924
 10
680.5368359682
 20
357.0644325846
 10
679.9101830793
 20
357.326443992
 10
679.2619364655
 20
357.5741278612
 10
678.593330101
 20
357.8070127116
 10
677.9056367162
 20
358.0246552339
 10
677.2001653744
 20
358.2266411331
  0
LINE
  5
236
330
1F
100
AcDbEntity
  8
0
  6
Continuous
 62
     7
370
    25
100
AcDbLine
 10
684.9280359302
 20
345.3529554555
 30
0.0
 11
643.8588417044
 21
305.2681628568
 31
0.0
  0
LWPOLYLINE
  5
237
330
1F
100
AcDbEntity
  8
0
  6
Continuous
 62
     7
370
    25
100
AcDbPolyline
 90
       37
 70
   128
 43
0.0
 10
618.8632417581
 20
301.2880152825
 10
619.5851481521
 20
301.1020704981
 10
620.3221154084
 20
300.9325207849
 10
621.0727406679
 20
300.7796888905
 10
621.8355950729
 20
300.6438657389
 10
622.6092264865
 20
300.5253098774
 10
623.3921622574
 20
300.4242469838
 10
624.182912023
 20
300.3408694369
 10
624.979970546
 20
300.2753359507
 10
625.7818205803
 20
300.227771272
 10
626.5869357587
 20
300.1982659427
 10
627.3937834988
 20
300.186876128
 10
628.20082792
 20
300.193623509
 10
629.0065327674
 20
300.2184952417
 10
629.809364336
 20
300.2614439814
 10
630.6077943903
 20
300.3223879726
 10
631.4003030733
 20
300.401211205
 10
632.1853817997
 20
300.4977636341
 10
632.9615361275
 20
300.611861467
 10
633.7272886029
 20
300.7432875118
 10
634.4811815724
 20
300.8917915916
 10
635.221779958
 20
301.0570910205
 10
635.9476739885
 20
301.2388711416
 10
636.6574818835
 20
301.4367859261
 10
637.3498524831
 20
301.650458632
 10
638.0234678207
 20
301.8794825211
 10
638.6770456312
 20
302.1234216335
 10
639.309341792
 20
302.3818116171
 10
639.9191526915
 20
302.6541606121
 10
640.5053175199
 20
302.9399501865
 10
641.0667204793
 20
303.2386363236
 10
641.6022929071
 20
303.5496504575
 10
642.1110153107
 20
303.8724005551
 10
642.5919193083
 20
304.2062722431
 10
643.0440894717
 20
304.5506299779
 10
643.4666650693
 20
304.904818255
 10
643.8588417044
 20
305.2681628568
  0
LINE
  5
238
330
1F
100
AcDbEntity
  8
0
  6
Continuous
 62
     7
370
    25
100
AcDbLine
 10
618.8632417581
 20
301.2880152825
 30
0.0
 11
591.392827427
 21
308.753885278
 31
0.0
  0
LINE
  5
239
330
1F
100
AcDbEntity
  8
0
  6
Continuous
 62
     7
370
    25
100
AcDbLine
 10
588.6094071178
 20
309.5103592765
 30
0.0
 11
237.625578756
 21
404.9002431515
 31
0.0
  0
LINE
  5
23A
330
1F
100
AcDbEntity
  8
0
  6
Continuous
 62
     7
370
    25
100
AcDbLine
 10
234.8421584469
 20
405.6567171501
 30
0.0
 11
209.3776514215
 21
412.5774245212
 31
0.0
  0
LWPOLYLINE
  5
23B
330
1F
100
AcDbEntity
  8
0
  6
Continuous
 62
     7
370
    25
100
AcDbPolyline
 90
       37
 70
   128
 43
0.0
 10
201.6497808657
 20
425.4511101987
 10
201.2887497236
 20
425.0793009193
 10
200.9595513177
 20
424.6997347224
 10
200.6628122961
 20
424.3131341337
 10
200.3990975182
 20
423.9202350696
 10
200.1689089801
 20
423.5217854356
 10
199.9726848589
 20
423.1185437033
 10
199.8107986781
 20
422.7112774664
 10
199.6835585975
 20
422.3007619791
 10
199.5912068258
 20
421.8877786811
 10
199.5339191597
 20
421.4731137095
 10
199.5118046496
 20
421.0575564027
 10
199.5249053917
 20
420.6418977976
 10
199.5731964481
 20
420.2269291241
 10
199.6565858939
 20
419.8134402985
 10
199.7749149926
 20
419.4022184204
 10
199.9279584981
 20
418.9940462739
 10
200.1154250833
 20
418.589700838
 10
200.3369578949
 20
418.1899518072
 10
200.5921352326
 20
417.7955601264
 10
200.880471352
 20
417.4072765427
 10
201.2014173886
 20
417.0258401759
 10
201.5543624037
 20
416.6519771119
 10
201.9386345462
 20
416.2863990201
 10
202.3535023323
 20
415.9298017993
 10
202.7981760376
 20
415.5828642526
 10
203.2718092004
 20
415.2462467953
 10
203.773500233
 20
414.9205901979
 10
204.3022941381
 20
414.6065143661
 10
204.8571843265
 20
414.3046171613
 10
205.437114533
 20
414.0154732619
 10
206.0409808277
 20
413.7396330697
 10
206.6676337166
 20
413.4776216622
 10
207.3158803304
 20
413.2299377931
 10
207.9844866948
 20
412.9970529426
 10
208.6721800797
 20
412.7794104204
 10
209.3776514215
 20
412.5774245212
  0
LINE
  5
23C
330
1F
100
AcDbEntity
  8
0
  6
Continuous
 62
     7
370
    25
100
AcDbLine
 10
201.6497808657
 20
425.4511101987
 30
0.0
 11
242.7189750915
 21
465.5359027975
 31
0.0
  0
LWPOLYLINE
  5
23D
330
1F
100
AcDbEntity
  8
0
  6
Continuous
 62
     7
370
    25
100
AcDbPolyline
 90
       37
 70
   128
 43
0.0
 10
643.8588417044
 20
300.9823263533
 10
643.4666650693
 20
300.6189817515
 10
643.0440894717
 20
300.2647934744
 10
642.5919193083
 20
299.9204357396
 10
642.1110153107
 20
299.5865640515
 10
641.6022929071
 20
299.263813954
 10
641.0667204793
 20
298.9527998201
 10
640.5053175199
 20
298.6541136829
 10
639.9191526915
 20
298.3683241086
 10
639.309341792
 20
298.0959751136
 10
638.6770456312
 20
297.83758513
 10
638.0234678207
 20
297.5936460176
 10
637.3498524831
 20
297.3646221285
 10
636.6574818835
 20
297.1509494226
 10
635.9476739885
 20
296.9530346381
 10
635.221779958
 20
296.771254517
 10
634.4811815724
 20
296.6059550881
 10
633.7272886029
 20
296.4574510083
 10
632.9615361275
 20
296.3260249635
 10
632.1853817997
 20
296.2119271306
 10
631.4003030733
 20
296.1153747015
 10
630.6077943903
 20
296.0365514691
 10
629.809364336
 20
295.9756074778
 10
629.0065327674
 20
295.9326587382
 10
628.20082792
 20
295.9077870055
 10
627.3937834988
 20
295.9010396245
 10
626.5869357587
 20
295.9124294392
 10
625.7818205803
 20
295.9419347685
 10
624.979970546
 20
295.9894994472
 10
624.182912023
 20
296.0550329334
 10
623.3921622574
 20
296.1384104802
 10
622.6092264865
 20
296.2394733739
 10
621.8355950729
 20
296.3580292354
 10
621.0727406679
 20
296.493852387
 10
620.3221154084
 20
296.6466842814
 10
619.5851481521
 20
296.8162339946
 10
618.8632417581
 20
297.002178779
  0
LINE
  5
23E
330
1F
100
AcDbEntity
  8
0
  6
Continuous
 62
     7
370
    25
100
AcDbLine
 10
618.8632417581
 20
297.002178779
 30
0.0
 11
593.4599112918
 21
303.9062596722
 31
0.0
  0
LINE
  5
23F
330
1F
100
AcDbEntity
  8
0
  6
Continuous
 62
     7
370
    25
100
AcDbLine
 10
584.2404574839
 20
306.4119096682
 30
0.0
 11
239.6926626209
 21
400.0526175458
 31
0.0
  0
LINE
  5
240
330
1F
100
AcDbEntity
  8
0
  6
Continuous
 62
     7
370
    25
100
AcDbLine
 10
230.473208813
 20
402.5582675418
 30
0.0
 11
209.3776514215
 21
408.2915880177
 31
0.0
  0
LINE
  5
241
330
1F
100
AcDbEntity
  8
0
  6
Continuous
 62
     7
370
    25
100
AcDbLine
 10
684.9280359302
 20
341.067118952
 30
0.0
 11
643.8588417044
 21
300.9823263533
 31
0.0
  0
ARC
  5
242
330
1F
100
AcDbEntity
  8
0
  6
Continuous
 62
     7
370
    25
100
AcDbCircle
 10
680.8282563165
 20
345.7760164799
 30
0.0
 40
6.243549375867231
100
AcDbArc
 50
311.0443075172
 51
357.5937931885
  0
LWPOLYLINE
  5
243
330
1F
100
AcDbEntity
  8
0
  6
Continuous
 62
     7
370
    25
100
AcDbPolyline
 90
       26
 70
   128
 43
0.0
 10
209.3776514215
 20
408.2915880177
 10
208.6721800797
 20
408.4935739168
 10
207.9844866948
 20
408.7112164391
 10
207.3158803304
 20
408.9441012896
 10
206.6676337166
 20
409.1917851587
 10
206.0409808277
 20
409.4537965662
 10
205.437114533
 20
409.7296367584
 10
204.8571843265
 20
410.0187806578
 10
204.3022941381
 20
410.3206778626
 10
203.773500233
 20
410.6347536944
 10
203.2718092004
 20
410.9604102918
 10
202.7981760376
 20
411.2970277491
 10
202.3535023323
 20
411.6439652958
 10
201.9386345462
 20
412.0005625166
 10
201.5543624037
 20
412.3661406083
 10
201.2014173886
 20
412.7400036724
 10
200.880471352
 20
413.1214400392
 10
200.5921352326
 20
413.5097236229
 10
200.3369578949
 20
413.9041153037
 10
200.1154250833
 20
414.3038643345
 10
199.9279584981
 20
414.7082097704
 10
199.7749149926
 20
415.1163819169
 10
199.6565858939
 20
415.527603795
 10
199.5731964481
 20
415.9410926206
 10
199.5249053917
 20
416.3560612941
 10
199.5115161167
 20
416.7185046436
  0
SPLINE
  5
244
330
1F
100
AcDbEntity
  8
0
  6
Continuous
 62
     7
370
    25
100
AcDbSpline
210
0.0
220
0.0
230
1.0
 70
     8
 71
     3
 72
    16
 73
    12
 74
     0
 42
0.000000001
 43
0.00000001
 40
0.0
 40
0.0
 40
0.0
 40
0.0
 40
0.0120458643384804
 40
0.0632486515315167
 40
0.1158694259250664
 40
0.2086619335744972
 40
0.3036832865111192
 40
0.4808203735811106
 40
0.6626887474818851
 40
0.829722423617492
 40
1.0
 40
1.0
 40
1.0
 40
1.0
 10
293.1280799766092
 20
463.6995603721929
 30
0.0
 10
293.1267082152871
 20
463.6959394777021
 30
0.0
 10
293.119505572836
 20
463.6769274178413
 30
0.0
 10
293.1166835697341
 20
463.6619418936182
 30
0.0
 10
293.1214491227566
 20
463.6529492335323
 30
0.0
 10
293.1467047219488
 20
463.672924375514
 30
0.0
 10
293.2112439680142
 20
463.7347214212718
 30
0.0
 10
293.3318165808735
 20
463.8488309799507
 30
0.0
 10
293.5230297577716
 20
464.0125771331836
 30
0.0
 10
293.7534296222165
 20
464.196082821149
 30
0.0
 10
293.9342340836575
 20
464.3323609695308
 30
0.0
 10
294.0255057067163
 20
464.4011553327401
 30
0.0
  0
SPLINE
  5
245
330
1F
100
AcDbEntity
  8
0
  6
Continuous
 62
     7
370
    25
100
AcDbSpline
210
0.0
220
0.0
230
1.0
 70
     8
 71
     3
 72
    13
 73
     9
 74
     0
 42
0.000000001
 43
0.00000001
 40
0.0
 40
0.0
 40
0.0
 40
0.0
 40
0.3101088972533265
 40
0.4888254139352305
 40
0.6689560100645094
 40
0.8220517574361121
 40
0.9652827488868299
 40
1.0
 40
1.0
 40
1.0
 40
1.0
 10
300.9026947201227
 20
465.9500807718488
 30
0.0
 10
300.870125481028
 20
465.9746005241747
 30
0.0
 10
300.8187865097085
 20
466.0132510697941
 30
0.0
 10
300.7441762173288
 20
466.0678912259435
 30
0.0
 10
300.6919508458215
 20
466.1059175291841
 30
0.0
 10
300.6583253904247
 20
466.1302344777814
 30
0.0
 10
300.6419650766415
 20
466.1420443054785
 30
0.0
 10
300.6412271334236
 20
466.1423464025453
 30
0.0
 10
300.6410831625722
 20
466.1424053409174
 30
0.0
  0
SPLINE
  5
246
330
1F
100
AcDbEntity
  8
0
  6
Continuous
 62
     7
370
    25
100
AcDbSpline
210
0.0
220
0.0
230
1.0
 70
     8
 71
     3
 72
    19
 73
    15
 74
     0
 42
0.000000001
 43
0.00000001
 40
0.0
 40
0.0
 40
0.0
 40
0.0
 40
0.1462989393294023
 40
0.2968342320947063
 40
0.4130092114013231
 40
0.5318264424054261
 40
0.5922577480678302
 40
0.6535875519085734
 40
0.7012382240883546
 40
0.7500383299230644
 40
0.8281615790560172
 40
0.906244920453875
 40
0.9630522543728792
 40
0.9999999999999999
 40
0.9999999999999999
 40
0.9999999999999999
 40
0.9999999999999999
 10
301.4402653186968
 20
464.3990326826175
 30
0.0
 10
301.5447837642843
 20
464.3279744676784
 30
0.0
 10
301.7568471782631
 20
464.1838004171889
 30
0.0
 10
302.0039750441741
 20
464.0201843032556
 30
0.0
 10
302.1973474901161
 20
463.8959311069131
 30
0.0
 10
302.3148294910371
 20
463.8278073508185
 30
0.0
 10
302.3868019829185
 20
463.7987813376575
 30
0.0
 10
302.4240953241923
 20
463.7955424883698
 30
0.0
 10
302.4449707381017
 20
463.8123795614572
 30
0.0
 10
302.4519053540684
 20
463.8553819933776
 30
0.0
 10
302.430263839376
 20
463.9524153603333
 30
0.0
 10
302.3685747637922
 20
464.1070952222584
 30
0.0
 10
302.3020505562485
 20
464.2491976191675
 30
0.0
 10
302.2579894383089
 20
464.3313133945526
 30
0.0
 10
302.2406254833578
 20
464.3636742308464
 30
0.0
  0
SPLINE
  5
247
330
1F
100
AcDbEntity
  8
0
  6
Continuous
 62
     7
370
    25
100
AcDbSpline
210
0.0
220
0.0
230
1.0
 70
     8
 71
     3
 72
     9
 73
     5
 74
     0
 42
0.000000001
 43
0.00000001
 40
0.0
 40
0.0
 40
0.0
 40
0.0
 40
0.3352668783177219
 40
1.0
 40
1.0
 40
1.0
 40
1.0
 10
301.1908571080161
 20
465.7077452208554
 30
0.0
 10
301.1592358639302
 20
465.7369377885997
 30
0.0
 10
301.0649192280472
 20
465.8240104153107
 30
0.0
 10
300.96747147152
 20
465.8997404857324
 30
0.0
 10
300.9026947201227
 20
465.9500807718488
 30
0.0
  0
SPLINE
  5
248
330
1F
100
AcDbEntity
  8
0
  6
Continuous
 62
     7
370
    25
100
AcDbSpline
210
0.0
220
0.0
230
1.0
 70
     8
 71
     3
 72
    14
 73
    10
 74
     0
 42
0.000000001
 43
0.00000001
 40
0.0
 40
0.0
 40
0.0
 40
0.0
 40
0.2200911109485595
 40
0.3501199592092341
 40
0.4590676183976581
 40
0.5685351145661265
 40
0.6668402217390302
 40
0.7968948941937074
 40
1.0
 40
1.0
 40
1.0
 40
1.0
 10
301.3317101979236
 20
464.172596794423
 30
0.0
 10
301.3129834817038
 20
464.2104606537775
 30
0.0
 10
301.2831931049333
 20
464.2706943126271
 30
0.0
 10
301.2655494193258
 20
464.3479819438016
 30
0.0
 10
301.2668210493134
 20
464.3987186325332
 30
0.0
 10
301.2838124189923
 20
464.4311929437148
 30
0.0
 10
301.3156200056233
 20
464.4464461192134
 30
0.0
 10
301.3681592402305
 20
464.4420838162147
 30
0.0
 10
301.412955843228
 20
464.4153378804855
 30
0.0
 10
301.4402653186968
 20
464.3990326826176
 30
0.0
  0
SPLINE
  5
249
330
1F
100
AcDbEntity
  8
0
  6
Continuous
 62
     7
370
    25
100
AcDbSpline
210
0.0
220
0.0
230
1.0
 70
     8
 71
     3
 72
    27
 73
    23
 74
     0
 42
0.000000001
 43
0.00000001
 40
0.0
 40
0.0
 40
0.0
 40
0.0
 40
0.0910683471803931
 40
0.1847464164708989
 40
0.2588266946055565
 40
0.3345190598259142
 40
0.3626447427195263
 40
0.3910056482847541
 40
0.4191743039829972
 40
0.448120360697974
 40
0.4657704782447655
 40
0.4839081706433205
 40
0.5015721548764676
 40
0.5197440214872951
 40
0.5448446854435506
 40
0.5706253690117588
 40
0.6177938154944821
 40
0.6660858441031582
 40
0.7518796859636304
 40
0.8400397940083094
 40
0.9191574739584846
 40
0.9999999999999999
 40
0.9999999999999999
 40
0.9999999999999999
 40
0.9999999999999999
 10
299.4534519608632
 20
462.9259558476825
 30
0.0
 10
299.5564298400598
 20
462.7889225166886
 30
0.0
 10
299.7653366089468
 20
462.5109289259184
 30
0.0
 10
300.0890024114692
 20
462.1645320963258
 30
0.0
 10
300.401335026655
 20
461.8747654697365
 30
0.0
 10
300.6359687229794
 20
461.6952139608735
 30
0.0
 10
300.814180997783
 20
461.5899709251184
 30
0.0
 10
300.9303223423223
 20
461.535828065946
 30
0.0
 10
301.0497634596739
 20
461.4996829079838
 30
0.0
 10
301.1558754330158
 20
461.4917864610107
 30
0.0
 10
301.2461321639399
 20
461.5084875895159
 30
0.0
 10
301.3177538131955
 20
461.5390742503442
 30
0.0
 10
301.3846719508809
 20
461.5867629587857
 30
0.0
 10
301.4521762426853
 20
461.6568427818659
 30
0.0
 10
301.5168307405944
 20
461.7531345764959
 30
0.0
 10
301.5901900330223
 20
461.907030088522
 30
0.0
 10
301.6536525264784
 20
462.1155823290184
 30
0.0
 10
301.7078725265126
 20
462.4413604222477
 30
0.0
 10
301.7172274870368
 20
462.8523680561017
 30
0.0
 10
301.6536586589909
 20
463.3181998484333
 30
0.0
 10
301.5296936630484
 20
463.7657561825717
 30
0.0
 10
301.3981773982747
 20
464.0360118708192
 30
0.0
 10
301.3317101979236
 20
464.172596794423
 30
0.0
  0
SPLINE
  5
24A
330
1F
100
AcDbEntity
  8
0
  6
Continuous
 62
     7
370
    25
100
AcDbSpline
210
0.0
220
0.0
230
1.0
 70
     8
 71
     3
 72
    15
 73
    11
 74
     0
 42
0.000000001
 43
0.00000001
 40
0.0
 40
0.0
 40
0.0
 40
0.0
 40
0.2150763736127623
 40
0.3413349926978211
 40
0.4465934903530034
 40
0.5524796219272401
 40
0.6449070621727223
 40
0.766214653902494
 40
0.940631656051666
 40
1.0
 40
1.0
 40
1.0
 40
1.0
 10
299.0681997059294
 20
462.8247155581433
 30
0.0
 10
299.0755718697005
 20
462.8656430963613
 30
0.0
 10
299.0872717948234
 20
462.9305967717656
 30
0.0
 10
299.1329782279341
 20
463.0022145586548
 30
0.0
 10
299.1821471836327
 20
463.0421838436312
 30
0.0
 10
299.2376605379016
 20
463.0583296966762
 30
0.0
 10
299.2986663368947
 20
463.0522000647366
 30
0.0
 10
299.36746907962
 20
463.0200600253796
 30
0.0
 10
299.419174990398
 20
462.971950119833
 30
0.0
 10
299.446510322258
 20
462.9352704286051
 30
0.0
 10
299.4534519608632
 20
462.9259558476825
 30
0.0
  0
SPLINE
  5
24B
330
1F
100
AcDbEntity
  8
0
  6
Continuous
 62
     7
370
    25
100
AcDbSpline
210
0.0
220
0.0
230
1.0
 70
     8
 71
     3
 72
    10
 73
     6
 74
     0
 42
0.000000001
 43
0.00000001
 40
0.0
 40
0.0
 40
0.0
 40
0.0
 40
0.4787893468171153
 40
0.9710174308855127
 40
1.0
 40
1.0
 40
1.0
 40
1.0
 10
296.1884793952265
 20
462.8233040921767
 30
0.0
 10
296.209531282853
 20
462.6430618092932
 30
0.0
 10
296.2522259459118
 20
462.2775181738176
 30
0.0
 10
296.3513992685667
 20
461.9021377643481
 30
0.0
 10
296.4345336015705
 20
461.7194814840414
 30
0.0
 10
296.4391563899524
 20
461.7093246535242
 30
0.0
  0
SPLINE
  5
24C
330
1F
100
AcDbEntity
  8
0
  6
Continuous
 62
     7
370
    25
100
AcDbSpline
210
0.0
220
0.0
230
1.0
 70
     8
 71
     3
 72
    11
 73
     7
 74
     0
 42
0.000000001
 43
0.00000001
 40
0.0
 40
0.0
 40
0.0
 40
0.0
 40
0.1926194731678344
 40
0.4826179747735062
 40
0.7789736208159637
 40
0.9999999999999999
 40
0.9999999999999999
 40
0.9999999999999999
 40
0.9999999999999999
 10
298.4688158919977
 20
461.1577066912106
 30
0.0
 10
298.5284449174728
 20
461.2560653394335
 30
0.0
 10
298.6778485008138
 20
461.5025079800764
 30
0.0
 10
298.8604036510317
 20
461.9334262661684
 30
0.0
 10
299.0051590310218
 20
462.3942231203787
 30
0.0
 10
299.0493298609589
 20
462.6958570779082
 30
0.0
 10
299.0681997059294
 20
462.8247155581433
 30
0.0
  0
SPLINE
  5
24D
330
1F
100
AcDbEntity
  8
0
  6
Continuous
 62
     7
370
    25
100
AcDbSpline
210
0.0
220
0.0
230
1.0
 70
     8
 71
     3
 72
    15
 73
    11
 74
     0
 42
0.000000001
 43
0.00000001
 40
0.0
 40
0.0
 40
0.0
 40
0.0
 40
0.2129294053202189
 40
0.3333107283175603
 40
0.4345062010026767
 40
0.5362836886506531
 40
0.6256367151020122
 40
0.7456368547566248
 40
0.921192717688107
 40
1.0
 40
1.0
 40
1.0
 40
1.0
 10
295.816632811811
 20
462.9243640258405
 30
0.0
 10
295.8437324725636
 20
462.9568626103435
 30
0.0
 10
295.8861531408082
 20
463.0077345265715
 30
0.0
 10
295.960576418501
 20
463.0484848010469
 30
0.0
 10
296.0207848576671
 20
463.0603801876194
 30
0.0
 10
296.0742781451424
 20
463.049317006783
 30
0.0
 10
296.1214859330436
 20
463.0167764296079
 30
0.0
 10
296.1627378039255
 20
462.9573790530993
 30
0.0
 10
296.1829065876349
 20
462.8876243918061
 30
0.0
 10
296.1871612175467
 20
462.8385182516341
 30
0.0
 10
296.1884793952265
 20
462.8233040921767
 30
0.0
  0
SPLINE
  5
24E
330
1F
100
AcDbEntity
  8
0
  6
Continuous
 62
     7
370
    25
100
AcDbSpline
210
0.0
220
0.0
230
1.0
 70
     8
 71
     3
 72
    11
 73
     7
 74
     0
 42
0.000000001
 43
0.00000001
 40
0.0
 40
0.0
 40
0.0
 40
0.0
 40
0.3033653015542866
 40
0.6152411432541793
 40
0.9270165776267004
 40
1.0
 40
1.0
 40
1.0
 40
1.0
 10
294.1039385570135
 20
464.1738953671691
 30
0.0
 10
294.0221939326875
 20
464.0116672689319
 30
0.0
 10
293.8564114392132
 20
463.6826599628359
 30
0.0
 10
293.7132012030835
 20
463.1474547863098
 30
0.0
 10
293.6542097162186
 20
462.7364017011972
 30
0.0
 10
293.6547644281101
 20
462.5091421219611
 30
0.0
 10
293.6548696492677
 20
462.4660341295942
 30
0.0
  0
SPLINE
  5
24F
330
1F
100
AcDbEntity
  8
0
  6
Continuous
 62
     7
370
    25
100
AcDbSpline
210
0.0
220
0.0
230
1.0
 70
     8
 71
     3
 72
    11
 73
     7
 74
     0
 42
0.000000001
 43
0.00000001
 40
0.0
 40
0.0
 40
0.0
 40
0.0
 40
0.0400071753144796
 40
0.5136382513086011
 40
0.7559431641911037
 40
1.0
 40
1.0
 40
1.0
 40
1.0
 10
295.1021173486825
 20
462.0727032156601
 30
0.0
 10
295.1117933118862
 20
462.0824259425542
 30
0.0
 10
295.2360196483016
 20
462.2072526617756
 30
0.0
 10
295.4208176874364
 20
462.4219142741667
 30
0.0
 10
295.649532586893
 20
462.699993853916
 30
0.0
 10
295.7607991391446
 20
462.8493945831514
 30
0.0
 10
295.816632811811
 20
462.9243640258405
 30
0.0
  0
SPLINE
  5
250
330
1F
100
AcDbEntity
  8
0
  6
Continuous
 62
     7
370
    25
100
AcDbSpline
210
0.0
220
0.0
230
1.0
 70
     8
 71
     3
 72
    15
 73
    11
 74
     0
 42
0.000000001
 43
0.00000001
 40
0.0
 40
0.0
 40
0.0
 40
0.0
 40
0.215576770593262
 40
0.3329005538677274
 40
0.4328760582231185
 40
0.5332634977247642
 40
0.6250838127945316
 40
0.7535547096889093
 40
0.942133837889228
 40
1.0
 40
1.0
 40
1.0
 40
1.0
 10
294.0255057067163
 20
464.4011553327401
 30
0.0
 10
294.0529994181746
 20
464.4192537534683
 30
0.0
 10
294.0954560880057
 20
464.447201914432
 30
0.0
 10
294.1436294869142
 20
464.4526133361344
 30
0.0
 10
294.1703628218514
 20
464.4390634774993
 30
0.0
 10
294.1827110387221
 20
464.4090468032386
 30
0.0
 10
294.1816515320043
 20
464.3625088974203
 30
0.0
 10
294.1630951314209
 20
464.2928046561602
 30
0.0
 10
294.1327413621321
 20
464.2260176595174
 30
0.0
 10
294.1094155371829
 20
464.1838066504764
 30
0.0
 10
294.1039385570135
 20
464.1738953671691
 30
0.0
  0
LWPOLYLINE
  5
251
330
1F
100
AcDbEntity
  8
0
  6
Continuous
 62
     7
370
    25
100
AcDbPolyline
 90
       19
 70
   128
 43
0.0
 10
296.1884793952
 20
310.165330779
 10
296.2272022319
 20
310.0468480806
 10
296.3022703134
 20
309.9330892084
 10
296.4117454474
 20
309.8269913173
 10
296.5528010812
 20
309.7312937625
 10
296.7217952814
 20
309.6484673715
 10
296.9143647649
 20
309.5806506493
 10
297.1255375555
 20
309.5295945648
 10
297.3498613559
 20
309.4966173416
 10
297.5815443209
 20
309.4825704227
 10
297.8146045983
 20
309.4878164874
 10
298.0430247749
 20
309.5122200869
 10
298.2609072408
 20
309.5551511415
 10
298.4626264606
 20
309.6155012088
 10
298.6429742197
 20
309.6917121027
 10
298.7972940963
 20
309.7818161242
 10
298.9216016857
 20
309.8834868661
 10
299.0126874741
 20
309.9940992784
 10
299.0681997059
 20
310.110797445
  0
LWPOLYLINE
  5
252
330
1F
100
AcDbEntity
  8
0
  6
Continuous
 62
     7
370
    25
100
AcDbPolyline
 90
       15
 70
   128
 43
0.0
 10
299.4534519609
 20
310.1975201795
 10
299.6574528385
 20
310.1392400654
 10
299.8769438037
 20
310.0985404569
 10
300.1062577909
 20
310.0764721824
 10
300.3394741129
 20
310.0736050256
 10
300.5705713275
 20
310.0900130139
 10
300.793582706
 20
310.1252725074
 10
301.0027502889
 20
310.1784731366
 10
301.1926735516
 20
310.2482413078
 10
301.3584488409
 20
310.3327756674
 10
301.4957959833
 20
310.4298936121
 10
301.6011687954
 20
310.5370876411
 10
301.6718466428
 20
310.651590098
 10
301.7060046852
 20
310.7704446292
 10
301.7092159028
 20
310.8201501738
  0
LWPOLYLINE
  5
253
330
1F
100
AcDbEntity
  8
0
  6
Continuous
 62
     7
370
    25
100
AcDbPolyline
 90
       14
 70
   128
 43
0.0
 10
293.6518178567
 20
310.9177471341
 10
293.6689720625
 20
310.8031407297
 10
293.7231326423
 20
310.6862742045
 10
293.8129365833
 20
310.5753841085
 10
293.9360652259
 20
310.4733335276
 10
294.0893394959
 20
310.3827573186
 10
294.2688019852
 20
310.3059940804
 10
294.4698191287
 20
310.245025773
 10
294.687200839
 20
310.2014265448
 10
294.9153345097
 20
310.17632209
 10
295.1483299283
 20
310.1703605837
 10
295.3801713561
 20
310.1836959468
 10
295.6048728495
 20
310.2159838718
 10
295.8166328118
 20
310.2663907127
  0
ARC
  5
254
330
1F
100
AcDbEntity
  8
0
  6
Continuous
 62
     7
370
    25
100
AcDbCircle
 10
299.3180549867
 20
309.8999272029
 30
0.0
 40
0.3269463569462538
100
AcDbArc
 50
65.5357138737
 51
139.8366539865
  0
LWPOLYLINE
  5
255
330
1F
100
AcDbEntity
  8
0
  6
Continuous
 62
     7
370
    25
100
AcDbPolyline
 90
        9
 70
   128
 43
0.0
 10
295.8166328118
 20
310.2663907127
 10
295.8742624142
 20
310.2785392873
 10
295.9359338051
 20
310.2829755326
 10
295.9978208581
 20
310.2794242214
 10
296.0560840669
 20
310.2681056791
 10
296.1071087503
 20
310.2497221141
 10
296.1477293093
 20
310.2254140528
 10
296.1754256223
 20
310.1966895805
 10
296.1884793952
 20
310.165330779
  0
LWPOLYLINE
  5
256
330
1F
100
AcDbEntity
  8
0
  6
Continuous
 62
     7
370
    25
100
AcDbPolyline
 90
        8
 70
   128
 43
0.0
 10
301.7092159028
 20
311.5928393096
 10
301.8545600909
 20
311.6411220558
 10
302.0310348218
 20
311.7197012587
 10
302.1807951848
 20
311.8118235274
 10
302.2999744977
 20
311.9151103452
 10
302.3854956545
 20
312.0268949365
 10
302.4351505736
 20
312.1442911206
 10
302.4481782088
 20
312.2442373908
  0
ARC
  5
257
330
1F
100
AcDbEntity
  8
0
  6
Continuous
 62
     7
370
    25
100
AcDbCircle
 10
293.8776764999
 20
312.5304587256
 30
0.0
 40
0.7773794240355261
100
AcDbArc
 50
192.2181259481
 51
253.109802685
  0
SPLINE
  5
258
330
1F
100
AcDbEntity
  8
0
  6
Continuous
 62
     7
370
    25
100
AcDbSpline
210
0.0
220
0.0
230
1.0
 70
     8
 71
     3
 72
    28
 73
    24
 74
     0
 42
0.000000001
 43
0.00000001
 40
0.0
 40
0.0
 40
0.0
 40
0.0
 40
0.0885577904272324
 40
0.1796438193735523
 40
0.2695757108504276
 40
0.3157367678527896
 40
0.3623220932277421
 40
0.3904539690316903
 40
0.4187952486339999
 40
0.4469625905235298
 40
0.4757849359529041
 40
0.4937651259402174
 40
0.5122126959858458
 40
0.5302154725933201
 40
0.5487865500347956
 40
0.5721716297902789
 40
0.5962043255368848
 40
0.6385840534980292
 40
0.681981728482391
 40
0.7628828890611871
 40
0.8459448991942592
 40
0.9222316806844274
 40
1.0
 40
1.0
 40
1.0
 40
1.0
 10
238.0410369106283
 20
402.3989594007488
 30
0.0
 10
238.1575185358582
 20
402.2922174766419
 30
0.0
 10
238.3938072230779
 20
402.0756862506329
 30
0.0
 10
238.7295956398878
 20
401.7942291252899
 30
0.0
 10
238.9898777086807
 20
401.5874465353633
 30
0.0
 10
239.1813275142211
 20
401.447405744751
 30
0.0
 10
239.2994545951253
 20
401.3694222136688
 30
0.0
 10
239.3934626643524
 20
401.3174194801209
 30
0.0
 10
239.4661105723812
 20
401.2865722669848
 30
0.0
 10
239.5338862909571
 20
401.2719453765482
 30
0.0
 10
239.587182246034
 20
401.2800188854769
 30
0.0
 10
239.6267465944519
 20
401.308066428084
 30
0.0
 10
239.654060907843
 20
401.3471775276698
 30
0.0
 10
239.6746359686738
 20
401.4028540324036
 30
0.0
 10
239.6887771715769
 20
401.4787843553358
 30
0.0
 10
239.694356072081
 20
401.5766394096425
 30
0.0
 10
239.6888797521063
 20
401.7227100997434
 30
0.0
 10
239.6639422523267
 20
401.9134228106915
 30
0.0
 10
239.599281642225
 20
402.2089211056983
 30
0.0
 10
239.4787661611494
 20
402.5770236823257
 30
0.0
 10
239.2875347853508
 20
402.9874644755799
 30
0.0
 10
239.0571393858405
 20
403.372884920995
 30
0.0
 10
238.8763343375171
 20
403.5980716241271
 30
0.0
 10
238.7850624181951
 20
403.7117477785889
 30
0.0
  0
SPLINE
  5
259
330
1F
100
AcDbEntity
  8
0
  6
Continuous
 62
     7
370
    25
100
AcDbSpline
210
0.0
220
0.0
230
1.0
 70
     8
 71
     3
 72
    14
 73
    10
 74
     0
 42
0.000000001
 43
0.00000001
 40
0.0
 40
0.0
 40
0.0
 40
0.0
 40
0.220765348438179
 40
0.3402146168140553
 40
0.4605704991790948
 40
0.5641909618660854
 40
0.6633542991971745
 40
0.8105247403618525
 40
1.0
 40
1.0
 40
1.0
 40
1.0
 10
237.766994491795
 20
402.2519683612176
 30
0.0
 10
237.7607910774133
 20
402.2925573966642
 30
0.0
 10
237.7512311883195
 20
402.3551078976328
 30
0.0
 10
237.7699752314546
 20
402.4291225075678
 30
0.0
 10
237.8011953125848
 20
402.4704394824391
 30
0.0
 10
237.8446003020418
 20
402.4886115057644
 30
0.0
 10
237.8981644193465
 20
402.4871711028973
 30
0.0
 10
237.9672698468712
 20
402.4608699735684
 30
0.0
 10
238.0144707127213
 20
402.4212556457978
 30
0.0
 10
238.0410369106284
 20
402.3989594007488
 30
0.0
  0
SPLINE
  5
25A
330
1F
100
AcDbEntity
  8
0
  6
Continuous
 62
     7
370
    25
100
AcDbSpline
210
0.0
220
0.0
230
1.0
 70
     8
 71
     3
 72
    23
 73
    19
 74
     0
 42
0.000000001
 43
0.00000001
 40
0.0
 40
0.0
 40
0.0
 40
0.0
 40
0.0863901050636732
 40
0.1752766177962661
 40
0.2621177065427445
 40
0.3519363559727677
 40
0.4192459175639041
 40
0.4528076006128965
 40
0.4875598503476014
 40
0.5342326170542496
 40
0.5808027178643248
 40
0.6174159281963857
 40
0.6550189806174272
 40
0.7176192476618422
 40
0.7818570182170671
 40
0.8689416197544517
 40
0.9585429605715873
 40
1.0
 40
1.0
 40
1.0
 40
1.0
 10
235.1265156044162
 20
401.7505134929422
 30
0.0
 10
235.1899924367212
 20
401.6126613937553
 30
0.0
 10
235.318780386066
 20
401.3329736947557
 30
0.0
 10
235.5801559232414
 20
400.9439340320659
 30
0.0
 10
235.8853925677458
 20
400.5844141586208
 30
0.0
 10
236.2065961613215
 20
400.301249513885
 30
0.0
 10
236.4895036734338
 20
400.1368210327105
 30
0.0
 10
236.7058421899877
 20
400.0686359542049
 30
0.0
 10
236.8957356995206
 20
400.0493227170857
 30
0.0
 10
237.1060430022236
 20
400.0946279531459
 30
0.0
 10
237.2907994197014
 20
400.215093261964
 30
0.0
 10
237.431755672568
 20
400.3646531686325
 30
0.0
 10
237.5637747179816
 20
400.5582734056205
 30
0.0
 10
237.6833950036912
 20
400.8157284483702
 30
0.0
 10
237.7860930552307
 20
401.1702736158578
 30
0.0
 10
237.8373705987659
 20
401.5832112540779
 30
0.0
 10
237.8230190194991
 20
401.960176122213
 30
0.0
 10
237.7804577002338
 20
402.1818480068738
 30
0.0
 10
237.766994491795
 20
402.2519683612176
 30
0.0
  0
SPLINE
  5
25B
330
1F
100
AcDbEntity
  8
0
  6
Continuous
 62
     7
370
    25
100
AcDbSpline
210
0.0
220
0.0
230
1.0
 70
     8
 71
     3
 72
    14
 73
    10
 74
     0
 42
0.000000001
 43
0.00000001
 40
0.0
 40
0.0
 40
0.0
 40
0.0
 40
0.2243030424883259
 40
0.3489011866266116
 40
0.4744001356117633
 40
0.5826741857066091
 40
0.6867417687947664
 40
0.8381564871696764
 40
1.0
 40
1.0
 40
1.0
 40
1.0
 10
234.7063574472804
 20
401.7658672891722
 30
0.0
 10
234.7279110502197
 20
401.8023659251922
 30
0.0
 10
234.7614374685783
 20
401.8591391961938
 30
0.0
 10
234.8372926959402
 20
401.9095199023694
 30
0.0
 10
234.9045715636257
 20
401.9262182237264
 30
0.0
 10
234.9691209651259
 20
401.9169778978442
 30
0.0
 10
235.0308031497301
 20
401.8858232106959
 30
0.0
 10
235.0876852997765
 20
401.8300756895928
 30
0.0
 10
235.1132880526633
 20
401.7776163726012
 30
0.0
 10
235.1265156044162
 20
401.7505134929422
 30
0.0
  0
SPLINE
  5
25C
330
1F
100
AcDbEntity
  8
0
  6
Continuous
 62
     7
370
    25
100
AcDbSpline
210
0.0
220
0.0
230
1.0
 70
     8
 71
     3
 72
    26
 73
    22
 74
     0
 42
0.000000001
 43
0.00000001
 40
0.0
 40
0.0
 40
0.0
 40
0.0
 40
0.0854261159360998
 40
0.1733276547195614
 40
0.244851726135248
 40
0.3181224083912759
 40
0.3577740645396698
 40
0.3980844094313244
 40
0.4287682032815361
 40
0.4601978879083259
 40
0.4855692359538117
 40
0.511668118537248
 40
0.5370453561645242
 40
0.5630880149114154
 40
0.5995557531473629
 40
0.6370345873825544
 40
0.6960497304231588
 40
0.7566321175831462
 40
0.8401423063242429
 40
0.9260534647419587
 40
1.0
 40
1.0
 40
1.0
 40
1.0
 10
232.1577596382394
 20
402.4585215638243
 30
0.0
 10
232.1256579642403
 20
402.3182019769242
 30
0.0
 10
232.0605243946538
 20
402.0334967127073
 30
0.0
 10
232.0581340956101
 20
401.6207450297576
 30
0.0
 10
232.1136631922873
 20
401.2351182016629
 30
0.0
 10
232.207035788102
 20
400.9401664444599
 30
0.0
 10
232.3206728810929
 20
400.712285908883
 30
0.0
 10
232.423896881517
 20
400.5610090897675
 30
0.0
 10
232.5388124058896
 20
400.4385994689857
 30
0.0
 10
232.6522715072502
 20
400.3526167582058
 30
0.0
 10
232.7717816397515
 20
400.2931116323992
 30
0.0
 10
232.8903599247264
 20
400.2595768610365
 30
0.0
 10
233.0141276993069
 20
400.2487482385644
 30
0.0
 10
233.1551943390198
 20
400.2608355842269
 30
0.0
 10
233.3128715539384
 20
400.303491393275
 30
0.0
 10
233.5135982501573
 20
400.3941424746954
 30
0.0
 10
233.7361860356433
 20
400.5394849938306
 30
0.0
 10
234.0011004023897
 20
400.7667715950652
 30
0.0
 10
234.270625574979
 20
401.0630960646632
 30
0.0
 10
234.5201680758718
 20
401.4085763248093
 30
0.0
 10
234.6474703220118
 20
401.6528649323965
 30
0.0
 10
234.7063574472804
 20
401.7658672891722
 30
0.0
  0
SPLINE
  5
25D
330
1F
100
AcDbEntity
  8
0
  6
Continuous
 62
     7
370
    25
100
AcDbSpline
210
0.0
220
0.0
230
1.0
 70
     8
 71
     3
 72
    14
 73
    10
 74
     0
 42
0.000000001
 43
0.00000001
 40
0.0
 40
0.0
 40
0.0
 40
0.0
 40
0.2239799089306602
 40
0.3530600787850526
 40
0.4831615846560798
 40
0.5937368434044649
 40
0.6971871626482021
 40
0.8442013099711085
 40
1.0
 40
1.0
 40
1.0
 40
1.0
 10
231.9078734047888
 20
402.6252714756411
 30
0.0
 10
231.9404271322503
 20
402.6486338477275
 30
0.0
 10
231.9917416525444
 20
402.685460012042
 30
0.0
 10
232.0664767184509
 20
402.7017409009807
 30
0.0
 10
232.118311281811
 20
402.69119657461
 30
0.0
 10
232.1531712925623
 20
402.6581990526035
 30
0.0
 10
232.1731405940732
 20
402.6079030766669
 30
0.0
 10
232.1767411111505
 20
402.5395717908246
 30
0.0
 10
232.1642079903583
 20
402.4860558023666
 30
0.0
 10
232.1577596382394
 20
402.4585215638243
 30
0.0
  0
SPLINE
  5
25E
330
1F
100
AcDbEntity
  8
0
  6
Continuous
 62
     7
370
    25
100
AcDbSpline
210
0.0
220
0.0
230
1.0
 70
     8
 71
     3
 72
    25
 73
    21
 74
     0
 42
0.000000001
 43
0.00000001
 40
0.0
 40
0.0
 40
0.0
 40
0.0
 40
0.0875462653424554
 40
0.1776275929600297
 40
0.2471474788262651
 40
0.3182485058085603
 40
0.3544110039426025
 40
0.3911111694055477
 40
0.4196256508468981
 40
0.4488279610873442
 40
0.4955774367114213
 40
0.5423030312794781
 40
0.5762969204455024
 40
0.6112229844817028
 40
0.6688576767939503
 40
0.7279867562248821
 40
0.8132488808160993
 40
0.900954184456267
 40
0.9502506997642258
 40
1.0
 40
1.0
 40
1.0
 40
1.0
 10
231.3703028062147
 20
403.9904520968354
 30
0.0
 10
231.2657843627338
 20
403.8765726514764
 30
0.0
 10
231.0537209530291
 20
403.6455161730802
 30
0.0
 10
230.8065930568666
 20
403.2787785293557
 30
0.0
 10
230.6132207024197
 20
402.9200958622297
 30
0.0
 10
230.4957384269975
 20
402.6363173068542
 30
0.0
 10
230.4237665092148
 20
402.4071516824488
 30
0.0
 10
230.3864715100944
 20
402.2495228693996
 30
0.0
 10
230.3656010642098
 20
402.1107515372634
 30
0.0
 10
230.3586449432374
 20
401.970918001046
 30
0.0
 10
230.3804165241563
 20
401.8407227112129
 30
0.0
 10
230.4416286959567
 20
401.7721845735092
 30
0.0
 10
230.5177744100352
 20
401.7548317597548
 30
0.0
 10
230.6154150679496
 20
401.7670997732849
 30
0.0
 10
230.7502286153409
 20
401.8189622769067
 30
0.0
 10
230.9515895270656
 20
401.9278576313932
 30
0.0
 10
231.2088684298668
 20
402.0935906878323
 30
0.0
 10
231.4782773372733
 20
402.2870011509239
 30
0.0
 10
231.7147114919557
 20
402.4678704651299
 30
0.0
 10
231.8432901693424
 20
402.5726448145554
 30
0.0
 10
231.9078734047888
 20
402.6252714756411
 30
0.0
  0
SPLINE
  5
25F
330
1F
100
AcDbEntity
  8
0
  6
Continuous
 62
     7
370
    25
100
AcDbSpline
210
0.0
220
0.0
230
1.0
 70
     8
 71
     3
 72
    14
 73
    10
 74
     0
 42
0.000000001
 43
0.00000001
 40
0.0
 40
0.0
 40
0.0
 40
0.0
 40
0.2200911109485595
 40
0.3501199592092341
 40
0.4590676183976581
 40
0.5685351145661265
 40
0.6668402217390302
 40
0.7968948941937074
 40
1.0
 40
1.0
 40
1.0
 40
1.0
 10
231.4788579269878
 20
404.1824190380154
 30
0.0
 10
231.4975846432076
 20
404.1945882034208
 30
0.0
 10
231.527375019978
 20
404.2139468575572
 30
0.0
 10
231.5450187055858
 20
404.212815743611
 30
0.0
 10
231.5437470755979
 20
404.1967612340377
 30
0.0
 10
231.5267557059191
 20
404.1674332592536
 30
0.0
 10
231.4949481192882
 20
404.1256305516613
 30
0.0
 10
231.442408884681
 20
404.0649191962046
 30
0.0
 10
231.3976122816834
 20
404.0186557859932
 30
0.0
 10
231.3703028062146
 20
403.9904520968354
 30
0.0
  0
SPLINE
  5
260
330
1F
100
AcDbEntity
  8
0
  6
Continuous
 62
     7
370
    25
100
AcDbSpline
210
0.0
220
0.0
230
1.0
 70
     8
 71
     3
 72
    11
 73
     7
 74
     0
 42
0.000000001
 43
0.00000001
 40
0.0
 40
0.0
 40
0.0
 40
0.0
 40
0.1049083671508417
 40
0.4229451041602231
 40
0.7083613692849676
 40
1.0
 40
1.0
 40
1.0
 40
1.0
 10
231.1100987009108
 20
403.7027732267026
 30
0.0
 10
231.1077292770737
 20
403.7168785852058
 30
0.0
 10
231.0981767862783
 20
403.7737452821468
 30
0.0
 10
231.1600208311552
 20
403.8865030159011
 30
0.0
 10
231.2801129900499
 20
404.0311955780517
 30
0.0
 10
231.4121350845833
 20
404.1316501518114
 30
0.0
 10
231.4788579269878
 20
404.1824190380154
 30
0.0
  0
SPLINE
  5
261
330
1F
100
AcDbEntity
  8
0
  6
Continuous
 62
     7
370
    25
100
AcDbSpline
210
0.0
220
0.0
230
1.0
 70
     8
 71
     3
 72
    11
 73
     7
 74
     0
 42
0.000000001
 43
0.00000001
 40
0.0
 40
0.0
 40
0.0
 40
0.0
 40
0.2974144720820471
 40
0.6031725411132843
 40
0.9088321724124857
 40
1.0
 40
1.0
 40
1.0
 40
1.0
 10
238.7066295678979
 20
403.9099726339584
 30
0.0
 10
238.7883486028488
 20
403.8403519276293
 30
0.0
 10
238.9540791996943
 20
403.6991573917456
 30
0.0
 10
239.0976869939163
 20
403.4992896418534
 30
0.0
 10
239.1572092400891
 20
403.3483354678575
 30
0.0
 10
239.1561761449231
 20
403.269306136786
 30
0.0
 10
239.1559387998508
 20
403.2511498014113
 30
0.0
  0
SPLINE
  5
262
330
1F
100
AcDbEntity
  8
0
  6
Continuous
 62
     7
370
    25
100
AcDbSpline
210
0.0
220
0.0
230
1.0
 70
     8
 71
     3
 72
    15
 73
    11
 74
     0
 42
0.000000001
 43
0.00000001
 40
0.0
 40
0.0
 40
0.0
 40
0.0
 40
0.215576770593262
 40
0.3329005538677274
 40
0.4328760582231185
 40
0.5332634977247642
 40
0.6250838127945316
 40
0.7535547096889093
 40
0.942133837889228
 40
1.0
 40
1.0
 40
1.0
 40
1.0
 10
238.7850624181952
 20
403.7117477785887
 30
0.0
 10
238.7575687067369
 20
403.7444111917669
 30
0.0
 10
238.7151120369057
 20
403.7948510805745
 30
0.0
 10
238.6669386379973
 20
403.8607135983342
 30
0.0
 10
238.6402053030601
 20
403.9036002170977
 30
0.0
 10
238.6278570861892
 20
403.9326858898577
 30
0.0
 10
238.6289165929073
 20
403.9493866962757
 30
0.0
 10
238.6474729934905
 20
403.9501826145623
 30
0.0
 10
238.6778267627796
 20
403.9322670329322
 30
0.0
 10
238.7011525877285
 20
403.9142120120526
 30
0.0
 10
238.7066295678979
 20
403.9099726339584
 30
0.0
  0
LWPOLYLINE
  5
263
330
1F
100
AcDbEntity
  8
0
  6
Continuous
 62
     7
370
    25
100
AcDbPolyline
 90
       18
 70
   128
 43
0.0
 10
235.1265156044
 20
248.7908532567
 10
235.2612171035
 20
248.6927572964
 10
235.4246850419
 20
248.6070393065
 10
235.6126988197
 20
248.5359124507
 10
235.8204040852
 20
248.4812131624
 10
236.0424380694
 20
248.4443537297
 10
236.2730680483
 20
248.4262858309
 10
236.5063393569
 20
248.4274759634
 10
236.7362291332
 20
248.4478933991
 10
236.9568018236
 20
248.4870109776
 10
237.1623624335
 20
248.5438187171
 10
237.3476035669
 20
248.6168498911
 10
237.5077424594
 20
248.7042188986
 10
237.6386444642
 20
248.8036699478
 10
237.7369298057
 20
248.9126352994
 10
237.800060842
 20
249.0283015629
 10
237.8264075848
 20
249.1476823361
 10
237.8271862036
 20
249.1721681456
  0
LWPOLYLINE
  5
264
330
1F
100
AcDbEntity
  8
0
  6
Continuous
 62
     7
370
    25
100
AcDbPolyline
 90
       17
 70
   128
 43
0.0
 10
232.063429038
 20
249.2263303723
 10
232.0738879474
 20
249.1367382391
 10
232.1203561513
 20
249.0189964921
 10
232.2028391935
 20
248.9066079253
 10
232.3192074338
 20
248.8024743133
 10
232.4664563455
 20
248.7092842955
 10
232.64078409
 20
248.6294439568
 10
232.837689677
 20
248.5650147051
 10
233.0520891758
 20
248.5176600476
 10
233.2784469782
 20
248.4886026404
 10
233.5109187229
 20
248.4785927202
 10
233.7435021922
 20
248.4878887346
 10
233.9701922835
 20
248.5162506686
 10
234.1851360563
 20
248.5629462416
 10
234.3827838496
 20
248.6267698148
 10
234.5580325697
 20
248.7060735191
 10
234.7063574473
 20
248.798809802
  0
ARC
  5
265
330
1F
100
AcDbEntity
  8
0
  6
Continuous
 62
     7
370
    25
100
AcDbCircle
 10
234.9101999565
 20
248.4654994638
 30
0.0
 40
0.3907013566541675
100
AcDbArc
 50
56.3815430533
 51
121.448693132
  0
LWPOLYLINE
  5
266
330
1F
100
AcDbEntity
  8
0
  6
Continuous
 62
     7
370
    25
100
AcDbPolyline
 90
       12
 70
   128
 43
0.0
 10
238.0410369106
 20
249.549467372
 10
238.2739322911
 20
249.5425461954
 10
238.5059734056
 20
249.554926025
 10
238.7311691546
 20
249.5862872243
 10
238.9437051804
 20
249.6358200745
 10
239.1380939878
 20
249.7022456805
 10
239.3093166273
 20
249.7838489911
 10
239.4529522795
 20
249.87852308
 10
239.5652923971
 20
249.9838235446
 10
239.6434364562
 20
250.0970316188
 10
239.6853668452
 20
250.2152243686
 10
239.6926626209
 20
250.2900929654
  0
ARC
  5
267
330
1F
100
AcDbEntity
  8
0
  6
Continuous
 62
     7
370
    25
100
AcDbCircle
 10
238.0025009795
 20
249.1444575733
 30
0.0
 40
0.4068389792656943
100
AcDbArc
 50
84.5647754414
 51
115.52591659
  0
ARC
  5
268
330
1F
100
AcDbEntity
  8
0
  6
Continuous
 62
     7
370
    25
100
AcDbCircle
 10
231.9267113844
 20
249.2306495287
 30
0.0
 40
0.4353694513885559
100
AcDbArc
 50
71.6979304477
 51
92.4799025142
  0
LWPOLYLINE
  5
269
330
1F
100
AcDbEntity
  8
0
  6
Continuous
 62
     7
370
    25
100
AcDbPolyline
 90
       12
 70
   128
 43
0.0
 10
230.3623899161
 20
250.4117943841
 10
230.3629109169
 20
250.3917639446
 10
230.3878754773
 20
250.2723044035
 10
230.4496666695
 20
250.156446372
 10
230.5466890988
 20
250.0471812037
 10
230.6764377304
 20
249.94733003
 10
230.835562568
 20
249.8594709211
 10
231.0199551467
 20
249.7858723227
 10
231.224854611
 20
249.7284344865
 10
231.4449706352
 20
249.6886404072
 10
231.6746200154
 20
249.6675175335
 10
231.9078734048
 20
249.6656112394
  0
SPLINE
  5
26A
330
1F
100
AcDbEntity
  8
0
  6
Continuous
 62
     7
370
    25
100
AcDbSpline
210
0.0
220
0.0
230
1.0
 70
     8
 71
     3
 72
    16
 73
    12
 74
     0
 42
0.000000001
 43
0.00000001
 40
0.0
 40
0.0
 40
0.0
 40
0.0
 40
0.0120458643384804
 40
0.0632486515315167
 40
0.1158694259250664
 40
0.2086619335744972
 40
0.3036832865111192
 40
0.4808203735811106
 40
0.6626887474818851
 40
0.829722423617492
 40
1.0
 40
1.0
 40
1.0
 40
1.0
 10
646.8953286475777
 20
367.5532024986245
 30
0.0
 10
646.8939568862555
 20
367.5495816041337
 30
0.0
 10
646.8867542438044
 20
367.5305695442731
 30
0.0
 10
646.8839322407027
 20
367.5155840200499
 30
0.0
 10
646.888697793725
 20
367.5065913599639
 30
0.0
 10
646.9139533929175
 20
367.5265665019456
 30
0.0
 10
646.9784926389826
 20
367.5883635477035
 30
0.0
 10
647.0990652518418
 20
367.7024731063823
 30
0.0
 10
647.2902784287402
 20
367.8662192596152
 30
0.0
 10
647.520678293185
 20
368.0497249475807
 30
0.0
 10
647.701482754626
 20
368.1860030959625
 30
0.0
 10
647.7927543776849
 20
368.2547974591718
 30
0.0
  0
SPLINE
  5
26B
330
1F
100
AcDbEntity
  8
0
  6
Continuous
 62
     7
370
    25
100
AcDbSpline
210
0.0
220
0.0
230
1.0
 70
     8
 71
     3
 72
    13
 73
     9
 74
     0
 42
0.000000001
 43
0.00000001
 40
0.0
 40
0.0
 40
0.0
 40
0.0
 40
0.3101088972533265
 40
0.4888254139352305
 40
0.6689560100645094
 40
0.8220517574361121
 40
0.9652827488868299
 40
1.0
 40
1.0
 40
1.0
 40
1.0
 10
654.6699433910911
 20
369.8037228982805
 30
0.0
 10
654.6373741519965
 20
369.8282426506064
 30
0.0
 10
654.5860351806771
 20
369.8668931962258
 30
0.0
 10
654.5114248882971
 20
369.9215333523751
 30
0.0
 10
654.45919951679
 20
369.9595596556159
 30
0.0
 10
654.4255740613933
 20
369.983876604213
 30
0.0
 10
654.4092137476097
 20
369.9956864319103
 30
0.0
 10
654.4084758043922
 20
369.9959885289771
 30
0.0
 10
654.4083318335407
 20
369.996047467349
 30
0.0
  0
SPLINE
  5
26C
330
1F
100
AcDbEntity
  8
0
  6
Continuous
 62
     7
370
    25
100
AcDbSpline
210
0.0
220
0.0
230
1.0
 70
     8
 71
     3
 72
    19
 73
    15
 74
     0
 42
0.000000001
 43
0.00000001
 40
0.0
 40
0.0
 40
0.0
 40
0.0
 40
0.1462989393294023
 40
0.2968342320947063
 40
0.4130092114013231
 40
0.5318264424054261
 40
0.5922577480678302
 40
0.6535875519085734
 40
0.7012382240883546
 40
0.7500383299230644
 40
0.8281615790560172
 40
0.906244920453875
 40
0.9630522543728792
 40
0.9999999999999999
 40
0.9999999999999999
 40
0.9999999999999999
 40
0.9999999999999999
 10
655.2075139896652
 20
368.2526748090492
 30
0.0
 10
655.3120324352528
 20
368.1816165941102
 30
0.0
 10
655.5240958492316
 20
368.0374425436205
 30
0.0
 10
655.7712237151425
 20
367.8738264296873
 30
0.0
 10
655.9645961610846
 20
367.7495732333447
 30
0.0
 10
656.0820781620057
 20
367.6814494772502
 30
0.0
 10
656.1540506538871
 20
367.6524234640891
 30
0.0
 10
656.1913439951609
 20
367.6491846148015
 30
0.0
 10
656.2122194090703
 20
367.6660216878888
 30
0.0
 10
656.2191540250369
 20
367.7090241198093
 30
0.0
 10
656.1975125103445
 20
367.8060574867649
 30
0.0
 10
656.1358234347606
 20
367.96073734869
 30
0.0
 10
656.069299227217
 20
368.1028397455991
 30
0.0
 10
656.0252381092773
 20
368.1849555209843
 30
0.0
 10
656.0078741543263
 20
368.2173163572781
 30
0.0
  0
SPLINE
  5
26D
330
1F
100
AcDbEntity
  8
0
  6
Continuous
 62
     7
370
    25
100
AcDbSpline
210
0.0
220
0.0
230
1.0
 70
     8
 71
     3
 72
     9
 73
     5
 74
     0
 42
0.000000001
 43
0.00000001
 40
0.0
 40
0.0
 40
0.0
 40
0.0
 40
0.3352668783177219
 40
1.0
 40
1.0
 40
1.0
 40
1.0
 10
654.9581057789846
 20
369.561387347287
 30
0.0
 10
654.9264845348987
 20
369.5905799150314
 30
0.0
 10
654.8321678990158
 20
369.6776525417424
 30
0.0
 10
654.7347201424885
 20
369.7533826121639
 30
0.0
 10
654.6699433910911
 20
369.8037228982805
 30
0.0
  0
SPLINE
  5
26E
330
1F
100
AcDbEntity
  8
0
  6
Continuous
 62
     7
370
    25
100
AcDbSpline
210
0.0
220
0.0
230
1.0
 70
     8
 71
     3
 72
    14
 73
    10
 74
     0
 42
0.000000001
 43
0.00000001
 40
0.0
 40
0.0
 40
0.0
 40
0.0
 40
0.2200911109485595
 40
0.3501199592092341
 40
0.4590676183976581
 40
0.5685351145661265
 40
0.6668402217390302
 40
0.7968948941937074
 40
1.0
 40
1.0
 40
1.0
 40
1.0
 10
655.0989588688922
 20
368.0262389208547
 30
0.0
 10
655.0802321526725
 20
368.0641027802091
 30
0.0
 10
655.050441775902
 20
368.1243364390587
 30
0.0
 10
655.0327980902942
 20
368.2016240702332
 30
0.0
 10
655.0340697202821
 20
368.2523607589648
 30
0.0
 10
655.0510610899609
 20
368.2848350701465
 30
0.0
 10
655.0828686765918
 20
368.300088245645
 30
0.0
 10
655.135407911199
 20
368.2957259426462
 30
0.0
 10
655.1802045141966
 20
368.268980006917
 30
0.0
 10
655.2075139896652
 20
368.2526748090492
 30
0.0
  0
SPLINE
  5
26F
330
1F
100
AcDbEntity
  8
0
  6
Continuous
 62
     7
370
    25
100
AcDbSpline
210
0.0
220
0.0
230
1.0
 70
     8
 71
     3
 72
    27
 73
    23
 74
     0
 42
0.000000001
 43
0.00000001
 40
0.0
 40
0.0
 40
0.0
 40
0.0
 40
0.0910683471803931
 40
0.1847464164708989
 40
0.2588266946055565
 40
0.3345190598259142
 40
0.3626447427195263
 40
0.3910056482847541
 40
0.4191743039829972
 40
0.448120360697974
 40
0.4657704782447655
 40
0.4839081706433205
 40
0.5015721548764676
 40
0.5197440214872951
 40
0.5448446854435506
 40
0.5706253690117588
 40
0.6177938154944821
 40
0.6660858441031582
 40
0.7518796859636304
 40
0.8400397940083094
 40
0.9191574739584846
 40
0.9999999999999999
 40
0.9999999999999999
 40
0.9999999999999999
 40
0.9999999999999999
 10
653.2207006318316
 20
366.7795979741141
 30
0.0
 10
653.3236785110283
 20
366.6425646431202
 30
0.0
 10
653.5325852799152
 20
366.3645710523501
 30
0.0
 10
653.8562510824377
 20
366.0181742227575
 30
0.0
 10
654.1685836976235
 20
365.7284075961681
 30
0.0
 10
654.4032173939479
 20
365.5488560873051
 30
0.0
 10
654.5814296687514
 20
365.4436130515501
 30
0.0
 10
654.6975710132907
 20
365.3894701923776
 30
0.0
 10
654.8170121306425
 20
365.3533250344154
 30
0.0
 10
654.9231241039842
 20
365.3454285874425
 30
0.0
 10
655.0133808349083
 20
365.3621297159476
 30
0.0
 10
655.085002484164
 20
365.3927163767758
 30
0.0
 10
655.1519206218495
 20
365.4404050852173
 30
0.0
 10
655.2194249136538
 20
365.5104849082974
 30
0.0
 10
655.2840794115629
 20
365.6067767029275
 30
0.0
 10
655.357438703991
 20
365.7606722149536
 30
0.0
 10
655.4209011974468
 20
365.9692244554501
 30
0.0
 10
655.4751211974813
 20
366.2950025486793
 30
0.0
 10
655.4844761580054
 20
366.7060101825334
 30
0.0
 10
655.4209073299594
 20
367.1718419748648
 30
0.0
 10
655.2969423340169
 20
367.6193983090034
 30
0.0
 10
655.1654260692433
 20
367.8896539972509
 30
0.0
 10
655.0989588688922
 20
368.0262389208547
 30
0.0
  0
SPLINE
  5
270
330
1F
100
AcDbEntity
  8
0
  6
Continuous
 62
     7
370
    25
100
AcDbSpline
210
0.0
220
0.0
230
1.0
 70
     8
 71
     3
 72
    15
 73
    11
 74
     0
 42
0.000000001
 43
0.00000001
 40
0.0
 40
0.0
 40
0.0
 40
0.0
 40
0.2150763736127623
 40
0.3413349926978211
 40
0.4465934903530034
 40
0.5524796219272401
 40
0.6449070621727223
 40
0.766214653902494
 40
0.940631656051666
 40
1.0
 40
1.0
 40
1.0
 40
1.0
 10
652.835448376898
 20
366.6783576845749
 30
0.0
 10
652.842820540669
 20
366.719285222793
 30
0.0
 10
652.8545204657919
 20
366.7842388981973
 30
0.0
 10
652.9002268989026
 20
366.8558566850865
 30
0.0
 10
652.9493958546012
 20
366.8958259700628
 30
0.0
 10
653.0049092088701
 20
366.9119718231079
 30
0.0
 10
653.0659150078632
 20
366.9058421911682
 30
0.0
 10
653.1347177505884
 20
366.8737021518112
 30
0.0
 10
653.1864236613666
 20
366.8255922462646
 30
0.0
 10
653.2137589932266
 20
366.7889125550366
 30
0.0
 10
653.2207006318316
 20
366.7795979741141
 30
0.0
  0
SPLINE
  5
271
330
1F
100
AcDbEntity
  8
0
  6
Continuous
 62
     7
370
    25
100
AcDbSpline
210
0.0
220
0.0
230
1.0
 70
     8
 71
     3
 72
    10
 73
     6
 74
     0
 42
0.000000001
 43
0.00000001
 40
0.0
 40
0.0
 40
0.0
 40
0.0
 40
0.478789346817191
 40
0.9710174308856663
 40
1.0
 40
1.0
 40
1.0
 40
1.0
 10
649.955728066195
 20
366.6769462186084
 30
0.0
 10
649.9767799538215
 20
366.4967039357248
 30
0.0
 10
650.0194746168803
 20
366.1311603002491
 30
0.0
 10
650.1186479395352
 20
365.7557798907799
 30
0.0
 10
650.2017822725389
 20
365.5731236104732
 30
0.0
 10
650.2064050609207
 20
365.5629667799559
 30
0.0
  0
SPLINE
  5
272
330
1F
100
AcDbEntity
  8
0
  6
Continuous
 62
     7
370
    25
100
AcDbSpline
210
0.0
220
0.0
230
1.0
 70
     8
 71
     3
 72
    11
 73
     7
 74
     0
 42
0.000000001
 43
0.00000001
 40
0.0
 40
0.0
 40
0.0
 40
0.0
 40
0.1926194731677708
 40
0.4826179747734654
 40
0.7789736208159462
 40
0.9999999999999999
 40
0.9999999999999999
 40
0.9999999999999999
 40
0.9999999999999999
 10
652.2360645629662
 20
365.0113488176423
 30
0.0
 10
652.2956935884414
 20
365.1097074658651
 30
0.0
 10
652.4450971717821
 20
365.3561501065082
 30
0.0
 10
652.6276523220001
 20
365.7870683926001
 30
0.0
 10
652.7724077019903
 20
366.2478652468104
 30
0.0
 10
652.8165785319273
 20
366.5494992043397
 30
0.0
 10
652.835448376898
 20
366.6783576845749
 30
0.0
  0
SPLINE
  5
273
330
1F
100
AcDbEntity
  8
0
  6
Continuous
 62
     7
370
    25
100
AcDbSpline
210
0.0
220
0.0
230
1.0
 70
     8
 71
     3
 72
    15
 73
    11
 74
     0
 42
0.000000001
 43
0.00000001
 40
0.0
 40
0.0
 40
0.0
 40
0.0
 40
0.2129294053202189
 40
0.3333107283175603
 40
0.4345062010026767
 40
0.5362836886506531
 40
0.6256367151020122
 40
0.7456368547566248
 40
0.921192717688107
 40
1.0
 40
1.0
 40
1.0
 40
1.0
 10
649.5838814827795
 20
366.7780061522722
 30
0.0
 10
649.6109811435322
 20
366.8105047367752
 30
0.0
 10
649.6534018117767
 20
366.8613766530032
 30
0.0
 10
649.7278250894694
 20
366.9021269274786
 30
0.0
 10
649.7880335286357
 20
366.914022314051
 30
0.0
 10
649.8415268161109
 20
366.9029591332146
 30
0.0
 10
649.8887346040119
 20
366.8704185560396
 30
0.0
 10
649.929986474894
 20
366.8110211795308
 30
0.0
 10
649.9501552586034
 20
366.7412665182378
 30
0.0
 10
649.9544098885152
 20
366.6921603780657
 30
0.0
 10
649.955728066195
 20
366.6769462186084
 30
0.0
  0
SPLINE
  5
274
330
1F
100
AcDbEntity
  8
0
  6
Continuous
 62
     7
370
    25
100
AcDbSpline
210
0.0
220
0.0
230
1.0
 70
     8
 71
     3
 72
    11
 73
     7
 74
     0
 42
0.000000001
 43
0.00000001
 40
0.0
 40
0.0
 40
0.0
 40
0.0
 40
0.3033653015543132
 40
0.6152411432542332
 40
0.9270165776267815
 40
1.0
 40
1.0
 40
1.0
 40
1.0
 10
647.871187227982
 20
368.0275374936007
 30
0.0
 10
647.789442603656
 20
367.8653093953635
 30
0.0
 10
647.6236601101817
 20
367.5363020892674
 30
0.0
 10
647.4804498740519
 20
367.0010969127415
 30
0.0
 10
647.4214583871872
 20
366.5900438276288
 30
0.0
 10
647.4220130990785
 20
366.3627842483928
 30
0.0
 10
647.4221183202361
 20
366.3196762560258
 30
0.0
  0
SPLINE
  5
275
330
1F
100
AcDbEntity
  8
0
  6
Continuous
 62
     7
370
    25
100
AcDbSpline
210
0.0
220
0.0
230
1.0
 70
     8
 71
     3
 72
    11
 73
     7
 74
     0
 42
0.000000001
 43
0.00000001
 40
0.0
 40
0.0
 40
0.0
 40
0.0
 40
0.0400071753143074
 40
0.5136382513085138
 40
0.75594316419106
 40
0.9999999999999999
 40
0.9999999999999999
 40
0.9999999999999999
 40
0.9999999999999999
 10
648.8693660196511
 20
365.9263453420919
 30
0.0
 10
648.8790419828547
 20
365.9360680689859
 30
0.0
 10
649.0032683192702
 20
366.0608947882073
 30
0.0
 10
649.1880663584049
 20
366.2755564005983
 30
0.0
 10
649.4167812578617
 20
366.5536359803476
 30
0.0
 10
649.5280478101131
 20
366.703036709583
 30
0.0
 10
649.5838814827795
 20
366.7780061522722
 30
0.0
  0
SPLINE
  5
276
330
1F
100
AcDbEntity
  8
0
  6
Continuous
 62
     7
370
    25
100
AcDbSpline
210
0.0
220
0.0
230
1.0
 70
     8
 71
     3
 72
    15
 73
    11
 74
     0
 42
0.000000001
 43
0.00000001
 40
0.0
 40
0.0
 40
0.0
 40
0.0
 40
0.215576770593262
 40
0.3329005538677274
 40
0.4328760582231185
 40
0.5332634977247642
 40
0.6250838127945316
 40
0.7535547096889093
 40
0.942133837889228
 40
1.0
 40
1.0
 40
1.0
 40
1.0
 10
647.7927543776849
 20
368.2547974591717
 30
0.0
 10
647.8202480891432
 20
368.2728958798999
 30
0.0
 10
647.8627047589744
 20
368.3008440408636
 30
0.0
 10
647.9108781578826
 20
368.3062554625661
 30
0.0
 10
647.93761149282
 20
368.2927056039309
 30
0.0
 10
647.9499597096907
 20
368.2626889296702
 30
0.0
 10
647.9489002029727
 20
368.216151023852
 30
0.0
 10
647.9303438023895
 20
368.1464467825917
 30
0.0
 10
647.8999900331004
 20
368.0796597859491
 30
0.0
 10
647.8766642081515
 20
368.0374487769079
 30
0.0
 10
647.8711872279822
 20
368.0275374936007
 30
0.0
  0
LWPOLYLINE
  5
277
330
1F
100
AcDbEntity
  8
0
  6
Continuous
 62
     7
370
    25
100
AcDbPolyline
 90
       19
 70
   128
 43
0.0
 10
649.9557280662
 20
214.0189729054
 10
649.9944509028
 20
213.900490207
 10
650.0695189844
 20
213.7867313348
 10
650.1789941183
 20
213.6806334437
 10
650.3200497522
 20
213.584935889
 10
650.4890439523
 20
213.5021094979
 10
650.6816134359
 20
213.4342927758
 10
650.8927862265
 20
213.3832366913
 10
651.1171100269
 20
213.350259468
 10
651.3487929919
 20
213.3362125491
 10
651.5818532693
 20
213.3414586139
 10
651.8102734459
 20
213.3658622134
 10
652.0281559118
 20
213.408793268
 10
652.2298751315
 20
213.4691433353
 10
652.4102228907
 20
213.5453542291
 10
652.5645427673
 20
213.6354582506
 10
652.6888503566
 20
213.7371289925
 10
652.7799361451
 20
213.8477414048
 10
652.8354483769
 20
213.9644395715
  0
LWPOLYLINE
  5
278
330
1F
100
AcDbEntity
  8
0
  6
Continuous
 62
     7
370
    25
100
AcDbPolyline
 90
       15
 70
   128
 43
0.0
 10
653.2207006318
 20
214.0511623059
 10
653.4247015095
 20
213.9928821918
 10
653.6441924746
 20
213.9521825833
 10
653.8735064619
 20
213.9301143089
 10
654.1067227839
 20
213.9272471521
 10
654.3378199985
 20
213.9436551404
 10
654.560831377
 20
213.9789146338
 10
654.7699989599
 20
214.0321152631
 10
654.9599222226
 20
214.1018834342
 10
655.1256975119
 20
214.1864177939
 10
655.2630446543
 20
214.2835357385
 10
655.3684174663
 20
214.3907297675
 10
655.4390953138
 20
214.5052322244
 10
655.4732533562
 20
214.6240867556
 10
655.4764645738
 20
214.6737923003
  0
LWPOLYLINE
  5
279
330
1F
100
AcDbEntity
  8
0
  6
Continuous
 62
     7
370
    25
100
AcDbPolyline
 90
       14
 70
   128
 43
0.0
 10
647.4190665277
 20
214.7713892605
 10
647.4362207334
 20
214.6567828562
 10
647.4903813133
 20
214.5399163309
 10
647.5801852543
 20
214.429026235
 10
647.7033138969
 20
214.326975654
 10
647.8565881669
 20
214.236399445
 10
648.0360506562
 20
214.1596362069
 10
648.2370677997
 20
214.0986678994
 10
648.4544495099
 20
214.0550686712
 10
648.6825831806
 20
214.0299642164
 10
648.9155785992
 20
214.0240027101
 10
649.1474200271
 20
214.0373380732
 10
649.3721215205
 20
214.0696259982
 10
649.5838814828
 20
214.1200328391
  0
ARC
  5
27A
330
1F
100
AcDbEntity
  8
0
  6
Continuous
 62
     7
370
    25
100
AcDbCircle
 10
653.0853036576
 20
213.7535693293
 30
0.0
 40
0.3269463569465172
100
AcDbArc
 50
65.5357138737
 51
139.8366539865
  0
LWPOLYLINE
  5
27B
330
1F
100
AcDbEntity
  8
0
  6
Continuous
 62
     7
370
    25
100
AcDbPolyline
 90
        9
 70
   128
 43
0.0
 10
649.5838814828
 20
214.1200328391
 10
649.6415110851
 20
214.1321814137
 10
649.7031824761
 20
214.136617659
 10
649.7650695291
 20
214.1330663478
 10
649.8233327379
 20
214.1217478055
 10
649.8743574212
 20
214.1033642405
 10
649.9149779802
 20
214.0790561792
 10
649.9426742933
 20
214.0503317069
 10
649.9557280662
 20
214.0189729054
  0
LWPOLYLINE
  5
27C
330
1F
100
AcDbEntity
  8
0
  6
Continuous
 62
     7
370
    25
100
AcDbPolyline
 90
        8
 70
   128
 43
0.0
 10
655.4764645738
 20
215.446481436
 10
655.6218087618
 20
215.4947641822
 10
655.7982834928
 20
215.5733433851
 10
655.9480438558
 20
215.6654656538
 10
656.0672231687
 20
215.7687524716
 10
656.1527443255
 20
215.880537063
 10
656.2023992445
 20
215.997933247
 10
656.2154268798
 20
216.0978795172
  0
ARC
  5
27D
330
1F
100
AcDbEntity
  8
0
  6
Continuous
 62
     7
370
    25
100
AcDbCircle
 10
647.6449251709
 20
216.384100852
 30
0.0
 40
0.777379424035047
100
AcDbArc
 50
192.2181259481
 51
253.109802685
  0
SPLINE
  5
27E
330
1F
100
AcDbEntity
  8
0
  6
Continuous
 62
     7
370
    25
100
AcDbSpline
210
0.0
220
0.0
230
1.0
 70
     8
 71
     3
 72
    28
 73
    24
 74
     0
 42
0.000000001
 43
0.00000001
 40
0.0
 40
0.0
 40
0.0
 40
0.0
 40
0.0885577904272321
 40
0.1796438193735518
 40
0.2695757108504268
 40
0.3157367678527886
 40
0.3623220932277409
 40
0.3904539690316891
 40
0.4187952486339986
 40
0.4469625905235284
 40
0.4757849359529026
 40
0.4937651259402159
 40
0.5122126959858443
 40
0.5302154725933185
 40
0.5487865500347939
 40
0.5721716297902772
 40
0.5962043255368831
 40
0.6385840534980272
 40
0.6819817284823889
 40
0.7628828890611847
 40
0.8459448991942597
 40
0.9222316806844276
 40
1.0
 40
1.0
 40
1.0
 40
1.0
 10
591.8082855815969
 20
306.2526015271804
 30
0.0
 10
591.9247672068267
 20
306.1458596030735
 30
0.0
 10
592.1610558940464
 20
305.9293283770645
 30
0.0
 10
592.4968443108565
 20
305.6478712517214
 30
0.0
 10
592.7571263796491
 20
305.441088661795
 30
0.0
 10
592.9485761851898
 20
305.3010478711825
 30
0.0
 10
593.0667032660939
 20
305.2230643401004
 30
0.0
 10
593.160711335321
 20
305.1710616065525
 30
0.0
 10
593.2333592433497
 20
305.1402143934164
 30
0.0
 10
593.3011349619256
 20
305.1255875029797
 30
0.0
 10
593.3544309170026
 20
305.1336610119085
 30
0.0
 10
593.3939952654205
 20
305.1617085545155
 30
0.0
 10
593.4213095788115
 20
305.2008196541014
 30
0.0
 10
593.4418846396424
 20
305.2564961588351
 30
0.0
 10
593.4560258425456
 20
305.3324264817674
 30
0.0
 10
593.4616047430494
 20
305.4302815360742
 30
0.0
 10
593.4561284230748
 20
305.5763522261749
 30
0.0
 10
593.4311909232953
 20
305.7670649371231
 30
0.0
 10
593.3665303131935
 20
306.0625632321298
 30
0.0
 10
593.2460148321179
 20
306.4306658087573
 30
0.0
 10
593.0547834563193
 20
306.8411066020115
 30
0.0
 10
592.824388056809
 20
307.2265270474267
 30
0.0
 10
592.6435830084856
 20
307.4517137505587
 30
0.0
 10
592.5523110891637
 20
307.5653899050204
 30
0.0
  0
SPLINE
  5
27F
330
1F
100
AcDbEntity
  8
0
  6
Continuous
 62
     7
370
    25
100
AcDbSpline
210
0.0
220
0.0
230
1.0
 70
     8
 71
     3
 72
    14
 73
    10
 74
     0
 42
0.000000001
 43
0.00000001
 40
0.0
 40
0.0
 40
0.0
 40
0.0
 40
0.220765348438179
 40
0.3402146168140553
 40
0.4605704991790948
 40
0.5641909618660854
 40
0.6633542991971745
 40
0.8105247403618525
 40
1.0
 40
1.0
 40
1.0
 40
1.0
 10
591.5342431627635
 20
306.1056104876492
 30
0.0
 10
591.5280397483817
 20
306.1461995230958
 30
0.0
 10
591.518479859288
 20
306.2087500240644
 30
0.0
 10
591.5372239024232
 20
306.2827646339995
 30
0.0
 10
591.5684439835534
 20
306.3240816088706
 30
0.0
 10
591.6118489730104
 20
306.342253632196
 30
0.0
 10
591.6654130903149
 20
306.3408132293289
 30
0.0
 10
591.7345185178398
 20
306.3145121
 30
0.0
 10
591.7817193836898
 20
306.2748977722293
 30
0.0
 10
591.8082855815969
 20
306.2526015271804
 30
0.0
  0
SPLINE
  5
280
330
1F
100
AcDbEntity
  8
0
  6
Continuous
 62
     7
370
    25
100
AcDbSpline
210
0.0
220
0.0
230
1.0
 70
     8
 71
     3
 72
    23
 73
    19
 74
     0
 42
0.000000001
 43
0.00000001
 40
0.0
 40
0.0
 40
0.0
 40
0.0
 40
0.0863901050636732
 40
0.175276617796266
 40
0.2621177065427444
 40
0.3519363559727681
 40
0.4192459175639044
 40
0.4528076006128968
 40
0.4875598503476017
 40
0.53423261705425
 40
0.580802717864325
 40
0.617415928196386
 40
0.6550189806174276
 40
0.7176192476618424
 40
0.7818570182170672
 40
0.8689416197544518
 40
0.9585429605715874
 40
1.0
 40
1.0
 40
1.0
 40
1.0
 10
588.8937642753848
 20
305.6041556193738
 30
0.0
 10
588.9572411076897
 20
305.4663035201869
 30
0.0
 10
589.0860290570346
 20
305.1866158211873
 30
0.0
 10
589.3474045942099
 20
304.7975761584975
 30
0.0
 10
589.6526412387143
 20
304.4380562850524
 30
0.0
 10
589.9738448322901
 20
304.1548916403166
 30
0.0
 10
590.2567523444023
 20
303.9904631591421
 30
0.0
 10
590.4730908609562
 20
303.9222780806365
 30
0.0
 10
590.6629843704891
 20
303.9029648435173
 30
0.0
 10
590.8732916731922
 20
303.9482700795776
 30
0.0
 10
591.05804809067
 20
304.0687353883956
 30
0.0
 10
591.1990043435366
 20
304.2182952950641
 30
0.0
 10
591.3310233889501
 20
304.4119155320521
 30
0.0
 10
591.4506436746597
 20
304.6693705748017
 30
0.0
 10
591.5533417261992
 20
305.0239157422895
 30
0.0
 10
591.6046192697344
 20
305.4368533805094
 30
0.0
 10
591.5902676904677
 20
305.8138182486446
 30
0.0
 10
591.5477063712024
 20
306.0354901333054
 30
0.0
 10
591.5342431627635
 20
306.1056104876492
 30
0.0
  0
SPLINE
  5
281
330
1F
100
AcDbEntity
  8
0
  6
Continuous
 62
     7
370
    25
100
AcDbSpline
210
0.0
220
0.0
230
1.0
 70
     8
 71
     3
 72
    14
 73
    10
 74
     0
 42
0.000000001
 43
0.00000001
 40
0.0
 40
0.0
 40
0.0
 40
0.0
 40
0.2243030424883259
 40
0.3489011866266116
 40
0.4744001356117633
 40
0.5826741857066091
 40
0.6867417687947664
 40
0.8381564871696764
 40
1.0
 40
1.0
 40
1.0
 40
1.0
 10
588.473606118249
 20
305.6195094156037
 30
0.0
 10
588.4951597211881
 20
305.6560080516239
 30
0.0
 10
588.5286861395467
 20
305.7127813226255
 30
0.0
 10
588.6045413669087
 20
305.7631620288009
 30
0.0
 10
588.6718202345943
 20
305.7798603501579
 30
0.0
 10
588.7363696360943
 20
305.7706200242758
 30
0.0
 10
588.7980518206987
 20
305.7394653371275
 30
0.0
 10
588.8549339707449
 20
305.6837178160243
 30
0.0
 10
588.8805367236317
 20
305.6312584990329
 30
0.0
 10
588.8937642753848
 20
305.6041556193738
 30
0.0
  0
SPLINE
  5
282
330
1F
100
AcDbEntity
  8
0
  6
Continuous
 62
     7
370
    25
100
AcDbSpline
210
0.0
220
0.0
230
1.0
 70
     8
 71
     3
 72
    26
 73
    22
 74
     0
 42
0.000000001
 43
0.00000001
 40
0.0
 40
0.0
 40
0.0
 40
0.0
 40
0.0854261159360998
 40
0.1733276547195614
 40
0.244851726135248
 40
0.3181224083912759
 40
0.3577740645396698
 40
0.3980844094313244
 40
0.4287682032815361
 40
0.4601978879083259
 40
0.4855692359538117
 40
0.511668118537248
 40
0.5370453561645242
 40
0.5630880149114154
 40
0.5995557531473629
 40
0.6370345873825544
 40
0.6960497304231588
 40
0.7566321175831462
 40
0.8401423063242429
 40
0.9260534647419587
 40
1.0
 40
1.0
 40
1.0
 40
1.0
 10
585.925008309208
 20
306.3121636902559
 30
0.0
 10
585.8929066352089
 20
306.1718441033558
 30
0.0
 10
585.8277730656224
 20
305.8871388391389
 30
0.0
 10
585.8253827665785
 20
305.4743871561893
 30
0.0
 10
585.880911863256
 20
305.0887603280945
 30
0.0
 10
585.9742844590704
 20
304.7938085708915
 30
0.0
 10
586.0879215520615
 20
304.5659280353146
 30
0.0
 10
586.1911455524854
 20
304.4146512161992
 30
0.0
 10
586.3060610768583
 20
304.2922415954173
 30
0.0
 10
586.4195201782187
 20
304.2062588846374
 30
0.0
 10
586.53903031072
 20
304.1467537588308
 30
0.0
 10
586.6576085956949
 20
304.1132189874681
 30
0.0
 10
586.7813763702754
 20
304.102390364996
 30
0.0
 10
586.9224430099883
 20
304.1144777106584
 30
0.0
 10
587.080120224907
 20
304.1571335197066
 30
0.0
 10
587.2808469211259
 20
304.247784601127
 30
0.0
 10
587.5034347066118
 20
304.3931271202621
 30
0.0
 10
587.7683490733583
 20
304.6204137214969
 30
0.0
 10
588.0378742459475
 20
304.9167381910948
 30
0.0
 10
588.2874167468402
 20
305.2622184512409
 30
0.0
 10
588.4147189929804
 20
305.506507058828
 30
0.0
 10
588.473606118249
 20
305.6195094156037
 30
0.0
  0
SPLINE
  5
283
330
1F
100
AcDbEntity
  8
0
  6
Continuous
 62
     7
370
    25
100
AcDbSpline
210
0.0
220
0.0
230
1.0
 70
     8
 71
     3
 72
    14
 73
    10
 74
     0
 42
0.000000001
 43
0.00000001
 40
0.0
 40
0.0
 40
0.0
 40
0.0
 40
0.2239799089306602
 40
0.3530600787850526
 40
0.4831615846560798
 40
0.5937368434044649
 40
0.6971871626482021
 40
0.8442013099711085
 40
1.0
 40
1.0
 40
1.0
 40
1.0
 10
585.6751220757574
 20
306.4789136020727
 30
0.0
 10
585.7076758032189
 20
306.5022759741591
 30
0.0
 10
585.7589903235131
 20
306.5391021384737
 30
0.0
 10
585.8337253894193
 20
306.5553830274124
 30
0.0
 10
585.8855599527798
 20
306.5448387010416
 30
0.0
 10
585.9204199635308
 20
306.5118411790351
 30
0.0
 10
585.940389265042
 20
306.4615452030984
 30
0.0
 10
585.9439897821189
 20
306.3932139172562
 30
0.0
 10
585.9314566613269
 20
306.3396979287983
 30
0.0
 10
585.925008309208
 20
306.3121636902559
 30
0.0
  0
SPLINE
  5
284
330
1F
100
AcDbEntity
  8
0
  6
Continuous
 62
     7
370
    25
100
AcDbSpline
210
0.0
220
0.0
230
1.0
 70
     8
 71
     3
 72
    25
 73
    21
 74
     0
 42
0.000000001
 43
0.00000001
 40
0.0
 40
0.0
 40
0.0
 40
0.0
 40
0.0875462653424555
 40
0.1776275929600298
 40
0.2471474788262652
 40
0.3182485058085605
 40
0.3544110039426027
 40
0.391111169405548
 40
0.4196256508468983
 40
0.4488279610873445
 40
0.4955774367114216
 40
0.5423030312794784
 40
0.5762969204455028
 40
0.6112229844817031
 40
0.6688576767939506
 40
0.727986756224882
 40
0.8132488808160993
 40
0.900954184456267
 40
0.9502506997642257
 40
1.0
 40
1.0
 40
1.0
 40
1.0
 10
585.1375514771831
 20
307.844094223267
 30
0.0
 10
585.0330330337023
 20
307.7302147779079
 30
0.0
 10
584.8209696239976
 20
307.4991582995119
 30
0.0
 10
584.5738417278352
 20
307.1324206557872
 30
0.0
 10
584.3804693733883
 20
306.7737379886613
 30
0.0
 10
584.262987097966
 20
306.4899594332857
 30
0.0
 10
584.1910151801834
 20
306.2607938088805
 30
0.0
 10
584.153720181063
 20
306.1031649958313
 30
0.0
 10
584.1328497351783
 20
305.964393663695
 30
0.0
 10
584.125893614206
 20
305.8245601274776
 30
0.0
 10
584.1476651951249
 20
305.6943648376445
 30
0.0
 10
584.2088773669252
 20
305.6258266999408
 30
0.0
 10
584.2850230810037
 20
305.6084738861865
 30
0.0
 10
584.3826637389182
 20
305.6207418997163
 30
0.0
 10
584.5174772863095
 20
305.6726044033384
 30
0.0
 10
584.7188381980342
 20
305.7814997578247
 30
0.0
 10
584.9761171008354
 20
305.9472328142639
 30
0.0
 10
585.2455260082419
 20
306.1406432773555
 30
0.0
 10
585.4819601629242
 20
306.3215125915616
 30
0.0
 10
585.610538840311
 20
306.426286940987
 30
0.0
 10
585.6751220757574
 20
306.4789136020727
 30
0.0
  0
SPLINE
  5
285
330
1F
100
AcDbEntity
  8
0
  6
Continuous
 62
     7
370
    25
100
AcDbSpline
210
0.0
220
0.0
230
1.0
 70
     8
 71
     3
 72
    14
 73
    10
 74
     0
 42
0.000000001
 43
0.00000001
 40
0.0
 40
0.0
 40
0.0
 40
0.0
 40
0.2200911109485595
 40
0.3501199592092341
 40
0.4590676183976581
 40
0.5685351145661265
 40
0.6668402217390302
 40
0.7968948941937074
 40
1.0
 40
1.0
 40
1.0
 40
1.0
 10
585.2461065979564
 20
308.0360611644471
 30
0.0
 10
585.2648333141761
 20
308.0482303298524
 30
0.0
 10
585.2946236909467
 20
308.0675889839887
 30
0.0
 10
585.3122673765542
 20
308.0664578700425
 30
0.0
 10
585.3109957465666
 20
308.0504033604692
 30
0.0
 10
585.2940043768876
 20
308.0210753856853
 30
0.0
 10
585.2621967902568
 20
307.979272678093
 30
0.0
 10
585.2096575556496
 20
307.9185613226362
 30
0.0
 10
585.164860952652
 20
307.8722979124248
 30
0.0
 10
585.1375514771831
 20
307.844094223267
 30
0.0
  0
SPLINE
  5
286
330
1F
100
AcDbEntity
  8
0
  6
Continuous
 62
     7
370
    25
100
AcDbSpline
210
0.0
220
0.0
230
1.0
 70
     8
 71
     3
 72
    11
 73
     7
 74
     0
 42
0.000000001
 43
0.00000001
 40
0.0
 40
0.0
 40
0.0
 40
0.0
 40
0.1049083671508467
 40
0.4229451041602262
 40
0.7083613692849691
 40
0.9999999999999999
 40
0.9999999999999999
 40
0.9999999999999999
 40
0.9999999999999999
 10
584.8773473718793
 20
307.5564153531342
 30
0.0
 10
584.8749779480422
 20
307.5705207116374
 30
0.0
 10
584.8654254572467
 20
307.6273874085784
 30
0.0
 10
584.9272695021237
 20
307.7401451423327
 30
0.0
 10
585.0473616610184
 20
307.8848377044832
 30
0.0
 10
585.179383755552
 20
307.985292278243
 30
0.0
 10
585.2461065979564
 20
308.0360611644471
 30
0.0
  0
SPLINE
  5
287
330
1F
100
AcDbEntity
  8
0
  6
Continuous
 62
     7
370
    25
100
AcDbSpline
210
0.0
220
0.0
230
1.0
 70
     8
 71
     3
 72
    11
 73
     7
 74
     0
 42
0.000000001
 43
0.00000001
 40
0.0
 40
0.0
 40
0.0
 40
0.0
 40
0.2974144720820484
 40
0.6031725411132869
 40
0.9088321724124895
 40
0.9999999999999999
 40
0.9999999999999999
 40
0.9999999999999999
 40
0.9999999999999999
 10
592.4738782388664
 20
307.7636147603901
 30
0.0
 10
592.5555972738173
 20
307.6939940540609
 30
0.0
 10
592.7213278706628
 20
307.5527995181773
 30
0.0
 10
592.8649356648849
 20
307.3529317682847
 30
0.0
 10
592.9244579110576
 20
307.2019775942892
 30
0.0
 10
592.9234248158917
 20
307.1229482632177
 30
0.0
 10
592.9231874708192
 20
307.1047919278428
 30
0.0
  0
SPLINE
  5
288
330
1F
100
AcDbEntity
  8
0
  6
Continuous
 62
     7
370
    25
100
AcDbSpline
210
0.0
220
0.0
230
1.0
 70
     8
 71
     3
 72
    15
 73
    11
 74
     0
 42
0.000000001
 43
0.00000001
 40
0.0
 40
0.0
 40
0.0
 40
0.0
 40
0.215576770593262
 40
0.3329005538677274
 40
0.4328760582231185
 40
0.5332634977247642
 40
0.6250838127945316
 40
0.7535547096889093
 40
0.942133837889228
 40
1.0
 40
1.0
 40
1.0
 40
1.0
 10
592.5523110891637
 20
307.5653899050204
 30
0.0
 10
592.5248173777054
 20
307.5980533181985
 30
0.0
 10
592.4823607078742
 20
307.648493207006
 30
0.0
 10
592.4341873089658
 20
307.7143557247659
 30
0.0
 10
592.4074539740286
 20
307.7572423435294
 30
0.0
 10
592.3951057571578
 20
307.7863280162894
 30
0.0
 10
592.3961652638758
 20
307.8030288227073
 30
0.0
 10
592.414721664459
 20
307.8038247409939
 30
0.0
 10
592.4450754337479
 20
307.7859091593639
 30
0.0
 10
592.4684012586971
 20
307.7678541384842
 30
0.0
 10
592.4738782388664
 20
307.7636147603901
 30
0.0
  0
LWPOLYLINE
  5
289
330
1F
100
AcDbEntity
  8
0
  6
Continuous
 62
     7
370
    25
100
AcDbPolyline
 90
       18
 70
   128
 43
0.0
 10
588.8937642754
 20
152.6444953831
 10
589.0284657745
 20
152.5463994228
 10
589.1919337128
 20
152.4606814329
 10
589.3799474907
 20
152.3895545771
 10
589.5876527562
 20
152.3348552888
 10
589.8096867404
 20
152.2979958561
 10
590.0403167193
 20
152.2799279573
 10
590.2735880279
 20
152.2811180899
 10
590.5034778042
 20
152.3015355256
 10
590.7240504946
 20
152.340653104
 10
590.9296111044
 20
152.3974608435
 10
591.1148522379
 20
152.4704920176
 10
591.2749911304
 20
152.5578610251
 10
591.4058931352
 20
152.6573120743
 10
591.5041784767
 20
152.7662774258
 10
591.567309513
 20
152.8819436893
 10
591.5936562557
 20
153.0013244625
 10
591.5944348746
 20
153.025810272
  0
LWPOLYLINE
  5
28A
330
1F
100
AcDbEntity
  8
0
  6
Continuous
 62
     7
370
    25
100
AcDbPolyline
 90
       17
 70
   128
 43
0.0
 10
585.830677709
 20
153.0799724987
 10
585.8411366184
 20
152.9903803655
 10
585.8876048223
 20
152.8726386185
 10
585.9700878645
 20
152.7602500517
 10
586.0864561047
 20
152.6561164398
 10
586.2337050164
 20
152.5629264219
 10
586.408032761
 20
152.4830860832
 10
586.604938348
 20
152.4186568315
 10
586.8193378468
 20
152.3713021741
 10
587.0456956492
 20
152.3422447668
 10
587.2781673939
 20
152.3322348467
 10
587.5107508632
 20
152.3415308611
 10
587.7374409545
 20
152.369892795
 10
587.9523847273
 20
152.4165883681
 10
588.1500325206
 20
152.4804119413
 10
588.3252812406
 20
152.5597156455
 10
588.4736061182
 20
152.6524519284
  0
ARC
  5
28B
330
1F
100
AcDbEntity
  8
0
  6
Continuous
 62
     7
370
    25
100
AcDbCircle
 10
588.6774486274
 20
152.3191415902
 30
0.0
 40
0.3907013566544005
100
AcDbArc
 50
56.3815430533
 51
121.448693132
  0
LWPOLYLINE
  5
28C
330
1F
100
AcDbEntity
  8
0
  6
Continuous
 62
     7
370
    25
100
AcDbPolyline
 90
       12
 70
   128
 43
0.0
 10
591.8082855816
 20
153.4031094984
 10
592.0411809621
 20
153.3961883219
 10
592.2732220765
 20
153.4085681514
 10
592.4984178256
 20
153.4399293507
 10
592.7109538513
 20
153.4894622009
 10
592.9053426588
 20
153.5558878069
 10
593.0765652982
 20
153.6374911176
 10
593.2202009505
 20
153.7321652064
 10
593.3325410681
 20
153.837465671
 10
593.4106851271
 20
153.9506737452
 10
593.4526155161
 20
154.0688664951
 10
593.4599112918
 20
154.1437350918
  0
ARC
  5
28D
330
1F
100
AcDbEntity
  8
0
  6
Continuous
 62
     7
370
    25
100
AcDbCircle
 10
591.7697496504
 20
152.9980996997
 30
0.0
 40
0.4068389792668499
100
AcDbArc
 50
84.5647754415
 51
115.52591659
  0
ARC
  5
28E
330
1F
100
AcDbEntity
  8
0
  6
Continuous
 62
     7
370
    25
100
AcDbCircle
 10
585.6939600553
 20
153.0842916551
 30
0.0
 40
0.4353694513885942
100
AcDbArc
 50
71.6979304477
 51
92.4799025142
  0
LWPOLYLINE
  5
28F
330
1F
100
AcDbEntity
  8
0
  6
Continuous
 62
     7
370
    25
100
AcDbPolyline
 90
       12
 70
   128
 43
0.0
 10
584.129638587
 20
154.2654365106
 10
584.1301595878
 20
154.2454060711
 10
584.1551241483
 20
154.1259465299
 10
584.2169153405
 20
154.0100884985
 10
584.3139377697
 20
153.9008233302
 10
584.4436864014
 20
153.8009721564
 10
584.6028112389
 20
153.7131130476
 10
584.7872038177
 20
153.6395144492
 10
584.9921032819
 20
153.5820766129
 10
585.2122193062
 20
153.5422825337
 10
585.4418686864
 20
153.5211596599
 10
585.6751220758
 20
153.5192533658
  0
LWPOLYLINE
  5
290
330
1F
100
AcDbEntity
  8
0
  6
Continuous
 62
     7
370
    25
100
AcDbPolyline
 90
       43
 70
   128
 43
0.0
 10
239.6926626209
 20
251.2564094282
 10
239.7438358861
 20
251.1184003267
 10
239.7915244067
 20
250.9093363157
 10
239.8041416024
 20
250.6989348071
 10
239.7815940599
 20
250.4887535398
 10
239.7240487133
 20
250.2803486226
 10
239.6319316083
 20
250.0752630124
 10
239.5059247477
 20
249.8750150914
 10
239.3469610422
 20
249.6810874251
 10
239.1562174035
 20
249.4949157862
 10
238.9351060306
 20
249.3178785242
 10
238.6852639549
 20
249.1512863612
 10
238.4085409197
 20
248.9963726872
 10
238.1069856855
 20
248.854284429
 10
237.7828308618
 20
248.7260735581
 10
237.4384763774
 20
248.6126893031
 10
237.0764717125
 20
248.5149711213
 10
236.6994970229
 20
248.433642484
 10
236.3103432975
 20
248.3693055199
 10
235.9118916942
 20
248.3224365573
 10
235.5070922092
 20
248.2933825978
 10
235.0989418364
 20
248.2823587466
 10
234.6904623783
 20
248.2894466205
 10
234.2846780738
 20
248.3145937434
 10
233.8845932081
 20
248.3576139347
 10
233.4931698694
 20
248.418188688
 10
233.1133060193
 20
248.495869529
 10
232.7478140368
 20
248.590081336
 10
232.3993998966
 20
248.7001265976
 10
232.0706431351
 20
248.8251905774
 10
231.7639777524
 20
248.9643473452
 10
231.4816741917
 20
249.1165666332
 10
231.2258225297
 20
249.2807214629
 10
230.9983170027
 20
249.4555964895
 10
230.800841982
 20
249.6398969994
 10
230.6348595035
 20
249.8322584961
 10
230.5015984435
 20
250.0312568024
 10
230.4020454201
 20
250.2354186044
 10
230.3369374893
 20
250.4432323597
 10
230.3067566872
 20
250.6531594878
 10
230.3117264621
 20
250.8636457619
 10
230.3518100194
 20
251.073132815
 10
230.3623899161
 20
251.1094871535
  0
LWPOLYLINE
  5
291
330
1F
100
AcDbEntity
  8
0
  6
Continuous
 62
     7
370
    25
100
AcDbPolyline
 90
       35
 70
   128
 43
0.0
 10
301.9570614284
 20
310.7856112877
 10
301.7509430808
 20
310.6038385366
 10
301.5152481301
 20
310.4318645961
 10
301.2517215794
 20
310.270962701
 10
300.962314487
 20
310.1223241126
 10
300.6491695218
 20
309.9870492991
 10
300.3146050996
 20
309.8661397879
 10
299.9610982183
 20
309.7604907507
 10
299.5912661191
 20
309.6708843759
 10
299.2078469096
 20
309.5979840779
 10
298.8136792914
 20
309.5423295849
 10
298.4116815436
 20
309.5043329434
 10
298.0048299169
 20
309.4842754671
 10
297.5961365985
 20
309.4823056547
 10
297.1886274106
 20
309.4984380898
 10
296.7853194087
 20
309.5325533337
 10
296.3891985442
 20
309.5843988089
 10
296.0031975573
 20
309.6535906698
 10
295.6301742644
 20
309.7396166439
 10
295.2728903992
 20
309.8418398251
 10
294.9339911667
 20
309.9595033888
 10
294.6159856581
 20
310.0917361949
 10
294.321228275
 20
310.2375592382
 10
294.0519012979
 20
310.3958928958
 10
293.8099987295
 20
310.5655649207
 10
293.5973115317
 20
310.7453191206
 10
293.4154143663
 20
310.9338246583
 10
293.2656539361
 20
311.1296859048
 10
293.149139015
 20
311.3314527719
 10
293.0667322388
 20
311.5376314483
 10
293.0190437182
 20
311.7466954592
 10
293.0064265226
 20
311.9570969678
 10
293.028974065
 20
312.1672782351
 10
293.0865194116
 20
312.3756831523
 10
293.117905504
 20
312.4550762283
  0
ARC
  5
292
330
1F
100
AcDbEntity
  8
0
  6
Continuous
 62
     7
370
    25
100
AcDbCircle
 10
301.0149112077
 20
311.9299941368
 30
0.0
 40
1.482315466957955
100
AcDbArc
 50
309.4640244228
 51
14.7803558287
  0
LWPOLYLINE
  5
293
330
1F
100
AcDbEntity
  8
0
  6
Continuous
 62
     7
370
    25
100
AcDbPolyline
 90
       43
 70
   128
 43
0.0
 10
593.4599112918
 20
155.1100515547
 10
593.5110845571
 20
154.9720424531
 10
593.5587730777
 20
154.7629784422
 10
593.5713902733
 20
154.5525769335
 10
593.5488427308
 20
154.3423956663
 10
593.4912973843
 20
154.133990749
 10
593.3991802793
 20
153.9289051388
 10
593.2731734187
 20
153.7286572178
 10
593.1142097132
 20
153.5347295516
 10
592.9234660744
 20
153.3485579126
 10
592.7023547016
 20
153.1715206507
 10
592.4525126259
 20
153.0049284877
 10
592.1757895907
 20
152.8500148137
 10
591.8742343565
 20
152.7079265554
 10
591.5500795327
 20
152.5797156845
 10
591.2057250483
 20
152.4663314295
 10
590.8437203834
 20
152.3686132478
 10
590.4667456939
 20
152.2872846104
 10
590.0775919685
 20
152.2229476463
 10
589.6791403651
 20
152.1760786838
 10
589.2743408802
 20
152.1470247243
 10
588.8661905074
 20
152.1360008731
 10
588.4577110492
 20
152.143088747
 10
588.0519267448
 20
152.1682358698
 10
587.6518418791
 20
152.2112560611
 10
587.2604185404
 20
152.2718308144
 10
586.8805546903
 20
152.3495116554
 10
586.5150627077
 20
152.4437234624
 10
586.1666485675
 20
152.5537687241
 10
585.8378918061
 20
152.6788327038
 10
585.5312264234
 20
152.8179894717
 10
585.2489228626
 20
152.9702087596
 10
584.9930712007
 20
153.1343635894
 10
584.7655656737
 20
153.3092386159
 10
584.5680906529
 20
153.4935391258
 10
584.4021081745
 20
153.6859006225
 10
584.2688471144
 20
153.8848989288
 10
584.1692940911
 20
154.0890607309
 10
584.1041861603
 20
154.2968744861
 10
584.0740053582
 20
154.5068016143
 10
584.078975133
 20
154.7172878883
 10
584.1190586903
 20
154.9267749414
 10
584.129638587
 20
154.9631292799
  0
LWPOLYLINE
  5
294
330
1F
100
AcDbEntity
  8
0
  6
Continuous
 62
     7
370
    25
100
AcDbPolyline
 90
       35
 70
   128
 43
0.0
 10
655.7243100994
 20
214.6392534142
 10
655.5181917517
 20
214.4574806631
 10
655.2824968011
 20
214.2855067225
 10
655.0189702504
 20
214.1246048274
 10
654.729563158
 20
213.975966239
 10
654.4164181928
 20
213.8406914256
 10
654.0818537706
 20
213.7197819143
 10
653.7283468893
 20
213.6141328771
 10
653.3585147901
 20
213.5245265024
 10
652.9750955806
 20
213.4516262043
 10
652.5809279623
 20
213.3959717114
 10
652.1789302145
 20
213.3579750698
 10
651.7720785879
 20
213.3379175936
 10
651.3633852694
 20
213.3359477811
 10
650.9558760815
 20
213.3520802163
 10
650.5525680797
 20
213.3861954601
 10
650.1564472152
 20
213.4380409354
 10
649.7704462283
 20
213.5072327962
 10
649.3974229353
 20
213.5932587704
 10
649.0401390702
 20
213.6954819516
 10
648.7012398377
 20
213.8131455152
 10
648.3832343291
 20
213.9453783213
 10
648.088476946
 20
214.0912013646
 10
647.8191499688
 20
214.2495350222
 10
647.5772474004
 20
214.4192070471
 10
647.3645602027
 20
214.598961247
 10
647.1826630373
 20
214.7874667848
 10
647.0329026071
 20
214.9833280312
 10
646.916387686
 20
215.1850948983
 10
646.8339809097
 20
215.3912735747
 10
646.7862923892
 20
215.6003375856
 10
646.7736751935
 20
215.8107390943
 10
646.796222736
 20
216.0209203615
 10
646.8537680826
 20
216.2293252788
 10
646.885154175
 20
216.3087183547
  0
ARC
  5
295
330
1F
100
AcDbEntity
  8
0
  6
Continuous
 62
     7
370
    25
100
AcDbCircle
 10
654.7821598787
 20
215.7836362632
 30
0.0
 40
1.482315466958295
100
AcDbArc
 50
309.4640244228
 51
14.7803558287
  0
LINE
  5
296
330
1F
100
AcDbEntity
  8
0
  6
Continuous
 62
     8
370
    18
100
AcDbLine
 10
643.8588417044
 20
305.2681628568
 30
0.0
 11
643.8588417044
 21
300.9823263533
 31
0.0
  0
LINE
  5
297
330
1F
100
AcDbEntity
  8
0
  6
Continuous
 62
     8
370
    18
100
AcDbLine
 10
618.8632417581
 20
297.002178779
 30
0.0
 11
618.8632417581
 21
301.2880152825
 31
0.0
  0
LINE
  5
298
330
1F
100
AcDbEntity
  8
0
  6
Continuous
 62
     8
370
    18
100
AcDbLine
 10
209.3776514215
 20
412.5774245212
 30
0.0
 11
209.3776514215
 21
408.2915880177
 31
0.0
  0
LINE
  5
299
330
1F
100
AcDbEntity
  8
0
  6
Continuous
 62
     8
370
    18
100
AcDbLine
 10
684.9280359302
 20
341.067118952
 30
0.0
 11
684.9280359302
 21
345.3529554555
 31
0.0
  0
LINE
  5
29A
330
1F
100
AcDbEntity
  8
0
  6
Continuous
 62
     8
370
    18
100
AcDbLine
 10
299.0681997059
 20
462.8247155581
 30
0.0
 11
299.0681997059
 21
460.9948070138
 31
0.0
  0
LINE
  5
29B
330
1F
100
AcDbEntity
  8
0
  6
Continuous
 62
     8
370
    18
100
AcDbLine
 10
299.0681997059
 20
383.9156188299
 30
0.0
 11
299.0681997059
 21
310.110797445
 31
0.0
  0
LINE
  5
29C
330
1F
100
AcDbEntity
  8
0
  6
Continuous
 62
     8
370
    18
100
AcDbLine
 10
296.1884793952
 20
462.8233040922
 30
0.0
 11
296.1884793952
 21
461.7774532893
 31
0.0
  0
LINE
  5
29D
330
1F
100
AcDbEntity
  8
0
  6
Continuous
 62
     8
370
    18
100
AcDbLine
 10
296.1884793952
 20
384.6982651055
 30
0.0
 11
296.1884793952
 21
310.165330779
 31
0.0
  0
LINE
  5
29E
330
1F
100
AcDbEntity
  8
0
  6
Continuous
 62
     8
370
    18
100
AcDbLine
 10
299.4534519609
 20
462.9259558477
 30
0.0
 11
299.4534519609
 21
460.8901037059
 31
0.0
  0
LINE
  5
29F
330
1F
100
AcDbEntity
  8
0
  6
Continuous
 62
     8
370
    18
100
AcDbLine
 10
299.4534519609
 20
383.810915522
 30
0.0
 11
299.4534519609
 21
310.1975201795
 31
0.0
  0
LINE
  5
2A0
330
1F
100
AcDbEntity
  8
0
  6
Continuous
 62
     8
370
    18
100
AcDbLine
 10
295.8166328118
 20
462.9243640258
 30
0.0
 11
295.8166328118
 21
461.878513223
 31
0.0
  0
LINE
  5
2A1
330
1F
100
AcDbEntity
  8
0
  6
Continuous
 62
     8
370
    18
100
AcDbLine
 10
295.8166328118
 20
384.7993250391
 30
0.0
 11
295.8166328118
 21
310.2663907127
 31
0.0
  0
LINE
  5
2A2
330
1F
100
AcDbEntity
  8
0
  6
Continuous
 62
     8
370
    18
100
AcDbLine
 10
301.4402653187
 20
464.3990326826
 30
0.0
 11
301.4402653187
 21
463.9310159823
 31
0.0
  0
LINE
  5
2A3
330
1F
100
AcDbEntity
  8
0
  6
Continuous
 62
     8
370
    18
100
AcDbLine
 10
294.0255057067
 20
464.4011553327
 30
0.0
 11
294.0255057067
 21
464.0043095009
 31
0.0
  0
LINE
  5
2A4
330
1F
100
AcDbEntity
  8
0
  6
Continuous
 62
     8
370
    18
100
AcDbLine
 10
235.1265156044
 20
401.7505134929
 30
0.0
 11
235.1265156044
 21
248.7908532567
 31
0.0
  0
LINE
  5
2A5
330
1F
100
AcDbEntity
  8
0
  6
Continuous
 62
     8
370
    18
100
AcDbLine
 10
234.7063574473
 20
401.7658672892
 30
0.0
 11
234.7063574473
 21
248.798809802
 31
0.0
  0
LINE
  5
2A6
330
1F
100
AcDbEntity
  8
0
  6
Continuous
 62
     8
370
    18
100
AcDbLine
 10
238.0410369106
 20
402.3989594007
 30
0.0
 11
238.0410369106
 21
249.549467372
 31
0.0
  0
LINE
  5
2A7
330
1F
100
AcDbEntity
  8
0
  6
Continuous
 62
     8
370
    18
100
AcDbLine
 10
231.9078734048
 20
402.6252714756
 30
0.0
 11
231.9078734048
 21
249.6656112394
 31
0.0
  0
LINE
  5
2A8
330
1F
100
AcDbEntity
  8
0
  6
Continuous
 62
     8
370
    18
100
AcDbLine
 10
238.7066295679
 20
403.909972634
 30
0.0
 11
238.7066295679
 21
403.8076502243
 31
0.0
  0
LINE
  5
2A9
330
1F
100
AcDbEntity
  8
0
  6
Continuous
 62
     8
370
    18
100
AcDbLine
 10
231.478857927
 20
404.182419038
 30
0.0
 11
231.478857927
 21
404.1080400693
 31
0.0
  0
LINE
  5
2AA
330
1F
100
AcDbEntity
  8
0
  6
Continuous
 62
     8
370
    18
100
AcDbLine
 10
652.8354483769
 20
366.6783576846
 30
0.0
 11
652.8354483769
 21
364.8484491403
 31
0.0
  0
LINE
  5
2AB
330
1F
100
AcDbEntity
  8
0
  6
Continuous
 62
     8
370
    18
100
AcDbLine
 10
652.8354483769
 20
309.7437696562
 30
0.0
 11
652.8354483769
 21
213.9644395715
 31
0.0
  0
LINE
  5
2AC
330
1F
100
AcDbEntity
  8
0
  6
Continuous
 62
     8
370
    18
100
AcDbLine
 10
649.9557280662
 20
366.6769462186
 30
0.0
 11
649.9557280662
 21
365.6310954158
 31
0.0
  0
LINE
  5
2AD
330
1F
100
AcDbEntity
  8
0
  6
Continuous
 62
     8
370
    18
100
AcDbLine
 10
649.9557280662
 20
306.9330743511
 30
0.0
 11
649.9557280662
 21
214.0189729054
 31
0.0
  0
LINE
  5
2AE
330
1F
100
AcDbEntity
  8
0
  6
Continuous
 62
     8
370
    18
100
AcDbLine
 10
653.2207006318
 20
366.7795979741
 30
0.0
 11
653.2207006318
 21
364.7437458323
 31
0.0
  0
LINE
  5
2AF
330
1F
100
AcDbEntity
  8
0
  6
Continuous
 62
     8
370
    18
100
AcDbLine
 10
653.2207006318
 20
310.1197876675
 30
0.0
 11
653.2207006318
 21
214.0511623059
 31
0.0
  0
LINE
  5
2B0
330
1F
100
AcDbEntity
  8
0
  6
Continuous
 62
     8
370
    18
100
AcDbLine
 10
649.5838814828
 20
366.7780061523
 30
0.0
 11
649.5838814828
 21
365.7321553494
 31
0.0
  0
LINE
  5
2B1
330
1F
100
AcDbEntity
  8
0
  6
Continuous
 62
     8
370
    18
100
AcDbLine
 10
649.5838814828
 20
306.5701406862
 30
0.0
 11
649.5838814828
 21
214.1200328391
 31
0.0
  0
LINE
  5
2B2
330
1F
100
AcDbEntity
  8
0
  6
Continuous
 62
     8
370
    18
100
AcDbLine
 10
655.2075139897
 20
368.252674809
 30
0.0
 11
655.2075139897
 21
367.7846581088
 31
0.0
  0
LINE
  5
2B3
330
1F
100
AcDbEntity
  8
0
  6
Continuous
 62
     8
370
    18
100
AcDbLine
 10
647.7927543777
 20
368.2547974592
 30
0.0
 11
647.7927543777
 21
367.8579516273
 31
0.0
  0
LINE
  5
2B4
330
1F
100
AcDbEntity
  8
0
  6
Continuous
 62
     8
370
    18
100
AcDbLine
 10
588.8937642754
 20
305.6041556194
 30
0.0
 11
588.8937642754
 21
152.6444953831
 31
0.0
  0
LINE
  5
2B5
330
1F
100
AcDbEntity
  8
0
  6
Continuous
 62
     8
370
    18
100
AcDbLine
 10
588.4736061182
 20
305.6195094156
 30
0.0
 11
588.4736061182
 21
152.6524519284
 31
0.0
  0
LINE
  5
2B6
330
1F
100
AcDbEntity
  8
0
  6
Continuous
 62
     8
370
    18
100
AcDbLine
 10
591.8082855816
 20
306.2526015272
 30
0.0
 11
591.8082855816
 21
153.4031094984
 31
0.0
  0
LINE
  5
2B7
330
1F
100
AcDbEntity
  8
0
  6
Continuous
 62
     8
370
    18
100
AcDbLine
 10
585.6751220758
 20
306.4789136021
 30
0.0
 11
585.6751220758
 21
153.5192533658
 31
0.0
  0
LINE
  5
2B8
330
1F
100
AcDbEntity
  8
0
  6
Continuous
 62
     8
370
    18
100
AcDbLine
 10
592.4738782389
 20
307.7636147604
 30
0.0
 11
592.4738782389
 21
307.6612923507
 31
0.0
  0
LINE
  5
2B9
330
1F
100
AcDbEntity
  8
0
  6
Continuous
 62
     8
370
    18
100
AcDbLine
 10
585.246106598
 20
308.0360611644
 30
0.0
 11
585.246106598
 21
307.9616821958
 31
0.0
  0
LINE
  5
2BA
330
1F
100
AcDbEntity
  8
0
  6
Continuous
 62
     8
370
    18
100
AcDbLine
 10
239.6926626209
 20
397.9071345898
 30
0.0
 11
241.4120624347
 21
399.5853215187
 31
0.0
  0
LINE
  5
2BB
330
1F
100
AcDbEntity
  8
0
  6
Continuous
 62
     8
370
    18
100
AcDbLine
 10
239.6926626209
 20
385.0496250792
 30
0.0
 11
251.7161291234
 21
396.7848969821
 31
0.0
  0
LINE
  5
2BC
330
1F
100
AcDbEntity
  8
0
  6
Continuous
 62
     8
370
    18
100
AcDbLine
 10
595.1793111056
 20
303.4389636451
 30
0.0
 11
593.4599112918
 21
301.7607767162
 31
0.0
  0
LINE
  5
2BD
330
1F
100
AcDbEntity
  8
0
  6
Continuous
 62
     8
370
    18
100
AcDbLine
 10
605.4833777944
 20
300.6385391086
 30
0.0
 11
593.4599112918
 21
288.9032672057
 31
0.0
  0
ARC
  5
2BE
330
1F
100
AcDbEntity
  8
0
  6
Continuous
 62
     8
370
    18
100
AcDbCircle
 10
238.1938398398
 20
249.5145591001
 30
0.0
 40
1.612244827539132
100
AcDbArc
 50
311.1844313133
 51
357.4536693924
  0
LWPOLYLINE
  5
2BF
330
1F
100
AcDbEntity
  8
0
  6
Continuous
 62
     8
370
    18
100
AcDbPolyline
 90
       32
 70
   128
 43
0.0
 10
230.3044927744
 20
249.4429315364
 10
230.3174611422
 20
249.2622777081
 10
230.3651496627
 20
249.0532136971
 10
230.447556439
 20
248.8470350208
 10
230.5640713601
 20
248.6452681537
 10
230.7138317903
 20
248.4494069072
 10
230.8957289557
 20
248.2609013695
 10
231.1084161534
 20
248.0811471696
 10
231.3503187219
 20
247.9114751447
 10
231.619645699
 20
247.7531414871
 10
231.9144030821
 20
247.6073184438
 10
232.2324085907
 20
247.4750856376
 10
232.5713078232
 20
247.357422074
 10
232.9285916883
 20
247.2551988928
 10
233.3016149813
 20
247.1691729187
 10
233.6876159682
 20
247.0999810578
 10
234.0837368327
 20
247.0481355826
 10
234.4870448346
 20
247.0140203387
 10
234.8945540224
 20
246.9978879036
 10
235.3032473409
 20
246.999857716
 10
235.7100989676
 20
247.0199151923
 10
236.1120967153
 20
247.0579118338
 10
236.5062643336
 20
247.1135663268
 10
236.8896835431
 20
247.1864666248
 10
237.2595156423
 20
247.2760729996
 10
237.6130225236
 20
247.3817220368
 10
237.9475869458
 20
247.502631548
 10
238.260731911
 20
247.6379063615
 10
238.5501390034
 20
247.7865449499
 10
238.8136655541
 20
247.947446845
 10
239.0493605047
 20
248.1194207855
 10
239.2554788524
 20
248.3011935366
  0
LWPOLYLINE
  5
2C0
330
1F
100
AcDbEntity
  8
0
  6
Continuous
 62
     8
370
    18
100
AcDbPolyline
 90
       39
 70
   128
 43
0.0
 10
293.0060753505
 20
310.6415983364
 10
293.0083392632
 20
310.5660753368
 10
293.0385200653
 20
310.3561482087
 10
293.1036279962
 20
310.1483344534
 10
293.2031810195
 20
309.9441726514
 10
293.3364420795
 20
309.7451743451
 10
293.502424558
 20
309.5528128484
 10
293.6998995787
 20
309.3685123385
 10
293.9274051057
 20
309.1936373119
 10
294.1832567677
 20
309.0294824822
 10
294.4655603284
 20
308.8772631942
 10
294.7722257111
 20
308.7381064264
 10
295.1009824726
 20
308.6130424466
 10
295.4493966128
 20
308.502997185
 10
295.8148885953
 20
308.408785378
 10
296.1947524455
 20
308.331104537
 10
296.5861757841
 20
308.2705297837
 10
296.9862606498
 20
308.2275095924
 10
297.3920449543
 20
308.2023624695
 10
297.8005244124
 20
308.1952745956
 10
298.2086747852
 20
308.2062984468
 10
298.6134742702
 20
308.2353524063
 10
299.0119258735
 20
308.2822213689
 10
299.401079599
 20
308.346558333
 10
299.7780542885
 20
308.4278869703
 10
300.1400589534
 20
308.5256051521
 10
300.4844134378
 20
308.6389894071
 10
300.8085682615
 20
308.767200278
 10
301.1101234957
 20
308.9092885363
 10
301.3868465309
 20
309.0642022102
 10
301.6366886066
 20
309.2307943732
 10
301.8577999795
 20
309.4078316352
 10
302.0485436182
 20
309.5940032741
 10
302.2075073238
 20
309.7879309404
 10
302.3335141844
 20
309.9881788614
 10
302.4256312893
 20
310.1932644716
 10
302.4831766359
 20
310.4016693888
 10
302.5057241784
 20
310.6118506561
 10
302.5060753505
 20
310.6415983364
  0
ARC
  5
2C1
330
1F
100
AcDbEntity
  8
0
  6
Continuous
 62
     8
370
    18
100
AcDbCircle
 10
591.9610885107
 20
153.3682012266
 30
0.0
 40
1.61224482753911
100
AcDbArc
 50
311.1844313133
 51
357.4536693924
  0
LWPOLYLINE
  5
2C2
330
1F
100
AcDbEntity
  8
0
  6
Continuous
 62
     8
370
    18
100
AcDbPolyline
 90
       32
 70
   128
 43
0.0
 10
584.0717414454
 20
153.2965736628
 10
584.0847098132
 20
153.1159198345
 10
584.1323983337
 20
152.9068558236
 10
584.21480511
 20
152.7006771472
 10
584.3313200311
 20
152.4989102801
 10
584.4810804612
 20
152.3030490337
 10
584.6629776267
 20
152.1145434959
 10
584.8756648244
 20
151.934789296
 10
585.1175673928
 20
151.7651172711
 10
585.38689437
 20
151.6067836135
 10
585.6816517531
 20
151.4609605702
 10
585.9996572617
 20
151.3287277641
 10
586.3385564942
 20
151.2110642005
 10
586.6958403593
 20
151.1088410192
 10
587.0688636523
 20
151.0228150451
 10
587.4548646391
 20
150.9536231842
 10
587.8509855037
 20
150.901777709
 10
588.2542935055
 20
150.8676624652
 10
588.6618026934
 20
150.85153003
 10
589.0704960119
 20
150.8534998425
 10
589.4773476385
 20
150.8735573187
 10
589.8793453863
 20
150.9115539603
 10
590.2735130046
 20
150.9672084532
 10
590.6569322141
 20
151.0401087512
 10
591.0267643133
 20
151.129715126
 10
591.3802711946
 20
151.2353641632
 10
591.7148356168
 20
151.3562736745
 10
592.027980582
 20
151.4915484879
 10
592.3173876743
 20
151.6401870763
 10
592.580914225
 20
151.8010889714
 10
592.8166091757
 20
151.973062912
 10
593.0227275234
 20
152.1548356631
  0
LWPOLYLINE
  5
2C3
330
1F
100
AcDbEntity
  8
0
  6
Continuous
 62
     8
370
    18
100
AcDbPolyline
 90
       39
 70
   128
 43
0.0
 10
646.7733240214
 20
214.4952404629
 10
646.7755879342
 20
214.4197174633
 10
646.8057687363
 20
214.2097903351
 10
646.8708766671
 20
214.0019765799
 10
646.9704296904
 20
213.7978147778
 10
647.1036907505
 20
213.5988164715
 10
647.269673229
 20
213.4064549748
 10
647.4671482497
 20
213.2221544649
 10
647.6946537767
 20
213.0472794384
 10
647.9505054386
 20
212.8831246086
 10
648.2328089994
 20
212.7309053207
 10
648.5394743821
 20
212.5917485528
 10
648.8682311436
 20
212.4666845731
 10
649.2166452838
 20
212.3566393114
 10
649.5821372663
 20
212.2624275044
 10
649.9620011164
 20
212.1847466634
 10
650.3534244551
 20
212.1241719101
 10
650.7535093208
 20
212.0811517188
 10
651.1592936252
 20
212.056004596
 10
651.5677730834
 20
212.0489167221
 10
651.9759234562
 20
212.0599405733
 10
652.3807229412
 20
212.0889945328
 10
652.7791745445
 20
212.1358634953
 10
653.1683282699
 20
212.2002004594
 10
653.5453029595
 20
212.2815290968
 10
653.9073076244
 20
212.3792472785
 10
654.2516621087
 20
212.4926315335
 10
654.5758169325
 20
212.6208424044
 10
654.8773721667
 20
212.7629306627
 10
655.1540952019
 20
212.9178443367
 10
655.4039372776
 20
213.0844364997
 10
655.6250486505
 20
213.2614737616
 10
655.8157922892
 20
213.4476454006
 10
655.9747559947
 20
213.6415730668
 10
656.1007628553
 20
213.8418209878
 10
656.1928799603
 20
214.046906598
 10
656.2504253069
 20
214.2553115153
 10
656.2729728493
 20
214.4654927825
 10
656.2733240214
 20
214.4952404629
  0
ENDSEC
  0
SECTION
  2
OBJECTS
  0
DICTIONARY
  5
C
330
0
100
AcDbDictionary
281
     1
  3
ACAD_GROUP
350
D
  3
ACAD_LAYOUT
350
1A
  3
ACAD_MLINESTYLE
350
17
  3
ACAD_PLOTSETTINGS
350
19
  3
ACAD_PLOTSTYLENAME
350
E
  3
ACAD_SCALELIST
350
47
  0
DICTIONARY
  5
D
102
{ACAD_REACTORS
330
C
102
}
330
C
100
AcDbDictionary
281
     1
  0
DICTIONARY
  5
1A
102
{ACAD_REACTORS
330
C
102
}
330
C
100
AcDbDictionary
281
     1
  3
Layout1
350
1E
  3
Layout2
350
26
  3
Model
350
22
  0
DICTIONARY
  5
17
102
{ACAD_REACTORS
330
C
102
}
330
C
100
AcDbDictionary
281
     1
  3
Standard
350
18
  0
DICTIONARY
  5
19
102
{ACAD_REACTORS
330
C
102
}
330
C
100
AcDbDictionary
281
     1
  0
ACDBDICTIONARYWDFLT
  5
E
102
{ACAD_REACTORS
330
C
102
}
330
C
100
AcDbDictionary
281
     1
  3
Normal
350
F
100
AcDbDictionaryWithDefault
340
F
  0
DICTIONARY
  5
47
102
{ACAD_REACTORS
330
C
102
}
330
C
100
AcDbDictionary
281
     1
  3
A0
350
48
  3
A1
350
49
  3
A2
350
4A
  3
A3
350
4B
  3
A4
350
4C
  3
A5
350
4D
  3
A6
350
4E
  3
A7
350
4F
  3
A8
350
50
  3
A9
350
51
  3
B0
350
52
  3
B1
350
53
  3
B2
350
54
  3
B3
350
55
  3
B4
350
56
  3
B5
350
57
  3
B6
350
58
  3
B7
350
59
  3
B8
350
5A
  3
B9
350
5B
  3
C0
350
5C
  3
C1
350
5D
  3
C2
350
5E
  3
C3
350
5F
  3
C4
350
60
  3
C5
350
61
  3
C6
350
62
  3
C7
350
63
  3
C8
350
64
  3
C9
350
65
  3
D0
350
66
  3
D1
350
67
  3
D2
350
68
  0
LAYOUT
  5
1E
102
{ACAD_REACTORS
330
1A
102
}
330
1A
100
AcDbPlotSettings
  1

  2
none_device
  4

  6

 40
0.0
 41
0.0
 42
0.0
 43
0.0
 44
0.0
 45
0.0
 46
0.0
 47
0.0
 48
0.0
 49
0.0
140
0.0
141
0.0
142
1.0
143
1.0
 70
   688
 72
     1
 73
     0
 74
     5
  7

 75
    16
147
1.0
148
0.0
149
0.0
100
AcDbLayout
  1
Layout1
 70
     1
 71
     1
 10
0.0
 20
0.0
 11
420.0
 21
297.0
 12
0.0
 22
0.0
 32
0.0
 14
1.0000000000E+20
 24
1.0000000000E+20
 34
1.0000000000E+20
 15
-1.0000000000E+20
 25
-1.0000000000E+20
 35
-1.0000000000E+20
146
0.0
 13
0.0
 23
0.0
 33
0.0
 16
1.0
 26
0.0
 36
0.0
 17
0.0
 27
1.0
 37
0.0
 76
     0
330
1B
  0
LAYOUT
  5
26
102
{ACAD_REACTORS
330
1A
102
}
330
1A
100
AcDbPlotSettings
  1

  2
none_device
  4

  6

 40
0.0
 41
0.0
 42
0.0
 43
0.0
 44
0.0
 45
0.0
 46
0.0
 47
0.0
 48
0.0
 49
0.0
140
0.0
141
0.0
142
1.0
143
1.0
 70
   688
 72
     1
 73
     0
 74
     5
  7

 75
    16
147
1.0
148
0.0
149
0.0
100
AcDbLayout
  1
Layout2
 70
     1
 71
     2
 10
0.0
 20
0.0
 11
0.0
 21
0.0
 12
0.0
 22
0.0
 32
0.0
 14
0.0
 24
0.0
 34
0.0
 15
0.0
 25
0.0
 35
0.0
146
0.0
 13
0.0
 23
0.0
 33
0.0
 16
1.0
 26
0.0
 36
0.0
 17
0.0
 27
1.0
 37
0.0
 76
     0
330
23
  0
LAYOUT
  5
22
102
{ACAD_REACTORS
330
1A
102
}
330
1A
100
AcDbPlotSettings
  1

  2
none_device
  4
Letter_(8.50_x_11.00_Inches)
  6

 40
6.35
 41
6.35
 42
6.35000508
 43
6.35000508
 44
215.9
 45
279.4
 46
0.0
 47
0.0
 48
0.0
 49
0.0
140
0.0
141
0.0
142
1.0
143
1.0
 70
  1712
 72
     1
 73
     0
 74
     0
  7

 75
     0
147
1.0
148
0.0
149
0.0
100
AcDbLayout
  1
Model
 70
     1
 71
     0
 10
0.0
 20
0.0
 11
2970.0
 21
2100.0
 12
0.0
 22
0.0
 32
0.0
 14
0.0
 24
0.0
 34
0.0
 15
2970.0
 25
2100.0
 35
0.0
146
0.0
 13
0.0
 23
0.0
 33
0.0
 16
1.0
 26
0.0
 36
0.0
 17
0.0
 27
1.0
 37
0.0
 76
     0
330
1F
331
29
  0
MLINESTYLE
  5
18
102
{ACAD_REACTORS
330
17
102
}
330
17
100
AcDbMlineStyle
  2
Standard
 70
     0
  3

 62
   256
 51
90.0
 52
90.0
 71
     2
 49
0.5
 62
   256
  6
BYLAYER
 49
-0.5
 62
   256
  6
BYLAYER
  0
ACDBPLACEHOLDER
  5
F
102
{ACAD_REACTORS
330
E
102
}
330
E
  0
SCALE
  5
48
102
{ACAD_REACTORS
330
47
102
}
330
47
100
AcDbScale
 70
     0
300
1:1
140
1.0
141
1.0
290
     1
  0
SCALE
  5
49
102
{ACAD_REACTORS
330
47
102
}
330
47
100
AcDbScale
 70
     0
300
1:2
140
1.0
141
2.0
290
     0
  0
SCALE
  5
4A
102
{ACAD_REACTORS
330
47
102
}
330
47
100
AcDbScale
 70
     0
300
1:4
140
1.0
141
4.0
290
     0
  0
SCALE
  5
4B
102
{ACAD_REACTORS
330
47
102
}
330
47
100
AcDbScale
 70
     0
300
1:5
140
1.0
141
5.0
290
     0
  0
SCALE
  5
4C
102
{ACAD_REACTORS
330
47
102
}
330
47
100
AcDbScale
 70
     0
300
1:8
140
1.0
141
8.0
290
     0
  0
SCALE
  5
4D
102
{ACAD_REACTORS
330
47
102
}
330
47
100
AcDbScale
 70
     0
300
1:10
140
1.0
141
10.0
290
     0
  0
SCALE
  5
4E
102
{ACAD_REACTORS
330
47
102
}
330
47
100
AcDbScale
 70
     0
300
1:16
140
1.0
141
16.0
290
     0
  0
SCALE
  5
4F
102
{ACAD_REACTORS
330
47
102
}
330
47
100
AcDbScale
 70
     0
300
1:20
140
1.0
141
20.0
290
     0
  0
SCALE
  5
50
102
{ACAD_REACTORS
330
47
102
}
330
47
100
AcDbScale
 70
     0
300
1:30
140
1.0
141
30.0
290
     0
  0
SCALE
  5
51
102
{ACAD_REACTORS
330
47
102
}
330
47
100
AcDbScale
 70
     0
300
1:40
140
1.0
141
40.0
290
     0
  0
SCALE
  5
52
102
{ACAD_REACTORS
330
47
102
}
330
47
100
AcDbScale
 70
     0
300
1:50
140
1.0
141
50.0
290
     0
  0
SCALE
  5
53
102
{ACAD_REACTORS
330
47
102
}
330
47
100
AcDbScale
 70
     0
300
1:100
140
1.0
141
100.0
290
     0
  0
SCALE
  5
54
102
{ACAD_REACTORS
330
47
102
}
330
47
100
AcDbScale
 70
     0
300
2:1
140
2.0
141
1.0
290
     0
  0
SCALE
  5
55
102
{ACAD_REACTORS
330
47
102
}
330
47
100
AcDbScale
 70
     0
300
4:1
140
4.0
141
1.0
290
     0
  0
SCALE
  5
56
102
{ACAD_REACTORS
330
47
102
}
330
47
100
AcDbScale
 70
     0
300
8:1
140
8.0
141
1.0
290
     0
  0
SCALE
  5
57
102
{ACAD_REACTORS
330
47
102
}
330
47
100
AcDbScale
 70
     0
300
10:1
140
10.0
141
1.0
290
     0
  0
SCALE
  5
58
102
{ACAD_REACTORS
330
47
102
}
330
47
100
AcDbScale
 70
     0
300
100:1
140
100.0
141
1.0
290
     0
  0
SCALE
  5
59
102
{ACAD_REACTORS
330
47
102
}
330
47
100
AcDbScale
 70
     0
300
1/128" = 1'-0"
140
0.0078125
141
12.0
290
     0
  0
SCALE
  5
5A
102
{ACAD_REACTORS
330
47
102
}
330
47
100
AcDbScale
 70
     0
300
1/64" = 1'-0"
140
0.015625
141
12.0
290
     0
  0
SCALE
  5
5B
102
{ACAD_REACTORS
330
47
102
}
330
47
100
AcDbScale
 70
     0
300
1/32" = 1'-0"
140
0.03125
141
12.0
290
     0
  0
SCALE
  5
5C
102
{ACAD_REACTORS
330
47
102
}
330
47
100
AcDbScale
 70
     0
300
1/16" = 1'-0"
140
0.0625
141
12.0
290
     0
  0
SCALE
  5
5D
102
{ACAD_REACTORS
330
47
102
}
330
47
100
AcDbScale
 70
     0
300
3/32" = 1'-0"
140
0.09375
141
12.0
290
     0
  0
SCALE
  5
5E
102
{ACAD_REACTORS
330
47
102
}
330
47
100
AcDbScale
 70
     0
300
1/8" = 1'-0"
140
0.125
141
12.0
290
     0
  0
SCALE
  5
5F
102
{ACAD_REACTORS
330
47
102
}
330
47
100
AcDbScale
 70
     0
300
3/16" = 1'-0"
140
0.1875
141
12.0
290
     0
  0
SCALE
  5
60
102
{ACAD_REACTORS
330
47
102
}
330
47
100
AcDbScale
 70
     0
300
1/4" = 1'-0"
140
0.25
141
12.0
290
     0
  0
SCALE
  5
61
102
{ACAD_REACTORS
330
47
102
}
330
47
100
AcDbScale
 70
     0
300
3/8" = 1'-0"
140
0.375
141
12.0
290
     0
  0
SCALE
  5
62
102
{ACAD_REACTORS
330
47
102
}
330
47
100
AcDbScale
 70
     0
300
1/2" = 1'-0"
140
0.5
141
12.0
290
     0
  0
SCALE
  5
63
102
{ACAD_REACTORS
330
47
102
}
330
47
100
AcDbScale
 70
     0
300
3/4" = 1'-0"
140
0.75
141
12.0
290
     0
  0
SCALE
  5
64
102
{ACAD_REACTORS
330
47
102
}
330
47
100
AcDbScale
 70
     0
300
1" = 1'-0"
140
1.0
141
12.0
290
     0
  0
SCALE
  5
65
102
{ACAD_REACTORS
330
47
102
}
330
47
100
AcDbScale
 70
     0
300
1-1/2" = 1'-0"
140
1.5
141
12.0
290
     0
  0
SCALE
  5
66
102
{ACAD_REACTORS
330
47
102
}
330
47
100
AcDbScale
 70
     0
300
3" = 1'-0"
140
3.0
141
12.0
290
     0
  0
SCALE
  5
67
102
{ACAD_REACTORS
330
47
102
}
330
47
100
AcDbScale
 70
     0
300
6" = 1'-0"
140
6.0
141
12.0
290
     0
  0
SCALE
  5
68
102
{ACAD_REACTORS
330
47
102
}
330
47
100
AcDbScale
 70
     0
300
1'-0" = 1'-0"
140
12.0
141
12.0
290
     0
  0
ENDSEC
  0
EOF
