  0
SECTION
  2
HEADER
  9
$ACADVER
  1
AC1015
  9
$ACADMAINTVER
 70
     6
  9
$DWGCODEPAGE
  3
ANSI_1252
  9
$INSBASE
 10
0.0
 20
0.0
 30
0.0
  9
$EXTMIN
 10
0.0
 20
0.0
 30
0.0
  9
$EXTMAX
 10
2970.0
 20
2100.0
 30
0.0
  9
$LIMMIN
 10
0.0
 20
0.0
  9
$LIMMAX
 10
2970.0
 20
2100.0
  9
$ORTHOMODE
 70
     0
  9
$REGENMODE
 70
     1
  9
$FILLMODE
 70
     1
  9
$QTEXTMODE
 70
     0
  9
$MIRRTEXT
 70
     1
  9
$LTSCALE
 40
10.0
  9
$ATTMODE
 70
     1
  9
$TEXTSIZE
 40
35.0
  9
$TRACEWID
 40
1.0
  9
$TEXTSTYLE
  7
Standard
  9
$CLAYER
  8
0
  9
$CELTYPE
  6
ByLayer
  9
$CECOLOR
 62
   256
  9
$CELTSCALE
 40
1.0
  9
$DISPSILH
 70
     0
  9
$DIMSCALE
 40
1.0
  9
$DIMASZ
 40
25.0
  9
$DIMEXO
 40
0.0
  9
$DIMDLI
 40
3.75
  9
$DIMRND
 40
0.0
  9
$DIMDLE
 40
0.0
  9
$DIMEXE
 40
10.0
  9
$DIMTP
 40
0.0
  9
$DIMTM
 40
0.0
  9
$DIMTXT
 40
30.0
  9
$DIMCEN
 40
2.5
  9
$DIMTSZ
 40
0.0
  9
$DIMTOL
 70
     0
  9
$DIMLIM
 70
     0
  9
$DIMTIH
 70
     1
  9
$DIMTOH
 70
     1
  9
$DIMSE1
 70
     0
  9
$DIMSE2
 70
     0
  9
$DIMTAD
 70
     1
  9
$DIMZIN
 70
     0
  9
$DIMBLK
  1

  9
$DIMASO
 70
     1
  9
$DIMSHO
 70
     1
  9
$DIMPOST
  1

  9
$DIMAPOST
  1

  9
$DIMALT
 70
     0
  9
$DIMALTD
 70
     3
  9
$DIMALTF
 40
0.0393700787
  9
$DIMLFAC
 40
1.0
  9
$DIMTOFL
 70
     1
  9
$DIMTVP
 40
0.0
  9
$DIMTIX
 70
     0
  9
$DIMSOXD
 70
     0
  9
$DIMSAH
 70
     0
  9
$DIMBLK1
  1

  9
$DIMBLK2
  1

  9
$DIMSTYLE
  2
ISO-25
  9
$DIMCLRD
 70
     0
  9
$DIMCLRE
 70
     0
  9
$DIMCLRT
 70
     0
  9
$DIMTFAC
 40
1.0
  9
$DIMGAP
 40
15.0
  9
$DIMJUST
 70
     0
  9
$DIMSD1
 70
     0
  9
$DIMSD2
 70
     0
  9
$DIMTOLJ
 70
     0
  9
$DIMTZIN
 70
     0
  9
$DIMALTZ
 70
     0
  9
$DIMALTTZ
 70
     0
  9
$DIMUPT
 70
     0
  9
$DIMDEC
 70
     1
  9
$DIMTDEC
 70
     1
  9
$DIMALTU
 70
     2
  9
$DIMALTTD
 70
     3
  9
$DIMTXSTY
  7
Standard
  9
$DIMAUNIT
 70
     0
  9
$DIMADEC
 70
     2
  9
$DIMALTRND
 40
0.0
  9
$DIMAZIN
 70
     0
  9
$DIMDSEP
 70
    44
  9
$DIMATFIT
 70
     3
  9
$DIMFRAC
 70
     0
  9
$DIMLDRBLK
  1

  9
$DIMLUNIT
 70
     2
  9
$DIMLWD
 70
    -2
  9
$DIMLWE
 70
    -2
  9
$DIMTMOVE
 70
     0
  9
$LUNITS
 70
     2
  9
$LUPREC
 70
     2
  9
$SKETCHINC
 40
1.0
  9
$FILLETRAD
 40
10.0
  9
$AUNITS
 70
     0
  9
$AUPREC
 70
     2
  9
$MENU
  1
.
  9
$ELEVATION
 40
0.0
  9
$PELEVATION
 40
0.0
  9
$THICKNESS
 40
0.0
  9
$LIMCHECK
 70
     0
  9
$CHAMFERA
 40
0.0
  9
$CHAMFERB
 40
0.0
  9
$CHAMFERC
 40
0.0
  9
$CHAMFERD
 40
0.0
  9
$SKPOLY
 70
     0
  9
$TDCREATE
 40
2459174.712805058
  9
$TDUCREATE
 40
2459174.671138391
  9
$TDUPDATE
 40
2459174.712805938
  9
$TDUUPDATE
 40
2459174.671139271
  9
$TDINDWG
 40
0.0000000116
  9
$TDUSRTIMER
 40
0.0000000116
  9
$USRTIMER
 70
     1
  9
$ANGBASE
 50
0.0
  9
$ANGDIR
 70
     0
  9
$PDMODE
 70
     0
  9
$PDSIZE
 40
-1.0
  9
$PLINEWID
 40
0.0
  9
$SPLFRAME
 70
     0
  9
$SPLINETYPE
 70
     6
  9
$SPLINESEGS
 70
     8
  9
$HANDSEED
  5
2C5
  9
$SURFTAB1
 70
     6
  9
$SURFTAB2
 70
     6
  9
$SURFTYPE
 70
     6
  9
$SURFU
 70
     6
  9
$SURFV
 70
     6
  9
$UCSBASE
  2

  9
$UCSNAME
  2

  9
$UCSORG
 10
0.0
 20
0.0
 30
0.0
  9
$UCSXDIR
 10
1.0
 20
0.0
 30
0.0
  9
$UCSYDIR
 10
0.0
 20
1.0
 30
0.0
  9
$UCSORTHOREF
  2

  9
$UCSORTHOVIEW
 70
     0
  9
$UCSORGTOP
 10
0.0
 20
0.0
 30
0.0
  9
$UCSORGBOTTOM
 10
0.0
 20
0.0
 30
0.0
  9
$UCSORGLEFT
 10
0.0
 20
0.0
 30
0.0
  9
$UCSORGRIGHT
 10
0.0
 20
0.0
 30
0.0
  9
$UCSORGFRONT
 10
0.0
 20
0.0
 30
0.0
  9
$UCSORGBACK
 10
0.0
 20
0.0
 30
0.0
  9
$PUCSBASE
  2

  9
$PUCSNAME
  2

  9
$PUCSORG
 10
0.0
 20
0.0
 30
0.0
  9
$PUCSXDIR
 10
1.0
 20
0.0
 30
0.0
  9
$PUCSYDIR
 10
0.0
 20
1.0
 30
0.0
  9
$PUCSORTHOREF
  2

  9
$PUCSORTHOVIEW
 70
     0
  9
$PUCSORGTOP
 10
0.0
 20
0.0
 30
0.0
  9
$PUCSORGBOTTOM
 10
0.0
 20
0.0
 30
0.0
  9
$PUCSORGLEFT
 10
0.0
 20
0.0
 30
0.0
  9
$PUCSORGRIGHT
 10
0.0
 20
0.0
 30
0.0
  9
$PUCSORGFRONT
 10
0.0
 20
0.0
 30
0.0
  9
$PUCSORGBACK
 10
0.0
 20
0.0
 30
0.0
  9
$USERI1
 70
     0
  9
$USERI2
 70
     0
  9
$USERI3
 70
     0
  9
$USERI4
 70
     0
  9
$USERI5
 70
     0
  9
$USERR1
 40
0.0
  9
$USERR2
 40
0.0
  9
$USERR3
 40
0.0
  9
$USERR4
 40
0.0
  9
$USERR5
 40
0.0
  9
$WORLDVIEW
 70
     1
  9
$SHADEDGE
 70
     3
  9
$SHADEDIF
 70
    70
  9
$TILEMODE
 70
     1
  9
$MAXACTVP
 70
    64
  9
$PINSBASE
 10
0.0
 20
0.0
 30
0.0
  9
$PLIMCHECK
 70
     0
  9
$PEXTMIN
 10
1.0000000000E+20
 20
1.0000000000E+20
 30
1.0000000000E+20
  9
$PEXTMAX
 10
-1.0000000000E+20
 20
-1.0000000000E+20
 30
-1.0000000000E+20
  9
$PLIMMIN
 10
0.0
 20
0.0
  9
$PLIMMAX
 10
420.0
 20
297.0
  9
$UNITMODE
 70
     0
  9
$VISRETAIN
 70
     1
  9
$PLINEGEN
 70
     0
  9
$PSLTSCALE
 70
     1
  9
$TREEDEPTH
 70
  3020
  9
$CMLSTYLE
  2
Standard
  9
$CMLJUST
 70
     0
  9
$CMLSCALE
 40
20.0
  9
$PROXYGRAPHICS
 70
     1
  9
$MEASUREMENT
 70
     1
  9
$CELWEIGHT
370
    -1
  9
$ENDCAPS
280
     0
  9
$JOINSTYLE
280
     0
  9
$LWDISPLAY
290
     1
  9
$INSUNITS
 70
     4
  9
$HYPERLINKBASE
  1

  9
$STYLESHEET
  1

  9
$XEDIT
290
     1
  9
$CEPSNTYPE
380
     0
  9
$PSTYLEMODE
290
     1
  9
$FINGERPRINTGUID
  2
{c9c766df-ab37-473d-b3b3-d2eb7b474f30}
  9
$VERSIONGUID
  2
{FAEB1C32-E019-11D5-929B-00C0DF256EC4}
  9
$EXTNAMES
290
     1
  9
$PSVPSCALE
 40
0.0
  9
$OLESTARTUP
290
     0
  0
ENDSEC
  0
SECTION
  2
CLASSES
  0
CLASS
  1
ACDBDICTIONARYWDFLT
  2
AcDbDictionaryWithDefault
  3
ObjectDBX Classes
 90
        0
280
     0
281
     0
  0
CLASS
  1
VISUALSTYLE
  2
AcDbVisualStyle
  3
ObjectDBX Classes
 90
     4095
280
     0
281
     0
  0
CLASS
  1
MATERIAL
  2
AcDbMaterial
  3
ObjectDBX Classes
 90
     1153
280
     0
281
     0
  0
CLASS
  1
SCALE
  2
AcDbScale
  3
ObjectDBX Classes
 90
     1153
280
     0
281
     0
  0
CLASS
  1
TABLESTYLE
  2
AcDbTableStyle
  3
ObjectDBX Classes
 90
     4095
280
     0
281
     0
  0
CLASS
  1
MLEADERSTYLE
  2
AcDbMLeaderStyle
  3
ACDB_MLEADERSTYLE_CLASS
 90
     4095
280
     0
281
     0
  0
CLASS
  1
SUN
  2
AcDbSun
  3
SCENEOE
 90
     1153
280
     0
281
     0
  0
CLASS
  1
ACDBPLACEHOLDER
  2
AcDbPlaceHolder
  3
ObjectDBX Classes
 90
        0
280
     0
281
     0
  0
CLASS
  1
LAYOUT
  2
AcDbLayout
  3
ObjectDBX Classes
 90
        0
280
     0
281
     0
  0
ENDSEC
  0
SECTION
  2
TABLES
  0
TABLE
  2
VPORT
  5
8
330
0
100
AcDbSymbolTable
 70
     1
  0
VPORT
  5
29
330
8
100
AcDbSymbolTableRecord
100
AcDbViewportTableRecord
  2
*Active
 70
     0
 10
0.0
 20
0.0
 11
1.0
 21
1.0
 12
1485.0
 22
1050.0
 13
0.0
 23
0.0
 14
10.0
 24
10.0
 15
10.0
 25
10.0
 16
0.0
 26
0.0
 36
1.0
 17
0.0
 27
0.0
 37
0.0
 40
2100.0
 41
1.4142857143
 42
50.0
 43
0.0
 44
0.0
 50
0.0
 51
0.0
 71
     0
 72
  2000
 73
     1
 74
     3
 75
     0
 76
     0
 77
     0
 78
     0
281
     0
 65
     1
110
0.0
120
0.0
130
0.0
111
1.0
121
0.0
131
0.0
112
0.0
122
1.0
132
0.0
 79
     0
146
0.0
  0
ENDTAB
  0
TABLE
  2
LTYPE
  5
5
330
0
100
AcDbSymbolTable
 70
     6
  0
LTYPE
  5
14
330
5
100
AcDbSymbolTableRecord
100
AcDbLinetypeTableRecord
  2
ByBlock
 70
     0
  3

 72
    65
 73
     0
 40
0.0
  0
LTYPE
  5
15
330
5
100
AcDbSymbolTableRecord
100
AcDbLinetypeTableRecord
  2
ByLayer
 70
     0
  3

 72
    65
 73
     0
 40
0.0
  0
LTYPE
  5
16
330
5
100
AcDbSymbolTableRecord
100
AcDbLinetypeTableRecord
  2
Continuous
 70
     0
  3
Solid line
 72
    65
 73
     0
 40
0.0
  0
LTYPE
  5
6E
330
5
100
AcDbSymbolTableRecord
100
AcDbLinetypeTableRecord
  2
HIDDEN
 70
     0
  3
Hidden __ __ __ __ __ __ __ __ __ __ __ __ __ __
 72
    65
 73
     2
 40
1.905
 49
1.27
 74
     0
 49
-0.635
 74
     0
  0
LTYPE
  5
6F
330
5
100
AcDbSymbolTableRecord
100
AcDbLinetypeTableRecord
  2
PHANTOM
 70
     0
  3
Phantom ______  __  __  ______  __  __  ______
 72
    65
 73
     6
 40
12.7
 49
6.35
 74
     0
 49
-1.27
 74
     0
 49
1.27
 74
     0
 49
-1.27
 74
     0
 49
1.27
 74
     0
 49
-1.27
 74
     0
  0
LTYPE
  5
70
330
5
100
AcDbSymbolTableRecord
100
AcDbLinetypeTableRecord
  2
CENTER
 70
     0
  3
Center ____ _ ____ _ ____ _ ____ _ ____ _ ____
 72
    65
 73
     4
 40
10.16
 49
6.35
 74
     0
 49
-1.27
 74
     0
 49
1.27
 74
     0
 49
-1.27
 74
     0
  0
LTYPE
  5
71
330
5
100
AcDbSymbolTableRecord
100
AcDbLinetypeTableRecord
  2
CENTERX2
 70
     0
  3
Center (2x) ________  __  ________  __  _____
 72
    65
 73
     4
 40
20.32
 49
12.7
 74
     0
 49
-2.54
 74
     0
 49
2.54
 74
     0
 49
-2.54
 74
     0
  0
LTYPE
  5
72
330
5
100
AcDbSymbolTableRecord
100
AcDbLinetypeTableRecord
  2
DOT2
 70
     0
  3
Dot (.5x) ........................................
 72
    65
 73
     2
 40
0.635
 49
0.0
 74
     0
 49
-0.635
 74
     0
  0
ENDTAB
  0
TABLE
  2
LAYER
  5
2
330
0
100
AcDbSymbolTable
 70
     2
  0
LAYER
  5
10
330
2
100
AcDbSymbolTableRecord
100
AcDbLayerTableRecord
  2
0
 70
     0
 62
     7
  6
Continuous
370
    -3
390
F
  0
LAYER
  5
73
330
2
100
AcDbSymbolTableRecord
100
AcDbLayerTableRecord
  2
FORMAT
 70
     0
 62
     7
  6
Continuous
370
    -3
390
F
  0
ENDTAB
  0
TABLE
  2
STYLE
  5
3
330
0
100
AcDbSymbolTable
 70
     2
  0
STYLE
  5
11
330
3
100
AcDbSymbolTableRecord
100
AcDbTextStyleTableRecord
  2
Standard
 70
     0
 40
0.0
 41
1.0
 50
0.0
 71
     0
 42
35.0
  3
txt
  4

  0
STYLE
  5
E7
330
3
100
AcDbSymbolTableRecord
100
AcDbTextStyleTableRecord
  2
SLDTEXTSTYLE0
 70
     0
 40
0.0
 41
0.605
 50
0.0
 71
     0
 42
35.0
  3
TXT
  4

  0
ENDTAB
  0
TABLE
  2
VIEW
  5
6
330
0
100
AcDbSymbolTable
 70
     0
  0
ENDTAB
  0
TABLE
  2
UCS
  5
7
330
0
100
AcDbSymbolTable
 70
     0
  0
ENDTAB
  0
TABLE
  2
APPID
  5
9
330
0
100
AcDbSymbolTable
 70
     1
  0
APPID
  5
12
330
9
100
AcDbSymbolTableRecord
100
AcDbRegAppTableRecord
  2
ACAD
 70
     0
  0
ENDTAB
  0
TABLE
  2
DIMSTYLE
  5
A
330
0
100
AcDbSymbolTable
 70
     1
100
AcDbDimStyleTable
  0
DIMSTYLE
105
27
330
A
100
AcDbSymbolTableRecord
100
AcDbDimStyleTableRecord
  2
ISO-25
 70
     0
 41
2.5
 42
0.625
 43
3.75
 44
1.25
 73
     0
 74
     0
 77
     1
 78
     8
140
2.5
141
2.5
143
0.0393700787
147
0.625
171
     3
172
     1
178
     0
271
     2
272
     2
274
     3
278
    44
283
     0
284
     8
340
11
  0
ENDTAB
  0
TABLE
  2
BLOCK_RECORD
  5
1
330
0
100
AcDbSymbolTable
 70
     2
  0
BLOCK_RECORD
  5
1F
330
1
100
AcDbSymbolTableRecord
100
AcDbBlockTableRecord
  2
*Model_Space
340
22
  0
BLOCK_RECORD
  5
1B
330
1
100
AcDbSymbolTableRecord
100
AcDbBlockTableRecord
  2
*Paper_Space
340
1E
  0
BLOCK_RECORD
  5
23
330
1
100
AcDbSymbolTableRecord
100
AcDbBlockTableRecord
  2
*Paper_Space0
340
26
  0
BLOCK_RECORD
  5
EE
330
1
100
AcDbSymbolTableRecord
100
AcDbBlockTableRecord
  2
SW_NOTE_0
340
0
102
{BLKREFS
331
F3
102
}
  0
ENDTAB
  0
ENDSEC
  0
SECTION
  2
BLOCKS
  0
BLOCK
  5
20
330
1F
100
AcDbEntity
  8
0
100
AcDbBlockBegin
  2
*Model_Space
 70
     0
 10
0.0
 20
0.0
 30
0.0
  3
*Model_Space
  1

  0
ENDBLK
  5
21
330
1F
100
AcDbEntity
  8
0
100
AcDbBlockEnd
  0
BLOCK
  5
1C
330
1B
100
AcDbEntity
 67
     1
  8
0
100
AcDbBlockBegin
  2
*Paper_Space
 70
     0
 10
0.0
 20
0.0
 30
0.0
  3
*Paper_Space
  1

  0
ENDBLK
  5
1D
330
1B
100
AcDbEntity
 67
     1
  8
0
100
AcDbBlockEnd
  0
BLOCK
  5
24
330
23
100
AcDbEntity
  8
0
100
AcDbBlockBegin
  2
*Paper_Space0
 70
     0
 10
0.0
 20
0.0
 30
0.0
  3
*Paper_Space0
  1

  0
ENDBLK
  5
25
330
23
100
AcDbEntity
  8
0
100
AcDbBlockEnd
  0
BLOCK
  5
EF
330
EE
100
AcDbEntity
  8
0
100
AcDbBlockBegin
  2
SW_NOTE_0
 70
     0
 10
0.0
 20
0.0
 30
0.0
  3
SW_NOTE_0
  1

  0
MTEXT
  5
F1
330
EE
100
AcDbEntity
  8
0
  6
Continuous
 62
     0
370
     0
100
AcDbMText
 10
32.90625
 20
23.2032193159
 30
0.0
 40
18.0
 41
0.0
 71
     2
 72
     1
  1
SCALA
  7
SLDTEXTSTYLE0
 73
     1
 44
1.0
  0
MTEXT
  5
F2
330
EE
100
AcDbEntity
  8
0
  6
Continuous
 62
     0
370
     0
100
AcDbMText
 10
35.6098540438
 20
-1.6396707646
 30
0.0
 40
37.0416666667
 41
0.0
 71
     2
 72
     1
  1
1:1
  7
SLDTEXTSTYLE0
 73
     1
 44
1.0
  0
ENDBLK
  5
F0
330
EE
100
AcDbEntity
  8
0
100
AcDbBlockEnd
  0
ENDSEC
  0
SECTION
  2
ENTITIES
  0
HATCH
  5
74
330
1F
100
AcDbEntity
  8
0
  6
Continuous
 62
     7
100
AcDbHatch
 10
0.0
 20
0.0
 30
0.0
210
0.0
220
0.0
230
1.0
  2
SOLID
 70
     1
 71
     0
 91
        2
 92
        0
 93
        6
 72
     1
 10
2340.243226420216
 20
319.3144821747094
 11
2356.647910872445
 21
319.3144821747094
 72
     3
 10
2351.078765157099
 20
331.9559440369547
 11
27.08884684798352
 21
0.0
 40
0.4768529109443384
 50
293.7756995582609
 51
426.2243004403791
 73
     1
 72
     1
 10
2356.647910872789
 20
344.5974058991662
 11
2323.989918311282
 21
344.5974058991662
 72
     1
 10
2323.989918311282
 20
344.5974058991662
 11
2323.989918311282
 21
304.8670971915081
 72
     1
 10
2323.989918311282
 20
304.8670971915081
 11
2340.243226420216
 21
304.8670971915081
 72
     1
 10
2340.243226420216
 20
304.8670971915081
 11
2340.243226420216
 21
319.3144821747094
 97
        0
 92
        0
 93
        6
 72
     3
 10
2350.175803596967
 20
331.9559440369547
 11
9.932577177641511
 21
0.0
 40
0.5895245510672578
 50
316.3365658560252
 51
403.663434144226
 73
     0
 72
     2
 10
2352.923880980421
 20
333.7618671600596
 40
7.223692492544108
 50
69.99121011132742
 51
90.0
 73
     0
 72
     1
 10
2352.923880980421
 20
326.5381746675155
 11
2340.243226419814
 21
326.5381746675155
 72
     1
 10
2340.243226419814
 20
326.5381746675155
 11
2340.243226419814
 21
337.37371340629
 72
     1
 10
2340.243226419814
 20
337.37371340629
 11
2352.923880981012
 21
337.37371340629
 72
     2
 10
2352.923880981012
 20
330.150020915474
 40
7.223692490816113
 50
270.0000000000008
 51
290.0087898889545
 73
     0
 97
        0
 75
     0
 76
     1
 98
        1
 10
0.0
 20
0.0
  0
HATCH
  5
75
330
1F
100
AcDbEntity
  8
0
  6
Continuous
 62
     7
100
AcDbHatch
 10
0.0
 20
0.0
 30
0.0
210
0.0
220
0.0
230
1.0
  2
SOLID
 70
     1
 71
     0
 91
        1
 92
        0
 93
       12
 72
     1
 10
2435.957151948124
 20
344.59740589754
 11
2381.779458253796
 21
344.59740589754
 72
     1
 10
2381.779458253796
 20
344.59740589754
 11
2381.779458253796
 21
304.867097189882
 72
     1
 10
2381.779458253796
 20
304.867097189882
 11
2435.957151948124
 21
304.867097189882
 72
     1
 10
2435.957151948124
 20
304.867097189882
 11
2435.957151948124
 21
312.09078967967
 72
     1
 10
2435.957151948124
 20
312.09078967967
 11
2399.838689485178
 21
312.09078967967
 72
     1
 10
2399.838689485178
 20
312.09078967967
 11
2399.838689485178
 21
321.1204052953607
 72
     1
 10
2399.838689485178
 20
321.1204052953607
 11
2432.345305703229
 21
321.1204052953607
 72
     1
 10
2432.345305703229
 20
321.1204052953607
 11
2432.345305703229
 21
328.344097788605
 72
     1
 10
2432.345305703229
 20
328.344097788605
 11
2399.838689485178
 21
328.344097788605
 72
     1
 10
2399.838689485178
 20
328.344097788605
 11
2399.838689485178
 21
337.3737134042958
 72
     1
 10
2399.838689485178
 20
337.3737134042958
 11
2435.957151948124
 21
337.3737134042958
 72
     1
 10
2435.957151948124
 20
337.3737134042958
 11
2435.957151948124
 21
344.59740589754
 97
        0
 75
     0
 76
     1
 98
        1
 10
0.0
 20
0.0
  0
HATCH
  5
76
330
1F
100
AcDbEntity
  8
0
  6
Continuous
 62
     7
100
AcDbHatch
 10
0.0
 20
0.0
 30
0.0
210
0.0
220
0.0
230
1.0
  2
SOLID
 70
     1
 71
     0
 91
        1
 92
        0
 93
        6
 72
     1
 10
2645.444234240045
 20
344.597405899586
 11
2627.385003008663
 21
344.597405899586
 72
     1
 10
2627.385003008663
 20
344.597405899586
 11
2627.385003008663
 21
304.8670971919279
 72
     1
 10
2627.385003008663
 20
304.8670971919279
 11
2676.14492733565
 21
304.8670971919279
 72
     1
 10
2676.14492733565
 20
304.8670971919279
 11
2676.14492733565
 21
313.8967128076189
 72
     1
 10
2676.14492733565
 20
313.8967128076189
 11
2645.444234240045
 21
313.8967128076189
 72
     1
 10
2645.444234240045
 20
313.8967128076189
 11
2645.444234240045
 21
344.597405899586
 97
        0
 75
     0
 76
     1
 98
        1
 10
0.0
 20
0.0
  0
HATCH
  5
77
330
1F
100
AcDbEntity
  8
0
  6
Continuous
 62
     7
100
AcDbHatch
 10
0.0
 20
0.0
 30
0.0
210
0.0
220
0.0
230
1.0
  2
SOLID
 70
     1
 71
     0
 91
        1
 92
        0
 93
        4
 72
     1
 10
2677.950850457337
 20
344.5974058991659
 11
2677.950850457337
 21
304.8670971915079
 72
     1
 10
2677.950850457337
 20
304.8670971915079
 11
2696.010081688719
 21
304.8670971915079
 72
     1
 10
2696.010081688719
 20
304.8670971915079
 11
2696.010081688719
 21
344.5974058991659
 72
     1
 10
2696.010081688719
 20
344.5974058991659
 11
2677.950850457337
 21
344.5974058991659
 97
        0
 75
     0
 76
     1
 98
        1
 10
0.0
 20
0.0
  0
HATCH
  5
78
330
1F
100
AcDbEntity
  8
0
  6
Continuous
 62
     7
100
AcDbHatch
 10
0.0
 20
0.0
 30
0.0
210
0.0
220
0.0
230
1.0
  2
SOLID
 70
     1
 71
     0
 91
        2
 92
        0
 93
        4
 72
     3
 10
2468.463768165085
 20
324.7322515426197
 11
28.89476997115586
 21
0.0
 40
0.6929224243374513
 50
280.2934314618138
 51
439.7065685387129
 73
     1
 72
     1
 10
2472.071526001564
 20
344.5974058975816
 11
2439.568998196665
 21
344.5974058975813
 72
     1
 10
2439.568998196665
 20
344.5974058975813
 11
2439.568998196665
 21
304.8670971876741
 72
     1
 10
2439.568998196665
 20
304.8670971876741
 11
2472.071526001749
 21
304.8670971876741
 97
        0
 92
        0
 93
        6
 72
     2
 10
2472.947172767998
 20
324.7322515421808
 40
10.83553873998016
 50
56.16906508602374
 51
90.0
 73
     0
 72
     1
 10
2472.947172767998
 20
313.8967128022008
 11
2455.82230630316
 21
313.8967128022008
 72
     1
 10
2455.82230630316
 20
313.8967128022008
 11
2455.82230630316
 21
335.5677902826995
 72
     1
 10
2455.82230630316
 20
335.5677902826995
 11
2472.947172767998
 21
335.5677902826995
 72
     2
 10
2472.947172767998
 20
324.7322515421808
 40
10.83553874051871
 50
270.0000000000008
 51
303.8314447476077
 73
     0
 72
     3
 10
2462.14303723761
 20
324.7322515426197
 11
22.57403904004612
 21
0.0
 40
0.5985848325441405
 50
331.8713554011807
 51
388.1288999924611
 73
     0
 97
        0
 75
     0
 76
     1
 98
        1
 10
0.0
 20
0.0
  0
HATCH
  5
79
330
1F
100
AcDbEntity
  8
0
  6
Continuous
 62
     7
100
AcDbHatch
 10
0.0
 20
0.0
 30
0.0
210
0.0
220
0.0
230
1.0
  2
SOLID
 70
     1
 71
     0
 91
        3
 92
        0
 93
       19
 72
     1
 10
2558.870202192612
 20
314.7709579586855
 11
2560.355534650718
 21
308.9676544182703
 72
     2
 10
2565.453566637579
 20
310.114383967383
 40
5.225410873593411
 50
192.6768785101394
 51
204.7368873206736
 73
     1
 72
     1
 10
2560.707644877863
 20
307.927800914186
 11
2584.042848052473
 21
344.597405899586
 72
     1
 10
2584.042848052473
 20
344.597405899586
 11
2602.102079283856
 21
344.597405899586
 72
     1
 10
2602.102079283856
 20
344.597405899586
 11
2627.385003008663
 21
304.8670971919279
 72
     1
 10
2627.385003008663
 20
304.8670971919279
 11
2609.325771777099
 21
304.8670971919279
 72
     1
 10
2609.325771777099
 20
304.8670971919279
 11
2605.262444749956
 21
312.090789681716
 72
     1
 10
2605.262444749956
 20
312.090789681716
 11
2580.882482586372
 21
312.090789681716
 72
     1
 10
2580.882482586372
 20
312.090789681716
 11
2576.819155559229
 21
304.8670971919279
 72
     1
 10
2576.819155559229
 20
304.8670971919279
 11
2546.118462463106
 21
304.8670971919279
 72
     1
 10
2546.118462463106
 20
304.8670971919279
 11
2546.118462463106
 21
312.0907896826544
 72
     2
 10
2538.894769969861
 20
312.0907896826544
 40
7.223692493244227
 50
0.0
 51
90.0
 73
     1
 72
     1
 10
2538.894769969861
 20
319.3144821758984
 11
2520.835538738298
 21
319.3144821758984
 72
     1
 10
2520.835538738298
 20
319.3144821758984
 11
2520.835538738298
 21
304.8670971928664
 72
     1
 10
2520.835538738298
 20
304.8670971928664
 11
2504.582230629363
 21
304.8670971928664
 72
     1
 10
2504.582230629363
 20
304.8670971928664
 11
2504.582230629363
 21
344.5974059005244
 72
     1
 10
2504.582230629363
 20
344.5974059005244
 11
2542.019258305786
 21
344.5974059005244
 72
     3
 10
2538.029947706919
 20
332.9364020822968
 11
24.32666622535162
 21
0.0
 40
0.4859291160023137
 50
288.8861745463018
 51
398.6942257036357
 73
     0
 72
     2
 10
2549.037584929584
 20
312.9627960708336
 40
9.997490267756193
 50
279.2678272406082
 51
349.5800515720779
 73
     0
 97
        0
 92
        0
 93
        3
 72
     1
 10
2593.072463667404
 20
333.7618671594018
 11
2584.945809612937
 21
319.3144821729139
 72
     1
 10
2584.945809612937
 20
319.3144821729139
 11
2601.199117721872
 21
319.3144821729139
 72
     1
 10
2601.199117721872
 20
319.3144821729139
 11
2593.072463667404
 21
333.7618671594018
 97
        0
 92
        0
 93
        6
 72
     2
 10
2538.478172418671
 20
331.9559440374287
 40
5.417769370214362
 50
270.0000000000008
 51
305.5869104965606
 73
     1
 72
     3
 10
2532.574039041056
 20
331.9559440369547
 11
11.73850030081747
 21
0.0
 40
0.5900077182209745
 50
334.058541690378
 51
385.9414583083995
 73
     1
 72
     2
 10
2538.478172418671
 20
331.9559440374287
 40
5.417769369443226
 50
54.41308949502037
 51
90.0
 73
     1
 72
     1
 10
2538.478172418671
 20
337.3737134068722
 11
2520.835538737718
 21
337.3737134068722
 72
     1
 10
2520.835538737718
 20
337.3737134068722
 11
2520.835538737718
 21
326.538174667214
 72
     1
 10
2520.835538737718
 20
326.538174667214
 11
2538.478172418671
 21
326.5381746672143
 97
        0
 75
     0
 76
     1
 98
        1
 10
0.0
 20
0.0
  0
LINE
  5
7A
330
1F
100
AcDbEntity
  8
0
  6
Continuous
 62
     7
370
    25
100
AcDbLine
 10
2870.0
 20
100.0
 30
0.0
 11
2870.0
 21
2000.0
 31
0.0
  0
LINE
  5
7B
330
1F
100
AcDbEntity
  8
0
  6
Continuous
 62
   179
370
    18
100
AcDbLine
 10
2323.9899183113
 20
344.5974058992
 30
0.0
 11
2323.9899183113
 21
304.8670971915
 31
0.0
  0
LINE
  5
7C
330
1F
100
AcDbEntity
  8
0
  6
Continuous
 62
   179
370
    18
100
AcDbLine
 10
2323.9899183113
 20
344.5974058992
 30
0.0
 11
2356.6479108728
 21
344.5974058992
 31
0.0
  0
LINE
  5
7D
330
1F
100
AcDbEntity
  8
0
  6
Continuous
 62
   179
370
    18
100
AcDbLine
 10
2323.9899183113
 20
304.8670971915
 30
0.0
 11
2340.2432264202
 21
304.8670971915
 31
0.0
  0
LINE
  5
7E
330
1F
100
AcDbEntity
  8
0
  6
Continuous
 62
   179
370
    18
100
AcDbLine
 10
2340.2432264202
 20
304.8670971915
 30
0.0
 11
2340.2432264202
 21
319.3144821747
 31
0.0
  0
LINE
  5
7F
330
1F
100
AcDbEntity
  8
0
  6
Continuous
 62
   179
370
    18
100
AcDbLine
 10
2356.6479108724
 20
319.3144821747
 30
0.0
 11
2340.2432264202
 21
319.3144821747
 31
0.0
  0
LINE
  5
80
330
1F
100
AcDbEntity
  8
0
  6
Continuous
 62
   179
370
    18
100
AcDbLine
 10
2340.2432264198
 20
326.5381746675
 30
0.0
 11
2340.2432264198
 21
337.3737134063
 31
0.0
  0
LINE
  5
81
330
1F
100
AcDbEntity
  8
0
  6
Continuous
 62
   179
370
    18
100
AcDbLine
 10
2340.2432264198
 20
337.3737134063
 30
0.0
 11
2352.923880981
 21
337.3737134063
 31
0.0
  0
LINE
  5
82
330
1F
100
AcDbEntity
  8
0
  6
Continuous
 62
   179
370
    18
100
AcDbLine
 10
2340.2432264198
 20
326.5381746675
 30
0.0
 11
2352.9238809804
 21
326.5381746675
 31
0.0
  0
LINE
  5
83
330
1F
100
AcDbEntity
  8
0
  6
Continuous
 62
   179
370
    18
100
AcDbLine
 10
2381.7794582538
 20
344.5974058975
 30
0.0
 11
2435.9571519481
 21
344.5974058975
 31
0.0
  0
LINE
  5
84
330
1F
100
AcDbEntity
  8
0
  6
Continuous
 62
   179
370
    18
100
AcDbLine
 10
2435.9571519481
 20
344.5974058975
 30
0.0
 11
2435.9571519481
 21
337.3737134043
 31
0.0
  0
LINE
  5
85
330
1F
100
AcDbEntity
  8
0
  6
Continuous
 62
   179
370
    18
100
AcDbLine
 10
2435.9571519481
 20
337.3737134043
 30
0.0
 11
2399.8386894852
 21
337.3737134043
 31
0.0
  0
LINE
  5
86
330
1F
100
AcDbEntity
  8
0
  6
Continuous
 62
   179
370
    18
100
AcDbLine
 10
2399.8386894852
 20
337.3737134043
 30
0.0
 11
2399.8386894852
 21
328.3440977886
 31
0.0
  0
LINE
  5
87
330
1F
100
AcDbEntity
  8
0
  6
Continuous
 62
   179
370
    18
100
AcDbLine
 10
2399.8386894852
 20
328.3440977886
 30
0.0
 11
2432.3453057032
 21
328.3440977886
 31
0.0
  0
LINE
  5
88
330
1F
100
AcDbEntity
  8
0
  6
Continuous
 62
   179
370
    18
100
AcDbLine
 10
2432.3453057032
 20
328.3440977886
 30
0.0
 11
2432.3453057032
 21
321.1204052954
 31
0.0
  0
LINE
  5
89
330
1F
100
AcDbEntity
  8
0
  6
Continuous
 62
   179
370
    18
100
AcDbLine
 10
2432.3453057032
 20
321.1204052954
 30
0.0
 11
2399.8386894852
 21
321.1204052954
 31
0.0
  0
LINE
  5
8A
330
1F
100
AcDbEntity
  8
0
  6
Continuous
 62
   179
370
    18
100
AcDbLine
 10
2399.8386894852
 20
321.1204052954
 30
0.0
 11
2399.8386894852
 21
312.0907896797
 31
0.0
  0
LINE
  5
8B
330
1F
100
AcDbEntity
  8
0
  6
Continuous
 62
   179
370
    18
100
AcDbLine
 10
2399.8386894852
 20
312.0907896797
 30
0.0
 11
2435.9571519481
 21
312.0907896797
 31
0.0
  0
LINE
  5
8C
330
1F
100
AcDbEntity
  8
0
  6
Continuous
 62
   179
370
    18
100
AcDbLine
 10
2435.9571519481
 20
312.0907896797
 30
0.0
 11
2435.9571519481
 21
304.8670971899
 31
0.0
  0
LINE
  5
8D
330
1F
100
AcDbEntity
  8
0
  6
Continuous
 62
   179
370
    18
100
AcDbLine
 10
2435.9571519481
 20
304.8670971899
 30
0.0
 11
2381.7794582538
 21
304.8670971899
 31
0.0
  0
LINE
  5
8E
330
1F
100
AcDbEntity
  8
0
  6
Continuous
 62
   179
370
    18
100
AcDbLine
 10
2439.5689981967
 20
344.5974058976
 30
0.0
 11
2439.5689981967
 21
304.8670971877
 31
0.0
  0
LINE
  5
8F
330
1F
100
AcDbEntity
  8
0
  6
Continuous
 62
   179
370
    18
100
AcDbLine
 10
2439.5689981967
 20
344.5974058976
 30
0.0
 11
2472.0715260016
 21
344.5974058976
 31
0.0
  0
LINE
  5
90
330
1F
100
AcDbEntity
  8
0
  6
Continuous
 62
   179
370
    18
100
AcDbLine
 10
2472.0715260017
 20
304.8670971877
 30
0.0
 11
2439.5689981967
 21
304.8670971877
 31
0.0
  0
LINE
  5
91
330
1F
100
AcDbEntity
  8
0
  6
Continuous
 62
   179
370
    18
100
AcDbLine
 10
2455.8223063032
 20
324.7322515403
 30
0.0
 11
2455.8223063032
 21
313.8967128022
 31
0.0
  0
LINE
  5
92
330
1F
100
AcDbEntity
  8
0
  6
Continuous
 62
   179
370
    18
100
AcDbLine
 10
2455.8223063032
 20
313.8967128022
 30
0.0
 11
2472.947172768
 21
313.8967128022
 31
0.0
  0
LINE
  5
93
330
1F
100
AcDbEntity
  8
0
  6
Continuous
 62
   179
370
    18
100
AcDbLine
 10
2455.8223063032
 20
324.7322515403
 30
0.0
 11
2455.8223063032
 21
335.5677902827
 31
0.0
  0
LINE
  5
94
330
1F
100
AcDbEntity
  8
0
  6
Continuous
 62
   179
370
    18
100
AcDbLine
 10
2455.8223063032
 20
335.5677902827
 30
0.0
 11
2472.947172768
 21
335.5677902827
 31
0.0
  0
LINE
  5
95
330
1F
100
AcDbEntity
  8
0
  6
Continuous
 62
   179
370
    18
100
AcDbLine
 10
2504.5822306294
 20
344.5974059005
 30
0.0
 11
2504.5822306294
 21
304.8670971929
 31
0.0
  0
LINE
  5
96
330
1F
100
AcDbEntity
  8
0
  6
Continuous
 62
     7
370
    18
100
AcDbLine
 10
2728.7989947508
 20
280.0000000004
 30
0.0
 11
2728.7989947508
 21
190.0000000002
 31
0.0
  0
LINE
  5
97
330
1F
100
AcDbEntity
  8
0
  6
Continuous
 62
   179
370
    18
100
AcDbLine
 10
2504.5822306294
 20
304.8670971929
 30
0.0
 11
2520.8355387383
 21
304.8670971929
 31
0.0
  0
LINE
  5
98
330
1F
100
AcDbEntity
  8
0
  6
Continuous
 62
   179
370
    18
100
AcDbLine
 10
2520.8355387383
 20
304.8670971929
 30
0.0
 11
2520.8355387383
 21
319.3144821759
 31
0.0
  0
LINE
  5
99
330
1F
100
AcDbEntity
  8
0
  6
Continuous
 62
   179
370
    18
100
AcDbLine
 10
2520.8355387383
 20
319.3144821759
 30
0.0
 11
2538.8947699699
 21
319.3144821759
 31
0.0
  0
LINE
  5
9A
330
1F
100
AcDbEntity
  8
0
  6
Continuous
 62
   179
370
    18
100
AcDbLine
 10
2546.1184624631
 20
312.0907896827
 30
0.0
 11
2546.1184624631
 21
304.8670971919
 31
0.0
  0
LINE
  5
9B
330
1F
100
AcDbEntity
  8
0
  6
Continuous
 62
   179
370
    18
100
AcDbLine
 10
2520.8355387377
 20
326.5381746672
 30
0.0
 11
2520.8355387377
 21
337.3737134069
 31
0.0
  0
LINE
  5
9C
330
1F
100
AcDbEntity
  8
0
  6
Continuous
 62
   179
370
    18
100
AcDbLine
 10
2520.8355387377
 20
337.3737134069
 30
0.0
 11
2538.4781724187
 21
337.3737134069
 31
0.0
  0
LINE
  5
9D
330
1F
100
AcDbEntity
  8
0
  6
Continuous
 62
   179
370
    18
100
AcDbLine
 10
2520.8355387377
 20
326.5381746672
 30
0.0
 11
2538.4781724187
 21
326.5381746672
 31
0.0
  0
LINE
  5
9E
330
1F
100
AcDbEntity
  8
0
  6
Continuous
 62
   179
370
    18
100
AcDbLine
 10
2558.8702021926
 20
314.7709579587
 30
0.0
 11
2560.3555346507
 21
308.9676544183
 31
0.0
  0
LINE
  5
9F
330
1F
100
AcDbEntity
  8
0
  6
Continuous
 62
     7
370
    25
100
AcDbLine
 10
2870.0
 20
2000.0
 30
0.0
 11
100.0
 21
2000.0
 31
0.0
  0
LINE
  5
A0
330
1F
100
AcDbEntity
  8
0
  6
Continuous
 62
     7
370
    18
100
AcDbLine
 10
2728.7989947508
 20
190.0000000002
 30
0.0
 11
2728.7989947508
 21
100.0
 31
0.0
  0
LINE
  5
A1
330
1F
100
AcDbEntity
  8
0
  6
Continuous
 62
     7
370
    25
100
AcDbLine
 10
100.0
 20
2000.0
 30
0.0
 11
100.0
 21
100.0
 31
0.0
  0
LINE
  5
A2
330
1F
100
AcDbEntity
  8
0
  6
Continuous
 62
     7
370
    25
100
AcDbLine
 10
2150.0
 20
370.0000000006
 30
0.0
 11
2870.0
 21
370.0000000006
 31
0.0
  0
LINE
  5
A3
330
1F
100
AcDbEntity
  8
0
  6
Continuous
 62
    19
370
    18
100
AcDbLine
 10
2795.2884126839
 20
160.2788043096
 30
0.0
 11
2763.4182663121
 21
154.0818314039
 31
0.0
  0
LINE
  5
A4
330
1F
100
AcDbEntity
  8
0
  6
Continuous
 62
    19
370
    18
100
AcDbLine
 10
2821.3505851521
 20
165.4881573907
 30
0.0
 11
2821.3505851521
 21
124.881030118
 31
0.0
  0
LINE
  5
A5
330
1F
100
AcDbEntity
  8
0
  6
Continuous
 62
    19
370
    18
100
AcDbLine
 10
2795.2884126839
 20
160.2788043096
 30
0.0
 11
2795.2884126839
 21
130.0903831992
 31
0.0
  0
LINE
  5
A6
330
1F
100
AcDbEntity
  8
0
  6
Continuous
 62
     7
370
    25
100
AcDbLine
 10
100.0
 20
100.0
 30
0.0
 11
2870.0
 21
100.0
 31
0.0
  0
LINE
  5
A7
330
1F
100
AcDbEntity
  8
0
  6
Continuous
 62
    19
370
    18
100
AcDbLine
 10
2763.4182663121
 20
154.0818314039
 30
0.0
 11
2763.4182663121
 21
136.2873561048
 31
0.0
  0
LINE
  5
A8
330
1F
100
AcDbEntity
  8
0
  6
Continuous
 62
   179
370
    18
100
AcDbLine
 10
2546.1184624631
 20
304.8670971919
 30
0.0
 11
2576.8191555592
 21
304.8670971919
 31
0.0
  0
LINE
  5
A9
330
1F
100
AcDbEntity
  8
0
  6
Continuous
 62
    19
370
    18
100
AcDbLine
 10
2795.2884126839
 20
130.0903831992
 30
0.0
 11
2763.4182663121
 21
136.2873561048
 31
0.0
  0
LINE
  5
AA
330
1F
100
AcDbEntity
  8
0
  6
CENTERX2
 62
    19
370
    18
100
AcDbLine
 10
2838.9207124248
 20
145.1845937544
 30
0.0
 11
2759.4518690643
 21
145.1845937544
 31
0.0
  0
LINE
  5
AB
330
1F
100
AcDbEntity
  8
0
  6
Continuous
 62
   179
370
    18
100
AcDbLine
 10
2504.5822306294
 20
344.5974059005
 30
0.0
 11
2542.0192583058
 21
344.5974059005
 31
0.0
  0
LINE
  5
AC
330
1F
100
AcDbEntity
  8
0
  6
Continuous
 62
   179
370
    18
100
AcDbLine
 10
2381.7794582538
 20
344.5974058975
 30
0.0
 11
2381.7794582538
 21
304.8670971899
 31
0.0
  0
LINE
  5
AD
330
1F
100
AcDbEntity
  8
0
  6
Continuous
 62
   179
370
    18
100
AcDbLine
 10
2584.0428480525
 20
344.5974058996
 30
0.0
 11
2602.1020792839
 21
344.5974058996
 31
0.0
  0
LINE
  5
AE
330
1F
100
AcDbEntity
  8
0
  6
Continuous
 62
   179
370
    18
100
AcDbLine
 10
2584.0428480525
 20
344.5974058996
 30
0.0
 11
2560.7076448779
 21
307.9278009142
 31
0.0
  0
LINE
  5
AF
330
1F
100
AcDbEntity
  8
0
  6
Continuous
 62
   179
370
    18
100
AcDbLine
 10
2576.8191555592
 20
304.8670971919
 30
0.0
 11
2580.8824825864
 21
312.0907896817
 31
0.0
  0
LINE
  5
B0
330
1F
100
AcDbEntity
  8
0
  6
Continuous
 62
   179
370
    18
100
AcDbLine
 10
2593.0724636674
 20
333.7618671594
 30
0.0
 11
2601.1991177219
 21
319.3144821729
 31
0.0
  0
LINE
  5
B1
330
1F
100
AcDbEntity
  8
0
  6
Continuous
 62
   179
370
    18
100
AcDbLine
 10
2584.9458096129
 20
319.3144821729
 30
0.0
 11
2593.0724636674
 21
333.7618671594
 31
0.0
  0
LINE
  5
B2
330
1F
100
AcDbEntity
  8
0
  6
Continuous
 62
   179
370
    18
100
AcDbLine
 10
2584.9458096129
 20
319.3144821729
 30
0.0
 11
2601.1991177219
 21
319.3144821729
 31
0.0
  0
LINE
  5
B3
330
1F
100
AcDbEntity
  8
0
  6
Continuous
 62
   179
370
    18
100
AcDbLine
 10
2580.8824825864
 20
312.0907896817
 30
0.0
 11
2605.26244475
 21
312.0907896817
 31
0.0
  0
LINE
  5
B4
330
1F
100
AcDbEntity
  8
0
  6
Continuous
 62
   179
370
    18
100
AcDbLine
 10
2605.26244475
 20
312.0907896817
 30
0.0
 11
2609.3257717771
 21
304.8670971919
 31
0.0
  0
LINE
  5
B5
330
1F
100
AcDbEntity
  8
0
  6
Continuous
 62
   179
370
    18
100
AcDbLine
 10
2627.3850030087
 20
344.5974058996
 30
0.0
 11
2627.3850030087
 21
304.8670971919
 31
0.0
  0
LINE
  5
B6
330
1F
100
AcDbEntity
  8
0
  6
Continuous
 62
   179
370
    18
100
AcDbLine
 10
2602.1020792839
 20
344.5974058996
 30
0.0
 11
2627.3850030087
 21
304.8670971919
 31
0.0
  0
LINE
  5
B7
330
1F
100
AcDbEntity
  8
0
  6
Continuous
 62
   179
370
    18
100
AcDbLine
 10
2609.3257717771
 20
304.8670971919
 30
0.0
 11
2627.3850030087
 21
304.8670971919
 31
0.0
  0
LINE
  5
B8
330
1F
100
AcDbEntity
  8
0
  6
Continuous
 62
   179
370
    18
100
AcDbLine
 10
2627.3850030087
 20
304.8670971919
 30
0.0
 11
2676.1449273357
 21
304.8670971919
 31
0.0
  0
LINE
  5
B9
330
1F
100
AcDbEntity
  8
0
  6
Continuous
 62
   179
370
    18
100
AcDbLine
 10
2676.1449273357
 20
304.8670971919
 30
0.0
 11
2676.1449273357
 21
313.8967128076
 31
0.0
  0
LINE
  5
BA
330
1F
100
AcDbEntity
  8
0
  6
Continuous
 62
   179
370
    18
100
AcDbLine
 10
2676.1449273357
 20
313.8967128076
 30
0.0
 11
2645.44423424
 21
313.8967128076
 31
0.0
  0
LINE
  5
BB
330
1F
100
AcDbEntity
  8
0
  6
Continuous
 62
   179
370
    18
100
AcDbLine
 10
2645.44423424
 20
313.8967128076
 30
0.0
 11
2645.44423424
 21
344.5974058996
 31
0.0
  0
LINE
  5
BC
330
1F
100
AcDbEntity
  8
0
  6
Continuous
 62
   179
370
    18
100
AcDbLine
 10
2627.3850030087
 20
344.5974058996
 30
0.0
 11
2645.44423424
 21
344.5974058996
 31
0.0
  0
LINE
  5
BD
330
1F
100
AcDbEntity
  8
0
  6
Continuous
 62
   179
370
    18
100
AcDbLine
 10
2677.9508504573
 20
344.5974058992
 30
0.0
 11
2677.9508504573
 21
304.8670971915
 31
0.0
  0
LINE
  5
BE
330
1F
100
AcDbEntity
  8
0
  6
Continuous
 62
   179
370
    18
100
AcDbLine
 10
2696.0100816887
 20
344.5974058992
 30
0.0
 11
2696.0100816887
 21
304.8670971915
 31
0.0
  0
LINE
  5
BF
330
1F
100
AcDbEntity
  8
0
  6
Continuous
 62
   179
370
    18
100
AcDbLine
 10
2677.9508504573
 20
344.5974058992
 30
0.0
 11
2696.0100816887
 21
344.5974058992
 31
0.0
  0
LINE
  5
C0
330
1F
100
AcDbEntity
  8
0
  6
Continuous
 62
   179
370
    18
100
AcDbLine
 10
2677.9508504573
 20
304.8670971915
 30
0.0
 11
2696.0100816887
 21
304.8670971915
 31
0.0
  0
LINE
  5
C1
330
1F
100
AcDbEntity
  8
0
  6
Continuous
 62
   179
370
    18
100
AcDbLine
 10
2704.1151644241
 20
341.2930554229
 30
0.0
 11
2708.2866879839
 21
341.2930554229
 31
0.0
  0
LINE
  5
C2
330
1F
100
AcDbEntity
  8
0
  6
Continuous
 62
   179
370
    18
100
AcDbLine
 10
2708.2866879839
 20
338.5841707372
 30
0.0
 11
2704.1151644241
 21
338.5841707372
 31
0.0
  0
LINE
  5
C3
330
1F
100
AcDbEntity
  8
0
  6
Continuous
 62
   179
370
    18
100
AcDbLine
 10
2704.1151644241
 20
338.5841707372
 30
0.0
 11
2704.1151644241
 21
341.2930554229
 31
0.0
  0
LINE
  5
C4
330
1F
100
AcDbEntity
  8
0
  6
Continuous
 62
   179
370
    18
100
AcDbLine
 10
2704.1151644241
 20
338.5841707372
 30
0.0
 11
2706.8240491077
 21
338.5841707372
 31
0.0
  0
LINE
  5
C5
330
1F
100
AcDbEntity
  8
0
  6
Continuous
 62
   179
370
    18
100
AcDbLine
 10
2704.1151644241
 20
338.5841707372
 30
0.0
 11
2704.1151644241
 21
334.5208437117
 31
0.0
  0
LINE
  5
C6
330
1F
100
AcDbEntity
  8
0
  6
Continuous
 62
   179
370
    18
100
AcDbLine
 10
2709.5329337914
 20
334.5208437117
 30
0.0
 11
2706.8240491077
 21
338.5841707372
 31
0.0
  0
LINE
  5
C7
330
1F
100
AcDbEntity
  8
0
  6
Continuous
 62
     7
370
    18
100
AcDbLine
 10
2150.0
 20
190.0000000002
 30
0.0
 11
2870.0
 21
190.0000000002
 31
0.0
  0
LINE
  5
C8
330
1F
100
AcDbEntity
  8
0
  6
Continuous
 62
     7
370
    18
100
AcDbLine
 10
2870.0
 20
280.0000000004
 30
0.0
 11
2150.0
 21
280.0000000004
 31
0.0
  0
LINE
  5
C9
330
1F
100
AcDbEntity
  8
0
  6
Continuous
 62
     7
370
    18
100
AcDbLine
 10
100.0
 20
550.0
 30
0.0
 11
100.0
 21
650.0
 31
0.0
  0
LINE
  5
CA
330
1F
100
AcDbEntity
  8
0
  6
Continuous
 62
     7
370
    18
100
AcDbLine
 10
100.0
 20
650.0
 30
0.0
 11
100.0
 21
750.0
 31
0.0
  0
LINE
  5
CB
330
1F
100
AcDbEntity
  8
0
  6
Continuous
 62
     7
370
    18
100
AcDbLine
 10
100.0
 20
750.0
 30
0.0
 11
100.0
 21
850.0
 31
0.0
  0
LINE
  5
CC
330
1F
100
AcDbEntity
  8
0
  6
Continuous
 62
     7
370
    18
100
AcDbLine
 10
100.0
 20
850.0
 30
0.0
 11
100.0
 21
950.0
 31
0.0
  0
LINE
  5
CD
330
1F
100
AcDbEntity
  8
0
  6
Continuous
 62
     7
370
    18
100
AcDbLine
 10
100.0
 20
950.0
 30
0.0
 11
100.0
 21
1050.0
 31
0.0
  0
LINE
  5
CE
330
1F
100
AcDbEntity
  8
0
  6
Continuous
 62
     7
370
    18
100
AcDbLine
 10
100.0
 20
1050.0
 30
0.0
 11
100.0
 21
1150.0
 31
0.0
  0
LINE
  5
CF
330
1F
100
AcDbEntity
  8
0
  6
Continuous
 62
     7
370
    18
100
AcDbLine
 10
100.0
 20
1150.0
 30
0.0
 11
100.0
 21
1250.0
 31
0.0
  0
LINE
  5
D0
330
1F
100
AcDbEntity
  8
0
  6
Continuous
 62
     7
370
    18
100
AcDbLine
 10
100.0
 20
1250.0
 30
0.0
 11
100.0
 21
1350.0
 31
0.0
  0
LINE
  5
D1
330
1F
100
AcDbEntity
  8
0
  6
Continuous
 62
     7
370
    18
100
AcDbLine
 10
100.0
 20
1350.0
 30
0.0
 11
100.0
 21
1450.0
 31
0.0
  0
LINE
  5
D2
330
1F
100
AcDbEntity
  8
0
  6
Continuous
 62
     7
370
    18
100
AcDbLine
 10
100.0
 20
1450.0
 30
0.0
 11
100.0
 21
1550.0
 31
0.0
  0
LINE
  5
D3
330
1F
100
AcDbEntity
  8
0
  6
Continuous
 62
     7
370
    25
100
AcDbLine
 10
2150.0
 20
370.0000000006
 30
0.0
 11
2150.0
 21
100.0
 31
0.0
  0
ARC
  5
D4
330
1F
100
AcDbEntity
  8
0
  6
Continuous
 62
   179
370
    18
100
AcDbCircle
 10
2352.923880981
 20
330.1500209155
 30
0.0
 40
7.223692490816169
100
AcDbArc
 50
69.991210111
 51
90.0
  0
ARC
  5
D5
330
1F
100
AcDbEntity
  8
0
  6
Continuous
 62
   179
370
    18
100
AcDbCircle
 10
2352.9238809804
 20
333.7618671601
 30
0.0
 40
7.223692492544103
100
AcDbArc
 50
270.0
 51
290.0087898887
  0
ARC
  5
D6
330
1F
100
AcDbEntity
  8
0
  6
Continuous
 62
   179
370
    18
100
AcDbCircle
 10
2472.947172768
 20
324.7322515422
 30
0.0
 40
10.8355387405187
100
AcDbArc
 50
56.1685552524
 51
90.0
  0
ARC
  5
D7
330
1F
100
AcDbEntity
  8
0
  6
Continuous
 62
   179
370
    18
100
AcDbCircle
 10
2472.947172768
 20
324.7322515422
 30
0.0
 40
10.83553873998012
100
AcDbArc
 50
270.0
 51
303.830934914
  0
ARC
  5
D8
330
1F
100
AcDbEntity
  8
0
  6
Continuous
 62
   179
370
    18
100
AcDbCircle
 10
2538.8947699699
 20
312.0907896827
 30
0.0
 40
7.223692493244471
100
AcDbArc
 50
0.0
 51
90.0
  0
ARC
  5
D9
330
1F
100
AcDbEntity
  8
0
  6
Continuous
 62
   179
370
    18
100
AcDbCircle
 10
2538.4781724187
 20
331.9559440374
 30
0.0
 40
5.417769369443558
100
AcDbArc
 50
54.413089495
 51
90.0
  0
ARC
  5
DA
330
1F
100
AcDbEntity
  8
0
  6
Continuous
 62
   179
370
    18
100
AcDbCircle
 10
2538.4781724187
 20
331.9559440374
 30
0.0
 40
5.417769370214614
100
AcDbArc
 50
270.0
 51
305.5869104966
  0
ARC
  5
DB
330
1F
100
AcDbEntity
  8
0
  6
Continuous
 62
   179
370
    18
100
AcDbCircle
 10
2549.0375849296
 20
312.9627960708
 30
0.0
 40
9.997490267756625
100
AcDbArc
 50
10.4199484279
 51
80.7321727594
  0
ARC
  5
DC
330
1F
100
AcDbEntity
  8
0
  6
Continuous
 62
   179
370
    18
100
AcDbCircle
 10
2565.4535666376
 20
310.1143839674
 30
0.0
 40
5.225410873593643
100
AcDbArc
 50
192.6768785101
 51
204.7368873207
  0
CIRCLE
  5
DD
330
1F
100
AcDbEntity
  8
0
  6
Continuous
 62
   179
370
    18
100
AcDbCircle
 10
2706.2864208618
 20
337.8675697335
 30
0.0
 40
5.930102145230649
  0
CIRCLE
  5
DE
330
1F
100
AcDbEntity
  8
0
  6
Continuous
 62
    19
370
    18
100
AcDbCircle
 10
2821.3505851521
 20
145.1845937544
 30
0.0
 40
8.587078762764193
  0
CIRCLE
  5
DF
330
1F
100
AcDbEntity
  8
0
  6
Continuous
 62
    19
370
    18
100
AcDbCircle
 10
2821.3505851521
 20
145.1845937544
 30
0.0
 40
16.77593581663705
  0
ELLIPSE
  5
E0
330
1F
100
AcDbEntity
  8
0
  6
Continuous
 62
   179
370
    18
100
AcDbEllipse
 10
2350.175803597
 20
331.955944037
 30
0.0
 11
9.932577177642086
 21
0.0
 31
0.0
210
0.0
220
0.0
230
1.0
 40
0.5895245511
 41
5.265715075739357
 42
7.300655538615938
  0
ELLIPSE
  5
E1
330
1F
100
AcDbEntity
  8
0
  6
Continuous
 62
   179
370
    18
100
AcDbEllipse
 10
2462.1430372376
 20
324.7322515426
 30
0.0
 11
22.57403904004605
 21
0.0
 31
0.0
210
0.0
220
0.0
230
1.0
 40
0.5985848325
 41
5.554193105221712
 42
7.012172182744729
  0
ELLIPSE
  5
E2
330
1F
100
AcDbEntity
  8
0
  6
Continuous
 62
   179
370
    18
100
AcDbEllipse
 10
2532.5740390411
 20
331.955944037
 30
0.0
 11
11.73850030081758
 21
0.0
 31
0.0
210
0.0
220
0.0
230
1.0
 40
0.5900077182
 41
5.593675727225931
 42
6.97269488710657
  0
ELLIPSE
  5
E3
330
1F
100
AcDbEntity
  8
0
  6
Continuous
 62
   179
370
    18
100
AcDbEllipse
 10
2538.0299477069
 20
332.9364020823
 30
0.0
 11
24.3266662253518
 21
0.0
 31
0.0
210
0.0
220
0.0
230
1.0
 40
0.485929116
 41
5.257694056962849
 42
7.689248379254996
  0
ELLIPSE
  5
E4
330
1F
100
AcDbEntity
  8
0
  6
Continuous
 62
   179
370
    18
100
AcDbEllipse
 10
2468.4637681651
 20
324.7322515426
 30
0.0
 11
28.89476997115571
 21
0.0
 31
0.0
210
0.0
220
0.0
230
1.0
 40
0.6929224243
 41
4.837574201223028
 42
7.72879641314261
  0
ELLIPSE
  5
E5
330
1F
100
AcDbEntity
  8
0
  6
Continuous
 62
   179
370
    18
100
AcDbEllipse
 10
2351.0787651571
 20
331.955944037
 30
0.0
 11
27.0888468479834
 21
0.0
 31
0.0
210
0.0
220
0.0
230
1.0
 40
0.4768529109
 41
4.919453630382234
 42
7.646916983963972
  0
ELLIPSE
  5
E6
330
1F
100
AcDbEntity
  8
0
  6
Continuous
 62
   179
370
    18
100
AcDbEllipse
 10
2708.0427484413
 20
339.93861308
 30
0.0
 11
1.490185355941776
 21
0.0
 31
0.0
210
0.0
220
0.0
230
1.0
 40
0.9213369296
 41
4.876826485633947
 42
7.68954412872528
  0
MTEXT
  5
E8
330
1F
100
AcDbEntity
  8
0
  6
Continuous
 62
     7
370
     0
100
AcDbMText
 10
2231.444945447
 20
165.6379924371
 30
0.0
 40
37.0416666667
 41
0.0
 71
     1
 72
     1
  1
BLT_100X25X45
  7
SLDTEXTSTYLE0
 73
     1
 44
1.0
  0
MTEXT
  5
E9
330
1F
100
AcDbEntity
  8
0
  6
Continuous
 62
     7
370
     0
100
AcDbMText
 10
2158.8845987823
 20
146.3871334973
 30
0.0
 40
18.0
 41
0.0
 71
     1
 72
     1
  1
COD.
  7
SLDTEXTSTYLE0
 73
     1
 44
1.0
  0
MTEXT
  5
EA
330
1F
100
AcDbEntity
  8
0
  6
Continuous
 62
     7
370
     0
100
AcDbMText
 10
107.0855178468
 20
74.7215172182
 30
0.0
 40
18.0
 41
0.0
 71
     1
 72
     1
  1
This document is the property of PEDRALI S.p.A. who willsafeguard its rights according to the civil and penal prevision of the Law.
  7
SLDTEXTSTYLE0
 73
     1
 44
1.0
  0
MTEXT
  5
EB
330
1F
100
AcDbEntity
  8
0
  6
Continuous
 62
     7
370
     0
100
AcDbMText
 10
1440.8605986612
 20
76.7845591915
 30
0.0
 40
18.0
 41
0.0
 71
     1
 72
     1
  1
Questo disegno è posto sotto la tutela delle vigenti Leggi e non puo essere utilizzato da terze persone se non previa autorizzazione scritta della PEDRALI S.p.A.
  7
SLDTEXTSTYLE0
 73
     1
 44
1.0
  0
MTEXT
  5
EC
330
1F
100
AcDbEntity
  8
0
  6
Continuous
 62
     7
370
     0
100
AcDbMText
 10
2158.8845987823
 20
234.3102099637
 30
0.0
 40
18.0
 41
0.0
 71
     1
 72
     1
  1
SERIE:
  7
SLDTEXTSTYLE0
 73
     1
 44
1.0
  0
MTEXT
  5
ED
330
1F
100
AcDbEntity
  8
0
  6
Continuous
 62
     7
370
     0
100
AcDbMText
 10
2231.444945447
 20
253.5610689035
 30
0.0
 40
37.0416666667
 41
0.0
 71
     1
 72
     1
  1
BLUME
  7
SLDTEXTSTYLE0
 73
     1
 44
1.0
  0
INSERT
  5
F3
330
1F
100
AcDbEntity
  8
0
  6
Continuous
 62
     7
370
     0
100
AcDbBlockReference
  2
SW_NOTE_0
 10
2766.9883061954
 20
242.6632128381
 30
0.0
  0
LINE
  5
F4
330
1F
100
AcDbEntity
  8
0
  6
Continuous
 62
     7
370
    25
100
AcDbLine
 10
841.0638054697
 20
1229.1797945501
 30
0.0
 11
841.0638054697
 21
1232.1797945501
 31
0.0
  0
LINE
  5
F5
330
1F
100
AcDbEntity
  8
0
  6
Continuous
 62
     7
370
    25
100
AcDbLine
 10
822.0638054697
 20
1232.1797945501
 30
0.0
 11
822.0638054697
 21
1229.1797945501
 31
0.0
  0
ARC
  5
F6
330
1F
100
AcDbEntity
  8
0
  6
Continuous
 62
     7
370
    25
100
AcDbCircle
 10
827.0638054697
 20
1229.1797945501
 30
0.0
 40
5.0
100
AcDbArc
 50
180.0
 51
270.0
  0
ARC
  5
F7
330
1F
100
AcDbEntity
  8
0
  6
Continuous
 62
     7
370
    25
100
AcDbCircle
 10
836.0638054697
 20
1229.1797945501
 30
0.0
 40
5.0
100
AcDbArc
 50
270.0
 51
0.0
  0
LINE
  5
F8
330
1F
100
AcDbEntity
  8
0
  6
Continuous
 62
     7
370
    25
100
AcDbLine
 10
1641.0638054697
 20
1229.1797945501
 30
0.0
 11
1641.0638054697
 21
1232.1797945501
 31
0.0
  0
LINE
  5
F9
330
1F
100
AcDbEntity
  8
0
  6
Continuous
 62
     7
370
    25
100
AcDbLine
 10
1622.0638054697
 20
1232.1797945501
 30
0.0
 11
1622.0638054697
 21
1229.1797945501
 31
0.0
  0
ARC
  5
FA
330
1F
100
AcDbEntity
  8
0
  6
Continuous
 62
     7
370
    25
100
AcDbCircle
 10
1627.0638054697
 20
1229.1797945501
 30
0.0
 40
5.0
100
AcDbArc
 50
180.0
 51
270.0
  0
ARC
  5
FB
330
1F
100
AcDbEntity
  8
0
  6
Continuous
 62
     7
370
    25
100
AcDbCircle
 10
1636.0638054697
 20
1229.1797945501
 30
0.0
 40
5.0
100
AcDbArc
 50
270.0
 51
0.0
  0
ARC
  5
FC
330
1F
100
AcDbEntity
  8
0
  6
Continuous
 62
     7
370
    25
100
AcDbCircle
 10
1631.5638054697
 20
1662.1797945501
 30
0.0
 40
9.999999999999984
100
AcDbArc
 50
29.5230843851
 51
150.4520955708
  0
LINE
  5
FD
330
1F
100
AcDbEntity
  8
0
  6
Continuous
 62
     7
370
    25
100
AcDbLine
 10
1623.5029249113
 20
1666.7373233813
 30
0.0
 11
1623.5029249113
 21
1232.1797945501
 31
0.0
  0
LINE
  5
FE
330
1F
100
AcDbEntity
  8
0
  6
Continuous
 62
     7
370
    25
100
AcDbLine
 10
1639.624686028
 20
1232.1797945501
 30
0.0
 11
1639.624686028
 21
1666.7323432722
 31
0.0
  0
LINE
  5
FF
330
1F
100
AcDbEntity
  8
0
  6
Continuous
 62
     7
370
    25
100
AcDbLine
 10
1622.2291901431
 20
1665.2901449141
 30
0.0
 11
1622.2291901431
 21
1232.1797945501
 31
0.0
  0
LINE
  5
100
330
1F
100
AcDbEntity
  8
0
  6
Continuous
 62
     7
370
    25
100
AcDbLine
 10
1640.8984207963
 20
1232.1797945501
 30
0.0
 11
1640.8984207963
 21
1665.2875850617
 31
0.0
  0
ARC
  5
101
330
1F
100
AcDbEntity
  8
0
  6
Continuous
 62
     7
370
    25
100
AcDbCircle
 10
831.5638054697
 20
1662.1797945501
 30
0.0
 40
10.00000000000004
100
AcDbArc
 50
29.5230843851
 51
150.4520955708
  0
LINE
  5
102
330
1F
100
AcDbEntity
  8
0
  6
Continuous
 62
     7
370
    25
100
AcDbLine
 10
823.5029249113
 20
1666.7373233813
 30
0.0
 11
823.5029249113
 21
1232.1797945501
 31
0.0
  0
LINE
  5
103
330
1F
100
AcDbEntity
  8
0
  6
Continuous
 62
     7
370
    25
100
AcDbLine
 10
839.624686028
 20
1232.1797945501
 30
0.0
 11
839.624686028
 21
1666.7323432722
 31
0.0
  0
LINE
  5
104
330
1F
100
AcDbEntity
  8
0
  6
Continuous
 62
     7
370
    25
100
AcDbLine
 10
822.2291901431
 20
1665.2901449141
 30
0.0
 11
822.2291901431
 21
1232.1797945501
 31
0.0
  0
LINE
  5
105
330
1F
100
AcDbEntity
  8
0
  6
Continuous
 62
     7
370
    25
100
AcDbLine
 10
840.8984207963
 20
1232.1797945501
 30
0.0
 11
840.8984207963
 21
1665.2875850617
 31
0.0
  0
LINE
  5
106
330
1F
100
AcDbEntity
  8
0
  6
Continuous
 62
     7
370
    25
100
AcDbLine
 10
1694.5638054697
 20
1657.1797945543
 30
0.0
 11
1640.8984207963
 21
1657.1797945543
 31
0.0
  0
LINE
  5
107
330
1F
100
AcDbEntity
  8
0
  6
Continuous
 62
     7
370
    25
100
AcDbLine
 10
1622.2291901431
 20
1657.1797945543
 30
0.0
 11
840.8984207963
 21
1657.1797945543
 31
0.0
  0
LINE
  5
108
330
1F
100
AcDbEntity
  8
0
  6
Continuous
 62
     7
370
    25
100
AcDbLine
 10
822.2291901431
 20
1657.1797945543
 30
0.0
 11
768.5638054697
 21
1657.1797945543
 31
0.0
  0
LINE
  5
109
330
1F
100
AcDbEntity
  8
0
  6
Continuous
 62
     7
370
    25
100
AcDbLine
 10
1694.5638054697
 20
1667.1797945543
 30
0.0
 11
1640.2240595051
 21
1667.1797945543
 31
0.0
  0
LINE
  5
10A
330
1F
100
AcDbEntity
  8
0
  6
Continuous
 62
     7
370
    25
100
AcDbLine
 10
1622.9035514343
 20
1667.1797945543
 30
0.0
 11
840.2240595051
 21
1667.1797945543
 31
0.0
  0
LINE
  5
10B
330
1F
100
AcDbEntity
  8
0
  6
Continuous
 62
     7
370
    25
100
AcDbLine
 10
822.9035514343
 20
1667.1797945543
 30
0.0
 11
768.5638054697
 21
1667.1797945543
 31
0.0
  0
LINE
  5
10C
330
1F
100
AcDbEntity
  8
0
  6
Continuous
 62
     7
370
    25
100
AcDbLine
 10
731.5638054697
 20
1657.1797945543
 30
0.0
 11
731.5638054697
 21
1667.1797945543
 31
0.0
  0
LINE
  5
10D
330
1F
100
AcDbEntity
  8
0
  6
Continuous
 62
     7
370
    25
100
AcDbLine
 10
768.5638054697
 20
1657.1797945543
 30
0.0
 11
731.5638054697
 21
1657.1797945543
 31
0.0
  0
LINE
  5
10E
330
1F
100
AcDbEntity
  8
0
  6
Continuous
 62
     7
370
    25
100
AcDbLine
 10
731.5638054697
 20
1667.1797945543
 30
0.0
 11
768.5638054697
 21
1667.1797945543
 31
0.0
  0
LINE
  5
10F
330
1F
100
AcDbEntity
  8
0
  6
Continuous
 62
     7
370
    25
100
AcDbLine
 10
1731.5638054697
 20
1667.1797945543
 30
0.0
 11
1731.5638054697
 21
1657.1797945543
 31
0.0
  0
LINE
  5
110
330
1F
100
AcDbEntity
  8
0
  6
Continuous
 62
     7
370
    25
100
AcDbLine
 10
1731.5638054697
 20
1657.1797945543
 30
0.0
 11
1694.5638054697
 21
1657.1797945543
 31
0.0
  0
LINE
  5
111
330
1F
100
AcDbEntity
  8
0
  6
Continuous
 62
     7
370
    25
100
AcDbLine
 10
1694.5638054697
 20
1667.1797945543
 30
0.0
 11
1731.5638054697
 21
1667.1797945543
 31
0.0
  0
LINE
  5
112
330
1F
100
AcDbEntity
  8
0
  6
Continuous
 62
     7
370
    25
100
AcDbLine
 10
1622.2291901431
 20
1622.1797945543
 30
0.0
 11
840.8984207963
 21
1622.1797945543
 31
0.0
  0
LINE
  5
113
330
1F
100
AcDbEntity
  8
0
  6
Continuous
 62
     7
370
    25
100
AcDbLine
 10
841.0638054697
 20
1232.1797945501
 30
0.0
 11
822.0638054697
 21
1232.1797945501
 31
0.0
  0
LINE
  5
114
330
1F
100
AcDbEntity
  8
0
  6
Continuous
 62
     7
370
    25
100
AcDbLine
 10
836.0638054697
 20
1224.1797945501
 30
0.0
 11
827.0638054771
 21
1224.1797945501
 31
0.0
  0
LINE
  5
115
330
1F
100
AcDbEntity
  8
0
  6
Continuous
 62
     7
370
    25
100
AcDbLine
 10
1641.0638054697
 20
1232.1797945501
 30
0.0
 11
1622.0638054697
 21
1232.1797945501
 31
0.0
  0
LINE
  5
116
330
1F
100
AcDbEntity
  8
0
  6
Continuous
 62
     7
370
    25
100
AcDbLine
 10
1636.0638054697
 20
1224.1797945501
 30
0.0
 11
1627.0638054771
 21
1224.1797945501
 31
0.0
  0
SPLINE
  5
117
330
1F
100
AcDbEntity
  8
0
  6
Continuous
 62
     7
370
    25
100
AcDbSpline
210
0.0
220
0.0
230
1.0
 70
     8
 71
     3
 72
    26
 73
    22
 74
     0
 42
0.000000001
 43
0.00000001
 40
0.0
 40
0.0
 40
0.0
 40
0.0
 40
0.085426115936092
 40
0.1733276547195577
 40
0.2448517261352459
 40
0.3181224083912698
 40
0.3577740645396631
 40
0.3980844094313178
 40
0.4287682032815273
 40
0.4601978879083197
 40
0.4855692359538061
 40
0.5116681185372421
 40
0.5370453561645181
 40
0.563088014911402
 40
0.5995557531473538
 40
0.6370345873825457
 40
0.6960497304231493
 40
0.756632117583136
 40
0.8401423063242316
 40
0.9260534647419588
 40
1.0
 40
1.0
 40
1.0
 40
1.0
 10
1628.682139268399
 20
1669.092750426754
 30
0.0
 10
1628.723560844373
 20
1668.891783236416
 30
0.0
 10
1628.807604284015
 20
1668.484025358218
 30
0.0
 10
1629.096178748338
 20
1667.897942714014
 30
0.0
 10
1629.470546279855
 20
1667.353704232788
 30
0.0
 10
1629.851511380973
 20
1666.943346606037
 30
0.0
 10
1630.226710847391
 20
1666.635911750259
 30
0.0
 10
1630.531546661775
 20
1666.440336213437
 30
0.0
 10
1630.842841116762
 20
1666.293805343328
 30
0.0
 10
1631.129905928721
 20
1666.204389780918
 30
0.0
 10
1631.414943874757
 20
1666.160363685767
 30
0.0
 10
1631.683806117981
 20
1666.158229608487
 30
0.0
 10
1631.951225514828
 20
1666.195399167854
 30
0.0
 10
1632.242403542923
 20
1666.277231142793
 30
0.0
 10
1632.550957574428
 20
1666.414930815739
 30
0.0
 10
1632.920980037028
 20
1666.645717289865
 30
0.0
 10
1633.300476930302
 20
1666.966526480937
 30
0.0
 10
1633.709547288258
 20
1667.420216286027
 30
0.0
 10
1634.069447359189
 20
1667.961183761536
 30
0.0
 10
1634.337038803569
 20
1668.543506707623
 30
0.0
 10
1634.411177018177
 20
1668.919038128105
 30
0.0
 10
1634.445471670967
 20
1669.092750426754
 30
0.0
  0
SPLINE
  5
118
330
1F
100
AcDbEntity
  8
0
  6
Continuous
 62
     7
370
    25
100
AcDbSpline
210
0.0
220
0.0
230
1.0
 70
     8
 71
     3
 72
    14
 73
    10
 74
     0
 42
0.000000001
 43
0.00000001
 40
0.0
 40
0.0
 40
0.0
 40
0.0
 40
0.1996459493462946
 40
0.404991595770435
 40
0.6077353381762771
 40
0.7118014853057941
 40
0.8168241091226349
 40
0.9440115703823982
 40
1.0
 40
1.0
 40
1.0
 40
1.0
 10
1638.983575398407
 20
1668.818438846371
 30
0.0
 10
1639.196892544464
 20
1668.578764844252
 30
0.0
 10
1639.629616832983
 20
1668.092574381082
 30
0.0
 10
1640.147727152129
 20
1667.338053110131
 30
0.0
 10
1640.48950300857
 20
1666.703354813123
 30
0.0
 10
1640.695662966755
 20
1666.204987845692
 30
0.0
 10
1640.821680694246
 20
1665.814218016748
 30
0.0
 10
1640.890319443507
 20
1665.496868190608
 30
0.0
 10
1640.895530875528
 20
1665.336578296592
 30
0.0
 10
1640.89712377017
 20
1665.287585061694
 30
0.0
  0
SPLINE
  5
119
330
1F
100
AcDbEntity
  8
0
  6
Continuous
 62
     7
370
    25
100
AcDbSpline
210
0.0
220
0.0
230
1.0
 70
     8
 71
     3
 72
    14
 73
    10
 74
     0
 42
0.000000001
 43
0.00000001
 40
0.0
 40
0.0
 40
0.0
 40
0.0
 40
0.220765348438307
 40
0.3402146168140888
 40
0.4605704991791176
 40
0.5641909618660997
 40
0.6633542991972022
 40
0.8105247403618681
 40
1.0
 40
1.0
 40
1.0
 40
1.0
 10
1638.796461075437
 20
1668.858651471125
 30
0.0
 10
1638.755762279915
 20
1668.915084949131
 30
0.0
 10
1638.693042631106
 20
1669.002052828064
 30
0.0
 10
1638.652101225731
 20
1669.079350893032
 30
0.0
 10
1638.652780321697
 20
1669.105530003403
 30
0.0
 10
1638.686815227517
 20
1669.092901501024
 30
0.0
 10
1638.74886278292
 20
1669.047441892901
 30
0.0
 10
1638.849269103987
 20
1668.957968845052
 30
0.0
 10
1638.935206825551
 20
1668.868688664787
 30
0.0
 10
1638.983575398407
 20
1668.818438846371
 30
0.0
  0
SPLINE
  5
11A
330
1F
100
AcDbEntity
  8
0
  6
Continuous
 62
     7
370
    25
100
AcDbSpline
210
0.0
220
0.0
230
1.0
 70
     8
 71
     3
 72
    24
 73
    20
 74
     0
 42
0.000000001
 43
0.00000001
 40
0.0
 40
0.0
 40
0.0
 40
0.0
 40
0.0863790768596616
 40
0.1752542427071468
 40
0.2620842456789099
 40
0.3070649132850778
 40
0.3520190851009297
 40
0.4193200542314419
 40
0.4528774529345851
 40
0.4876252663406367
 40
0.5342920749946466
 40
0.5808562308579933
 40
0.6174647672988371
 40
0.6550630194695127
 40
0.7176552952223887
 40
0.781884865449132
 40
0.8689583501259635
 40
0.9585482528059902
 40
1.0
 40
1.0
 40
1.0
 40
1.0
 10
1635.203082097713
 20
1669.075490666792
 30
0.0
 10
1635.401421821052
 20
1668.864631011663
 30
0.0
 10
1635.803832674192
 20
1668.436818507517
 30
0.0
 10
1636.461423107847
 20
1667.780692465217
 30
0.0
 10
1637.028683309062
 20
1667.235354590697
 30
0.0
 10
1637.487730477542
 20
1666.815796260577
 30
0.0
 10
1637.897704736838
 20
1666.462259056573
 30
0.0
 10
1638.280257585479
 20
1666.168049253248
 30
0.0
 10
1638.628336881546
 20
1665.964517830988
 30
0.0
 10
1638.911988015011
 20
1665.852176729024
 30
0.0
 10
1639.192300691733
 20
1665.839848970593
 30
0.0
 10
1639.397980485039
 20
1665.964979874804
 30
0.0
 10
1639.523802615757
 20
1666.154931559191
 30
0.0
 10
1639.610695695586
 20
1666.417919893807
 30
0.0
 10
1639.638779776722
 20
1666.782372870038
 30
0.0
 10
1639.574394698814
 20
1667.292848494796
 30
0.0
 10
1639.381028089763
 20
1667.890610291531
 30
0.0
 10
1639.095990597275
 20
1668.435873472845
 30
0.0
 10
1638.868440769891
 20
1668.757054036082
 30
0.0
 10
1638.796461075437
 20
1668.858651471125
 30
0.0
  0
SPLINE
  5
11B
330
1F
100
AcDbEntity
  8
0
  6
Continuous
 62
     7
370
    25
100
AcDbSpline
210
0.0
220
0.0
230
1.0
 70
     8
 71
     3
 72
    14
 73
    10
 74
     0
 42
0.000000001
 43
0.00000001
 40
0.0
 40
0.0
 40
0.0
 40
0.0
 40
0.2243030424882868
 40
0.3489011866266555
 40
0.4744001356117536
 40
0.5826741857065961
 40
0.6867417687947411
 40
0.838156487169633
 40
1.0
 40
1.0
 40
1.0
 40
1.0
 10
1634.445471670967
 20
1669.092750426754
 30
0.0
 10
1634.460117209382
 20
1669.1476824283
 30
0.0
 10
1634.482898201005
 20
1669.233128618911
 30
0.0
 10
1634.584682827411
 20
1669.308977702446
 30
0.0
 10
1634.693372868961
 20
1669.334658660755
 30
0.0
 10
1634.814340878819
 20
1669.321841386232
 30
0.0
 10
1634.944635932658
 20
1669.276430063129
 30
0.0
 10
1635.08245263358
 20
1669.194252371878
 30
0.0
 10
1635.161989644421
 20
1669.115946867558
 30
0.0
 10
1635.203082097713
 20
1669.075490666792
 30
0.0
  0
SPLINE
  5
11C
330
1F
100
AcDbEntity
  8
0
  6
Continuous
 62
     7
370
    25
100
AcDbSpline
210
0.0
220
0.0
230
1.0
 70
     8
 71
     3
 72
    14
 73
    10
 74
     0
 42
0.000000001
 43
0.00000001
 40
0.0
 40
0.0
 40
0.0
 40
0.0
 40
0.2239799089305531
 40
0.3530600787849406
 40
0.4831615846560053
 40
0.5937368434043864
 40
0.6971871626480907
 40
0.8442013099709667
 40
1.0
 40
1.0
 40
1.0
 40
1.0
 10
1627.924528841652
 20
1669.075490666792
 30
0.0
 10
1627.983149194324
 20
1669.131337897096
 30
0.0
 10
1628.075552599752
 20
1669.219370022946
 30
0.0
 10
1628.242590783344
 20
1669.302218723056
 30
0.0
 10
1628.378022097449
 20
1669.333936079764
 30
0.0
 10
1628.492462678247
 20
1669.324895833851
 30
0.0
 10
1628.586281777023
 20
1669.282855156639
 30
0.0
 10
1628.656390005968
 20
1669.205483323561
 30
0.0
 10
1628.673391774896
 20
1669.131047845369
 30
0.0
 10
1628.682139268399
 20
1669.092750426754
 30
0.0
  0
SPLINE
  5
11D
330
1F
100
AcDbEntity
  8
0
  6
Continuous
 62
     7
370
    25
100
AcDbSpline
210
0.0
220
0.0
230
1.0
 70
     8
 71
     3
 72
    24
 73
    20
 74
     0
 42
0.000000001
 43
0.00000001
 40
0.0
 40
0.0
 40
0.0
 40
0.0
 40
0.0875562630610312
 40
0.1776478778994356
 40
0.2471757028850856
 40
0.3182848495519417
 40
0.3544514774164556
 40
0.3911558340110754
 40
0.4196735717850664
 40
0.4488792169076932
 40
0.4956340312872254
 40
0.5423649618835424
 40
0.576362733126496
 40
0.6112927856933148
 40
0.6689340598446847
 40
0.7280698917726421
 40
0.8133417532352668
 40
0.9010570727560779
 40
0.9999999999999999
 40
0.9999999999999999
 40
0.9999999999999999
 40
0.9999999999999999
 10
1624.331149863929
 20
1668.858651471125
 30
0.0
 10
1624.185075782827
 20
1668.642897021357
 30
0.0
 10
1623.888697778367
 20
1668.205140557015
 30
0.0
 10
1623.635625051118
 20
1667.586412134635
 30
0.0
 10
1623.506006429332
 20
1667.023003077074
 30
0.0
 10
1623.493612339771
 20
1666.612461939526
 30
0.0
 10
1623.547660079999
 20
1666.311247262688
 30
0.0
 10
1623.62158919729
 20
1666.123572778839
 30
0.0
 10
1623.725677512741
 20
1665.981322886289
 30
0.0
 10
1623.879038813189
 20
1665.868344857897
 30
0.0
 10
1624.123504136066
 20
1665.829727380823
 30
0.0
 10
1624.433844768014
 20
1665.92996532082
 30
0.0
 10
1624.729628756076
 20
1666.096884020312
 30
0.0
 10
1625.058797372061
 20
1666.326939400805
 30
0.0
 10
1625.455632368573
 20
1666.651886601954
 30
0.0
 10
1625.981714024019
 20
1667.124541351238
 30
0.0
 10
1626.579625024007
 20
1667.696103434248
 30
0.0
 10
1627.265836841253
 20
1668.376937259181
 30
0.0
 10
1627.696333299747
 20
1668.83348564274
 30
0.0
 10
1627.924528841652
 20
1669.075490666792
 30
0.0
  0
SPLINE
  5
11E
330
1F
100
AcDbEntity
  8
0
  6
Continuous
 62
     7
370
    25
100
AcDbSpline
210
0.0
220
0.0
230
1.0
 70
     8
 71
     3
 72
    14
 73
    10
 74
     0
 42
0.000000001
 43
0.00000001
 40
0.0
 40
0.0
 40
0.0
 40
0.0
 40
0.2200911109485839
 40
0.3501199592092674
 40
0.4590676183976911
 40
0.5685351145661591
 40
0.6668402217389687
 40
0.7968948941936455
 40
1.0
 40
1.0
 40
1.0
 40
1.0
 10
1624.144035540959
 20
1668.818438846371
 30
0.0
 10
1624.200442964824
 20
1668.876809044019
 30
0.0
 10
1624.29017564352
 20
1668.96966409451
 30
0.0
 10
1624.392442611215
 20
1669.058510830924
 30
0.0
 10
1624.450715325227
 20
1669.098972219418
 30
0.0
 10
1624.476661752653
 20
1669.102642840539
 30
0.0
 10
1624.472099824215
 20
1669.071669269718
 30
0.0
 10
1624.430226519607
 20
1668.995752166485
 30
0.0
 10
1624.368674183034
 20
1668.910577025202
 30
0.0
 10
1624.331149863929
 20
1668.858651471125
 30
0.0
  0
SPLINE
  5
11F
330
1F
100
AcDbEntity
  8
0
  6
Continuous
 62
     7
370
    25
100
AcDbSpline
210
0.0
220
0.0
230
1.0
 70
     8
 71
     3
 72
    14
 73
    10
 74
     0
 42
0.000000001
 43
0.00000001
 40
0.0
 40
0.0
 40
0.0
 40
0.0
 40
0.0318468616334051
 40
0.1382021891221583
 40
0.2470909675485218
 40
0.4405387664055894
 40
0.6393220179585501
 40
0.8177164190617441
 40
1.0
 40
1.0
 40
1.0
 40
1.0
 10
1622.231894134398
 20
1665.290144914069
 30
0.0
 10
1622.231597524751
 20
1665.31641742108
 30
0.0
 10
1622.230310361731
 20
1665.430429219934
 30
0.0
 10
1622.277231533928
 20
1665.692985831347
 30
0.0
 10
1622.407408832654
 20
1666.156275019478
 30
0.0
 10
1622.662691014309
 20
1666.767901355249
 30
0.0
 10
1623.069203962136
 20
1667.475381948788
 30
0.0
 10
1623.562038807784
 20
1668.167642910736
 30
0.0
 10
1623.948647034938
 20
1668.599953005574
 30
0.0
 10
1624.144035540959
 20
1668.818438846371
 30
0.0
  0
SPLINE
  5
120
330
1F
100
AcDbEntity
  8
0
  6
Continuous
 62
     7
370
    25
100
AcDbSpline
210
0.0
220
0.0
230
1.0
 70
     8
 71
     3
 72
    26
 73
    22
 74
     0
 42
0.000000001
 43
0.00000001
 40
0.0
 40
0.0
 40
0.0
 40
0.0
 40
0.085426115936092
 40
0.1733276547195577
 40
0.2448517261352459
 40
0.3181224083912698
 40
0.3577740645396631
 40
0.3980844094313178
 40
0.4287682032815273
 40
0.4601978879083197
 40
0.4855692359538061
 40
0.5116681185372421
 40
0.5370453561645181
 40
0.563088014911402
 40
0.5995557531473538
 40
0.6370345873825457
 40
0.6960497304231493
 40
0.756632117583136
 40
0.8401423063242316
 40
0.9260534647419588
 40
1.0
 40
1.0
 40
1.0
 40
1.0
 10
828.6821392683986
 20
1669.092750426754
 30
0.0
 10
828.7235608443734
 20
1668.891783236416
 30
0.0
 10
828.807604284015
 20
1668.484025358217
 30
0.0
 10
829.0961787483377
 20
1667.897942714013
 30
0.0
 10
829.4705462798552
 20
1667.353704232787
 30
0.0
 10
829.8515113809729
 20
1666.943346606037
 30
0.0
 10
830.2267108473912
 20
1666.635911750259
 30
0.0
 10
830.5315466617751
 20
1666.440336213437
 30
0.0
 10
830.8428411167617
 20
1666.293805343327
 30
0.0
 10
831.1299059287219
 20
1666.204389780918
 30
0.0
 10
831.4149438747568
 20
1666.160363685767
 30
0.0
 10
831.6838061179811
 20
1666.158229608486
 30
0.0
 10
831.9512255148281
 20
1666.195399167854
 30
0.0
 10
832.2424035429228
 20
1666.277231142793
 30
0.0
 10
832.5509575744286
 20
1666.414930815738
 30
0.0
 10
832.9209800370281
 20
1666.645717289865
 30
0.0
 10
833.3004769303017
 20
1666.966526480937
 30
0.0
 10
833.7095472882576
 20
1667.420216286026
 30
0.0
 10
834.0694473591894
 20
1667.961183761536
 30
0.0
 10
834.3370388035695
 20
1668.543506707623
 30
0.0
 10
834.411177018177
 20
1668.919038128104
 30
0.0
 10
834.4454716709671
 20
1669.092750426754
 30
0.0
  0
SPLINE
  5
121
330
1F
100
AcDbEntity
  8
0
  6
Continuous
 62
     7
370
    25
100
AcDbSpline
210
0.0
220
0.0
230
1.0
 70
     8
 71
     3
 72
    14
 73
    10
 74
     0
 42
0.000000001
 43
0.00000001
 40
0.0
 40
0.0
 40
0.0
 40
0.0
 40
0.1996459493462925
 40
0.4049915957704307
 40
0.6077353381762708
 40
0.7118014853057867
 40
0.8168241091226263
 40
0.9440115703823883
 40
1.0
 40
1.0
 40
1.0
 40
1.0
 10
838.9835753984071
 20
1668.81843884637
 30
0.0
 10
839.1968925444637
 20
1668.578764844252
 30
0.0
 10
839.6296168329834
 20
1668.092574381081
 30
0.0
 10
840.1477271521296
 20
1667.338053110131
 30
0.0
 10
840.4895030085702
 20
1666.703354813122
 30
0.0
 10
840.6956629667555
 20
1666.204987845692
 30
0.0
 10
840.8216806942461
 20
1665.814218016747
 30
0.0
 10
840.890319443507
 20
1665.496868190607
 30
0.0
 10
840.8955308755285
 20
1665.336578296592
 30
0.0
 10
840.8971237701695
 20
1665.287585061693
 30
0.0
  0
SPLINE
  5
122
330
1F
100
AcDbEntity
  8
0
  6
Continuous
 62
     7
370
    25
100
AcDbSpline
210
0.0
220
0.0
230
1.0
 70
     8
 71
     3
 72
    14
 73
    10
 74
     0
 42
0.000000001
 43
0.00000001
 40
0.0
 40
0.0
 40
0.0
 40
0.0
 40
0.220765348438307
 40
0.3402146168140888
 40
0.4605704991791176
 40
0.5641909618660997
 40
0.6633542991972022
 40
0.8105247403618681
 40
1.0
 40
1.0
 40
1.0
 40
1.0
 10
838.796461075437
 20
1668.858651471124
 30
0.0
 10
838.7557622799155
 20
1668.915084949131
 30
0.0
 10
838.693042631107
 20
1669.002052828063
 30
0.0
 10
838.6521012257309
 20
1669.079350893032
 30
0.0
 10
838.652780321698
 20
1669.105530003402
 30
0.0
 10
838.6868152275171
 20
1669.092901501023
 30
0.0
 10
838.7488627829207
 20
1669.047441892901
 30
0.0
 10
838.8492691039864
 20
1668.957968845052
 30
0.0
 10
838.9352068255505
 20
1668.868688664787
 30
0.0
 10
838.9835753984071
 20
1668.81843884637
 30
0.0
  0
SPLINE
  5
123
330
1F
100
AcDbEntity
  8
0
  6
Continuous
 62
     7
370
    25
100
AcDbSpline
210
0.0
220
0.0
230
1.0
 70
     8
 71
     3
 72
    24
 73
    20
 74
     0
 42
0.000000001
 43
0.00000001
 40
0.0
 40
0.0
 40
0.0
 40
0.0
 40
0.0863790768596617
 40
0.175254242707147
 40
0.2620842456789101
 40
0.3070649132850777
 40
0.3520190851009303
 40
0.4193200542314414
 40
0.4528774529345846
 40
0.4876252663406363
 40
0.5342920749946461
 40
0.5808562308579929
 40
0.6174647672988368
 40
0.6550630194695125
 40
0.7176552952223884
 40
0.7818848654491318
 40
0.8689583501259633
 40
0.9585482528059901
 40
1.0
 40
1.0
 40
1.0
 40
1.0
 10
835.2030820977135
 20
1669.075490666792
 30
0.0
 10
835.4014218210523
 20
1668.864631011663
 30
0.0
 10
835.8038326741919
 20
1668.436818507516
 30
0.0
 10
836.4614231078469
 20
1667.780692465216
 30
0.0
 10
837.0286833090624
 20
1667.235354590697
 30
0.0
 10
837.4877304775422
 20
1666.815796260576
 30
0.0
 10
837.8977047368384
 20
1666.462259056573
 30
0.0
 10
838.2802575854796
 20
1666.168049253247
 30
0.0
 10
838.6283368815463
 20
1665.964517830988
 30
0.0
 10
838.9119880150112
 20
1665.852176729024
 30
0.0
 10
839.1923006917332
 20
1665.839848970593
 30
0.0
 10
839.397980485039
 20
1665.964979874803
 30
0.0
 10
839.5238026157574
 20
1666.154931559191
 30
0.0
 10
839.6106956955862
 20
1666.417919893807
 30
0.0
 10
839.6387797767217
 20
1666.782372870038
 30
0.0
 10
839.5743946988144
 20
1667.292848494796
 30
0.0
 10
839.3810280897629
 20
1667.890610291531
 30
0.0
 10
839.095990597275
 20
1668.435873472844
 30
0.0
 10
838.8684407698915
 20
1668.757054036082
 30
0.0
 10
838.796461075437
 20
1668.858651471124
 30
0.0
  0
SPLINE
  5
124
330
1F
100
AcDbEntity
  8
0
  6
Continuous
 62
     7
370
    25
100
AcDbSpline
210
0.0
220
0.0
230
1.0
 70
     8
 71
     3
 72
    14
 73
    10
 74
     0
 42
0.000000001
 43
0.00000001
 40
0.0
 40
0.0
 40
0.0
 40
0.0
 40
0.2243030424882868
 40
0.3489011866266555
 40
0.4744001356117536
 40
0.5826741857065961
 40
0.6867417687947411
 40
0.838156487169633
 40
1.0
 40
1.0
 40
1.0
 40
1.0
 10
834.4454716709671
 20
1669.092750426754
 30
0.0
 10
834.4601172093824
 20
1669.147682428299
 30
0.0
 10
834.4828982010054
 20
1669.23312861891
 30
0.0
 10
834.5846828274109
 20
1669.308977702446
 30
0.0
 10
834.6933728689613
 20
1669.334658660754
 30
0.0
 10
834.8143408788186
 20
1669.321841386231
 30
0.0
 10
834.9446359326583
 20
1669.276430063129
 30
0.0
 10
835.0824526335804
 20
1669.194252371878
 30
0.0
 10
835.1619896444205
 20
1669.115946867558
 30
0.0
 10
835.2030820977135
 20
1669.075490666792
 30
0.0
  0
SPLINE
  5
125
330
1F
100
AcDbEntity
  8
0
  6
Continuous
 62
     7
370
    25
100
AcDbSpline
210
0.0
220
0.0
230
1.0
 70
     8
 71
     3
 72
    14
 73
    10
 74
     0
 42
0.000000001
 43
0.00000001
 40
0.0
 40
0.0
 40
0.0
 40
0.0
 40
0.2239799089305531
 40
0.3530600787849406
 40
0.4831615846560053
 40
0.5937368434043864
 40
0.6971871626480907
 40
0.8442013099709667
 40
1.0
 40
1.0
 40
1.0
 40
1.0
 10
827.9245288416522
 20
1669.075490666792
 30
0.0
 10
827.9831491943238
 20
1669.131337897096
 30
0.0
 10
828.0755525997515
 20
1669.219370022946
 30
0.0
 10
828.2425907833435
 20
1669.302218723056
 30
0.0
 10
828.3780220974486
 20
1669.333936079763
 30
0.0
 10
828.4924626782472
 20
1669.324895833851
 30
0.0
 10
828.5862817770227
 20
1669.282855156638
 30
0.0
 10
828.6563900059676
 20
1669.20548332356
 30
0.0
 10
828.673391774896
 20
1669.131047845368
 30
0.0
 10
828.6821392683986
 20
1669.092750426754
 30
0.0
  0
SPLINE
  5
126
330
1F
100
AcDbEntity
  8
0
  6
Continuous
 62
     7
370
    25
100
AcDbSpline
210
0.0
220
0.0
230
1.0
 70
     8
 71
     3
 72
    24
 73
    20
 74
     0
 42
0.000000001
 43
0.00000001
 40
0.0
 40
0.0
 40
0.0
 40
0.0
 40
0.0875562630610312
 40
0.1776478778994356
 40
0.2471757028850855
 40
0.3182848495519416
 40
0.3544514774164555
 40
0.3911558340110753
 40
0.4196735717850663
 40
0.4488792169076931
 40
0.4956340312872252
 40
0.5423649618835422
 40
0.5763627331264958
 40
0.6112927856933146
 40
0.6689340598446845
 40
0.7280698917726424
 40
0.8133417532352671
 40
0.901057072756078
 40
1.0
 40
1.0
 40
1.0
 40
1.0
 10
824.3311498639291
 20
1668.858651471124
 30
0.0
 10
824.1850757828267
 20
1668.642897021356
 30
0.0
 10
823.8886977783673
 20
1668.205140557015
 30
0.0
 10
823.6356250511187
 20
1667.586412134635
 30
0.0
 10
823.5060064293317
 20
1667.023003077073
 30
0.0
 10
823.4936123397713
 20
1666.612461939526
 30
0.0
 10
823.5476600799994
 20
1666.311247262687
 30
0.0
 10
823.6215891972902
 20
1666.123572778839
 30
0.0
 10
823.7256775127413
 20
1665.981322886288
 30
0.0
 10
823.8790388131887
 20
1665.868344857896
 30
0.0
 10
824.1235041360657
 20
1665.829727380823
 30
0.0
 10
824.4338447680145
 20
1665.92996532082
 30
0.0
 10
824.7296287560761
 20
1666.096884020312
 30
0.0
 10
825.0587973720613
 20
1666.326939400804
 30
0.0
 10
825.4556323685734
 20
1666.651886601954
 30
0.0
 10
825.981714024019
 20
1667.124541351238
 30
0.0
 10
826.5796250240074
 20
1667.696103434248
 30
0.0
 10
827.2658368412527
 20
1668.376937259181
 30
0.0
 10
827.6963332997469
 20
1668.83348564274
 30
0.0
 10
827.9245288416522
 20
1669.075490666792
 30
0.0
  0
SPLINE
  5
127
330
1F
100
AcDbEntity
  8
0
  6
Continuous
 62
     7
370
    25
100
AcDbSpline
210
0.0
220
0.0
230
1.0
 70
     8
 71
     3
 72
    14
 73
    10
 74
     0
 42
0.000000001
 43
0.00000001
 40
0.0
 40
0.0
 40
0.0
 40
0.0
 40
0.2200911109485839
 40
0.3501199592092674
 40
0.4590676183976911
 40
0.5685351145661591
 40
0.6668402217389687
 40
0.7968948941936455
 40
1.0
 40
1.0
 40
1.0
 40
1.0
 10
824.1440355409591
 20
1668.81843884637
 30
0.0
 10
824.2004429648239
 20
1668.876809044019
 30
0.0
 10
824.2901756435203
 20
1668.96966409451
 30
0.0
 10
824.3924426112151
 20
1669.058510830924
 30
0.0
 10
824.4507153252273
 20
1669.098972219418
 30
0.0
 10
824.4766617526531
 20
1669.102642840539
 30
0.0
 10
824.4720998242154
 20
1669.071669269718
 30
0.0
 10
824.430226519607
 20
1668.995752166484
 30
0.0
 10
824.3686741830337
 20
1668.910577025201
 30
0.0
 10
824.3311498639291
 20
1668.858651471124
 30
0.0
  0
SPLINE
  5
128
330
1F
100
AcDbEntity
  8
0
  6
Continuous
 62
     7
370
    25
100
AcDbSpline
210
0.0
220
0.0
230
1.0
 70
     8
 71
     3
 72
    14
 73
    10
 74
     0
 42
0.000000001
 43
0.00000001
 40
0.0
 40
0.0
 40
0.0
 40
0.0
 40
0.0318468616334098
 40
0.1382021891221615
 40
0.2470909675485246
 40
0.4405387664055916
 40
0.6393220179585516
 40
0.8177164190617449
 40
1.0
 40
1.0
 40
1.0
 40
1.0
 10
822.2318941343984
 20
1665.290144914068
 30
0.0
 10
822.231597524751
 20
1665.316417421079
 30
0.0
 10
822.2303103617309
 20
1665.430429219934
 30
0.0
 10
822.277231533928
 20
1665.692985831346
 30
0.0
 10
822.4074088326541
 20
1666.156275019478
 30
0.0
 10
822.6626910143088
 20
1666.767901355249
 30
0.0
 10
823.0692039621357
 20
1667.475381948787
 30
0.0
 10
823.5620388077842
 20
1668.167642910736
 30
0.0
 10
823.9486470349381
 20
1668.599953005574
 30
0.0
 10
824.1440355409591
 20
1668.81843884637
 30
0.0
  0
LINE
  5
129
330
1F
100
AcDbEntity
  8
0
  6
Continuous
 62
     8
370
    18
100
AcDbLine
 10
1694.5638054697
 20
1657.1797945543
 30
0.0
 11
1694.5638054697
 21
1667.1797945543
 31
0.0
  0
LINE
  5
12A
330
1F
100
AcDbEntity
  8
0
  6
Continuous
 62
     8
370
    18
100
AcDbLine
 10
768.5638054697
 20
1667.1797945543
 30
0.0
 11
768.5638054697
 21
1657.1797945543
 31
0.0
  0
LINE
  5
12B
330
1F
100
AcDbEntity
  8
0
  6
Continuous
 62
     8
370
    18
100
AcDbLine
 10
1622.2291901431
 20
1624.6797945543
 30
0.0
 11
840.8984207963
 21
1624.6797945543
 31
0.0
  0
LINE
  5
12C
330
1F
100
AcDbEntity
  8
0
  6
Continuous
 62
     8
370
    18
100
AcDbLine
 10
1622.2291901431
 20
1654.6797945543
 30
0.0
 11
840.8984207963
 21
1654.6797945543
 31
0.0
  0
LINE
  5
12D
330
1F
100
AcDbEntity
  8
0
  6
Continuous
 62
     8
370
    18
100
AcDbLine
 10
822.0638054697
 20
1229.1797945501
 30
0.0
 11
841.0638054697
 21
1229.1797945501
 31
0.0
  0
LINE
  5
12E
330
1F
100
AcDbEntity
  8
0
  6
Continuous
 62
     8
370
    18
100
AcDbLine
 10
1622.0638054697
 20
1229.1797945501
 30
0.0
 11
1641.0638054697
 21
1229.1797945501
 31
0.0
  0
LINE
  5
12F
330
1F
100
AcDbEntity
  8
0
  6
Continuous
 62
     8
370
    18
100
AcDbLine
 10
1634.445471671
 20
1669.0927504268
 30
0.0
 11
1634.445471671
 21
1232.1797945501
 31
0.0
  0
LINE
  5
130
330
1F
100
AcDbEntity
  8
0
  6
Continuous
 62
     8
370
    18
100
AcDbLine
 10
1628.6821392684
 20
1669.0927504268
 30
0.0
 11
1628.6821392684
 21
1232.1797945501
 31
0.0
  0
LINE
  5
131
330
1F
100
AcDbEntity
  8
0
  6
Continuous
 62
     8
370
    18
100
AcDbLine
 10
1627.9245288417
 20
1669.0754906668
 30
0.0
 11
1627.9245288417
 21
1232.1797945501
 31
0.0
  0
LINE
  5
132
330
1F
100
AcDbEntity
  8
0
  6
Continuous
 62
     8
370
    18
100
AcDbLine
 10
1635.2030820977
 20
1669.0754906668
 30
0.0
 11
1635.2030820977
 21
1232.1797945501
 31
0.0
  0
LINE
  5
133
330
1F
100
AcDbEntity
  8
0
  6
Continuous
 62
     8
370
    18
100
AcDbLine
 10
1638.9835753984
 20
1668.8184388464
 30
0.0
 11
1638.9835753984
 21
1668.586899126
 31
0.0
  0
LINE
  5
134
330
1F
100
AcDbEntity
  8
0
  6
Continuous
 62
     8
370
    18
100
AcDbLine
 10
1624.144035541
 20
1668.8184388464
 30
0.0
 11
1624.144035541
 21
1668.5627836358
 31
0.0
  0
LINE
  5
135
330
1F
100
AcDbEntity
  8
0
  6
Continuous
 62
     8
370
    18
100
AcDbLine
 10
834.445471671
 20
1669.0927504268
 30
0.0
 11
834.445471671
 21
1232.1797945501
 31
0.0
  0
LINE
  5
136
330
1F
100
AcDbEntity
  8
0
  6
Continuous
 62
     8
370
    18
100
AcDbLine
 10
828.6821392684
 20
1669.0927504268
 30
0.0
 11
828.6821392684
 21
1232.1797945501
 31
0.0
  0
LINE
  5
137
330
1F
100
AcDbEntity
  8
0
  6
Continuous
 62
     8
370
    18
100
AcDbLine
 10
827.9245288417
 20
1669.0754906668
 30
0.0
 11
827.9245288417
 21
1232.1797945501
 31
0.0
  0
LINE
  5
138
330
1F
100
AcDbEntity
  8
0
  6
Continuous
 62
     8
370
    18
100
AcDbLine
 10
835.2030820977
 20
1669.0754906668
 30
0.0
 11
835.2030820977
 21
1232.1797945501
 31
0.0
  0
LINE
  5
139
330
1F
100
AcDbEntity
  8
0
  6
Continuous
 62
     8
370
    18
100
AcDbLine
 10
838.9835753984
 20
1668.8184388464
 30
0.0
 11
838.9835753984
 21
1668.586899126
 31
0.0
  0
LINE
  5
13A
330
1F
100
AcDbEntity
  8
0
  6
Continuous
 62
     8
370
    18
100
AcDbLine
 10
824.144035541
 20
1668.8184388464
 30
0.0
 11
824.144035541
 21
1668.5627836358
 31
0.0
  0
ARC
  5
13B
330
1F
100
AcDbEntity
  8
0
  6
Continuous
 62
     7
370
    25
100
AcDbCircle
 10
2175.7142065099
 20
1229.1797945501
 30
0.0
 40
5.0
100
AcDbArc
 50
180.0
 51
270.0
  0
ARC
  5
13C
330
1F
100
AcDbEntity
  8
0
  6
Continuous
 62
     7
370
    25
100
AcDbCircle
 10
2184.7142065099
 20
1229.1797945501
 30
0.0
 40
5.0
100
AcDbArc
 50
270.0
 51
0.0
  0
LINE
  5
13D
330
1F
100
AcDbEntity
  8
0
  6
Continuous
 62
     7
370
    25
100
AcDbLine
 10
2189.7142065099
 20
1229.1797945501
 30
0.0
 11
2189.7142065099
 21
1232.1797945501
 31
0.0
  0
LINE
  5
13E
330
1F
100
AcDbEntity
  8
0
  6
Continuous
 62
     7
370
    25
100
AcDbLine
 10
2170.7142065099
 20
1232.1797945501
 30
0.0
 11
2170.7142065099
 21
1229.1797945501
 31
0.0
  0
LINE
  5
13F
330
1F
100
AcDbEntity
  8
0
  6
Continuous
 62
     7
370
    25
100
AcDbLine
 10
1921.0096764748
 20
1229.1797945501
 30
0.0
 11
1921.0096764748
 21
1232.1797945501
 31
0.0
  0
LINE
  5
140
330
1F
100
AcDbEntity
  8
0
  6
Continuous
 62
     7
370
    25
100
AcDbLine
 10
1902.0096764748
 20
1232.1797945501
 30
0.0
 11
1902.0096764748
 21
1229.1797945501
 31
0.0
  0
ARC
  5
141
330
1F
100
AcDbEntity
  8
0
  6
Continuous
 62
     7
370
    25
100
AcDbCircle
 10
1907.0096764748
 20
1229.1797945501
 30
0.0
 40
5.0
100
AcDbArc
 50
180.0
 51
270.0
  0
ARC
  5
142
330
1F
100
AcDbEntity
  8
0
  6
Continuous
 62
     7
370
    25
100
AcDbCircle
 10
1916.0096764748
 20
1229.1797945501
 30
0.0
 40
5.0
100
AcDbArc
 50
270.0
 51
0.0
  0
LINE
  5
143
330
1F
100
AcDbEntity
  8
0
  6
Continuous
 62
     7
370
    25
100
AcDbLine
 10
2175.8427431662
 20
1668.2223890308
 30
0.0
 11
2175.8427431662
 21
1656.7297437691
 31
0.0
  0
LINE
  5
144
330
1F
100
AcDbEntity
  8
0
  6
Continuous
 62
     7
370
    25
100
AcDbLine
 10
2175.8427431662
 20
1622.6298453396
 30
0.0
 11
2175.8427431662
 21
1232.1797945501
 31
0.0
  0
ARC
  5
145
330
1F
100
AcDbEntity
  8
0
  6
Continuous
 62
     7
370
    25
100
AcDbCircle
 10
2180.5408293177
 20
1662.1797945501
 30
0.0
 40
10.00000000000002
100
AcDbArc
 50
23.4946787187
 51
139.6004781521
  0
LINE
  5
146
330
1F
100
AcDbEntity
  8
0
  6
Continuous
 62
     7
370
    25
100
AcDbLine
 10
2187.2306073534
 20
1232.1797945501
 30
0.0
 11
2187.2306073534
 21
1667.5361916109
 31
0.0
  0
LINE
  5
147
330
1F
100
AcDbEntity
  8
0
  6
Continuous
 62
     7
370
    25
100
AcDbLine
 10
2171.3674521254
 20
1664.9496464912
 30
0.0
 11
2171.3674521254
 21
1657.1797945543
 31
0.0
  0
LINE
  5
148
330
1F
100
AcDbEntity
  8
0
  6
Continuous
 62
     7
370
    25
100
AcDbLine
 10
2171.3674521254
 20
1622.1797945543
 30
0.0
 11
2171.3674521254
 21
1232.1797945501
 31
0.0
  0
LINE
  5
149
330
1F
100
AcDbEntity
  8
0
  6
Continuous
 62
     7
370
    25
100
AcDbLine
 10
2189.7142065099
 20
1232.1797945501
 30
0.0
 11
2189.7142065099
 21
1666.1658711787
 31
0.0
  0
ARC
  5
14A
330
1F
100
AcDbEntity
  8
0
  6
Continuous
 62
     7
370
    25
100
AcDbCircle
 10
1911.183053667
 20
1662.1797945501
 30
0.0
 40
10.00000000000017
100
AcDbArc
 50
40.4016793355
 51
156.5072734616
  0
LINE
  5
14B
330
1F
100
AcDbEntity
  8
0
  6
Continuous
 62
     7
370
    25
100
AcDbLine
 10
1915.8811398185
 20
1232.1797945501
 30
0.0
 11
1915.8811398185
 21
1622.6298453396
 31
0.0
  0
LINE
  5
14C
330
1F
100
AcDbEntity
  8
0
  6
Continuous
 62
     7
370
    25
100
AcDbLine
 10
1915.8811398185
 20
1656.7297437691
 30
0.0
 11
1915.8811398185
 21
1668.2233384848
 31
0.0
  0
LINE
  5
14D
330
1F
100
AcDbEntity
  8
0
  6
Continuous
 62
     7
370
    25
100
AcDbLine
 10
1904.4932756313
 20
1667.5366876416
 30
0.0
 11
1904.4932756313
 21
1232.1797945501
 31
0.0
  0
LINE
  5
14E
330
1F
100
AcDbEntity
  8
0
  6
Continuous
 62
     7
370
    25
100
AcDbLine
 10
1920.3564308592
 20
1232.1797945501
 30
0.0
 11
1920.3564308592
 21
1622.1797945543
 31
0.0
  0
LINE
  5
14F
330
1F
100
AcDbEntity
  8
0
  6
Continuous
 62
     7
370
    25
100
AcDbLine
 10
1920.3564308592
 20
1657.1797945543
 30
0.0
 11
1920.3564308592
 21
1664.9526183431
 31
0.0
  0
LINE
  5
150
330
1F
100
AcDbEntity
  8
0
  6
Continuous
 62
     7
370
    25
100
AcDbLine
 10
1902.0096764748
 20
1666.1658711787
 30
0.0
 11
1902.0096764748
 21
1232.1797945501
 31
0.0
  0
LINE
  5
151
330
1F
100
AcDbEntity
  8
0
  6
Continuous
 62
     7
370
    25
100
AcDbLine
 10
1920.8619414923
 20
1657.1797945543
 30
0.0
 11
1920.8619414923
 21
1667.1797945543
 31
0.0
  0
LINE
  5
152
330
1F
100
AcDbEntity
  8
0
  6
Continuous
 62
     7
370
    25
100
AcDbLine
 10
1920.8619414923
 20
1667.1797945543
 30
0.0
 11
1957.8619414923
 21
1667.1797945543
 31
0.0
  0
LINE
  5
153
330
1F
100
AcDbEntity
  8
0
  6
Continuous
 62
     7
370
    25
100
AcDbLine
 10
1957.8619414923
 20
1657.1797945543
 30
0.0
 11
1920.8619414923
 21
1657.1797945543
 31
0.0
  0
LINE
  5
154
330
1F
100
AcDbEntity
  8
0
  6
Continuous
 62
     7
370
    25
100
AcDbLine
 10
2133.8619414923
 20
1667.1797945543
 30
0.0
 11
1957.8619414923
 21
1667.1797945543
 31
0.0
  0
LINE
  5
155
330
1F
100
AcDbEntity
  8
0
  6
Continuous
 62
     7
370
    25
100
AcDbLine
 10
2133.8619414923
 20
1657.1797945543
 30
0.0
 11
1957.8619414923
 21
1657.1797945543
 31
0.0
  0
LINE
  5
156
330
1F
100
AcDbEntity
  8
0
  6
Continuous
 62
     7
370
    25
100
AcDbLine
 10
2170.8619414923
 20
1667.1797945543
 30
0.0
 11
2170.8619414923
 21
1657.1797945543
 31
0.0
  0
LINE
  5
157
330
1F
100
AcDbEntity
  8
0
  6
Continuous
 62
     7
370
    25
100
AcDbLine
 10
2133.8619414923
 20
1667.1797945543
 30
0.0
 11
2170.8619414923
 21
1667.1797945543
 31
0.0
  0
LINE
  5
158
330
1F
100
AcDbEntity
  8
0
  6
Continuous
 62
     7
370
    25
100
AcDbLine
 10
2170.8619414923
 20
1657.1797945543
 30
0.0
 11
2133.8619414923
 21
1657.1797945543
 31
0.0
  0
LINE
  5
159
330
1F
100
AcDbEntity
  8
0
  6
Continuous
 62
     7
370
    25
100
AcDbLine
 10
2176.0419414923
 20
1624.6797945543
 30
0.0
 11
2176.0419414923
 21
1624.4456837061
 31
0.0
  0
LINE
  5
15A
330
1F
100
AcDbEntity
  8
0
  6
Continuous
 62
     7
370
    25
100
AcDbLine
 10
2172.3063251687
 20
1622.1797945543
 30
0.0
 11
1919.41933882
 21
1622.1797945543
 31
0.0
  0
LINE
  5
15B
330
1F
100
AcDbEntity
  8
0
  6
Continuous
 62
     7
370
    25
100
AcDbLine
 10
1915.6819414923
 20
1624.6797945543
 30
0.0
 11
1915.6819414923
 21
1624.4470063657
 31
0.0
  0
LINE
  5
15C
330
1F
100
AcDbEntity
  8
0
  6
Continuous
 62
     7
370
    25
100
AcDbLine
 10
2176.0419414923
 20
1654.6797945543
 30
0.0
 11
2176.0419414923
 21
1624.6797945543
 31
0.0
  0
LINE
  5
15D
330
1F
100
AcDbEntity
  8
0
  6
Continuous
 62
     7
370
    25
100
AcDbLine
 10
1915.6819414923
 20
1654.6797945543
 30
0.0
 11
1915.6819414923
 21
1624.6797945543
 31
0.0
  0
LINE
  5
15E
330
1F
100
AcDbEntity
  8
0
  6
Continuous
 62
     7
370
    25
100
AcDbLine
 10
2172.3063251687
 20
1657.1797945543
 30
0.0
 11
2170.8619414923
 21
1657.1797945543
 31
0.0
  0
LINE
  5
15F
330
1F
100
AcDbEntity
  8
0
  6
Continuous
 62
     7
370
    25
100
AcDbLine
 10
1920.8619414923
 20
1657.1797945543
 30
0.0
 11
1919.41933882
 21
1657.1797945543
 31
0.0
  0
LINE
  5
160
330
1F
100
AcDbEntity
  8
0
  6
Continuous
 62
     7
370
    25
100
AcDbLine
 10
2176.0419414923
 20
1654.9139054026
 30
0.0
 11
2176.0419414923
 21
1654.6797945543
 31
0.0
  0
LINE
  5
161
330
1F
100
AcDbEntity
  8
0
  6
Continuous
 62
     7
370
    25
100
AcDbLine
 10
1915.6819414923
 20
1654.912582743
 30
0.0
 11
1915.6819414923
 21
1654.6797945543
 31
0.0
  0
LINE
  5
162
330
1F
100
AcDbEntity
  8
0
  6
Continuous
 62
     7
370
    25
100
AcDbLine
 10
1919.41933882
 20
1622.1797945543
 30
0.0
 11
1919.4175578159
 21
1622.1797945543
 31
0.0
  0
LINE
  5
163
330
1F
100
AcDbEntity
  8
0
  6
Continuous
 62
     7
370
    25
100
AcDbLine
 10
1919.41933882
 20
1657.1797945543
 30
0.0
 11
1919.4175578159
 21
1657.1797945543
 31
0.0
  0
LINE
  5
164
330
1F
100
AcDbEntity
  8
0
  6
Continuous
 62
     7
370
    25
100
AcDbLine
 10
2184.7142065099
 20
1224.1797945501
 30
0.0
 11
2175.7142065099
 21
1224.1797945501
 31
0.0
  0
LINE
  5
165
330
1F
100
AcDbEntity
  8
0
  6
Continuous
 62
     7
370
    25
100
AcDbLine
 10
2180.2142065099
 20
1232.1797945501
 30
0.0
 11
2170.7142065099
 21
1232.1797945501
 31
0.0
  0
LINE
  5
166
330
1F
100
AcDbEntity
  8
0
  6
Continuous
 62
     7
370
    25
100
AcDbLine
 10
2189.7142065099
 20
1232.1797945501
 30
0.0
 11
2180.2142065099
 21
1232.1797945501
 31
0.0
  0
LINE
  5
167
330
1F
100
AcDbEntity
  8
0
  6
Continuous
 62
     7
370
    25
100
AcDbLine
 10
1921.0096764748
 20
1232.1797945501
 30
0.0
 11
1902.0096764748
 21
1232.1797945501
 31
0.0
  0
LINE
  5
168
330
1F
100
AcDbEntity
  8
0
  6
Continuous
 62
     7
370
    25
100
AcDbLine
 10
1911.5096764748
 20
1224.1797945501
 30
0.0
 11
1907.0096764748
 21
1224.1797945501
 31
0.0
  0
LINE
  5
169
330
1F
100
AcDbEntity
  8
0
  6
Continuous
 62
     7
370
    25
100
AcDbLine
 10
1916.0096764748
 20
1224.1797945501
 30
0.0
 11
1911.5096764748
 21
1224.1797945501
 31
0.0
  0
SPLINE
  5
16A
330
1F
100
AcDbEntity
  8
0
  6
Continuous
 62
     7
370
    25
100
AcDbSpline
210
0.0
220
0.0
230
1.0
 70
     8
 71
     3
 72
    27
 73
    23
 74
     0
 42
0.000000001
 43
0.00000001
 40
0.0
 40
0.0
 40
0.0
 40
0.0
 40
0.091068347180393
 40
0.1847464164709021
 40
0.2588266946055631
 40
0.3345190598259236
 40
0.3626447427195154
 40
0.3910056482847379
 40
0.4191743039829841
 40
0.4481203606979578
 40
0.4657704782447487
 40
0.4839081706433137
 40
0.5015721548764622
 40
0.5197440214872896
 40
0.5448446854435497
 40
0.5706253690117588
 40
0.6177938154944728
 40
0.6660858441031502
 40
0.7518796859636201
 40
0.8400397940083008
 40
0.9191574739584818
 40
1.0
 40
1.0
 40
1.0
 40
1.0
 10
2175.857632432725
 20
1668.535982060033
 30
0.0
 10
2175.850647479271
 20
1668.286293773519
 30
0.0
 10
2175.836477406355
 20
1667.779761947736
 30
0.0
 10
2176.019028945921
 20
1667.052749722215
 30
0.0
 10
2176.307662024817
 20
1666.378613900892
 30
0.0
 10
2176.609700475941
 20
1665.903260577447
 30
0.0
 10
2176.89098349221
 20
1665.579611058673
 30
0.0
 10
2177.094970647371
 20
1665.388344394247
 30
0.0
 10
2177.3291223646
 20
1665.220670301416
 30
0.0
 10
2177.563573595398
 20
1665.110252067155
 30
0.0
 10
2177.786003128269
 20
1665.05533958783
 30
0.0
 10
2177.9789098802
 20
1665.041066001554
 30
0.0
 10
2178.177027362106
 20
1665.060173315232
 30
0.0
 10
2178.397720787587
 20
1665.116559009349
 30
0.0
 10
2178.637699386413
 20
1665.219195018882
 30
0.0
 10
2178.956410778278
 20
1665.408265959903
 30
0.0
 10
2179.31563929898
 20
1665.691063015081
 30
0.0
 10
2179.798891839121
 20
1666.157258211424
 30
0.0
 10
2180.32085428041
 20
1666.767567375684
 30
0.0
 10
2180.819399821356
 20
1667.475461722966
 30
0.0
 10
2181.221964510379
 20
1668.167623386898
 30
0.0
 10
2181.391024553121
 20
1668.599946451013
 30
0.0
 10
2181.47646605917
 20
1668.81843884637
 30
0.0
  0
SPLINE
  5
16B
330
1F
100
AcDbEntity
  8
0
  6
Continuous
 62
     7
370
    25
100
AcDbSpline
210
0.0
220
0.0
230
1.0
 70
     8
 71
     3
 72
    17
 73
    13
 74
     0
 42
0.000000001
 43
0.00000001
 40
0.0
 40
0.0
 40
0.0
 40
0.0
 40
0.1708550783216553
 40
0.3466610848206335
 40
0.4897116108770111
 40
0.636255416812182
 40
0.7155600503259576
 40
0.7961820832741604
 40
0.8575506933770125
 40
0.9204111098865587
 40
0.9711546513660811
 40
0.9999999999999999
 40
0.9999999999999999
 40
0.9999999999999999
 40
0.9999999999999999
 10
2187.167068141579
 20
1669.092750426754
 30
0.0
 10
2187.383134987972
 20
1668.891783032571
 30
0.0
 10
2187.821529726368
 20
1668.484024740776
 30
0.0
 10
2188.378638727087
 20
1667.897945068703
 30
0.0
 10
2188.85012835604
 20
1667.35369715212
 30
0.0
 10
2189.171919850778
 20
1666.943368641892
 30
0.0
 10
2189.396001765226
 20
1666.635869846908
 30
0.0
 10
2189.531204516819
 20
1666.440482394875
 30
0.0
 10
2189.629014785598
 20
1666.293398246673
 30
0.0
 10
2189.685619119992
 20
1666.205836471323
 30
0.0
 10
2189.712826632783
 20
1666.16307009417
 30
0.0
 10
2189.711517992301
 20
1666.165126306557
 30
0.0
 10
2189.711043702599
 20
1666.165871538248
 30
0.0
  0
SPLINE
  5
16C
330
1F
100
AcDbEntity
  8
0
  6
Continuous
 62
     7
370
    25
100
AcDbSpline
210
0.0
220
0.0
230
1.0
 70
     8
 71
     3
 72
    14
 73
    10
 74
     0
 42
0.000000001
 43
0.00000001
 40
0.0
 40
0.0
 40
0.0
 40
0.0
 40
0.2239799089305531
 40
0.3530600787849406
 40
0.4831615846560053
 40
0.5937368434043864
 40
0.6971871626480907
 40
0.8442013099709667
 40
1.0
 40
1.0
 40
1.0
 40
1.0
 10
2186.802222189114
 20
1669.075490666792
 30
0.0
 10
2186.773804182346
 20
1669.131337897096
 30
0.0
 10
2186.729008808706
 20
1669.219370022946
 30
0.0
 10
2186.725283605344
 20
1669.302218723056
 30
0.0
 10
2186.759800298885
 20
1669.333936079763
 30
0.0
 10
2186.82728179272
 20
1669.324895833851
 30
0.0
 10
2186.919497634392
 20
1669.282855156638
 30
0.0
 10
2187.036927451149
 20
1669.20548332356
 30
0.0
 10
2187.122856978366
 20
1669.131047845368
 30
0.0
 10
2187.167068141579
 20
1669.092750426754
 30
0.0
  0
SPLINE
  5
16D
330
1F
100
AcDbEntity
  8
0
  6
Continuous
 62
     7
370
    25
100
AcDbSpline
210
0.0
220
0.0
230
1.0
 70
     8
 71
     3
 72
    24
 73
    20
 74
     0
 42
0.000000001
 43
0.00000001
 40
0.0
 40
0.0
 40
0.0
 40
0.0
 40
0.0875562630610312
 40
0.1776478778994356
 40
0.2471757028850855
 40
0.3182848495519436
 40
0.3544514774164575
 40
0.3911558340110772
 40
0.4196735717850661
 40
0.4488792169076928
 40
0.4956340312872249
 40
0.542364961883542
 40
0.5763627331264956
 40
0.6112927856933144
 40
0.6689340598446842
 40
0.7280698917726421
 40
0.8133417532352669
 40
0.901057072756078
 40
1.0
 40
1.0
 40
1.0
 40
1.0
 10
2182.296267472858
 20
1668.858651471124
 30
0.0
 10
2182.467356205296
 20
1668.642897021357
 30
0.0
 10
2182.814487857419
 20
1668.205140557015
 30
0.0
 10
2183.39395294893
 20
1667.586412134635
 30
0.0
 10
2183.977004886664
 20
1667.023003077073
 30
0.0
 10
2184.456981759892
 20
1666.612461939526
 30
0.0
 10
2184.867837836067
 20
1666.311247262687
 30
0.0
 10
2185.1677641974
 20
1666.123572778839
 30
0.0
 10
2185.454457586072
 20
1665.981322886288
 30
0.0
 10
2185.774897354792
 20
1665.868344857897
 30
0.0
 10
2186.144873917617
 20
1665.829727380823
 30
0.0
 10
2186.47066821505
 20
1665.92996532082
 30
0.0
 10
2186.704878460248
 20
1666.096884020312
 30
0.0
 10
2186.910244356148
 20
1666.326939400805
 30
0.0
 10
2187.084509409846
 20
1666.651886601954
 30
0.0
 10
2187.218671393827
 20
1667.124541351238
 30
0.0
 10
2187.248513065298
 20
1667.696103434248
 30
0.0
 10
2187.139470536081
 20
1668.376937259181
 30
0.0
 10
2186.919057628509
 20
1668.83348564274
 30
0.0
 10
2186.802222189114
 20
1669.075490666792
 30
0.0
  0
SPLINE
  5
16E
330
1F
100
AcDbEntity
  8
0
  6
Continuous
 62
     7
370
    25
100
AcDbSpline
210
0.0
220
0.0
230
1.0
 70
     8
 71
     3
 72
    14
 73
    10
 74
     0
 42
0.000000001
 43
0.00000001
 40
0.0
 40
0.0
 40
0.0
 40
0.0
 40
0.2200911109485839
 40
0.3501199592092674
 40
0.4590676183976911
 40
0.5685351145661591
 40
0.6668402217389687
 40
0.7968948941936455
 40
1.0
 40
1.0
 40
1.0
 40
1.0
 10
2181.47646605917
 20
1668.81843884637
 30
0.0
 10
2181.503109380957
 20
1668.876809044019
 30
0.0
 10
2181.54549345861
 20
1668.96966409451
 30
0.0
 10
2181.663684873335
 20
1669.058510830924
 30
0.0
 10
2181.779564964567
 20
1669.098972219418
 30
0.0
 10
2181.901550806545
 20
1669.102642840539
 30
0.0
 10
2182.029215494252
 20
1669.071669269718
 30
0.0
 10
2182.175017148646
 20
1668.995752166484
 30
0.0
 10
2182.250345092595
 20
1668.910577025201
 30
0.0
 10
2182.296267472858
 20
1668.858651471124
 30
0.0
  0
SPLINE
  5
16F
330
1F
100
AcDbEntity
  8
0
  6
Continuous
 62
     7
370
    25
100
AcDbSpline
210
0.0
220
0.0
230
1.0
 70
     8
 71
     3
 72
    15
 73
    11
 74
     0
 42
0.000000001
 43
0.00000001
 40
0.0
 40
0.0
 40
0.0
 40
0.0
 40
0.2150763736126738
 40
0.3413349926978222
 40
0.446593490352974
 40
0.5524796219272535
 40
0.6449070621726983
 40
0.7662146539024285
 40
0.9406316560516657
 40
1.0
 40
1.0
 40
1.0
 40
1.0
 10
2175.200202743223
 20
1668.50210873078
 30
0.0
 10
2175.258383004957
 20
1668.562751709882
 30
0.0
 10
2175.350717457507
 20
1668.65899459552
 30
0.0
 10
2175.499781990981
 20
1668.753809663645
 30
0.0
 10
2175.616135132344
 20
1668.79919966628
 30
0.0
 10
2175.712854169893
 20
1668.806365552256
 30
0.0
 10
2175.790513078903
 20
1668.777988893328
 30
0.0
 10
2175.848102170207
 20
1668.7075024433
 30
0.0
 10
2175.863409016576
 20
1668.617638321108
 30
0.0
 10
2175.858802283996
 20
1668.552518768107
 30
0.0
 10
2175.857632432725
 20
1668.535982060033
 30
0.0
  0
SPLINE
  5
170
330
1F
100
AcDbEntity
  8
0
  6
Continuous
 62
     7
370
    25
100
AcDbSpline
210
0.0
220
0.0
230
1.0
 70
     8
 71
     3
 72
    26
 73
    22
 74
     0
 42
0.000000001
 43
0.00000001
 40
0.0
 40
0.0
 40
0.0
 40
0.0
 40
0.0912035599485244
 40
0.1849670362499695
 40
0.2785634207445228
 40
0.3265394520589588
 40
0.3749439889045985
 40
0.4231405593180557
 40
0.4430841889857747
 40
0.4634373414447631
 40
0.4878409265543382
 40
0.5123587387506972
 40
0.5280992736585298
 40
0.5442699367721624
 40
0.5755700365325684
 40
0.6075525397506825
 40
0.683442401457062
 40
0.7611024134337999
 40
0.8469107031299032
 40
0.9346000221708236
 40
0.9999999999999999
 40
0.9999999999999999
 40
0.9999999999999999
 40
0.9999999999999999
 10
2172.699586530618
 20
1668.371574586744
 30
0.0
 10
2172.504122804925
 20
1668.094875543997
 30
0.0
 10
2172.107709045899
 20
1667.533711024772
 30
0.0
 10
2171.697425400451
 20
1666.659154051748
 30
0.0
 10
2171.473789787047
 20
1665.917876064166
 30
0.0
 10
2171.380873461922
 20
1665.330546268855
 30
0.0
 10
2171.3582368606
 20
1664.897909264691
 30
0.0
 10
2171.38600331786
 20
1664.573208787268
 30
0.0
 10
2171.443023165251
 20
1664.366485112022
 30
0.0
 10
2171.504499359083
 20
1664.24489780521
 30
0.0
 10
2171.600464083866
 20
1664.174576628966
 30
0.0
 10
2171.718699587484
 20
1664.204672773084
 30
0.0
 10
2171.829232736231
 20
1664.286625952409
 30
0.0
 10
2171.956152145851
 20
1664.411600848363
 30
0.0
 10
2172.118534031832
 20
1664.609088109746
 30
0.0
 10
2172.408028740395
 20
1664.997063298912
 30
0.0
 10
2172.812707883717
 20
1665.562963920928
 30
0.0
 10
2173.374578577958
 20
1666.312757286479
 30
0.0
 10
2174.003439703542
 20
1667.102789223749
 30
0.0
 10
2174.628837893683
 20
1667.84603424712
 30
0.0
 10
2175.029177192684
 20
1668.305727207043
 30
0.0
 10
2175.200202743223
 20
1668.50210873078
 30
0.0
  0
SPLINE
  5
171
330
1F
100
AcDbEntity
  8
0
  6
Continuous
 62
     7
370
    25
100
AcDbSpline
210
0.0
220
0.0
230
1.0
 70
     8
 71
     3
 72
    15
 73
    11
 74
     0
 42
0.000000001
 43
0.00000001
 40
0.0
 40
0.0
 40
0.0
 40
0.0
 40
0.0462061431347029
 40
0.1920875508919159
 40
0.3147190160261635
 40
0.4380557829463963
 40
0.5463362450775283
 40
0.6917557243456175
 40
0.904499161506667
 40
1.0
 40
1.0
 40
1.0
 40
1.0
 10
2172.809586323302
 20
1668.513698412757
 30
0.0
 10
2172.817754451255
 20
1668.524272840687
 30
0.0
 10
2172.851710881883
 20
1668.568232708911
 30
0.0
 10
2172.892903904738
 20
1668.619822400799
 30
0.0
 10
2172.927782963593
 20
1668.66368866418
 30
0.0
 10
2172.931802750836
 20
1668.668665199713
 30
0.0
 10
2172.908024542647
 20
1668.638930882491
 30
0.0
 10
2172.850029861012
 20
1668.56586258405
 30
0.0
 10
2172.773410488805
 20
1668.467963586677
 30
0.0
 10
2172.717048661207
 20
1668.394374194696
 30
0.0
 10
2172.699586530618
 20
1668.371574586744
 30
0.0
  0
SPLINE
  5
172
330
1F
100
AcDbEntity
  8
0
  6
Continuous
 62
     7
370
    25
100
AcDbSpline
210
0.0
220
0.0
230
1.0
 70
     8
 71
     3
 72
    27
 73
    23
 74
     0
 42
0.000000001
 43
0.00000001
 40
0.0
 40
0.0
 40
0.0
 40
0.0
 40
0.0885627570442147
 40
0.1796538943995936
 40
0.2695908295576357
 40
0.3157544754264165
 40
0.3623424134621824
 40
0.4187626527282486
 40
0.4469315743364939
 40
0.475755536219369
 40
0.4937367345958547
 40
0.5121853392428826
 40
0.5301891255062623
 40
0.5487612444758525
 40
0.5721476357447877
 40
0.5961816793253213
 40
0.6385637840833073
 40
0.6819638929543733
 40
0.7628695907407563
 40
0.8459362592691205
 40
0.9222273191770639
 40
1.0
 40
1.0
 40
1.0
 40
1.0
 10
1910.247416925485
 20
1668.81843884637
 30
0.0
 10
1910.342335853287
 20
1668.578760684286
 30
0.0
 10
1910.534883551677
 20
1668.092561782423
 30
0.0
 10
1910.992150707939
 20
1667.338104912074
 30
0.0
 10
1911.459524279723
 20
1666.703202757742
 30
0.0
 10
1911.890045711276
 20
1666.205260010483
 30
0.0
 10
1912.273386403764
 20
1665.813075955879
 30
0.0
 10
1912.648294835878
 20
1665.492739907687
 30
0.0
 10
1913.007870879581
 20
1665.260037746931
 30
0.0
 10
1913.264559557998
 20
1665.138314583474
 30
0.0
 10
1913.499132733926
 20
1665.069474890669
 30
0.0
 10
1913.698907452643
 20
1665.042329668338
 30
0.0
 10
1913.898797480186
 20
1665.049482440857
 30
0.0
 10
1914.10738313641
 20
1665.093905610735
 30
0.0
 10
1914.319517572339
 20
1665.181644280955
 30
0.0
 10
1914.578331857454
 20
1665.343158868208
 30
0.0
 10
1914.849294785545
 20
1665.588240620028
 30
0.0
 10
1915.189849751341
 20
1666.005345607118
 30
0.0
 10
1915.51370461154
 20
1666.567782199586
 30
0.0
 10
1915.758772421611
 20
1667.237688701284
 30
0.0
 10
1915.890464185431
 20
1667.901406910863
 30
0.0
 10
1915.874373344619
 20
1668.323105195372
 30
0.0
 10
1915.86625055193
 20
1668.535982060033
 30
0.0
  0
SPLINE
  5
173
330
1F
100
AcDbEntity
  8
0
  6
Continuous
 62
     7
370
    25
100
AcDbSpline
210
0.0
220
0.0
230
1.0
 70
     8
 71
     3
 72
    14
 73
    10
 74
     0
 42
0.000000001
 43
0.00000001
 40
0.0
 40
0.0
 40
0.0
 40
0.0
 40
0.220765348438307
 40
0.3402146168140888
 40
0.4605704991791176
 40
0.5641909618660997
 40
0.6633542991972022
 40
0.8105247403618681
 40
1.0
 40
1.0
 40
1.0
 40
1.0
 10
1909.427615511797
 20
1668.858651471124
 30
0.0
 10
1909.478157951439
 20
1668.915084949131
 30
0.0
 10
1909.556047334249
 20
1669.002052828063
 30
0.0
 10
1909.713960630286
 20
1669.079350893032
 30
0.0
 10
1909.846465812356
 20
1669.105530003402
 30
0.0
 10
1909.967977386678
 20
1669.092901501023
 30
0.0
 10
1910.079939607527
 20
1669.047441892901
 30
0.0
 10
1910.185810988175
 20
1668.957968845052
 30
0.0
 10
1910.225230390743
 20
1668.868688664787
 30
0.0
 10
1910.247416925485
 20
1668.81843884637
 30
0.0
  0
SPLINE
  5
174
330
1F
100
AcDbEntity
  8
0
  6
Continuous
 62
     7
370
    25
100
AcDbSpline
210
0.0
220
0.0
230
1.0
 70
     8
 71
     3
 72
    24
 73
    20
 74
     0
 42
0.000000001
 43
0.00000001
 40
0.0
 40
0.0
 40
0.0
 40
0.0
 40
0.0863790768596617
 40
0.1752542427071471
 40
0.2620842456789103
 40
0.3070649132850748
 40
0.35201908510093
 40
0.4193200542314411
 40
0.4528774529345844
 40
0.487625266340636
 40
0.5342920749946459
 40
0.5808562308579927
 40
0.6174647672988366
 40
0.6550630194695123
 40
0.7176552952223882
 40
0.7818848654491317
 40
0.8689583501259632
 40
0.95854825280599
 40
0.9999999999999999
 40
0.9999999999999999
 40
0.9999999999999999
 40
0.9999999999999999
 10
1904.921660795541
 20
1669.075490666792
 30
0.0
 10
1904.817825880851
 20
1668.864631011663
 30
0.0
 10
1904.607155542592
 20
1668.436818507516
 30
0.0
 10
1904.481014597811
 20
1667.780692465216
 30
0.0
 10
1904.493492771528
 20
1667.235354590697
 30
0.0
 10
1904.588394735493
 20
1666.815796260576
 30
0.0
 10
1904.728228974705
 20
1666.462259056573
 30
0.0
 10
1904.931344918124
 20
1666.168049253247
 30
0.0
 10
1905.198684014046
 20
1665.964517830988
 30
0.0
 10
1905.474956334191
 20
1665.852176729024
 30
0.0
 10
1905.844996261419
 20
1665.839848970593
 30
0.0
 10
1906.246987192635
 20
1665.964979874803
 30
0.0
 10
1906.612606477998
 20
1666.154931559191
 30
0.0
 10
1907.013699711811
 20
1666.417919893807
 30
0.0
 10
1907.473105288142
 20
1666.782372870038
 30
0.0
 10
1908.035226645214
 20
1667.292848494796
 30
0.0
 10
1908.621416314441
 20
1667.890610291531
 30
0.0
 10
1909.100077924764
 20
1668.435873472844
 30
0.0
 10
1909.348905222099
 20
1668.757054036082
 30
0.0
 10
1909.427615511797
 20
1668.858651471124
 30
0.0
  0
SPLINE
  5
175
330
1F
100
AcDbEntity
  8
0
  6
Continuous
 62
     7
370
    25
100
AcDbSpline
210
0.0
220
0.0
230
1.0
 70
     8
 71
     3
 72
    14
 73
    10
 74
     0
 42
0.000000001
 43
0.00000001
 40
0.0
 40
0.0
 40
0.0
 40
0.0
 40
0.2243030424882868
 40
0.3489011866266555
 40
0.4744001356117536
 40
0.5826741857065961
 40
0.6867417687947411
 40
0.838156487169633
 40
1.0
 40
1.0
 40
1.0
 40
1.0
 10
1904.556814843076
 20
1669.092750426754
 30
0.0
 10
1904.621427494106
 20
1669.147682428299
 30
0.0
 10
1904.721931840214
 20
1669.23312861891
 30
0.0
 10
1904.854117175843
 20
1669.308977702446
 30
0.0
 10
1904.936462735474
 20
1669.334658660754
 30
0.0
 10
1904.983843754149
 20
1669.321841386231
 30
0.0
 10
1905.001262101579
 20
1669.276430063129
 30
0.0
 10
1904.983856127864
 20
1669.194252371878
 30
0.0
 10
1904.942847649075
 20
1669.115946867558
 30
0.0
 10
1904.921660795541
 20
1669.075490666792
 30
0.0
  0
SPLINE
  5
176
330
1F
100
AcDbEntity
  8
0
  6
Continuous
 62
     7
370
    25
100
AcDbSpline
210
0.0
220
0.0
230
1.0
 70
     8
 71
     3
 72
    17
 73
    13
 74
     0
 42
0.000000001
 43
0.00000001
 40
0.0
 40
0.0
 40
0.0
 40
0.0
 40
0.0233527105087187
 40
0.0741063296851173
 40
0.1261907686533527
 40
0.1991250149190986
 40
0.2740814190749178
 40
0.3921097143336644
 40
0.5132724449616147
 40
0.680290005303139
 40
0.8521094240033865
 40
1.0
 40
1.0
 40
1.0
 40
1.0
 10
1902.012839287416
 20
1666.165871546679
 30
0.0
 10
1902.01212237835
 20
1666.16474373532
 30
0.0
 10
1902.009847374787
 20
1666.161164794866
 30
0.0
 10
1902.032499747867
 20
1666.196803578624
 30
0.0
 10
1902.083988483563
 20
1666.276679128064
 30
0.0
 10
1902.175436022164
 20
1666.41510156655
 30
0.0
 10
1902.334266493676
 20
1666.645640800149
 30
0.0
 10
1902.569048460485
 20
1666.966551148172
 30
0.0
 10
1902.929089183335
 20
1667.420206748809
 30
0.0
 10
1903.402099890748
 20
1667.961186744686
 30
0.0
 10
1903.964396438195
 20
1668.543506074228
 30
0.0
 10
1904.369447451717
 20
1668.919037927777
 30
0.0
 10
1904.556814843076
 20
1669.092750426754
 30
0.0
  0
SPLINE
  5
177
330
1F
100
AcDbEntity
  8
0
  6
Continuous
 62
     7
370
    25
100
AcDbSpline
210
0.0
220
0.0
230
1.0
 70
     8
 71
     3
 72
    14
 73
    10
 74
     0
 42
0.000000001
 43
0.00000001
 40
0.0
 40
0.0
 40
0.0
 40
0.0
 40
0.2585854403990677
 40
0.4047787638447533
 40
0.5276724329052163
 40
0.6512729117895667
 40
0.7597848933131491
 40
0.9055153005993496
 40
1.0
 40
1.0
 40
1.0
 40
1.0
 10
1919.024296454036
 20
1668.371574586744
 30
0.0
 10
1918.977265433524
 20
1668.432631368684
 30
0.0
 10
1918.903645053676
 20
1668.528207085089
 30
0.0
 10
1918.830348982862
 20
1668.620713895357
 30
0.0
 10
1918.796283231534
 20
1668.663429689529
 30
0.0
 10
1918.791945657123
 20
1668.668854670199
 30
0.0
 10
1918.816235746333
 20
1668.638400523005
 30
0.0
 10
1918.857512907816
 20
1668.586684218539
 30
0.0
 10
1918.898266786862
 20
1668.534302075485
 30
0.0
 10
1918.914296661353
 20
1668.513698412757
 30
0.0
  0
SPLINE
  5
178
330
1F
100
AcDbEntity
  8
0
  6
Continuous
 62
     7
370
    25
100
AcDbSpline
210
0.0
220
0.0
230
1.0
 70
     8
 71
     3
 72
    24
 73
    20
 74
     0
 42
0.000000001
 43
0.00000001
 40
0.0
 40
0.0
 40
0.0
 40
0.0
 40
0.0897248857515962
 40
0.181966892737364
 40
0.2741792027342798
 40
0.3215501726634947
 40
0.3689029355448353
 40
0.4236957802800295
 40
0.4510753756637199
 40
0.4792846301673052
 40
0.5038350236657084
 40
0.5284871230185134
 40
0.5612103000923978
 40
0.6013835835667771
 40
0.6426807853470329
 40
0.7287537050022397
 40
0.8170308395907498
 40
0.9073440868217483
 40
1.0
 40
1.0
 40
1.0
 40
1.0
 10
1916.523680241433
 20
1668.50210873078
 30
0.0
 10
1916.758906193913
 20
1668.231669984081
 30
0.0
 10
1917.235957073449
 20
1667.683205664505
 30
0.0
 10
1917.94699173133
 20
1666.824964376178
 30
0.0
 10
1918.51473823055
 20
1666.094966608871
 30
0.0
 10
1918.944624144574
 20
1665.512716242358
 30
0.0
 10
1919.273762609208
 20
1665.058553244425
 30
0.0
 10
1919.545799169238
 20
1664.683548214648
 30
0.0
 10
1919.77125045846
 20
1664.406797325397
 30
0.0
 10
1919.932702727517
 20
1664.246812138303
 30
0.0
 10
1920.080736346032
 20
1664.173226036208
 30
0.0
 10
1920.208229163932
 20
1664.218543870448
 30
0.0
 10
1920.302992011835
 20
1664.404040574229
 30
0.0
 10
1920.353901234734
 20
1664.699714646811
 30
0.0
 10
1920.363533839012
 20
1665.183550439965
 30
0.0
 10
1920.272781624145
 20
1665.851699680146
 30
0.0
 10
1920.014452199848
 20
1666.684018829875
 30
0.0
 10
1919.614413106645
 20
1667.53541998653
 30
0.0
 10
1919.222673897052
 20
1668.090487430802
 30
0.0
 10
1919.024296454036
 20
1668.371574586744
 30
0.0
  0
SPLINE
  5
179
330
1F
100
AcDbEntity
  8
0
  6
Continuous
 62
     7
370
    25
100
AcDbSpline
210
0.0
220
0.0
230
1.0
 70
     8
 71
     3
 72
    15
 73
    11
 74
     0
 42
0.000000001
 43
0.00000001
 40
0.0
 40
0.0
 40
0.0
 40
0.0
 40
0.2155767705933857
 40
0.332900553867743
 40
0.4328760582231042
 40
0.5332634977247832
 40
0.6250838127945076
 40
0.7535547096888764
 40
0.9421338378892115
 40
1.0
 40
1.0
 40
1.0
 40
1.0
 10
1915.86625055193
 20
1668.535982060033
 30
0.0
 10
1915.865599031475
 20
1668.595202510772
 30
0.0
 10
1915.864592932721
 20
1668.686652627578
 30
0.0
 10
1915.923434331149
 20
1668.769803185706
 30
0.0
 10
1915.995393825408
 20
1668.804028429837
 30
0.0
 10
1916.085358060295
 20
1668.802942292394
 30
0.0
 10
1916.194939864831
 20
1668.768133335757
 30
0.0
 10
1916.333322391897
 20
1668.68774258483
 30
0.0
 10
1916.445575814916
 20
1668.588925728187
 30
0.0
 10
1916.508828340953
 20
1668.518617364964
 30
0.0
 10
1916.523680241433
 20
1668.50210873078
 30
0.0
  0
LINE
  5
17A
330
1F
100
AcDbEntity
  8
0
  6
Continuous
 62
     8
370
    18
100
AcDbLine
 10
1957.8619414923
 20
1667.1797945543
 30
0.0
 11
1957.8619414923
 21
1657.1797945543
 31
0.0
  0
LINE
  5
17B
330
1F
100
AcDbEntity
  8
0
  6
Continuous
 62
     8
370
    18
100
AcDbLine
 10
2133.8619414923
 20
1657.1797945543
 30
0.0
 11
2133.8619414923
 21
1667.1797945543
 31
0.0
  0
LINE
  5
17C
330
1F
100
AcDbEntity
  8
0
  6
Continuous
 62
     8
370
    18
100
AcDbLine
 10
2176.0419414923
 20
1624.6797945543
 30
0.0
 11
1915.6819414923
 21
1624.6797945543
 31
0.0
  0
SPLINE
  5
17D
330
1F
100
AcDbEntity
  8
0
  6
Continuous
 62
     8
370
    18
100
AcDbSpline
210
0.0
220
0.0
230
1.0
 70
     8
 71
     3
 72
    12
 73
     8
 74
     0
 42
0.000000001
 43
0.00000001
 40
0.0
 40
0.0
 40
0.0
 40
0.0
 40
0.219578120873526
 40
0.4458315737196786
 40
0.6652629178381348
 40
0.8909105091177149
 40
1.0
 40
1.0
 40
1.0
 40
1.0
 10
1919.419338819961
 20
1622.179794554348
 30
0.0
 10
1919.297941380797
 20
1622.183741746203
 30
0.0
 10
1919.051455933464
 20
1622.191756127371
 30
0.0
 10
1918.627421237436
 20
1622.234933477196
 30
0.0
 10
1918.171717830569
 20
1622.275038779753
 30
0.0
 10
1917.777174818949
 20
1622.296759408745
 30
0.0
 10
1917.536675531265
 20
1622.29864368168
 30
0.0
 10
1917.458297764806
 20
1622.299257758775
 30
0.0
  0
LINE
  5
17E
330
1F
100
AcDbEntity
  8
0
  6
Continuous
 62
     8
370
    18
100
AcDbLine
 10
1917.4582977648
 20
1622.2992577588
 30
0.0
 11
1915.9821565341
 21
1622.2992577588
 31
0.0
  0
SPLINE
  5
17F
330
1F
100
AcDbEntity
  8
0
  6
Continuous
 62
     8
370
    18
100
AcDbSpline
210
0.0
220
0.0
230
1.0
 70
     8
 71
     3
 72
    14
 73
    10
 74
     0
 42
0.000000001
 43
0.00000001
 40
0.0
 40
0.0
 40
0.0
 40
0.0
 40
0.1514976907177828
 40
0.3080363893103095
 40
0.4611987766387211
 40
0.6144055117340753
 40
0.778476706310818
 40
0.9473502824299542
 40
1.0
 40
1.0
 40
1.0
 40
1.0
 10
1915.864938261935
 20
1622.451717843588
 30
0.0
 10
1915.872581116664
 20
1622.514584155467
 30
0.0
 10
1915.888121138189
 20
1622.642408623475
 30
0.0
 10
1915.865389829027
 20
1622.897458127439
 30
0.0
 10
1915.823953537678
 20
1623.191390756042
 30
0.0
 10
1915.771523081502
 20
1623.525690724597
 30
0.0
 10
1915.720561153354
 20
1623.901427528383
 30
0.0
 10
1915.69176182034
 20
1624.217810630284
 30
0.0
 10
1915.683827299738
 20
1624.402993679408
 30
0.0
 10
1915.681941492327
 20
1624.447006365717
 30
0.0
  0
LINE
  5
180
330
1F
100
AcDbEntity
  8
0
  6
Continuous
 62
     8
370
    18
100
AcDbLine
 10
2176.0419414923
 20
1654.6797945543
 30
0.0
 11
1915.6819414923
 21
1654.6797945543
 31
0.0
  0
SPLINE
  5
181
330
1F
100
AcDbEntity
  8
0
  6
Continuous
 62
     8
370
    18
100
AcDbSpline
210
0.0
220
0.0
230
1.0
 70
     8
 71
     3
 72
     9
 73
     5
 74
     0
 42
0.000000001
 43
0.00000001
 40
0.0
 40
0.0
 40
0.0
 40
0.0
 40
0.8279475144293137
 40
1.0
 40
1.0
 40
1.0
 40
1.0
 10
1915.88113981848
 20
1656.991343669472
 30
0.0
 10
1915.90063751288
 20
1657.012910139724
 30
0.0
 10
1915.924186945736
 20
1657.038958252529
 30
0.0
 10
1915.969081242421
 20
1657.057193867106
 30
0.0
 10
1915.976805417754
 20
1657.06033134992
 30
0.0
  0
LINE
  5
182
330
1F
100
AcDbEntity
  8
0
  6
Continuous
 62
     8
370
    18
100
AcDbLine
 10
1915.9768054178
 20
1657.0603313499
 30
0.0
 11
1917.4582977648
 21
1657.0603313499
 31
0.0
  0
SPLINE
  5
183
330
1F
100
AcDbEntity
  8
0
  6
Continuous
 62
     8
370
    18
100
AcDbSpline
210
0.0
220
0.0
230
1.0
 70
     8
 71
     3
 72
    12
 73
     8
 74
     0
 42
0.000000001
 43
0.00000001
 40
0.0
 40
0.0
 40
0.0
 40
0.0
 40
0.2197775069035125
 40
0.4461484417016928
 40
0.6658453222826375
 40
0.8916605883560174
 40
1.0
 40
1.0
 40
1.0
 40
1.0
 10
1917.458297764806
 20
1657.06033134992
 30
0.0
 10
1917.616365100419
 20
1657.062796727201
 30
0.0
 10
1917.937241865568
 20
1657.067801444234
 30
0.0
 10
1918.402236555434
 20
1657.103928682388
 30
0.0
 10
1918.843882963407
 20
1657.146395000643
 30
0.0
 10
1919.179855634161
 20
1657.175679282917
 30
0.0
 10
1919.360704212015
 20
1657.178786979114
 30
0.0
 10
1919.419338819961
 20
1657.179794554348
 30
0.0
  0
SPLINE
  5
184
330
1F
100
AcDbEntity
  8
0
  6
Continuous
 62
     8
370
    18
100
AcDbSpline
210
0.0
220
0.0
230
1.0
 70
     8
 71
     3
 72
    13
 73
     9
 74
     0
 42
0.000000001
 43
0.00000001
 40
0.0
 40
0.0
 40
0.0
 40
0.0
 40
0.2330167576809274
 40
0.3953815623644751
 40
0.5577545210657038
 40
0.7242728576423667
 40
0.8963848768061202
 40
1.0
 40
1.0
 40
1.0
 40
1.0
 10
1915.681941492327
 20
1654.912582742979
 30
0.0
 10
1915.69421974446
 20
1655.106773144123
 30
0.0
 10
1915.71505341565
 20
1655.436274356674
 30
0.0
 10
1915.776609658828
 20
1655.864069941053
 30
0.0
 10
1915.83043255124
 20
1656.21057160128
 30
0.0
 10
1915.872904690515
 20
1656.521629617017
 30
0.0
 10
1915.887140164204
 20
1656.754525807341
 30
0.0
 10
1915.871002581805
 20
1656.865985849375
 30
0.0
 10
1915.864938261935
 20
1656.907871265107
 30
0.0
  0
LINE
  5
185
330
1F
100
AcDbEntity
  8
0
  6
Continuous
 62
     8
370
    18
100
AcDbLine
 10
2170.7142065099
 20
1229.1797945501
 30
0.0
 11
2189.7142065099
 21
1229.1797945501
 31
0.0
  0
LINE
  5
186
330
1F
100
AcDbEntity
  8
0
  6
Continuous
 62
     8
370
    18
100
AcDbLine
 10
1911.5096764748
 20
1229.1797945501
 30
0.0
 11
1921.0096764748
 21
1229.1797945501
 31
0.0
  0
LINE
  5
187
330
1F
100
AcDbEntity
  8
0
  6
Continuous
 62
     8
370
    18
100
AcDbLine
 10
1902.0096764748
 20
1229.1797945501
 30
0.0
 11
1911.5096764748
 21
1229.1797945501
 31
0.0
  0
LINE
  5
188
330
1F
100
AcDbEntity
  8
0
  6
Continuous
 62
     8
370
    18
100
AcDbLine
 10
2181.4764660592
 20
1668.8184388464
 30
0.0
 11
2181.4764660592
 21
1232.1797945501
 31
0.0
  0
LINE
  5
189
330
1F
100
AcDbEntity
  8
0
  6
Continuous
 62
     8
370
    18
100
AcDbLine
 10
2182.2962674729
 20
1668.8586514711
 30
0.0
 11
2182.2962674729
 21
1232.1797945501
 31
0.0
  0
LINE
  5
18A
330
1F
100
AcDbEntity
  8
0
  6
Continuous
 62
     8
370
    18
100
AcDbLine
 10
2175.2002027432
 20
1668.5021087308
 30
0.0
 11
2175.2002027432
 21
1657.1034694874
 31
0.0
  0
LINE
  5
18B
330
1F
100
AcDbEntity
  8
0
  6
Continuous
 62
     8
370
    18
100
AcDbLine
 10
2175.2002027432
 20
1622.2561196213
 30
0.0
 11
2175.2002027432
 21
1232.1797945501
 31
0.0
  0
LINE
  5
18C
330
1F
100
AcDbEntity
  8
0
  6
Continuous
 62
     8
370
    18
100
AcDbLine
 10
2187.1670681416
 20
1669.0927504268
 30
0.0
 11
2187.1670681416
 21
1668.0295514657
 31
0.0
  0
LINE
  5
18D
330
1F
100
AcDbEntity
  8
0
  6
Continuous
 62
     8
370
    18
100
AcDbLine
 10
1910.2474169255
 20
1668.8184388464
 30
0.0
 11
1910.2474169255
 21
1232.1797945501
 31
0.0
  0
LINE
  5
18E
330
1F
100
AcDbEntity
  8
0
  6
Continuous
 62
     8
370
    18
100
AcDbLine
 10
1909.4276155118
 20
1668.8586514711
 30
0.0
 11
1909.4276155118
 21
1232.1797945501
 31
0.0
  0
LINE
  5
18F
330
1F
100
AcDbEntity
  8
0
  6
Continuous
 62
     8
370
    18
100
AcDbLine
 10
1916.5236802414
 20
1668.5021087308
 30
0.0
 11
1916.5236802414
 21
1657.1034694874
 31
0.0
  0
LINE
  5
190
330
1F
100
AcDbEntity
  8
0
  6
Continuous
 62
     8
370
    18
100
AcDbLine
 10
1916.5236802414
 20
1622.2561196213
 30
0.0
 11
1916.5236802414
 21
1232.1797945501
 31
0.0
  0
LINE
  5
191
330
1F
100
AcDbEntity
  8
0
  6
Continuous
 62
     8
370
    18
100
AcDbLine
 10
1904.5568148431
 20
1669.0927504268
 30
0.0
 11
1904.5568148431
 21
1668.032379605
 31
0.0
  0
ARC
  5
192
330
1F
100
AcDbEntity
  8
0
  6
Continuous
 62
     7
370
    25
100
AcDbCircle
 10
1694.5638054697
 20
831.1686521284
 30
0.0
 40
37.0
100
AcDbArc
 50
0.0
 51
90.0
  0
LINE
  5
193
330
1F
100
AcDbEntity
  8
0
  6
Continuous
 62
     7
370
    25
100
AcDbLine
 10
1731.5638054697
 20
831.1686521284
 30
0.0
 11
1731.5638054697
 21
655.1686521284
 31
0.0
  0
ARC
  5
194
330
1F
100
AcDbEntity
  8
0
  6
Continuous
 62
     7
370
    25
100
AcDbCircle
 10
1694.5638054697
 20
655.1686521284
 30
0.0
 40
36.99999999999989
100
AcDbArc
 50
270.0
 51
0.0
  0
LINE
  5
195
330
1F
100
AcDbEntity
  8
0
  6
Continuous
 62
     7
370
    25
100
AcDbLine
 10
1694.5638054697
 20
618.1686521284
 30
0.0
 11
768.5638054697
 21
618.1686521284
 31
0.0
  0
ARC
  5
196
330
1F
100
AcDbEntity
  8
0
  6
Continuous
 62
     7
370
    25
100
AcDbCircle
 10
768.5638054697
 20
655.1686521284
 30
0.0
 40
37.00000000000011
100
AcDbArc
 50
180.0
 51
270.0
  0
LINE
  5
197
330
1F
100
AcDbEntity
  8
0
  6
Continuous
 62
     7
370
    25
100
AcDbLine
 10
731.5638054697
 20
655.1686521284
 30
0.0
 11
731.5638054697
 21
831.1686521284
 31
0.0
  0
ARC
  5
198
330
1F
100
AcDbEntity
  8
0
  6
Continuous
 62
     7
370
    25
100
AcDbCircle
 10
768.5638054697
 20
831.1686521284
 30
0.0
 40
37.00000000000011
100
AcDbArc
 50
90.0
 51
180.0
  0
LINE
  5
199
330
1F
100
AcDbEntity
  8
0
  6
Continuous
 62
     7
370
    25
100
AcDbLine
 10
768.5638054697
 20
868.1686521284
 30
0.0
 11
1694.5638054697
 21
868.1686521284
 31
0.0
  0
LINE
  5
19A
330
1F
100
AcDbEntity
  8
0
  6
Continuous
 62
     7
370
    25
100
AcDbLine
 10
1624.0638054697
 20
873.3486521284
 30
0.0
 11
1624.0638054697
 21
868.1686521284
 31
0.0
  0
LINE
  5
19B
330
1F
100
AcDbEntity
  8
0
  6
Continuous
 62
     7
370
    25
100
AcDbLine
 10
1624.0638054697
 20
618.1686521284
 30
0.0
 11
1624.0638054697
 21
612.9886521284
 31
0.0
  0
LINE
  5
19C
330
1F
100
AcDbEntity
  8
0
  6
Continuous
 62
     7
370
    25
100
AcDbLine
 10
1639.0638054697
 20
873.3486521284
 30
0.0
 11
1639.0638054697
 21
868.1686521284
 31
0.0
  0
LINE
  5
19D
330
1F
100
AcDbEntity
  8
0
  6
Continuous
 62
     7
370
    25
100
AcDbLine
 10
1639.0638054697
 20
618.1686521284
 30
0.0
 11
1639.0638054697
 21
612.9886521284
 31
0.0
  0
LINE
  5
19E
330
1F
100
AcDbEntity
  8
0
  6
Continuous
 62
     7
370
    25
100
AcDbLine
 10
839.0638054697
 20
612.9886521284
 30
0.0
 11
839.0638054697
 21
618.1686521284
 31
0.0
  0
LINE
  5
19F
330
1F
100
AcDbEntity
  8
0
  6
Continuous
 62
     7
370
    25
100
AcDbLine
 10
839.0638054697
 20
868.1686521284
 30
0.0
 11
839.0638054697
 21
873.3486521284
 31
0.0
  0
LINE
  5
1A0
330
1F
100
AcDbEntity
  8
0
  6
Continuous
 62
     7
370
    25
100
AcDbLine
 10
824.0638054697
 20
612.9886521284
 30
0.0
 11
824.0638054697
 21
618.1686521284
 31
0.0
  0
LINE
  5
1A1
330
1F
100
AcDbEntity
  8
0
  6
Continuous
 62
     7
370
    25
100
AcDbLine
 10
824.0638054697
 20
868.1686521284
 30
0.0
 11
824.0638054697
 21
873.3486521284
 31
0.0
  0
ARC
  5
1A2
330
1F
100
AcDbEntity
  8
0
  6
Continuous
 62
     7
370
    25
100
AcDbCircle
 10
831.5638054697
 20
608.8163871108
 30
0.0
 40
9.500000000000036
100
AcDbArc
 50
169.3732994615
 51
180.0
  0
ARC
  5
1A3
330
1F
100
AcDbEntity
  8
0
  6
Continuous
 62
     7
370
    25
100
AcDbCircle
 10
831.5638054697
 20
608.8163871108
 30
0.0
 40
9.499999999999968
100
AcDbArc
 50
142.1363536382
 51
164.8009158376
  0
ARC
  5
1A4
330
1F
100
AcDbEntity
  8
0
  6
Continuous
 62
     7
370
    25
100
AcDbCircle
 10
831.5638054697
 20
608.8163871108
 30
0.0
 40
9.500000000000028
100
AcDbArc
 50
14.804427935
 51
37.8636463616
  0
ARC
  5
1A5
330
1F
100
AcDbEntity
  8
0
  6
Continuous
 62
     7
370
    25
100
AcDbCircle
 10
831.5638054697
 20
608.8163871108
 30
0.0
 40
9.500000000000034
100
AcDbArc
 50
323.1517778859
 51
10.352605384
  0
ARC
  5
1A6
330
1F
100
AcDbEntity
  8
0
  6
Continuous
 62
     7
370
    25
100
AcDbCircle
 10
831.5638054697
 20
608.8163871108
 30
0.0
 40
9.500000000000059
100
AcDbArc
 50
271.5694624528
 51
318.9453993733
  0
ARC
  5
1A7
330
1F
100
AcDbEntity
  8
0
  6
Continuous
 62
     7
370
    25
100
AcDbCircle
 10
831.5638054697
 20
608.8163871108
 30
0.0
 40
9.500000000000004
100
AcDbArc
 50
219.6047185032
 51
267.3072707908
  0
ARC
  5
1A8
330
1F
100
AcDbEntity
  8
0
  6
Continuous
 62
     7
370
    25
100
AcDbCircle
 10
831.5638054697
 20
608.8163871108
 30
0.0
 40
9.5
100
AcDbArc
 50
180.0
 51
216.0773824116
  0
ARC
  5
1A9
330
1F
100
AcDbEntity
  8
0
  6
Continuous
 62
     7
370
    25
100
AcDbCircle
 10
1631.5638054697
 20
877.520917146
 30
0.0
 40
9.5
100
AcDbArc
 50
349.3732994615
 51
0.0
  0
ARC
  5
1AA
330
1F
100
AcDbEntity
  8
0
  6
Continuous
 62
     7
370
    25
100
AcDbCircle
 10
1631.5638054697
 20
877.520917146
 30
0.0
 40
9.49999999999972
100
AcDbArc
 50
322.1363536382
 51
344.8009158376
  0
ARC
  5
1AB
330
1F
100
AcDbEntity
  8
0
  6
Continuous
 62
     7
370
    25
100
AcDbCircle
 10
1631.5638054697
 20
877.520917146
 30
0.0
 40
9.500000000000451
100
AcDbArc
 50
194.804427935
 51
217.8636463616
  0
ARC
  5
1AC
330
1F
100
AcDbEntity
  8
0
  6
Continuous
 62
     7
370
    25
100
AcDbCircle
 10
1631.5638054697
 20
877.520917146
 30
0.0
 40
9.500000000000222
100
AcDbArc
 50
143.1517778857
 51
190.352605384
  0
ARC
  5
1AD
330
1F
100
AcDbEntity
  8
0
  6
Continuous
 62
     7
370
    25
100
AcDbCircle
 10
1631.5638054697
 20
877.520917146
 30
0.0
 40
9.500000000000126
100
AcDbArc
 50
91.5694624527
 51
138.9453993734
  0
ARC
  5
1AE
330
1F
100
AcDbEntity
  8
0
  6
Continuous
 62
     7
370
    25
100
AcDbCircle
 10
1631.5638054697
 20
877.520917146
 30
0.0
 40
9.500000000000037
100
AcDbArc
 50
39.6047185031
 51
87.3072707909
  0
ARC
  5
1AF
330
1F
100
AcDbEntity
  8
0
  6
Continuous
 62
     7
370
    25
100
AcDbCircle
 10
1631.5638054697
 20
877.520917146
 30
0.0
 40
9.5
100
AcDbArc
 50
0.0
 51
36.0773824118
  0
ARC
  5
1B0
330
1F
100
AcDbEntity
  8
0
  6
Continuous
 62
     7
370
    25
100
AcDbCircle
 10
1631.5638054697
 20
608.8163871108
 30
0.0
 40
9.5
100
AcDbArc
 50
169.3732994615
 51
180.0
  0
ARC
  5
1B1
330
1F
100
AcDbEntity
  8
0
  6
Continuous
 62
     7
370
    25
100
AcDbCircle
 10
1631.5638054697
 20
608.8163871108
 30
0.0
 40
9.499999999999938
100
AcDbArc
 50
142.1363536382
 51
164.8009158376
  0
ARC
  5
1B2
330
1F
100
AcDbEntity
  8
0
  6
Continuous
 62
     7
370
    25
100
AcDbCircle
 10
1631.5638054697
 20
608.8163871108
 30
0.0
 40
9.500000000000279
100
AcDbArc
 50
14.804427935
 51
37.8636463617
  0
ARC
  5
1B3
330
1F
100
AcDbEntity
  8
0
  6
Continuous
 62
     7
370
    25
100
AcDbCircle
 10
1631.5638054697
 20
608.8163871108
 30
0.0
 40
9.500000000000124
100
AcDbArc
 50
323.1517778859
 51
10.352605384
  0
ARC
  5
1B4
330
1F
100
AcDbEntity
  8
0
  6
Continuous
 62
     7
370
    25
100
AcDbCircle
 10
1631.5638054697
 20
608.8163871108
 30
0.0
 40
9.500000000000249
100
AcDbArc
 50
271.5694624528
 51
318.9453993733
  0
ARC
  5
1B5
330
1F
100
AcDbEntity
  8
0
  6
Continuous
 62
     7
370
    25
100
AcDbCircle
 10
1631.5638054697
 20
608.8163871108
 30
0.0
 40
9.499999999999902
100
AcDbArc
 50
219.6047185032
 51
267.3072707908
  0
ARC
  5
1B6
330
1F
100
AcDbEntity
  8
0
  6
Continuous
 62
     7
370
    25
100
AcDbCircle
 10
1631.5638054697
 20
608.8163871108
 30
0.0
 40
9.5
100
AcDbArc
 50
180.0
 51
216.0773824116
  0
ARC
  5
1B7
330
1F
100
AcDbEntity
  8
0
  6
Continuous
 62
     7
370
    25
100
AcDbCircle
 10
831.5638054697
 20
877.520917146
 30
0.0
 40
9.500000000000114
100
AcDbArc
 50
349.3732994615
 51
0.0
  0
ARC
  5
1B8
330
1F
100
AcDbEntity
  8
0
  6
Continuous
 62
     7
370
    25
100
AcDbCircle
 10
831.5638054697
 20
877.520917146
 30
0.0
 40
9.500000000000059
100
AcDbArc
 50
322.1363536382
 51
344.8009158376
  0
ARC
  5
1B9
330
1F
100
AcDbEntity
  8
0
  6
Continuous
 62
     7
370
    25
100
AcDbCircle
 10
831.5638054697
 20
877.520917146
 30
0.0
 40
9.50000000000001
100
AcDbArc
 50
194.804427935
 51
217.8636463616
  0
ARC
  5
1BA
330
1F
100
AcDbEntity
  8
0
  6
Continuous
 62
     7
370
    25
100
AcDbCircle
 10
831.5638054697
 20
877.520917146
 30
0.0
 40
9.50000000000004
100
AcDbArc
 50
143.1517778857
 51
190.352605384
  0
ARC
  5
1BB
330
1F
100
AcDbEntity
  8
0
  6
Continuous
 62
     7
370
    25
100
AcDbCircle
 10
831.5638054697
 20
877.520917146
 30
0.0
 40
9.500000000000115
100
AcDbArc
 50
91.5694624527
 51
138.9453993734
  0
ARC
  5
1BC
330
1F
100
AcDbEntity
  8
0
  6
Continuous
 62
     7
370
    25
100
AcDbCircle
 10
831.5638054697
 20
877.520917146
 30
0.0
 40
9.500000000000043
100
AcDbArc
 50
39.6047185031
 51
87.3072707909
  0
ARC
  5
1BD
330
1F
100
AcDbEntity
  8
0
  6
Continuous
 62
     7
370
    25
100
AcDbCircle
 10
831.5638054697
 20
877.520917146
 30
0.0
 40
9.500000000000114
100
AcDbArc
 50
0.0
 51
36.0773824118
  0
SPLINE
  5
1BE
330
1F
100
AcDbEntity
  8
0
  6
Continuous
 62
     7
370
    25
100
AcDbSpline
210
0.0
220
0.0
230
1.0
 70
     8
 71
     3
 72
    27
 73
    23
 74
     0
 42
0.000000001
 43
0.00000001
 40
0.0
 40
0.0
 40
0.0
 40
0.0
 40
0.0885627570442146
 40
0.1796538943995935
 40
0.2695908295576355
 40
0.3157544754264164
 40
0.3623424134621822
 40
0.4187626527282484
 40
0.4469315743364936
 40
0.4757555362193687
 40
0.4937367345958544
 40
0.5121853392428822
 40
0.530189125506262
 40
0.5487612444758522
 40
0.5721476357447853
 40
0.5961816793253188
 40
0.6385637840833048
 40
0.6819638929543734
 40
0.7628695907407564
 40
0.8459362592691205
 40
0.922227319177064
 40
1.0
 40
1.0
 40
1.0
 40
1.0
 10
1638.983575398407
 20
607.5541275615717
 30
0.0
 10
1639.196895792469
 20
607.6490464893741
 30
0.0
 10
1639.629626669727
 20
607.8415941877643
 30
0.0
 10
1640.147686706363
 20
608.2988613440261
 30
0.0
 10
1640.489621729914
 20
608.7662349158096
 30
0.0
 10
1640.695450466745
 20
609.1967563473625
 30
0.0
 10
1640.822572389111
 20
609.5800970398506
 30
0.0
 10
1640.888873077349
 20
609.9550054719649
 30
0.0
 10
1640.902809656114
 20
610.3145815156679
 30
0.0
 10
1640.88788333441
 20
610.5712701940853
 30
0.0
 10
1640.853571591729
 20
610.8058433700123
 30
0.0
 10
1640.809921173173
 20
611.0056180887301
 30
0.0
 10
1640.750969806599
 20
611.2055081162732
 30
0.0
 10
1640.672880552883
 20
611.4140937724965
 30
0.0
 10
1640.573556079207
 20
611.626228208426
 30
0.0
 10
1640.424599302594
 20
611.8850424935407
 30
0.0
 10
1640.2252228485
 20
612.1560054216322
 30
0.0
 10
1639.899294822815
 20
612.4965603874282
 30
0.0
 10
1639.455870471209
 20
612.8204152476268
 30
0.0
 10
1638.89410589817
 20
613.0654830576977
 30
0.0
 10
1638.303603820973
 20
613.1971748215183
 30
0.0
 10
1637.903226932762
 20
613.1810839807054
 30
0.0
 10
1637.701113289487
 20
613.1729611880171
 30
0.0
  0
SPLINE
  5
1BF
330
1F
100
AcDbEntity
  8
0
  6
Continuous
 62
     7
370
    25
100
AcDbSpline
210
0.0
220
0.0
230
1.0
 70
     8
 71
     3
 72
    14
 73
    10
 74
     0
 42
0.000000001
 43
0.00000001
 40
0.0
 40
0.0
 40
0.0
 40
0.0
 40
0.220765348438307
 40
0.3402146168140888
 40
0.4605704991791176
 40
0.5641909618660997
 40
0.6633542991972022
 40
0.8105247403618681
 40
1.0
 40
1.0
 40
1.0
 40
1.0
 10
1638.796461075437
 20
606.7343261478838
 30
0.0
 10
1638.755762279915
 20
606.7848685875259
 30
0.0
 10
1638.693042631106
 20
606.8627579703359
 30
0.0
 10
1638.652101225731
 20
607.0206712663731
 30
0.0
 10
1638.652780321697
 20
607.1531764484424
 30
0.0
 10
1638.686815227517
 20
607.2746880227646
 30
0.0
 10
1638.74886278292
 20
607.3866502436135
 30
0.0
 10
1638.849269103987
 20
607.4925216242611
 30
0.0
 10
1638.935206825551
 20
607.5319410268299
 30
0.0
 10
1638.983575398407
 20
607.5541275615717
 30
0.0
  0
SPLINE
  5
1C0
330
1F
100
AcDbEntity
  8
0
  6
Continuous
 62
     7
370
    25
100
AcDbSpline
210
0.0
220
0.0
230
1.0
 70
     8
 71
     3
 72
    24
 73
    20
 74
     0
 42
0.000000001
 43
0.00000001
 40
0.0
 40
0.0
 40
0.0
 40
0.0
 40
0.0863790768596618
 40
0.1752542427071472
 40
0.2620842456789104
 40
0.3070649132850746
 40
0.3520190851009298
 40
0.419320054231441
 40
0.4528774529345842
 40
0.4876252663406359
 40
0.5342920749946458
 40
0.5808562308579927
 40
0.6174647672988366
 40
0.6550630194695123
 40
0.7176552952223882
 40
0.7818848654491317
 40
0.8689583501259632
 40
0.9585482528059901
 40
1.0
 40
1.0
 40
1.0
 40
1.0
 10
1635.203082097713
 20
602.2283714316276
 30
0.0
 10
1635.401421821052
 20
602.1245365169378
 30
0.0
 10
1635.803832674192
 20
601.913866178679
 30
0.0
 10
1636.461423107847
 20
601.7877252338976
 30
0.0
 10
1637.028683309062
 20
601.8002034076147
 30
0.0
 10
1637.487730477542
 20
601.8951053715793
 30
0.0
 10
1637.897704736838
 20
602.0349396107912
 30
0.0
 10
1638.280257585479
 20
602.2380555542106
 30
0.0
 10
1638.628336881546
 20
602.5053946501324
 30
0.0
 10
1638.911988015011
 20
602.781666970278
 30
0.0
 10
1639.192300691733
 20
603.151706897506
 30
0.0
 10
1639.397980485039
 20
603.5536978287221
 30
0.0
 10
1639.523802615757
 20
603.9193171140845
 30
0.0
 10
1639.610695695586
 20
604.3204103478982
 30
0.0
 10
1639.638779776722
 20
604.7798159242288
 30
0.0
 10
1639.574394698814
 20
605.3419372813006
 30
0.0
 10
1639.381028089763
 20
605.9281269505275
 30
0.0
 10
1639.095990597275
 20
606.4067885608512
 30
0.0
 10
1638.868440769891
 20
606.6556158581859
 30
0.0
 10
1638.796461075437
 20
606.7343261478838
 30
0.0
  0
SPLINE
  5
1C1
330
1F
100
AcDbEntity
  8
0
  6
Continuous
 62
     7
370
    25
100
AcDbSpline
210
0.0
220
0.0
230
1.0
 70
     8
 71
     3
 72
    14
 73
    10
 74
     0
 42
0.000000001
 43
0.00000001
 40
0.0
 40
0.0
 40
0.0
 40
0.0
 40
0.2243030424882868
 40
0.3489011866266555
 40
0.4744001356117536
 40
0.5826741857065961
 40
0.6867417687947411
 40
0.838156487169633
 40
1.0
 40
1.0
 40
1.0
 40
1.0
 10
1634.445471670967
 20
601.8635254791627
 30
0.0
 10
1634.460117209382
 20
601.9281381301925
 30
0.0
 10
1634.482898201005
 20
602.0286424763007
 30
0.0
 10
1634.584682827411
 20
602.1608278119301
 30
0.0
 10
1634.693372868961
 20
602.2431733715603
 30
0.0
 10
1634.814340878819
 20
602.2905543902364
 30
0.0
 10
1634.944635932658
 20
602.3079727376659
 30
0.0
 10
1635.08245263358
 20
602.2905667639508
 30
0.0
 10
1635.161989644421
 20
602.249558285162
 30
0.0
 10
1635.203082097713
 20
602.2283714316276
 30
0.0
  0
SPLINE
  5
1C2
330
1F
100
AcDbEntity
  8
0
  6
Continuous
 62
     7
370
    25
100
AcDbSpline
210
0.0
220
0.0
230
1.0
 70
     8
 71
     3
 72
    26
 73
    22
 74
     0
 42
0.000000001
 43
0.00000001
 40
0.0
 40
0.0
 40
0.0
 40
0.0
 40
0.0854261159360918
 40
0.1733276547195574
 40
0.2448517261352454
 40
0.3181224083912692
 40
0.3577740645396624
 40
0.398084409431317
 40
0.4287682032815265
 40
0.4601978879083188
 40
0.4855692359538052
 40
0.5116681185372413
 40
0.537045356164517
 40
0.5630880149114009
 40
0.5995557531473527
 40
0.6370345873825464
 40
0.6960497304231498
 40
0.7566321175831363
 40
0.8401423063242318
 40
0.9260534647419588
 40
1.0
 40
1.0
 40
1.0
 40
1.0
 10
1628.682139268399
 20
601.8635254791625
 30
0.0
 10
1628.723560844373
 20
601.6474587623908
 30
0.0
 10
1628.807604284015
 20
601.209064286994
 30
0.0
 10
1629.096178748338
 20
600.651953396346
 30
0.0
 10
1629.470546279855
 20
600.1804697671821
 30
0.0
 10
1629.851511380973
 20
599.8586597577226
 30
0.0
 10
1630.226710847391
 20
599.6346185011726
 30
0.0
 10
1630.531546661775
 20
599.4992961495335
 30
0.0
 10
1630.842841116762
 20
599.4018377012569
 30
0.0
 10
1631.129905928722
 20
599.3440545739502
 30
0.0
 10
1631.414943874757
 20
599.316043884009
 30
0.0
 10
1631.683806117981
 20
599.3146938166894
 30
0.0
 10
1631.951225514828
 20
599.3383173380762
 30
0.0
 10
1632.242403542923
 20
599.3910501383746
 30
0.0
 10
1632.550957574428
 20
599.4820380801111
 30
0.0
 10
1632.920980037028
 20
599.6410257685419
 30
0.0
 10
1633.300476930302
 20
599.8757434110098
 30
0.0
 10
1633.709547288258
 20
600.2358058840096
 30
0.0
 10
1634.069447359189
 20
600.7088086298897
 30
0.0
 10
1634.337038803569
 20
601.2711074770486
 30
0.0
 10
1634.411177018177
 20
601.6761582151889
 30
0.0
 10
1634.445471670967
 20
601.8635254791627
 30
0.0
  0
SPLINE
  5
1C3
330
1F
100
AcDbEntity
  8
0
  6
Continuous
 62
     7
370
    25
100
AcDbSpline
210
0.0
220
0.0
230
1.0
 70
     8
 71
     3
 72
    14
 73
    10
 74
     0
 42
0.000000001
 43
0.00000001
 40
0.0
 40
0.0
 40
0.0
 40
0.0
 40
0.2239799089305531
 40
0.3530600787849406
 40
0.4831615846560053
 40
0.5937368434043864
 40
0.6971871626480907
 40
0.8442013099709667
 40
1.0
 40
1.0
 40
1.0
 40
1.0
 10
1627.924528841652
 20
602.2283714316276
 30
0.0
 10
1627.983149194324
 20
602.2567894383956
 30
0.0
 10
1628.075552599752
 20
602.3015848120356
 30
0.0
 10
1628.242590783344
 20
602.3053100153971
 30
0.0
 10
1628.378022097449
 20
602.2707933218566
 30
0.0
 10
1628.492462678247
 20
602.2033118280208
 30
0.0
 10
1628.586281777023
 20
602.1110959863495
 30
0.0
 10
1628.656390005968
 20
601.9936661695929
 30
0.0
 10
1628.673391774896
 20
601.9077366423758
 30
0.0
 10
1628.682139268399
 20
601.8635254791625
 30
0.0
  0
SPLINE
  5
1C4
330
1F
100
AcDbEntity
  8
0
  6
Continuous
 62
     7
370
    25
100
AcDbSpline
210
0.0
220
0.0
230
1.0
 70
     8
 71
     3
 72
    24
 73
    20
 74
     0
 42
0.000000001
 43
0.00000001
 40
0.0
 40
0.0
 40
0.0
 40
0.0
 40
0.0875562630610312
 40
0.1776478778994356
 40
0.2471757028850855
 40
0.3182848495519436
 40
0.3544514774164575
 40
0.3911558340110772
 40
0.4196735717850661
 40
0.4488792169076928
 40
0.4956340312872249
 40
0.542364961883542
 40
0.5763627331264956
 40
0.6112927856933144
 40
0.6689340598446842
 40
0.7280698917726421
 40
0.8133417532352671
 40
0.901057072756078
 40
1.0
 40
1.0
 40
1.0
 40
1.0
 10
1624.331149863929
 20
606.7343261478835
 30
0.0
 10
1624.185075782826
 20
606.5632374154457
 30
0.0
 10
1623.888697778367
 20
606.2161057633226
 30
0.0
 10
1623.635625051119
 20
605.6366406718114
 30
0.0
 10
1623.506006429332
 20
605.0535887340772
 30
0.0
 10
1623.493612339772
 20
604.5736118608497
 30
0.0
 10
1623.547660079999
 20
604.1627557846742
 30
0.0
 10
1623.62158919729
 20
603.8628294233415
 30
0.0
 10
1623.725677512741
 20
603.576136034669
 30
0.0
 10
1623.879038813189
 20
603.2556962659492
 30
0.0
 10
1624.123504136066
 20
602.8857197031248
 30
0.0
 10
1624.433844768014
 20
602.559925405691
 30
0.0
 10
1624.729628756076
 20
602.3257151604939
 30
0.0
 10
1625.058797372061
 20
602.1203492645932
 30
0.0
 10
1625.455632368573
 20
601.9460842108949
 30
0.0
 10
1625.981714024019
 20
601.8119222269146
 30
0.0
 10
1626.579625024007
 20
601.7820805554439
 30
0.0
 10
1627.265836841253
 20
601.8911230846604
 30
0.0
 10
1627.696333299747
 20
602.1115359922323
 30
0.0
 10
1627.924528841652
 20
602.2283714316276
 30
0.0
  0
SPLINE
  5
1C5
330
1F
100
AcDbEntity
  8
0
  6
Continuous
 62
     7
370
    25
100
AcDbSpline
210
0.0
220
0.0
230
1.0
 70
     8
 71
     3
 72
    14
 73
    10
 74
     0
 42
0.000000001
 43
0.00000001
 40
0.0
 40
0.0
 40
0.0
 40
0.0
 40
0.2200911109485839
 40
0.3501199592092674
 40
0.4590676183976911
 40
0.5685351145661591
 40
0.6668402217389687
 40
0.7968948941936455
 40
1.0
 40
1.0
 40
1.0
 40
1.0
 10
1624.144035540959
 20
607.5541275615714
 30
0.0
 10
1624.200442964824
 20
607.5274842397847
 30
0.0
 10
1624.29017564352
 20
607.4851001621319
 30
0.0
 10
1624.392442611215
 20
607.3669087474067
 30
0.0
 10
1624.450715325227
 20
607.2510286561743
 30
0.0
 10
1624.476661752653
 20
607.1290428141963
 30
0.0
 10
1624.472099824215
 20
607.0013781264897
 30
0.0
 10
1624.430226519607
 20
606.8555764720954
 30
0.0
 10
1624.368674183034
 20
606.780248528147
 30
0.0
 10
1624.331149863929
 20
606.7343261478835
 30
0.0
  0
SPLINE
  5
1C6
330
1F
100
AcDbEntity
  8
0
  6
Continuous
 62
     7
370
    25
100
AcDbSpline
210
0.0
220
0.0
230
1.0
 70
     8
 71
     3
 72
    27
 73
    23
 74
     0
 42
0.000000001
 43
0.00000001
 40
0.0
 40
0.0
 40
0.0
 40
0.0
 40
0.0910683471803932
 40
0.1847464164709025
 40
0.2588266946055637
 40
0.3345190598259244
 40
0.3626447427195138
 40
0.3910056482847364
 40
0.4191743039829827
 40
0.4481203606979564
 40
0.4657704782447473
 40
0.4839081706433124
 40
0.501572154876461
 40
0.5197440214872884
 40
0.5448446854435486
 40
0.5706253690117578
 40
0.6177938154944718
 40
0.6660858441031493
 40
0.7518796859636194
 40
0.8400397940083003
 40
0.9191574739584815
 40
1.0
 40
1.0
 40
1.0
 40
1.0
 10
1625.426497649879
 20
613.1729611880163
 30
0.0
 10
1625.189940303491
 20
613.1799461414704
 30
0.0
 10
1624.71004664792
 20
613.1941162143861
 30
0.0
 10
1624.074447230055
 20
613.011564674821
 30
0.0
 10
1623.520454168008
 20
612.7229315959244
 30
0.0
 10
1623.149241240341
 20
612.4208931448004
 30
0.0
 10
1622.894665878969
 20
612.139610128532
 30
0.0
 10
1622.739668122813
 20
611.9356229733706
 30
0.0
 10
1622.593125775042
 20
611.7014712561414
 30
0.0
 10
1622.476883654011
 20
611.4670200253429
 30
0.0
 10
1622.39015247719
 20
611.2445904924726
 30
0.0
 10
1622.329983417344
 20
611.0516837405415
 30
0.0
 10
1622.283200386689
 20
610.8535662586355
 30
0.0
 10
1622.247004860178
 20
610.6328728331547
 30
0.0
 10
1622.227430306152
 20
610.3928942343288
 30
0.0
 10
1622.229717179383
 20
610.0741828424628
 30
0.0
 10
1622.275764751535
 20
609.7149543217613
 30
0.0
 10
1622.408158841202
 20
609.2317017816206
 30
0.0
 10
1622.662436244597
 20
608.7097393403313
 30
0.0
 10
1623.069264816291
 20
608.2111937993863
 30
0.0
 10
1623.562023914411
 20
607.8086291103626
 30
0.0
 10
1623.94864203492
 20
607.639569067621
 30
0.0
 10
1624.144035540959
 20
607.5541275615714
 30
0.0
  0
SPLINE
  5
1C7
330
1F
100
AcDbEntity
  8
0
  6
Continuous
 62
     7
370
    25
100
AcDbSpline
210
0.0
220
0.0
230
1.0
 70
     8
 71
     3
 72
    15
 73
    11
 74
     0
 42
0.000000001
 43
0.00000001
 40
0.0
 40
0.0
 40
0.0
 40
0.0
 40
0.2150763736126738
 40
0.3413349926978222
 40
0.446593490352974
 40
0.5524796219272535
 40
0.6449070621726983
 40
0.7662146539024285
 40
0.9406316560516657
 40
1.0
 40
1.0
 40
1.0
 40
1.0
 10
1625.950780332319
 20
613.8303908775188
 30
0.0
 10
1625.964810045225
 20
613.7722106157847
 30
0.0
 10
1625.987075772844
 20
613.6798761632339
 30
0.0
 10
1625.962375763583
 20
613.5308116297604
 30
0.0
 10
1625.912584340548
 20
613.4144584883982
 30
0.0
 10
1625.838085211599
 20
613.317739450848
 30
0.0
 10
1625.741107841801
 20
613.2400805418389
 30
0.0
 10
1625.615908098182
 20
613.1824914505341
 30
0.0
 10
1625.507058918617
 20
613.1671846041658
 30
0.0
 10
1625.442812604368
 20
613.1717913367454
 30
0.0
 10
1625.426497649879
 20
613.1729611880163
 30
0.0
  0
SPLINE
  5
1C8
330
1F
100
AcDbEntity
  8
0
  6
Continuous
 62
     7
370
    25
100
AcDbSpline
210
0.0
220
0.0
230
1.0
 70
     8
 71
     3
 72
    26
 73
    22
 74
     0
 42
0.000000001
 43
0.00000001
 40
0.0
 40
0.0
 40
0.0
 40
0.0
 40
0.0912035599485244
 40
0.1849670362499695
 40
0.2785634207445228
 40
0.3265394520589588
 40
0.3749439889045985
 40
0.4231405593180557
 40
0.4430841889857747
 40
0.4634373414447631
 40
0.4878409265543382
 40
0.5123587387506972
 40
0.5280992736585298
 40
0.5442699367721624
 40
0.5755700365325684
 40
0.6075525397506825
 40
0.683442401457062
 40
0.7611024134337999
 40
0.8469107031299032
 40
0.9346000221708236
 40
0.9999999999999999
 40
0.9999999999999999
 40
0.9999999999999999
 40
0.9999999999999999
 10
1631.143363402406
 20
616.3310070901231
 30
0.0
 10
1630.9957404484
 20
616.526470815816
 30
0.0
 10
1630.696351035307
 20
616.9228845748423
 30
0.0
 10
1630.103332769062
 20
617.3331682202902
 30
0.0
 10
1629.545347217512
 20
617.5568038336949
 30
0.0
 10
1629.057579285518
 20
617.649720158819
 30
0.0
 10
1628.664297146782
 20
617.672356760142
 30
0.0
 10
1628.320164803256
 20
617.6445903028819
 30
0.0
 10
1628.032764368106
 20
617.5875704554907
 30
0.0
 10
1627.808126097697
 20
617.5260942616591
 30
0.0
 10
1627.548699358097
 20
617.4301295368757
 30
0.0
 10
1627.310518003023
 20
617.3118940332577
 30
0.0
 10
1627.127383622379
 20
617.2013608845102
 30
0.0
 10
1626.943078981964
 20
617.0744414748901
 30
0.0
 10
1626.745841164469
 20
616.9120595889098
 30
0.0
 10
1626.457775988226
 20
616.6225648803461
 30
0.0
 10
1626.167503136169
 20
616.2178857370245
 30
0.0
 10
1625.916045119068
 20
615.656015042783
 30
0.0
 10
1625.786617950168
 20
615.0271539171997
 30
0.0
 10
1625.792294253219
 20
614.4017557270581
 30
0.0
 10
1625.903340996573
 20
614.0014164280575
 30
0.0
 10
1625.950780332319
 20
613.8303908775188
 30
0.0
  0
SPLINE
  5
1C9
330
1F
100
AcDbEntity
  8
0
  6
Continuous
 62
     7
370
    25
100
AcDbSpline
210
0.0
220
0.0
230
1.0
 70
     8
 71
     3
 72
    15
 73
    11
 74
     0
 42
0.000000001
 43
0.00000001
 40
0.0
 40
0.0
 40
0.0
 40
0.0
 40
0.21292940532031
 40
0.3333107283176499
 40
0.4345062010027768
 40
0.5362836886507053
 40
0.6256367151021829
 40
0.745636854756794
 40
0.9211927176880819
 40
1.0
 40
1.0
 40
1.0
 40
1.0
 10
1631.98424753696
 20
616.3310070901231
 30
0.0
 10
1631.947783629352
 20
616.2839743116773
 30
0.0
 10
1631.890704563245
 20
616.2103511800345
 30
0.0
 10
1631.761076051449
 20
616.1370683679934
 30
0.0
 10
1631.642917441373
 20
616.102966333292
 30
0.0
 10
1631.524171323465
 20
616.0987551144962
 30
0.0
 10
1631.404843982751
 20
616.1225815481839
 30
0.0
 10
1631.280964710657
 20
616.1805579756726
 30
0.0
 10
1631.194921151701
 20
616.2571837924778
 30
0.0
 10
1631.155558740791
 20
616.3135451157773
 30
0.0
 10
1631.143363402406
 20
616.3310070901231
 30
0.0
  0
SPLINE
  5
1CA
330
1F
100
AcDbEntity
  8
0
  6
Continuous
 62
     7
370
    25
100
AcDbSpline
210
0.0
220
0.0
230
1.0
 70
     8
 71
     3
 72
    24
 73
    20
 74
     0
 42
0.000000001
 43
0.00000001
 40
0.0
 40
0.0
 40
0.0
 40
0.0
 40
0.089724885751596
 40
0.1819668927373636
 40
0.2741792027342791
 40
0.3215501726634974
 40
0.3689029355448357
 40
0.4236957802800297
 40
0.4510753756637201
 40
0.4792846301673053
 40
0.5038350236657084
 40
0.5284871230185134
 40
0.5612103000923977
 40
0.601383583566777
 40
0.6426807853470327
 40
0.7287537050022392
 40
0.8170308395907493
 40
0.9073440868217484
 40
0.9999999999999999
 40
0.9999999999999999
 40
0.9999999999999999
 40
0.9999999999999999
 10
1637.176830607047
 20
613.8303908775197
 30
0.0
 10
1637.237208595458
 20
614.0656168300002
 30
0.0
 10
1637.359658402429
 20
614.5426677095362
 30
0.0
 10
1637.31377003975
 20
615.2537023674167
 30
0.0
 10
1637.146786362707
 20
615.8214488666365
 30
0.0
 10
1636.926436143217
 20
616.2513347806605
 30
0.0
 10
1636.700193565166
 20
616.5804732452943
 30
0.0
 10
1636.450702964969
 20
616.8525098053248
 30
0.0
 10
1636.181323223688
 20
617.0779610945472
 30
0.0
 10
1635.946277012917
 20
617.2394133636037
 30
0.0
 10
1635.673323973628
 20
617.387446982119
 30
0.0
 10
1635.36270532227
 20
617.5149398000187
 30
0.0
 10
1635.020096627593
 20
617.6097026479217
 30
0.0
 10
1634.666570513586
 20
617.6606118708207
 30
0.0
 10
1634.191228149831
 20
617.670244475099
 30
0.0
 10
1633.631556430475
 20
617.579492260232
 30
0.0
 10
1633.007351591553
 20
617.321162835935
 30
0.0
 10
1632.430795033877
 20
616.9211237427322
 30
0.0
 10
1632.134361841024
 20
616.5293845331383
 30
0.0
 10
1631.98424753696
 20
616.3310070901231
 30
0.0
  0
SPLINE
  5
1CB
330
1F
100
AcDbEntity
  8
0
  6
Continuous
 62
     7
370
    25
100
AcDbSpline
210
0.0
220
0.0
230
1.0
 70
     8
 71
     3
 72
    15
 73
    11
 74
     0
 42
0.000000001
 43
0.00000001
 40
0.0
 40
0.0
 40
0.0
 40
0.0
 40
0.2155767705933857
 40
0.332900553867743
 40
0.4328760582231042
 40
0.5332634977247832
 40
0.6250838127945076
 40
0.7535547096888764
 40
0.9421338378892115
 40
1.0
 40
1.0
 40
1.0
 40
1.0
 10
1637.701113289487
 20
613.1729611880171
 30
0.0
 10
1637.639283528219
 20
613.172309667562
 30
0.0
 10
1637.543804030521
 20
613.1713035688076
 30
0.0
 10
1637.403816162671
 20
613.2301449672356
 30
0.0
 10
1637.305390054135
 20
613.3021044614949
 30
0.0
 10
1637.229993218976
 20
613.3920686963821
 30
0.0
 10
1637.174564335001
 20
613.5016505009183
 30
0.0
 10
1637.143504720267
 20
613.640033027984
 30
0.0
 10
1637.152911338539
 20
613.7522864510024
 30
0.0
 10
1637.172282252859
 20
613.8155389770393
 30
0.0
 10
1637.176830607047
 20
613.8303908775197
 30
0.0
  0
SPLINE
  5
1CC
330
1F
100
AcDbEntity
  8
0
  6
Continuous
 62
     7
370
    25
100
AcDbSpline
210
0.0
220
0.0
230
1.0
 70
     8
 71
     3
 72
    27
 73
    23
 74
     0
 42
0.000000001
 43
0.00000001
 40
0.0
 40
0.0
 40
0.0
 40
0.0
 40
0.0885627570442146
 40
0.1796538943995935
 40
0.2695908295576355
 40
0.3157544754264164
 40
0.3623424134621822
 40
0.4187626527282484
 40
0.4469315743364936
 40
0.4757555362193687
 40
0.4937367345958544
 40
0.5121853392428822
 40
0.530189125506262
 40
0.5487612444758522
 40
0.5721476357447853
 40
0.5961816793253188
 40
0.6385637840833048
 40
0.6819638929543734
 40
0.7628695907407564
 40
0.8459362592691205
 40
0.922227319177064
 40
1.0
 40
1.0
 40
1.0
 40
1.0
 10
1624.144035540975
 20
878.7831766952567
 30
0.0
 10
1623.930715146913
 20
878.6882577674543
 30
0.0
 10
1623.497984269656
 20
878.4957100690642
 30
0.0
 10
1622.979924233019
 20
878.0384429128025
 30
0.0
 10
1622.637989209469
 20
877.5710693410188
 30
0.0
 10
1622.432160472638
 20
877.140547909466
 30
0.0
 10
1622.305038550272
 20
876.7572072169779
 30
0.0
 10
1622.238737862033
 20
876.3822987848636
 30
0.0
 10
1622.224801283269
 20
876.0227227411605
 30
0.0
 10
1622.239727604972
 20
875.7660340627432
 30
0.0
 10
1622.274039347654
 20
875.5314608868161
 30
0.0
 10
1622.317689766209
 20
875.3316861680984
 30
0.0
 10
1622.376641132783
 20
875.1317961405553
 30
0.0
 10
1622.454730386499
 20
874.9232104843321
 30
0.0
 10
1622.554054860175
 20
874.7110760484024
 30
0.0
 10
1622.703011636788
 20
874.4522617632878
 30
0.0
 10
1622.902388090882
 20
874.1812988351961
 30
0.0
 10
1623.228316116567
 20
873.8407438694004
 30
0.0
 10
1623.671740468174
 20
873.5168890092017
 30
0.0
 10
1624.233505041213
 20
873.2718211991307
 30
0.0
 10
1624.82400711841
 20
873.1401294353103
 30
0.0
 10
1625.224384006621
 20
873.1562202761231
 30
0.0
 10
1625.426497649896
 20
873.1643430688113
 30
0.0
  0
SPLINE
  5
1CD
330
1F
100
AcDbEntity
  8
0
  6
Continuous
 62
     7
370
    25
100
AcDbSpline
210
0.0
220
0.0
230
1.0
 70
     8
 71
     3
 72
    14
 73
    10
 74
     0
 42
0.000000001
 43
0.00000001
 40
0.0
 40
0.0
 40
0.0
 40
0.0
 40
0.220765348438307
 40
0.3402146168140888
 40
0.4605704991791176
 40
0.5641909618660997
 40
0.6633542991972022
 40
0.8105247403618681
 40
1.0
 40
1.0
 40
1.0
 40
1.0
 10
1624.331149863945
 20
879.6029781089445
 30
0.0
 10
1624.371848659467
 20
879.5524356693026
 30
0.0
 10
1624.434568308275
 20
879.4745462864926
 30
0.0
 10
1624.475509713651
 20
879.3166329904553
 30
0.0
 10
1624.474830617684
 20
879.184127808386
 30
0.0
 10
1624.440795711865
 20
879.0626162340639
 30
0.0
 10
1624.378748156462
 20
878.950654013215
 30
0.0
 10
1624.278341835396
 20
878.8447826325673
 30
0.0
 10
1624.192404113832
 20
878.8053632299984
 30
0.0
 10
1624.144035540975
 20
878.7831766952567
 30
0.0
  0
SPLINE
  5
1CE
330
1F
100
AcDbEntity
  8
0
  6
Continuous
 62
     7
370
    25
100
AcDbSpline
210
0.0
220
0.0
230
1.0
 70
     8
 71
     3
 72
    24
 73
    20
 74
     0
 42
0.000000001
 43
0.00000001
 40
0.0
 40
0.0
 40
0.0
 40
0.0
 40
0.0863790768596618
 40
0.1752542427071472
 40
0.2620842456789104
 40
0.3070649132850746
 40
0.3520190851009298
 40
0.419320054231441
 40
0.4528774529345842
 40
0.4876252663406359
 40
0.5342920749946458
 40
0.5808562308579927
 40
0.6174647672988366
 40
0.6550630194695123
 40
0.7176552952223882
 40
0.7818848654491317
 40
0.8689583501259632
 40
0.9585482528059901
 40
1.0
 40
1.0
 40
1.0
 40
1.0
 10
1627.924528841669
 20
884.1089328252008
 30
0.0
 10
1627.72618911833
 20
884.2127677398906
 30
0.0
 10
1627.323778265191
 20
884.4234380781496
 30
0.0
 10
1626.666187831536
 20
884.5495790229309
 30
0.0
 10
1626.09892763032
 20
884.5371008492139
 30
0.0
 10
1625.63988046184
 20
884.4421988852491
 30
0.0
 10
1625.229906202544
 20
884.3023646460373
 30
0.0
 10
1624.847353353903
 20
884.0992487026178
 30
0.0
 10
1624.499274057836
 20
883.831909606696
 30
0.0
 10
1624.215622924371
 20
883.5556372865503
 30
0.0
 10
1623.93531024765
 20
883.1855973593225
 30
0.0
 10
1623.729630454343
 20
882.7836064281064
 30
0.0
 10
1623.603808323625
 20
882.417987142744
 30
0.0
 10
1623.516915243796
 20
882.0168939089302
 30
0.0
 10
1623.488831162661
 20
881.5574883325995
 30
0.0
 10
1623.553216240568
 20
880.9953669755279
 30
0.0
 10
1623.746582849619
 20
880.4091773063011
 30
0.0
 10
1624.031620342107
 20
879.9305156959773
 30
0.0
 10
1624.259170169491
 20
879.6816883986426
 30
0.0
 10
1624.331149863945
 20
879.6029781089445
 30
0.0
  0
SPLINE
  5
1CF
330
1F
100
AcDbEntity
  8
0
  6
Continuous
 62
     7
370
    25
100
AcDbSpline
210
0.0
220
0.0
230
1.0
 70
     8
 71
     3
 72
    14
 73
    10
 74
     0
 42
0.000000001
 43
0.00000001
 40
0.0
 40
0.0
 40
0.0
 40
0.0
 40
0.2243030424882868
 40
0.3489011866266555
 40
0.4744001356117536
 40
0.5826741857065961
 40
0.6867417687947411
 40
0.838156487169633
 40
1.0
 40
1.0
 40
1.0
 40
1.0
 10
1628.682139268415
 20
884.4737787776658
 30
0.0
 10
1628.66749373
 20
884.4091661266361
 30
0.0
 10
1628.644712738377
 20
884.3086617805278
 30
0.0
 10
1628.542928111971
 20
884.1764764448984
 30
0.0
 10
1628.434238070421
 20
884.0941308852682
 30
0.0
 10
1628.313270060564
 20
884.0467498665921
 30
0.0
 10
1628.182975006724
 20
884.0293315191626
 30
0.0
 10
1628.045158305802
 20
884.0467374928776
 30
0.0
 10
1627.965621294962
 20
884.0877459716664
 30
0.0
 10
1627.924528841669
 20
884.1089328252008
 30
0.0
  0
SPLINE
  5
1D0
330
1F
100
AcDbEntity
  8
0
  6
Continuous
 62
     7
370
    25
100
AcDbSpline
210
0.0
220
0.0
230
1.0
 70
     8
 71
     3
 72
    26
 73
    22
 74
     0
 42
0.000000001
 43
0.00000001
 40
0.0
 40
0.0
 40
0.0
 40
0.0
 40
0.0854261159360918
 40
0.1733276547195574
 40
0.2448517261352454
 40
0.3181224083912692
 40
0.3577740645396624
 40
0.398084409431317
 40
0.4287682032815265
 40
0.4601978879083188
 40
0.4855692359538052
 40
0.5116681185372413
 40
0.537045356164517
 40
0.5630880149114009
 40
0.5995557531473527
 40
0.6370345873825464
 40
0.6960497304231498
 40
0.7566321175831363
 40
0.8401423063242318
 40
0.9260534647419588
 40
1.0
 40
1.0
 40
1.0
 40
1.0
 10
1634.445471670984
 20
884.473778777666
 30
0.0
 10
1634.404050095009
 20
884.6898454944377
 30
0.0
 10
1634.320006655367
 20
885.1282399698346
 30
0.0
 10
1634.031432191045
 20
885.6853508604826
 30
0.0
 10
1633.657064659527
 20
886.1568344896465
 30
0.0
 10
1633.276099558409
 20
886.4786444991057
 30
0.0
 10
1632.900900091991
 20
886.7026857556559
 30
0.0
 10
1632.596064277607
 20
886.8380081072949
 30
0.0
 10
1632.28476982262
 20
886.9354665555715
 30
0.0
 10
1631.99770501066
 20
886.9932496828784
 30
0.0
 10
1631.712667064626
 20
887.0212603728195
 30
0.0
 10
1631.443804821401
 20
887.0226104401389
 30
0.0
 10
1631.176385424554
 20
886.9989869187523
 30
0.0
 10
1630.88520739646
 20
886.9462541184539
 30
0.0
 10
1630.576653364954
 20
886.8552661767174
 30
0.0
 10
1630.206630902354
 20
886.6962784882866
 30
0.0
 10
1629.827134009081
 20
886.4615608458186
 30
0.0
 10
1629.418063651125
 20
886.1014983728189
 30
0.0
 10
1629.058163580193
 20
885.6284956269386
 30
0.0
 10
1628.790572135813
 20
885.0661967797798
 30
0.0
 10
1628.716433921206
 20
884.6611460416395
 30
0.0
 10
1628.682139268415
 20
884.4737787776658
 30
0.0
  0
SPLINE
  5
1D1
330
1F
100
AcDbEntity
  8
0
  6
Continuous
 62
     7
370
    25
100
AcDbSpline
210
0.0
220
0.0
230
1.0
 70
     8
 71
     3
 72
    14
 73
    10
 74
     0
 42
0.000000001
 43
0.00000001
 40
0.0
 40
0.0
 40
0.0
 40
0.0
 40
0.2239799089305531
 40
0.3530600787849406
 40
0.4831615846560053
 40
0.5937368434043864
 40
0.6971871626480907
 40
0.8442013099709667
 40
1.0
 40
1.0
 40
1.0
 40
1.0
 10
1635.20308209773
 20
884.1089328252008
 30
0.0
 10
1635.144461745059
 20
884.0805148184329
 30
0.0
 10
1635.052058339631
 20
884.0357194447929
 30
0.0
 10
1634.885020156039
 20
884.0319942414312
 30
0.0
 10
1634.749588841934
 20
884.0665109349718
 30
0.0
 10
1634.635148261135
 20
884.1339924288076
 30
0.0
 10
1634.54132916236
 20
884.2262082704791
 30
0.0
 10
1634.471220933415
 20
884.3436380872356
 30
0.0
 10
1634.454219164486
 20
884.4295676144527
 30
0.0
 10
1634.445471670984
 20
884.473778777666
 30
0.0
  0
SPLINE
  5
1D2
330
1F
100
AcDbEntity
  8
0
  6
Continuous
 62
     7
370
    25
100
AcDbSpline
210
0.0
220
0.0
230
1.0
 70
     8
 71
     3
 72
    24
 73
    20
 74
     0
 42
0.000000001
 43
0.00000001
 40
0.0
 40
0.0
 40
0.0
 40
0.0
 40
0.0875562630610312
 40
0.1776478778994356
 40
0.2471757028850855
 40
0.3182848495519436
 40
0.3544514774164575
 40
0.3911558340110772
 40
0.4196735717850661
 40
0.4488792169076928
 40
0.4956340312872249
 40
0.542364961883542
 40
0.5763627331264956
 40
0.6112927856933144
 40
0.6689340598446842
 40
0.7280698917726421
 40
0.8133417532352669
 40
0.901057072756078
 40
1.0
 40
1.0
 40
1.0
 40
1.0
 10
1638.796461075453
 20
879.602978108945
 30
0.0
 10
1638.942535156556
 20
879.7740668413828
 30
0.0
 10
1639.238913161015
 20
880.1211984935059
 30
0.0
 10
1639.491985888264
 20
880.7006635850171
 30
0.0
 10
1639.621604510051
 20
881.2837155227514
 30
0.0
 10
1639.633998599611
 20
881.7636923959788
 30
0.0
 10
1639.579950859383
 20
882.1745484721544
 30
0.0
 10
1639.506021742092
 20
882.474474833487
 30
0.0
 10
1639.401933426641
 20
882.7611682221595
 30
0.0
 10
1639.248572126194
 20
883.0816079908793
 30
0.0
 10
1639.004106803317
 20
883.4515845537037
 30
0.0
 10
1638.693766171368
 20
883.7773788511374
 30
0.0
 10
1638.397982183306
 20
884.0115890963345
 30
0.0
 10
1638.068813567321
 20
884.2169549922352
 30
0.0
 10
1637.671978570809
 20
884.3912200459337
 30
0.0
 10
1637.145896915363
 20
884.525382029914
 30
0.0
 10
1636.547985915375
 20
884.5552237013844
 30
0.0
 10
1635.86177409813
 20
884.446181172168
 30
0.0
 10
1635.431277639635
 20
884.2257682645961
 30
0.0
 10
1635.20308209773
 20
884.1089328252008
 30
0.0
  0
SPLINE
  5
1D3
330
1F
100
AcDbEntity
  8
0
  6
Continuous
 62
     7
370
    25
100
AcDbSpline
210
0.0
220
0.0
230
1.0
 70
     8
 71
     3
 72
    14
 73
    10
 74
     0
 42
0.000000001
 43
0.00000001
 40
0.0
 40
0.0
 40
0.0
 40
0.0
 40
0.2200911109485839
 40
0.3501199592092674
 40
0.4590676183976911
 40
0.5685351145661591
 40
0.6668402217389687
 40
0.7968948941936455
 40
1.0
 40
1.0
 40
1.0
 40
1.0
 10
1638.983575398423
 20
878.7831766952571
 30
0.0
 10
1638.927167974558
 20
878.8098200170439
 30
0.0
 10
1638.837435295862
 20
878.8522040946966
 30
0.0
 10
1638.735168328167
 20
878.9703955094218
 30
0.0
 10
1638.676895614155
 20
879.0862756006542
 30
0.0
 10
1638.65094918673
 20
879.2082614426322
 30
0.0
 10
1638.655511115167
 20
879.3359261303387
 30
0.0
 10
1638.697384419776
 20
879.481727784733
 30
0.0
 10
1638.758936756349
 20
879.5570557286815
 30
0.0
 10
1638.796461075453
 20
879.602978108945
 30
0.0
  0
SPLINE
  5
1D4
330
1F
100
AcDbEntity
  8
0
  6
Continuous
 62
     7
370
    25
100
AcDbSpline
210
0.0
220
0.0
230
1.0
 70
     8
 71
     3
 72
    27
 73
    23
 74
     0
 42
0.000000001
 43
0.00000001
 40
0.0
 40
0.0
 40
0.0
 40
0.0
 40
0.0910683471803932
 40
0.1847464164709026
 40
0.2588266946055638
 40
0.3345190598259244
 40
0.3626447427195138
 40
0.3910056482847364
 40
0.4191743039829827
 40
0.4481203606979564
 40
0.4657704782447473
 40
0.4839081706433124
 40
0.501572154876461
 40
0.5197440214872884
 40
0.5448446854435486
 40
0.5706253690117578
 40
0.6177938154944718
 40
0.6660858441031493
 40
0.7518796859636194
 40
0.8400397940083003
 40
0.9191574739584815
 40
1.0
 40
1.0
 40
1.0
 40
1.0
 10
1637.701113289503
 20
873.1643430688122
 30
0.0
 10
1637.937670635892
 20
873.1573581153581
 30
0.0
 10
1638.417564291462
 20
873.1431880424423
 30
0.0
 10
1639.053163709327
 20
873.3257395820075
 30
0.0
 10
1639.607156771374
 20
873.6143726609041
 30
0.0
 10
1639.978369699042
 20
873.9164111120281
 30
0.0
 10
1640.232945060413
 20
874.1976941282963
 30
0.0
 10
1640.387942816569
 20
874.401681283458
 30
0.0
 10
1640.534485164341
 20
874.6358330006871
 30
0.0
 10
1640.650727285371
 20
874.8702842314855
 30
0.0
 10
1640.737458462193
 20
875.0927137643557
 30
0.0
 10
1640.797627522038
 20
875.285620516287
 30
0.0
 10
1640.844410552694
 20
875.483737998193
 30
0.0
 10
1640.880606079205
 20
875.7044314236738
 30
0.0
 10
1640.900180633231
 20
875.9444100224997
 30
0.0
 10
1640.897893759999
 20
876.2631214143657
 30
0.0
 10
1640.851846187848
 20
876.6223499350673
 30
0.0
 10
1640.71945209818
 20
877.105602475208
 30
0.0
 10
1640.465174694786
 20
877.627564916497
 30
0.0
 10
1640.058346123091
 20
878.1261104574422
 30
0.0
 10
1639.565587024971
 20
878.5286751464657
 30
0.0
 10
1639.178968904462
 20
878.6977351892075
 30
0.0
 10
1638.983575398423
 20
878.7831766952571
 30
0.0
  0
SPLINE
  5
1D5
330
1F
100
AcDbEntity
  8
0
  6
Continuous
 62
     7
370
    25
100
AcDbSpline
210
0.0
220
0.0
230
1.0
 70
     8
 71
     3
 72
    15
 73
    11
 74
     0
 42
0.000000001
 43
0.00000001
 40
0.0
 40
0.0
 40
0.0
 40
0.0
 40
0.2150763736126738
 40
0.3413349926978222
 40
0.446593490352974
 40
0.5524796219272535
 40
0.6449070621726983
 40
0.7662146539024285
 40
0.9406316560516657
 40
1.0
 40
1.0
 40
1.0
 40
1.0
 10
1637.176830607063
 20
872.5069133793097
 30
0.0
 10
1637.162800894158
 20
872.5650936410436
 30
0.0
 10
1637.140535166538
 20
872.6574280935946
 30
0.0
 10
1637.165235175799
 20
872.8064926270681
 30
0.0
 10
1637.215026598834
 20
872.9228457684303
 30
0.0
 10
1637.289525727783
 20
873.0195648059805
 30
0.0
 10
1637.386503097581
 20
873.0972237149895
 30
0.0
 10
1637.5117028412
 20
873.1548128062943
 30
0.0
 10
1637.620552020765
 20
873.1701196526627
 30
0.0
 10
1637.684798335014
 20
873.1655129200831
 30
0.0
 10
1637.701113289503
 20
873.1643430688122
 30
0.0
  0
SPLINE
  5
1D6
330
1F
100
AcDbEntity
  8
0
  6
Continuous
 62
     7
370
    25
100
AcDbSpline
210
0.0
220
0.0
230
1.0
 70
     8
 71
     3
 72
    26
 73
    22
 74
     0
 42
0.000000001
 43
0.00000001
 40
0.0
 40
0.0
 40
0.0
 40
0.0
 40
0.0912035599485244
 40
0.1849670362499695
 40
0.2785634207445228
 40
0.3265394520589588
 40
0.3749439889045985
 40
0.4231405593180557
 40
0.4430841889857747
 40
0.4634373414447631
 40
0.4878409265543382
 40
0.5123587387506972
 40
0.5280992736585298
 40
0.5442699367721624
 40
0.5755700365325684
 40
0.6075525397506825
 40
0.683442401457062
 40
0.7611024134337999
 40
0.8469107031299032
 40
0.9346000221708236
 40
0.9999999999999999
 40
0.9999999999999999
 40
0.9999999999999999
 40
0.9999999999999999
 10
1631.984247536976
 20
870.0062971667054
 30
0.0
 10
1632.131870490982
 20
869.8108334410125
 30
0.0
 10
1632.431259904075
 20
869.4144196819861
 30
0.0
 10
1633.02427817032
 20
869.0041360365382
 30
0.0
 10
1633.582263721871
 20
868.7805004231336
 30
0.0
 10
1634.070031653864
 20
868.6875840980093
 30
0.0
 10
1634.4633137926
 20
868.6649474966865
 30
0.0
 10
1634.807446136127
 20
868.6927139539466
 30
0.0
 10
1635.094846571276
 20
868.7497338013378
 30
0.0
 10
1635.319484841685
 20
868.8112099951695
 30
0.0
 10
1635.578911581286
 20
868.9071747199529
 30
0.0
 10
1635.817092936359
 20
869.0254102235709
 30
0.0
 10
1636.000227317004
 20
869.1359433723184
 30
0.0
 10
1636.184531957418
 20
869.2628627819383
 30
0.0
 10
1636.381769774913
 20
869.4252446679187
 30
0.0
 10
1636.669834951156
 20
869.7147393764823
 30
0.0
 10
1636.960107803214
 20
870.119418519804
 30
0.0
 10
1637.211565820313
 20
870.6812892140453
 30
0.0
 10
1637.340992989214
 20
871.3101503396286
 30
0.0
 10
1637.335316686163
 20
871.9355485297705
 30
0.0
 10
1637.224269942809
 20
872.335887828771
 30
0.0
 10
1637.176830607063
 20
872.5069133793097
 30
0.0
  0
SPLINE
  5
1D7
330
1F
100
AcDbEntity
  8
0
  6
Continuous
 62
     7
370
    25
100
AcDbSpline
210
0.0
220
0.0
230
1.0
 70
     8
 71
     3
 72
    15
 73
    11
 74
     0
 42
0.000000001
 43
0.00000001
 40
0.0
 40
0.0
 40
0.0
 40
0.0
 40
0.21292940532031
 40
0.3333107283176499
 40
0.4345062010027768
 40
0.5362836886507053
 40
0.6256367151021829
 40
0.745636854756794
 40
0.9211927176880819
 40
1.0
 40
1.0
 40
1.0
 40
1.0
 10
1631.143363402422
 20
870.0062971667055
 30
0.0
 10
1631.179827310031
 20
870.0533299451512
 30
0.0
 10
1631.236906376138
 20
870.1269530767938
 30
0.0
 10
1631.366534887933
 20
870.200235888835
 30
0.0
 10
1631.48469349801
 20
870.2343379235365
 30
0.0
 10
1631.603439615918
 20
870.2385491423323
 30
0.0
 10
1631.722766956631
 20
870.2147227086446
 30
0.0
 10
1631.846646228725
 20
870.1567462811557
 30
0.0
 10
1631.932689787681
 20
870.0801204643508
 30
0.0
 10
1631.972052198591
 20
870.0237591410512
 30
0.0
 10
1631.984247536976
 20
870.0062971667054
 30
0.0
  0
SPLINE
  5
1D8
330
1F
100
AcDbEntity
  8
0
  6
Continuous
 62
     7
370
    25
100
AcDbSpline
210
0.0
220
0.0
230
1.0
 70
     8
 71
     3
 72
    24
 73
    20
 74
     0
 42
0.000000001
 43
0.00000001
 40
0.0
 40
0.0
 40
0.0
 40
0.0
 40
0.089724885751596
 40
0.1819668927373636
 40
0.2741792027342791
 40
0.3215501726634974
 40
0.3689029355448357
 40
0.4236957802800297
 40
0.4510753756637201
 40
0.4792846301673053
 40
0.5038350236657084
 40
0.5284871230185134
 40
0.5612103000923977
 40
0.601383583566777
 40
0.6426807853470327
 40
0.7287537050022392
 40
0.8170308395907493
 40
0.9073440868217484
 40
0.9999999999999999
 40
0.9999999999999999
 40
0.9999999999999999
 40
0.9999999999999999
 10
1625.950780332335
 20
872.5069133793087
 30
0.0
 10
1625.890402343925
 20
872.2716874268283
 30
0.0
 10
1625.767952536954
 20
871.7946365472923
 30
0.0
 10
1625.813840899633
 20
871.0836018894117
 30
0.0
 10
1625.980824576675
 20
870.5158553901919
 30
0.0
 10
1626.201174796165
 20
870.085969476168
 30
0.0
 10
1626.427417374216
 20
869.7568310115341
 30
0.0
 10
1626.676907974413
 20
869.4847944515037
 30
0.0
 10
1626.946287715694
 20
869.2593431622812
 30
0.0
 10
1627.181333926465
 20
869.0978908932248
 30
0.0
 10
1627.454286965754
 20
868.9498572747095
 30
0.0
 10
1627.764905617113
 20
868.8223644568099
 30
0.0
 10
1628.107514311789
 20
868.7276016089066
 30
0.0
 10
1628.461040425796
 20
868.6766923860077
 30
0.0
 10
1628.936382789551
 20
868.6670597817294
 30
0.0
 10
1629.496054508908
 20
868.7578119965966
 30
0.0
 10
1630.120259347829
 20
869.0161414208934
 30
0.0
 10
1630.696815905505
 20
869.4161805140963
 30
0.0
 10
1630.993249098358
 20
869.80791972369
 30
0.0
 10
1631.143363402422
 20
870.0062971667055
 30
0.0
  0
SPLINE
  5
1D9
330
1F
100
AcDbEntity
  8
0
  6
Continuous
 62
     7
370
    25
100
AcDbSpline
210
0.0
220
0.0
230
1.0
 70
     8
 71
     3
 72
    15
 73
    11
 74
     0
 42
0.000000001
 43
0.00000001
 40
0.0
 40
0.0
 40
0.0
 40
0.0
 40
0.2155767705933857
 40
0.332900553867743
 40
0.4328760582231042
 40
0.5332634977247832
 40
0.6250838127945076
 40
0.7535547096888764
 40
0.9421338378892115
 40
1.0
 40
1.0
 40
1.0
 40
1.0
 10
1625.426497649896
 20
873.1643430688113
 30
0.0
 10
1625.488327411164
 20
873.1649945892664
 30
0.0
 10
1625.583806908862
 20
873.1660006880209
 30
0.0
 10
1625.723794776711
 20
873.1071592895928
 30
0.0
 10
1625.822220885247
 20
873.0351997953335
 30
0.0
 10
1625.897617720406
 20
872.9452355604462
 30
0.0
 10
1625.953046604381
 20
872.8356537559101
 30
0.0
 10
1625.984106219116
 20
872.6972712288444
 30
0.0
 10
1625.974699600844
 20
872.585017805826
 30
0.0
 10
1625.955328686523
 20
872.5217652797891
 30
0.0
 10
1625.950780332335
 20
872.5069133793087
 30
0.0
  0
SPLINE
  5
1DA
330
1F
100
AcDbEntity
  8
0
  6
Continuous
 62
     7
370
    25
100
AcDbSpline
210
0.0
220
0.0
230
1.0
 70
     8
 71
     3
 72
    27
 73
    23
 74
     0
 42
0.000000001
 43
0.00000001
 40
0.0
 40
0.0
 40
0.0
 40
0.0
 40
0.0885627570442148
 40
0.1796538943995939
 40
0.2695908295576361
 40
0.315754475426417
 40
0.3623424134621829
 40
0.4187626527282493
 40
0.4469315743364945
 40
0.4757555362193697
 40
0.4937367345958554
 40
0.5121853392428832
 40
0.5301891255062631
 40
0.5487612444758533
 40
0.5721476357447847
 40
0.5961816793253182
 40
0.6385637840833043
 40
0.681963892954373
 40
0.7628695907407561
 40
0.8459362592691203
 40
0.9222273191770639
 40
1.0
 40
1.0
 40
1.0
 40
1.0
 10
838.9835753984071
 20
607.5541275615717
 30
0.0
 10
839.196895792469
 20
607.6490464893742
 30
0.0
 10
839.6296266697269
 20
607.8415941877644
 30
0.0
 10
840.1476867063635
 20
608.298861344026
 30
0.0
 10
840.4896217299138
 20
608.7662349158096
 30
0.0
 10
840.6954504667449
 20
609.1967563473625
 30
0.0
 10
840.8225723891107
 20
609.5800970398506
 30
0.0
 10
840.8888730773494
 20
609.9550054719649
 30
0.0
 10
840.9028096561136
 20
610.314581515668
 30
0.0
 10
840.8878833344099
 20
610.5712701940853
 30
0.0
 10
840.8535715917288
 20
610.8058433700123
 30
0.0
 10
840.8099211731732
 20
611.0056180887302
 30
0.0
 10
840.7509698065993
 20
611.2055081162732
 30
0.0
 10
840.6728805528835
 20
611.4140937724965
 30
0.0
 10
840.5735560792073
 20
611.6262282084261
 30
0.0
 10
840.4245993025941
 20
611.8850424935406
 30
0.0
 10
840.2252228485005
 20
612.1560054216324
 30
0.0
 10
839.8992948228155
 20
612.4965603874281
 30
0.0
 10
839.455870471209
 20
612.8204152476268
 30
0.0
 10
838.8941058981699
 20
613.0654830576979
 30
0.0
 10
838.3036038209727
 20
613.1971748215183
 30
0.0
 10
837.903226932762
 20
613.1810839807054
 30
0.0
 10
837.701113289487
 20
613.1729611880172
 30
0.0
  0
SPLINE
  5
1DB
330
1F
100
AcDbEntity
  8
0
  6
Continuous
 62
     7
370
    25
100
AcDbSpline
210
0.0
220
0.0
230
1.0
 70
     8
 71
     3
 72
    14
 73
    10
 74
     0
 42
0.000000001
 43
0.00000001
 40
0.0
 40
0.0
 40
0.0
 40
0.0
 40
0.220765348438307
 40
0.3402146168140888
 40
0.4605704991791176
 40
0.5641909618660997
 40
0.6633542991972022
 40
0.8105247403618681
 40
1.0
 40
1.0
 40
1.0
 40
1.0
 10
838.796461075437
 20
606.7343261478838
 30
0.0
 10
838.7557622799155
 20
606.7848685875259
 30
0.0
 10
838.693042631107
 20
606.8627579703359
 30
0.0
 10
838.6521012257309
 20
607.0206712663733
 30
0.0
 10
838.652780321698
 20
607.1531764484424
 30
0.0
 10
838.6868152275171
 20
607.2746880227647
 30
0.0
 10
838.7488627829207
 20
607.3866502436135
 30
0.0
 10
838.8492691039864
 20
607.4925216242611
 30
0.0
 10
838.9352068255505
 20
607.5319410268299
 30
0.0
 10
838.9835753984071
 20
607.5541275615717
 30
0.0
  0
SPLINE
  5
1DC
330
1F
100
AcDbEntity
  8
0
  6
Continuous
 62
     7
370
    25
100
AcDbSpline
210
0.0
220
0.0
230
1.0
 70
     8
 71
     3
 72
    24
 73
    20
 74
     0
 42
0.000000001
 43
0.00000001
 40
0.0
 40
0.0
 40
0.0
 40
0.0
 40
0.0863790768596618
 40
0.1752542427071473
 40
0.2620842456789106
 40
0.3070649132850747
 40
0.3520190851009293
 40
0.4193200542314406
 40
0.4528774529345839
 40
0.4876252663406355
 40
0.5342920749946455
 40
0.5808562308579923
 40
0.6174647672988363
 40
0.655063019469512
 40
0.717655295222388
 40
0.7818848654491315
 40
0.8689583501259631
 40
0.95854825280599
 40
1.0
 40
1.0
 40
1.0
 40
1.0
 10
835.2030820977135
 20
602.2283714316277
 30
0.0
 10
835.4014218210523
 20
602.1245365169378
 30
0.0
 10
835.8038326741918
 20
601.913866178679
 30
0.0
 10
836.4614231078469
 20
601.7877252338976
 30
0.0
 10
837.0286833090624
 20
601.8002034076148
 30
0.0
 10
837.4877304775422
 20
601.8951053715795
 30
0.0
 10
837.8977047368383
 20
602.0349396107912
 30
0.0
 10
838.2802575854796
 20
602.2380555542107
 30
0.0
 10
838.6283368815463
 20
602.5053946501324
 30
0.0
 10
838.9119880150113
 20
602.7816669702781
 30
0.0
 10
839.1923006917331
 20
603.151706897506
 30
0.0
 10
839.3979804850393
 20
603.5536978287221
 30
0.0
 10
839.5238026157573
 20
603.9193171140845
 30
0.0
 10
839.6106956955864
 20
604.3204103478982
 30
0.0
 10
839.6387797767215
 20
604.7798159242288
 30
0.0
 10
839.5743946988143
 20
605.3419372813006
 30
0.0
 10
839.3810280897629
 20
605.9281269505275
 30
0.0
 10
839.095990597275
 20
606.4067885608513
 30
0.0
 10
838.8684407698915
 20
606.6556158581859
 30
0.0
 10
838.796461075437
 20
606.7343261478838
 30
0.0
  0
SPLINE
  5
1DD
330
1F
100
AcDbEntity
  8
0
  6
Continuous
 62
     7
370
    25
100
AcDbSpline
210
0.0
220
0.0
230
1.0
 70
     8
 71
     3
 72
    14
 73
    10
 74
     0
 42
0.000000001
 43
0.00000001
 40
0.0
 40
0.0
 40
0.0
 40
0.0
 40
0.2243030424882868
 40
0.3489011866266555
 40
0.4744001356117536
 40
0.5826741857065961
 40
0.6867417687947411
 40
0.838156487169633
 40
1.0
 40
1.0
 40
1.0
 40
1.0
 10
834.4454716709671
 20
601.8635254791627
 30
0.0
 10
834.4601172093824
 20
601.9281381301925
 30
0.0
 10
834.4828982010054
 20
602.0286424763007
 30
0.0
 10
834.5846828274109
 20
602.1608278119302
 30
0.0
 10
834.6933728689613
 20
602.2431733715604
 30
0.0
 10
834.8143408788186
 20
602.2905543902364
 30
0.0
 10
834.9446359326583
 20
602.307972737666
 30
0.0
 10
835.0824526335804
 20
602.2905667639509
 30
0.0
 10
835.1619896444205
 20
602.2495582851622
 30
0.0
 10
835.2030820977135
 20
602.2283714316277
 30
0.0
  0
SPLINE
  5
1DE
330
1F
100
AcDbEntity
  8
0
  6
Continuous
 62
     7
370
    25
100
AcDbSpline
210
0.0
220
0.0
230
1.0
 70
     8
 71
     3
 72
    26
 73
    22
 74
     0
 42
0.000000001
 43
0.00000001
 40
0.0
 40
0.0
 40
0.0
 40
0.0
 40
0.0854261159360918
 40
0.1733276547195574
 40
0.2448517261352454
 40
0.3181224083912692
 40
0.3577740645396624
 40
0.398084409431317
 40
0.4287682032815265
 40
0.4601978879083188
 40
0.4855692359538052
 40
0.5116681185372413
 40
0.537045356164517
 40
0.5630880149114009
 40
0.5995557531473527
 40
0.6370345873825464
 40
0.6960497304231498
 40
0.7566321175831363
 40
0.8401423063242318
 40
0.9260534647419588
 40
1.0
 40
1.0
 40
1.0
 40
1.0
 10
828.6821392683985
 20
601.8635254791625
 30
0.0
 10
828.7235608443733
 20
601.6474587623908
 30
0.0
 10
828.807604284015
 20
601.209064286994
 30
0.0
 10
829.0961787483377
 20
600.651953396346
 30
0.0
 10
829.4705462798552
 20
600.1804697671821
 30
0.0
 10
829.8515113809729
 20
599.8586597577226
 30
0.0
 10
830.2267108473914
 20
599.6346185011727
 30
0.0
 10
830.5315466617749
 20
599.4992961495335
 30
0.0
 10
830.8428411167621
 20
599.401837701257
 30
0.0
 10
831.1299059287219
 20
599.3440545739502
 30
0.0
 10
831.4149438747568
 20
599.316043884009
 30
0.0
 10
831.6838061179811
 20
599.3146938166896
 30
0.0
 10
831.9512255148281
 20
599.3383173380763
 30
0.0
 10
832.242403542923
 20
599.3910501383747
 30
0.0
 10
832.5509575744286
 20
599.4820380801111
 30
0.0
 10
832.9209800370282
 20
599.6410257685419
 30
0.0
 10
833.3004769303018
 20
599.8757434110099
 30
0.0
 10
833.7095472882578
 20
600.2358058840096
 30
0.0
 10
834.0694473591893
 20
600.7088086298897
 30
0.0
 10
834.3370388035695
 20
601.2711074770486
 30
0.0
 10
834.411177018177
 20
601.6761582151889
 30
0.0
 10
834.4454716709671
 20
601.8635254791627
 30
0.0
  0
SPLINE
  5
1DF
330
1F
100
AcDbEntity
  8
0
  6
Continuous
 62
     7
370
    25
100
AcDbSpline
210
0.0
220
0.0
230
1.0
 70
     8
 71
     3
 72
    14
 73
    10
 74
     0
 42
0.000000001
 43
0.00000001
 40
0.0
 40
0.0
 40
0.0
 40
0.0
 40
0.2239799089305531
 40
0.3530600787849406
 40
0.4831615846560053
 40
0.5937368434043864
 40
0.6971871626480907
 40
0.8442013099709667
 40
1.0
 40
1.0
 40
1.0
 40
1.0
 10
827.9245288416522
 20
602.2283714316276
 30
0.0
 10
827.9831491943238
 20
602.2567894383956
 30
0.0
 10
828.0755525997515
 20
602.3015848120356
 30
0.0
 10
828.2425907833435
 20
602.3053100153971
 30
0.0
 10
828.3780220974486
 20
602.2707933218567
 30
0.0
 10
828.4924626782472
 20
602.2033118280209
 30
0.0
 10
828.5862817770227
 20
602.1110959863495
 30
0.0
 10
828.6563900059676
 20
601.9936661695929
 30
0.0
 10
828.673391774896
 20
601.9077366423758
 30
0.0
 10
828.6821392683986
 20
601.8635254791625
 30
0.0
  0
SPLINE
  5
1E0
330
1F
100
AcDbEntity
  8
0
  6
Continuous
 62
     7
370
    25
100
AcDbSpline
210
0.0
220
0.0
230
1.0
 70
     8
 71
     3
 72
    24
 73
    20
 74
     0
 42
0.000000001
 43
0.00000001
 40
0.0
 40
0.0
 40
0.0
 40
0.0
 40
0.0875562630610312
 40
0.1776478778994355
 40
0.2471757028850853
 40
0.3182848495519434
 40
0.3544514774164573
 40
0.391155834011077
 40
0.4196735717850658
 40
0.4488792169076926
 40
0.4956340312872247
 40
0.5423649618835417
 40
0.5763627331264952
 40
0.611292785693314
 40
0.6689340598446838
 40
0.7280698917726421
 40
0.8133417532352671
 40
0.9010570727560782
 40
1.0
 40
1.0
 40
1.0
 40
1.0
 10
824.3311498639291
 20
606.7343261478836
 30
0.0
 10
824.1850757828267
 20
606.5632374154458
 30
0.0
 10
823.8886977783673
 20
606.2161057633227
 30
0.0
 10
823.6356250511187
 20
605.6366406718115
 30
0.0
 10
823.5060064293317
 20
605.0535887340772
 30
0.0
 10
823.4936123397713
 20
604.5736118608498
 30
0.0
 10
823.5476600799994
 20
604.1627557846742
 30
0.0
 10
823.6215891972901
 20
603.8628294233415
 30
0.0
 10
823.7256775127413
 20
603.5761360346692
 30
0.0
 10
823.8790388131883
 20
603.2556962659492
 30
0.0
 10
824.1235041360658
 20
602.8857197031248
 30
0.0
 10
824.4338447680144
 20
602.5599254056912
 30
0.0
 10
824.7296287560761
 20
602.3257151604939
 30
0.0
 10
825.0587973720613
 20
602.1203492645933
 30
0.0
 10
825.4556323685733
 20
601.9460842108949
 30
0.0
 10
825.981714024019
 20
601.8119222269146
 30
0.0
 10
826.5796250240073
 20
601.7820805554439
 30
0.0
 10
827.2658368412528
 20
601.8911230846604
 30
0.0
 10
827.6963332997469
 20
602.1115359922323
 30
0.0
 10
827.9245288416522
 20
602.2283714316276
 30
0.0
  0
SPLINE
  5
1E1
330
1F
100
AcDbEntity
  8
0
  6
Continuous
 62
     7
370
    25
100
AcDbSpline
210
0.0
220
0.0
230
1.0
 70
     8
 71
     3
 72
    14
 73
    10
 74
     0
 42
0.000000001
 43
0.00000001
 40
0.0
 40
0.0
 40
0.0
 40
0.0
 40
0.2200911109485839
 40
0.3501199592092674
 40
0.4590676183976911
 40
0.5685351145661591
 40
0.6668402217389687
 40
0.7968948941936455
 40
1.0
 40
1.0
 40
1.0
 40
1.0
 10
824.1440355409591
 20
607.5541275615714
 30
0.0
 10
824.2004429648239
 20
607.5274842397847
 30
0.0
 10
824.2901756435203
 20
607.4851001621319
 30
0.0
 10
824.3924426112151
 20
607.3669087474068
 30
0.0
 10
824.4507153252273
 20
607.2510286561743
 30
0.0
 10
824.4766617526531
 20
607.1290428141964
 30
0.0
 10
824.4720998242154
 20
607.0013781264897
 30
0.0
 10
824.430226519607
 20
606.8555764720955
 30
0.0
 10
824.3686741830337
 20
606.780248528147
 30
0.0
 10
824.3311498639291
 20
606.7343261478836
 30
0.0
  0
SPLINE
  5
1E2
330
1F
100
AcDbEntity
  8
0
  6
Continuous
 62
     7
370
    25
100
AcDbSpline
210
0.0
220
0.0
230
1.0
 70
     8
 71
     3
 72
    27
 73
    23
 74
     0
 42
0.000000001
 43
0.00000001
 40
0.0
 40
0.0
 40
0.0
 40
0.0
 40
0.0910683471803932
 40
0.1847464164709026
 40
0.2588266946055639
 40
0.3345190598259246
 40
0.362644742719514
 40
0.3910056482847366
 40
0.4191743039829829
 40
0.4481203606979566
 40
0.4657704782447475
 40
0.4839081706433126
 40
0.5015721548764612
 40
0.5197440214872886
 40
0.5448446854435488
 40
0.570625369011758
 40
0.6177938154944717
 40
0.6660858441031492
 40
0.7518796859636193
 40
0.8400397940083003
 40
0.9191574739584815
 40
1.0
 40
1.0
 40
1.0
 40
1.0
 10
825.4264976498795
 20
613.1729611880163
 30
0.0
 10
825.189940303491
 20
613.1799461414705
 30
0.0
 10
824.7100466479205
 20
613.1941162143862
 30
0.0
 10
824.074447230055
 20
613.0115646748211
 30
0.0
 10
823.5204541680083
 20
612.7229315959244
 30
0.0
 10
823.1492412403408
 20
612.4208931448005
 30
0.0
 10
822.8946658789694
 20
612.1396101285321
 30
0.0
 10
822.7396681228131
 20
611.9356229733706
 30
0.0
 10
822.5931257750416
 20
611.7014712561414
 30
0.0
 10
822.4768836540117
 20
611.467020025343
 30
0.0
 10
822.3901524771896
 20
611.2445904924728
 30
0.0
 10
822.3299834173448
 20
611.0516837405415
 30
0.0
 10
822.2832003866887
 20
610.8535662586356
 30
0.0
 10
822.247004860178
 20
610.6328728331548
 30
0.0
 10
822.2274303061521
 20
610.3928942343288
 30
0.0
 10
822.2297171793832
 20
610.0741828424628
 30
0.0
 10
822.2757647515352
 20
609.7149543217614
 30
0.0
 10
822.4081588412022
 20
609.2317017816206
 30
0.0
 10
822.6624362445971
 20
608.7097393403316
 30
0.0
 10
823.0692648162914
 20
608.2111937993863
 30
0.0
 10
823.5620239144109
 20
607.8086291103627
 30
0.0
 10
823.9486420349205
 20
607.639569067621
 30
0.0
 10
824.1440355409591
 20
607.5541275615715
 30
0.0
  0
SPLINE
  5
1E3
330
1F
100
AcDbEntity
  8
0
  6
Continuous
 62
     7
370
    25
100
AcDbSpline
210
0.0
220
0.0
230
1.0
 70
     8
 71
     3
 72
    15
 73
    11
 74
     0
 42
0.000000001
 43
0.00000001
 40
0.0
 40
0.0
 40
0.0
 40
0.0
 40
0.2150763736126738
 40
0.3413349926978222
 40
0.446593490352974
 40
0.5524796219272535
 40
0.6449070621726983
 40
0.7662146539024285
 40
0.9406316560516657
 40
1.0
 40
1.0
 40
1.0
 40
1.0
 10
825.9507803323189
 20
613.8303908775189
 30
0.0
 10
825.9648100452247
 20
613.7722106157848
 30
0.0
 10
825.9870757728443
 20
613.679876163234
 30
0.0
 10
825.9623757635832
 20
613.5308116297604
 30
0.0
 10
825.9125843405484
 20
613.4144584883982
 30
0.0
 10
825.8380852115998
 20
613.3177394508481
 30
0.0
 10
825.7411078418017
 20
613.2400805418389
 30
0.0
 10
825.6159080981824
 20
613.1824914505341
 30
0.0
 10
825.5070589186175
 20
613.1671846041659
 30
0.0
 10
825.4428126043683
 20
613.1717913367454
 30
0.0
 10
825.4264976498795
 20
613.1729611880163
 30
0.0
  0
SPLINE
  5
1E4
330
1F
100
AcDbEntity
  8
0
  6
Continuous
 62
     7
370
    25
100
AcDbSpline
210
0.0
220
0.0
230
1.0
 70
     8
 71
     3
 72
    26
 73
    22
 74
     0
 42
0.000000001
 43
0.00000001
 40
0.0
 40
0.0
 40
0.0
 40
0.0
 40
0.0912035599485244
 40
0.1849670362499695
 40
0.2785634207445228
 40
0.3265394520589588
 40
0.3749439889045985
 40
0.4231405593180557
 40
0.4430841889857747
 40
0.4634373414447631
 40
0.4878409265543382
 40
0.5123587387506972
 40
0.5280992736585298
 40
0.5442699367721624
 40
0.5755700365325684
 40
0.6075525397506825
 40
0.683442401457062
 40
0.7611024134337999
 40
0.8469107031299032
 40
0.9346000221708236
 40
0.9999999999999999
 40
0.9999999999999999
 40
0.9999999999999999
 40
0.9999999999999999
 10
831.143363402406
 20
616.3310070901231
 30
0.0
 10
830.9957404484002
 20
616.526470815816
 30
0.0
 10
830.6963510353075
 20
616.9228845748423
 30
0.0
 10
830.1033327690621
 20
617.3331682202903
 30
0.0
 10
829.5453472175117
 20
617.5568038336949
 30
0.0
 10
829.0575792855187
 20
617.6497201588192
 30
0.0
 10
828.6642971467824
 20
617.672356760142
 30
0.0
 10
828.3201648032558
 20
617.6445903028819
 30
0.0
 10
828.0327643681064
 20
617.5875704554907
 30
0.0
 10
827.8081260976969
 20
617.5260942616591
 30
0.0
 10
827.5486993580968
 20
617.4301295368757
 30
0.0
 10
827.3105180030238
 20
617.3118940332577
 30
0.0
 10
827.127383622379
 20
617.2013608845102
 30
0.0
 10
826.9430789819643
 20
617.0744414748902
 30
0.0
 10
826.7458411644691
 20
616.9120595889098
 30
0.0
 10
826.4577759882264
 20
616.6225648803462
 30
0.0
 10
826.1675031361688
 20
616.2178857370245
 30
0.0
 10
825.9160451190689
 20
615.6560150427831
 30
0.0
 10
825.7866179501683
 20
615.0271539171997
 30
0.0
 10
825.7922942532192
 20
614.4017557270581
 30
0.0
 10
825.903340996573
 20
614.0014164280575
 30
0.0
 10
825.9507803323189
 20
613.8303908775189
 30
0.0
  0
SPLINE
  5
1E5
330
1F
100
AcDbEntity
  8
0
  6
Continuous
 62
     7
370
    25
100
AcDbSpline
210
0.0
220
0.0
230
1.0
 70
     8
 71
     3
 72
    15
 73
    11
 74
     0
 42
0.000000001
 43
0.00000001
 40
0.0
 40
0.0
 40
0.0
 40
0.0
 40
0.21292940532031
 40
0.3333107283176499
 40
0.4345062010027768
 40
0.5362836886507053
 40
0.6256367151021829
 40
0.745636854756794
 40
0.9211927176880819
 40
1.0
 40
1.0
 40
1.0
 40
1.0
 10
831.9842475369604
 20
616.3310070901231
 30
0.0
 10
831.9477836293516
 20
616.2839743116774
 30
0.0
 10
831.890704563245
 20
616.2103511800346
 30
0.0
 10
831.7610760514498
 20
616.1370683679935
 30
0.0
 10
831.6429174413729
 20
616.102966333292
 30
0.0
 10
831.5241713234649
 20
616.0987551144962
 30
0.0
 10
831.4048439827512
 20
616.1225815481839
 30
0.0
 10
831.2809647106574
 20
616.1805579756727
 30
0.0
 10
831.1949211517014
 20
616.2571837924779
 30
0.0
 10
831.1555587407917
 20
616.3135451157774
 30
0.0
 10
831.143363402406
 20
616.3310070901231
 30
0.0
  0
SPLINE
  5
1E6
330
1F
100
AcDbEntity
  8
0
  6
Continuous
 62
     7
370
    25
100
AcDbSpline
210
0.0
220
0.0
230
1.0
 70
     8
 71
     3
 72
    24
 73
    20
 74
     0
 42
0.000000001
 43
0.00000001
 40
0.0
 40
0.0
 40
0.0
 40
0.0
 40
0.0897248857515959
 40
0.1819668927373634
 40
0.2741792027342789
 40
0.3215501726634999
 40
0.3689029355448364
 40
0.4236957802800304
 40
0.4510753756637207
 40
0.4792846301673059
 40
0.5038350236657091
 40
0.528487123018514
 40
0.5612103000923983
 40
0.6013835835667775
 40
0.6426807853470331
 40
0.7287537050022397
 40
0.8170308395907496
 40
0.9073440868217486
 40
1.0
 40
1.0
 40
1.0
 40
1.0
 10
837.1768306070476
 20
613.8303908775197
 30
0.0
 10
837.237208595458
 20
614.0656168300002
 30
0.0
 10
837.3596584024287
 20
614.5426677095362
 30
0.0
 10
837.3137700397496
 20
615.2537023674167
 30
0.0
 10
837.1467863627074
 20
615.8214488666366
 30
0.0
 10
836.9264361432174
 20
616.2513347806606
 30
0.0
 10
836.7001935651659
 20
616.5804732452943
 30
0.0
 10
836.4507029649693
 20
616.8525098053248
 30
0.0
 10
836.1813232236881
 20
617.0779610945473
 30
0.0
 10
835.9462770129171
 20
617.2394133636037
 30
0.0
 10
835.6733239736283
 20
617.387446982119
 30
0.0
 10
835.3627053222697
 20
617.5149398000187
 30
0.0
 10
835.0200966275933
 20
617.6097026479218
 30
0.0
 10
834.6665705135858
 20
617.6606118708208
 30
0.0
 10
834.1912281498317
 20
617.670244475099
 30
0.0
 10
833.631556430475
 20
617.579492260232
 30
0.0
 10
833.0073515915534
 20
617.321162835935
 30
0.0
 10
832.4307950338771
 20
616.9211237427323
 30
0.0
 10
832.1343618410247
 20
616.5293845331385
 30
0.0
 10
831.9842475369604
 20
616.3310070901231
 30
0.0
  0
SPLINE
  5
1E7
330
1F
100
AcDbEntity
  8
0
  6
Continuous
 62
     7
370
    25
100
AcDbSpline
210
0.0
220
0.0
230
1.0
 70
     8
 71
     3
 72
    15
 73
    11
 74
     0
 42
0.000000001
 43
0.00000001
 40
0.0
 40
0.0
 40
0.0
 40
0.0
 40
0.2155767705933857
 40
0.332900553867743
 40
0.4328760582231042
 40
0.5332634977247832
 40
0.6250838127945076
 40
0.7535547096888764
 40
0.9421338378892115
 40
1.0
 40
1.0
 40
1.0
 40
1.0
 10
837.701113289487
 20
613.1729611880172
 30
0.0
 10
837.6392835282189
 20
613.1723096675621
 30
0.0
 10
837.5438040305208
 20
613.1713035688076
 30
0.0
 10
837.403816162671
 20
613.2301449672356
 30
0.0
 10
837.3053900541356
 20
613.302104461495
 30
0.0
 10
837.2299932189761
 20
613.3920686963822
 30
0.0
 10
837.1745643350012
 20
613.5016505009183
 30
0.0
 10
837.1435047202668
 20
613.640033027984
 30
0.0
 10
837.152911338539
 20
613.7522864510024
 30
0.0
 10
837.1722822528594
 20
613.8155389770393
 30
0.0
 10
837.1768306070476
 20
613.8303908775197
 30
0.0
  0
SPLINE
  5
1E8
330
1F
100
AcDbEntity
  8
0
  6
Continuous
 62
     7
370
    25
100
AcDbSpline
210
0.0
220
0.0
230
1.0
 70
     8
 71
     3
 72
    27
 73
    23
 74
     0
 42
0.000000001
 43
0.00000001
 40
0.0
 40
0.0
 40
0.0
 40
0.0
 40
0.0885627570442146
 40
0.1796538943995935
 40
0.2695908295576355
 40
0.3157544754264164
 40
0.3623424134621822
 40
0.4187626527282484
 40
0.4469315743364936
 40
0.4757555362193687
 40
0.4937367345958544
 40
0.5121853392428822
 40
0.530189125506262
 40
0.5487612444758522
 40
0.5721476357447853
 40
0.5961816793253188
 40
0.6385637840833048
 40
0.6819638929543734
 40
0.7628695907407564
 40
0.8459362592691205
 40
0.922227319177064
 40
1.0
 40
1.0
 40
1.0
 40
1.0
 10
824.1440355409756
 20
878.7831766952567
 30
0.0
 10
823.9307151469135
 20
878.6882577674542
 30
0.0
 10
823.4979842696557
 20
878.4957100690641
 30
0.0
 10
822.9799242330191
 20
878.0384429128021
 30
0.0
 10
822.6379892094689
 20
877.5710693410188
 30
0.0
 10
822.4321604726379
 20
877.140547909466
 30
0.0
 10
822.305038550272
 20
876.7572072169778
 30
0.0
 10
822.2387378620332
 20
876.3822987848636
 30
0.0
 10
822.2248012832689
 20
876.0227227411605
 30
0.0
 10
822.2397276049728
 20
875.7660340627431
 30
0.0
 10
822.2740393476538
 20
875.531460886816
 30
0.0
 10
822.3176897662094
 20
875.3316861680981
 30
0.0
 10
822.3766411327833
 20
875.1317961405551
 30
0.0
 10
822.4547303864991
 20
874.923210484332
 30
0.0
 10
822.5540548601753
 20
874.7110760484022
 30
0.0
 10
822.7030116367888
 20
874.4522617632878
 30
0.0
 10
822.9023880908823
 20
874.181298835196
 30
0.0
 10
823.2283161165672
 20
873.8407438694002
 30
0.0
 10
823.6717404681739
 20
873.5168890092016
 30
0.0
 10
824.2335050412128
 20
873.2718211991305
 30
0.0
 10
824.8240071184099
 20
873.14012943531
 30
0.0
 10
825.2243840066207
 20
873.156220276123
 30
0.0
 10
825.4264976498956
 20
873.1643430688111
 30
0.0
  0
SPLINE
  5
1E9
330
1F
100
AcDbEntity
  8
0
  6
Continuous
 62
     7
370
    25
100
AcDbSpline
210
0.0
220
0.0
230
1.0
 70
     8
 71
     3
 72
    14
 73
    10
 74
     0
 42
0.000000001
 43
0.00000001
 40
0.0
 40
0.0
 40
0.0
 40
0.0
 40
0.220765348438307
 40
0.3402146168140888
 40
0.4605704991791176
 40
0.5641909618660997
 40
0.6633542991972022
 40
0.8105247403618681
 40
1.0
 40
1.0
 40
1.0
 40
1.0
 10
824.3311498639456
 20
879.6029781089445
 30
0.0
 10
824.3718486594674
 20
879.5524356693024
 30
0.0
 10
824.434568308276
 20
879.4745462864926
 30
0.0
 10
824.4755097136514
 20
879.316632990455
 30
0.0
 10
824.4748306176853
 20
879.1841278083859
 30
0.0
 10
824.4407957118655
 20
879.0626162340636
 30
0.0
 10
824.3787481564622
 20
878.9506540132148
 30
0.0
 10
824.2783418353957
 20
878.8447826325671
 30
0.0
 10
824.1924041138318
 20
878.8053632299983
 30
0.0
 10
824.1440355409756
 20
878.7831766952567
 30
0.0
  0
SPLINE
  5
1EA
330
1F
100
AcDbEntity
  8
0
  6
Continuous
 62
     7
370
    25
100
AcDbSpline
210
0.0
220
0.0
230
1.0
 70
     8
 71
     3
 72
    24
 73
    20
 74
     0
 42
0.000000001
 43
0.00000001
 40
0.0
 40
0.0
 40
0.0
 40
0.0
 40
0.0863790768596618
 40
0.1752542427071472
 40
0.2620842456789104
 40
0.3070649132850746
 40
0.3520190851009298
 40
0.419320054231441
 40
0.4528774529345842
 40
0.4876252663406359
 40
0.5342920749946458
 40
0.5808562308579927
 40
0.6174647672988366
 40
0.6550630194695123
 40
0.7176552952223882
 40
0.7818848654491317
 40
0.8689583501259632
 40
0.9585482528059901
 40
1.0
 40
1.0
 40
1.0
 40
1.0
 10
827.9245288416691
 20
884.1089328252007
 30
0.0
 10
827.7261891183301
 20
884.2127677398904
 30
0.0
 10
827.3237782651909
 20
884.4234380781493
 30
0.0
 10
826.6661878315357
 20
884.5495790229307
 30
0.0
 10
826.0989276303201
 20
884.5371008492136
 30
0.0
 10
825.6398804618406
 20
884.442198885249
 30
0.0
 10
825.2299062025443
 20
884.3023646460372
 30
0.0
 10
824.8473533539031
 20
884.0992487026176
 30
0.0
 10
824.4992740578364
 20
883.8319096066958
 30
0.0
 10
824.2156229243714
 20
883.5556372865502
 30
0.0
 10
823.9353102476493
 20
883.1855973593224
 30
0.0
 10
823.7296304543437
 20
882.7836064281063
 30
0.0
 10
823.6038083236252
 20
882.4179871427439
 30
0.0
 10
823.5169152437965
 20
882.0168939089301
 30
0.0
 10
823.488831162661
 20
881.5574883325994
 30
0.0
 10
823.5532162405683
 20
880.9953669755278
 30
0.0
 10
823.7465828496197
 20
880.4091773063008
 30
0.0
 10
824.0316203421074
 20
879.9305156959771
 30
0.0
 10
824.2591701694912
 20
879.6816883986425
 30
0.0
 10
824.3311498639456
 20
879.6029781089445
 30
0.0
  0
SPLINE
  5
1EB
330
1F
100
AcDbEntity
  8
0
  6
Continuous
 62
     7
370
    25
100
AcDbSpline
210
0.0
220
0.0
230
1.0
 70
     8
 71
     3
 72
    14
 73
    10
 74
     0
 42
0.000000001
 43
0.00000001
 40
0.0
 40
0.0
 40
0.0
 40
0.0
 40
0.2243030424882868
 40
0.3489011866266555
 40
0.4744001356117536
 40
0.5826741857065961
 40
0.6867417687947411
 40
0.838156487169633
 40
1.0
 40
1.0
 40
1.0
 40
1.0
 10
828.6821392684158
 20
884.4737787776658
 30
0.0
 10
828.6674937300004
 20
884.4091661266359
 30
0.0
 10
828.6447127383773
 20
884.3086617805276
 30
0.0
 10
828.5429281119716
 20
884.1764764448981
 30
0.0
 10
828.4342380704215
 20
884.094130885268
 30
0.0
 10
828.3132700605636
 20
884.046749866592
 30
0.0
 10
828.1829750067246
 20
884.0293315191625
 30
0.0
 10
828.0451583058024
 20
884.0467374928775
 30
0.0
 10
827.9656212949619
 20
884.0877459716662
 30
0.0
 10
827.9245288416691
 20
884.1089328252007
 30
0.0
  0
SPLINE
  5
1EC
330
1F
100
AcDbEntity
  8
0
  6
Continuous
 62
     7
370
    25
100
AcDbSpline
210
0.0
220
0.0
230
1.0
 70
     8
 71
     3
 72
    26
 73
    22
 74
     0
 42
0.000000001
 43
0.00000001
 40
0.0
 40
0.0
 40
0.0
 40
0.0
 40
0.0854261159360918
 40
0.1733276547195574
 40
0.2448517261352454
 40
0.3181224083912692
 40
0.3577740645396624
 40
0.398084409431317
 40
0.4287682032815265
 40
0.4601978879083188
 40
0.4855692359538052
 40
0.5116681185372413
 40
0.537045356164517
 40
0.5630880149114009
 40
0.5995557531473527
 40
0.6370345873825464
 40
0.6960497304231498
 40
0.7566321175831363
 40
0.8401423063242318
 40
0.9260534647419588
 40
1.0
 40
1.0
 40
1.0
 40
1.0
 10
834.445471670984
 20
884.4737787776659
 30
0.0
 10
834.4040500950092
 20
884.6898454944376
 30
0.0
 10
834.3200066553676
 20
885.1282399698343
 30
0.0
 10
834.0314321910449
 20
885.6853508604822
 30
0.0
 10
833.6570646595275
 20
886.1568344896463
 30
0.0
 10
833.2760995584099
 20
886.4786444991057
 30
0.0
 10
832.9009000919914
 20
886.7026857556558
 30
0.0
 10
832.5960642776075
 20
886.8380081072949
 30
0.0
 10
832.2847698226205
 20
886.9354665555713
 30
0.0
 10
831.9977050106608
 20
886.9932496828782
 30
0.0
 10
831.7126670646261
 20
887.0212603728194
 30
0.0
 10
831.4438048214015
 20
887.0226104401388
 30
0.0
 10
831.1763854245545
 20
886.998986918752
 30
0.0
 10
830.8852073964598
 20
886.9462541184538
 30
0.0
 10
830.5766533649539
 20
886.8552661767172
 30
0.0
 10
830.2066309023544
 20
886.6962784882865
 30
0.0
 10
829.8271340090811
 20
886.4615608458184
 30
0.0
 10
829.4180636511248
 20
886.1014983728188
 30
0.0
 10
829.0581635801933
 20
885.6284956269386
 30
0.0
 10
828.790572135813
 20
885.0661967797796
 30
0.0
 10
828.7164339212059
 20
884.6611460416394
 30
0.0
 10
828.6821392684158
 20
884.4737787776658
 30
0.0
  0
SPLINE
  5
1ED
330
1F
100
AcDbEntity
  8
0
  6
Continuous
 62
     7
370
    25
100
AcDbSpline
210
0.0
220
0.0
230
1.0
 70
     8
 71
     3
 72
    14
 73
    10
 74
     0
 42
0.000000001
 43
0.00000001
 40
0.0
 40
0.0
 40
0.0
 40
0.0
 40
0.2239799089305531
 40
0.3530600787849406
 40
0.4831615846560053
 40
0.5937368434043864
 40
0.6971871626480907
 40
0.8442013099709667
 40
1.0
 40
1.0
 40
1.0
 40
1.0
 10
835.2030820977304
 20
884.1089328252008
 30
0.0
 10
835.1444617450591
 20
884.0805148184328
 30
0.0
 10
835.0520583396312
 20
884.0357194447929
 30
0.0
 10
834.885020156039
 20
884.0319942414312
 30
0.0
 10
834.749588841934
 20
884.0665109349717
 30
0.0
 10
834.6351482611353
 20
884.1339924288075
 30
0.0
 10
834.54132916236
 20
884.2262082704788
 30
0.0
 10
834.471220933415
 20
884.3436380872355
 30
0.0
 10
834.4542191644866
 20
884.4295676144526
 30
0.0
 10
834.445471670984
 20
884.4737787776659
 30
0.0
  0
SPLINE
  5
1EE
330
1F
100
AcDbEntity
  8
0
  6
Continuous
 62
     7
370
    25
100
AcDbSpline
210
0.0
220
0.0
230
1.0
 70
     8
 71
     3
 72
    24
 73
    20
 74
     0
 42
0.000000001
 43
0.00000001
 40
0.0
 40
0.0
 40
0.0
 40
0.0
 40
0.0875562630610312
 40
0.1776478778994356
 40
0.2471757028850855
 40
0.3182848495519436
 40
0.3544514774164575
 40
0.3911558340110772
 40
0.4196735717850661
 40
0.4488792169076928
 40
0.4956340312872249
 40
0.542364961883542
 40
0.5763627331264956
 40
0.6112927856933144
 40
0.6689340598446842
 40
0.7280698917726421
 40
0.8133417532352669
 40
0.901057072756078
 40
1.0
 40
1.0
 40
1.0
 40
1.0
 10
838.7964610754536
 20
879.6029781089449
 30
0.0
 10
838.942535156556
 20
879.7740668413827
 30
0.0
 10
839.2389131610155
 20
880.1211984935056
 30
0.0
 10
839.4919858882638
 20
880.7006635850171
 30
0.0
 10
839.6216045100509
 20
881.2837155227512
 30
0.0
 10
839.6339985996112
 20
881.7636923959786
 30
0.0
 10
839.5799508593832
 20
882.1745484721541
 30
0.0
 10
839.5060217420926
 20
882.4744748334869
 30
0.0
 10
839.4019334266411
 20
882.7611682221592
 30
0.0
 10
839.2485721261942
 20
883.0816079908792
 30
0.0
 10
839.0041068033169
 20
883.4515845537036
 30
0.0
 10
838.6937661713682
 20
883.7773788511373
 30
0.0
 10
838.3979821833066
 20
884.0115890963344
 30
0.0
 10
838.0688135673213
 20
884.2169549922352
 30
0.0
 10
837.6719785708092
 20
884.3912200459333
 30
0.0
 10
837.1458969153638
 20
884.5253820299139
 30
0.0
 10
836.5479859153752
 20
884.5552237013843
 30
0.0
 10
835.8617740981297
 20
884.4461811721679
 30
0.0
 10
835.4312776396358
 20
884.225768264596
 30
0.0
 10
835.2030820977304
 20
884.1089328252008
 30
0.0
  0
SPLINE
  5
1EF
330
1F
100
AcDbEntity
  8
0
  6
Continuous
 62
     7
370
    25
100
AcDbSpline
210
0.0
220
0.0
230
1.0
 70
     8
 71
     3
 72
    14
 73
    10
 74
     0
 42
0.000000001
 43
0.00000001
 40
0.0
 40
0.0
 40
0.0
 40
0.0
 40
0.2200911109485839
 40
0.3501199592092674
 40
0.4590676183976911
 40
0.5685351145661591
 40
0.6668402217389687
 40
0.7968948941936455
 40
1.0
 40
1.0
 40
1.0
 40
1.0
 10
838.9835753984236
 20
878.783176695257
 30
0.0
 10
838.9271679745585
 20
878.8098200170436
 30
0.0
 10
838.8374352958623
 20
878.8522040946965
 30
0.0
 10
838.7351683281676
 20
878.9703955094217
 30
0.0
 10
838.6768956141555
 20
879.086275600654
 30
0.0
 10
838.6509491867297
 20
879.2082614426321
 30
0.0
 10
838.6555111151672
 20
879.3359261303386
 30
0.0
 10
838.6973844197756
 20
879.4817277847329
 30
0.0
 10
838.7589367563489
 20
879.5570557286813
 30
0.0
 10
838.7964610754536
 20
879.6029781089449
 30
0.0
  0
SPLINE
  5
1F0
330
1F
100
AcDbEntity
  8
0
  6
Continuous
 62
     7
370
    25
100
AcDbSpline
210
0.0
220
0.0
230
1.0
 70
     8
 71
     3
 72
    27
 73
    23
 74
     0
 42
0.000000001
 43
0.00000001
 40
0.0
 40
0.0
 40
0.0
 40
0.0
 40
0.0910683471803932
 40
0.1847464164709026
 40
0.2588266946055638
 40
0.3345190598259244
 40
0.3626447427195138
 40
0.3910056482847364
 40
0.4191743039829827
 40
0.4481203606979564
 40
0.4657704782447473
 40
0.4839081706433124
 40
0.501572154876461
 40
0.5197440214872884
 40
0.5448446854435486
 40
0.5706253690117578
 40
0.6177938154944718
 40
0.6660858441031493
 40
0.7518796859636194
 40
0.8400397940083003
 40
0.9191574739584815
 40
1.0
 40
1.0
 40
1.0
 40
1.0
 10
837.7011132895032
 20
873.164343068812
 30
0.0
 10
837.9376706358918
 20
873.1573581153579
 30
0.0
 10
838.4175642914622
 20
873.1431880424423
 30
0.0
 10
839.0531637093277
 20
873.3257395820074
 30
0.0
 10
839.6071567713743
 20
873.6143726609039
 30
0.0
 10
839.9783696990418
 20
873.9164111120278
 30
0.0
 10
840.2329450604135
 20
874.1976941282962
 30
0.0
 10
840.3879428165694
 20
874.4016812834576
 30
0.0
 10
840.5344851643409
 20
874.635833000687
 30
0.0
 10
840.6507272853711
 20
874.8702842314854
 30
0.0
 10
840.737458462193
 20
875.0927137643557
 30
0.0
 10
840.7976275220382
 20
875.2856205162869
 30
0.0
 10
840.844410552694
 20
875.4837379981927
 30
0.0
 10
840.8806060792047
 20
875.7044314236737
 30
0.0
 10
840.9001806332307
 20
875.9444100224996
 30
0.0
 10
840.8978937599995
 20
876.2631214143655
 30
0.0
 10
840.8518461878473
 20
876.622349935067
 30
0.0
 10
840.7194520981806
 20
877.1056024752078
 30
0.0
 10
840.4651746947856
 20
877.6275649164969
 30
0.0
 10
840.0583461230914
 20
878.1261104574421
 30
0.0
 10
839.5655870249717
 20
878.5286751464656
 30
0.0
 10
839.1789689044624
 20
878.6977351892074
 30
0.0
 10
838.9835753984236
 20
878.783176695257
 30
0.0
  0
SPLINE
  5
1F1
330
1F
100
AcDbEntity
  8
0
  6
Continuous
 62
     7
370
    25
100
AcDbSpline
210
0.0
220
0.0
230
1.0
 70
     8
 71
     3
 72
    15
 73
    11
 74
     0
 42
0.000000001
 43
0.00000001
 40
0.0
 40
0.0
 40
0.0
 40
0.0
 40
0.2150763736126738
 40
0.3413349926978222
 40
0.446593490352974
 40
0.5524796219272535
 40
0.6449070621726983
 40
0.7662146539024285
 40
0.9406316560516657
 40
1.0
 40
1.0
 40
1.0
 40
1.0
 10
837.1768306070638
 20
872.5069133793095
 30
0.0
 10
837.162800894158
 20
872.5650936410435
 30
0.0
 10
837.1405351665383
 20
872.6574280935945
 30
0.0
 10
837.1652351757998
 20
872.806492627068
 30
0.0
 10
837.2150265988341
 20
872.9228457684302
 30
0.0
 10
837.289525727783
 20
873.0195648059803
 30
0.0
 10
837.3865030975811
 20
873.0972237149895
 30
0.0
 10
837.5117028412002
 20
873.1548128062942
 30
0.0
 10
837.6205520207652
 20
873.1701196526626
 30
0.0
 10
837.6847983350144
 20
873.165512920083
 30
0.0
 10
837.7011132895032
 20
873.164343068812
 30
0.0
  0
SPLINE
  5
1F2
330
1F
100
AcDbEntity
  8
0
  6
Continuous
 62
     7
370
    25
100
AcDbSpline
210
0.0
220
0.0
230
1.0
 70
     8
 71
     3
 72
    26
 73
    22
 74
     0
 42
0.000000001
 43
0.00000001
 40
0.0
 40
0.0
 40
0.0
 40
0.0
 40
0.0912035599485244
 40
0.1849670362499695
 40
0.2785634207445228
 40
0.3265394520589588
 40
0.3749439889045985
 40
0.4231405593180557
 40
0.4430841889857747
 40
0.4634373414447631
 40
0.4878409265543382
 40
0.5123587387506972
 40
0.5280992736585298
 40
0.5442699367721624
 40
0.5755700365325684
 40
0.6075525397506825
 40
0.683442401457062
 40
0.7611024134337999
 40
0.8469107031299032
 40
0.9346000221708236
 40
0.9999999999999999
 40
0.9999999999999999
 40
0.9999999999999999
 40
0.9999999999999999
 10
831.9842475369767
 20
870.0062971667053
 30
0.0
 10
832.1318704909828
 20
869.8108334410124
 30
0.0
 10
832.4312599040752
 20
869.414419681986
 30
0.0
 10
833.0242781703206
 20
869.0041360365381
 30
0.0
 10
833.5822637218708
 20
868.7805004231335
 30
0.0
 10
834.070031653864
 20
868.6875840980092
 30
0.0
 10
834.4633137926003
 20
868.6649474966865
 30
0.0
 10
834.8074461361268
 20
868.6927139539465
 30
0.0
 10
835.0948465712765
 20
868.7497338013377
 30
0.0
 10
835.3194848416856
 20
868.8112099951693
 30
0.0
 10
835.5789115812858
 20
868.9071747199526
 30
0.0
 10
835.8170929363591
 20
869.0254102235706
 30
0.0
 10
836.0002273170035
 20
869.1359433723181
 30
0.0
 10
836.1845319574185
 20
869.2628627819382
 30
0.0
 10
836.3817697749134
 20
869.4252446679186
 30
0.0
 10
836.6698349511564
 20
869.7147393764822
 30
0.0
 10
836.9601078032136
 20
870.1194185198038
 30
0.0
 10
837.211565820314
 20
870.6812892140453
 30
0.0
 10
837.3409929892142
 20
871.3101503396286
 30
0.0
 10
837.3353166861635
 20
871.9355485297702
 30
0.0
 10
837.2242699428099
 20
872.3358878287709
 30
0.0
 10
837.1768306070638
 20
872.5069133793095
 30
0.0
  0
SPLINE
  5
1F3
330
1F
100
AcDbEntity
  8
0
  6
Continuous
 62
     7
370
    25
100
AcDbSpline
210
0.0
220
0.0
230
1.0
 70
     8
 71
     3
 72
    15
 73
    11
 74
     0
 42
0.000000001
 43
0.00000001
 40
0.0
 40
0.0
 40
0.0
 40
0.0
 40
0.21292940532031
 40
0.3333107283176499
 40
0.4345062010027768
 40
0.5362836886507053
 40
0.6256367151021829
 40
0.745636854756794
 40
0.9211927176880819
 40
1.0
 40
1.0
 40
1.0
 40
1.0
 10
831.1433634024222
 20
870.0062971667053
 30
0.0
 10
831.1798273100308
 20
870.053329945151
 30
0.0
 10
831.2369063761373
 20
870.1269530767937
 30
0.0
 10
831.3665348879334
 20
870.2002358888349
 30
0.0
 10
831.4846934980095
 20
870.2343379235364
 30
0.0
 10
831.6034396159178
 20
870.2385491423321
 30
0.0
 10
831.7227669566319
 20
870.2147227086444
 30
0.0
 10
831.846646228725
 20
870.1567462811556
 30
0.0
 10
831.9326897876814
 20
870.0801204643504
 30
0.0
 10
831.9720521985911
 20
870.0237591410511
 30
0.0
 10
831.9842475369767
 20
870.0062971667053
 30
0.0
  0
SPLINE
  5
1F4
330
1F
100
AcDbEntity
  8
0
  6
Continuous
 62
     7
370
    25
100
AcDbSpline
210
0.0
220
0.0
230
1.0
 70
     8
 71
     3
 72
    24
 73
    20
 74
     0
 42
0.000000001
 43
0.00000001
 40
0.0
 40
0.0
 40
0.0
 40
0.0
 40
0.089724885751596
 40
0.1819668927373636
 40
0.2741792027342791
 40
0.3215501726634974
 40
0.3689029355448357
 40
0.4236957802800297
 40
0.4510753756637201
 40
0.4792846301673053
 40
0.5038350236657084
 40
0.5284871230185134
 40
0.5612103000923977
 40
0.601383583566777
 40
0.6426807853470327
 40
0.7287537050022392
 40
0.8170308395907493
 40
0.9073440868217484
 40
0.9999999999999999
 40
0.9999999999999999
 40
0.9999999999999999
 40
0.9999999999999999
 10
825.9507803323352
 20
872.5069133793086
 30
0.0
 10
825.8904023439248
 20
872.2716874268281
 30
0.0
 10
825.7679525369542
 20
871.7946365472922
 30
0.0
 10
825.813840899633
 20
871.0836018894116
 30
0.0
 10
825.9808245766754
 20
870.5158553901917
 30
0.0
 10
826.2011747961649
 20
870.0859694761679
 30
0.0
 10
826.4274173742167
 20
869.756831011534
 30
0.0
 10
826.6769079744136
 20
869.4847944515036
 30
0.0
 10
826.9462877156946
 20
869.2593431622811
 30
0.0
 10
827.1813339264655
 20
869.0978908932246
 30
0.0
 10
827.4542869657546
 20
868.9498572747094
 30
0.0
 10
827.7649056171128
 20
868.8223644568096
 30
0.0
 10
828.1075143117897
 20
868.7276016089065
 30
0.0
 10
828.4610404257968
 20
868.6766923860076
 30
0.0
 10
828.9363827895513
 20
868.6670597817293
 30
0.0
 10
829.4960545089078
 20
868.7578119965964
 30
0.0
 10
830.1202593478292
 20
869.0161414208933
 30
0.0
 10
830.6968159055058
 20
869.4161805140961
 30
0.0
 10
830.993249098358
 20
869.8079197236899
 30
0.0
 10
831.1433634024222
 20
870.0062971667053
 30
0.0
  0
SPLINE
  5
1F5
330
1F
100
AcDbEntity
  8
0
  6
Continuous
 62
     7
370
    25
100
AcDbSpline
210
0.0
220
0.0
230
1.0
 70
     8
 71
     3
 72
    15
 73
    11
 74
     0
 42
0.000000001
 43
0.00000001
 40
0.0
 40
0.0
 40
0.0
 40
0.0
 40
0.2155767705933857
 40
0.332900553867743
 40
0.4328760582231042
 40
0.5332634977247832
 40
0.6250838127945076
 40
0.7535547096888764
 40
0.9421338378892115
 40
1.0
 40
1.0
 40
1.0
 40
1.0
 10
825.4264976498956
 20
873.1643430688111
 30
0.0
 10
825.4883274111638
 20
873.1649945892663
 30
0.0
 10
825.583806908862
 20
873.1660006880207
 30
0.0
 10
825.7237947767115
 20
873.1071592895927
 30
0.0
 10
825.8222208852472
 20
873.0351997953334
 30
0.0
 10
825.8976177204063
 20
872.9452355604461
 30
0.0
 10
825.9530466043816
 20
872.83565375591
 30
0.0
 10
825.9841062191158
 20
872.6972712288443
 30
0.0
 10
825.9746996008442
 20
872.5850178058258
 30
0.0
 10
825.9553286865232
 20
872.521765279789
 30
0.0
 10
825.9507803323352
 20
872.5069133793086
 30
0.0
  0
LINE
  5
1F6
330
1F
100
AcDbEntity
  8
0
  6
Continuous
 62
     8
370
    18
100
AcDbLine
 10
1626.5638054697
 20
869.6270650218
 30
0.0
 11
1626.5638054697
 21
868.1686521284
 31
0.0
  0
LINE
  5
1F7
330
1F
100
AcDbEntity
  8
0
  6
Continuous
 62
     8
370
    18
100
AcDbLine
 10
1626.5638054697
 20
618.1686521284
 30
0.0
 11
1626.5638054697
 21
616.7262226057
 31
0.0
  0
LINE
  5
1F8
330
1F
100
AcDbEntity
  8
0
  6
Continuous
 62
     8
370
    18
100
AcDbLine
 10
1636.5638054697
 20
869.6140356047
 30
0.0
 11
1636.5638054697
 21
868.1686521284
 31
0.0
  0
LINE
  5
1F9
330
1F
100
AcDbEntity
  8
0
  6
Continuous
 62
     8
370
    18
100
AcDbLine
 10
1636.5638054697
 20
618.1686521284
 30
0.0
 11
1636.5638054697
 21
616.726049456
 31
0.0
  0
LINE
  5
1FA
330
1F
100
AcDbEntity
  8
0
  6
Continuous
 62
     8
370
    18
100
AcDbLine
 10
1625.8001666225
 20
614.7651104149
 30
0.0
 11
1625.8001666225
 21
613.2832193686
 31
0.0
  0
LINE
  5
1FB
330
1F
100
AcDbEntity
  8
0
  6
Continuous
 62
     8
370
    18
100
AcDbLine
 10
1637.3273790188
 20
613.2835160538
 30
0.0
 11
1637.3273790188
 21
614.7650084009
 31
0.0
  0
LINE
  5
1FC
330
1F
100
AcDbEntity
  8
0
  6
Continuous
 62
     8
370
    18
100
AcDbLine
 10
836.5638054697
 20
616.7102392351
 30
0.0
 11
836.5638054697
 21
618.1686521284
 31
0.0
  0
LINE
  5
1FD
330
1F
100
AcDbEntity
  8
0
  6
Continuous
 62
     8
370
    18
100
AcDbLine
 10
836.5638054697
 20
868.1686521284
 30
0.0
 11
836.5638054697
 21
869.6110816512
 31
0.0
  0
LINE
  5
1FE
330
1F
100
AcDbEntity
  8
0
  6
Continuous
 62
     8
370
    18
100
AcDbLine
 10
837.3274443169
 20
871.572193842
 30
0.0
 11
837.3274443169
 21
873.0540848883
 31
0.0
  0
LINE
  5
1FF
330
1F
100
AcDbEntity
  8
0
  6
Continuous
 62
     8
370
    18
100
AcDbLine
 10
826.5638054697
 20
616.7232686522
 30
0.0
 11
826.5638054697
 21
618.1686521284
 31
0.0
  0
LINE
  5
200
330
1F
100
AcDbEntity
  8
0
  6
Continuous
 62
     8
370
    18
100
AcDbLine
 10
826.5638054697
 20
868.1686521284
 30
0.0
 11
826.5638054697
 21
869.6112548008
 31
0.0
  0
LINE
  5
201
330
1F
100
AcDbEntity
  8
0
  6
Continuous
 62
     8
370
    18
100
AcDbLine
 10
825.8002319206
 20
873.053788203
 30
0.0
 11
825.8002319206
 21
871.5722958559
 31
0.0
  0
LINE
  5
202
330
1F
100
AcDbEntity
  8
0
  6
Continuous
 62
     7
370
    25
100
AcDbLine
 10
687.0663006792
 20
379.8005800318
 30
0.0
 11
687.0663006792
 21
384.0864165353
 31
0.0
  0
LINE
  5
203
330
1F
100
AcDbEntity
  8
0
  6
Continuous
 62
     7
370
    25
100
AcDbLine
 10
199.5115161167
 20
455.2910331752
 30
0.0
 11
199.5115161167
 21
451.0051966716
 31
0.0
  0
LINE
  5
204
330
1F
100
AcDbEntity
  8
0
  6
Continuous
 62
     7
370
    25
100
AcDbLine
 10
593.4599112918
 20
322.8227312662
 30
0.0
 11
605.7776759603
 21
334.8452472012
 31
0.0
  0
LINE
  5
205
330
1F
100
AcDbEntity
  8
0
  6
Continuous
 62
     7
370
    25
100
AcDbLine
 10
239.6926626209
 20
418.9690891398
 30
0.0
 11
252.0104272894
 21
430.9916050748
 31
0.0
  0
LINE
  5
206
330
1F
100
AcDbEntity
  8
0
  6
Continuous
 62
     7
370
    25
100
AcDbLine
 10
239.8044927744
 20
249.4429315364
 30
0.0
 11
239.8044927744
 21
250.7286824874
 31
0.0
  0
LINE
  5
207
330
1F
100
AcDbEntity
  8
0
  6
Continuous
 62
     7
370
    25
100
AcDbLine
 10
230.3044927744
 20
250.7286824874
 30
0.0
 11
230.3044927744
 21
249.4429315364
 31
0.0
  0
SPLINE
  5
208
330
1F
100
AcDbEntity
  8
0
  6
Continuous
 62
     7
370
    25
100
AcDbSpline
210
0.0
220
0.0
230
1.0
 70
     8
 71
     3
 72
    38
 73
    34
 74
     0
 42
0.000000001
 43
0.00000001
 40
0.0
 40
0.0
 40
0.0
 40
0.0
 40
0.0171661394718676
 40
0.046855581697115
 40
0.0762886979559413
 40
0.1055716273277673
 40
0.1348179138235082
 40
0.1641529630467577
 40
0.1937182994077757
 40
0.2236745908018448
 40
0.2542012012043869
 40
0.2854879493951348
 40
0.3177121101971815
 40
0.350993042321528
 40
0.3853261973140825
 40
0.4205280208358934
 40
0.45625550499339
 40
0.4920355717216571
 40
0.5276327224321381
 40
0.5629823133689291
 40
0.598134559097241
 40
0.6332057208247847
 40
0.6683460373805855
 40
0.7036794754002268
 40
0.7393684562545564
 40
0.7755829511666692
 40
0.8124627615402729
 40
0.8500648430103857
 40
0.8882779066805453
 40
0.9221772123013398
 40
0.9551521756596748
 40
0.9867821478062654
 40
0.9999999999999999
 40
0.9999999999999999
 40
0.9999999999999999
 40
0.9999999999999999
 10
230.3085427649208
 20
249.4420864249686
 30
0.0
 10
230.3080215869895
 20
249.3810612129826
 30
0.0
 10
230.3065990134879
 20
249.2144907496308
 30
0.0
 10
230.3403351062964
 20
248.9447412177706
 30
0.0
 10
230.4051563713987
 20
248.6376094005664
 30
0.0
 10
230.5009508353198
 20
248.3406239226082
 30
0.0
 10
230.6243401782084
 20
248.0553862404117
 30
0.0
 10
230.7744677710918
 20
247.7831612322419
 30
0.0
 10
230.950075354997
 20
247.5248749448678
 30
0.0
 10
231.1504177359845
 20
247.2811567034105
 30
0.0
 10
231.3751292046109
 20
247.0524225346107
 30
0.0
 10
231.6242889292809
 20
246.8390230747837
 30
0.0
 10
231.8982438878554
 20
246.6414601173546
 30
0.0
 10
232.1971857139882
 20
246.4606330633626
 30
0.0
 10
232.5204609112694
 20
246.297990777167
 30
0.0
 10
232.8659011234893
 20
246.1554076600194
 30
0.0
 10
233.2293674997198
 20
246.0348354003111
 30
0.0
 10
233.6058262854026
 20
245.9375355580654
 30
0.0
 10
233.9905359710865
 20
245.8638785053005
 30
0.0
 10
234.380188185552
 20
245.8135620686914
 30
0.0
 10
234.7725455871556
 20
245.7861258406261
 30
0.0
 10
235.166082056428
 20
245.7812509454854
 30
0.0
 10
235.5595187384187
 20
245.798912966512
 30
0.0
 10
235.9517406785396
 20
245.83943010732
 30
0.0
 10
236.3417077758877
 20
245.9035188909158
 30
0.0
 10
236.728425182202
 20
245.9923870104406
 30
0.0
 10
237.1104810643349
 20
246.1077233245464
 30
0.0
 10
237.4854414421261
 20
246.2514609696981
 30
0.0
 10
237.8346319639363
 20
246.4183250143024
 30
0.0
 10
238.1527493911986
 20
246.603560222896
 30
0.0
 10
238.4346158133587
 20
246.800428029878
 30
0.0
 10
238.6440829344982
 20
246.9732270740433
 30
0.0
 10
238.7572697622807
 20
247.0812056650482
 30
0.0
 10
238.7906289448479
 20
247.1130298410697
 30
0.0
  0
SPLINE
  5
209
330
1F
100
AcDbEntity
  8
0
  6
Continuous
 62
     7
370
    25
100
AcDbSpline
210
0.0
220
0.0
230
1.0
 70
     8
 71
     3
 72
    16
 73
    12
 74
     0
 42
0.000000001
 43
0.00000001
 40
0.0
 40
0.0
 40
0.0
 40
0.0
 40
0.112755106849415
 40
0.2348092583091211
 40
0.354535330991872
 40
0.4724852340457217
 40
0.5891111446484029
 40
0.7165419605102848
 40
0.8417859293527243
 40
0.964935979037459
 40
1.0
 40
1.0
 40
1.0
 40
1.0
 10
238.7906289448479
 20
247.1130298410697
 30
0.0
 10
238.8585905501403
 20
247.1824537534913
 30
0.0
 10
239.0001186332409
 20
247.3270270490173
 30
0.0
 10
239.1902866102656
 20
247.5678718267864
 30
0.0
 10
239.3619305310689
 20
247.8285057524173
 30
0.0
 10
239.5065004980242
 20
248.1010547990863
 30
0.0
 10
239.627510372049
 20
248.3929873806175
 30
0.0
 10
239.7213686321042
 20
248.7026300115538
 30
0.0
 10
239.7805749859077
 20
249.0265468502549
 30
0.0
 10
239.8065832195668
 20
249.2747038634258
 30
0.0
 10
239.8021017494716
 20
249.4133703458512
 30
0.0
 10
239.8011085485464
 20
249.4441021538799
 30
0.0
  0
LINE
  5
20A
330
1F
100
AcDbEntity
  8
0
  6
Continuous
 62
     7
370
    25
100
AcDbLine
 10
656.2733240214
 20
214.4952404629
 30
0.0
 11
656.2733240214
 21
215.7809914139
 31
0.0
  0
LINE
  5
20B
330
1F
100
AcDbEntity
  8
0
  6
Continuous
 62
     7
370
    25
100
AcDbLine
 10
646.7733240214
 20
215.7809914139
 30
0.0
 11
646.7733240214
 21
214.4952404629
 31
0.0
  0
SPLINE
  5
20C
330
1F
100
AcDbEntity
  8
0
  6
Continuous
 62
     7
370
    25
100
AcDbSpline
210
0.0
220
0.0
230
1.0
 70
     8
 71
     3
 72
    46
 73
    42
 74
     0
 42
0.000000001
 43
0.00000001
 40
0.0
 40
0.0
 40
0.0
 40
0.0
 40
0.0171000218218495
 40
0.0408812233253038
 40
0.064468521866457
 40
0.087947691357334
 40
0.1114109271235604
 40
0.1349604410446058
 40
0.1587118023785477
 40
0.1827961120927044
 40
0.2073590228273786
 40
0.2325528502556784
 40
0.2585159316289424
 40
0.285333476042604
 40
0.3129835797085211
 40
0.3412981199224956
 40
0.3699883274710765
 40
0.3986758783670079
 40
0.4272023868680727
 40
0.4555314063742993
 40
0.4837127812295666
 40
0.5118448116496854
 40
0.5400505436083857
 40
0.5684244384627574
 40
0.5971032163961293
 40
0.6262214385806005
 40
0.6558850863030666
 40
0.6861255013021157
 40
0.7168283618319392
 40
0.7439118347245446
 40
0.7702370622022765
 40
0.79577642922166
 40
0.8206056646311324
 40
0.8448405641240428
 40
0.8686007296494319
 40
0.8919939375539923
 40
0.9151121241777672
 40
0.9404073207788143
 40
0.9652605765193697
 40
0.9896877055474887
 40
1.0
 40
1.0
 40
1.0
 40
1.0
 10
646.7767082473335
 20
214.4940698453574
 30
0.0
 10
646.7769989157382
 20
214.4182742618439
 30
0.0
 10
646.7776938201123
 20
214.2370688687183
 30
0.0
 10
646.8163796747051
 20
213.9534140903116
 30
0.0
 10
646.8856985881822
 20
213.6475918012439
 30
0.0
 10
646.9854377588418
 20
213.352166803695
 30
0.0
 10
647.1126608213874
 20
213.0686865198226
 30
0.0
 10
647.2664237731022
 20
212.7983690077544
 30
0.0
 10
647.4455405347285
 20
212.5420949952492
 30
0.0
 10
647.649313433916
 20
212.3004576519806
 30
0.0
 10
647.8774419652053
 20
212.0738532526361
 30
0.0
 10
648.1300576461241
 20
211.8626391766037
 30
0.0
 10
648.4075184243154
 20
211.6673585321443
 30
0.0
 10
648.7099429782803
 20
211.4889830814367
 30
0.0
 10
649.0364992770146
 20
211.3290370567449
 30
0.0
 10
649.3847686766466
 20
211.1894275894551
 30
0.0
 10
649.7503849321063
 20
211.0720610372009
 30
0.0
 10
650.1282868055333
 20
210.9780738010918
 30
0.0
 10
650.5138612315994
 20
210.9077215383535
 30
0.0
 10
650.9040084441145
 20
210.8606458539739
 30
0.0
 10
651.2966114184311
 20
210.8363921963365
 30
0.0
 10
651.6902175402362
 20
210.8346767537271
 30
0.0
 10
652.0835581032948
 20
210.8555225713892
 30
0.0
 10
652.4755360351162
 20
210.8993003225868
 30
0.0
 10
652.8651098700956
 20
210.9667866709428
 30
0.0
 10
653.2512736081078
 20
211.0592633148257
 30
0.0
 10
653.6325124999231
 20
211.1784728676946
 30
0.0
 10
654.0061850144102
 20
211.3263558313567
 30
0.0
 10
654.3530657591032
 20
211.4971371559295
 30
0.0
 10
654.6678442966396
 20
211.6858748091012
 30
0.0
 10
654.946996426412
 20
211.8860026148821
 30
0.0
 10
655.2006386166464
 20
212.1026197357781
 30
0.0
 10
655.4284037848005
 20
212.3344216229088
 30
0.0
 10
655.6301716756119
 20
212.5803446917921
 30
0.0
 10
655.8056850100738
 20
212.8393136269947
 30
0.0
 10
655.9545384116951
 20
213.1100768341068
 30
0.0
 10
656.0801080076881
 20
213.4007162526728
 30
0.0
 10
656.1786723911949
 20
213.7095586247316
 30
0.0
 10
656.2432529070292
 20
214.0333242208563
 30
0.0
 10
656.2734890539682
 20
214.2964890443781
 30
0.0
 10
656.2702388456297
 20
214.4503981225495
 30
0.0
 10
656.2692740309592
 20
214.4960855742686
 30
0.0
  0
LINE
  5
20D
330
1F
100
AcDbEntity
  8
0
  6
Continuous
 62
     7
370
    25
100
AcDbLine
 10
593.5717414454
 20
153.2965736628
 30
0.0
 11
593.5717414454
 21
154.5823246139
 31
0.0
  0
LINE
  5
20E
330
1F
100
AcDbEntity
  8
0
  6
Continuous
 62
     7
370
    25
100
AcDbLine
 10
584.0717414454
 20
154.5823246139
 30
0.0
 11
584.0717414454
 21
153.2965736628
 31
0.0
  0
SPLINE
  5
20F
330
1F
100
AcDbEntity
  8
0
  6
Continuous
 62
     7
370
    25
100
AcDbSpline
210
0.0
220
0.0
230
1.0
 70
     8
 71
     3
 72
    38
 73
    34
 74
     0
 42
0.000000001
 43
0.00000001
 40
0.0
 40
0.0
 40
0.0
 40
0.0
 40
0.0171661394718689
 40
0.046855581697115
 40
0.0762886979559416
 40
0.1055716273277672
 40
0.1348179138235082
 40
0.1641529630467576
 40
0.1937182994077755
 40
0.2236745908018451
 40
0.2542012012043867
 40
0.2854879493951369
 40
0.3177121101971812
 40
0.3509930423215277
 40
0.3853261973140822
 40
0.4205280208358905
 40
0.456255504993387
 40
0.4920355717216567
 40
0.5276327224321353
 40
0.5629823133689287
 40
0.5981345590972383
 40
0.6332057208247841
 40
0.6683460373805848
 40
0.7036794754002269
 40
0.7393684562545556
 40
0.7755829511666684
 40
0.8124627615402721
 40
0.8500648430103873
 40
0.8882779066805456
 40
0.9221772123013412
 40
0.9551521756596751
 40
0.9867821478062644
 40
1.0
 40
1.0
 40
1.0
 40
1.0
 10
584.0757914358893
 20
153.2957285514002
 30
0.0
 10
584.0752702579581
 20
153.2347033394143
 30
0.0
 10
584.0738476844565
 20
153.0681328760624
 30
0.0
 10
584.1075837772651
 20
152.7983833442022
 30
0.0
 10
584.1724050423674
 20
152.491251526998
 30
0.0
 10
584.2681995062884
 20
152.1942660490399
 30
0.0
 10
584.391588849177
 20
151.9090283668434
 30
0.0
 10
584.5417164420603
 20
151.6368033586735
 30
0.0
 10
584.7173240259657
 20
151.3785170712994
 30
0.0
 10
584.917666406953
 20
151.1347988298422
 30
0.0
 10
585.1423778755797
 20
150.9060646610423
 30
0.0
 10
585.3915376002495
 20
150.6926652012153
 30
0.0
 10
585.6654925588239
 20
150.4951022437862
 30
0.0
 10
585.9644343849569
 20
150.3142751897942
 30
0.0
 10
586.2877095822379
 20
150.1516329035987
 30
0.0
 10
586.6331497944581
 20
150.009049786451
 30
0.0
 10
586.9966161706883
 20
149.8884775267426
 30
0.0
 10
587.3730749563713
 20
149.791177684497
 30
0.0
 10
587.7577846420552
 20
149.7175206317321
 30
0.0
 10
588.1474368565207
 20
149.667204195123
 30
0.0
 10
588.5397942581242
 20
149.6397679670577
 30
0.0
 10
588.9333307273965
 20
149.634893071917
 30
0.0
 10
589.3267674093873
 20
149.6525550929436
 30
0.0
 10
589.7189893495083
 20
149.6930722337516
 30
0.0
 10
590.1089564468564
 20
149.7571610173474
 30
0.0
 10
590.4956738531706
 20
149.8460291368722
 30
0.0
 10
590.8777297353035
 20
149.961365450978
 30
0.0
 10
591.2526901130947
 20
150.1051030961298
 30
0.0
 10
591.601880634905
 20
150.2719671407339
 30
0.0
 10
591.9199980621672
 20
150.4572023493276
 30
0.0
 10
592.2018644843273
 20
150.6540701563097
 30
0.0
 10
592.4113316054668
 20
150.8268692004749
 30
0.0
 10
592.5245184332493
 20
150.9348477914798
 30
0.0
 10
592.5578776158164
 20
150.9666719675014
 30
0.0
  0
SPLINE
  5
210
330
1F
100
AcDbEntity
  8
0
  6
Continuous
 62
     7
370
    25
100
AcDbSpline
210
0.0
220
0.0
230
1.0
 70
     8
 71
     3
 72
    16
 73
    12
 74
     0
 42
0.000000001
 43
0.00000001
 40
0.0
 40
0.0
 40
0.0
 40
0.0
 40
0.1127551068494157
 40
0.2348092583091183
 40
0.3545353309918693
 40
0.4724852340457248
 40
0.5891111446484019
 40
0.716541960510284
 40
0.8417859293527286
 40
0.9649359790374675
 40
1.0
 40
1.0
 40
1.0
 40
1.0
 10
592.5578776158164
 20
150.9666719675014
 30
0.0
 10
592.625839221109
 20
151.0360958799229
 30
0.0
 10
592.7673673042096
 20
151.1806691754489
 30
0.0
 10
592.9575352812342
 20
151.4215139532181
 30
0.0
 10
593.1291792020376
 20
151.6821478788489
 30
0.0
 10
593.2737491689929
 20
151.9546969255179
 30
0.0
 10
593.3947590430176
 20
152.2466295070491
 30
0.0
 10
593.4886173030727
 20
152.5562721379854
 30
0.0
 10
593.5478236568764
 20
152.8801889766865
 30
0.0
 10
593.5738318905354
 20
153.1283459898575
 30
0.0
 10
593.5693504204402
 20
153.2670124722828
 30
0.0
 10
593.568357219515
 20
153.2977442803115
 30
0.0
  0
LINE
  5
211
330
1F
100
AcDbEntity
  8
0
  6
Continuous
 62
     7
370
    25
100
AcDbLine
 10
302.5060753505
 20
310.6415983364
 30
0.0
 11
302.5060753505
 21
311.9273492875
 31
0.0
  0
LINE
  5
212
330
1F
100
AcDbEntity
  8
0
  6
Continuous
 62
     7
370
    25
100
AcDbLine
 10
293.0060753505
 20
311.9273492875
 30
0.0
 11
293.0060753505
 21
310.6415983364
 31
0.0
  0
SPLINE
  5
213
330
1F
100
AcDbEntity
  8
0
  6
Continuous
 62
     7
370
    25
100
AcDbSpline
210
0.0
220
0.0
230
1.0
 70
     8
 71
     3
 72
    46
 73
    42
 74
     0
 42
0.000000001
 43
0.00000001
 40
0.0
 40
0.0
 40
0.0
 40
0.0
 40
0.0171000218218491
 40
0.0408812233253038
 40
0.0644685218664569
 40
0.0879476913573333
 40
0.1114109271235603
 40
0.1349604410446054
 40
0.1587118023785474
 40
0.1827961120927025
 40
0.2073590228273784
 40
0.2325528502556783
 40
0.2585159316289423
 40
0.2853334760426038
 40
0.312983579708521
 40
0.3412981199224955
 40
0.3699883274710765
 40
0.3986758783670079
 40
0.4272023868680707
 40
0.4555314063742973
 40
0.483712781229566
 40
0.5118448116496849
 40
0.5400505436083851
 40
0.5684244384627553
 40
0.5971032163961272
 40
0.6262214385805998
 40
0.6558850863030646
 40
0.6861255013021149
 40
0.7168283618319383
 40
0.7439118347245446
 40
0.7702370622022748
 40
0.795776429221659
 40
0.8206056646311307
 40
0.8448405641240407
 40
0.8686007296494296
 40
0.8919939375539899
 40
0.9151121241777656
 40
0.9404073207788116
 40
0.9652605765193673
 40
0.989687705547486
 40
0.9999999999999999
 40
0.9999999999999999
 40
0.9999999999999999
 40
0.9999999999999999
 10
293.0094595763651
 20
310.6404277189257
 30
0.0
 10
293.0097502447697
 20
310.5646321354122
 30
0.0
 10
293.0104451491437
 20
310.3834267422866
 30
0.0
 10
293.0491310037365
 20
310.09977196388
 30
0.0
 10
293.1184499172138
 20
309.7939496748123
 30
0.0
 10
293.2181890878733
 20
309.4985246772634
 30
0.0
 10
293.345412150419
 20
309.215044393391
 30
0.0
 10
293.4991751021337
 20
308.9447268813228
 30
0.0
 10
293.67829186376
 20
308.6884528688176
 30
0.0
 10
293.8820647629474
 20
308.4468155255489
 30
0.0
 10
294.1101932942368
 20
308.2202111262045
 30
0.0
 10
294.3628089751556
 20
308.008997050172
 30
0.0
 10
294.640269753347
 20
307.8137164057127
 30
0.0
 10
294.9426943073119
 20
307.635340955005
 30
0.0
 10
295.2692506060462
 20
307.4753949303132
 30
0.0
 10
295.6175200056782
 20
307.3357854630234
 30
0.0
 10
295.9831362611376
 20
307.2184189107693
 30
0.0
 10
296.3610381345649
 20
307.1244316746602
 30
0.0
 10
296.7466125606309
 20
307.0540794119219
 30
0.0
 10
297.1367597731459
 20
307.0070037275423
 30
0.0
 10
297.5293627474628
 20
306.9827500699049
 30
0.0
 10
297.9229688692677
 20
306.9810346272955
 30
0.0
 10
298.3163094323261
 20
307.0018804449576
 30
0.0
 10
298.7082873641476
 20
307.0456581961552
 30
0.0
 10
299.0978611991271
 20
307.1131445445112
 30
0.0
 10
299.4840249371394
 20
307.205621188394
 30
0.0
 10
299.8652638289546
 20
307.3248307412629
 30
0.0
 10
300.2389363434418
 20
307.4727137049251
 30
0.0
 10
300.5858170881347
 20
307.6434950294979
 30
0.0
 10
300.9005956256711
 20
307.8322326826695
 30
0.0
 10
301.1797477554435
 20
308.0323604884505
 30
0.0
 10
301.433389945678
 20
308.2489776093464
 30
0.0
 10
301.6611551138319
 20
308.4807794964772
 30
0.0
 10
301.8629230046433
 20
308.7267025653604
 30
0.0
 10
302.0384363391054
 20
308.985671500563
 30
0.0
 10
302.1872897407264
 20
309.2564347076752
 30
0.0
 10
302.3128593367196
 20
309.5470741262411
 30
0.0
 10
302.4114237202265
 20
309.8559164983
 30
0.0
 10
302.4760042360605
 20
310.1796820944246
 30
0.0
 10
302.5062403829996
 20
310.4428469179464
 30
0.0
 10
302.5029901746612
 20
310.5967559961179
 30
0.0
 10
302.5020253599907
 20
310.642443447837
 30
0.0
  0
ARC
  5
214
330
1F
100
AcDbEntity
  8
0
  6
Continuous
 62
     7
370
    25
100
AcDbCircle
 10
588.7455247663
 20
338.7989044494
 30
0.0
 40
5.000000000000074
100
AcDbArc
 50
35.951294318
 51
74.7954868413
  0
ARC
  5
215
330
1F
100
AcDbEntity
  8
0
  6
Continuous
 62
     7
370
    25
100
AcDbCircle
 10
588.7455247663
 20
338.7989044494
 30
0.0
 40
5.000000000000006
100
AcDbArc
 50
74.7954868413
 51
138.5305217552
  0
LINE
  5
216
330
1F
100
AcDbEntity
  8
0
  6
Continuous
 62
     7
370
    25
100
AcDbLine
 10
591.5944348746
 20
153.025810272
 30
0.0
 11
591.5944348746
 21
339.8305011345
 31
0.0
  0
LINE
  5
217
330
1F
100
AcDbEntity
  8
0
  6
Continuous
 62
     7
370
    25
100
AcDbLine
 10
585.830677709
 20
339.9165086614
 30
0.0
 11
585.830677709
 21
153.0799724987
 31
0.0
  0
LINE
  5
218
330
1F
100
AcDbEntity
  8
0
  6
Continuous
 62
     7
370
    25
100
AcDbLine
 10
593.4599112918
 20
154.1437350918
 30
0.0
 11
593.4599112918
 21
339.7280919411
 31
0.0
  0
LINE
  5
219
330
1F
100
AcDbEntity
  8
0
  6
Continuous
 62
     7
370
    25
100
AcDbLine
 10
584.129638587
 20
340.1548865917
 30
0.0
 11
584.129638587
 21
154.2654365106
 31
0.0
  0
LINE
  5
21A
330
1F
100
AcDbEntity
  8
0
  6
Continuous
 62
     7
370
    25
100
AcDbLine
 10
592.9259989392
 20
341.3267891487
 30
0.0
 11
592.9259989392
 21
341.3947765652
 31
0.0
  0
ARC
  5
21B
330
1F
100
AcDbEntity
  8
0
  6
Continuous
 62
     7
370
    25
100
AcDbCircle
 10
651.5995407006
 20
400.1463508803
 30
0.0
 40
5.000000000000044
100
AcDbArc
 50
55.821758923
 51
160.1969530918
  0
ARC
  5
21C
330
1F
100
AcDbEntity
  8
0
  6
Continuous
 62
     7
370
    25
100
AcDbCircle
 10
651.5995407006
 20
400.1463508803
 30
0.0
 40
5.000000000000065
100
AcDbArc
 50
28.1445275484
 51
47.6597165116
  0
LINE
  5
21D
330
1F
100
AcDbEntity
  8
0
  6
Continuous
 62
     7
370
    25
100
AcDbLine
 10
655.4764645738
 20
214.6737923003
 30
0.0
 11
655.4764645738
 21
346.6081744566
 31
0.0
  0
LINE
  5
21E
330
1F
100
AcDbEntity
  8
0
  6
Continuous
 62
     7
370
    25
100
AcDbLine
 10
655.4764645738
 20
398.4173695562
 30
0.0
 11
655.4764645738
 21
400.827544043
 31
0.0
  0
LINE
  5
21F
330
1F
100
AcDbEntity
  8
0
  6
Continuous
 62
     7
370
    25
100
AcDbLine
 10
647.4190665277
 20
338.7439069526
 30
0.0
 11
647.4190665277
 21
214.7713892605
 31
0.0
  0
LINE
  5
220
330
1F
100
AcDbEntity
  8
0
  6
Continuous
 62
     7
370
    25
100
AcDbLine
 10
656.2154268798
 20
216.0978795172
 30
0.0
 11
656.2154268798
 21
347.3294243212
 31
0.0
  0
LINE
  5
221
330
1F
100
AcDbEntity
  8
0
  6
Continuous
 62
     7
370
    25
100
AcDbLine
 10
656.2154268798
 20
398.2165354354
 30
0.0
 11
656.2154268798
 21
401.9873295984
 31
0.0
  0
LINE
  5
222
330
1F
100
AcDbEntity
  8
0
  6
Continuous
 62
     7
370
    25
100
AcDbLine
 10
646.885154175
 20
401.8039377853
 30
0.0
 11
646.885154175
 21
400.752303633
 31
0.0
  0
LINE
  5
223
330
1F
100
AcDbEntity
  8
0
  6
Continuous
 62
     7
370
    25
100
AcDbLine
 10
646.885154175
 20
338.2227921286
 30
0.0
 11
646.885154175
 21
216.219580936
 31
0.0
  0
ARC
  5
224
330
1F
100
AcDbEntity
  8
0
  6
Continuous
 62
     7
370
    25
100
AcDbCircle
 10
234.9782760953
 20
434.945262323
 30
0.0
 40
5.000000000000028
100
AcDbArc
 50
35.951294318
 51
74.7954868413
  0
ARC
  5
225
330
1F
100
AcDbEntity
  8
0
  6
Continuous
 62
     7
370
    25
100
AcDbCircle
 10
234.9782760953
 20
434.945262323
 30
0.0
 40
4.999999999999979
100
AcDbArc
 50
74.7954868413
 51
138.5305217552
  0
LINE
  5
226
330
1F
100
AcDbEntity
  8
0
  6
Continuous
 62
     7
370
    25
100
AcDbLine
 10
237.8271862036
 20
249.1721681456
 30
0.0
 11
237.8271862036
 21
435.9768590081
 31
0.0
  0
LINE
  5
227
330
1F
100
AcDbEntity
  8
0
  6
Continuous
 62
     7
370
    25
100
AcDbLine
 10
232.063429038
 20
436.062866535
 30
0.0
 11
232.063429038
 21
249.2263303723
 31
0.0
  0
LINE
  5
228
330
1F
100
AcDbEntity
  8
0
  6
Continuous
 62
     7
370
    25
100
AcDbLine
 10
239.6926626209
 20
250.2900929654
 30
0.0
 11
239.6926626209
 21
435.8744498147
 31
0.0
  0
LINE
  5
229
330
1F
100
AcDbEntity
  8
0
  6
Continuous
 62
     7
370
    25
100
AcDbLine
 10
230.3623899161
 20
436.3012444653
 30
0.0
 11
230.3623899161
 21
250.4117943841
 31
0.0
  0
LINE
  5
22A
330
1F
100
AcDbEntity
  8
0
  6
Continuous
 62
     7
370
    25
100
AcDbLine
 10
239.1587502682
 20
437.4731470223
 30
0.0
 11
239.1587502682
 21
437.5411344388
 31
0.0
  0
ARC
  5
22B
330
1F
100
AcDbEntity
  8
0
  6
Continuous
 62
     7
370
    25
100
AcDbCircle
 10
297.8322920296
 20
496.2927087538
 30
0.0
 40
5.000000000000025
100
AcDbArc
 50
55.821758923
 51
160.1969530918
  0
ARC
  5
22C
330
1F
100
AcDbEntity
  8
0
  6
Continuous
 62
     7
370
    25
100
AcDbCircle
 10
297.8322920296
 20
496.2927087538
 30
0.0
 40
4.999999999999973
100
AcDbArc
 50
28.1445275484
 51
47.6597165116
  0
LINE
  5
22D
330
1F
100
AcDbEntity
  8
0
  6
Continuous
 62
     7
370
    25
100
AcDbLine
 10
301.7092159028
 20
310.8201501738
 30
0.0
 11
301.7092159028
 21
417.4845392459
 31
0.0
  0
LINE
  5
22E
330
1F
100
AcDbEntity
  8
0
  6
Continuous
 62
     7
370
    25
100
AcDbLine
 10
301.7092159028
 20
494.5637274297
 30
0.0
 11
301.7092159028
 21
496.9739019165
 31
0.0
  0
LINE
  5
22F
330
1F
100
AcDbEntity
  8
0
  6
Continuous
 62
     7
370
    25
100
AcDbLine
 10
293.6518178567
 20
419.6743673856
 30
0.0
 11
293.6518178567
 21
310.9177471341
 31
0.0
  0
LINE
  5
230
330
1F
100
AcDbEntity
  8
0
  6
Continuous
 62
     7
370
    25
100
AcDbLine
 10
302.4481782088
 20
312.2442373908
 30
0.0
 11
302.4481782088
 21
417.2837051251
 31
0.0
  0
LINE
  5
231
330
1F
100
AcDbEntity
  8
0
  6
Continuous
 62
     7
370
    25
100
AcDbLine
 10
302.4481782088
 20
494.362893309
 30
0.0
 11
302.4481782088
 21
498.1336874719
 31
0.0
  0
LINE
  5
232
330
1F
100
AcDbEntity
  8
0
  6
Continuous
 62
     7
370
    25
100
AcDbLine
 10
293.117905504
 20
497.9502956589
 30
0.0
 11
293.117905504
 21
496.8986615066
 31
0.0
  0
LINE
  5
233
330
1F
100
AcDbEntity
  8
0
  6
Continuous
 62
     7
370
    25
100
AcDbLine
 10
293.117905504
 20
419.8194733227
 30
0.0
 11
293.117905504
 21
312.3659388095
 31
0.0
  0
LWPOLYLINE
  5
234
330
1F
100
AcDbEntity
  8
0
  6
Continuous
 62
     7
370
    25
100
AcDbPolyline
 90
       36
 70
   128
 43
0.0
 10
267.7145750377
 20
503.8027423998
 10
266.9718148342
 20
503.9937605946
 10
266.2131629964
 20
504.1674234156
 10
265.4401473482
 20
504.3233811289
 10
264.6543246402
 20
504.4613196565
 10
263.8572774147
 20
504.5809612086
 10
263.0506108188
 20
504.6820648429
 10
262.2359493717
 20
504.7644269503
 10
261.4149336931
 20
504.8278816643
 10
260.5892171993
 20
504.8723011957
 10
259.7604627734
 20
504.8975960894
 10
258.9303394166
 20
504.9037154048
 10
258.1005188869
 20
504.8906468186
 10
257.2726723323
 20
504.858416649
 10
256.4484669256
 20
504.8070898034
 10
255.6295625069
 20
504.7367696471
 10
254.8176082406
 20
504.6475977957
 10
254.0142392946
 20
504.5397538293
 10
253.2210735471
 20
504.4134549314
 10
252.4397083282
 20
504.2689554511
 10
251.6717172036
 20
504.1065463911
 10
250.9186468051
 20
503.9265548218
 10
250.1820137164
 20
503.7293432221
 10
249.4633014184
 20
503.5153087499
 10
248.7639573021
 20
503.2848824423
 10
248.0853897535
 20
503.0385283471
 10
247.4289653172
 20
502.7767425887
 10
246.7960059448
 20
502.5000523687
 10
246.1877863321
 20
502.2090149045
 10
245.6055313526
 20
501.9042163068
 10
245.0504135902
 20
501.5862703994
 10
244.5235509783
 20
501.255817483
 10
244.0260045481
 20
500.9135230458
 10
243.5587762918
 20
500.5600764232
 10
243.122807145
 20
500.1961894098
 10
242.7189750915
 20
499.8225948256
  0
LINE
  5
235
330
1F
100
AcDbEntity
  8
0
  6
Continuous
 62
     7
370
    25
100
AcDbLine
 10
267.7145750377
 20
503.8027423998
 30
0.0
 11
677.2001653744
 21
392.5133331612
 31
0.0
  0
LWPOLYLINE
  5
236
330
1F
100
AcDbEntity
  8
0
  6
Continuous
 62
     7
370
    25
100
AcDbPolyline
 90
       36
 70
   128
 43
0.0
 10
684.9280359302
 20
379.6396474836
 10
685.2989176264
 20
380.022197269
 10
685.6361020588
 20
380.412931851
 10
685.938910183
 20
380.8110643424
 10
686.2067321836
 20
381.2157929571
 10
686.4390287028
 20
381.6263026258
 10
686.6353319263
 20
382.0417666364
 10
686.7952465255
 20
382.4613482998
 10
686.9184504538
 20
382.8842026344
 10
687.0046955948
 20
383.3094780678
 10
687.0538082622
 20
383.7363181519
 10
687.0656895498
 20
384.1638632875
 10
687.0403155301
 20
384.5912524556
 10
686.977737303
 20
385.0176249514
 10
686.8780808929
 20
385.4421221174
 10
686.7415469943
 20
385.8638890728
 10
686.5684105685
 20
386.282076435
 10
686.3590202892
 20
386.6958420304
 10
686.1137978405
 20
387.1043525901
 10
685.8332370677
 20
387.5067854282
 10
685.517902983
 20
387.9023300986
 10
685.1684306272
 20
388.2901900269
 10
684.7855237912
 20
388.6695841148
 10
684.3699535983
 20
389.0397483132
 10
683.9225569516
 20
389.3999371605
 10
683.4442348484
 20
389.7494252845
 10
682.9359505658
 20
390.0875088625
 10
682.3987277207
 20
390.4135070391
 10
681.8336482084
 20
390.7267632976
 10
681.2418500238
 20
391.0266467813
 10
680.6245249697
 20
391.312553565
 10
679.9829162567
 20
391.5839078704
 10
679.3183159992
 20
391.840163226
 10
678.6320626138
 20
392.0808035677
 10
677.9255381234
 20
392.3053442777
 10
677.2001653744
 20
392.5133331612
  0
LINE
  5
237
330
1F
100
AcDbEntity
  8
0
  6
Continuous
 62
     7
370
    25
100
AcDbLine
 10
684.9280359302
 20
379.6396474836
 30
0.0
 11
643.8588417044
 21
339.5548548848
 31
0.0
  0
LWPOLYLINE
  5
238
330
1F
100
AcDbEntity
  8
0
  6
Continuous
 62
     7
370
    25
100
AcDbPolyline
 90
       36
 70
   128
 43
0.0
 10
618.8632417581
 20
335.5747073106
 10
619.6060019617
 20
335.3836891158
 10
620.3646537994
 20
335.2100262948
 10
621.1376694477
 20
335.0540685815
 10
621.9234921557
 20
334.9161300539
 10
622.7205393812
 20
334.7964885018
 10
623.5272059771
 20
334.6953848675
 10
624.3418674242
 20
334.6130227602
 10
625.1628831028
 20
334.5495680461
 10
625.9885995966
 20
334.5051485147
 10
626.8173540224
 20
334.4798536211
 10
627.6474773792
 20
334.4737343056
 10
628.477297909
 20
334.4868028918
 10
629.3051444636
 20
334.5190330614
 10
630.1293498703
 20
334.5703599071
 10
630.948254289
 20
334.6406800633
 10
631.7602085553
 20
334.7298519148
 10
632.5635775013
 20
334.8376958811
 10
633.3567432488
 20
334.9639947791
 10
634.1381084677
 20
335.1084942594
 10
634.9060995923
 20
335.2709033193
 10
635.6591699908
 20
335.4508948887
 10
636.3958030795
 20
335.6481064884
 10
637.1145153774
 20
335.8621409605
 10
637.8138594937
 20
336.0925672681
 10
638.4924270424
 20
336.3389213633
 10
639.1488514787
 20
336.6007071218
 10
639.7818108511
 20
336.8773973417
 10
640.3900304638
 20
337.1684348059
 10
640.9722854433
 20
337.4732334036
 10
641.5274032057
 20
337.7911793111
 10
642.0542658176
 20
338.1216322275
 10
642.5518122478
 20
338.4639266647
 10
643.0190405041
 20
338.8173732872
 10
643.4550096509
 20
339.1812603006
 10
643.8588417044
 20
339.5548548848
  0
LINE
  5
239
330
1F
100
AcDbEntity
  8
0
  6
Continuous
 62
     7
370
    25
100
AcDbLine
 10
618.8632417581
 20
335.5747073106
 30
0.0
 11
591.392827427
 21
343.0405773061
 31
0.0
  0
LINE
  5
23A
330
1F
100
AcDbEntity
  8
0
  6
Continuous
 62
     7
370
    25
100
AcDbLine
 10
588.6094071178
 20
343.7970513046
 30
0.0
 11
237.625578756
 21
439.1869351796
 31
0.0
  0
LINE
  5
23B
330
1F
100
AcDbEntity
  8
0
  6
Continuous
 62
     7
370
    25
100
AcDbLine
 10
234.8421584469
 20
439.9434091782
 30
0.0
 11
209.3776514215
 21
446.8641165493
 31
0.0
  0
LWPOLYLINE
  5
23C
330
1F
100
AcDbEntity
  8
0
  6
Continuous
 62
     7
370
    25
100
AcDbPolyline
 90
       36
 70
   128
 43
0.0
 10
201.6497808657
 20
459.7378022268
 10
201.2788991695
 20
459.3552524415
 10
200.9417147371
 20
458.9645178594
 10
200.6389066129
 20
458.5663853681
 10
200.3710846123
 20
458.1616567533
 10
200.1387880931
 20
457.7511470847
 10
199.9424848696
 20
457.335683074
 10
199.7825702704
 20
456.9161014106
 10
199.6593663421
 20
456.493247076
 10
199.5731212011
 20
456.0679716426
 10
199.5240085337
 20
455.6411315586
 10
199.5121272461
 20
455.213586423
 10
199.5375012658
 20
454.7861972548
 10
199.6000794929
 20
454.359824759
 10
199.699735903
 20
453.935327593
 10
199.8362698015
 20
453.5135606377
 10
200.0094062273
 20
453.0953732754
 10
200.2187965067
 20
452.68160768
 10
200.4640189554
 20
452.2730971203
 10
200.7445797282
 20
451.8706642822
 10
201.0599138129
 20
451.4751196118
 10
201.4093861687
 20
451.0872596836
 10
201.7922930047
 20
450.7078655956
 10
202.2078631976
 20
450.3377013973
 10
202.6552598443
 20
449.9775125499
 10
203.1335819475
 20
449.628024426
 10
203.6418662301
 20
449.289940848
 10
204.1790890752
 20
448.9639426713
 10
204.7441685875
 20
448.6506864129
 10
205.3359667721
 20
448.3508029291
 10
205.9532918261
 20
448.0648961454
 10
206.5949005392
 20
447.7935418401
 10
207.2595007967
 20
447.5372864844
 10
207.9457541821
 20
447.2966461428
 10
208.6522786724
 20
447.0721054327
 10
209.3776514215
 20
446.8641165493
  0
LINE
  5
23D
330
1F
100
AcDbEntity
  8
0
  6
Continuous
 62
     7
370
    25
100
AcDbLine
 10
201.6497808657
 20
459.7378022268
 30
0.0
 11
242.7189750915
 21
499.8225948256
 31
0.0
  0
LWPOLYLINE
  5
23E
330
1F
100
AcDbEntity
  8
0
  6
Continuous
 62
     7
370
    25
100
AcDbPolyline
 90
       36
 70
   128
 43
0.0
 10
643.8588417044
 20
335.2690183813
 10
643.4550096509
 20
334.8954237971
 10
643.0190405041
 20
334.5315367837
 10
642.5518122478
 20
334.1780901612
 10
642.0542658176
 20
333.835795724
 10
641.5274032057
 20
333.5053428075
 10
640.9722854433
 20
333.1873969001
 10
640.3900304638
 20
332.8825983024
 10
639.7818108511
 20
332.5915608382
 10
639.1488514787
 20
332.3148706182
 10
638.4924270424
 20
332.0530848598
 10
637.8138594937
 20
331.8067307646
 10
637.1145153774
 20
331.576304457
 10
636.3958030795
 20
331.3622699849
 10
635.6591699908
 20
331.1650583852
 10
634.9060995923
 20
330.9850668158
 10
634.1381084677
 20
330.8226577559
 10
633.3567432488
 20
330.6781582756
 10
632.5635775013
 20
330.5518593776
 10
631.7602085553
 20
330.4440154113
 10
630.948254289
 20
330.3548435598
 10
630.1293498703
 20
330.2845234036
 10
629.3051444636
 20
330.2331965579
 10
628.477297909
 20
330.2009663883
 10
627.6474773792
 20
330.1878978021
 10
626.8173540224
 20
330.1940171175
 10
625.9885995966
 20
330.2193120112
 10
625.1628831028
 20
330.2637315426
 10
624.3418674242
 20
330.3271862567
 10
623.5272059771
 20
330.409548364
 10
622.7205393812
 20
330.5106519983
 10
621.9234921557
 20
330.6302935504
 10
621.1376694477
 20
330.768232078
 10
620.3646537994
 20
330.9241897913
 10
619.6060019617
 20
331.0978526123
 10
618.8632417581
 20
331.2888708071
  0
LINE
  5
23F
330
1F
100
AcDbEntity
  8
0
  6
Continuous
 62
     7
370
    25
100
AcDbLine
 10
618.8632417581
 20
331.2888708071
 30
0.0
 11
593.4599112918
 21
338.1929517003
 31
0.0
  0
LINE
  5
240
330
1F
100
AcDbEntity
  8
0
  6
Continuous
 62
     7
370
    25
100
AcDbLine
 10
584.2404574839
 20
340.6986016963
 30
0.0
 11
239.6926626209
 21
434.3393095739
 31
0.0
  0
LINE
  5
241
330
1F
100
AcDbEntity
  8
0
  6
Continuous
 62
     7
370
    25
100
AcDbLine
 10
230.473208813
 20
436.8449595699
 30
0.0
 11
209.3776514215
 21
442.5782800458
 31
0.0
  0
LINE
  5
242
330
1F
100
AcDbEntity
  8
0
  6
Continuous
 62
     7
370
    25
100
AcDbLine
 10
684.9280359302
 20
375.3538109801
 30
0.0
 11
643.8588417044
 21
335.2690183813
 31
0.0
  0
ARC
  5
243
330
1F
100
AcDbEntity
  8
0
  6
Continuous
 62
     7
370
    25
100
AcDbCircle
 10
680.7119367909
 20
380.1186416896
 30
0.0
 40
6.362319045964179
100
AcDbArc
 50
311.5035951282
 51
357.1345055775
  0
LWPOLYLINE
  5
244
330
1F
100
AcDbEntity
  8
0
  6
Continuous
 62
     7
370
    25
100
AcDbPolyline
 90
       26
 70
   128
 43
0.0
 10
209.3776514215
 20
442.5782800458
 10
208.6522786724
 20
442.7862689292
 10
207.9457541821
 20
443.0108096393
 10
207.2595007967
 20
443.2514499809
 10
206.5949005392
 20
443.5077053365
 10
205.9532918261
 20
443.7790596419
 10
205.3359667721
 20
444.0649664256
 10
204.7441685875
 20
444.3648499093
 10
204.1790890752
 20
444.6781061678
 10
203.6418662301
 20
445.0041043445
 10
203.1335819475
 20
445.3421879224
 10
202.6552598443
 20
445.6916760464
 10
202.2078631976
 20
446.0518648938
 10
201.7922930047
 20
446.4220290921
 10
201.4093861687
 20
446.80142318
 10
201.0599138129
 20
447.1892831083
 10
200.7445797282
 20
447.5848277787
 10
200.4640189554
 20
447.9872606168
 10
200.2187965067
 20
448.3957711765
 10
200.0094062273
 20
448.8095367719
 10
199.8362698015
 20
449.2277241341
 10
199.699735903
 20
449.6494910895
 10
199.6000794929
 20
450.0739882555
 10
199.5375012658
 20
450.5003607513
 10
199.5121272461
 20
450.9277499195
 10
199.5115161167
 20
451.0051966716
  0
LWPOLYLINE
  5
245
330
1F
100
AcDbEntity
  8
0
  6
Continuous
 62
     7
370
    25
100
AcDbPolyline
 90
       42
 70
   128
 43
0.0
 10
239.6926626209
 20
251.2564094282
 10
239.7293019365
 20
251.162251346
 10
239.7854086314
 20
250.9477615197
 10
239.8044894953
 20
250.7315571029
 10
239.7863951946
 20
250.5153301884
 10
239.7312673418
 20
250.3007730448
 10
239.6395373869
 20
250.0895648729
 10
239.5119232413
 20
249.8833586628
 10
239.3494236587
 20
249.6837682578
 10
239.1533104186
 20
249.4923557233
 10
238.9251183731
 20
249.3106191221
 10
238.6666334343
 20
249.1399807894
 10
238.3798785973
 20
248.9817762015
 10
238.0670981075
 20
248.8372435239
 10
237.7307398964
 20
248.7075139206
 10
237.3734364229
 20
248.5936027018
 10
236.9979840713
 20
248.4964013772
 10
236.6073212651
 20
248.4166706788
 10
236.2045054706
 20
248.3550346077
 10
235.7926892676
 20
248.3119755495
 10
235.375095676
 20
248.2878304997
 10
234.9549929321
 20
248.2827884262
 10
234.5356689094
 20
248.29688879
 10
234.1204053868
 20
248.3300212367
 10
233.7124523646
 20
248.3819264598
 10
233.3150026281
 20
248.4521982307
 10
232.9311667606
 20
248.5402865775
 10
232.563948798
 20
248.6455020894
 10
232.2162227188
 20
248.7670213125
 10
231.8907099511
 20
248.9038931939
 10
231.5899580736
 20
249.0550465257
 10
231.3163208775
 20
249.2192983281
 10
231.0719399449
 20
249.395363108
 10
230.858727888
 20
249.5818629199
 10
230.6783533801
 20
249.7773381498
 10
230.5322280963
 20
249.980258939
 10
230.4214956652
 20
250.1890371572
 10
230.3470227181
 20
250.4020388319
 10
230.3093921068
 20
250.617596936
 10
230.3088983419
 20
250.8340244351
 10
230.3455452878
 20
251.0496274907
 10
230.3623899161
 20
251.1094871535
  0
LWPOLYLINE
  5
246
330
1F
100
AcDbEntity
  8
0
  6
Continuous
 62
     7
370
    25
100
AcDbPolyline
 90
       34
 70
   128
 43
0.0
 10
655.7243100994
 20
214.6392534142
 10
655.5119496038
 20
214.4524960532
 10
655.268372705
 20
214.2761359696
 10
654.9954857226
 20
214.1115534203
 10
654.6954243671
 20
213.9600364868
 10
654.3705370255
 20
213.8227709945
 10
654.0233663818
 20
213.7008312321
 10
653.6566295169
 20
213.5951715434
 10
653.2731966441
 20
213.5066188589
 10
652.8760686454
 20
213.4358662234
 10
652.468353586
 20
213.3834673721
 10
652.0532423888
 20
213.3498323971
 10
651.633983862
 20
213.3352245377
 10
651.2138592719
 20
213.3397581202
 10
650.796156663
 20
213.3633976632
 10
650.3841451246
 20
213.4059581552
 10
649.9810492057
 20
213.4671065026
 10
649.5900236782
 20
213.5463641367
 10
649.2141288473
 20
213.6431107591
 10
648.8563065995
 20
213.7565891962
 10
648.5193573791
 20
213.8859113255
 10
648.2059182706
 20
214.030065026
 10
647.91844236
 20
214.1879220994
 10
647.659179536
 20
214.3582471001
 10
647.4301588819
 20
214.5397070042
 10
647.2331727948
 20
214.7308816417
 10
647.0697629577
 20
214.930274812
 10
646.9412082744
 20
215.1363259932
 10
646.8485148594
 20
215.3474225553
 10
646.7924081645
 20
215.5619123816
 10
646.7733273006
 20
215.7781167984
 10
646.7914216012
 20
215.994343713
 10
646.8465494541
 20
216.2089008565
 10
646.885154175
 20
216.3087183547
  0
ARC
  5
247
330
1F
100
AcDbEntity
  8
0
  6
Continuous
 62
     7
370
    25
100
AcDbCircle
 10
654.7861368932
 20
215.7823534232
 30
0.0
 40
1.478799038262286
100
AcDbArc
 50
309.3766554328
 51
14.8677248187
  0
LWPOLYLINE
  5
248
330
1F
100
AcDbEntity
  8
0
  6
Continuous
 62
     7
370
    25
100
AcDbPolyline
 90
       42
 70
   128
 43
0.0
 10
593.4599112918
 20
155.1100515547
 10
593.4965506074
 20
155.0158934724
 10
593.5526573024
 20
154.8014036461
 10
593.5717381663
 20
154.5851992293
 10
593.5536438656
 20
154.3689723148
 10
593.4985160127
 20
154.1544151713
 10
593.4067860579
 20
153.9432069993
 10
593.2791719123
 20
153.7370007892
 10
593.1166723297
 20
153.5374103842
 10
592.9205590896
 20
153.3459978498
 10
592.6923670441
 20
153.1642612485
 10
592.4338821053
 20
152.9936229158
 10
592.1471272683
 20
152.835418328
 10
591.8343467785
 20
152.6908856503
 10
591.4979885674
 20
152.5611560471
 10
591.1406850939
 20
152.4472448282
 10
590.7652327422
 20
152.3500435036
 10
590.3745699361
 20
152.2703128053
 10
589.9717541416
 20
152.2086767341
 10
589.5599379385
 20
152.1656176759
 10
589.142344347
 20
152.1414726262
 10
588.7222416031
 20
152.1364305527
 10
588.3029175804
 20
152.1505309165
 10
587.8876540578
 20
152.1836633631
 10
587.4797010356
 20
152.2355685863
 10
587.0822512991
 20
152.3058403572
 10
586.6984154315
 20
152.393928704
 10
586.331197469
 20
152.4991442159
 10
585.9834713898
 20
152.6206634389
 10
585.6579586221
 20
152.7575353203
 10
585.3572067446
 20
152.9086886521
 10
585.0835695485
 20
153.0729404545
 10
584.8391886159
 20
153.2490052344
 10
584.6259765589
 20
153.4355050463
 10
584.445602051
 20
153.6309802762
 10
584.2994767673
 20
153.8339010654
 10
584.1887443362
 20
154.0426792837
 10
584.1142713891
 20
154.2556809583
 10
584.0766407778
 20
154.4712390624
 10
584.0761470129
 20
154.6876665615
 10
584.1127939587
 20
154.9032696171
 10
584.129638587
 20
154.9631292799
  0
LWPOLYLINE
  5
249
330
1F
100
AcDbEntity
  8
0
  6
Continuous
 62
     7
370
    25
100
AcDbPolyline
 90
       34
 70
   128
 43
0.0
 10
301.9570614284
 20
310.7856112877
 10
301.7447009328
 20
310.5988539268
 10
301.5011240341
 20
310.4224938432
 10
301.2282370516
 20
310.2579112939
 10
300.9281756961
 20
310.1063943604
 10
300.6032883546
 20
309.9691288681
 10
300.2561177108
 20
309.8471891056
 10
299.8893808459
 20
309.741529417
 10
299.5059479731
 20
309.6529767325
 10
299.1088199745
 20
309.582224097
 10
298.701104915
 20
309.5298252457
 10
298.2859937179
 20
309.4961902707
 10
297.866735191
 20
309.4815824113
 10
297.4466106009
 20
309.4861159938
 10
297.028907992
 20
309.5097555368
 10
296.6168964536
 20
309.5523160287
 10
296.2138005347
 20
309.6134643761
 10
295.8227750073
 20
309.6927220103
 10
295.4468801763
 20
309.7894686327
 10
295.0890579285
 20
309.9029470698
 10
294.7521087081
 20
310.0322691991
 10
294.4386695996
 20
310.1764228995
 10
294.151193689
 20
310.3342799729
 10
293.8919308651
 20
310.5046049737
 10
293.662910211
 20
310.6860648777
 10
293.4659241238
 20
310.8772395153
 10
293.3025142868
 20
311.0766326856
 10
293.1739596034
 20
311.2826838668
 10
293.0812661884
 20
311.4937804289
 10
293.0251594935
 20
311.7082702552
 10
293.0060786296
 20
311.924474672
 10
293.0241729303
 20
312.1407015865
 10
293.0793007832
 20
312.3552587301
 10
293.117905504
 20
312.4550762283
  0
ARC
  5
24A
330
1F
100
AcDbEntity
  8
0
  6
Continuous
 62
     7
370
    25
100
AcDbCircle
 10
301.0188882222
 20
311.9287112968
 30
0.0
 40
1.478799038262297
100
AcDbArc
 50
309.3766554328
 51
14.8677248187
  0
SPLINE
  5
24B
330
1F
100
AcDbEntity
  8
0
  6
Continuous
 62
     7
370
    25
100
AcDbSpline
210
0.0
220
0.0
230
1.0
 70
     8
 71
     3
 72
    27
 73
    23
 74
     0
 42
0.000000001
 43
0.00000001
 40
0.0
 40
0.0
 40
0.0
 40
0.0
 40
0.0885627570442146
 40
0.1796538943995934
 40
0.2695908295576353
 40
0.3157544754264162
 40
0.3623424134621819
 40
0.4187626527282481
 40
0.4469315743364933
 40
0.4757555362193684
 40
0.493736734595854
 40
0.5121853392428819
 40
0.5301891255062616
 40
0.5487612444758517
 40
0.572147635744783
 40
0.5961816793253165
 40
0.6385637840833025
 40
0.6819638929543737
 40
0.7628695907407566
 40
0.8459362592691206
 40
0.922227319177064
 40
0.9999999999999999
 40
0.9999999999999999
 40
0.9999999999999999
 40
0.9999999999999999
 10
591.8082855815969
 20
340.5392935552658
 30
0.0
 10
591.9247669056766
 20
340.432552153229
 30
0.0
 10
592.1610549819985
 20
340.2160219862649
 30
0.0
 10
592.496848060926
 20
339.9345567787319
 30
0.0
 10
592.7571153719877
 20
339.7277997726281
 30
0.0
 10
592.9485958878658
 20
339.5877057429489
 30
0.0
 10
593.0942620205541
 20
339.4916517509668
 30
0.0
 10
593.2110648039024
 20
339.431779829748
 30
0.0
 10
593.3011339260921
 20
339.4122676124038
 30
0.0
 10
593.3544310826936
 20
339.4203549464943
 30
0.0
 10
593.3939952289728
 20
339.4484001632213
 30
0.0
 10
593.4213095884033
 20
339.4875117925537
 30
0.0
 10
593.4418846370291
 20
339.5431881568531
 30
0.0
 10
593.4560258434601
 20
339.6191185203767
 30
0.0
 10
593.4616047427783
 20
339.7169735610355
 30
0.0
 10
593.4561284232127
 20
339.8630442558454
 30
0.0
 10
593.4311909232503
 20
340.053756964686
 30
0.0
 10
593.3665303132183
 20
340.3492552604967
 30
0.0
 10
593.2460148321098
 20
340.7173578367459
 30
0.0
 10
593.0547834563214
 20
341.1277986301205
 30
0.0
 10
592.8243880568085
 20
341.5132190755062
 30
0.0
 10
592.6435830084855
 20
341.7384057786422
 30
0.0
 10
592.5523110891637
 20
341.8520819331058
 30
0.0
  0
SPLINE
  5
24C
330
1F
100
AcDbEntity
  8
0
  6
Continuous
 62
     7
370
    25
100
AcDbSpline
210
0.0
220
0.0
230
1.0
 70
     8
 71
     3
 72
    14
 73
    10
 74
     0
 42
0.000000001
 43
0.00000001
 40
0.0
 40
0.0
 40
0.0
 40
0.0
 40
0.220765348438307
 40
0.3402146168140888
 40
0.4605704991791176
 40
0.5641909618660997
 40
0.6633542991972022
 40
0.8105247403618681
 40
1.0
 40
1.0
 40
1.0
 40
1.0
 10
591.5342431627636
 20
340.3923025157346
 30
0.0
 10
591.5280397483818
 20
340.4328915511812
 30
0.0
 10
591.518479859288
 20
340.4954420521497
 30
0.0
 10
591.5372239024233
 20
340.569456662085
 30
0.0
 10
591.5684439835533
 20
340.610773636956
 30
0.0
 10
591.6118489730104
 20
340.6289456602814
 30
0.0
 10
591.6654130903149
 20
340.6275052574143
 30
0.0
 10
591.7345185178399
 20
340.6012041280855
 30
0.0
 10
591.78171938369
 20
340.5615898003147
 30
0.0
 10
591.8082855815969
 20
340.5392935552658
 30
0.0
  0
SPLINE
  5
24D
330
1F
100
AcDbEntity
  8
0
  6
Continuous
 62
     7
370
    25
100
AcDbSpline
210
0.0
220
0.0
230
1.0
 70
     8
 71
     3
 72
    23
 73
    19
 74
     0
 42
0.000000001
 43
0.00000001
 40
0.0
 40
0.0
 40
0.0
 40
0.0
 40
0.0863901050636675
 40
0.175276617796251
 40
0.2621177065427343
 40
0.3519363559727527
 40
0.4192459175638961
 40
0.4528076006128816
 40
0.4875598503476014
 40
0.5342326170542421
 40
0.5808027178643154
 40
0.6174159281963711
 40
0.6550189806174116
 40
0.717619247661828
 40
0.7818570182170471
 40
0.8689416197544358
 40
0.9585429605715616
 40
1.0
 40
1.0
 40
1.0
 40
1.0
 10
588.8937642753847
 20
339.8908476474592
 30
0.0
 10
588.9572411076897
 20
339.7529955482723
 30
0.0
 10
589.0860290570346
 20
339.4733078492727
 30
0.0
 10
589.3474045942098
 20
339.084268186583
 30
0.0
 10
589.6526412387143
 20
338.7247483131378
 30
0.0
 10
589.9738448322901
 20
338.441583668402
 30
0.0
 10
590.2567523444022
 20
338.2771551872275
 30
0.0
 10
590.4730908609561
 20
338.2089701087218
 30
0.0
 10
590.662984370489
 20
338.1896568716027
 30
0.0
 10
590.8732916731922
 20
338.234962107663
 30
0.0
 10
591.0580480906699
 20
338.355427416481
 30
0.0
 10
591.1990043435366
 20
338.5049873231494
 30
0.0
 10
591.33102338895
 20
338.6986075601375
 30
0.0
 10
591.4506436746598
 20
338.956062602887
 30
0.0
 10
591.553341726199
 20
339.3106077703747
 30
0.0
 10
591.6046192697345
 20
339.7235454085947
 30
0.0
 10
591.5902676904677
 20
340.1005102767299
 30
0.0
 10
591.5477063712025
 20
340.3221821613907
 30
0.0
 10
591.5342431627636
 20
340.3923025157346
 30
0.0
  0
SPLINE
  5
24E
330
1F
100
AcDbEntity
  8
0
  6
Continuous
 62
     7
370
    25
100
AcDbSpline
210
0.0
220
0.0
230
1.0
 70
     8
 71
     3
 72
    14
 73
    10
 74
     0
 42
0.000000001
 43
0.00000001
 40
0.0
 40
0.0
 40
0.0
 40
0.0
 40
0.2243030424882868
 40
0.3489011866266555
 40
0.4744001356117536
 40
0.5826741857065961
 40
0.6867417687947411
 40
0.838156487169633
 40
1.0
 40
1.0
 40
1.0
 40
1.0
 10
588.473606118249
 20
339.9062014436891
 30
0.0
 10
588.4951597211881
 20
339.9427000797092
 30
0.0
 10
588.5286861395468
 20
339.9994733507108
 30
0.0
 10
588.6045413669086
 20
340.0498540568864
 30
0.0
 10
588.6718202345943
 20
340.0665523782433
 30
0.0
 10
588.7363696360944
 20
340.0573120523613
 30
0.0
 10
588.7980518206987
 20
340.0261573652129
 30
0.0
 10
588.854933970745
 20
339.9704098441097
 30
0.0
 10
588.8805367236317
 20
339.9179505271183
 30
0.0
 10
588.8937642753847
 20
339.8908476474592
 30
0.0
  0
SPLINE
  5
24F
330
1F
100
AcDbEntity
  8
0
  6
Continuous
 62
     7
370
    25
100
AcDbSpline
210
0.0
220
0.0
230
1.0
 70
     8
 71
     3
 72
    26
 73
    22
 74
     0
 42
0.000000001
 43
0.00000001
 40
0.0
 40
0.0
 40
0.0
 40
0.0
 40
0.0854261159360918
 40
0.1733276547195573
 40
0.2448517261352453
 40
0.3181224083912689
 40
0.3577740645396622
 40
0.3980844094313167
 40
0.4287682032815262
 40
0.4601978879083184
 40
0.4855692359538049
 40
0.5116681185372408
 40
0.5370453561645167
 40
0.5630880149114005
 40
0.5995557531473522
 40
0.6370345873825467
 40
0.6960497304231501
 40
0.7566321175831365
 40
0.840142306324232
 40
0.926053464741959
 40
1.0
 40
1.0
 40
1.0
 40
1.0
 10
585.9250083092078
 20
340.5988557183412
 30
0.0
 10
585.8929066352088
 20
340.4585361314411
 30
0.0
 10
585.8277730656224
 20
340.1738308672242
 30
0.0
 10
585.8253827665784
 20
339.7610791842746
 30
0.0
 10
585.8809118632558
 20
339.3754523561798
 30
0.0
 10
585.9742844590703
 20
339.0805005989768
 30
0.0
 10
586.0879215520613
 20
338.8526200633999
 30
0.0
 10
586.1911455524854
 20
338.7013432442845
 30
0.0
 10
586.3060610768581
 20
338.5789336235026
 30
0.0
 10
586.4195201782187
 20
338.4929509127227
 30
0.0
 10
586.5390303107199
 20
338.4334457869161
 30
0.0
 10
586.6576085956949
 20
338.3999110155535
 30
0.0
 10
586.7813763702753
 20
338.3890823930814
 30
0.0
 10
586.9224430099882
 20
338.4011697387438
 30
0.0
 10
587.0801202249069
 20
338.443825547792
 30
0.0
 10
587.2808469211258
 20
338.5344766292123
 30
0.0
 10
587.5034347066118
 20
338.6798191483475
 30
0.0
 10
587.7683490733582
 20
338.9071057495822
 30
0.0
 10
588.0378742459475
 20
339.2034302191802
 30
0.0
 10
588.2874167468402
 20
339.5489104793263
 30
0.0
 10
588.4147189929803
 20
339.7931990869134
 30
0.0
 10
588.473606118249
 20
339.9062014436891
 30
0.0
  0
SPLINE
  5
250
330
1F
100
AcDbEntity
  8
0
  6
Continuous
 62
     7
370
    25
100
AcDbSpline
210
0.0
220
0.0
230
1.0
 70
     8
 71
     3
 72
    14
 73
    10
 74
     0
 42
0.000000001
 43
0.00000001
 40
0.0
 40
0.0
 40
0.0
 40
0.0
 40
0.2239799089305531
 40
0.3530600787849406
 40
0.4831615846560053
 40
0.5937368434043864
 40
0.6971871626480907
 40
0.8442013099709667
 40
1.0
 40
1.0
 40
1.0
 40
1.0
 10
585.6751220757573
 20
340.765605630158
 30
0.0
 10
585.7076758032186
 20
340.7889680022444
 30
0.0
 10
585.758990323513
 20
340.8257941665589
 30
0.0
 10
585.8337253894193
 20
340.8420750554977
 30
0.0
 10
585.8855599527795
 20
340.8315307291269
 30
0.0
 10
585.9204199635308
 20
340.7985332071205
 30
0.0
 10
585.9403892650417
 20
340.7482372311838
 30
0.0
 10
585.9439897821189
 20
340.6799059453415
 30
0.0
 10
585.9314566613268
 20
340.6263899568836
 30
0.0
 10
585.9250083092078
 20
340.5988557183412
 30
0.0
  0
SPLINE
  5
251
330
1F
100
AcDbEntity
  8
0
  6
Continuous
 62
     7
370
    25
100
AcDbSpline
210
0.0
220
0.0
230
1.0
 70
     8
 71
     3
 72
    24
 73
    20
 74
     0
 42
0.000000001
 43
0.00000001
 40
0.0
 40
0.0
 40
0.0
 40
0.0
 40
0.0875562630610312
 40
0.1776478778994355
 40
0.2471757028850854
 40
0.3182848495519455
 40
0.3544514774164594
 40
0.3911558340110791
 40
0.4196735717850657
 40
0.4488792169076924
 40
0.4956340312872246
 40
0.5423649618835416
 40
0.5763627331264951
 40
0.6112927856933139
 40
0.6689340598446838
 40
0.7280698917726421
 40
0.8133417532352671
 40
0.901057072756078
 40
1.0
 40
1.0
 40
1.0
 40
1.0
 10
585.1375514771829
 20
342.1307862513524
 30
0.0
 10
585.0330330337024
 20
342.0169068059946
 30
0.0
 10
584.8209696239984
 20
341.785850327601
 30
0.0
 10
584.573841727831
 20
341.4191126838581
 30
0.0
 10
584.3804693733996
 20
341.0604300167878
 30
0.0
 10
584.262987097931
 20
340.7766514612451
 30
0.0
 10
584.1910151802451
 20
340.5474858371893
 30
0.0
 10
584.1537201808447
 20
340.3898570231309
 30
0.0
 10
584.1328497357996
 20
340.2510856940189
 30
0.0
 10
584.1258936111936
 20
340.1112521447102
 30
0.0
 10
584.1476652140897
 20
339.9810569340562
 30
0.0
 10
584.2088773053077
 20
339.9125185060328
 30
0.0
 10
584.2850232441428
 20
339.8951665020244
 30
0.0
 10
584.3826629303451
 20
339.9074310147007
 30
0.0
 10
584.5174826129543
 20
339.9593156220861
 30
0.0
 10
584.7188142980866
 20
340.068105679959
 30
0.0
 10
584.97625247462
 20
340.2344125626046
 30
0.0
 10
585.3051463806519
 20
340.4685707769709
 30
0.0
 10
585.5469486590691
 20
340.6627016488637
 30
0.0
 10
585.6751220757573
 20
340.765605630158
 30
0.0
  0
SPLINE
  5
252
330
1F
100
AcDbEntity
  8
0
  6
Continuous
 62
     7
370
    25
100
AcDbSpline
210
0.0
220
0.0
230
1.0
 70
     8
 71
     3
 72
    14
 73
    10
 74
     0
 42
0.000000001
 43
0.00000001
 40
0.0
 40
0.0
 40
0.0
 40
0.0
 40
0.2200911109485839
 40
0.3501199592092674
 40
0.4590676183976911
 40
0.5685351145661591
 40
0.6668402217389687
 40
0.7968948941936455
 40
1.0
 40
1.0
 40
1.0
 40
1.0
 10
585.2461065979562
 20
342.3227531925324
 30
0.0
 10
585.264833314176
 20
342.3349223579378
 30
0.0
 10
585.2946236909465
 20
342.3542810120741
 30
0.0
 10
585.3122673765539
 20
342.3531498981279
 30
0.0
 10
585.3109957465663
 20
342.3370953885545
 30
0.0
 10
585.2940043768874
 20
342.3077674137706
 30
0.0
 10
585.2621967902564
 20
342.2659647061784
 30
0.0
 10
585.2096575556494
 20
342.2052533507215
 30
0.0
 10
585.1648609526518
 20
342.1589899405101
 30
0.0
 10
585.1375514771829
 20
342.1307862513524
 30
0.0
  0
SPLINE
  5
253
330
1F
100
AcDbEntity
  8
0
  6
Continuous
 62
     7
370
    25
100
AcDbSpline
210
0.0
220
0.0
230
1.0
 70
     8
 71
     3
 72
    11
 73
     7
 74
     0
 42
0.000000001
 43
0.00000001
 40
0.0
 40
0.0
 40
0.0
 40
0.0
 40
0.1049083671508826
 40
0.4229451041602431
 40
0.7083613692849814
 40
0.9999999999999999
 40
0.9999999999999999
 40
0.9999999999999999
 40
0.9999999999999999
 10
584.8773473718792
 20
341.8431073812196
 30
0.0
 10
584.8749779480421
 20
341.8572127397227
 30
0.0
 10
584.8654254572466
 20
341.9140794366637
 30
0.0
 10
584.9272695021236
 20
342.0268371704181
 30
0.0
 10
585.0473616610183
 20
342.1715297325684
 30
0.0
 10
585.1793837555516
 20
342.2719843063283
 30
0.0
 10
585.2461065979561
 20
342.3227531925323
 30
0.0
  0
SPLINE
  5
254
330
1F
100
AcDbEntity
  8
0
  6
Continuous
 62
     7
370
    25
100
AcDbSpline
210
0.0
220
0.0
230
1.0
 70
     8
 71
     3
 72
    11
 73
     7
 74
     0
 42
0.000000001
 43
0.00000001
 40
0.0
 40
0.0
 40
0.0
 40
0.0
 40
0.2979383423231107
 40
0.6042349781302789
 40
0.9104330028157228
 40
1.0
 40
1.0
 40
1.0
 40
1.0
 10
592.4738782388665
 20
342.0503067884754
 30
0.0
 10
592.5558188858383
 20
341.9806241010437
 30
0.0
 10
592.7219989237784
 20
341.8393038641515
 30
0.0
 10
592.8621637401346
 20
341.6403990564462
 30
0.0
 10
592.9315887477806
 20
341.4870113703821
 30
0.0
 10
592.9190363603151
 20
341.411570508123
 30
0.0
 10
592.9161955846259
 20
341.3944972168412
 30
0.0
  0
SPLINE
  5
255
330
1F
100
AcDbEntity
  8
0
  6
Continuous
 62
     7
370
    25
100
AcDbSpline
210
0.0
220
0.0
230
1.0
 70
     8
 71
     3
 72
    15
 73
    11
 74
     0
 42
0.000000001
 43
0.00000001
 40
0.0
 40
0.0
 40
0.0
 40
0.0
 40
0.2155767705933857
 40
0.332900553867743
 40
0.4328760582231042
 40
0.5332634977247832
 40
0.6250838127945076
 40
0.7535547096888764
 40
0.9421338378892115
 40
1.0
 40
1.0
 40
1.0
 40
1.0
 10
592.5523110891637
 20
341.8520819331058
 30
0.0
 10
592.5248173777054
 20
341.8847453462838
 30
0.0
 10
592.4823607078742
 20
341.9351852350913
 30
0.0
 10
592.434187308966
 20
342.0010477528513
 30
0.0
 10
592.4074539740286
 20
342.0439343716147
 30
0.0
 10
592.3951057571579
 20
342.0730200443747
 30
0.0
 10
592.3961652638758
 20
342.0897208507927
 30
0.0
 10
592.4147216644592
 20
342.0905167690793
 30
0.0
 10
592.4450754337479
 20
342.0726011874493
 30
0.0
 10
592.4684012586971
 20
342.0545461665696
 30
0.0
 10
592.4738782388665
 20
342.0503067884754
 30
0.0
  0
LWPOLYLINE
  5
256
330
1F
100
AcDbEntity
  8
0
  6
Continuous
 62
     7
370
    25
100
AcDbPolyline
 90
       18
 70
   128
 43
0.0
 10
588.8937642754
 20
152.6444953831
 10
589.0284657745
 20
152.5463994228
 10
589.1919337128
 20
152.4606814329
 10
589.3799474907
 20
152.3895545771
 10
589.5876527562
 20
152.3348552888
 10
589.8096867404
 20
152.2979958561
 10
590.0403167193
 20
152.2799279573
 10
590.2735880279
 20
152.2811180899
 10
590.5034778042
 20
152.3015355256
 10
590.7240504946
 20
152.340653104
 10
590.9296111044
 20
152.3974608435
 10
591.1148522379
 20
152.4704920176
 10
591.2749911304
 20
152.5578610251
 10
591.4058931352
 20
152.6573120743
 10
591.5041784767
 20
152.7662774258
 10
591.567309513
 20
152.8819436893
 10
591.5936562557
 20
153.0013244625
 10
591.5944348746
 20
153.025810272
  0
LWPOLYLINE
  5
257
330
1F
100
AcDbEntity
  8
0
  6
Continuous
 62
     7
370
    25
100
AcDbPolyline
 90
       17
 70
   128
 43
0.0
 10
585.830677709
 20
153.0799724987
 10
585.8411366184
 20
152.9903803655
 10
585.8876048223
 20
152.8726386185
 10
585.9700878645
 20
152.7602500517
 10
586.0864561047
 20
152.6561164398
 10
586.2337050164
 20
152.5629264219
 10
586.408032761
 20
152.4830860832
 10
586.604938348
 20
152.4186568315
 10
586.8193378468
 20
152.3713021741
 10
587.0456956492
 20
152.3422447668
 10
587.2781673939
 20
152.3322348467
 10
587.5107508632
 20
152.3415308611
 10
587.7374409545
 20
152.369892795
 10
587.9523847273
 20
152.4165883681
 10
588.1500325206
 20
152.4804119413
 10
588.3252812406
 20
152.5597156455
 10
588.4736061182
 20
152.6524519284
  0
ARC
  5
258
330
1F
100
AcDbEntity
  8
0
  6
Continuous
 62
     7
370
    25
100
AcDbCircle
 10
588.6774486274
 20
152.3191415902
 30
0.0
 40
0.3907013566544005
100
AcDbArc
 50
56.3815430533
 51
121.448693132
  0
LWPOLYLINE
  5
259
330
1F
100
AcDbEntity
  8
0
  6
Continuous
 62
     7
370
    25
100
AcDbPolyline
 90
       12
 70
   128
 43
0.0
 10
591.8082855816
 20
153.4031094984
 10
592.0411809621
 20
153.3961883219
 10
592.2732220765
 20
153.4085681514
 10
592.4984178256
 20
153.4399293507
 10
592.7109538513
 20
153.4894622009
 10
592.9053426588
 20
153.5558878069
 10
593.0765652982
 20
153.6374911176
 10
593.2202009505
 20
153.7321652064
 10
593.3325410681
 20
153.837465671
 10
593.4106851271
 20
153.9506737452
 10
593.4526155161
 20
154.0688664951
 10
593.4599112918
 20
154.1437350918
  0
ARC
  5
25A
330
1F
100
AcDbEntity
  8
0
  6
Continuous
 62
     7
370
    25
100
AcDbCircle
 10
591.7697496504
 20
152.9980996997
 30
0.0
 40
0.4068389792662665
100
AcDbArc
 50
84.5647754415
 51
115.52591659
  0
ARC
  5
25B
330
1F
100
AcDbEntity
  8
0
  6
Continuous
 62
     7
370
    25
100
AcDbCircle
 10
585.6939600553
 20
153.0842916551
 30
0.0
 40
0.4353694513885942
100
AcDbArc
 50
71.6979304477
 51
92.4799025142
  0
LWPOLYLINE
  5
25C
330
1F
100
AcDbEntity
  8
0
  6
Continuous
 62
     7
370
    25
100
AcDbPolyline
 90
       12
 70
   128
 43
0.0
 10
584.129638587
 20
154.2654365106
 10
584.1301595878
 20
154.2454060711
 10
584.1551241483
 20
154.1259465299
 10
584.2169153405
 20
154.0100884985
 10
584.3139377697
 20
153.9008233302
 10
584.4436864014
 20
153.8009721564
 10
584.6028112389
 20
153.7131130476
 10
584.7872038177
 20
153.6395144492
 10
584.9921032819
 20
153.5820766129
 10
585.2122193062
 20
153.5422825337
 10
585.4418686864
 20
153.5211596599
 10
585.6751220758
 20
153.5192533658
  0
SPLINE
  5
25D
330
1F
100
AcDbEntity
  8
0
  6
Continuous
 62
     7
370
    25
100
AcDbSpline
210
0.0
220
0.0
230
1.0
 70
     8
 71
     3
 72
    16
 73
    12
 74
     0
 42
0.000000001
 43
0.00000001
 40
0.0
 40
0.0
 40
0.0
 40
0.0
 40
0.0122088048493963
 40
0.0634031473099943
 40
0.1160152431064654
 40
0.2087924467472742
 40
0.303798128078047
 40
0.4809060004239717
 40
0.6627443792828566
 40
0.82975050702168
 40
1.0
 40
1.0
 40
1.0
 40
1.0
 10
646.8953821892513
 20
401.8400378984625
 30
0.0
 10
646.8939908973082
 20
401.8363659929864
 30
0.0
 10
646.8867655964606
 20
401.8172969385882
 30
0.0
 10
646.8839293165502
 20
401.8022704541219
 30
0.0
 10
646.8886992774543
 20
401.7932862264799
 30
0.0
 10
646.913952903926
 20
401.8132575945728
 30
0.0
 10
646.9784929026408
 20
401.8750560801773
 30
0.0
 10
647.0990651611921
 20
401.9891649610523
 30
0.0
 10
647.2902784509527
 20
402.1529113301945
 30
0.0
 10
647.5206782877079
 20
402.3364169651883
 30
0.0
 10
647.7014827527886
 20
402.4726951205328
 30
0.0
 10
647.7927543776847
 20
402.5414894872571
 30
0.0
  0
SPLINE
  5
25E
330
1F
100
AcDbEntity
  8
0
  6
Continuous
 62
     7
370
    25
100
AcDbSpline
210
0.0
220
0.0
230
1.0
 70
     8
 71
     3
 72
    13
 73
     9
 74
     0
 42
0.000000001
 43
0.00000001
 40
0.0
 40
0.0
 40
0.0
 40
0.0
 40
0.3101028136282795
 40
0.4888158243022541
 40
0.6689428866826685
 40
0.82203563066704
 40
0.965263812254359
 40
1.0
 40
1.0
 40
1.0
 40
1.0
 10
654.6699433910911
 20
404.0904149263658
 30
0.0
 10
654.6373741550753
 20
404.1149346763812
 30
0.0
 10
654.586035188609
 20
404.1535852183584
 30
0.0
 10
654.5114248714634
 20
404.208225393094
 30
0.0
 10
654.4591995775264
 20
404.2462516381197
 30
0.0
 10
654.4255738770865
 20
404.2705687706169
 30
0.0
 10
654.4092132161696
 20
404.2823788310808
 30
0.0
 10
654.4084754231955
 20
404.2826807876422
 30
0.0
 10
654.4083314161936
 20
404.2827397253937
 30
0.0
  0
SPLINE
  5
25F
330
1F
100
AcDbEntity
  8
0
  6
Continuous
 62
     7
370
    25
100
AcDbSpline
210
0.0
220
0.0
230
1.0
 70
     8
 71
     3
 72
    19
 73
    15
 74
     0
 42
0.000000001
 43
0.00000001
 40
0.0
 40
0.0
 40
0.0
 40
0.0
 40
0.1462800199613765
 40
0.296795845513779
 40
0.412955801080665
 40
0.5317576666492553
 40
0.5921811573396819
 40
0.6535030300147173
 40
0.701147540013097
 40
0.7499413350217393
 40
0.8280544812619012
 40
0.9061277249278404
 40
0.9629277125266142
 40
1.0
 40
1.0
 40
1.0
 40
1.0
 10
655.2075139896655
 20
402.5393668371345
 30
0.0
 10
655.3120324352435
 20
402.468308622201
 30
0.0
 10
655.5240958492035
 20
402.3241345717225
 30
0.0
 10
655.7712237152483
 20
402.1605184577103
 30
0.0
 10
655.964596160786
 20
402.0362652616066
 30
0.0
 10
656.0820781629199
 20
401.9681415047958
 30
0.0
 10
656.1540506522645
 20
401.9391154931326
 30
0.0
 10
656.1913440008643
 20
401.9358766395196
 30
0.0
 10
656.2122193928194
 20
401.9527137255687
 30
0.0
 10
656.2191541038194
 20
401.9957161013822
 30
0.0
 10
656.1975120143472
 20
402.0927498076827
 30
0.0
 10
656.1358250462646
 20
402.2474284253584
 30
0.0
 10
656.0692455376812
 20
402.3896408657965
 30
0.0
 10
656.0251215779825
 20
402.4718711366816
 30
0.0
 10
656.0076960269647
 20
402.5043457330298
 30
0.0
  0
LINE
  5
260
330
1F
100
AcDbEntity
  8
0
  6
Continuous
 62
     7
370
    25
100
AcDbLine
 10
654.9639331906
 20
403.8385298271
 30
0.0
 11
654.6699433911
 21
404.0904149264
 31
0.0
  0
SPLINE
  5
261
330
1F
100
AcDbEntity
  8
0
  6
Continuous
 62
     7
370
    25
100
AcDbSpline
210
0.0
220
0.0
230
1.0
 70
     8
 71
     3
 72
    14
 73
    10
 74
     0
 42
0.000000001
 43
0.00000001
 40
0.0
 40
0.0
 40
0.0
 40
0.0
 40
0.2200911109485839
 40
0.3501199592092674
 40
0.4590676183976911
 40
0.5685351145661591
 40
0.6668402217389687
 40
0.7968948941936455
 40
1.0
 40
1.0
 40
1.0
 40
1.0
 10
655.0989588688924
 20
402.3129309489401
 30
0.0
 10
655.0802321526725
 20
402.3507948082946
 30
0.0
 10
655.0504417759021
 20
402.4110284671441
 30
0.0
 10
655.0327980902945
 20
402.4883160983186
 30
0.0
 10
655.0340697202821
 20
402.5390527870502
 30
0.0
 10
655.051061089961
 20
402.5715270982319
 30
0.0
 10
655.0828686765919
 20
402.5867802737304
 30
0.0
 10
655.135407911199
 20
402.5824179707316
 30
0.0
 10
655.1802045141967
 20
402.5556720350025
 30
0.0
 10
655.2075139896655
 20
402.5393668371345
 30
0.0
  0
SPLINE
  5
262
330
1F
100
AcDbEntity
  8
0
  6
Continuous
 62
     7
370
    25
100
AcDbSpline
210
0.0
220
0.0
230
1.0
 70
     8
 71
     3
 72
    27
 73
    23
 74
     0
 42
0.000000001
 43
0.00000001
 40
0.0
 40
0.0
 40
0.0
 40
0.0
 40
0.0910683471803935
 40
0.1847464164709028
 40
0.2588266946055651
 40
0.334519059825926
 40
0.362644742719513
 40
0.3910056482847357
 40
0.4191743039829821
 40
0.4481203606979559
 40
0.4657704782447469
 40
0.483908170643312
 40
0.5015721548764607
 40
0.5197440214872882
 40
0.5448446854435485
 40
0.5706253690117576
 40
0.6177938154944714
 40
0.6660858441031492
 40
0.7518796859636196
 40
0.8400397940083009
 40
0.9191574739584812
 40
1.0
 40
1.0
 40
1.0
 40
1.0
 10
653.220700631832
 20
401.0662900021995
 30
0.0
 10
653.3236785110284
 20
400.9292566712057
 30
0.0
 10
653.5325852799153
 20
400.6512630804355
 30
0.0
 10
653.8562510824379
 20
400.304866250843
 30
0.0
 10
654.1685836976235
 20
400.0150996242535
 30
0.0
 10
654.4032173939482
 20
399.8355481153906
 30
0.0
 10
654.5814296687513
 20
399.7303050796355
 30
0.0
 10
654.6975710132906
 20
399.6761622204631
 30
0.0
 10
654.8170121306422
 20
399.6400170625009
 30
0.0
 10
654.923124103984
 20
399.6321206155279
 30
0.0
 10
655.0133808349082
 20
399.6488217440331
 30
0.0
 10
655.0850024841636
 20
399.6794084048612
 30
0.0
 10
655.1519206218493
 20
399.7270971133029
 30
0.0
 10
655.2194249136536
 20
399.7971769363828
 30
0.0
 10
655.2840794115627
 20
399.8934687310132
 30
0.0
 10
655.3574387039906
 20
400.0473642430391
 30
0.0
 10
655.4209011974472
 20
400.2559164835355
 30
0.0
 10
655.475121197481
 20
400.5816945767646
 30
0.0
 10
655.4844761580056
 20
400.9927022106189
 30
0.0
 10
655.4209073299595
 20
401.4585340029503
 30
0.0
 10
655.2969423340171
 20
401.9060903370887
 30
0.0
 10
655.1654260692433
 20
402.1763460253362
 30
0.0
 10
655.0989588688923
 20
402.3129309489401
 30
0.0
  0
SPLINE
  5
263
330
1F
100
AcDbEntity
  8
0
  6
Continuous
 62
     7
370
    25
100
AcDbSpline
210
0.0
220
0.0
230
1.0
 70
     8
 71
     3
 72
    15
 73
    11
 74
     0
 42
0.000000001
 43
0.00000001
 40
0.0
 40
0.0
 40
0.0
 40
0.0
 40
0.2150763736126738
 40
0.3413349926978222
 40
0.446593490352974
 40
0.5524796219272535
 40
0.6449070621726983
 40
0.7662146539024285
 40
0.9406316560516657
 40
1.0
 40
1.0
 40
1.0
 40
1.0
 10
652.8354483768981
 20
400.9650497126603
 30
0.0
 10
652.8428205406692
 20
401.0059772508784
 30
0.0
 10
652.8545204657921
 20
401.0709309262828
 30
0.0
 10
652.9002268989026
 20
401.1425487131719
 30
0.0
 10
652.9493958546013
 20
401.1825179981482
 30
0.0
 10
653.0049092088702
 20
401.1986638511934
 30
0.0
 10
653.0659150078633
 20
401.1925342192535
 30
0.0
 10
653.1347177505886
 20
401.1603941798967
 30
0.0
 10
653.1864236613666
 20
401.11228427435
 30
0.0
 10
653.2137589932266
 20
401.0756045831222
 30
0.0
 10
653.220700631832
 20
401.0662900021995
 30
0.0
  0
SPLINE
  5
264
330
1F
100
AcDbEntity
  8
0
  6
Continuous
 62
     7
370
    25
100
AcDbSpline
210
0.0
220
0.0
230
1.0
 70
     8
 71
     3
 72
    10
 73
     6
 74
     0
 42
0.000000001
 43
0.00000001
 40
0.0
 40
0.0
 40
0.0
 40
0.0
 40
0.4787893468172689
 40
0.9710174308857318
 40
1.0
 40
1.0
 40
1.0
 40
1.0
 10
649.9557280661949
 20
400.9636382466937
 30
0.0
 10
649.9767799538214
 20
400.7833959638101
 30
0.0
 10
650.0194746168801
 20
400.4178523283343
 30
0.0
 10
650.1186479395354
 20
400.0424719188653
 30
0.0
 10
650.2017822725389
 20
399.8598156385586
 30
0.0
 10
650.2064050609207
 20
399.8496588080413
 30
0.0
  0
SPLINE
  5
265
330
1F
100
AcDbEntity
  8
0
  6
Continuous
 62
     7
370
    25
100
AcDbSpline
210
0.0
220
0.0
230
1.0
 70
     8
 71
     3
 72
    11
 73
     7
 74
     0
 42
0.000000001
 43
0.00000001
 40
0.0
 40
0.0
 40
0.0
 40
0.0
 40
0.1926194731677918
 40
0.4826179747734696
 40
0.7789736208159509
 40
1.0
 40
1.0
 40
1.0
 40
1.0
 10
652.2360645629662
 20
399.2980408457278
 30
0.0
 10
652.2956935884414
 20
399.3963994939506
 30
0.0
 10
652.4450971717824
 20
399.6428421345936
 30
0.0
 10
652.6276523220002
 20
400.0737604206854
 30
0.0
 10
652.7724077019905
 20
400.5345572748959
 30
0.0
 10
652.8165785319276
 20
400.8361912324252
 30
0.0
 10
652.8354483768981
 20
400.9650497126604
 30
0.0
  0
SPLINE
  5
266
330
1F
100
AcDbEntity
  8
0
  6
Continuous
 62
     7
370
    25
100
AcDbSpline
210
0.0
220
0.0
230
1.0
 70
     8
 71
     3
 72
    15
 73
    11
 74
     0
 42
0.000000001
 43
0.00000001
 40
0.0
 40
0.0
 40
0.0
 40
0.0
 40
0.21292940532031
 40
0.3333107283176499
 40
0.4345062010027768
 40
0.5362836886507053
 40
0.6256367151021829
 40
0.745636854756794
 40
0.9211927176880819
 40
1.0
 40
1.0
 40
1.0
 40
1.0
 10
649.5838814827792
 20
401.0646981803575
 30
0.0
 10
649.6109811435321
 20
401.0971967648605
 30
0.0
 10
649.6534018117768
 20
401.1480686810886
 30
0.0
 10
649.7278250894694
 20
401.1888189555638
 30
0.0
 10
649.7880335286357
 20
401.2007143421365
 30
0.0
 10
649.8415268161109
 20
401.1896511612999
 30
0.0
 10
649.8887346040119
 20
401.1571105841248
 30
0.0
 10
649.929986474894
 20
401.0977132076162
 30
0.0
 10
649.9501552586032
 20
401.027958546323
 30
0.0
 10
649.9544098885152
 20
400.978852406151
 30
0.0
 10
649.9557280661949
 20
400.9636382466937
 30
0.0
  0
SPLINE
  5
267
330
1F
100
AcDbEntity
  8
0
  6
Continuous
 62
     7
370
    25
100
AcDbSpline
210
0.0
220
0.0
230
1.0
 70
     8
 71
     3
 72
    11
 73
     7
 74
     0
 42
0.000000001
 43
0.00000001
 40
0.0
 40
0.0
 40
0.0
 40
0.0
 40
0.303043897396902
 40
0.6145893183414145
 40
0.9260344383363378
 40
1.0
 40
1.0
 40
1.0
 40
1.0
 10
647.8711872279819
 20
402.3142295216859
 30
0.0
 10
647.7892136651021
 20
402.1519873855989
 30
0.0
 10
647.622966871931
 20
401.8229516099886
 30
0.0
 10
647.4833134391262
 20
401.2879645263536
 30
0.0
 10
647.4140972939039
 20
400.8756641971181
 30
0.0
 10
647.4255641552206
 20
400.6484409321505
 30
0.0
 10
647.4277648021623
 20
400.6048336913132
 30
0.0
  0
SPLINE
  5
268
330
1F
100
AcDbEntity
  8
0
  6
Continuous
 62
     7
370
    25
100
AcDbSpline
210
0.0
220
0.0
230
1.0
 70
     8
 71
     3
 72
    10
 73
     6
 74
     0
 42
0.000000001
 43
0.00000001
 40
0.0
 40
0.0
 40
0.0
 40
0.0
 40
0.0400249862568773
 40
0.5138669198255986
 40
1.0
 40
1.0
 40
1.0
 40
1.0
 10
648.8693660196512
 20
400.2130373701773
 30
0.0
 10
648.8790404770601
 20
400.2227635980657
 30
0.0
 10
649.0032474811014
 20
400.3476352653399
 30
0.0
 10
649.2490103280721
 20
400.6281926528871
 30
0.0
 10
649.4713090225434
 20
400.9179596499013
 30
0.0
 10
649.5838814827792
 20
401.0646981803575
 30
0.0
  0
SPLINE
  5
269
330
1F
100
AcDbEntity
  8
0
  6
Continuous
 62
     7
370
    25
100
AcDbSpline
210
0.0
220
0.0
230
1.0
 70
     8
 71
     3
 72
    15
 73
    11
 74
     0
 42
0.000000001
 43
0.00000001
 40
0.0
 40
0.0
 40
0.0
 40
0.0
 40
0.2155767705933857
 40
0.332900553867743
 40
0.4328760582231042
 40
0.5332634977247832
 40
0.6250838127945076
 40
0.7535547096888764
 40
0.9421338378892115
 40
1.0
 40
1.0
 40
1.0
 40
1.0
 10
647.7927543776847
 20
402.5414894872571
 30
0.0
 10
647.8202480891429
 20
402.5595879079853
 30
0.0
 10
647.8627047589741
 20
402.5875360689489
 30
0.0
 10
647.9108781578826
 20
402.5929474906515
 30
0.0
 10
647.9376114928198
 20
402.5793976320162
 30
0.0
 10
647.9499597096905
 20
402.5493809577556
 30
0.0
 10
647.9489002029726
 20
402.5028430519373
 30
0.0
 10
647.9303438023894
 20
402.4331388106771
 30
0.0
 10
647.8999900331005
 20
402.3663518140344
 30
0.0
 10
647.8766642081513
 20
402.3241408049932
 30
0.0
 10
647.8711872279819
 20
402.3142295216859
 30
0.0
  0
LWPOLYLINE
  5
26A
330
1F
100
AcDbEntity
  8
0
  6
Continuous
 62
     7
370
    25
100
AcDbPolyline
 90
       19
 70
   128
 43
0.0
 10
649.9557280662
 20
214.0189729054
 10
649.9944509028
 20
213.900490207
 10
650.0695189844
 20
213.7867313348
 10
650.1789941183
 20
213.6806334437
 10
650.3200497522
 20
213.584935889
 10
650.4890439523
 20
213.5021094979
 10
650.6816134359
 20
213.4342927758
 10
650.8927862265
 20
213.3832366913
 10
651.1171100269
 20
213.350259468
 10
651.3487929919
 20
213.3362125491
 10
651.5818532693
 20
213.3414586139
 10
651.8102734459
 20
213.3658622134
 10
652.0281559118
 20
213.408793268
 10
652.2298751315
 20
213.4691433353
 10
652.4102228907
 20
213.5453542291
 10
652.5645427673
 20
213.6354582506
 10
652.6888503566
 20
213.7371289925
 10
652.7799361451
 20
213.8477414048
 10
652.8354483769
 20
213.9644395715
  0
LWPOLYLINE
  5
26B
330
1F
100
AcDbEntity
  8
0
  6
Continuous
 62
     7
370
    25
100
AcDbPolyline
 90
       15
 70
   128
 43
0.0
 10
653.2207006318
 20
214.0511623059
 10
653.4247015095
 20
213.9928821918
 10
653.6441924746
 20
213.9521825833
 10
653.8735064619
 20
213.9301143089
 10
654.1067227839
 20
213.9272471521
 10
654.3378199985
 20
213.9436551404
 10
654.560831377
 20
213.9789146338
 10
654.7699989599
 20
214.0321152631
 10
654.9599222226
 20
214.1018834342
 10
655.1256975119
 20
214.1864177939
 10
655.2630446543
 20
214.2835357385
 10
655.3684174663
 20
214.3907297675
 10
655.4390953138
 20
214.5052322244
 10
655.4732533562
 20
214.6240867556
 10
655.4764645738
 20
214.6737923003
  0
LWPOLYLINE
  5
26C
330
1F
100
AcDbEntity
  8
0
  6
Continuous
 62
     7
370
    25
100
AcDbPolyline
 90
       14
 70
   128
 43
0.0
 10
647.4190665277
 20
214.7713892605
 10
647.4362207334
 20
214.6567828562
 10
647.4903813133
 20
214.5399163309
 10
647.5801852543
 20
214.429026235
 10
647.7033138969
 20
214.326975654
 10
647.8565881669
 20
214.236399445
 10
648.0360506562
 20
214.1596362069
 10
648.2370677997
 20
214.0986678994
 10
648.4544495099
 20
214.0550686712
 10
648.6825831806
 20
214.0299642164
 10
648.9155785992
 20
214.0240027101
 10
649.1474200271
 20
214.0373380732
 10
649.3721215205
 20
214.0696259982
 10
649.5838814828
 20
214.1200328391
  0
ARC
  5
26D
330
1F
100
AcDbEntity
  8
0
  6
Continuous
 62
     7
370
    25
100
AcDbCircle
 10
653.0853036576
 20
213.7535693293
 30
0.0
 40
0.3269463569466028
100
AcDbArc
 50
65.5357138737
 51
139.8366539865
  0
LWPOLYLINE
  5
26E
330
1F
100
AcDbEntity
  8
0
  6
Continuous
 62
     7
370
    25
100
AcDbPolyline
 90
        9
 70
   128
 43
0.0
 10
649.5838814828
 20
214.1200328391
 10
649.6415110851
 20
214.1321814137
 10
649.7031824761
 20
214.136617659
 10
649.7650695291
 20
214.1330663478
 10
649.8233327379
 20
214.1217478055
 10
649.8743574212
 20
214.1033642405
 10
649.9149779802
 20
214.0790561792
 10
649.9426742933
 20
214.0503317069
 10
649.9557280662
 20
214.0189729054
  0
LWPOLYLINE
  5
26F
330
1F
100
AcDbEntity
  8
0
  6
Continuous
 62
     7
370
    25
100
AcDbPolyline
 90
        8
 70
   128
 43
0.0
 10
655.4764645738
 20
215.446481436
 10
655.6218087618
 20
215.4947641822
 10
655.7982834928
 20
215.5733433851
 10
655.9480438558
 20
215.6654656538
 10
656.0672231687
 20
215.7687524716
 10
656.1527443255
 20
215.880537063
 10
656.2023992445
 20
215.997933247
 10
656.2154268798
 20
216.0978795172
  0
ARC
  5
270
330
1F
100
AcDbEntity
  8
0
  6
Continuous
 62
     7
370
    25
100
AcDbCircle
 10
647.6449251709
 20
216.384100852
 30
0.0
 40
0.7773794240358519
100
AcDbArc
 50
192.2181259481
 51
253.109802685
  0
SPLINE
  5
271
330
1F
100
AcDbEntity
  8
0
  6
Continuous
 62
     7
370
    25
100
AcDbSpline
210
0.0
220
0.0
230
1.0
 70
     8
 71
     3
 72
    27
 73
    23
 74
     0
 42
0.000000001
 43
0.00000001
 40
0.0
 40
0.0
 40
0.0
 40
0.0
 40
0.0885627570442147
 40
0.1796538943995938
 40
0.2695908295576359
 40
0.3157544754264168
 40
0.3623424134621827
 40
0.418762652728249
 40
0.4469315743364942
 40
0.4757555362193694
 40
0.4937367345958551
 40
0.512185339242883
 40
0.5301891255062627
 40
0.548761244475853
 40
0.5721476357447823
 40
0.5961816793253158
 40
0.6385637840833019
 40
0.6819638929543731
 40
0.7628695907407562
 40
0.8459362592691204
 40
0.9222273191770639
 40
1.0
 40
1.0
 40
1.0
 40
1.0
 10
238.0410369106284
 20
436.6856514288342
 30
0.0
 10
238.1575182347082
 20
436.5789100267974
 30
0.0
 10
238.3938063110301
 20
436.3623798598333
 30
0.0
 10
238.7295993899575
 20
436.0809146523004
 30
0.0
 10
238.9898667010191
 20
435.8741576461964
 30
0.0
 10
239.1813472168974
 20
435.7340636165174
 30
0.0
 10
239.3270133495856
 20
435.6380096245352
 30
0.0
 10
239.443816132934
 20
435.5781377033164
 30
0.0
 10
239.5338852551236
 20
435.5586254859721
 30
0.0
 10
239.5871824117252
 20
435.5667128200627
 30
0.0
 10
239.6267465580043
 20
435.5947580367897
 30
0.0
 10
239.6540609174349
 20
435.6338696661221
 30
0.0
 10
239.6746359660607
 20
435.6895460304215
 30
0.0
 10
239.6887771724917
 20
435.7654763939452
 30
0.0
 10
239.6943560718099
 20
435.8633314346039
 30
0.0
 10
239.6888797522442
 20
436.0094021294138
 30
0.0
 10
239.6639422522818
 20
436.2001148382544
 30
0.0
 10
239.5992816422498
 20
436.4956131340652
 30
0.0
 10
239.4787661611415
 20
436.8637157103142
 30
0.0
 10
239.287534785353
 20
437.2741565036889
 30
0.0
 10
239.05713938584
 20
437.6595769490746
 30
0.0
 10
238.876334337517
 20
437.8847636522106
 30
0.0
 10
238.7850624181953
 20
437.9984398066741
 30
0.0
  0
SPLINE
  5
272
330
1F
100
AcDbEntity
  8
0
  6
Continuous
 62
     7
370
    25
100
AcDbSpline
210
0.0
220
0.0
230
1.0
 70
     8
 71
     3
 72
    14
 73
    10
 74
     0
 42
0.000000001
 43
0.00000001
 40
0.0
 40
0.0
 40
0.0
 40
0.0
 40
0.220765348438307
 40
0.3402146168140888
 40
0.4605704991791176
 40
0.5641909618660997
 40
0.6633542991972022
 40
0.8105247403618681
 40
1.0
 40
1.0
 40
1.0
 40
1.0
 10
237.7669944917951
 20
436.538660389303
 30
0.0
 10
237.7607910774134
 20
436.5792494247496
 30
0.0
 10
237.7512311883197
 20
436.6417999257181
 30
0.0
 10
237.7699752314545
 20
436.7158145356534
 30
0.0
 10
237.8011953125849
 20
436.7571315105243
 30
0.0
 10
237.8446003020418
 20
436.7753035338498
 30
0.0
 10
237.8981644193465
 20
436.7738631309827
 30
0.0
 10
237.9672698468712
 20
436.7475620016539
 30
0.0
 10
238.0144707127213
 20
436.707947673883
 30
0.0
 10
238.0410369106284
 20
436.6856514288342
 30
0.0
  0
SPLINE
  5
273
330
1F
100
AcDbEntity
  8
0
  6
Continuous
 62
     7
370
    25
100
AcDbSpline
210
0.0
220
0.0
230
1.0
 70
     8
 71
     3
 72
    23
 73
    19
 74
     0
 42
0.000000001
 43
0.00000001
 40
0.0
 40
0.0
 40
0.0
 40
0.0
 40
0.0863901050636675
 40
0.1752766177962511
 40
0.2621177065427344
 40
0.3519363559727525
 40
0.4192459175638958
 40
0.4528076006128813
 40
0.4875598503476011
 40
0.5342326170542419
 40
0.5808027178643151
 40
0.617415928196371
 40
0.6550189806174114
 40
0.7176192476618279
 40
0.7818570182170469
 40
0.8689416197544356
 40
0.9585429605715616
 40
1.0
 40
1.0
 40
1.0
 40
1.0
 10
235.1265156044163
 20
436.0372055210275
 30
0.0
 10
235.1899924367212
 20
435.8993534218407
 30
0.0
 10
235.318780386066
 20
435.619665722841
 30
0.0
 10
235.5801559232415
 20
435.2306260601513
 30
0.0
 10
235.8853925677457
 20
434.8711061867062
 30
0.0
 10
236.2065961613216
 20
434.5879415419704
 30
0.0
 10
236.4895036734339
 20
434.4235130607958
 30
0.0
 10
236.7058421899875
 20
434.3553279822903
 30
0.0
 10
236.8957356995206
 20
434.3360147451711
 30
0.0
 10
237.1060430022235
 20
434.3813199812315
 30
0.0
 10
237.2907994197014
 20
434.5017852900493
 30
0.0
 10
237.4317556725681
 20
434.6513451967178
 30
0.0
 10
237.5637747179814
 20
434.8449654337058
 30
0.0
 10
237.6833950036913
 20
435.1024204764554
 30
0.0
 10
237.7860930552305
 20
435.4569656439431
 30
0.0
 10
237.837370598766
 20
435.8699032821631
 30
0.0
 10
237.8230190194993
 20
436.2468681502982
 30
0.0
 10
237.780457700234
 20
436.4685400349591
 30
0.0
 10
237.7669944917951
 20
436.538660389303
 30
0.0
  0
SPLINE
  5
274
330
1F
100
AcDbEntity
  8
0
  6
Continuous
 62
     7
370
    25
100
AcDbSpline
210
0.0
220
0.0
230
1.0
 70
     8
 71
     3
 72
    14
 73
    10
 74
     0
 42
0.000000001
 43
0.00000001
 40
0.0
 40
0.0
 40
0.0
 40
0.0
 40
0.2243030424882868
 40
0.3489011866266555
 40
0.4744001356117536
 40
0.5826741857065961
 40
0.6867417687947411
 40
0.838156487169633
 40
1.0
 40
1.0
 40
1.0
 40
1.0
 10
234.7063574472805
 20
436.0525593172575
 30
0.0
 10
234.7279110502197
 20
436.0890579532776
 30
0.0
 10
234.7614374685783
 20
436.1458312242793
 30
0.0
 10
234.8372926959402
 20
436.1962119304548
 30
0.0
 10
234.9045715636258
 20
436.2129102518117
 30
0.0
 10
234.9691209651258
 20
436.2036699259297
 30
0.0
 10
235.0308031497302
 20
436.1725152387813
 30
0.0
 10
235.0876852997766
 20
436.116767717678
 30
0.0
 10
235.1132880526633
 20
436.0643084006867
 30
0.0
 10
235.1265156044163
 20
436.0372055210275
 30
0.0
  0
SPLINE
  5
275
330
1F
100
AcDbEntity
  8
0
  6
Continuous
 62
     7
370
    25
100
AcDbSpline
210
0.0
220
0.0
230
1.0
 70
     8
 71
     3
 72
    26
 73
    22
 74
     0
 42
0.000000001
 43
0.00000001
 40
0.0
 40
0.0
 40
0.0
 40
0.0
 40
0.0854261159360918
 40
0.1733276547195573
 40
0.2448517261352453
 40
0.3181224083912689
 40
0.3577740645396622
 40
0.3980844094313167
 40
0.4287682032815262
 40
0.4601978879083184
 40
0.4855692359538049
 40
0.5116681185372408
 40
0.5370453561645167
 40
0.5630880149114005
 40
0.5995557531473522
 40
0.6370345873825467
 40
0.6960497304231501
 40
0.7566321175831365
 40
0.840142306324232
 40
0.926053464741959
 40
1.0
 40
1.0
 40
1.0
 40
1.0
 10
232.1577596382394
 20
436.7452135919095
 30
0.0
 10
232.1256579642403
 20
436.6048940050095
 30
0.0
 10
232.0605243946538
 20
436.3201887407926
 30
0.0
 10
232.0581340956099
 20
435.9074370578429
 30
0.0
 10
232.1136631922874
 20
435.5218102297483
 30
0.0
 10
232.2070357881018
 20
435.2268584725452
 30
0.0
 10
232.3206728810929
 20
434.9989779369683
 30
0.0
 10
232.423896881517
 20
434.847701117853
 30
0.0
 10
232.5388124058895
 20
434.7252914970709
 30
0.0
 10
232.6522715072502
 20
434.6393087862912
 30
0.0
 10
232.7717816397514
 20
434.5798036604845
 30
0.0
 10
232.8903599247263
 20
434.5462688891219
 30
0.0
 10
233.0141276993069
 20
434.5354402666498
 30
0.0
 10
233.1551943390197
 20
434.5475276123121
 30
0.0
 10
233.3128715539383
 20
434.5901834213605
 30
0.0
 10
233.5135982501573
 20
434.6808345027807
 30
0.0
 10
233.7361860356432
 20
434.8261770219159
 30
0.0
 10
234.0011004023898
 20
435.0534636231505
 30
0.0
 10
234.2706255749789
 20
435.3497880927486
 30
0.0
 10
234.5201680758717
 20
435.6952683528947
 30
0.0
 10
234.6474703220118
 20
435.9395569604819
 30
0.0
 10
234.7063574472804
 20
436.0525593172575
 30
0.0
  0
SPLINE
  5
276
330
1F
100
AcDbEntity
  8
0
  6
Continuous
 62
     7
370
    25
100
AcDbSpline
210
0.0
220
0.0
230
1.0
 70
     8
 71
     3
 72
    14
 73
    10
 74
     0
 42
0.000000001
 43
0.00000001
 40
0.0
 40
0.0
 40
0.0
 40
0.0
 40
0.2239799089305531
 40
0.3530600787849406
 40
0.4831615846560053
 40
0.5937368434043864
 40
0.6971871626480907
 40
0.8442013099709667
 40
1.0
 40
1.0
 40
1.0
 40
1.0
 10
231.9078734047888
 20
436.9119635037263
 30
0.0
 10
231.9404271322503
 20
436.9353258758129
 30
0.0
 10
231.9917416525445
 20
436.9721520401274
 30
0.0
 10
232.0664767184507
 20
436.9884329290661
 30
0.0
 10
232.118311281811
 20
436.9778886026953
 30
0.0
 10
232.1531712925622
 20
436.9448910806889
 30
0.0
 10
232.1731405940732
 20
436.8945951047522
 30
0.0
 10
232.1767411111504
 20
436.8262638189099
 30
0.0
 10
232.1642079903583
 20
436.772747830452
 30
0.0
 10
232.1577596382394
 20
436.7452135919095
 30
0.0
  0
SPLINE
  5
277
330
1F
100
AcDbEntity
  8
0
  6
Continuous
 62
     7
370
    25
100
AcDbSpline
210
0.0
220
0.0
230
1.0
 70
     8
 71
     3
 72
    24
 73
    20
 74
     0
 42
0.000000001
 43
0.00000001
 40
0.0
 40
0.0
 40
0.0
 40
0.0
 40
0.0875562630610312
 40
0.1776478778994355
 40
0.2471757028850854
 40
0.3182848495519455
 40
0.3544514774164594
 40
0.3911558340110791
 40
0.4196735717850657
 40
0.4488792169076924
 40
0.4956340312872246
 40
0.5423649618835416
 40
0.5763627331264951
 40
0.6112927856933139
 40
0.6689340598446838
 40
0.7280698917726421
 40
0.8133417532352671
 40
0.901057072756078
 40
1.0
 40
1.0
 40
1.0
 40
1.0
 10
231.3703028062145
 20
438.2771441249207
 30
0.0
 10
231.265784362734
 20
438.1632646795629
 30
0.0
 10
231.0537209530299
 20
437.9322082011694
 30
0.0
 10
230.8065930568624
 20
437.5654705574265
 30
0.0
 10
230.6132207024312
 20
437.2067878903561
 30
0.0
 10
230.4957384269625
 20
436.9230093348135
 30
0.0
 10
230.4237665092767
 20
436.6938437107577
 30
0.0
 10
230.3864715098762
 20
436.5362148966993
 30
0.0
 10
230.3656010648311
 20
436.3974435675874
 30
0.0
 10
230.3586449402251
 20
436.2576100182786
 30
0.0
 10
230.3804165431211
 20
436.1274148076245
 30
0.0
 10
230.4416286343393
 20
436.0588763796013
 30
0.0
 10
230.5177745731743
 20
436.0415243755929
 30
0.0
 10
230.6154142593765
 20
436.0537888882691
 30
0.0
 10
230.7502339419858
 20
436.1056734956545
 30
0.0
 10
230.9515656271181
 20
436.2144635535274
 30
0.0
 10
231.2090038036515
 20
436.380770436173
 30
0.0
 10
231.5378977096833
 20
436.6149286505391
 30
0.0
 10
231.7796999881006
 20
436.8090595224321
 30
0.0
 10
231.9078734047888
 20
436.9119635037263
 30
0.0
  0
SPLINE
  5
278
330
1F
100
AcDbEntity
  8
0
  6
Continuous
 62
     7
370
    25
100
AcDbSpline
210
0.0
220
0.0
230
1.0
 70
     8
 71
     3
 72
    14
 73
    10
 74
     0
 42
0.000000001
 43
0.00000001
 40
0.0
 40
0.0
 40
0.0
 40
0.0
 40
0.2200911109485839
 40
0.3501199592092674
 40
0.4590676183976911
 40
0.5685351145661591
 40
0.6668402217389687
 40
0.7968948941936455
 40
1.0
 40
1.0
 40
1.0
 40
1.0
 10
231.4788579269876
 20
438.4691110661008
 30
0.0
 10
231.4975846432075
 20
438.4812802315062
 30
0.0
 10
231.527375019978
 20
438.5006388856425
 30
0.0
 10
231.5450187055855
 20
438.4995077716962
 30
0.0
 10
231.5437470755978
 20
438.4834532621229
 30
0.0
 10
231.526755705919
 20
438.454125287339
 30
0.0
 10
231.494948119288
 20
438.4123225797468
 30
0.0
 10
231.4424088846809
 20
438.35161122429
 30
0.0
 10
231.3976122816832
 20
438.3053478140786
 30
0.0
 10
231.3703028062145
 20
438.2771441249207
 30
0.0
  0
SPLINE
  5
279
330
1F
100
AcDbEntity
  8
0
  6
Continuous
 62
     7
370
    25
100
AcDbSpline
210
0.0
220
0.0
230
1.0
 70
     8
 71
     3
 72
    11
 73
     7
 74
     0
 42
0.000000001
 43
0.00000001
 40
0.0
 40
0.0
 40
0.0
 40
0.0
 40
0.1049083671509055
 40
0.4229451041602578
 40
0.7083613692849888
 40
0.9999999999999999
 40
0.9999999999999999
 40
0.9999999999999999
 40
0.9999999999999999
 10
231.1100987009106
 20
437.9894652547879
 30
0.0
 10
231.1077292770735
 20
438.0035706132911
 30
0.0
 10
231.0981767862781
 20
438.0604373102321
 30
0.0
 10
231.160020831155
 20
438.1731950439866
 30
0.0
 10
231.2801129900498
 20
438.3178876061369
 30
0.0
 10
231.4121350845832
 20
438.4183421798967
 30
0.0
 10
231.4788579269877
 20
438.4691110661007
 30
0.0
  0
SPLINE
  5
27A
330
1F
100
AcDbEntity
  8
0
  6
Continuous
 62
     7
370
    25
100
AcDbSpline
210
0.0
220
0.0
230
1.0
 70
     8
 71
     3
 72
    11
 73
     7
 74
     0
 42
0.000000001
 43
0.00000001
 40
0.0
 40
0.0
 40
0.0
 40
0.0
 40
0.2979383423231078
 40
0.6042349781302732
 40
0.9104330028157142
 40
0.9999999999999999
 40
0.9999999999999999
 40
0.9999999999999999
 40
0.9999999999999999
 10
238.706629567898
 20
438.1966646620439
 30
0.0
 10
238.7885702148698
 20
438.1269819746121
 30
0.0
 10
238.9547502528098
 20
437.9856617377198
 30
0.0
 10
239.0949150691662
 20
437.7867569300146
 30
0.0
 10
239.1643400768119
 20
437.6333692439505
 30
0.0
 10
239.1517876893466
 20
437.5579283816915
 30
0.0
 10
239.1489469136574
 20
437.5408550904096
 30
0.0
  0
SPLINE
  5
27B
330
1F
100
AcDbEntity
  8
0
  6
Continuous
 62
     7
370
    25
100
AcDbSpline
210
0.0
220
0.0
230
1.0
 70
     8
 71
     3
 72
    15
 73
    11
 74
     0
 42
0.000000001
 43
0.00000001
 40
0.0
 40
0.0
 40
0.0
 40
0.0
 40
0.2155767705933857
 40
0.332900553867743
 40
0.4328760582231042
 40
0.5332634977247832
 40
0.6250838127945076
 40
0.7535547096888764
 40
0.9421338378892115
 40
1.0
 40
1.0
 40
1.0
 40
1.0
 10
238.7850624181953
 20
437.9984398066741
 30
0.0
 10
238.757568706737
 20
438.0311032198522
 30
0.0
 10
238.7151120369058
 20
438.0815431086597
 30
0.0
 10
238.6669386379973
 20
438.1474056264198
 30
0.0
 10
238.6402053030602
 20
438.1902922451831
 30
0.0
 10
238.6278570861894
 20
438.2193779179432
 30
0.0
 10
238.6289165929073
 20
438.2360787243611
 30
0.0
 10
238.6474729934907
 20
438.2368746426478
 30
0.0
 10
238.6778267627795
 20
438.2189590610176
 30
0.0
 10
238.7011525877286
 20
438.2009040401379
 30
0.0
 10
238.706629567898
 20
438.1966646620439
 30
0.0
  0
LWPOLYLINE
  5
27C
330
1F
100
AcDbEntity
  8
0
  6
Continuous
 62
     7
370
    25
100
AcDbPolyline
 90
       18
 70
   128
 43
0.0
 10
235.1265156044
 20
248.7908532567
 10
235.2612171035
 20
248.6927572964
 10
235.4246850419
 20
248.6070393065
 10
235.6126988197
 20
248.5359124507
 10
235.8204040852
 20
248.4812131624
 10
236.0424380694
 20
248.4443537297
 10
236.2730680483
 20
248.4262858309
 10
236.5063393569
 20
248.4274759634
 10
236.7362291332
 20
248.4478933991
 10
236.9568018236
 20
248.4870109776
 10
237.1623624335
 20
248.5438187171
 10
237.3476035669
 20
248.6168498911
 10
237.5077424594
 20
248.7042188986
 10
237.6386444642
 20
248.8036699478
 10
237.7369298057
 20
248.9126352994
 10
237.800060842
 20
249.0283015629
 10
237.8264075848
 20
249.1476823361
 10
237.8271862036
 20
249.1721681456
  0
LWPOLYLINE
  5
27D
330
1F
100
AcDbEntity
  8
0
  6
Continuous
 62
     7
370
    25
100
AcDbPolyline
 90
       17
 70
   128
 43
0.0
 10
232.063429038
 20
249.2263303723
 10
232.0738879474
 20
249.1367382391
 10
232.1203561513
 20
249.0189964921
 10
232.2028391935
 20
248.9066079253
 10
232.3192074338
 20
248.8024743133
 10
232.4664563455
 20
248.7092842955
 10
232.64078409
 20
248.6294439568
 10
232.837689677
 20
248.5650147051
 10
233.0520891758
 20
248.5176600476
 10
233.2784469782
 20
248.4886026404
 10
233.5109187229
 20
248.4785927202
 10
233.7435021922
 20
248.4878887346
 10
233.9701922835
 20
248.5162506686
 10
234.1851360563
 20
248.5629462416
 10
234.3827838496
 20
248.6267698148
 10
234.5580325697
 20
248.7060735191
 10
234.7063574473
 20
248.798809802
  0
ARC
  5
27E
330
1F
100
AcDbEntity
  8
0
  6
Continuous
 62
     7
370
    25
100
AcDbCircle
 10
234.9101999565
 20
248.4654994638
 30
0.0
 40
0.3907013566541675
100
AcDbArc
 50
56.3815430533
 51
121.448693132
  0
LWPOLYLINE
  5
27F
330
1F
100
AcDbEntity
  8
0
  6
Continuous
 62
     7
370
    25
100
AcDbPolyline
 90
       12
 70
   128
 43
0.0
 10
238.0410369106
 20
249.549467372
 10
238.2739322911
 20
249.5425461954
 10
238.5059734056
 20
249.554926025
 10
238.7311691546
 20
249.5862872243
 10
238.9437051804
 20
249.6358200745
 10
239.1380939878
 20
249.7022456805
 10
239.3093166273
 20
249.7838489911
 10
239.4529522795
 20
249.87852308
 10
239.5652923971
 20
249.9838235446
 10
239.6434364562
 20
250.0970316188
 10
239.6853668452
 20
250.2152243686
 10
239.6926626209
 20
250.2900929654
  0
ARC
  5
280
330
1F
100
AcDbEntity
  8
0
  6
Continuous
 62
     7
370
    25
100
AcDbCircle
 10
238.0025009795
 20
249.1444575733
 30
0.0
 40
0.4068389792652495
100
AcDbArc
 50
84.5647754414
 51
115.52591659
  0
ARC
  5
281
330
1F
100
AcDbEntity
  8
0
  6
Continuous
 62
     7
370
    25
100
AcDbCircle
 10
231.9267113844
 20
249.2306495287
 30
0.0
 40
0.4353694513894553
100
AcDbArc
 50
71.6979304477
 51
92.4799025142
  0
LWPOLYLINE
  5
282
330
1F
100
AcDbEntity
  8
0
  6
Continuous
 62
     7
370
    25
100
AcDbPolyline
 90
       12
 70
   128
 43
0.0
 10
230.3623899161
 20
250.4117943841
 10
230.3629109169
 20
250.3917639446
 10
230.3878754773
 20
250.2723044035
 10
230.4496666695
 20
250.156446372
 10
230.5466890988
 20
250.0471812037
 10
230.6764377304
 20
249.94733003
 10
230.835562568
 20
249.8594709211
 10
231.0199551467
 20
249.7858723227
 10
231.224854611
 20
249.7284344865
 10
231.4449706352
 20
249.6886404072
 10
231.6746200154
 20
249.6675175335
 10
231.9078734048
 20
249.6656112394
  0
SPLINE
  5
283
330
1F
100
AcDbEntity
  8
0
  6
Continuous
 62
     7
370
    25
100
AcDbSpline
210
0.0
220
0.0
230
1.0
 70
     8
 71
     3
 72
    16
 73
    12
 74
     0
 42
0.000000001
 43
0.00000001
 40
0.0
 40
0.0
 40
0.0
 40
0.0
 40
0.0122088048493963
 40
0.0634031473099943
 40
0.1160152431064654
 40
0.2087924467472742
 40
0.303798128078047
 40
0.4809060004239717
 40
0.6627443792828566
 40
0.82975050702168
 40
1.0
 40
1.0
 40
1.0
 40
1.0
 10
293.1281335182828
 20
497.9863957720308
 30
0.0
 10
293.1267422263396
 20
497.9827238665547
 30
0.0
 10
293.1195169254921
 20
497.9636548121565
 30
0.0
 10
293.1166806455815
 20
497.9486283276903
 30
0.0
 10
293.121450606486
 20
497.9396441000482
 30
0.0
 10
293.1467042329572
 20
497.9596154681412
 30
0.0
 10
293.2112442316723
 20
498.0214139537456
 30
0.0
 10
293.3318164902238
 20
498.1355228346206
 30
0.0
 10
293.5230297799843
 20
498.2992692037627
 30
0.0
 10
293.7534296167396
 20
498.4827748387567
 30
0.0
 10
293.9342340818202
 20
498.6190529941011
 30
0.0
 10
294.0255057067162
 20
498.6878473608254
 30
0.0
  0
SPLINE
  5
284
330
1F
100
AcDbEntity
  8
0
  6
Continuous
 62
     7
370
    25
100
AcDbSpline
210
0.0
220
0.0
230
1.0
 70
     8
 71
     3
 72
    13
 73
     9
 74
     0
 42
0.000000001
 43
0.00000001
 40
0.0
 40
0.0
 40
0.0
 40
0.0
 40
0.3101028136282795
 40
0.4888158243022541
 40
0.6689428866826685
 40
0.82203563066704
 40
0.965263812254359
 40
1.0
 40
1.0
 40
1.0
 40
1.0
 10
300.9026947201227
 20
500.2367727999342
 30
0.0
 10
300.8701254841069
 20
500.2612925499494
 30
0.0
 10
300.8187865176407
 20
500.2999430919267
 30
0.0
 10
300.7441762004951
 20
500.3545832666624
 30
0.0
 10
300.691950906558
 20
500.3926095116881
 30
0.0
 10
300.6583252061181
 20
500.4169266441852
 30
0.0
 10
300.6419645452013
 20
500.4287367046492
 30
0.0
 10
300.641226752227
 20
500.4290386612105
 30
0.0
 10
300.6410827452251
 20
500.4290975989621
 30
0.0
  0
SPLINE
  5
285
330
1F
100
AcDbEntity
  8
0
  6
Continuous
 62
     7
370
    25
100
AcDbSpline
210
0.0
220
0.0
230
1.0
 70
     8
 71
     3
 72
    19
 73
    15
 74
     0
 42
0.000000001
 43
0.00000001
 40
0.0
 40
0.0
 40
0.0
 40
0.0
 40
0.1462800199613765
 40
0.296795845513779
 40
0.412955801080665
 40
0.5317576666492553
 40
0.5921811573396819
 40
0.6535030300147173
 40
0.701147540013097
 40
0.7499413350217393
 40
0.8280544812619012
 40
0.9061277249278404
 40
0.9629277125266142
 40
1.0
 40
1.0
 40
1.0
 40
1.0
 10
301.440265318697
 20
498.6857247107029
 30
0.0
 10
301.5447837642751
 20
498.6146664957693
 30
0.0
 10
301.7568471782351
 20
498.470492445291
 30
0.0
 10
302.0039750442798
 20
498.3068763312787
 30
0.0
 10
302.1973474898173
 20
498.182623135175
 30
0.0
 10
302.3148294919513
 20
498.1144993783642
 30
0.0
 10
302.3868019812959
 20
498.085473366701
 30
0.0
 10
302.4240953298957
 20
498.0822345130879
 30
0.0
 10
302.444970721851
 20
498.0990715991371
 30
0.0
 10
302.4519054328509
 20
498.1420739749505
 30
0.0
 10
302.4302633433788
 20
498.239107681251
 30
0.0
 10
302.368576375296
 20
498.3937862989268
 30
0.0
 10
302.3019968667128
 20
498.5359987393648
 30
0.0
 10
302.2578729070139
 20
498.6182290102499
 30
0.0
 10
302.2404473559961
 20
498.6507036065982
 30
0.0
  0
LINE
  5
286
330
1F
100
AcDbEntity
  8
0
  6
Continuous
 62
     7
370
    25
100
AcDbLine
 10
301.1966845197
 20
499.9848877006
 30
0.0
 11
300.9026947201
 21
500.2367727999
 31
0.0
  0
SPLINE
  5
287
330
1F
100
AcDbEntity
  8
0
  6
Continuous
 62
     7
370
    25
100
AcDbSpline
210
0.0
220
0.0
230
1.0
 70
     8
 71
     3
 72
    14
 73
    10
 74
     0
 42
0.000000001
 43
0.00000001
 40
0.0
 40
0.0
 40
0.0
 40
0.0
 40
0.2200911109485839
 40
0.3501199592092674
 40
0.4590676183976911
 40
0.5685351145661591
 40
0.6668402217389687
 40
0.7968948941936455
 40
1.0
 40
1.0
 40
1.0
 40
1.0
 10
301.3317101979238
 20
498.4592888225084
 30
0.0
 10
301.312983481704
 20
498.4971526818629
 30
0.0
 10
301.2831931049334
 20
498.5573863407124
 30
0.0
 10
301.265549419326
 20
498.6346739718871
 30
0.0
 10
301.2668210493136
 20
498.6854106606185
 30
0.0
 10
301.2838124189925
 20
498.7178849718002
 30
0.0
 10
301.3156200056235
 20
498.7331381472989
 30
0.0
 10
301.3681592402306
 20
498.7287758443
 30
0.0
 10
301.4129558432282
 20
498.7020299085708
 30
0.0
 10
301.440265318697
 20
498.6857247107029
 30
0.0
  0
SPLINE
  5
288
330
1F
100
AcDbEntity
  8
0
  6
Continuous
 62
     7
370
    25
100
AcDbSpline
210
0.0
220
0.0
230
1.0
 70
     8
 71
     3
 72
    27
 73
    23
 74
     0
 42
0.000000001
 43
0.00000001
 40
0.0
 40
0.0
 40
0.0
 40
0.0
 40
0.0910683471803935
 40
0.1847464164709028
 40
0.2588266946055651
 40
0.334519059825926
 40
0.362644742719513
 40
0.3910056482847357
 40
0.4191743039829821
 40
0.4481203606979559
 40
0.4657704782447469
 40
0.483908170643312
 40
0.5015721548764607
 40
0.5197440214872882
 40
0.5448446854435485
 40
0.5706253690117576
 40
0.6177938154944714
 40
0.6660858441031492
 40
0.7518796859636196
 40
0.8400397940083009
 40
0.9191574739584812
 40
1.0
 40
1.0
 40
1.0
 40
1.0
 10
299.4534519608634
 20
497.2126478757679
 30
0.0
 10
299.5564298400599
 20
497.0756145447741
 30
0.0
 10
299.7653366089469
 20
496.7976209540039
 30
0.0
 10
300.0890024114693
 20
496.4512241244112
 30
0.0
 10
300.4013350266551
 20
496.1614574978218
 30
0.0
 10
300.6359687229797
 20
495.9819059889591
 30
0.0
 10
300.8141809977828
 20
495.8766629532038
 30
0.0
 10
300.9303223423221
 20
495.8225200940314
 30
0.0
 10
301.0497634596737
 20
495.7863749360693
 30
0.0
 10
301.1558754330158
 20
495.7784784890963
 30
0.0
 10
301.2461321639396
 20
495.7951796176015
 30
0.0
 10
301.3177538131952
 20
495.8257662784296
 30
0.0
 10
301.3846719508807
 20
495.8734549868714
 30
0.0
 10
301.4521762426852
 20
495.9435348099511
 30
0.0
 10
301.5168307405942
 20
496.0398266045815
 30
0.0
 10
301.5901900330222
 20
496.1937221166075
 30
0.0
 10
301.6536525264788
 20
496.4022743571038
 30
0.0
 10
301.7078725265126
 20
496.7280524503331
 30
0.0
 10
301.717227487037
 20
497.1390600841872
 30
0.0
 10
301.6536586589912
 20
497.6048918765186
 30
0.0
 10
301.5296936630486
 20
498.0524482106571
 30
0.0
 10
301.398177398275
 20
498.3227038989046
 30
0.0
 10
301.3317101979238
 20
498.4592888225084
 30
0.0
  0
SPLINE
  5
289
330
1F
100
AcDbEntity
  8
0
  6
Continuous
 62
     7
370
    25
100
AcDbSpline
210
0.0
220
0.0
230
1.0
 70
     8
 71
     3
 72
    15
 73
    11
 74
     0
 42
0.000000001
 43
0.00000001
 40
0.0
 40
0.0
 40
0.0
 40
0.0
 40
0.2150763736126738
 40
0.3413349926978222
 40
0.446593490352974
 40
0.5524796219272535
 40
0.6449070621726983
 40
0.7662146539024285
 40
0.9406316560516657
 40
1.0
 40
1.0
 40
1.0
 40
1.0
 10
299.0681997059296
 20
497.1114075862287
 30
0.0
 10
299.0755718697006
 20
497.1523351244467
 30
0.0
 10
299.0872717948235
 20
497.2172887998511
 30
0.0
 10
299.1329782279343
 20
497.2889065867402
 30
0.0
 10
299.1821471836328
 20
497.3288758717166
 30
0.0
 10
299.2376605379018
 20
497.3450217247617
 30
0.0
 10
299.2986663368947
 20
497.3388920928218
 30
0.0
 10
299.3674690796201
 20
497.3067520534651
 30
0.0
 10
299.4191749903982
 20
497.2586421479183
 30
0.0
 10
299.4465103222582
 20
497.2219624566905
 30
0.0
 10
299.4534519608634
 20
497.2126478757679
 30
0.0
  0
SPLINE
  5
28A
330
1F
100
AcDbEntity
  8
0
  6
Continuous
 62
     7
370
    25
100
AcDbSpline
210
0.0
220
0.0
230
1.0
 70
     8
 71
     3
 72
    10
 73
     6
 74
     0
 42
0.000000001
 43
0.00000001
 40
0.0
 40
0.0
 40
0.0
 40
0.0
 40
0.4787893468172348
 40
0.9710174308856628
 40
1.0
 40
1.0
 40
1.0
 40
1.0
 10
296.1884793952263
 20
497.1099961202621
 30
0.0
 10
296.2095312828529
 20
496.9297538373784
 30
0.0
 10
296.2522259459117
 20
496.5642102019027
 30
0.0
 10
296.3513992685668
 20
496.1888297924339
 30
0.0
 10
296.4345336015704
 20
496.0061735121268
 30
0.0
 10
296.4391563899523
 20
495.9960166816097
 30
0.0
  0
SPLINE
  5
28B
330
1F
100
AcDbEntity
  8
0
  6
Continuous
 62
     7
370
    25
100
AcDbSpline
210
0.0
220
0.0
230
1.0
 70
     8
 71
     3
 72
    11
 73
     7
 74
     0
 42
0.000000001
 43
0.00000001
 40
0.0
 40
0.0
 40
0.0
 40
0.0
 40
0.1926194731678316
 40
0.4826179747734951
 40
0.7789736208159618
 40
1.0
 40
1.0
 40
1.0
 40
1.0
 10
298.4688158919978
 20
495.4443987192961
 30
0.0
 10
298.528444917473
 20
495.5427573675189
 30
0.0
 10
298.6778485008139
 20
495.7892000081619
 30
0.0
 10
298.8604036510317
 20
496.2201182942538
 30
0.0
 10
299.0051590310219
 20
496.6809151484641
 30
0.0
 10
299.0493298609591
 20
496.9825491059936
 30
0.0
 10
299.0681997059296
 20
497.1114075862287
 30
0.0
  0
SPLINE
  5
28C
330
1F
100
AcDbEntity
  8
0
  6
Continuous
 62
     7
370
    25
100
AcDbSpline
210
0.0
220
0.0
230
1.0
 70
     8
 71
     3
 72
    15
 73
    11
 74
     0
 42
0.000000001
 43
0.00000001
 40
0.0
 40
0.0
 40
0.0
 40
0.0
 40
0.21292940532031
 40
0.3333107283176499
 40
0.4345062010027768
 40
0.5362836886507053
 40
0.6256367151021829
 40
0.745636854756794
 40
0.9211927176880819
 40
1.0
 40
1.0
 40
1.0
 40
1.0
 10
295.8166328118108
 20
497.211056053926
 30
0.0
 10
295.8437324725634
 20
497.2435546384289
 30
0.0
 10
295.8861531408081
 20
497.2944265546569
 30
0.0
 10
295.9605764185011
 20
497.3351768291322
 30
0.0
 10
296.020784857667
 20
497.3470722157047
 30
0.0
 10
296.0742781451423
 20
497.3360090348683
 30
0.0
 10
296.1214859330436
 20
497.3034684576932
 30
0.0
 10
296.1627378039255
 20
497.2440710811845
 30
0.0
 10
296.1829065876348
 20
497.1743164198913
 30
0.0
 10
296.1871612175466
 20
497.1252102797193
 30
0.0
 10
296.1884793952263
 20
497.1099961202621
 30
0.0
  0
SPLINE
  5
28D
330
1F
100
AcDbEntity
  8
0
  6
Continuous
 62
     7
370
    25
100
AcDbSpline
210
0.0
220
0.0
230
1.0
 70
     8
 71
     3
 72
    11
 73
     7
 74
     0
 42
0.000000001
 43
0.00000001
 40
0.0
 40
0.0
 40
0.0
 40
0.0
 40
0.3030438973968894
 40
0.6145893183413889
 40
0.9260344383362993
 40
0.9999999999999999
 40
0.9999999999999999
 40
0.9999999999999999
 40
0.9999999999999999
 10
294.1039385570134
 20
498.4605873952543
 30
0.0
 10
294.0219649941337
 20
498.2983452591673
 30
0.0
 10
293.8557182009626
 20
497.969309483557
 30
0.0
 10
293.7160647681575
 20
497.434322399922
 30
0.0
 10
293.6468486229353
 20
497.0220220706864
 30
0.0
 10
293.6583154842522
 20
496.7947988057189
 30
0.0
 10
293.6605161311938
 20
496.7511915648815
 30
0.0
  0
SPLINE
  5
28E
330
1F
100
AcDbEntity
  8
0
  6
Continuous
 62
     7
370
    25
100
AcDbSpline
210
0.0
220
0.0
230
1.0
 70
     8
 71
     3
 72
    10
 73
     6
 74
     0
 42
0.000000001
 43
0.00000001
 40
0.0
 40
0.0
 40
0.0
 40
0.0
 40
0.0400249862569634
 40
0.5138669198256421
 40
1.0
 40
1.0
 40
1.0
 40
1.0
 10
295.1021173486826
 20
496.3593952437456
 30
0.0
 10
295.1117918060917
 20
496.369121471634
 30
0.0
 10
295.235998810133
 20
496.4939931389081
 30
0.0
 10
295.4817616571036
 20
496.7745505264556
 30
0.0
 10
295.7040603515749
 20
497.0643175234697
 30
0.0
 10
295.8166328118108
 20
497.211056053926
 30
0.0
  0
SPLINE
  5
28F
330
1F
100
AcDbEntity
  8
0
  6
Continuous
 62
     7
370
    25
100
AcDbSpline
210
0.0
220
0.0
230
1.0
 70
     8
 71
     3
 72
    15
 73
    11
 74
     0
 42
0.000000001
 43
0.00000001
 40
0.0
 40
0.0
 40
0.0
 40
0.0
 40
0.2155767705933857
 40
0.332900553867743
 40
0.4328760582231042
 40
0.5332634977247832
 40
0.6250838127945076
 40
0.7535547096888764
 40
0.9421338378892115
 40
1.0
 40
1.0
 40
1.0
 40
1.0
 10
294.0255057067162
 20
498.6878473608254
 30
0.0
 10
294.0529994181746
 20
498.7059457815536
 30
0.0
 10
294.0954560880057
 20
498.7338939425173
 30
0.0
 10
294.1436294869141
 20
498.7393053642199
 30
0.0
 10
294.1703628218514
 20
498.7257555055846
 30
0.0
 10
294.182711038722
 20
498.6957388313239
 30
0.0
 10
294.1816515320041
 20
498.6492009255056
 30
0.0
 10
294.1630951314208
 20
498.5794966842455
 30
0.0
 10
294.1327413621322
 20
498.5127096876027
 30
0.0
 10
294.1094155371828
 20
498.4704986785617
 30
0.0
 10
294.1039385570134
 20
498.4605873952543
 30
0.0
  0
LWPOLYLINE
  5
290
330
1F
100
AcDbEntity
  8
0
  6
Continuous
 62
     7
370
    25
100
AcDbPolyline
 90
       19
 70
   128
 43
0.0
 10
296.1884793952
 20
310.165330779
 10
296.2272022319
 20
310.0468480806
 10
296.3022703134
 20
309.9330892084
 10
296.4117454474
 20
309.8269913173
 10
296.5528010812
 20
309.7312937625
 10
296.7217952814
 20
309.6484673715
 10
296.9143647649
 20
309.5806506493
 10
297.1255375555
 20
309.5295945648
 10
297.3498613559
 20
309.4966173416
 10
297.5815443209
 20
309.4825704227
 10
297.8146045983
 20
309.4878164874
 10
298.0430247749
 20
309.5122200869
 10
298.2609072408
 20
309.5551511415
 10
298.4626264606
 20
309.6155012088
 10
298.6429742197
 20
309.6917121027
 10
298.7972940963
 20
309.7818161242
 10
298.9216016857
 20
309.8834868661
 10
299.0126874741
 20
309.9940992784
 10
299.0681997059
 20
310.110797445
  0
LWPOLYLINE
  5
291
330
1F
100
AcDbEntity
  8
0
  6
Continuous
 62
     7
370
    25
100
AcDbPolyline
 90
       15
 70
   128
 43
0.0
 10
299.4534519609
 20
310.1975201795
 10
299.6574528385
 20
310.1392400654
 10
299.8769438037
 20
310.0985404569
 10
300.1062577909
 20
310.0764721824
 10
300.3394741129
 20
310.0736050256
 10
300.5705713275
 20
310.0900130139
 10
300.793582706
 20
310.1252725074
 10
301.0027502889
 20
310.1784731366
 10
301.1926735516
 20
310.2482413078
 10
301.3584488409
 20
310.3327756674
 10
301.4957959833
 20
310.4298936121
 10
301.6011687954
 20
310.5370876411
 10
301.6718466428
 20
310.651590098
 10
301.7060046852
 20
310.7704446292
 10
301.7092159028
 20
310.8201501738
  0
LWPOLYLINE
  5
292
330
1F
100
AcDbEntity
  8
0
  6
Continuous
 62
     7
370
    25
100
AcDbPolyline
 90
       14
 70
   128
 43
0.0
 10
293.6518178567
 20
310.9177471341
 10
293.6689720625
 20
310.8031407297
 10
293.7231326423
 20
310.6862742045
 10
293.8129365833
 20
310.5753841085
 10
293.9360652259
 20
310.4733335276
 10
294.0893394959
 20
310.3827573186
 10
294.2688019852
 20
310.3059940804
 10
294.4698191287
 20
310.245025773
 10
294.687200839
 20
310.2014265448
 10
294.9153345097
 20
310.17632209
 10
295.1483299283
 20
310.1703605837
 10
295.3801713561
 20
310.1836959468
 10
295.6048728495
 20
310.2159838718
 10
295.8166328118
 20
310.2663907127
  0
ARC
  5
293
330
1F
100
AcDbEntity
  8
0
  6
Continuous
 62
     7
370
    25
100
AcDbCircle
 10
299.3180549867
 20
309.8999272029
 30
0.0
 40
0.3269463569464806
100
AcDbArc
 50
65.5357138737
 51
139.8366539865
  0
LWPOLYLINE
  5
294
330
1F
100
AcDbEntity
  8
0
  6
Continuous
 62
     7
370
    25
100
AcDbPolyline
 90
        9
 70
   128
 43
0.0
 10
295.8166328118
 20
310.2663907127
 10
295.8742624142
 20
310.2785392873
 10
295.9359338051
 20
310.2829755326
 10
295.9978208581
 20
310.2794242214
 10
296.0560840669
 20
310.2681056791
 10
296.1071087503
 20
310.2497221141
 10
296.1477293093
 20
310.2254140528
 10
296.1754256223
 20
310.1966895805
 10
296.1884793952
 20
310.165330779
  0
LWPOLYLINE
  5
295
330
1F
100
AcDbEntity
  8
0
  6
Continuous
 62
     7
370
    25
100
AcDbPolyline
 90
        8
 70
   128
 43
0.0
 10
301.7092159028
 20
311.5928393096
 10
301.8545600909
 20
311.6411220558
 10
302.0310348218
 20
311.7197012587
 10
302.1807951848
 20
311.8118235274
 10
302.2999744977
 20
311.9151103452
 10
302.3854956545
 20
312.0268949365
 10
302.4351505736
 20
312.1442911206
 10
302.4481782088
 20
312.2442373908
  0
ARC
  5
296
330
1F
100
AcDbEntity
  8
0
  6
Continuous
 62
     7
370
    25
100
AcDbCircle
 10
293.8776764999
 20
312.5304587256
 30
0.0
 40
0.7773794240367231
100
AcDbArc
 50
192.2181259481
 51
253.1098026849
  0
LINE
  5
297
330
1F
100
AcDbEntity
  8
0
  6
Continuous
 62
     8
370
    18
100
AcDbLine
 10
643.8588417044
 20
339.5548548848
 30
0.0
 11
643.8588417044
 21
335.2690183813
 31
0.0
  0
LINE
  5
298
330
1F
100
AcDbEntity
  8
0
  6
Continuous
 62
     8
370
    18
100
AcDbLine
 10
618.8632417581
 20
331.2888708071
 30
0.0
 11
618.8632417581
 21
335.5747073106
 31
0.0
  0
LINE
  5
299
330
1F
100
AcDbEntity
  8
0
  6
Continuous
 62
     8
370
    18
100
AcDbLine
 10
209.3776514215
 20
446.8641165493
 30
0.0
 11
209.3776514215
 21
442.5782800458
 31
0.0
  0
LINE
  5
29A
330
1F
100
AcDbEntity
  8
0
  6
Continuous
 62
     8
370
    18
100
AcDbLine
 10
684.9280359302
 20
375.3538109801
 30
0.0
 11
684.9280359302
 21
379.6396474836
 31
0.0
  0
LINE
  5
29B
330
1F
100
AcDbEntity
  8
0
  6
Continuous
 62
     8
370
    18
100
AcDbLine
 10
595.1793111056
 20
337.7256556732
 30
0.0
 11
593.4599112918
 21
336.0474687443
 31
0.0
  0
LINE
  5
29C
330
1F
100
AcDbEntity
  8
0
  6
Continuous
 62
     8
370
    18
100
AcDbLine
 10
605.4833777944
 20
334.9252311367
 30
0.0
 11
593.4599112918
 21
323.1899592338
 31
0.0
  0
LINE
  5
29D
330
1F
100
AcDbEntity
  8
0
  6
Continuous
 62
     8
370
    18
100
AcDbLine
 10
239.6926626209
 20
432.1938266179
 30
0.0
 11
241.4120624347
 21
433.8720135468
 31
0.0
  0
LINE
  5
29E
330
1F
100
AcDbEntity
  8
0
  6
Continuous
 62
     8
370
    18
100
AcDbLine
 10
239.6926626209
 20
419.3363171073
 30
0.0
 11
251.7161291234
 21
431.0715890102
 31
0.0
  0
ARC
  5
29F
330
1F
100
AcDbEntity
  8
0
  6
Continuous
 62
     8
370
    18
100
AcDbCircle
 10
238.1984751859
 20
249.5123301566
 30
0.0
 40
1.607516302586241
100
AcDbArc
 50
311.1124048246
 51
357.525695881
  0
LWPOLYLINE
  5
2A0
330
1F
100
AcDbEntity
  8
0
  6
Continuous
 62
     8
370
    18
100
AcDbPolyline
 90
       32
 70
   128
 43
0.0
 10
230.3044927744
 20
249.4429315364
 10
230.3044960536
 20
249.4400569209
 10
230.3235769175
 20
249.2238525041
 10
230.3796836124
 20
249.0093626778
 10
230.4723770274
 20
248.7982661156
 10
230.6009317107
 20
248.5922149345
 10
230.7643415478
 20
248.3928217642
 10
230.9613276349
 20
248.2016471266
 10
231.1903482891
 20
248.0201872226
 10
231.449611113
 20
247.8498622218
 10
231.7370870236
 20
247.6920051484
 10
232.0505261321
 20
247.547851448
 10
232.3874753525
 20
247.4185293187
 10
232.7452976003
 20
247.3050508815
 10
233.1211924313
 20
247.2083042592
 10
233.5122179587
 20
247.129046625
 10
233.9153138776
 20
247.0678982776
 10
234.327325416
 20
247.0253377857
 10
234.7450280249
 20
247.0016982427
 10
235.165152615
 20
246.9971646602
 10
235.5844111418
 20
247.0117725196
 10
235.999522339
 20
247.0454074946
 10
236.4072373984
 20
247.0978063459
 10
236.8043653971
 20
247.1685589814
 10
237.1877982699
 20
247.2571116659
 10
237.5545351348
 20
247.3627713545
 10
237.9017057785
 20
247.484711117
 10
238.2265931201
 20
247.6219766093
 10
238.5266544756
 20
247.7734935428
 10
238.799541458
 20
247.9380760921
 10
239.0431183568
 20
248.1144361756
 10
239.2554788524
 20
248.3011935366
  0
LWPOLYLINE
  5
2A1
330
1F
100
AcDbEntity
  8
0
  6
Continuous
 62
     8
370
    18
100
AcDbPolyline
 90
       37
 70
   128
 43
0.0
 10
646.7733240214
 20
214.4952404629
 10
646.7782233538
 20
214.3841549114
 10
646.8158539651
 20
214.1685968073
 10
646.8903269122
 20
213.9555951327
 10
647.0010593433
 20
213.7468169144
 10
647.1471846271
 20
213.5438961252
 10
647.3275591349
 20
213.3484208953
 10
647.5407711919
 20
213.1619210835
 10
647.7851521245
 20
212.9858563035
 10
648.0587893206
 20
212.8216045011
 10
648.3595411981
 20
212.6704511693
 10
648.6850539658
 20
212.5335792879
 10
649.032780045
 20
212.4120600649
 10
649.3999980076
 20
212.306844553
 10
649.7838338751
 20
212.2187562062
 10
650.1812836116
 20
212.1484844353
 10
650.5892366338
 20
212.0965792121
 10
651.0045001564
 20
212.0634467655
 10
651.4238241791
 20
212.0493464017
 10
651.843926923
 20
212.0543884752
 10
652.2615205145
 20
212.0785335249
 10
652.6733367176
 20
212.1215925831
 10
653.0761525121
 20
212.1832286543
 10
653.4668153182
 20
212.2629593526
 10
653.8422676699
 20
212.3601606772
 10
654.1995711434
 20
212.4740718961
 10
654.5359293545
 20
212.6038014993
 10
654.8487098443
 20
212.748334177
 10
655.1354646813
 20
212.9065387648
 10
655.3939496201
 20
213.0771770976
 10
655.6221416656
 20
213.2589136988
 10
655.8182549057
 20
213.4503262332
 10
655.9807544883
 20
213.6499166382
 10
656.1083686339
 20
213.8561228483
 10
656.2000985887
 20
214.0673310203
 10
656.2552264416
 20
214.2818881638
 10
656.2733240214
 20
214.4952404629
  0
ARC
  5
2A2
330
1F
100
AcDbEntity
  8
0
  6
Continuous
 62
     8
370
    18
100
AcDbCircle
 10
591.9657238569
 20
153.365972283
 30
0.0
 40
1.607516302586889
100
AcDbArc
 50
311.1124048246
 51
357.525695881
  0
LWPOLYLINE
  5
2A3
330
1F
100
AcDbEntity
  8
0
  6
Continuous
 62
     8
370
    18
100
AcDbPolyline
 90
       32
 70
   128
 43
0.0
 10
584.0717414454
 20
153.2965736628
 10
584.0717447245
 20
153.2936990473
 10
584.0908255885
 20
153.0774946305
 10
584.1469322834
 20
152.8630048042
 10
584.2396256984
 20
152.6519082421
 10
584.3681803817
 20
152.4458570609
 10
584.5315902187
 20
152.2464638906
 10
584.7285763059
 20
152.0552892531
 10
584.95759696
 20
151.873829349
 10
585.2168597839
 20
151.7035043483
 10
585.5043356945
 20
151.5456472749
 10
585.817774803
 20
151.4014935744
 10
586.1547240234
 20
151.2721714451
 10
586.5125462713
 20
151.158693008
 10
586.8884411022
 20
151.0619463856
 10
587.2794666296
 20
150.9826887515
 10
587.6825625486
 20
150.9215404041
 10
588.094574087
 20
150.8789799121
 10
588.5122766958
 20
150.8553403691
 10
588.932401286
 20
150.8508067866
 10
589.3516598128
 20
150.865414646
 10
589.7667710099
 20
150.899049621
 10
590.1744860694
 20
150.9514484723
 10
590.5716140681
 20
151.0222011078
 10
590.9550469409
 20
151.1107537923
 10
591.3217838058
 20
151.216413481
 10
591.6689544495
 20
151.3383532434
 10
591.9938417911
 20
151.4756187357
 10
592.2939031466
 20
151.6271356692
 10
592.566790129
 20
151.7917182185
 10
592.8103670278
 20
151.9680783021
 10
593.0227275234
 20
152.1548356631
  0
LWPOLYLINE
  5
2A4
330
1F
100
AcDbEntity
  8
0
  6
Continuous
 62
     8
370
    18
100
AcDbPolyline
 90
       37
 70
   128
 43
0.0
 10
293.0060753505
 20
310.6415983364
 10
293.0109746829
 20
310.530512785
 10
293.0486052941
 20
310.3149546809
 10
293.1230782412
 20
310.1019530062
 10
293.2338106723
 20
309.893174788
 10
293.3799359561
 20
309.6902539988
 10
293.560310464
 20
309.4947787689
 10
293.7735225209
 20
309.308278957
 10
294.0179034535
 20
309.1322141771
 10
294.2915406496
 20
308.9679623747
 10
294.5922925271
 20
308.8168090429
 10
294.9178052948
 20
308.6799371615
 10
295.265531374
 20
308.5584179384
 10
295.6327493366
 20
308.4532024265
 10
296.0165852042
 20
308.3651140797
 10
296.4140349406
 20
308.2948423088
 10
296.8219879629
 20
308.2429370857
 10
297.2372514854
 20
308.209804639
 10
297.6565755081
 20
308.1957042752
 10
298.0766782521
 20
308.2007463487
 10
298.4942718436
 20
308.2248913985
 10
298.9060880466
 20
308.2679504567
 10
299.3089038411
 20
308.3295865278
 10
299.6995666473
 20
308.4093172262
 10
300.0750189989
 20
308.5065185508
 10
300.4323224724
 20
308.6204297696
 10
300.7686806836
 20
308.7501593729
 10
301.0814611733
 20
308.8946920505
 10
301.3682160103
 20
309.0528966384
 10
301.6267009491
 20
309.2235349711
 10
301.8548929946
 20
309.4052715723
 10
302.0510062347
 20
309.5966841068
 10
302.2135058173
 20
309.7962745118
 10
302.3411199629
 20
310.0024807219
 10
302.4328499178
 20
310.2136888938
 10
302.4879777707
 20
310.4282460374
 10
302.5060753505
 20
310.6415983364
  0
LINE
  5
2A5
330
1F
100
AcDbEntity
  8
0
  6
Continuous
 62
     8
370
    18
100
AcDbLine
 10
588.8937642754
 20
339.8908476475
 30
0.0
 11
588.8937642754
 21
152.6444953831
 31
0.0
  0
LINE
  5
2A6
330
1F
100
AcDbEntity
  8
0
  6
Continuous
 62
     8
370
    18
100
AcDbLine
 10
588.4736061182
 20
339.9062014437
 30
0.0
 11
588.4736061182
 21
152.6524519284
 31
0.0
  0
LINE
  5
2A7
330
1F
100
AcDbEntity
  8
0
  6
Continuous
 62
     8
370
    18
100
AcDbLine
 10
591.8082855816
 20
340.5392935553
 30
0.0
 11
591.8082855816
 21
153.4031094984
 31
0.0
  0
LINE
  5
2A8
330
1F
100
AcDbEntity
  8
0
  6
Continuous
 62
     8
370
    18
100
AcDbLine
 10
585.6751220758
 20
340.7656056302
 30
0.0
 11
585.6751220758
 21
153.5192533658
 31
0.0
  0
LINE
  5
2A9
330
1F
100
AcDbEntity
  8
0
  6
Continuous
 62
     8
370
    18
100
AcDbLine
 10
592.4738782389
 20
342.0503067885
 30
0.0
 11
592.4738782389
 21
341.9479843788
 31
0.0
  0
LINE
  5
2AA
330
1F
100
AcDbEntity
  8
0
  6
Continuous
 62
     8
370
    18
100
AcDbLine
 10
585.246106598
 20
342.3227531925
 30
0.0
 11
585.246106598
 21
342.2483742239
 31
0.0
  0
LINE
  5
2AB
330
1F
100
AcDbEntity
  8
0
  6
Continuous
 62
     8
370
    18
100
AcDbLine
 10
652.8354483769
 20
400.9650497127
 30
0.0
 11
652.8354483769
 21
399.1351411683
 31
0.0
  0
LINE
  5
2AC
330
1F
100
AcDbEntity
  8
0
  6
Continuous
 62
     8
370
    18
100
AcDbLine
 10
652.8354483769
 20
344.0304616843
 30
0.0
 11
652.8354483769
 21
213.9644395715
 31
0.0
  0
LINE
  5
2AD
330
1F
100
AcDbEntity
  8
0
  6
Continuous
 62
     8
370
    18
100
AcDbLine
 10
649.9557280662
 20
400.9636382467
 30
0.0
 11
649.9557280662
 21
399.9177874438
 31
0.0
  0
LINE
  5
2AE
330
1F
100
AcDbEntity
  8
0
  6
Continuous
 62
     8
370
    18
100
AcDbLine
 10
649.9557280662
 20
341.2197663792
 30
0.0
 11
649.9557280662
 21
214.0189729054
 31
0.0
  0
LINE
  5
2AF
330
1F
100
AcDbEntity
  8
0
  6
Continuous
 62
     8
370
    18
100
AcDbLine
 10
653.2207006318
 20
401.0662900022
 30
0.0
 11
653.2207006318
 21
399.0304378604
 31
0.0
  0
LINE
  5
2B0
330
1F
100
AcDbEntity
  8
0
  6
Continuous
 62
     8
370
    18
100
AcDbLine
 10
653.2207006318
 20
344.4064796956
 30
0.0
 11
653.2207006318
 21
214.0511623059
 31
0.0
  0
LINE
  5
2B1
330
1F
100
AcDbEntity
  8
0
  6
Continuous
 62
     8
370
    18
100
AcDbLine
 10
649.5838814828
 20
401.0646981804
 30
0.0
 11
649.5838814828
 21
400.0188473775
 31
0.0
  0
LINE
  5
2B2
330
1F
100
AcDbEntity
  8
0
  6
Continuous
 62
     8
370
    18
100
AcDbLine
 10
649.5838814828
 20
340.8568327143
 30
0.0
 11
649.5838814828
 21
214.1200328391
 31
0.0
  0
LINE
  5
2B3
330
1F
100
AcDbEntity
  8
0
  6
Continuous
 62
     8
370
    18
100
AcDbLine
 10
655.2075139897
 20
402.5393668371
 30
0.0
 11
655.2075139897
 21
402.0713501368
 31
0.0
  0
LINE
  5
2B4
330
1F
100
AcDbEntity
  8
0
  6
Continuous
 62
     8
370
    18
100
AcDbLine
 10
647.7927543777
 20
402.5414894873
 30
0.0
 11
647.7927543777
 21
402.1446436554
 31
0.0
  0
LINE
  5
2B5
330
1F
100
AcDbEntity
  8
0
  6
Continuous
 62
     8
370
    18
100
AcDbLine
 10
235.1265156044
 20
436.037205521
 30
0.0
 11
235.1265156044
 21
248.7908532567
 31
0.0
  0
LINE
  5
2B6
330
1F
100
AcDbEntity
  8
0
  6
Continuous
 62
     8
370
    18
100
AcDbLine
 10
234.7063574473
 20
436.0525593173
 30
0.0
 11
234.7063574473
 21
248.798809802
 31
0.0
  0
LINE
  5
2B7
330
1F
100
AcDbEntity
  8
0
  6
Continuous
 62
     8
370
    18
100
AcDbLine
 10
238.0410369106
 20
436.6856514288
 30
0.0
 11
238.0410369106
 21
249.549467372
 31
0.0
  0
LINE
  5
2B8
330
1F
100
AcDbEntity
  8
0
  6
Continuous
 62
     8
370
    18
100
AcDbLine
 10
231.9078734048
 20
436.9119635037
 30
0.0
 11
231.9078734048
 21
249.6656112394
 31
0.0
  0
LINE
  5
2B9
330
1F
100
AcDbEntity
  8
0
  6
Continuous
 62
     8
370
    18
100
AcDbLine
 10
238.7066295679
 20
438.196664662
 30
0.0
 11
238.7066295679
 21
438.0943422524
 31
0.0
  0
LINE
  5
2BA
330
1F
100
AcDbEntity
  8
0
  6
Continuous
 62
     8
370
    18
100
AcDbLine
 10
231.478857927
 20
438.4691110661
 30
0.0
 11
231.478857927
 21
438.3947320974
 31
0.0
  0
LINE
  5
2BB
330
1F
100
AcDbEntity
  8
0
  6
Continuous
 62
     8
370
    18
100
AcDbLine
 10
299.0681997059
 20
497.1114075862
 30
0.0
 11
299.0681997059
 21
495.2814990419
 31
0.0
  0
LINE
  5
2BC
330
1F
100
AcDbEntity
  8
0
  6
Continuous
 62
     8
370
    18
100
AcDbLine
 10
299.0681997059
 20
418.202310858
 30
0.0
 11
299.0681997059
 21
310.110797445
 31
0.0
  0
LINE
  5
2BD
330
1F
100
AcDbEntity
  8
0
  6
Continuous
 62
     8
370
    18
100
AcDbLine
 10
296.1884793952
 20
497.1099961203
 30
0.0
 11
296.1884793952
 21
496.0641453174
 31
0.0
  0
LINE
  5
2BE
330
1F
100
AcDbEntity
  8
0
  6
Continuous
 62
     8
370
    18
100
AcDbLine
 10
296.1884793952
 20
418.9849571335
 30
0.0
 11
296.1884793952
 21
310.165330779
 31
0.0
  0
LINE
  5
2BF
330
1F
100
AcDbEntity
  8
0
  6
Continuous
 62
     8
370
    18
100
AcDbLine
 10
299.4534519609
 20
497.2126478758
 30
0.0
 11
299.4534519609
 21
495.176795734
 31
0.0
  0
LINE
  5
2C0
330
1F
100
AcDbEntity
  8
0
  6
Continuous
 62
     8
370
    18
100
AcDbLine
 10
299.4534519609
 20
418.0976075501
 30
0.0
 11
299.4534519609
 21
310.1975201795
 31
0.0
  0
LINE
  5
2C1
330
1F
100
AcDbEntity
  8
0
  6
Continuous
 62
     8
370
    18
100
AcDbLine
 10
295.8166328118
 20
497.2110560539
 30
0.0
 11
295.8166328118
 21
496.1652052511
 31
0.0
  0
LINE
  5
2C2
330
1F
100
AcDbEntity
  8
0
  6
Continuous
 62
     8
370
    18
100
AcDbLine
 10
295.8166328118
 20
419.0860170672
 30
0.0
 11
295.8166328118
 21
310.2663907127
 31
0.0
  0
LINE
  5
2C3
330
1F
100
AcDbEntity
  8
0
  6
Continuous
 62
     8
370
    18
100
AcDbLine
 10
301.4402653187
 20
498.6857247107
 30
0.0
 11
301.4402653187
 21
498.2177080104
 31
0.0
  0
LINE
  5
2C4
330
1F
100
AcDbEntity
  8
0
  6
Continuous
 62
     8
370
    18
100
AcDbLine
 10
294.0255057067
 20
498.6878473608
 30
0.0
 11
294.0255057067
 21
498.291001529
 31
0.0
  0
ENDSEC
  0
SECTION
  2
OBJECTS
  0
DICTIONARY
  5
C
330
0
100
AcDbDictionary
281
     1
  3
ACAD_GROUP
350
D
  3
ACAD_LAYOUT
350
1A
  3
ACAD_MLINESTYLE
350
17
  3
ACAD_PLOTSETTINGS
350
19
  3
ACAD_PLOTSTYLENAME
350
E
  3
ACAD_SCALELIST
350
47
  0
DICTIONARY
  5
D
102
{ACAD_REACTORS
330
C
102
}
330
C
100
AcDbDictionary
281
     1
  0
DICTIONARY
  5
1A
102
{ACAD_REACTORS
330
C
102
}
330
C
100
AcDbDictionary
281
     1
  3
Layout1
350
1E
  3
Layout2
350
26
  3
Model
350
22
  0
DICTIONARY
  5
17
102
{ACAD_REACTORS
330
C
102
}
330
C
100
AcDbDictionary
281
     1
  3
Standard
350
18
  0
DICTIONARY
  5
19
102
{ACAD_REACTORS
330
C
102
}
330
C
100
AcDbDictionary
281
     1
  0
ACDBDICTIONARYWDFLT
  5
E
102
{ACAD_REACTORS
330
C
102
}
330
C
100
AcDbDictionary
281
     1
  3
Normal
350
F
100
AcDbDictionaryWithDefault
340
F
  0
DICTIONARY
  5
47
102
{ACAD_REACTORS
330
C
102
}
330
C
100
AcDbDictionary
281
     1
  3
A0
350
48
  3
A1
350
49
  3
A2
350
4A
  3
A3
350
4B
  3
A4
350
4C
  3
A5
350
4D
  3
A6
350
4E
  3
A7
350
4F
  3
A8
350
50
  3
A9
350
51
  3
B0
350
52
  3
B1
350
53
  3
B2
350
54
  3
B3
350
55
  3
B4
350
56
  3
B5
350
57
  3
B6
350
58
  3
B7
350
59
  3
B8
350
5A
  3
B9
350
5B
  3
C0
350
5C
  3
C1
350
5D
  3
C2
350
5E
  3
C3
350
5F
  3
C4
350
60
  3
C5
350
61
  3
C6
350
62
  3
C7
350
63
  3
C8
350
64
  3
C9
350
65
  3
D0
350
66
  3
D1
350
67
  3
D2
350
68
  0
LAYOUT
  5
1E
102
{ACAD_REACTORS
330
1A
102
}
330
1A
100
AcDbPlotSettings
  1

  2
none_device
  4

  6

 40
0.0
 41
0.0
 42
0.0
 43
0.0
 44
0.0
 45
0.0
 46
0.0
 47
0.0
 48
0.0
 49
0.0
140
0.0
141
0.0
142
1.0
143
1.0
 70
   688
 72
     1
 73
     0
 74
     5
  7

 75
    16
147
1.0
148
0.0
149
0.0
100
AcDbLayout
  1
Layout1
 70
     1
 71
     1
 10
0.0
 20
0.0
 11
420.0
 21
297.0
 12
0.0
 22
0.0
 32
0.0
 14
1.0000000000E+20
 24
1.0000000000E+20
 34
1.0000000000E+20
 15
-1.0000000000E+20
 25
-1.0000000000E+20
 35
-1.0000000000E+20
146
0.0
 13
0.0
 23
0.0
 33
0.0
 16
1.0
 26
0.0
 36
0.0
 17
0.0
 27
1.0
 37
0.0
 76
     0
330
1B
  0
LAYOUT
  5
26
102
{ACAD_REACTORS
330
1A
102
}
330
1A
100
AcDbPlotSettings
  1

  2
none_device
  4

  6

 40
0.0
 41
0.0
 42
0.0
 43
0.0
 44
0.0
 45
0.0
 46
0.0
 47
0.0
 48
0.0
 49
0.0
140
0.0
141
0.0
142
1.0
143
1.0
 70
   688
 72
     1
 73
     0
 74
     5
  7

 75
    16
147
1.0
148
0.0
149
0.0
100
AcDbLayout
  1
Layout2
 70
     1
 71
     2
 10
0.0
 20
0.0
 11
0.0
 21
0.0
 12
0.0
 22
0.0
 32
0.0
 14
0.0
 24
0.0
 34
0.0
 15
0.0
 25
0.0
 35
0.0
146
0.0
 13
0.0
 23
0.0
 33
0.0
 16
1.0
 26
0.0
 36
0.0
 17
0.0
 27
1.0
 37
0.0
 76
     0
330
23
  0
LAYOUT
  5
22
102
{ACAD_REACTORS
330
1A
102
}
330
1A
100
AcDbPlotSettings
  1

  2
none_device
  4
Letter_(8.50_x_11.00_Inches)
  6

 40
6.35
 41
6.35
 42
6.35000508
 43
6.35000508
 44
215.9
 45
279.4
 46
0.0
 47
0.0
 48
0.0
 49
0.0
140
0.0
141
0.0
142
1.0
143
1.0
 70
  1712
 72
     1
 73
     0
 74
     0
  7

 75
     0
147
1.0
148
0.0
149
0.0
100
AcDbLayout
  1
Model
 70
     1
 71
     0
 10
0.0
 20
0.0
 11
2970.0
 21
2100.0
 12
0.0
 22
0.0
 32
0.0
 14
0.0
 24
0.0
 34
0.0
 15
2970.0
 25
2100.0
 35
0.0
146
0.0
 13
0.0
 23
0.0
 33
0.0
 16
1.0
 26
0.0
 36
0.0
 17
0.0
 27
1.0
 37
0.0
 76
     0
330
1F
331
29
  0
MLINESTYLE
  5
18
102
{ACAD_REACTORS
330
17
102
}
330
17
100
AcDbMlineStyle
  2
Standard
 70
     0
  3

 62
   256
 51
90.0
 52
90.0
 71
     2
 49
0.5
 62
   256
  6
BYLAYER
 49
-0.5
 62
   256
  6
BYLAYER
  0
ACDBPLACEHOLDER
  5
F
102
{ACAD_REACTORS
330
E
102
}
330
E
  0
SCALE
  5
48
102
{ACAD_REACTORS
330
47
102
}
330
47
100
AcDbScale
 70
     0
300
1:1
140
1.0
141
1.0
290
     1
  0
SCALE
  5
49
102
{ACAD_REACTORS
330
47
102
}
330
47
100
AcDbScale
 70
     0
300
1:2
140
1.0
141
2.0
290
     0
  0
SCALE
  5
4A
102
{ACAD_REACTORS
330
47
102
}
330
47
100
AcDbScale
 70
     0
300
1:4
140
1.0
141
4.0
290
     0
  0
SCALE
  5
4B
102
{ACAD_REACTORS
330
47
102
}
330
47
100
AcDbScale
 70
     0
300
1:5
140
1.0
141
5.0
290
     0
  0
SCALE
  5
4C
102
{ACAD_REACTORS
330
47
102
}
330
47
100
AcDbScale
 70
     0
300
1:8
140
1.0
141
8.0
290
     0
  0
SCALE
  5
4D
102
{ACAD_REACTORS
330
47
102
}
330
47
100
AcDbScale
 70
     0
300
1:10
140
1.0
141
10.0
290
     0
  0
SCALE
  5
4E
102
{ACAD_REACTORS
330
47
102
}
330
47
100
AcDbScale
 70
     0
300
1:16
140
1.0
141
16.0
290
     0
  0
SCALE
  5
4F
102
{ACAD_REACTORS
330
47
102
}
330
47
100
AcDbScale
 70
     0
300
1:20
140
1.0
141
20.0
290
     0
  0
SCALE
  5
50
102
{ACAD_REACTORS
330
47
102
}
330
47
100
AcDbScale
 70
     0
300
1:30
140
1.0
141
30.0
290
     0
  0
SCALE
  5
51
102
{ACAD_REACTORS
330
47
102
}
330
47
100
AcDbScale
 70
     0
300
1:40
140
1.0
141
40.0
290
     0
  0
SCALE
  5
52
102
{ACAD_REACTORS
330
47
102
}
330
47
100
AcDbScale
 70
     0
300
1:50
140
1.0
141
50.0
290
     0
  0
SCALE
  5
53
102
{ACAD_REACTORS
330
47
102
}
330
47
100
AcDbScale
 70
     0
300
1:100
140
1.0
141
100.0
290
     0
  0
SCALE
  5
54
102
{ACAD_REACTORS
330
47
102
}
330
47
100
AcDbScale
 70
     0
300
2:1
140
2.0
141
1.0
290
     0
  0
SCALE
  5
55
102
{ACAD_REACTORS
330
47
102
}
330
47
100
AcDbScale
 70
     0
300
4:1
140
4.0
141
1.0
290
     0
  0
SCALE
  5
56
102
{ACAD_REACTORS
330
47
102
}
330
47
100
AcDbScale
 70
     0
300
8:1
140
8.0
141
1.0
290
     0
  0
SCALE
  5
57
102
{ACAD_REACTORS
330
47
102
}
330
47
100
AcDbScale
 70
     0
300
10:1
140
10.0
141
1.0
290
     0
  0
SCALE
  5
58
102
{ACAD_REACTORS
330
47
102
}
330
47
100
AcDbScale
 70
     0
300
100:1
140
100.0
141
1.0
290
     0
  0
SCALE
  5
59
102
{ACAD_REACTORS
330
47
102
}
330
47
100
AcDbScale
 70
     0
300
1/128" = 1'-0"
140
0.0078125
141
12.0
290
     0
  0
SCALE
  5
5A
102
{ACAD_REACTORS
330
47
102
}
330
47
100
AcDbScale
 70
     0
300
1/64" = 1'-0"
140
0.015625
141
12.0
290
     0
  0
SCALE
  5
5B
102
{ACAD_REACTORS
330
47
102
}
330
47
100
AcDbScale
 70
     0
300
1/32" = 1'-0"
140
0.03125
141
12.0
290
     0
  0
SCALE
  5
5C
102
{ACAD_REACTORS
330
47
102
}
330
47
100
AcDbScale
 70
     0
300
1/16" = 1'-0"
140
0.0625
141
12.0
290
     0
  0
SCALE
  5
5D
102
{ACAD_REACTORS
330
47
102
}
330
47
100
AcDbScale
 70
     0
300
3/32" = 1'-0"
140
0.09375
141
12.0
290
     0
  0
SCALE
  5
5E
102
{ACAD_REACTORS
330
47
102
}
330
47
100
AcDbScale
 70
     0
300
1/8" = 1'-0"
140
0.125
141
12.0
290
     0
  0
SCALE
  5
5F
102
{ACAD_REACTORS
330
47
102
}
330
47
100
AcDbScale
 70
     0
300
3/16" = 1'-0"
140
0.1875
141
12.0
290
     0
  0
SCALE
  5
60
102
{ACAD_REACTORS
330
47
102
}
330
47
100
AcDbScale
 70
     0
300
1/4" = 1'-0"
140
0.25
141
12.0
290
     0
  0
SCALE
  5
61
102
{ACAD_REACTORS
330
47
102
}
330
47
100
AcDbScale
 70
     0
300
3/8" = 1'-0"
140
0.375
141
12.0
290
     0
  0
SCALE
  5
62
102
{ACAD_REACTORS
330
47
102
}
330
47
100
AcDbScale
 70
     0
300
1/2" = 1'-0"
140
0.5
141
12.0
290
     0
  0
SCALE
  5
63
102
{ACAD_REACTORS
330
47
102
}
330
47
100
AcDbScale
 70
     0
300
3/4" = 1'-0"
140
0.75
141
12.0
290
     0
  0
SCALE
  5
64
102
{ACAD_REACTORS
330
47
102
}
330
47
100
AcDbScale
 70
     0
300
1" = 1'-0"
140
1.0
141
12.0
290
     0
  0
SCALE
  5
65
102
{ACAD_REACTORS
330
47
102
}
330
47
100
AcDbScale
 70
     0
300
1-1/2" = 1'-0"
140
1.5
141
12.0
290
     0
  0
SCALE
  5
66
102
{ACAD_REACTORS
330
47
102
}
330
47
100
AcDbScale
 70
     0
300
3" = 1'-0"
140
3.0
141
12.0
290
     0
  0
SCALE
  5
67
102
{ACAD_REACTORS
330
47
102
}
330
47
100
AcDbScale
 70
     0
300
6" = 1'-0"
140
6.0
141
12.0
290
     0
  0
SCALE
  5
68
102
{ACAD_REACTORS
330
47
102
}
330
47
100
AcDbScale
 70
     0
300
1'-0" = 1'-0"
140
12.0
141
12.0
290
     0
  0
ENDSEC
  0
EOF
