  0
SECTION
  2
HEADER
  9
$ACADVER
  1
AC1015
  9
$ACADMAINTVER
 70
     6
  9
$DWGCODEPAGE
  3
ANSI_1252
  9
$INSBASE
 10
0.0
 20
0.0
 30
0.0
  9
$EXTMIN
 10
0.0
 20
0.0
 30
0.0
  9
$EXTMAX
 10
4455.0
 20
3150.0
 30
0.0
  9
$LIMMIN
 10
0.0
 20
0.0
  9
$LIMMAX
 10
4455.0
 20
3150.0
  9
$ORTHOMODE
 70
     0
  9
$REGENMODE
 70
     1
  9
$FILLMODE
 70
     1
  9
$QTEXTMODE
 70
     0
  9
$MIRRTEXT
 70
     1
  9
$LTSCALE
 40
15.0
  9
$ATTMODE
 70
     1
  9
$TEXTSIZE
 40
52.5
  9
$TRACEWID
 40
1.0
  9
$TEXTSTYLE
  7
Standard
  9
$CLAYER
  8
0
  9
$CELTYPE
  6
ByLayer
  9
$CECOLOR
 62
   256
  9
$CELTSCALE
 40
1.0
  9
$DISPSILH
 70
     0
  9
$DIMSCALE
 40
1.0
  9
$DIMASZ
 40
37.5
  9
$DIMEXO
 40
0.0
  9
$DIMDLI
 40
3.75
  9
$DIMRND
 40
0.0
  9
$DIMDLE
 40
0.0
  9
$DIMEXE
 40
15.0
  9
$DIMTP
 40
0.0
  9
$DIMTM
 40
0.0
  9
$DIMTXT
 40
45.0
  9
$DIMCEN
 40
2.5
  9
$DIMTSZ
 40
0.0
  9
$DIMTOL
 70
     0
  9
$DIMLIM
 70
     0
  9
$DIMTIH
 70
     1
  9
$DIMTOH
 70
     1
  9
$DIMSE1
 70
     0
  9
$DIMSE2
 70
     0
  9
$DIMTAD
 70
     1
  9
$DIMZIN
 70
     0
  9
$DIMBLK
  1

  9
$DIMASO
 70
     1
  9
$DIMSHO
 70
     1
  9
$DIMPOST
  1

  9
$DIMAPOST
  1

  9
$DIMALT
 70
     0
  9
$DIMALTD
 70
     3
  9
$DIMALTF
 40
0.0393700787
  9
$DIMLFAC
 40
1.0
  9
$DIMTOFL
 70
     1
  9
$DIMTVP
 40
0.0
  9
$DIMTIX
 70
     0
  9
$DIMSOXD
 70
     0
  9
$DIMSAH
 70
     0
  9
$DIMBLK1
  1

  9
$DIMBLK2
  1

  9
$DIMSTYLE
  2
ISO-25
  9
$DIMCLRD
 70
     0
  9
$DIMCLRE
 70
     0
  9
$DIMCLRT
 70
     0
  9
$DIMTFAC
 40
1.0
  9
$DIMGAP
 40
22.5
  9
$DIMJUST
 70
     0
  9
$DIMSD1
 70
     0
  9
$DIMSD2
 70
     0
  9
$DIMTOLJ
 70
     0
  9
$DIMTZIN
 70
     0
  9
$DIMALTZ
 70
     0
  9
$DIMALTTZ
 70
     0
  9
$DIMUPT
 70
     0
  9
$DIMDEC
 70
     1
  9
$DIMTDEC
 70
     1
  9
$DIMALTU
 70
     2
  9
$DIMALTTD
 70
     3
  9
$DIMTXSTY
  7
Standard
  9
$DIMAUNIT
 70
     0
  9
$DIMADEC
 70
     2
  9
$DIMALTRND
 40
0.0
  9
$DIMAZIN
 70
     0
  9
$DIMDSEP
 70
    44
  9
$DIMATFIT
 70
     3
  9
$DIMFRAC
 70
     0
  9
$DIMLDRBLK
  1

  9
$DIMLUNIT
 70
     2
  9
$DIMLWD
 70
    -2
  9
$DIMLWE
 70
    -2
  9
$DIMTMOVE
 70
     0
  9
$LUNITS
 70
     2
  9
$LUPREC
 70
     2
  9
$SKETCHINC
 40
1.0
  9
$FILLETRAD
 40
10.0
  9
$AUNITS
 70
     0
  9
$AUPREC
 70
     2
  9
$MENU
  1
.
  9
$ELEVATION
 40
0.0
  9
$PELEVATION
 40
0.0
  9
$THICKNESS
 40
0.0
  9
$LIMCHECK
 70
     0
  9
$CHAMFERA
 40
0.0
  9
$CHAMFERB
 40
0.0
  9
$CHAMFERC
 40
0.0
  9
$CHAMFERD
 40
0.0
  9
$SKPOLY
 70
     0
  9
$TDCREATE
 40
2459174.710485486
  9
$TDUCREATE
 40
2459174.668818819
  9
$TDUPDATE
 40
2459174.710486447
  9
$TDUUPDATE
 40
2459174.66881978
  9
$TDINDWG
 40
0.0000000116
  9
$TDUSRTIMER
 40
0.0000000116
  9
$USRTIMER
 70
     1
  9
$ANGBASE
 50
0.0
  9
$ANGDIR
 70
     0
  9
$PDMODE
 70
     0
  9
$PDSIZE
 40
-1.0
  9
$PLINEWID
 40
0.0
  9
$SPLFRAME
 70
     0
  9
$SPLINETYPE
 70
     6
  9
$SPLINESEGS
 70
     8
  9
$HANDSEED
  5
2B4
  9
$SURFTAB1
 70
     6
  9
$SURFTAB2
 70
     6
  9
$SURFTYPE
 70
     6
  9
$SURFU
 70
     6
  9
$SURFV
 70
     6
  9
$UCSBASE
  2

  9
$UCSNAME
  2

  9
$UCSORG
 10
0.0
 20
0.0
 30
0.0
  9
$UCSXDIR
 10
1.0
 20
0.0
 30
0.0
  9
$UCSYDIR
 10
0.0
 20
1.0
 30
0.0
  9
$UCSORTHOREF
  2

  9
$UCSORTHOVIEW
 70
     0
  9
$UCSORGTOP
 10
0.0
 20
0.0
 30
0.0
  9
$UCSORGBOTTOM
 10
0.0
 20
0.0
 30
0.0
  9
$UCSORGLEFT
 10
0.0
 20
0.0
 30
0.0
  9
$UCSORGRIGHT
 10
0.0
 20
0.0
 30
0.0
  9
$UCSORGFRONT
 10
0.0
 20
0.0
 30
0.0
  9
$UCSORGBACK
 10
0.0
 20
0.0
 30
0.0
  9
$PUCSBASE
  2

  9
$PUCSNAME
  2

  9
$PUCSORG
 10
0.0
 20
0.0
 30
0.0
  9
$PUCSXDIR
 10
1.0
 20
0.0
 30
0.0
  9
$PUCSYDIR
 10
0.0
 20
1.0
 30
0.0
  9
$PUCSORTHOREF
  2

  9
$PUCSORTHOVIEW
 70
     0
  9
$PUCSORGTOP
 10
0.0
 20
0.0
 30
0.0
  9
$PUCSORGBOTTOM
 10
0.0
 20
0.0
 30
0.0
  9
$PUCSORGLEFT
 10
0.0
 20
0.0
 30
0.0
  9
$PUCSORGRIGHT
 10
0.0
 20
0.0
 30
0.0
  9
$PUCSORGFRONT
 10
0.0
 20
0.0
 30
0.0
  9
$PUCSORGBACK
 10
0.0
 20
0.0
 30
0.0
  9
$USERI1
 70
     0
  9
$USERI2
 70
     0
  9
$USERI3
 70
     0
  9
$USERI4
 70
     0
  9
$USERI5
 70
     0
  9
$USERR1
 40
0.0
  9
$USERR2
 40
0.0
  9
$USERR3
 40
0.0
  9
$USERR4
 40
0.0
  9
$USERR5
 40
0.0
  9
$WORLDVIEW
 70
     1
  9
$SHADEDGE
 70
     3
  9
$SHADEDIF
 70
    70
  9
$TILEMODE
 70
     1
  9
$MAXACTVP
 70
    64
  9
$PINSBASE
 10
0.0
 20
0.0
 30
0.0
  9
$PLIMCHECK
 70
     0
  9
$PEXTMIN
 10
1.0000000000E+20
 20
1.0000000000E+20
 30
1.0000000000E+20
  9
$PEXTMAX
 10
-1.0000000000E+20
 20
-1.0000000000E+20
 30
-1.0000000000E+20
  9
$PLIMMIN
 10
0.0
 20
0.0
  9
$PLIMMAX
 10
420.0
 20
297.0
  9
$UNITMODE
 70
     0
  9
$VISRETAIN
 70
     1
  9
$PLINEGEN
 70
     0
  9
$PSLTSCALE
 70
     1
  9
$TREEDEPTH
 70
  3020
  9
$CMLSTYLE
  2
Standard
  9
$CMLJUST
 70
     0
  9
$CMLSCALE
 40
20.0
  9
$PROXYGRAPHICS
 70
     1
  9
$MEASUREMENT
 70
     1
  9
$CELWEIGHT
370
    -1
  9
$ENDCAPS
280
     0
  9
$JOINSTYLE
280
     0
  9
$LWDISPLAY
290
     1
  9
$INSUNITS
 70
     4
  9
$HYPERLINKBASE
  1

  9
$STYLESHEET
  1

  9
$XEDIT
290
     1
  9
$CEPSNTYPE
380
     0
  9
$PSTYLEMODE
290
     1
  9
$FINGERPRINTGUID
  2
{c42bbb24-3901-4661-bcdd-4cbb3eb228c4}
  9
$VERSIONGUID
  2
{FAEB1C32-E019-11D5-929B-00C0DF256EC4}
  9
$EXTNAMES
290
     1
  9
$PSVPSCALE
 40
0.0
  9
$OLESTARTUP
290
     0
  0
ENDSEC
  0
SECTION
  2
CLASSES
  0
CLASS
  1
ACDBDICTIONARYWDFLT
  2
AcDbDictionaryWithDefault
  3
ObjectDBX Classes
 90
        0
280
     0
281
     0
  0
CLASS
  1
VISUALSTYLE
  2
AcDbVisualStyle
  3
ObjectDBX Classes
 90
     4095
280
     0
281
     0
  0
CLASS
  1
MATERIAL
  2
AcDbMaterial
  3
ObjectDBX Classes
 90
     1153
280
     0
281
     0
  0
CLASS
  1
SCALE
  2
AcDbScale
  3
ObjectDBX Classes
 90
     1153
280
     0
281
     0
  0
CLASS
  1
TABLESTYLE
  2
AcDbTableStyle
  3
ObjectDBX Classes
 90
     4095
280
     0
281
     0
  0
CLASS
  1
MLEADERSTYLE
  2
AcDbMLeaderStyle
  3
ACDB_MLEADERSTYLE_CLASS
 90
     4095
280
     0
281
     0
  0
CLASS
  1
SUN
  2
AcDbSun
  3
SCENEOE
 90
     1153
280
     0
281
     0
  0
CLASS
  1
ACDBPLACEHOLDER
  2
AcDbPlaceHolder
  3
ObjectDBX Classes
 90
        0
280
     0
281
     0
  0
CLASS
  1
LAYOUT
  2
AcDbLayout
  3
ObjectDBX Classes
 90
        0
280
     0
281
     0
  0
ENDSEC
  0
SECTION
  2
TABLES
  0
TABLE
  2
VPORT
  5
8
330
0
100
AcDbSymbolTable
 70
     1
  0
VPORT
  5
29
330
8
100
AcDbSymbolTableRecord
100
AcDbViewportTableRecord
  2
*Active
 70
     0
 10
0.0
 20
0.0
 11
1.0
 21
1.0
 12
2227.5
 22
1575.0
 13
0.0
 23
0.0
 14
10.0
 24
10.0
 15
10.0
 25
10.0
 16
0.0
 26
0.0
 36
1.0
 17
0.0
 27
0.0
 37
0.0
 40
3150.0
 41
1.4142857143
 42
50.0
 43
0.0
 44
0.0
 50
0.0
 51
0.0
 71
     0
 72
  2000
 73
     1
 74
     3
 75
     0
 76
     0
 77
     0
 78
     0
281
     0
 65
     1
110
0.0
120
0.0
130
0.0
111
1.0
121
0.0
131
0.0
112
0.0
122
1.0
132
0.0
 79
     0
146
0.0
  0
ENDTAB
  0
TABLE
  2
LTYPE
  5
5
330
0
100
AcDbSymbolTable
 70
     6
  0
LTYPE
  5
14
330
5
100
AcDbSymbolTableRecord
100
AcDbLinetypeTableRecord
  2
ByBlock
 70
     0
  3

 72
    65
 73
     0
 40
0.0
  0
LTYPE
  5
15
330
5
100
AcDbSymbolTableRecord
100
AcDbLinetypeTableRecord
  2
ByLayer
 70
     0
  3

 72
    65
 73
     0
 40
0.0
  0
LTYPE
  5
16
330
5
100
AcDbSymbolTableRecord
100
AcDbLinetypeTableRecord
  2
Continuous
 70
     0
  3
Solid line
 72
    65
 73
     0
 40
0.0
  0
LTYPE
  5
6E
330
5
100
AcDbSymbolTableRecord
100
AcDbLinetypeTableRecord
  2
HIDDEN
 70
     0
  3
Hidden __ __ __ __ __ __ __ __ __ __ __ __ __ __
 72
    65
 73
     2
 40
1.905
 49
1.27
 74
     0
 49
-0.635
 74
     0
  0
LTYPE
  5
6F
330
5
100
AcDbSymbolTableRecord
100
AcDbLinetypeTableRecord
  2
PHANTOM
 70
     0
  3
Phantom ______  __  __  ______  __  __  ______
 72
    65
 73
     6
 40
12.7
 49
6.35
 74
     0
 49
-1.27
 74
     0
 49
1.27
 74
     0
 49
-1.27
 74
     0
 49
1.27
 74
     0
 49
-1.27
 74
     0
  0
LTYPE
  5
70
330
5
100
AcDbSymbolTableRecord
100
AcDbLinetypeTableRecord
  2
CENTER
 70
     0
  3
Center ____ _ ____ _ ____ _ ____ _ ____ _ ____
 72
    65
 73
     4
 40
10.16
 49
6.35
 74
     0
 49
-1.27
 74
     0
 49
1.27
 74
     0
 49
-1.27
 74
     0
  0
LTYPE
  5
71
330
5
100
AcDbSymbolTableRecord
100
AcDbLinetypeTableRecord
  2
CENTERX2
 70
     0
  3
Center (2x) ________  __  ________  __  _____
 72
    65
 73
     4
 40
20.32
 49
12.7
 74
     0
 49
-2.54
 74
     0
 49
2.54
 74
     0
 49
-2.54
 74
     0
  0
LTYPE
  5
72
330
5
100
AcDbSymbolTableRecord
100
AcDbLinetypeTableRecord
  2
DOT2
 70
     0
  3
Dot (.5x) ........................................
 72
    65
 73
     2
 40
0.635
 49
0.0
 74
     0
 49
-0.635
 74
     0
  0
ENDTAB
  0
TABLE
  2
LAYER
  5
2
330
0
100
AcDbSymbolTable
 70
     2
  0
LAYER
  5
10
330
2
100
AcDbSymbolTableRecord
100
AcDbLayerTableRecord
  2
0
 70
     0
 62
     7
  6
Continuous
370
    -3
390
F
  0
LAYER
  5
73
330
2
100
AcDbSymbolTableRecord
100
AcDbLayerTableRecord
  2
FORMAT
 70
     0
 62
     7
  6
Continuous
370
    -3
390
F
  0
ENDTAB
  0
TABLE
  2
STYLE
  5
3
330
0
100
AcDbSymbolTable
 70
     2
  0
STYLE
  5
11
330
3
100
AcDbSymbolTableRecord
100
AcDbTextStyleTableRecord
  2
Standard
 70
     0
 40
0.0
 41
1.0
 50
0.0
 71
     0
 42
52.5
  3
txt
  4

  0
STYLE
  5
E7
330
3
100
AcDbSymbolTableRecord
100
AcDbTextStyleTableRecord
  2
SLDTEXTSTYLE0
 70
     0
 40
0.0
 41
0.605
 50
0.0
 71
     0
 42
52.5
  3
TXT
  4

  0
ENDTAB
  0
TABLE
  2
VIEW
  5
6
330
0
100
AcDbSymbolTable
 70
     0
  0
ENDTAB
  0
TABLE
  2
UCS
  5
7
330
0
100
AcDbSymbolTable
 70
     0
  0
ENDTAB
  0
TABLE
  2
APPID
  5
9
330
0
100
AcDbSymbolTable
 70
     1
  0
APPID
  5
12
330
9
100
AcDbSymbolTableRecord
100
AcDbRegAppTableRecord
  2
ACAD
 70
     0
  0
ENDTAB
  0
TABLE
  2
DIMSTYLE
  5
A
330
0
100
AcDbSymbolTable
 70
     1
100
AcDbDimStyleTable
  0
DIMSTYLE
105
27
330
A
100
AcDbSymbolTableRecord
100
AcDbDimStyleTableRecord
  2
ISO-25
 70
     0
 41
2.5
 42
0.625
 43
3.75
 44
1.25
 73
     0
 74
     0
 77
     1
 78
     8
140
2.5
141
2.5
143
0.0393700787
147
0.625
171
     3
172
     1
178
     0
271
     2
272
     2
274
     3
278
    44
283
     0
284
     8
340
11
  0
ENDTAB
  0
TABLE
  2
BLOCK_RECORD
  5
1
330
0
100
AcDbSymbolTable
 70
     2
  0
BLOCK_RECORD
  5
1F
330
1
100
AcDbSymbolTableRecord
100
AcDbBlockTableRecord
  2
*Model_Space
340
22
  0
BLOCK_RECORD
  5
1B
330
1
100
AcDbSymbolTableRecord
100
AcDbBlockTableRecord
  2
*Paper_Space
340
1E
  0
BLOCK_RECORD
  5
23
330
1
100
AcDbSymbolTableRecord
100
AcDbBlockTableRecord
  2
*Paper_Space0
340
26
  0
BLOCK_RECORD
  5
EE
330
1
100
AcDbSymbolTableRecord
100
AcDbBlockTableRecord
  2
SW_NOTE_0
340
0
102
{BLKREFS
331
F3
102
}
  0
ENDTAB
  0
ENDSEC
  0
SECTION
  2
BLOCKS
  0
BLOCK
  5
20
330
1F
100
AcDbEntity
  8
0
100
AcDbBlockBegin
  2
*Model_Space
 70
     0
 10
0.0
 20
0.0
 30
0.0
  3
*Model_Space
  1

  0
ENDBLK
  5
21
330
1F
100
AcDbEntity
  8
0
100
AcDbBlockEnd
  0
BLOCK
  5
1C
330
1B
100
AcDbEntity
 67
     1
  8
0
100
AcDbBlockBegin
  2
*Paper_Space
 70
     0
 10
0.0
 20
0.0
 30
0.0
  3
*Paper_Space
  1

  0
ENDBLK
  5
1D
330
1B
100
AcDbEntity
 67
     1
  8
0
100
AcDbBlockEnd
  0
BLOCK
  5
24
330
23
100
AcDbEntity
  8
0
100
AcDbBlockBegin
  2
*Paper_Space0
 70
     0
 10
0.0
 20
0.0
 30
0.0
  3
*Paper_Space0
  1

  0
ENDBLK
  5
25
330
23
100
AcDbEntity
  8
0
100
AcDbBlockEnd
  0
BLOCK
  5
EF
330
EE
100
AcDbEntity
  8
0
100
AcDbBlockBegin
  2
SW_NOTE_0
 70
     0
 10
0.0
 20
0.0
 30
0.0
  3
SW_NOTE_0
  1

  0
MTEXT
  5
F1
330
EE
100
AcDbEntity
  8
0
  6
Continuous
 62
     0
370
     0
100
AcDbMText
 10
49.359375
 20
34.8048289738
 30
0.0
 40
27.0
 41
0.0
 71
     2
 72
     1
  1
SCALA
  7
SLDTEXTSTYLE0
 73
     1
 44
1.0
  0
MTEXT
  5
F2
330
EE
100
AcDbEntity
  8
0
  6
Continuous
 62
     0
370
     0
100
AcDbMText
 10
53.4147810657
 20
-2.4595061469
 30
0.0
 40
55.5625
 41
0.0
 71
     2
 72
     1
  1
1:1
  7
SLDTEXTSTYLE0
 73
     1
 44
1.0
  0
ENDBLK
  5
F0
330
EE
100
AcDbEntity
  8
0
100
AcDbBlockEnd
  0
ENDSEC
  0
SECTION
  2
ENTITIES
  0
HATCH
  5
74
330
1F
100
AcDbEntity
  8
0
  6
Continuous
 62
     7
100
AcDbHatch
 10
0.0
 20
0.0
 30
0.0
210
0.0
220
0.0
230
1.0
  2
SOLID
 70
     1
 71
     0
 91
        2
 92
        0
 93
        6
 72
     1
 10
3510.364839630325
 20
478.9717232620642
 11
3534.971866308667
 21
478.9717232620642
 72
     3
 10
3526.618147735648
 20
497.9339160554321
 11
40.63327027197528
 21
0.0
 40
0.4768529109443385
 50
293.775699558261
 51
426.2243004403767
 73
     1
 72
     1
 10
3534.971866309184
 20
516.8961088487492
 11
3485.984877466922
 21
516.8961088487492
 72
     1
 10
3485.984877466922
 20
516.8961088487492
 11
3485.984877466922
 21
457.3006457872621
 72
     1
 10
3485.984877466922
 20
457.3006457872621
 11
3510.364839630325
 21
457.3006457872621
 72
     1
 10
3510.364839630325
 20
457.3006457872621
 11
3510.364839630325
 21
478.9717232620642
 97
        0
 92
        0
 93
        6
 72
     3
 10
3525.263705395451
 20
497.9339160554321
 11
14.89886576646227
 21
0.0
 40
0.5895245510672578
 50
316.3365658560249
 51
403.6634341442267
 73
     0
 72
     2
 10
3529.385821470631
 20
500.6428007400895
 40
10.83553873881616
 50
69.99121011132848
 51
90.0
 73
     0
 72
     1
 10
3529.385821470631
 20
489.8072620012733
 11
3510.364839629721
 21
489.8072620012733
 72
     1
 10
3510.364839629721
 20
489.8072620012733
 11
3510.364839629721
 21
506.060570109435
 72
     1
 10
3510.364839629721
 20
506.060570109435
 11
3529.385821471518
 21
506.060570109435
 72
     2
 10
3529.385821471518
 20
495.2250313732109
 40
10.83553873622417
 50
270.0000000000008
 51
290.0087898889544
 73
     0
 97
        0
 75
     0
 76
     1
 98
        1
 10
0.0
 20
0.0
  0
HATCH
  5
75
330
1F
100
AcDbEntity
  8
0
  6
Continuous
 62
     7
100
AcDbHatch
 10
0.0
 20
0.0
 30
0.0
210
0.0
220
0.0
230
1.0
  2
SOLID
 70
     1
 71
     0
 91
        1
 92
        0
 93
       12
 72
     1
 10
3653.935727922185
 20
516.89610884631
 11
3572.669187380694
 21
516.89610884631
 72
     1
 10
3572.669187380694
 20
516.89610884631
 11
3572.669187380694
 21
457.300645784823
 72
     1
 10
3572.669187380694
 20
457.300645784823
 11
3653.935727922185
 21
457.300645784823
 72
     1
 10
3653.935727922185
 20
457.300645784823
 11
3653.935727922185
 21
468.136184519505
 72
     1
 10
3653.935727922185
 20
468.136184519505
 11
3599.758034227767
 21
468.136184519505
 72
     1
 10
3599.758034227767
 20
468.136184519505
 11
3599.758034227767
 21
481.6806079430411
 72
     1
 10
3599.758034227767
 20
481.6806079430411
 11
3648.517958554844
 21
481.6806079430411
 72
     1
 10
3648.517958554844
 20
481.6806079430411
 11
3648.517958554844
 21
492.5161466829075
 72
     1
 10
3648.517958554844
 20
492.5161466829075
 11
3599.758034227767
 21
492.5161466829075
 72
     1
 10
3599.758034227767
 20
492.5161466829075
 11
3599.758034227767
 21
506.0605701064436
 72
     1
 10
3599.758034227767
 20
506.0605701064436
 11
3653.935727922185
 21
506.0605701064436
 72
     1
 10
3653.935727922185
 20
506.0605701064436
 11
3653.935727922185
 21
516.89610884631
 97
        0
 75
     0
 76
     1
 98
        1
 10
0.0
 20
0.0
  0
HATCH
  5
76
330
1F
100
AcDbEntity
  8
0
  6
Continuous
 62
     7
100
AcDbHatch
 10
0.0
 20
0.0
 30
0.0
210
0.0
220
0.0
230
1.0
  2
SOLID
 70
     1
 71
     0
 91
        1
 92
        0
 93
        6
 72
     1
 10
3968.166351360068
 20
516.896108849379
 11
3941.077504512995
 21
516.896108849379
 72
     1
 10
3941.077504512995
 20
516.896108849379
 11
3941.077504512995
 21
457.3006457878918
 72
     1
 10
3941.077504512995
 20
457.3006457878918
 11
4014.217391003474
 21
457.3006457878918
 72
     1
 10
4014.217391003474
 20
457.3006457878918
 11
4014.217391003474
 21
470.8450692114284
 72
     1
 10
4014.217391003474
 20
470.8450692114284
 11
3968.166351360068
 21
470.8450692114284
 72
     1
 10
3968.166351360068
 20
470.8450692114284
 11
3968.166351360068
 21
516.896108849379
 97
        0
 75
     0
 76
     1
 98
        1
 10
0.0
 20
0.0
  0
HATCH
  5
77
330
1F
100
AcDbEntity
  8
0
  6
Continuous
 62
     7
100
AcDbHatch
 10
0.0
 20
0.0
 30
0.0
210
0.0
220
0.0
230
1.0
  2
SOLID
 70
     1
 71
     0
 91
        1
 92
        0
 93
        4
 72
     1
 10
4016.926275686005
 20
516.8961088487489
 11
4016.926275686005
 21
457.3006457872619
 72
     1
 10
4016.926275686005
 20
457.3006457872619
 11
4044.015122533078
 21
457.3006457872619
 72
     1
 10
4044.015122533078
 20
457.3006457872619
 11
4044.015122533078
 21
516.8961088487489
 72
     1
 10
4044.015122533078
 20
516.8961088487489
 11
4016.926275686005
 21
516.8961088487489
 97
        0
 75
     0
 76
     1
 98
        1
 10
0.0
 20
0.0
  0
HATCH
  5
78
330
1F
100
AcDbEntity
  8
0
  6
Continuous
 62
     7
100
AcDbHatch
 10
0.0
 20
0.0
 30
0.0
210
0.0
220
0.0
230
1.0
  2
SOLID
 70
     1
 71
     0
 91
        2
 92
        0
 93
        4
 72
     3
 10
3702.695652247627
 20
487.0983773139296
 11
43.3421549567338
 21
0.0
 40
0.6929224243374511
 50
280.2934314618138
 51
439.7065685387132
 73
     1
 72
     1
 10
3708.107289002345
 20
516.8961088463723
 11
3659.353497294997
 21
516.896108846372
 72
     1
 10
3659.353497294997
 20
516.896108846372
 11
3659.353497294997
 21
457.3006457815111
 72
     1
 10
3659.353497294997
 20
457.3006457815111
 11
3708.107289002623
 21
457.3006457815111
 97
        0
 92
        0
 93
        6
 72
     2
 10
3709.420759151997
 20
487.0983773132712
 40
16.25330810997023
 50
56.16906508602241
 51
90.0
 73
     0
 72
     1
 10
3709.420759151997
 20
470.8450692033011
 11
3683.73345945474
 21
470.8450692033011
 72
     1
 10
3683.73345945474
 20
470.8450692033011
 11
3683.73345945474
 21
503.3516854240493
 72
     1
 10
3683.73345945474
 20
503.3516854240493
 11
3709.420759151997
 21
503.3516854240493
 72
     2
 10
3709.420759151997
 20
487.0983773132712
 40
16.25330811077806
 50
270.0000000000008
 51
303.8314447476084
 73
     0
 72
     3
 10
3693.214555856416
 20
487.0983773139296
 11
33.86105856006918
 21
0.0
 40
0.5985848325441406
 50
331.8713554011804
 51
388.1288999924611
 73
     0
 97
        0
 75
     0
 76
     1
 98
        1
 10
0.0
 20
0.0
  0
HATCH
  5
79
330
1F
100
AcDbEntity
  8
0
  6
Continuous
 62
     7
100
AcDbHatch
 10
0.0
 20
0.0
 30
0.0
210
0.0
220
0.0
230
1.0
  2
SOLID
 70
     1
 71
     0
 91
        3
 92
        0
 93
       19
 72
     1
 10
3838.305303288919
 20
472.1564369380282
 11
3840.533301976077
 21
463.4514816274054
 72
     2
 10
3848.180349956368
 20
465.1715759510745
 40
7.838116310390116
 50
192.676878510139
 51
204.7368873206727
 73
     1
 72
     1
 10
3841.061467316795
 20
461.891701371279
 11
3876.06427207871
 21
516.896108849379
 72
     1
 10
3876.06427207871
 20
516.896108849379
 11
3903.153118925783
 21
516.896108849379
 72
     1
 10
3903.153118925783
 20
516.896108849379
 11
3941.077504512995
 21
457.3006457878918
 72
     1
 10
3941.077504512995
 20
457.3006457878918
 11
3913.988657665649
 21
457.3006457878918
 72
     1
 10
3913.988657665649
 20
457.3006457878918
 11
3907.893667124934
 21
468.136184522574
 72
     1
 10
3907.893667124934
 20
468.136184522574
 11
3871.323723879558
 21
468.136184522574
 72
     1
 10
3871.323723879558
 20
468.136184522574
 11
3865.228733338844
 21
457.3006457878918
 72
     1
 10
3865.228733338844
 20
457.3006457878918
 11
3819.177693694659
 21
457.3006457878918
 72
     1
 10
3819.177693694659
 20
457.3006457878918
 11
3819.177693694659
 21
468.1361845239816
 72
     2
 10
3808.342154954792
 20
468.1361845239816
 40
10.83553873986634
 50
0.0
 51
90.0
 73
     1
 72
     1
 10
3808.342154954792
 20
478.9717232638475
 11
3781.253308107446
 21
478.9717232638475
 72
     1
 10
3781.253308107446
 20
478.9717232638475
 11
3781.253308107446
 21
457.3006457892997
 72
     1
 10
3781.253308107446
 20
457.3006457892997
 11
3756.873345944045
 21
457.3006457892997
 72
     1
 10
3756.873345944045
 20
457.3006457892997
 11
3756.873345944045
 21
516.8961088507866
 72
     1
 10
3756.873345944045
 20
516.8961088507866
 11
3813.02888745868
 21
516.8961088507866
 72
     3
 10
3807.044921560378
 20
499.4046031234453
 11
36.48999933802743
 21
0.0
 40
0.4859291160023138
 50
288.8861745463018
 51
398.6942257036358
 73
     0
 72
     2
 10
3823.556377394376
 20
469.4441941062505
 40
14.99623540163429
 50
279.2678272406091
 51
349.5800515720783
 73
     0
 97
        0
 92
        0
 93
        3
 72
     1
 10
3889.608695501106
 20
500.6428007391028
 11
3877.418714419404
 21
478.9717232593709
 72
     1
 10
3877.418714419404
 20
478.9717232593709
 11
3901.798676582808
 21
478.9717232593709
 72
     1
 10
3901.798676582808
 20
478.9717232593709
 11
3889.608695501106
 21
500.6428007391028
 97
        0
 92
        0
 93
        6
 72
     2
 10
3807.717258628007
 20
497.933916056143
 40
8.126654055321543
 50
270.0000000000008
 51
305.5869104965617
 73
     1
 72
     3
 10
3798.861058561583
 20
497.9339160554321
 11
17.6077504512262
 21
0.0
 40
0.5900077182209744
 50
334.0585416903787
 51
385.9414583083991
 73
     1
 72
     2
 10
3807.717258628007
 20
497.933916056143
 40
8.126654054164838
 50
54.41308949502037
 51
90.0
 73
     1
 72
     1
 10
3807.717258628007
 20
506.0605701103083
 11
3781.253308106577
 21
506.0605701103083
 72
     1
 10
3781.253308106577
 20
506.0605701103083
 11
3781.253308106577
 21
489.807262000821
 72
     1
 10
3781.253308106577
 20
489.807262000821
 11
3807.717258628007
 21
489.8072620008215
 97
        0
 75
     0
 76
     1
 98
        1
 10
0.0
 20
0.0
  0
LINE
  5
7A
330
1F
100
AcDbEntity
  8
0
  6
Continuous
 62
     7
370
    25
100
AcDbLine
 10
4305.0
 20
150.0
 30
0.0
 11
4305.0
 21
3000.0
 31
0.0
  0
LINE
  5
7B
330
1F
100
AcDbEntity
  8
0
  6
Continuous
 62
   179
370
    18
100
AcDbLine
 10
3485.9848774669
 20
516.8961088487
 30
0.0
 11
3485.9848774669
 21
457.3006457873
 31
0.0
  0
LINE
  5
7C
330
1F
100
AcDbEntity
  8
0
  6
Continuous
 62
   179
370
    18
100
AcDbLine
 10
3485.9848774669
 20
516.8961088487
 30
0.0
 11
3534.9718663092
 21
516.8961088487
 31
0.0
  0
LINE
  5
7D
330
1F
100
AcDbEntity
  8
0
  6
Continuous
 62
   179
370
    18
100
AcDbLine
 10
3485.9848774669
 20
457.3006457873
 30
0.0
 11
3510.3648396303
 21
457.3006457873
 31
0.0
  0
LINE
  5
7E
330
1F
100
AcDbEntity
  8
0
  6
Continuous
 62
   179
370
    18
100
AcDbLine
 10
3510.3648396303
 20
457.3006457873
 30
0.0
 11
3510.3648396303
 21
478.9717232621
 31
0.0
  0
LINE
  5
7F
330
1F
100
AcDbEntity
  8
0
  6
Continuous
 62
   179
370
    18
100
AcDbLine
 10
3534.9718663087
 20
478.9717232621
 30
0.0
 11
3510.3648396303
 21
478.9717232621
 31
0.0
  0
LINE
  5
80
330
1F
100
AcDbEntity
  8
0
  6
Continuous
 62
   179
370
    18
100
AcDbLine
 10
3510.3648396297
 20
489.8072620013
 30
0.0
 11
3510.3648396297
 21
506.0605701094
 31
0.0
  0
LINE
  5
81
330
1F
100
AcDbEntity
  8
0
  6
Continuous
 62
   179
370
    18
100
AcDbLine
 10
3510.3648396297
 20
506.0605701094
 30
0.0
 11
3529.3858214715
 21
506.0605701094
 31
0.0
  0
LINE
  5
82
330
1F
100
AcDbEntity
  8
0
  6
Continuous
 62
   179
370
    18
100
AcDbLine
 10
3510.3648396297
 20
489.8072620013
 30
0.0
 11
3529.3858214706
 21
489.8072620013
 31
0.0
  0
LINE
  5
83
330
1F
100
AcDbEntity
  8
0
  6
Continuous
 62
   179
370
    18
100
AcDbLine
 10
3572.6691873807
 20
516.8961088463
 30
0.0
 11
3653.9357279222
 21
516.8961088463
 31
0.0
  0
LINE
  5
84
330
1F
100
AcDbEntity
  8
0
  6
Continuous
 62
   179
370
    18
100
AcDbLine
 10
3653.9357279222
 20
516.8961088463
 30
0.0
 11
3653.9357279222
 21
506.0605701064
 31
0.0
  0
LINE
  5
85
330
1F
100
AcDbEntity
  8
0
  6
Continuous
 62
   179
370
    18
100
AcDbLine
 10
3653.9357279222
 20
506.0605701064
 30
0.0
 11
3599.7580342278
 21
506.0605701064
 31
0.0
  0
LINE
  5
86
330
1F
100
AcDbEntity
  8
0
  6
Continuous
 62
   179
370
    18
100
AcDbLine
 10
3599.7580342278
 20
506.0605701064
 30
0.0
 11
3599.7580342278
 21
492.5161466829
 31
0.0
  0
LINE
  5
87
330
1F
100
AcDbEntity
  8
0
  6
Continuous
 62
   179
370
    18
100
AcDbLine
 10
3599.7580342278
 20
492.5161466829
 30
0.0
 11
3648.5179585548
 21
492.5161466829
 31
0.0
  0
LINE
  5
88
330
1F
100
AcDbEntity
  8
0
  6
Continuous
 62
   179
370
    18
100
AcDbLine
 10
3648.5179585548
 20
492.5161466829
 30
0.0
 11
3648.5179585548
 21
481.680607943
 31
0.0
  0
LINE
  5
89
330
1F
100
AcDbEntity
  8
0
  6
Continuous
 62
   179
370
    18
100
AcDbLine
 10
3648.5179585548
 20
481.680607943
 30
0.0
 11
3599.7580342278
 21
481.680607943
 31
0.0
  0
LINE
  5
8A
330
1F
100
AcDbEntity
  8
0
  6
Continuous
 62
   179
370
    18
100
AcDbLine
 10
3599.7580342278
 20
481.680607943
 30
0.0
 11
3599.7580342278
 21
468.1361845195
 31
0.0
  0
LINE
  5
8B
330
1F
100
AcDbEntity
  8
0
  6
Continuous
 62
   179
370
    18
100
AcDbLine
 10
3599.7580342278
 20
468.1361845195
 30
0.0
 11
3653.9357279222
 21
468.1361845195
 31
0.0
  0
LINE
  5
8C
330
1F
100
AcDbEntity
  8
0
  6
Continuous
 62
   179
370
    18
100
AcDbLine
 10
3653.9357279222
 20
468.1361845195
 30
0.0
 11
3653.9357279222
 21
457.3006457848
 31
0.0
  0
LINE
  5
8D
330
1F
100
AcDbEntity
  8
0
  6
Continuous
 62
   179
370
    18
100
AcDbLine
 10
3653.9357279222
 20
457.3006457848
 30
0.0
 11
3572.6691873807
 21
457.3006457848
 31
0.0
  0
LINE
  5
8E
330
1F
100
AcDbEntity
  8
0
  6
Continuous
 62
   179
370
    18
100
AcDbLine
 10
3659.353497295
 20
516.8961088464
 30
0.0
 11
3659.353497295
 21
457.3006457815
 31
0.0
  0
LINE
  5
8F
330
1F
100
AcDbEntity
  8
0
  6
Continuous
 62
   179
370
    18
100
AcDbLine
 10
3659.353497295
 20
516.8961088464
 30
0.0
 11
3708.1072890023
 21
516.8961088464
 31
0.0
  0
LINE
  5
90
330
1F
100
AcDbEntity
  8
0
  6
Continuous
 62
   179
370
    18
100
AcDbLine
 10
3708.1072890026
 20
457.3006457815
 30
0.0
 11
3659.353497295
 21
457.3006457815
 31
0.0
  0
LINE
  5
91
330
1F
100
AcDbEntity
  8
0
  6
Continuous
 62
   179
370
    18
100
AcDbLine
 10
3683.7334594547
 20
487.0983773105
 30
0.0
 11
3683.7334594547
 21
470.8450692033
 31
0.0
  0
LINE
  5
92
330
1F
100
AcDbEntity
  8
0
  6
Continuous
 62
   179
370
    18
100
AcDbLine
 10
3683.7334594547
 20
470.8450692033
 30
0.0
 11
3709.420759152
 21
470.8450692033
 31
0.0
  0
LINE
  5
93
330
1F
100
AcDbEntity
  8
0
  6
Continuous
 62
   179
370
    18
100
AcDbLine
 10
3683.7334594547
 20
487.0983773105
 30
0.0
 11
3683.7334594547
 21
503.351685424
 31
0.0
  0
LINE
  5
94
330
1F
100
AcDbEntity
  8
0
  6
Continuous
 62
   179
370
    18
100
AcDbLine
 10
3683.7334594547
 20
503.351685424
 30
0.0
 11
3709.420759152
 21
503.351685424
 31
0.0
  0
LINE
  5
95
330
1F
100
AcDbEntity
  8
0
  6
Continuous
 62
   179
370
    18
100
AcDbLine
 10
3756.873345944
 20
516.8961088508
 30
0.0
 11
3756.873345944
 21
457.3006457893
 31
0.0
  0
LINE
  5
96
330
1F
100
AcDbEntity
  8
0
  6
Continuous
 62
     7
370
    18
100
AcDbLine
 10
4093.1984921262
 20
420.0000000006
 30
0.0
 11
4093.1984921262
 21
285.0000000003
 31
0.0
  0
LINE
  5
97
330
1F
100
AcDbEntity
  8
0
  6
Continuous
 62
   179
370
    18
100
AcDbLine
 10
3756.873345944
 20
457.3006457893
 30
0.0
 11
3781.2533081074
 21
457.3006457893
 31
0.0
  0
LINE
  5
98
330
1F
100
AcDbEntity
  8
0
  6
Continuous
 62
   179
370
    18
100
AcDbLine
 10
3781.2533081074
 20
457.3006457893
 30
0.0
 11
3781.2533081074
 21
478.9717232638
 31
0.0
  0
LINE
  5
99
330
1F
100
AcDbEntity
  8
0
  6
Continuous
 62
   179
370
    18
100
AcDbLine
 10
3781.2533081074
 20
478.9717232638
 30
0.0
 11
3808.3421549548
 21
478.9717232638
 31
0.0
  0
LINE
  5
9A
330
1F
100
AcDbEntity
  8
0
  6
Continuous
 62
   179
370
    18
100
AcDbLine
 10
3819.1776936947
 20
468.136184524
 30
0.0
 11
3819.1776936947
 21
457.3006457879
 31
0.0
  0
LINE
  5
9B
330
1F
100
AcDbEntity
  8
0
  6
Continuous
 62
   179
370
    18
100
AcDbLine
 10
3781.2533081066
 20
489.8072620008
 30
0.0
 11
3781.2533081066
 21
506.0605701103
 31
0.0
  0
LINE
  5
9C
330
1F
100
AcDbEntity
  8
0
  6
Continuous
 62
   179
370
    18
100
AcDbLine
 10
3781.2533081066
 20
506.0605701103
 30
0.0
 11
3807.717258628
 21
506.0605701103
 31
0.0
  0
LINE
  5
9D
330
1F
100
AcDbEntity
  8
0
  6
Continuous
 62
   179
370
    18
100
AcDbLine
 10
3781.2533081066
 20
489.8072620008
 30
0.0
 11
3807.717258628
 21
489.8072620008
 31
0.0
  0
LINE
  5
9E
330
1F
100
AcDbEntity
  8
0
  6
Continuous
 62
   179
370
    18
100
AcDbLine
 10
3838.3053032889
 20
472.156436938
 30
0.0
 11
3840.5333019761
 21
463.4514816274
 31
0.0
  0
LINE
  5
9F
330
1F
100
AcDbEntity
  8
0
  6
Continuous
 62
     7
370
    25
100
AcDbLine
 10
4305.0
 20
3000.0
 30
0.0
 11
150.0
 21
3000.0
 31
0.0
  0
LINE
  5
A0
330
1F
100
AcDbEntity
  8
0
  6
Continuous
 62
     7
370
    18
100
AcDbLine
 10
4093.1984921262
 20
285.0000000003
 30
0.0
 11
4093.1984921262
 21
150.0
 31
0.0
  0
LINE
  5
A1
330
1F
100
AcDbEntity
  8
0
  6
Continuous
 62
     7
370
    25
100
AcDbLine
 10
150.0
 20
3000.0
 30
0.0
 11
150.0
 21
150.0
 31
0.0
  0
LINE
  5
A2
330
1F
100
AcDbEntity
  8
0
  6
Continuous
 62
     7
370
    25
100
AcDbLine
 10
3225.0
 20
555.0000000009
 30
0.0
 11
4305.0
 21
555.0000000009
 31
0.0
  0
LINE
  5
A3
330
1F
100
AcDbEntity
  8
0
  6
Continuous
 62
    19
370
    18
100
AcDbLine
 10
4192.9326190259
 20
240.4182064643
 30
0.0
 11
4145.1273994681
 21
231.1227471059
 31
0.0
  0
LINE
  5
A4
330
1F
100
AcDbEntity
  8
0
  6
Continuous
 62
    19
370
    18
100
AcDbLine
 10
4232.0258777281
 20
248.2322360861
 30
0.0
 11
4232.0258777281
 21
187.321545177
 31
0.0
  0
LINE
  5
A5
330
1F
100
AcDbEntity
  8
0
  6
Continuous
 62
    19
370
    18
100
AcDbLine
 10
4192.9326190259
 20
240.4182064643
 30
0.0
 11
4192.9326190259
 21
195.1355747988
 31
0.0
  0
LINE
  5
A6
330
1F
100
AcDbEntity
  8
0
  6
Continuous
 62
     7
370
    25
100
AcDbLine
 10
150.0
 20
150.0
 30
0.0
 11
4305.0
 21
150.0
 31
0.0
  0
LINE
  5
A7
330
1F
100
AcDbEntity
  8
0
  6
Continuous
 62
    19
370
    18
100
AcDbLine
 10
4145.1273994681
 20
231.1227471059
 30
0.0
 11
4145.1273994681
 21
204.4310341572
 31
0.0
  0
LINE
  5
A8
330
1F
100
AcDbEntity
  8
0
  6
Continuous
 62
   179
370
    18
100
AcDbLine
 10
3819.1776936947
 20
457.3006457879
 30
0.0
 11
3865.2287333388
 21
457.3006457879
 31
0.0
  0
LINE
  5
A9
330
1F
100
AcDbEntity
  8
0
  6
Continuous
 62
    19
370
    18
100
AcDbLine
 10
4192.9326190259
 20
195.1355747988
 30
0.0
 11
4145.1273994681
 21
204.4310341572
 31
0.0
  0
LINE
  5
AA
330
1F
100
AcDbEntity
  8
0
  6
CENTERX2
 62
    19
370
    18
100
AcDbLine
 10
4258.3810686372
 20
217.7768906315
 30
0.0
 11
4139.1778035964
 21
217.7768906315
 31
0.0
  0
LINE
  5
AB
330
1F
100
AcDbEntity
  8
0
  6
Continuous
 62
   179
370
    18
100
AcDbLine
 10
3756.873345944
 20
516.8961088508
 30
0.0
 11
3813.0288874587
 21
516.8961088508
 31
0.0
  0
LINE
  5
AC
330
1F
100
AcDbEntity
  8
0
  6
Continuous
 62
   179
370
    18
100
AcDbLine
 10
3572.6691873807
 20
516.8961088463
 30
0.0
 11
3572.6691873807
 21
457.3006457848
 31
0.0
  0
LINE
  5
AD
330
1F
100
AcDbEntity
  8
0
  6
Continuous
 62
   179
370
    18
100
AcDbLine
 10
3876.0642720787
 20
516.8961088494
 30
0.0
 11
3903.1531189258
 21
516.8961088494
 31
0.0
  0
LINE
  5
AE
330
1F
100
AcDbEntity
  8
0
  6
Continuous
 62
   179
370
    18
100
AcDbLine
 10
3876.0642720787
 20
516.8961088494
 30
0.0
 11
3841.0614673168
 21
461.8917013713
 31
0.0
  0
LINE
  5
AF
330
1F
100
AcDbEntity
  8
0
  6
Continuous
 62
   179
370
    18
100
AcDbLine
 10
3865.2287333388
 20
457.3006457879
 30
0.0
 11
3871.3237238796
 21
468.1361845226
 31
0.0
  0
LINE
  5
B0
330
1F
100
AcDbEntity
  8
0
  6
Continuous
 62
   179
370
    18
100
AcDbLine
 10
3889.6086955011
 20
500.6428007391
 30
0.0
 11
3901.7986765828
 21
478.9717232594
 31
0.0
  0
LINE
  5
B1
330
1F
100
AcDbEntity
  8
0
  6
Continuous
 62
   179
370
    18
100
AcDbLine
 10
3877.4187144194
 20
478.9717232594
 30
0.0
 11
3889.6086955011
 21
500.6428007391
 31
0.0
  0
LINE
  5
B2
330
1F
100
AcDbEntity
  8
0
  6
Continuous
 62
   179
370
    18
100
AcDbLine
 10
3877.4187144194
 20
478.9717232594
 30
0.0
 11
3901.7986765828
 21
478.9717232594
 31
0.0
  0
LINE
  5
B3
330
1F
100
AcDbEntity
  8
0
  6
Continuous
 62
   179
370
    18
100
AcDbLine
 10
3871.3237238796
 20
468.1361845226
 30
0.0
 11
3907.8936671249
 21
468.1361845226
 31
0.0
  0
LINE
  5
B4
330
1F
100
AcDbEntity
  8
0
  6
Continuous
 62
   179
370
    18
100
AcDbLine
 10
3907.8936671249
 20
468.1361845226
 30
0.0
 11
3913.9886576656
 21
457.3006457879
 31
0.0
  0
LINE
  5
B5
330
1F
100
AcDbEntity
  8
0
  6
Continuous
 62
   179
370
    18
100
AcDbLine
 10
3941.077504513
 20
516.8961088494
 30
0.0
 11
3941.077504513
 21
457.3006457879
 31
0.0
  0
LINE
  5
B6
330
1F
100
AcDbEntity
  8
0
  6
Continuous
 62
   179
370
    18
100
AcDbLine
 10
3903.1531189258
 20
516.8961088494
 30
0.0
 11
3941.077504513
 21
457.3006457879
 31
0.0
  0
LINE
  5
B7
330
1F
100
AcDbEntity
  8
0
  6
Continuous
 62
   179
370
    18
100
AcDbLine
 10
3913.9886576656
 20
457.3006457879
 30
0.0
 11
3941.077504513
 21
457.3006457879
 31
0.0
  0
LINE
  5
B8
330
1F
100
AcDbEntity
  8
0
  6
Continuous
 62
   179
370
    18
100
AcDbLine
 10
3941.077504513
 20
457.3006457879
 30
0.0
 11
4014.2173910035
 21
457.3006457879
 31
0.0
  0
LINE
  5
B9
330
1F
100
AcDbEntity
  8
0
  6
Continuous
 62
   179
370
    18
100
AcDbLine
 10
4014.2173910035
 20
457.3006457879
 30
0.0
 11
4014.2173910035
 21
470.8450692114
 31
0.0
  0
LINE
  5
BA
330
1F
100
AcDbEntity
  8
0
  6
Continuous
 62
   179
370
    18
100
AcDbLine
 10
4014.2173910035
 20
470.8450692114
 30
0.0
 11
3968.1663513601
 21
470.8450692114
 31
0.0
  0
LINE
  5
BB
330
1F
100
AcDbEntity
  8
0
  6
Continuous
 62
   179
370
    18
100
AcDbLine
 10
3968.1663513601
 20
470.8450692114
 30
0.0
 11
3968.1663513601
 21
516.8961088494
 31
0.0
  0
LINE
  5
BC
330
1F
100
AcDbEntity
  8
0
  6
Continuous
 62
   179
370
    18
100
AcDbLine
 10
3941.077504513
 20
516.8961088494
 30
0.0
 11
3968.1663513601
 21
516.8961088494
 31
0.0
  0
LINE
  5
BD
330
1F
100
AcDbEntity
  8
0
  6
Continuous
 62
   179
370
    18
100
AcDbLine
 10
4016.926275686
 20
516.8961088487
 30
0.0
 11
4016.926275686
 21
457.3006457873
 31
0.0
  0
LINE
  5
BE
330
1F
100
AcDbEntity
  8
0
  6
Continuous
 62
   179
370
    18
100
AcDbLine
 10
4044.0151225331
 20
516.8961088487
 30
0.0
 11
4044.0151225331
 21
457.3006457873
 31
0.0
  0
LINE
  5
BF
330
1F
100
AcDbEntity
  8
0
  6
Continuous
 62
   179
370
    18
100
AcDbLine
 10
4016.926275686
 20
516.8961088487
 30
0.0
 11
4044.0151225331
 21
516.8961088487
 31
0.0
  0
LINE
  5
C0
330
1F
100
AcDbEntity
  8
0
  6
Continuous
 62
   179
370
    18
100
AcDbLine
 10
4016.926275686
 20
457.3006457873
 30
0.0
 11
4044.0151225331
 21
457.3006457873
 31
0.0
  0
LINE
  5
C1
330
1F
100
AcDbEntity
  8
0
  6
Continuous
 62
   179
370
    18
100
AcDbLine
 10
4056.1727466361
 20
511.9395831343
 30
0.0
 11
4062.4300319759
 21
511.9395831343
 31
0.0
  0
LINE
  5
C2
330
1F
100
AcDbEntity
  8
0
  6
Continuous
 62
   179
370
    18
100
AcDbLine
 10
4062.4300319759
 20
507.8762561058
 30
0.0
 11
4056.1727466361
 21
507.8762561058
 31
0.0
  0
LINE
  5
C3
330
1F
100
AcDbEntity
  8
0
  6
Continuous
 62
   179
370
    18
100
AcDbLine
 10
4056.1727466361
 20
507.8762561058
 30
0.0
 11
4056.1727466361
 21
511.9395831343
 31
0.0
  0
LINE
  5
C4
330
1F
100
AcDbEntity
  8
0
  6
Continuous
 62
   179
370
    18
100
AcDbLine
 10
4056.1727466361
 20
507.8762561058
 30
0.0
 11
4060.2360736616
 21
507.8762561058
 31
0.0
  0
LINE
  5
C5
330
1F
100
AcDbEntity
  8
0
  6
Continuous
 62
   179
370
    18
100
AcDbLine
 10
4056.1727466361
 20
507.8762561058
 30
0.0
 11
4056.1727466361
 21
501.7812655676
 31
0.0
  0
LINE
  5
C6
330
1F
100
AcDbEntity
  8
0
  6
Continuous
 62
   179
370
    18
100
AcDbLine
 10
4064.2994006871
 20
501.7812655676
 30
0.0
 11
4060.2360736616
 21
507.8762561058
 31
0.0
  0
LINE
  5
C7
330
1F
100
AcDbEntity
  8
0
  6
Continuous
 62
     7
370
    18
100
AcDbLine
 10
3225.0
 20
285.0000000003
 30
0.0
 11
4305.0
 21
285.0000000003
 31
0.0
  0
LINE
  5
C8
330
1F
100
AcDbEntity
  8
0
  6
Continuous
 62
     7
370
    18
100
AcDbLine
 10
4305.0
 20
420.0000000006
 30
0.0
 11
3225.0
 21
420.0000000006
 31
0.0
  0
LINE
  5
C9
330
1F
100
AcDbEntity
  8
0
  6
Continuous
 62
     7
370
    18
100
AcDbLine
 10
150.0
 20
825.0
 30
0.0
 11
150.0
 21
975.0
 31
0.0
  0
LINE
  5
CA
330
1F
100
AcDbEntity
  8
0
  6
Continuous
 62
     7
370
    18
100
AcDbLine
 10
150.0
 20
975.0
 30
0.0
 11
150.0
 21
1125.0
 31
0.0
  0
LINE
  5
CB
330
1F
100
AcDbEntity
  8
0
  6
Continuous
 62
     7
370
    18
100
AcDbLine
 10
150.0
 20
1125.0
 30
0.0
 11
150.0
 21
1275.0
 31
0.0
  0
LINE
  5
CC
330
1F
100
AcDbEntity
  8
0
  6
Continuous
 62
     7
370
    18
100
AcDbLine
 10
150.0
 20
1275.0
 30
0.0
 11
150.0
 21
1425.0
 31
0.0
  0
LINE
  5
CD
330
1F
100
AcDbEntity
  8
0
  6
Continuous
 62
     7
370
    18
100
AcDbLine
 10
150.0
 20
1425.0
 30
0.0
 11
150.0
 21
1575.0
 31
0.0
  0
LINE
  5
CE
330
1F
100
AcDbEntity
  8
0
  6
Continuous
 62
     7
370
    18
100
AcDbLine
 10
150.0
 20
1575.0
 30
0.0
 11
150.0
 21
1725.0
 31
0.0
  0
LINE
  5
CF
330
1F
100
AcDbEntity
  8
0
  6
Continuous
 62
     7
370
    18
100
AcDbLine
 10
150.0
 20
1725.0
 30
0.0
 11
150.0
 21
1875.0
 31
0.0
  0
LINE
  5
D0
330
1F
100
AcDbEntity
  8
0
  6
Continuous
 62
     7
370
    18
100
AcDbLine
 10
150.0
 20
1875.0
 30
0.0
 11
150.0
 21
2025.0
 31
0.0
  0
LINE
  5
D1
330
1F
100
AcDbEntity
  8
0
  6
Continuous
 62
     7
370
    18
100
AcDbLine
 10
150.0
 20
2025.0
 30
0.0
 11
150.0
 21
2175.0
 31
0.0
  0
LINE
  5
D2
330
1F
100
AcDbEntity
  8
0
  6
Continuous
 62
     7
370
    18
100
AcDbLine
 10
150.0
 20
2175.0
 30
0.0
 11
150.0
 21
2325.0
 31
0.0
  0
LINE
  5
D3
330
1F
100
AcDbEntity
  8
0
  6
Continuous
 62
     7
370
    25
100
AcDbLine
 10
3225.0
 20
555.0000000009
 30
0.0
 11
3225.0
 21
150.0
 31
0.0
  0
ARC
  5
D4
330
1F
100
AcDbEntity
  8
0
  6
Continuous
 62
   179
370
    18
100
AcDbCircle
 10
3529.3858214715
 20
495.2250313732
 30
0.0
 40
10.83553873622431
100
AcDbArc
 50
69.991210111
 51
90.0
  0
ARC
  5
D5
330
1F
100
AcDbEntity
  8
0
  6
Continuous
 62
   179
370
    18
100
AcDbCircle
 10
3529.3858214706
 20
500.6428007401
 30
0.0
 40
10.83553873881613
100
AcDbArc
 50
270.0
 51
290.0087898887
  0
ARC
  5
D6
330
1F
100
AcDbEntity
  8
0
  6
Continuous
 62
   179
370
    18
100
AcDbCircle
 10
3709.420759152
 20
487.0983773133
 30
0.0
 40
16.25330811077811
100
AcDbArc
 50
56.1685552524
 51
90.0
  0
ARC
  5
D7
330
1F
100
AcDbEntity
  8
0
  6
Continuous
 62
   179
370
    18
100
AcDbCircle
 10
3709.420759152
 20
487.0983773133
 30
0.0
 40
16.2533081099705
100
AcDbArc
 50
270.0
 51
303.830934914
  0
ARC
  5
D8
330
1F
100
AcDbEntity
  8
0
  6
Continuous
 62
   179
370
    18
100
AcDbCircle
 10
3808.3421549548
 20
468.136184524
 30
0.0
 40
10.83553873986693
100
AcDbArc
 50
0.0
 51
90.0
  0
ARC
  5
D9
330
1F
100
AcDbEntity
  8
0
  6
Continuous
 62
   179
370
    18
100
AcDbCircle
 10
3807.717258628
 20
497.9339160561
 30
0.0
 40
8.126654054165272
100
AcDbArc
 50
54.413089495
 51
90.0
  0
ARC
  5
DA
330
1F
100
AcDbEntity
  8
0
  6
Continuous
 62
   179
370
    18
100
AcDbCircle
 10
3807.717258628
 20
497.9339160561
 30
0.0
 40
8.126654055322035
100
AcDbArc
 50
270.0
 51
305.5869104966
  0
ARC
  5
DB
330
1F
100
AcDbEntity
  8
0
  6
Continuous
 62
   179
370
    18
100
AcDbCircle
 10
3823.5563773944
 20
469.4441941063
 30
0.0
 40
14.99623540163448
100
AcDbArc
 50
10.4199484279
 51
80.7321727594
  0
ARC
  5
DC
330
1F
100
AcDbEntity
  8
0
  6
Continuous
 62
   179
370
    18
100
AcDbCircle
 10
3848.1803499564
 20
465.1715759511
 30
0.0
 40
7.838116310390694
100
AcDbArc
 50
192.6768785101
 51
204.7368873207
  0
CIRCLE
  5
DD
330
1F
100
AcDbEntity
  8
0
  6
Continuous
 62
   179
370
    18
100
AcDbCircle
 10
4059.4296312926
 20
506.8013546003
 30
0.0
 40
8.8951532178462
  0
CIRCLE
  5
DE
330
1F
100
AcDbEntity
  8
0
  6
Continuous
 62
    19
370
    18
100
AcDbCircle
 10
4232.0258777281
 20
217.7768906315
 30
0.0
 40
12.88061814414652
  0
CIRCLE
  5
DF
330
1F
100
AcDbEntity
  8
0
  6
Continuous
 62
    19
370
    18
100
AcDbCircle
 10
4232.0258777281
 20
217.7768906315
 30
0.0
 40
25.16390372495578
  0
ELLIPSE
  5
E0
330
1F
100
AcDbEntity
  8
0
  6
Continuous
 62
   179
370
    18
100
AcDbEllipse
 10
3525.2637053955
 20
497.9339160554
 30
0.0
 11
14.89886576646222
 21
0.0
 31
0.0
210
0.0
220
0.0
230
1.0
 40
0.5895245511
 41
5.265715075739372
 42
7.300655538615912
  0
ELLIPSE
  5
E1
330
1F
100
AcDbEntity
  8
0
  6
Continuous
 62
   179
370
    18
100
AcDbEllipse
 10
3693.2145558564
 20
487.0983773139
 30
0.0
 11
33.86105856006907
 21
0.0
 31
0.0
210
0.0
220
0.0
230
1.0
 40
0.5985848325
 41
5.554193105221739
 42
7.01217218274472
  0
ELLIPSE
  5
E2
330
1F
100
AcDbEntity
  8
0
  6
Continuous
 62
   179
370
    18
100
AcDbEllipse
 10
3798.8610585616
 20
497.9339160554
 30
0.0
 11
17.60775045122637
 21
0.0
 31
0.0
210
0.0
220
0.0
230
1.0
 40
0.5900077182
 41
5.593675727225946
 42
6.972694887106603
  0
ELLIPSE
  5
E3
330
1F
100
AcDbEntity
  8
0
  6
Continuous
 62
   179
370
    18
100
AcDbEllipse
 10
3807.0449215604
 20
499.4046031234
 30
0.0
 11
36.4899993380277
 21
0.0
 31
0.0
210
0.0
220
0.0
230
1.0
 40
0.485929116
 41
5.257694056962845
 42
7.689248379254997
  0
ELLIPSE
  5
E4
330
1F
100
AcDbEntity
  8
0
  6
Continuous
 62
   179
370
    18
100
AcDbEllipse
 10
3702.6956522476
 20
487.0983773139
 30
0.0
 11
43.34215495673379
 21
0.0
 31
0.0
210
0.0
220
0.0
230
1.0
 40
0.6929224243
 41
4.837574201223028
 42
7.728796413142616
  0
ELLIPSE
  5
E5
330
1F
100
AcDbEntity
  8
0
  6
Continuous
 62
   179
370
    18
100
AcDbEllipse
 10
3526.6181477356
 20
497.9339160554
 30
0.0
 11
40.63327027197511
 21
0.0
 31
0.0
210
0.0
220
0.0
230
1.0
 40
0.4768529109
 41
4.919453630382234
 42
7.646916983963976
  0
ELLIPSE
  5
E6
330
1F
100
AcDbEntity
  8
0
  6
Continuous
 62
   179
370
    18
100
AcDbEllipse
 10
4062.064122662
 20
509.90791962
 30
0.0
 11
2.235278033911982
 21
0.0
 31
0.0
210
0.0
220
0.0
230
1.0
 40
0.9213369296
 41
4.876826485633795
 42
7.689544128725418
  0
MTEXT
  5
E8
330
1F
100
AcDbEntity
  8
0
  6
Continuous
 62
     7
370
     0
100
AcDbMText
 10
3347.1674181705
 20
248.4569886556
 30
0.0
 40
55.5625
 41
0.0
 71
     1
 72
     1
  1
BLT_99X99X30
  7
SLDTEXTSTYLE0
 73
     1
 44
1.0
  0
MTEXT
  5
E9
330
1F
100
AcDbEntity
  8
0
  6
Continuous
 62
     7
370
     0
100
AcDbMText
 10
3238.3268981734
 20
219.580700246
 30
0.0
 40
27.0
 41
0.0
 71
     1
 72
     1
  1
COD.
  7
SLDTEXTSTYLE0
 73
     1
 44
1.0
  0
MTEXT
  5
EA
330
1F
100
AcDbEntity
  8
0
  6
Continuous
 62
     7
370
     0
100
AcDbMText
 10
160.6282767702
 20
112.0822758273
 30
0.0
 40
27.0
 41
0.0
 71
     1
 72
     1
  1
This document is the property of PEDRALI S.p.A. who willsafeguard its rights according to the civil and penal prevision of the Law.
  7
SLDTEXTSTYLE0
 73
     1
 44
1.0
  0
MTEXT
  5
EB
330
1F
100
AcDbEntity
  8
0
  6
Continuous
 62
     7
370
     0
100
AcDbMText
 10
2161.2908979918
 20
115.1768387873
 30
0.0
 40
27.0
 41
0.0
 71
     1
 72
     1
  1
Questo disegno è posto sotto la tutela delle vigenti Leggi e non puo essere utilizzato da terze persone se non previa autorizzazione scritta della PEDRALI S.p.A.
  7
SLDTEXTSTYLE0
 73
     1
 44
1.0
  0
MTEXT
  5
EC
330
1F
100
AcDbEntity
  8
0
  6
Continuous
 62
     7
370
     0
100
AcDbMText
 10
3238.3268981734
 20
351.4653149456
 30
0.0
 40
27.0
 41
0.0
 71
     1
 72
     1
  1
SERIE:
  7
SLDTEXTSTYLE0
 73
     1
 44
1.0
  0
MTEXT
  5
ED
330
1F
100
AcDbEntity
  8
0
  6
Continuous
 62
     7
370
     0
100
AcDbMText
 10
3347.1674181705
 20
380.3416033552
 30
0.0
 40
55.5625
 41
0.0
 71
     1
 72
     1
  1
BLUME
  7
SLDTEXTSTYLE0
 73
     1
 44
1.0
  0
INSERT
  5
F3
330
1F
100
AcDbEntity
  8
0
  6
Continuous
 62
     7
370
     0
100
AcDbBlockReference
  2
SW_NOTE_0
 10
4150.4824592931
 20
363.9948192571
 30
0.0
  0
ARC
  5
F4
330
1F
100
AcDbEntity
  8
0
  6
Continuous
 62
     7
370
    25
100
AcDbCircle
 10
2145.6088512221
 20
2383.899448972
 30
0.0
 40
9.999999999999922
100
AcDbArc
 50
89.997904455
 51
150.4631236362
  0
ARC
  5
F5
330
1F
100
AcDbEntity
  8
0
  6
Continuous
 62
     7
370
    25
100
AcDbCircle
 10
2145.6088512221
 20
2383.899448972
 30
0.0
 40
9.999999999999975
100
AcDbArc
 50
29.5294935341
 51
89.997904455
  0
LINE
  5
F6
330
1F
100
AcDbEntity
  8
0
  6
Continuous
 62
     7
370
    25
100
AcDbLine
 10
2137.5479706638
 20
2388.4565115616
 30
0.0
 11
2137.5479706638
 21
2103.899448972
 31
0.0
  0
LINE
  5
F7
330
1F
100
AcDbEntity
  8
0
  6
Continuous
 62
     7
370
    25
100
AcDbLine
 10
2153.6697317805
 20
2103.899448972
 30
0.0
 11
2153.6697317805
 21
2388.4517238133
 31
0.0
  0
LINE
  5
F8
330
1F
100
AcDbEntity
  8
0
  6
Continuous
 62
     7
370
    25
100
AcDbLine
 10
2154.9434665487
 20
2103.899448972
 30
0.0
 11
2154.9434665487
 21
2387.0071995227
 31
0.0
  0
LINE
  5
F9
330
1F
100
AcDbEntity
  8
0
  6
Continuous
 62
     7
370
    25
100
AcDbLine
 10
2136.2742358956
 20
2387.0216139291
 30
0.0
 11
2136.2742358956
 21
2103.899448972
 31
0.0
  0
ARC
  5
FA
330
1F
100
AcDbEntity
  8
0
  6
Continuous
 62
     7
370
    25
100
AcDbCircle
 10
1355.6088512221
 20
2383.899448972
 30
0.0
 40
10.00000000000027
100
AcDbArc
 50
89.997904455
 51
150.4631236362
  0
ARC
  5
FB
330
1F
100
AcDbEntity
  8
0
  6
Continuous
 62
     7
370
    25
100
AcDbCircle
 10
1355.6088512221
 20
2383.899448972
 30
0.0
 40
9.999999999999922
100
AcDbArc
 50
29.5294935341
 51
89.997904455
  0
LINE
  5
FC
330
1F
100
AcDbEntity
  8
0
  6
Continuous
 62
     7
370
    25
100
AcDbLine
 10
1363.6697317805
 20
2103.899448972
 30
0.0
 11
1363.6697317805
 21
2388.4517238133
 31
0.0
  0
LINE
  5
FD
330
1F
100
AcDbEntity
  8
0
  6
Continuous
 62
     7
370
    25
100
AcDbLine
 10
1347.5479706638
 20
2388.4565115616
 30
0.0
 11
1347.5479706638
 21
2103.899448972
 31
0.0
  0
LINE
  5
FE
330
1F
100
AcDbEntity
  8
0
  6
Continuous
 62
     7
370
    25
100
AcDbLine
 10
1346.2742358956
 20
2387.0216139291
 30
0.0
 11
1346.2742358956
 21
2103.899448972
 31
0.0
  0
LINE
  5
FF
330
1F
100
AcDbEntity
  8
0
  6
Continuous
 62
     7
370
    25
100
AcDbLine
 10
1364.9434665487
 20
2103.899448972
 30
0.0
 11
1364.9434665487
 21
2387.0071995227
 31
0.0
  0
LINE
  5
100
330
1F
100
AcDbEntity
  8
0
  6
Continuous
 62
     7
370
    25
100
AcDbLine
 10
1365.1088512221
 20
2100.899448972
 30
0.0
 11
1365.1088512221
 21
2103.899448972
 31
0.0
  0
LINE
  5
101
330
1F
100
AcDbEntity
  8
0
  6
Continuous
 62
     7
370
    25
100
AcDbLine
 10
1346.1088512221
 20
2103.899448972
 30
0.0
 11
1346.1088512221
 21
2100.899448972
 31
0.0
  0
ARC
  5
102
330
1F
100
AcDbEntity
  8
0
  6
Continuous
 62
     7
370
    25
100
AcDbCircle
 10
1351.1088512221
 20
2100.899448972
 30
0.0
 40
5.0
100
AcDbArc
 50
180.0
 51
270.0
  0
ARC
  5
103
330
1F
100
AcDbEntity
  8
0
  6
Continuous
 62
     7
370
    25
100
AcDbCircle
 10
1360.1088512221
 20
2100.899448972
 30
0.0
 40
5.0
100
AcDbArc
 50
270.0
 51
0.0
  0
ARC
  5
104
330
1F
100
AcDbEntity
  8
0
  6
Continuous
 62
     7
370
    25
100
AcDbCircle
 10
2141.1088512221
 20
2100.899448972
 30
0.0
 40
5.0
100
AcDbArc
 50
180.0
 51
270.0
  0
ARC
  5
105
330
1F
100
AcDbEntity
  8
0
  6
Continuous
 62
     7
370
    25
100
AcDbCircle
 10
2150.1088512221
 20
2100.899448972
 30
0.0
 40
5.0
100
AcDbArc
 50
270.0
 51
0.0
  0
LINE
  5
106
330
1F
100
AcDbEntity
  8
0
  6
Continuous
 62
     7
370
    25
100
AcDbLine
 10
2155.1088512221
 20
2100.899448972
 30
0.0
 11
2155.1088512221
 21
2103.899448972
 31
0.0
  0
LINE
  5
107
330
1F
100
AcDbEntity
  8
0
  6
Continuous
 62
     7
370
    25
100
AcDbLine
 10
2136.1088512221
 20
2103.899448972
 30
0.0
 11
2136.1088512221
 21
2100.899448972
 31
0.0
  0
LINE
  5
108
330
1F
100
AcDbEntity
  8
0
  6
Continuous
 62
     7
370
    25
100
AcDbLine
 10
2208.6088512221
 20
2378.8994489763
 30
0.0
 11
2154.9434665487
 21
2378.8994489763
 31
0.0
  0
LINE
  5
109
330
1F
100
AcDbEntity
  8
0
  6
Continuous
 62
     7
370
    25
100
AcDbLine
 10
2136.2742358956
 20
2378.8994489763
 30
0.0
 11
1364.9434665487
 21
2378.8994489763
 31
0.0
  0
LINE
  5
10A
330
1F
100
AcDbEntity
  8
0
  6
Continuous
 62
     7
370
    25
100
AcDbLine
 10
1346.2742358956
 20
2378.8994489763
 30
0.0
 11
1292.6088512221
 21
2378.8994489763
 31
0.0
  0
LINE
  5
10B
330
1F
100
AcDbEntity
  8
0
  6
Continuous
 62
     7
370
    25
100
AcDbLine
 10
2208.6088512221
 20
2388.8994489763
 30
0.0
 11
2154.2691052575
 21
2388.8994489763
 31
0.0
  0
LINE
  5
10C
330
1F
100
AcDbEntity
  8
0
  6
Continuous
 62
     7
370
    25
100
AcDbLine
 10
2136.9485971868
 20
2388.8994489763
 30
0.0
 11
1364.2691052575
 21
2388.8994489763
 31
0.0
  0
LINE
  5
10D
330
1F
100
AcDbEntity
  8
0
  6
Continuous
 62
     7
370
    25
100
AcDbLine
 10
1346.9485971868
 20
2388.8994489763
 30
0.0
 11
1292.6088512221
 21
2388.8994489763
 31
0.0
  0
LINE
  5
10E
330
1F
100
AcDbEntity
  8
0
  6
Continuous
 62
     7
370
    25
100
AcDbLine
 10
1255.6088512221
 20
2378.8994489763
 30
0.0
 11
1255.6088512221
 21
2388.8994489763
 31
0.0
  0
LINE
  5
10F
330
1F
100
AcDbEntity
  8
0
  6
Continuous
 62
     7
370
    25
100
AcDbLine
 10
1292.6088512221
 20
2378.8994489763
 30
0.0
 11
1255.6088512221
 21
2378.8994489763
 31
0.0
  0
LINE
  5
110
330
1F
100
AcDbEntity
  8
0
  6
Continuous
 62
     7
370
    25
100
AcDbLine
 10
1255.6088512221
 20
2388.8994489763
 30
0.0
 11
1292.6088512221
 21
2388.8994489763
 31
0.0
  0
LINE
  5
111
330
1F
100
AcDbEntity
  8
0
  6
Continuous
 62
     7
370
    25
100
AcDbLine
 10
2245.6088512221
 20
2388.8994489763
 30
0.0
 11
2245.6088512221
 21
2378.8994489763
 31
0.0
  0
LINE
  5
112
330
1F
100
AcDbEntity
  8
0
  6
Continuous
 62
     7
370
    25
100
AcDbLine
 10
2245.6088512221
 20
2378.8994489763
 30
0.0
 11
2208.6088512221
 21
2378.8994489763
 31
0.0
  0
LINE
  5
113
330
1F
100
AcDbEntity
  8
0
  6
Continuous
 62
     7
370
    25
100
AcDbLine
 10
2208.6088512221
 20
2388.8994489763
 30
0.0
 11
2245.6088512221
 21
2388.8994489763
 31
0.0
  0
LINE
  5
114
330
1F
100
AcDbEntity
  8
0
  6
Continuous
 62
     7
370
    25
100
AcDbLine
 10
2136.2742358956
 20
2343.8994489763
 30
0.0
 11
1364.9434665487
 21
2343.8994489763
 31
0.0
  0
SPLINE
  5
115
330
1F
100
AcDbEntity
  8
0
  6
Continuous
 62
     7
370
    25
100
AcDbSpline
210
0.0
220
0.0
230
1.0
 70
     8
 71
     3
 72
    13
 73
     9
 74
     0
 42
0.000000001
 43
0.00000001
 40
0.0
 40
0.0
 40
0.0
 40
0.0
 40
0.1996024802854986
 40
0.4048981673667112
 40
0.6076797124046132
 40
0.8165554017000685
 40
0.9438186768098699
 40
1.0
 40
1.0
 40
1.0
 40
1.0
 10
2153.028621150861
 20
2390.538093268283
 30
0.0
 10
2153.24185085305
 20
2390.298524969923
 30
0.0
 10
2153.674392149737
 20
2389.812555232341
 30
0.0
 10
2154.192295208806
 20
2389.058400796716
 30
0.0
 10
2154.604460663614
 20
2388.2936158246
 30
0.0
 10
2154.842184197724
 20
2387.648249358107
 30
0.0
 10
2154.935278888887
 20
2387.216970577636
 30
0.0
 10
2154.940571948252
 20
2387.056381244576
 30
0.0
 10
2154.94219298851
 20
2387.007199522655
 30
0.0
  0
SPLINE
  5
116
330
1F
100
AcDbEntity
  8
0
  6
Continuous
 62
     7
370
    25
100
AcDbSpline
210
0.0
220
0.0
230
1.0
 70
     8
 71
     3
 72
    14
 73
    10
 74
     0
 42
0.000000001
 43
0.00000001
 40
0.0
 40
0.0
 40
0.0
 40
0.0
 40
0.22043006368162
 40
0.3399443732551716
 40
0.4603671101702298
 40
0.5640212293774628
 40
0.6631726788869794
 40
0.8102691653343724
 40
1.0
 40
1.0
 40
1.0
 40
1.0
 10
2152.841506827891
 20
2390.578305893037
 30
0.0
 10
2152.800868321463
 20
2390.634653805664
 30
0.0
 10
2152.738196146138
 20
2390.721552822622
 30
0.0
 10
2152.697182121745
 20
2390.798904336984
 30
0.0
 10
2152.69778542752
 20
2390.825176981887
 30
0.0
 10
2152.731777844804
 20
2390.812606759348
 30
0.0
 10
2152.79378068567
 20
2390.767201626934
 30
0.0
 10
2152.894199600093
 20
2390.677738400088
 30
0.0
 10
2152.980186020298
 20
2390.588410573454
 30
0.0
 10
2153.028621150861
 20
2390.538093268283
 30
0.0
  0
SPLINE
  5
117
330
1F
100
AcDbEntity
  8
0
  6
Continuous
 62
     7
370
    25
100
AcDbSpline
210
0.0
220
0.0
230
1.0
 70
     8
 71
     3
 72
    23
 73
    19
 74
     0
 42
0.000000001
 43
0.00000001
 40
0.0
 40
0.0
 40
0.0
 40
0.0
 40
0.0876038587420587
 40
0.1752379614181742
 40
0.2636805576071808
 40
0.3519102061228124
 40
0.41922956574431
 40
0.4534383728311177
 40
0.4875483396523723
 40
0.5342203370545132
 40
0.5807897799348476
 40
0.6178527330908499
 40
0.6549967327784469
 40
0.7183513735855389
 40
0.7818242023345517
 40
0.8701536731504343
 40
0.9585039722462539
 40
1.0
 40
1.0
 40
1.0
 40
1.0
 10
2149.248127850168
 20
2390.795145088705
 30
0.0
 10
2149.449232880417
 20
2390.581139455807
 30
0.0
 10
2149.851512369448
 20
2390.153054307736
 30
0.0
 10
2150.513916692485
 20
2389.493942189173
 30
0.0
 10
2151.191362545524
 20
2388.839114909351
 30
0.0
 10
2151.829595614034
 20
2388.269643724091
 30
0.0
 10
2152.326731616478
 20
2387.88630044926
 30
0.0
 10
2152.674838616095
 20
2387.683822560987
 30
0.0
 10
2152.95837593863
 20
2387.571622098483
 30
0.0
 10
2153.237262719083
 20
2387.559521993224
 30
0.0
 10
2153.443685149598
 20
2387.685055060758
 30
0.0
 10
2153.569181699603
 20
2387.875196964667
 30
0.0
 10
2153.656209799639
 20
2388.140078522951
 30
0.0
 10
2153.684178117626
 20
2388.502837361251
 30
0.0
 10
2153.618375659067
 20
2389.017489125184
 30
0.0
 10
2153.424715615154
 20
2389.612537227188
 30
0.0
 10
2153.139015951452
 20
2390.158454877868
 30
0.0
 10
2152.913558171395
 20
2390.476625550087
 30
0.0
 10
2152.841506827891
 20
2390.578305893037
 30
0.0
  0
SPLINE
  5
118
330
1F
100
AcDbEntity
  8
0
  6
Continuous
 62
     7
370
    25
100
AcDbSpline
210
0.0
220
0.0
230
1.0
 70
     8
 71
     3
 72
    14
 73
    10
 74
     0
 42
0.000000001
 43
0.00000001
 40
0.0
 40
0.0
 40
0.0
 40
0.0
 40
0.2240635092469034
 40
0.3487071205325644
 40
0.4742528072797657
 40
0.5825492860625399
 40
0.6866084231150866
 40
0.8379727149431659
 40
1.0
 40
1.0
 40
1.0
 40
1.0
 10
2148.490517423421
 20
2390.812404848666
 30
0.0
 10
2148.505140078898
 20
2390.86727846989
 30
0.0
 10
2148.527897127124
 20
2390.952677571753
 30
0.0
 10
2148.629571325869
 20
2391.028563501069
 30
0.0
 10
2148.738255927991
 20
2391.054308220026
 30
0.0
 10
2148.859236495929
 20
2391.041531389726
 30
0.0
 10
2148.98952586285
 20
2390.996157895943
 30
0.0
 10
2149.127407645506
 20
2390.91398460137
 30
0.0
 10
2149.20698525239
 20
2390.835646728703
 30
0.0
 10
2149.248127850168
 20
2390.795145088705
 30
0.0
  0
SPLINE
  5
119
330
1F
100
AcDbEntity
  8
0
  6
Continuous
 62
     7
370
    25
100
AcDbSpline
210
0.0
220
0.0
230
1.0
 70
     8
 71
     3
 72
    22
 73
    18
 74
     0
 42
0.000000001
 43
0.00000001
 40
0.0
 40
0.0
 40
0.0
 40
0.0
 40
0.0867040769019764
 40
0.173421591425125
 40
0.2459284344593065
 40
0.3183367876148308
 40
0.3981837624467194
 40
0.4601464604185176
 40
0.5114688142066373
 40
0.562765151395205
 40
0.5997257790729377
 40
0.6367592567915483
 40
0.6965436543747087
 40
0.7564389386415216
 40
0.8411889818232468
 40
0.9259788233654394
 40
1.0
 40
1.0
 40
1.0
 40
1.0
 10
2142.727185020853
 20
2390.812404848666
 30
0.0
 10
2142.769384335282
 20
2390.608408376983
 30
0.0
 10
2142.853789504299
 20
2390.200383817718
 30
0.0
 10
2143.14437147647
 20
2389.61299917811
 30
0.0
 10
2143.516648467364
 20
2389.070487131593
 30
0.0
 10
2143.981513056423
 20
2388.573000445724
 30
0.0
 10
2144.536365952829
 20
2388.156248861694
 30
0.0
 10
2145.151852366682
 20
2387.906328384586
 30
0.0
 10
2145.733236379542
 20
2387.857738654129
 30
0.0
 10
2146.211709859658
 20
2387.962483146913
 30
0.0
 10
2146.597160670286
 20
2388.135307059516
 30
0.0
 10
2146.969083966419
 20
2388.367614761018
 30
0.0
 10
2147.347532311401
 20
2388.687126539595
 30
0.0
 10
2147.757743989978
 20
2389.144383137768
 30
0.0
 10
2148.116353123085
 20
2389.683008722512
 30
0.0
 10
2148.382548522765
 20
2390.26594496481
 30
0.0
 10
2148.45619233761
 20
2390.638676281535
 30
0.0
 10
2148.490517423421
 20
2390.812404848666
 30
0.0
  0
SPLINE
  5
11A
330
1F
100
AcDbEntity
  8
0
  6
Continuous
 62
     7
370
    25
100
AcDbSpline
210
0.0
220
0.0
230
1.0
 70
     8
 71
     3
 72
    14
 73
    10
 74
     0
 42
0.000000001
 43
0.00000001
 40
0.0
 40
0.0
 40
0.0
 40
0.0
 40
0.2236978580034618
 40
0.3528357075717429
 40
0.4829964006464645
 40
0.5936020866478553
 40
0.6970463839855723
 40
0.8440092931474017
 40
1.0
 40
1.0
 40
1.0
 40
1.0
 10
2141.969574594103
 20
2390.795145088702
 30
0.0
 10
2142.028112893991
 20
2390.850922239641
 30
0.0
 10
2142.120444589277
 20
2390.938898810778
 30
0.0
 10
2142.287388368942
 20
2391.021785108699
 30
0.0
 10
2142.422877782438
 20
2391.053578365463
 30
0.0
 10
2142.537375205492
 20
2391.044584666502
 30
0.0
 10
2142.631224715705
 20
2391.002583695771
 30
0.0
 10
2142.701405640585
 20
2390.925217710645
 30
0.0
 10
2142.718422860499
 20
2390.850748842056
 30
0.0
 10
2142.727185020853
 20
2390.812404848666
 30
0.0
  0
SPLINE
  5
11B
330
1F
100
AcDbEntity
  8
0
  6
Continuous
 62
     7
370
    25
100
AcDbSpline
210
0.0
220
0.0
230
1.0
 70
     8
 71
     3
 72
    22
 73
    18
 74
     0
 42
0.000000001
 43
0.00000001
 40
0.0
 40
0.0
 40
0.0
 40
0.0
 40
0.088826373561445
 40
0.1776643044611141
 40
0.2480696502500704
 40
0.3183725125743824
 40
0.3911252793172344
 40
0.4486880646413513
 40
0.4954581219263621
 40
0.5422043769639042
 40
0.5766399085222141
 40
0.6111480241397914
 40
0.6694938294426601
 40
0.7279572587091715
 40
0.8144549765181942
 40
0.9009964173563932
 40
1.0
 40
1.0
 40
1.0
 40
1.0
 10
2138.376195616383
 20
2390.578305893037
 30
0.0
 10
2138.228275559511
 20
2390.359294487699
 30
0.0
 10
2137.932416199658
 20
2389.921243181107
 30
0.0
 10
2137.679264848568
 20
2389.301492788009
 30
0.0
 10
2137.550370405698
 20
2388.739830923166
 30
0.0
 10
2137.536749003972
 20
2388.246610362841
 30
0.0
 10
2137.641759172282
 20
2387.839203069511
 30
0.0
 10
2137.86768587013
 20
2387.596917203012
 30
0.0
 10
2138.168462228462
 20
2387.549376597418
 30
0.0
 10
2138.479837668041
 20
2387.649937350905
 30
0.0
 10
2138.77577570572
 20
2387.817180750551
 30
0.0
 10
2139.10655636655
 20
2388.048798983757
 30
0.0
 10
2139.502781289037
 20
2388.372291696451
 30
0.0
 10
2140.031169449632
 20
2388.848895993968
 30
0.0
 10
2140.628236082704
 20
2389.417920688292
 30
0.0
 10
2141.313323313868
 20
2390.099574566058
 30
0.0
 10
2141.741243734422
 20
2390.553133804019
 30
0.0
 10
2141.969574594103
 20
2390.795145088702
 30
0.0
  0
SPLINE
  5
11C
330
1F
100
AcDbEntity
  8
0
  6
Continuous
 62
     7
370
    25
100
AcDbSpline
210
0.0
220
0.0
230
1.0
 70
     8
 71
     3
 72
    14
 73
    10
 74
     0
 42
0.000000001
 43
0.00000001
 40
0.0
 40
0.0
 40
0.0
 40
0.0
 40
0.2198296104785878
 40
0.3499177958292408
 40
0.4588983161344153
 40
0.5683999765789051
 40
0.6667094681233263
 40
0.7967198733580189
 40
1.0
 40
1.0
 40
1.0
 40
1.0
 10
2138.189081293407
 20
2390.538093268276
 30
0.0
 10
2138.24541976408
 20
2390.596394094629
 30
0.0
 10
2138.335097553326
 20
2390.689195499353
 30
0.0
 10
2138.437360811843
 20
2390.778064020052
 30
0.0
 10
2138.495696861886
 20
2390.818595071928
 30
0.0
 10
2138.521694350262
 20
2390.822317882501
 30
0.0
 10
2138.517171718255
 20
2390.791385505037
 30
0.0
 10
2138.475326618109
 20
2390.715484289817
 30
0.0
 10
2138.413751457846
 20
2390.630276013705
 30
0.0
 10
2138.376195616383
 20
2390.578305893037
 30
0.0
  0
SPLINE
  5
11D
330
1F
100
AcDbEntity
  8
0
  6
Continuous
 62
     7
370
    25
100
AcDbSpline
210
0.0
220
0.0
230
1.0
 70
     8
 71
     3
 72
    14
 73
    10
 74
     0
 42
0.000000001
 43
0.00000001
 40
0.0
 40
0.0
 40
0.0
 40
0.0
 40
0.0306843307678976
 40
0.137148038900803
 40
0.2461477955447548
 40
0.4398080264229576
 40
0.638809349875523
 40
0.8174563911045961
 40
1.0
 40
1.0
 40
1.0
 40
1.0
 10
2136.28314454708
 20
2387.021613929071
 30
0.0
 10
2136.280552758482
 20
2387.043589956224
 30
0.0
 10
2136.268968385788
 20
2387.141814976991
 30
0.0
 10
2136.324787626158
 20
2387.416121594579
 30
0.0
 10
2136.451076398674
 20
2387.873848904974
 30
0.0
 10
2136.708039893182
 20
2388.487902226339
 30
0.0
 10
2137.113969443084
 20
2389.194618238577
 30
0.0
 10
2137.606967879757
 20
2389.887166910571
 30
0.0
 10
2137.993652954009
 20
2390.319562902589
 30
0.0
 10
2138.189081293407
 20
2390.538093268276
 30
0.0
  0
SPLINE
  5
11E
330
1F
100
AcDbEntity
  8
0
  6
Continuous
 62
     7
370
    25
100
AcDbSpline
210
0.0
220
0.0
230
1.0
 70
     8
 71
     3
 72
    13
 73
     9
 74
     0
 42
0.000000001
 43
0.00000001
 40
0.0
 40
0.0
 40
0.0
 40
0.0
 40
0.1996024802854932
 40
0.4048981673667172
 40
0.6076797124046086
 40
0.8165554017000801
 40
0.9438186768098824
 40
1.0
 40
1.0
 40
1.0
 40
1.0
 10
1363.028621150861
 20
2390.538093268283
 30
0.0
 10
1363.24185085305
 20
2390.298524969923
 30
0.0
 10
1363.674392149737
 20
2389.812555232341
 30
0.0
 10
1364.192295208806
 20
2389.058400796716
 30
0.0
 10
1364.604460663614
 20
2388.2936158246
 30
0.0
 10
1364.842184197723
 20
2387.648249358107
 30
0.0
 10
1364.935278888887
 20
2387.216970577636
 30
0.0
 10
1364.940571948252
 20
2387.056381244576
 30
0.0
 10
1364.94219298851
 20
2387.007199522655
 30
0.0
  0
SPLINE
  5
11F
330
1F
100
AcDbEntity
  8
0
  6
Continuous
 62
     7
370
    25
100
AcDbSpline
210
0.0
220
0.0
230
1.0
 70
     8
 71
     3
 72
    14
 73
    10
 74
     0
 42
0.000000001
 43
0.00000001
 40
0.0
 40
0.0
 40
0.0
 40
0.0
 40
0.2204300636816243
 40
0.3399443732550936
 40
0.4603671101701541
 40
0.5640212293773891
 40
0.6631726788869662
 40
0.8102691653343018
 40
1.0
 40
1.0
 40
1.0
 40
1.0
 10
1362.841506827891
 20
2390.578305893037
 30
0.0
 10
1362.800868321463
 20
2390.634653805663
 30
0.0
 10
1362.738196146138
 20
2390.721552822622
 30
0.0
 10
1362.697182121745
 20
2390.798904336984
 30
0.0
 10
1362.69778542752
 20
2390.825176981887
 30
0.0
 10
1362.731777844804
 20
2390.812606759348
 30
0.0
 10
1362.79378068567
 20
2390.767201626934
 30
0.0
 10
1362.894199600092
 20
2390.677738400088
 30
0.0
 10
1362.980186020298
 20
2390.588410573454
 30
0.0
 10
1363.028621150861
 20
2390.538093268283
 30
0.0
  0
SPLINE
  5
120
330
1F
100
AcDbEntity
  8
0
  6
Continuous
 62
     7
370
    25
100
AcDbSpline
210
0.0
220
0.0
230
1.0
 70
     8
 71
     3
 72
    23
 73
    19
 74
     0
 42
0.000000001
 43
0.00000001
 40
0.0
 40
0.0
 40
0.0
 40
0.0
 40
0.0876038587420585
 40
0.1752379614181738
 40
0.2636805576071802
 40
0.3519102061228138
 40
0.4192295657443112
 40
0.453438372831113
 40
0.4875483396523675
 40
0.5342203370545083
 40
0.5807897799348426
 40
0.6178527330908522
 40
0.6549967327784414
 40
0.7183513735855416
 40
0.7818242023345464
 40
0.8701536731504289
 40
0.9585039722462484
 40
1.0
 40
1.0
 40
1.0
 40
1.0
 10
1359.248127850168
 20
2390.795145088705
 30
0.0
 10
1359.449232880417
 20
2390.581139455807
 30
0.0
 10
1359.851512369448
 20
2390.153054307736
 30
0.0
 10
1360.513916692485
 20
2389.493942189173
 30
0.0
 10
1361.191362545523
 20
2388.839114909351
 30
0.0
 10
1361.829595614033
 20
2388.269643724091
 30
0.0
 10
1362.326731616478
 20
2387.88630044926
 30
0.0
 10
1362.674838616095
 20
2387.683822560987
 30
0.0
 10
1362.95837593863
 20
2387.571622098483
 30
0.0
 10
1363.237262719083
 20
2387.559521993223
 30
0.0
 10
1363.443685149598
 20
2387.685055060758
 30
0.0
 10
1363.569181699603
 20
2387.875196964667
 30
0.0
 10
1363.656209799639
 20
2388.140078522951
 30
0.0
 10
1363.684178117626
 20
2388.50283736125
 30
0.0
 10
1363.618375659067
 20
2389.017489125184
 30
0.0
 10
1363.424715615154
 20
2389.612537227188
 30
0.0
 10
1363.139015951452
 20
2390.158454877868
 30
0.0
 10
1362.913558171395
 20
2390.476625550087
 30
0.0
 10
1362.841506827891
 20
2390.578305893037
 30
0.0
  0
SPLINE
  5
121
330
1F
100
AcDbEntity
  8
0
  6
Continuous
 62
     7
370
    25
100
AcDbSpline
210
0.0
220
0.0
230
1.0
 70
     8
 71
     3
 72
    14
 73
    10
 74
     0
 42
0.000000001
 43
0.00000001
 40
0.0
 40
0.0
 40
0.0
 40
0.0
 40
0.2240635092469123
 40
0.3487071205324734
 40
0.4742528072797302
 40
0.582549286062548
 40
0.6866084231150471
 40
0.837972714943134
 40
1.0
 40
1.0
 40
1.0
 40
1.0
 10
1358.490517423421
 20
2390.812404848666
 30
0.0
 10
1358.505140078897
 20
2390.86727846989
 30
0.0
 10
1358.527897127124
 20
2390.952677571753
 30
0.0
 10
1358.629571325869
 20
2391.028563501069
 30
0.0
 10
1358.738255927991
 20
2391.054308220026
 30
0.0
 10
1358.859236495929
 20
2391.041531389726
 30
0.0
 10
1358.98952586285
 20
2390.996157895943
 30
0.0
 10
1359.127407645506
 20
2390.91398460137
 30
0.0
 10
1359.20698525239
 20
2390.835646728703
 30
0.0
 10
1359.248127850168
 20
2390.795145088705
 30
0.0
  0
SPLINE
  5
122
330
1F
100
AcDbEntity
  8
0
  6
Continuous
 62
     7
370
    25
100
AcDbSpline
210
0.0
220
0.0
230
1.0
 70
     8
 71
     3
 72
    22
 73
    18
 74
     0
 42
0.000000001
 43
0.00000001
 40
0.0
 40
0.0
 40
0.0
 40
0.0
 40
0.0867040769019834
 40
0.1734215914251295
 40
0.2459284344593068
 40
0.3183367876148304
 40
0.3981837624467145
 40
0.4601464604185122
 40
0.5114688142066374
 40
0.5627651513952047
 40
0.599725779072937
 40
0.636759256791551
 40
0.696543654374711
 40
0.756438938641518
 40
0.8411889818232487
 40
0.9259788233654407
 40
0.9999999999999999
 40
0.9999999999999999
 40
0.9999999999999999
 40
0.9999999999999999
 10
1352.727185020852
 20
2390.812404848666
 30
0.0
 10
1352.769384335282
 20
2390.608408376983
 30
0.0
 10
1352.853789504299
 20
2390.200383817717
 30
0.0
 10
1353.14437147647
 20
2389.61299917811
 30
0.0
 10
1353.516648467364
 20
2389.070487131593
 30
0.0
 10
1353.981513056423
 20
2388.573000445724
 30
0.0
 10
1354.536365952829
 20
2388.156248861694
 30
0.0
 10
1355.151852366681
 20
2387.906328384586
 30
0.0
 10
1355.733236379541
 20
2387.857738654129
 30
0.0
 10
1356.211709859658
 20
2387.962483146913
 30
0.0
 10
1356.597160670285
 20
2388.135307059516
 30
0.0
 10
1356.969083966419
 20
2388.367614761018
 30
0.0
 10
1357.347532311401
 20
2388.687126539595
 30
0.0
 10
1357.757743989978
 20
2389.144383137768
 30
0.0
 10
1358.116353123085
 20
2389.683008722512
 30
0.0
 10
1358.382548522764
 20
2390.26594496481
 30
0.0
 10
1358.45619233761
 20
2390.638676281535
 30
0.0
 10
1358.490517423421
 20
2390.812404848666
 30
0.0
  0
SPLINE
  5
123
330
1F
100
AcDbEntity
  8
0
  6
Continuous
 62
     7
370
    25
100
AcDbSpline
210
0.0
220
0.0
230
1.0
 70
     8
 71
     3
 72
    14
 73
    10
 74
     0
 42
0.000000001
 43
0.00000001
 40
0.0
 40
0.0
 40
0.0
 40
0.0
 40
0.223697858003452
 40
0.3528357075717441
 40
0.4829964006465
 40
0.5936020866478989
 40
0.6970463839856236
 40
0.8440092931474639
 40
1.0
 40
1.0
 40
1.0
 40
1.0
 10
1351.969574594103
 20
2390.795145088701
 30
0.0
 10
1352.028112893992
 20
2390.85092223964
 30
0.0
 10
1352.120444589277
 20
2390.938898810778
 30
0.0
 10
1352.287388368942
 20
2391.021785108699
 30
0.0
 10
1352.422877782438
 20
2391.053578365463
 30
0.0
 10
1352.537375205491
 20
2391.044584666502
 30
0.0
 10
1352.631224715704
 20
2391.002583695771
 30
0.0
 10
1352.701405640585
 20
2390.925217710645
 30
0.0
 10
1352.718422860499
 20
2390.850748842056
 30
0.0
 10
1352.727185020853
 20
2390.812404848666
 30
0.0
  0
SPLINE
  5
124
330
1F
100
AcDbEntity
  8
0
  6
Continuous
 62
     7
370
    25
100
AcDbSpline
210
0.0
220
0.0
230
1.0
 70
     8
 71
     3
 72
    22
 73
    18
 74
     0
 42
0.000000001
 43
0.00000001
 40
0.0
 40
0.0
 40
0.0
 40
0.0
 40
0.0888263735614426
 40
0.1776643044611117
 40
0.2480696502500679
 40
0.3183725125743799
 40
0.3911252793172404
 40
0.4486880646413484
 40
0.495458121926365
 40
0.5422043769639106
 40
0.5766399085222108
 40
0.6111480241397917
 40
0.6694938294426566
 40
0.7279572587091716
 40
0.8144549765181943
 40
0.9009964173563896
 40
1.0
 40
1.0
 40
1.0
 40
1.0
 10
1348.376195616383
 20
2390.578305893037
 30
0.0
 10
1348.228275559511
 20
2390.359294487699
 30
0.0
 10
1347.932416199658
 20
2389.921243181107
 30
0.0
 10
1347.679264848569
 20
2389.301492788009
 30
0.0
 10
1347.550370405698
 20
2388.739830923166
 30
0.0
 10
1347.536749003972
 20
2388.24661036284
 30
0.0
 10
1347.641759172282
 20
2387.839203069511
 30
0.0
 10
1347.867685870129
 20
2387.596917203011
 30
0.0
 10
1348.168462228462
 20
2387.549376597419
 30
0.0
 10
1348.479837668041
 20
2387.649937350904
 30
0.0
 10
1348.77577570572
 20
2387.817180750551
 30
0.0
 10
1349.10655636655
 20
2388.048798983757
 30
0.0
 10
1349.502781289037
 20
2388.372291696451
 30
0.0
 10
1350.031169449632
 20
2388.848895993968
 30
0.0
 10
1350.628236082705
 20
2389.417920688291
 30
0.0
 10
1351.313323313868
 20
2390.099574566058
 30
0.0
 10
1351.741243734422
 20
2390.553133804019
 30
0.0
 10
1351.969574594103
 20
2390.795145088701
 30
0.0
  0
SPLINE
  5
125
330
1F
100
AcDbEntity
  8
0
  6
Continuous
 62
     7
370
    25
100
AcDbSpline
210
0.0
220
0.0
230
1.0
 70
     8
 71
     3
 72
    14
 73
    10
 74
     0
 42
0.000000001
 43
0.00000001
 40
0.0
 40
0.0
 40
0.0
 40
0.0
 40
0.2198296104785275
 40
0.3499177958292769
 40
0.4588983161343728
 40
0.5683999765788669
 40
0.666709468123292
 40
0.7967198733579898
 40
1.0
 40
1.0
 40
1.0
 40
1.0
 10
1348.189081293407
 20
2390.538093268276
 30
0.0
 10
1348.24541976408
 20
2390.596394094629
 30
0.0
 10
1348.335097553326
 20
2390.689195499353
 30
0.0
 10
1348.437360811842
 20
2390.778064020051
 30
0.0
 10
1348.495696861886
 20
2390.818595071928
 30
0.0
 10
1348.521694350262
 20
2390.822317882501
 30
0.0
 10
1348.517171718255
 20
2390.791385505037
 30
0.0
 10
1348.475326618109
 20
2390.715484289817
 30
0.0
 10
1348.413751457846
 20
2390.630276013705
 30
0.0
 10
1348.376195616383
 20
2390.578305893037
 30
0.0
  0
SPLINE
  5
126
330
1F
100
AcDbEntity
  8
0
  6
Continuous
 62
     7
370
    25
100
AcDbSpline
210
0.0
220
0.0
230
1.0
 70
     8
 71
     3
 72
    14
 73
    10
 74
     0
 42
0.000000001
 43
0.00000001
 40
0.0
 40
0.0
 40
0.0
 40
0.0
 40
0.0306843307678968
 40
0.1371480389008009
 40
0.246147795544767
 40
0.4398080264229534
 40
0.6388093498755232
 40
0.8174563911045846
 40
1.0
 40
1.0
 40
1.0
 40
1.0
 10
1346.28314454708
 20
2387.021613929071
 30
0.0
 10
1346.280552758482
 20
2387.043589956224
 30
0.0
 10
1346.268968385787
 20
2387.14181497699
 30
0.0
 10
1346.324787626158
 20
2387.41612159458
 30
0.0
 10
1346.451076398673
 20
2387.873848904974
 30
0.0
 10
1346.708039893181
 20
2388.487902226339
 30
0.0
 10
1347.113969443084
 20
2389.194618238577
 30
0.0
 10
1347.606967879756
 20
2389.887166910571
 30
0.0
 10
1347.993652954008
 20
2390.319562902589
 30
0.0
 10
1348.189081293407
 20
2390.538093268276
 30
0.0
  0
LINE
  5
127
330
1F
100
AcDbEntity
  8
0
  6
Continuous
 62
     7
370
    25
100
AcDbLine
 10
1365.1088512221
 20
2103.899448972
 30
0.0
 11
1346.1088512221
 21
2103.899448972
 31
0.0
  0
LINE
  5
128
330
1F
100
AcDbEntity
  8
0
  6
Continuous
 62
     7
370
    25
100
AcDbLine
 10
1360.1088512221
 20
2095.899448972
 30
0.0
 11
1351.1088512221
 21
2095.899448972
 31
0.0
  0
LINE
  5
129
330
1F
100
AcDbEntity
  8
0
  6
Continuous
 62
     7
370
    25
100
AcDbLine
 10
2150.1088512221
 20
2095.899448972
 30
0.0
 11
2141.1088512221
 21
2095.899448972
 31
0.0
  0
LINE
  5
12A
330
1F
100
AcDbEntity
  8
0
  6
Continuous
 62
     7
370
    25
100
AcDbLine
 10
2155.1088512221
 20
2103.899448972
 30
0.0
 11
2136.1088512221
 21
2103.899448972
 31
0.0
  0
LINE
  5
12B
330
1F
100
AcDbEntity
  8
0
  6
Continuous
 62
     8
370
    18
100
AcDbLine
 10
2208.6088512221
 20
2378.8994489763
 30
0.0
 11
2208.6088512221
 21
2388.8994489763
 31
0.0
  0
LINE
  5
12C
330
1F
100
AcDbEntity
  8
0
  6
Continuous
 62
     8
370
    18
100
AcDbLine
 10
1292.6088512221
 20
2388.8994489763
 30
0.0
 11
1292.6088512221
 21
2378.8994489763
 31
0.0
  0
LINE
  5
12D
330
1F
100
AcDbEntity
  8
0
  6
Continuous
 62
     8
370
    18
100
AcDbLine
 10
2136.2742358956
 20
2376.3994489763
 30
0.0
 11
1364.9434665487
 21
2376.3994489763
 31
0.0
  0
LINE
  5
12E
330
1F
100
AcDbEntity
  8
0
  6
Continuous
 62
     8
370
    18
100
AcDbLine
 10
2136.2742358956
 20
2346.3994489763
 30
0.0
 11
1364.9434665487
 21
2346.3994489763
 31
0.0
  0
LINE
  5
12F
330
1F
100
AcDbEntity
  8
0
  6
Continuous
 62
     8
370
    18
100
AcDbLine
 10
2148.4905174234
 20
2390.8124048487
 30
0.0
 11
2148.4905174234
 21
2103.899448972
 31
0.0
  0
LINE
  5
130
330
1F
100
AcDbEntity
  8
0
  6
Continuous
 62
     8
370
    18
100
AcDbLine
 10
2142.7271850209
 20
2390.8124048487
 30
0.0
 11
2142.7271850209
 21
2103.899448972
 31
0.0
  0
LINE
  5
131
330
1F
100
AcDbEntity
  8
0
  6
Continuous
 62
     8
370
    18
100
AcDbLine
 10
2141.9695745941
 20
2390.7951450887
 30
0.0
 11
2141.9695745941
 21
2103.899448972
 31
0.0
  0
LINE
  5
132
330
1F
100
AcDbEntity
  8
0
  6
Continuous
 62
     8
370
    18
100
AcDbLine
 10
2149.2481278502
 20
2390.7951450887
 30
0.0
 11
2149.2481278502
 21
2103.899448972
 31
0.0
  0
LINE
  5
133
330
1F
100
AcDbEntity
  8
0
  6
Continuous
 62
     8
370
    18
100
AcDbLine
 10
2153.0286211509
 20
2390.5380932683
 30
0.0
 11
2153.0286211509
 21
2390.3065342861
 31
0.0
  0
LINE
  5
134
330
1F
100
AcDbEntity
  8
0
  6
Continuous
 62
     8
370
    18
100
AcDbLine
 10
2138.1890812934
 20
2390.5380932683
 30
0.0
 11
2138.1890812934
 21
2390.2814987282
 31
0.0
  0
LINE
  5
135
330
1F
100
AcDbEntity
  8
0
  6
Continuous
 62
     8
370
    18
100
AcDbLine
 10
1358.4905174234
 20
2390.8124048487
 30
0.0
 11
1358.4905174234
 21
2103.899448972
 31
0.0
  0
LINE
  5
136
330
1F
100
AcDbEntity
  8
0
  6
Continuous
 62
     8
370
    18
100
AcDbLine
 10
1352.7271850209
 20
2390.8124048487
 30
0.0
 11
1352.7271850209
 21
2103.899448972
 31
0.0
  0
LINE
  5
137
330
1F
100
AcDbEntity
  8
0
  6
Continuous
 62
     8
370
    18
100
AcDbLine
 10
1359.2481278502
 20
2390.7951450887
 30
0.0
 11
1359.2481278502
 21
2103.899448972
 31
0.0
  0
LINE
  5
138
330
1F
100
AcDbEntity
  8
0
  6
Continuous
 62
     8
370
    18
100
AcDbLine
 10
1351.9695745941
 20
2390.7951450887
 30
0.0
 11
1351.9695745941
 21
2103.899448972
 31
0.0
  0
LINE
  5
139
330
1F
100
AcDbEntity
  8
0
  6
Continuous
 62
     8
370
    18
100
AcDbLine
 10
1363.0286211509
 20
2390.5380932683
 30
0.0
 11
1363.0286211509
 21
2390.3065342861
 31
0.0
  0
LINE
  5
13A
330
1F
100
AcDbEntity
  8
0
  6
Continuous
 62
     8
370
    18
100
AcDbLine
 10
1348.1890812934
 20
2390.5380932683
 30
0.0
 11
1348.1890812934
 21
2390.2814987282
 31
0.0
  0
LINE
  5
13B
330
1F
100
AcDbEntity
  8
0
  6
Continuous
 62
     8
370
    18
100
AcDbLine
 10
1346.1088512221
 20
2100.899448972
 30
0.0
 11
1365.1088512221
 21
2100.899448972
 31
0.0
  0
LINE
  5
13C
330
1F
100
AcDbEntity
  8
0
  6
Continuous
 62
     8
370
    18
100
AcDbLine
 10
2136.1088512221
 20
2100.899448972
 30
0.0
 11
2155.1088512221
 21
2100.899448972
 31
0.0
  0
LINE
  5
13D
330
1F
100
AcDbEntity
  8
0
  6
Continuous
 62
     7
370
    25
100
AcDbLine
 10
2435.681030311
 20
2103.899448972
 30
0.0
 11
2435.681030311
 21
2344.3494997615
 31
0.0
  0
LINE
  5
13E
330
1F
100
AcDbEntity
  8
0
  6
Continuous
 62
     7
370
    25
100
AcDbLine
 10
2435.681030311
 20
2378.449398191
 30
0.0
 11
2435.681030311
 21
2389.9429839043
 31
0.0
  0
ARC
  5
13F
330
1F
100
AcDbEntity
  8
0
  6
Continuous
 62
     7
370
    25
100
AcDbCircle
 10
2430.9829441595
 20
2383.899448972
 30
0.0
 40
10.00000000000017
100
AcDbArc
 50
89.997904455
 51
156.447707388
  0
ARC
  5
140
330
1F
100
AcDbEntity
  8
0
  6
Continuous
 62
     7
370
    25
100
AcDbCircle
 10
2430.9829441595
 20
2383.899448972
 30
0.0
 40
10.00000000000032
100
AcDbArc
 50
40.3982166506
 51
89.997904455
  0
LINE
  5
141
330
1F
100
AcDbEntity
  8
0
  6
Continuous
 62
     7
370
    25
100
AcDbLine
 10
2424.2931661238
 20
2389.2558917881
 30
0.0
 11
2424.2931661238
 21
2103.899448972
 31
0.0
  0
LINE
  5
142
330
1F
100
AcDbEntity
  8
0
  6
Continuous
 62
     7
370
    25
100
AcDbLine
 10
2440.1563213518
 20
2103.899448972
 30
0.0
 11
2440.1563213518
 21
2343.8994489763
 31
0.0
  0
LINE
  5
143
330
1F
100
AcDbEntity
  8
0
  6
Continuous
 62
     7
370
    25
100
AcDbLine
 10
2440.1563213518
 20
2378.8994489763
 30
0.0
 11
2440.1563213518
 21
2386.6722605707
 31
0.0
  0
LINE
  5
144
330
1F
100
AcDbEntity
  8
0
  6
Continuous
 62
     7
370
    25
100
AcDbLine
 10
2421.8095669673
 20
2387.8940942611
 30
0.0
 11
2421.8095669673
 21
2103.899448972
 31
0.0
  0
LINE
  5
145
330
1F
100
AcDbEntity
  8
0
  6
Continuous
 62
     7
370
    25
100
AcDbLine
 10
3435.6426336587
 20
2389.9420443524
 30
0.0
 11
3435.6426336587
 21
2378.449398191
 31
0.0
  0
LINE
  5
146
330
1F
100
AcDbEntity
  8
0
  6
Continuous
 62
     7
370
    25
100
AcDbLine
 10
3435.6426336587
 20
2344.3494997616
 30
0.0
 11
3435.6426336587
 21
2103.899448972
 31
0.0
  0
ARC
  5
147
330
1F
100
AcDbEntity
  8
0
  6
Continuous
 62
     7
370
    25
100
AcDbCircle
 10
3440.3407198102
 20
2383.899448972
 30
0.0
 40
9.999999999999922
100
AcDbArc
 50
89.997904455
 51
139.6010884614
  0
ARC
  5
148
330
1F
100
AcDbEntity
  8
0
  6
Continuous
 62
     7
370
    25
100
AcDbCircle
 10
3440.3407198102
 20
2383.899448972
 30
0.0
 40
9.999999999999922
100
AcDbArc
 50
23.5512056457
 51
89.997904455
  0
LINE
  5
149
330
1F
100
AcDbEntity
  8
0
  6
Continuous
 62
     7
370
    25
100
AcDbLine
 10
3447.0304978459
 20
2103.899448972
 30
0.0
 11
3447.0304978459
 21
2389.2555257457
 31
0.0
  0
LINE
  5
14A
330
1F
100
AcDbEntity
  8
0
  6
Continuous
 62
     7
370
    25
100
AcDbLine
 10
3431.167342618
 20
2386.6691782675
 30
0.0
 11
3431.167342618
 21
2378.8994489763
 31
0.0
  0
LINE
  5
14B
330
1F
100
AcDbEntity
  8
0
  6
Continuous
 62
     7
370
    25
100
AcDbLine
 10
3431.167342618
 20
2343.8994489763
 30
0.0
 11
3431.167342618
 21
2103.899448972
 31
0.0
  0
LINE
  5
14C
330
1F
100
AcDbEntity
  8
0
  6
Continuous
 62
     7
370
    25
100
AcDbLine
 10
3449.5140970024
 20
2103.899448972
 30
0.0
 11
3449.5140970024
 21
2387.8940942611
 31
0.0
  0
LINE
  5
14D
330
1F
100
AcDbEntity
  8
0
  6
Continuous
 62
     7
370
    25
100
AcDbLine
 10
2440.8095669673
 20
2100.899448972
 30
0.0
 11
2440.8095669673
 21
2103.899448972
 31
0.0
  0
LINE
  5
14E
330
1F
100
AcDbEntity
  8
0
  6
Continuous
 62
     7
370
    25
100
AcDbLine
 10
2421.8095669673
 20
2103.899448972
 30
0.0
 11
2421.8095669673
 21
2100.899448972
 31
0.0
  0
ARC
  5
14F
330
1F
100
AcDbEntity
  8
0
  6
Continuous
 62
     7
370
    25
100
AcDbCircle
 10
2426.8095669673
 20
2100.899448972
 30
0.0
 40
5.0
100
AcDbArc
 50
180.0
 51
270.0
  0
ARC
  5
150
330
1F
100
AcDbEntity
  8
0
  6
Continuous
 62
     7
370
    25
100
AcDbCircle
 10
2435.8095669673
 20
2100.899448972
 30
0.0
 40
5.0
100
AcDbArc
 50
270.0
 51
0.0
  0
ARC
  5
151
330
1F
100
AcDbEntity
  8
0
  6
Continuous
 62
     7
370
    25
100
AcDbCircle
 10
3435.5140970024
 20
2100.899448972
 30
0.0
 40
5.0
100
AcDbArc
 50
180.0
 51
270.0
  0
ARC
  5
152
330
1F
100
AcDbEntity
  8
0
  6
Continuous
 62
     7
370
    25
100
AcDbCircle
 10
3444.5140970024
 20
2100.899448972
 30
0.0
 40
5.0
100
AcDbArc
 50
270.0
 51
0.0
  0
LINE
  5
153
330
1F
100
AcDbEntity
  8
0
  6
Continuous
 62
     7
370
    25
100
AcDbLine
 10
3449.5140970024
 20
2100.899448972
 30
0.0
 11
3449.5140970024
 21
2103.899448972
 31
0.0
  0
LINE
  5
154
330
1F
100
AcDbEntity
  8
0
  6
Continuous
 62
     7
370
    25
100
AcDbLine
 10
3430.5140970024
 20
2103.899448972
 30
0.0
 11
3430.5140970024
 21
2100.899448972
 31
0.0
  0
LINE
  5
155
330
1F
100
AcDbEntity
  8
0
  6
Continuous
 62
     7
370
    25
100
AcDbLine
 10
2440.6618319849
 20
2378.8994489763
 30
0.0
 11
2440.6618319849
 21
2388.8994489763
 31
0.0
  0
LINE
  5
156
330
1F
100
AcDbEntity
  8
0
  6
Continuous
 62
     7
370
    25
100
AcDbLine
 10
2440.6618319849
 20
2388.8994489763
 30
0.0
 11
2477.6618319849
 21
2388.8994489763
 31
0.0
  0
LINE
  5
157
330
1F
100
AcDbEntity
  8
0
  6
Continuous
 62
     7
370
    25
100
AcDbLine
 10
2477.6618319849
 20
2378.8994489763
 30
0.0
 11
2440.6618319849
 21
2378.8994489763
 31
0.0
  0
LINE
  5
158
330
1F
100
AcDbEntity
  8
0
  6
Continuous
 62
     7
370
    25
100
AcDbLine
 10
3393.6618319849
 20
2388.8994489763
 30
0.0
 11
2477.6618319849
 21
2388.8994489763
 31
0.0
  0
LINE
  5
159
330
1F
100
AcDbEntity
  8
0
  6
Continuous
 62
     7
370
    25
100
AcDbLine
 10
3393.6618319849
 20
2378.8994489763
 30
0.0
 11
2477.6618319849
 21
2378.8994489763
 31
0.0
  0
LINE
  5
15A
330
1F
100
AcDbEntity
  8
0
  6
Continuous
 62
     7
370
    25
100
AcDbLine
 10
3430.6618319849
 20
2388.8994489763
 30
0.0
 11
3430.6618319849
 21
2378.8994489763
 31
0.0
  0
LINE
  5
15B
330
1F
100
AcDbEntity
  8
0
  6
Continuous
 62
     7
370
    25
100
AcDbLine
 10
3393.6618319849
 20
2388.8994489763
 30
0.0
 11
3430.6618319849
 21
2388.8994489763
 31
0.0
  0
LINE
  5
15C
330
1F
100
AcDbEntity
  8
0
  6
Continuous
 62
     7
370
    25
100
AcDbLine
 10
3430.6618319849
 20
2378.8994489763
 30
0.0
 11
3393.6618319849
 21
2378.8994489763
 31
0.0
  0
LINE
  5
15D
330
1F
100
AcDbEntity
  8
0
  6
Continuous
 62
     7
370
    25
100
AcDbLine
 10
2439.2174483085
 20
2343.8994489763
 30
0.0
 11
3432.1042615076
 21
2343.8994489763
 31
0.0
  0
LINE
  5
15E
330
1F
100
AcDbEntity
  8
0
  6
Continuous
 62
     7
370
    25
100
AcDbLine
 10
2435.4818319849
 20
2346.1539777445
 30
0.0
 11
2435.4818319849
 21
2346.3994489763
 31
0.0
  0
LINE
  5
15F
330
1F
100
AcDbEntity
  8
0
  6
Continuous
 62
     7
370
    25
100
AcDbLine
 10
3435.8418319849
 20
2346.1653381281
 30
0.0
 11
3435.8418319849
 21
2346.3994489763
 31
0.0
  0
LINE
  5
160
330
1F
100
AcDbEntity
  8
0
  6
Continuous
 62
     7
370
    25
100
AcDbLine
 10
2435.4818319849
 20
2346.3994489763
 30
0.0
 11
2435.4818319849
 21
2376.3994489763
 31
0.0
  0
LINE
  5
161
330
1F
100
AcDbEntity
  8
0
  6
Continuous
 62
     7
370
    25
100
AcDbLine
 10
3435.8418319849
 20
2346.3994489763
 30
0.0
 11
3435.8418319849
 21
2376.3994489763
 31
0.0
  0
LINE
  5
162
330
1F
100
AcDbEntity
  8
0
  6
Continuous
 62
     7
370
    25
100
AcDbLine
 10
2435.4818319849
 20
2376.3994489763
 30
0.0
 11
2435.4818319849
 21
2376.644920208
 31
0.0
  0
LINE
  5
163
330
1F
100
AcDbEntity
  8
0
  6
Continuous
 62
     7
370
    25
100
AcDbLine
 10
2439.2174483085
 20
2378.8994489763
 30
0.0
 11
2440.6618319849
 21
2378.8994489763
 31
0.0
  0
LINE
  5
164
330
1F
100
AcDbEntity
  8
0
  6
Continuous
 62
     7
370
    25
100
AcDbLine
 10
3430.6618319849
 20
2378.8994489763
 30
0.0
 11
3432.1042615076
 21
2378.8994489763
 31
0.0
  0
LINE
  5
165
330
1F
100
AcDbEntity
  8
0
  6
Continuous
 62
     7
370
    25
100
AcDbLine
 10
3435.8418319849
 20
2376.3994489763
 30
0.0
 11
3435.8418319849
 21
2376.6335598245
 31
0.0
  0
LINE
  5
166
330
1F
100
AcDbEntity
  8
0
  6
Continuous
 62
     7
370
    25
100
AcDbLine
 10
3432.1042615076
 20
2378.8994489763
 30
0.0
 11
3432.1062156613
 21
2378.8994489763
 31
0.0
  0
LINE
  5
167
330
1F
100
AcDbEntity
  8
0
  6
Continuous
 62
     7
370
    25
100
AcDbLine
 10
3432.1042615076
 20
2343.8994489763
 30
0.0
 11
3432.1062156613
 21
2343.8994489763
 31
0.0
  0
SPLINE
  5
168
330
1F
100
AcDbEntity
  8
0
  6
Continuous
 62
     7
370
    25
100
AcDbSpline
210
0.0
220
0.0
230
1.0
 70
     8
 71
     3
 72
    23
 73
    19
 74
     0
 42
0.000000001
 43
0.00000001
 40
0.0
 40
0.0
 40
0.0
 40
0.0
 40
0.0885678039540114
 40
0.1796618030867236
 40
0.2696402247011208
 40
0.3623227458492552
 40
0.4187921283155891
 40
0.4469855966110755
 40
0.4758340949873268
 40
0.5121667494004553
 40
0.5486292713320118
 40
0.5959020947527293
 40
0.6382710939488324
 40
0.6816578768037951
 40
0.7625636367512904
 40
0.8456297940757806
 40
0.9220704932663933
 40
1.0
 40
1.0
 40
1.0
 40
1.0
 10
2430.047307418029
 20
2390.538093268283
 30
0.0
 10
2430.142178950257
 20
2390.298540727005
 30
0.0
 10
2430.334628009406
 20
2389.812602953022
 30
0.0
 10
2430.79160222807
 20
2389.05820455433
 30
0.0
 10
2431.354562443077
 20
2388.294350195401
 30
0.0
 10
2431.941500947628
 20
2387.645884190932
 30
0.0
 10
2432.447334354051
 20
2387.212947142021
 30
0.0
 10
2432.807227833216
 20
2386.980075656305
 30
0.0
 10
2433.125988157379
 20
2386.828407036306
 30
0.0
 10
2433.501271130111
 20
2386.743846708076
 30
0.0
 10
2433.936092941433
 20
2386.80091926566
 30
0.0
 10
2434.320926106423
 20
2387.01109271497
 30
0.0
 10
2434.648292015318
 20
2387.307000065681
 30
0.0
 10
2434.989058984174
 20
2387.723950267882
 30
0.0
 10
2435.312832904201
 20
2388.285889756335
 30
0.0
 10
2435.558272787774
 20
2388.955872537159
 30
0.0
 10
2435.690333395974
 20
2389.620112000336
 30
0.0
 10
2435.674256844522
 20
2390.042437297142
 30
0.0
 10
2435.666141044474
 20
2390.255636481947
 30
0.0
  0
SPLINE
  5
169
330
1F
100
AcDbEntity
  8
0
  6
Continuous
 62
     7
370
    25
100
AcDbSpline
210
0.0
220
0.0
230
1.0
 70
     8
 71
     3
 72
    14
 73
    10
 74
     0
 42
0.000000001
 43
0.00000001
 40
0.0
 40
0.0
 40
0.0
 40
0.0
 40
0.2204300636816243
 40
0.3399443732550936
 40
0.4603671101701541
 40
0.5640212293773891
 40
0.6631726788869662
 40
0.8102691653343018
 40
1.0
 40
1.0
 40
1.0
 40
1.0
 10
2429.22750600434
 20
2390.578305893037
 30
0.0
 10
2429.277960482181
 20
2390.634653805664
 30
0.0
 10
2429.355770720771
 20
2390.721552822622
 30
0.0
 10
2429.513544110184
 20
2390.798904336984
 30
0.0
 10
2429.646100146534
 20
2390.825176981887
 30
0.0
 10
2429.767669275475
 20
2390.812606759348
 30
0.0
 10
2429.879655270816
 20
2390.767201626934
 30
0.0
 10
2429.985633257062
 20
2390.677738400088
 30
0.0
 10
2430.025084820374
 20
2390.588410573454
 30
0.0
 10
2430.047307418029
 20
2390.538093268283
 30
0.0
  0
SPLINE
  5
16A
330
1F
100
AcDbEntity
  8
0
  6
Continuous
 62
     7
370
    25
100
AcDbSpline
210
0.0
220
0.0
230
1.0
 70
     8
 71
     3
 72
    23
 73
    19
 74
     0
 42
0.000000001
 43
0.00000001
 40
0.0
 40
0.0
 40
0.0
 40
0.0
 40
0.0876038587420585
 40
0.1752379614181738
 40
0.2636805576071802
 40
0.3519102061228138
 40
0.4192295657443112
 40
0.453438372831113
 40
0.4875483396523675
 40
0.5342203370545083
 40
0.5807897799348426
 40
0.6178527330908522
 40
0.6549967327784414
 40
0.7183513735855416
 40
0.7818242023345464
 40
0.8701536731504289
 40
0.9585039722462484
 40
1.0
 40
1.0
 40
1.0
 40
1.0
 10
2424.721551288084
 20
2390.795145088705
 30
0.0
 10
2424.61649919701
 20
2390.581139455807
 30
0.0
 10
2424.406358747183
 20
2390.153054307736
 30
0.0
 10
2424.280430081221
 20
2389.493942189173
 30
0.0
 10
2424.295427494627
 20
2388.839114909351
 30
0.0
 10
2424.468413926008
 20
2388.269643724091
 30
0.0
 10
2424.731705399859
 20
2387.88630044926
 30
0.0
 10
2425.00024418436
 20
2387.683822560987
 30
0.0
 10
2425.276456281502
 20
2387.571622098483
 30
0.0
 10
2425.644817170087
 20
2387.559521993224
 30
0.0
 10
2426.048107749553
 20
2387.685055060758
 30
0.0
 10
2426.413809053859
 20
2387.875196964667
 30
0.0
 10
2426.816759776911
 20
2388.140078522951
 30
0.0
 10
2427.275531554197
 20
2388.50283736125
 30
0.0
 10
2427.839597307949
 20
2389.017489125184
 30
0.0
 10
2428.424584164404
 20
2389.612537227188
 30
0.0
 10
2428.902123147821
 20
2390.158454877868
 30
0.0
 10
2429.148704145477
 20
2390.476625550087
 30
0.0
 10
2429.22750600434
 20
2390.578305893037
 30
0.0
  0
SPLINE
  5
16B
330
1F
100
AcDbEntity
  8
0
  6
Continuous
 62
     7
370
    25
100
AcDbSpline
210
0.0
220
0.0
230
1.0
 70
     8
 71
     3
 72
    14
 73
    10
 74
     0
 42
0.000000001
 43
0.00000001
 40
0.0
 40
0.0
 40
0.0
 40
0.0
 40
0.2240635092469123
 40
0.3487071205324734
 40
0.4742528072797302
 40
0.582549286062548
 40
0.6866084231150471
 40
0.837972714943134
 40
1.0
 40
1.0
 40
1.0
 40
1.0
 10
2424.356705335619
 20
2390.812404848666
 30
0.0
 10
2424.421245109009
 20
2390.86727846989
 30
0.0
 10
2424.521687517566
 20
2390.952677571753
 30
0.0
 10
2424.653854921102
 20
2391.028563501069
 30
0.0
 10
2424.736265847513
 20
2391.054308220026
 30
0.0
 10
2424.783696452906
 20
2391.041531389726
 30
0.0
 10
2424.801151932358
 20
2390.996157895943
 30
0.0
 10
2424.783782232632
 20
2390.91398460137
 30
0.0
 10
2424.742760187854
 20
2390.835646728703
 30
0.0
 10
2424.721551288084
 20
2390.795145088705
 30
0.0
  0
SPLINE
  5
16C
330
1F
100
AcDbEntity
  8
0
  6
Continuous
 62
     7
370
    25
100
AcDbSpline
210
0.0
220
0.0
230
1.0
 70
     8
 71
     3
 72
    16
 73
    12
 74
     0
 42
0.000000001
 43
0.00000001
 40
0.0
 40
0.0
 40
0.0
 40
0.0
 40
0.023528865297874
 40
0.126060420401098
 40
0.1990003932067924
 40
0.2739627028527632
 40
0.3919993828644808
 40
0.5131707067578583
 40
0.6802070910938328
 40
0.8520458425128393
 40
0.9999999999999999
 40
0.9999999999999999
 40
0.9999999999999999
 40
0.9999999999999999
 10
2421.818254062227
 20
2387.89416713263
 30
0.0
 10
2421.815575977525
 20
2387.889970613595
 30
0.0
 10
2421.801227623745
 20
2387.867486955878
 30
0.0
 10
2421.86479251708
 20
2387.967623769311
 30
0.0
 10
2421.974368059891
 20
2388.133263652517
 30
0.0
 10
2422.134524396954
 20
2388.365875085352
 30
0.0
 10
2422.368731199188
 20
2388.685899113367
 30
0.0
 10
2422.728927440754
 20
2389.139816715518
 30
0.0
 10
2423.20184019279
 20
2389.680670015803
 30
0.0
 10
2423.76418491776
 20
2390.26306468864
 30
0.0
 10
2424.169283830458
 20
2390.63864179083
 30
0.0
 10
2424.356705335619
 20
2390.812404848666
 30
0.0
  0
SPLINE
  5
16D
330
1F
100
AcDbEntity
  8
0
  6
Continuous
 62
     7
370
    25
100
AcDbSpline
210
0.0
220
0.0
230
1.0
 70
     8
 71
     3
 72
    11
 73
     7
 74
     0
 42
0.000000001
 43
0.00000001
 40
0.0
 40
0.0
 40
0.0
 40
0.0
 40
0.4256339154393571
 40
0.6667445501270176
 40
0.8693984488480514
 40
1.0
 40
1.0
 40
1.0
 40
1.0
 10
2438.82418694658
 20
2390.091229008657
 30
0.0
 10
2438.777048489971
 20
2390.152418363588
 30
0.0
 10
2438.703207313538
 20
2390.248269909826
 30
0.0
 10
2438.631209179985
 20
2390.339152250638
 30
0.0
 10
2438.597739703803
 20
2390.381120211256
 30
0.0
 10
2438.598047468109
 20
2390.380728651142
 30
0.0
 10
2438.598168079777
 20
2390.380575200214
 30
0.0
  0
SPLINE
  5
16E
330
1F
100
AcDbEntity
  8
0
  6
Continuous
 62
     7
370
    25
100
AcDbSpline
210
0.0
220
0.0
230
1.0
 70
     8
 71
     3
 72
    23
 73
    19
 74
     0
 42
0.000000001
 43
0.00000001
 40
0.0
 40
0.0
 40
0.0
 40
0.0
 40
0.0897184424169854
 40
0.1819530101450221
 40
0.2741714474261667
 40
0.3688066833926739
 40
0.4236166376621336
 40
0.4510047767191717
 40
0.4792226014534577
 40
0.503776821511527
 40
0.5284329184559774
 40
0.5611529616598343
 40
0.601315397272471
 40
0.642601485698141
 40
0.7286645668366298
 40
0.816931242626201
 40
0.9072926694662763
 40
1.0
 40
1.0
 40
1.0
 40
1.0
 10
2436.323570733976
 20
2390.221763152694
 30
0.0
 10
2436.558752538559
 20
2389.951377287297
 30
0.0
 10
2437.035711746971
 20
2389.40302267052
 30
0.0
 10
2437.746736446681
 20
2388.544779588637
 30
0.0
 10
2438.429906017182
 20
2387.66647092484
 30
0.0
 10
2438.974303749097
 20
2386.915196284899
 30
0.0
 10
2439.345509526256
 20
2386.403439583254
 30
0.0
 10
2439.571028827294
 20
2386.126576412378
 30
0.0
 10
2439.732506816736
 20
2385.96653269498
 30
0.0
 10
2439.880566448922
 20
2385.892885664588
 30
0.0
 10
2440.008072117429
 20
2385.938150084157
 30
0.0
 10
2440.102839639291
 20
2386.123569128021
 30
0.0
 10
2440.153764595734
 20
2386.419116451899
 30
0.0
 10
2440.163448672018
 20
2386.902781969776
 30
0.0
 10
2440.072796797527
 20
2387.570753605625
 30
0.0
 10
2439.814582680081
 20
2388.40307719823
 30
0.0
 10
2439.414553202877
 20
2389.254689894528
 30
0.0
 10
2439.022649692476
 20
2389.81001061606
 30
0.0
 10
2438.82418694658
 20
2390.091229008657
 30
0.0
  0
SPLINE
  5
16F
330
1F
100
AcDbEntity
  8
0
  6
Continuous
 62
     7
370
    25
100
AcDbSpline
210
0.0
220
0.0
230
1.0
 70
     8
 71
     3
 72
    15
 73
    11
 74
     0
 42
0.000000001
 43
0.00000001
 40
0.0
 40
0.0
 40
0.0
 40
0.0
 40
0.2153296810343772
 40
0.3327055588565954
 40
0.4327106172887602
 40
0.5331289091056287
 40
0.6249491950544293
 40
0.7533679527279632
 40
0.9418458044828449
 40
1.0
 40
1.0
 40
1.0
 40
1.0
 10
2435.666141044474
 20
2390.255636481947
 30
0.0
 10
2435.665484973274
 20
2390.314789073373
 30
0.0
 10
2435.664471278671
 20
2390.406185651371
 30
0.0
 10
2435.723212130218
 20
2390.489363662649
 30
0.0
 10
2435.795145405276
 20
2390.523658475313
 30
0.0
 10
2435.885102597313
 20
2390.52262427843
 30
0.0
 10
2435.994671955373
 20
2390.487859174411
 30
0.0
 10
2436.133014523981
 20
2390.4075382469
 30
0.0
 10
2436.245336860324
 20
2390.308712259512
 30
0.0
 10
2436.308643459232
 20
2390.23835332196
 30
0.0
 10
2436.323570733976
 20
2390.221763152694
 30
0.0
  0
SPLINE
  5
170
330
1F
100
AcDbEntity
  8
0
  6
Continuous
 62
     7
370
    25
100
AcDbSpline
210
0.0
220
0.0
230
1.0
 70
     8
 71
     3
 72
    23
 73
    19
 74
     0
 42
0.000000001
 43
0.00000001
 40
0.0
 40
0.0
 40
0.0
 40
0.0
 40
0.0910969868013287
 40
0.1848037119966393
 40
0.2589280754183402
 40
0.3346657852428934
 40
0.3911149903085906
 40
0.4192965879842119
 40
0.4482557548146678
 40
0.4839349698269921
 40
0.5196654595162772
 40
0.5704118234188865
 40
0.6175951628619701
 40
0.6659024462277306
 40
0.7517301575708736
 40
0.8399249721114654
 40
0.9190990318416685
 40
1.0
 40
1.0
 40
1.0
 40
1.0
 10
3435.657522925268
 20
2390.255636481947
 30
0.0
 10
3435.650538304428
 20
2390.005980327324
 30
0.0
 10
3435.636368967949
 20
2389.499515890717
 30
0.0
 10
3435.818843123046
 20
2388.772646571027
 30
0.0
 10
3436.107527233392
 20
2388.098223102986
 30
0.0
 10
3436.457347792572
 20
2387.548087306618
 30
0.0
 10
3436.817907666761
 20
2387.163187397397
 30
0.0
 10
3437.129049896547
 20
2386.940391741623
 30
0.0
 10
3437.419270874599
 20
2386.803194734693
 30
0.0
 10
3437.778937802271
 20
2386.743276997409
 30
0.0
 10
3438.231898162264
 20
2386.827900914334
 30
0.0
 10
3438.683075072901
 20
2387.070379972632
 30
0.0
 10
3439.115136300431
 20
2387.410371285496
 30
0.0
 10
3439.598685908326
 20
2387.87678945969
 30
0.0
 10
3440.120483610899
 20
2388.486903341165
 30
0.0
 10
3440.619129777105
 20
2389.194856916471
 30
0.0
 10
3441.0217789479
 20
2389.887108487889
 30
0.0
 10
3441.190889223191
 20
2390.319543288803
 30
0.0
 10
3441.276356551712
 20
2390.538093268276
 30
0.0
  0
SPLINE
  5
171
330
1F
100
AcDbEntity
  8
0
  6
Continuous
 62
     7
370
    25
100
AcDbSpline
210
0.0
220
0.0
230
1.0
 70
     8
 71
     3
 72
    14
 73
    10
 74
     0
 42
0.000000001
 43
0.00000001
 40
0.0
 40
0.0
 40
0.0
 40
0.0
 40
0.1710509902990943
 40
0.3470570014224601
 40
0.4903047851398039
 40
0.6370509376635526
 40
0.7968415216864134
 40
0.9208419076420761
 40
1.0
 40
1.0
 40
1.0
 40
1.0
 10
3446.966958634123
 20
2390.812404848666
 30
0.0
 10
3447.182989247566
 20
2390.611473510932
 30
0.0
 10
3447.621308469139
 20
2390.203790237984
 30
0.0
 10
3448.178434207256
 20
2389.617691507688
 30
0.0
 10
3448.649772122185
 20
2389.073671472152
 30
0.0
 10
3449.042255960574
 20
2388.573155984709
 30
0.0
 10
3449.332730866762
 20
2388.161594643143
 30
0.0
 10
3449.496246368679
 20
2387.908880155738
 30
0.0
 10
3449.502842139123
 20
2387.898290018059
 30
0.0
 10
3449.505412096381
 20
2387.894163706899
 30
0.0
  0
SPLINE
  5
172
330
1F
100
AcDbEntity
  8
0
  6
Continuous
 62
     7
370
    25
100
AcDbSpline
210
0.0
220
0.0
230
1.0
 70
     8
 71
     3
 72
    14
 73
    10
 74
     0
 42
0.000000001
 43
0.00000001
 40
0.0
 40
0.0
 40
0.0
 40
0.0
 40
0.223697858003452
 40
0.3528357075717441
 40
0.4829964006465
 40
0.5936020866478989
 40
0.6970463839856236
 40
0.8440092931474639
 40
1.0
 40
1.0
 40
1.0
 40
1.0
 10
3446.60211268166
 20
2390.795145088701
 30
0.0
 10
3446.573726655472
 20
2390.85092223964
 30
0.0
 10
3446.528953747386
 20
2390.938898810778
 30
0.0
 10
3446.525142735638
 20
2391.021785108699
 30
0.0
 10
3446.559607789491
 20
2391.053578365463
 30
0.0
 10
3446.627068190425
 20
2391.044584666502
 30
0.0
 10
3446.719257335932
 20
2391.002583695771
 30
0.0
 10
3446.836718878341
 20
2390.925217710645
 30
0.0
 10
3446.922691409206
 20
2390.850748842056
 30
0.0
 10
3446.966958634123
 20
2390.812404848666
 30
0.0
  0
SPLINE
  5
173
330
1F
100
AcDbEntity
  8
0
  6
Continuous
 62
     7
370
    25
100
AcDbSpline
210
0.0
220
0.0
230
1.0
 70
     8
 71
     3
 72
    22
 73
    18
 74
     0
 42
0.000000001
 43
0.00000001
 40
0.0
 40
0.0
 40
0.0
 40
0.0
 40
0.0888263735614426
 40
0.1776643044611117
 40
0.2480696502500679
 40
0.3183725125743799
 40
0.3911252793172404
 40
0.4486880646413484
 40
0.495458121926365
 40
0.5422043769639106
 40
0.5766399085222108
 40
0.6111480241397917
 40
0.6694938294426566
 40
0.7279572587091716
 40
0.8144549765181905
 40
0.9009964173563896
 40
1.0
 40
1.0
 40
1.0
 40
1.0
 10
3442.096157965402
 20
2390.578305893037
 30
0.0
 10
3442.269690279616
 20
2390.359294487699
 30
0.0
 10
3442.616777486607
 20
2389.921243181107
 30
0.0
 10
3443.199069924377
 20
2389.301492788009
 30
0.0
 10
3443.778285063487
 20
2388.739830923166
 30
0.0
 10
3444.358135465337
 20
2388.24661036284
 30
0.0
 10
3444.941651133533
 20
2387.839203069511
 30
0.0
 10
3445.489471318358
 20
2387.596917203011
 30
0.0
 10
3445.944622016171
 20
2387.549376597419
 30
0.0
 10
3446.271604257545
 20
2387.649937350904
 30
0.0
 10
3446.50545221215
 20
2387.817180750551
 30
0.0
 10
3446.711623394448
 20
2388.048798983757
 30
0.0
 10
3446.885489099878
 20
2388.372291696451
 30
0.0
 10
3447.019158597825
 20
2388.848895993968
 30
0.0
 10
3447.048448195603
 20
2389.417920688291
 30
0.0
 10
3446.937973281481
 20
2390.099574566058
 30
0.0
 10
3446.718969351963
 20
2390.553133804019
 30
0.0
 10
3446.60211268166
 20
2390.795145088701
 30
0.0
  0
SPLINE
  5
174
330
1F
100
AcDbEntity
  8
0
  6
Continuous
 62
     7
370
    25
100
AcDbSpline
210
0.0
220
0.0
230
1.0
 70
     8
 71
     3
 72
    14
 73
    10
 74
     0
 42
0.000000001
 43
0.00000001
 40
0.0
 40
0.0
 40
0.0
 40
0.0
 40
0.2198296104785275
 40
0.3499177958292769
 40
0.4588983161343728
 40
0.5683999765788669
 40
0.666709468123292
 40
0.7967198733579898
 40
1.0
 40
1.0
 40
1.0
 40
1.0
 10
3441.276356551712
 20
2390.538093268276
 30
0.0
 10
3441.302960786643
 20
2390.596394094629
 30
0.0
 10
3441.345308563299
 20
2390.689195499353
 30
0.0
 10
3441.463383016913
 20
2390.778064020051
 30
0.0
 10
3441.579264417877
 20
2390.818595071928
 30
0.0
 10
3441.701268601832
 20
2390.822317882501
 30
0.0
 10
3441.828943584766
 20
2390.791385505037
 30
0.0
 10
3441.974824635664
 20
2390.715484289817
 30
0.0
 10
3442.050190758207
 20
2390.630276013705
 30
0.0
 10
3442.096157965402
 20
2390.578305893037
 30
0.0
  0
SPLINE
  5
175
330
1F
100
AcDbEntity
  8
0
  6
Continuous
 62
     7
370
    25
100
AcDbSpline
210
0.0
220
0.0
230
1.0
 70
     8
 71
     3
 72
    15
 73
    11
 74
     0
 42
0.000000001
 43
0.00000001
 40
0.0
 40
0.0
 40
0.0
 40
0.0
 40
0.2148110296556649
 40
0.341132267341677
 40
0.4464287003091036
 40
0.5523542512426315
 40
0.6447889097414538
 40
0.7660552293890753
 40
0.940389446327539
 40
1.0
 40
1.0
 40
1.0
 40
1.0
 10
3435.000093235766
 20
2390.221763152694
 30
0.0
 10
3435.058196000372
 20
2390.282331352787
 30
0.0
 10
3435.150466531642
 20
2390.378517137382
 30
0.0
 10
3435.299452364476
 20
2390.473351482256
 30
0.0
 10
3435.415856686548
 20
2390.518816300521
 30
0.0
 10
3435.512628862661
 20
2390.526036749047
 30
0.0
 10
3435.590323797886
 20
2390.497699496216
 30
0.0
 10
3435.64794088672
 20
2390.427270643425
 30
0.0
 10
3435.663298757167
 20
2390.337401420674
 30
0.0
 10
3435.658695789492
 20
2390.272240007297
 30
0.0
 10
3435.657522925268
 20
2390.255636481947
 30
0.0
  0
SPLINE
  5
176
330
1F
100
AcDbEntity
  8
0
  6
Continuous
 62
     7
370
    25
100
AcDbSpline
210
0.0
220
0.0
230
1.0
 70
     8
 71
     3
 72
    24
 73
    20
 74
     0
 42
0.000000001
 43
0.00000001
 40
0.0
 40
0.0
 40
0.0
 40
0.0
 40
0.0911965069059058
 40
0.1849512956916472
 40
0.2785630825689108
 40
0.3267793156259068
 40
0.3749620934334357
 40
0.4231886157143697
 40
0.4634025814428991
 40
0.4878136217774444
 40
0.5123391454037174
 40
0.5441511799606298
 40
0.5754422073291717
 40
0.6074155224532766
 40
0.6832791824590436
 40
0.7609114936918927
 40
0.8467133254741134
 40
0.9343946246668707
 40
1.0
 40
1.0
 40
1.0
 40
1.0
 10
3432.499477023162
 20
2390.091229008657
 30
0.0
 10
3432.304070188925
 20
2389.814617301724
 30
0.0
 10
3431.907774887654
 20
2389.253634262608
 30
0.0
 10
3431.497437192575
 20
2388.37915966385
 30
0.0
 10
3431.273763283061
 20
2387.637606695049
 30
0.0
 10
3431.180437991565
 20
2387.049568652449
 30
0.0
 10
3431.158261850241
 20
2386.617225483924
 30
0.0
 10
3431.190611740848
 20
2386.237982460032
 30
0.0
 10
3431.276941813599
 20
2385.98512668188
 30
0.0
 10
3431.400254973157
 20
2385.894147466292
 30
0.0
 10
3431.547834451634
 20
2385.931904275076
 30
0.0
 10
3431.724266781965
 20
2386.092737262835
 30
0.0
 10
3431.9180892489
 20
2386.3282918582
 30
0.0
 10
3432.207580082545
 20
2386.716254851644
 30
0.0
 10
3432.611918064913
 20
2387.281674742453
 30
0.0
 10
3433.17349893711
 20
2388.031150559801
 30
0.0
 10
3433.802049573382
 20
2388.820878002759
 30
0.0
 10
3434.427782962555
 20
2389.564596872903
 30
0.0
 10
3434.828562884137
 20
2390.024800126994
 30
0.0
 10
3435.000093235766
 20
2390.221763152694
 30
0.0
  0
SPLINE
  5
177
330
1F
100
AcDbEntity
  8
0
  6
Continuous
 62
     7
370
    25
100
AcDbSpline
210
0.0
220
0.0
230
1.0
 70
     8
 71
     3
 72
    12
 73
     8
 74
     0
 42
0.000000001
 43
0.00000001
 40
0.0
 40
0.0
 40
0.0
 40
0.0
 40
0.0730801927524088
 40
0.2516457553541037
 40
0.4913387593635874
 40
0.8419436699563674
 40
1.0
 40
1.0
 40
1.0
 40
1.0
 10
3432.725496169447
 20
2390.380575550056
 30
0.0
 10
3432.726414578805
 20
2390.381724926168
 30
0.0
 10
3432.729577047428
 20
2390.385682710201
 30
0.0
 10
3432.706587119095
 20
2390.356920410866
 30
0.0
 10
3432.650671350847
 20
2390.286459866968
 30
0.0
 10
3432.573330967092
 20
2390.187659820547
 30
0.0
 10
3432.516985311304
 20
2390.114089513466
 30
0.0
 10
3432.499477023162
 20
2390.091229008657
 30
0.0
  0
LINE
  5
178
330
1F
100
AcDbEntity
  8
0
  6
Continuous
 62
     7
370
    25
100
AcDbLine
 10
2440.8095669673
 20
2103.899448972
 30
0.0
 11
2421.8095669673
 21
2103.899448972
 31
0.0
  0
LINE
  5
179
330
1F
100
AcDbEntity
  8
0
  6
Continuous
 62
     7
370
    25
100
AcDbLine
 10
2431.3095669673
 20
2095.899448972
 30
0.0
 11
2426.8095669673
 21
2095.899448972
 31
0.0
  0
LINE
  5
17A
330
1F
100
AcDbEntity
  8
0
  6
Continuous
 62
     7
370
    25
100
AcDbLine
 10
2435.8095669673
 20
2095.899448972
 30
0.0
 11
2431.3095669673
 21
2095.899448972
 31
0.0
  0
LINE
  5
17B
330
1F
100
AcDbEntity
  8
0
  6
Continuous
 62
     7
370
    25
100
AcDbLine
 10
3444.5140970024
 20
2095.899448972
 30
0.0
 11
3435.5140970024
 21
2095.899448972
 31
0.0
  0
LINE
  5
17C
330
1F
100
AcDbEntity
  8
0
  6
Continuous
 62
     7
370
    25
100
AcDbLine
 10
3440.0140970024
 20
2103.899448972
 30
0.0
 11
3430.5140970024
 21
2103.899448972
 31
0.0
  0
LINE
  5
17D
330
1F
100
AcDbEntity
  8
0
  6
Continuous
 62
     7
370
    25
100
AcDbLine
 10
3449.5140970024
 20
2103.899448972
 30
0.0
 11
3440.0140970024
 21
2103.899448972
 31
0.0
  0
LINE
  5
17E
330
1F
100
AcDbEntity
  8
0
  6
Continuous
 62
     8
370
    18
100
AcDbLine
 10
2477.6618319849
 20
2388.8994489763
 30
0.0
 11
2477.6618319849
 21
2378.8994489763
 31
0.0
  0
LINE
  5
17F
330
1F
100
AcDbEntity
  8
0
  6
Continuous
 62
     8
370
    18
100
AcDbLine
 10
3393.6618319849
 20
2378.8994489763
 30
0.0
 11
3393.6618319849
 21
2388.8994489763
 31
0.0
  0
SPLINE
  5
180
330
1F
100
AcDbEntity
  8
0
  6
Continuous
 62
     8
370
    18
100
AcDbSpline
210
0.0
220
0.0
230
1.0
 70
     8
 71
     3
 72
     9
 73
     5
 74
     0
 42
0.000000001
 43
0.00000001
 40
0.0
 40
0.0
 40
0.0
 40
0.0
 40
0.8278582226908751
 40
1.0
 40
1.0
 40
1.0
 40
1.0
 10
3435.642633658719
 20
2344.087722660782
 30
0.0
 10
3435.623198080684
 20
2344.066221438893
 30
0.0
 10
3435.599721140428
 20
2344.040249332439
 30
0.0
 10
3435.554968537358
 20
2344.022063643332
 30
0.0
 10
3435.547264744725
 20
2344.018933126487
 30
0.0
  0
LINE
  5
181
330
1F
100
AcDbEntity
  8
0
  6
Continuous
 62
     8
370
    18
100
AcDbLine
 10
3435.5472647447
 20
2344.0189331265
 30
0.0
 11
3434.0653736984
 21
2344.0189331265
 31
0.0
  0
SPLINE
  5
182
330
1F
100
AcDbEntity
  8
0
  6
Continuous
 62
     8
370
    18
100
AcDbSpline
210
0.0
220
0.0
230
1.0
 70
     8
 71
     3
 72
    12
 73
     8
 74
     0
 42
0.000000001
 43
0.00000001
 40
0.0
 40
0.0
 40
0.0
 40
0.0
 40
0.21976661807706
 40
0.4461263745600049
 40
0.6658123558413993
 40
0.8916163130674816
 40
1.0
 40
1.0
 40
1.0
 40
1.0
 10
3434.065373698409
 20
2344.018933126487
 30
0.0
 10
3433.907307029577
 20
2344.016467544024
 30
0.0
 10
3433.586431591252
 20
2344.011462410054
 30
0.0
 10
3433.121438911818
 20
2343.97533180936
 30
0.0
 10
3432.67979468755
 20
2343.932860502638
 30
0.0
 10
3432.343792693552
 20
2343.903567203085
 30
0.0
 10
3432.162921595252
 20
2343.900457511101
 30
0.0
 10
3432.104261507616
 20
2343.89944897626
 30
0.0
  0
LINE
  5
183
330
1F
100
AcDbEntity
  8
0
  6
Continuous
 62
     8
370
    18
100
AcDbLine
 10
2435.4818319849
 20
2346.3994489763
 30
0.0
 11
3435.8418319849
 21
2346.3994489763
 31
0.0
  0
SPLINE
  5
184
330
1F
100
AcDbEntity
  8
0
  6
Continuous
 62
     8
370
    18
100
AcDbSpline
210
0.0
220
0.0
230
1.0
 70
     8
 71
     3
 72
    12
 73
     8
 74
     0
 42
0.000000001
 43
0.00000001
 40
0.0
 40
0.0
 40
0.0
 40
0.0
 40
0.2328745883257802
 40
0.5570906977023341
 40
0.7267440679505961
 40
0.8962385510603561
 40
1.0
 40
1.0
 40
1.0
 40
1.0
 10
3435.841831984871
 20
2346.165338128057
 30
0.0
 10
3435.829379536826
 20
2345.971903408141
 30
0.0
 10
3435.799590357082
 20
2345.509162136745
 30
0.0
 10
3435.705970751658
 20
2344.966372430324
 30
0.0
 10
3435.651147093916
 20
2344.55631842268
 30
0.0
 10
3435.636922844698
 20
2344.323470563389
 30
0.0
 10
3435.652952180261
 20
2344.213236606916
 30
0.0
 10
3435.659038881
 20
2344.171378283987
 30
0.0
  0
LINE
  5
185
330
1F
100
AcDbEntity
  8
0
  6
Continuous
 62
     8
370
    18
100
AcDbLine
 10
2435.4818319849
 20
2376.3994489763
 30
0.0
 11
3435.8418319849
 21
2376.3994489763
 31
0.0
  0
SPLINE
  5
186
330
1F
100
AcDbEntity
  8
0
  6
Continuous
 62
     8
370
    18
100
AcDbSpline
210
0.0
220
0.0
230
1.0
 70
     8
 71
     3
 72
    12
 73
     8
 74
     0
 42
0.000000001
 43
0.00000001
 40
0.0
 40
0.0
 40
0.0
 40
0.0
 40
0.219567186404869
 40
0.4458094407665553
 40
0.6652298297422371
 40
0.8908660496253848
 40
1.0
 40
1.0
 40
1.0
 40
1.0
 10
3432.104261507616
 20
2378.89944897626
 30
0.0
 10
3432.225655013179
 20
2378.895501530255
 30
0.0
 10
3432.472132511542
 20
2378.887486631831
 30
0.0
 10
3432.896157289897
 20
2378.844305107044
 30
0.0
 10
3433.351852525807
 20
2378.804193802476
 30
0.0
 10
3433.746426385514
 20
2378.782465053843
 30
0.0
 10
3433.986960413648
 20
2378.78057950773
 30
0.0
 10
3434.065373698409
 20
2378.779964826034
 30
0.0
  0
LINE
  5
187
330
1F
100
AcDbEntity
  8
0
  6
Continuous
 62
     8
370
    18
100
AcDbLine
 10
3434.0653736984
 20
2378.779964826
 30
0.0
 11
3435.5416722422
 21
2378.779964826
 31
0.0
  0
SPLINE
  5
188
330
1F
100
AcDbEntity
  8
0
  6
Continuous
 62
     8
370
    18
100
AcDbSpline
210
0.0
220
0.0
230
1.0
 70
     8
 71
     3
 72
    13
 73
     9
 74
     0
 42
0.000000001
 43
0.00000001
 40
0.0
 40
0.0
 40
0.0
 40
0.0
 40
0.1541665842389508
 40
0.3084622735678859
 40
0.6143708700448107
 40
0.7811095375671797
 40
0.9477835065529615
 40
1.0
 40
1.0
 40
1.0
 40
1.0
 10
3435.659038881
 20
2378.627519668534
 30
0.0
 10
3435.651426609479
 20
2378.563398261574
 30
0.0
 10
3435.636195691624
 20
2378.435101749895
 30
0.0
 10
3435.665831176485
 20
2378.096666897072
 30
0.0
 10
3435.736678928116
 20
2377.66953635718
 30
0.0
 10
3435.803193168575
 20
2377.175726824665
 30
0.0
 10
3435.832128820969
 20
2376.859852337503
 30
0.0
 10
3435.839963109199
 20
2376.677144842361
 30
0.0
 10
3435.841831984871
 20
2376.633559824465
 30
0.0
  0
LINE
  5
189
330
1F
100
AcDbEntity
  8
0
  6
Continuous
 62
     8
370
    18
100
AcDbLine
 10
2430.047307418
 20
2390.5380932683
 30
0.0
 11
2430.047307418
 21
2103.899448972
 31
0.0
  0
LINE
  5
18A
330
1F
100
AcDbEntity
  8
0
  6
Continuous
 62
     8
370
    18
100
AcDbLine
 10
2429.2275060043
 20
2390.578305893
 30
0.0
 11
2429.2275060043
 21
2103.899448972
 31
0.0
  0
LINE
  5
18B
330
1F
100
AcDbEntity
  8
0
  6
Continuous
 62
     8
370
    18
100
AcDbLine
 10
2436.323570734
 20
2390.2217631527
 30
0.0
 11
2436.323570734
 21
2378.8231239093
 31
0.0
  0
LINE
  5
18C
330
1F
100
AcDbEntity
  8
0
  6
Continuous
 62
     8
370
    18
100
AcDbLine
 10
2436.323570734
 20
2343.9757740432
 30
0.0
 11
2436.323570734
 21
2103.899448972
 31
0.0
  0
LINE
  5
18D
330
1F
100
AcDbEntity
  8
0
  6
Continuous
 62
     8
370
    18
100
AcDbLine
 10
2424.3567053356
 20
2390.8124048487
 30
0.0
 11
2424.3567053356
 21
2389.7536965204
 31
0.0
  0
LINE
  5
18E
330
1F
100
AcDbEntity
  8
0
  6
Continuous
 62
     8
370
    18
100
AcDbLine
 10
3441.2763565517
 20
2390.5380932683
 30
0.0
 11
3441.2763565517
 21
2103.899448972
 31
0.0
  0
LINE
  5
18F
330
1F
100
AcDbEntity
  8
0
  6
Continuous
 62
     8
370
    18
100
AcDbLine
 10
3442.0961579654
 20
2390.578305893
 30
0.0
 11
3442.0961579654
 21
2103.899448972
 31
0.0
  0
LINE
  5
190
330
1F
100
AcDbEntity
  8
0
  6
Continuous
 62
     8
370
    18
100
AcDbLine
 10
3435.0000932358
 20
2390.2217631527
 30
0.0
 11
3435.0000932358
 21
2378.8231239093
 31
0.0
  0
LINE
  5
191
330
1F
100
AcDbEntity
  8
0
  6
Continuous
 62
     8
370
    18
100
AcDbLine
 10
3435.0000932358
 20
2343.9757740432
 30
0.0
 11
3435.0000932358
 21
2103.899448972
 31
0.0
  0
LINE
  5
192
330
1F
100
AcDbEntity
  8
0
  6
Continuous
 62
     8
370
    18
100
AcDbLine
 10
3446.9669586341
 20
2390.8124048487
 30
0.0
 11
3446.9669586341
 21
2389.7521973235
 31
0.0
  0
LINE
  5
193
330
1F
100
AcDbEntity
  8
0
  6
Continuous
 62
     8
370
    18
100
AcDbLine
 10
2431.3095669673
 20
2100.899448972
 30
0.0
 11
2440.8095669673
 21
2100.899448972
 31
0.0
  0
LINE
  5
194
330
1F
100
AcDbEntity
  8
0
  6
Continuous
 62
     8
370
    18
100
AcDbLine
 10
2421.8095669673
 20
2100.899448972
 30
0.0
 11
2431.3095669673
 21
2100.899448972
 31
0.0
  0
LINE
  5
195
330
1F
100
AcDbEntity
  8
0
  6
Continuous
 62
     8
370
    18
100
AcDbLine
 10
3430.5140970024
 20
2100.899448972
 30
0.0
 11
3449.5140970024
 21
2100.899448972
 31
0.0
  0
ARC
  5
196
330
1F
100
AcDbEntity
  8
0
  6
Continuous
 62
     7
370
    25
100
AcDbCircle
 10
1292.6088512221
 20
1757.8827353395
 30
0.0
 40
37.0
100
AcDbArc
 50
90.0
 51
180.0
  0
ARC
  5
197
330
1F
100
AcDbEntity
  8
0
  6
Continuous
 62
     7
370
    25
100
AcDbCircle
 10
2208.6088512221
 20
1757.8827353395
 30
0.0
 40
37.0
100
AcDbArc
 50
0.0
 51
90.0
  0
LINE
  5
198
330
1F
100
AcDbEntity
  8
0
  6
Continuous
 62
     7
370
    25
100
AcDbLine
 10
2245.6088512221
 20
1757.8827353395
 30
0.0
 11
2245.6088512221
 21
841.8827353395
 31
0.0
  0
ARC
  5
199
330
1F
100
AcDbEntity
  8
0
  6
Continuous
 62
     7
370
    25
100
AcDbCircle
 10
2208.6088512221
 20
841.8827353395
 30
0.0
 40
37.0
100
AcDbArc
 50
270.0
 51
0.0
  0
LINE
  5
19A
330
1F
100
AcDbEntity
  8
0
  6
Continuous
 62
     7
370
    25
100
AcDbLine
 10
2208.6088512221
 20
804.8827353395
 30
0.0
 11
1292.6088512221
 21
804.8827353395
 31
0.0
  0
ARC
  5
19B
330
1F
100
AcDbEntity
  8
0
  6
Continuous
 62
     7
370
    25
100
AcDbCircle
 10
1292.6088512221
 20
841.8827353395
 30
0.0
 40
37.0
100
AcDbArc
 50
180.0
 51
270.0
  0
LINE
  5
19C
330
1F
100
AcDbEntity
  8
0
  6
Continuous
 62
     7
370
    25
100
AcDbLine
 10
1255.6088512221
 20
841.8827353395
 30
0.0
 11
1255.6088512221
 21
1757.8827353395
 31
0.0
  0
LINE
  5
19D
330
1F
100
AcDbEntity
  8
0
  6
Continuous
 62
     7
370
    25
100
AcDbLine
 10
1292.6088512221
 20
1794.8827353395
 30
0.0
 11
2208.6088512221
 21
1794.8827353395
 31
0.0
  0
LINE
  5
19E
330
1F
100
AcDbEntity
  8
0
  6
Continuous
 62
     7
370
    25
100
AcDbLine
 10
2138.1088512221
 20
1800.0627353395
 30
0.0
 11
2138.1088512221
 21
1794.8827353395
 31
0.0
  0
LINE
  5
19F
330
1F
100
AcDbEntity
  8
0
  6
Continuous
 62
     7
370
    25
100
AcDbLine
 10
2138.1088512221
 20
804.8827353395
 30
0.0
 11
2138.1088512221
 21
799.7027353395
 31
0.0
  0
LINE
  5
1A0
330
1F
100
AcDbEntity
  8
0
  6
Continuous
 62
     7
370
    25
100
AcDbLine
 10
2153.1088512221
 20
1800.0627353395
 30
0.0
 11
2153.1088512221
 21
1794.8827353395
 31
0.0
  0
LINE
  5
1A1
330
1F
100
AcDbEntity
  8
0
  6
Continuous
 62
     7
370
    25
100
AcDbLine
 10
2153.1088512221
 20
804.8827353395
 30
0.0
 11
2153.1088512221
 21
799.7027353395
 31
0.0
  0
LINE
  5
1A2
330
1F
100
AcDbEntity
  8
0
  6
Continuous
 62
     7
370
    25
100
AcDbLine
 10
1363.1088512221
 20
1800.0627353395
 30
0.0
 11
1363.1088512221
 21
1794.8827353395
 31
0.0
  0
LINE
  5
1A3
330
1F
100
AcDbEntity
  8
0
  6
Continuous
 62
     7
370
    25
100
AcDbLine
 10
1363.1088512221
 20
804.8827353395
 30
0.0
 11
1363.1088512221
 21
799.7027353395
 31
0.0
  0
LINE
  5
1A4
330
1F
100
AcDbEntity
  8
0
  6
Continuous
 62
     7
370
    25
100
AcDbLine
 10
1348.1088512221
 20
1800.0627353395
 30
0.0
 11
1348.1088512221
 21
1794.8827353395
 31
0.0
  0
LINE
  5
1A5
330
1F
100
AcDbEntity
  8
0
  6
Continuous
 62
     7
370
    25
100
AcDbLine
 10
1348.1088512221
 20
804.8827353395
 30
0.0
 11
1348.1088512221
 21
799.7027353395
 31
0.0
  0
SPLINE
  5
1A6
330
1F
100
AcDbEntity
  8
0
  6
Continuous
 62
     7
370
    25
100
AcDbSpline
210
0.0
220
0.0
230
1.0
 70
     8
 71
     3
 72
    23
 73
    19
 74
     0
 42
0.000000001
 43
0.00000001
 40
0.0
 40
0.0
 40
0.0
 40
0.0
 40
0.0885678039540114
 40
0.1796618030867236
 40
0.2696402247011208
 40
0.3623227458492552
 40
0.4187921283155891
 40
0.4469855966110755
 40
0.4758340949873268
 40
0.5121667494004553
 40
0.5486292713320118
 40
0.5959020947527293
 40
0.6382710939488324
 40
0.6816578768037951
 40
0.7625636367512904
 40
0.8456297940757806
 40
0.9220704932663933
 40
1.0
 40
1.0
 40
1.0
 40
1.0
 10
2153.028621150861
 20
794.2682107726558
 30
0.0
 10
2153.241838619542
 20
794.3630823048848
 30
0.0
 10
2153.674355100278
 20
794.5555313640339
 30
0.0
 10
2154.192447567784
 20
795.0125055826974
 30
0.0
 10
2154.603890511637
 20
795.5754657977045
 30
0.0
 10
2154.844020469999
 20
796.1624043022558
 30
0.0
 10
2154.933869077232
 20
796.6682377086786
 30
0.0
 10
2154.947825681187
 20
797.0281311878439
 30
0.0
 10
2154.929517213782
 20
797.3468915120068
 30
0.0
 10
2154.862267355924
 20
797.7221744847384
 30
0.0
 10
2154.715873817733
 20
798.1569962960612
 30
0.0
 10
2154.511800957826
 20
798.5418294610511
 30
0.0
 10
2154.270966974078
 20
798.8691953699459
 30
0.0
 10
2153.945160762732
 20
799.2099623388015
 30
0.0
 10
2153.502162154688
 20
799.5337362588282
 30
0.0
 10
2152.94042832037
 20
799.7791761424014
 30
0.0
 10
2152.349539371826
 20
799.9112367506013
 30
0.0
 10
2151.948574838942
 20
799.8951601991494
 30
0.0
 10
2151.746159041941
 20
799.8870443991015
 30
0.0
  0
SPLINE
  5
1A7
330
1F
100
AcDbEntity
  8
0
  6
Continuous
 62
     7
370
    25
100
AcDbSpline
210
0.0
220
0.0
230
1.0
 70
     8
 71
     3
 72
    14
 73
    10
 74
     0
 42
0.000000001
 43
0.00000001
 40
0.0
 40
0.0
 40
0.0
 40
0.0
 40
0.2204300636816243
 40
0.3399443732550936
 40
0.4603671101701541
 40
0.5640212293773891
 40
0.6631726788869662
 40
0.8102691653343018
 40
1.0
 40
1.0
 40
1.0
 40
1.0
 10
2152.841506827891
 20
793.448409358968
 30
0.0
 10
2152.800868321463
 20
793.4988638368086
 30
0.0
 10
2152.738196146138
 20
793.5766740753982
 30
0.0
 10
2152.697182121745
 20
793.7344474648116
 30
0.0
 10
2152.69778542752
 20
793.8670035011617
 30
0.0
 10
2152.731777844805
 20
793.988572630103
 30
0.0
 10
2152.79378068567
 20
794.1005586254438
 30
0.0
 10
2152.894199600093
 20
794.2065366116892
 30
0.0
 10
2152.980186020298
 20
794.2459881750016
 30
0.0
 10
2153.028621150861
 20
794.2682107726558
 30
0.0
  0
SPLINE
  5
1A8
330
1F
100
AcDbEntity
  8
0
  6
Continuous
 62
     7
370
    25
100
AcDbSpline
210
0.0
220
0.0
230
1.0
 70
     8
 71
     3
 72
    23
 73
    19
 74
     0
 42
0.000000001
 43
0.00000001
 40
0.0
 40
0.0
 40
0.0
 40
0.0
 40
0.0876038587420585
 40
0.1752379614181737
 40
0.2636805576071802
 40
0.3519102061228137
 40
0.4192295657443111
 40
0.4534383728311187
 40
0.4875483396523662
 40
0.5342203370545071
 40
0.5807897799348413
 40
0.6178527330908524
 40
0.6549967327784407
 40
0.7183513735855409
 40
0.7818242023345457
 40
0.870153673150427
 40
0.9585039722462484
 40
1.0
 40
1.0
 40
1.0
 40
1.0
 10
2149.248127850168
 20
788.9424546427118
 30
0.0
 10
2149.449232880417
 20
788.8374025516374
 30
0.0
 10
2149.851512369448
 20
788.6272621018106
 30
0.0
 10
2150.513916692485
 20
788.5013334358491
 30
0.0
 10
2151.191362545524
 20
788.5163308492545
 30
0.0
 10
2151.829595614034
 20
788.6893172806359
 30
0.0
 10
2152.326731616478
 20
788.952608754487
 30
0.0
 10
2152.674838616095
 20
789.2211475389881
 30
0.0
 10
2152.95837593863
 20
789.4973596361297
 30
0.0
 10
2153.237262719083
 20
789.865720524714
 30
0.0
 10
2153.443685149598
 20
790.2690111041812
 30
0.0
 10
2153.569181699603
 20
790.6347124084866
 30
0.0
 10
2153.656209799639
 20
791.0376631315386
 30
0.0
 10
2153.684178117626
 20
791.4964349088248
 30
0.0
 10
2153.618375659067
 20
792.0605006625764
 30
0.0
 10
2153.424715615154
 20
792.6454875190319
 30
0.0
 10
2153.139015951452
 20
793.123026502449
 30
0.0
 10
2152.913558171395
 20
793.3696075001051
 30
0.0
 10
2152.841506827891
 20
793.448409358968
 30
0.0
  0
SPLINE
  5
1A9
330
1F
100
AcDbEntity
  8
0
  6
Continuous
 62
     7
370
    25
100
AcDbSpline
210
0.0
220
0.0
230
1.0
 70
     8
 71
     3
 72
    14
 73
    10
 74
     0
 42
0.000000001
 43
0.00000001
 40
0.0
 40
0.0
 40
0.0
 40
0.0
 40
0.2240635092469123
 40
0.3487071205324734
 40
0.4742528072797302
 40
0.582549286062548
 40
0.6866084231150471
 40
0.837972714943134
 40
1.0
 40
1.0
 40
1.0
 40
1.0
 10
2148.490517423421
 20
788.5776086902468
 30
0.0
 10
2148.505140078898
 20
788.6421484636362
 30
0.0
 10
2148.527897127124
 20
788.742590872193
 30
0.0
 10
2148.629571325869
 20
788.87475827573
 30
0.0
 10
2148.738255927991
 20
788.9571692021406
 30
0.0
 10
2148.859236495929
 20
789.0045998075336
 30
0.0
 10
2148.98952586285
 20
789.0220552869855
 30
0.0
 10
2149.127407645506
 20
789.0046855872596
 30
0.0
 10
2149.20698525239
 20
788.9636635424816
 30
0.0
 10
2149.248127850168
 20
788.9424546427118
 30
0.0
  0
SPLINE
  5
1AA
330
1F
100
AcDbEntity
  8
0
  6
Continuous
 62
     7
370
    25
100
AcDbSpline
210
0.0
220
0.0
230
1.0
 70
     8
 71
     3
 72
    22
 73
    18
 74
     0
 42
0.000000001
 43
0.00000001
 40
0.0
 40
0.0
 40
0.0
 40
0.0
 40
0.0854745021037644
 40
0.1734250374484217
 40
0.2450062248434671
 40
0.3183355537218207
 40
0.3981832095953214
 40
0.460146436067743
 40
0.5114692276014292
 40
0.5627660023136534
 40
0.5992580398016502
 40
0.6367618570991256
 40
0.6958158817478708
 40
0.7564381759975078
 40
0.8400068663133884
 40
0.9259781920140099
 40
1.0
 40
1.0
 40
1.0
 40
1.0
 10
2142.727185020853
 20
788.5776086902468
 30
0.0
 10
2142.768600799169
 20
788.3615715304666
 30
0.0
 10
2142.852632091879
 20
787.923239026585
 30
0.0
 10
2143.14110935706
 20
787.3662087420998
 30
0.0
 10
2143.515564956965
 20
786.8945677328047
 30
0.0
 10
2143.978955486371
 20
786.5032227908885
 30
0.0
 10
2144.536402618204
 20
786.2084547185394
 30
0.0
 10
2145.15184527234
 20
786.0465364032348
 30
0.0
 10
2145.73323815332
 20
786.0160859701533
 30
0.0
 10
2146.210102128938
 20
786.0821824701206
 30
0.0
 10
2146.595790867484
 20
786.196088388248
 30
0.0
 10
2146.965988970384
 20
786.3550617822794
 30
0.0
 10
2147.345402645778
 20
786.5897525751001
 30
0.0
 10
2147.754502682471
 20
786.949785162135
 30
0.0
 10
2148.114408952342
 20
787.4227578211094
 30
0.0
 10
2148.382055925626
 20
787.9850852406154
 30
0.0
 10
2148.456209715946
 20
788.3901862260985
 30
0.0
 10
2148.490517423421
 20
788.5776086902468
 30
0.0
  0
SPLINE
  5
1AB
330
1F
100
AcDbEntity
  8
0
  6
Continuous
 62
     7
370
    25
100
AcDbSpline
210
0.0
220
0.0
230
1.0
 70
     8
 71
     3
 72
    14
 73
    10
 74
     0
 42
0.000000001
 43
0.00000001
 40
0.0
 40
0.0
 40
0.0
 40
0.0
 40
0.223697858003452
 40
0.3528357075717441
 40
0.4829964006465
 40
0.5936020866478989
 40
0.6970463839856236
 40
0.8440092931474639
 40
1.0
 40
1.0
 40
1.0
 40
1.0
 10
2141.969574594103
 20
788.9424546427101
 30
0.0
 10
2142.028112893991
 20
788.9708406688982
 30
0.0
 10
2142.120444589277
 20
789.0156135769834
 30
0.0
 10
2142.287388368942
 20
789.0194245887312
 30
0.0
 10
2142.422877782438
 20
788.9849595348788
 30
0.0
 10
2142.537375205492
 20
788.9174991339453
 30
0.0
 10
2142.631224715705
 20
788.8253099884382
 30
0.0
 10
2142.701405640586
 20
788.7078484460293
 30
0.0
 10
2142.718422860499
 20
788.621875915164
 30
0.0
 10
2142.727185020853
 20
788.5776086902468
 30
0.0
  0
SPLINE
  5
1AC
330
1F
100
AcDbEntity
  8
0
  6
Continuous
 62
     7
370
    25
100
AcDbSpline
210
0.0
220
0.0
230
1.0
 70
     8
 71
     3
 72
    22
 73
    18
 74
     0
 42
0.000000001
 43
0.00000001
 40
0.0
 40
0.0
 40
0.0
 40
0.0
 40
0.0888263735614466
 40
0.1776643044611123
 40
0.2480696502500571
 40
0.3183725125743807
 40
0.3911252793172415
 40
0.4486880646413496
 40
0.4954581219263664
 40
0.5422043769639122
 40
0.5766399085222162
 40
0.6111480241397936
 40
0.669493829442659
 40
0.7279572587091725
 40
0.814454976518195
 40
0.9009964173563892
 40
1.0
 40
1.0
 40
1.0
 40
1.0
 10
2138.376195616383
 20
793.4484093589679
 30
0.0
 10
2138.228275559511
 20
793.2748770447531
 30
0.0
 10
2137.932416199658
 20
792.9277898377632
 30
0.0
 10
2137.679264848569
 20
792.3454973999931
 30
0.0
 10
2137.550370405698
 20
791.766282260883
 30
0.0
 10
2137.536749003972
 20
791.1864318590325
 30
0.0
 10
2137.641759172282
 20
790.6029161908368
 30
0.0
 10
2137.86768587013
 20
790.0550960060109
 30
0.0
 10
2138.168462228462
 20
789.5999453081993
 30
0.0
 10
2138.479837668041
 20
789.2729630668249
 30
0.0
 10
2138.77577570572
 20
789.0391151122194
 30
0.0
 10
2139.10655636655
 20
788.832943929922
 30
0.0
 10
2139.502781289037
 20
788.6590782244924
 30
0.0
 10
2140.031169449632
 20
788.5254087265447
 30
0.0
 10
2140.628236082704
 20
788.4961191287674
 30
0.0
 10
2141.313323313869
 20
788.6065940428883
 30
0.0
 10
2141.741243734422
 20
788.8255979724072
 30
0.0
 10
2141.969574594103
 20
788.9424546427101
 30
0.0
  0
SPLINE
  5
1AD
330
1F
100
AcDbEntity
  8
0
  6
Continuous
 62
     7
370
    25
100
AcDbSpline
210
0.0
220
0.0
230
1.0
 70
     8
 71
     3
 72
    14
 73
    10
 74
     0
 42
0.000000001
 43
0.00000001
 40
0.0
 40
0.0
 40
0.0
 40
0.0
 40
0.2198296104785275
 40
0.3499177958292769
 40
0.4588983161343728
 40
0.5683999765788669
 40
0.666709468123292
 40
0.7967198733579898
 40
1.0
 40
1.0
 40
1.0
 40
1.0
 10
2138.189081293407
 20
794.268210772658
 30
0.0
 10
2138.24541976408
 20
794.241606537727
 30
0.0
 10
2138.335097553326
 20
794.1992587610715
 30
0.0
 10
2138.437360811843
 20
794.0811843074569
 30
0.0
 10
2138.495696861886
 20
793.9653029064932
 30
0.0
 10
2138.521694350262
 20
793.8432987225375
 30
0.0
 10
2138.517171718255
 20
793.7156237396042
 30
0.0
 10
2138.475326618108
 20
793.5697426887052
 30
0.0
 10
2138.413751457846
 20
793.494376566163
 30
0.0
 10
2138.376195616383
 20
793.448409358968
 30
0.0
  0
SPLINE
  5
1AE
330
1F
100
AcDbEntity
  8
0
  6
Continuous
 62
     7
370
    25
100
AcDbSpline
210
0.0
220
0.0
230
1.0
 70
     8
 71
     3
 72
    23
 73
    19
 74
     0
 42
0.000000001
 43
0.00000001
 40
0.0
 40
0.0
 40
0.0
 40
0.0
 40
0.0910969868013287
 40
0.1848037119966394
 40
0.2589280754183373
 40
0.3346657852428905
 40
0.3911149903085903
 40
0.4192965879842116
 40
0.4482557548146675
 40
0.4839349698269918
 40
0.5196654595162769
 40
0.5704118234188863
 40
0.6175951628619699
 40
0.6659024462277304
 40
0.7517301575708735
 40
0.8399249721114653
 40
0.9190990318416684
 40
1.0
 40
1.0
 40
1.0
 40
1.0
 10
2139.471543402333
 20
799.8870443991013
 30
0.0
 10
2139.235018769218
 20
799.894029019942
 30
0.0
 10
2138.755193566287
 20
799.9081983564209
 30
0.0
 10
2138.119674110017
 20
799.725724201324
 30
0.0
 10
2137.56552556205
 20
799.4370400909777
 30
0.0
 10
2137.135647559319
 20
799.0872195317971
 30
0.0
 10
2136.832890055083
 20
798.7266596576087
 30
0.0
 10
2136.638192206676
 20
798.415517427823
 30
0.0
 10
2136.494085091916
 20
798.1252964497716
 30
0.0
 10
2136.367318102066
 20
797.7656295220983
 30
0.0
 10
2136.278266086655
 20
797.3126691621056
 30
0.0
 10
2136.265341991849
 20
796.8614922514687
 30
0.0
 10
2136.320762284646
 20
796.4294310239394
 30
0.0
 10
2136.453134850975
 20
795.9458814160438
 30
0.0
 10
2136.707340651819
 20
795.4240837134711
 30
0.0
 10
2137.114136522805
 20
794.9254375472649
 30
0.0
 10
2137.606926982608
 20
794.5227883764695
 30
0.0
 10
2137.993639223932
 20
794.3536781011788
 30
0.0
 10
2138.189081293407
 20
794.268210772658
 30
0.0
  0
SPLINE
  5
1AF
330
1F
100
AcDbEntity
  8
0
  6
Continuous
 62
     7
370
    25
100
AcDbSpline
210
0.0
220
0.0
230
1.0
 70
     8
 71
     3
 72
    15
 73
    11
 74
     0
 42
0.000000001
 43
0.00000001
 40
0.0
 40
0.0
 40
0.0
 40
0.0
 40
0.214811029655661
 40
0.3411322673416708
 40
0.4464287003091136
 40
0.5523542512426396
 40
0.6447889097414602
 40
0.7660552293890796
 40
0.9403894463275401
 40
1.0
 40
1.0
 40
1.0
 40
1.0
 10
2139.995826084772
 20
800.5444740886038
 30
0.0
 10
2140.00984265559
 20
800.4863713239976
 30
0.0
 10
2140.032101776041
 20
800.3941007927275
 30
0.0
 10
2140.00748698912
 20
800.2451149598941
 30
0.0
 10
2139.957732696296
 20
800.1287106378218
 30
0.0
 10
2139.883247820522
 20
800.031938461709
 30
0.0
 10
2139.786282477447
 20
799.9542435264832
 30
0.0
 10
2139.661120386161
 20
799.8966264376501
 30
0.0
 10
2139.552219890737
 20
799.8812685672029
 30
0.0
 10
2139.487925902476
 20
799.8858715348782
 30
0.0
 10
2139.471543402333
 20
799.8870443991015
 30
0.0
  0
SPLINE
  5
1B0
330
1F
100
AcDbEntity
  8
0
  6
Continuous
 62
     7
370
    25
100
AcDbSpline
210
0.0
220
0.0
230
1.0
 70
     8
 71
     3
 72
    24
 73
    20
 74
     0
 42
0.000000001
 43
0.00000001
 40
0.0
 40
0.0
 40
0.0
 40
0.0
 40
0.0911965069059057
 40
0.1849512956916471
 40
0.2785630825689106
 40
0.3267793156259095
 40
0.3749620934334353
 40
0.4231886157143692
 40
0.4634025814428986
 40
0.4878136217774439
 40
0.512339145403717
 40
0.5441511799606292
 40
0.5754422073291712
 40
0.607415522453276
 40
0.6832791824590431
 40
0.7609114936918921
 40
0.8467133254741128
 40
0.9343946246668701
 40
1.0
 40
1.0
 40
1.0
 40
1.0
 10
2145.18840915486
 20
803.0450903012077
 30
0.0
 10
2145.040820907062
 20
803.2404971354448
 30
0.0
 10
2144.741504205303
 20
803.6367924367161
 30
0.0
 10
2144.148831301156
 20
804.0471301317945
 30
0.0
 10
2143.589845393351
 20
804.2708040413087
 30
0.0
 10
2143.103245821837
 20
804.3641293328052
 30
0.0
 10
2142.708741454964
 20
804.3863054741294
 30
0.0
 10
2142.306669126631
 20
804.3539555835222
 30
0.0
 10
2141.927608233837
 20
804.2676255107708
 30
0.0
 10
2141.593933031149
 20
804.1443123512131
 30
0.0
 10
2141.296692606778
 20
803.9967328727362
 30
0.0
 10
2141.026735459859
 20
803.8203005424048
 30
0.0
 10
2140.791276068265
 20
803.6264780754699
 30
0.0
 10
2140.503090006208
 20
803.3369872418247
 30
0.0
 10
2140.212980368609
 20
802.9326492594565
 30
0.0
 10
2139.961415240778
 20
802.3710683872595
 30
0.0
 10
2139.831803094873
 20
801.7425177509879
 30
0.0
 10
2139.837169920685
 20
801.1167843618152
 30
0.0
 10
2139.948274347738
 20
800.7160044402325
 30
0.0
 10
2139.995826084772
 20
800.5444740886038
 30
0.0
  0
SPLINE
  5
1B1
330
1F
100
AcDbEntity
  8
0
  6
Continuous
 62
     7
370
    25
100
AcDbSpline
210
0.0
220
0.0
230
1.0
 70
     8
 71
     3
 72
    15
 73
    11
 74
     0
 42
0.000000001
 43
0.00000001
 40
0.0
 40
0.0
 40
0.0
 40
0.0
 40
0.2126307822085236
 40
0.333080635927324
 40
0.4343189429315499
 40
0.5361409898009207
 40
0.6255006565988698
 40
0.7454503639221319
 40
0.9209037802013924
 40
1.0
 40
1.0
 40
1.0
 40
1.0
 10
2146.029293289414
 20
803.0450903012077
 30
0.0
 10
2145.992888555608
 20
802.9981241737318
 30
0.0
 10
2145.935861479091
 20
802.9245529464418
 30
0.0
 10
2145.806365281497
 20
802.8512526200983
 30
0.0
 10
2145.68818854378
 20
802.8170820188246
 30
0.0
 10
2145.569405744477
 20
802.8128204908012
 30
0.0
 10
2145.450056977676
 20
802.8366101580948
 30
0.0
 10
2145.326183262096
 20
802.894531167309
 30
0.0
 10
2145.240052869792
 20
802.9711634672364
 30
0.0
 10
2145.200652144112
 20
803.0275647332862
 30
0.0
 10
2145.18840915486
 20
803.0450903012077
 30
0.0
  0
SPLINE
  5
1B2
330
1F
100
AcDbEntity
  8
0
  6
Continuous
 62
     7
370
    25
100
AcDbSpline
210
0.0
220
0.0
230
1.0
 70
     8
 71
     3
 72
    23
 73
    19
 74
     0
 42
0.000000001
 43
0.00000001
 40
0.0
 40
0.0
 40
0.0
 40
0.0
 40
0.089718442416986
 40
0.1819530101450227
 40
0.2741714474261664
 40
0.3688066833926735
 40
0.4236166376621333
 40
0.4510047767191713
 40
0.4792226014534574
 40
0.5037768215115266
 40
0.5284329184559771
 40
0.561152961659834
 40
0.6013153972724701
 40
0.6426014856981402
 40
0.7286645668366294
 40
0.8169312426262005
 40
0.9072926694662783
 40
0.9999999999999999
 40
0.9999999999999999
 40
0.9999999999999999
 40
0.9999999999999999
 10
2151.221876359501
 20
800.544474088604
 30
0.0
 10
2151.282243623387
 20
800.7796558931868
 30
0.0
 10
2151.404671131962
 20
801.2566151015989
 30
0.0
 10
2151.358891997081
 20
801.9676398013086
 30
0.0
 10
2151.157718571286
 20
802.6508093718094
 30
0.0
 10
2150.836168100132
 20
803.1952071037247
 30
0.0
 10
2150.495950598219
 20
803.5664128808834
 30
0.0
 10
2150.226517452023
 20
803.7919321819217
 30
0.0
 10
2149.991465482773
 20
803.9534101713634
 30
0.0
 10
2149.718498391527
 20
804.1014698035501
 30
0.0
 10
2149.40788899523
 20
804.2289754720565
 30
0.0
 10
2149.065330911072
 20
804.3237429939189
 30
0.0
 10
2148.711892036469
 20
804.3746679503616
 30
0.0
 10
2148.23665243798
 20
804.3843520266452
 30
0.0
 10
2147.677081624256
 20
804.2937001521545
 30
0.0
 10
2147.052819457439
 20
804.0354860347088
 30
0.0
 10
2146.476062099474
 20
803.6354565575048
 30
0.0
 10
2146.179483046839
 20
803.2435530471033
 30
0.0
 10
2146.029293289414
 20
803.0450903012077
 30
0.0
  0
SPLINE
  5
1B3
330
1F
100
AcDbEntity
  8
0
  6
Continuous
 62
     7
370
    25
100
AcDbSpline
210
0.0
220
0.0
230
1.0
 70
     8
 71
     3
 72
    15
 73
    11
 74
     0
 42
0.000000001
 43
0.00000001
 40
0.0
 40
0.0
 40
0.0
 40
0.0
 40
0.2153296810343772
 40
0.3327055588565954
 40
0.4327106172887602
 40
0.5331289091056287
 40
0.6249491950544293
 40
0.7533679527279632
 40
0.9418458044828449
 40
1.0
 40
1.0
 40
1.0
 40
1.0
 10
2151.746159041941
 20
799.8870443991015
 30
0.0
 10
2151.68440532392
 20
799.8863883279012
 30
0.0
 10
2151.58898974922
 20
799.8853746332989
 30
0.0
 10
2151.449059741921
 20
799.9441154848456
 30
0.0
 10
2151.350580620762
 20
800.0160487599038
 30
0.0
 10
2151.275133160816
 20
800.1060059519407
 30
0.0
 10
2151.219667490297
 20
800.2155753100003
 30
0.0
 10
2151.188567674293
 20
800.3539178786086
 30
0.0
 10
2151.197928656723
 20
800.4662402149512
 30
0.0
 10
2151.21730706078
 20
800.5295468138594
 30
0.0
 10
2151.221876359501
 20
800.5444740886039
 30
0.0
  0
SPLINE
  5
1B4
330
1F
100
AcDbEntity
  8
0
  6
Continuous
 62
     7
370
    25
100
AcDbSpline
210
0.0
220
0.0
230
1.0
 70
     8
 71
     3
 72
    23
 73
    19
 74
     0
 42
0.000000001
 43
0.00000001
 40
0.0
 40
0.0
 40
0.0
 40
0.0
 40
0.0885678039540115
 40
0.1796618030867237
 40
0.2696402247011209
 40
0.3623227458492555
 40
0.4187921283155895
 40
0.4469855966110758
 40
0.4758340949873272
 40
0.5121667494004556
 40
0.5486292713320122
 40
0.5959020947527298
 40
0.638271093948833
 40
0.6816578768037956
 40
0.7625636367512909
 40
0.8456297940757813
 40
0.9220704932663933
 40
1.0
 40
1.0
 40
1.0
 40
1.0
 10
2138.189081293429
 20
1805.49725990634
 30
0.0
 10
2137.975863824749
 20
1805.402388374111
 30
0.0
 10
2137.543347344012
 20
1805.209939314962
 30
0.0
 10
2137.025254876506
 20
1804.752965096298
 30
0.0
 10
2136.613811932653
 20
1804.190004881291
 30
0.0
 10
2136.373681974291
 20
1803.60306637674
 30
0.0
 10
2136.283833367057
 20
1803.097232970317
 30
0.0
 10
2136.269876763103
 20
1802.737339491152
 30
0.0
 10
2136.288185230508
 20
1802.418579166989
 30
0.0
 10
2136.355435088366
 20
1802.043296194257
 30
0.0
 10
2136.501828626556
 20
1801.608474382935
 30
0.0
 10
2136.705901486464
 20
1801.223641217945
 30
0.0
 10
2136.946735470213
 20
1800.89627530905
 30
0.0
 10
2137.272541681557
 20
1800.555508340194
 30
0.0
 10
2137.715540289602
 20
1800.231734420167
 30
0.0
 10
2138.27727412392
 20
1799.986294536594
 30
0.0
 10
2138.868163072464
 20
1799.854233928394
 30
0.0
 10
2139.269127605348
 20
1799.870310479846
 30
0.0
 10
2139.471543402349
 20
1799.878426279894
 30
0.0
  0
SPLINE
  5
1B5
330
1F
100
AcDbEntity
  8
0
  6
Continuous
 62
     7
370
    25
100
AcDbSpline
210
0.0
220
0.0
230
1.0
 70
     8
 71
     3
 72
    14
 73
    10
 74
     0
 42
0.000000001
 43
0.00000001
 40
0.0
 40
0.0
 40
0.0
 40
0.0
 40
0.2204300636816243
 40
0.3399443732550936
 40
0.4603671101701541
 40
0.5640212293773891
 40
0.6631726788869662
 40
0.8102691653343018
 40
1.0
 40
1.0
 40
1.0
 40
1.0
 10
2138.376195616399
 20
1806.317061320028
 30
0.0
 10
2138.416834122827
 20
1806.266606842187
 30
0.0
 10
2138.479506298152
 20
1806.188796603597
 30
0.0
 10
2138.520520322544
 20
1806.031023214184
 30
0.0
 10
2138.51991701677
 20
1805.898467177834
 30
0.0
 10
2138.485924599485
 20
1805.776898048892
 30
0.0
 10
2138.42392175862
 20
1805.664912053552
 30
0.0
 10
2138.323502844197
 20
1805.558934067306
 30
0.0
 10
2138.237516423992
 20
1805.519482503994
 30
0.0
 10
2138.189081293429
 20
1805.49725990634
 30
0.0
  0
SPLINE
  5
1B6
330
1F
100
AcDbEntity
  8
0
  6
Continuous
 62
     7
370
    25
100
AcDbSpline
210
0.0
220
0.0
230
1.0
 70
     8
 71
     3
 72
    23
 73
    19
 74
     0
 42
0.000000001
 43
0.00000001
 40
0.0
 40
0.0
 40
0.0
 40
0.0
 40
0.0876038587420585
 40
0.1752379614181738
 40
0.2636805576071802
 40
0.3519102061228138
 40
0.4192295657443112
 40
0.453438372831113
 40
0.4875483396523675
 40
0.5342203370545083
 40
0.5807897799348426
 40
0.6178527330908522
 40
0.6549967327784414
 40
0.7183513735855416
 40
0.7818242023345464
 40
0.8701536731504289
 40
0.9585039722462484
 40
1.0
 40
1.0
 40
1.0
 40
1.0
 10
2141.969574594122
 20
1810.823016036284
 30
0.0
 10
2141.768469563873
 20
1810.928068127358
 30
0.0
 10
2141.366190074842
 20
1811.138208577185
 30
0.0
 10
2140.703785751805
 20
1811.264137243147
 30
0.0
 10
2140.026339898766
 20
1811.249139829741
 30
0.0
 10
2139.388106830256
 20
1811.07615339836
 30
0.0
 10
2138.890970827811
 20
1810.812861924509
 30
0.0
 10
2138.542863828195
 20
1810.544323140008
 30
0.0
 10
2138.25932650566
 20
1810.268111042866
 30
0.0
 10
2137.980439725207
 20
1809.899750154281
 30
0.0
 10
2137.774017294691
 20
1809.496459574815
 30
0.0
 10
2137.648520744686
 20
1809.130758270509
 30
0.0
 10
2137.561492644651
 20
1808.727807547457
 30
0.0
 10
2137.533524326663
 20
1808.269035770171
 30
0.0
 10
2137.599326785223
 20
1807.704970016419
 30
0.0
 10
2137.792986829136
 20
1807.119983159964
 30
0.0
 10
2138.078686492838
 20
1806.642444176547
 30
0.0
 10
2138.304144272895
 20
1806.395863178891
 30
0.0
 10
2138.376195616399
 20
1806.317061320028
 30
0.0
  0
SPLINE
  5
1B7
330
1F
100
AcDbEntity
  8
0
  6
Continuous
 62
     7
370
    25
100
AcDbSpline
210
0.0
220
0.0
230
1.0
 70
     8
 71
     3
 72
    14
 73
    10
 74
     0
 42
0.000000001
 43
0.00000001
 40
0.0
 40
0.0
 40
0.0
 40
0.0
 40
0.2240635092469123
 40
0.3487071205324734
 40
0.4742528072797302
 40
0.582549286062548
 40
0.6866084231150471
 40
0.837972714943134
 40
1.0
 40
1.0
 40
1.0
 40
1.0
 10
2142.727185020869
 20
1811.187861988749
 30
0.0
 10
2142.712562365392
 20
1811.12332221536
 30
0.0
 10
2142.689805317166
 20
1811.022879806803
 30
0.0
 10
2142.588131118421
 20
1810.890712403266
 30
0.0
 10
2142.479446516299
 20
1810.808301476855
 30
0.0
 10
2142.358465948361
 20
1810.760870871462
 30
0.0
 10
2142.22817658144
 20
1810.74341539201
 30
0.0
 10
2142.090294798784
 20
1810.760785091736
 30
0.0
 10
2142.0107171919
 20
1810.801807136514
 30
0.0
 10
2141.969574594122
 20
1810.823016036284
 30
0.0
  0
SPLINE
  5
1B8
330
1F
100
AcDbEntity
  8
0
  6
Continuous
 62
     7
370
    25
100
AcDbSpline
210
0.0
220
0.0
230
1.0
 70
     8
 71
     3
 72
    22
 73
    18
 74
     0
 42
0.000000001
 43
0.00000001
 40
0.0
 40
0.0
 40
0.0
 40
0.0
 40
0.0854745021037644
 40
0.1734250374484217
 40
0.2450062248434671
 40
0.3183355537218207
 40
0.3981832095953214
 40
0.460146436067743
 40
0.5114692276014292
 40
0.5627660023136534
 40
0.5992580398016502
 40
0.6367618570991256
 40
0.6958158817478708
 40
0.7564381759975078
 40
0.8400068663133884
 40
0.9259781920140099
 40
1.0
 40
1.0
 40
1.0
 40
1.0
 10
2148.490517423437
 20
1811.187861988749
 30
0.0
 10
2148.449101645121
 20
1811.403899148529
 30
0.0
 10
2148.365070352411
 20
1811.842231652411
 30
0.0
 10
2148.07659308723
 20
1812.399261936896
 30
0.0
 10
2147.702137487325
 20
1812.870902946191
 30
0.0
 10
2147.238746957918
 20
1813.262247888107
 30
0.0
 10
2146.681299826085
 20
1813.557015960456
 30
0.0
 10
2146.06585717195
 20
1813.718934275761
 30
0.0
 10
2145.484464290969
 20
1813.749384708842
 30
0.0
 10
2145.007600315351
 20
1813.683288208875
 30
0.0
 10
2144.621911576806
 20
1813.569382290748
 30
0.0
 10
2144.251713473905
 20
1813.410408896716
 30
0.0
 10
2143.872299798512
 20
1813.175718103895
 30
0.0
 10
2143.463199761819
 20
1812.815685516861
 30
0.0
 10
2143.103293491948
 20
1812.342712857886
 30
0.0
 10
2142.835646518664
 20
1811.78038543838
 30
0.0
 10
2142.761492728343
 20
1811.375284452897
 30
0.0
 10
2142.727185020869
 20
1811.187861988749
 30
0.0
  0
SPLINE
  5
1B9
330
1F
100
AcDbEntity
  8
0
  6
Continuous
 62
     7
370
    25
100
AcDbSpline
210
0.0
220
0.0
230
1.0
 70
     8
 71
     3
 72
    14
 73
    10
 74
     0
 42
0.000000001
 43
0.00000001
 40
0.0
 40
0.0
 40
0.0
 40
0.0
 40
0.223697858003452
 40
0.3528357075717441
 40
0.4829964006465
 40
0.5936020866478989
 40
0.6970463839856236
 40
0.8440092931474639
 40
1.0
 40
1.0
 40
1.0
 40
1.0
 10
2149.248127850187
 20
1810.823016036285
 30
0.0
 10
2149.189589550298
 20
1810.794630010098
 30
0.0
 10
2149.097257855013
 20
1810.749857102012
 30
0.0
 10
2148.930314075348
 20
1810.746046090264
 30
0.0
 10
2148.794824661852
 20
1810.780511144117
 30
0.0
 10
2148.680327238799
 20
1810.84797154505
 30
0.0
 10
2148.586477728586
 20
1810.940160690557
 30
0.0
 10
2148.516296803705
 20
1811.057622232966
 30
0.0
 10
2148.49927958379
 20
1811.143594763832
 30
0.0
 10
2148.490517423437
 20
1811.187861988749
 30
0.0
  0
SPLINE
  5
1BA
330
1F
100
AcDbEntity
  8
0
  6
Continuous
 62
     7
370
    25
100
AcDbSpline
210
0.0
220
0.0
230
1.0
 70
     8
 71
     3
 72
    22
 73
    18
 74
     0
 42
0.000000001
 43
0.00000001
 40
0.0
 40
0.0
 40
0.0
 40
0.0
 40
0.0888263735614463
 40
0.1776643044611118
 40
0.2480696502500645
 40
0.3183725125743798
 40
0.3911252793172404
 40
0.4486880646413484
 40
0.495458121926365
 40
0.5422043769639107
 40
0.5766399085222108
 40
0.6111480241397919
 40
0.6694938294426567
 40
0.7279572587091718
 40
0.8144549765181945
 40
0.9009964173563898
 40
1.0
 40
1.0
 40
1.0
 40
1.0
 10
2152.841506827907
 20
1806.317061320028
 30
0.0
 10
2152.989426884778
 20
1806.490593634242
 30
0.0
 10
2153.285286244632
 20
1806.837680841233
 30
0.0
 10
2153.538437595721
 20
1807.419973279003
 30
0.0
 10
2153.667332038591
 20
1807.999188418113
 30
0.0
 10
2153.680953440317
 20
1808.579038819963
 30
0.0
 10
2153.575943272008
 20
1809.162554488159
 30
0.0
 10
2153.35001657416
 20
1809.710374672985
 30
0.0
 10
2153.049240215827
 20
1810.165525370797
 30
0.0
 10
2152.737864776249
 20
1810.492507612171
 30
0.0
 10
2152.441926738569
 20
1810.726355566777
 30
0.0
 10
2152.111146077739
 20
1810.932526749074
 30
0.0
 10
2151.714921155253
 20
1811.106392454504
 30
0.0
 10
2151.186532994658
 20
1811.240061952451
 30
0.0
 10
2150.589466361585
 20
1811.269351550229
 30
0.0
 10
2149.904379130422
 20
1811.158876636107
 30
0.0
 10
2149.476458709868
 20
1810.939872706589
 30
0.0
 10
2149.248127850187
 20
1810.823016036285
 30
0.0
  0
SPLINE
  5
1BB
330
1F
100
AcDbEntity
  8
0
  6
Continuous
 62
     7
370
    25
100
AcDbSpline
210
0.0
220
0.0
230
1.0
 70
     8
 71
     3
 72
    14
 73
    10
 74
     0
 42
0.000000001
 43
0.00000001
 40
0.0
 40
0.0
 40
0.0
 40
0.0
 40
0.2198296104785275
 40
0.3499177958292769
 40
0.4588983161343728
 40
0.5683999765788669
 40
0.666709468123292
 40
0.7967198733579898
 40
1.0
 40
1.0
 40
1.0
 40
1.0
 10
2153.028621150883
 20
1805.497259906338
 30
0.0
 10
2152.972282680209
 20
1805.523864141269
 30
0.0
 10
2152.882604890964
 20
1805.566211917924
 30
0.0
 10
2152.780341632447
 20
1805.684286371539
 30
0.0
 10
2152.722005582404
 20
1805.800167772502
 30
0.0
 10
2152.696008094028
 20
1805.922171956458
 30
0.0
 10
2152.700530726035
 20
1806.049846939391
 30
0.0
 10
2152.742375826181
 20
1806.19572799029
 30
0.0
 10
2152.803950986444
 20
1806.271094112832
 30
0.0
 10
2152.841506827907
 20
1806.317061320028
 30
0.0
  0
SPLINE
  5
1BC
330
1F
100
AcDbEntity
  8
0
  6
Continuous
 62
     7
370
    25
100
AcDbSpline
210
0.0
220
0.0
230
1.0
 70
     8
 71
     3
 72
    23
 73
    19
 74
     0
 42
0.000000001
 43
0.00000001
 40
0.0
 40
0.0
 40
0.0
 40
0.0
 40
0.0910969868013285
 40
0.1848037119966392
 40
0.2589280754183401
 40
0.3346657852428933
 40
0.3911149903085905
 40
0.4192965879842118
 40
0.4482557548146677
 40
0.483934969826992
 40
0.519665459516277
 40
0.5704118234188864
 40
0.61759516286197
 40
0.6659024462277304
 40
0.7517301575708734
 40
0.8399249721114654
 40
0.9190990318416685
 40
1.0
 40
1.0
 40
1.0
 40
1.0
 10
2151.746159041957
 20
1799.878426279894
 30
0.0
 10
2151.982683675072
 20
1799.871441659054
 30
0.0
 10
2152.462508878003
 20
1799.857272322574
 30
0.0
 10
2153.098028334273
 20
1800.039746477672
 30
0.0
 10
2153.65217688224
 20
1800.328430588018
 30
0.0
 10
2154.082054884971
 20
1800.678251147198
 30
0.0
 10
2154.384812389207
 20
1801.038811021387
 30
0.0
 10
2154.579510237614
 20
1801.349953251173
 30
0.0
 10
2154.723617352374
 20
1801.640174229224
 30
0.0
 10
2154.850384342224
 20
1801.999841156897
 30
0.0
 10
2154.939436357635
 20
1802.45280151689
 30
0.0
 10
2154.952360452441
 20
1802.903978427527
 30
0.0
 10
2154.896940159644
 20
1803.336039655056
 30
0.0
 10
2154.764567593315
 20
1803.819589262952
 30
0.0
 10
2154.510361792471
 20
1804.341386965524
 30
0.0
 10
2154.103565921485
 20
1804.840033131731
 30
0.0
 10
2153.610775461682
 20
1805.242682302526
 30
0.0
 10
2153.224063220358
 20
1805.411792577817
 30
0.0
 10
2153.028621150883
 20
1805.497259906338
 30
0.0
  0
SPLINE
  5
1BD
330
1F
100
AcDbEntity
  8
0
  6
Continuous
 62
     7
370
    25
100
AcDbSpline
210
0.0
220
0.0
230
1.0
 70
     8
 71
     3
 72
    15
 73
    11
 74
     0
 42
0.000000001
 43
0.00000001
 40
0.0
 40
0.0
 40
0.0
 40
0.0
 40
0.2148110296556649
 40
0.341132267341677
 40
0.4464287003091036
 40
0.5523542512426315
 40
0.6447889097414538
 40
0.7660552293890753
 40
0.940389446327539
 40
1.0
 40
1.0
 40
1.0
 40
1.0
 10
2151.221876359517
 20
1799.220996590392
 30
0.0
 10
2151.2078597887
 20
1799.279099354998
 30
0.0
 10
2151.185600668248
 20
1799.371369886268
 30
0.0
 10
2151.210215455171
 20
1799.520355719102
 30
0.0
 10
2151.259969747993
 20
1799.636760041174
 30
0.0
 10
2151.334454623768
 20
1799.733532217287
 30
0.0
 10
2151.431419966843
 20
1799.811227152513
 30
0.0
 10
2151.556582058129
 20
1799.868844241345
 30
0.0
 10
2151.665482553552
 20
1799.884202111793
 30
0.0
 10
2151.729776541813
 20
1799.879599144117
 30
0.0
 10
2151.746159041957
 20
1799.878426279894
 30
0.0
  0
SPLINE
  5
1BE
330
1F
100
AcDbEntity
  8
0
  6
Continuous
 62
     7
370
    25
100
AcDbSpline
210
0.0
220
0.0
230
1.0
 70
     8
 71
     3
 72
    24
 73
    20
 74
     0
 42
0.000000001
 43
0.00000001
 40
0.0
 40
0.0
 40
0.0
 40
0.0
 40
0.0911965069059058
 40
0.1849512956916472
 40
0.2785630825689108
 40
0.3267793156259068
 40
0.3749620934334357
 40
0.4231886157143697
 40
0.4634025814428991
 40
0.4878136217774444
 40
0.5123391454037174
 40
0.5441511799606298
 40
0.5754422073291717
 40
0.6074155224532766
 40
0.6832791824590436
 40
0.7609114936918927
 40
0.8467133254741134
 40
0.9343946246668707
 40
1.0
 40
1.0
 40
1.0
 40
1.0
 10
2146.02929328943
 20
1796.720380377788
 30
0.0
 10
2146.176881537228
 20
1796.524973543551
 30
0.0
 10
2146.476198238986
 20
1796.12867824228
 30
0.0
 10
2147.068871143133
 20
1795.718340547201
 30
0.0
 10
2147.627857050939
 20
1795.494666637687
 30
0.0
 10
2148.114456622452
 20
1795.40134134619
 30
0.0
 10
2148.508960989325
 20
1795.379165204866
 30
0.0
 10
2148.911033317659
 20
1795.411515095473
 30
0.0
 10
2149.290094210453
 20
1795.497845168225
 30
0.0
 10
2149.62376941314
 20
1795.621158327782
 30
0.0
 10
2149.921009837511
 20
1795.768737806259
 30
0.0
 10
2150.190966984431
 20
1795.945170136591
 30
0.0
 10
2150.426426376025
 20
1796.138992603526
 30
0.0
 10
2150.714612438082
 20
1796.428483437171
 30
0.0
 10
2151.004722075681
 20
1796.832821419539
 30
0.0
 10
2151.256287203511
 20
1797.394402291736
 30
0.0
 10
2151.385899349418
 20
1798.022952928007
 30
0.0
 10
2151.380532523604
 20
1798.64868631718
 30
0.0
 10
2151.269428096552
 20
1799.049466238763
 30
0.0
 10
2151.221876359517
 20
1799.220996590392
 30
0.0
  0
SPLINE
  5
1BF
330
1F
100
AcDbEntity
  8
0
  6
Continuous
 62
     7
370
    25
100
AcDbSpline
210
0.0
220
0.0
230
1.0
 70
     8
 71
     3
 72
    15
 73
    11
 74
     0
 42
0.000000001
 43
0.00000001
 40
0.0
 40
0.0
 40
0.0
 40
0.0
 40
0.2126307822085236
 40
0.333080635927324
 40
0.4343189429315499
 40
0.5361409898009207
 40
0.6255006565988698
 40
0.7454503639221319
 40
0.9209037802013924
 40
1.0
 40
1.0
 40
1.0
 40
1.0
 10
2145.188409154876
 20
1796.720380377788
 30
0.0
 10
2145.224813888682
 20
1796.767346505264
 30
0.0
 10
2145.281840965199
 20
1796.840917732554
 30
0.0
 10
2145.411337162792
 20
1796.914218058897
 30
0.0
 10
2145.52951390051
 20
1796.948388660171
 30
0.0
 10
2145.648296699813
 20
1796.952650188194
 30
0.0
 10
2145.767645466614
 20
1796.928860520901
 30
0.0
 10
2145.891519182193
 20
1796.870939511687
 30
0.0
 10
2145.977649574498
 20
1796.794307211759
 30
0.0
 10
2146.017050300178
 20
1796.737905945709
 30
0.0
 10
2146.02929328943
 20
1796.720380377788
 30
0.0
  0
SPLINE
  5
1C0
330
1F
100
AcDbEntity
  8
0
  6
Continuous
 62
     7
370
    25
100
AcDbSpline
210
0.0
220
0.0
230
1.0
 70
     8
 71
     3
 72
    23
 73
    19
 74
     0
 42
0.000000001
 43
0.00000001
 40
0.0
 40
0.0
 40
0.0
 40
0.0
 40
0.0897184424169859
 40
0.1819530101450225
 40
0.274171447426167
 40
0.3688066833926741
 40
0.4236166376621338
 40
0.4510047767191718
 40
0.4792226014534579
 40
0.503776821511527
 40
0.5284329184559774
 40
0.5611529616598343
 40
0.6013153972724704
 40
0.6426014856981406
 40
0.7286645668366297
 40
0.8169312426262006
 40
0.9072926694662784
 40
0.9999999999999999
 40
0.9999999999999999
 40
0.9999999999999999
 40
0.9999999999999999
 10
2139.995826084788
 20
1799.220996590391
 30
0.0
 10
2139.935458820902
 20
1798.985814785809
 30
0.0
 10
2139.813031312328
 20
1798.508855577396
 30
0.0
 10
2139.858810447209
 20
1797.797830877687
 30
0.0
 10
2140.059983873003
 20
1797.114661307186
 30
0.0
 10
2140.381534344158
 20
1796.570263575271
 30
0.0
 10
2140.721751846071
 20
1796.199057798112
 30
0.0
 10
2140.991184992267
 20
1795.973538497074
 30
0.0
 10
2141.226236961516
 20
1795.812060507632
 30
0.0
 10
2141.499204052763
 20
1795.664000875445
 30
0.0
 10
2141.80981344906
 20
1795.536495206939
 30
0.0
 10
2142.152371533218
 20
1795.441727685077
 30
0.0
 10
2142.505810407821
 20
1795.390802728634
 30
0.0
 10
2142.98105000631
 20
1795.38111865235
 30
0.0
 10
2143.540620820034
 20
1795.471770526841
 30
0.0
 10
2144.164882986851
 20
1795.729984644287
 30
0.0
 10
2144.741640344816
 20
1796.130014121491
 30
0.0
 10
2145.038219397451
 20
1796.521917631892
 30
0.0
 10
2145.188409154876
 20
1796.720380377788
 30
0.0
  0
SPLINE
  5
1C1
330
1F
100
AcDbEntity
  8
0
  6
Continuous
 62
     7
370
    25
100
AcDbSpline
210
0.0
220
0.0
230
1.0
 70
     8
 71
     3
 72
    15
 73
    11
 74
     0
 42
0.000000001
 43
0.00000001
 40
0.0
 40
0.0
 40
0.0
 40
0.0
 40
0.2153296810343772
 40
0.3327055588565954
 40
0.4327106172887602
 40
0.5331289091056287
 40
0.6249491950544293
 40
0.7533679527279632
 40
0.9418458044828449
 40
1.0
 40
1.0
 40
1.0
 40
1.0
 10
2139.471543402349
 20
1799.878426279894
 30
0.0
 10
2139.53329712037
 20
1799.879082351094
 30
0.0
 10
2139.62871269507
 20
1799.880096045697
 30
0.0
 10
2139.768642702369
 20
1799.82135519415
 30
0.0
 10
2139.867121823528
 20
1799.749421919092
 30
0.0
 10
2139.942569283474
 20
1799.659464727055
 30
0.0
 10
2139.998034953993
 20
1799.549895368995
 30
0.0
 10
2140.029134769997
 20
1799.411552800387
 30
0.0
 10
2140.019773787567
 20
1799.299230464044
 30
0.0
 10
2140.00039538351
 20
1799.235923865136
 30
0.0
 10
2139.995826084788
 20
1799.220996590392
 30
0.0
  0
SPLINE
  5
1C2
330
1F
100
AcDbEntity
  8
0
  6
Continuous
 62
     7
370
    25
100
AcDbSpline
210
0.0
220
0.0
230
1.0
 70
     8
 71
     3
 72
    23
 73
    19
 74
     0
 42
0.000000001
 43
0.00000001
 40
0.0
 40
0.0
 40
0.0
 40
0.0
 40
0.0885678039540115
 40
0.1796618030867237
 40
0.2696402247011209
 40
0.3623227458492555
 40
0.4187921283155895
 40
0.4469855966110758
 40
0.4758340949873272
 40
0.5121667494004556
 40
0.5486292713320122
 40
0.5959020947527298
 40
0.638271093948833
 40
0.6816578768037956
 40
0.7625636367512909
 40
0.8456297940757813
 40
0.9220704932663933
 40
1.0
 40
1.0
 40
1.0
 40
1.0
 10
1348.189081293429
 20
1805.497259906341
 30
0.0
 10
1347.975863824748
 20
1805.402388374112
 30
0.0
 10
1347.543347344012
 20
1805.209939314963
 30
0.0
 10
1347.025254876506
 20
1804.752965096299
 30
0.0
 10
1346.613811932653
 20
1804.190004881292
 30
0.0
 10
1346.373681974291
 20
1803.603066376741
 30
0.0
 10
1346.283833367057
 20
1803.097232970319
 30
0.0
 10
1346.269876763104
 20
1802.737339491153
 30
0.0
 10
1346.288185230508
 20
1802.41857916699
 30
0.0
 10
1346.355435088366
 20
1802.043296194258
 30
0.0
 10
1346.501828626557
 20
1801.608474382936
 30
0.0
 10
1346.705901486464
 20
1801.223641217946
 30
0.0
 10
1346.946735470213
 20
1800.896275309051
 30
0.0
 10
1347.272541681557
 20
1800.555508340196
 30
0.0
 10
1347.715540289602
 20
1800.231734420168
 30
0.0
 10
1348.27727412392
 20
1799.986294536596
 30
0.0
 10
1348.868163072464
 20
1799.854233928395
 30
0.0
 10
1349.269127605349
 20
1799.870310479847
 30
0.0
 10
1349.471543402349
 20
1799.878426279895
 30
0.0
  0
SPLINE
  5
1C3
330
1F
100
AcDbEntity
  8
0
  6
Continuous
 62
     7
370
    25
100
AcDbSpline
210
0.0
220
0.0
230
1.0
 70
     8
 71
     3
 72
    14
 73
    10
 74
     0
 42
0.000000001
 43
0.00000001
 40
0.0
 40
0.0
 40
0.0
 40
0.0
 40
0.2204300636816243
 40
0.3399443732550936
 40
0.4603671101701541
 40
0.5640212293773891
 40
0.6631726788869662
 40
0.8102691653343018
 40
1.0
 40
1.0
 40
1.0
 40
1.0
 10
1348.376195616399
 20
1806.317061320029
 30
0.0
 10
1348.416834122828
 20
1806.266606842188
 30
0.0
 10
1348.479506298152
 20
1806.188796603599
 30
0.0
 10
1348.520520322545
 20
1806.031023214185
 30
0.0
 10
1348.51991701677
 20
1805.898467177835
 30
0.0
 10
1348.485924599485
 20
1805.776898048894
 30
0.0
 10
1348.42392175862
 20
1805.664912053553
 30
0.0
 10
1348.323502844197
 20
1805.558934067308
 30
0.0
 10
1348.237516423992
 20
1805.519482503995
 30
0.0
 10
1348.189081293429
 20
1805.497259906341
 30
0.0
  0
SPLINE
  5
1C4
330
1F
100
AcDbEntity
  8
0
  6
Continuous
 62
     7
370
    25
100
AcDbSpline
210
0.0
220
0.0
230
1.0
 70
     8
 71
     3
 72
    23
 73
    19
 74
     0
 42
0.000000001
 43
0.00000001
 40
0.0
 40
0.0
 40
0.0
 40
0.0
 40
0.0876038587420585
 40
0.1752379614181738
 40
0.2636805576071802
 40
0.3519102061228138
 40
0.4192295657443112
 40
0.453438372831113
 40
0.4875483396523675
 40
0.5342203370545083
 40
0.5807897799348426
 40
0.6178527330908522
 40
0.6549967327784414
 40
0.7183513735855416
 40
0.7818242023345464
 40
0.8701536731504289
 40
0.9585039722462484
 40
1.0
 40
1.0
 40
1.0
 40
1.0
 10
1351.969574594123
 20
1810.823016036285
 30
0.0
 10
1351.768469563873
 20
1810.92806812736
 30
0.0
 10
1351.366190074842
 20
1811.138208577186
 30
0.0
 10
1350.703785751805
 20
1811.264137243148
 30
0.0
 10
1350.026339898766
 20
1811.249139829742
 30
0.0
 10
1349.388106830257
 20
1811.076153398361
 30
0.0
 10
1348.890970827812
 20
1810.81286192451
 30
0.0
 10
1348.542863828195
 20
1810.544323140009
 30
0.0
 10
1348.259326505661
 20
1810.268111042867
 30
0.0
 10
1347.980439725208
 20
1809.899750154282
 30
0.0
 10
1347.774017294691
 20
1809.496459574816
 30
0.0
 10
1347.648520744687
 20
1809.13075827051
 30
0.0
 10
1347.561492644651
 20
1808.727807547458
 30
0.0
 10
1347.533524326664
 20
1808.269035770172
 30
0.0
 10
1347.599326785223
 20
1807.70497001642
 30
0.0
 10
1347.792986829136
 20
1807.119983159965
 30
0.0
 10
1348.078686492838
 20
1806.642444176548
 30
0.0
 10
1348.304144272895
 20
1806.395863178892
 30
0.0
 10
1348.376195616399
 20
1806.317061320029
 30
0.0
  0
SPLINE
  5
1C5
330
1F
100
AcDbEntity
  8
0
  6
Continuous
 62
     7
370
    25
100
AcDbSpline
210
0.0
220
0.0
230
1.0
 70
     8
 71
     3
 72
    14
 73
    10
 74
     0
 42
0.000000001
 43
0.00000001
 40
0.0
 40
0.0
 40
0.0
 40
0.0
 40
0.2240635092469123
 40
0.3487071205324734
 40
0.4742528072797302
 40
0.582549286062548
 40
0.6866084231150471
 40
0.837972714943134
 40
1.0
 40
1.0
 40
1.0
 40
1.0
 10
1352.727185020869
 20
1811.18786198875
 30
0.0
 10
1352.712562365393
 20
1811.123322215361
 30
0.0
 10
1352.689805317166
 20
1811.022879806804
 30
0.0
 10
1352.588131118421
 20
1810.890712403267
 30
0.0
 10
1352.479446516299
 20
1810.808301476856
 30
0.0
 10
1352.358465948361
 20
1810.760870871463
 30
0.0
 10
1352.22817658144
 20
1810.743415392011
 30
0.0
 10
1352.090294798784
 20
1810.760785091737
 30
0.0
 10
1352.0107171919
 20
1810.801807136515
 30
0.0
 10
1351.969574594123
 20
1810.823016036285
 30
0.0
  0
SPLINE
  5
1C6
330
1F
100
AcDbEntity
  8
0
  6
Continuous
 62
     7
370
    25
100
AcDbSpline
210
0.0
220
0.0
230
1.0
 70
     8
 71
     3
 72
    22
 73
    18
 74
     0
 42
0.000000001
 43
0.00000001
 40
0.0
 40
0.0
 40
0.0
 40
0.0
 40
0.0854745021037644
 40
0.1734250374484217
 40
0.2450062248434671
 40
0.3183355537218207
 40
0.3981832095953214
 40
0.460146436067743
 40
0.5114692276014292
 40
0.5627660023136534
 40
0.5992580398016502
 40
0.6367618570991256
 40
0.6958158817478708
 40
0.7564381759975078
 40
0.8400068663133884
 40
0.9259781920140099
 40
1.0
 40
1.0
 40
1.0
 40
1.0
 10
1358.490517423437
 20
1811.18786198875
 30
0.0
 10
1358.449101645121
 20
1811.40389914853
 30
0.0
 10
1358.365070352412
 20
1811.842231652412
 30
0.0
 10
1358.076593087231
 20
1812.399261936897
 30
0.0
 10
1357.702137487325
 20
1812.870902946192
 30
0.0
 10
1357.238746957919
 20
1813.262247888109
 30
0.0
 10
1356.681299826086
 20
1813.557015960457
 30
0.0
 10
1356.06585717195
 20
1813.718934275762
 30
0.0
 10
1355.48446429097
 20
1813.749384708843
 30
0.0
 10
1355.007600315352
 20
1813.683288208876
 30
0.0
 10
1354.621911576806
 20
1813.569382290749
 30
0.0
 10
1354.251713473906
 20
1813.410408896717
 30
0.0
 10
1353.872299798512
 20
1813.175718103897
 30
0.0
 10
1353.463199761819
 20
1812.815685516862
 30
0.0
 10
1353.103293491948
 20
1812.342712857887
 30
0.0
 10
1352.835646518665
 20
1811.780385438381
 30
0.0
 10
1352.761492728344
 20
1811.375284452898
 30
0.0
 10
1352.727185020869
 20
1811.18786198875
 30
0.0
  0
SPLINE
  5
1C7
330
1F
100
AcDbEntity
  8
0
  6
Continuous
 62
     7
370
    25
100
AcDbSpline
210
0.0
220
0.0
230
1.0
 70
     8
 71
     3
 72
    14
 73
    10
 74
     0
 42
0.000000001
 43
0.00000001
 40
0.0
 40
0.0
 40
0.0
 40
0.0
 40
0.223697858003452
 40
0.3528357075717441
 40
0.4829964006465
 40
0.5936020866478989
 40
0.6970463839856236
 40
0.8440092931474639
 40
1.0
 40
1.0
 40
1.0
 40
1.0
 10
1359.248127850187
 20
1810.823016036287
 30
0.0
 10
1359.189589550299
 20
1810.794630010099
 30
0.0
 10
1359.097257855013
 20
1810.749857102014
 30
0.0
 10
1358.930314075348
 20
1810.746046090266
 30
0.0
 10
1358.794824661852
 20
1810.780511144118
 30
0.0
 10
1358.680327238799
 20
1810.847971545052
 30
0.0
 10
1358.586477728586
 20
1810.940160690559
 30
0.0
 10
1358.516296803705
 20
1811.057622232968
 30
0.0
 10
1358.499279583791
 20
1811.143594763833
 30
0.0
 10
1358.490517423437
 20
1811.18786198875
 30
0.0
  0
SPLINE
  5
1C8
330
1F
100
AcDbEntity
  8
0
  6
Continuous
 62
     7
370
    25
100
AcDbSpline
210
0.0
220
0.0
230
1.0
 70
     8
 71
     3
 72
    22
 73
    18
 74
     0
 42
0.000000001
 43
0.00000001
 40
0.0
 40
0.0
 40
0.0
 40
0.0
 40
0.0888263735614463
 40
0.1776643044611118
 40
0.2480696502500645
 40
0.3183725125743798
 40
0.3911252793172404
 40
0.4486880646413484
 40
0.495458121926365
 40
0.5422043769639107
 40
0.5766399085222108
 40
0.6111480241397919
 40
0.6694938294426567
 40
0.7279572587091718
 40
0.8144549765181945
 40
0.9009964173563898
 40
1.0
 40
1.0
 40
1.0
 40
1.0
 10
1362.841506827907
 20
1806.317061320029
 30
0.0
 10
1362.989426884779
 20
1806.490593634244
 30
0.0
 10
1363.285286244632
 20
1806.837680841234
 30
0.0
 10
1363.538437595721
 20
1807.419973279004
 30
0.0
 10
1363.667332038592
 20
1807.999188418114
 30
0.0
 10
1363.680953440318
 20
1808.579038819964
 30
0.0
 10
1363.575943272008
 20
1809.16255448816
 30
0.0
 10
1363.350016574161
 20
1809.710374672986
 30
0.0
 10
1363.049240215828
 20
1810.165525370797
 30
0.0
 10
1362.73786477625
 20
1810.492507612172
 30
0.0
 10
1362.44192673857
 20
1810.726355566778
 30
0.0
 10
1362.11114607774
 20
1810.932526749075
 30
0.0
 10
1361.714921155253
 20
1811.106392454505
 30
0.0
 10
1361.186532994658
 20
1811.240061952452
 30
0.0
 10
1360.589466361586
 20
1811.269351550229
 30
0.0
 10
1359.904379130422
 20
1811.158876636108
 30
0.0
 10
1359.476458709868
 20
1810.93987270659
 30
0.0
 10
1359.248127850187
 20
1810.823016036287
 30
0.0
  0
SPLINE
  5
1C9
330
1F
100
AcDbEntity
  8
0
  6
Continuous
 62
     7
370
    25
100
AcDbSpline
210
0.0
220
0.0
230
1.0
 70
     8
 71
     3
 72
    14
 73
    10
 74
     0
 42
0.000000001
 43
0.00000001
 40
0.0
 40
0.0
 40
0.0
 40
0.0
 40
0.2198296104785275
 40
0.3499177958292769
 40
0.4588983161343728
 40
0.5683999765788669
 40
0.666709468123292
 40
0.7967198733579898
 40
1.0
 40
1.0
 40
1.0
 40
1.0
 10
1363.028621150884
 20
1805.497259906339
 30
0.0
 10
1362.97228268021
 20
1805.52386414127
 30
0.0
 10
1362.882604890964
 20
1805.566211917925
 30
0.0
 10
1362.780341632448
 20
1805.68428637154
 30
0.0
 10
1362.722005582404
 20
1805.800167772504
 30
0.0
 10
1362.696008094028
 20
1805.922171956459
 30
0.0
 10
1362.700530726036
 20
1806.049846939392
 30
0.0
 10
1362.742375826182
 20
1806.195727990292
 30
0.0
 10
1362.803950986444
 20
1806.271094112834
 30
0.0
 10
1362.841506827907
 20
1806.317061320029
 30
0.0
  0
SPLINE
  5
1CA
330
1F
100
AcDbEntity
  8
0
  6
Continuous
 62
     7
370
    25
100
AcDbSpline
210
0.0
220
0.0
230
1.0
 70
     8
 71
     3
 72
    23
 73
    19
 74
     0
 42
0.000000001
 43
0.00000001
 40
0.0
 40
0.0
 40
0.0
 40
0.0
 40
0.0910969868013285
 40
0.1848037119966392
 40
0.2589280754183401
 40
0.3346657852428933
 40
0.3911149903085905
 40
0.4192965879842118
 40
0.4482557548146677
 40
0.483934969826992
 40
0.519665459516277
 40
0.5704118234188864
 40
0.61759516286197
 40
0.6659024462277304
 40
0.7517301575708734
 40
0.8399249721114654
 40
0.9190990318416685
 40
1.0
 40
1.0
 40
1.0
 40
1.0
 10
1361.746159041957
 20
1799.878426279895
 30
0.0
 10
1361.982683675072
 20
1799.871441659055
 30
0.0
 10
1362.462508878003
 20
1799.857272322576
 30
0.0
 10
1363.098028334274
 20
1800.039746477673
 30
0.0
 10
1363.65217688224
 20
1800.328430588019
 30
0.0
 10
1364.082054884971
 20
1800.678251147199
 30
0.0
 10
1364.384812389208
 20
1801.038811021388
 30
0.0
 10
1364.579510237614
 20
1801.349953251174
 30
0.0
 10
1364.723617352375
 20
1801.640174229225
 30
0.0
 10
1364.850384342225
 20
1801.999841156898
 30
0.0
 10
1364.939436357635
 20
1802.452801516891
 30
0.0
 10
1364.952360452441
 20
1802.903978427528
 30
0.0
 10
1364.896940159644
 20
1803.336039655057
 30
0.0
 10
1364.764567593315
 20
1803.819589262953
 30
0.0
 10
1364.510361792471
 20
1804.341386965526
 30
0.0
 10
1364.103565921485
 20
1804.840033131732
 30
0.0
 10
1363.610775461683
 20
1805.242682302527
 30
0.0
 10
1363.224063220358
 20
1805.411792577818
 30
0.0
 10
1363.028621150884
 20
1805.497259906339
 30
0.0
  0
SPLINE
  5
1CB
330
1F
100
AcDbEntity
  8
0
  6
Continuous
 62
     7
370
    25
100
AcDbSpline
210
0.0
220
0.0
230
1.0
 70
     8
 71
     3
 72
    15
 73
    11
 74
     0
 42
0.000000001
 43
0.00000001
 40
0.0
 40
0.0
 40
0.0
 40
0.0
 40
0.2148110296556649
 40
0.341132267341677
 40
0.4464287003091036
 40
0.5523542512426315
 40
0.6447889097414538
 40
0.7660552293890753
 40
0.940389446327539
 40
1.0
 40
1.0
 40
1.0
 40
1.0
 10
1361.221876359518
 20
1799.220996590393
 30
0.0
 10
1361.2078597887
 20
1799.279099354999
 30
0.0
 10
1361.185600668249
 20
1799.371369886269
 30
0.0
 10
1361.210215455171
 20
1799.520355719103
 30
0.0
 10
1361.259969747994
 20
1799.636760041175
 30
0.0
 10
1361.334454623768
 20
1799.733532217288
 30
0.0
 10
1361.431419966844
 20
1799.811227152514
 30
0.0
 10
1361.556582058129
 20
1799.868844241347
 30
0.0
 10
1361.665482553553
 20
1799.884202111794
 30
0.0
 10
1361.729776541814
 20
1799.879599144119
 30
0.0
 10
1361.746159041957
 20
1799.878426279895
 30
0.0
  0
SPLINE
  5
1CC
330
1F
100
AcDbEntity
  8
0
  6
Continuous
 62
     7
370
    25
100
AcDbSpline
210
0.0
220
0.0
230
1.0
 70
     8
 71
     3
 72
    24
 73
    20
 74
     0
 42
0.000000001
 43
0.00000001
 40
0.0
 40
0.0
 40
0.0
 40
0.0
 40
0.0911965069059058
 40
0.1849512956916472
 40
0.2785630825689108
 40
0.3267793156259068
 40
0.3749620934334357
 40
0.4231886157143697
 40
0.4634025814428991
 40
0.4878136217774444
 40
0.5123391454037174
 40
0.5441511799606298
 40
0.5754422073291717
 40
0.6074155224532766
 40
0.6832791824590436
 40
0.7609114936918927
 40
0.8467133254741134
 40
0.9343946246668707
 40
1.0
 40
1.0
 40
1.0
 40
1.0
 10
1356.02929328943
 20
1796.720380377789
 30
0.0
 10
1356.176881537228
 20
1796.524973543552
 30
0.0
 10
1356.476198238986
 20
1796.128678242281
 30
0.0
 10
1357.068871143134
 20
1795.718340547202
 30
0.0
 10
1357.627857050939
 20
1795.494666637688
 30
0.0
 10
1358.114456622453
 20
1795.401341346192
 30
0.0
 10
1358.508960989326
 20
1795.379165204867
 30
0.0
 10
1358.911033317659
 20
1795.411515095474
 30
0.0
 10
1359.290094210454
 20
1795.497845168226
 30
0.0
 10
1359.623769413141
 20
1795.621158327784
 30
0.0
 10
1359.921009837512
 20
1795.768737806261
 30
0.0
 10
1360.190966984431
 20
1795.945170136592
 30
0.0
 10
1360.426426376025
 20
1796.138992603527
 30
0.0
 10
1360.714612438082
 20
1796.428483437172
 30
0.0
 10
1361.004722075681
 20
1796.83282141954
 30
0.0
 10
1361.256287203512
 20
1797.394402291737
 30
0.0
 10
1361.385899349418
 20
1798.022952928009
 30
0.0
 10
1361.380532523605
 20
1798.648686317182
 30
0.0
 10
1361.269428096552
 20
1799.049466238764
 30
0.0
 10
1361.221876359518
 20
1799.220996590393
 30
0.0
  0
SPLINE
  5
1CD
330
1F
100
AcDbEntity
  8
0
  6
Continuous
 62
     7
370
    25
100
AcDbSpline
210
0.0
220
0.0
230
1.0
 70
     8
 71
     3
 72
    15
 73
    11
 74
     0
 42
0.000000001
 43
0.00000001
 40
0.0
 40
0.0
 40
0.0
 40
0.0
 40
0.2126307822085236
 40
0.333080635927324
 40
0.4343189429315499
 40
0.5361409898009207
 40
0.6255006565988698
 40
0.7454503639221319
 40
0.9209037802013924
 40
1.0
 40
1.0
 40
1.0
 40
1.0
 10
1355.188409154876
 20
1796.720380377789
 30
0.0
 10
1355.224813888682
 20
1796.767346505265
 30
0.0
 10
1355.281840965199
 20
1796.840917732555
 30
0.0
 10
1355.411337162793
 20
1796.914218058898
 30
0.0
 10
1355.529513900511
 20
1796.948388660172
 30
0.0
 10
1355.648296699813
 20
1796.952650188196
 30
0.0
 10
1355.767645466614
 20
1796.928860520902
 30
0.0
 10
1355.891519182194
 20
1796.870939511688
 30
0.0
 10
1355.977649574499
 20
1796.794307211761
 30
0.0
 10
1356.017050300178
 20
1796.737905945711
 30
0.0
 10
1356.02929328943
 20
1796.720380377789
 30
0.0
  0
SPLINE
  5
1CE
330
1F
100
AcDbEntity
  8
0
  6
Continuous
 62
     7
370
    25
100
AcDbSpline
210
0.0
220
0.0
230
1.0
 70
     8
 71
     3
 72
    23
 73
    19
 74
     0
 42
0.000000001
 43
0.00000001
 40
0.0
 40
0.0
 40
0.0
 40
0.0
 40
0.0897184424169859
 40
0.1819530101450225
 40
0.274171447426167
 40
0.3688066833926741
 40
0.4236166376621338
 40
0.4510047767191718
 40
0.4792226014534579
 40
0.503776821511527
 40
0.5284329184559774
 40
0.5611529616598343
 40
0.6013153972724704
 40
0.6426014856981406
 40
0.7286645668366297
 40
0.8169312426262006
 40
0.9072926694662784
 40
0.9999999999999999
 40
0.9999999999999999
 40
0.9999999999999999
 40
0.9999999999999999
 10
1349.995826084789
 20
1799.220996590393
 30
0.0
 10
1349.935458820903
 20
1798.98581478581
 30
0.0
 10
1349.813031312328
 20
1798.508855577398
 30
0.0
 10
1349.858810447209
 20
1797.797830877688
 30
0.0
 10
1350.059983873004
 20
1797.114661307187
 30
0.0
 10
1350.381534344158
 20
1796.570263575273
 30
0.0
 10
1350.721751846072
 20
1796.199057798113
 30
0.0
 10
1350.991184992267
 20
1795.973538497075
 30
0.0
 10
1351.226236961517
 20
1795.812060507634
 30
0.0
 10
1351.499204052763
 20
1795.664000875447
 30
0.0
 10
1351.809813449061
 20
1795.53649520694
 30
0.0
 10
1352.152371533219
 20
1795.441727685078
 30
0.0
 10
1352.505810407821
 20
1795.390802728635
 30
0.0
 10
1352.981050006311
 20
1795.381118652351
 30
0.0
 10
1353.540620820035
 20
1795.471770526842
 30
0.0
 10
1354.164882986852
 20
1795.729984644288
 30
0.0
 10
1354.741640344816
 20
1796.130014121492
 30
0.0
 10
1355.038219397451
 20
1796.521917631894
 30
0.0
 10
1355.188409154876
 20
1796.720380377789
 30
0.0
  0
SPLINE
  5
1CF
330
1F
100
AcDbEntity
  8
0
  6
Continuous
 62
     7
370
    25
100
AcDbSpline
210
0.0
220
0.0
230
1.0
 70
     8
 71
     3
 72
    15
 73
    11
 74
     0
 42
0.000000001
 43
0.00000001
 40
0.0
 40
0.0
 40
0.0
 40
0.0
 40
0.2153296810343772
 40
0.3327055588565954
 40
0.4327106172887602
 40
0.5331289091056287
 40
0.6249491950544293
 40
0.7533679527279632
 40
0.9418458044828449
 40
1.0
 40
1.0
 40
1.0
 40
1.0
 10
1349.471543402349
 20
1799.878426279895
 30
0.0
 10
1349.533297120371
 20
1799.879082351096
 30
0.0
 10
1349.62871269507
 20
1799.880096045698
 30
0.0
 10
1349.768642702369
 20
1799.821355194151
 30
0.0
 10
1349.867121823529
 20
1799.749421919093
 30
0.0
 10
1349.942569283475
 20
1799.659464727056
 30
0.0
 10
1349.998034953993
 20
1799.549895368996
 30
0.0
 10
1350.029134769997
 20
1799.411552800388
 30
0.0
 10
1350.019773787568
 20
1799.299230464046
 30
0.0
 10
1350.000395383511
 20
1799.235923865137
 30
0.0
 10
1349.995826084789
 20
1799.220996590393
 30
0.0
  0
SPLINE
  5
1D0
330
1F
100
AcDbEntity
  8
0
  6
Continuous
 62
     7
370
    25
100
AcDbSpline
210
0.0
220
0.0
230
1.0
 70
     8
 71
     3
 72
    23
 73
    19
 74
     0
 42
0.000000001
 43
0.00000001
 40
0.0
 40
0.0
 40
0.0
 40
0.0
 40
0.0885678039540115
 40
0.1796618030867237
 40
0.2696402247011209
 40
0.3623227458492555
 40
0.4187921283155895
 40
0.4469855966110758
 40
0.4758340949873272
 40
0.5121667494004556
 40
0.5486292713320122
 40
0.5959020947527298
 40
0.638271093948833
 40
0.6816578768037956
 40
0.7625636367512909
 40
0.8456297940757813
 40
0.9220704932663933
 40
1.0
 40
1.0
 40
1.0
 40
1.0
 10
1363.028621150861
 20
794.2682107726553
 30
0.0
 10
1363.241838619541
 20
794.3630823048841
 30
0.0
 10
1363.674355100278
 20
794.5555313640331
 30
0.0
 10
1364.192447567784
 20
795.0125055826965
 30
0.0
 10
1364.603890511637
 20
795.5754657977039
 30
0.0
 10
1364.844020469999
 20
796.162404302255
 30
0.0
 10
1364.933869077232
 20
796.6682377086776
 30
0.0
 10
1364.947825681186
 20
797.0281311878434
 30
0.0
 10
1364.929517213782
 20
797.3468915120062
 30
0.0
 10
1364.862267355924
 20
797.7221744847379
 30
0.0
 10
1364.715873817733
 20
798.1569962960604
 30
0.0
 10
1364.511800957826
 20
798.5418294610504
 30
0.0
 10
1364.270966974077
 20
798.8691953699454
 30
0.0
 10
1363.945160762733
 20
799.2099623388006
 30
0.0
 10
1363.502162154688
 20
799.5337362588277
 30
0.0
 10
1362.94042832037
 20
799.7791761424005
 30
0.0
 10
1362.349539371826
 20
799.9112367506008
 30
0.0
 10
1361.948574838942
 20
799.8951601991487
 30
0.0
 10
1361.746159041941
 20
799.8870443991008
 30
0.0
  0
SPLINE
  5
1D1
330
1F
100
AcDbEntity
  8
0
  6
Continuous
 62
     7
370
    25
100
AcDbSpline
210
0.0
220
0.0
230
1.0
 70
     8
 71
     3
 72
    14
 73
    10
 74
     0
 42
0.000000001
 43
0.00000001
 40
0.0
 40
0.0
 40
0.0
 40
0.0
 40
0.2204300636816243
 40
0.3399443732550936
 40
0.4603671101701541
 40
0.5640212293773891
 40
0.6631726788869662
 40
0.8102691653343018
 40
1.0
 40
1.0
 40
1.0
 40
1.0
 10
1362.841506827891
 20
793.4484093589674
 30
0.0
 10
1362.800868321463
 20
793.4988638368079
 30
0.0
 10
1362.738196146138
 20
793.5766740753975
 30
0.0
 10
1362.697182121745
 20
793.734447464811
 30
0.0
 10
1362.69778542752
 20
793.8670035011611
 30
0.0
 10
1362.731777844804
 20
793.9885726301023
 30
0.0
 10
1362.79378068567
 20
794.1005586254432
 30
0.0
 10
1362.894199600092
 20
794.2065366116886
 30
0.0
 10
1362.980186020298
 20
794.2459881750009
 30
0.0
 10
1363.028621150861
 20
794.2682107726553
 30
0.0
  0
SPLINE
  5
1D2
330
1F
100
AcDbEntity
  8
0
  6
Continuous
 62
     7
370
    25
100
AcDbSpline
210
0.0
220
0.0
230
1.0
 70
     8
 71
     3
 72
    23
 73
    19
 74
     0
 42
0.000000001
 43
0.00000001
 40
0.0
 40
0.0
 40
0.0
 40
0.0
 40
0.0876038587420584
 40
0.1752379614181737
 40
0.2636805576071801
 40
0.3519102061228135
 40
0.4192295657443109
 40
0.4534383728311127
 40
0.4875483396523672
 40
0.534220337054508
 40
0.5807897799348422
 40
0.6178527330908429
 40
0.6549967327784407
 40
0.7183513735855408
 40
0.7818242023345457
 40
0.8701536731504269
 40
0.9585039722462483
 40
0.9999999999999999
 40
0.9999999999999999
 40
0.9999999999999999
 40
0.9999999999999999
 10
1359.248127850168
 20
788.9424546427113
 30
0.0
 10
1359.449232880417
 20
788.8374025516367
 30
0.0
 10
1359.851512369448
 20
788.6272621018098
 30
0.0
 10
1360.513916692485
 20
788.5013334358483
 30
0.0
 10
1361.191362545523
 20
788.5163308492538
 30
0.0
 10
1361.829595614033
 20
788.6893172806354
 30
0.0
 10
1362.326731616478
 20
788.9526087544862
 30
0.0
 10
1362.674838616095
 20
789.2211475389873
 30
0.0
 10
1362.95837593863
 20
789.497359636129
 30
0.0
 10
1363.237262719083
 20
789.8657205247135
 30
0.0
 10
1363.443685149598
 20
790.2690111041804
 30
0.0
 10
1363.569181699603
 20
790.6347124084857
 30
0.0
 10
1363.656209799639
 20
791.0376631315379
 30
0.0
 10
1363.684178117626
 20
791.4964349088241
 30
0.0
 10
1363.618375659067
 20
792.0605006625756
 30
0.0
 10
1363.424715615154
 20
792.6454875190312
 30
0.0
 10
1363.139015951452
 20
793.1230265024483
 30
0.0
 10
1362.913558171395
 20
793.3696075001043
 30
0.0
 10
1362.841506827891
 20
793.4484093589674
 30
0.0
  0
SPLINE
  5
1D3
330
1F
100
AcDbEntity
  8
0
  6
Continuous
 62
     7
370
    25
100
AcDbSpline
210
0.0
220
0.0
230
1.0
 70
     8
 71
     3
 72
    14
 73
    10
 74
     0
 42
0.000000001
 43
0.00000001
 40
0.0
 40
0.0
 40
0.0
 40
0.0
 40
0.2240635092469123
 40
0.3487071205324734
 40
0.4742528072797302
 40
0.582549286062548
 40
0.6866084231150471
 40
0.837972714943134
 40
1.0
 40
1.0
 40
1.0
 40
1.0
 10
1358.490517423421
 20
788.5776086902463
 30
0.0
 10
1358.505140078897
 20
788.6421484636356
 30
0.0
 10
1358.527897127124
 20
788.7425908721922
 30
0.0
 10
1358.629571325869
 20
788.8747582757294
 30
0.0
 10
1358.738255927991
 20
788.9571692021399
 30
0.0
 10
1358.859236495929
 20
789.0045998075329
 30
0.0
 10
1358.98952586285
 20
789.0220552869848
 30
0.0
 10
1359.127407645506
 20
789.0046855872589
 30
0.0
 10
1359.20698525239
 20
788.963663542481
 30
0.0
 10
1359.248127850168
 20
788.9424546427113
 30
0.0
  0
SPLINE
  5
1D4
330
1F
100
AcDbEntity
  8
0
  6
Continuous
 62
     7
370
    25
100
AcDbSpline
210
0.0
220
0.0
230
1.0
 70
     8
 71
     3
 72
    22
 73
    18
 74
     0
 42
0.000000001
 43
0.00000001
 40
0.0
 40
0.0
 40
0.0
 40
0.0
 40
0.0854745021037644
 40
0.1734250374484217
 40
0.2450062248434671
 40
0.3183355537218207
 40
0.3981832095953214
 40
0.460146436067743
 40
0.5114692276014292
 40
0.5627660023136534
 40
0.5992580398016502
 40
0.6367618570991256
 40
0.6958158817478708
 40
0.7564381759975078
 40
0.8400068663133884
 40
0.9259781920140099
 40
1.0
 40
1.0
 40
1.0
 40
1.0
 10
1352.727185020853
 20
788.5776086902463
 30
0.0
 10
1352.768600799169
 20
788.3615715304659
 30
0.0
 10
1352.852632091878
 20
787.9232390265844
 30
0.0
 10
1353.14110935706
 20
787.366208742099
 30
0.0
 10
1353.515564956964
 20
786.8945677328041
 30
0.0
 10
1353.978955486371
 20
786.5032227908877
 30
0.0
 10
1354.536402618204
 20
786.2084547185389
 30
0.0
 10
1355.15184527234
 20
786.046536403234
 30
0.0
 10
1355.73323815332
 20
786.0160859701526
 30
0.0
 10
1356.210102128938
 20
786.08218247012
 30
0.0
 10
1356.595790867484
 20
786.1960883882473
 30
0.0
 10
1356.965988970384
 20
786.3550617822787
 30
0.0
 10
1357.345402645778
 20
786.5897525750997
 30
0.0
 10
1357.754502682471
 20
786.9497851621343
 30
0.0
 10
1358.114408952342
 20
787.4227578211086
 30
0.0
 10
1358.382055925625
 20
787.9850852406148
 30
0.0
 10
1358.456209715946
 20
788.390186226098
 30
0.0
 10
1358.490517423421
 20
788.5776086902463
 30
0.0
  0
SPLINE
  5
1D5
330
1F
100
AcDbEntity
  8
0
  6
Continuous
 62
     7
370
    25
100
AcDbSpline
210
0.0
220
0.0
230
1.0
 70
     8
 71
     3
 72
    14
 73
    10
 74
     0
 42
0.000000001
 43
0.00000001
 40
0.0
 40
0.0
 40
0.0
 40
0.0
 40
0.223697858003452
 40
0.3528357075717441
 40
0.4829964006465
 40
0.5936020866478989
 40
0.6970463839856236
 40
0.8440092931474639
 40
1.0
 40
1.0
 40
1.0
 40
1.0
 10
1351.969574594103
 20
788.9424546427094
 30
0.0
 10
1352.028112893992
 20
788.9708406688975
 30
0.0
 10
1352.120444589277
 20
789.0156135769826
 30
0.0
 10
1352.287388368942
 20
789.0194245887307
 30
0.0
 10
1352.422877782438
 20
788.9849595348782
 30
0.0
 10
1352.537375205491
 20
788.9174991339445
 30
0.0
 10
1352.631224715704
 20
788.8253099884378
 30
0.0
 10
1352.701405640585
 20
788.7078484460286
 30
0.0
 10
1352.718422860499
 20
788.6218759151633
 30
0.0
 10
1352.727185020853
 20
788.5776086902463
 30
0.0
  0
SPLINE
  5
1D6
330
1F
100
AcDbEntity
  8
0
  6
Continuous
 62
     7
370
    25
100
AcDbSpline
210
0.0
220
0.0
230
1.0
 70
     8
 71
     3
 72
    22
 73
    18
 74
     0
 42
0.000000001
 43
0.00000001
 40
0.0
 40
0.0
 40
0.0
 40
0.0
 40
0.0888263735614463
 40
0.1776643044611118
 40
0.2480696502500645
 40
0.3183725125743798
 40
0.3911252793172404
 40
0.4486880646413484
 40
0.495458121926365
 40
0.5422043769639107
 40
0.5766399085222108
 40
0.6111480241397919
 40
0.6694938294426567
 40
0.7279572587091718
 40
0.8144549765181908
 40
0.9009964173563898
 40
1.0
 40
1.0
 40
1.0
 40
1.0
 10
1348.376195616383
 20
793.4484093589674
 30
0.0
 10
1348.228275559511
 20
793.2748770447525
 30
0.0
 10
1347.932416199658
 20
792.9277898377625
 30
0.0
 10
1347.679264848569
 20
792.3454973999924
 30
0.0
 10
1347.550370405698
 20
791.7662822608822
 30
0.0
 10
1347.536749003972
 20
791.1864318590319
 30
0.0
 10
1347.641759172282
 20
790.6029161908358
 30
0.0
 10
1347.867685870129
 20
790.0550960060104
 30
0.0
 10
1348.168462228462
 20
789.5999453081985
 30
0.0
 10
1348.47983766804
 20
789.2729630668242
 30
0.0
 10
1348.77577570572
 20
789.0391151122185
 30
0.0
 10
1349.10655636655
 20
788.8329439299217
 30
0.0
 10
1349.502781289037
 20
788.6590782244913
 30
0.0
 10
1350.031169449632
 20
788.5254087265444
 30
0.0
 10
1350.628236082704
 20
788.4961191287665
 30
0.0
 10
1351.313323313868
 20
788.6065940428879
 30
0.0
 10
1351.741243734422
 20
788.8255979724065
 30
0.0
 10
1351.969574594103
 20
788.9424546427094
 30
0.0
  0
SPLINE
  5
1D7
330
1F
100
AcDbEntity
  8
0
  6
Continuous
 62
     7
370
    25
100
AcDbSpline
210
0.0
220
0.0
230
1.0
 70
     8
 71
     3
 72
    14
 73
    10
 74
     0
 42
0.000000001
 43
0.00000001
 40
0.0
 40
0.0
 40
0.0
 40
0.0
 40
0.2198296104785275
 40
0.3499177958292769
 40
0.4588983161343728
 40
0.5683999765788669
 40
0.666709468123292
 40
0.7967198733579898
 40
1.0
 40
1.0
 40
1.0
 40
1.0
 10
1348.189081293407
 20
794.2682107726573
 30
0.0
 10
1348.24541976408
 20
794.2416065377264
 30
0.0
 10
1348.335097553326
 20
794.1992587610708
 30
0.0
 10
1348.437360811842
 20
794.0811843074562
 30
0.0
 10
1348.495696861886
 20
793.9653029064925
 30
0.0
 10
1348.521694350262
 20
793.8432987225367
 30
0.0
 10
1348.517171718255
 20
793.7156237396038
 30
0.0
 10
1348.475326618109
 20
793.5697426887047
 30
0.0
 10
1348.413751457846
 20
793.4943765661623
 30
0.0
 10
1348.376195616383
 20
793.4484093589674
 30
0.0
  0
SPLINE
  5
1D8
330
1F
100
AcDbEntity
  8
0
  6
Continuous
 62
     7
370
    25
100
AcDbSpline
210
0.0
220
0.0
230
1.0
 70
     8
 71
     3
 72
    23
 73
    19
 74
     0
 42
0.000000001
 43
0.00000001
 40
0.0
 40
0.0
 40
0.0
 40
0.0
 40
0.0910969868013285
 40
0.1848037119966392
 40
0.2589280754183401
 40
0.3346657852428933
 40
0.3911149903085905
 40
0.4192965879842118
 40
0.4482557548146677
 40
0.483934969826992
 40
0.519665459516277
 40
0.5704118234188864
 40
0.61759516286197
 40
0.6659024462277304
 40
0.7517301575708734
 40
0.8399249721114654
 40
0.9190990318416685
 40
1.0
 40
1.0
 40
1.0
 40
1.0
 10
1349.471543402333
 20
799.8870443991008
 30
0.0
 10
1349.235018769218
 20
799.8940290199413
 30
0.0
 10
1348.755193566287
 20
799.9081983564204
 30
0.0
 10
1348.119674110017
 20
799.7257242013234
 30
0.0
 10
1347.56552556205
 20
799.437040090977
 30
0.0
 10
1347.135647559319
 20
799.0872195317966
 30
0.0
 10
1346.832890055083
 20
798.7266596576081
 30
0.0
 10
1346.638192206676
 20
798.4155174278222
 30
0.0
 10
1346.494085091916
 20
798.1252964497709
 30
0.0
 10
1346.367318102066
 20
797.7656295220978
 30
0.0
 10
1346.278266086655
 20
797.3126691621047
 30
0.0
 10
1346.265341991849
 20
796.8614922514682
 30
0.0
 10
1346.320762284646
 20
796.4294310239387
 30
0.0
 10
1346.453134850975
 20
795.9458814160431
 30
0.0
 10
1346.707340651819
 20
795.4240837134704
 30
0.0
 10
1347.114136522804
 20
794.9254375472642
 30
0.0
 10
1347.606926982608
 20
794.522788376469
 30
0.0
 10
1347.993639223931
 20
794.3536781011782
 30
0.0
 10
1348.189081293407
 20
794.2682107726573
 30
0.0
  0
SPLINE
  5
1D9
330
1F
100
AcDbEntity
  8
0
  6
Continuous
 62
     7
370
    25
100
AcDbSpline
210
0.0
220
0.0
230
1.0
 70
     8
 71
     3
 72
    15
 73
    11
 74
     0
 42
0.000000001
 43
0.00000001
 40
0.0
 40
0.0
 40
0.0
 40
0.0
 40
0.2148110296556649
 40
0.341132267341677
 40
0.4464287003091036
 40
0.5523542512426315
 40
0.6447889097414538
 40
0.7660552293890753
 40
0.940389446327539
 40
1.0
 40
1.0
 40
1.0
 40
1.0
 10
1349.995826084772
 20
800.5444740886032
 30
0.0
 10
1350.00984265559
 20
800.4863713239969
 30
0.0
 10
1350.032101776041
 20
800.3941007927269
 30
0.0
 10
1350.007486989119
 20
800.2451149598933
 30
0.0
 10
1349.957732696296
 20
800.1287106378212
 30
0.0
 10
1349.883247820522
 20
800.0319384617083
 30
0.0
 10
1349.786282477447
 20
799.9542435264824
 30
0.0
 10
1349.661120386161
 20
799.8966264376492
 30
0.0
 10
1349.552219890737
 20
799.8812685672023
 30
0.0
 10
1349.487925902476
 20
799.8858715348775
 30
0.0
 10
1349.471543402333
 20
799.8870443991008
 30
0.0
  0
SPLINE
  5
1DA
330
1F
100
AcDbEntity
  8
0
  6
Continuous
 62
     7
370
    25
100
AcDbSpline
210
0.0
220
0.0
230
1.0
 70
     8
 71
     3
 72
    24
 73
    20
 74
     0
 42
0.000000001
 43
0.00000001
 40
0.0
 40
0.0
 40
0.0
 40
0.0
 40
0.0911965069059058
 40
0.1849512956916473
 40
0.278563082568911
 40
0.3267793156259099
 40
0.3749620934334358
 40
0.4231886157143698
 40
0.4634025814428993
 40
0.4878136217774446
 40
0.5123391454037176
 40
0.54415117996063
 40
0.575442207329172
 40
0.6074155224532769
 40
0.683279182459044
 40
0.7609114936918933
 40
0.8467133254741139
 40
0.9343946246668714
 40
0.9999999999999999
 40
0.9999999999999999
 40
0.9999999999999999
 40
0.9999999999999999
 10
1355.18840915486
 20
803.0450903012069
 30
0.0
 10
1355.040820907062
 20
803.240497135444
 30
0.0
 10
1354.741504205303
 20
803.6367924367153
 30
0.0
 10
1354.148831301156
 20
804.0471301317938
 30
0.0
 10
1353.589845393351
 20
804.2708040413079
 30
0.0
 10
1353.103245821837
 20
804.3641293328044
 30
0.0
 10
1352.708741454964
 20
804.3863054741287
 30
0.0
 10
1352.306669126631
 20
804.3539555835214
 30
0.0
 10
1351.927608233837
 20
804.2676255107699
 30
0.0
 10
1351.593933031149
 20
804.1443123512126
 30
0.0
 10
1351.296692606779
 20
803.9967328727356
 30
0.0
 10
1351.026735459859
 20
803.8203005424042
 30
0.0
 10
1350.791276068265
 20
803.6264780754692
 30
0.0
 10
1350.503090006208
 20
803.3369872418239
 30
0.0
 10
1350.212980368609
 20
802.932649259456
 30
0.0
 10
1349.961415240778
 20
802.3710683872587
 30
0.0
 10
1349.831803094872
 20
801.7425177509873
 30
0.0
 10
1349.837169920686
 20
801.1167843618146
 30
0.0
 10
1349.948274347738
 20
800.7160044402319
 30
0.0
 10
1349.995826084772
 20
800.5444740886032
 30
0.0
  0
SPLINE
  5
1DB
330
1F
100
AcDbEntity
  8
0
  6
Continuous
 62
     7
370
    25
100
AcDbSpline
210
0.0
220
0.0
230
1.0
 70
     8
 71
     3
 72
    15
 73
    11
 74
     0
 42
0.000000001
 43
0.00000001
 40
0.0
 40
0.0
 40
0.0
 40
0.0
 40
0.2126307822085236
 40
0.333080635927324
 40
0.4343189429315499
 40
0.5361409898009207
 40
0.6255006565988698
 40
0.7454503639221319
 40
0.9209037802013924
 40
1.0
 40
1.0
 40
1.0
 40
1.0
 10
1356.029293289414
 20
803.0450903012069
 30
0.0
 10
1355.992888555608
 20
802.9981241737311
 30
0.0
 10
1355.935861479091
 20
802.9245529464409
 30
0.0
 10
1355.806365281497
 20
802.8512526200975
 30
0.0
 10
1355.688188543779
 20
802.8170820188238
 30
0.0
 10
1355.569405744476
 20
802.8128204908004
 30
0.0
 10
1355.450056977676
 20
802.8366101580941
 30
0.0
 10
1355.326183262096
 20
802.8945311673083
 30
0.0
 10
1355.240052869791
 20
802.9711634672353
 30
0.0
 10
1355.200652144112
 20
803.0275647332857
 30
0.0
 10
1355.18840915486
 20
803.0450903012069
 30
0.0
  0
SPLINE
  5
1DC
330
1F
100
AcDbEntity
  8
0
  6
Continuous
 62
     7
370
    25
100
AcDbSpline
210
0.0
220
0.0
230
1.0
 70
     8
 71
     3
 72
    23
 73
    19
 74
     0
 42
0.000000001
 43
0.00000001
 40
0.0
 40
0.0
 40
0.0
 40
0.0
 40
0.0897184424169859
 40
0.1819530101450224
 40
0.2741714474261669
 40
0.368806683392674
 40
0.4236166376621336
 40
0.4510047767191718
 40
0.4792226014534578
 40
0.503776821511527
 40
0.5284329184559774
 40
0.5611529616598343
 40
0.6013153972724704
 40
0.6426014856981405
 40
0.7286645668366296
 40
0.8169312426262006
 40
0.9072926694662784
 40
1.0
 40
1.0
 40
1.0
 40
1.0
 10
1361.221876359501
 20
800.5444740886034
 30
0.0
 10
1361.282243623388
 20
800.779655893186
 30
0.0
 10
1361.404671131962
 20
801.2566151015982
 30
0.0
 10
1361.358891997081
 20
801.9676398013078
 30
0.0
 10
1361.157718571287
 20
802.6508093718089
 30
0.0
 10
1360.836168100132
 20
803.1952071037235
 30
0.0
 10
1360.495950598219
 20
803.5664128808828
 30
0.0
 10
1360.226517452023
 20
803.7919321819207
 30
0.0
 10
1359.991465482773
 20
803.9534101713629
 30
0.0
 10
1359.718498391527
 20
804.1014698035491
 30
0.0
 10
1359.40788899523
 20
804.2289754720559
 30
0.0
 10
1359.065330911072
 20
804.3237429939182
 30
0.0
 10
1358.711892036469
 20
804.3746679503608
 30
0.0
 10
1358.236652437979
 20
804.3843520266446
 30
0.0
 10
1357.677081624256
 20
804.293700152154
 30
0.0
 10
1357.052819457439
 20
804.035486034708
 30
0.0
 10
1356.476062099474
 20
803.635456557504
 30
0.0
 10
1356.179483046839
 20
803.2435530471026
 30
0.0
 10
1356.029293289414
 20
803.0450903012069
 30
0.0
  0
SPLINE
  5
1DD
330
1F
100
AcDbEntity
  8
0
  6
Continuous
 62
     7
370
    25
100
AcDbSpline
210
0.0
220
0.0
230
1.0
 70
     8
 71
     3
 72
    15
 73
    11
 74
     0
 42
0.000000001
 43
0.00000001
 40
0.0
 40
0.0
 40
0.0
 40
0.0
 40
0.2153296810343772
 40
0.3327055588565954
 40
0.4327106172887602
 40
0.5331289091056287
 40
0.6249491950544293
 40
0.7533679527279632
 40
0.9418458044828449
 40
1.0
 40
1.0
 40
1.0
 40
1.0
 10
1361.746159041941
 20
799.8870443991008
 30
0.0
 10
1361.684405323919
 20
799.8863883279005
 30
0.0
 10
1361.58898974922
 20
799.885374633298
 30
0.0
 10
1361.449059741921
 20
799.9441154848449
 30
0.0
 10
1361.350580620762
 20
800.0160487599031
 30
0.0
 10
1361.275133160815
 20
800.1060059519398
 30
0.0
 10
1361.219667490297
 20
800.2155753099995
 30
0.0
 10
1361.188567674293
 20
800.353917878608
 30
0.0
 10
1361.197928656722
 20
800.4662402149504
 30
0.0
 10
1361.217307060779
 20
800.5295468138587
 30
0.0
 10
1361.221876359501
 20
800.5444740886032
 30
0.0
  0
ARC
  5
1DE
330
1F
100
AcDbEntity
  8
0
  6
Continuous
 62
     7
370
    25
100
AcDbCircle
 10
1355.6088512222
 20
1804.2350003571
 30
0.0
 40
9.5
100
AcDbArc
 50
349.0242008209
 51
0.0
  0
ARC
  5
1DF
330
1F
100
AcDbEntity
  8
0
  6
Continuous
 62
     7
370
    25
100
AcDbCircle
 10
1355.6088512222
 20
1804.2350003571
 30
0.0
 40
9.499999999999968
100
AcDbArc
 50
322.1363536382
 51
344.0371477997
  0
ARC
  5
1E0
330
1F
100
AcDbEntity
  8
0
  6
Continuous
 62
     7
370
    25
100
AcDbCircle
 10
1355.6088512222
 20
1804.2350003571
 30
0.0
 40
9.500000000000274
100
AcDbArc
 50
193.4514667872
 51
217.8636463617
  0
ARC
  5
1E1
330
1F
100
AcDbEntity
  8
0
  6
Continuous
 62
     7
370
    25
100
AcDbCircle
 10
1355.6088512222
 20
1804.2350003571
 30
0.0
 40
9.500000000000156
100
AcDbArc
 50
143.4749084063
 51
189.8870574579
  0
ARC
  5
1E2
330
1F
100
AcDbEntity
  8
0
  6
Continuous
 62
     7
370
    25
100
AcDbCircle
 10
1355.6088512222
 20
1804.2350003571
 30
0.0
 40
9.500000000000062
100
AcDbArc
 50
92.4203957042
 51
138.3969922857
  0
ARC
  5
1E3
330
1F
100
AcDbEntity
  8
0
  6
Continuous
 62
     7
370
    25
100
AcDbCircle
 10
1355.6088512222
 20
1804.2350003571
 30
0.0
 40
9.500000000000094
100
AcDbArc
 50
41.715645165
 51
87.7114190323
  0
ARC
  5
1E4
330
1F
100
AcDbEntity
  8
0
  6
Continuous
 62
     7
370
    25
100
AcDbCircle
 10
1355.6088512222
 20
1804.2350003571
 30
0.0
 40
9.5
100
AcDbArc
 50
0.0
 51
37.8102793052
  0
ARC
  5
1E5
330
1F
100
AcDbEntity
  8
0
  6
Continuous
 62
     7
370
    25
100
AcDbCircle
 10
2145.6088512222
 20
1804.2350003571
 30
0.0
 40
9.500000000000455
100
AcDbArc
 50
349.0242008209
 51
0.0
  0
ARC
  5
1E6
330
1F
100
AcDbEntity
  8
0
  6
Continuous
 62
     7
370
    25
100
AcDbCircle
 10
2145.6088512222
 20
1804.2350003571
 30
0.0
 40
9.50000000000023
100
AcDbArc
 50
322.1363536382
 51
344.0371477997
  0
ARC
  5
1E7
330
1F
100
AcDbEntity
  8
0
  6
Continuous
 62
     7
370
    25
100
AcDbCircle
 10
2145.6088512222
 20
1804.2350003571
 30
0.0
 40
9.499999999999847
100
AcDbArc
 50
193.4514667872
 51
217.8636463617
  0
ARC
  5
1E8
330
1F
100
AcDbEntity
  8
0
  6
Continuous
 62
     7
370
    25
100
AcDbCircle
 10
2145.6088512222
 20
1804.2350003571
 30
0.0
 40
9.499999999999517
100
AcDbArc
 50
143.4749084063
 51
189.8870574579
  0
ARC
  5
1E9
330
1F
100
AcDbEntity
  8
0
  6
Continuous
 62
     7
370
    25
100
AcDbCircle
 10
2145.6088512222
 20
1804.2350003571
 30
0.0
 40
9.500000000000043
100
AcDbArc
 50
92.4203957042
 51
138.3969922857
  0
ARC
  5
1EA
330
1F
100
AcDbEntity
  8
0
  6
Continuous
 62
     7
370
    25
100
AcDbCircle
 10
2145.6088512222
 20
1804.2350003571
 30
0.0
 40
9.500000000000103
100
AcDbArc
 50
41.715645165
 51
87.7114190323
  0
ARC
  5
1EB
330
1F
100
AcDbEntity
  8
0
  6
Continuous
 62
     7
370
    25
100
AcDbCircle
 10
2145.6088512222
 20
1804.2350003571
 30
0.0
 40
9.500000000000455
100
AcDbArc
 50
0.0
 51
37.8102793052
  0
ARC
  5
1EC
330
1F
100
AcDbEntity
  8
0
  6
Continuous
 62
     7
370
    25
100
AcDbCircle
 10
1355.6088512221
 20
795.5304703219
 30
0.0
 40
9.500000000000227
100
AcDbArc
 50
169.0242008209
 51
180.0
  0
ARC
  5
1ED
330
1F
100
AcDbEntity
  8
0
  6
Continuous
 62
     7
370
    25
100
AcDbCircle
 10
1355.6088512221
 20
795.5304703219
 30
0.0
 40
9.500000000000133
100
AcDbArc
 50
142.1363536382
 51
164.0371477997
  0
ARC
  5
1EE
330
1F
100
AcDbEntity
  8
0
  6
Continuous
 62
     7
370
    25
100
AcDbCircle
 10
1355.6088512221
 20
795.5304703219
 30
0.0
 40
9.499999999999885
100
AcDbArc
 50
13.4514667871
 51
37.8636463617
  0
ARC
  5
1EF
330
1F
100
AcDbEntity
  8
0
  6
Continuous
 62
     7
370
    25
100
AcDbCircle
 10
1355.6088512221
 20
795.5304703219
 30
0.0
 40
9.499999999999929
100
AcDbArc
 50
323.4749084063
 51
9.8870574579
  0
ARC
  5
1F0
330
1F
100
AcDbEntity
  8
0
  6
Continuous
 62
     7
370
    25
100
AcDbCircle
 10
1355.6088512221
 20
795.5304703219
 30
0.0
 40
9.499999999999968
100
AcDbArc
 50
272.4203957043
 51
318.3969922856
  0
ARC
  5
1F1
330
1F
100
AcDbEntity
  8
0
  6
Continuous
 62
     7
370
    25
100
AcDbCircle
 10
1355.6088512221
 20
795.5304703219
 30
0.0
 40
9.500000000000284
100
AcDbArc
 50
221.7156451651
 51
267.7114190322
  0
ARC
  5
1F2
330
1F
100
AcDbEntity
  8
0
  6
Continuous
 62
     7
370
    25
100
AcDbCircle
 10
1355.6088512221
 20
795.5304703219
 30
0.0
 40
9.500000000000227
100
AcDbArc
 50
180.0
 51
217.8102793052
  0
ARC
  5
1F3
330
1F
100
AcDbEntity
  8
0
  6
Continuous
 62
     7
370
    25
100
AcDbCircle
 10
2145.6088512221
 20
795.5304703219
 30
0.0
 40
9.499999999999753
100
AcDbArc
 50
169.0242008209
 51
180.0
  0
ARC
  5
1F4
330
1F
100
AcDbEntity
  8
0
  6
Continuous
 62
     7
370
    25
100
AcDbCircle
 10
2145.6088512221
 20
795.5304703219
 30
0.0
 40
9.499999999999696
100
AcDbArc
 50
142.1363536382
 51
164.0371477997
  0
ARC
  5
1F5
330
1F
100
AcDbEntity
  8
0
  6
Continuous
 62
     7
370
    25
100
AcDbCircle
 10
2145.6088512221
 20
795.5304703219
 30
0.0
 40
9.500000000000233
100
AcDbArc
 50
13.4514667871
 51
37.8636463617
  0
ARC
  5
1F6
330
1F
100
AcDbEntity
  8
0
  6
Continuous
 62
     7
370
    25
100
AcDbCircle
 10
2145.6088512221
 20
795.5304703219
 30
0.0
 40
9.500000000000478
100
AcDbArc
 50
323.4749084063
 51
9.8870574579
  0
ARC
  5
1F7
330
1F
100
AcDbEntity
  8
0
  6
Continuous
 62
     7
370
    25
100
AcDbCircle
 10
2145.6088512221
 20
795.5304703219
 30
0.0
 40
9.500000000000016
100
AcDbArc
 50
272.4203957043
 51
318.3969922856
  0
ARC
  5
1F8
330
1F
100
AcDbEntity
  8
0
  6
Continuous
 62
     7
370
    25
100
AcDbCircle
 10
2145.6088512221
 20
795.5304703219
 30
0.0
 40
9.49999999999988
100
AcDbArc
 50
221.7156451651
 51
267.7114190321
  0
ARC
  5
1F9
330
1F
100
AcDbEntity
  8
0
  6
Continuous
 62
     7
370
    25
100
AcDbCircle
 10
2145.6088512221
 20
795.5304703219
 30
0.0
 40
9.499999999999545
100
AcDbArc
 50
180.0
 51
217.8102793052
  0
LINE
  5
1FA
330
1F
100
AcDbEntity
  8
0
  6
Continuous
 62
     8
370
    18
100
AcDbLine
 10
2140.6088512221
 20
1796.3411571967
 30
0.0
 11
2140.6088512221
 21
1794.8827353395
 31
0.0
  0
LINE
  5
1FB
330
1F
100
AcDbEntity
  8
0
  6
Continuous
 62
     8
370
    18
100
AcDbLine
 10
2140.6088512221
 20
804.8827353395
 30
0.0
 11
2140.6088512221
 21
803.4403058168
 31
0.0
  0
LINE
  5
1FC
330
1F
100
AcDbEntity
  8
0
  6
Continuous
 62
     8
370
    18
100
AcDbLine
 10
2139.8452123749
 20
801.479193626
 30
0.0
 11
2139.8452123749
 21
799.9973025796
 31
0.0
  0
LINE
  5
1FD
330
1F
100
AcDbEntity
  8
0
  6
Continuous
 62
     8
370
    18
100
AcDbLine
 10
2150.6088512221
 20
1796.3280893097
 30
0.0
 11
2150.6088512221
 21
1794.8827353395
 31
0.0
  0
LINE
  5
1FE
330
1F
100
AcDbEntity
  8
0
  6
Continuous
 62
     8
370
    18
100
AcDbLine
 10
2150.6088512221
 20
804.8827353395
 30
0.0
 11
2150.6088512221
 21
803.4401326671
 31
0.0
  0
LINE
  5
1FF
330
1F
100
AcDbEntity
  8
0
  6
Continuous
 62
     8
370
    18
100
AcDbLine
 10
2151.3724247713
 20
799.9975992649
 30
0.0
 11
2151.3724247713
 21
801.479091612
 31
0.0
  0
LINE
  5
200
330
1F
100
AcDbEntity
  8
0
  6
Continuous
 62
     8
370
    18
100
AcDbLine
 10
1350.6088512221
 20
1796.3411571967
 30
0.0
 11
1350.6088512221
 21
1794.8827353395
 31
0.0
  0
LINE
  5
201
330
1F
100
AcDbEntity
  8
0
  6
Continuous
 62
     8
370
    18
100
AcDbLine
 10
1350.6088512221
 20
804.8827353395
 30
0.0
 11
1350.6088512221
 21
803.4403058168
 31
0.0
  0
LINE
  5
202
330
1F
100
AcDbEntity
  8
0
  6
Continuous
 62
     8
370
    18
100
AcDbLine
 10
1360.6088512221
 20
1796.3280893097
 30
0.0
 11
1360.6088512221
 21
1794.8827353395
 31
0.0
  0
LINE
  5
203
330
1F
100
AcDbEntity
  8
0
  6
Continuous
 62
     8
370
    18
100
AcDbLine
 10
1360.6088512221
 20
804.8827353395
 30
0.0
 11
1360.6088512221
 21
803.4401326671
 31
0.0
  0
LINE
  5
204
330
1F
100
AcDbEntity
  8
0
  6
Continuous
 62
     8
370
    18
100
AcDbLine
 10
1361.3724247713
 20
799.9975992649
 30
0.0
 11
1361.3724247713
 21
801.479091612
 31
0.0
  0
LINE
  5
205
330
1F
100
AcDbEntity
  8
0
  6
Continuous
 62
     8
370
    18
100
AcDbLine
 10
1349.8452123749
 20
801.479193626
 30
0.0
 11
1349.8452123749
 21
799.9973025796
 31
0.0
  0
LINE
  5
206
330
1F
100
AcDbEntity
  8
0
  6
Continuous
 62
     7
370
    25
100
AcDbLine
 10
257.2028833998
 20
470.451888837
 30
0.0
 11
257.2028833998
 21
466.1660523335
 31
0.0
  0
LINE
  5
207
330
1F
100
AcDbEntity
  8
0
  6
Continuous
 62
     7
370
    25
100
AcDbLine
 10
913.012871258
 20
564.7015976846
 30
0.0
 11
913.012871258
 21
568.9874341881
 31
0.0
  0
LINE
  5
208
330
1F
100
AcDbEntity
  8
0
  6
Continuous
 62
     7
370
    25
100
AcDbLine
 10
646.7291879666
 20
339.1854164015
 30
0.0
 11
659.0469526351
 21
351.2079323365
 31
0.0
  0
LINE
  5
209
330
1F
100
AcDbEntity
  8
0
  6
Continuous
 62
     7
370
    25
100
AcDbLine
 10
297.384029904
 20
434.1299448016
 30
0.0
 11
309.7017945725
 21
446.1524607366
 31
0.0
  0
ARC
  5
20A
330
1F
100
AcDbEntity
  8
0
  6
Continuous
 62
     7
370
    25
100
AcDbCircle
 10
642.014801441
 20
355.1615895847
 30
0.0
 40
5.00000000000006
100
AcDbArc
 50
35.9539385153
 51
74.7954868413
  0
ARC
  5
20B
330
1F
100
AcDbEntity
  8
0
  6
Continuous
 62
     7
370
    25
100
AcDbCircle
 10
642.014801441
 20
355.1615895847
 30
0.0
 40
5.000000000000076
100
AcDbArc
 50
74.7954868413
 51
138.5309199824
  0
LINE
  5
20C
330
1F
100
AcDbEntity
  8
0
  6
Continuous
 62
     7
370
    25
100
AcDbLine
 10
644.8637115493
 20
233.67604296
 30
0.0
 11
644.8637115493
 21
356.1931864505
 31
0.0
  0
LINE
  5
20D
330
1F
100
AcDbEntity
  8
0
  6
Continuous
 62
     7
370
    25
100
AcDbLine
 10
639.0999543837
 20
356.2791931726
 30
0.0
 11
639.0999543837
 21
233.7302051867
 31
0.0
  0
LINE
  5
20E
330
1F
100
AcDbEntity
  8
0
  6
Continuous
 62
     7
370
    25
100
AcDbLine
 10
646.7291879666
 20
234.7939677797
 30
0.0
 11
646.7291879666
 21
356.0986763982
 31
0.0
  0
LINE
  5
20F
330
1F
100
AcDbEntity
  8
0
  6
Continuous
 62
     7
370
    25
100
AcDbLine
 10
637.3989152618
 20
356.518898656
 30
0.0
 11
637.3989152618
 21
234.9156691985
 31
0.0
  0
LINE
  5
210
330
1F
100
AcDbEntity
  8
0
  6
Continuous
 62
     7
370
    25
100
AcDbLine
 10
646.1952756139
 20
357.6894462855
 30
0.0
 11
646.1952756139
 21
357.7574626239
 31
0.0
  0
ARC
  5
211
330
1F
100
AcDbEntity
  8
0
  6
Continuous
 62
     7
370
    25
100
AcDbCircle
 10
877.5461112794
 20
585.0473685331
 30
0.0
 40
5.000000000000079
100
AcDbArc
 50
55.8224882722
 51
160.1656718273
  0
ARC
  5
212
330
1F
100
AcDbEntity
  8
0
  6
Continuous
 62
     7
370
    25
100
AcDbCircle
 10
877.5461112794
 20
585.0473685331
 30
0.0
 40
5.000000000000045
100
AcDbArc
 50
28.2434777435
 51
47.5635429681
  0
LINE
  5
213
330
1F
100
AcDbEntity
  8
0
  6
Continuous
 62
     7
370
    25
100
AcDbLine
 10
881.4230351526
 20
463.8623575058
 30
0.0
 11
881.4230351526
 21
531.5091921094
 31
0.0
  0
LINE
  5
214
330
1F
100
AcDbEntity
  8
0
  6
Continuous
 62
     7
370
    25
100
AcDbLine
 10
881.4230351526
 20
583.318387209
 30
0.0
 11
881.4230351526
 21
585.728560658
 31
0.0
  0
LINE
  5
215
330
1F
100
AcDbEntity
  8
0
  6
Continuous
 62
     7
370
    25
100
AcDbLine
 10
873.3656371065
 20
523.6449246055
 30
0.0
 11
873.3656371065
 21
463.959954466
 31
0.0
  0
LINE
  5
216
330
1F
100
AcDbEntity
  8
0
  6
Continuous
 62
     7
370
    25
100
AcDbLine
 10
882.1619974587
 20
465.2864447227
 30
0.0
 11
882.1619974587
 21
532.2304419741
 31
0.0
  0
LINE
  5
217
330
1F
100
AcDbEntity
  8
0
  6
Continuous
 62
     7
370
    25
100
AcDbLine
 10
882.1619974587
 20
583.1175530883
 30
0.0
 11
882.1619974587
 21
586.8896741803
 31
0.0
  0
LINE
  5
218
330
1F
100
AcDbEntity
  8
0
  6
Continuous
 62
     7
370
    25
100
AcDbLine
 10
872.8317247539
 20
586.71285476
 30
0.0
 11
872.8317247539
 21
585.6533212859
 31
0.0
  0
LINE
  5
219
330
1F
100
AcDbEntity
  8
0
  6
Continuous
 62
     7
370
    25
100
AcDbLine
 10
872.8317247539
 20
523.1238097815
 30
0.0
 11
872.8317247539
 21
465.4081461415
 31
0.0
  0
ARC
  5
21A
330
1F
100
AcDbEntity
  8
0
  6
Continuous
 62
     7
370
    25
100
AcDbCircle
 10
528.2009532169
 20
679.9918969333
 30
0.0
 40
5.000000000000057
100
AcDbArc
 50
55.8224882722
 51
160.1656718273
  0
ARC
  5
21B
330
1F
100
AcDbEntity
  8
0
  6
Continuous
 62
     7
370
    25
100
AcDbCircle
 10
528.2009532169
 20
679.9918969333
 30
0.0
 40
5.00000000000013
100
AcDbArc
 50
28.2434777435
 51
47.5635429681
  0
LINE
  5
21C
330
1F
100
AcDbEntity
  8
0
  6
Continuous
 62
     7
370
    25
100
AcDbLine
 10
532.07787709
 20
678.2629156092
 30
0.0
 11
532.07787709
 21
680.6730890582
 31
0.0
  0
LINE
  5
21D
330
1F
100
AcDbEntity
  8
0
  6
Continuous
 62
     7
370
    25
100
AcDbLine
 10
532.8168393961
 20
678.0620814884
 30
0.0
 11
532.8168393961
 21
681.8342025804
 31
0.0
  0
LINE
  5
21E
330
1F
100
AcDbEntity
  8
0
  6
Continuous
 62
     7
370
    25
100
AcDbLine
 10
523.4865666913
 20
681.6573831601
 30
0.0
 11
523.4865666913
 21
680.597849686
 31
0.0
  0
ARC
  5
21F
330
1F
100
AcDbEntity
  8
0
  6
Continuous
 62
     7
370
    25
100
AcDbCircle
 10
292.6696433784
 20
450.1061179849
 30
0.0
 40
5.00000000000006
100
AcDbArc
 50
35.9539385153
 51
74.7954868413
  0
ARC
  5
220
330
1F
100
AcDbEntity
  8
0
  6
Continuous
 62
     7
370
    25
100
AcDbCircle
 10
292.6696433784
 20
450.1061179849
 30
0.0
 40
5.00000000000006
100
AcDbArc
 50
74.7954868413
 51
138.5309199824
  0
LINE
  5
221
330
1F
100
AcDbEntity
  8
0
  6
Continuous
 62
     7
370
    25
100
AcDbLine
 10
295.5185534867
 20
328.6205713601
 30
0.0
 11
295.5185534867
 21
451.1377148506
 31
0.0
  0
LINE
  5
222
330
1F
100
AcDbEntity
  8
0
  6
Continuous
 62
     7
370
    25
100
AcDbLine
 10
289.7547963211
 20
451.2237215727
 30
0.0
 11
289.7547963211
 21
328.6747335868
 31
0.0
  0
LINE
  5
223
330
1F
100
AcDbEntity
  8
0
  6
Continuous
 62
     7
370
    25
100
AcDbLine
 10
297.384029904
 20
329.7384961799
 30
0.0
 11
297.384029904
 21
451.0432047984
 31
0.0
  0
LINE
  5
224
330
1F
100
AcDbEntity
  8
0
  6
Continuous
 62
     7
370
    25
100
AcDbLine
 10
288.0537571992
 20
451.4634270562
 30
0.0
 11
288.0537571992
 21
329.8601975986
 31
0.0
  0
LINE
  5
225
330
1F
100
AcDbEntity
  8
0
  6
Continuous
 62
     7
370
    25
100
AcDbLine
 10
296.8501175513
 20
452.6339746857
 30
0.0
 11
296.8501175513
 21
452.7019910241
 31
0.0
  0
LINE
  5
226
330
1F
100
AcDbEntity
  8
0
  6
Continuous
 62
     7
370
    25
100
AcDbLine
 10
882.2198946003
 20
463.6838056684
 30
0.0
 11
882.2198946003
 21
464.9695566194
 31
0.0
  0
LINE
  5
227
330
1F
100
AcDbEntity
  8
0
  6
Continuous
 62
     7
370
    25
100
AcDbLine
 10
872.7198946003
 20
464.9695566194
 30
0.0
 11
872.7198946003
 21
463.6838056684
 31
0.0
  0
SPLINE
  5
228
330
1F
100
AcDbEntity
  8
0
  6
Continuous
 62
     7
370
    25
100
AcDbSpline
210
0.0
220
0.0
230
1.0
 70
     8
 71
     3
 72
    40
 73
    36
 74
     0
 42
0.000000001
 43
0.00000001
 40
0.0
 40
0.0
 40
0.0
 40
0.0
 40
0.0256397233182838
 40
0.053575272748727
 40
0.0812302179607486
 40
0.1087592309826351
 40
0.1363315592801279
 40
0.1641387568779264
 40
0.1923999259612005
 40
0.2213593405471743
 40
0.2512657817845461
 40
0.2823169014481823
 40
0.3145589478825696
 40
0.3477843023908563
 40
0.3815315819422555
 40
0.4152438222062265
 40
0.4487332329529625
 40
0.4820163230176324
 40
0.515231539639509
 40
0.5485765976367234
 40
0.5822070888016357
 40
0.6163559817380568
 40
0.6512415053152223
 40
0.6869927017268507
 40
0.7196159133094806
 40
0.7513658969061956
 40
0.7820167934591525
 40
0.8116170219601608
 40
0.8403438565825191
 40
0.8683967537127028
 40
0.895953503507375
 40
0.923160628981052
 40
0.9530229601079362
 40
0.9822349751215369
 40
1.0
 40
1.0
 40
1.0
 40
1.0
 10
872.721867977253
 20
463.6826472833118
 30
0.0
 10
872.7247237681717
 20
463.5690079817781
 30
0.0
 10
872.7306910625717
 20
463.3315539149356
 30
0.0
 10
872.7948006870586
 20
462.9765525761044
 30
0.0
 10
872.898447141951
 20
462.6238471585917
 30
0.0
 10
873.0418521194078
 20
462.2879258943673
 30
0.0
 10
873.2212346094432
 20
461.9706410743562
 30
0.0
 10
873.4350437809695
 20
461.6732297559178
 30
0.0
 10
873.6820016268899
 20
461.3964029121905
 30
0.0
 10
873.9618230708713
 20
461.140573268466
 30
0.0
 10
874.274946541017
 20
460.9062324203057
 30
0.0
 10
874.6219522877971
 20
460.694455358424
 30
0.0
 10
875.0022818816324
 20
460.5072968171127
 30
0.0
 10
875.4127438352676
 20
460.3476734849885
 30
0.0
 10
875.8468087855646
 20
460.2185461098164
 30
0.0
 10
876.2966576086504
 20
460.1215849456332
 30
0.0
 10
876.7554217922149
 20
460.0570240139942
 30
0.0
 10
877.2187560778945
 20
460.0243247415102
 30
0.0
 10
877.6838560653039
 20
460.0230581060999
 30
0.0
 10
878.1484937000903
 20
460.0533125136361
 30
0.0
 10
878.6108622131759
 20
460.1158473562404
 30
0.0
 10
879.0692504540477
 20
460.2122545744351
 30
0.0
 10
879.5217615469103
 20
460.345151893152
 30
0.0
 10
879.9488394795287
 20
460.5116416754273
 30
0.0
 10
880.3422119848309
 20
460.7076588490847
 30
0.0
 10
880.694385881152
 20
460.9259894214377
 30
0.0
 10
881.0123706499206
 20
461.1689156723839
 30
0.0
 10
881.2948026151633
 20
461.4339607777803
 30
0.0
 10
881.5413388298026
 20
461.7192996852328
 30
0.0
 10
881.7516461976815
 20
462.0232371539946
 30
0.0
 10
881.9247790141021
 20
462.3437743301856
 30
0.0
 10
882.0650768299566
 20
462.6901752068641
 30
0.0
 10
882.1634104868606
 20
463.0590784838117
 30
0.0
 10
882.2158887324595
 20
463.3967170426714
 30
0.0
 10
882.2148111968021
 20
463.6049394376595
 30
0.0
 10
882.2144037116178
 20
463.6836816495086
 30
0.0
  0
LINE
  5
229
330
1F
100
AcDbEntity
  8
0
  6
Continuous
 62
     7
370
    25
100
AcDbLine
 10
297.4958600576
 20
328.8913347509
 30
0.0
 11
297.4958600576
 21
330.177085702
 31
0.0
  0
LINE
  5
22A
330
1F
100
AcDbEntity
  8
0
  6
Continuous
 62
     7
370
    25
100
AcDbLine
 10
287.9958600576
 20
330.177085702
 30
0.0
 11
287.9958600576
 21
328.8913347509
 31
0.0
  0
SPLINE
  5
22B
330
1F
100
AcDbEntity
  8
0
  6
Continuous
 62
     7
370
    25
100
AcDbSpline
210
0.0
220
0.0
230
1.0
 70
     8
 71
     3
 72
    34
 73
    30
 74
     0
 42
0.000000001
 43
0.00000001
 40
0.0
 40
0.0
 40
0.0
 40
0.0
 40
0.0135115805715801
 40
0.0485850306876792
 40
0.083216680727904
 40
0.1175879531779371
 40
0.1518989701784398
 40
0.1863727146072873
 40
0.2212637110595238
 40
0.2568612229520844
 40
0.2934777119402332
 40
0.3314053065249924
 40
0.3708195470158868
 40
0.4116396019480514
 40
0.4534508028640521
 40
0.4955427545153904
 40
0.5374434980859895
 40
0.579050515227042
 40
0.6204687214033319
 40
0.6619124837152451
 40
0.7036086347780269
 40
0.7457952794433914
 40
0.7887628089777408
 40
0.8327468509395655
 40
0.8777994525929945
 40
0.9179489773108939
 40
0.9568167156171353
 40
0.9943612476786027
 40
1.0
 40
1.0
 40
1.0
 40
1.0
 10
288.0013509462506
 20
328.8914587697764
 30
0.0
 10
287.9999232929531
 20
328.843447350243
 30
0.0
 10
287.9947897277937
 20
328.6708075706825
 30
0.0
 10
288.0332831435485
 20
328.3761551517375
 30
0.0
 10
288.1139617613966
 20
328.0156215498218
 30
0.0
 10
288.2376512105499
 20
327.67056332188
 30
0.0
 10
288.3980659444226
 20
327.3432489344379
 30
0.0
 10
288.5939676566736
 20
327.0352282558674
 30
0.0
 10
288.8235037849011
 20
326.7474716351481
 30
0.0
 10
289.0859673758675
 20
326.4805123509776
 30
0.0
 10
289.3814237652932
 20
326.2347432576185
 30
0.0
 10
289.7105053633335
 20
326.0108664328498
 30
0.0
 10
290.0734415439496
 20
325.8103926876822
 30
0.0
 10
290.4686149386314
 20
325.6358347566695
 30
0.0
 10
290.8911236541322
 20
325.4903171175461
 30
0.0
 10
291.3335660724937
 20
325.3762677656563
 30
0.0
 10
291.7882850266992
 20
325.2946427514154
 30
0.0
 10
292.2496378024897
 20
325.245189223754
 30
0.0
 10
292.7140857056022
 20
325.2273487074206
 30
0.0
 10
293.1791768841329
 20
325.2409040687569
 30
0.0
 10
293.6429200109745
 20
325.2862386923413
 30
0.0
 10
294.1036018095984
 20
325.3644861673157
 30
0.0
 10
294.5595187990838
 20
325.477719038942
 30
0.0
 10
295.0082088955202
 20
325.6289743624505
 30
0.0
 10
295.4266668865898
 20
325.8136425262876
 30
0.0
 10
295.8064922277031
 20
326.026097563589
 30
0.0
 10
296.1410591486754
 20
326.2578485282328
 30
0.0
 10
296.3595192207604
 20
326.443105890448
 30
0.0
 10
296.4678506176032
 20
326.5477667355833
 30
0.0
 10
296.4819962279744
 20
326.5614330555933
 30
0.0
  0
SPLINE
  5
22C
330
1F
100
AcDbEntity
  8
0
  6
Continuous
 62
     7
370
    25
100
AcDbSpline
210
0.0
220
0.0
230
1.0
 70
     8
 71
     3
 72
    15
 73
    11
 74
     0
 42
0.000000001
 43
0.00000001
 40
0.0
 40
0.0
 40
0.0
 40
0.0
 40
0.1335895592624687
 40
0.2766307072676576
 40
0.4167858845752636
 40
0.5548889449249524
 40
0.6915943503147476
 40
0.840476587818993
 40
0.9863507669974689
 40
1.0
 40
1.0
 40
1.0
 40
1.0
 10
296.4819962279744
 20
326.5614330555933
 30
0.0
 10
296.5621861096501
 20
326.6440359611267
 30
0.0
 10
296.7282393836194
 20
326.815086006551
 30
0.0
 10
296.9452335959746
 20
327.1039259679737
 30
0.0
 10
297.1342615598355
 20
327.4175445062971
 30
0.0
 10
297.284852855338
 20
327.7467990636288
 30
0.0
 10
297.4015629253827
 20
328.0991311679733
 30
0.0
 10
297.4721608913945
 20
328.4703068613032
 30
0.0
 10
297.5021257712088
 20
328.7409234314216
 30
0.0
 10
297.4945360745604
 20
328.8805466174491
 30
0.0
 10
297.4938866806152
 20
328.8924931359732
 30
0.0
  0
LINE
  5
22D
330
1F
100
AcDbEntity
  8
0
  6
Continuous
 62
     7
370
    25
100
AcDbLine
 10
646.8410181202
 20
233.9468063507
 30
0.0
 11
646.8410181202
 21
235.2325573018
 31
0.0
  0
LINE
  5
22E
330
1F
100
AcDbEntity
  8
0
  6
Continuous
 62
     7
370
    25
100
AcDbLine
 10
637.3410181202
 20
235.2325573018
 30
0.0
 11
637.3410181202
 21
233.9468063507
 31
0.0
  0
SPLINE
  5
22F
330
1F
100
AcDbEntity
  8
0
  6
Continuous
 62
     7
370
    25
100
AcDbSpline
210
0.0
220
0.0
230
1.0
 70
     8
 71
     3
 72
    34
 73
    30
 74
     0
 42
0.000000001
 43
0.00000001
 40
0.0
 40
0.0
 40
0.0
 40
0.0
 40
0.0135115805715823
 40
0.0485850306876848
 40
0.0832166807279071
 40
0.1175879531779401
 40
0.1518989701784426
 40
0.186372714607292
 40
0.2212637110595287
 40
0.256861222952087
 40
0.2934777119402382
 40
0.3314053065249974
 40
0.3708195470158919
 40
0.4116396019480565
 40
0.4534508028640601
 40
0.4955427545153953
 40
0.537443498085998
 40
0.5790505152270482
 40
0.6204687214033382
 40
0.6619124837152516
 40
0.7036086347780335
 40
0.7457952794433981
 40
0.7887628089777474
 40
0.8327468509395707
 40
0.8777994525929999
 40
0.9179489773108993
 40
0.9568167156171411
 40
0.9943612476786086
 40
1.0
 40
1.0
 40
1.0
 40
1.0
 10
637.3465090088323
 20
233.9469303696276
 30
0.0
 10
637.3450813555348
 20
233.8989189500941
 30
0.0
 10
637.3399477903754
 20
233.7262791705337
 30
0.0
 10
637.3784412061301
 20
233.4316267515888
 30
0.0
 10
637.4591198239785
 20
233.071093149673
 30
0.0
 10
637.5828092731318
 20
232.7260349217312
 30
0.0
 10
637.7432240070044
 20
232.3987205342891
 30
0.0
 10
637.9391257192553
 20
232.0906998557186
 30
0.0
 10
638.1686618474829
 20
231.8029432349993
 30
0.0
 10
638.4311254384493
 20
231.5359839508288
 30
0.0
 10
638.726581827875
 20
231.2902148574697
 30
0.0
 10
639.0556634259152
 20
231.066338032701
 30
0.0
 10
639.4185996065315
 20
230.8658642875334
 30
0.0
 10
639.8137730012131
 20
230.6913063565207
 30
0.0
 10
640.2362817167141
 20
230.5457887173974
 30
0.0
 10
640.6787241350754
 20
230.4317393655075
 30
0.0
 10
641.1334430892812
 20
230.3501143512666
 30
0.0
 10
641.5947958650715
 20
230.3006608236053
 30
0.0
 10
642.059243768184
 20
230.2828203072719
 30
0.0
 10
642.5243349467147
 20
230.2963756686081
 30
0.0
 10
642.9880780735564
 20
230.3417102921925
 30
0.0
 10
643.4487598721803
 20
230.419957767167
 30
0.0
 10
643.9046768616657
 20
230.5331906387933
 30
0.0
 10
644.353366958102
 20
230.6844459623019
 30
0.0
 10
644.7718249491717
 20
230.8691141261389
 30
0.0
 10
645.1516502902849
 20
231.0815691634403
 30
0.0
 10
645.4862172112571
 20
231.3133201280842
 30
0.0
 10
645.7046772833422
 20
231.4985774902993
 30
0.0
 10
645.813008680185
 20
231.6032383354345
 30
0.0
 10
645.8271542905561
 20
231.6169046554446
 30
0.0
  0
SPLINE
  5
230
330
1F
100
AcDbEntity
  8
0
  6
Continuous
 62
     7
370
    25
100
AcDbSpline
210
0.0
220
0.0
230
1.0
 70
     8
 71
     3
 72
    15
 73
    11
 74
     0
 42
0.000000001
 43
0.00000001
 40
0.0
 40
0.0
 40
0.0
 40
0.0
 40
0.1335895592624688
 40
0.2766307072676579
 40
0.4167858845752634
 40
0.5548889449249527
 40
0.691594350314747
 40
0.8404765878189917
 40
0.9863507669974679
 40
1.0
 40
1.0
 40
1.0
 40
1.0
 10
645.8271542905561
 20
231.6169046554446
 30
0.0
 10
645.9073441722319
 20
231.699507560978
 30
0.0
 10
646.0733974462013
 20
231.8705576064023
 30
0.0
 10
646.2903916585561
 20
232.1593975678248
 30
0.0
 10
646.4794196224174
 20
232.4730161061484
 30
0.0
 10
646.6300109179198
 20
232.80227066348
 30
0.0
 10
646.7467209879645
 20
233.1546027678245
 30
0.0
 10
646.8173189539763
 20
233.5257784611544
 30
0.0
 10
646.8472838337906
 20
233.7963950312729
 30
0.0
 10
646.8396941371421
 20
233.9360182173003
 30
0.0
 10
646.8390447431971
 20
233.9479647358244
 30
0.0
  0
LWPOLYLINE
  5
231
330
1F
100
AcDbEntity
  8
0
  6
Continuous
 62
     7
370
    25
100
AcDbPolyline
 90
       31
 70
   128
 43
0.0
 10
498.083236225
 20
687.5019305793
 10
497.2150967533
 20
687.7231076934
 10
496.3256719686
 20
687.9205809837
 10
495.4173997224
 20
688.0938091897
 10
494.4927695257
 20
688.2423175048
 10
493.5543157257
 20
688.365698878
 10
492.6046105589
 20
688.4636151297
 10
491.6462571013
 20
688.5357978782
 10
490.6818821331
 20
688.5820492755
 10
489.714128939
 20
688.6022425498
 10
488.7456500632
 20
688.5963223528
 10
487.779100039
 20
688.5643049113
 10
486.8171281129
 20
688.5062779828
 10
485.862370983
 20
688.4224006152
 10
484.9174455723
 20
688.3129027105
 10
483.9849418556
 20
688.1780843948
 10
483.0674157609
 20
688.0183151958
 10
482.1673821633
 20
687.8340330297
 10
481.2873079924
 20
687.6257430012
 10
480.4296054703
 20
687.3940160187
 10
479.5966255
 20
687.1394872298
 10
478.7906512217
 20
686.8628542802
 10
478.013891755
 20
686.5648754016
 10
477.2684761434
 20
686.2463673334
 10
476.5564475194
 20
685.908203084
 10
475.8797575039
 20
685.5513095382
 10
475.2402608572
 20
685.1766649163
 10
474.6397103953
 20
684.7852960933
 10
474.0797521851
 20
684.3782757839
 10
473.5619210332
 20
683.9567196024
 10
473.0876362788
 20
683.521783005
  0
LINE
  5
232
330
1F
100
AcDbEntity
  8
0
  6
Continuous
 62
     7
370
    25
100
AcDbLine
 10
498.083236225
 20
687.5019305793
 30
0.0
 11
903.1467359533
 21
577.414350814
 31
0.0
  0
LWPOLYLINE
  5
233
330
1F
100
AcDbEntity
  8
0
  6
Continuous
 62
     7
370
    25
100
AcDbPolyline
 90
       31
 70
   128
 43
0.0
 10
910.8746065091
 20
564.5406651365
 10
911.3040448845
 20
564.9877900187
 10
911.6874598201
 20
565.4458776476
 10
912.0238004022
 20
565.9136724368
 10
912.3121447448
 20
566.3898921933
 10
912.5517025159
 20
566.8732316319
 10
912.7418171044
 20
567.3623659527
 10
912.8819674194
 20
567.8559544726
 10
912.9717693187
 20
568.3526442997
 10
913.0109766614
 20
568.8510740418
 10
912.999481983
 20
569.3498775376
 10
912.9373167897
 20
569.8476876013
 10
912.8246514717
 20
570.3431397703
 10
912.6617948371
 20
570.8348760445
 10
912.4491932644
 20
571.3215486089
 10
912.1874294799
 20
571.801823528
 10
911.8772209598
 20
572.2743844015
 10
911.5194179641
 20
572.737935973
 10
911.1150012061
 20
573.1912076797
 10
910.6650791638
 20
573.6329571356
 10
910.1708850424
 20
574.0619735359
 10
909.6337733937
 20
574.4770809766
 10
909.0552164032
 20
574.877141677
 10
908.4367998554
 20
575.2610590986
 10
907.7802187873
 20
575.6277809504
 10
907.0872728417
 20
575.9763020733
 10
906.3598613355
 20
576.3056671951
 10
905.5999780529
 20
576.6149735489
 10
904.8097057813
 20
576.9033733475
 10
903.9912106019
 20
577.1700761072
 10
903.1467359533
 20
577.414350814
  0
LINE
  5
234
330
1F
100
AcDbEntity
  8
0
  6
Continuous
 62
     7
370
    25
100
AcDbLine
 10
910.8746065091
 20
564.5406651365
 30
0.0
 11
697.1281183791
 21
355.9175400201
 31
0.0
  0
LWPOLYLINE
  5
235
330
1F
100
AcDbEntity
  8
0
  6
Continuous
 62
     7
370
    25
100
AcDbPolyline
 90
       31
 70
   128
 43
0.0
 10
672.1325184329
 20
351.9373924459
 10
673.0006579045
 20
351.7162153318
 10
673.8900826892
 20
351.5187420414
 10
674.7983549355
 20
351.3455138355
 10
675.7229851322
 20
351.1970055204
 10
676.6614389322
 20
351.0736241471
 10
677.6111440989
 20
350.9757078954
 10
678.5694975565
 20
350.903525147
 10
679.5338725248
 20
350.8572737497
 10
680.5016257189
 20
350.8370804753
 10
681.4701045947
 20
350.8430006724
 10
682.4366546189
 20
350.8750181139
 10
683.398626545
 20
350.9330450424
 10
684.3533836749
 20
351.01692241
 10
685.2983090856
 20
351.1264203147
 10
686.2308128022
 20
351.2612386303
 10
687.148338897
 20
351.4210078293
 10
688.0483724946
 20
351.6052899954
 10
688.9284466655
 20
351.8135800239
 10
689.7861491876
 20
352.0453070064
 10
690.6191291579
 20
352.2998357954
 10
691.4251034361
 20
352.576468745
 10
692.2018629029
 20
352.8744476236
 10
692.9472785145
 20
353.1929556918
 10
693.6593071385
 20
353.5311199412
 10
694.335997154
 20
353.888013487
 10
694.9754938006
 20
354.2626581088
 10
695.5760442626
 20
354.6540269318
 10
696.1360024728
 20
355.0610472413
 10
696.6538336247
 20
355.4826034228
 10
697.1281183791
 20
355.9175400201
  0
LINE
  5
236
330
1F
100
AcDbEntity
  8
0
  6
Continuous
 62
     7
370
    25
100
AcDbLine
 10
672.1325184329
 20
351.9373924459
 30
0.0
 11
644.6621041017
 21
359.4032624413
 31
0.0
  0
LINE
  5
237
330
1F
100
AcDbEntity
  8
0
  6
Continuous
 62
     7
370
    25
100
AcDbLine
 10
641.8786837926
 20
360.1597364399
 30
0.0
 11
295.3169460391
 21
454.3477908415
 31
0.0
  0
LINE
  5
238
330
1F
100
AcDbEntity
  8
0
  6
Continuous
 62
     7
370
    25
100
AcDbLine
 10
292.53352573
 20
455.10426484
 30
0.0
 11
267.0690187046
 21
462.0249722111
 31
0.0
  0
LWPOLYLINE
  5
239
330
1F
100
AcDbEntity
  8
0
  6
Continuous
 62
     7
370
    25
100
AcDbPolyline
 90
       31
 70
   128
 43
0.0
 10
259.3411481488
 20
474.8986578887
 10
258.9117097734
 20
474.4515330064
 10
258.5282948378
 20
473.9934453775
 10
258.1919542556
 20
473.5256505883
 10
257.9036099131
 20
473.0494308318
 10
257.664052142
 20
472.5660913933
 10
257.4739375535
 20
472.0769570725
 10
257.3337872385
 20
471.5833685526
 10
257.2439853392
 20
471.0866787255
 10
257.2047779964
 20
470.5882489834
 10
257.2162726748
 20
470.0894454876
 10
257.2784378682
 20
469.5916354238
 10
257.3911031861
 20
469.0961832549
 10
257.5539598208
 20
468.6044469807
 10
257.7665613935
 20
468.1177744162
 10
258.028325178
 20
467.6374994972
 10
258.3385336981
 20
467.1649386236
 10
258.6963366937
 20
466.7013870522
 10
259.1007534518
 20
466.2481153454
 10
259.550675494
 20
465.8063658896
 10
260.0448696154
 20
465.3773494893
 10
260.5819812642
 20
464.9622420486
 10
261.1605382547
 20
464.5621813481
 10
261.7789548024
 20
464.1782639265
 10
262.4355358706
 20
463.8115420747
 10
263.1284818161
 20
463.4630209518
 10
263.8558933224
 20
463.13365583
 10
264.615776605
 20
462.8243494762
 10
265.4060488766
 20
462.5359496776
 10
266.224544056
 20
462.269246918
 10
267.0690187046
 20
462.0249722111
  0
LINE
  5
23A
330
1F
100
AcDbEntity
  8
0
  6
Continuous
 62
     7
370
    25
100
AcDbLine
 10
259.3411481488
 20
474.8986578887
 30
0.0
 11
473.0876362788
 21
683.521783005
 31
0.0
  0
LWPOLYLINE
  5
23B
330
1F
100
AcDbEntity
  8
0
  6
Continuous
 62
     7
370
    25
100
AcDbPolyline
 90
       31
 70
   128
 43
0.0
 10
697.1281183791
 20
351.6317035166
 10
696.6538336247
 20
351.1967669193
 10
696.1360024728
 20
350.7752107378
 10
695.5760442626
 20
350.3681904283
 10
694.9754938006
 20
349.9768216053
 10
694.335997154
 20
349.6021769835
 10
693.6593071385
 20
349.2452834377
 10
692.9472785145
 20
348.9071191883
 10
692.2018629029
 20
348.5886111201
 10
691.4251034361
 20
348.2906322414
 10
690.6191291579
 20
348.0139992918
 10
689.7861491876
 20
347.7594705029
 10
688.9284466655
 20
347.5277435204
 10
688.0483724946
 20
347.3194534919
 10
687.148338897
 20
347.1351713258
 10
686.2308128022
 20
346.9754021268
 10
685.2983090856
 20
346.8405838112
 10
684.3533836749
 20
346.7310859064
 10
683.398626545
 20
346.6472085388
 10
682.4366546189
 20
346.5891816104
 10
681.4701045947
 20
346.5571641689
 10
680.5016257189
 20
346.5512439718
 10
679.5338725248
 20
346.5714372462
 10
678.5694975565
 20
346.6176886435
 10
677.6111440989
 20
346.6898713919
 10
676.6614389322
 20
346.7877876436
 10
675.7229851322
 20
346.9111690169
 10
674.7983549355
 20
347.059677332
 10
673.8900826892
 20
347.2329055379
 10
673.0006579045
 20
347.4303788282
 10
672.1325184329
 20
347.6515559424
  0
LINE
  5
23C
330
1F
100
AcDbEntity
  8
0
  6
Continuous
 62
     7
370
    25
100
AcDbLine
 10
672.1325184329
 20
347.6515559424
 30
0.0
 11
646.7291879666
 21
354.5556368356
 31
0.0
  0
LINE
  5
23D
330
1F
100
AcDbEntity
  8
0
  6
Continuous
 62
     7
370
    25
100
AcDbLine
 10
637.510557335
 20
357.0610631099
 30
0.0
 11
297.384029904
 21
449.5001652358
 31
0.0
  0
LINE
  5
23E
330
1F
100
AcDbEntity
  8
0
  6
Continuous
 62
     7
370
    25
100
AcDbLine
 10
288.1653992725
 20
452.00559151
 30
0.0
 11
267.0690187046
 21
457.7391357076
 31
0.0
  0
LINE
  5
23F
330
1F
100
AcDbEntity
  8
0
  6
Continuous
 62
     7
370
    25
100
AcDbLine
 10
910.8746065091
 20
560.254828633
 30
0.0
 11
697.1281183791
 21
351.6317035166
 31
0.0
  0
LWPOLYLINE
  5
240
330
1F
100
AcDbEntity
  8
0
  6
Continuous
 62
     7
370
    25
100
AcDbPolyline
 90
       22
 70
   128
 43
0.0
 10
267.0690187046
 20
457.7391357076
 10
266.224544056
 20
457.9834104145
 10
265.4060488766
 20
458.2501131741
 10
264.615776605
 20
458.5385129727
 10
263.8558933224
 20
458.8478193265
 10
263.1284818161
 20
459.1771844483
 10
262.4355358706
 20
459.5257055712
 10
261.7789548024
 20
459.892427423
 10
261.1605382547
 20
460.2763448446
 10
260.5819812642
 20
460.676405545
 10
260.0448696154
 20
461.0915129858
 10
259.550675494
 20
461.5205293861
 10
259.1007534518
 20
461.9622788419
 10
258.6963366937
 20
462.4155505487
 10
258.3385336981
 20
462.8791021201
 10
258.028325178
 20
463.3516629937
 10
257.7665613935
 20
463.8319379127
 10
257.5539598208
 20
464.3186104772
 10
257.3911031861
 20
464.8103467514
 10
257.2784378682
 20
465.3057989203
 10
257.2162726748
 20
465.8036089841
 10
257.2028833998
 20
466.1660523335
  0
ARC
  5
241
330
1F
100
AcDbEntity
  8
0
  6
Continuous
 62
     7
370
    25
100
AcDbCircle
 10
906.7600712335
 20
564.9708215398
 30
0.0
 40
6.258593262951173
100
AcDbArc
 50
311.1035352276
 51
357.5345654781
  0
SPLINE
  5
242
330
1F
100
AcDbEntity
  8
0
  6
Continuous
 62
     7
370
    25
100
AcDbSpline
210
0.0
220
0.0
230
1.0
 70
     8
 71
     3
 72
    23
 73
    19
 74
     0
 42
0.000000001
 43
0.00000001
 40
0.0
 40
0.0
 40
0.0
 40
0.0
 40
0.0885678039540113
 40
0.1796618030867233
 40
0.2696402247011203
 40
0.3623227458492546
 40
0.4187921283155884
 40
0.4469855966110747
 40
0.475834094987326
 40
0.5121667494004543
 40
0.5486292713320108
 40
0.5959020947527283
 40
0.6382710939488313
 40
0.6816578768037939
 40
0.762563636751289
 40
0.8456297940757791
 40
0.9220704932663936
 40
1.0
 40
1.0
 40
1.0
 40
1.0
 10
645.0775622563365
 20
356.9019786905486
 30
0.0
 10
645.1939870062321
 20
356.7952927028559
 30
0.0
 10
645.4301572572302
 20
356.5788777523066
 30
0.0
 10
645.7658963210687
 20
356.2973669892747
 30
0.0
 10
646.0792055871063
 20
356.0487597983371
 30
0.0
 10
646.3223539773024
 20
355.875656232504
 30
0.0
 10
646.4801209046968
 20
355.7945140575617
 30
0.0
 10
646.5702729550402
 20
355.7749991609779
 30
0.0
 10
646.6365587715942
 20
355.7847959350827
 30
0.0
 10
646.6943916915682
 20
355.8421094341508
 30
0.0
 10
646.7311198097073
 20
355.9831964318126
 30
0.0
 10
646.7306768737891
 20
356.185446900086
 30
0.0
 10
646.7005679841047
 20
356.4157711506177
 30
0.0
 10
646.6360107119028
 20
356.7112367528005
 30
0.0
 10
646.5156646112528
 20
357.0790566767918
 30
0.0
 10
646.3245336508992
 20
357.4896112092978
 30
0.0
 10
646.0940532423566
 20
357.8753855567609
 30
0.0
 10
645.912991666624
 20
358.1009148664508
 30
0.0
 10
645.8215877639034
 20
358.2147670683888
 30
0.0
  0
SPLINE
  5
243
330
1F
100
AcDbEntity
  8
0
  6
Continuous
 62
     7
370
    25
100
AcDbSpline
210
0.0
220
0.0
230
1.0
 70
     8
 71
     3
 72
    14
 73
    10
 74
     0
 42
0.000000001
 43
0.00000001
 40
0.0
 40
0.0
 40
0.0
 40
0.0
 40
0.2204300636816243
 40
0.3399443732550936
 40
0.4603671101701541
 40
0.5640212293773891
 40
0.6631726788869662
 40
0.8102691653343018
 40
1.0
 40
1.0
 40
1.0
 40
1.0
 10
644.8035198375032
 20
356.7549876510175
 30
0.0
 10
644.7973225578212
 20
356.7955127351236
 30
0.0
 10
644.787765193811
 20
356.85800999202
 30
0.0
 10
644.8064444772705
 20
356.9320243726953
 30
0.0
 10
644.8376429100202
 20
356.973402125918
 30
0.0
 10
644.8810425408999
 20
356.9916173417508
 30
0.0
 10
644.9345924327534
 20
356.9902110749543
 30
0.0
 10
645.0037283053452
 20
356.9639369211455
 30
0.0
 10
645.0509582108109
 20
356.9243036449275
 30
0.0
 10
645.0775622563365
 20
356.9019786905486
 30
0.0
  0
SPLINE
  5
244
330
1F
100
AcDbEntity
  8
0
  6
Continuous
 62
     7
370
    25
100
AcDbSpline
210
0.0
220
0.0
230
1.0
 70
     8
 71
     3
 72
    21
 73
    17
 74
     0
 42
0.000000001
 43
0.00000001
 40
0.0
 40
0.0
 40
0.0
 40
0.0
 40
0.0864214424711949
 40
0.1753392662514481
 40
0.2622265591820103
 40
0.3520925011211795
 40
0.4194498243884576
 40
0.4874913503031737
 40
0.5341896676107208
 40
0.5807853725625254
 40
0.6548097040672595
 40
0.7174368553149839
 40
0.7817021860985431
 40
0.8688323608232785
 40
0.9584805712438056
 40
1.0
 40
1.0
 40
1.0
 40
1.0
 10
642.1630409501244
 20
356.253532782742
 30
0.0
 10
642.2265027466725
 20
356.1157059130676
 30
0.0
 10
642.3552595056846
 20
355.836070888386
 30
0.0
 10
642.6166232189139
 20
355.4470687981421
 30
0.0
 10
642.9216826058206
 20
355.0875795678024
 30
0.0
 10
643.2433666388613
 20
354.8043133005224
 30
0.0
 10
643.5759693751517
 20
354.6103417157153
 30
0.0
 10
643.8776177581929
 20
354.5405101918153
 30
0.0
 10
644.1425220765684
 20
354.5976275600357
 30
0.0
 10
644.380304707577
 20
354.7527628322135
 30
0.0
 10
644.5740166662248
 20
355.0048363584481
 30
0.0
 10
644.719805332652
 20
355.3184555765622
 30
0.0
 10
644.8226064607105
 20
355.6731784342851
 30
0.0
 10
644.8738797413255
 20
356.0860160416778
 30
0.0
 10
644.8595636826509
 20
356.4630646617591
 30
0.0
 10
644.8169945490939
 20
356.6848001384267
 30
0.0
 10
644.8035198375032
 20
356.7549876510175
 30
0.0
  0
SPLINE
  5
245
330
1F
100
AcDbEntity
  8
0
  6
Continuous
 62
     7
370
    25
100
AcDbSpline
210
0.0
220
0.0
230
1.0
 70
     8
 71
     3
 72
    14
 73
    10
 74
     0
 42
0.000000001
 43
0.00000001
 40
0.0
 40
0.0
 40
0.0
 40
0.0
 40
0.2240635092469123
 40
0.3487071205324734
 40
0.4742528072797302
 40
0.582549286062548
 40
0.6866084231150471
 40
0.837972714943134
 40
1.0
 40
1.0
 40
1.0
 40
1.0
 10
641.7428827929887
 20
356.2688865789719
 30
0.0
 10
641.7644092710555
 20
356.3053463460688
 30
0.0
 10
641.7979106484424
 20
356.3620882066348
 30
0.0
 10
641.8737128592799
 20
356.4124938917159
 30
0.0
 10
641.9410045747886
 20
356.4292350811493
 30
0.0
 10
642.0055711005316
 20
356.420021873331
 30
0.0
 10
642.0672594350009
 20
356.3888925396668
 30
0.0
 10
642.1241788292313
 20
356.3331473427579
 30
0.0
 10
642.149796368464
 20
356.2806661845547
 30
0.0
 10
642.1630409501244
 20
356.253532782742
 30
0.0
  0
SPLINE
  5
246
330
1F
100
AcDbEntity
  8
0
  6
Continuous
 62
     7
370
    25
100
AcDbSpline
210
0.0
220
0.0
230
1.0
 70
     8
 71
     3
 72
    22
 73
    18
 74
     0
 42
0.000000001
 43
0.00000001
 40
0.0
 40
0.0
 40
0.0
 40
0.0
 40
0.0854745021037654
 40
0.1734250374484228
 40
0.2450062248434682
 40
0.3183355537218218
 40
0.3981832095953227
 40
0.4601464360677443
 40
0.5114692276014307
 40
0.5627660023136548
 40
0.5992580398016516
 40
0.636761857099127
 40
0.6958158817478723
 40
0.7564381759975094
 40
0.8400068663133899
 40
0.9259781920140099
 40
1.0
 40
1.0
 40
1.0
 40
1.0
 10
639.1942849839476
 20
356.9615408536241
 30
0.0
 10
639.1621876432273
 20
356.8212396620517
 30
0.0
 10
639.0970631630676
 20
356.5365730210813
 30
0.0
 10
639.0946486909447
 20
356.1239086272419
 30
0.0
 10
639.1501800079704
 20
355.7381253186815
 30
0.0
 10
639.2637760588439
 20
355.379555670973
 30
0.0
 10
639.4415007813947
 20
355.0661518774945
 30
0.0
 10
639.6758718339121
 20
354.8481744150315
 30
0.0
 10
639.9258634954338
 20
354.7505456198322
 30
0.0
 10
640.152160532119
 20
354.7530277260101
 30
0.0
 10
640.3492952703484
 20
354.8065098454502
 30
0.0
 10
640.5500963007347
 20
354.8971259068919
 30
0.0
 10
640.7726410212168
 20
355.0424601724375
 30
0.0
 10
641.0375615383487
 20
355.2697243497282
 30
0.0
 10
641.307082431455
 20
355.5660324376053
 30
0.0
 10
641.5566561550233
 20
355.9115316744769
 30
0.0
 10
641.6839770139866
 20
356.155850821792
 30
0.0
 10
641.7428827929887
 20
356.2688865789719
 30
0.0
  0
SPLINE
  5
247
330
1F
100
AcDbEntity
  8
0
  6
Continuous
 62
     7
370
    25
100
AcDbSpline
210
0.0
220
0.0
230
1.0
 70
     8
 71
     3
 72
    14
 73
    10
 74
     0
 42
0.000000001
 43
0.00000001
 40
0.0
 40
0.0
 40
0.0
 40
0.0
 40
0.223697858003452
 40
0.3528357075717441
 40
0.4829964006465
 40
0.5936020866478989
 40
0.6970463839856236
 40
0.8440092931474639
 40
1.0
 40
1.0
 40
1.0
 40
1.0
 10
638.9443987504952
 20
357.1282907654394
 30
0.0
 10
638.976908730878
 20
357.1516256802801
 30
0.0
 10
639.028186298012
 20
357.1884315364576
 30
0.0
 10
639.1028996408356
 20
357.2047594281924
 30
0.0
 10
639.1547719462749
 20
357.1942524099604
 30
0.0
 10
639.1896620151664
 20
357.1612728097504
 30
0.0
 10
639.2096509943791
 20
357.110996276598
 30
0.0
 10
639.2132762551499
 20
357.0426515346199
 30
0.0
 10
639.2007399321217
 20
356.9891095843642
 30
0.0
 10
639.1942849839476
 20
356.9615408536241
 30
0.0
  0
SPLINE
  5
248
330
1F
100
AcDbEntity
  8
0
  6
Continuous
 62
     7
370
    25
100
AcDbSpline
210
0.0
220
0.0
230
1.0
 70
     8
 71
     3
 72
    21
 73
    17
 74
     0
 42
0.000000001
 43
0.00000001
 40
0.0
 40
0.0
 40
0.0
 40
0.0
 40
0.0875853234522108
 40
0.1777057334630913
 40
0.2472807889129162
 40
0.3184384872665189
 40
0.3912077252246429
 40
0.4487835427545444
 40
0.4955641887733771
 40
0.5423210271559137
 40
0.6110684311359645
 40
0.6687357243571186
 40
0.7278982405043474
 40
0.8132137814711919
 40
0.9009740029604212
 40
1.0
 40
1.0
 40
1.0
 40
1.0
 10
638.4068281519226
 20
358.4934713866352
 30
0.0
 10
638.3023296156695
 20
358.3796134678559
 30
0.0
 10
638.0903079172989
 20
358.148602104653
 30
0.0
 10
637.8432131594652
 20
357.7819631945504
 30
0.0
 10
637.6497681483141
 20
357.4231488762239
 30
0.0
 10
637.5081626659311
 20
357.0811548592918
 30
0.0
 10
637.4180650700524
 20
356.7597346797531
 30
0.0
 10
637.390138252246
 20
356.5039762995094
 30
0.0
 10
637.4169373811853
 20
356.3437557767257
 30
0.0
 10
637.4947799922794
 20
356.2566712792635
 30
0.0
 10
637.6221347537426
 20
356.258709935436
 30
0.0
 10
637.7866405400122
 20
356.3219361190225
 30
0.0
 10
637.9880418006248
 20
356.4307615757158
 30
0.0
 10
638.245426340534
 20
356.5970281641866
 30
0.0
 10
638.5743524108284
 20
356.8312011689461
 30
0.0
 10
638.8161879682391
 20
357.025357469029
 30
0.0
 10
638.9443987504952
 20
357.1282907654394
 30
0.0
  0
SPLINE
  5
249
330
1F
100
AcDbEntity
  8
0
  6
Continuous
 62
     7
370
    25
100
AcDbSpline
210
0.0
220
0.0
230
1.0
 70
     8
 71
     3
 72
    14
 73
    10
 74
     0
 42
0.000000001
 43
0.00000001
 40
0.0
 40
0.0
 40
0.0
 40
0.0
 40
0.2198296104785275
 40
0.3499177958292769
 40
0.4588983161343728
 40
0.5683999765788669
 40
0.666709468123292
 40
0.7967198733579898
 40
1.0
 40
1.0
 40
1.0
 40
1.0
 10
638.5153832726935
 20
358.6854383278138
 30
0.0
 10
638.534088618015
 20
358.6975949510211
 30
0.0
 10
638.5638631929272
 20
358.7169454779506
 30
0.0
 10
638.5815325309078
 20
358.7158507845917
 30
0.0
 10
638.5802886030646
 20
358.6998182213971
 30
0.0
 10
638.5633155329423
 20
358.6705023000353
 30
0.0
 10
638.5315229211815
 20
358.6287101796976
 30
0.0
 10
638.4789776318516
 20
358.5679841609765
 30
0.0
 10
638.4341620271249
 20
358.5217005973907
 30
0.0
 10
638.4068281519226
 20
358.4934713866352
 30
0.0
  0
SPLINE
  5
24A
330
1F
100
AcDbEntity
  8
0
  6
Continuous
 62
     7
370
    25
100
AcDbSpline
210
0.0
220
0.0
230
1.0
 70
     8
 71
     3
 72
    11
 73
     7
 74
     0
 42
0.000000001
 43
0.00000001
 40
0.0
 40
0.0
 40
0.0
 40
0.0
 40
0.1047860434844454
 40
0.4227998146962088
 40
0.7082864552442181
 40
1.0
 40
1.0
 40
1.0
 40
1.0
 10
638.1466184497441
 20
358.205791207337
 30
0.0
 10
638.1442493620677
 20
358.2198793537551
 30
0.0
 10
638.1346903616776
 20
358.2767234285665
 30
0.0
 10
638.196511155699
 20
358.3894682198385
 30
0.0
 10
638.316591772979
 20
358.5341768520388
 30
0.0
 10
638.4486445723567
 20
358.6346565070681
 30
0.0
 10
638.5153832726935
 20
358.6854383278138
 30
0.0
  0
SPLINE
  5
24B
330
1F
100
AcDbEntity
  8
0
  6
Continuous
 62
     7
370
    25
100
AcDbSpline
210
0.0
220
0.0
230
1.0
 70
     8
 71
     3
 72
    11
 73
     7
 74
     0
 42
0.000000001
 43
0.00000001
 40
0.0
 40
0.0
 40
0.0
 40
0.0
 40
0.2978888405232799
 40
0.604131879261866
 40
0.9103213606716328
 40
0.9999999999999999
 40
0.9999999999999999
 40
0.9999999999999999
 40
0.9999999999999999
 10
645.743154913606
 20
358.4129919237585
 30
0.0
 10
645.8250829123326
 20
358.3433207570247
 30
0.0
 10
645.9912365545703
 20
358.2020245177454
 30
0.0
 10
646.1314099137389
 20
358.0031405386418
 30
0.0
 10
646.2008511384453
 20
357.8497437893155
 30
0.0
 10
646.188307441866
 20
357.7742791014734
 30
0.0
 10
646.1854658348195
 20
357.7571835836267
 30
0.0
  0
SPLINE
  5
24C
330
1F
100
AcDbEntity
  8
0
  6
Continuous
 62
     7
370
    25
100
AcDbSpline
210
0.0
220
0.0
230
1.0
 70
     8
 71
     3
 72
    15
 73
    11
 74
     0
 42
0.000000001
 43
0.00000001
 40
0.0
 40
0.0
 40
0.0
 40
0.0
 40
0.2153296810343772
 40
0.3327055588565954
 40
0.4327106172887602
 40
0.5331289091056287
 40
0.6249491950544293
 40
0.7533679527279632
 40
0.9418458044828449
 40
1.0
 40
1.0
 40
1.0
 40
1.0
 10
645.8215877639034
 20
358.2147670683888
 30
0.0
 10
645.7941266175518
 20
358.2473912226205
 30
0.0
 10
645.7516964425762
 20
358.2977987531279
 30
0.0
 10
645.7035251677448
 20
358.3636431830026
 30
0.0
 10
645.6767622719548
 20
358.4065600173735
 30
0.0
 10
645.6643900249117
 20
358.4356724312038
 30
0.0
 10
645.6654303599302
 20
358.4523936185107
 30
0.0
 10
645.6839596589338
 20
358.4532151927606
 30
0.0
 10
645.714309328405
 20
358.4353168778125
 30
0.0
 10
645.7376510831633
 20
358.4172515968036
 30
0.0
 10
645.7431549136061
 20
358.4129919237585
 30
0.0
  0
LWPOLYLINE
  5
24D
330
1F
100
AcDbEntity
  8
0
  6
Continuous
 62
     7
370
    25
100
AcDbPolyline
 90
       15
 70
   128
 43
0.0
 10
642.1630409501
 20
233.294728071
 10
642.328259723
 20
233.1784224632
 10
642.5337293239
 20
233.0806006052
 10
642.7718177348
 20
233.0048960184
 10
643.0336813356
 20
232.9541206943
 10
643.3095933941
 20
232.9301606453
 10
643.5893053585
 20
232.9339058498
 10
643.8624275324
 20
232.965217195
 10
644.118814992
 20
233.0229316439
 10
644.3489444127
 20
233.1049054355
 10
644.5442678051
 20
233.208093713
 10
644.6975300247
 20
233.3286636234
 10
644.8030382581
 20
233.4621366854
 10
644.8568734793
 20
233.6035551397
 10
644.8637115493
 20
233.67604296
  0
LWPOLYLINE
  5
24E
330
1F
100
AcDbEntity
  8
0
  6
Continuous
 62
     7
370
    25
100
AcDbPolyline
 90
       15
 70
   128
 43
0.0
 10
639.0999543837
 20
233.7302051867
 10
639.1003583796
 20
233.712566407
 10
639.1338839713
 20
233.5694935989
 10
639.2200759506
 20
233.4323903052
 10
639.3557327795
 20
233.3063491277
 10
639.5358155841
 20
233.1960517738
 10
639.7536353202
 20
233.1055951582
 10
640.001101233
 20
233.0383392257
 10
640.2690213818
 20
232.9967821487
 10
640.5474440686
 20
232.9824675346
 10
640.8260274861
 20
232.9959270892
 10
641.0944238568
 20
233.0366608673
 10
641.3426637936
 20
233.1031558423
 10
641.5615266054
 20
233.1929421071
 10
641.742882793
 20
233.3026846163
  0
ARC
  5
24F
330
1F
100
AcDbEntity
  8
0
  6
Continuous
 62
     7
370
    25
100
AcDbCircle
 10
641.9467253022
 20
232.9693742781
 30
0.0
 40
0.3907013566541204
100
AcDbArc
 50
56.3815430533
 51
121.448693132
  0
LWPOLYLINE
  5
250
330
1F
100
AcDbEntity
  8
0
  6
Continuous
 62
     7
370
    25
100
AcDbPolyline
 90
       10
 70
   128
 43
0.0
 10
645.0775622563
 20
234.0533421864
 10
645.357127221
 20
234.0473559619
 10
645.6337297021
 20
234.0691020879
 10
645.8970955027
 20
234.1177728203
 10
646.1374420925
 20
234.1915603205
 10
646.345841973
 20
234.2877238055
 10
646.514554283
 20
234.4026913531
 10
646.6373123269
 20
234.5321925776
 10
646.709556347
 20
234.6714172508
 10
646.7291879666
 20
234.7939677797
  0
ARC
  5
251
330
1F
100
AcDbEntity
  8
0
  6
Continuous
 62
     7
370
    25
100
AcDbCircle
 10
645.0390263252
 20
233.6483323876
 30
0.0
 40
0.406838979266117
100
AcDbArc
 50
84.5647754414
 51
115.52591659
  0
ARC
  5
252
330
1F
100
AcDbEntity
  8
0
  6
Continuous
 62
     7
370
    25
100
AcDbCircle
 10
638.9632367301
 20
233.7345243431
 30
0.0
 40
0.4353694513894821
100
AcDbArc
 50
71.6979304477
 51
92.4799025142
  0
LWPOLYLINE
  5
253
330
1F
100
AcDbEntity
  8
0
  6
Continuous
 62
     7
370
    25
100
AcDbPolyline
 90
       10
 70
   128
 43
0.0
 10
637.3989152618
 20
234.9156691985
 10
637.4049400304
 20
234.8476189976
 10
637.4571375165
 20
234.7060377726
 10
637.5610990569
 20
234.5722431537
 10
637.7129630761
 20
234.4512048444
 10
637.9070886961
 20
234.3474187241
 10
638.1362652626
 20
234.2647398525
 10
638.3919801794
 20
234.2062392758
 10
638.6647351028
 20
234.1740899552
 10
638.9443987505
 20
234.1694860537
  0
SPLINE
  5
254
330
1F
100
AcDbEntity
  8
0
  6
Continuous
 62
     7
370
    25
100
AcDbSpline
210
0.0
220
0.0
230
1.0
 70
     8
 71
     3
 72
    15
 73
    11
 74
     0
 42
0.000000001
 43
0.00000001
 40
0.0
 40
0.0
 40
0.0
 40
0.0
 40
0.0125046939361958
 40
0.1159267553758043
 40
0.2086203776499864
 40
0.303540676405114
 40
0.4805438649314205
 40
0.6622735058692755
 40
0.8295081687498853
 40
1.0
 40
1.0
 40
1.0
 40
1.0
 10
872.8432406887939
 20
586.7436573921464
 30
0.0
 10
872.8414154980874
 20
586.7391171671542
 30
0.0
 10
872.8244947771449
 20
586.6970262887443
 30
0.0
 10
872.8322836662829
 20
586.6946474028707
 30
0.0
 10
872.8598181074635
 20
586.7130159003065
 30
0.0
 10
872.92518605643
 20
586.7765048972063
 30
0.0
 10
873.0451504486225
 20
586.8896272961681
 30
0.0
 10
873.2364030528329
 20
587.0535939547802
 30
0.0
 10
873.4668535591891
 20
587.2371264682691
 30
0.0
 10
873.6479190682132
 20
587.3736081549828
 30
0.0
 10
873.7393249565467
 20
587.442507140121
 30
0.0
  0
SPLINE
  5
255
330
1F
100
AcDbEntity
  8
0
  6
Continuous
 62
     7
370
    25
100
AcDbSpline
210
0.0
220
0.0
230
1.0
 70
     8
 71
     3
 72
    13
 73
     9
 74
     0
 42
0.000000001
 43
0.00000001
 40
0.0
 40
0.0
 40
0.0
 40
0.0
 40
0.3097661148969008
 40
0.4885900442091473
 40
0.6688303583807425
 40
0.8219918322721516
 40
0.9652365570117702
 40
1.0
 40
1.0
 40
1.0
 40
1.0
 10
880.6165139699549
 20
588.9914325792282
 30
0.0
 10
880.5839885101635
 20
589.0159196944537
 30
0.0
 10
880.5326865275607
 20
589.0545429012386
 30
0.0
 10
880.4580979121366
 20
589.1091683193512
 30
0.0
 10
880.4058347331872
 20
589.1472224154942
 30
0.0
 10
880.3721790838722
 20
589.171561466415
 30
0.0
 10
880.3558027445098
 20
589.183382997814
 30
0.0
 10
880.3550580358905
 20
589.1836901793866
 30
0.0
 10
880.3549126007906
 20
589.1837501692693
 30
0.0
  0
SPLINE
  5
256
330
1F
100
AcDbEntity
  8
0
  6
Continuous
 62
     7
370
    25
100
AcDbSpline
210
0.0
220
0.0
230
1.0
 70
     8
 71
     3
 72
    16
 73
    12
 74
     0
 42
0.000000001
 43
0.00000001
 40
0.0
 40
0.0
 40
0.0
 40
0.0
 40
0.1460468910293888
 40
0.2963209915476395
 40
0.4123360970600129
 40
0.5309902300554845
 40
0.6523315752428424
 40
0.7483381756329751
 40
0.826344029149338
 40
0.904310183876831
 40
0.9999999999999999
 40
0.9999999999999999
 40
0.9999999999999999
 40
0.9999999999999999
 10
881.1540845685275
 20
587.4403844899981
 30
0.0
 10
881.2585829908262
 20
587.3693387925326
 30
0.0
 10
881.4706044579896
 20
587.2251910371797
 30
0.0
 10
881.7177008524048
 20
587.0616090481824
 30
0.0
 10
881.9111409121391
 20
586.9372651437877
 30
0.0
 10
882.05276432259
 20
586.8553082438647
 30
0.0
 10
882.1427978909873
 20
586.8263143014541
 30
0.0
 10
882.170906423667
 20
586.874264967243
 30
0.0
 10
882.1435819143885
 20
586.9939756460502
 30
0.0
 10
882.0732027602371
 20
587.1757258975113
 30
0.0
 10
881.9932885221851
 20
587.328382206577
 30
0.0
 10
881.9492533029676
 20
587.4125005589318
 30
0.0
  0
LINE
  5
257
330
1F
100
AcDbEntity
  8
0
  6
Continuous
 62
     7
370
    25
100
AcDbLine
 10
880.9167912662
 20
588.7341516853
 30
0.0
 11
880.61651397
 21
588.9914325792
 31
0.0
  0
SPLINE
  5
258
330
1F
100
AcDbEntity
  8
0
  6
Continuous
 62
     7
370
    25
100
AcDbSpline
210
0.0
220
0.0
230
1.0
 70
     8
 71
     3
 72
    14
 73
    10
 74
     0
 42
0.000000001
 43
0.00000001
 40
0.0
 40
0.0
 40
0.0
 40
0.0
 40
0.2198296104785275
 40
0.3499177958292769
 40
0.4588983161343728
 40
0.5683999765788669
 40
0.666709468123292
 40
0.7967198733579898
 40
1.0
 40
1.0
 40
1.0
 40
1.0
 10
881.0455294477565
 20
587.2139486017998
 30
0.0
 10
881.0268241024351
 20
587.2517655405459
 30
0.0
 10
880.997049527523
 20
587.3119613432054
 30
0.0
 10
880.9793801895421
 20
587.3892312265681
 30
0.0
 10
880.9806241173856
 20
587.4400056820946
 30
0.0
 10
880.9975971875078
 20
587.4725126749455
 30
0.0
 10
881.0293897992686
 20
587.4877905727886
 30
0.0
 10
881.0819350885984
 20
587.4834565517393
 30
0.0
 10
881.1267506933252
 20
587.4567023672926
 30
0.0
 10
881.1540845685275
 20
587.4403844899981
 30
0.0
  0
SPLINE
  5
259
330
1F
100
AcDbEntity
  8
0
  6
Continuous
 62
     7
370
    25
100
AcDbSpline
210
0.0
220
0.0
230
1.0
 70
     8
 71
     3
 72
    23
 73
    19
 74
     0
 42
0.000000001
 43
0.00000001
 40
0.0
 40
0.0
 40
0.0
 40
0.0
 40
0.091096986801326
 40
0.1848037119966378
 40
0.2589280754183365
 40
0.334665785242887
 40
0.3911149903085874
 40
0.419296587984209
 40
0.4482557548146652
 40
0.4839349698269899
 40
0.5196654595162753
 40
0.5704118234188853
 40
0.6175951628619694
 40
0.6659024462277304
 40
0.7517301575708744
 40
0.8399249721114637
 40
0.9190990318416676
 40
1.0
 40
1.0
 40
1.0
 40
1.0
 10
879.1672712106939
 20
585.9673076550632
 30
0.0
 10
879.2702347013991
 20
585.8302921026049
 30
0.0
 10
879.479111371754
 20
585.5523357883002
 30
0.0
 10
879.8027237570478
 20
585.2059921911691
 30
0.0
 10
880.115137037587
 20
584.916095219786
 30
0.0
 10
880.3868628064115
 20
584.7083252143601
 30
0.0
 10
880.60488073338
 20
584.5890962521497
 30
0.0
 10
880.7635822080426
 20
584.5410743594857
 30
0.0
 10
880.8950300760346
 20
584.5310538823867
 30
0.0
 10
881.0350150359093
 20
584.5720546518571
 30
0.0
 10
881.1800918996983
 20
584.7007843072523
 30
0.0
 10
881.2910881434176
 20
584.9059111846141
 30
0.0
 10
881.3674012790999
 20
585.156690367015
 30
0.0
 10
881.4217001170249
 20
585.4826290966867
 30
0.0
 10
881.4310482994465
 20
585.8935069101418
 30
0.0
 10
881.3675174126226
 20
586.3593830744243
 30
0.0
 10
881.2435582618864
 20
586.8070009516853
 30
0.0
 10
881.1120120976849
 20
587.0773272809042
 30
0.0
 10
881.0455294477565
 20
587.2139486017998
 30
0.0
  0
SPLINE
  5
25A
330
1F
100
AcDbEntity
  8
0
  6
Continuous
 62
     7
370
    25
100
AcDbSpline
210
0.0
220
0.0
230
1.0
 70
     8
 71
     3
 72
    15
 73
    11
 74
     0
 42
0.000000001
 43
0.00000001
 40
0.0
 40
0.0
 40
0.0
 40
0.0
 40
0.214811029655661
 40
0.3411322673416708
 40
0.4464287003091136
 40
0.5523542512426396
 40
0.6447889097414602
 40
0.7660552293890796
 40
0.9403894463275401
 40
1.0
 40
1.0
 40
1.0
 40
1.0
 10
878.7820189557601
 20
585.8660673655239
 30
0.0
 10
878.7893788473054
 20
585.9069436249071
 30
0.0
 10
878.8010667782947
 20
585.9718574753093
 30
0.0
 10
878.8467171607017
 20
586.0434758417447
 30
0.0
 10
878.8958816399851
 20
586.0834933105325
 30
0.0
 10
878.9514010911323
 20
586.0996763637298
 30
0.0
 10
879.012409978434
 20
586.093573271139
 30
0.0
 10
879.081202604115
 20
586.0614688187484
 30
0.0
 10
879.1329431135823
 20
586.0133621808573
 30
0.0
 10
879.1603004058538
 20
585.9766596768274
 30
0.0
 10
879.1672712106939
 20
585.9673076550632
 30
0.0
  0
SPLINE
  5
25B
330
1F
100
AcDbEntity
  8
0
  6
Continuous
 62
     7
370
    25
100
AcDbSpline
210
0.0
220
0.0
230
1.0
 70
     8
 71
     3
 72
    10
 73
     6
 74
     0
 42
0.000000001
 43
0.00000001
 40
0.0
 40
0.0
 40
0.0
 40
0.0
 40
0.4786457344890618
 40
0.9707186357737488
 40
1.0
 40
1.0
 40
1.0
 40
1.0
 10
875.9022986450568
 20
585.8646558995575
 30
0.0
 10
875.923340445729
 20
585.6844644810476
 30
0.0
 10
875.9660143203109
 20
585.3190268403239
 30
0.0
 10
876.0651809168303
 20
584.9436453162784
 30
0.0
 10
876.1483299687102
 20
584.7609317833555
 30
0.0
 10
876.1529999557692
 20
584.7506698523414
 30
0.0
  0
SPLINE
  5
25C
330
1F
100
AcDbEntity
  8
0
  6
Continuous
 62
     7
370
    25
100
AcDbSpline
210
0.0
220
0.0
230
1.0
 70
     8
 71
     3
 72
    11
 73
     7
 74
     0
 42
0.000000001
 43
0.00000001
 40
0.0
 40
0.0
 40
0.0
 40
0.0
 40
0.1921449541750163
 40
0.4820603659053006
 40
0.7783263013579973
 40
1.0
 40
1.0
 40
1.0
 40
1.0
 10
878.1826229474381
 20
584.1990618127659
 30
0.0
 10
878.242118443984
 20
584.2971691017507
 30
0.0
 10
878.3913829456609
 20
584.5433042960314
 30
0.0
 10
878.5738618879519
 20
584.9738351336842
 30
0.0
 10
878.7188337421487
 20
585.4348702032387
 30
0.0
 10
878.7630813577196
 20
585.7368308231619
 30
0.0
 10
878.7820189557601
 20
585.8660673655239
 30
0.0
  0
SPLINE
  5
25D
330
1F
100
AcDbEntity
  8
0
  6
Continuous
 62
     7
370
    25
100
AcDbSpline
210
0.0
220
0.0
230
1.0
 70
     8
 71
     3
 72
    15
 73
    11
 74
     0
 42
0.000000001
 43
0.00000001
 40
0.0
 40
0.0
 40
0.0
 40
0.0
 40
0.2126307822085236
 40
0.333080635927324
 40
0.4343189429315499
 40
0.5361409898009207
 40
0.6255006565988698
 40
0.7454503639221319
 40
0.9209037802013924
 40
1.0
 40
1.0
 40
1.0
 40
1.0
 10
875.5304520616413
 20
585.9657158332213
 30
0.0
 10
875.5575100023523
 20
585.9981696247038
 30
0.0
 10
875.5998955685683
 20
586.0490076519778
 30
0.0
 10
875.6742644226441
 20
586.0897884342313
 30
0.0
 10
875.7344968778691
 20
586.1017343076575
 30
0.0
 10
875.7880181257317
 20
586.0907050899458
 30
0.0
 10
875.8352439677957
 20
586.0581901189003
 30
0.0
 10
875.8765063132636
 20
585.9988363519535
 30
0.0
 10
875.896711982645
 20
585.9290675536249
 30
0.0
 10
875.9009742351464
 20
585.8799257380942
 30
0.0
 10
875.9022986450568
 20
585.8646558995575
 30
0.0
  0
SPLINE
  5
25E
330
1F
100
AcDbEntity
  8
0
  6
Continuous
 62
     7
370
    25
100
AcDbSpline
210
0.0
220
0.0
230
1.0
 70
     8
 71
     3
 72
    11
 73
     7
 74
     0
 42
0.000000001
 43
0.00000001
 40
0.0
 40
0.0
 40
0.0
 40
0.0
 40
0.3029930181673288
 40
0.6144833795959137
 40
0.9259192660173934
 40
1.0
 40
1.0
 40
1.0
 40
1.0
 10
873.817757806844
 20
587.2152471745499
 30
0.0
 10
873.7357969265487
 20
587.0530327994801
 30
0.0
 10
873.5695765990207
 20
586.7240547985516
 30
0.0
 10
873.429914109405
 20
586.1891393572535
 30
0.0
 10
873.3606828892529
 20
585.776812025912
 30
0.0
 10
873.3721419191536
 20
585.5495245187102
 30
0.0
 10
873.3743438821841
 20
585.5058490337443
 30
0.0
  0
SPLINE
  5
25F
330
1F
100
AcDbEntity
  8
0
  6
Continuous
 62
     7
370
    25
100
AcDbSpline
210
0.0
220
0.0
230
1.0
 70
     8
 71
     3
 72
    10
 73
     6
 74
     0
 42
0.000000001
 43
0.00000001
 40
0.0
 40
0.0
 40
0.0
 40
0.0
 40
0.0395751002243401
 40
0.5136339487217075
 40
1.0
 40
1.0
 40
1.0
 40
1.0
 10
874.8159482779586
 20
585.1140518488185
 30
0.0
 10
874.8255137477804
 20
585.1236679636064
 30
0.0
 10
874.9496612548783
 20
585.248472777287
 30
0.0
 10
875.1954257429759
 20
585.529020621923
 30
0.0
 10
875.4178266491276
 20
585.8189125059151
 30
0.0
 10
875.5304520616413
 20
585.9657158332213
 30
0.0
  0
SPLINE
  5
260
330
1F
100
AcDbEntity
  8
0
  6
Continuous
 62
     7
370
    25
100
AcDbSpline
210
0.0
220
0.0
230
1.0
 70
     8
 71
     3
 72
    15
 73
    11
 74
     0
 42
0.000000001
 43
0.00000001
 40
0.0
 40
0.0
 40
0.0
 40
0.0
 40
0.2153296810343772
 40
0.3327055588565954
 40
0.4327106172887602
 40
0.5331289091056287
 40
0.6249491950544293
 40
0.7533679527279632
 40
0.9418458044828449
 40
1.0
 40
1.0
 40
1.0
 40
1.0
 10
873.7393249565467
 20
587.4425071401209
 30
0.0
 10
873.7667861028982
 20
587.4605866530113
 30
0.0
 10
873.8092162778739
 20
587.4885212805607
 30
0.0
 10
873.8573875527054
 20
587.493974322091
 30
0.0
 10
873.8841504484953
 20
587.4804538797189
 30
0.0
 10
873.8965226955385
 20
587.450454986138
 30
0.0
 10
873.8954823605201
 20
587.4039342884604
 30
0.0
 10
873.8769530615162
 20
587.3342642415865
 30
0.0
 10
873.8466033920452
 20
587.2674521516857
 30
0.0
 10
873.8232616372869
 20
587.225208052113
 30
0.0
 10
873.817757806844
 20
587.21524717455
 30
0.0
  0
LWPOLYLINE
  5
261
330
1F
100
AcDbEntity
  8
0
  6
Continuous
 62
     7
370
    25
100
AcDbPolyline
 90
       16
 70
   128
 43
0.0
 10
875.9022986451
 20
463.207538111
 10
875.9531762344
 20
463.0658294942
 10
876.0558898397
 20
462.931779443
 10
876.2066242392
 20
462.8103671485
 10
876.3997805138
 20
462.7061023818
 10
876.6281840147
 20
462.6228579813
 10
876.8833508609
 20
462.5637259995
 10
877.1558030662
 20
462.5309028507
 10
877.4354205926
 20
462.5256077268
 10
877.7118172514
 20
462.5480373112
 10
877.9747264906
 20
462.5973584735
 10
878.2143827387
 20
462.671739215
 10
878.4218841394
 20
462.7684167176
 10
878.5895232048
 20
462.883799966
 10
878.7110731043
 20
463.0136031337
 10
878.7820189558
 20
463.153004777
  0
LWPOLYLINE
  5
262
330
1F
100
AcDbEntity
  8
0
  6
Continuous
 62
     7
370
    25
100
AcDbPolyline
 90
       13
 70
   128
 43
0.0
 10
879.1672712107
 20
463.2397275114
 10
879.4141075628
 20
463.1718606646
 10
879.681637385
 20
463.1296418185
 10
879.9599234776
 20
463.1146391611
 10
880.2386291068
 20
463.1274099554
 10
880.5074019558
 20
463.1674798394
 10
880.7562586536
 20
463.2333604465
 10
880.9759555998
 20
463.3226046899
 10
881.1583323119
 20
463.4318976572
 10
881.2966145403
 20
463.557179741
 10
881.3856658926
 20
463.69379743
 10
881.4221786214
 20
463.8366761598
 10
881.4230351526
 20
463.8623575058
  0
LWPOLYLINE
  5
263
330
1F
100
AcDbEntity
  8
0
  6
Continuous
 62
     7
370
    25
100
AcDbPolyline
 90
       12
 70
   128
 43
0.0
 10
873.3656371065
 20
463.959954466
 10
873.3827913123
 20
463.8453480617
 10
873.4521224673
 20
463.7057310793
 10
873.5721678641
 20
463.5755570389
 10
873.7384685043
 20
463.4596611601
 10
873.9448472719
 20
463.3623483105
 10
874.1836383785
 20
463.2872331049
 10
874.445972103
 20
463.2371056428
 10
874.7221042507
 20
463.213827872
 10
875.0017780949
 20
463.2182644284
 10
875.274605355
 20
463.2502505192
 10
875.5304520616
 20
463.3085980446
  0
ARC
  5
264
330
1F
100
AcDbEntity
  8
0
  6
Continuous
 62
     7
370
    25
100
AcDbCircle
 10
879.0318742365
 20
462.9421345349
 30
0.0
 40
0.3269463569460637
100
AcDbArc
 50
65.5357138737
 51
139.8366539865
  0
LWPOLYLINE
  5
265
330
1F
100
AcDbEntity
  8
0
  6
Continuous
 62
     7
370
    25
100
AcDbPolyline
 90
        9
 70
   128
 43
0.0
 10
875.5304520616
 20
463.3085980446
 10
875.588081664
 20
463.3207466193
 10
875.6497530549
 20
463.3251828645
 10
875.711640108
 20
463.3216315534
 10
875.7699033167
 20
463.310313011
 10
875.8209280001
 20
463.291929446
 10
875.8615485591
 20
463.2676213847
 10
875.8892448722
 20
463.2388969124
 10
875.9022986451
 20
463.207538111
  0
ARC
  5
266
330
1F
100
AcDbEntity
  8
0
  6
Continuous
 62
     7
370
    25
100
AcDbCircle
 10
881.3382060128
 20
465.4761266624
 30
0.0
 40
0.8453470201582882
100
AcDbArc
 50
275.7592277186
 51
347.0333704444
  0
ARC
  5
267
330
1F
100
AcDbEntity
  8
0
  6
Continuous
 62
     7
370
    25
100
AcDbCircle
 10
873.5484993756
 20
465.5330401853
 30
0.0
 40
0.7275743127361657
100
AcDbArc
 50
189.8842400733
 51
255.4436885598
  0
SPLINE
  5
268
330
1F
100
AcDbEntity
  8
0
  6
Continuous
 62
     7
370
    25
100
AcDbSpline
210
0.0
220
0.0
230
1.0
 70
     8
 71
     3
 72
    15
 73
    11
 74
     0
 42
0.000000001
 43
0.00000001
 40
0.0
 40
0.0
 40
0.0
 40
0.0
 40
0.0125046939361958
 40
0.1159267553758043
 40
0.2086203776499864
 40
0.303540676405114
 40
0.4805438649314205
 40
0.6622735058692755
 40
0.8295081687498853
 40
1.0
 40
1.0
 40
1.0
 40
1.0
 10
523.498082626213
 20
681.6881857922956
 30
0.0
 10
523.4962574355063
 20
681.6836455673034
 30
0.0
 10
523.4793367145638
 20
681.6415546888934
 30
0.0
 10
523.487125603702
 20
681.63917580302
 30
0.0
 10
523.5146600448826
 20
681.6575443004558
 30
0.0
 10
523.5800279938491
 20
681.7210332973555
 30
0.0
 10
523.6999923860416
 20
681.8341556963172
 30
0.0
 10
523.8912449902518
 20
681.9981223549295
 30
0.0
 10
524.121695496608
 20
682.1816548684183
 30
0.0
 10
524.3027610056323
 20
682.3181365551319
 30
0.0
 10
524.3941668939657
 20
682.3870355402703
 30
0.0
  0
SPLINE
  5
269
330
1F
100
AcDbEntity
  8
0
  6
Continuous
 62
     7
370
    25
100
AcDbSpline
210
0.0
220
0.0
230
1.0
 70
     8
 71
     3
 72
    13
 73
     9
 74
     0
 42
0.000000001
 43
0.00000001
 40
0.0
 40
0.0
 40
0.0
 40
0.0
 40
0.3097661148969008
 40
0.4885900442091473
 40
0.6688303583807425
 40
0.8219918322721516
 40
0.9652365570117702
 40
1.0
 40
1.0
 40
1.0
 40
1.0
 10
531.2713559073738
 20
683.9359609793775
 30
0.0
 10
531.2388304475825
 20
683.960448094603
 30
0.0
 10
531.1875284649797
 20
683.9990713013877
 30
0.0
 10
531.1129398495557
 20
684.0536967195003
 30
0.0
 10
531.0606766706064
 20
684.0917508156434
 30
0.0
 10
531.0270210212913
 20
684.1160898665642
 30
0.0
 10
531.0106446819287
 20
684.1279113979632
 30
0.0
 10
531.0098999733095
 20
684.1282185795358
 30
0.0
 10
531.0097545382097
 20
684.1282785694184
 30
0.0
  0
SPLINE
  5
26A
330
1F
100
AcDbEntity
  8
0
  6
Continuous
 62
     7
370
    25
100
AcDbSpline
210
0.0
220
0.0
230
1.0
 70
     8
 71
     3
 72
    16
 73
    12
 74
     0
 42
0.000000001
 43
0.00000001
 40
0.0
 40
0.0
 40
0.0
 40
0.0
 40
0.1460468910293888
 40
0.2963209915476395
 40
0.4123360970600129
 40
0.5309902300554845
 40
0.6523315752428424
 40
0.7483381756329751
 40
0.826344029149338
 40
0.904310183876831
 40
0.9999999999999999
 40
0.9999999999999999
 40
0.9999999999999999
 40
0.9999999999999999
 10
531.8089265059466
 20
682.3849128901475
 30
0.0
 10
531.9134249282451
 20
682.3138671926819
 30
0.0
 10
532.1254463954087
 20
682.1697194373288
 30
0.0
 10
532.3725427898238
 20
682.0061374483315
 30
0.0
 10
532.5659828495582
 20
681.8817935439371
 30
0.0
 10
532.7076062600089
 20
681.7998366440139
 30
0.0
 10
532.7976398284062
 20
681.7708427016034
 30
0.0
 10
532.8257483610862
 20
681.8187933673922
 30
0.0
 10
532.7984238518076
 20
681.9385040461993
 30
0.0
 10
532.7280446976562
 20
682.1202542976605
 30
0.0
 10
532.6481304596041
 20
682.2729106067262
 30
0.0
 10
532.6040952403866
 20
682.357028959081
 30
0.0
  0
LINE
  5
26B
330
1F
100
AcDbEntity
  8
0
  6
Continuous
 62
     7
370
    25
100
AcDbLine
 10
531.5716332036
 20
683.6786800855
 30
0.0
 11
531.2713559074
 21
683.9359609794
 31
0.0
  0
SPLINE
  5
26C
330
1F
100
AcDbEntity
  8
0
  6
Continuous
 62
     7
370
    25
100
AcDbSpline
210
0.0
220
0.0
230
1.0
 70
     8
 71
     3
 72
    14
 73
    10
 74
     0
 42
0.000000001
 43
0.00000001
 40
0.0
 40
0.0
 40
0.0
 40
0.0
 40
0.2198296104785275
 40
0.3499177958292769
 40
0.4588983161343728
 40
0.5683999765788669
 40
0.666709468123292
 40
0.7967198733579898
 40
1.0
 40
1.0
 40
1.0
 40
1.0
 10
531.7003713851756
 20
682.1584770019489
 30
0.0
 10
531.681666039854
 20
682.1962939406951
 30
0.0
 10
531.6518914649419
 20
682.2564897433546
 30
0.0
 10
531.6342221269612
 20
682.3337596267174
 30
0.0
 10
531.6354660548045
 20
682.3845340822438
 30
0.0
 10
531.6524391249267
 20
682.4170410750947
 30
0.0
 10
531.6842317366876
 20
682.4323189729378
 30
0.0
 10
531.7367770260175
 20
682.4279849518884
 30
0.0
 10
531.7815926307442
 20
682.4012307674418
 30
0.0
 10
531.8089265059466
 20
682.3849128901475
 30
0.0
  0
SPLINE
  5
26D
330
1F
100
AcDbEntity
  8
0
  6
Continuous
 62
     7
370
    25
100
AcDbSpline
210
0.0
220
0.0
230
1.0
 70
     8
 71
     3
 72
    23
 73
    19
 74
     0
 42
0.000000001
 43
0.00000001
 40
0.0
 40
0.0
 40
0.0
 40
0.0
 40
0.091096986801326
 40
0.1848037119966378
 40
0.2589280754183365
 40
0.334665785242887
 40
0.3911149903085874
 40
0.419296587984209
 40
0.4482557548146652
 40
0.4839349698269899
 40
0.5196654595162753
 40
0.5704118234188853
 40
0.6175951628619694
 40
0.6659024462277304
 40
0.7517301575708744
 40
0.8399249721114637
 40
0.9190990318416676
 40
1.0
 40
1.0
 40
1.0
 40
1.0
 10
529.8221131481129
 20
680.9118360552123
 30
0.0
 10
529.925076638818
 20
680.774820502754
 30
0.0
 10
530.1339533091732
 20
680.4968641884493
 30
0.0
 10
530.4575656944669
 20
680.1505205913184
 30
0.0
 10
530.7699789750061
 20
679.8606236199352
 30
0.0
 10
531.0417047438305
 20
679.6528536145094
 30
0.0
 10
531.2597226707991
 20
679.5336246522991
 30
0.0
 10
531.4184241454616
 20
679.485602759635
 30
0.0
 10
531.5498720134535
 20
679.4755822825359
 30
0.0
 10
531.6898569733282
 20
679.5165830520065
 30
0.0
 10
531.8349338371172
 20
679.6453127074016
 30
0.0
 10
531.9459300808364
 20
679.8504395847633
 30
0.0
 10
532.0222432165191
 20
680.1012187671643
 30
0.0
 10
532.076542054444
 20
680.4271574968358
 30
0.0
 10
532.0858902368653
 20
680.8380353102909
 30
0.0
 10
532.0223593500417
 20
681.3039114745735
 30
0.0
 10
531.8984001993053
 20
681.7515293518344
 30
0.0
 10
531.766854035104
 20
682.0218556810535
 30
0.0
 10
531.7003713851756
 20
682.1584770019489
 30
0.0
  0
SPLINE
  5
26E
330
1F
100
AcDbEntity
  8
0
  6
Continuous
 62
     7
370
    25
100
AcDbSpline
210
0.0
220
0.0
230
1.0
 70
     8
 71
     3
 72
    15
 73
    11
 74
     0
 42
0.000000001
 43
0.00000001
 40
0.0
 40
0.0
 40
0.0
 40
0.0
 40
0.214811029655661
 40
0.3411322673416708
 40
0.4464287003091136
 40
0.5523542512426396
 40
0.6447889097414602
 40
0.7660552293890796
 40
0.9403894463275401
 40
1.0
 40
1.0
 40
1.0
 40
1.0
 10
529.4368608931791
 20
680.8105957656732
 30
0.0
 10
529.4442207847246
 20
680.8514720250563
 30
0.0
 10
529.4559087157138
 20
680.9163858754586
 30
0.0
 10
529.5015590981208
 20
680.9880042418939
 30
0.0
 10
529.5507235774041
 20
681.0280217106817
 30
0.0
 10
529.6062430285513
 20
681.0442047638791
 30
0.0
 10
529.6672519158531
 20
681.0381016712881
 30
0.0
 10
529.7360445415342
 20
681.0059972188975
 30
0.0
 10
529.7877850510012
 20
680.9578905810063
 30
0.0
 10
529.8151423432729
 20
680.9211880769765
 30
0.0
 10
529.8221131481129
 20
680.9118360552123
 30
0.0
  0
SPLINE
  5
26F
330
1F
100
AcDbEntity
  8
0
  6
Continuous
 62
     7
370
    25
100
AcDbSpline
210
0.0
220
0.0
230
1.0
 70
     8
 71
     3
 72
    10
 73
     6
 74
     0
 42
0.000000001
 43
0.00000001
 40
0.0
 40
0.0
 40
0.0
 40
0.0
 40
0.4786457344886395
 40
0.9707186357728923
 40
1.0
 40
1.0
 40
1.0
 40
1.0
 10
526.5571405824758
 20
680.8091842997067
 30
0.0
 10
526.578182383148
 20
680.6289928811968
 30
0.0
 10
526.6208562577299
 20
680.2635552404732
 30
0.0
 10
526.7200228542496
 20
679.888173716427
 30
0.0
 10
526.8031719061294
 20
679.7054601835041
 30
0.0
 10
526.8078418931888
 20
679.6951982524896
 30
0.0
  0
SPLINE
  5
270
330
1F
100
AcDbEntity
  8
0
  6
Continuous
 62
     7
370
    25
100
AcDbSpline
210
0.0
220
0.0
230
1.0
 70
     8
 71
     3
 72
    11
 73
     7
 74
     0
 42
0.000000001
 43
0.00000001
 40
0.0
 40
0.0
 40
0.0
 40
0.0
 40
0.1921449541753874
 40
0.4820603659055385
 40
0.7783263013580991
 40
1.0
 40
1.0
 40
1.0
 40
1.0
 10
528.8374648848567
 20
679.1435902129144
 30
0.0
 10
528.8969603814028
 20
679.2416975018992
 30
0.0
 10
529.0462248830798
 20
679.4878326961802
 30
0.0
 10
529.2287038253709
 20
679.9183635338334
 30
0.0
 10
529.3736756795679
 20
680.379398603388
 30
0.0
 10
529.4179232951387
 20
680.6813592233112
 30
0.0
 10
529.4368608931791
 20
680.8105957656732
 30
0.0
  0
SPLINE
  5
271
330
1F
100
AcDbEntity
  8
0
  6
Continuous
 62
     7
370
    25
100
AcDbSpline
210
0.0
220
0.0
230
1.0
 70
     8
 71
     3
 72
    15
 73
    11
 74
     0
 42
0.000000001
 43
0.00000001
 40
0.0
 40
0.0
 40
0.0
 40
0.0
 40
0.2126307822085236
 40
0.333080635927324
 40
0.4343189429315499
 40
0.5361409898009207
 40
0.6255006565988698
 40
0.7454503639221319
 40
0.9209037802013924
 40
1.0
 40
1.0
 40
1.0
 40
1.0
 10
526.1852939990603
 20
680.9102442333706
 30
0.0
 10
526.2123519397712
 20
680.9426980248529
 30
0.0
 10
526.2547375059874
 20
680.993536052127
 30
0.0
 10
526.3291063600632
 20
681.0343168343805
 30
0.0
 10
526.389338815288
 20
681.0462627078068
 30
0.0
 10
526.4428600631508
 20
681.0352334900949
 30
0.0
 10
526.4900859052148
 20
681.0027185190495
 30
0.0
 10
526.5313482506826
 20
680.9433647521026
 30
0.0
 10
526.5515539200638
 20
680.8735959537742
 30
0.0
 10
526.5558161725654
 20
680.8244541382435
 30
0.0
 10
526.5571405824758
 20
680.8091842997067
 30
0.0
  0
SPLINE
  5
272
330
1F
100
AcDbEntity
  8
0
  6
Continuous
 62
     7
370
    25
100
AcDbSpline
210
0.0
220
0.0
230
1.0
 70
     8
 71
     3
 72
    11
 73
     7
 74
     0
 42
0.000000001
 43
0.00000001
 40
0.0
 40
0.0
 40
0.0
 40
0.0
 40
0.3029930181671868
 40
0.6144833795956257
 40
0.9259192660169595
 40
1.0
 40
1.0
 40
1.0
 40
1.0
 10
524.4725997442631
 20
682.1597755746991
 30
0.0
 10
524.3906388639678
 20
681.9975611996292
 30
0.0
 10
524.2244185364397
 20
681.6685831987008
 30
0.0
 10
524.0847560468239
 20
681.1336677574026
 30
0.0
 10
524.0155248266719
 20
680.7213404260611
 30
0.0
 10
524.0269838565727
 20
680.4940529188589
 30
0.0
 10
524.0291858196032
 20
680.4503774338926
 30
0.0
  0
SPLINE
  5
273
330
1F
100
AcDbEntity
  8
0
  6
Continuous
 62
     7
370
    25
100
AcDbSpline
210
0.0
220
0.0
230
1.0
 70
     8
 71
     3
 72
    10
 73
     6
 74
     0
 42
0.000000001
 43
0.00000001
 40
0.0
 40
0.0
 40
0.0
 40
0.0
 40
0.0395751002251738
 40
0.5136339487221298
 40
1.0
 40
1.0
 40
1.0
 40
1.0
 10
525.4707902153768
 20
680.058580248967
 30
0.0
 10
525.480355685199
 20
680.0681963637552
 30
0.0
 10
525.6045031922972
 20
680.1930011774358
 30
0.0
 10
525.8502676803951
 20
680.4735490220725
 30
0.0
 10
526.0726685865467
 20
680.7634409060644
 30
0.0
 10
526.1852939990603
 20
680.9102442333707
 30
0.0
  0
SPLINE
  5
274
330
1F
100
AcDbEntity
  8
0
  6
Continuous
 62
     7
370
    25
100
AcDbSpline
210
0.0
220
0.0
230
1.0
 70
     8
 71
     3
 72
    15
 73
    11
 74
     0
 42
0.000000001
 43
0.00000001
 40
0.0
 40
0.0
 40
0.0
 40
0.0
 40
0.2153296810343772
 40
0.3327055588565954
 40
0.4327106172887602
 40
0.5331289091056287
 40
0.6249491950544293
 40
0.7533679527279632
 40
0.9418458044828449
 40
1.0
 40
1.0
 40
1.0
 40
1.0
 10
524.3941668939657
 20
682.3870355402702
 30
0.0
 10
524.4216280403173
 20
682.4051150531604
 30
0.0
 10
524.4640582152929
 20
682.4330496807099
 30
0.0
 10
524.5122294901244
 20
682.4385027222402
 30
0.0
 10
524.5389923859144
 20
682.424982279868
 30
0.0
 10
524.5513646329575
 20
682.3949833862871
 30
0.0
 10
524.550324297939
 20
682.3484626886096
 30
0.0
 10
524.5317949989353
 20
682.2787926417358
 30
0.0
 10
524.5014453294642
 20
682.211980551835
 30
0.0
 10
524.4781035747058
 20
682.1697364522622
 30
0.0
 10
524.4725997442631
 20
682.1597755746991
 30
0.0
  0
SPLINE
  5
275
330
1F
100
AcDbEntity
  8
0
  6
Continuous
 62
     7
370
    25
100
AcDbSpline
210
0.0
220
0.0
230
1.0
 70
     8
 71
     3
 72
    23
 73
    19
 74
     0
 42
0.000000001
 43
0.00000001
 40
0.0
 40
0.0
 40
0.0
 40
0.0
 40
0.0885678039540113
 40
0.1796618030867234
 40
0.2696402247011204
 40
0.3623227458492548
 40
0.4187921283155887
 40
0.446985596611075
 40
0.4758340949873263
 40
0.5121667494004546
 40
0.5486292713320111
 40
0.5959020947527286
 40
0.6382710939488317
 40
0.6816578768037943
 40
0.7625636367512895
 40
0.8456297940757797
 40
0.9220704932663935
 40
1.0
 40
1.0
 40
1.0
 40
1.0
 10
295.7324041937549
 20
451.8465070906974
 30
0.0
 10
295.8488289436505
 20
451.7398211030047
 30
0.0
 10
296.0849991946486
 20
451.5234061524554
 30
0.0
 10
296.420738258487
 20
451.2418953894235
 30
0.0
 10
296.7340475245247
 20
450.9932881984858
 30
0.0
 10
296.9771959147207
 20
450.8201846326527
 30
0.0
 10
297.1349628421153
 20
450.7390424577105
 30
0.0
 10
297.2251148924586
 20
450.7195275611267
 30
0.0
 10
297.2914007090125
 20
450.7293243352315
 30
0.0
 10
297.3492336289864
 20
450.7866378342995
 30
0.0
 10
297.3859617471257
 20
450.9277248319614
 30
0.0
 10
297.3855188112074
 20
451.1299753002348
 30
0.0
 10
297.3554099215229
 20
451.3602995507665
 30
0.0
 10
297.2908526493212
 20
451.6557651529493
 30
0.0
 10
297.170506548671
 20
452.0235850769406
 30
0.0
 10
296.9793755883176
 20
452.4341396094467
 30
0.0
 10
296.7488951797749
 20
452.8199139569097
 30
0.0
 10
296.5678336040422
 20
453.0454432665995
 30
0.0
 10
296.4764297013216
 20
453.1592954685376
 30
0.0
  0
SPLINE
  5
276
330
1F
100
AcDbEntity
  8
0
  6
Continuous
 62
     7
370
    25
100
AcDbSpline
210
0.0
220
0.0
230
1.0
 70
     8
 71
     3
 72
    14
 73
    10
 74
     0
 42
0.000000001
 43
0.00000001
 40
0.0
 40
0.0
 40
0.0
 40
0.0
 40
0.2204300636816243
 40
0.3399443732550936
 40
0.4603671101701541
 40
0.5640212293773891
 40
0.6631726788869662
 40
0.8102691653343018
 40
1.0
 40
1.0
 40
1.0
 40
1.0
 10
295.4583617749216
 20
451.6995160511662
 30
0.0
 10
295.4521644952395
 20
451.7400411352724
 30
0.0
 10
295.4426071312292
 20
451.8025383921687
 30
0.0
 10
295.461286414689
 20
451.876552772844
 30
0.0
 10
295.4924848474385
 20
451.9179305260668
 30
0.0
 10
295.5358844783182
 20
451.9361457418996
 30
0.0
 10
295.5894343701717
 20
451.9347394751032
 30
0.0
 10
295.6585702427636
 20
451.9084653212943
 30
0.0
 10
295.7058001482292
 20
451.8688320450762
 30
0.0
 10
295.7324041937549
 20
451.8465070906974
 30
0.0
  0
SPLINE
  5
277
330
1F
100
AcDbEntity
  8
0
  6
Continuous
 62
     7
370
    25
100
AcDbSpline
210
0.0
220
0.0
230
1.0
 70
     8
 71
     3
 72
    21
 73
    17
 74
     0
 42
0.000000001
 43
0.00000001
 40
0.0
 40
0.0
 40
0.0
 40
0.0
 40
0.0864214424711916
 40
0.1753392662514486
 40
0.2622265591820109
 40
0.3520925011211802
 40
0.4194498243884585
 40
0.4874913503031747
 40
0.534189667610722
 40
0.5807853725625265
 40
0.6548097040672607
 40
0.7174368553149849
 40
0.7817021860985437
 40
0.868832360823272
 40
0.9584805712438056
 40
1.0
 40
1.0
 40
1.0
 40
1.0
 10
292.8178828875427
 20
451.1980611828908
 30
0.0
 10
292.8813446840908
 20
451.0602343132164
 30
0.0
 10
293.0101014431029
 20
450.7805992885349
 30
0.0
 10
293.2714651563323
 20
450.3915971982909
 30
0.0
 10
293.576524543239
 20
450.0321079679512
 30
0.0
 10
293.8982085762798
 20
449.7488417006711
 30
0.0
 10
294.2308113125701
 20
449.5548701158641
 30
0.0
 10
294.5324596956113
 20
449.4850385919642
 30
0.0
 10
294.7973640139867
 20
449.5421559601845
 30
0.0
 10
295.0351466449953
 20
449.6972912323623
 30
0.0
 10
295.2288586036432
 20
449.9493647585969
 30
0.0
 10
295.3746472700703
 20
450.262983976711
 30
0.0
 10
295.4774483981288
 20
450.6177068344339
 30
0.0
 10
295.5287216787436
 20
451.0305444418265
 30
0.0
 10
295.5144056200693
 20
451.4075930619078
 30
0.0
 10
295.4718364865124
 20
451.6293285385755
 30
0.0
 10
295.4583617749216
 20
451.6995160511662
 30
0.0
  0
SPLINE
  5
278
330
1F
100
AcDbEntity
  8
0
  6
Continuous
 62
     7
370
    25
100
AcDbSpline
210
0.0
220
0.0
230
1.0
 70
     8
 71
     3
 72
    14
 73
    10
 74
     0
 42
0.000000001
 43
0.00000001
 40
0.0
 40
0.0
 40
0.0
 40
0.0
 40
0.2240635092469123
 40
0.3487071205324734
 40
0.4742528072797302
 40
0.582549286062548
 40
0.6866084231150471
 40
0.837972714943134
 40
1.0
 40
1.0
 40
1.0
 40
1.0
 10
292.3977247304069
 20
451.2134149791208
 30
0.0
 10
292.4192512084739
 20
451.2498747462175
 30
0.0
 10
292.4527525858608
 20
451.3066166067835
 30
0.0
 10
292.5285547966982
 20
451.3570222918647
 30
0.0
 10
292.5958465122068
 20
451.3737634812981
 30
0.0
 10
292.6604130379499
 20
451.3645502734798
 30
0.0
 10
292.7221013724192
 20
451.3334209398156
 30
0.0
 10
292.7790207666497
 20
451.2776757429066
 30
0.0
 10
292.8046383058825
 20
451.2251945847034
 30
0.0
 10
292.8178828875427
 20
451.1980611828908
 30
0.0
  0
SPLINE
  5
279
330
1F
100
AcDbEntity
  8
0
  6
Continuous
 62
     7
370
    25
100
AcDbSpline
210
0.0
220
0.0
230
1.0
 70
     8
 71
     3
 72
    22
 73
    18
 74
     0
 42
0.000000001
 43
0.00000001
 40
0.0
 40
0.0
 40
0.0
 40
0.0
 40
0.0854745021037654
 40
0.1734250374484228
 40
0.2450062248434682
 40
0.3183355537218218
 40
0.3981832095953227
 40
0.4601464360677443
 40
0.5114692276014307
 40
0.5627660023136548
 40
0.5992580398016516
 40
0.636761857099127
 40
0.6958158817478723
 40
0.7564381759975094
 40
0.8400068663133899
 40
0.9259781920140099
 40
1.0
 40
1.0
 40
1.0
 40
1.0
 10
289.8491269213659
 20
451.9060692537728
 30
0.0
 10
289.8170295806456
 20
451.7657680622005
 30
0.0
 10
289.7519051004859
 20
451.4811014212301
 30
0.0
 10
289.7494906283631
 20
451.0684370273906
 30
0.0
 10
289.8050219453887
 20
450.6826537188303
 30
0.0
 10
289.9186179962623
 20
450.3240840711218
 30
0.0
 10
290.096342718813
 20
450.0106802776432
 30
0.0
 10
290.3307137713304
 20
449.7927028151802
 30
0.0
 10
290.5807054328521
 20
449.695074019981
 30
0.0
 10
290.8070024695375
 20
449.6975561261589
 30
0.0
 10
291.0041372077666
 20
449.7510382455989
 30
0.0
 10
291.2049382381531
 20
449.8416543070406
 30
0.0
 10
291.4274829586352
 20
449.9869885725864
 30
0.0
 10
291.692403475767
 20
450.214252749877
 30
0.0
 10
291.9619243688734
 20
450.5105608377542
 30
0.0
 10
292.2114980924416
 20
450.8560600746256
 30
0.0
 10
292.3388189514049
 20
451.1003792219408
 30
0.0
 10
292.3977247304069
 20
451.2134149791208
 30
0.0
  0
SPLINE
  5
27A
330
1F
100
AcDbEntity
  8
0
  6
Continuous
 62
     7
370
    25
100
AcDbSpline
210
0.0
220
0.0
230
1.0
 70
     8
 71
     3
 72
    14
 73
    10
 74
     0
 42
0.000000001
 43
0.00000001
 40
0.0
 40
0.0
 40
0.0
 40
0.0
 40
0.223697858003452
 40
0.3528357075717441
 40
0.4829964006465
 40
0.5936020866478989
 40
0.6970463839856236
 40
0.8440092931474639
 40
1.0
 40
1.0
 40
1.0
 40
1.0
 10
289.5992406879136
 20
452.0728191655882
 30
0.0
 10
289.6317506682963
 20
452.0961540804288
 30
0.0
 10
289.6830282354304
 20
452.1329599366063
 30
0.0
 10
289.7577415782537
 20
452.1492878283413
 30
0.0
 10
289.8096138836934
 20
452.1387808101092
 30
0.0
 10
289.8445039525847
 20
452.1058012098991
 30
0.0
 10
289.8644929317974
 20
452.0555246767468
 30
0.0
 10
289.8681181925683
 20
451.9871799347686
 30
0.0
 10
289.85558186954
 20
451.933637984513
 30
0.0
 10
289.8491269213659
 20
451.9060692537728
 30
0.0
  0
SPLINE
  5
27B
330
1F
100
AcDbEntity
  8
0
  6
Continuous
 62
     7
370
    25
100
AcDbSpline
210
0.0
220
0.0
230
1.0
 70
     8
 71
     3
 72
    21
 73
    17
 74
     0
 42
0.000000001
 43
0.00000001
 40
0.0
 40
0.0
 40
0.0
 40
0.0
 40
0.0875853234522107
 40
0.177705733463091
 40
0.2472807889129159
 40
0.3184384872665185
 40
0.3912077252246424
 40
0.4487835427545437
 40
0.4955641887733764
 40
0.5423210271559129
 40
0.6110684311359638
 40
0.6687357243571174
 40
0.7278982405043478
 40
0.8132137814711924
 40
0.9009740029604214
 40
1.0
 40
1.0
 40
1.0
 40
1.0
 10
289.0616700893409
 20
453.437999786784
 30
0.0
 10
288.9571715530878
 20
453.3241418680046
 30
0.0
 10
288.7451498547173
 20
453.0931305048018
 30
0.0
 10
288.4980550968835
 20
452.7264915946992
 30
0.0
 10
288.3046100857325
 20
452.3676772763726
 30
0.0
 10
288.1630046033495
 20
452.0256832594406
 30
0.0
 10
288.0729070074707
 20
451.7042630799018
 30
0.0
 10
288.0449801896644
 20
451.4485046996582
 30
0.0
 10
288.0717793186036
 20
451.2882841768746
 30
0.0
 10
288.1496219296977
 20
451.2011996794122
 30
0.0
 10
288.2769766911609
 20
451.2032383355848
 30
0.0
 10
288.4414824774304
 20
451.2664645191713
 30
0.0
 10
288.6428837380432
 20
451.3752899758646
 30
0.0
 10
288.9002682779524
 20
451.5415565643354
 30
0.0
 10
289.2291943482467
 20
451.7757295690948
 30
0.0
 10
289.4710299056576
 20
451.9698858691777
 30
0.0
 10
289.5992406879136
 20
452.0728191655882
 30
0.0
  0
SPLINE
  5
27C
330
1F
100
AcDbEntity
  8
0
  6
Continuous
 62
     7
370
    25
100
AcDbSpline
210
0.0
220
0.0
230
1.0
 70
     8
 71
     3
 72
    14
 73
    10
 74
     0
 42
0.000000001
 43
0.00000001
 40
0.0
 40
0.0
 40
0.0
 40
0.0
 40
0.2198296104785275
 40
0.3499177958292769
 40
0.4588983161343728
 40
0.5683999765788669
 40
0.666709468123292
 40
0.7967198733579898
 40
1.0
 40
1.0
 40
1.0
 40
1.0
 10
289.1702252101119
 20
453.6299667279625
 30
0.0
 10
289.1889305554334
 20
453.6421233511699
 30
0.0
 10
289.2187051303455
 20
453.6614738780993
 30
0.0
 10
289.2363744683262
 20
453.6603791847405
 30
0.0
 10
289.2351305404829
 20
453.6443466215458
 30
0.0
 10
289.2181574703606
 20
453.6150307001841
 30
0.0
 10
289.1863648585999
 20
453.5732385798464
 30
0.0
 10
289.13381956927
 20
453.5125125611253
 30
0.0
 10
289.0890039645431
 20
453.4662289975395
 30
0.0
 10
289.0616700893409
 20
453.437999786784
 30
0.0
  0
SPLINE
  5
27D
330
1F
100
AcDbEntity
  8
0
  6
Continuous
 62
     7
370
    25
100
AcDbSpline
210
0.0
220
0.0
230
1.0
 70
     8
 71
     3
 72
    11
 73
     7
 74
     0
 42
0.000000001
 43
0.00000001
 40
0.0
 40
0.0
 40
0.0
 40
0.0
 40
0.1047860434844501
 40
0.4227998146962118
 40
0.7082864552442195
 40
0.9999999999999999
 40
0.9999999999999999
 40
0.9999999999999999
 40
0.9999999999999999
 10
288.8014603871624
 20
453.1503196074858
 30
0.0
 10
288.7990912994861
 20
453.164407753904
 30
0.0
 10
288.7895322990959
 20
453.2212518287153
 30
0.0
 10
288.8513530931173
 20
453.3339966199873
 30
0.0
 10
288.9714337103974
 20
453.4787052521876
 30
0.0
 10
289.1034865097749
 20
453.5791849072169
 30
0.0
 10
289.1702252101119
 20
453.6299667279625
 30
0.0
  0
SPLINE
  5
27E
330
1F
100
AcDbEntity
  8
0
  6
Continuous
 62
     7
370
    25
100
AcDbSpline
210
0.0
220
0.0
230
1.0
 70
     8
 71
     3
 72
    11
 73
     7
 74
     0
 42
0.000000001
 43
0.00000001
 40
0.0
 40
0.0
 40
0.0
 40
0.0
 40
0.2978888405232777
 40
0.60413187926186
 40
0.9103213606716225
 40
0.9999999999999999
 40
0.9999999999999999
 40
0.9999999999999999
 40
0.9999999999999999
 10
296.3979968510244
 20
453.3575203239072
 30
0.0
 10
296.4799248497509
 20
453.2878491571735
 30
0.0
 10
296.6460784919886
 20
453.1465529178942
 30
0.0
 10
296.7862518511573
 20
452.9476689387905
 30
0.0
 10
296.8556930758636
 20
452.7942721894643
 30
0.0
 10
296.8431493792844
 20
452.7188075016222
 30
0.0
 10
296.8403077722378
 20
452.7017119837755
 30
0.0
  0
SPLINE
  5
27F
330
1F
100
AcDbEntity
  8
0
  6
Continuous
 62
     7
370
    25
100
AcDbSpline
210
0.0
220
0.0
230
1.0
 70
     8
 71
     3
 72
    15
 73
    11
 74
     0
 42
0.000000001
 43
0.00000001
 40
0.0
 40
0.0
 40
0.0
 40
0.0
 40
0.2153296810343772
 40
0.3327055588565954
 40
0.4327106172887602
 40
0.5331289091056287
 40
0.6249491950544293
 40
0.7533679527279632
 40
0.9418458044828449
 40
1.0
 40
1.0
 40
1.0
 40
1.0
 10
296.4764297013216
 20
453.1592954685376
 30
0.0
 10
296.4489685549702
 20
453.1919196227693
 30
0.0
 10
296.4065383799946
 20
453.2423271532766
 30
0.0
 10
296.358367105163
 20
453.3081715831514
 30
0.0
 10
296.3316042093732
 20
453.3510884175222
 30
0.0
 10
296.31923196233
 20
453.3802008313525
 30
0.0
 10
296.3202722973484
 20
453.3969220186595
 30
0.0
 10
296.3388015963521
 20
453.3977435929094
 30
0.0
 10
296.3691512658233
 20
453.3798452779612
 30
0.0
 10
296.3924930205816
 20
453.3617799969525
 30
0.0
 10
296.3979968510243
 20
453.3575203239072
 30
0.0
  0
LWPOLYLINE
  5
280
330
1F
100
AcDbEntity
  8
0
  6
Continuous
 62
     7
370
    25
100
AcDbPolyline
 90
       15
 70
   128
 43
0.0
 10
292.8178828875
 20
328.2392564712
 10
292.9831016604
 20
328.1229508634
 10
293.1885712613
 20
328.0251290054
 10
293.4266596722
 20
327.9494244185
 10
293.688523273
 20
327.8986490944
 10
293.9644353315
 20
327.8746890454
 10
294.2441472959
 20
327.87843425
 10
294.5172694698
 20
327.9097455952
 10
294.7736569295
 20
327.9674600441
 10
295.0037863501
 20
328.0494338356
 10
295.1991097425
 20
328.1526221131
 10
295.3523719621
 20
328.2731920235
 10
295.4578801956
 20
328.4066650856
 10
295.5117154167
 20
328.5480835399
 10
295.5185534867
 20
328.6205713601
  0
LWPOLYLINE
  5
281
330
1F
100
AcDbEntity
  8
0
  6
Continuous
 62
     7
370
    25
100
AcDbPolyline
 90
       15
 70
   128
 43
0.0
 10
289.7547963211
 20
328.6747335868
 10
289.7552003171
 20
328.6570948072
 10
289.7887259087
 20
328.514021999
 10
289.874917888
 20
328.3769187054
 10
290.0105747169
 20
328.2508775279
 10
290.1906575215
 20
328.140580174
 10
290.4084772576
 20
328.0501235583
 10
290.6559431704
 20
327.9828676258
 10
290.9238633193
 20
327.9413105489
 10
291.2022860061
 20
327.9269959348
 10
291.4808694235
 20
327.9404554894
 10
291.7492657942
 20
327.9811892674
 10
291.997505731
 20
328.0476842425
 10
292.2163685428
 20
328.1374705072
 10
292.3977247304
 20
328.2472130165
  0
ARC
  5
282
330
1F
100
AcDbEntity
  8
0
  6
Continuous
 62
     7
370
    25
100
AcDbCircle
 10
292.6015672396
 20
327.9139026783
 30
0.0
 40
0.3907013566541769
100
AcDbArc
 50
56.3815430532
 51
121.448693132
  0
LWPOLYLINE
  5
283
330
1F
100
AcDbEntity
  8
0
  6
Continuous
 62
     7
370
    25
100
AcDbPolyline
 90
       10
 70
   128
 43
0.0
 10
295.7324041938
 20
328.9978705865
 10
296.0119691584
 20
328.991884362
 10
296.2885716395
 20
329.013630488
 10
296.5519374401
 20
329.0623012205
 10
296.7922840299
 20
329.1360887206
 10
297.0006839104
 20
329.2322522056
 10
297.1693962204
 20
329.3472197532
 10
297.2921542644
 20
329.4767209778
 10
297.3643982845
 20
329.6159456509
 10
297.384029904
 20
329.7384961799
  0
ARC
  5
284
330
1F
100
AcDbEntity
  8
0
  6
Continuous
 62
     7
370
    25
100
AcDbCircle
 10
295.6938682626
 20
328.5928607878
 30
0.0
 40
0.4068389792665157
100
AcDbArc
 50
84.5647754415
 51
115.52591659
  0
ARC
  5
285
330
1F
100
AcDbEntity
  8
0
  6
Continuous
 62
     7
370
    25
100
AcDbCircle
 10
289.6180786675
 20
328.6790527432
 30
0.0
 40
0.4353694513894285
100
AcDbArc
 50
71.6979304477
 51
92.4799025142
  0
LWPOLYLINE
  5
286
330
1F
100
AcDbEntity
  8
0
  6
Continuous
 62
     7
370
    25
100
AcDbPolyline
 90
       10
 70
   128
 43
0.0
 10
288.0537571992
 20
329.8601975986
 10
288.0597819678
 20
329.7921473977
 10
288.1119794539
 20
329.6505661727
 10
288.2159409943
 20
329.5167715539
 10
288.3678050136
 20
329.3957332445
 10
288.5619306335
 20
329.2919471242
 10
288.7911072
 20
329.2092682526
 10
289.0468221168
 20
329.1507676759
 10
289.3195770402
 20
329.1186183553
 10
289.5992406879
 20
329.1140144539
  0
LWPOLYLINE
  5
287
330
1F
100
AcDbEntity
  8
0
  6
Continuous
 62
     7
370
    25
100
AcDbPolyline
 90
       29
 70
   128
 43
0.0
 10
881.6708806783
 20
463.8278186197
 10
881.4161482158
 20
463.6079083116
 10
881.118179773
 20
463.4029165073
 10
880.7802399543
 20
463.21508914
 10
880.4060312992
 20
463.0464840854
 10
879.9996537161
 20
462.898948616
 10
879.5655595626
 20
462.7740991612
 10
879.1085048653
 20
462.6733035977
 10
878.633497211
 20
462.5976662629
 10
878.145740883
 20
462.5480158551
 10
877.6505798417
 20
462.5248963547
 10
877.1534391751
 20
462.5285610638
 10
876.6597656604
 20
462.5589698309
 10
876.1749680878
 20
462.6157894914
 10
875.7043580011
 20
462.6983975171
 10
875.2530915029
 20
462.8058888371
 10
874.8261127633
 20
462.9370857542
 10
874.4280998507
 20
463.0905508474
 10
874.0634134779
 20
463.264602721
 10
873.7360492252
 20
463.4573344263
 10
873.4495937638
 20
463.6666343545
 10
873.2071855596
 20
463.8902093716
 10
873.0114804877
 20
464.125609943
 10
872.8646227338
 20
464.3702569709
 10
872.7682213022
 20
464.6214700511
 10
872.7233323871
 20
464.8764968405
 10
872.7304478009
 20
465.1325432124
 10
872.7894895857
 20
465.3868038691
 10
872.8317247539
 20
465.4972835602
  0
ARC
  5
288
330
1F
100
AcDbEntity
  8
0
  6
Continuous
 62
     7
370
    25
100
AcDbCircle
 10
880.7048701216
 20
464.9798979436
 30
0.0
 40
1.503483676086939
100
AcDbArc
 50
309.9796005818
 51
14.2647796697
  0
LWPOLYLINE
  5
289
330
1F
100
AcDbEntity
  8
0
  6
Continuous
 62
     7
370
    25
100
AcDbPolyline
 90
       35
 70
   128
 43
0.0
 10
297.384029904
 20
330.7048126427
 10
297.4475333557
 20
330.5251722703
 10
297.4924222707
 20
330.2701454809
 10
297.4853068569
 20
330.014099109
 10
297.4262650722
 20
329.7598384523
 10
297.3159437906
 20
329.5101492438
 10
297.1555517154
 20
329.2677671307
 10
296.9468461355
 20
329.0353477022
 10
296.6921136731
 20
328.8154373941
 10
296.3941452303
 20
328.6104455898
 10
296.0562054116
 20
328.4226182225
 10
295.6819967565
 20
328.254013168
 10
295.2756191733
 20
328.1064776985
 10
294.8415250199
 20
327.9816282437
 10
294.3844703226
 20
327.8808326802
 10
293.9094626683
 20
327.8051953454
 10
293.4217063403
 20
327.7555449376
 10
292.926545299
 20
327.7324254372
 10
292.4294046324
 20
327.7360901463
 10
291.9357311177
 20
327.7664989134
 10
291.4509335451
 20
327.8233185739
 10
290.9803234584
 20
327.9059265996
 10
290.5290569602
 20
328.0134179196
 10
290.1020782205
 20
328.1446148367
 10
289.704065308
 20
328.2980799299
 10
289.3393789352
 20
328.4721318035
 10
289.0120146825
 20
328.6648635089
 10
288.725559221
 20
328.874163437
 10
288.4831510169
 20
329.0977384541
 10
288.287445945
 20
329.3331390255
 10
288.1405881911
 20
329.5777860534
 10
288.0441867595
 20
329.8289991336
 10
287.9992978444
 20
330.084025923
 10
288.0064132582
 20
330.3400722949
 10
288.0537571992
 20
330.557890368
  0
LWPOLYLINE
  5
28A
330
1F
100
AcDbEntity
  8
0
  6
Continuous
 62
     7
370
    25
100
AcDbPolyline
 90
       35
 70
   128
 43
0.0
 10
646.7291879666
 20
235.7602842426
 10
646.7926914183
 20
235.5806438702
 10
646.8375803333
 20
235.3256170807
 10
646.8304649195
 20
235.0695707088
 10
646.7714231348
 20
234.8153100522
 10
646.6611018532
 20
234.5656208437
 10
646.500709778
 20
234.3232387306
 10
646.2920041981
 20
234.0908193021
 10
646.0372717357
 20
233.870908994
 10
645.7393032928
 20
233.6659171897
 10
645.4013634742
 20
233.4780898223
 10
645.0271548191
 20
233.3094847678
 10
644.6207772359
 20
233.1619492984
 10
644.1866830825
 20
233.0370998436
 10
643.7296283851
 20
232.9363042801
 10
643.2546207309
 20
232.8606669452
 10
642.7668644029
 20
232.8110165375
 10
642.2717033616
 20
232.7878970371
 10
641.774562695
 20
232.7915617461
 10
641.2808891802
 20
232.8219705133
 10
640.7960916077
 20
232.8787901737
 10
640.325481521
 20
232.9613981994
 10
639.8742150227
 20
233.0688895195
 10
639.4472362831
 20
233.2000864366
 10
639.0492233705
 20
233.3535515297
 10
638.6845369978
 20
233.5276034034
 10
638.3571727451
 20
233.7203351087
 10
638.0707172836
 20
233.9296350368
 10
637.8283090794
 20
234.153210054
 10
637.6326040076
 20
234.3886106254
 10
637.4857462537
 20
234.6332576532
 10
637.389344822
 20
234.8844707334
 10
637.344455907
 20
235.1394975229
 10
637.3515713208
 20
235.3955438948
 10
637.3989152618
 20
235.6133619679
  0
LINE
  5
28B
330
1F
100
AcDbEntity
  8
0
  6
Continuous
 62
     8
370
    18
100
AcDbLine
 10
697.1281183791
 20
355.9175400201
 30
0.0
 11
697.1281183791
 21
351.6317035166
 31
0.0
  0
LINE
  5
28C
330
1F
100
AcDbEntity
  8
0
  6
Continuous
 62
     8
370
    18
100
AcDbLine
 10
672.1325184329
 20
347.6515559424
 30
0.0
 11
672.1325184329
 21
351.9373924459
 31
0.0
  0
LINE
  5
28D
330
1F
100
AcDbEntity
  8
0
  6
Continuous
 62
     8
370
    18
100
AcDbLine
 10
267.0690187046
 20
462.0249722111
 30
0.0
 11
267.0690187046
 21
457.7391357076
 31
0.0
  0
LINE
  5
28E
330
1F
100
AcDbEntity
  8
0
  6
Continuous
 62
     8
370
    18
100
AcDbLine
 10
910.8746065091
 20
560.254828633
 30
0.0
 11
910.8746065091
 21
564.5406651365
 31
0.0
  0
LINE
  5
28F
330
1F
100
AcDbEntity
  8
0
  6
Continuous
 62
     8
370
    18
100
AcDbLine
 10
648.4485877804
 20
354.0883408085
 30
0.0
 11
646.7291879666
 21
352.4101538796
 31
0.0
  0
LINE
  5
290
330
1F
100
AcDbEntity
  8
0
  6
Continuous
 62
     8
370
    18
100
AcDbLine
 10
658.7526544691
 20
351.2879162719
 30
0.0
 11
646.7291879666
 21
339.552644369
 31
0.0
  0
LINE
  5
291
330
1F
100
AcDbEntity
  8
0
  6
Continuous
 62
     8
370
    18
100
AcDbLine
 10
299.1034297178
 20
449.0328692086
 30
0.0
 11
297.384029904
 21
447.3546822797
 31
0.0
  0
LINE
  5
292
330
1F
100
AcDbEntity
  8
0
  6
Continuous
 62
     8
370
    18
100
AcDbLine
 10
309.4074964065
 20
446.2324446721
 30
0.0
 11
297.384029904
 21
434.4971727692
 31
0.0
  0
LINE
  5
293
330
1F
100
AcDbEntity
  8
0
  6
Continuous
 62
     8
370
    18
100
AcDbLine
 10
642.1630409501
 20
356.2535327827
 30
0.0
 11
642.1630409501
 21
233.294728071
 31
0.0
  0
LINE
  5
294
330
1F
100
AcDbEntity
  8
0
  6
Continuous
 62
     8
370
    18
100
AcDbLine
 10
641.742882793
 20
356.268886579
 30
0.0
 11
641.742882793
 21
233.3026846163
 31
0.0
  0
LINE
  5
295
330
1F
100
AcDbEntity
  8
0
  6
Continuous
 62
     8
370
    18
100
AcDbLine
 10
645.0775622563
 20
356.9019786905
 30
0.0
 11
645.0775622563
 21
234.0533421864
 31
0.0
  0
LINE
  5
296
330
1F
100
AcDbEntity
  8
0
  6
Continuous
 62
     8
370
    18
100
AcDbLine
 10
638.9443987505
 20
357.1282907654
 30
0.0
 11
638.9443987505
 21
234.1694860537
 31
0.0
  0
LINE
  5
297
330
1F
100
AcDbEntity
  8
0
  6
Continuous
 62
     8
370
    18
100
AcDbLine
 10
645.7431549136
 20
358.4129919238
 30
0.0
 11
645.7431549136
 21
358.3106626697
 31
0.0
  0
LINE
  5
298
330
1F
100
AcDbEntity
  8
0
  6
Continuous
 62
     8
370
    18
100
AcDbLine
 10
638.5153832727
 20
358.6854383278
 30
0.0
 11
638.5153832727
 21
358.6110598535
 31
0.0
  0
LINE
  5
299
330
1F
100
AcDbEntity
  8
0
  6
Continuous
 62
     8
370
    18
100
AcDbLine
 10
878.7820189558
 20
585.8660673655
 30
0.0
 11
878.7820189558
 21
584.0361588212
 31
0.0
  0
LINE
  5
29A
330
1F
100
AcDbEntity
  8
0
  6
Continuous
 62
     8
370
    18
100
AcDbLine
 10
878.7820189558
 20
528.9314793372
 30
0.0
 11
878.7820189558
 21
463.153004777
 31
0.0
  0
LINE
  5
29B
330
1F
100
AcDbEntity
  8
0
  6
Continuous
 62
     8
370
    18
100
AcDbLine
 10
875.9022986451
 20
585.8646558996
 30
0.0
 11
875.9022986451
 21
584.8188050967
 31
0.0
  0
LINE
  5
29C
330
1F
100
AcDbEntity
  8
0
  6
Continuous
 62
     8
370
    18
100
AcDbLine
 10
875.9022986451
 20
526.120784032
 30
0.0
 11
875.9022986451
 21
463.207538111
 31
0.0
  0
LINE
  5
29D
330
1F
100
AcDbEntity
  8
0
  6
Continuous
 62
     8
370
    18
100
AcDbLine
 10
879.1672712107
 20
585.9673076551
 30
0.0
 11
879.1672712107
 21
583.9314555133
 31
0.0
  0
LINE
  5
29E
330
1F
100
AcDbEntity
  8
0
  6
Continuous
 62
     8
370
    18
100
AcDbLine
 10
879.1672712107
 20
529.3074973485
 30
0.0
 11
879.1672712107
 21
463.2397275114
 31
0.0
  0
LINE
  5
29F
330
1F
100
AcDbEntity
  8
0
  6
Continuous
 62
     8
370
    18
100
AcDbLine
 10
875.5304520616
 20
585.9657158332
 30
0.0
 11
875.5304520616
 21
584.9198650304
 31
0.0
  0
LINE
  5
2A0
330
1F
100
AcDbEntity
  8
0
  6
Continuous
 62
     8
370
    18
100
AcDbLine
 10
875.5304520616
 20
525.7578503671
 30
0.0
 11
875.5304520616
 21
463.3085980446
 31
0.0
  0
LINE
  5
2A1
330
1F
100
AcDbEntity
  8
0
  6
Continuous
 62
     8
370
    18
100
AcDbLine
 10
881.1540845685
 20
587.44038449
 30
0.0
 11
881.1540845685
 21
586.9723556227
 31
0.0
  0
LINE
  5
2A2
330
1F
100
AcDbEntity
  8
0
  6
Continuous
 62
     8
370
    18
100
AcDbLine
 10
873.7393249565
 20
587.4425071401
 30
0.0
 11
873.7393249565
 21
587.0456671578
 31
0.0
  0
LINE
  5
2A3
330
1F
100
AcDbEntity
  8
0
  6
Continuous
 62
     8
370
    18
100
AcDbLine
 10
529.4368608932
 20
680.8105957657
 30
0.0
 11
529.4368608932
 21
678.9806872214
 31
0.0
  0
LINE
  5
2A4
330
1F
100
AcDbEntity
  8
0
  6
Continuous
 62
     8
370
    18
100
AcDbLine
 10
526.5571405825
 20
680.8091842997
 30
0.0
 11
526.5571405825
 21
679.7633334969
 31
0.0
  0
LINE
  5
2A5
330
1F
100
AcDbEntity
  8
0
  6
Continuous
 62
     8
370
    18
100
AcDbLine
 10
529.8221131481
 20
680.9118360552
 30
0.0
 11
529.8221131481
 21
678.8759839134
 31
0.0
  0
LINE
  5
2A6
330
1F
100
AcDbEntity
  8
0
  6
Continuous
 62
     8
370
    18
100
AcDbLine
 10
526.1852939991
 20
680.9102442334
 30
0.0
 11
526.1852939991
 21
679.8643934305
 31
0.0
  0
LINE
  5
2A7
330
1F
100
AcDbEntity
  8
0
  6
Continuous
 62
     8
370
    18
100
AcDbLine
 10
531.8089265059
 20
682.3849128901
 30
0.0
 11
531.8089265059
 21
681.9168840228
 31
0.0
  0
LINE
  5
2A8
330
1F
100
AcDbEntity
  8
0
  6
Continuous
 62
     8
370
    18
100
AcDbLine
 10
524.394166894
 20
682.3870355403
 30
0.0
 11
524.394166894
 21
681.990195558
 31
0.0
  0
LINE
  5
2A9
330
1F
100
AcDbEntity
  8
0
  6
Continuous
 62
     8
370
    18
100
AcDbLine
 10
292.8178828875
 20
451.1980611829
 30
0.0
 11
292.8178828875
 21
328.2392564712
 31
0.0
  0
LINE
  5
2AA
330
1F
100
AcDbEntity
  8
0
  6
Continuous
 62
     8
370
    18
100
AcDbLine
 10
292.3977247304
 20
451.2134149791
 30
0.0
 11
292.3977247304
 21
328.2472130165
 31
0.0
  0
LINE
  5
2AB
330
1F
100
AcDbEntity
  8
0
  6
Continuous
 62
     8
370
    18
100
AcDbLine
 10
295.7324041938
 20
451.8465070907
 30
0.0
 11
295.7324041938
 21
328.9978705865
 31
0.0
  0
LINE
  5
2AC
330
1F
100
AcDbEntity
  8
0
  6
Continuous
 62
     8
370
    18
100
AcDbLine
 10
289.5992406879
 20
452.0728191656
 30
0.0
 11
289.5992406879
 21
329.1140144539
 31
0.0
  0
LINE
  5
2AD
330
1F
100
AcDbEntity
  8
0
  6
Continuous
 62
     8
370
    18
100
AcDbLine
 10
296.397996851
 20
453.3575203239
 30
0.0
 11
296.397996851
 21
453.2551910698
 31
0.0
  0
LINE
  5
2AE
330
1F
100
AcDbEntity
  8
0
  6
Continuous
 62
     8
370
    18
100
AcDbLine
 10
289.1702252101
 20
453.629966728
 30
0.0
 11
289.1702252101
 21
453.5555882536
 31
0.0
  0
LWPOLYLINE
  5
2AF
330
1F
100
AcDbEntity
  8
0
  6
Continuous
 62
     8
370
    18
100
AcDbPolyline
 90
       32
 70
   128
 43
0.0
 10
872.7198946003
 20
463.6838056684
 10
872.7233323871
 20
463.5907458895
 10
872.7682213022
 20
463.3357191
 10
872.8646227338
 20
463.0845060198
 10
873.0114804877
 20
462.839858992
 10
873.2071855596
 20
462.6044584205
 10
873.4495937638
 20
462.3808834034
 10
873.7360492252
 20
462.1715834753
 10
874.0634134779
 20
461.97885177
 10
874.4280998507
 20
461.8047998963
 10
874.8261127633
 20
461.6513348031
 10
875.2530915029
 20
461.5201378861
 10
875.7043580011
 20
461.412646566
 10
876.1749680878
 20
461.3300385403
 10
876.6597656604
 20
461.2732188799
 10
877.1534391751
 20
461.2428101127
 10
877.6505798417
 20
461.2391454037
 10
878.145740883
 20
461.2622649041
 10
878.633497211
 20
461.3119153118
 10
879.1085048653
 20
461.3875526467
 10
879.5655595626
 20
461.4883482102
 10
879.9996537161
 20
461.613197665
 10
880.4060312992
 20
461.7607331344
 10
880.7802399543
 20
461.9293381889
 10
881.118179773
 20
462.1171655563
 10
881.4161482158
 20
462.3221573606
 10
881.6708806783
 20
462.5420676686
 10
881.8795862581
 20
462.7744870972
 10
882.0399783334
 20
463.0168692103
 10
882.1502996149
 20
463.2665584187
 10
882.2093413996
 20
463.5208190754
 10
882.2198946003
 20
463.6838056684
  0
ARC
  5
2B0
330
1F
100
AcDbEntity
  8
0
  6
Continuous
 62
     8
370
    18
100
AcDbCircle
 10
295.9030112025
 20
328.9544010794
 30
0.0
 40
1.59409687187778
100
AcDbArc
 50
310.9054520812
 51
357.7326486245
  0
LWPOLYLINE
  5
2B1
330
1F
100
AcDbEntity
  8
0
  6
Continuous
 62
     8
370
    18
100
AcDbPolyline
 90
       27
 70
   128
 43
0.0
 10
287.9958600576
 20
328.8913347509
 10
287.9992978444
 20
328.798274972
 10
288.0441867595
 20
328.5432481825
 10
288.1405881911
 20
328.2920351023
 10
288.287445945
 20
328.0473880745
 10
288.4831510169
 20
327.8119875031
 10
288.725559221
 20
327.5884124859
 10
289.0120146825
 20
327.3791125578
 10
289.3393789352
 20
327.1863808525
 10
289.704065308
 20
327.0123289788
 10
290.1020782205
 20
326.8588638856
 10
290.5290569602
 20
326.7276669686
 10
290.9803234584
 20
326.6201756485
 10
291.4509335451
 20
326.5375676228
 10
291.9357311177
 20
326.4807479624
 10
292.4294046324
 20
326.4503391952
 10
292.926545299
 20
326.4466744862
 10
293.4217063403
 20
326.4697939866
 10
293.9094626683
 20
326.5194443943
 10
294.3844703226
 20
326.5950817292
 10
294.8415250199
 20
326.6958772927
 10
295.2756191733
 20
326.8207267475
 10
295.6819967565
 20
326.9682622169
 10
296.0562054116
 20
327.1368672714
 10
296.3941452303
 20
327.3246946388
 10
296.6921136731
 20
327.5296864431
 10
296.9468461355
 20
327.7495967511
  0
ARC
  5
2B2
330
1F
100
AcDbEntity
  8
0
  6
Continuous
 62
     8
370
    18
100
AcDbCircle
 10
645.2481692651
 20
234.0098726793
 30
0.0
 40
1.594096871877436
100
AcDbArc
 50
310.9054520812
 51
357.7326486245
  0
LWPOLYLINE
  5
2B3
330
1F
100
AcDbEntity
  8
0
  6
Continuous
 62
     8
370
    18
100
AcDbPolyline
 90
       27
 70
   128
 43
0.0
 10
637.3410181202
 20
233.9468063507
 10
637.344455907
 20
233.8537465718
 10
637.389344822
 20
233.5987197824
 10
637.4857462537
 20
233.3475067022
 10
637.6326040076
 20
233.1028596743
 10
637.8283090794
 20
232.8674591029
 10
638.0707172836
 20
232.6438840858
 10
638.3571727451
 20
232.4345841577
 10
638.6845369978
 20
232.2418524523
 10
639.0492233705
 20
232.0678005787
 10
639.4472362831
 20
231.9143354855
 10
639.8742150227
 20
231.7831385684
 10
640.325481521
 20
231.6756472484
 10
640.7960916077
 20
231.5930392227
 10
641.2808891802
 20
231.5362195622
 10
641.774562695
 20
231.5058107951
 10
642.2717033616
 20
231.502146086
 10
642.7668644029
 20
231.5252655864
 10
643.2546207309
 20
231.5749159942
 10
643.7296283851
 20
231.650553329
 10
644.1866830825
 20
231.7513488925
 10
644.6207772359
 20
231.8761983473
 10
645.0271548191
 20
232.0237338167
 10
645.4013634742
 20
232.1923388713
 10
645.7393032928
 20
232.3801662386
 10
646.0372717357
 20
232.5851580429
 10
646.2920041981
 20
232.805068351
  0
ENDSEC
  0
SECTION
  2
OBJECTS
  0
DICTIONARY
  5
C
330
0
100
AcDbDictionary
281
     1
  3
ACAD_GROUP
350
D
  3
ACAD_LAYOUT
350
1A
  3
ACAD_MLINESTYLE
350
17
  3
ACAD_PLOTSETTINGS
350
19
  3
ACAD_PLOTSTYLENAME
350
E
  3
ACAD_SCALELIST
350
47
  0
DICTIONARY
  5
D
102
{ACAD_REACTORS
330
C
102
}
330
C
100
AcDbDictionary
281
     1
  0
DICTIONARY
  5
1A
102
{ACAD_REACTORS
330
C
102
}
330
C
100
AcDbDictionary
281
     1
  3
Layout1
350
1E
  3
Layout2
350
26
  3
Model
350
22
  0
DICTIONARY
  5
17
102
{ACAD_REACTORS
330
C
102
}
330
C
100
AcDbDictionary
281
     1
  3
Standard
350
18
  0
DICTIONARY
  5
19
102
{ACAD_REACTORS
330
C
102
}
330
C
100
AcDbDictionary
281
     1
  0
ACDBDICTIONARYWDFLT
  5
E
102
{ACAD_REACTORS
330
C
102
}
330
C
100
AcDbDictionary
281
     1
  3
Normal
350
F
100
AcDbDictionaryWithDefault
340
F
  0
DICTIONARY
  5
47
102
{ACAD_REACTORS
330
C
102
}
330
C
100
AcDbDictionary
281
     1
  3
A0
350
48
  3
A1
350
49
  3
A2
350
4A
  3
A3
350
4B
  3
A4
350
4C
  3
A5
350
4D
  3
A6
350
4E
  3
A7
350
4F
  3
A8
350
50
  3
A9
350
51
  3
B0
350
52
  3
B1
350
53
  3
B2
350
54
  3
B3
350
55
  3
B4
350
56
  3
B5
350
57
  3
B6
350
58
  3
B7
350
59
  3
B8
350
5A
  3
B9
350
5B
  3
C0
350
5C
  3
C1
350
5D
  3
C2
350
5E
  3
C3
350
5F
  3
C4
350
60
  3
C5
350
61
  3
C6
350
62
  3
C7
350
63
  3
C8
350
64
  3
C9
350
65
  3
D0
350
66
  3
D1
350
67
  3
D2
350
68
  0
LAYOUT
  5
1E
102
{ACAD_REACTORS
330
1A
102
}
330
1A
100
AcDbPlotSettings
  1

  2
none_device
  4

  6

 40
0.0
 41
0.0
 42
0.0
 43
0.0
 44
0.0
 45
0.0
 46
0.0
 47
0.0
 48
0.0
 49
0.0
140
0.0
141
0.0
142
1.0
143
1.0
 70
   688
 72
     1
 73
     0
 74
     5
  7

 75
    16
147
1.0
148
0.0
149
0.0
100
AcDbLayout
  1
Layout1
 70
     1
 71
     1
 10
0.0
 20
0.0
 11
420.0
 21
297.0
 12
0.0
 22
0.0
 32
0.0
 14
1.0000000000E+20
 24
1.0000000000E+20
 34
1.0000000000E+20
 15
-1.0000000000E+20
 25
-1.0000000000E+20
 35
-1.0000000000E+20
146
0.0
 13
0.0
 23
0.0
 33
0.0
 16
1.0
 26
0.0
 36
0.0
 17
0.0
 27
1.0
 37
0.0
 76
     0
330
1B
  0
LAYOUT
  5
26
102
{ACAD_REACTORS
330
1A
102
}
330
1A
100
AcDbPlotSettings
  1

  2
none_device
  4

  6

 40
0.0
 41
0.0
 42
0.0
 43
0.0
 44
0.0
 45
0.0
 46
0.0
 47
0.0
 48
0.0
 49
0.0
140
0.0
141
0.0
142
1.0
143
1.0
 70
   688
 72
     1
 73
     0
 74
     5
  7

 75
    16
147
1.0
148
0.0
149
0.0
100
AcDbLayout
  1
Layout2
 70
     1
 71
     2
 10
0.0
 20
0.0
 11
0.0
 21
0.0
 12
0.0
 22
0.0
 32
0.0
 14
0.0
 24
0.0
 34
0.0
 15
0.0
 25
0.0
 35
0.0
146
0.0
 13
0.0
 23
0.0
 33
0.0
 16
1.0
 26
0.0
 36
0.0
 17
0.0
 27
1.0
 37
0.0
 76
     0
330
23
  0
LAYOUT
  5
22
102
{ACAD_REACTORS
330
1A
102
}
330
1A
100
AcDbPlotSettings
  1

  2
none_device
  4
Letter_(8.50_x_11.00_Inches)
  6

 40
6.35
 41
6.35
 42
6.35000508
 43
6.35000508
 44
215.9
 45
279.4
 46
0.0
 47
0.0
 48
0.0
 49
0.0
140
0.0
141
0.0
142
1.0
143
1.0
 70
  1712
 72
     1
 73
     0
 74
     0
  7

 75
     0
147
1.0
148
0.0
149
0.0
100
AcDbLayout
  1
Model
 70
     1
 71
     0
 10
0.0
 20
0.0
 11
4455.0
 21
3150.0
 12
0.0
 22
0.0
 32
0.0
 14
0.0
 24
0.0
 34
0.0
 15
4455.0
 25
3150.0
 35
0.0
146
0.0
 13
0.0
 23
0.0
 33
0.0
 16
1.0
 26
0.0
 36
0.0
 17
0.0
 27
1.0
 37
0.0
 76
     0
330
1F
331
29
  0
MLINESTYLE
  5
18
102
{ACAD_REACTORS
330
17
102
}
330
17
100
AcDbMlineStyle
  2
Standard
 70
     0
  3

 62
   256
 51
90.0
 52
90.0
 71
     2
 49
0.5
 62
   256
  6
BYLAYER
 49
-0.5
 62
   256
  6
BYLAYER
  0
ACDBPLACEHOLDER
  5
F
102
{ACAD_REACTORS
330
E
102
}
330
E
  0
SCALE
  5
48
102
{ACAD_REACTORS
330
47
102
}
330
47
100
AcDbScale
 70
     0
300
1:1
140
1.0
141
1.0
290
     1
  0
SCALE
  5
49
102
{ACAD_REACTORS
330
47
102
}
330
47
100
AcDbScale
 70
     0
300
1:2
140
1.0
141
2.0
290
     0
  0
SCALE
  5
4A
102
{ACAD_REACTORS
330
47
102
}
330
47
100
AcDbScale
 70
     0
300
1:4
140
1.0
141
4.0
290
     0
  0
SCALE
  5
4B
102
{ACAD_REACTORS
330
47
102
}
330
47
100
AcDbScale
 70
     0
300
1:5
140
1.0
141
5.0
290
     0
  0
SCALE
  5
4C
102
{ACAD_REACTORS
330
47
102
}
330
47
100
AcDbScale
 70
     0
300
1:8
140
1.0
141
8.0
290
     0
  0
SCALE
  5
4D
102
{ACAD_REACTORS
330
47
102
}
330
47
100
AcDbScale
 70
     0
300
1:10
140
1.0
141
10.0
290
     0
  0
SCALE
  5
4E
102
{ACAD_REACTORS
330
47
102
}
330
47
100
AcDbScale
 70
     0
300
1:16
140
1.0
141
16.0
290
     0
  0
SCALE
  5
4F
102
{ACAD_REACTORS
330
47
102
}
330
47
100
AcDbScale
 70
     0
300
1:20
140
1.0
141
20.0
290
     0
  0
SCALE
  5
50
102
{ACAD_REACTORS
330
47
102
}
330
47
100
AcDbScale
 70
     0
300
1:30
140
1.0
141
30.0
290
     0
  0
SCALE
  5
51
102
{ACAD_REACTORS
330
47
102
}
330
47
100
AcDbScale
 70
     0
300
1:40
140
1.0
141
40.0
290
     0
  0
SCALE
  5
52
102
{ACAD_REACTORS
330
47
102
}
330
47
100
AcDbScale
 70
     0
300
1:50
140
1.0
141
50.0
290
     0
  0
SCALE
  5
53
102
{ACAD_REACTORS
330
47
102
}
330
47
100
AcDbScale
 70
     0
300
1:100
140
1.0
141
100.0
290
     0
  0
SCALE
  5
54
102
{ACAD_REACTORS
330
47
102
}
330
47
100
AcDbScale
 70
     0
300
2:1
140
2.0
141
1.0
290
     0
  0
SCALE
  5
55
102
{ACAD_REACTORS
330
47
102
}
330
47
100
AcDbScale
 70
     0
300
4:1
140
4.0
141
1.0
290
     0
  0
SCALE
  5
56
102
{ACAD_REACTORS
330
47
102
}
330
47
100
AcDbScale
 70
     0
300
8:1
140
8.0
141
1.0
290
     0
  0
SCALE
  5
57
102
{ACAD_REACTORS
330
47
102
}
330
47
100
AcDbScale
 70
     0
300
10:1
140
10.0
141
1.0
290
     0
  0
SCALE
  5
58
102
{ACAD_REACTORS
330
47
102
}
330
47
100
AcDbScale
 70
     0
300
100:1
140
100.0
141
1.0
290
     0
  0
SCALE
  5
59
102
{ACAD_REACTORS
330
47
102
}
330
47
100
AcDbScale
 70
     0
300
1/128" = 1'-0"
140
0.0078125
141
12.0
290
     0
  0
SCALE
  5
5A
102
{ACAD_REACTORS
330
47
102
}
330
47
100
AcDbScale
 70
     0
300
1/64" = 1'-0"
140
0.015625
141
12.0
290
     0
  0
SCALE
  5
5B
102
{ACAD_REACTORS
330
47
102
}
330
47
100
AcDbScale
 70
     0
300
1/32" = 1'-0"
140
0.03125
141
12.0
290
     0
  0
SCALE
  5
5C
102
{ACAD_REACTORS
330
47
102
}
330
47
100
AcDbScale
 70
     0
300
1/16" = 1'-0"
140
0.0625
141
12.0
290
     0
  0
SCALE
  5
5D
102
{ACAD_REACTORS
330
47
102
}
330
47
100
AcDbScale
 70
     0
300
3/32" = 1'-0"
140
0.09375
141
12.0
290
     0
  0
SCALE
  5
5E
102
{ACAD_REACTORS
330
47
102
}
330
47
100
AcDbScale
 70
     0
300
1/8" = 1'-0"
140
0.125
141
12.0
290
     0
  0
SCALE
  5
5F
102
{ACAD_REACTORS
330
47
102
}
330
47
100
AcDbScale
 70
     0
300
3/16" = 1'-0"
140
0.1875
141
12.0
290
     0
  0
SCALE
  5
60
102
{ACAD_REACTORS
330
47
102
}
330
47
100
AcDbScale
 70
     0
300
1/4" = 1'-0"
140
0.25
141
12.0
290
     0
  0
SCALE
  5
61
102
{ACAD_REACTORS
330
47
102
}
330
47
100
AcDbScale
 70
     0
300
3/8" = 1'-0"
140
0.375
141
12.0
290
     0
  0
SCALE
  5
62
102
{ACAD_REACTORS
330
47
102
}
330
47
100
AcDbScale
 70
     0
300
1/2" = 1'-0"
140
0.5
141
12.0
290
     0
  0
SCALE
  5
63
102
{ACAD_REACTORS
330
47
102
}
330
47
100
AcDbScale
 70
     0
300
3/4" = 1'-0"
140
0.75
141
12.0
290
     0
  0
SCALE
  5
64
102
{ACAD_REACTORS
330
47
102
}
330
47
100
AcDbScale
 70
     0
300
1" = 1'-0"
140
1.0
141
12.0
290
     0
  0
SCALE
  5
65
102
{ACAD_REACTORS
330
47
102
}
330
47
100
AcDbScale
 70
     0
300
1-1/2" = 1'-0"
140
1.5
141
12.0
290
     0
  0
SCALE
  5
66
102
{ACAD_REACTORS
330
47
102
}
330
47
100
AcDbScale
 70
     0
300
3" = 1'-0"
140
3.0
141
12.0
290
     0
  0
SCALE
  5
67
102
{ACAD_REACTORS
330
47
102
}
330
47
100
AcDbScale
 70
     0
300
6" = 1'-0"
140
6.0
141
12.0
290
     0
  0
SCALE
  5
68
102
{ACAD_REACTORS
330
47
102
}
330
47
100
AcDbScale
 70
     0
300
1'-0" = 1'-0"
140
12.0
141
12.0
290
     0
  0
ENDSEC
  0
EOF
