  0
SECTION
  2
HEADER
  9
$ACADVER
  1
AC1015
  9
$ACADMAINTVER
 70
     6
  9
$DWGCODEPAGE
  3
ANSI_1252
  9
$INSBASE
 10
0.0
 20
0.0
 30
0.0
  9
$EXTMIN
 10
0.0
 20
0.0
 30
0.0
  9
$EXTMAX
 10
4455.0
 20
3150.0
 30
0.0
  9
$LIMMIN
 10
0.0
 20
0.0
  9
$LIMMAX
 10
4455.0
 20
3150.0
  9
$ORTHOMODE
 70
     0
  9
$REGENMODE
 70
     1
  9
$FILLMODE
 70
     1
  9
$QTEXTMODE
 70
     0
  9
$MIRRTEXT
 70
     1
  9
$LTSCALE
 40
15.0
  9
$ATTMODE
 70
     1
  9
$TEXTSIZE
 40
52.5
  9
$TRACEWID
 40
1.0
  9
$TEXTSTYLE
  7
Standard
  9
$CLAYER
  8
0
  9
$CELTYPE
  6
ByLayer
  9
$CECOLOR
 62
   256
  9
$CELTSCALE
 40
1.0
  9
$DISPSILH
 70
     0
  9
$DIMSCALE
 40
1.0
  9
$DIMASZ
 40
37.5
  9
$DIMEXO
 40
0.0
  9
$DIMDLI
 40
3.75
  9
$DIMRND
 40
0.0
  9
$DIMDLE
 40
0.0
  9
$DIMEXE
 40
15.0
  9
$DIMTP
 40
0.0
  9
$DIMTM
 40
0.0
  9
$DIMTXT
 40
45.0
  9
$DIMCEN
 40
2.5
  9
$DIMTSZ
 40
0.0
  9
$DIMTOL
 70
     0
  9
$DIMLIM
 70
     0
  9
$DIMTIH
 70
     1
  9
$DIMTOH
 70
     1
  9
$DIMSE1
 70
     0
  9
$DIMSE2
 70
     0
  9
$DIMTAD
 70
     1
  9
$DIMZIN
 70
     0
  9
$DIMBLK
  1

  9
$DIMASO
 70
     1
  9
$DIMSHO
 70
     1
  9
$DIMPOST
  1

  9
$DIMAPOST
  1

  9
$DIMALT
 70
     0
  9
$DIMALTD
 70
     3
  9
$DIMALTF
 40
0.0393700787
  9
$DIMLFAC
 40
1.0
  9
$DIMTOFL
 70
     1
  9
$DIMTVP
 40
0.0
  9
$DIMTIX
 70
     0
  9
$DIMSOXD
 70
     0
  9
$DIMSAH
 70
     0
  9
$DIMBLK1
  1

  9
$DIMBLK2
  1

  9
$DIMSTYLE
  2
ISO-25
  9
$DIMCLRD
 70
     0
  9
$DIMCLRE
 70
     0
  9
$DIMCLRT
 70
     0
  9
$DIMTFAC
 40
1.0
  9
$DIMGAP
 40
22.5
  9
$DIMJUST
 70
     0
  9
$DIMSD1
 70
     0
  9
$DIMSD2
 70
     0
  9
$DIMTOLJ
 70
     0
  9
$DIMTZIN
 70
     0
  9
$DIMALTZ
 70
     0
  9
$DIMALTTZ
 70
     0
  9
$DIMUPT
 70
     0
  9
$DIMDEC
 70
     1
  9
$DIMTDEC
 70
     1
  9
$DIMALTU
 70
     2
  9
$DIMALTTD
 70
     3
  9
$DIMTXSTY
  7
Standard
  9
$DIMAUNIT
 70
     0
  9
$DIMADEC
 70
     2
  9
$DIMALTRND
 40
0.0
  9
$DIMAZIN
 70
     0
  9
$DIMDSEP
 70
    44
  9
$DIMATFIT
 70
     3
  9
$DIMFRAC
 70
     0
  9
$DIMLDRBLK
  1

  9
$DIMLUNIT
 70
     2
  9
$DIMLWD
 70
    -2
  9
$DIMLWE
 70
    -2
  9
$DIMTMOVE
 70
     0
  9
$LUNITS
 70
     2
  9
$LUPREC
 70
     2
  9
$SKETCHINC
 40
1.0
  9
$FILLETRAD
 40
10.0
  9
$AUNITS
 70
     0
  9
$AUPREC
 70
     2
  9
$MENU
  1
.
  9
$ELEVATION
 40
0.0
  9
$PELEVATION
 40
0.0
  9
$THICKNESS
 40
0.0
  9
$LIMCHECK
 70
     0
  9
$CHAMFERA
 40
0.0
  9
$CHAMFERB
 40
0.0
  9
$CHAMFERC
 40
0.0
  9
$CHAMFERD
 40
0.0
  9
$SKPOLY
 70
     0
  9
$TDCREATE
 40
2459174.710947836
  9
$TDUCREATE
 40
2459174.669281169
  9
$TDUPDATE
 40
2459174.710948715
  9
$TDUUPDATE
 40
2459174.669282048
  9
$TDINDWG
 40
0.0000000116
  9
$TDUSRTIMER
 40
0.0000000116
  9
$USRTIMER
 70
     1
  9
$ANGBASE
 50
0.0
  9
$ANGDIR
 70
     0
  9
$PDMODE
 70
     0
  9
$PDSIZE
 40
-1.0
  9
$PLINEWID
 40
0.0
  9
$SPLFRAME
 70
     0
  9
$SPLINETYPE
 70
     6
  9
$SPLINESEGS
 70
     8
  9
$HANDSEED
  5
2B0
  9
$SURFTAB1
 70
     6
  9
$SURFTAB2
 70
     6
  9
$SURFTYPE
 70
     6
  9
$SURFU
 70
     6
  9
$SURFV
 70
     6
  9
$UCSBASE
  2

  9
$UCSNAME
  2

  9
$UCSORG
 10
0.0
 20
0.0
 30
0.0
  9
$UCSXDIR
 10
1.0
 20
0.0
 30
0.0
  9
$UCSYDIR
 10
0.0
 20
1.0
 30
0.0
  9
$UCSORTHOREF
  2

  9
$UCSORTHOVIEW
 70
     0
  9
$UCSORGTOP
 10
0.0
 20
0.0
 30
0.0
  9
$UCSORGBOTTOM
 10
0.0
 20
0.0
 30
0.0
  9
$UCSORGLEFT
 10
0.0
 20
0.0
 30
0.0
  9
$UCSORGRIGHT
 10
0.0
 20
0.0
 30
0.0
  9
$UCSORGFRONT
 10
0.0
 20
0.0
 30
0.0
  9
$UCSORGBACK
 10
0.0
 20
0.0
 30
0.0
  9
$PUCSBASE
  2

  9
$PUCSNAME
  2

  9
$PUCSORG
 10
0.0
 20
0.0
 30
0.0
  9
$PUCSXDIR
 10
1.0
 20
0.0
 30
0.0
  9
$PUCSYDIR
 10
0.0
 20
1.0
 30
0.0
  9
$PUCSORTHOREF
  2

  9
$PUCSORTHOVIEW
 70
     0
  9
$PUCSORGTOP
 10
0.0
 20
0.0
 30
0.0
  9
$PUCSORGBOTTOM
 10
0.0
 20
0.0
 30
0.0
  9
$PUCSORGLEFT
 10
0.0
 20
0.0
 30
0.0
  9
$PUCSORGRIGHT
 10
0.0
 20
0.0
 30
0.0
  9
$PUCSORGFRONT
 10
0.0
 20
0.0
 30
0.0
  9
$PUCSORGBACK
 10
0.0
 20
0.0
 30
0.0
  9
$USERI1
 70
     0
  9
$USERI2
 70
     0
  9
$USERI3
 70
     0
  9
$USERI4
 70
     0
  9
$USERI5
 70
     0
  9
$USERR1
 40
0.0
  9
$USERR2
 40
0.0
  9
$USERR3
 40
0.0
  9
$USERR4
 40
0.0
  9
$USERR5
 40
0.0
  9
$WORLDVIEW
 70
     1
  9
$SHADEDGE
 70
     3
  9
$SHADEDIF
 70
    70
  9
$TILEMODE
 70
     1
  9
$MAXACTVP
 70
    64
  9
$PINSBASE
 10
0.0
 20
0.0
 30
0.0
  9
$PLIMCHECK
 70
     0
  9
$PEXTMIN
 10
1.0000000000E+20
 20
1.0000000000E+20
 30
1.0000000000E+20
  9
$PEXTMAX
 10
-1.0000000000E+20
 20
-1.0000000000E+20
 30
-1.0000000000E+20
  9
$PLIMMIN
 10
0.0
 20
0.0
  9
$PLIMMAX
 10
420.0
 20
297.0
  9
$UNITMODE
 70
     0
  9
$VISRETAIN
 70
     1
  9
$PLINEGEN
 70
     0
  9
$PSLTSCALE
 70
     1
  9
$TREEDEPTH
 70
  3020
  9
$CMLSTYLE
  2
Standard
  9
$CMLJUST
 70
     0
  9
$CMLSCALE
 40
20.0
  9
$PROXYGRAPHICS
 70
     1
  9
$MEASUREMENT
 70
     1
  9
$CELWEIGHT
370
    -1
  9
$ENDCAPS
280
     0
  9
$JOINSTYLE
280
     0
  9
$LWDISPLAY
290
     1
  9
$INSUNITS
 70
     4
  9
$HYPERLINKBASE
  1

  9
$STYLESHEET
  1

  9
$XEDIT
290
     1
  9
$CEPSNTYPE
380
     0
  9
$PSTYLEMODE
290
     1
  9
$FINGERPRINTGUID
  2
{eb586600-c1ac-4ffc-812e-532b8c926d29}
  9
$VERSIONGUID
  2
{FAEB1C32-E019-11D5-929B-00C0DF256EC4}
  9
$EXTNAMES
290
     1
  9
$PSVPSCALE
 40
0.0
  9
$OLESTARTUP
290
     0
  0
ENDSEC
  0
SECTION
  2
CLASSES
  0
CLASS
  1
ACDBDICTIONARYWDFLT
  2
AcDbDictionaryWithDefault
  3
ObjectDBX Classes
 90
        0
280
     0
281
     0
  0
CLASS
  1
VISUALSTYLE
  2
AcDbVisualStyle
  3
ObjectDBX Classes
 90
     4095
280
     0
281
     0
  0
CLASS
  1
MATERIAL
  2
AcDbMaterial
  3
ObjectDBX Classes
 90
     1153
280
     0
281
     0
  0
CLASS
  1
SCALE
  2
AcDbScale
  3
ObjectDBX Classes
 90
     1153
280
     0
281
     0
  0
CLASS
  1
TABLESTYLE
  2
AcDbTableStyle
  3
ObjectDBX Classes
 90
     4095
280
     0
281
     0
  0
CLASS
  1
MLEADERSTYLE
  2
AcDbMLeaderStyle
  3
ACDB_MLEADERSTYLE_CLASS
 90
     4095
280
     0
281
     0
  0
CLASS
  1
SUN
  2
AcDbSun
  3
SCENEOE
 90
     1153
280
     0
281
     0
  0
CLASS
  1
ACDBPLACEHOLDER
  2
AcDbPlaceHolder
  3
ObjectDBX Classes
 90
        0
280
     0
281
     0
  0
CLASS
  1
LAYOUT
  2
AcDbLayout
  3
ObjectDBX Classes
 90
        0
280
     0
281
     0
  0
ENDSEC
  0
SECTION
  2
TABLES
  0
TABLE
  2
VPORT
  5
8
330
0
100
AcDbSymbolTable
 70
     1
  0
VPORT
  5
29
330
8
100
AcDbSymbolTableRecord
100
AcDbViewportTableRecord
  2
*Active
 70
     0
 10
0.0
 20
0.0
 11
1.0
 21
1.0
 12
2227.5
 22
1575.0
 13
0.0
 23
0.0
 14
10.0
 24
10.0
 15
10.0
 25
10.0
 16
0.0
 26
0.0
 36
1.0
 17
0.0
 27
0.0
 37
0.0
 40
3150.0
 41
1.4142857143
 42
50.0
 43
0.0
 44
0.0
 50
0.0
 51
0.0
 71
     0
 72
  2000
 73
     1
 74
     3
 75
     0
 76
     0
 77
     0
 78
     0
281
     0
 65
     1
110
0.0
120
0.0
130
0.0
111
1.0
121
0.0
131
0.0
112
0.0
122
1.0
132
0.0
 79
     0
146
0.0
  0
ENDTAB
  0
TABLE
  2
LTYPE
  5
5
330
0
100
AcDbSymbolTable
 70
     6
  0
LTYPE
  5
14
330
5
100
AcDbSymbolTableRecord
100
AcDbLinetypeTableRecord
  2
ByBlock
 70
     0
  3

 72
    65
 73
     0
 40
0.0
  0
LTYPE
  5
15
330
5
100
AcDbSymbolTableRecord
100
AcDbLinetypeTableRecord
  2
ByLayer
 70
     0
  3

 72
    65
 73
     0
 40
0.0
  0
LTYPE
  5
16
330
5
100
AcDbSymbolTableRecord
100
AcDbLinetypeTableRecord
  2
Continuous
 70
     0
  3
Solid line
 72
    65
 73
     0
 40
0.0
  0
LTYPE
  5
6E
330
5
100
AcDbSymbolTableRecord
100
AcDbLinetypeTableRecord
  2
HIDDEN
 70
     0
  3
Hidden __ __ __ __ __ __ __ __ __ __ __ __ __ __
 72
    65
 73
     2
 40
1.905
 49
1.27
 74
     0
 49
-0.635
 74
     0
  0
LTYPE
  5
6F
330
5
100
AcDbSymbolTableRecord
100
AcDbLinetypeTableRecord
  2
PHANTOM
 70
     0
  3
Phantom ______  __  __  ______  __  __  ______
 72
    65
 73
     6
 40
12.7
 49
6.35
 74
     0
 49
-1.27
 74
     0
 49
1.27
 74
     0
 49
-1.27
 74
     0
 49
1.27
 74
     0
 49
-1.27
 74
     0
  0
LTYPE
  5
70
330
5
100
AcDbSymbolTableRecord
100
AcDbLinetypeTableRecord
  2
CENTER
 70
     0
  3
Center ____ _ ____ _ ____ _ ____ _ ____ _ ____
 72
    65
 73
     4
 40
10.16
 49
6.35
 74
     0
 49
-1.27
 74
     0
 49
1.27
 74
     0
 49
-1.27
 74
     0
  0
LTYPE
  5
71
330
5
100
AcDbSymbolTableRecord
100
AcDbLinetypeTableRecord
  2
CENTERX2
 70
     0
  3
Center (2x) ________  __  ________  __  _____
 72
    65
 73
     4
 40
20.32
 49
12.7
 74
     0
 49
-2.54
 74
     0
 49
2.54
 74
     0
 49
-2.54
 74
     0
  0
LTYPE
  5
72
330
5
100
AcDbSymbolTableRecord
100
AcDbLinetypeTableRecord
  2
DOT2
 70
     0
  3
Dot (.5x) ........................................
 72
    65
 73
     2
 40
0.635
 49
0.0
 74
     0
 49
-0.635
 74
     0
  0
ENDTAB
  0
TABLE
  2
LAYER
  5
2
330
0
100
AcDbSymbolTable
 70
     2
  0
LAYER
  5
10
330
2
100
AcDbSymbolTableRecord
100
AcDbLayerTableRecord
  2
0
 70
     0
 62
     7
  6
Continuous
370
    -3
390
F
  0
LAYER
  5
73
330
2
100
AcDbSymbolTableRecord
100
AcDbLayerTableRecord
  2
FORMAT
 70
     0
 62
     7
  6
Continuous
370
    -3
390
F
  0
ENDTAB
  0
TABLE
  2
STYLE
  5
3
330
0
100
AcDbSymbolTable
 70
     2
  0
STYLE
  5
11
330
3
100
AcDbSymbolTableRecord
100
AcDbTextStyleTableRecord
  2
Standard
 70
     0
 40
0.0
 41
1.0
 50
0.0
 71
     0
 42
52.5
  3
txt
  4

  0
STYLE
  5
E7
330
3
100
AcDbSymbolTableRecord
100
AcDbTextStyleTableRecord
  2
SLDTEXTSTYLE0
 70
     0
 40
0.0
 41
0.605
 50
0.0
 71
     0
 42
52.5
  3
TXT
  4

  0
ENDTAB
  0
TABLE
  2
VIEW
  5
6
330
0
100
AcDbSymbolTable
 70
     0
  0
ENDTAB
  0
TABLE
  2
UCS
  5
7
330
0
100
AcDbSymbolTable
 70
     0
  0
ENDTAB
  0
TABLE
  2
APPID
  5
9
330
0
100
AcDbSymbolTable
 70
     1
  0
APPID
  5
12
330
9
100
AcDbSymbolTableRecord
100
AcDbRegAppTableRecord
  2
ACAD
 70
     0
  0
ENDTAB
  0
TABLE
  2
DIMSTYLE
  5
A
330
0
100
AcDbSymbolTable
 70
     1
100
AcDbDimStyleTable
  0
DIMSTYLE
105
27
330
A
100
AcDbSymbolTableRecord
100
AcDbDimStyleTableRecord
  2
ISO-25
 70
     0
 41
2.5
 42
0.625
 43
3.75
 44
1.25
 73
     0
 74
     0
 77
     1
 78
     8
140
2.5
141
2.5
143
0.0393700787
147
0.625
171
     3
172
     1
178
     0
271
     2
272
     2
274
     3
278
    44
283
     0
284
     8
340
11
  0
ENDTAB
  0
TABLE
  2
BLOCK_RECORD
  5
1
330
0
100
AcDbSymbolTable
 70
     2
  0
BLOCK_RECORD
  5
1F
330
1
100
AcDbSymbolTableRecord
100
AcDbBlockTableRecord
  2
*Model_Space
340
22
  0
BLOCK_RECORD
  5
1B
330
1
100
AcDbSymbolTableRecord
100
AcDbBlockTableRecord
  2
*Paper_Space
340
1E
  0
BLOCK_RECORD
  5
23
330
1
100
AcDbSymbolTableRecord
100
AcDbBlockTableRecord
  2
*Paper_Space0
340
26
  0
BLOCK_RECORD
  5
EE
330
1
100
AcDbSymbolTableRecord
100
AcDbBlockTableRecord
  2
SW_NOTE_0
340
0
102
{BLKREFS
331
F3
102
}
  0
ENDTAB
  0
ENDSEC
  0
SECTION
  2
BLOCKS
  0
BLOCK
  5
20
330
1F
100
AcDbEntity
  8
0
100
AcDbBlockBegin
  2
*Model_Space
 70
     0
 10
0.0
 20
0.0
 30
0.0
  3
*Model_Space
  1

  0
ENDBLK
  5
21
330
1F
100
AcDbEntity
  8
0
100
AcDbBlockEnd
  0
BLOCK
  5
1C
330
1B
100
AcDbEntity
 67
     1
  8
0
100
AcDbBlockBegin
  2
*Paper_Space
 70
     0
 10
0.0
 20
0.0
 30
0.0
  3
*Paper_Space
  1

  0
ENDBLK
  5
1D
330
1B
100
AcDbEntity
 67
     1
  8
0
100
AcDbBlockEnd
  0
BLOCK
  5
24
330
23
100
AcDbEntity
  8
0
100
AcDbBlockBegin
  2
*Paper_Space0
 70
     0
 10
0.0
 20
0.0
 30
0.0
  3
*Paper_Space0
  1

  0
ENDBLK
  5
25
330
23
100
AcDbEntity
  8
0
100
AcDbBlockEnd
  0
BLOCK
  5
EF
330
EE
100
AcDbEntity
  8
0
100
AcDbBlockBegin
  2
SW_NOTE_0
 70
     0
 10
0.0
 20
0.0
 30
0.0
  3
SW_NOTE_0
  1

  0
MTEXT
  5
F1
330
EE
100
AcDbEntity
  8
0
  6
Continuous
 62
     0
370
     0
100
AcDbMText
 10
49.359375
 20
34.8048289738
 30
0.0
 40
27.0
 41
0.0
 71
     2
 72
     1
  1
SCALA
  7
SLDTEXTSTYLE0
 73
     1
 44
1.0
  0
MTEXT
  5
F2
330
EE
100
AcDbEntity
  8
0
  6
Continuous
 62
     0
370
     0
100
AcDbMText
 10
53.4147810657
 20
-2.4595061469
 30
0.0
 40
55.5625
 41
0.0
 71
     2
 72
     1
  1
1:1
  7
SLDTEXTSTYLE0
 73
     1
 44
1.0
  0
ENDBLK
  5
F0
330
EE
100
AcDbEntity
  8
0
100
AcDbBlockEnd
  0
ENDSEC
  0
SECTION
  2
ENTITIES
  0
HATCH
  5
74
330
1F
100
AcDbEntity
  8
0
  6
Continuous
 62
     7
100
AcDbHatch
 10
0.0
 20
0.0
 30
0.0
210
0.0
220
0.0
230
1.0
  2
SOLID
 70
     1
 71
     0
 91
        2
 92
        0
 93
        6
 72
     1
 10
3510.364839630325
 20
478.9717232620642
 11
3534.971866308667
 21
478.9717232620642
 72
     3
 10
3526.618147735648
 20
497.9339160554321
 11
40.63327027197528
 21
0.0
 40
0.4768529109443385
 50
293.775699558261
 51
426.2243004403767
 73
     1
 72
     1
 10
3534.971866309184
 20
516.8961088487492
 11
3485.984877466922
 21
516.8961088487492
 72
     1
 10
3485.984877466922
 20
516.8961088487492
 11
3485.984877466922
 21
457.3006457872621
 72
     1
 10
3485.984877466922
 20
457.3006457872621
 11
3510.364839630325
 21
457.3006457872621
 72
     1
 10
3510.364839630325
 20
457.3006457872621
 11
3510.364839630325
 21
478.9717232620642
 97
        0
 92
        0
 93
        6
 72
     3
 10
3525.263705395451
 20
497.9339160554321
 11
14.89886576646227
 21
0.0
 40
0.5895245510672578
 50
316.3365658560249
 51
403.6634341442267
 73
     0
 72
     2
 10
3529.385821470631
 20
500.6428007400895
 40
10.83553873881616
 50
69.99121011132848
 51
90.0
 73
     0
 72
     1
 10
3529.385821470631
 20
489.8072620012733
 11
3510.364839629721
 21
489.8072620012733
 72
     1
 10
3510.364839629721
 20
489.8072620012733
 11
3510.364839629721
 21
506.060570109435
 72
     1
 10
3510.364839629721
 20
506.060570109435
 11
3529.385821471518
 21
506.060570109435
 72
     2
 10
3529.385821471518
 20
495.2250313732109
 40
10.83553873622417
 50
270.0000000000008
 51
290.0087898889544
 73
     0
 97
        0
 75
     0
 76
     1
 98
        1
 10
0.0
 20
0.0
  0
HATCH
  5
75
330
1F
100
AcDbEntity
  8
0
  6
Continuous
 62
     7
100
AcDbHatch
 10
0.0
 20
0.0
 30
0.0
210
0.0
220
0.0
230
1.0
  2
SOLID
 70
     1
 71
     0
 91
        1
 92
        0
 93
       12
 72
     1
 10
3653.935727922185
 20
516.89610884631
 11
3572.669187380694
 21
516.89610884631
 72
     1
 10
3572.669187380694
 20
516.89610884631
 11
3572.669187380694
 21
457.300645784823
 72
     1
 10
3572.669187380694
 20
457.300645784823
 11
3653.935727922185
 21
457.300645784823
 72
     1
 10
3653.935727922185
 20
457.300645784823
 11
3653.935727922185
 21
468.136184519505
 72
     1
 10
3653.935727922185
 20
468.136184519505
 11
3599.758034227767
 21
468.136184519505
 72
     1
 10
3599.758034227767
 20
468.136184519505
 11
3599.758034227767
 21
481.6806079430411
 72
     1
 10
3599.758034227767
 20
481.6806079430411
 11
3648.517958554844
 21
481.6806079430411
 72
     1
 10
3648.517958554844
 20
481.6806079430411
 11
3648.517958554844
 21
492.5161466829075
 72
     1
 10
3648.517958554844
 20
492.5161466829075
 11
3599.758034227767
 21
492.5161466829075
 72
     1
 10
3599.758034227767
 20
492.5161466829075
 11
3599.758034227767
 21
506.0605701064436
 72
     1
 10
3599.758034227767
 20
506.0605701064436
 11
3653.935727922185
 21
506.0605701064436
 72
     1
 10
3653.935727922185
 20
506.0605701064436
 11
3653.935727922185
 21
516.89610884631
 97
        0
 75
     0
 76
     1
 98
        1
 10
0.0
 20
0.0
  0
HATCH
  5
76
330
1F
100
AcDbEntity
  8
0
  6
Continuous
 62
     7
100
AcDbHatch
 10
0.0
 20
0.0
 30
0.0
210
0.0
220
0.0
230
1.0
  2
SOLID
 70
     1
 71
     0
 91
        1
 92
        0
 93
        6
 72
     1
 10
3968.166351360068
 20
516.896108849379
 11
3941.077504512995
 21
516.896108849379
 72
     1
 10
3941.077504512995
 20
516.896108849379
 11
3941.077504512995
 21
457.3006457878918
 72
     1
 10
3941.077504512995
 20
457.3006457878918
 11
4014.217391003474
 21
457.3006457878918
 72
     1
 10
4014.217391003474
 20
457.3006457878918
 11
4014.217391003474
 21
470.8450692114284
 72
     1
 10
4014.217391003474
 20
470.8450692114284
 11
3968.166351360068
 21
470.8450692114284
 72
     1
 10
3968.166351360068
 20
470.8450692114284
 11
3968.166351360068
 21
516.896108849379
 97
        0
 75
     0
 76
     1
 98
        1
 10
0.0
 20
0.0
  0
HATCH
  5
77
330
1F
100
AcDbEntity
  8
0
  6
Continuous
 62
     7
100
AcDbHatch
 10
0.0
 20
0.0
 30
0.0
210
0.0
220
0.0
230
1.0
  2
SOLID
 70
     1
 71
     0
 91
        1
 92
        0
 93
        4
 72
     1
 10
4016.926275686005
 20
516.8961088487489
 11
4016.926275686005
 21
457.3006457872619
 72
     1
 10
4016.926275686005
 20
457.3006457872619
 11
4044.015122533078
 21
457.3006457872619
 72
     1
 10
4044.015122533078
 20
457.3006457872619
 11
4044.015122533078
 21
516.8961088487489
 72
     1
 10
4044.015122533078
 20
516.8961088487489
 11
4016.926275686005
 21
516.8961088487489
 97
        0
 75
     0
 76
     1
 98
        1
 10
0.0
 20
0.0
  0
HATCH
  5
78
330
1F
100
AcDbEntity
  8
0
  6
Continuous
 62
     7
100
AcDbHatch
 10
0.0
 20
0.0
 30
0.0
210
0.0
220
0.0
230
1.0
  2
SOLID
 70
     1
 71
     0
 91
        2
 92
        0
 93
        4
 72
     3
 10
3702.695652247627
 20
487.0983773139296
 11
43.3421549567338
 21
0.0
 40
0.6929224243374511
 50
280.2934314618138
 51
439.7065685387132
 73
     1
 72
     1
 10
3708.107289002345
 20
516.8961088463723
 11
3659.353497294997
 21
516.896108846372
 72
     1
 10
3659.353497294997
 20
516.896108846372
 11
3659.353497294997
 21
457.3006457815111
 72
     1
 10
3659.353497294997
 20
457.3006457815111
 11
3708.107289002623
 21
457.3006457815111
 97
        0
 92
        0
 93
        6
 72
     2
 10
3709.420759151997
 20
487.0983773132712
 40
16.25330810997023
 50
56.16906508602241
 51
90.0
 73
     0
 72
     1
 10
3709.420759151997
 20
470.8450692033011
 11
3683.73345945474
 21
470.8450692033011
 72
     1
 10
3683.73345945474
 20
470.8450692033011
 11
3683.73345945474
 21
503.3516854240493
 72
     1
 10
3683.73345945474
 20
503.3516854240493
 11
3709.420759151997
 21
503.3516854240493
 72
     2
 10
3709.420759151997
 20
487.0983773132712
 40
16.25330811077806
 50
270.0000000000008
 51
303.8314447476084
 73
     0
 72
     3
 10
3693.214555856416
 20
487.0983773139296
 11
33.86105856006918
 21
0.0
 40
0.5985848325441406
 50
331.8713554011804
 51
388.1288999924611
 73
     0
 97
        0
 75
     0
 76
     1
 98
        1
 10
0.0
 20
0.0
  0
HATCH
  5
79
330
1F
100
AcDbEntity
  8
0
  6
Continuous
 62
     7
100
AcDbHatch
 10
0.0
 20
0.0
 30
0.0
210
0.0
220
0.0
230
1.0
  2
SOLID
 70
     1
 71
     0
 91
        3
 92
        0
 93
       19
 72
     1
 10
3838.305303288919
 20
472.1564369380282
 11
3840.533301976077
 21
463.4514816274054
 72
     2
 10
3848.180349956368
 20
465.1715759510745
 40
7.838116310390116
 50
192.676878510139
 51
204.7368873206727
 73
     1
 72
     1
 10
3841.061467316795
 20
461.891701371279
 11
3876.06427207871
 21
516.896108849379
 72
     1
 10
3876.06427207871
 20
516.896108849379
 11
3903.153118925783
 21
516.896108849379
 72
     1
 10
3903.153118925783
 20
516.896108849379
 11
3941.077504512995
 21
457.3006457878918
 72
     1
 10
3941.077504512995
 20
457.3006457878918
 11
3913.988657665649
 21
457.3006457878918
 72
     1
 10
3913.988657665649
 20
457.3006457878918
 11
3907.893667124934
 21
468.136184522574
 72
     1
 10
3907.893667124934
 20
468.136184522574
 11
3871.323723879558
 21
468.136184522574
 72
     1
 10
3871.323723879558
 20
468.136184522574
 11
3865.228733338844
 21
457.3006457878918
 72
     1
 10
3865.228733338844
 20
457.3006457878918
 11
3819.177693694659
 21
457.3006457878918
 72
     1
 10
3819.177693694659
 20
457.3006457878918
 11
3819.177693694659
 21
468.1361845239816
 72
     2
 10
3808.342154954792
 20
468.1361845239816
 40
10.83553873986634
 50
0.0
 51
90.0
 73
     1
 72
     1
 10
3808.342154954792
 20
478.9717232638475
 11
3781.253308107446
 21
478.9717232638475
 72
     1
 10
3781.253308107446
 20
478.9717232638475
 11
3781.253308107446
 21
457.3006457892997
 72
     1
 10
3781.253308107446
 20
457.3006457892997
 11
3756.873345944045
 21
457.3006457892997
 72
     1
 10
3756.873345944045
 20
457.3006457892997
 11
3756.873345944045
 21
516.8961088507866
 72
     1
 10
3756.873345944045
 20
516.8961088507866
 11
3813.02888745868
 21
516.8961088507866
 72
     3
 10
3807.044921560378
 20
499.4046031234453
 11
36.48999933802743
 21
0.0
 40
0.4859291160023138
 50
288.8861745463018
 51
398.6942257036358
 73
     0
 72
     2
 10
3823.556377394376
 20
469.4441941062505
 40
14.99623540163429
 50
279.2678272406091
 51
349.5800515720783
 73
     0
 97
        0
 92
        0
 93
        3
 72
     1
 10
3889.608695501106
 20
500.6428007391028
 11
3877.418714419404
 21
478.9717232593709
 72
     1
 10
3877.418714419404
 20
478.9717232593709
 11
3901.798676582808
 21
478.9717232593709
 72
     1
 10
3901.798676582808
 20
478.9717232593709
 11
3889.608695501106
 21
500.6428007391028
 97
        0
 92
        0
 93
        6
 72
     2
 10
3807.717258628007
 20
497.933916056143
 40
8.126654055321543
 50
270.0000000000008
 51
305.5869104965617
 73
     1
 72
     3
 10
3798.861058561583
 20
497.9339160554321
 11
17.6077504512262
 21
0.0
 40
0.5900077182209744
 50
334.0585416903787
 51
385.9414583083991
 73
     1
 72
     2
 10
3807.717258628007
 20
497.933916056143
 40
8.126654054164838
 50
54.41308949502037
 51
90.0
 73
     1
 72
     1
 10
3807.717258628007
 20
506.0605701103083
 11
3781.253308106577
 21
506.0605701103083
 72
     1
 10
3781.253308106577
 20
506.0605701103083
 11
3781.253308106577
 21
489.807262000821
 72
     1
 10
3781.253308106577
 20
489.807262000821
 11
3807.717258628007
 21
489.8072620008215
 97
        0
 75
     0
 76
     1
 98
        1
 10
0.0
 20
0.0
  0
LINE
  5
7A
330
1F
100
AcDbEntity
  8
0
  6
Continuous
 62
     7
370
    25
100
AcDbLine
 10
4305.0
 20
150.0
 30
0.0
 11
4305.0
 21
3000.0
 31
0.0
  0
LINE
  5
7B
330
1F
100
AcDbEntity
  8
0
  6
Continuous
 62
   179
370
    18
100
AcDbLine
 10
3485.9848774669
 20
516.8961088487
 30
0.0
 11
3485.9848774669
 21
457.3006457873
 31
0.0
  0
LINE
  5
7C
330
1F
100
AcDbEntity
  8
0
  6
Continuous
 62
   179
370
    18
100
AcDbLine
 10
3485.9848774669
 20
516.8961088487
 30
0.0
 11
3534.9718663092
 21
516.8961088487
 31
0.0
  0
LINE
  5
7D
330
1F
100
AcDbEntity
  8
0
  6
Continuous
 62
   179
370
    18
100
AcDbLine
 10
3485.9848774669
 20
457.3006457873
 30
0.0
 11
3510.3648396303
 21
457.3006457873
 31
0.0
  0
LINE
  5
7E
330
1F
100
AcDbEntity
  8
0
  6
Continuous
 62
   179
370
    18
100
AcDbLine
 10
3510.3648396303
 20
457.3006457873
 30
0.0
 11
3510.3648396303
 21
478.9717232621
 31
0.0
  0
LINE
  5
7F
330
1F
100
AcDbEntity
  8
0
  6
Continuous
 62
   179
370
    18
100
AcDbLine
 10
3534.9718663087
 20
478.9717232621
 30
0.0
 11
3510.3648396303
 21
478.9717232621
 31
0.0
  0
LINE
  5
80
330
1F
100
AcDbEntity
  8
0
  6
Continuous
 62
   179
370
    18
100
AcDbLine
 10
3510.3648396297
 20
489.8072620013
 30
0.0
 11
3510.3648396297
 21
506.0605701094
 31
0.0
  0
LINE
  5
81
330
1F
100
AcDbEntity
  8
0
  6
Continuous
 62
   179
370
    18
100
AcDbLine
 10
3510.3648396297
 20
506.0605701094
 30
0.0
 11
3529.3858214715
 21
506.0605701094
 31
0.0
  0
LINE
  5
82
330
1F
100
AcDbEntity
  8
0
  6
Continuous
 62
   179
370
    18
100
AcDbLine
 10
3510.3648396297
 20
489.8072620013
 30
0.0
 11
3529.3858214706
 21
489.8072620013
 31
0.0
  0
LINE
  5
83
330
1F
100
AcDbEntity
  8
0
  6
Continuous
 62
   179
370
    18
100
AcDbLine
 10
3572.6691873807
 20
516.8961088463
 30
0.0
 11
3653.9357279222
 21
516.8961088463
 31
0.0
  0
LINE
  5
84
330
1F
100
AcDbEntity
  8
0
  6
Continuous
 62
   179
370
    18
100
AcDbLine
 10
3653.9357279222
 20
516.8961088463
 30
0.0
 11
3653.9357279222
 21
506.0605701064
 31
0.0
  0
LINE
  5
85
330
1F
100
AcDbEntity
  8
0
  6
Continuous
 62
   179
370
    18
100
AcDbLine
 10
3653.9357279222
 20
506.0605701064
 30
0.0
 11
3599.7580342278
 21
506.0605701064
 31
0.0
  0
LINE
  5
86
330
1F
100
AcDbEntity
  8
0
  6
Continuous
 62
   179
370
    18
100
AcDbLine
 10
3599.7580342278
 20
506.0605701064
 30
0.0
 11
3599.7580342278
 21
492.5161466829
 31
0.0
  0
LINE
  5
87
330
1F
100
AcDbEntity
  8
0
  6
Continuous
 62
   179
370
    18
100
AcDbLine
 10
3599.7580342278
 20
492.5161466829
 30
0.0
 11
3648.5179585548
 21
492.5161466829
 31
0.0
  0
LINE
  5
88
330
1F
100
AcDbEntity
  8
0
  6
Continuous
 62
   179
370
    18
100
AcDbLine
 10
3648.5179585548
 20
492.5161466829
 30
0.0
 11
3648.5179585548
 21
481.680607943
 31
0.0
  0
LINE
  5
89
330
1F
100
AcDbEntity
  8
0
  6
Continuous
 62
   179
370
    18
100
AcDbLine
 10
3648.5179585548
 20
481.680607943
 30
0.0
 11
3599.7580342278
 21
481.680607943
 31
0.0
  0
LINE
  5
8A
330
1F
100
AcDbEntity
  8
0
  6
Continuous
 62
   179
370
    18
100
AcDbLine
 10
3599.7580342278
 20
481.680607943
 30
0.0
 11
3599.7580342278
 21
468.1361845195
 31
0.0
  0
LINE
  5
8B
330
1F
100
AcDbEntity
  8
0
  6
Continuous
 62
   179
370
    18
100
AcDbLine
 10
3599.7580342278
 20
468.1361845195
 30
0.0
 11
3653.9357279222
 21
468.1361845195
 31
0.0
  0
LINE
  5
8C
330
1F
100
AcDbEntity
  8
0
  6
Continuous
 62
   179
370
    18
100
AcDbLine
 10
3653.9357279222
 20
468.1361845195
 30
0.0
 11
3653.9357279222
 21
457.3006457848
 31
0.0
  0
LINE
  5
8D
330
1F
100
AcDbEntity
  8
0
  6
Continuous
 62
   179
370
    18
100
AcDbLine
 10
3653.9357279222
 20
457.3006457848
 30
0.0
 11
3572.6691873807
 21
457.3006457848
 31
0.0
  0
LINE
  5
8E
330
1F
100
AcDbEntity
  8
0
  6
Continuous
 62
   179
370
    18
100
AcDbLine
 10
3659.353497295
 20
516.8961088464
 30
0.0
 11
3659.353497295
 21
457.3006457815
 31
0.0
  0
LINE
  5
8F
330
1F
100
AcDbEntity
  8
0
  6
Continuous
 62
   179
370
    18
100
AcDbLine
 10
3659.353497295
 20
516.8961088464
 30
0.0
 11
3708.1072890023
 21
516.8961088464
 31
0.0
  0
LINE
  5
90
330
1F
100
AcDbEntity
  8
0
  6
Continuous
 62
   179
370
    18
100
AcDbLine
 10
3708.1072890026
 20
457.3006457815
 30
0.0
 11
3659.353497295
 21
457.3006457815
 31
0.0
  0
LINE
  5
91
330
1F
100
AcDbEntity
  8
0
  6
Continuous
 62
   179
370
    18
100
AcDbLine
 10
3683.7334594547
 20
487.0983773105
 30
0.0
 11
3683.7334594547
 21
470.8450692033
 31
0.0
  0
LINE
  5
92
330
1F
100
AcDbEntity
  8
0
  6
Continuous
 62
   179
370
    18
100
AcDbLine
 10
3683.7334594547
 20
470.8450692033
 30
0.0
 11
3709.420759152
 21
470.8450692033
 31
0.0
  0
LINE
  5
93
330
1F
100
AcDbEntity
  8
0
  6
Continuous
 62
   179
370
    18
100
AcDbLine
 10
3683.7334594547
 20
487.0983773105
 30
0.0
 11
3683.7334594547
 21
503.351685424
 31
0.0
  0
LINE
  5
94
330
1F
100
AcDbEntity
  8
0
  6
Continuous
 62
   179
370
    18
100
AcDbLine
 10
3683.7334594547
 20
503.351685424
 30
0.0
 11
3709.420759152
 21
503.351685424
 31
0.0
  0
LINE
  5
95
330
1F
100
AcDbEntity
  8
0
  6
Continuous
 62
   179
370
    18
100
AcDbLine
 10
3756.873345944
 20
516.8961088508
 30
0.0
 11
3756.873345944
 21
457.3006457893
 31
0.0
  0
LINE
  5
96
330
1F
100
AcDbEntity
  8
0
  6
Continuous
 62
     7
370
    18
100
AcDbLine
 10
4093.1984921262
 20
420.0000000006
 30
0.0
 11
4093.1984921262
 21
285.0000000003
 31
0.0
  0
LINE
  5
97
330
1F
100
AcDbEntity
  8
0
  6
Continuous
 62
   179
370
    18
100
AcDbLine
 10
3756.873345944
 20
457.3006457893
 30
0.0
 11
3781.2533081074
 21
457.3006457893
 31
0.0
  0
LINE
  5
98
330
1F
100
AcDbEntity
  8
0
  6
Continuous
 62
   179
370
    18
100
AcDbLine
 10
3781.2533081074
 20
457.3006457893
 30
0.0
 11
3781.2533081074
 21
478.9717232638
 31
0.0
  0
LINE
  5
99
330
1F
100
AcDbEntity
  8
0
  6
Continuous
 62
   179
370
    18
100
AcDbLine
 10
3781.2533081074
 20
478.9717232638
 30
0.0
 11
3808.3421549548
 21
478.9717232638
 31
0.0
  0
LINE
  5
9A
330
1F
100
AcDbEntity
  8
0
  6
Continuous
 62
   179
370
    18
100
AcDbLine
 10
3819.1776936947
 20
468.136184524
 30
0.0
 11
3819.1776936947
 21
457.3006457879
 31
0.0
  0
LINE
  5
9B
330
1F
100
AcDbEntity
  8
0
  6
Continuous
 62
   179
370
    18
100
AcDbLine
 10
3781.2533081066
 20
489.8072620008
 30
0.0
 11
3781.2533081066
 21
506.0605701103
 31
0.0
  0
LINE
  5
9C
330
1F
100
AcDbEntity
  8
0
  6
Continuous
 62
   179
370
    18
100
AcDbLine
 10
3781.2533081066
 20
506.0605701103
 30
0.0
 11
3807.717258628
 21
506.0605701103
 31
0.0
  0
LINE
  5
9D
330
1F
100
AcDbEntity
  8
0
  6
Continuous
 62
   179
370
    18
100
AcDbLine
 10
3781.2533081066
 20
489.8072620008
 30
0.0
 11
3807.717258628
 21
489.8072620008
 31
0.0
  0
LINE
  5
9E
330
1F
100
AcDbEntity
  8
0
  6
Continuous
 62
   179
370
    18
100
AcDbLine
 10
3838.3053032889
 20
472.156436938
 30
0.0
 11
3840.5333019761
 21
463.4514816274
 31
0.0
  0
LINE
  5
9F
330
1F
100
AcDbEntity
  8
0
  6
Continuous
 62
     7
370
    25
100
AcDbLine
 10
4305.0
 20
3000.0
 30
0.0
 11
150.0
 21
3000.0
 31
0.0
  0
LINE
  5
A0
330
1F
100
AcDbEntity
  8
0
  6
Continuous
 62
     7
370
    18
100
AcDbLine
 10
4093.1984921262
 20
285.0000000003
 30
0.0
 11
4093.1984921262
 21
150.0
 31
0.0
  0
LINE
  5
A1
330
1F
100
AcDbEntity
  8
0
  6
Continuous
 62
     7
370
    25
100
AcDbLine
 10
150.0
 20
3000.0
 30
0.0
 11
150.0
 21
150.0
 31
0.0
  0
LINE
  5
A2
330
1F
100
AcDbEntity
  8
0
  6
Continuous
 62
     7
370
    25
100
AcDbLine
 10
3225.0
 20
555.0000000009
 30
0.0
 11
4305.0
 21
555.0000000009
 31
0.0
  0
LINE
  5
A3
330
1F
100
AcDbEntity
  8
0
  6
Continuous
 62
    19
370
    18
100
AcDbLine
 10
4192.9326190259
 20
240.4182064643
 30
0.0
 11
4145.1273994681
 21
231.1227471059
 31
0.0
  0
LINE
  5
A4
330
1F
100
AcDbEntity
  8
0
  6
Continuous
 62
    19
370
    18
100
AcDbLine
 10
4232.0258777281
 20
248.2322360861
 30
0.0
 11
4232.0258777281
 21
187.321545177
 31
0.0
  0
LINE
  5
A5
330
1F
100
AcDbEntity
  8
0
  6
Continuous
 62
    19
370
    18
100
AcDbLine
 10
4192.9326190259
 20
240.4182064643
 30
0.0
 11
4192.9326190259
 21
195.1355747988
 31
0.0
  0
LINE
  5
A6
330
1F
100
AcDbEntity
  8
0
  6
Continuous
 62
     7
370
    25
100
AcDbLine
 10
150.0
 20
150.0
 30
0.0
 11
4305.0
 21
150.0
 31
0.0
  0
LINE
  5
A7
330
1F
100
AcDbEntity
  8
0
  6
Continuous
 62
    19
370
    18
100
AcDbLine
 10
4145.1273994681
 20
231.1227471059
 30
0.0
 11
4145.1273994681
 21
204.4310341572
 31
0.0
  0
LINE
  5
A8
330
1F
100
AcDbEntity
  8
0
  6
Continuous
 62
   179
370
    18
100
AcDbLine
 10
3819.1776936947
 20
457.3006457879
 30
0.0
 11
3865.2287333388
 21
457.3006457879
 31
0.0
  0
LINE
  5
A9
330
1F
100
AcDbEntity
  8
0
  6
Continuous
 62
    19
370
    18
100
AcDbLine
 10
4192.9326190259
 20
195.1355747988
 30
0.0
 11
4145.1273994681
 21
204.4310341572
 31
0.0
  0
LINE
  5
AA
330
1F
100
AcDbEntity
  8
0
  6
CENTERX2
 62
    19
370
    18
100
AcDbLine
 10
4258.3810686372
 20
217.7768906315
 30
0.0
 11
4139.1778035964
 21
217.7768906315
 31
0.0
  0
LINE
  5
AB
330
1F
100
AcDbEntity
  8
0
  6
Continuous
 62
   179
370
    18
100
AcDbLine
 10
3756.873345944
 20
516.8961088508
 30
0.0
 11
3813.0288874587
 21
516.8961088508
 31
0.0
  0
LINE
  5
AC
330
1F
100
AcDbEntity
  8
0
  6
Continuous
 62
   179
370
    18
100
AcDbLine
 10
3572.6691873807
 20
516.8961088463
 30
0.0
 11
3572.6691873807
 21
457.3006457848
 31
0.0
  0
LINE
  5
AD
330
1F
100
AcDbEntity
  8
0
  6
Continuous
 62
   179
370
    18
100
AcDbLine
 10
3876.0642720787
 20
516.8961088494
 30
0.0
 11
3903.1531189258
 21
516.8961088494
 31
0.0
  0
LINE
  5
AE
330
1F
100
AcDbEntity
  8
0
  6
Continuous
 62
   179
370
    18
100
AcDbLine
 10
3876.0642720787
 20
516.8961088494
 30
0.0
 11
3841.0614673168
 21
461.8917013713
 31
0.0
  0
LINE
  5
AF
330
1F
100
AcDbEntity
  8
0
  6
Continuous
 62
   179
370
    18
100
AcDbLine
 10
3865.2287333388
 20
457.3006457879
 30
0.0
 11
3871.3237238796
 21
468.1361845226
 31
0.0
  0
LINE
  5
B0
330
1F
100
AcDbEntity
  8
0
  6
Continuous
 62
   179
370
    18
100
AcDbLine
 10
3889.6086955011
 20
500.6428007391
 30
0.0
 11
3901.7986765828
 21
478.9717232594
 31
0.0
  0
LINE
  5
B1
330
1F
100
AcDbEntity
  8
0
  6
Continuous
 62
   179
370
    18
100
AcDbLine
 10
3877.4187144194
 20
478.9717232594
 30
0.0
 11
3889.6086955011
 21
500.6428007391
 31
0.0
  0
LINE
  5
B2
330
1F
100
AcDbEntity
  8
0
  6
Continuous
 62
   179
370
    18
100
AcDbLine
 10
3877.4187144194
 20
478.9717232594
 30
0.0
 11
3901.7986765828
 21
478.9717232594
 31
0.0
  0
LINE
  5
B3
330
1F
100
AcDbEntity
  8
0
  6
Continuous
 62
   179
370
    18
100
AcDbLine
 10
3871.3237238796
 20
468.1361845226
 30
0.0
 11
3907.8936671249
 21
468.1361845226
 31
0.0
  0
LINE
  5
B4
330
1F
100
AcDbEntity
  8
0
  6
Continuous
 62
   179
370
    18
100
AcDbLine
 10
3907.8936671249
 20
468.1361845226
 30
0.0
 11
3913.9886576656
 21
457.3006457879
 31
0.0
  0
LINE
  5
B5
330
1F
100
AcDbEntity
  8
0
  6
Continuous
 62
   179
370
    18
100
AcDbLine
 10
3941.077504513
 20
516.8961088494
 30
0.0
 11
3941.077504513
 21
457.3006457879
 31
0.0
  0
LINE
  5
B6
330
1F
100
AcDbEntity
  8
0
  6
Continuous
 62
   179
370
    18
100
AcDbLine
 10
3903.1531189258
 20
516.8961088494
 30
0.0
 11
3941.077504513
 21
457.3006457879
 31
0.0
  0
LINE
  5
B7
330
1F
100
AcDbEntity
  8
0
  6
Continuous
 62
   179
370
    18
100
AcDbLine
 10
3913.9886576656
 20
457.3006457879
 30
0.0
 11
3941.077504513
 21
457.3006457879
 31
0.0
  0
LINE
  5
B8
330
1F
100
AcDbEntity
  8
0
  6
Continuous
 62
   179
370
    18
100
AcDbLine
 10
3941.077504513
 20
457.3006457879
 30
0.0
 11
4014.2173910035
 21
457.3006457879
 31
0.0
  0
LINE
  5
B9
330
1F
100
AcDbEntity
  8
0
  6
Continuous
 62
   179
370
    18
100
AcDbLine
 10
4014.2173910035
 20
457.3006457879
 30
0.0
 11
4014.2173910035
 21
470.8450692114
 31
0.0
  0
LINE
  5
BA
330
1F
100
AcDbEntity
  8
0
  6
Continuous
 62
   179
370
    18
100
AcDbLine
 10
4014.2173910035
 20
470.8450692114
 30
0.0
 11
3968.1663513601
 21
470.8450692114
 31
0.0
  0
LINE
  5
BB
330
1F
100
AcDbEntity
  8
0
  6
Continuous
 62
   179
370
    18
100
AcDbLine
 10
3968.1663513601
 20
470.8450692114
 30
0.0
 11
3968.1663513601
 21
516.8961088494
 31
0.0
  0
LINE
  5
BC
330
1F
100
AcDbEntity
  8
0
  6
Continuous
 62
   179
370
    18
100
AcDbLine
 10
3941.077504513
 20
516.8961088494
 30
0.0
 11
3968.1663513601
 21
516.8961088494
 31
0.0
  0
LINE
  5
BD
330
1F
100
AcDbEntity
  8
0
  6
Continuous
 62
   179
370
    18
100
AcDbLine
 10
4016.926275686
 20
516.8961088487
 30
0.0
 11
4016.926275686
 21
457.3006457873
 31
0.0
  0
LINE
  5
BE
330
1F
100
AcDbEntity
  8
0
  6
Continuous
 62
   179
370
    18
100
AcDbLine
 10
4044.0151225331
 20
516.8961088487
 30
0.0
 11
4044.0151225331
 21
457.3006457873
 31
0.0
  0
LINE
  5
BF
330
1F
100
AcDbEntity
  8
0
  6
Continuous
 62
   179
370
    18
100
AcDbLine
 10
4016.926275686
 20
516.8961088487
 30
0.0
 11
4044.0151225331
 21
516.8961088487
 31
0.0
  0
LINE
  5
C0
330
1F
100
AcDbEntity
  8
0
  6
Continuous
 62
   179
370
    18
100
AcDbLine
 10
4016.926275686
 20
457.3006457873
 30
0.0
 11
4044.0151225331
 21
457.3006457873
 31
0.0
  0
LINE
  5
C1
330
1F
100
AcDbEntity
  8
0
  6
Continuous
 62
   179
370
    18
100
AcDbLine
 10
4056.1727466361
 20
511.9395831343
 30
0.0
 11
4062.4300319759
 21
511.9395831343
 31
0.0
  0
LINE
  5
C2
330
1F
100
AcDbEntity
  8
0
  6
Continuous
 62
   179
370
    18
100
AcDbLine
 10
4062.4300319759
 20
507.8762561058
 30
0.0
 11
4056.1727466361
 21
507.8762561058
 31
0.0
  0
LINE
  5
C3
330
1F
100
AcDbEntity
  8
0
  6
Continuous
 62
   179
370
    18
100
AcDbLine
 10
4056.1727466361
 20
507.8762561058
 30
0.0
 11
4056.1727466361
 21
511.9395831343
 31
0.0
  0
LINE
  5
C4
330
1F
100
AcDbEntity
  8
0
  6
Continuous
 62
   179
370
    18
100
AcDbLine
 10
4056.1727466361
 20
507.8762561058
 30
0.0
 11
4060.2360736616
 21
507.8762561058
 31
0.0
  0
LINE
  5
C5
330
1F
100
AcDbEntity
  8
0
  6
Continuous
 62
   179
370
    18
100
AcDbLine
 10
4056.1727466361
 20
507.8762561058
 30
0.0
 11
4056.1727466361
 21
501.7812655676
 31
0.0
  0
LINE
  5
C6
330
1F
100
AcDbEntity
  8
0
  6
Continuous
 62
   179
370
    18
100
AcDbLine
 10
4064.2994006871
 20
501.7812655676
 30
0.0
 11
4060.2360736616
 21
507.8762561058
 31
0.0
  0
LINE
  5
C7
330
1F
100
AcDbEntity
  8
0
  6
Continuous
 62
     7
370
    18
100
AcDbLine
 10
3225.0
 20
285.0000000003
 30
0.0
 11
4305.0
 21
285.0000000003
 31
0.0
  0
LINE
  5
C8
330
1F
100
AcDbEntity
  8
0
  6
Continuous
 62
     7
370
    18
100
AcDbLine
 10
4305.0
 20
420.0000000006
 30
0.0
 11
3225.0
 21
420.0000000006
 31
0.0
  0
LINE
  5
C9
330
1F
100
AcDbEntity
  8
0
  6
Continuous
 62
     7
370
    18
100
AcDbLine
 10
150.0
 20
825.0
 30
0.0
 11
150.0
 21
975.0
 31
0.0
  0
LINE
  5
CA
330
1F
100
AcDbEntity
  8
0
  6
Continuous
 62
     7
370
    18
100
AcDbLine
 10
150.0
 20
975.0
 30
0.0
 11
150.0
 21
1125.0
 31
0.0
  0
LINE
  5
CB
330
1F
100
AcDbEntity
  8
0
  6
Continuous
 62
     7
370
    18
100
AcDbLine
 10
150.0
 20
1125.0
 30
0.0
 11
150.0
 21
1275.0
 31
0.0
  0
LINE
  5
CC
330
1F
100
AcDbEntity
  8
0
  6
Continuous
 62
     7
370
    18
100
AcDbLine
 10
150.0
 20
1275.0
 30
0.0
 11
150.0
 21
1425.0
 31
0.0
  0
LINE
  5
CD
330
1F
100
AcDbEntity
  8
0
  6
Continuous
 62
     7
370
    18
100
AcDbLine
 10
150.0
 20
1425.0
 30
0.0
 11
150.0
 21
1575.0
 31
0.0
  0
LINE
  5
CE
330
1F
100
AcDbEntity
  8
0
  6
Continuous
 62
     7
370
    18
100
AcDbLine
 10
150.0
 20
1575.0
 30
0.0
 11
150.0
 21
1725.0
 31
0.0
  0
LINE
  5
CF
330
1F
100
AcDbEntity
  8
0
  6
Continuous
 62
     7
370
    18
100
AcDbLine
 10
150.0
 20
1725.0
 30
0.0
 11
150.0
 21
1875.0
 31
0.0
  0
LINE
  5
D0
330
1F
100
AcDbEntity
  8
0
  6
Continuous
 62
     7
370
    18
100
AcDbLine
 10
150.0
 20
1875.0
 30
0.0
 11
150.0
 21
2025.0
 31
0.0
  0
LINE
  5
D1
330
1F
100
AcDbEntity
  8
0
  6
Continuous
 62
     7
370
    18
100
AcDbLine
 10
150.0
 20
2025.0
 30
0.0
 11
150.0
 21
2175.0
 31
0.0
  0
LINE
  5
D2
330
1F
100
AcDbEntity
  8
0
  6
Continuous
 62
     7
370
    18
100
AcDbLine
 10
150.0
 20
2175.0
 30
0.0
 11
150.0
 21
2325.0
 31
0.0
  0
LINE
  5
D3
330
1F
100
AcDbEntity
  8
0
  6
Continuous
 62
     7
370
    25
100
AcDbLine
 10
3225.0
 20
555.0000000009
 30
0.0
 11
3225.0
 21
150.0
 31
0.0
  0
ARC
  5
D4
330
1F
100
AcDbEntity
  8
0
  6
Continuous
 62
   179
370
    18
100
AcDbCircle
 10
3529.3858214715
 20
495.2250313732
 30
0.0
 40
10.83553873622431
100
AcDbArc
 50
69.991210111
 51
90.0
  0
ARC
  5
D5
330
1F
100
AcDbEntity
  8
0
  6
Continuous
 62
   179
370
    18
100
AcDbCircle
 10
3529.3858214706
 20
500.6428007401
 30
0.0
 40
10.83553873881613
100
AcDbArc
 50
270.0
 51
290.0087898887
  0
ARC
  5
D6
330
1F
100
AcDbEntity
  8
0
  6
Continuous
 62
   179
370
    18
100
AcDbCircle
 10
3709.420759152
 20
487.0983773133
 30
0.0
 40
16.25330811077811
100
AcDbArc
 50
56.1685552524
 51
90.0
  0
ARC
  5
D7
330
1F
100
AcDbEntity
  8
0
  6
Continuous
 62
   179
370
    18
100
AcDbCircle
 10
3709.420759152
 20
487.0983773133
 30
0.0
 40
16.2533081099705
100
AcDbArc
 50
270.0
 51
303.830934914
  0
ARC
  5
D8
330
1F
100
AcDbEntity
  8
0
  6
Continuous
 62
   179
370
    18
100
AcDbCircle
 10
3808.3421549548
 20
468.136184524
 30
0.0
 40
10.83553873986693
100
AcDbArc
 50
0.0
 51
90.0
  0
ARC
  5
D9
330
1F
100
AcDbEntity
  8
0
  6
Continuous
 62
   179
370
    18
100
AcDbCircle
 10
3807.717258628
 20
497.9339160561
 30
0.0
 40
8.126654054165272
100
AcDbArc
 50
54.413089495
 51
90.0
  0
ARC
  5
DA
330
1F
100
AcDbEntity
  8
0
  6
Continuous
 62
   179
370
    18
100
AcDbCircle
 10
3807.717258628
 20
497.9339160561
 30
0.0
 40
8.126654055322035
100
AcDbArc
 50
270.0
 51
305.5869104966
  0
ARC
  5
DB
330
1F
100
AcDbEntity
  8
0
  6
Continuous
 62
   179
370
    18
100
AcDbCircle
 10
3823.5563773944
 20
469.4441941063
 30
0.0
 40
14.99623540163448
100
AcDbArc
 50
10.4199484279
 51
80.7321727594
  0
ARC
  5
DC
330
1F
100
AcDbEntity
  8
0
  6
Continuous
 62
   179
370
    18
100
AcDbCircle
 10
3848.1803499564
 20
465.1715759511
 30
0.0
 40
7.838116310390694
100
AcDbArc
 50
192.6768785101
 51
204.7368873207
  0
CIRCLE
  5
DD
330
1F
100
AcDbEntity
  8
0
  6
Continuous
 62
   179
370
    18
100
AcDbCircle
 10
4059.4296312926
 20
506.8013546003
 30
0.0
 40
8.8951532178462
  0
CIRCLE
  5
DE
330
1F
100
AcDbEntity
  8
0
  6
Continuous
 62
    19
370
    18
100
AcDbCircle
 10
4232.0258777281
 20
217.7768906315
 30
0.0
 40
12.88061814414652
  0
CIRCLE
  5
DF
330
1F
100
AcDbEntity
  8
0
  6
Continuous
 62
    19
370
    18
100
AcDbCircle
 10
4232.0258777281
 20
217.7768906315
 30
0.0
 40
25.16390372495578
  0
ELLIPSE
  5
E0
330
1F
100
AcDbEntity
  8
0
  6
Continuous
 62
   179
370
    18
100
AcDbEllipse
 10
3525.2637053955
 20
497.9339160554
 30
0.0
 11
14.89886576646222
 21
0.0
 31
0.0
210
0.0
220
0.0
230
1.0
 40
0.5895245511
 41
5.265715075739372
 42
7.300655538615912
  0
ELLIPSE
  5
E1
330
1F
100
AcDbEntity
  8
0
  6
Continuous
 62
   179
370
    18
100
AcDbEllipse
 10
3693.2145558564
 20
487.0983773139
 30
0.0
 11
33.86105856006907
 21
0.0
 31
0.0
210
0.0
220
0.0
230
1.0
 40
0.5985848325
 41
5.554193105221739
 42
7.01217218274472
  0
ELLIPSE
  5
E2
330
1F
100
AcDbEntity
  8
0
  6
Continuous
 62
   179
370
    18
100
AcDbEllipse
 10
3798.8610585616
 20
497.9339160554
 30
0.0
 11
17.60775045122637
 21
0.0
 31
0.0
210
0.0
220
0.0
230
1.0
 40
0.5900077182
 41
5.593675727225946
 42
6.972694887106603
  0
ELLIPSE
  5
E3
330
1F
100
AcDbEntity
  8
0
  6
Continuous
 62
   179
370
    18
100
AcDbEllipse
 10
3807.0449215604
 20
499.4046031234
 30
0.0
 11
36.4899993380277
 21
0.0
 31
0.0
210
0.0
220
0.0
230
1.0
 40
0.485929116
 41
5.257694056962845
 42
7.689248379254997
  0
ELLIPSE
  5
E4
330
1F
100
AcDbEntity
  8
0
  6
Continuous
 62
   179
370
    18
100
AcDbEllipse
 10
3702.6956522476
 20
487.0983773139
 30
0.0
 11
43.34215495673379
 21
0.0
 31
0.0
210
0.0
220
0.0
230
1.0
 40
0.6929224243
 41
4.837574201223028
 42
7.728796413142616
  0
ELLIPSE
  5
E5
330
1F
100
AcDbEntity
  8
0
  6
Continuous
 62
   179
370
    18
100
AcDbEllipse
 10
3526.6181477356
 20
497.9339160554
 30
0.0
 11
40.63327027197511
 21
0.0
 31
0.0
210
0.0
220
0.0
230
1.0
 40
0.4768529109
 41
4.919453630382234
 42
7.646916983963976
  0
ELLIPSE
  5
E6
330
1F
100
AcDbEntity
  8
0
  6
Continuous
 62
   179
370
    18
100
AcDbEllipse
 10
4062.064122662
 20
509.90791962
 30
0.0
 11
2.235278033911982
 21
0.0
 31
0.0
210
0.0
220
0.0
230
1.0
 40
0.9213369296
 41
4.876826485633795
 42
7.689544128725418
  0
MTEXT
  5
E8
330
1F
100
AcDbEntity
  8
0
  6
Continuous
 62
     7
370
     0
100
AcDbMText
 10
3347.1674181705
 20
248.4569886556
 30
0.0
 40
55.5625
 41
0.0
 71
     1
 72
     1
  1
BLT_99X99X37
  7
SLDTEXTSTYLE0
 73
     1
 44
1.0
  0
MTEXT
  5
E9
330
1F
100
AcDbEntity
  8
0
  6
Continuous
 62
     7
370
     0
100
AcDbMText
 10
3238.3268981734
 20
219.580700246
 30
0.0
 40
27.0
 41
0.0
 71
     1
 72
     1
  1
COD.
  7
SLDTEXTSTYLE0
 73
     1
 44
1.0
  0
MTEXT
  5
EA
330
1F
100
AcDbEntity
  8
0
  6
Continuous
 62
     7
370
     0
100
AcDbMText
 10
160.6282767702
 20
112.0822758273
 30
0.0
 40
27.0
 41
0.0
 71
     1
 72
     1
  1
This document is the property of PEDRALI S.p.A. who willsafeguard its rights according to the civil and penal prevision of the Law.
  7
SLDTEXTSTYLE0
 73
     1
 44
1.0
  0
MTEXT
  5
EB
330
1F
100
AcDbEntity
  8
0
  6
Continuous
 62
     7
370
     0
100
AcDbMText
 10
2161.2908979918
 20
115.1768387873
 30
0.0
 40
27.0
 41
0.0
 71
     1
 72
     1
  1
Questo disegno è posto sotto la tutela delle vigenti Leggi e non puo essere utilizzato da terze persone se non previa autorizzazione scritta della PEDRALI S.p.A.
  7
SLDTEXTSTYLE0
 73
     1
 44
1.0
  0
MTEXT
  5
EC
330
1F
100
AcDbEntity
  8
0
  6
Continuous
 62
     7
370
     0
100
AcDbMText
 10
3238.3268981734
 20
351.4653149456
 30
0.0
 40
27.0
 41
0.0
 71
     1
 72
     1
  1
SERIE:
  7
SLDTEXTSTYLE0
 73
     1
 44
1.0
  0
MTEXT
  5
ED
330
1F
100
AcDbEntity
  8
0
  6
Continuous
 62
     7
370
     0
100
AcDbMText
 10
3347.1674181705
 20
380.3416033552
 30
0.0
 40
55.5625
 41
0.0
 71
     1
 72
     1
  1
BLUME
  7
SLDTEXTSTYLE0
 73
     1
 44
1.0
  0
INSERT
  5
F3
330
1F
100
AcDbEntity
  8
0
  6
Continuous
 62
     7
370
     0
100
AcDbBlockReference
  2
SW_NOTE_0
 10
4150.4824592931
 20
363.9948192571
 30
0.0
  0
ARC
  5
F4
330
1F
100
AcDbEntity
  8
0
  6
Continuous
 62
     7
370
    25
100
AcDbCircle
 10
1355.6088512221
 20
2453.899448972
 30
0.0
 40
10.00000000000016
100
AcDbArc
 50
29.5317899097
 51
150.4636978773
  0
LINE
  5
F5
330
1F
100
AcDbEntity
  8
0
  6
Continuous
 62
     7
370
    25
100
AcDbLine
 10
1347.5479706638
 20
2458.4569778032
 30
0.0
 11
1347.5479706638
 21
2103.899448972
 31
0.0
  0
LINE
  5
F6
330
1F
100
AcDbEntity
  8
0
  6
Continuous
 62
     7
370
    25
100
AcDbLine
 10
1363.6697317805
 20
2103.899448972
 30
0.0
 11
1363.6697317805
 21
2458.4519976941
 31
0.0
  0
LINE
  5
F7
330
1F
100
AcDbEntity
  8
0
  6
Continuous
 62
     7
370
    25
100
AcDbLine
 10
1346.2742358956
 20
2457.009799336
 30
0.0
 11
1346.2742358956
 21
2103.899448972
 31
0.0
  0
LINE
  5
F8
330
1F
100
AcDbEntity
  8
0
  6
Continuous
 62
     7
370
    25
100
AcDbLine
 10
1364.9434665487
 20
2103.899448972
 30
0.0
 11
1364.9434665487
 21
2457.0072394836
 31
0.0
  0
ARC
  5
F9
330
1F
100
AcDbEntity
  8
0
  6
Continuous
 62
     7
370
    25
100
AcDbCircle
 10
2145.6088512221
 20
2453.899448972
 30
0.0
 40
10.00000000000041
100
AcDbArc
 50
29.5317899097
 51
150.4636978773
  0
LINE
  5
FA
330
1F
100
AcDbEntity
  8
0
  6
Continuous
 62
     7
370
    25
100
AcDbLine
 10
2137.5479706638
 20
2458.4569778032
 30
0.0
 11
2137.5479706638
 21
2103.899448972
 31
0.0
  0
LINE
  5
FB
330
1F
100
AcDbEntity
  8
0
  6
Continuous
 62
     7
370
    25
100
AcDbLine
 10
2153.6697317805
 20
2103.899448972
 30
0.0
 11
2153.6697317805
 21
2458.4519976941
 31
0.0
  0
LINE
  5
FC
330
1F
100
AcDbEntity
  8
0
  6
Continuous
 62
     7
370
    25
100
AcDbLine
 10
2136.2742358956
 20
2457.009799336
 30
0.0
 11
2136.2742358956
 21
2103.899448972
 31
0.0
  0
LINE
  5
FD
330
1F
100
AcDbEntity
  8
0
  6
Continuous
 62
     7
370
    25
100
AcDbLine
 10
2154.9434665487
 20
2103.899448972
 30
0.0
 11
2154.9434665487
 21
2457.0072394836
 31
0.0
  0
ARC
  5
FE
330
1F
100
AcDbEntity
  8
0
  6
Continuous
 62
     7
370
    25
100
AcDbCircle
 10
2141.1088512221
 20
2100.899448972
 30
0.0
 40
5.0
100
AcDbArc
 50
180.0
 51
270.0
  0
ARC
  5
FF
330
1F
100
AcDbEntity
  8
0
  6
Continuous
 62
     7
370
    25
100
AcDbCircle
 10
2150.1088512221
 20
2100.899448972
 30
0.0
 40
5.0
100
AcDbArc
 50
270.0
 51
0.0
  0
LINE
  5
100
330
1F
100
AcDbEntity
  8
0
  6
Continuous
 62
     7
370
    25
100
AcDbLine
 10
2155.1088512221
 20
2100.899448972
 30
0.0
 11
2155.1088512221
 21
2103.899448972
 31
0.0
  0
LINE
  5
101
330
1F
100
AcDbEntity
  8
0
  6
Continuous
 62
     7
370
    25
100
AcDbLine
 10
2136.1088512221
 20
2103.899448972
 30
0.0
 11
2136.1088512221
 21
2100.899448972
 31
0.0
  0
LINE
  5
102
330
1F
100
AcDbEntity
  8
0
  6
Continuous
 62
     7
370
    25
100
AcDbLine
 10
1365.1088512221
 20
2100.899448972
 30
0.0
 11
1365.1088512221
 21
2103.899448972
 31
0.0
  0
LINE
  5
103
330
1F
100
AcDbEntity
  8
0
  6
Continuous
 62
     7
370
    25
100
AcDbLine
 10
1346.1088512221
 20
2103.899448972
 30
0.0
 11
1346.1088512221
 21
2100.899448972
 31
0.0
  0
ARC
  5
104
330
1F
100
AcDbEntity
  8
0
  6
Continuous
 62
     7
370
    25
100
AcDbCircle
 10
1351.1088512221
 20
2100.899448972
 30
0.0
 40
5.000000000000455
100
AcDbArc
 50
180.0
 51
270.0
  0
ARC
  5
105
330
1F
100
AcDbEntity
  8
0
  6
Continuous
 62
     7
370
    25
100
AcDbCircle
 10
1360.1088512221
 20
2100.899448972
 30
0.0
 40
5.000000000000455
100
AcDbArc
 50
270.0
 51
0.0
  0
LINE
  5
106
330
1F
100
AcDbEntity
  8
0
  6
Continuous
 62
     7
370
    25
100
AcDbLine
 10
2208.6088512221
 20
2458.8994489763
 30
0.0
 11
2154.2691052575
 21
2458.8994489763
 31
0.0
  0
LINE
  5
107
330
1F
100
AcDbEntity
  8
0
  6
Continuous
 62
     7
370
    25
100
AcDbLine
 10
2136.9485971868
 20
2458.8994489763
 30
0.0
 11
1364.2691052575
 21
2458.8994489763
 31
0.0
  0
LINE
  5
108
330
1F
100
AcDbEntity
  8
0
  6
Continuous
 62
     7
370
    25
100
AcDbLine
 10
1346.9485971868
 20
2458.8994489763
 30
0.0
 11
1292.6088512221
 21
2458.8994489763
 31
0.0
  0
LINE
  5
109
330
1F
100
AcDbEntity
  8
0
  6
Continuous
 62
     7
370
    25
100
AcDbLine
 10
2208.6088512221
 20
2448.8994489763
 30
0.0
 11
2154.9434665487
 21
2448.8994489763
 31
0.0
  0
LINE
  5
10A
330
1F
100
AcDbEntity
  8
0
  6
Continuous
 62
     7
370
    25
100
AcDbLine
 10
2136.2742358956
 20
2448.8994489763
 30
0.0
 11
1364.9434665487
 21
2448.8994489763
 31
0.0
  0
LINE
  5
10B
330
1F
100
AcDbEntity
  8
0
  6
Continuous
 62
     7
370
    25
100
AcDbLine
 10
1346.2742358956
 20
2448.8994489763
 30
0.0
 11
1292.6088512221
 21
2448.8994489763
 31
0.0
  0
LINE
  5
10C
330
1F
100
AcDbEntity
  8
0
  6
Continuous
 62
     7
370
    25
100
AcDbLine
 10
1255.6088512221
 20
2448.8994489763
 30
0.0
 11
1255.6088512221
 21
2458.8994489763
 31
0.0
  0
LINE
  5
10D
330
1F
100
AcDbEntity
  8
0
  6
Continuous
 62
     7
370
    25
100
AcDbLine
 10
1255.6088512221
 20
2458.8994489763
 30
0.0
 11
1292.6088512221
 21
2458.8994489763
 31
0.0
  0
LINE
  5
10E
330
1F
100
AcDbEntity
  8
0
  6
Continuous
 62
     7
370
    25
100
AcDbLine
 10
1292.6088512221
 20
2448.8994489763
 30
0.0
 11
1255.6088512221
 21
2448.8994489763
 31
0.0
  0
LINE
  5
10F
330
1F
100
AcDbEntity
  8
0
  6
Continuous
 62
     7
370
    25
100
AcDbLine
 10
2245.6088512221
 20
2458.8994489763
 30
0.0
 11
2245.6088512221
 21
2448.8994489763
 31
0.0
  0
LINE
  5
110
330
1F
100
AcDbEntity
  8
0
  6
Continuous
 62
     7
370
    25
100
AcDbLine
 10
2208.6088512221
 20
2458.8994489763
 30
0.0
 11
2245.6088512221
 21
2458.8994489763
 31
0.0
  0
LINE
  5
111
330
1F
100
AcDbEntity
  8
0
  6
Continuous
 62
     7
370
    25
100
AcDbLine
 10
2245.6088512221
 20
2448.8994489763
 30
0.0
 11
2208.6088512221
 21
2448.8994489763
 31
0.0
  0
LINE
  5
112
330
1F
100
AcDbEntity
  8
0
  6
Continuous
 62
     7
370
    25
100
AcDbLine
 10
2136.2742358956
 20
2413.8994489763
 30
0.0
 11
1364.9434665487
 21
2413.8994489763
 31
0.0
  0
SPLINE
  5
113
330
1F
100
AcDbEntity
  8
0
  6
Continuous
 62
     7
370
    25
100
AcDbSpline
210
0.0
220
0.0
230
1.0
 70
     8
 71
     3
 72
    26
 73
    22
 74
     0
 42
0.000000001
 43
0.00000001
 40
0.0
 40
0.0
 40
0.0
 40
0.0
 40
0.0854261159360964
 40
0.1733276547195584
 40
0.2448517261352452
 40
0.3181224083912734
 40
0.3577740645396673
 40
0.3980844094313222
 40
0.4287682032815339
 40
0.4601978879083238
 40
0.4855692359538097
 40
0.5116681185372461
 40
0.5370453561645223
 40
0.5630880149114136
 40
0.5995557531473612
 40
0.6370345873825466
 40
0.6960497304231511
 40
0.7566321175831388
 40
0.8401423063242358
 40
0.9260534647419584
 40
1.0
 40
1.0
 40
1.0
 40
1.0
 10
1352.727185020852
 20
2460.812404848667
 30
0.0
 10
1352.768606596827
 20
2460.611437658329
 30
0.0
 10
1352.852650036469
 20
2460.203679780131
 30
0.0
 10
1353.141224500791
 20
2459.617597135927
 30
0.0
 10
1353.515592032309
 20
2459.073358654701
 30
0.0
 10
1353.896557133427
 20
2458.66300102795
 30
0.0
 10
1354.271756599845
 20
2458.355566172173
 30
0.0
 10
1354.576592414229
 20
2458.15999063535
 30
0.0
 10
1354.887886869215
 20
2458.01345976524
 30
0.0
 10
1355.174951681176
 20
2457.924044202831
 30
0.0
 10
1355.45998962721
 20
2457.88001810768
 30
0.0
 10
1355.728851870435
 20
2457.8778840304
 30
0.0
 10
1355.996271267282
 20
2457.915053589767
 30
0.0
 10
1356.287449295377
 20
2457.996885564706
 30
0.0
 10
1356.596003326882
 20
2458.134585237652
 30
0.0
 10
1356.966025789482
 20
2458.365371711778
 30
0.0
 10
1357.345522682755
 20
2458.686180902851
 30
0.0
 10
1357.754593040711
 20
2459.139870707939
 30
0.0
 10
1358.114493111643
 20
2459.68083818345
 30
0.0
 10
1358.382084556024
 20
2460.263161129536
 30
0.0
 10
1358.456222770631
 20
2460.638692550018
 30
0.0
 10
1358.490517423421
 20
2460.812404848667
 30
0.0
  0
SPLINE
  5
114
330
1F
100
AcDbEntity
  8
0
  6
Continuous
 62
     7
370
    25
100
AcDbSpline
210
0.0
220
0.0
230
1.0
 70
     8
 71
     3
 72
    15
 73
    11
 74
     0
 42
0.000000001
 43
0.00000001
 40
0.0
 40
0.0
 40
0.0
 40
0.0
 40
0.1996207116986728
 40
0.4049403999649669
 40
0.6076585131248916
 40
0.7117115050425953
 40
0.8167208527374605
 40
0.8801337387445615
 40
0.9440186479927531
 40
1.0
 40
1.0
 40
1.0
 40
1.0
 10
1363.028621150861
 20
2460.538093268283
 30
0.0
 10
1363.241942851159
 20
2460.298412588933
 30
0.0
 10
1363.67467637818
 20
2459.81220858067
 30
0.0
 10
1364.192716192923
 20
2459.057790680234
 30
0.0
 10
1364.534715228005
 20
2458.422765168333
 30
0.0
 10
1364.74041075901
 20
2457.925079123988
 30
0.0
 10
1364.843786982041
 20
2457.606569681832
 30
0.0
 10
1364.904830831745
 20
2457.351251882385
 30
0.0
 10
1364.93758761055
 20
2457.160578953021
 30
0.0
 10
1364.940710864028
 20
2457.056055334187
 30
0.0
 10
1364.942169522624
 20
2457.007239483607
 30
0.0
  0
SPLINE
  5
115
330
1F
100
AcDbEntity
  8
0
  6
Continuous
 62
     7
370
    25
100
AcDbSpline
210
0.0
220
0.0
230
1.0
 70
     8
 71
     3
 72
    14
 73
    10
 74
     0
 42
0.000000001
 43
0.00000001
 40
0.0
 40
0.0
 40
0.0
 40
0.0
 40
0.2207653484381742
 40
0.3402146168141325
 40
0.4605704991790745
 40
0.5641909618661554
 40
0.6633542991972422
 40
0.8105247403618566
 40
1.0
 40
1.0
 40
1.0
 40
1.0
 10
1362.84150682789
 20
2460.578305893038
 30
0.0
 10
1362.800808032369
 20
2460.634739371044
 30
0.0
 10
1362.738088383561
 20
2460.721707249977
 30
0.0
 10
1362.697146978185
 20
2460.799005314945
 30
0.0
 10
1362.697826074152
 20
2460.825184425316
 30
0.0
 10
1362.731860979971
 20
2460.812555922937
 30
0.0
 10
1362.793908535374
 20
2460.767096314814
 30
0.0
 10
1362.894314856441
 20
2460.677623266965
 30
0.0
 10
1362.980252578004
 20
2460.588343086701
 30
0.0
 10
1363.028621150861
 20
2460.538093268283
 30
0.0
  0
SPLINE
  5
116
330
1F
100
AcDbEntity
  8
0
  6
Continuous
 62
     7
370
    25
100
AcDbSpline
210
0.0
220
0.0
230
1.0
 70
     8
 71
     3
 72
    23
 73
    19
 74
     0
 42
0.000000001
 43
0.00000001
 40
0.0
 40
0.0
 40
0.0
 40
0.0
 40
0.0863901050636762
 40
0.1752766177962674
 40
0.2621177065427453
 40
0.351936355972772
 40
0.4192459175639052
 40
0.4528076006128975
 40
0.4875598503476094
 40
0.5342326170542493
 40
0.5808027178643332
 40
0.6174159281963851
 40
0.6550189806174354
 40
0.71761924766185
 40
0.7818570182170748
 40
0.868941619754452
 40
0.9585429605715874
 40
1.0
 40
1.0
 40
1.0
 40
1.0
 10
1359.248127850167
 20
2460.795145088705
 30
0.0
 10
1359.44646245454
 20
2460.584292722179
 30
0.0
 10
1359.848862921825
 20
2460.156495005857
 30
0.0
 10
1360.506532359638
 20
2459.500256474055
 30
0.0
 10
1361.18871788835
 20
2458.844572793362
 30
0.0
 10
1361.825458260185
 20
2458.272174366371
 30
0.0
 10
1362.325262173509
 20
2457.887729436366
 30
0.0
 10
1362.6733906174
 20
2457.684167256792
 30
0.0
 10
1362.957030754407
 20
2457.571833036546
 30
0.0
 10
1363.237347354296
 20
2457.559502822949
 30
0.0
 10
1363.443026051559
 20
2457.684634413077
 30
0.0
 10
1363.568848413515
 20
2457.874585952753
 30
0.0
 10
1363.655741426463
 20
2458.137574329224
 30
0.0
 10
1363.683825536256
 20
2458.50202728752
 30
0.0
 10
1363.619440448578
 20
2459.012502918393
 30
0.0
 10
1363.42607384307
 20
2459.610264712911
 30
0.0
 10
1363.141036349641
 20
2460.155527894813
 30
0.0
 10
1362.913486522324
 20
2460.476708458008
 30
0.0
 10
1362.841506827891
 20
2460.578305893037
 30
0.0
  0
SPLINE
  5
117
330
1F
100
AcDbEntity
  8
0
  6
Continuous
 62
     7
370
    25
100
AcDbSpline
210
0.0
220
0.0
230
1.0
 70
     8
 71
     3
 72
    14
 73
    10
 74
     0
 42
0.000000001
 43
0.00000001
 40
0.0
 40
0.0
 40
0.0
 40
0.0
 40
0.2243030424883297
 40
0.348901186626688
 40
0.4744001356117842
 40
0.5826741857066319
 40
0.686741768794791
 40
0.8381564871697036
 40
1.0
 40
1.0
 40
1.0
 40
1.0
 10
1358.490517423421
 20
2460.812404848667
 30
0.0
 10
1358.505162961836
 20
2460.867336850213
 30
0.0
 10
1358.527943953459
 20
2460.952783040824
 30
0.0
 10
1358.629728579865
 20
2461.028632124359
 30
0.0
 10
1358.738418621415
 20
2461.054313082668
 30
0.0
 10
1358.859386631273
 20
2461.041495808145
 30
0.0
 10
1358.989681685112
 20
2460.996084485042
 30
0.0
 10
1359.127498386034
 20
2460.913906793791
 30
0.0
 10
1359.207035396875
 20
2460.835601289471
 30
0.0
 10
1359.248127850167
 20
2460.795145088706
 30
0.0
  0
SPLINE
  5
118
330
1F
100
AcDbEntity
  8
0
  6
Continuous
 62
     7
370
    25
100
AcDbSpline
210
0.0
220
0.0
230
1.0
 70
     8
 71
     3
 72
    14
 73
    10
 74
     0
 42
0.000000001
 43
0.00000001
 40
0.0
 40
0.0
 40
0.0
 40
0.0
 40
0.2239799089306602
 40
0.3530600787850526
 40
0.4831615846560798
 40
0.5937368434044649
 40
0.6971871626482021
 40
0.8442013099711085
 40
1.0
 40
1.0
 40
1.0
 40
1.0
 10
1351.969574594106
 20
2460.795145088705
 30
0.0
 10
1352.028194946777
 20
2460.850992319009
 30
0.0
 10
1352.120598352205
 20
2460.93902444486
 30
0.0
 10
1352.287636535798
 20
2461.021873144969
 30
0.0
 10
1352.423067849902
 20
2461.053590501677
 30
0.0
 10
1352.537508430701
 20
2461.044550255765
 30
0.0
 10
1352.631327529476
 20
2461.002509578551
 30
0.0
 10
1352.701435758421
 20
2460.925137745474
 30
0.0
 10
1352.71843752735
 20
2460.850702267282
 30
0.0
 10
1352.727185020852
 20
2460.812404848667
 30
0.0
  0
SPLINE
  5
119
330
1F
100
AcDbEntity
  8
0
  6
Continuous
 62
     7
370
    25
100
AcDbSpline
210
0.0
220
0.0
230
1.0
 70
     8
 71
     3
 72
    25
 73
    21
 74
     0
 42
0.000000001
 43
0.00000001
 40
0.0
 40
0.0
 40
0.0
 40
0.0
 40
0.0875462653424556
 40
0.17762759296003
 40
0.2471474788262656
 40
0.318248505808561
 40
0.3544110039426032
 40
0.3911111694055485
 40
0.4196256508468989
 40
0.4488279610873451
 40
0.4955774367114223
 40
0.5423030312794792
 40
0.5762969204455036
 40
0.6112229844817039
 40
0.6688576767939515
 40
0.7279867562248815
 40
0.8132488808160989
 40
0.9009541844562668
 40
0.9502506997642257
 40
1.0
 40
1.0
 40
1.0
 40
1.0
 10
1348.376195616383
 20
2460.578305893038
 30
0.0
 10
1348.230121535283
 20
2460.362551443271
 30
0.0
 10
1347.933743530828
 20
2459.924794978931
 30
0.0
 10
1347.680670803547
 20
2459.30606655654
 30
0.0
 10
1347.551052181859
 20
2458.742657499012
 30
0.0
 10
1347.538658091999
 20
2458.332116361362
 30
0.0
 10
1347.592705832855
 20
2458.030901684737
 30
0.0
 10
1347.666634948333
 20
2457.843227200272
 30
0.0
 10
1347.770723269215
 20
2457.700977309569
 30
0.0
 10
1347.924084546154
 20
2457.587999273181
 30
0.0
 10
1348.168550011212
 20
2457.549381844467
 30
0.0
 10
1348.478890121839
 20
2457.649619607152
 30
0.0
 10
1348.774675563948
 20
2457.816538801193
 30
0.0
 10
1349.103837893507
 20
2458.04659204355
 30
0.0
 10
1349.500712581386
 20
2458.371552744509
 30
0.0
 10
1350.026605157426
 20
2458.844143184192
 30
0.0
 10
1350.625546567741
 20
2459.41605572989
 30
0.0
 10
1351.182903185653
 20
2459.971383349339
 30
0.0
 10
1351.632515980321
 20
2460.433825908925
 30
0.0
 10
1351.856879832007
 20
2460.674338862898
 30
0.0
 10
1351.969574594106
 20
2460.795145088705
 30
0.0
  0
SPLINE
  5
11A
330
1F
100
AcDbEntity
  8
0
  6
Continuous
 62
     7
370
    25
100
AcDbSpline
210
0.0
220
0.0
230
1.0
 70
     8
 71
     3
 72
    14
 73
    10
 74
     0
 42
0.000000001
 43
0.00000001
 40
0.0
 40
0.0
 40
0.0
 40
0.0
 40
0.2200911109485595
 40
0.3501199592092341
 40
0.4590676183976581
 40
0.5685351145661265
 40
0.6668402217390302
 40
0.7968948941937074
 40
1.0
 40
1.0
 40
1.0
 40
1.0
 10
1348.189081293413
 20
2460.538093268283
 30
0.0
 10
1348.245488717278
 20
2460.596463465932
 30
0.0
 10
1348.335221395974
 20
2460.689318516423
 30
0.0
 10
1348.437488363669
 20
2460.778165252837
 30
0.0
 10
1348.495761077681
 20
2460.818626641332
 30
0.0
 10
1348.521707505107
 20
2460.822297262452
 30
0.0
 10
1348.51714557667
 20
2460.791323691631
 30
0.0
 10
1348.475272272061
 20
2460.715406588398
 30
0.0
 10
1348.413719935488
 20
2460.630231447115
 30
0.0
 10
1348.376195616383
 20
2460.578305893038
 30
0.0
  0
SPLINE
  5
11B
330
1F
100
AcDbEntity
  8
0
  6
Continuous
 62
     7
370
    25
100
AcDbSpline
210
0.0
220
0.0
230
1.0
 70
     8
 71
     3
 72
    14
 73
    10
 74
     0
 42
0.000000001
 43
0.00000001
 40
0.0
 40
0.0
 40
0.0
 40
0.0
 40
0.0318468616333308
 40
0.1382021891221091
 40
0.2470909675484756
 40
0.4405387664055593
 40
0.639322017958552
 40
0.8177164190617403
 40
0.9999999999999999
 40
0.9999999999999999
 40
0.9999999999999999
 40
0.9999999999999999
 10
1346.276939886852
 20
2457.009799335982
 30
0.0
 10
1346.276643277204
 20
2457.036071842992
 30
0.0
 10
1346.275356114184
 20
2457.150083641846
 30
0.0
 10
1346.322277286382
 20
2457.41264025326
 30
0.0
 10
1346.452454585108
 20
2457.875929441391
 30
0.0
 10
1346.707736766763
 20
2458.487555777162
 30
0.0
 10
1347.11424971459
 20
2459.195036370701
 30
0.0
 10
1347.607084560238
 20
2459.887297332649
 30
0.0
 10
1347.993692787392
 20
2460.319607427487
 30
0.0
 10
1348.189081293413
 20
2460.538093268283
 30
0.0
  0
SPLINE
  5
11C
330
1F
100
AcDbEntity
  8
0
  6
Continuous
 62
     7
370
    25
100
AcDbSpline
210
0.0
220
0.0
230
1.0
 70
     8
 71
     3
 72
    26
 73
    22
 74
     0
 42
0.000000001
 43
0.00000001
 40
0.0
 40
0.0
 40
0.0
 40
0.0
 40
0.0854261159360961
 40
0.1733276547195577
 40
0.2448517261352443
 40
0.3181224083912723
 40
0.357774064539666
 40
0.3980844094313207
 40
0.4287682032815324
 40
0.4601978879083222
 40
0.485569235953808
 40
0.5116681185372444
 40
0.5370453561645204
 40
0.5630880149114116
 40
0.5995557531473591
 40
0.6370345873825479
 40
0.6960497304231521
 40
0.7566321175831395
 40
0.8401423063242363
 40
0.9260534647419587
 40
1.0
 40
1.0
 40
1.0
 40
1.0
 10
2142.727185020853
 20
2460.812404848667
 30
0.0
 10
2142.768606596827
 20
2460.611437658329
 30
0.0
 10
2142.852650036469
 20
2460.203679780131
 30
0.0
 10
2143.141224500792
 20
2459.617597135927
 30
0.0
 10
2143.515592032309
 20
2459.073358654701
 30
0.0
 10
2143.896557133427
 20
2458.66300102795
 30
0.0
 10
2144.271756599846
 20
2458.355566172173
 30
0.0
 10
2144.576592414229
 20
2458.159990635351
 30
0.0
 10
2144.887886869216
 20
2458.01345976524
 30
0.0
 10
2145.174951681176
 20
2457.924044202831
 30
0.0
 10
2145.45998962721
 20
2457.88001810768
 30
0.0
 10
2145.728851870435
 20
2457.8778840304
 30
0.0
 10
2145.996271267282
 20
2457.915053589767
 30
0.0
 10
2146.287449295377
 20
2457.996885564707
 30
0.0
 10
2146.596003326883
 20
2458.134585237652
 30
0.0
 10
2146.966025789482
 20
2458.365371711778
 30
0.0
 10
2147.345522682755
 20
2458.68618090285
 30
0.0
 10
2147.754593040711
 20
2459.13987070794
 30
0.0
 10
2148.114493111643
 20
2459.68083818345
 30
0.0
 10
2148.382084556024
 20
2460.263161129536
 30
0.0
 10
2148.456222770631
 20
2460.638692550018
 30
0.0
 10
2148.490517423421
 20
2460.812404848667
 30
0.0
  0
SPLINE
  5
11D
330
1F
100
AcDbEntity
  8
0
  6
Continuous
 62
     7
370
    25
100
AcDbSpline
210
0.0
220
0.0
230
1.0
 70
     8
 71
     3
 72
    15
 73
    11
 74
     0
 42
0.000000001
 43
0.00000001
 40
0.0
 40
0.0
 40
0.0
 40
0.0
 40
0.1996207116986724
 40
0.4049403999649564
 40
0.6076585131248927
 40
0.7117115050425962
 40
0.8167208527374612
 40
0.880133738744562
 40
0.9440186479927536
 40
1.0
 40
1.0
 40
1.0
 40
1.0
 10
2153.028621150861
 20
2460.538093268283
 30
0.0
 10
2153.241942851159
 20
2460.298412588933
 30
0.0
 10
2153.67467637818
 20
2459.812208580671
 30
0.0
 10
2154.192716192923
 20
2459.057790680233
 30
0.0
 10
2154.534715228005
 20
2458.422765168334
 30
0.0
 10
2154.740410759011
 20
2457.925079123988
 30
0.0
 10
2154.843786982041
 20
2457.606569681832
 30
0.0
 10
2154.904830831746
 20
2457.351251882384
 30
0.0
 10
2154.93758761055
 20
2457.160578953021
 30
0.0
 10
2154.940710864028
 20
2457.056055334187
 30
0.0
 10
2154.942169522624
 20
2457.007239483607
 30
0.0
  0
SPLINE
  5
11E
330
1F
100
AcDbEntity
  8
0
  6
Continuous
 62
     7
370
    25
100
AcDbSpline
210
0.0
220
0.0
230
1.0
 70
     8
 71
     3
 72
    14
 73
    10
 74
     0
 42
0.000000001
 43
0.00000001
 40
0.0
 40
0.0
 40
0.0
 40
0.0
 40
0.220765348438179
 40
0.3402146168140553
 40
0.4605704991790948
 40
0.5641909618660854
 40
0.6633542991971745
 40
0.8105247403618525
 40
1.0
 40
1.0
 40
1.0
 40
1.0
 10
2152.84150682789
 20
2460.578305893038
 30
0.0
 10
2152.800808032369
 20
2460.634739371044
 30
0.0
 10
2152.738088383561
 20
2460.721707249977
 30
0.0
 10
2152.697146978185
 20
2460.799005314945
 30
0.0
 10
2152.697826074152
 20
2460.825184425316
 30
0.0
 10
2152.731860979971
 20
2460.812555922937
 30
0.0
 10
2152.793908535375
 20
2460.767096314814
 30
0.0
 10
2152.894314856441
 20
2460.677623266965
 30
0.0
 10
2152.980252578005
 20
2460.588343086701
 30
0.0
 10
2153.028621150861
 20
2460.538093268283
 30
0.0
  0
SPLINE
  5
11F
330
1F
100
AcDbEntity
  8
0
  6
Continuous
 62
     7
370
    25
100
AcDbSpline
210
0.0
220
0.0
230
1.0
 70
     8
 71
     3
 72
    23
 73
    19
 74
     0
 42
0.000000001
 43
0.00000001
 40
0.0
 40
0.0
 40
0.0
 40
0.0
 40
0.086390105063673
 40
0.1752766177962657
 40
0.2621177065427438
 40
0.3519363559727683
 40
0.4192459175639057
 40
0.452807600612898
 40
0.4875598503476028
 40
0.534232617054251
 40
0.5808027178643259
 40
0.6174159281963868
 40
0.6550189806174282
 40
0.7176192476618429
 40
0.7818570182170677
 40
0.868941619754452
 40
0.9585429605715874
 40
1.0
 40
1.0
 40
1.0
 40
1.0
 10
2149.248127850168
 20
2460.795145088706
 30
0.0
 10
2149.44646245454
 20
2460.584292722179
 30
0.0
 10
2149.848862921825
 20
2460.156495005857
 30
0.0
 10
2150.506532359638
 20
2459.500256474055
 30
0.0
 10
2151.188717888351
 20
2458.844572793362
 30
0.0
 10
2151.825458260186
 20
2458.272174366371
 30
0.0
 10
2152.325262173509
 20
2457.887729436366
 30
0.0
 10
2152.6733906174
 20
2457.684167256792
 30
0.0
 10
2152.957030754407
 20
2457.571833036546
 30
0.0
 10
2153.237347354296
 20
2457.55950282295
 30
0.0
 10
2153.443026051559
 20
2457.684634413077
 30
0.0
 10
2153.568848413515
 20
2457.874585952753
 30
0.0
 10
2153.655741426464
 20
2458.137574329224
 30
0.0
 10
2153.683825536256
 20
2458.50202728752
 30
0.0
 10
2153.619440448578
 20
2459.012502918394
 30
0.0
 10
2153.42607384307
 20
2459.61026471291
 30
0.0
 10
2153.141036349641
 20
2460.155527894813
 30
0.0
 10
2152.913486522324
 20
2460.476708458008
 30
0.0
 10
2152.84150682789
 20
2460.578305893038
 30
0.0
  0
SPLINE
  5
120
330
1F
100
AcDbEntity
  8
0
  6
Continuous
 62
     7
370
    25
100
AcDbSpline
210
0.0
220
0.0
230
1.0
 70
     8
 71
     3
 72
    14
 73
    10
 74
     0
 42
0.000000001
 43
0.00000001
 40
0.0
 40
0.0
 40
0.0
 40
0.0
 40
0.2243030424883259
 40
0.3489011866266116
 40
0.4744001356117633
 40
0.5826741857066091
 40
0.6867417687947664
 40
0.8381564871696764
 40
1.0
 40
1.0
 40
1.0
 40
1.0
 10
2148.490517423421
 20
2460.812404848667
 30
0.0
 10
2148.505162961836
 20
2460.867336850213
 30
0.0
 10
2148.527943953459
 20
2460.952783040823
 30
0.0
 10
2148.629728579865
 20
2461.028632124359
 30
0.0
 10
2148.738418621415
 20
2461.054313082668
 30
0.0
 10
2148.859386631273
 20
2461.041495808145
 30
0.0
 10
2148.989681685112
 20
2460.996084485042
 30
0.0
 10
2149.127498386034
 20
2460.913906793791
 30
0.0
 10
2149.207035396875
 20
2460.835601289471
 30
0.0
 10
2149.248127850168
 20
2460.795145088706
 30
0.0
  0
SPLINE
  5
121
330
1F
100
AcDbEntity
  8
0
  6
Continuous
 62
     7
370
    25
100
AcDbSpline
210
0.0
220
0.0
230
1.0
 70
     8
 71
     3
 72
    14
 73
    10
 74
     0
 42
0.000000001
 43
0.00000001
 40
0.0
 40
0.0
 40
0.0
 40
0.0
 40
0.2239799089306602
 40
0.3530600787850526
 40
0.4831615846560798
 40
0.5937368434044649
 40
0.6971871626482021
 40
0.8442013099711085
 40
1.0
 40
1.0
 40
1.0
 40
1.0
 10
2141.969574594106
 20
2460.795145088706
 30
0.0
 10
2142.028194946778
 20
2460.850992319009
 30
0.0
 10
2142.120598352205
 20
2460.93902444486
 30
0.0
 10
2142.287636535797
 20
2461.021873144969
 30
0.0
 10
2142.423067849903
 20
2461.053590501677
 30
0.0
 10
2142.537508430702
 20
2461.044550255765
 30
0.0
 10
2142.631327529476
 20
2461.002509578552
 30
0.0
 10
2142.701435758422
 20
2460.925137745474
 30
0.0
 10
2142.71843752735
 20
2460.850702267282
 30
0.0
 10
2142.727185020853
 20
2460.812404848667
 30
0.0
  0
SPLINE
  5
122
330
1F
100
AcDbEntity
  8
0
  6
Continuous
 62
     7
370
    25
100
AcDbSpline
210
0.0
220
0.0
230
1.0
 70
     8
 71
     3
 72
    25
 73
    21
 74
     0
 42
0.000000001
 43
0.00000001
 40
0.0
 40
0.0
 40
0.0
 40
0.0
 40
0.0875462653424556
 40
0.17762759296003
 40
0.2471474788262656
 40
0.318248505808561
 40
0.3544110039426032
 40
0.3911111694055485
 40
0.4196256508468989
 40
0.4488279610873451
 40
0.4955774367114223
 40
0.5423030312794792
 40
0.5762969204455036
 40
0.6112229844817039
 40
0.6688576767939515
 40
0.7279867562248815
 40
0.8132488808160989
 40
0.9009541844562668
 40
0.9502506997642257
 40
1.0
 40
1.0
 40
1.0
 40
1.0
 10
2138.376195616383
 20
2460.578305893038
 30
0.0
 10
2138.230121535283
 20
2460.362551443271
 30
0.0
 10
2137.933743530828
 20
2459.924794978931
 30
0.0
 10
2137.680670803547
 20
2459.30606655654
 30
0.0
 10
2137.55105218186
 20
2458.742657499012
 30
0.0
 10
2137.538658091999
 20
2458.332116361362
 30
0.0
 10
2137.592705832855
 20
2458.030901684737
 30
0.0
 10
2137.666634948333
 20
2457.843227200272
 30
0.0
 10
2137.770723269216
 20
2457.700977309569
 30
0.0
 10
2137.924084546154
 20
2457.587999273181
 30
0.0
 10
2138.168550011212
 20
2457.549381844467
 30
0.0
 10
2138.478890121839
 20
2457.649619607152
 30
0.0
 10
2138.774675563948
 20
2457.816538801193
 30
0.0
 10
2139.103837893507
 20
2458.04659204355
 30
0.0
 10
2139.500712581386
 20
2458.371552744509
 30
0.0
 10
2140.026605157426
 20
2458.844143184192
 30
0.0
 10
2140.625546567741
 20
2459.41605572989
 30
0.0
 10
2141.182903185653
 20
2459.971383349339
 30
0.0
 10
2141.63251598032
 20
2460.433825908925
 30
0.0
 10
2141.856879832007
 20
2460.674338862898
 30
0.0
 10
2141.969574594106
 20
2460.795145088706
 30
0.0
  0
SPLINE
  5
123
330
1F
100
AcDbEntity
  8
0
  6
Continuous
 62
     7
370
    25
100
AcDbSpline
210
0.0
220
0.0
230
1.0
 70
     8
 71
     3
 72
    14
 73
    10
 74
     0
 42
0.000000001
 43
0.00000001
 40
0.0
 40
0.0
 40
0.0
 40
0.0
 40
0.2200911109485595
 40
0.3501199592092341
 40
0.4590676183976581
 40
0.5685351145661265
 40
0.6668402217390302
 40
0.7968948941937074
 40
1.0
 40
1.0
 40
1.0
 40
1.0
 10
2138.189081293413
 20
2460.538093268283
 30
0.0
 10
2138.245488717278
 20
2460.596463465932
 30
0.0
 10
2138.335221395974
 20
2460.689318516423
 30
0.0
 10
2138.437488363669
 20
2460.778165252837
 30
0.0
 10
2138.495761077681
 20
2460.818626641332
 30
0.0
 10
2138.521707505107
 20
2460.822297262452
 30
0.0
 10
2138.517145576669
 20
2460.791323691631
 30
0.0
 10
2138.475272272061
 20
2460.715406588398
 30
0.0
 10
2138.413719935488
 20
2460.630231447115
 30
0.0
 10
2138.376195616383
 20
2460.578305893038
 30
0.0
  0
SPLINE
  5
124
330
1F
100
AcDbEntity
  8
0
  6
Continuous
 62
     7
370
    25
100
AcDbSpline
210
0.0
220
0.0
230
1.0
 70
     8
 71
     3
 72
    14
 73
    10
 74
     0
 42
0.000000001
 43
0.00000001
 40
0.0
 40
0.0
 40
0.0
 40
0.0
 40
0.0318468616333308
 40
0.1382021891221091
 40
0.2470909675484756
 40
0.4405387664055593
 40
0.639322017958552
 40
0.8177164190617403
 40
0.9999999999999999
 40
0.9999999999999999
 40
0.9999999999999999
 40
0.9999999999999999
 10
2136.276939886852
 20
2457.009799335982
 30
0.0
 10
2136.276643277205
 20
2457.036071842992
 30
0.0
 10
2136.275356114184
 20
2457.150083641846
 30
0.0
 10
2136.322277286382
 20
2457.41264025326
 30
0.0
 10
2136.452454585108
 20
2457.875929441391
 30
0.0
 10
2136.707736766763
 20
2458.487555777162
 30
0.0
 10
2137.11424971459
 20
2459.195036370701
 30
0.0
 10
2137.607084560238
 20
2459.887297332649
 30
0.0
 10
2137.993692787392
 20
2460.319607427487
 30
0.0
 10
2138.189081293413
 20
2460.538093268283
 30
0.0
  0
LINE
  5
125
330
1F
100
AcDbEntity
  8
0
  6
Continuous
 62
     7
370
    25
100
AcDbLine
 10
2150.1088512221
 20
2095.899448972
 30
0.0
 11
2141.1088512221
 21
2095.899448972
 31
0.0
  0
LINE
  5
126
330
1F
100
AcDbEntity
  8
0
  6
Continuous
 62
     7
370
    25
100
AcDbLine
 10
2155.1088512221
 20
2103.899448972
 30
0.0
 11
2136.1088512221
 21
2103.899448972
 31
0.0
  0
LINE
  5
127
330
1F
100
AcDbEntity
  8
0
  6
Continuous
 62
     7
370
    25
100
AcDbLine
 10
1365.1088512221
 20
2103.899448972
 30
0.0
 11
1346.1088512221
 21
2103.899448972
 31
0.0
  0
LINE
  5
128
330
1F
100
AcDbEntity
  8
0
  6
Continuous
 62
     7
370
    25
100
AcDbLine
 10
1360.1088512221
 20
2095.899448972
 30
0.0
 11
1351.1088512221
 21
2095.899448972
 31
0.0
  0
LINE
  5
129
330
1F
100
AcDbEntity
  8
0
  6
Continuous
 62
     8
370
    18
100
AcDbLine
 10
2208.6088512221
 20
2448.8994489763
 30
0.0
 11
2208.6088512221
 21
2458.8994489763
 31
0.0
  0
LINE
  5
12A
330
1F
100
AcDbEntity
  8
0
  6
Continuous
 62
     8
370
    18
100
AcDbLine
 10
1292.6088512221
 20
2458.8994489763
 30
0.0
 11
1292.6088512221
 21
2448.8994489763
 31
0.0
  0
LINE
  5
12B
330
1F
100
AcDbEntity
  8
0
  6
Continuous
 62
     8
370
    18
100
AcDbLine
 10
2136.2742358956
 20
2446.3994489763
 30
0.0
 11
1364.9434665487
 21
2446.3994489763
 31
0.0
  0
LINE
  5
12C
330
1F
100
AcDbEntity
  8
0
  6
Continuous
 62
     8
370
    18
100
AcDbLine
 10
2136.2742358956
 20
2416.3994489763
 30
0.0
 11
1364.9434665487
 21
2416.3994489763
 31
0.0
  0
LINE
  5
12D
330
1F
100
AcDbEntity
  8
0
  6
Continuous
 62
     8
370
    18
100
AcDbLine
 10
1358.4905174234
 20
2460.8124048487
 30
0.0
 11
1358.4905174234
 21
2103.899448972
 31
0.0
  0
LINE
  5
12E
330
1F
100
AcDbEntity
  8
0
  6
Continuous
 62
     8
370
    18
100
AcDbLine
 10
1352.7271850209
 20
2460.8124048487
 30
0.0
 11
1352.7271850209
 21
2103.899448972
 31
0.0
  0
LINE
  5
12F
330
1F
100
AcDbEntity
  8
0
  6
Continuous
 62
     8
370
    18
100
AcDbLine
 10
1351.9695745941
 20
2460.7951450887
 30
0.0
 11
1351.9695745941
 21
2103.899448972
 31
0.0
  0
LINE
  5
130
330
1F
100
AcDbEntity
  8
0
  6
Continuous
 62
     8
370
    18
100
AcDbLine
 10
1359.2481278502
 20
2460.7951450887
 30
0.0
 11
1359.2481278502
 21
2103.899448972
 31
0.0
  0
LINE
  5
131
330
1F
100
AcDbEntity
  8
0
  6
Continuous
 62
     8
370
    18
100
AcDbLine
 10
1363.0286211509
 20
2460.5380932683
 30
0.0
 11
1363.0286211509
 21
2460.306553548
 31
0.0
  0
LINE
  5
132
330
1F
100
AcDbEntity
  8
0
  6
Continuous
 62
     8
370
    18
100
AcDbLine
 10
1348.1890812934
 20
2460.5380932683
 30
0.0
 11
1348.1890812934
 21
2460.2824380577
 31
0.0
  0
LINE
  5
133
330
1F
100
AcDbEntity
  8
0
  6
Continuous
 62
     8
370
    18
100
AcDbLine
 10
2148.4905174234
 20
2460.8124048487
 30
0.0
 11
2148.4905174234
 21
2103.899448972
 31
0.0
  0
LINE
  5
134
330
1F
100
AcDbEntity
  8
0
  6
Continuous
 62
     8
370
    18
100
AcDbLine
 10
2142.7271850209
 20
2460.8124048487
 30
0.0
 11
2142.7271850209
 21
2103.899448972
 31
0.0
  0
LINE
  5
135
330
1F
100
AcDbEntity
  8
0
  6
Continuous
 62
     8
370
    18
100
AcDbLine
 10
2141.9695745941
 20
2460.7951450887
 30
0.0
 11
2141.9695745941
 21
2103.899448972
 31
0.0
  0
LINE
  5
136
330
1F
100
AcDbEntity
  8
0
  6
Continuous
 62
     8
370
    18
100
AcDbLine
 10
2149.2481278502
 20
2460.7951450887
 30
0.0
 11
2149.2481278502
 21
2103.899448972
 31
0.0
  0
LINE
  5
137
330
1F
100
AcDbEntity
  8
0
  6
Continuous
 62
     8
370
    18
100
AcDbLine
 10
2153.0286211509
 20
2460.5380932683
 30
0.0
 11
2153.0286211509
 21
2460.306553548
 31
0.0
  0
LINE
  5
138
330
1F
100
AcDbEntity
  8
0
  6
Continuous
 62
     8
370
    18
100
AcDbLine
 10
2138.1890812934
 20
2460.5380932683
 30
0.0
 11
2138.1890812934
 21
2460.2824380577
 31
0.0
  0
LINE
  5
139
330
1F
100
AcDbEntity
  8
0
  6
Continuous
 62
     8
370
    18
100
AcDbLine
 10
2136.1088512221
 20
2100.899448972
 30
0.0
 11
2155.1088512221
 21
2100.899448972
 31
0.0
  0
LINE
  5
13A
330
1F
100
AcDbEntity
  8
0
  6
Continuous
 62
     8
370
    18
100
AcDbLine
 10
1346.1088512221
 20
2100.899448972
 30
0.0
 11
1365.1088512221
 21
2100.899448972
 31
0.0
  0
LINE
  5
13B
330
1F
100
AcDbEntity
  8
0
  6
Continuous
 62
     7
370
    25
100
AcDbLine
 10
2435.681030311
 20
2103.899448972
 30
0.0
 11
2435.681030311
 21
2414.3494997615
 31
0.0
  0
LINE
  5
13C
330
1F
100
AcDbEntity
  8
0
  6
Continuous
 62
     7
370
    25
100
AcDbLine
 10
2435.681030311
 20
2448.449398191
 30
0.0
 11
2435.681030311
 21
2459.9429929067
 31
0.0
  0
ARC
  5
13D
330
1F
100
AcDbEntity
  8
0
  6
Continuous
 62
     7
370
    25
100
AcDbCircle
 10
2430.9829441595
 20
2453.899448972
 30
0.0
 40
10.00000000000005
100
AcDbArc
 50
40.3981321448
 51
156.5049452051
  0
LINE
  5
13E
330
1F
100
AcDbEntity
  8
0
  6
Continuous
 62
     7
370
    25
100
AcDbLine
 10
2424.2931661238
 20
2459.2563420635
 30
0.0
 11
2424.2931661238
 21
2103.899448972
 31
0.0
  0
LINE
  5
13F
330
1F
100
AcDbEntity
  8
0
  6
Continuous
 62
     7
370
    25
100
AcDbLine
 10
2440.1563213518
 20
2103.899448972
 30
0.0
 11
2440.1563213518
 21
2413.8994489763
 31
0.0
  0
LINE
  5
140
330
1F
100
AcDbEntity
  8
0
  6
Continuous
 62
     7
370
    25
100
AcDbLine
 10
2440.1563213518
 20
2448.8994489763
 30
0.0
 11
2440.1563213518
 21
2456.672272765
 31
0.0
  0
LINE
  5
141
330
1F
100
AcDbEntity
  8
0
  6
Continuous
 62
     7
370
    25
100
AcDbLine
 10
2421.8095669673
 20
2457.8855256006
 30
0.0
 11
2421.8095669673
 21
2103.899448972
 31
0.0
  0
LINE
  5
142
330
1F
100
AcDbEntity
  8
0
  6
Continuous
 62
     7
370
    25
100
AcDbLine
 10
3435.6426336587
 20
2459.9420434527
 30
0.0
 11
3435.6426336587
 21
2448.449398191
 31
0.0
  0
LINE
  5
143
330
1F
100
AcDbEntity
  8
0
  6
Continuous
 62
     7
370
    25
100
AcDbLine
 10
3435.6426336587
 20
2414.3494997616
 30
0.0
 11
3435.6426336587
 21
2103.899448972
 31
0.0
  0
ARC
  5
144
330
1F
100
AcDbEntity
  8
0
  6
Continuous
 62
     7
370
    25
100
AcDbCircle
 10
3440.3407198102
 20
2453.899448972
 30
0.0
 40
10.00000000000045
100
AcDbArc
 50
23.4929417108
 51
139.6003671329
  0
LINE
  5
145
330
1F
100
AcDbEntity
  8
0
  6
Continuous
 62
     7
370
    25
100
AcDbLine
 10
3447.0304978459
 20
2103.899448972
 30
0.0
 11
3447.0304978459
 21
2459.2558460328
 31
0.0
  0
LINE
  5
146
330
1F
100
AcDbEntity
  8
0
  6
Continuous
 62
     7
370
    25
100
AcDbLine
 10
3431.167342618
 20
2456.6693009131
 30
0.0
 11
3431.167342618
 21
2448.8994489763
 31
0.0
  0
LINE
  5
147
330
1F
100
AcDbEntity
  8
0
  6
Continuous
 62
     7
370
    25
100
AcDbLine
 10
3431.167342618
 20
2413.8994489763
 30
0.0
 11
3431.167342618
 21
2103.899448972
 31
0.0
  0
LINE
  5
148
330
1F
100
AcDbEntity
  8
0
  6
Continuous
 62
     7
370
    25
100
AcDbLine
 10
3449.5140970024
 20
2103.899448972
 30
0.0
 11
3449.5140970024
 21
2457.8855256006
 31
0.0
  0
LINE
  5
149
330
1F
100
AcDbEntity
  8
0
  6
Continuous
 62
     7
370
    25
100
AcDbLine
 10
2440.8095669673
 20
2100.899448972
 30
0.0
 11
2440.8095669673
 21
2103.899448972
 31
0.0
  0
LINE
  5
14A
330
1F
100
AcDbEntity
  8
0
  6
Continuous
 62
     7
370
    25
100
AcDbLine
 10
2421.8095669673
 20
2103.899448972
 30
0.0
 11
2421.8095669673
 21
2100.899448972
 31
0.0
  0
ARC
  5
14B
330
1F
100
AcDbEntity
  8
0
  6
Continuous
 62
     7
370
    25
100
AcDbCircle
 10
2426.8095669673
 20
2100.899448972
 30
0.0
 40
5.0
100
AcDbArc
 50
180.0
 51
270.0
  0
ARC
  5
14C
330
1F
100
AcDbEntity
  8
0
  6
Continuous
 62
     7
370
    25
100
AcDbCircle
 10
2435.8095669673
 20
2100.899448972
 30
0.0
 40
5.0
100
AcDbArc
 50
270.0
 51
0.0
  0
ARC
  5
14D
330
1F
100
AcDbEntity
  8
0
  6
Continuous
 62
     7
370
    25
100
AcDbCircle
 10
3435.5140970024
 20
2100.899448972
 30
0.0
 40
5.000000000000455
100
AcDbArc
 50
180.0
 51
270.0
  0
ARC
  5
14E
330
1F
100
AcDbEntity
  8
0
  6
Continuous
 62
     7
370
    25
100
AcDbCircle
 10
3444.5140970024
 20
2100.899448972
 30
0.0
 40
5.000000000000455
100
AcDbArc
 50
270.0
 51
0.0
  0
LINE
  5
14F
330
1F
100
AcDbEntity
  8
0
  6
Continuous
 62
     7
370
    25
100
AcDbLine
 10
3449.5140970024
 20
2100.899448972
 30
0.0
 11
3449.5140970024
 21
2103.899448972
 31
0.0
  0
LINE
  5
150
330
1F
100
AcDbEntity
  8
0
  6
Continuous
 62
     7
370
    25
100
AcDbLine
 10
3430.5140970024
 20
2103.899448972
 30
0.0
 11
3430.5140970024
 21
2100.899448972
 31
0.0
  0
LINE
  5
151
330
1F
100
AcDbEntity
  8
0
  6
Continuous
 62
     7
370
    25
100
AcDbLine
 10
2440.6618319849
 20
2448.8994489763
 30
0.0
 11
2440.6618319849
 21
2458.8994489763
 31
0.0
  0
LINE
  5
152
330
1F
100
AcDbEntity
  8
0
  6
Continuous
 62
     7
370
    25
100
AcDbLine
 10
2440.6618319849
 20
2458.8994489763
 30
0.0
 11
2477.6618319849
 21
2458.8994489763
 31
0.0
  0
LINE
  5
153
330
1F
100
AcDbEntity
  8
0
  6
Continuous
 62
     7
370
    25
100
AcDbLine
 10
2477.6618319849
 20
2448.8994489763
 30
0.0
 11
2440.6618319849
 21
2448.8994489763
 31
0.0
  0
LINE
  5
154
330
1F
100
AcDbEntity
  8
0
  6
Continuous
 62
     7
370
    25
100
AcDbLine
 10
3393.6618319849
 20
2458.8994489763
 30
0.0
 11
2477.6618319849
 21
2458.8994489763
 31
0.0
  0
LINE
  5
155
330
1F
100
AcDbEntity
  8
0
  6
Continuous
 62
     7
370
    25
100
AcDbLine
 10
3393.6618319849
 20
2448.8994489763
 30
0.0
 11
2477.6618319849
 21
2448.8994489763
 31
0.0
  0
LINE
  5
156
330
1F
100
AcDbEntity
  8
0
  6
Continuous
 62
     7
370
    25
100
AcDbLine
 10
3430.6618319849
 20
2458.8994489763
 30
0.0
 11
3430.6618319849
 21
2448.8994489763
 31
0.0
  0
LINE
  5
157
330
1F
100
AcDbEntity
  8
0
  6
Continuous
 62
     7
370
    25
100
AcDbLine
 10
3393.6618319849
 20
2458.8994489763
 30
0.0
 11
3430.6618319849
 21
2458.8994489763
 31
0.0
  0
LINE
  5
158
330
1F
100
AcDbEntity
  8
0
  6
Continuous
 62
     7
370
    25
100
AcDbLine
 10
3430.6618319849
 20
2448.8994489763
 30
0.0
 11
3393.6618319849
 21
2448.8994489763
 31
0.0
  0
LINE
  5
159
330
1F
100
AcDbEntity
  8
0
  6
Continuous
 62
     7
370
    25
100
AcDbLine
 10
2435.4818319849
 20
2416.3994489763
 30
0.0
 11
2435.4818319849
 21
2446.3994489763
 31
0.0
  0
LINE
  5
15A
330
1F
100
AcDbEntity
  8
0
  6
Continuous
 62
     7
370
    25
100
AcDbLine
 10
3435.8418319849
 20
2416.3994489763
 30
0.0
 11
3435.8418319849
 21
2446.3994489763
 31
0.0
  0
LINE
  5
15B
330
1F
100
AcDbEntity
  8
0
  6
Continuous
 62
     7
370
    25
100
AcDbLine
 10
2435.4818319849
 20
2446.3994489763
 30
0.0
 11
2435.4818319849
 21
2446.644920208
 31
0.0
  0
LINE
  5
15C
330
1F
100
AcDbEntity
  8
0
  6
Continuous
 62
     7
370
    25
100
AcDbLine
 10
2439.2174483085
 20
2448.8994489763
 30
0.0
 11
2440.6618319849
 21
2448.8994489763
 31
0.0
  0
LINE
  5
15D
330
1F
100
AcDbEntity
  8
0
  6
Continuous
 62
     7
370
    25
100
AcDbLine
 10
3430.6618319849
 20
2448.8994489763
 30
0.0
 11
3432.1042615076
 21
2448.8994489763
 31
0.0
  0
LINE
  5
15E
330
1F
100
AcDbEntity
  8
0
  6
Continuous
 62
     7
370
    25
100
AcDbLine
 10
3435.8418319849
 20
2446.3994489763
 30
0.0
 11
3435.8418319849
 21
2446.6335598245
 31
0.0
  0
LINE
  5
15F
330
1F
100
AcDbEntity
  8
0
  6
Continuous
 62
     7
370
    25
100
AcDbLine
 10
2439.2174483085
 20
2413.8994489763
 30
0.0
 11
3432.1042615076
 21
2413.8994489763
 31
0.0
  0
LINE
  5
160
330
1F
100
AcDbEntity
  8
0
  6
Continuous
 62
     7
370
    25
100
AcDbLine
 10
2435.4818319849
 20
2416.1539777445
 30
0.0
 11
2435.4818319849
 21
2416.3994489763
 31
0.0
  0
LINE
  5
161
330
1F
100
AcDbEntity
  8
0
  6
Continuous
 62
     7
370
    25
100
AcDbLine
 10
3435.8418319849
 20
2416.1653381281
 30
0.0
 11
3435.8418319849
 21
2416.3994489763
 31
0.0
  0
LINE
  5
162
330
1F
100
AcDbEntity
  8
0
  6
Continuous
 62
     7
370
    25
100
AcDbLine
 10
3432.1042615076
 20
2413.8994489763
 30
0.0
 11
3432.1062156613
 21
2413.8994489763
 31
0.0
  0
LINE
  5
163
330
1F
100
AcDbEntity
  8
0
  6
Continuous
 62
     7
370
    25
100
AcDbLine
 10
3432.1042615076
 20
2448.8994489763
 30
0.0
 11
3432.1062156613
 21
2448.8994489763
 31
0.0
  0
SPLINE
  5
164
330
1F
100
AcDbEntity
  8
0
  6
Continuous
 62
     7
370
    25
100
AcDbSpline
210
0.0
220
0.0
230
1.0
 70
     8
 71
     3
 72
    28
 73
    24
 74
     0
 42
0.000000001
 43
0.00000001
 40
0.0
 40
0.0
 40
0.0
 40
0.0
 40
0.0885577904272314
 40
0.1796438193735504
 40
0.2695757108504248
 40
0.3157367678527863
 40
0.3623220932277382
 40
0.3904539690316862
 40
0.4187952486339954
 40
0.446962590523525
 40
0.475784935952899
 40
0.4937651259402122
 40
0.5122126959858404
 40
0.5302154725933145
 40
0.5487865500347898
 40
0.5721716297902729
 40
0.5962043255368785
 40
0.6385840534980224
 40
0.6819817284823761
 40
0.7628828890611713
 40
0.845944899194264
 40
0.9222316806844282
 40
1.0
 40
1.0
 40
1.0
 40
1.0
 10
2430.047307418029
 20
2460.538093268283
 30
0.0
 10
2430.142226854564
 20
2460.298413733414
 30
0.0
 10
2430.334775584945
 20
2459.812212046786
 30
0.0
 10
2430.792034865481
 20
2459.057776428598
 30
0.0
 10
2431.259433367535
 20
2458.422807001473
 30
0.0
 10
2431.68990292004
 20
2457.925004246613
 30
0.0
 10
2432.000692585196
 20
2457.606810103849
 30
0.0
 10
2432.286760172829
 20
2457.35073727271
 30
0.0
 10
2432.537136872142
 20
2457.154728617634
 30
0.0
 10
2432.807780212837
 20
2456.979707835015
 30
0.0
 10
2433.064447036795
 20
2456.857966499439
 30
0.0
 10
2433.299023889414
 20
2456.789129863825
 30
0.0
 10
2433.498797770721
 20
2456.761983945183
 30
0.0
 10
2433.698688020259
 20
2456.769136902292
 30
0.0
 10
2433.907273612317
 20
2456.813560018816
 30
0.0
 10
2434.119408069821
 20
2456.901298706974
 30
0.0
 10
2434.378222347491
 20
2457.062813288038
 30
0.0
 10
2434.649185278915
 20
2457.307895042628
 30
0.0
 10
2434.989740243439
 20
2457.725000028661
 30
0.0
 10
2435.313595104236
 20
2458.287436621627
 30
0.0
 10
2435.558662914117
 20
2458.957343123167
 30
0.0
 10
2435.690354677984
 20
2459.621061332784
 30
0.0
 10
2435.674263837165
 20
2460.042759617288
 30
0.0
 10
2435.666141044474
 20
2460.255636481947
 30
0.0
  0
SPLINE
  5
165
330
1F
100
AcDbEntity
  8
0
  6
Continuous
 62
     7
370
    25
100
AcDbSpline
210
0.0
220
0.0
230
1.0
 70
     8
 71
     3
 72
    14
 73
    10
 74
     0
 42
0.000000001
 43
0.00000001
 40
0.0
 40
0.0
 40
0.0
 40
0.0
 40
0.220765348438179
 40
0.3402146168140553
 40
0.4605704991790948
 40
0.5641909618660854
 40
0.6633542991971745
 40
0.8105247403618525
 40
1.0
 40
1.0
 40
1.0
 40
1.0
 10
2429.22750600434
 20
2460.578305893038
 30
0.0
 10
2429.278048443983
 20
2460.634739371044
 30
0.0
 10
2429.355937826792
 20
2460.721707249977
 30
0.0
 10
2429.51385112283
 20
2460.799005314945
 30
0.0
 10
2429.646356304899
 20
2460.825184425316
 30
0.0
 10
2429.767867879221
 20
2460.812555922937
 30
0.0
 10
2429.87983010007
 20
2460.767096314814
 30
0.0
 10
2429.985701480718
 20
2460.677623266965
 30
0.0
 10
2430.025120883286
 20
2460.588343086701
 30
0.0
 10
2430.047307418029
 20
2460.538093268283
 30
0.0
  0
SPLINE
  5
166
330
1F
100
AcDbEntity
  8
0
  6
Continuous
 62
     7
370
    25
100
AcDbSpline
210
0.0
220
0.0
230
1.0
 70
     8
 71
     3
 72
    23
 73
    19
 74
     0
 42
0.000000001
 43
0.00000001
 40
0.0
 40
0.0
 40
0.0
 40
0.0
 40
0.086390105063673
 40
0.1752766177962657
 40
0.2621177065427438
 40
0.3519363559727683
 40
0.4192459175639057
 40
0.452807600612898
 40
0.4875598503476028
 40
0.534232617054251
 40
0.5808027178643259
 40
0.6174159281963868
 40
0.6550189806174282
 40
0.7176192476618429
 40
0.7818570182170677
 40
0.868941619754452
 40
0.9585429605715874
 40
1.0
 40
1.0
 40
1.0
 40
1.0
 10
2424.721551288084
 20
2460.795145088706
 30
0.0
 10
2424.61772113505
 20
2460.584292722179
 30
0.0
 10
2424.407060457699
 20
2460.156495005857
 30
0.0
 10
2424.280846023356
 20
2459.500256474055
 30
0.0
 10
2424.296136607404
 20
2458.844572793362
 30
0.0
 10
2424.465974290349
 20
2458.272174366371
 30
0.0
 10
2424.731199507765
 20
2457.887729436366
 30
0.0
 10
2424.998581469573
 20
2457.684167256792
 30
0.0
 10
2425.274844198797
 20
2457.571833036546
 30
0.0
 10
2425.644887547744
 20
2457.55950282295
 30
0.0
 10
2426.04687752301
 20
2457.684634413077
 30
0.0
 10
2426.412497010055
 20
2457.874585952753
 30
0.0
 10
2426.813590185536
 20
2458.137574329224
 30
0.0
 10
2427.272995786861
 20
2458.50202728752
 30
0.0
 10
2427.835117135411
 20
2459.012502918394
 30
0.0
 10
2428.421306807729
 20
2459.61026471291
 30
0.0
 10
2428.899968417231
 20
2460.155527894813
 30
0.0
 10
2429.148795714624
 20
2460.476708458008
 30
0.0
 10
2429.22750600434
 20
2460.578305893038
 30
0.0
  0
SPLINE
  5
167
330
1F
100
AcDbEntity
  8
0
  6
Continuous
 62
     7
370
    25
100
AcDbSpline
210
0.0
220
0.0
230
1.0
 70
     8
 71
     3
 72
    14
 73
    10
 74
     0
 42
0.000000001
 43
0.00000001
 40
0.0
 40
0.0
 40
0.0
 40
0.0
 40
0.2243030424883259
 40
0.3489011866266116
 40
0.4744001356117633
 40
0.5826741857066091
 40
0.6867417687947664
 40
0.8381564871696764
 40
1.0
 40
1.0
 40
1.0
 40
1.0
 10
2424.356705335619
 20
2460.812404848667
 30
0.0
 10
2424.421317986649
 20
2460.867336850213
 30
0.0
 10
2424.521822332757
 20
2460.952783040823
 30
0.0
 10
2424.654007668387
 20
2461.028632124359
 30
0.0
 10
2424.736353228016
 20
2461.054313082668
 30
0.0
 10
2424.783734246693
 20
2461.041495808145
 30
0.0
 10
2424.801152594122
 20
2460.996084485042
 30
0.0
 10
2424.783746620407
 20
2460.913906793791
 30
0.0
 10
2424.742738141619
 20
2460.835601289471
 30
0.0
 10
2424.721551288084
 20
2460.795145088706
 30
0.0
  0
SPLINE
  5
168
330
1F
100
AcDbEntity
  8
0
  6
Continuous
 62
     7
370
    25
100
AcDbSpline
210
0.0
220
0.0
230
1.0
 70
     8
 71
     3
 72
    17
 73
    13
 74
     0
 42
0.000000001
 43
0.00000001
 40
0.0
 40
0.0
 40
0.0
 40
0.0
 40
0.0233562549596539
 40
0.0741096899408842
 40
0.1261939398841503
 40
0.1991279214567283
 40
0.2740840535805592
 40
0.392111920490706
 40
0.5132742113945554
 40
0.6802911655955101
 40
0.852109960728256
 40
1.0
 40
1.0
 40
1.0
 40
1.0
 10
2421.812729873796
 20
2457.885526116184
 30
0.0
 10
2421.812012800914
 20
2457.884398047111
 30
0.0
 10
2421.809737519664
 20
2457.880818669794
 30
0.0
 10
2421.832390133216
 20
2457.91645783189
 30
0.0
 10
2421.88387901824
 20
2457.996333616266
 30
0.0
 10
2421.975326501675
 20
2458.13475596796
 30
0.0
 10
2422.134156992058
 20
2458.365295231247
 30
0.0
 10
2422.368938951146
 20
2458.686205567123
 30
0.0
 10
2422.728979676606
 20
2459.139861171867
 30
0.0
 10
2423.201990383064
 20
2459.680841166241
 30
0.0
 10
2423.764286930786
 20
2460.263160496218
 30
0.0
 10
2424.169337944275
 20
2460.638692349715
 30
0.0
 10
2424.356705335619
 20
2460.812404848667
 30
0.0
  0
SPLINE
  5
169
330
1F
100
AcDbEntity
  8
0
  6
Continuous
 62
     7
370
    25
100
AcDbSpline
210
0.0
220
0.0
230
1.0
 70
     8
 71
     3
 72
    11
 73
     7
 74
     0
 42
0.000000001
 43
0.00000001
 40
0.0
 40
0.0
 40
0.0
 40
0.0
 40
0.4262297972143079
 40
0.6672021834020352
 40
0.8697694414879596
 40
1.0
 40
1.0
 40
1.0
 40
1.0
 10
2438.82418694658
 20
2460.091229008658
 30
0.0
 10
2438.776981090854
 20
2460.152504989359
 30
0.0
 10
2438.703087031322
 20
2460.24842383028
 30
0.0
 10
2438.631109611515
 20
2460.339277388536
 30
0.0
 10
2438.597713449781
 20
2460.381153003269
 30
0.0
 10
2438.598042711682
 20
2460.380734590138
 30
0.0
 10
2438.598171558564
 20
2460.380570856565
 30
0.0
  0
SPLINE
  5
16A
330
1F
100
AcDbEntity
  8
0
  6
Continuous
 62
     7
370
    25
100
AcDbSpline
210
0.0
220
0.0
230
1.0
 70
     8
 71
     3
 72
    25
 73
    21
 74
     0
 42
0.000000001
 43
0.00000001
 40
0.0
 40
0.0
 40
0.0
 40
0.0
 40
0.089717432945805
 40
0.1819517780464741
 40
0.2741564286250123
 40
0.3213347009144688
 40
0.3688705103640608
 40
0.423658803848755
 40
0.451036125004894
 40
0.4792430363670712
 40
0.5037913906395246
 40
0.5284414423184051
 40
0.5611619013115616
 40
0.6013318478780343
 40
0.6426256193945199
 40
0.7286913895866834
 40
0.8169611916237424
 40
0.9072669371779624
 40
0.9534664517756424
 40
1.0
 40
1.0
 40
1.0
 40
1.0
 10
2436.323570733976
 20
2460.221763152694
 30
0.0
 10
2436.558793409308
 20
2459.951319369615
 30
0.0
 10
2437.035837642609
 20
2459.402844835992
 30
0.0
 10
2437.746923214479
 20
2458.544681793156
 30
0.0
 10
2438.314044539487
 20
2457.815028201968
 30
0.0
 10
2438.74430314977
 20
2457.233295767096
 30
0.0
 10
2439.073194538977
 20
2456.778636619027
 30
0.0
 10
2439.345698328114
 20
2456.40321744707
 30
0.0
 10
2439.571139262714
 20
2456.126448851516
 30
0.0
 10
2439.732593584498
 20
2455.966467227067
 30
0.0
 10
2439.880626834403
 20
2455.892880308951
 30
0.0
 10
2440.008119286865
 20
2455.938198270059
 30
0.0
 10
2440.102884772023
 20
2456.123695445406
 30
0.0
 10
2440.153781019581
 20
2456.419366857479
 30
0.0
 10
2440.163484069144
 20
2456.903217227778
 30
0.0
 10
2440.072163636079
 20
2457.571248815141
 30
0.0
 10
2439.816267730346
 20
2458.40407185813
 30
0.0
 10
2439.476984004381
 20
2459.108059919977
 30
0.0
 10
2439.132229360954
 20
2459.671628611792
 30
0.0
 10
2438.927114033243
 20
2459.951026736514
 30
0.0
 10
2438.82418694658
 20
2460.091229008658
 30
0.0
  0
SPLINE
  5
16B
330
1F
100
AcDbEntity
  8
0
  6
Continuous
 62
     7
370
    25
100
AcDbSpline
210
0.0
220
0.0
230
1.0
 70
     8
 71
     3
 72
    15
 73
    11
 74
     0
 42
0.000000001
 43
0.00000001
 40
0.0
 40
0.0
 40
0.0
 40
0.0
 40
0.2155767705932649
 40
0.3329005538677319
 40
0.4328760582231109
 40
0.5332634977247579
 40
0.6250838127945265
 40
0.7535547096889059
 40
0.9421338378892272
 40
1.0
 40
1.0
 40
1.0
 40
1.0
 10
2435.666141044474
 20
2460.255636481947
 30
0.0
 10
2435.665489524019
 20
2460.314856932686
 30
0.0
 10
2435.664483425265
 20
2460.406307049491
 30
0.0
 10
2435.723324823692
 20
2460.489457607619
 30
0.0
 10
2435.795284317952
 20
2460.523682851751
 30
0.0
 10
2435.885248552839
 20
2460.522596714307
 30
0.0
 10
2435.994830357375
 20
2460.487787757671
 30
0.0
 10
2436.133212884441
 20
2460.407397006744
 30
0.0
 10
2436.245466307459
 20
2460.308580150101
 30
0.0
 10
2436.308718833496
 20
2460.238271786878
 30
0.0
 10
2436.323570733976
 20
2460.221763152694
 30
0.0
  0
SPLINE
  5
16C
330
1F
100
AcDbEntity
  8
0
  6
Continuous
 62
     7
370
    25
100
AcDbSpline
210
0.0
220
0.0
230
1.0
 70
     8
 71
     3
 72
    27
 73
    23
 74
     0
 42
0.000000001
 43
0.00000001
 40
0.0
 40
0.0
 40
0.0
 40
0.0
 40
0.0910683471803989
 40
0.1847464164709032
 40
0.2588266946055596
 40
0.334519059825923
 40
0.3626447427195296
 40
0.3910056482847569
 40
0.4191743039829995
 40
0.4481203606979758
 40
0.465770478244767
 40
0.4839081706433218
 40
0.5015721548764686
 40
0.5197440214872958
 40
0.5448446854435509
 40
0.5706253690117586
 40
0.6177938154944812
 40
0.6660858441031565
 40
0.7518796859636273
 40
0.8400397940083121
 40
0.9191574739584859
 40
1.0
 40
1.0
 40
1.0
 40
1.0
 10
3435.657522925268
 20
2460.255636481947
 30
0.0
 10
3435.650537971815
 20
2460.005948195432
 30
0.0
 10
3435.636367898899
 20
2459.49941636965
 30
0.0
 10
3435.818919438464
 20
2458.772404144128
 30
0.0
 10
3436.107552517361
 20
2458.098268322805
 30
0.0
 10
3436.409590968485
 20
2457.62291499936
 30
0.0
 10
3436.690873984753
 20
2457.299265480587
 30
0.0
 10
3436.894861139915
 20
2457.10799881616
 30
0.0
 10
3437.129012857144
 20
2456.940324723329
 30
0.0
 10
3437.363464087943
 20
2456.829906489068
 30
0.0
 10
3437.585893620813
 20
2456.774994009743
 30
0.0
 10
3437.778800372744
 20
2456.760720423467
 30
0.0
 10
3437.97691785465
 20
2456.779827737145
 30
0.0
 10
3438.19761128013
 20
2456.836213431262
 30
0.0
 10
3438.437589878957
 20
2456.938849440795
 30
0.0
 10
3438.756301270823
 20
2457.127920381816
 30
0.0
 10
3439.115529791524
 20
2457.410717436995
 30
0.0
 10
3439.598782331665
 20
2457.876912633337
 30
0.0
 10
3440.120744772954
 20
2458.487221797598
 30
0.0
 10
3440.619290313899
 20
2459.19511614488
 30
0.0
 10
3441.021855002923
 20
2459.887277808812
 30
0.0
 10
3441.190915045664
 20
2460.319600872926
 30
0.0
 10
3441.276356551714
 20
2460.538093268283
 30
0.0
  0
SPLINE
  5
16D
330
1F
100
AcDbEntity
  8
0
  6
Continuous
 62
     7
370
    25
100
AcDbSpline
210
0.0
220
0.0
230
1.0
 70
     8
 71
     3
 72
    17
 73
    13
 74
     0
 42
0.000000001
 43
0.00000001
 40
0.0
 40
0.0
 40
0.0
 40
0.0
 40
0.1708555815792168
 40
0.3466621059188107
 40
0.4897130533337904
 40
0.6362572909171106
 40
0.7155621580245038
 40
0.7961844284467536
 40
0.8575532193122585
 40
0.920413820978598
 40
0.9711575119243842
 40
1.0
 40
1.0
 40
1.0
 40
1.0
 10
3446.966958634123
 20
2460.812404848667
 30
0.0
 10
3447.183025480529
 20
2460.611437454464
 30
0.0
 10
3447.621420218951
 20
2460.203679162628
 30
0.0
 10
3448.178529219482
 20
2459.61759949085
 30
0.0
 10
3448.650018849032
 20
2459.073351573329
 30
0.0
 10
3448.971810341929
 20
2458.663023065997
 30
0.0
 10
3449.19589226042
 20
2458.355524264655
 30
0.0
 10
3449.331095000117
 20
2458.160136831321
 30
0.0
 10
3449.428905303891
 20
2458.013052628115
 30
0.0
 10
3449.485509521034
 20
2457.925491037061
 30
0.0
 10
3449.51271678377
 20
2457.882725052973
 30
0.0
 10
3449.511408315425
 20
2457.884780994819
 30
0.0
 10
3449.510934118987
 20
2457.885526079945
 30
0.0
  0
SPLINE
  5
16E
330
1F
100
AcDbEntity
  8
0
  6
Continuous
 62
     7
370
    25
100
AcDbSpline
210
0.0
220
0.0
230
1.0
 70
     8
 71
     3
 72
    14
 73
    10
 74
     0
 42
0.000000001
 43
0.00000001
 40
0.0
 40
0.0
 40
0.0
 40
0.0
 40
0.2239799089306602
 40
0.3530600787850526
 40
0.4831615846560798
 40
0.5937368434044649
 40
0.6971871626482021
 40
0.8442013099711085
 40
1.0
 40
1.0
 40
1.0
 40
1.0
 10
3446.602112681658
 20
2460.795145088705
 30
0.0
 10
3446.57369467489
 20
2460.850992319009
 30
0.0
 10
3446.52889930125
 20
2460.93902444486
 30
0.0
 10
3446.525174097888
 20
2461.021873144969
 30
0.0
 10
3446.559690791429
 20
2461.053590501677
 30
0.0
 10
3446.627172285265
 20
2461.044550255765
 30
0.0
 10
3446.719388126936
 20
2461.002509578551
 30
0.0
 10
3446.836817943692
 20
2460.925137745474
 30
0.0
 10
3446.92274747091
 20
2460.850702267282
 30
0.0
 10
3446.966958634123
 20
2460.812404848667
 30
0.0
  0
SPLINE
  5
16F
330
1F
100
AcDbEntity
  8
0
  6
Continuous
 62
     7
370
    25
100
AcDbSpline
210
0.0
220
0.0
230
1.0
 70
     8
 71
     3
 72
    25
 73
    21
 74
     0
 42
0.000000001
 43
0.00000001
 40
0.0
 40
0.0
 40
0.0
 40
0.0
 40
0.0875462653424556
 40
0.17762759296003
 40
0.2471474788262656
 40
0.318248505808561
 40
0.3544110039426032
 40
0.3911111694055485
 40
0.4196256508468989
 40
0.4488279610873451
 40
0.4955774367114223
 40
0.5423030312794792
 40
0.5762969204455036
 40
0.6112229844817039
 40
0.6688576767939515
 40
0.7279867562248815
 40
0.8132488808160989
 40
0.9009541844562668
 40
0.9502506997642257
 40
1.0
 40
1.0
 40
1.0
 40
1.0
 10
3442.096157965402
 20
2460.578305893038
 30
0.0
 10
3442.267246697846
 20
2460.362551443271
 30
0.0
 10
3442.614378349981
 20
2459.924794978931
 30
0.0
 10
3443.193843441407
 20
2459.30606655654
 30
0.0
 10
3443.776895379398
 20
2458.742657499012
 30
0.0
 10
3444.256872251857
 20
2458.332116361362
 30
0.0
 10
3444.667728329638
 20
2458.030901684737
 30
0.0
 10
3444.967654686336
 20
2457.843227200272
 30
0.0
 10
3445.254348088898
 20
2457.700977309569
 30
0.0
 10
3445.574787797496
 20
2457.587999273181
 30
0.0
 10
3445.944764723944
 20
2457.549381844467
 30
0.0
 10
3446.270557688107
 20
2457.649619607152
 30
0.0
 10
3446.504771652002
 20
2457.816538801193
 30
0.0
 10
3446.710121470493
 20
2458.04659204355
 30
0.0
 10
3446.884488034085
 20
2458.371552744509
 30
0.0
 10
3447.018166451176
 20
2458.844143184192
 30
0.0
 10
3447.050643376946
 20
2459.41605572989
 30
0.0
 10
3446.952331881304
 20
2459.971383349339
 30
0.0
 10
3446.791150503028
 20
2460.433825908925
 30
0.0
 10
3446.665317036734
 20
2460.674338862898
 30
0.0
 10
3446.602112681658
 20
2460.795145088705
 30
0.0
  0
SPLINE
  5
170
330
1F
100
AcDbEntity
  8
0
  6
Continuous
 62
     7
370
    25
100
AcDbSpline
210
0.0
220
0.0
230
1.0
 70
     8
 71
     3
 72
    14
 73
    10
 74
     0
 42
0.000000001
 43
0.00000001
 40
0.0
 40
0.0
 40
0.0
 40
0.0
 40
0.2200911109485595
 40
0.3501199592092341
 40
0.4590676183976581
 40
0.5685351145661265
 40
0.6668402217390302
 40
0.7968948941937074
 40
1.0
 40
1.0
 40
1.0
 40
1.0
 10
3441.276356551714
 20
2460.538093268283
 30
0.0
 10
3441.302999873501
 20
2460.596463465932
 30
0.0
 10
3441.345383951154
 20
2460.689318516423
 30
0.0
 10
3441.463575365879
 20
2460.778165252837
 30
0.0
 10
3441.579455457111
 20
2460.818626641332
 30
0.0
 10
3441.701441299089
 20
2460.822297262452
 30
0.0
 10
3441.829105986796
 20
2460.791323691631
 30
0.0
 10
3441.97490764119
 20
2460.715406588398
 30
0.0
 10
3442.050235585139
 20
2460.630231447115
 30
0.0
 10
3442.096157965402
 20
2460.578305893038
 30
0.0
  0
SPLINE
  5
171
330
1F
100
AcDbEntity
  8
0
  6
Continuous
 62
     7
370
    25
100
AcDbSpline
210
0.0
220
0.0
230
1.0
 70
     8
 71
     3
 72
    15
 73
    11
 74
     0
 42
0.000000001
 43
0.00000001
 40
0.0
 40
0.0
 40
0.0
 40
0.0
 40
0.2150763736127623
 40
0.3413349926978211
 40
0.4465934903530034
 40
0.5524796219272401
 40
0.6449070621727223
 40
0.766214653902494
 40
0.940631656051666
 40
1.0
 40
1.0
 40
1.0
 40
1.0
 10
3435.000093235766
 20
2460.221763152694
 30
0.0
 10
3435.0582734975
 20
2460.282406131796
 30
0.0
 10
3435.150607950051
 20
2460.378649017433
 30
0.0
 10
3435.299672483524
 20
2460.473464085558
 30
0.0
 10
3435.416025624887
 20
2460.518854088193
 30
0.0
 10
3435.512744662437
 20
2460.52601997417
 30
0.0
 10
3435.590403571446
 20
2460.497643315242
 30
0.0
 10
3435.64799266275
 20
2460.427156865213
 30
0.0
 10
3435.663299509119
 20
2460.337292743022
 30
0.0
 10
3435.658692776539
 20
2460.272173190021
 30
0.0
 10
3435.657522925268
 20
2460.255636481947
 30
0.0
  0
SPLINE
  5
172
330
1F
100
AcDbEntity
  8
0
  6
Continuous
 62
     7
370
    25
100
AcDbSpline
210
0.0
220
0.0
230
1.0
 70
     8
 71
     3
 72
    26
 73
    22
 74
     0
 42
0.000000001
 43
0.00000001
 40
0.0
 40
0.0
 40
0.0
 40
0.0
 40
0.0912035599485179
 40
0.1849670362499739
 40
0.2785634207445332
 40
0.3265394520589692
 40
0.3749439889046062
 40
0.4231405593180603
 40
0.4430841889857802
 40
0.4634373414447683
 40
0.4878409265543513
 40
0.5123587387507041
 40
0.5280992736585399
 40
0.5442699367721682
 40
0.5755700365325769
 40
0.6075525397506846
 40
0.6834424014570644
 40
0.7611024134338045
 40
0.846910703129909
 40
0.9346000221708252
 40
0.9999999999999999
 40
0.9999999999999999
 40
0.9999999999999999
 40
0.9999999999999999
 10
3432.499477023162
 20
2460.091229008657
 30
0.0
 10
3432.30401329747
 20
2459.81452996591
 30
0.0
 10
3431.907599538443
 20
2459.253365446686
 30
0.0
 10
3431.497315892995
 20
2458.378808473661
 30
0.0
 10
3431.27368027959
 20
2457.637530486079
 30
0.0
 10
3431.180763954466
 20
2457.050200690768
 30
0.0
 10
3431.158127353142
 20
2456.617563686604
 30
0.0
 10
3431.185893810403
 20
2456.292863209181
 30
0.0
 10
3431.242913657794
 20
2456.086139533936
 30
0.0
 10
3431.304389851626
 20
2455.964552227123
 30
0.0
 10
3431.400354576409
 20
2455.894231050879
 30
0.0
 10
3431.518590080027
 20
2455.924327194997
 30
0.0
 10
3431.629123228774
 20
2456.006280374322
 30
0.0
 10
3431.756042638395
 20
2456.131255270277
 30
0.0
 10
3431.918424524375
 20
2456.328742531659
 30
0.0
 10
3432.207919232939
 20
2456.716717720826
 30
0.0
 10
3432.61259837626
 20
2457.282618342841
 30
0.0
 10
3433.174469070502
 20
2458.032411708393
 30
0.0
 10
3433.803330196085
 20
2458.822443645663
 30
0.0
 10
3434.428728386227
 20
2459.565688669034
 30
0.0
 10
3434.829067685228
 20
2460.025381628956
 30
0.0
 10
3435.000093235766
 20
2460.221763152694
 30
0.0
  0
SPLINE
  5
173
330
1F
100
AcDbEntity
  8
0
  6
Continuous
 62
     7
370
    25
100
AcDbSpline
210
0.0
220
0.0
230
1.0
 70
     8
 71
     3
 72
    12
 73
     8
 74
     0
 42
0.000000001
 43
0.00000001
 40
0.0
 40
0.0
 40
0.0
 40
0.0
 40
0.0733358073713822
 40
0.2518937922620487
 40
0.4916952178465564
 40
0.8425160279044197
 40
1.0
 40
1.0
 40
1.0
 40
1.0
 10
3432.72549324291
 20
2460.380571897686
 30
0.0
 10
3432.726409982651
 20
2460.381719183353
 30
0.0
 10
3432.729558799826
 20
2460.385659879552
 30
0.0
 10
3432.706535672094
 20
2460.356855887801
 30
0.0
 10
3432.650560149707
 20
2460.286319168997
 30
0.0
 10
3432.573227916369
 20
2460.187526401246
 30
0.0
 10
3432.516921871147
 20
2460.114006948042
 30
0.0
 10
3432.499477023162
 20
2460.091229008657
 30
0.0
  0
LINE
  5
174
330
1F
100
AcDbEntity
  8
0
  6
Continuous
 62
     7
370
    25
100
AcDbLine
 10
2440.8095669673
 20
2103.899448972
 30
0.0
 11
2421.8095669673
 21
2103.899448972
 31
0.0
  0
LINE
  5
175
330
1F
100
AcDbEntity
  8
0
  6
Continuous
 62
     7
370
    25
100
AcDbLine
 10
2431.3095669673
 20
2095.899448972
 30
0.0
 11
2426.8095669673
 21
2095.899448972
 31
0.0
  0
LINE
  5
176
330
1F
100
AcDbEntity
  8
0
  6
Continuous
 62
     7
370
    25
100
AcDbLine
 10
2435.8095669673
 20
2095.899448972
 30
0.0
 11
2431.3095669673
 21
2095.899448972
 31
0.0
  0
LINE
  5
177
330
1F
100
AcDbEntity
  8
0
  6
Continuous
 62
     7
370
    25
100
AcDbLine
 10
3444.5140970024
 20
2095.899448972
 30
0.0
 11
3435.5140970024
 21
2095.899448972
 31
0.0
  0
LINE
  5
178
330
1F
100
AcDbEntity
  8
0
  6
Continuous
 62
     7
370
    25
100
AcDbLine
 10
3440.0140970024
 20
2103.899448972
 30
0.0
 11
3430.5140970024
 21
2103.899448972
 31
0.0
  0
LINE
  5
179
330
1F
100
AcDbEntity
  8
0
  6
Continuous
 62
     7
370
    25
100
AcDbLine
 10
3449.5140970024
 20
2103.899448972
 30
0.0
 11
3440.0140970024
 21
2103.899448972
 31
0.0
  0
LINE
  5
17A
330
1F
100
AcDbEntity
  8
0
  6
Continuous
 62
     8
370
    18
100
AcDbLine
 10
2477.6618319849
 20
2458.8994489763
 30
0.0
 11
2477.6618319849
 21
2448.8994489763
 31
0.0
  0
LINE
  5
17B
330
1F
100
AcDbEntity
  8
0
  6
Continuous
 62
     8
370
    18
100
AcDbLine
 10
3393.6618319849
 20
2448.8994489763
 30
0.0
 11
3393.6618319849
 21
2458.8994489763
 31
0.0
  0
LINE
  5
17C
330
1F
100
AcDbEntity
  8
0
  6
Continuous
 62
     8
370
    18
100
AcDbLine
 10
2435.4818319849
 20
2416.3994489763
 30
0.0
 11
3435.8418319849
 21
2416.3994489763
 31
0.0
  0
LINE
  5
17D
330
1F
100
AcDbEntity
  8
0
  6
Continuous
 62
     8
370
    18
100
AcDbLine
 10
2435.4818319849
 20
2446.3994489763
 30
0.0
 11
3435.8418319849
 21
2446.3994489763
 31
0.0
  0
SPLINE
  5
17E
330
1F
100
AcDbEntity
  8
0
  6
Continuous
 62
     8
370
    18
100
AcDbSpline
210
0.0
220
0.0
230
1.0
 70
     8
 71
     3
 72
    12
 73
     8
 74
     0
 42
0.000000001
 43
0.00000001
 40
0.0
 40
0.0
 40
0.0
 40
0.0
 40
0.219567186404869
 40
0.4458094407665553
 40
0.6652298297422371
 40
0.8908660496253848
 40
1.0
 40
1.0
 40
1.0
 40
1.0
 10
3432.104261507615
 20
2448.899448976261
 30
0.0
 10
3432.225655013179
 20
2448.895501530255
 30
0.0
 10
3432.472132511542
 20
2448.887486631831
 30
0.0
 10
3432.896157289897
 20
2448.844305107044
 30
0.0
 10
3433.351852525806
 20
2448.804193802476
 30
0.0
 10
3433.746426385514
 20
2448.782465053842
 30
0.0
 10
3433.986960413647
 20
2448.780579507729
 30
0.0
 10
3434.065373698408
 20
2448.779964826034
 30
0.0
  0
LINE
  5
17F
330
1F
100
AcDbEntity
  8
0
  6
Continuous
 62
     8
370
    18
100
AcDbLine
 10
3434.0653736984
 20
2448.779964826
 30
0.0
 11
3435.5416722422
 21
2448.779964826
 31
0.0
  0
SPLINE
  5
180
330
1F
100
AcDbEntity
  8
0
  6
Continuous
 62
     8
370
    18
100
AcDbSpline
210
0.0
220
0.0
230
1.0
 70
     8
 71
     3
 72
    13
 73
     9
 74
     0
 42
0.000000001
 43
0.00000001
 40
0.0
 40
0.0
 40
0.0
 40
0.0
 40
0.1541665842389478
 40
0.3084622735678834
 40
0.6143708700448093
 40
0.7811095375671789
 40
0.9477835065529614
 40
1.0
 40
1.0
 40
1.0
 40
1.0
 10
3435.659038881
 20
2448.627519668534
 30
0.0
 10
3435.651426609479
 20
2448.563398261574
 30
0.0
 10
3435.636195691624
 20
2448.435101749894
 30
0.0
 10
3435.665831176484
 20
2448.096666897073
 30
0.0
 10
3435.736678928116
 20
2447.669536357179
 30
0.0
 10
3435.803193168575
 20
2447.175726824665
 30
0.0
 10
3435.832128820968
 20
2446.859852337502
 30
0.0
 10
3435.839963109198
 20
2446.677144842362
 30
0.0
 10
3435.841831984871
 20
2446.633559824464
 30
0.0
  0
SPLINE
  5
181
330
1F
100
AcDbEntity
  8
0
  6
Continuous
 62
     8
370
    18
100
AcDbSpline
210
0.0
220
0.0
230
1.0
 70
     8
 71
     3
 72
     9
 73
     5
 74
     0
 42
0.000000001
 43
0.00000001
 40
0.0
 40
0.0
 40
0.0
 40
0.0
 40
0.8278582226924046
 40
1.0
 40
1.0
 40
1.0
 40
1.0
 10
3435.642633658719
 20
2414.087722660783
 30
0.0
 10
3435.623198080684
 20
2414.066221438894
 30
0.0
 10
3435.599721140428
 20
2414.040249332439
 30
0.0
 10
3435.554968537357
 20
2414.022063643332
 30
0.0
 10
3435.547264744725
 20
2414.018933126487
 30
0.0
  0
LINE
  5
182
330
1F
100
AcDbEntity
  8
0
  6
Continuous
 62
     8
370
    18
100
AcDbLine
 10
3435.5472647447
 20
2414.0189331265
 30
0.0
 11
3434.0653736984
 21
2414.0189331265
 31
0.0
  0
SPLINE
  5
183
330
1F
100
AcDbEntity
  8
0
  6
Continuous
 62
     8
370
    18
100
AcDbSpline
210
0.0
220
0.0
230
1.0
 70
     8
 71
     3
 72
    12
 73
     8
 74
     0
 42
0.000000001
 43
0.00000001
 40
0.0
 40
0.0
 40
0.0
 40
0.0
 40
0.21976661807706
 40
0.4461263745600057
 40
0.6658123558414003
 40
0.8916163130674817
 40
1.0
 40
1.0
 40
1.0
 40
1.0
 10
3434.065373698408
 20
2414.018933126488
 30
0.0
 10
3433.907307029576
 20
2414.016467544024
 30
0.0
 10
3433.586431591251
 20
2414.011462410054
 30
0.0
 10
3433.121438911818
 20
2413.975331809359
 30
0.0
 10
3432.679794687549
 20
2413.932860502638
 30
0.0
 10
3432.343792693552
 20
2413.903567203085
 30
0.0
 10
3432.162921595252
 20
2413.900457511102
 30
0.0
 10
3432.104261507615
 20
2413.899448976261
 30
0.0
  0
SPLINE
  5
184
330
1F
100
AcDbEntity
  8
0
  6
Continuous
 62
     8
370
    18
100
AcDbSpline
210
0.0
220
0.0
230
1.0
 70
     8
 71
     3
 72
    12
 73
     8
 74
     0
 42
0.000000001
 43
0.00000001
 40
0.0
 40
0.0
 40
0.0
 40
0.0
 40
0.2328745883257357
 40
0.5570906977023068
 40
0.7267440679505799
 40
0.8962385510603507
 40
1.0
 40
1.0
 40
1.0
 40
1.0
 10
3435.841831984871
 20
2416.165338128057
 30
0.0
 10
3435.829379536826
 20
2415.971903408141
 30
0.0
 10
3435.799590357082
 20
2415.509162136744
 30
0.0
 10
3435.705970751658
 20
2414.966372430324
 30
0.0
 10
3435.651147093915
 20
2414.55631842268
 30
0.0
 10
3435.636922844697
 20
2414.323470563389
 30
0.0
 10
3435.652952180261
 20
2414.213236606916
 30
0.0
 10
3435.659038881
 20
2414.171378283987
 30
0.0
  0
LINE
  5
185
330
1F
100
AcDbEntity
  8
0
  6
Continuous
 62
     8
370
    18
100
AcDbLine
 10
2430.047307418
 20
2460.5380932683
 30
0.0
 11
2430.047307418
 21
2103.899448972
 31
0.0
  0
LINE
  5
186
330
1F
100
AcDbEntity
  8
0
  6
Continuous
 62
     8
370
    18
100
AcDbLine
 10
2429.2275060043
 20
2460.578305893
 30
0.0
 11
2429.2275060043
 21
2103.899448972
 31
0.0
  0
LINE
  5
187
330
1F
100
AcDbEntity
  8
0
  6
Continuous
 62
     8
370
    18
100
AcDbLine
 10
2436.323570734
 20
2460.2217631527
 30
0.0
 11
2436.323570734
 21
2448.8231239093
 31
0.0
  0
LINE
  5
188
330
1F
100
AcDbEntity
  8
0
  6
Continuous
 62
     8
370
    18
100
AcDbLine
 10
2436.323570734
 20
2413.9757740432
 30
0.0
 11
2436.323570734
 21
2103.899448972
 31
0.0
  0
LINE
  5
189
330
1F
100
AcDbEntity
  8
0
  6
Continuous
 62
     8
370
    18
100
AcDbLine
 10
2424.3567053356
 20
2460.8124048487
 30
0.0
 11
2424.3567053356
 21
2459.752034027
 31
0.0
  0
LINE
  5
18A
330
1F
100
AcDbEntity
  8
0
  6
Continuous
 62
     8
370
    18
100
AcDbLine
 10
3441.2763565517
 20
2460.5380932683
 30
0.0
 11
3441.2763565517
 21
2103.899448972
 31
0.0
  0
LINE
  5
18B
330
1F
100
AcDbEntity
  8
0
  6
Continuous
 62
     8
370
    18
100
AcDbLine
 10
3442.0961579654
 20
2460.578305893
 30
0.0
 11
3442.0961579654
 21
2103.899448972
 31
0.0
  0
LINE
  5
18C
330
1F
100
AcDbEntity
  8
0
  6
Continuous
 62
     8
370
    18
100
AcDbLine
 10
3435.0000932358
 20
2460.2217631527
 30
0.0
 11
3435.0000932358
 21
2448.8231239093
 31
0.0
  0
LINE
  5
18D
330
1F
100
AcDbEntity
  8
0
  6
Continuous
 62
     8
370
    18
100
AcDbLine
 10
3435.0000932358
 20
2413.9757740432
 30
0.0
 11
3435.0000932358
 21
2103.899448972
 31
0.0
  0
LINE
  5
18E
330
1F
100
AcDbEntity
  8
0
  6
Continuous
 62
     8
370
    18
100
AcDbLine
 10
3446.9669586341
 20
2460.8124048487
 30
0.0
 11
3446.9669586341
 21
2459.7492058877
 31
0.0
  0
LINE
  5
18F
330
1F
100
AcDbEntity
  8
0
  6
Continuous
 62
     8
370
    18
100
AcDbLine
 10
2431.3095669673
 20
2100.899448972
 30
0.0
 11
2440.8095669673
 21
2100.899448972
 31
0.0
  0
LINE
  5
190
330
1F
100
AcDbEntity
  8
0
  6
Continuous
 62
     8
370
    18
100
AcDbLine
 10
2421.8095669673
 20
2100.899448972
 30
0.0
 11
2431.3095669673
 21
2100.899448972
 31
0.0
  0
LINE
  5
191
330
1F
100
AcDbEntity
  8
0
  6
Continuous
 62
     8
370
    18
100
AcDbLine
 10
3430.5140970024
 20
2100.899448972
 30
0.0
 11
3449.5140970024
 21
2100.899448972
 31
0.0
  0
ARC
  5
192
330
1F
100
AcDbEntity
  8
0
  6
Continuous
 62
     7
370
    25
100
AcDbCircle
 10
1292.6088512221
 20
1757.8827353395
 30
0.0
 40
37.0
100
AcDbArc
 50
90.0
 51
180.0
  0
ARC
  5
193
330
1F
100
AcDbEntity
  8
0
  6
Continuous
 62
     7
370
    25
100
AcDbCircle
 10
2208.6088512221
 20
1757.8827353395
 30
0.0
 40
37.0
100
AcDbArc
 50
0.0
 51
90.0
  0
LINE
  5
194
330
1F
100
AcDbEntity
  8
0
  6
Continuous
 62
     7
370
    25
100
AcDbLine
 10
2245.6088512221
 20
1757.8827353395
 30
0.0
 11
2245.6088512221
 21
841.8827353395
 31
0.0
  0
ARC
  5
195
330
1F
100
AcDbEntity
  8
0
  6
Continuous
 62
     7
370
    25
100
AcDbCircle
 10
2208.6088512221
 20
841.8827353395
 30
0.0
 40
36.99999999999989
100
AcDbArc
 50
270.0
 51
0.0
  0
LINE
  5
196
330
1F
100
AcDbEntity
  8
0
  6
Continuous
 62
     7
370
    25
100
AcDbLine
 10
2208.6088512221
 20
804.8827353395
 30
0.0
 11
1292.6088512221
 21
804.8827353395
 31
0.0
  0
ARC
  5
197
330
1F
100
AcDbEntity
  8
0
  6
Continuous
 62
     7
370
    25
100
AcDbCircle
 10
1292.6088512221
 20
841.8827353395
 30
0.0
 40
37.0
100
AcDbArc
 50
180.0
 51
270.0
  0
LINE
  5
198
330
1F
100
AcDbEntity
  8
0
  6
Continuous
 62
     7
370
    25
100
AcDbLine
 10
1255.6088512221
 20
841.8827353395
 30
0.0
 11
1255.6088512221
 21
1757.8827353395
 31
0.0
  0
LINE
  5
199
330
1F
100
AcDbEntity
  8
0
  6
Continuous
 62
     7
370
    25
100
AcDbLine
 10
1292.6088512221
 20
1794.8827353395
 30
0.0
 11
2208.6088512221
 21
1794.8827353395
 31
0.0
  0
LINE
  5
19A
330
1F
100
AcDbEntity
  8
0
  6
Continuous
 62
     7
370
    25
100
AcDbLine
 10
1348.1088512221
 20
1800.0627353395
 30
0.0
 11
1348.1088512221
 21
1794.8827353395
 31
0.0
  0
LINE
  5
19B
330
1F
100
AcDbEntity
  8
0
  6
Continuous
 62
     7
370
    25
100
AcDbLine
 10
1348.1088512221
 20
804.8827353395
 30
0.0
 11
1348.1088512221
 21
799.7027353395
 31
0.0
  0
LINE
  5
19C
330
1F
100
AcDbEntity
  8
0
  6
Continuous
 62
     7
370
    25
100
AcDbLine
 10
1363.1088512221
 20
1800.0627353395
 30
0.0
 11
1363.1088512221
 21
1794.8827353395
 31
0.0
  0
LINE
  5
19D
330
1F
100
AcDbEntity
  8
0
  6
Continuous
 62
     7
370
    25
100
AcDbLine
 10
1363.1088512221
 20
804.8827353395
 30
0.0
 11
1363.1088512221
 21
799.7027353395
 31
0.0
  0
LINE
  5
19E
330
1F
100
AcDbEntity
  8
0
  6
Continuous
 62
     7
370
    25
100
AcDbLine
 10
2153.1088512221
 20
1800.0627353395
 30
0.0
 11
2153.1088512221
 21
1794.8827353395
 31
0.0
  0
LINE
  5
19F
330
1F
100
AcDbEntity
  8
0
  6
Continuous
 62
     7
370
    25
100
AcDbLine
 10
2153.1088512221
 20
804.8827353395
 30
0.0
 11
2153.1088512221
 21
799.7027353395
 31
0.0
  0
LINE
  5
1A0
330
1F
100
AcDbEntity
  8
0
  6
Continuous
 62
     7
370
    25
100
AcDbLine
 10
2138.1088512221
 20
1800.0627353395
 30
0.0
 11
2138.1088512221
 21
1794.8827353395
 31
0.0
  0
LINE
  5
1A1
330
1F
100
AcDbEntity
  8
0
  6
Continuous
 62
     7
370
    25
100
AcDbLine
 10
2138.1088512221
 20
804.8827353395
 30
0.0
 11
2138.1088512221
 21
799.7027353395
 31
0.0
  0
SPLINE
  5
1A2
330
1F
100
AcDbEntity
  8
0
  6
Continuous
 62
     7
370
    25
100
AcDbSpline
210
0.0
220
0.0
230
1.0
 70
     8
 71
     3
 72
    28
 73
    24
 74
     0
 42
0.000000001
 43
0.00000001
 40
0.0
 40
0.0
 40
0.0
 40
0.0
 40
0.0885577904272318
 40
0.1796438193735511
 40
0.2695757108504258
 40
0.3157367678527874
 40
0.3623220932277396
 40
0.3904539690316876
 40
0.418795248633997
 40
0.4469625905235267
 40
0.4757849359529007
 40
0.493765125940214
 40
0.5122126959858423
 40
0.5302154725933165
 40
0.5487865500347918
 40
0.572171629790275
 40
0.5962043255368807
 40
0.6385840534980247
 40
0.6819817284823786
 40
0.7628828890611741
 40
0.845944899194264
 40
0.922231680684428
 40
1.0
 40
1.0
 40
1.0
 40
1.0
 10
1348.189081293429
 20
1805.497259906341
 30
0.0
 10
1347.975760486806
 20
1805.402340469805
 30
0.0
 10
1347.543028772648
 20
1805.209791739424
 30
0.0
 10
1347.024975122888
 20
1804.752532458888
 30
0.0
 10
1346.683019881955
 20
1804.285133956834
 30
0.0
 10
1346.477233216812
 20
1803.854664404329
 30
0.0
 10
1346.374103197291
 20
1803.543874739174
 30
0.0
 10
1346.312469776347
 20
1803.25780715154
 30
0.0
 10
1346.28030606973
 20
1803.007430452227
 30
0.0
 10
1346.269854635303
 20
1802.736787111532
 30
0.0
 10
1346.284772141803
 20
1802.480120287574
 30
0.0
 10
1346.319085367513
 20
1802.245543434956
 30
0.0
 10
1346.362735448291
 20
1802.045769553648
 30
0.0
 10
1346.421686904409
 20
1801.84587930411
 30
0.0
 10
1346.499776132242
 20
1801.637293712052
 30
0.0
 10
1346.599100614621
 20
1801.425159254548
 30
0.0
 10
1346.748057388232
 20
1801.166344976878
 30
0.0
 10
1346.94743384367
 20
1800.895382045455
 30
0.0
 10
1347.273361868841
 20
1800.55482708093
 30
0.0
 10
1347.71678622069
 20
1800.230972220133
 30
0.0
 10
1348.278550793652
 20
1799.985904410252
 30
0.0
 10
1348.869052870867
 20
1799.854212646385
 30
0.0
 10
1349.269429759076
 20
1799.870303487204
 30
0.0
 10
1349.471543402349
 20
1799.878426279895
 30
0.0
  0
SPLINE
  5
1A3
330
1F
100
AcDbEntity
  8
0
  6
Continuous
 62
     7
370
    25
100
AcDbSpline
210
0.0
220
0.0
230
1.0
 70
     8
 71
     3
 72
    14
 73
    10
 74
     0
 42
0.000000001
 43
0.00000001
 40
0.0
 40
0.0
 40
0.0
 40
0.0
 40
0.220765348438179
 40
0.3402146168140553
 40
0.4605704991790948
 40
0.5641909618660854
 40
0.6633542991971745
 40
0.8105247403618525
 40
1.0
 40
1.0
 40
1.0
 40
1.0
 10
1348.376195616399
 20
1806.317061320029
 30
0.0
 10
1348.416894411921
 20
1806.266518880387
 30
0.0
 10
1348.47961406073
 20
1806.188629497577
 30
0.0
 10
1348.520555466105
 20
1806.030716201539
 30
0.0
 10
1348.519876370138
 20
1805.89821101947
 30
0.0
 10
1348.485841464319
 20
1805.776699445148
 30
0.0
 10
1348.423793908916
 20
1805.664737224299
 30
0.0
 10
1348.32338758785
 20
1805.558865843651
 30
0.0
 10
1348.237449866285
 20
1805.519446441083
 30
0.0
 10
1348.189081293429
 20
1805.497259906341
 30
0.0
  0
SPLINE
  5
1A4
330
1F
100
AcDbEntity
  8
0
  6
Continuous
 62
     7
370
    25
100
AcDbSpline
210
0.0
220
0.0
230
1.0
 70
     8
 71
     3
 72
    23
 73
    19
 74
     0
 42
0.000000001
 43
0.00000001
 40
0.0
 40
0.0
 40
0.0
 40
0.0
 40
0.086390105063673
 40
0.1752766177962657
 40
0.2621177065427438
 40
0.3519363559727683
 40
0.4192459175639057
 40
0.452807600612898
 40
0.4875598503476028
 40
0.534232617054251
 40
0.5808027178643259
 40
0.6174159281963868
 40
0.6550189806174282
 40
0.7176192476618429
 40
0.7818570182170677
 40
0.868941619754452
 40
0.9585429605715874
 40
1.0
 40
1.0
 40
1.0
 40
1.0
 10
1351.969574594123
 20
1810.823016036285
 30
0.0
 10
1351.77123998975
 20
1810.92684618932
 30
0.0
 10
1351.368839522465
 20
1811.13750686667
 30
0.0
 10
1350.711170084652
 20
1811.263721301013
 30
0.0
 10
1350.02898455594
 20
1811.248430716965
 30
0.0
 10
1349.392244184105
 20
1811.07859303402
 30
0.0
 10
1348.892440270781
 20
1810.813367816604
 30
0.0
 10
1348.54431182689
 20
1810.545985854796
 30
0.0
 10
1348.260671689883
 20
1810.269723125572
 30
0.0
 10
1347.980355089994
 20
1809.899679776626
 30
0.0
 10
1347.774676392731
 20
1809.497689801359
 30
0.0
 10
1347.648854030775
 20
1809.132070314315
 30
0.0
 10
1347.561961017827
 20
1808.730977138833
 30
0.0
 10
1347.533876908034
 20
1808.271571537508
 30
0.0
 10
1347.598261995712
 20
1807.709450188958
 30
0.0
 10
1347.79162860122
 20
1807.123260516641
 30
0.0
 10
1348.076666094649
 20
1806.644598907138
 30
0.0
 10
1348.304215921966
 20
1806.395771609745
 30
0.0
 10
1348.376195616399
 20
1806.317061320029
 30
0.0
  0
SPLINE
  5
1A5
330
1F
100
AcDbEntity
  8
0
  6
Continuous
 62
     7
370
    25
100
AcDbSpline
210
0.0
220
0.0
230
1.0
 70
     8
 71
     3
 72
    14
 73
    10
 74
     0
 42
0.000000001
 43
0.00000001
 40
0.0
 40
0.0
 40
0.0
 40
0.0
 40
0.2243030424883259
 40
0.3489011866266116
 40
0.4744001356117633
 40
0.5826741857066091
 40
0.6867417687947664
 40
0.8381564871696764
 40
1.0
 40
1.0
 40
1.0
 40
1.0
 10
1352.727185020869
 20
1811.18786198875
 30
0.0
 10
1352.712539482454
 20
1811.12324933772
 30
0.0
 10
1352.689758490831
 20
1811.022744991612
 30
0.0
 10
1352.587973864426
 20
1810.890559655983
 30
0.0
 10
1352.479283822875
 20
1810.808214096353
 30
0.0
 10
1352.358315813017
 20
1810.760833077676
 30
0.0
 10
1352.228020759178
 20
1810.743414730247
 30
0.0
 10
1352.090204058256
 20
1810.760820703962
 30
0.0
 10
1352.010667047416
 20
1810.801829182751
 30
0.0
 10
1351.969574594123
 20
1810.823016036285
 30
0.0
  0
SPLINE
  5
1A6
330
1F
100
AcDbEntity
  8
0
  6
Continuous
 62
     7
370
    25
100
AcDbSpline
210
0.0
220
0.0
230
1.0
 70
     8
 71
     3
 72
    26
 73
    22
 74
     0
 42
0.000000001
 43
0.00000001
 40
0.0
 40
0.0
 40
0.0
 40
0.0
 40
0.085426115936098
 40
0.1733276547195598
 40
0.2448517261352465
 40
0.3181224083912745
 40
0.3577740645396684
 40
0.3980844094313232
 40
0.4287682032815349
 40
0.4601978879083247
 40
0.4855692359538105
 40
0.5116681185372469
 40
0.5370453561645231
 40
0.5630880149114142
 40
0.5995557531473619
 40
0.6370345873825507
 40
0.696049730423155
 40
0.7566321175831425
 40
0.8401423063242394
 40
0.9260534647419586
 40
1.0
 40
1.0
 40
1.0
 40
1.0
 10
1358.490517423437
 20
1811.18786198875
 30
0.0
 10
1358.449095847463
 20
1811.403928705522
 30
0.0
 10
1358.365052407821
 20
1811.842323180918
 30
0.0
 10
1358.076477943499
 20
1812.399434071566
 30
0.0
 10
1357.702110411981
 20
1812.87091770073
 30
0.0
 10
1357.321145310863
 20
1813.19272771019
 30
0.0
 10
1356.945945844445
 20
1813.41676896674
 30
0.0
 10
1356.641110030061
 20
1813.552091318379
 30
0.0
 10
1356.329815575074
 20
1813.649549766656
 30
0.0
 10
1356.042750763115
 20
1813.707332893962
 30
0.0
 10
1355.75771281708
 20
1813.735343583903
 30
0.0
 10
1355.488850573855
 20
1813.736693651223
 30
0.0
 10
1355.221431177008
 20
1813.713070129836
 30
0.0
 10
1354.930253148913
 20
1813.660337329538
 30
0.0
 10
1354.621699117408
 20
1813.569349387801
 30
0.0
 10
1354.251676654808
 20
1813.410361699371
 30
0.0
 10
1353.872179761535
 20
1813.175644056902
 30
0.0
 10
1353.463109403579
 20
1812.815581583903
 30
0.0
 10
1353.103209332647
 20
1812.342578838023
 30
0.0
 10
1352.835617888266
 20
1811.780279990864
 30
0.0
 10
1352.761479673659
 20
1811.375229252724
 30
0.0
 10
1352.727185020869
 20
1811.18786198875
 30
0.0
  0
SPLINE
  5
1A7
330
1F
100
AcDbEntity
  8
0
  6
Continuous
 62
     7
370
    25
100
AcDbSpline
210
0.0
220
0.0
230
1.0
 70
     8
 71
     3
 72
    14
 73
    10
 74
     0
 42
0.000000001
 43
0.00000001
 40
0.0
 40
0.0
 40
0.0
 40
0.0
 40
0.2239799089306602
 40
0.3530600787850526
 40
0.4831615846560798
 40
0.5937368434044649
 40
0.6971871626482021
 40
0.8442013099711085
 40
1.0
 40
1.0
 40
1.0
 40
1.0
 10
1359.248127850184
 20
1810.823016036285
 30
0.0
 10
1359.189507497512
 20
1810.794598029517
 30
0.0
 10
1359.097104092084
 20
1810.749802655877
 30
0.0
 10
1358.930065908493
 20
1810.746077452515
 30
0.0
 10
1358.794634594387
 20
1810.780594146056
 30
0.0
 10
1358.680194013589
 20
1810.848075639891
 30
0.0
 10
1358.586374914813
 20
1810.940291481563
 30
0.0
 10
1358.516266685869
 20
1811.05772129832
 30
0.0
 10
1358.49926491694
 20
1811.143650825537
 30
0.0
 10
1358.490517423437
 20
1811.18786198875
 30
0.0
  0
SPLINE
  5
1A8
330
1F
100
AcDbEntity
  8
0
  6
Continuous
 62
     7
370
    25
100
AcDbSpline
210
0.0
220
0.0
230
1.0
 70
     8
 71
     3
 72
    25
 73
    21
 74
     0
 42
0.000000001
 43
0.00000001
 40
0.0
 40
0.0
 40
0.0
 40
0.0
 40
0.0875462653424556
 40
0.17762759296003
 40
0.2471474788262656
 40
0.318248505808561
 40
0.3544110039426032
 40
0.3911111694055485
 40
0.4196256508468989
 40
0.4488279610873451
 40
0.4955774367114223
 40
0.5423030312794792
 40
0.5762969204455036
 40
0.6112229844817039
 40
0.6688576767939515
 40
0.7279867562248815
 40
0.8132488808160989
 40
0.9009541844562668
 40
0.9502506997642257
 40
1.0
 40
1.0
 40
1.0
 40
1.0
 10
1362.841506827907
 20
1806.317061320029
 30
0.0
 10
1362.987580909007
 20
1806.488150052473
 30
0.0
 10
1363.283958913462
 20
1806.835281704607
 30
0.0
 10
1363.537031640743
 20
1807.414746796034
 30
0.0
 10
1363.66665026243
 20
1807.997798734024
 30
0.0
 10
1363.679044352291
 20
1808.477775606484
 30
0.0
 10
1363.624996611435
 20
1808.888631684265
 30
0.0
 10
1363.551067495957
 20
1809.188558040963
 30
0.0
 10
1363.446979175075
 20
1809.475251443524
 30
0.0
 10
1363.293617898136
 20
1809.795691152123
 30
0.0
 10
1363.049152433078
 20
1810.165668078571
 30
0.0
 10
1362.738812322451
 20
1810.491461042734
 30
0.0
 10
1362.443026880342
 20
1810.725675006629
 30
0.0
 10
1362.113864550783
 20
1810.931024825119
 30
0.0
 10
1361.716989862904
 20
1811.105391388712
 30
0.0
 10
1361.191097286864
 20
1811.239069805803
 30
0.0
 10
1360.592155876549
 20
1811.271546731573
 30
0.0
 10
1360.034799258637
 20
1811.173235235932
 30
0.0
 10
1359.585186463969
 20
1811.012053857655
 30
0.0
 10
1359.360822612283
 20
1810.886220391361
 30
0.0
 10
1359.248127850184
 20
1810.823016036285
 30
0.0
  0
SPLINE
  5
1A9
330
1F
100
AcDbEntity
  8
0
  6
Continuous
 62
     7
370
    25
100
AcDbSpline
210
0.0
220
0.0
230
1.0
 70
     8
 71
     3
 72
    14
 73
    10
 74
     0
 42
0.000000001
 43
0.00000001
 40
0.0
 40
0.0
 40
0.0
 40
0.0
 40
0.2200911109485595
 40
0.3501199592092341
 40
0.4590676183976581
 40
0.5685351145661265
 40
0.6668402217390302
 40
0.7968948941937074
 40
1.0
 40
1.0
 40
1.0
 40
1.0
 10
1363.028621150877
 20
1805.497259906341
 30
0.0
 10
1362.972213727012
 20
1805.523903228128
 30
0.0
 10
1362.882481048316
 20
1805.566287305781
 30
0.0
 10
1362.780214080621
 20
1805.684478720505
 30
0.0
 10
1362.721941366609
 20
1805.800358811738
 30
0.0
 10
1362.695994939183
 20
1805.922344653716
 30
0.0
 10
1362.700556867621
 20
1806.050009341423
 30
0.0
 10
1362.742430172229
 20
1806.195810995817
 30
0.0
 10
1362.803982508802
 20
1806.271138939765
 30
0.0
 10
1362.841506827907
 20
1806.317061320029
 30
0.0
  0
SPLINE
  5
1AA
330
1F
100
AcDbEntity
  8
0
  6
Continuous
 62
     7
370
    25
100
AcDbSpline
210
0.0
220
0.0
230
1.0
 70
     8
 71
     3
 72
    27
 73
    23
 74
     0
 42
0.000000001
 43
0.00000001
 40
0.0
 40
0.0
 40
0.0
 40
0.0
 40
0.0910683471803988
 40
0.1847464164709031
 40
0.2588266946055595
 40
0.3345190598259229
 40
0.3626447427195295
 40
0.3910056482847569
 40
0.4191743039829994
 40
0.4481203606979757
 40
0.465770478244767
 40
0.4839081706433217
 40
0.5015721548764686
 40
0.5197440214872957
 40
0.5448446854435508
 40
0.5706253690117585
 40
0.6177938154944811
 40
0.6660858441031564
 40
0.7518796859636273
 40
0.8400397940083121
 40
0.9191574739584859
 40
1.0
 40
1.0
 40
1.0
 40
1.0
 10
1361.746159041957
 20
1799.878426279896
 30
0.0
 10
1361.982716388345
 20
1799.871441326442
 30
0.0
 10
1362.462610043916
 20
1799.857271253526
 30
0.0
 10
1363.098209461781
 20
1800.039822793091
 30
0.0
 10
1363.652202523828
 20
1800.328455871988
 30
0.0
 10
1364.023415451495
 20
1800.630494323112
 30
0.0
 10
1364.277990812868
 20
1800.91177733938
 30
0.0
 10
1364.432988569024
 20
1801.115764494542
 30
0.0
 10
1364.579530916795
 20
1801.349916211771
 30
0.0
 10
1364.695773037825
 20
1801.584367442569
 30
0.0
 10
1364.782504214647
 20
1801.80679697544
 30
0.0
 10
1364.842673274492
 20
1801.999703727371
 30
0.0
 10
1364.889456305148
 20
1802.197821209277
 30
0.0
 10
1364.925651831659
 20
1802.418514634758
 30
0.0
 10
1364.945226385684
 20
1802.658493233584
 30
0.0
 10
1364.942939512454
 20
1802.977204625449
 30
0.0
 10
1364.896891940301
 20
1803.336433146151
 30
0.0
 10
1364.764497850634
 20
1803.819685686292
 30
0.0
 10
1364.510220447239
 20
1804.341648127581
 30
0.0
 10
1364.103391875545
 20
1804.840193668526
 30
0.0
 10
1363.610632777425
 20
1805.24275835755
 30
0.0
 10
1363.224014656916
 20
1805.411818400291
 30
0.0
 10
1363.028621150877
 20
1805.497259906341
 30
0.0
  0
SPLINE
  5
1AB
330
1F
100
AcDbEntity
  8
0
  6
Continuous
 62
     7
370
    25
100
AcDbSpline
210
0.0
220
0.0
230
1.0
 70
     8
 71
     3
 72
    15
 73
    11
 74
     0
 42
0.000000001
 43
0.00000001
 40
0.0
 40
0.0
 40
0.0
 40
0.0
 40
0.2150763736127623
 40
0.3413349926978211
 40
0.4465934903530034
 40
0.5524796219272401
 40
0.6449070621727223
 40
0.766214653902494
 40
0.940631656051666
 40
1.0
 40
1.0
 40
1.0
 40
1.0
 10
1361.221876359517
 20
1799.220996590393
 30
0.0
 10
1361.207846646611
 20
1799.279176852127
 30
0.0
 10
1361.185580918992
 20
1799.371511304678
 30
0.0
 10
1361.210280928253
 20
1799.520575838152
 30
0.0
 10
1361.260072351288
 20
1799.636928979514
 30
0.0
 10
1361.334571480236
 20
1799.733648017064
 30
0.0
 10
1361.431548850035
 20
1799.811306926073
 30
0.0
 10
1361.556748593654
 20
1799.868896017378
 30
0.0
 10
1361.665597773219
 20
1799.884202863746
 30
0.0
 10
1361.729844087468
 20
1799.879596131166
 30
0.0
 10
1361.746159041957
 20
1799.878426279896
 30
0.0
  0
SPLINE
  5
1AC
330
1F
100
AcDbEntity
  8
0
  6
Continuous
 62
     7
370
    25
100
AcDbSpline
210
0.0
220
0.0
230
1.0
 70
     8
 71
     3
 72
    26
 73
    22
 74
     0
 42
0.000000001
 43
0.00000001
 40
0.0
 40
0.0
 40
0.0
 40
0.0
 40
0.0912035599485179
 40
0.1849670362499739
 40
0.2785634207445332
 40
0.3265394520589692
 40
0.3749439889046062
 40
0.4231405593180603
 40
0.4430841889857802
 40
0.4634373414447683
 40
0.4878409265543513
 40
0.5123587387507041
 40
0.5280992736585399
 40
0.5442699367721682
 40
0.5755700365325769
 40
0.6075525397506846
 40
0.6834424014570644
 40
0.7611024134338045
 40
0.846910703129909
 40
0.9346000221708252
 40
0.9999999999999999
 40
0.9999999999999999
 40
0.9999999999999999
 40
0.9999999999999999
 10
1356.02929328943
 20
1796.72038037779
 30
0.0
 10
1356.176916243436
 20
1796.524916652096
 30
0.0
 10
1356.476305656529
 20
1796.12850289307
 30
0.0
 10
1357.069323922774
 20
1795.718219247622
 30
0.0
 10
1357.627309474325
 20
1795.494583634217
 30
0.0
 10
1358.115077406318
 20
1795.401667309093
 30
0.0
 10
1358.508359545054
 20
1795.37903070777
 30
0.0
 10
1358.852491888581
 20
1795.40679716503
 30
0.0
 10
1359.13989232373
 20
1795.463817012421
 30
0.0
 10
1359.364530594139
 20
1795.525293206253
 30
0.0
 10
1359.62395733374
 20
1795.621257931036
 30
0.0
 10
1359.862138688813
 20
1795.739493434654
 30
0.0
 10
1360.045273069457
 20
1795.850026583402
 30
0.0
 10
1360.229577709872
 20
1795.976945993022
 30
0.0
 10
1360.426815527367
 20
1796.139327879002
 30
0.0
 10
1360.71488070361
 20
1796.428822587566
 30
0.0
 10
1361.005153555668
 20
1796.833501730887
 30
0.0
 10
1361.256611572767
 20
1797.395372425129
 30
0.0
 10
1361.386038741668
 20
1798.024233550712
 30
0.0
 10
1361.380362438617
 20
1798.649631740854
 30
0.0
 10
1361.269315695263
 20
1799.049971039854
 30
0.0
 10
1361.221876359517
 20
1799.220996590393
 30
0.0
  0
SPLINE
  5
1AD
330
1F
100
AcDbEntity
  8
0
  6
Continuous
 62
     7
370
    25
100
AcDbSpline
210
0.0
220
0.0
230
1.0
 70
     8
 71
     3
 72
    15
 73
    11
 74
     0
 42
0.000000001
 43
0.00000001
 40
0.0
 40
0.0
 40
0.0
 40
0.0
 40
0.2129294053202189
 40
0.3333107283175603
 40
0.4345062010026767
 40
0.5362836886506531
 40
0.6256367151020122
 40
0.7456368547566248
 40
0.921192717688107
 40
1.0
 40
1.0
 40
1.0
 40
1.0
 10
1355.188409154876
 20
1796.72038037779
 30
0.0
 10
1355.224873062484
 20
1796.767413156235
 30
0.0
 10
1355.281952128591
 20
1796.841036287878
 30
0.0
 10
1355.411580640387
 20
1796.914319099919
 30
0.0
 10
1355.529739250463
 20
1796.94842113462
 30
0.0
 10
1355.648485368371
 20
1796.952632353416
 30
0.0
 10
1355.767812709085
 20
1796.928805919729
 30
0.0
 10
1355.891691981179
 20
1796.87082949224
 30
0.0
 10
1355.977735540135
 20
1796.794203675435
 30
0.0
 10
1356.017097951045
 20
1796.737842352135
 30
0.0
 10
1356.02929328943
 20
1796.72038037779
 30
0.0
  0
SPLINE
  5
1AE
330
1F
100
AcDbEntity
  8
0
  6
Continuous
 62
     7
370
    25
100
AcDbSpline
210
0.0
220
0.0
230
1.0
 70
     8
 71
     3
 72
    25
 73
    21
 74
     0
 42
0.000000001
 43
0.00000001
 40
0.0
 40
0.0
 40
0.0
 40
0.0
 40
0.0897174329458049
 40
0.181951778046474
 40
0.2741564286250122
 40
0.3213347009144686
 40
0.3688705103640607
 40
0.4236588038487549
 40
0.4510361250048939
 40
0.4792430363670711
 40
0.5037913906395244
 40
0.5284414423184048
 40
0.5611619013115614
 40
0.6013318478780341
 40
0.6426256193945197
 40
0.7286913895866837
 40
0.8169611916237425
 40
0.9072669371779623
 40
0.9534664517756424
 40
1.0
 40
1.0
 40
1.0
 40
1.0
 10
1349.995826084789
 20
1799.220996590393
 30
0.0
 10
1349.93544177712
 20
1798.985773915061
 30
0.0
 10
1349.812979154354
 20
1798.50872968176
 30
0.0
 10
1349.858965693415
 20
1797.79764410989
 30
0.0
 10
1350.025499372402
 20
1797.230522784883
 30
0.0
 10
1350.246385329848
 20
1796.800264174599
 30
0.0
 10
1350.471971536221
 20
1796.471372785393
 30
0.0
 10
1350.721971031571
 20
1796.198868996255
 30
0.0
 10
1350.991330089717
 20
1795.973428061656
 30
0.0
 10
1351.226380437063
 20
1795.811973739871
 30
0.0
 10
1351.499332611676
 20
1795.663940489966
 30
0.0
 10
1351.809951052816
 20
1795.536448037504
 30
0.0
 10
1352.152562223583
 20
1795.441682552346
 30
0.0
 10
1352.506075919846
 20
1795.390786304788
 30
0.0
 10
1352.981485793417
 20
1795.381083255225
 30
0.0
 10
1353.540612922409
 20
1795.472403688291
 30
0.0
 10
1354.167150101918
 20
1795.728299594024
 30
0.0
 10
1354.637536515329
 20
1796.067583319988
 30
0.0
 10
1354.973129546797
 20
1796.412337963415
 30
0.0
 10
1355.116477168099
 20
1796.617453291126
 30
0.0
 10
1355.188409154876
 20
1796.72038037779
 30
0.0
  0
SPLINE
  5
1AF
330
1F
100
AcDbEntity
  8
0
  6
Continuous
 62
     7
370
    25
100
AcDbSpline
210
0.0
220
0.0
230
1.0
 70
     8
 71
     3
 72
    15
 73
    11
 74
     0
 42
0.000000001
 43
0.00000001
 40
0.0
 40
0.0
 40
0.0
 40
0.0
 40
0.2155767705932649
 40
0.3329005538677319
 40
0.4328760582231109
 40
0.5332634977247579
 40
0.6250838127945265
 40
0.7535547096889059
 40
0.9421338378892272
 40
1.0
 40
1.0
 40
1.0
 40
1.0
 10
1349.471543402349
 20
1799.878426279895
 30
0.0
 10
1349.533373163617
 20
1799.87907780035
 30
0.0
 10
1349.628852661315
 20
1799.880083899105
 30
0.0
 10
1349.768840529165
 20
1799.821242500677
 30
0.0
 10
1349.867266637701
 20
1799.749283006417
 30
0.0
 10
1349.94266347286
 20
1799.65931877153
 30
0.0
 10
1349.998092356835
 20
1799.549736966994
 30
0.0
 10
1350.029151971569
 20
1799.411354439928
 30
0.0
 10
1350.019745353298
 20
1799.29910101691
 30
0.0
 10
1350.000374438977
 20
1799.235848490873
 30
0.0
 10
1349.995826084789
 20
1799.220996590393
 30
0.0
  0
SPLINE
  5
1B0
330
1F
100
AcDbEntity
  8
0
  6
Continuous
 62
     7
370
    25
100
AcDbSpline
210
0.0
220
0.0
230
1.0
 70
     8
 71
     3
 72
    28
 73
    24
 74
     0
 42
0.000000001
 43
0.00000001
 40
0.0
 40
0.0
 40
0.0
 40
0.0
 40
0.088557790427232
 40
0.1796438193735516
 40
0.2695757108504266
 40
0.3157367678527884
 40
0.3623220932277406
 40
0.3904539690316888
 40
0.4187952486339983
 40
0.446962590523528
 40
0.4757849359529022
 40
0.4937651259402155
 40
0.5122126959858438
 40
0.5302154725933181
 40
0.5487865500347935
 40
0.5721716297902768
 40
0.5962043255368826
 40
0.6385840534980266
 40
0.6819817284823807
 40
0.7628828890611764
 40
0.8459448991942635
 40
0.9222316806844277
 40
1.0
 40
1.0
 40
1.0
 40
1.0
 10
1363.028621150861
 20
794.2682107726553
 30
0.0
 10
1363.241941957484
 20
794.3631302091912
 30
0.0
 10
1363.674673671642
 20
794.5556789395725
 30
0.0
 10
1364.192727321402
 20
795.0129382201078
 30
0.0
 10
1364.534682562335
 20
795.4803367221624
 30
0.0
 10
1364.740469227479
 20
795.9108062746675
 30
0.0
 10
1364.843599246999
 20
796.2215959398224
 30
0.0
 10
1364.905232667943
 20
796.5076635274564
 30
0.0
 10
1364.93739637456
 20
796.758040226769
 30
0.0
 10
1364.947847808987
 20
797.0286835674642
 30
0.0
 10
1364.932930302487
 20
797.2853503914222
 30
0.0
 10
1364.898617076778
 20
797.5199272440403
 30
0.0
 10
1364.854966995999
 20
797.7197011253487
 30
0.0
 10
1364.796015539881
 20
797.9195913748864
 30
0.0
 10
1364.717926312048
 20
798.1281769669439
 30
0.0
 10
1364.618601829668
 20
798.3403114244481
 30
0.0
 10
1364.469645056058
 20
798.5991257021184
 30
0.0
 10
1364.27026860062
 20
798.8700886335416
 30
0.0
 10
1363.944340575449
 20
799.2106435980662
 30
0.0
 10
1363.5009162236
 20
799.534498458863
 30
0.0
 10
1362.939151650638
 20
799.7795662687439
 30
0.0
 10
1362.348649573423
 20
799.9112580326112
 30
0.0
 10
1361.948272685214
 20
799.8951671917919
 30
0.0
 10
1361.746159041941
 20
799.8870443991007
 30
0.0
  0
SPLINE
  5
1B1
330
1F
100
AcDbEntity
  8
0
  6
Continuous
 62
     7
370
    25
100
AcDbSpline
210
0.0
220
0.0
230
1.0
 70
     8
 71
     3
 72
    14
 73
    10
 74
     0
 42
0.000000001
 43
0.00000001
 40
0.0
 40
0.0
 40
0.0
 40
0.0
 40
0.220765348438179
 40
0.3402146168140553
 40
0.4605704991790948
 40
0.5641909618660854
 40
0.6633542991971745
 40
0.8105247403618525
 40
1.0
 40
1.0
 40
1.0
 40
1.0
 10
1362.841506827891
 20
793.4484093589674
 30
0.0
 10
1362.800808032369
 20
793.4989517986096
 30
0.0
 10
1362.738088383561
 20
793.5768411814195
 30
0.0
 10
1362.697146978185
 20
793.7347544774567
 30
0.0
 10
1362.697826074152
 20
793.867259659526
 30
0.0
 10
1362.731860979971
 20
793.988771233848
 30
0.0
 10
1362.793908535374
 20
794.1007334546972
 30
0.0
 10
1362.894314856441
 20
794.2066048353447
 30
0.0
 10
1362.980252578005
 20
794.2460242379136
 30
0.0
 10
1363.028621150861
 20
794.2682107726553
 30
0.0
  0
SPLINE
  5
1B2
330
1F
100
AcDbEntity
  8
0
  6
Continuous
 62
     7
370
    25
100
AcDbSpline
210
0.0
220
0.0
230
1.0
 70
     8
 71
     3
 72
    23
 73
    19
 74
     0
 42
0.000000001
 43
0.00000001
 40
0.0
 40
0.0
 40
0.0
 40
0.0
 40
0.086390105063673
 40
0.1752766177962657
 40
0.2621177065427438
 40
0.3519363559727683
 40
0.4192459175639057
 40
0.452807600612898
 40
0.4875598503476028
 40
0.534232617054251
 40
0.5808027178643259
 40
0.6174159281963868
 40
0.6550189806174282
 40
0.7176192476618429
 40
0.7818570182170677
 40
0.868941619754452
 40
0.9585429605715874
 40
1.0
 40
1.0
 40
1.0
 40
1.0
 10
1359.248127850167
 20
788.942454642711
 30
0.0
 10
1359.44646245454
 20
788.8386244896766
 30
0.0
 10
1359.848862921825
 20
788.6279638123257
 30
0.0
 10
1360.506532359638
 20
788.5017493779826
 30
0.0
 10
1361.18871788835
 20
788.517039962031
 30
0.0
 10
1361.825458260185
 20
788.6868776449758
 30
0.0
 10
1362.325262173509
 20
788.9521028623919
 30
0.0
 10
1362.6733906174
 20
789.2194848241999
 30
0.0
 10
1362.957030754407
 20
789.495747553424
 30
0.0
 10
1363.237347354295
 20
789.8657909023701
 30
0.0
 10
1363.443026051559
 20
790.2677808776369
 30
0.0
 10
1363.568848413515
 20
790.6334003646816
 30
0.0
 10
1363.655741426464
 20
791.034493540163
 30
0.0
 10
1363.683825536256
 20
791.4938991414884
 30
0.0
 10
1363.619440448578
 20
792.0560204900378
 30
0.0
 10
1363.42607384307
 20
792.6422101623558
 30
0.0
 10
1363.141036349641
 20
793.1208717718582
 30
0.0
 10
1362.913486522324
 20
793.3696990692512
 30
0.0
 10
1362.841506827891
 20
793.4484093589674
 30
0.0
  0
SPLINE
  5
1B3
330
1F
100
AcDbEntity
  8
0
  6
Continuous
 62
     7
370
    25
100
AcDbSpline
210
0.0
220
0.0
230
1.0
 70
     8
 71
     3
 72
    14
 73
    10
 74
     0
 42
0.000000001
 43
0.00000001
 40
0.0
 40
0.0
 40
0.0
 40
0.0
 40
0.2243030424883259
 40
0.3489011866266116
 40
0.4744001356117633
 40
0.5826741857066091
 40
0.6867417687947664
 40
0.8381564871696764
 40
1.0
 40
1.0
 40
1.0
 40
1.0
 10
1358.490517423421
 20
788.5776086902462
 30
0.0
 10
1358.505162961836
 20
788.642221341276
 30
0.0
 10
1358.527943953459
 20
788.7427256873841
 30
0.0
 10
1358.629728579865
 20
788.8749110230136
 30
0.0
 10
1358.738418621415
 20
788.9572565826434
 30
0.0
 10
1358.859386631273
 20
789.0046376013202
 30
0.0
 10
1358.989681685112
 20
789.0220559487492
 30
0.0
 10
1359.127498386034
 20
789.0046499750343
 30
0.0
 10
1359.207035396875
 20
788.9636414962455
 30
0.0
 10
1359.248127850167
 20
788.9424546427111
 30
0.0
  0
SPLINE
  5
1B4
330
1F
100
AcDbEntity
  8
0
  6
Continuous
 62
     7
370
    25
100
AcDbSpline
210
0.0
220
0.0
230
1.0
 70
     8
 71
     3
 72
    26
 73
    22
 74
     0
 42
0.000000001
 43
0.00000001
 40
0.0
 40
0.0
 40
0.0
 40
0.0
 40
0.085426115936098
 40
0.1733276547195598
 40
0.2448517261352465
 40
0.3181224083912745
 40
0.3577740645396684
 40
0.3980844094313232
 40
0.4287682032815349
 40
0.4601978879083247
 40
0.4855692359538105
 40
0.5116681185372469
 40
0.5370453561645231
 40
0.5630880149114142
 40
0.5995557531473619
 40
0.6370345873825507
 40
0.696049730423155
 40
0.7566321175831425
 40
0.8401423063242394
 40
0.9260534647419586
 40
1.0
 40
1.0
 40
1.0
 40
1.0
 10
1352.727185020852
 20
788.5776086902464
 30
0.0
 10
1352.768606596827
 20
788.3615419734746
 30
0.0
 10
1352.852650036469
 20
787.9231474980776
 30
0.0
 10
1353.141224500791
 20
787.3660366074298
 30
0.0
 10
1353.515592032309
 20
786.894552978266
 30
0.0
 10
1353.896557133427
 20
786.5727429688063
 30
0.0
 10
1354.271756599845
 20
786.3487017122565
 30
0.0
 10
1354.576592414229
 20
786.2133793606172
 30
0.0
 10
1354.887886869216
 20
786.1159209123407
 30
0.0
 10
1355.174951681176
 20
786.0581377850339
 30
0.0
 10
1355.45998962721
 20
786.0301270950928
 30
0.0
 10
1355.728851870435
 20
786.0287770277733
 30
0.0
 10
1355.996271267282
 20
786.0524005491598
 30
0.0
 10
1356.287449295377
 20
786.1051333494585
 30
0.0
 10
1356.596003326883
 20
786.196121291195
 30
0.0
 10
1356.966025789482
 20
786.3551089796255
 30
0.0
 10
1357.345522682755
 20
786.5898266220937
 30
0.0
 10
1357.754593040711
 20
786.9498890950931
 30
0.0
 10
1358.114493111643
 20
787.4228918409735
 30
0.0
 10
1358.382084556024
 20
787.9851906881321
 30
0.0
 10
1358.456222770631
 20
788.3902414262724
 30
0.0
 10
1358.490517423421
 20
788.5776086902462
 30
0.0
  0
SPLINE
  5
1B5
330
1F
100
AcDbEntity
  8
0
  6
Continuous
 62
     7
370
    25
100
AcDbSpline
210
0.0
220
0.0
230
1.0
 70
     8
 71
     3
 72
    14
 73
    10
 74
     0
 42
0.000000001
 43
0.00000001
 40
0.0
 40
0.0
 40
0.0
 40
0.0
 40
0.2239799089306602
 40
0.3530600787850526
 40
0.4831615846560798
 40
0.5937368434044649
 40
0.6971871626482021
 40
0.8442013099711085
 40
1.0
 40
1.0
 40
1.0
 40
1.0
 10
1351.969574594106
 20
788.9424546427114
 30
0.0
 10
1352.028194946777
 20
788.9708726494791
 30
0.0
 10
1352.120598352205
 20
789.0156680231191
 30
0.0
 10
1352.287636535798
 20
789.0193932264812
 30
0.0
 10
1352.423067849902
 20
788.98487653294
 30
0.0
 10
1352.537508430701
 20
788.9173950391047
 30
0.0
 10
1352.631327529476
 20
788.825179197433
 30
0.0
 10
1352.701435758421
 20
788.7077493806765
 30
0.0
 10
1352.71843752735
 20
788.6218198534594
 30
0.0
 10
1352.727185020852
 20
788.5776086902464
 30
0.0
  0
SPLINE
  5
1B6
330
1F
100
AcDbEntity
  8
0
  6
Continuous
 62
     7
370
    25
100
AcDbSpline
210
0.0
220
0.0
230
1.0
 70
     8
 71
     3
 72
    25
 73
    21
 74
     0
 42
0.000000001
 43
0.00000001
 40
0.0
 40
0.0
 40
0.0
 40
0.0
 40
0.0875462653424556
 40
0.17762759296003
 40
0.2471474788262656
 40
0.318248505808561
 40
0.3544110039426032
 40
0.3911111694055485
 40
0.4196256508468989
 40
0.4488279610873451
 40
0.4955774367114223
 40
0.5423030312794792
 40
0.5762969204455036
 40
0.6112229844817039
 40
0.6688576767939515
 40
0.7279867562248815
 40
0.8132488808160989
 40
0.9009541844562668
 40
0.9502506997642257
 40
1.0
 40
1.0
 40
1.0
 40
1.0
 10
1348.376195616383
 20
793.4484093589674
 30
0.0
 10
1348.230121535283
 20
793.2773206265236
 30
0.0
 10
1347.933743530828
 20
792.9301889743888
 30
0.0
 10
1347.680670803547
 20
792.3507238829619
 30
0.0
 10
1347.551052181859
 20
791.7676719449719
 30
0.0
 10
1347.538658091999
 20
791.2876950725121
 30
0.0
 10
1347.592705832855
 20
790.8768389947314
 30
0.0
 10
1347.666634948333
 20
790.5769126380336
 30
0.0
 10
1347.770723269215
 20
790.290219235472
 30
0.0
 10
1347.924084546154
 20
789.9697795268733
 30
0.0
 10
1348.168550011212
 20
789.5998026004254
 30
0.0
 10
1348.478890121839
 20
789.2740096362622
 30
0.0
 10
1348.774675563948
 20
789.0397956723674
 30
0.0
 10
1349.103837893507
 20
788.8344458538767
 30
0.0
 10
1349.500712581386
 20
788.6600792902844
 30
0.0
 10
1350.026605157426
 20
788.5264008731932
 30
0.0
 10
1350.625546567741
 20
788.4939239474227
 30
0.0
 10
1351.182903185653
 20
788.5922354430645
 30
0.0
 10
1351.632515980321
 20
788.7534168213408
 30
0.0
 10
1351.856879832007
 20
788.8792502876354
 30
0.0
 10
1351.969574594106
 20
788.9424546427114
 30
0.0
  0
SPLINE
  5
1B7
330
1F
100
AcDbEntity
  8
0
  6
Continuous
 62
     7
370
    25
100
AcDbSpline
210
0.0
220
0.0
230
1.0
 70
     8
 71
     3
 72
    14
 73
    10
 74
     0
 42
0.000000001
 43
0.00000001
 40
0.0
 40
0.0
 40
0.0
 40
0.0
 40
0.2200911109485595
 40
0.3501199592092341
 40
0.4590676183976581
 40
0.5685351145661265
 40
0.6668402217390302
 40
0.7968948941937074
 40
1.0
 40
1.0
 40
1.0
 40
1.0
 10
1348.189081293413
 20
794.2682107726553
 30
0.0
 10
1348.245488717278
 20
794.2415674508684
 30
0.0
 10
1348.335221395974
 20
794.1991833732154
 30
0.0
 10
1348.437488363669
 20
794.0809919584907
 30
0.0
 10
1348.495761077681
 20
793.965111867258
 30
0.0
 10
1348.521707505107
 20
793.8431260252801
 30
0.0
 10
1348.51714557667
 20
793.7154613375735
 30
0.0
 10
1348.475272272061
 20
793.5696596831792
 30
0.0
 10
1348.413719935488
 20
793.4943317392308
 30
0.0
 10
1348.376195616383
 20
793.4484093589673
 30
0.0
  0
SPLINE
  5
1B8
330
1F
100
AcDbEntity
  8
0
  6
Continuous
 62
     7
370
    25
100
AcDbSpline
210
0.0
220
0.0
230
1.0
 70
     8
 71
     3
 72
    27
 73
    23
 74
     0
 42
0.000000001
 43
0.00000001
 40
0.0
 40
0.0
 40
0.0
 40
0.0
 40
0.0910683471803986
 40
0.1847464164709026
 40
0.2588266946055589
 40
0.3345190598259221
 40
0.3626447427195311
 40
0.3910056482847584
 40
0.4191743039830009
 40
0.4481203606979772
 40
0.4657704782447684
 40
0.483908170643323
 40
0.5015721548764698
 40
0.519744021487297
 40
0.544844685443552
 40
0.5706253690117598
 40
0.6177938154944822
 40
0.6660858441031573
 40
0.7518796859636279
 40
0.8400397940083125
 40
0.9191574739584861
 40
1.0
 40
1.0
 40
1.0
 40
1.0
 10
1349.471543402334
 20
799.8870443991005
 30
0.0
 10
1349.234986055945
 20
799.8940293525545
 30
0.0
 10
1348.755092400374
 20
799.9081994254699
 30
0.0
 10
1348.119492982509
 20
799.7256478859049
 30
0.0
 10
1347.565499920462
 20
799.4370148070083
 30
0.0
 10
1347.194286992795
 20
799.1349763558842
 30
0.0
 10
1346.939711631422
 20
798.853693339616
 30
0.0
 10
1346.784713875267
 20
798.6497061844542
 30
0.0
 10
1346.638171527495
 20
798.4155544672255
 30
0.0
 10
1346.521929406465
 20
798.1811032364267
 30
0.0
 10
1346.435198229643
 20
797.9586737035565
 30
0.0
 10
1346.375029169798
 20
797.7657669516253
 30
0.0
 10
1346.328246139142
 20
797.5676494697194
 30
0.0
 10
1346.292050612631
 20
797.3469560442386
 30
0.0
 10
1346.272476058605
 20
797.1069774454124
 30
0.0
 10
1346.274762931836
 20
796.7882660535465
 30
0.0
 10
1346.32081050399
 20
796.4290375328453
 30
0.0
 10
1346.453204593656
 20
795.9457849927041
 30
0.0
 10
1346.707481997051
 20
795.4238225514155
 30
0.0
 10
1347.114310568746
 20
794.9252770104699
 30
0.0
 10
1347.607069666865
 20
794.5227123214465
 30
0.0
 10
1347.993687787374
 20
794.3536522787049
 30
0.0
 10
1348.189081293413
 20
794.2682107726553
 30
0.0
  0
SPLINE
  5
1B9
330
1F
100
AcDbEntity
  8
0
  6
Continuous
 62
     7
370
    25
100
AcDbSpline
210
0.0
220
0.0
230
1.0
 70
     8
 71
     3
 72
    15
 73
    11
 74
     0
 42
0.000000001
 43
0.00000001
 40
0.0
 40
0.0
 40
0.0
 40
0.0
 40
0.2150763736127623
 40
0.3413349926978211
 40
0.4465934903530034
 40
0.5524796219272401
 40
0.6449070621727223
 40
0.766214653902494
 40
0.940631656051666
 40
1.0
 40
1.0
 40
1.0
 40
1.0
 10
1349.995826084773
 20
800.544474088603
 30
0.0
 10
1350.009855797679
 20
800.4862938268689
 30
0.0
 10
1350.032121525298
 20
800.3939593743181
 30
0.0
 10
1350.007421516037
 20
800.2448948408446
 30
0.0
 10
1349.957630093003
 20
800.1285416994824
 30
0.0
 10
1349.883130964054
 20
800.0318226619323
 30
0.0
 10
1349.786153594256
 20
799.954163752923
 30
0.0
 10
1349.660953850637
 20
799.8965746616184
 30
0.0
 10
1349.552104671071
 20
799.88126781525
 30
0.0
 10
1349.487858356822
 20
799.8858745478295
 30
0.0
 10
1349.471543402334
 20
799.8870443991005
 30
0.0
  0
SPLINE
  5
1BA
330
1F
100
AcDbEntity
  8
0
  6
Continuous
 62
     7
370
    25
100
AcDbSpline
210
0.0
220
0.0
230
1.0
 70
     8
 71
     3
 72
    26
 73
    22
 74
     0
 42
0.000000001
 43
0.00000001
 40
0.0
 40
0.0
 40
0.0
 40
0.0
 40
0.0912035599485179
 40
0.1849670362499739
 40
0.2785634207445332
 40
0.3265394520589692
 40
0.3749439889046062
 40
0.4231405593180603
 40
0.4430841889857802
 40
0.4634373414447683
 40
0.4878409265543513
 40
0.5123587387507041
 40
0.5280992736585399
 40
0.5442699367721682
 40
0.5755700365325769
 40
0.6075525397506846
 40
0.6834424014570644
 40
0.7611024134338045
 40
0.846910703129909
 40
0.9346000221708252
 40
0.9999999999999999
 40
0.9999999999999999
 40
0.9999999999999999
 40
0.9999999999999999
 10
1355.18840915486
 20
803.0450903012066
 30
0.0
 10
1355.040786200854
 20
803.2405540268995
 30
0.0
 10
1354.741396787761
 20
803.636967785926
 30
0.0
 10
1354.148378521516
 20
804.0472514313744
 30
0.0
 10
1353.590392969966
 20
804.270887044779
 30
0.0
 10
1353.102625037973
 20
804.3638033699028
 30
0.0
 10
1352.709342899236
 20
804.3864399712264
 30
0.0
 10
1352.365210555709
 20
804.3586735139658
 30
0.0
 10
1352.07781012056
 20
804.3016536665749
 30
0.0
 10
1351.853171850151
 20
804.2401774727431
 30
0.0
 10
1351.593745110551
 20
804.1442127479601
 30
0.0
 10
1351.355563755478
 20
804.0259772443417
 30
0.0
 10
1351.172429374833
 20
803.9154440955945
 30
0.0
 10
1350.988124734418
 20
803.7885246859743
 30
0.0
 10
1350.790886916923
 20
803.6261427999941
 30
0.0
 10
1350.50282174068
 20
803.3366480914302
 30
0.0
 10
1350.212548888623
 20
802.931968948109
 30
0.0
 10
1349.961090871523
 20
802.3700982538671
 30
0.0
 10
1349.831663702623
 20
801.7412371282842
 30
0.0
 10
1349.837340005673
 20
801.115838938142
 30
0.0
 10
1349.948386749027
 20
800.7154996391416
 30
0.0
 10
1349.995826084773
 20
800.544474088603
 30
0.0
  0
SPLINE
  5
1BB
330
1F
100
AcDbEntity
  8
0
  6
Continuous
 62
     7
370
    25
100
AcDbSpline
210
0.0
220
0.0
230
1.0
 70
     8
 71
     3
 72
    15
 73
    11
 74
     0
 42
0.000000001
 43
0.00000001
 40
0.0
 40
0.0
 40
0.0
 40
0.0
 40
0.2129294053202189
 40
0.3333107283175603
 40
0.4345062010026767
 40
0.5362836886506531
 40
0.6256367151020122
 40
0.7456368547566248
 40
0.921192717688107
 40
1.0
 40
1.0
 40
1.0
 40
1.0
 10
1356.029293289414
 20
803.0450903012066
 30
0.0
 10
1355.992829381806
 20
802.998057522761
 30
0.0
 10
1355.935750315699
 20
802.9244343911183
 30
0.0
 10
1355.806121803903
 20
802.8511515790769
 30
0.0
 10
1355.687963193827
 20
802.8170495443757
 30
0.0
 10
1355.569217075919
 20
802.81283832558
 30
0.0
 10
1355.449889735205
 20
802.8366647592676
 30
0.0
 10
1355.326010463111
 20
802.8946411867561
 30
0.0
 10
1355.239966904155
 20
802.9712670035615
 30
0.0
 10
1355.200604493245
 20
803.027628326861
 30
0.0
 10
1355.18840915486
 20
803.0450903012066
 30
0.0
  0
SPLINE
  5
1BC
330
1F
100
AcDbEntity
  8
0
  6
Continuous
 62
     7
370
    25
100
AcDbSpline
210
0.0
220
0.0
230
1.0
 70
     8
 71
     3
 72
    25
 73
    21
 74
     0
 42
0.000000001
 43
0.00000001
 40
0.0
 40
0.0
 40
0.0
 40
0.0
 40
0.0897174329458049
 40
0.181951778046474
 40
0.2741564286250122
 40
0.3213347009144686
 40
0.3688705103640607
 40
0.4236588038487549
 40
0.4510361250048939
 40
0.4792430363670711
 40
0.5037913906395244
 40
0.5284414423184048
 40
0.5611619013115614
 40
0.6013318478780341
 40
0.6426256193945197
 40
0.7286913895866837
 40
0.8169611916237425
 40
0.9072669371779623
 40
0.9534664517756424
 40
1.0
 40
1.0
 40
1.0
 40
1.0
 10
1361.221876359501
 20
800.5444740886034
 30
0.0
 10
1361.28226066717
 20
800.7796967639347
 30
0.0
 10
1361.404723289936
 20
801.2567409972359
 30
0.0
 10
1361.358736750876
 20
801.9678265691059
 30
0.0
 10
1361.192203071888
 20
802.5349478941135
 30
0.0
 10
1360.971317114442
 20
802.965206504397
 30
0.0
 10
1360.745730908069
 20
803.2940978936035
 30
0.0
 10
1360.495731412719
 20
803.566601682741
 30
0.0
 10
1360.226372354573
 20
803.7920426173405
 30
0.0
 10
1359.991322007226
 20
803.9534969391245
 30
0.0
 10
1359.718369832614
 20
804.10153018903
 30
0.0
 10
1359.407751391474
 20
804.2290226414918
 30
0.0
 10
1359.065140220707
 20
804.3237881266497
 30
0.0
 10
1358.711626524444
 20
804.3746843742077
 30
0.0
 10
1358.236216650874
 20
804.3843874237713
 30
0.0
 10
1357.677089521882
 20
804.2930669907054
 30
0.0
 10
1357.050552342373
 20
804.0371710849722
 30
0.0
 10
1356.580165928961
 20
803.6978873590078
 30
0.0
 10
1356.244572897494
 20
803.353132715581
 30
0.0
 10
1356.101225276191
 20
803.1480173878697
 30
0.0
 10
1356.029293289414
 20
803.0450903012066
 30
0.0
  0
SPLINE
  5
1BD
330
1F
100
AcDbEntity
  8
0
  6
Continuous
 62
     7
370
    25
100
AcDbSpline
210
0.0
220
0.0
230
1.0
 70
     8
 71
     3
 72
    15
 73
    11
 74
     0
 42
0.000000001
 43
0.00000001
 40
0.0
 40
0.0
 40
0.0
 40
0.0
 40
0.2155767705932649
 40
0.3329005538677319
 40
0.4328760582231109
 40
0.5332634977247579
 40
0.6250838127945265
 40
0.7535547096889059
 40
0.9421338378892272
 40
1.0
 40
1.0
 40
1.0
 40
1.0
 10
1361.746159041941
 20
799.8870443991008
 30
0.0
 10
1361.684329280673
 20
799.8863928786457
 30
0.0
 10
1361.588849782975
 20
799.8853867798914
 30
0.0
 10
1361.448861915125
 20
799.944228178319
 30
0.0
 10
1361.350435806589
 20
800.0161876725784
 30
0.0
 10
1361.27503897143
 20
800.1061519074657
 30
0.0
 10
1361.219610087455
 20
800.215733712002
 30
0.0
 10
1361.18855047272
 20
800.3541162390676
 30
0.0
 10
1361.197957090993
 20
800.4663696620862
 30
0.0
 10
1361.217328005313
 20
800.5296221881227
 30
0.0
 10
1361.221876359501
 20
800.5444740886034
 30
0.0
  0
SPLINE
  5
1BE
330
1F
100
AcDbEntity
  8
0
  6
Continuous
 62
     7
370
    25
100
AcDbSpline
210
0.0
220
0.0
230
1.0
 70
     8
 71
     3
 72
    28
 73
    24
 74
     0
 42
0.000000001
 43
0.00000001
 40
0.0
 40
0.0
 40
0.0
 40
0.0
 40
0.0885577904272318
 40
0.1796438193735511
 40
0.2695757108504258
 40
0.3157367678527874
 40
0.3623220932277396
 40
0.3904539690316876
 40
0.418795248633997
 40
0.4469625905235267
 40
0.4757849359529007
 40
0.493765125940214
 40
0.5122126959858423
 40
0.5302154725933165
 40
0.5487865500347918
 40
0.572171629790275
 40
0.5962043255368807
 40
0.6385840534980247
 40
0.6819817284823786
 40
0.7628828890611741
 40
0.845944899194264
 40
0.922231680684428
 40
1.0
 40
1.0
 40
1.0
 40
1.0
 10
2138.189081293429
 20
1805.49725990634
 30
0.0
 10
2137.975760486805
 20
1805.402340469804
 30
0.0
 10
2137.543028772647
 20
1805.209791739423
 30
0.0
 10
2137.024975122887
 20
1804.752532458887
 30
0.0
 10
2136.683019881955
 20
1804.285133956833
 30
0.0
 10
2136.477233216811
 20
1803.854664404328
 30
0.0
 10
2136.37410319729
 20
1803.543874739173
 30
0.0
 10
2136.312469776347
 20
1803.257807151539
 30
0.0
 10
2136.28030606973
 20
1803.007430452226
 30
0.0
 10
2136.269854635303
 20
1802.736787111531
 30
0.0
 10
2136.284772141802
 20
1802.480120287573
 30
0.0
 10
2136.319085367512
 20
1802.245543434955
 30
0.0
 10
2136.362735448291
 20
1802.045769553647
 30
0.0
 10
2136.421686904408
 20
1801.845879304108
 30
0.0
 10
2136.499776132242
 20
1801.637293712051
 30
0.0
 10
2136.599100614621
 20
1801.425159254547
 30
0.0
 10
2136.748057388231
 20
1801.166344976877
 30
0.0
 10
2136.947433843669
 20
1800.895382045453
 30
0.0
 10
2137.273361868841
 20
1800.554827080929
 30
0.0
 10
2137.71678622069
 20
1800.230972220132
 30
0.0
 10
2138.278550793651
 20
1799.985904410251
 30
0.0
 10
2138.869052870867
 20
1799.854212646384
 30
0.0
 10
2139.269429759075
 20
1799.870303487203
 30
0.0
 10
2139.471543402349
 20
1799.878426279894
 30
0.0
  0
SPLINE
  5
1BF
330
1F
100
AcDbEntity
  8
0
  6
Continuous
 62
     7
370
    25
100
AcDbSpline
210
0.0
220
0.0
230
1.0
 70
     8
 71
     3
 72
    14
 73
    10
 74
     0
 42
0.000000001
 43
0.00000001
 40
0.0
 40
0.0
 40
0.0
 40
0.0
 40
0.220765348438179
 40
0.3402146168140553
 40
0.4605704991790948
 40
0.5641909618660854
 40
0.6633542991971745
 40
0.8105247403618525
 40
1.0
 40
1.0
 40
1.0
 40
1.0
 10
2138.376195616399
 20
1806.317061320028
 30
0.0
 10
2138.416894411921
 20
1806.266518880386
 30
0.0
 10
2138.479614060729
 20
1806.188629497575
 30
0.0
 10
2138.520555466105
 20
1806.030716201538
 30
0.0
 10
2138.519876370138
 20
1805.898211019469
 30
0.0
 10
2138.485841464319
 20
1805.776699445147
 30
0.0
 10
2138.423793908915
 20
1805.664737224298
 30
0.0
 10
2138.32338758785
 20
1805.55886584365
 30
0.0
 10
2138.237449866285
 20
1805.519446441081
 30
0.0
 10
2138.189081293429
 20
1805.49725990634
 30
0.0
  0
SPLINE
  5
1C0
330
1F
100
AcDbEntity
  8
0
  6
Continuous
 62
     7
370
    25
100
AcDbSpline
210
0.0
220
0.0
230
1.0
 70
     8
 71
     3
 72
    23
 73
    19
 74
     0
 42
0.000000001
 43
0.00000001
 40
0.0
 40
0.0
 40
0.0
 40
0.0
 40
0.086390105063673
 40
0.1752766177962657
 40
0.2621177065427438
 40
0.3519363559727683
 40
0.4192459175639057
 40
0.452807600612898
 40
0.4875598503476028
 40
0.534232617054251
 40
0.5808027178643259
 40
0.6174159281963868
 40
0.6550189806174282
 40
0.7176192476618429
 40
0.7818570182170677
 40
0.868941619754452
 40
0.9585429605715874
 40
1.0
 40
1.0
 40
1.0
 40
1.0
 10
2141.969574594123
 20
1810.823016036284
 30
0.0
 10
2141.77123998975
 20
1810.926846189318
 30
0.0
 10
2141.368839522464
 20
1811.137506866669
 30
0.0
 10
2140.711170084652
 20
1811.263721301012
 30
0.0
 10
2140.02898455594
 20
1811.248430716964
 30
0.0
 10
2139.392244184105
 20
1811.078593034019
 30
0.0
 10
2138.892440270781
 20
1810.813367816603
 30
0.0
 10
2138.544311826889
 20
1810.545985854795
 30
0.0
 10
2138.260671689883
 20
1810.269723125571
 30
0.0
 10
2137.980355089994
 20
1809.899679776625
 30
0.0
 10
2137.774676392731
 20
1809.497689801358
 30
0.0
 10
2137.648854030775
 20
1809.132070314314
 30
0.0
 10
2137.561961017826
 20
1808.730977138832
 30
0.0
 10
2137.533876908033
 20
1808.271571537507
 30
0.0
 10
2137.598261995712
 20
1807.709450188957
 30
0.0
 10
2137.79162860122
 20
1807.123260516639
 30
0.0
 10
2138.076666094649
 20
1806.644598907137
 30
0.0
 10
2138.304215921966
 20
1806.395771609744
 30
0.0
 10
2138.376195616399
 20
1806.317061320028
 30
0.0
  0
SPLINE
  5
1C1
330
1F
100
AcDbEntity
  8
0
  6
Continuous
 62
     7
370
    25
100
AcDbSpline
210
0.0
220
0.0
230
1.0
 70
     8
 71
     3
 72
    14
 73
    10
 74
     0
 42
0.000000001
 43
0.00000001
 40
0.0
 40
0.0
 40
0.0
 40
0.0
 40
0.2243030424883259
 40
0.3489011866266116
 40
0.4744001356117633
 40
0.5826741857066091
 40
0.6867417687947664
 40
0.8381564871696764
 40
1.0
 40
1.0
 40
1.0
 40
1.0
 10
2142.727185020869
 20
1811.187861988749
 30
0.0
 10
2142.712539482453
 20
1811.123249337719
 30
0.0
 10
2142.68975849083
 20
1811.022744991611
 30
0.0
 10
2142.587973864425
 20
1810.890559655982
 30
0.0
 10
2142.479283822875
 20
1810.808214096352
 30
0.0
 10
2142.358315813017
 20
1810.760833077675
 30
0.0
 10
2142.228020759178
 20
1810.743414730246
 30
0.0
 10
2142.090204058255
 20
1810.760820703961
 30
0.0
 10
2142.010667047415
 20
1810.801829182749
 30
0.0
 10
2141.969574594122
 20
1810.823016036284
 30
0.0
  0
SPLINE
  5
1C2
330
1F
100
AcDbEntity
  8
0
  6
Continuous
 62
     7
370
    25
100
AcDbSpline
210
0.0
220
0.0
230
1.0
 70
     8
 71
     3
 72
    26
 73
    22
 74
     0
 42
0.000000001
 43
0.00000001
 40
0.0
 40
0.0
 40
0.0
 40
0.0
 40
0.085426115936098
 40
0.1733276547195598
 40
0.2448517261352465
 40
0.3181224083912745
 40
0.3577740645396684
 40
0.3980844094313232
 40
0.4287682032815349
 40
0.4601978879083247
 40
0.4855692359538105
 40
0.5116681185372469
 40
0.5370453561645231
 40
0.5630880149114142
 40
0.5995557531473619
 40
0.6370345873825507
 40
0.696049730423155
 40
0.7566321175831425
 40
0.8401423063242394
 40
0.9260534647419586
 40
1.0
 40
1.0
 40
1.0
 40
1.0
 10
2148.490517423437
 20
1811.187861988749
 30
0.0
 10
2148.449095847463
 20
1811.403928705521
 30
0.0
 10
2148.365052407821
 20
1811.842323180917
 30
0.0
 10
2148.076477943498
 20
1812.399434071565
 30
0.0
 10
2147.702110411981
 20
1812.870917700729
 30
0.0
 10
2147.321145310863
 20
1813.192727710189
 30
0.0
 10
2146.945945844445
 20
1813.416768966738
 30
0.0
 10
2146.641110030061
 20
1813.552091318378
 30
0.0
 10
2146.329815575074
 20
1813.649549766654
 30
0.0
 10
2146.042750763114
 20
1813.707332893961
 30
0.0
 10
2145.757712817079
 20
1813.735343583902
 30
0.0
 10
2145.488850573855
 20
1813.736693651222
 30
0.0
 10
2145.221431177008
 20
1813.713070129835
 30
0.0
 10
2144.930253148913
 20
1813.660337329537
 30
0.0
 10
2144.621699117407
 20
1813.5693493878
 30
0.0
 10
2144.251676654808
 20
1813.41036169937
 30
0.0
 10
2143.872179761534
 20
1813.175644056901
 30
0.0
 10
2143.463109403578
 20
1812.815581583902
 30
0.0
 10
2143.103209332647
 20
1812.342578838022
 30
0.0
 10
2142.835617888266
 20
1811.780279990863
 30
0.0
 10
2142.761479673659
 20
1811.375229252723
 30
0.0
 10
2142.727185020869
 20
1811.187861988749
 30
0.0
  0
SPLINE
  5
1C3
330
1F
100
AcDbEntity
  8
0
  6
Continuous
 62
     7
370
    25
100
AcDbSpline
210
0.0
220
0.0
230
1.0
 70
     8
 71
     3
 72
    14
 73
    10
 74
     0
 42
0.000000001
 43
0.00000001
 40
0.0
 40
0.0
 40
0.0
 40
0.0
 40
0.2239799089306602
 40
0.3530600787850526
 40
0.4831615846560798
 40
0.5937368434044649
 40
0.6971871626482021
 40
0.8442013099711085
 40
1.0
 40
1.0
 40
1.0
 40
1.0
 10
2149.248127850184
 20
1810.823016036284
 30
0.0
 10
2149.189507497512
 20
1810.794598029516
 30
0.0
 10
2149.097104092084
 20
1810.749802655876
 30
0.0
 10
2148.930065908492
 20
1810.746077452514
 30
0.0
 10
2148.794634594387
 20
1810.780594146055
 30
0.0
 10
2148.680194013589
 20
1810.84807563989
 30
0.0
 10
2148.586374914813
 20
1810.940291481562
 30
0.0
 10
2148.516266685868
 20
1811.057721298318
 30
0.0
 10
2148.499264916939
 20
1811.143650825536
 30
0.0
 10
2148.490517423437
 20
1811.187861988749
 30
0.0
  0
SPLINE
  5
1C4
330
1F
100
AcDbEntity
  8
0
  6
Continuous
 62
     7
370
    25
100
AcDbSpline
210
0.0
220
0.0
230
1.0
 70
     8
 71
     3
 72
    25
 73
    21
 74
     0
 42
0.000000001
 43
0.00000001
 40
0.0
 40
0.0
 40
0.0
 40
0.0
 40
0.0875462653424556
 40
0.17762759296003
 40
0.2471474788262656
 40
0.318248505808561
 40
0.3544110039426032
 40
0.3911111694055485
 40
0.4196256508468989
 40
0.4488279610873451
 40
0.4955774367114223
 40
0.5423030312794792
 40
0.5762969204455036
 40
0.6112229844817039
 40
0.6688576767939515
 40
0.7279867562248815
 40
0.8132488808160989
 40
0.9009541844562668
 40
0.9502506997642257
 40
1.0
 40
1.0
 40
1.0
 40
1.0
 10
2152.841506827906
 20
1806.317061320028
 30
0.0
 10
2152.987580909007
 20
1806.488150052471
 30
0.0
 10
2153.283958913461
 20
1806.835281704606
 30
0.0
 10
2153.537031640743
 20
1807.414746796033
 30
0.0
 10
2153.66665026243
 20
1807.997798734023
 30
0.0
 10
2153.67904435229
 20
1808.477775606483
 30
0.0
 10
2153.624996611435
 20
1808.888631684264
 30
0.0
 10
2153.551067495956
 20
1809.188558040961
 30
0.0
 10
2153.446979175075
 20
1809.475251443523
 30
0.0
 10
2153.293617898135
 20
1809.795691152122
 30
0.0
 10
2153.049152433077
 20
1810.16566807857
 30
0.0
 10
2152.738812322451
 20
1810.491461042732
 30
0.0
 10
2152.443026880342
 20
1810.725675006627
 30
0.0
 10
2152.113864550783
 20
1810.931024825119
 30
0.0
 10
2151.716989862904
 20
1811.105391388711
 30
0.0
 10
2151.191097286864
 20
1811.239069805802
 30
0.0
 10
2150.592155876548
 20
1811.271546731572
 30
0.0
 10
2150.034799258637
 20
1811.17323523593
 30
0.0
 10
2149.585186463969
 20
1811.012053857654
 30
0.0
 10
2149.360822612282
 20
1810.88622039136
 30
0.0
 10
2149.248127850184
 20
1810.823016036284
 30
0.0
  0
SPLINE
  5
1C5
330
1F
100
AcDbEntity
  8
0
  6
Continuous
 62
     7
370
    25
100
AcDbSpline
210
0.0
220
0.0
230
1.0
 70
     8
 71
     3
 72
    14
 73
    10
 74
     0
 42
0.000000001
 43
0.00000001
 40
0.0
 40
0.0
 40
0.0
 40
0.0
 40
0.2200911109485595
 40
0.3501199592092341
 40
0.4590676183976581
 40
0.5685351145661265
 40
0.6668402217390302
 40
0.7968948941937074
 40
1.0
 40
1.0
 40
1.0
 40
1.0
 10
2153.028621150876
 20
1805.49725990634
 30
0.0
 10
2152.972213727012
 20
1805.523903228127
 30
0.0
 10
2152.882481048316
 20
1805.566287305779
 30
0.0
 10
2152.78021408062
 20
1805.684478720504
 30
0.0
 10
2152.721941366608
 20
1805.800358811737
 30
0.0
 10
2152.695994939183
 20
1805.922344653715
 30
0.0
 10
2152.70055686762
 20
1806.050009341421
 30
0.0
 10
2152.742430172229
 20
1806.195810995816
 30
0.0
 10
2152.803982508802
 20
1806.271138939764
 30
0.0
 10
2152.841506827906
 20
1806.317061320028
 30
0.0
  0
SPLINE
  5
1C6
330
1F
100
AcDbEntity
  8
0
  6
Continuous
 62
     7
370
    25
100
AcDbSpline
210
0.0
220
0.0
230
1.0
 70
     8
 71
     3
 72
    27
 73
    23
 74
     0
 42
0.000000001
 43
0.00000001
 40
0.0
 40
0.0
 40
0.0
 40
0.0
 40
0.0910683471803988
 40
0.1847464164709031
 40
0.2588266946055595
 40
0.3345190598259229
 40
0.3626447427195295
 40
0.3910056482847569
 40
0.4191743039829994
 40
0.4481203606979757
 40
0.465770478244767
 40
0.4839081706433217
 40
0.5015721548764686
 40
0.5197440214872957
 40
0.5448446854435508
 40
0.5706253690117585
 40
0.6177938154944811
 40
0.6660858441031564
 40
0.7518796859636273
 40
0.8400397940083121
 40
0.9191574739584859
 40
1.0
 40
1.0
 40
1.0
 40
1.0
 10
2151.746159041956
 20
1799.878426279894
 30
0.0
 10
2151.982716388345
 20
1799.87144132644
 30
0.0
 10
2152.462610043915
 20
1799.857271253525
 30
0.0
 10
2153.098209461781
 20
1800.03982279309
 30
0.0
 10
2153.652202523828
 20
1800.328455871987
 30
0.0
 10
2154.023415451495
 20
1800.630494323111
 30
0.0
 10
2154.277990812867
 20
1800.911777339379
 30
0.0
 10
2154.432988569023
 20
1801.11576449454
 30
0.0
 10
2154.579530916795
 20
1801.34991621177
 30
0.0
 10
2154.695773037824
 20
1801.584367442568
 30
0.0
 10
2154.782504214646
 20
1801.806796975438
 30
0.0
 10
2154.842673274492
 20
1801.99970372737
 30
0.0
 10
2154.889456305148
 20
1802.197821209276
 30
0.0
 10
2154.925651831658
 20
1802.418514634756
 30
0.0
 10
2154.945226385684
 20
1802.658493233583
 30
0.0
 10
2154.942939512453
 20
1802.977204625448
 30
0.0
 10
2154.896891940301
 20
1803.33643314615
 30
0.0
 10
2154.764497850633
 20
1803.819685686291
 30
0.0
 10
2154.510220447239
 20
1804.34164812758
 30
0.0
 10
2154.103391875544
 20
1804.840193668525
 30
0.0
 10
2153.610632777425
 20
1805.242758357548
 30
0.0
 10
2153.224014656915
 20
1805.41181840029
 30
0.0
 10
2153.028621150876
 20
1805.49725990634
 30
0.0
  0
SPLINE
  5
1C7
330
1F
100
AcDbEntity
  8
0
  6
Continuous
 62
     7
370
    25
100
AcDbSpline
210
0.0
220
0.0
230
1.0
 70
     8
 71
     3
 72
    15
 73
    11
 74
     0
 42
0.000000001
 43
0.00000001
 40
0.0
 40
0.0
 40
0.0
 40
0.0
 40
0.2150763736127623
 40
0.3413349926978211
 40
0.4465934903530034
 40
0.5524796219272401
 40
0.6449070621727223
 40
0.766214653902494
 40
0.940631656051666
 40
1.0
 40
1.0
 40
1.0
 40
1.0
 10
2151.221876359517
 20
1799.220996590392
 30
0.0
 10
2151.207846646611
 20
1799.279176852126
 30
0.0
 10
2151.185580918991
 20
1799.371511304677
 30
0.0
 10
2151.210280928253
 20
1799.52057583815
 30
0.0
 10
2151.260072351287
 20
1799.636928979513
 30
0.0
 10
2151.334571480236
 20
1799.733648017062
 30
0.0
 10
2151.431548850034
 20
1799.811306926072
 30
0.0
 10
2151.556748593653
 20
1799.868896017377
 30
0.0
 10
2151.665597773218
 20
1799.884202863745
 30
0.0
 10
2151.729844087467
 20
1799.879596131165
 30
0.0
 10
2151.746159041956
 20
1799.878426279894
 30
0.0
  0
SPLINE
  5
1C8
330
1F
100
AcDbEntity
  8
0
  6
Continuous
 62
     7
370
    25
100
AcDbSpline
210
0.0
220
0.0
230
1.0
 70
     8
 71
     3
 72
    26
 73
    22
 74
     0
 42
0.000000001
 43
0.00000001
 40
0.0
 40
0.0
 40
0.0
 40
0.0
 40
0.0912035599485179
 40
0.1849670362499739
 40
0.2785634207445332
 40
0.3265394520589692
 40
0.3749439889046062
 40
0.4231405593180603
 40
0.4430841889857802
 40
0.4634373414447683
 40
0.4878409265543513
 40
0.5123587387507041
 40
0.5280992736585399
 40
0.5442699367721682
 40
0.5755700365325769
 40
0.6075525397506846
 40
0.6834424014570644
 40
0.7611024134338045
 40
0.846910703129909
 40
0.9346000221708252
 40
0.9999999999999999
 40
0.9999999999999999
 40
0.9999999999999999
 40
0.9999999999999999
 10
2146.02929328943
 20
1796.720380377788
 30
0.0
 10
2146.176916243436
 20
1796.524916652095
 30
0.0
 10
2146.476305656528
 20
1796.128502893069
 30
0.0
 10
2147.069323922774
 20
1795.718219247621
 30
0.0
 10
2147.627309474324
 20
1795.494583634216
 30
0.0
 10
2148.115077406317
 20
1795.401667309092
 30
0.0
 10
2148.508359545054
 20
1795.379030707768
 30
0.0
 10
2148.85249188858
 20
1795.406797165029
 30
0.0
 10
2149.139892323729
 20
1795.46381701242
 30
0.0
 10
2149.364530594139
 20
1795.525293206252
 30
0.0
 10
2149.623957333739
 20
1795.621257931035
 30
0.0
 10
2149.862138688813
 20
1795.739493434653
 30
0.0
 10
2150.045273069457
 20
1795.8500265834
 30
0.0
 10
2150.229577709872
 20
1795.976945993021
 30
0.0
 10
2150.426815527367
 20
1796.139327879001
 30
0.0
 10
2150.71488070361
 20
1796.428822587565
 30
0.0
 10
2151.005153555667
 20
1796.833501730886
 30
0.0
 10
2151.256611572767
 20
1797.395372425128
 30
0.0
 10
2151.386038741668
 20
1798.024233550711
 30
0.0
 10
2151.380362438617
 20
1798.649631740853
 30
0.0
 10
2151.269315695263
 20
1799.049971039853
 30
0.0
 10
2151.221876359517
 20
1799.220996590392
 30
0.0
  0
SPLINE
  5
1C9
330
1F
100
AcDbEntity
  8
0
  6
Continuous
 62
     7
370
    25
100
AcDbSpline
210
0.0
220
0.0
230
1.0
 70
     8
 71
     3
 72
    15
 73
    11
 74
     0
 42
0.000000001
 43
0.00000001
 40
0.0
 40
0.0
 40
0.0
 40
0.0
 40
0.2129294053202189
 40
0.3333107283175603
 40
0.4345062010026767
 40
0.5362836886506531
 40
0.6256367151020122
 40
0.7456368547566248
 40
0.921192717688107
 40
1.0
 40
1.0
 40
1.0
 40
1.0
 10
2145.188409154875
 20
1796.720380377788
 30
0.0
 10
2145.224873062484
 20
1796.767413156234
 30
0.0
 10
2145.281952128591
 20
1796.841036287877
 30
0.0
 10
2145.411580640386
 20
1796.914319099918
 30
0.0
 10
2145.529739250463
 20
1796.948421134619
 30
0.0
 10
2145.648485368371
 20
1796.952632353415
 30
0.0
 10
2145.767812709084
 20
1796.928805919727
 30
0.0
 10
2145.891691981178
 20
1796.870829492239
 30
0.0
 10
2145.977735540134
 20
1796.794203675434
 30
0.0
 10
2146.017097951044
 20
1796.737842352134
 30
0.0
 10
2146.02929328943
 20
1796.720380377788
 30
0.0
  0
SPLINE
  5
1CA
330
1F
100
AcDbEntity
  8
0
  6
Continuous
 62
     7
370
    25
100
AcDbSpline
210
0.0
220
0.0
230
1.0
 70
     8
 71
     3
 72
    25
 73
    21
 74
     0
 42
0.000000001
 43
0.00000001
 40
0.0
 40
0.0
 40
0.0
 40
0.0
 40
0.0897174329458049
 40
0.181951778046474
 40
0.2741564286250122
 40
0.3213347009144686
 40
0.3688705103640607
 40
0.4236588038487549
 40
0.4510361250048939
 40
0.4792430363670711
 40
0.5037913906395244
 40
0.5284414423184048
 40
0.5611619013115614
 40
0.6013318478780341
 40
0.6426256193945197
 40
0.7286913895866837
 40
0.8169611916237425
 40
0.9072669371779623
 40
0.9534664517756424
 40
1.0
 40
1.0
 40
1.0
 40
1.0
 10
2139.995826084788
 20
1799.220996590392
 30
0.0
 10
2139.93544177712
 20
1798.98577391506
 30
0.0
 10
2139.812979154354
 20
1798.508729681759
 30
0.0
 10
2139.858965693414
 20
1797.797644109889
 30
0.0
 10
2140.025499372402
 20
1797.230522784881
 30
0.0
 10
2140.246385329848
 20
1796.800264174598
 30
0.0
 10
2140.471971536221
 20
1796.471372785391
 30
0.0
 10
2140.721971031571
 20
1796.198868996254
 30
0.0
 10
2140.991330089717
 20
1795.973428061654
 30
0.0
 10
2141.226380437063
 20
1795.81197373987
 30
0.0
 10
2141.499332611676
 20
1795.663940489965
 30
0.0
 10
2141.809951052815
 20
1795.536448037503
 30
0.0
 10
2142.152562223583
 20
1795.441682552345
 30
0.0
 10
2142.506075919846
 20
1795.390786304787
 30
0.0
 10
2142.981485793417
 20
1795.381083255224
 30
0.0
 10
2143.540612922408
 20
1795.47240368829
 30
0.0
 10
2144.167150101917
 20
1795.728299594023
 30
0.0
 10
2144.637536515328
 20
1796.067583319987
 30
0.0
 10
2144.973129546796
 20
1796.412337963414
 30
0.0
 10
2145.116477168098
 20
1796.617453291125
 30
0.0
 10
2145.188409154875
 20
1796.720380377788
 30
0.0
  0
SPLINE
  5
1CB
330
1F
100
AcDbEntity
  8
0
  6
Continuous
 62
     7
370
    25
100
AcDbSpline
210
0.0
220
0.0
230
1.0
 70
     8
 71
     3
 72
    15
 73
    11
 74
     0
 42
0.000000001
 43
0.00000001
 40
0.0
 40
0.0
 40
0.0
 40
0.0
 40
0.2155767705932649
 40
0.3329005538677319
 40
0.4328760582231109
 40
0.5332634977247579
 40
0.6250838127945265
 40
0.7535547096889059
 40
0.9421338378892272
 40
1.0
 40
1.0
 40
1.0
 40
1.0
 10
2139.471543402349
 20
1799.878426279894
 30
0.0
 10
2139.533373163617
 20
1799.879077800349
 30
0.0
 10
2139.628852661315
 20
1799.880083899103
 30
0.0
 10
2139.768840529165
 20
1799.821242500676
 30
0.0
 10
2139.8672666377
 20
1799.749283006416
 30
0.0
 10
2139.94266347286
 20
1799.659318771529
 30
0.0
 10
2139.998092356835
 20
1799.549736966993
 30
0.0
 10
2140.029151971569
 20
1799.411354439928
 30
0.0
 10
2140.019745353297
 20
1799.299101016909
 30
0.0
 10
2140.000374438976
 20
1799.235848490872
 30
0.0
 10
2139.995826084788
 20
1799.220996590392
 30
0.0
  0
SPLINE
  5
1CC
330
1F
100
AcDbEntity
  8
0
  6
Continuous
 62
     7
370
    25
100
AcDbSpline
210
0.0
220
0.0
230
1.0
 70
     8
 71
     3
 72
    28
 73
    24
 74
     0
 42
0.000000001
 43
0.00000001
 40
0.0
 40
0.0
 40
0.0
 40
0.0
 40
0.0885577904272318
 40
0.1796438193735511
 40
0.2695757108504258
 40
0.3157367678527874
 40
0.3623220932277396
 40
0.3904539690316876
 40
0.418795248633997
 40
0.4469625905235267
 40
0.4757849359529007
 40
0.493765125940214
 40
0.5122126959858423
 40
0.5302154725933165
 40
0.5487865500347918
 40
0.572171629790275
 40
0.5962043255368807
 40
0.6385840534980247
 40
0.6819817284823786
 40
0.7628828890611741
 40
0.845944899194264
 40
0.922231680684428
 40
1.0
 40
1.0
 40
1.0
 40
1.0
 10
2153.028621150861
 20
794.2682107726558
 30
0.0
 10
2153.241941957484
 20
794.3631302091919
 30
0.0
 10
2153.674673671643
 20
794.5556789395728
 30
0.0
 10
2154.192727321402
 20
795.0129382201086
 30
0.0
 10
2154.534682562336
 20
795.4803367221627
 30
0.0
 10
2154.740469227479
 20
795.9108062746682
 30
0.0
 10
2154.843599246999
 20
796.221595939823
 30
0.0
 10
2154.905232667943
 20
796.507663527457
 30
0.0
 10
2154.93739637456
 20
796.7580402267698
 30
0.0
 10
2154.947847808987
 20
797.0286835674647
 30
0.0
 10
2154.932930302487
 20
797.2853503914226
 30
0.0
 10
2154.898617076778
 20
797.519927244041
 30
0.0
 10
2154.854966995999
 20
797.719701125349
 30
0.0
 10
2154.796015539881
 20
797.9195913748873
 30
0.0
 10
2154.717926312048
 20
798.1281769669442
 30
0.0
 10
2154.618601829668
 20
798.3403114244486
 30
0.0
 10
2154.469645056058
 20
798.5991257021191
 30
0.0
 10
2154.270268600621
 20
798.8700886335423
 30
0.0
 10
2153.944340575449
 20
799.2106435980671
 30
0.0
 10
2153.500916223601
 20
799.5344984588636
 30
0.0
 10
2152.939151650638
 20
799.7795662687446
 30
0.0
 10
2152.348649573423
 20
799.9112580326118
 30
0.0
 10
2151.948272685215
 20
799.8951671917927
 30
0.0
 10
2151.746159041941
 20
799.8870443991013
 30
0.0
  0
SPLINE
  5
1CD
330
1F
100
AcDbEntity
  8
0
  6
Continuous
 62
     7
370
    25
100
AcDbSpline
210
0.0
220
0.0
230
1.0
 70
     8
 71
     3
 72
    14
 73
    10
 74
     0
 42
0.000000001
 43
0.00000001
 40
0.0
 40
0.0
 40
0.0
 40
0.0
 40
0.220765348438179
 40
0.3402146168140553
 40
0.4605704991790948
 40
0.5641909618660854
 40
0.6633542991971745
 40
0.8105247403618525
 40
1.0
 40
1.0
 40
1.0
 40
1.0
 10
2152.84150682789
 20
793.448409358968
 30
0.0
 10
2152.800808032369
 20
793.4989517986102
 30
0.0
 10
2152.738088383561
 20
793.57684118142
 30
0.0
 10
2152.697146978185
 20
793.7347544774573
 30
0.0
 10
2152.697826074152
 20
793.8672596595267
 30
0.0
 10
2152.731860979971
 20
793.9887712338488
 30
0.0
 10
2152.793908535375
 20
794.1007334546978
 30
0.0
 10
2152.894314856441
 20
794.2066048353454
 30
0.0
 10
2152.980252578005
 20
794.2460242379142
 30
0.0
 10
2153.028621150861
 20
794.2682107726558
 30
0.0
  0
SPLINE
  5
1CE
330
1F
100
AcDbEntity
  8
0
  6
Continuous
 62
     7
370
    25
100
AcDbSpline
210
0.0
220
0.0
230
1.0
 70
     8
 71
     3
 72
    23
 73
    19
 74
     0
 42
0.000000001
 43
0.00000001
 40
0.0
 40
0.0
 40
0.0
 40
0.0
 40
0.086390105063673
 40
0.1752766177962657
 40
0.2621177065427438
 40
0.3519363559727683
 40
0.4192459175639057
 40
0.452807600612898
 40
0.4875598503476028
 40
0.534232617054251
 40
0.5808027178643259
 40
0.6174159281963868
 40
0.6550189806174282
 40
0.7176192476618429
 40
0.7818570182170677
 40
0.868941619754452
 40
0.9585429605715874
 40
1.0
 40
1.0
 40
1.0
 40
1.0
 10
2149.248127850168
 20
788.9424546427116
 30
0.0
 10
2149.44646245454
 20
788.8386244896773
 30
0.0
 10
2149.848862921825
 20
788.6279638123264
 30
0.0
 10
2150.506532359638
 20
788.5017493779834
 30
0.0
 10
2151.188717888351
 20
788.5170399620317
 30
0.0
 10
2151.825458260186
 20
788.6868776449763
 30
0.0
 10
2152.325262173509
 20
788.9521028623927
 30
0.0
 10
2152.6733906174
 20
789.2194848242005
 30
0.0
 10
2152.957030754407
 20
789.4957475534246
 30
0.0
 10
2153.237347354296
 20
789.8657909023709
 30
0.0
 10
2153.443026051559
 20
790.2677808776376
 30
0.0
 10
2153.568848413515
 20
790.6334003646822
 30
0.0
 10
2153.655741426464
 20
791.0344935401637
 30
0.0
 10
2153.683825536256
 20
791.493899141489
 30
0.0
 10
2153.619440448578
 20
792.0560204900385
 30
0.0
 10
2153.42607384307
 20
792.6422101623563
 30
0.0
 10
2153.141036349641
 20
793.120871771859
 30
0.0
 10
2152.913486522324
 20
793.3696990692517
 30
0.0
 10
2152.84150682789
 20
793.448409358968
 30
0.0
  0
SPLINE
  5
1CF
330
1F
100
AcDbEntity
  8
0
  6
Continuous
 62
     7
370
    25
100
AcDbSpline
210
0.0
220
0.0
230
1.0
 70
     8
 71
     3
 72
    14
 73
    10
 74
     0
 42
0.000000001
 43
0.00000001
 40
0.0
 40
0.0
 40
0.0
 40
0.0
 40
0.2243030424883259
 40
0.3489011866266116
 40
0.4744001356117633
 40
0.5826741857066091
 40
0.6867417687947664
 40
0.8381564871696764
 40
1.0
 40
1.0
 40
1.0
 40
1.0
 10
2148.490517423421
 20
788.5776086902467
 30
0.0
 10
2148.505162961836
 20
788.6422213412765
 30
0.0
 10
2148.527943953459
 20
788.7427256873848
 30
0.0
 10
2148.629728579865
 20
788.8749110230143
 30
0.0
 10
2148.738418621415
 20
788.9572565826442
 30
0.0
 10
2148.859386631273
 20
789.0046376013207
 30
0.0
 10
2148.989681685112
 20
789.0220559487498
 30
0.0
 10
2149.127498386034
 20
789.0046499750349
 30
0.0
 10
2149.207035396875
 20
788.9636414962463
 30
0.0
 10
2149.248127850168
 20
788.9424546427117
 30
0.0
  0
SPLINE
  5
1D0
330
1F
100
AcDbEntity
  8
0
  6
Continuous
 62
     7
370
    25
100
AcDbSpline
210
0.0
220
0.0
230
1.0
 70
     8
 71
     3
 72
    26
 73
    22
 74
     0
 42
0.000000001
 43
0.00000001
 40
0.0
 40
0.0
 40
0.0
 40
0.0
 40
0.085426115936098
 40
0.1733276547195598
 40
0.2448517261352465
 40
0.3181224083912745
 40
0.3577740645396684
 40
0.3980844094313232
 40
0.4287682032815349
 40
0.4601978879083247
 40
0.4855692359538105
 40
0.5116681185372469
 40
0.5370453561645231
 40
0.5630880149114142
 40
0.5995557531473619
 40
0.6370345873825507
 40
0.696049730423155
 40
0.7566321175831425
 40
0.8401423063242394
 40
0.9260534647419586
 40
1.0
 40
1.0
 40
1.0
 40
1.0
 10
2142.727185020853
 20
788.577608690247
 30
0.0
 10
2142.768606596827
 20
788.3615419734753
 30
0.0
 10
2142.852650036469
 20
787.9231474980783
 30
0.0
 10
2143.141224500792
 20
787.3660366074304
 30
0.0
 10
2143.515592032309
 20
786.8945529782667
 30
0.0
 10
2143.896557133427
 20
786.572742968807
 30
0.0
 10
2144.271756599845
 20
786.3487017122573
 30
0.0
 10
2144.576592414229
 20
786.2133793606179
 30
0.0
 10
2144.887886869216
 20
786.1159209123416
 30
0.0
 10
2145.174951681176
 20
786.0581377850345
 30
0.0
 10
2145.459989627211
 20
786.0301270950936
 30
0.0
 10
2145.728851870435
 20
786.0287770277739
 30
0.0
 10
2145.996271267282
 20
786.0524005491607
 30
0.0
 10
2146.287449295377
 20
786.105133349459
 30
0.0
 10
2146.596003326883
 20
786.1961212911957
 30
0.0
 10
2146.966025789482
 20
786.355108979626
 30
0.0
 10
2147.345522682755
 20
786.5898266220944
 30
0.0
 10
2147.754593040712
 20
786.9498890950938
 30
0.0
 10
2148.114493111643
 20
787.4228918409741
 30
0.0
 10
2148.382084556024
 20
787.9851906881328
 30
0.0
 10
2148.456222770631
 20
788.390241426273
 30
0.0
 10
2148.490517423421
 20
788.5776086902467
 30
0.0
  0
SPLINE
  5
1D1
330
1F
100
AcDbEntity
  8
0
  6
Continuous
 62
     7
370
    25
100
AcDbSpline
210
0.0
220
0.0
230
1.0
 70
     8
 71
     3
 72
    14
 73
    10
 74
     0
 42
0.000000001
 43
0.00000001
 40
0.0
 40
0.0
 40
0.0
 40
0.0
 40
0.2239799089306602
 40
0.3530600787850526
 40
0.4831615846560798
 40
0.5937368434044649
 40
0.6971871626482021
 40
0.8442013099711085
 40
1.0
 40
1.0
 40
1.0
 40
1.0
 10
2141.969574594106
 20
788.9424546427119
 30
0.0
 10
2142.028194946778
 20
788.9708726494798
 30
0.0
 10
2142.120598352205
 20
789.0156680231198
 30
0.0
 10
2142.287636535797
 20
789.019393226482
 30
0.0
 10
2142.423067849903
 20
788.9848765329407
 30
0.0
 10
2142.537508430702
 20
788.9173950391054
 30
0.0
 10
2142.631327529476
 20
788.8251791974336
 30
0.0
 10
2142.701435758422
 20
788.7077493806773
 30
0.0
 10
2142.71843752735
 20
788.6218198534602
 30
0.0
 10
2142.727185020853
 20
788.577608690247
 30
0.0
  0
SPLINE
  5
1D2
330
1F
100
AcDbEntity
  8
0
  6
Continuous
 62
     7
370
    25
100
AcDbSpline
210
0.0
220
0.0
230
1.0
 70
     8
 71
     3
 72
    25
 73
    21
 74
     0
 42
0.000000001
 43
0.00000001
 40
0.0
 40
0.0
 40
0.0
 40
0.0
 40
0.0875462653424556
 40
0.17762759296003
 40
0.2471474788262656
 40
0.318248505808561
 40
0.3544110039426032
 40
0.3911111694055485
 40
0.4196256508468989
 40
0.4488279610873451
 40
0.4955774367114223
 40
0.5423030312794792
 40
0.5762969204455036
 40
0.6112229844817039
 40
0.6688576767939515
 40
0.7279867562248815
 40
0.8132488808160989
 40
0.9009541844562668
 40
0.9502506997642257
 40
1.0
 40
1.0
 40
1.0
 40
1.0
 10
2138.376195616383
 20
793.448409358968
 30
0.0
 10
2138.230121535283
 20
793.2773206265244
 30
0.0
 10
2137.933743530828
 20
792.9301889743895
 30
0.0
 10
2137.680670803547
 20
792.3507238829626
 30
0.0
 10
2137.55105218186
 20
791.7676719449724
 30
0.0
 10
2137.538658091999
 20
791.2876950725129
 30
0.0
 10
2137.592705832855
 20
790.8768389947319
 30
0.0
 10
2137.666634948333
 20
790.5769126380342
 30
0.0
 10
2137.770723269216
 20
790.2902192354726
 30
0.0
 10
2137.924084546154
 20
789.9697795268738
 30
0.0
 10
2138.168550011212
 20
789.5998026004261
 30
0.0
 10
2138.478890121839
 20
789.2740096362631
 30
0.0
 10
2138.774675563948
 20
789.039795672368
 30
0.0
 10
2139.103837893507
 20
788.8344458538774
 30
0.0
 10
2139.500712581386
 20
788.6600792902852
 30
0.0
 10
2140.026605157426
 20
788.5264008731938
 30
0.0
 10
2140.625546567741
 20
788.4939239474232
 30
0.0
 10
2141.182903185653
 20
788.5922354430652
 30
0.0
 10
2141.63251598032
 20
788.7534168213416
 30
0.0
 10
2141.856879832007
 20
788.8792502876362
 30
0.0
 10
2141.969574594106
 20
788.9424546427119
 30
0.0
  0
SPLINE
  5
1D3
330
1F
100
AcDbEntity
  8
0
  6
Continuous
 62
     7
370
    25
100
AcDbSpline
210
0.0
220
0.0
230
1.0
 70
     8
 71
     3
 72
    14
 73
    10
 74
     0
 42
0.000000001
 43
0.00000001
 40
0.0
 40
0.0
 40
0.0
 40
0.0
 40
0.2200911109485595
 40
0.3501199592092341
 40
0.4590676183976581
 40
0.5685351145661265
 40
0.6668402217390302
 40
0.7968948941937074
 40
1.0
 40
1.0
 40
1.0
 40
1.0
 10
2138.189081293413
 20
794.2682107726558
 30
0.0
 10
2138.245488717278
 20
794.2415674508692
 30
0.0
 10
2138.335221395974
 20
794.199183373216
 30
0.0
 10
2138.437488363669
 20
794.0809919584914
 30
0.0
 10
2138.495761077681
 20
793.9651118672587
 30
0.0
 10
2138.521707505107
 20
793.8431260252809
 30
0.0
 10
2138.517145576669
 20
793.7154613375742
 30
0.0
 10
2138.475272272061
 20
793.5696596831799
 30
0.0
 10
2138.413719935488
 20
793.4943317392315
 30
0.0
 10
2138.376195616383
 20
793.4484093589679
 30
0.0
  0
SPLINE
  5
1D4
330
1F
100
AcDbEntity
  8
0
  6
Continuous
 62
     7
370
    25
100
AcDbSpline
210
0.0
220
0.0
230
1.0
 70
     8
 71
     3
 72
    27
 73
    23
 74
     0
 42
0.000000001
 43
0.00000001
 40
0.0
 40
0.0
 40
0.0
 40
0.0
 40
0.0910683471803989
 40
0.1847464164709031
 40
0.2588266946055596
 40
0.3345190598259229
 40
0.3626447427195295
 40
0.3910056482847569
 40
0.4191743039829994
 40
0.4481203606979757
 40
0.465770478244767
 40
0.4839081706433217
 40
0.5015721548764686
 40
0.5197440214872957
 40
0.5448446854435508
 40
0.5706253690117585
 40
0.6177938154944811
 40
0.6660858441031564
 40
0.7518796859636273
 40
0.8400397940083121
 40
0.9191574739584859
 40
1.0
 40
1.0
 40
1.0
 40
1.0
 10
2139.471543402333
 20
799.8870443991012
 30
0.0
 10
2139.234986055945
 20
799.8940293525552
 30
0.0
 10
2138.755092400374
 20
799.9081994254706
 30
0.0
 10
2138.119492982509
 20
799.7256478859055
 30
0.0
 10
2137.565499920462
 20
799.4370148070091
 30
0.0
 10
2137.194286992795
 20
799.1349763558848
 30
0.0
 10
2136.939711631423
 20
798.8536933396166
 30
0.0
 10
2136.784713875267
 20
798.6497061844551
 30
0.0
 10
2136.638171527495
 20
798.4155544672261
 30
0.0
 10
2136.521929406465
 20
798.1811032364272
 30
0.0
 10
2136.435198229643
 20
797.9586737035572
 30
0.0
 10
2136.375029169798
 20
797.7657669516259
 30
0.0
 10
2136.328246139142
 20
797.5676494697202
 30
0.0
 10
2136.292050612632
 20
797.3469560442393
 30
0.0
 10
2136.272476058606
 20
797.1069774454131
 30
0.0
 10
2136.274762931836
 20
796.7882660535477
 30
0.0
 10
2136.320810503989
 20
796.4290375328457
 30
0.0
 10
2136.453204593656
 20
795.945784992705
 30
0.0
 10
2136.707481997052
 20
795.423822551416
 30
0.0
 10
2137.114310568746
 20
794.9252770104705
 30
0.0
 10
2137.607069666865
 20
794.5227123214472
 30
0.0
 10
2137.993687787374
 20
794.3536522787055
 30
0.0
 10
2138.189081293413
 20
794.2682107726558
 30
0.0
  0
SPLINE
  5
1D5
330
1F
100
AcDbEntity
  8
0
  6
Continuous
 62
     7
370
    25
100
AcDbSpline
210
0.0
220
0.0
230
1.0
 70
     8
 71
     3
 72
    15
 73
    11
 74
     0
 42
0.000000001
 43
0.00000001
 40
0.0
 40
0.0
 40
0.0
 40
0.0
 40
0.2150763736127623
 40
0.3413349926978211
 40
0.4465934903530034
 40
0.5524796219272401
 40
0.6449070621727223
 40
0.766214653902494
 40
0.940631656051666
 40
1.0
 40
1.0
 40
1.0
 40
1.0
 10
2139.995826084773
 20
800.5444740886037
 30
0.0
 10
2140.009855797679
 20
800.4862938268695
 30
0.0
 10
2140.032121525298
 20
800.3939593743188
 30
0.0
 10
2140.007421516037
 20
800.2448948408453
 30
0.0
 10
2139.957630093003
 20
800.128541699483
 30
0.0
 10
2139.883130964054
 20
800.0318226619331
 30
0.0
 10
2139.786153594255
 20
799.9541637529237
 30
0.0
 10
2139.660953850637
 20
799.8965746616191
 30
0.0
 10
2139.552104671071
 20
799.8812678152507
 30
0.0
 10
2139.487858356822
 20
799.8858745478303
 30
0.0
 10
2139.471543402333
 20
799.8870443991012
 30
0.0
  0
SPLINE
  5
1D6
330
1F
100
AcDbEntity
  8
0
  6
Continuous
 62
     7
370
    25
100
AcDbSpline
210
0.0
220
0.0
230
1.0
 70
     8
 71
     3
 72
    26
 73
    22
 74
     0
 42
0.000000001
 43
0.00000001
 40
0.0
 40
0.0
 40
0.0
 40
0.0
 40
0.0912035599485179
 40
0.1849670362499739
 40
0.2785634207445332
 40
0.3265394520589692
 40
0.3749439889046063
 40
0.4231405593180605
 40
0.4430841889857803
 40
0.4634373414447684
 40
0.4878409265543514
 40
0.5123587387507043
 40
0.52809927365854
 40
0.5442699367721683
 40
0.575570036532577
 40
0.6075525397506848
 40
0.6834424014570645
 40
0.7611024134338046
 40
0.8469107031299091
 40
0.9346000221708253
 40
1.0
 40
1.0
 40
1.0
 40
1.0
 10
2145.18840915486
 20
803.0450903012073
 30
0.0
 10
2145.040786200854
 20
803.2405540269001
 30
0.0
 10
2144.741396787761
 20
803.6369677859266
 30
0.0
 10
2144.148378521516
 20
804.047251431375
 30
0.0
 10
2143.590392969965
 20
804.2708870447796
 30
0.0
 10
2143.102625037973
 20
804.3638033699033
 30
0.0
 10
2142.709342899236
 20
804.3864399712273
 30
0.0
 10
2142.365210555709
 20
804.3586735139666
 30
0.0
 10
2142.07781012056
 20
804.3016536665756
 30
0.0
 10
2141.853171850151
 20
804.240177472744
 30
0.0
 10
2141.593745110551
 20
804.1442127479606
 30
0.0
 10
2141.355563755478
 20
804.0259772443425
 30
0.0
 10
2141.172429374833
 20
803.9154440955953
 30
0.0
 10
2140.988124734418
 20
803.788524685975
 30
0.0
 10
2140.790886916923
 20
803.626142799995
 30
0.0
 10
2140.50282174068
 20
803.3366480914309
 30
0.0
 10
2140.212548888622
 20
802.9319689481096
 30
0.0
 10
2139.961090871523
 20
802.370098253868
 30
0.0
 10
2139.831663702622
 20
801.741237128285
 30
0.0
 10
2139.837340005673
 20
801.1158389381428
 30
0.0
 10
2139.948386749027
 20
800.7154996391424
 30
0.0
 10
2139.995826084773
 20
800.5444740886037
 30
0.0
  0
SPLINE
  5
1D7
330
1F
100
AcDbEntity
  8
0
  6
Continuous
 62
     7
370
    25
100
AcDbSpline
210
0.0
220
0.0
230
1.0
 70
     8
 71
     3
 72
    15
 73
    11
 74
     0
 42
0.000000001
 43
0.00000001
 40
0.0
 40
0.0
 40
0.0
 40
0.0
 40
0.2129294053202189
 40
0.3333107283175603
 40
0.4345062010026767
 40
0.5362836886506531
 40
0.6256367151020122
 40
0.7456368547566248
 40
0.921192717688107
 40
1.0
 40
1.0
 40
1.0
 40
1.0
 10
2146.029293289414
 20
803.0450903012073
 30
0.0
 10
2145.992829381806
 20
802.9980575227617
 30
0.0
 10
2145.935750315699
 20
802.9244343911189
 30
0.0
 10
2145.806121803903
 20
802.8511515790777
 30
0.0
 10
2145.687963193827
 20
802.8170495443763
 30
0.0
 10
2145.569217075919
 20
802.8128383255804
 30
0.0
 10
2145.449889735205
 20
802.8366647592682
 30
0.0
 10
2145.326010463112
 20
802.8946411867569
 30
0.0
 10
2145.239966904155
 20
802.971267003562
 30
0.0
 10
2145.200604493245
 20
803.0276283268616
 30
0.0
 10
2145.18840915486
 20
803.0450903012073
 30
0.0
  0
SPLINE
  5
1D8
330
1F
100
AcDbEntity
  8
0
  6
Continuous
 62
     7
370
    25
100
AcDbSpline
210
0.0
220
0.0
230
1.0
 70
     8
 71
     3
 72
    25
 73
    21
 74
     0
 42
0.000000001
 43
0.00000001
 40
0.0
 40
0.0
 40
0.0
 40
0.0
 40
0.0897174329458049
 40
0.181951778046474
 40
0.2741564286250122
 40
0.3213347009144686
 40
0.3688705103640607
 40
0.4236588038487549
 40
0.4510361250048939
 40
0.4792430363670711
 40
0.5037913906395244
 40
0.5284414423184048
 40
0.5611619013115614
 40
0.6013318478780341
 40
0.6426256193945197
 40
0.7286913895866837
 40
0.8169611916237425
 40
0.9072669371779623
 40
0.9534664517756424
 40
1.0
 40
1.0
 40
1.0
 40
1.0
 10
2151.221876359501
 20
800.544474088604
 30
0.0
 10
2151.28226066717
 20
800.7796967639354
 30
0.0
 10
2151.404723289937
 20
801.2567409972364
 30
0.0
 10
2151.358736750875
 20
801.9678265691065
 30
0.0
 10
2151.192203071888
 20
802.5349478941141
 30
0.0
 10
2150.971317114442
 20
802.9652065043978
 30
0.0
 10
2150.745730908069
 20
803.2940978936041
 30
0.0
 10
2150.495731412719
 20
803.5666016827416
 30
0.0
 10
2150.226372354573
 20
803.7920426173413
 30
0.0
 10
2149.991322007227
 20
803.9534969391252
 30
0.0
 10
2149.718369832613
 20
804.1015301890307
 30
0.0
 10
2149.407751391474
 20
804.2290226414924
 30
0.0
 10
2149.065140220707
 20
804.3237881266502
 30
0.0
 10
2148.711626524444
 20
804.3746843742084
 30
0.0
 10
2148.236216650874
 20
804.384387423772
 30
0.0
 10
2147.677089521881
 20
804.2930669907058
 30
0.0
 10
2147.050552342373
 20
804.037171084973
 30
0.0
 10
2146.580165928961
 20
803.6978873590085
 30
0.0
 10
2146.244572897494
 20
803.3531327155816
 30
0.0
 10
2146.101225276191
 20
803.1480173878704
 30
0.0
 10
2146.029293289414
 20
803.0450903012073
 30
0.0
  0
SPLINE
  5
1D9
330
1F
100
AcDbEntity
  8
0
  6
Continuous
 62
     7
370
    25
100
AcDbSpline
210
0.0
220
0.0
230
1.0
 70
     8
 71
     3
 72
    15
 73
    11
 74
     0
 42
0.000000001
 43
0.00000001
 40
0.0
 40
0.0
 40
0.0
 40
0.0
 40
0.2155767705932649
 40
0.3329005538677319
 40
0.4328760582231109
 40
0.5332634977247579
 40
0.6250838127945265
 40
0.7535547096889059
 40
0.9421338378892272
 40
1.0
 40
1.0
 40
1.0
 40
1.0
 10
2151.746159041941
 20
799.8870443991013
 30
0.0
 10
2151.684329280673
 20
799.8863928786463
 30
0.0
 10
2151.588849782975
 20
799.8853867798921
 30
0.0
 10
2151.448861915125
 20
799.9442281783197
 30
0.0
 10
2151.350435806589
 20
800.0161876725792
 30
0.0
 10
2151.27503897143
 20
800.1061519074665
 30
0.0
 10
2151.219610087455
 20
800.2157337120026
 30
0.0
 10
2151.188550472721
 20
800.3541162390682
 30
0.0
 10
2151.197957090993
 20
800.4663696620867
 30
0.0
 10
2151.217328005313
 20
800.5296221881235
 30
0.0
 10
2151.221876359501
 20
800.544474088604
 30
0.0
  0
ARC
  5
1DA
330
1F
100
AcDbEntity
  8
0
  6
Continuous
 62
     7
370
    25
100
AcDbCircle
 10
2145.6088512221
 20
795.5304703219
 30
0.0
 40
9.499999999999773
100
AcDbArc
 50
169.0643015739
 51
180.0
  0
ARC
  5
1DB
330
1F
100
AcDbEntity
  8
0
  6
Continuous
 62
     7
370
    25
100
AcDbCircle
 10
2145.6088512221
 20
795.5304703219
 30
0.0
 40
9.49999999999966
100
AcDbArc
 50
142.1363536382
 51
163.9949929933
  0
ARC
  5
1DC
330
1F
100
AcDbEntity
  8
0
  6
Continuous
 62
     7
370
    25
100
AcDbCircle
 10
2145.6088512221
 20
795.5304703219
 30
0.0
 40
9.50000000000059
100
AcDbArc
 50
15.8765672373
 51
37.8636463617
  0
ARC
  5
1DD
330
1F
100
AcDbEntity
  8
0
  6
Continuous
 62
     7
370
    25
100
AcDbCircle
 10
2145.6088512221
 20
795.5304703219
 30
0.0
 40
9.500000000000062
100
AcDbArc
 50
322.5421615683
 51
10.205207625
  0
ARC
  5
1DE
330
1F
100
AcDbEntity
  8
0
  6
Continuous
 62
     7
370
    25
100
AcDbCircle
 10
2145.6088512221
 20
795.5304703219
 30
0.0
 40
9.500000000000178
100
AcDbArc
 50
272.4783962799
 51
318.1957301926
  0
ARC
  5
1DF
330
1F
100
AcDbEntity
  8
0
  6
Continuous
 62
     7
370
    25
100
AcDbCircle
 10
2145.6088512221
 20
795.5304703219
 30
0.0
 40
9.499999999999948
100
AcDbArc
 50
221.6276332926
 51
267.2129734484
  0
ARC
  5
1E0
330
1F
100
AcDbEntity
  8
0
  6
Continuous
 62
     7
370
    25
100
AcDbCircle
 10
2145.6088512221
 20
795.5304703219
 30
0.0
 40
9.499999999999858
100
AcDbArc
 50
180.0
 51
216.9372440327
  0
ARC
  5
1E1
330
1F
100
AcDbEntity
  8
0
  6
Continuous
 62
     7
370
    25
100
AcDbCircle
 10
2145.6088512222
 20
1804.2350003571
 30
0.0
 40
9.500000000000455
100
AcDbArc
 50
349.0643015739
 51
0.0
  0
ARC
  5
1E2
330
1F
100
AcDbEntity
  8
0
  6
Continuous
 62
     7
370
    25
100
AcDbCircle
 10
2145.6088512222
 20
1804.2350003571
 30
0.0
 40
9.500000000000307
100
AcDbArc
 50
322.1363536382
 51
343.9949929933
  0
ARC
  5
1E3
330
1F
100
AcDbEntity
  8
0
  6
Continuous
 62
     7
370
    25
100
AcDbCircle
 10
2145.6088512222
 20
1804.2350003571
 30
0.0
 40
9.500000000000048
100
AcDbArc
 50
195.8765672374
 51
217.8636463617
  0
ARC
  5
1E4
330
1F
100
AcDbEntity
  8
0
  6
Continuous
 62
     7
370
    25
100
AcDbCircle
 10
2145.6088512222
 20
1804.2350003571
 30
0.0
 40
9.500000000000114
100
AcDbArc
 50
142.5421615682
 51
190.205207625
  0
ARC
  5
1E5
330
1F
100
AcDbEntity
  8
0
  6
Continuous
 62
     7
370
    25
100
AcDbCircle
 10
2145.6088512222
 20
1804.2350003571
 30
0.0
 40
9.499999999999899
100
AcDbArc
 50
92.4783962798
 51
138.1957301926
  0
ARC
  5
1E6
330
1F
100
AcDbEntity
  8
0
  6
Continuous
 62
     7
370
    25
100
AcDbCircle
 10
2145.6088512222
 20
1804.2350003571
 30
0.0
 40
9.500000000000307
100
AcDbArc
 50
41.6276332925
 51
87.2129734485
  0
ARC
  5
1E7
330
1F
100
AcDbEntity
  8
0
  6
Continuous
 62
     7
370
    25
100
AcDbCircle
 10
2145.6088512222
 20
1804.2350003571
 30
0.0
 40
9.500000000000455
100
AcDbArc
 50
0.0
 51
36.9372440328
  0
ARC
  5
1E8
330
1F
100
AcDbEntity
  8
0
  6
Continuous
 62
     7
370
    25
100
AcDbCircle
 10
1355.6088512222
 20
1804.2350003571
 30
0.0
 40
9.5
100
AcDbArc
 50
349.0643015739
 51
0.0
  0
ARC
  5
1E9
330
1F
100
AcDbEntity
  8
0
  6
Continuous
 62
     7
370
    25
100
AcDbCircle
 10
1355.6088512222
 20
1804.2350003571
 30
0.0
 40
9.50000000000002
100
AcDbArc
 50
322.1363536382
 51
343.9949929933
  0
ARC
  5
1EA
330
1F
100
AcDbEntity
  8
0
  6
Continuous
 62
     7
370
    25
100
AcDbCircle
 10
1355.6088512222
 20
1804.2350003571
 30
0.0
 40
9.500000000000233
100
AcDbArc
 50
195.8765672374
 51
217.8636463617
  0
ARC
  5
1EB
330
1F
100
AcDbEntity
  8
0
  6
Continuous
 62
     7
370
    25
100
AcDbCircle
 10
1355.6088512222
 20
1804.2350003571
 30
0.0
 40
9.500000000000114
100
AcDbArc
 50
142.5421615682
 51
190.205207625
  0
ARC
  5
1EC
330
1F
100
AcDbEntity
  8
0
  6
Continuous
 62
     7
370
    25
100
AcDbCircle
 10
1355.6088512222
 20
1804.2350003571
 30
0.0
 40
9.50000000000011
100
AcDbArc
 50
92.4783962798
 51
138.1957301926
  0
ARC
  5
1ED
330
1F
100
AcDbEntity
  8
0
  6
Continuous
 62
     7
370
    25
100
AcDbCircle
 10
1355.6088512222
 20
1804.2350003571
 30
0.0
 40
9.499999999999934
100
AcDbArc
 50
41.6276332925
 51
87.2129734485
  0
ARC
  5
1EE
330
1F
100
AcDbEntity
  8
0
  6
Continuous
 62
     7
370
    25
100
AcDbCircle
 10
1355.6088512222
 20
1804.2350003571
 30
0.0
 40
9.5
100
AcDbArc
 50
0.0
 51
36.9372440328
  0
ARC
  5
1EF
330
1F
100
AcDbEntity
  8
0
  6
Continuous
 62
     7
370
    25
100
AcDbCircle
 10
1355.6088512221
 20
795.5304703219
 30
0.0
 40
9.500000000000227
100
AcDbArc
 50
169.0643015739
 51
180.0
  0
ARC
  5
1F0
330
1F
100
AcDbEntity
  8
0
  6
Continuous
 62
     7
370
    25
100
AcDbCircle
 10
1355.6088512221
 20
795.5304703219
 30
0.0
 40
9.5000000000002
100
AcDbArc
 50
142.1363536382
 51
163.9949929933
  0
ARC
  5
1F1
330
1F
100
AcDbEntity
  8
0
  6
Continuous
 62
     7
370
    25
100
AcDbCircle
 10
1355.6088512221
 20
795.5304703219
 30
0.0
 40
9.4999999999999
100
AcDbArc
 50
15.8765672374
 51
37.8636463617
  0
ARC
  5
1F2
330
1F
100
AcDbEntity
  8
0
  6
Continuous
 62
     7
370
    25
100
AcDbCircle
 10
1355.6088512221
 20
795.5304703219
 30
0.0
 40
9.49999999999987
100
AcDbArc
 50
322.5421615683
 51
10.205207625
  0
ARC
  5
1F3
330
1F
100
AcDbEntity
  8
0
  6
Continuous
 62
     7
370
    25
100
AcDbCircle
 10
1355.6088512221
 20
795.5304703219
 30
0.0
 40
9.500000000000014
100
AcDbArc
 50
272.4783962799
 51
318.1957301926
  0
ARC
  5
1F4
330
1F
100
AcDbEntity
  8
0
  6
Continuous
 62
     7
370
    25
100
AcDbCircle
 10
1355.6088512221
 20
795.5304703219
 30
0.0
 40
9.500000000000236
100
AcDbArc
 50
221.6276332926
 51
267.2129734484
  0
ARC
  5
1F5
330
1F
100
AcDbEntity
  8
0
  6
Continuous
 62
     7
370
    25
100
AcDbCircle
 10
1355.6088512221
 20
795.5304703219
 30
0.0
 40
9.500000000000227
100
AcDbArc
 50
180.0
 51
216.9372440327
  0
LINE
  5
1F6
330
1F
100
AcDbEntity
  8
0
  6
Continuous
 62
     8
370
    18
100
AcDbLine
 10
1350.6088512221
 20
1796.3411482328
 30
0.0
 11
1350.6088512221
 21
1794.8827353395
 31
0.0
  0
LINE
  5
1F7
330
1F
100
AcDbEntity
  8
0
  6
Continuous
 62
     8
370
    18
100
AcDbLine
 10
1350.6088512221
 20
804.8827353395
 30
0.0
 11
1350.6088512221
 21
803.4403058168
 31
0.0
  0
LINE
  5
1F8
330
1F
100
AcDbEntity
  8
0
  6
Continuous
 62
     8
370
    18
100
AcDbLine
 10
1349.8452123749
 20
801.479193626
 30
0.0
 11
1349.8452123749
 21
799.9973025796
 31
0.0
  0
LINE
  5
1F9
330
1F
100
AcDbEntity
  8
0
  6
Continuous
 62
     8
370
    18
100
AcDbLine
 10
1360.6088512221
 20
1796.3281188158
 30
0.0
 11
1360.6088512221
 21
1794.8827353395
 31
0.0
  0
LINE
  5
1FA
330
1F
100
AcDbEntity
  8
0
  6
Continuous
 62
     8
370
    18
100
AcDbLine
 10
1360.6088512221
 20
804.8827353395
 30
0.0
 11
1360.6088512221
 21
803.4401326671
 31
0.0
  0
LINE
  5
1FB
330
1F
100
AcDbEntity
  8
0
  6
Continuous
 62
     8
370
    18
100
AcDbLine
 10
1361.3724247713
 20
799.9975992649
 30
0.0
 11
1361.3724247713
 21
801.479091612
 31
0.0
  0
LINE
  5
1FC
330
1F
100
AcDbEntity
  8
0
  6
Continuous
 62
     8
370
    18
100
AcDbLine
 10
2151.3724247713
 20
799.9975992649
 30
0.0
 11
2151.3724247713
 21
801.479091612
 31
0.0
  0
LINE
  5
1FD
330
1F
100
AcDbEntity
  8
0
  6
Continuous
 62
     8
370
    18
100
AcDbLine
 10
2150.6088512221
 20
1796.3281188158
 30
0.0
 11
2150.6088512221
 21
1794.8827353395
 31
0.0
  0
LINE
  5
1FE
330
1F
100
AcDbEntity
  8
0
  6
Continuous
 62
     8
370
    18
100
AcDbLine
 10
2150.6088512221
 20
804.8827353395
 30
0.0
 11
2150.6088512221
 21
803.4401326671
 31
0.0
  0
LINE
  5
1FF
330
1F
100
AcDbEntity
  8
0
  6
Continuous
 62
     8
370
    18
100
AcDbLine
 10
2140.6088512221
 20
1796.3411482328
 30
0.0
 11
2140.6088512221
 21
1794.8827353395
 31
0.0
  0
LINE
  5
200
330
1F
100
AcDbEntity
  8
0
  6
Continuous
 62
     8
370
    18
100
AcDbLine
 10
2140.6088512221
 20
804.8827353395
 30
0.0
 11
2140.6088512221
 21
803.4403058168
 31
0.0
  0
LINE
  5
201
330
1F
100
AcDbEntity
  8
0
  6
Continuous
 62
     8
370
    18
100
AcDbLine
 10
2139.8452123749
 20
801.479193626
 30
0.0
 11
2139.8452123749
 21
799.9973025796
 31
0.0
  0
LINE
  5
202
330
1F
100
AcDbEntity
  8
0
  6
Continuous
 62
     7
370
    25
100
AcDbLine
 10
257.2028833998
 20
500.4527443616
 30
0.0
 11
257.2028833998
 21
496.1669078581
 31
0.0
  0
LINE
  5
203
330
1F
100
AcDbEntity
  8
0
  6
Continuous
 62
     7
370
    25
100
AcDbLine
 10
913.012871258
 20
594.7024532092
 30
0.0
 11
913.012871258
 21
598.9882897127
 31
0.0
  0
LINE
  5
204
330
1F
100
AcDbEntity
  8
0
  6
Continuous
 62
     7
370
    25
100
AcDbLine
 10
297.384029904
 20
464.1308003262
 30
0.0
 11
309.7017945725
 21
476.1533162612
 31
0.0
  0
LINE
  5
205
330
1F
100
AcDbEntity
  8
0
  6
Continuous
 62
     7
370
    25
100
AcDbLine
 10
646.7291879666
 20
369.186271926
 30
0.0
 11
659.0469526351
 21
381.2087878611
 31
0.0
  0
ARC
  5
206
330
1F
100
AcDbEntity
  8
0
  6
Continuous
 62
     7
370
    25
100
AcDbCircle
 10
528.2009532169
 20
709.9927524578
 30
0.0
 40
5.000000000000023
100
AcDbArc
 50
55.8255651686
 51
160.2052769145
  0
ARC
  5
207
330
1F
100
AcDbEntity
  8
0
  6
Continuous
 62
     7
370
    25
100
AcDbCircle
 10
528.2009532169
 20
709.9927524578
 30
0.0
 40
5.000000000000064
100
AcDbArc
 50
28.087932106
 51
47.6863108855
  0
LINE
  5
208
330
1F
100
AcDbEntity
  8
0
  6
Continuous
 62
     7
370
    25
100
AcDbLine
 10
532.07787709
 20
708.2637711338
 30
0.0
 11
532.07787709
 21
710.6739456205
 31
0.0
  0
LINE
  5
209
330
1F
100
AcDbEntity
  8
0
  6
Continuous
 62
     7
370
    25
100
AcDbLine
 10
532.8168393961
 20
708.062937013
 30
0.0
 11
532.8168393961
 21
711.8337311759
 31
0.0
  0
LINE
  5
20A
330
1F
100
AcDbEntity
  8
0
  6
Continuous
 62
     7
370
    25
100
AcDbLine
 10
523.4865666913
 20
711.6503393629
 30
0.0
 11
523.4865666913
 21
710.5987052106
 31
0.0
  0
ARC
  5
20B
330
1F
100
AcDbEntity
  8
0
  6
Continuous
 62
     7
370
    25
100
AcDbCircle
 10
292.6696433784
 20
480.1069735094
 30
0.0
 40
5.000000000000027
100
AcDbArc
 50
35.9575671731
 51
74.7954868413
  0
ARC
  5
20C
330
1F
100
AcDbEntity
  8
0
  6
Continuous
 62
     7
370
    25
100
AcDbCircle
 10
292.6696433784
 20
480.1069735094
 30
0.0
 40
5.00000000000002
100
AcDbArc
 50
74.7954868413
 51
138.5297978872
  0
LINE
  5
20D
330
1F
100
AcDbEntity
  8
0
  6
Continuous
 62
     7
370
    25
100
AcDbLine
 10
295.5185534867
 20
328.6205713601
 30
0.0
 11
295.5185534867
 21
481.1385701945
 31
0.0
  0
LINE
  5
20E
330
1F
100
AcDbEntity
  8
0
  6
Continuous
 62
     7
370
    25
100
AcDbLine
 10
289.7547963211
 20
481.2245777215
 30
0.0
 11
289.7547963211
 21
328.6747335868
 31
0.0
  0
LINE
  5
20F
330
1F
100
AcDbEntity
  8
0
  6
Continuous
 62
     7
370
    25
100
AcDbLine
 10
297.384029904
 20
329.7384961799
 30
0.0
 11
297.384029904
 21
481.0361610012
 31
0.0
  0
LINE
  5
210
330
1F
100
AcDbEntity
  8
0
  6
Continuous
 62
     7
370
    25
100
AcDbLine
 10
288.0537571992
 20
481.4629556517
 30
0.0
 11
288.0537571992
 21
329.8601975986
 31
0.0
  0
LINE
  5
211
330
1F
100
AcDbEntity
  8
0
  6
Continuous
 62
     7
370
    25
100
AcDbLine
 10
296.8501175513
 20
482.6348582087
 30
0.0
 11
296.8501175513
 21
482.6995378665
 31
0.0
  0
ARC
  5
212
330
1F
100
AcDbEntity
  8
0
  6
Continuous
 62
     7
370
    25
100
AcDbCircle
 10
877.5461112794
 20
615.0482240577
 30
0.0
 40
4.999999999999993
100
AcDbArc
 50
55.8255651686
 51
160.2052769145
  0
ARC
  5
213
330
1F
100
AcDbEntity
  8
0
  6
Continuous
 62
     7
370
    25
100
AcDbCircle
 10
877.5461112794
 20
615.0482240577
 30
0.0
 40
5.000000000000107
100
AcDbArc
 50
28.087932106
 51
47.6863108855
  0
LINE
  5
214
330
1F
100
AcDbEntity
  8
0
  6
Continuous
 62
     7
370
    25
100
AcDbLine
 10
881.4230351526
 20
463.8623575058
 30
0.0
 11
881.4230351526
 21
561.510047634
 31
0.0
  0
LINE
  5
215
330
1F
100
AcDbEntity
  8
0
  6
Continuous
 62
     7
370
    25
100
AcDbLine
 10
881.4230351526
 20
613.3192427336
 30
0.0
 11
881.4230351526
 21
615.7294172204
 31
0.0
  0
LINE
  5
216
330
1F
100
AcDbEntity
  8
0
  6
Continuous
 62
     7
370
    25
100
AcDbLine
 10
873.3656371065
 20
553.6457801301
 30
0.0
 11
873.3656371065
 21
463.959954466
 31
0.0
  0
LINE
  5
217
330
1F
100
AcDbEntity
  8
0
  6
Continuous
 62
     7
370
    25
100
AcDbLine
 10
882.1619974587
 20
465.2864447227
 30
0.0
 11
882.1619974587
 21
562.2312974986
 31
0.0
  0
LINE
  5
218
330
1F
100
AcDbEntity
  8
0
  6
Continuous
 62
     7
370
    25
100
AcDbLine
 10
882.1619974587
 20
613.1184086129
 30
0.0
 11
882.1619974587
 21
616.8892027758
 31
0.0
  0
LINE
  5
219
330
1F
100
AcDbEntity
  8
0
  6
Continuous
 62
     7
370
    25
100
AcDbLine
 10
872.8317247539
 20
616.7058109628
 30
0.0
 11
872.8317247539
 21
615.6541768105
 31
0.0
  0
LINE
  5
21A
330
1F
100
AcDbEntity
  8
0
  6
Continuous
 62
     7
370
    25
100
AcDbLine
 10
872.8317247539
 20
553.124665306
 30
0.0
 11
872.8317247539
 21
465.4081461415
 31
0.0
  0
ARC
  5
21B
330
1F
100
AcDbEntity
  8
0
  6
Continuous
 62
     7
370
    25
100
AcDbCircle
 10
642.014801441
 20
385.1624451093
 30
0.0
 40
4.999999999999993
100
AcDbArc
 50
35.9575671731
 51
74.7954868413
  0
ARC
  5
21C
330
1F
100
AcDbEntity
  8
0
  6
Continuous
 62
     7
370
    25
100
AcDbCircle
 10
642.014801441
 20
385.1624451093
 30
0.0
 40
5.000000000000024
100
AcDbArc
 50
74.7954868413
 51
138.5297978872
  0
LINE
  5
21D
330
1F
100
AcDbEntity
  8
0
  6
Continuous
 62
     7
370
    25
100
AcDbLine
 10
644.8637115493
 20
233.67604296
 30
0.0
 11
644.8637115493
 21
386.1940417944
 31
0.0
  0
LINE
  5
21E
330
1F
100
AcDbEntity
  8
0
  6
Continuous
 62
     7
370
    25
100
AcDbLine
 10
639.0999543837
 20
386.2800493213
 30
0.0
 11
639.0999543837
 21
233.7302051867
 31
0.0
  0
LINE
  5
21F
330
1F
100
AcDbEntity
  8
0
  6
Continuous
 62
     7
370
    25
100
AcDbLine
 10
646.7291879666
 20
234.7939677797
 30
0.0
 11
646.7291879666
 21
386.091632601
 31
0.0
  0
LINE
  5
220
330
1F
100
AcDbEntity
  8
0
  6
Continuous
 62
     7
370
    25
100
AcDbLine
 10
637.3989152618
 20
386.5184272515
 30
0.0
 11
637.3989152618
 21
234.9156691985
 31
0.0
  0
LINE
  5
221
330
1F
100
AcDbEntity
  8
0
  6
Continuous
 62
     7
370
    25
100
AcDbLine
 10
646.1952756139
 20
387.6903298086
 30
0.0
 11
646.1952756139
 21
387.7550094664
 31
0.0
  0
LINE
  5
222
330
1F
100
AcDbEntity
  8
0
  6
Continuous
 62
     7
370
    25
100
AcDbLine
 10
646.8410181202
 20
233.9468063507
 30
0.0
 11
646.8410181202
 21
235.2325573018
 31
0.0
  0
LINE
  5
223
330
1F
100
AcDbEntity
  8
0
  6
Continuous
 62
     7
370
    25
100
AcDbLine
 10
637.3410181202
 20
235.2325573018
 30
0.0
 11
637.3410181202
 21
233.9468063507
 31
0.0
  0
SPLINE
  5
224
330
1F
100
AcDbEntity
  8
0
  6
Continuous
 62
     7
370
    25
100
AcDbSpline
210
0.0
220
0.0
230
1.0
 70
     8
 71
     3
 72
    33
 73
    29
 74
     0
 42
0.000000001
 43
0.00000001
 40
0.0
 40
0.0
 40
0.0
 40
0.0
 40
0.0289736652123407
 40
0.0642402432910108
 40
0.0991272568930023
 40
0.1338342972499827
 40
0.1685790414845231
 40
0.2036075089893037
 40
0.2392012577680523
 40
0.2756749107828199
 40
0.3133500983496151
 40
0.352483684826191
 40
0.3931368529405017
 40
0.4350407231256206
 40
0.4775934081908786
 40
0.5200910555676966
 40
0.562304201236815
 40
0.6042649314281869
 40
0.6461585577762
 40
0.6882397290752068
 40
0.7307121188455948
 40
0.773880808162712
 40
0.818021693851253
 40
0.8632777910799246
 40
0.90426145562116
 40
0.9440486124382902
 40
0.9818324289198864
 40
1.0
 40
1.0
 40
1.0
 40
1.0
 10
637.3446473445637
 20
233.946024087302
 30
0.0
 10
637.3461843018289
 20
233.8429918301345
 30
0.0
 10
637.3495920346069
 20
233.6145493041802
 30
0.0
 10
637.4097640910949
 20
233.2664198793533
 30
0.0
 10
637.5116172355281
 20
232.9085527825268
 30
0.0
 10
637.6545385529402
 20
232.5677849442629
 30
0.0
 10
637.834276706639
 20
232.2460466460405
 30
0.0
 10
638.0492659969232
 20
231.9446308947196
 30
0.0
 10
638.2981256298026
 20
231.6642732784048
 30
0.0
 10
638.5805397124291
 20
231.4053907425762
 30
0.0
 10
638.8969513896927
 20
231.1684738420427
 30
0.0
 10
639.2479706850384
 20
230.9546166632605
 30
0.0
 10
639.6330317040445
 20
230.76593486522
 30
0.0
 10
640.0488098498018
 20
230.6054462665289
 30
0.0
 10
640.4885453474484
 20
230.4761839199389
 30
0.0
 10
640.9441763841937
 20
230.3798319149377
 30
0.0
 10
641.4086940708256
 20
230.3165969862592
 30
0.0
 10
641.8776899568379
 20
230.2859268638408
 30
0.0
 10
642.3483136954868
 20
230.2874154358535
 30
0.0
 10
642.8182870029843
 20
230.3212122940878
 30
0.0
 10
643.2857624906113
 20
230.388182955318
 30
0.0
 10
643.7489658118817
 20
230.490090159245
 30
0.0
 10
644.2058396603035
 20
230.6297606059474
 30
0.0
 10
644.6353115898916
 20
230.803852861676
 30
0.0
 10
645.0288904969187
 20
231.0075893184511
 30
0.0
 10
645.3768696434071
 20
231.2324486782746
 30
0.0
 10
645.6393776525291
 20
231.4392479764087
 30
0.0
 10
645.7811276668548
 20
231.5733585721835
 30
0.0
 10
645.8271542905561
 20
231.6169046554446
 30
0.0
  0
SPLINE
  5
225
330
1F
100
AcDbEntity
  8
0
  6
Continuous
 62
     7
370
    25
100
AcDbSpline
210
0.0
220
0.0
230
1.0
 70
     8
 71
     3
 72
    15
 73
    11
 74
     0
 42
0.000000001
 43
0.00000001
 40
0.0
 40
0.0
 40
0.0
 40
0.0
 40
0.1351791300628124
 40
0.2798042630944099
 40
0.4215034860892173
 40
0.5611341608749153
 40
0.6993671672302159
 40
0.8498520029859105
 40
0.9972610761422287
 40
1.0
 40
1.0
 40
1.0
 40
1.0
 10
645.8271542905561
 20
231.6169046554446
 30
0.0
 10
645.9082800309953
 20
231.7005252035882
 30
0.0
 10
646.0762003897889
 20
231.8736095091463
 30
0.0
 10
646.2951531600571
 20
232.166184199237
 30
0.0
 10
646.4853432023968
 20
232.4839303732792
 30
0.0
 10
646.6361150317333
 20
232.8175975720022
 30
0.0
 10
646.7522057565361
 20
233.1745894804525
 30
0.0
 10
646.8202404683801
 20
233.5503508155934
 30
0.0
 10
646.8486987304318
 20
233.8144974485769
 30
0.0
 10
646.8407294290697
 20
233.9458540347239
 30
0.0
 10
646.8405840571029
 20
233.9482501751642
 30
0.0
  0
LINE
  5
226
330
1F
100
AcDbEntity
  8
0
  6
Continuous
 62
     7
370
    25
100
AcDbLine
 10
882.2198946003
 20
463.6838056684
 30
0.0
 11
882.2198946003
 21
464.9695566194
 31
0.0
  0
LINE
  5
227
330
1F
100
AcDbEntity
  8
0
  6
Continuous
 62
     7
370
    25
100
AcDbLine
 10
872.7198946003
 20
464.9695566194
 30
0.0
 11
872.7198946003
 21
463.6838056684
 31
0.0
  0
SPLINE
  5
228
330
1F
100
AcDbEntity
  8
0
  6
Continuous
 62
     7
370
    25
100
AcDbSpline
210
0.0
220
0.0
230
1.0
 70
     8
 71
     3
 72
    40
 73
    36
 74
     0
 42
0.000000001
 43
0.00000001
 40
0.0
 40
0.0
 40
0.0
 40
0.0
 40
0.0280953202017626
 40
0.0563212567654215
 40
0.0842695867416062
 40
0.1121023302183991
 40
0.1399974551635991
 40
0.1681569267865483
 40
0.1968116496264475
 40
0.226217225539156
 40
0.2566281261964194
 40
0.288232022421497
 40
0.321038516922494
 40
0.3547828126226274
 40
0.3889333549475216
 40
0.4229902430616899
 40
0.4568106772917441
 40
0.4904477227901922
 40
0.524063641115037
 40
0.5578560781202148
 40
0.5920042035441195
 40
0.6267520191852157
 40
0.6623104152590092
 40
0.6987617171009416
 40
0.7314819941064205
 40
0.7631846913233307
 40
0.7937558420561848
 40
0.8233163215865634
 40
0.8520682835828199
 40
0.8802117790541418
 40
0.9079170561993255
 40
0.9353223865505141
 40
0.9652355043704776
 40
0.9945212752619316
 40
1.0
 40
1.0
 40
1.0
 40
1.0
 10
872.7203286633472
 20
463.682361843972
 30
0.0
 10
872.724549153058
 20
463.5578560128691
 30
0.0
 10
872.7330097537193
 20
463.3082655176556
 30
0.0
 10
872.8031330867681
 20
462.940707041997
 30
0.0
 10
872.912361274213
 20
462.5856211354287
 30
0.0
 10
873.0617610478647
 20
462.248006935514
 30
0.0
 10
873.2476994536278
 20
461.9296925646643
 30
0.0
 10
873.4685819117004
 20
461.6318613075525
 30
0.0
 10
873.7232164125305
 20
461.3551742391786
 30
0.0
 10
874.0114333439111
 20
461.1000277297097
 30
0.0
 10
874.3337707537435
 20
460.8669768907646
 30
0.0
 10
874.6907469376425
 20
460.657271526973
 30
0.0
 10
875.0814321455921
 20
460.4732097128858
 30
0.0
 10
875.5018495374792
 20
460.3179186779963
 30
0.0
 10
875.9448632697661
 20
460.1942498824849
 30
0.0
 10
876.4024229990924
 20
460.1036159412482
 30
0.0
 10
876.8679721182704
 20
460.0460221821203
 30
0.0
 10
877.3374192211282
 20
460.0208971793892
 30
0.0
 10
877.808054369318
 20
460.0279106149324
 30
0.0
 10
878.2777009387316
 20
460.0673209591386
 30
0.0
 10
878.7445511002526
 20
460.1401360964301
 30
0.0
 10
879.206847510587
 20
460.2483001058076
 30
0.0
 10
879.6623069690006
 20
460.3948161509076
 30
0.0
 10
880.0886030518694
 20
460.5756551534206
 30
0.0
 10
880.4770163169642
 20
460.7856244881238
 30
0.0
 10
880.820476332875
 20
461.0161960071446
 30
0.0
 10
881.1282156369754
 20
461.2708780893757
 30
0.0
 10
881.3994123024843
 20
461.5474131797674
 30
0.0
 10
881.6337602206422
 20
461.8440384240857
 30
0.0
 10
881.8307989756553
 20
462.1589111645091
 30
0.0
 10
881.989205407564
 20
462.4897387765938
 30
0.0
 10
882.1130568747174
 20
462.8449371410711
 30
0.0
 10
882.190701830528
 20
463.2202063184127
 30
0.0
 10
882.2246554763849
 20
463.5065217736757
 30
0.0
 10
882.2174076068197
 20
463.6603459487919
 30
0.0
 10
882.2162653758866
 20
463.6845879318342
 30
0.0
  0
LINE
  5
229
330
1F
100
AcDbEntity
  8
0
  6
Continuous
 62
     7
370
    25
100
AcDbLine
 10
297.4958600576
 20
328.8913347509
 30
0.0
 11
297.4958600576
 21
330.177085702
 31
0.0
  0
LINE
  5
22A
330
1F
100
AcDbEntity
  8
0
  6
Continuous
 62
     7
370
    25
100
AcDbLine
 10
287.9958600576
 20
330.177085702
 30
0.0
 11
287.9958600576
 21
328.8913347509
 31
0.0
  0
SPLINE
  5
22B
330
1F
100
AcDbEntity
  8
0
  6
Continuous
 62
     7
370
    25
100
AcDbSpline
210
0.0
220
0.0
230
1.0
 70
     8
 71
     3
 72
    33
 73
    29
 74
     0
 42
0.000000001
 43
0.00000001
 40
0.0
 40
0.0
 40
0.0
 40
0.0
 40
0.0289736652123398
 40
0.0642402432910054
 40
0.0991272568930013
 40
0.1338342972499818
 40
0.1685790414845203
 40
0.2036075089893011
 40
0.2392012577680496
 40
0.2756749107828151
 40
0.3133500983496104
 40
0.3524836848261887
 40
0.3931368529404994
 40
0.4350407231256183
 40
0.4775934081908763
 40
0.5200910555676943
 40
0.5623042012368127
 40
0.6042649314281846
 40
0.6461585577761952
 40
0.6882397290752041
 40
0.7307121188455934
 40
0.7738808081627107
 40
0.8180216938512515
 40
0.8632777910799191
 40
0.9042614556211545
 40
0.9440486124382846
 40
0.9818324289198815
 40
1.0
 40
1.0
 40
1.0
 40
1.0
 10
287.9994892819819
 20
328.8905524874508
 30
0.0
 10
288.001026239247
 20
328.7875202302833
 30
0.0
 10
288.0044339720251
 20
328.559077704329
 30
0.0
 10
288.0646060285131
 20
328.2109482795021
 30
0.0
 10
288.1664591729464
 20
327.8530811826756
 30
0.0
 10
288.3093804903583
 20
327.5123133444117
 30
0.0
 10
288.4891186440572
 20
327.1905750461893
 30
0.0
 10
288.7041079343414
 20
326.8891592948684
 30
0.0
 10
288.9529675672208
 20
326.6088016785536
 30
0.0
 10
289.2353816498473
 20
326.3499191427251
 30
0.0
 10
289.5517933271108
 20
326.1130022421914
 30
0.0
 10
289.9028126224565
 20
325.8991450634092
 30
0.0
 10
290.2878736414627
 20
325.7104632653688
 30
0.0
 10
290.7036517872201
 20
325.5499746666775
 30
0.0
 10
291.1433872848665
 20
325.4207123200877
 30
0.0
 10
291.599018321612
 20
325.3243603150864
 30
0.0
 10
292.0635360082441
 20
325.261125386408
 30
0.0
 10
292.532531894256
 20
325.2304552639897
 30
0.0
 10
293.003155632905
 20
325.2319438360023
 30
0.0
 10
293.4731289404025
 20
325.2657406942365
 30
0.0
 10
293.9406044280295
 20
325.3327113554668
 30
0.0
 10
294.4038077492999
 20
325.4346185593938
 30
0.0
 10
294.8606815977217
 20
325.5742890060963
 30
0.0
 10
295.2901535273099
 20
325.7483812618248
 30
0.0
 10
295.6837324343368
 20
325.9521177185998
 30
0.0
 10
296.0317115808253
 20
326.1769770784232
 30
0.0
 10
296.2942195899475
 20
326.3837763765574
 30
0.0
 10
296.4359696042731
 20
326.5178869723323
 30
0.0
 10
296.4819962279744
 20
326.5614330555933
 30
0.0
  0
SPLINE
  5
22C
330
1F
100
AcDbEntity
  8
0
  6
Continuous
 62
     7
370
    25
100
AcDbSpline
210
0.0
220
0.0
230
1.0
 70
     8
 71
     3
 72
    15
 73
    11
 74
     0
 42
0.000000001
 43
0.00000001
 40
0.0
 40
0.0
 40
0.0
 40
0.0
 40
0.1351791300628123
 40
0.2798042630944104
 40
0.4215034860892192
 40
0.5611341608749182
 40
0.6993671672302196
 40
0.8498520029859151
 40
0.997261076142235
 40
1.0
 40
1.0
 40
1.0
 40
1.0
 10
296.4819962279744
 20
326.5614330555933
 30
0.0
 10
296.5631219684136
 20
326.645053603737
 30
0.0
 10
296.7310423272071
 20
326.818137909295
 30
0.0
 10
296.9499950974754
 20
327.1107125993857
 30
0.0
 10
297.1401851398152
 20
327.428458773428
 30
0.0
 10
297.2909569691516
 20
327.762125972151
 30
0.0
 10
297.4070476939544
 20
328.1191178806012
 30
0.0
 10
297.4750824057983
 20
328.4948792157419
 30
0.0
 10
297.5035406678503
 20
328.759025848726
 30
0.0
 10
297.495571366488
 20
328.8903824348727
 30
0.0
 10
297.4954259945212
 20
328.8927785753129
 30
0.0
  0
LWPOLYLINE
  5
22D
330
1F
100
AcDbEntity
  8
0
  6
Continuous
 62
     7
370
    25
100
AcDbPolyline
 90
       30
 70
   128
 43
0.0
 10
498.083236225
 20
717.5027861038
 10
497.1847674296
 20
717.7311705278
 10
496.2636093852
 20
717.9341674625
 10
495.3224640071
 20
718.111181483
 10
494.3640918368
 20
718.2616933766
 10
493.3913039451
 20
718.385261666
 10
492.4069536864
 20
718.4815239041
 10
491.4139283297
 20
718.5501977372
 10
490.4151405894
 20
718.5910817332
 10
489.413520082
 20
718.6040559721
 10
488.4120047332
 20
718.5890823984
 10
487.4135321598
 20
718.546204932
 10
486.4210310541
 20
718.4755493401
 10
485.4374125928
 20
718.3773228676
 10
484.4655618983
 20
718.2518136296
 10
483.5083295762
 20
718.0993897665
 10
482.5685233537
 20
717.9204983636
 10
481.6488998445
 20
717.7156641403
 10
480.7521564628
 20
717.4854879107
 10
479.8809235113
 20
717.2306448212
 10
479.0377564666
 20
716.9518823706
 10
478.2251284827
 20
716.6500182172
 10
477.4454231375
 20
716.3259377804
 10
476.7009274413
 20
715.9805916442
 10
475.993825128
 20
715.6149927683
 10
475.3261902508
 20
715.230213517
 10
474.6999810976
 20
714.8273825143
 10
474.1170344479
 20
714.4076813328
 10
473.5790601845
 20
713.9723410286
 10
473.0876362788
 20
713.5226385296
  0
LINE
  5
22E
330
1F
100
AcDbEntity
  8
0
  6
Continuous
 62
     7
370
    25
100
AcDbLine
 10
498.083236225
 20
717.5027861038
 30
0.0
 11
903.1467359533
 21
607.4152063386
 31
0.0
  0
LWPOLYLINE
  5
22F
330
1F
100
AcDbEntity
  8
0
  6
Continuous
 62
     7
370
    25
100
AcDbPolyline
 90
       30
 70
   128
 43
0.0
 10
910.8746065091
 20
594.5415206611
 10
911.3180386263
 20
595.0042662998
 10
911.7121782921
 20
595.4786977657
 10
912.0558694269
 20
595.9634234694
 10
912.3481039255
 20
596.4570216271
 10
912.5880246138
 20
596.9580444301
 10
912.7749277629
 20
597.4650222924
 10
912.9082651538
 20
597.9764681604
 10
912.9876456849
 20
598.4908818754
 10
913.0128365195
 20
599.0067545733
 10
912.9837637684
 20
599.5225731106
 10
912.9005127071
 20
600.0368245027
 10
912.7633275253
 20
600.5480003615
 10
912.5726106108
 20
601.0546013202
 10
912.328921369
 20
601.555141431
 10
912.0329745827
 20
602.0481525235
 10
911.6856383146
 20
602.5321885111
 10
911.2879313619
 20
603.0058296329
 10
910.8410202676
 20
603.4676866179
 10
910.346215899
 20
603.91640476
 10
909.8049696025
 20
604.3506678916
 10
909.2188689467
 20
604.769202244
 10
908.5896330659
 20
605.170780184
 10
907.9191076174
 20
605.5542238142
 10
907.2092593677
 20
605.9184084283
 10
906.4621704241
 20
606.2622658103
 10
905.6800321273
 20
606.584787367
 10
904.8651386235
 20
606.8850270873
 10
904.0198801359
 20
607.1621043162
 10
903.1467359533
 20
607.4152063386
  0
LINE
  5
230
330
1F
100
AcDbEntity
  8
0
  6
Continuous
 62
     7
370
    25
100
AcDbLine
 10
910.8746065091
 20
594.5415206611
 30
0.0
 11
697.1281183791
 21
385.9183955447
 31
0.0
  0
LWPOLYLINE
  5
231
330
1F
100
AcDbEntity
  8
0
  6
Continuous
 62
     7
370
    25
100
AcDbPolyline
 90
       30
 70
   128
 43
0.0
 10
672.1325184329
 20
381.9382479705
 10
673.0309872283
 20
381.7098635465
 10
673.9521452727
 20
381.5068666118
 10
674.8932906508
 20
381.3298525913
 10
675.8516628211
 20
381.1793406977
 10
676.8244507128
 20
381.0557724083
 10
677.8088009714
 20
380.9595101702
 10
678.8018263282
 20
380.8908363371
 10
679.8006140685
 20
380.8499523412
 10
680.8022345758
 20
380.8369781022
 10
681.8037499247
 20
380.851951676
 10
682.802222498
 20
380.8948291423
 10
683.7947236037
 20
380.9654847342
 10
684.778342065
 20
381.0637112068
 10
685.7501927595
 20
381.1892204447
 10
686.7074250817
 20
381.3416443078
 10
687.6472313041
 20
381.5205357107
 10
688.5668548133
 20
381.725369934
 10
689.4635981951
 20
381.9555461636
 10
690.3348311465
 20
382.2103892531
 10
691.1779981913
 20
382.4891517037
 10
691.9906261752
 20
382.7910158572
 10
692.7703315204
 20
383.1150962939
 10
693.5148272166
 20
383.4604424301
 10
694.2219295298
 20
383.8260413061
 10
694.8895644071
 20
384.2108205573
 10
695.5157735602
 20
384.6136515601
 10
696.09872021
 20
385.0333527415
 10
696.6366944733
 20
385.4686930457
 10
697.1281183791
 20
385.9183955447
  0
LINE
  5
232
330
1F
100
AcDbEntity
  8
0
  6
Continuous
 62
     7
370
    25
100
AcDbLine
 10
672.1325184329
 20
381.9382479705
 30
0.0
 11
644.6621041017
 21
389.4041179659
 31
0.0
  0
LINE
  5
233
330
1F
100
AcDbEntity
  8
0
  6
Continuous
 62
     7
370
    25
100
AcDbLine
 10
641.8786837926
 20
390.1605919645
 30
0.0
 11
295.3169460391
 21
484.3486463661
 31
0.0
  0
LINE
  5
234
330
1F
100
AcDbEntity
  8
0
  6
Continuous
 62
     7
370
    25
100
AcDbLine
 10
292.53352573
 20
485.1051203646
 30
0.0
 11
267.0690187046
 21
492.0258277357
 31
0.0
  0
LWPOLYLINE
  5
235
330
1F
100
AcDbEntity
  8
0
  6
Continuous
 62
     7
370
    25
100
AcDbPolyline
 90
       30
 70
   128
 43
0.0
 10
259.3411481488
 20
504.8995134132
 10
258.8977160316
 20
504.4367677745
 10
258.5035763658
 20
503.9623363086
 10
258.1598852309
 20
503.4776106049
 10
257.8676507323
 20
502.9840124472
 10
257.6277300441
 20
502.4829896442
 10
257.440826895
 20
501.9760117819
 10
257.3074895041
 20
501.4645659139
 10
257.228108973
 20
500.9501521989
 10
257.2029181384
 20
500.434279501
 10
257.2319908895
 20
499.9184609637
 10
257.3152419507
 20
499.4042095717
 10
257.4524271326
 20
498.8930337128
 10
257.6431440471
 20
498.3864327541
 10
257.8868332888
 20
497.8858926433
 10
258.1827800752
 20
497.3928815509
 10
258.5301163433
 20
496.9088455633
 10
258.927823296
 20
496.4352044414
 10
259.3747343903
 20
495.9733474564
 10
259.8695387589
 20
495.5246293143
 10
260.4107850554
 20
495.0903661827
 10
260.9968857112
 20
494.6718318303
 10
261.6261215919
 20
494.2702538903
 10
262.2966470405
 20
493.8868102601
 10
263.0064952902
 20
493.522625646
 10
263.7535842337
 20
493.1787682641
 10
264.5357225306
 20
492.8562467073
 10
265.3506160343
 20
492.5560069871
 10
266.1958745219
 20
492.2789297581
 10
267.0690187046
 20
492.0258277357
  0
LINE
  5
236
330
1F
100
AcDbEntity
  8
0
  6
Continuous
 62
     7
370
    25
100
AcDbLine
 10
259.3411481488
 20
504.8995134132
 30
0.0
 11
473.0876362788
 21
713.5226385296
 31
0.0
  0
LWPOLYLINE
  5
237
330
1F
100
AcDbEntity
  8
0
  6
Continuous
 62
     7
370
    25
100
AcDbPolyline
 90
       30
 70
   128
 43
0.0
 10
697.1281183791
 20
381.6325590412
 10
696.6366944733
 20
381.1828565422
 10
696.09872021
 20
380.747516238
 10
695.5157735602
 20
380.3278150565
 10
694.8895644071
 20
379.9249840538
 10
694.2219295298
 20
379.5402048025
 10
693.5148272166
 20
379.1746059266
 10
692.7703315204
 20
378.8292597904
 10
691.9906261752
 20
378.5051793537
 10
691.1779981913
 20
378.2033152002
 10
690.3348311465
 20
377.9245527496
 10
689.4635981951
 20
377.6697096601
 10
688.5668548133
 20
377.4395334305
 10
687.6472313041
 20
377.2346992072
 10
686.7074250817
 20
377.0558078043
 10
685.7501927595
 20
376.9033839412
 10
684.778342065
 20
376.7778747032
 10
683.7947236037
 20
376.6796482307
 10
682.802222498
 20
376.6089926388
 10
681.8037499247
 20
376.5661151724
 10
680.8022345758
 20
376.5511415987
 10
679.8006140685
 20
376.5641158376
 10
678.8018263282
 20
376.6049998336
 10
677.8088009714
 20
376.6736736667
 10
676.8244507128
 20
376.7699359048
 10
675.8516628211
 20
376.8935041942
 10
674.8932906508
 20
377.0440160878
 10
673.9521452727
 20
377.2210301083
 10
673.0309872283
 20
377.424027043
 10
672.1325184329
 20
377.652411467
  0
LINE
  5
238
330
1F
100
AcDbEntity
  8
0
  6
Continuous
 62
     7
370
    25
100
AcDbLine
 10
672.1325184329
 20
377.652411467
 30
0.0
 11
646.7291879666
 21
384.5564923602
 31
0.0
  0
LINE
  5
239
330
1F
100
AcDbEntity
  8
0
  6
Continuous
 62
     7
370
    25
100
AcDbLine
 10
637.5097341587
 20
387.0621423562
 30
0.0
 11
297.384029904
 21
479.5010207603
 31
0.0
  0
LINE
  5
23A
330
1F
100
AcDbEntity
  8
0
  6
Continuous
 62
     7
370
    25
100
AcDbLine
 10
288.1645760961
 20
482.0066707563
 30
0.0
 11
267.0690187046
 21
487.7399912322
 31
0.0
  0
LINE
  5
23B
330
1F
100
AcDbEntity
  8
0
  6
Continuous
 62
     7
370
    25
100
AcDbLine
 10
910.8746065091
 20
590.2556841576
 30
0.0
 11
697.1281183791
 21
381.6325590412
 31
0.0
  0
LWPOLYLINE
  5
23C
330
1F
100
AcDbEntity
  8
0
  6
Continuous
 62
     7
370
    25
100
AcDbPolyline
 90
       22
 70
   128
 43
0.0
 10
267.0690187046
 20
487.7399912322
 10
266.1958745219
 20
487.9930932546
 10
265.3506160343
 20
488.2701704835
 10
264.5357225306
 20
488.5704102038
 10
263.7535842337
 20
488.8929317605
 10
263.0064952902
 20
489.2367891425
 10
262.2966470405
 20
489.6009737566
 10
261.6261215919
 20
489.9844173868
 10
260.9968857112
 20
490.3859953268
 10
260.4107850554
 20
490.8045296792
 10
259.8695387589
 20
491.2387928108
 10
259.3747343903
 20
491.6875109529
 10
258.927823296
 20
492.1493679379
 10
258.5301163433
 20
492.6230090597
 10
258.1827800752
 20
493.1070450474
 10
257.8868332888
 20
493.6000561398
 10
257.6431440471
 20
494.1005962506
 10
257.4524271326
 20
494.6071972093
 10
257.3152419507
 20
495.1183730682
 10
257.2319908895
 20
495.6326244602
 10
257.2029181384
 20
496.1484429975
 10
257.2028833998
 20
496.1669078581
  0
ARC
  5
23D
330
1F
100
AcDbEntity
  8
0
  6
Continuous
 62
     7
370
    25
100
AcDbCircle
 10
906.6898212856
 20
595.0054573182
 30
0.0
 40
6.330305872869764
100
AcDbArc
 50
311.3816478755
 51
357.2564528301
  0
SPLINE
  5
23E
330
1F
100
AcDbEntity
  8
0
  6
Continuous
 62
     7
370
    25
100
AcDbSpline
210
0.0
220
0.0
230
1.0
 70
     8
 71
     3
 72
    16
 73
    12
 74
     0
 42
0.000000001
 43
0.00000001
 40
0.0
 40
0.0
 40
0.0
 40
0.0
 40
0.011975441078165
 40
0.0631818781038007
 40
0.1158064034067895
 40
0.2086055254836366
 40
0.3036336517240131
 40
0.4807833654643557
 40
0.6626647032906824
 40
0.8297102859061817
 40
1.0
 40
1.0
 40
1.0
 40
1.0
 10
523.4967180284909
 20
711.6862341533351
 30
0.0
 10
523.4953547014395
 20
711.6826352912994
 30
0.0
 10
523.4881618504188
 20
711.6636478601919
 30
0.0
 10
523.4853460257902
 20
711.6486800529981
 30
0.0
 10
523.4901096662071
 20
711.6396837340257
 30
0.0
 10
523.5153661213744
 20
711.6596605135196
 30
0.0
 10
523.5799050408607
 20
711.7214569345198
 30
0.0
 10
523.7004778074561
 20
711.8355667873014
 30
0.0
 10
523.8916909353829
 20
711.9993128468501
 30
0.0
 10
524.1220908118423
 20
712.1828185578001
 30
0.0
 10
524.3028952717042
 20
712.3190967031607
 30
0.0
 10
524.3941668939657
 20
712.387891064845
 30
0.0
  0
SPLINE
  5
23F
330
1F
100
AcDbEntity
  8
0
  6
Continuous
 62
     7
370
    25
100
AcDbSpline
210
0.0
220
0.0
230
1.0
 70
     8
 71
     3
 72
    13
 73
     9
 74
     0
 42
0.000000001
 43
0.00000001
 40
0.0
 40
0.0
 40
0.0
 40
0.0
 40
0.3100674990052782
 40
0.4887601577754828
 40
0.6688667072193369
 40
0.8219420169453869
 40
0.96515388765444
 40
0.9999999999999999
 40
0.9999999999999999
 40
0.9999999999999999
 40
0.9999999999999999
 10
531.2713559073721
 20
713.9368165039537
 30
0.0
 10
531.2387866892161
 20
713.9613362405655
 30
0.0
 10
531.1874477509023
 20
713.9999867614149
 30
0.0
 10
531.112837290095
 20
714.0546270439661
 30
0.0
 10
531.0606124461266
 20
714.0926529512986
 30
0.0
 10
531.0269853242444
 20
714.1169711505614
 30
0.0
 10
531.0106226464289
 20
714.1287825635591
 30
0.0
 10
531.0098857255967
 20
714.1290837044842
 30
0.0
 10
531.0097415095067
 20
714.1291426380425
 30
0.0
  0
SPLINE
  5
240
330
1F
100
AcDbEntity
  8
0
  6
Continuous
 62
     7
370
    25
100
AcDbSpline
210
0.0
220
0.0
230
1.0
 70
     8
 71
     3
 72
    19
 73
    15
 74
     0
 42
0.000000001
 43
0.00000001
 40
0.0
 40
0.0
 40
0.0
 40
0.0
 40
0.1465136637194084
 40
0.2972698986122602
 40
0.4136153890769205
 40
0.5326070092978319
 40
0.5931270105810321
 40
0.6545468287771717
 40
0.7022674383164722
 40
0.751139168545765
 40
0.8293770799386921
 40
0.9075750250235497
 40
0.9644657356244325
 40
1.0
 40
1.0
 40
1.0
 40
1.0
 10
531.8089265059464
 20
712.3857684147224
 30
0.0
 10
531.9134449516413
 20
712.3147101997199
 30
0.0
 10
532.1255083658381
 20
712.1705361491015
 30
0.0
 10
532.372636230206
 20
712.0069200360795
 30
0.0
 10
532.5660086808149
 20
711.8826668369816
 30
0.0
 10
532.6834906677346
 20
711.8145430891532
 30
0.0
 10
532.7554631888984
 20
711.7855170587042
 30
0.0
 10
532.7927564456126
 20
711.7822782593396
 30
0.0
 10
532.8136321129193
 20
711.7991151828238
 30
0.0
 10
532.8205656320105
 20
711.8421182623292
 30
0.0
 10
532.7989307514217
 20
711.9391477125714
 30
0.0
 10
532.7372173510828
 20
712.0938419356069
 30
0.0
 10
532.6713203208114
 20
712.2346970709184
 30
0.0
 10
532.6279713147972
 20
712.3155154400724
 30
0.0
 10
532.611305094
 20
712.3465873586383
 30
0.0
  0
SPLINE
  5
241
330
1F
100
AcDbEntity
  8
0
  6
Continuous
 62
     7
370
    25
100
AcDbSpline
210
0.0
220
0.0
230
1.0
 70
     8
 71
     3
 72
     9
 73
     5
 74
     0
 42
0.000000001
 43
0.00000001
 40
0.0
 40
0.0
 40
0.0
 40
0.0
 40
0.3493015586956943
 40
1.0
 40
1.0
 40
1.0
 40
1.0
 10
531.5656437818575
 20
713.6889288594293
 30
0.0
 10
531.5319934831732
 20
713.7200184000874
 30
0.0
 10
531.4356575297643
 20
713.8090232724795
 30
0.0
 10
531.3361229216972
 20
713.8864409450697
 30
0.0
 10
531.2713559073721
 20
713.9368165039537
 30
0.0
  0
SPLINE
  5
242
330
1F
100
AcDbEntity
  8
0
  6
Continuous
 62
     7
370
    25
100
AcDbSpline
210
0.0
220
0.0
230
1.0
 70
     8
 71
     3
 72
    14
 73
    10
 74
     0
 42
0.000000001
 43
0.00000001
 40
0.0
 40
0.0
 40
0.0
 40
0.0
 40
0.2200911109485595
 40
0.3501199592092341
 40
0.4590676183976581
 40
0.5685351145661265
 40
0.6668402217390302
 40
0.7968948941937074
 40
1.0
 40
1.0
 40
1.0
 40
1.0
 10
531.7003713851732
 20
712.1593325265279
 30
0.0
 10
531.6816446689534
 20
712.1971963858824
 30
0.0
 10
531.651854292183
 20
712.2574300447319
 30
0.0
 10
531.6342106065753
 20
712.3347176759065
 30
0.0
 10
531.635482236563
 20
712.3854543646381
 30
0.0
 10
531.6524736062419
 20
712.4179286758198
 30
0.0
 10
531.6842811928728
 20
712.4331818513183
 30
0.0
 10
531.7368204274799
 20
712.4288195483197
 30
0.0
 10
531.7816170304775
 20
712.4020736125904
 30
0.0
 10
531.8089265059464
 20
712.3857684147225
 30
0.0
  0
SPLINE
  5
243
330
1F
100
AcDbEntity
  8
0
  6
Continuous
 62
     7
370
    25
100
AcDbSpline
210
0.0
220
0.0
230
1.0
 70
     8
 71
     3
 72
    27
 73
    23
 74
     0
 42
0.000000001
 43
0.00000001
 40
0.0
 40
0.0
 40
0.0
 40
0.0
 40
0.091068347180396
 40
0.1847464164709011
 40
0.2588266946055581
 40
0.3345190598259187
 40
0.362644742719528
 40
0.3910056482847556
 40
0.4191743039829984
 40
0.448120360697975
 40
0.4657704782447663
 40
0.4839081706433212
 40
0.5015721548764682
 40
0.5197440214872955
 40
0.5448446854435508
 40
0.5706253690117588
 40
0.6177938154944818
 40
0.6660858441031574
 40
0.751879685963629
 40
0.8400397940083109
 40
0.9191574739584852
 40
1.0
 40
1.0
 40
1.0
 40
1.0
 10
529.8221131481126
 20
710.9126915797874
 30
0.0
 10
529.9250910273092
 20
710.7756582487935
 30
0.0
 10
530.1339977961962
 20
710.4976646580234
 30
0.0
 10
530.4576635987188
 20
710.1512678284307
 30
0.0
 10
530.7699962139045
 20
709.8615012018414
 30
0.0
 10
531.0046299102289
 20
709.6819496929784
 30
0.0
 10
531.1828421850325
 20
709.5767066572232
 30
0.0
 10
531.2989835295718
 20
709.5225637980508
 30
0.0
 10
531.4184246469234
 20
709.4864186400887
 30
0.0
 10
531.5245366202653
 20
709.4785221931156
 30
0.0
 10
531.6147933511893
 20
709.495223321621
 30
0.0
 10
531.686415000445
 20
709.5258099824489
 30
0.0
 10
531.7533331381304
 20
709.5734986908907
 30
0.0
 10
531.8208374299348
 20
709.6435785139707
 30
0.0
 10
531.885491927844
 20
709.7398703086008
 30
0.0
 10
531.9588512202719
 20
709.8937658206269
 30
0.0
 10
532.0223137137278
 20
710.1023180611234
 30
0.0
 10
532.0765337137623
 20
710.4280961543524
 30
0.0
 10
532.0858886742863
 20
710.8391037882067
 30
0.0
 10
532.0223198462405
 20
711.3049355805381
 30
0.0
 10
531.8983548502979
 20
711.7524919146766
 30
0.0
 10
531.7668385855242
 20
712.0227476029241
 30
0.0
 10
531.7003713851732
 20
712.1593325265279
 30
0.0
  0
SPLINE
  5
244
330
1F
100
AcDbEntity
  8
0
  6
Continuous
 62
     7
370
    25
100
AcDbSpline
210
0.0
220
0.0
230
1.0
 70
     8
 71
     3
 72
    15
 73
    11
 74
     0
 42
0.000000001
 43
0.00000001
 40
0.0
 40
0.0
 40
0.0
 40
0.0
 40
0.2150763736127623
 40
0.3413349926978211
 40
0.4465934903530034
 40
0.5524796219272401
 40
0.6449070621727223
 40
0.766214653902494
 40
0.940631656051666
 40
1.0
 40
1.0
 40
1.0
 40
1.0
 10
529.4368608931788
 20
710.811451290248
 30
0.0
 10
529.44423305695
 20
710.8523788284662
 30
0.0
 10
529.4559329820729
 20
710.9173325038705
 30
0.0
 10
529.5016394151836
 20
710.9889502907597
 30
0.0
 10
529.5508083708822
 20
711.0289195757359
 30
0.0
 10
529.606321725151
 20
711.0450654287811
 30
0.0
 10
529.6673275241441
 20
711.0389357968414
 30
0.0
 10
529.7361302668693
 20
711.0067957574844
 30
0.0
 10
529.7878361776476
 20
710.9586858519377
 30
0.0
 10
529.8151715095075
 20
710.92200616071
 30
0.0
 10
529.8221131481126
 20
710.9126915797874
 30
0.0
  0
SPLINE
  5
245
330
1F
100
AcDbEntity
  8
0
  6
Continuous
 62
     7
370
    25
100
AcDbSpline
210
0.0
220
0.0
230
1.0
 70
     8
 71
     3
 72
    10
 73
     6
 74
     0
 42
0.000000001
 43
0.00000001
 40
0.0
 40
0.0
 40
0.0
 40
0.0
 40
0.4787893468169368
 40
0.9710174308851508
 40
1.0
 40
1.0
 40
1.0
 40
1.0
 10
526.5571405824759
 20
710.8100398242816
 30
0.0
 10
526.5781924701024
 20
710.629797541398
 30
0.0
 10
526.6208871331612
 20
710.2642539059221
 30
0.0
 10
526.7200604558163
 20
709.888873496453
 30
0.0
 10
526.8031947888201
 20
709.706217216146
 30
0.0
 10
526.8078175772021
 20
709.6960603856286
 30
0.0
  0
SPLINE
  5
246
330
1F
100
AcDbEntity
  8
0
  6
Continuous
 62
     7
370
    25
100
AcDbSpline
210
0.0
220
0.0
230
1.0
 70
     8
 71
     3
 72
    11
 73
     7
 74
     0
 42
0.000000001
 43
0.00000001
 40
0.0
 40
0.0
 40
0.0
 40
0.0
 40
0.1926194731679982
 40
0.4826179747736112
 40
0.7789736208160085
 40
1.0
 40
1.0
 40
1.0
 40
1.0
 10
528.837477079247
 20
709.1444424233152
 30
0.0
 10
528.8971061047221
 20
709.2428010715381
 30
0.0
 10
529.0465096880631
 20
709.4892437121813
 30
0.0
 10
529.2290648382811
 20
709.9201619982732
 30
0.0
 10
529.3738202182714
 20
710.3809588524836
 30
0.0
 10
529.4179910482085
 20
710.682592810013
 30
0.0
 10
529.4368608931788
 20
710.8114512902481
 30
0.0
  0
SPLINE
  5
247
330
1F
100
AcDbEntity
  8
0
  6
Continuous
 62
     7
370
    25
100
AcDbSpline
210
0.0
220
0.0
230
1.0
 70
     8
 71
     3
 72
    15
 73
    11
 74
     0
 42
0.000000001
 43
0.00000001
 40
0.0
 40
0.0
 40
0.0
 40
0.0
 40
0.2129294053202189
 40
0.3333107283175603
 40
0.4345062010026767
 40
0.5362836886506531
 40
0.6256367151020122
 40
0.7456368547566248
 40
0.921192717688107
 40
1.0
 40
1.0
 40
1.0
 40
1.0
 10
526.1852939990604
 20
710.9110997579454
 30
0.0
 10
526.212393659813
 20
710.9435983424482
 30
0.0
 10
526.2548143280577
 20
710.9944702586764
 30
0.0
 10
526.3292376057504
 20
711.0352205331518
 30
0.0
 10
526.3894460449166
 20
711.0471159197242
 30
0.0
 10
526.4429393323919
 20
711.0360527388877
 30
0.0
 10
526.4901471202929
 20
711.0035121617129
 30
0.0
 10
526.531398991175
 20
710.9441147852042
 30
0.0
 10
526.5515677748843
 20
710.874360123911
 30
0.0
 10
526.5558224047961
 20
710.8252539837389
 30
0.0
 10
526.5571405824759
 20
710.8100398242816
 30
0.0
  0
SPLINE
  5
248
330
1F
100
AcDbEntity
  8
0
  6
Continuous
 62
     7
370
    25
100
AcDbSpline
210
0.0
220
0.0
230
1.0
 70
     8
 71
     3
 72
    11
 73
     7
 74
     0
 42
0.000000001
 43
0.00000001
 40
0.0
 40
0.0
 40
0.0
 40
0.0
 40
0.3033653015542214
 40
0.615241143254047
 40
0.927016577626501
 40
1.0
 40
1.0
 40
1.0
 40
1.0
 10
524.4725997442631
 20
712.1606310992738
 30
0.0
 10
524.390855119937
 20
711.9984030010368
 30
0.0
 10
524.2250726264627
 20
711.6693956949406
 30
0.0
 10
524.0818623903328
 20
711.1341905184148
 30
0.0
 10
524.0228709034682
 20
710.7231374333019
 30
0.0
 10
524.0234256153597
 20
710.4958778540658
 30
0.0
 10
524.0235308365171
 20
710.4527698616987
 30
0.0
  0
SPLINE
  5
249
330
1F
100
AcDbEntity
  8
0
  6
Continuous
 62
     7
370
    25
100
AcDbSpline
210
0.0
220
0.0
230
1.0
 70
     8
 71
     3
 72
    11
 73
     7
 74
     0
 42
0.000000001
 43
0.00000001
 40
0.0
 40
0.0
 40
0.0
 40
0.0
 40
0.0400071753148378
 40
0.5136382513087758
 40
0.7559431641911915
 40
1.0
 40
1.0
 40
1.0
 40
1.0
 10
525.4707785359317
 20
710.0594389477646
 30
0.0
 10
525.4804544991355
 20
710.0691616746589
 30
0.0
 10
525.6046808355511
 20
710.1939883938804
 30
0.0
 10
525.7894788746858
 20
710.4086500062715
 30
0.0
 10
526.0181937741424
 20
710.6867295860209
 30
0.0
 10
526.1294603263941
 20
710.8361303152562
 30
0.0
 10
526.1852939990604
 20
710.9110997579454
 30
0.0
  0
SPLINE
  5
24A
330
1F
100
AcDbEntity
  8
0
  6
Continuous
 62
     7
370
    25
100
AcDbSpline
210
0.0
220
0.0
230
1.0
 70
     8
 71
     3
 72
    15
 73
    11
 74
     0
 42
0.000000001
 43
0.00000001
 40
0.0
 40
0.0
 40
0.0
 40
0.0
 40
0.2155767705932649
 40
0.3329005538677319
 40
0.4328760582231109
 40
0.5332634977247579
 40
0.6250838127945265
 40
0.7535547096889059
 40
0.9421338378892272
 40
1.0
 40
1.0
 40
1.0
 40
1.0
 10
524.3941668939657
 20
712.387891064845
 30
0.0
 10
524.4216606054241
 20
712.4059894855731
 30
0.0
 10
524.4641172752553
 20
712.4339376465367
 30
0.0
 10
524.5122906741636
 20
712.4393490682394
 30
0.0
 10
524.5390240091009
 20
712.4257992096041
 30
0.0
 10
524.5513722259716
 20
712.3957825353433
 30
0.0
 10
524.5503127192536
 20
712.3492446295252
 30
0.0
 10
524.5317563186704
 20
712.279540388265
 30
0.0
 10
524.5014025493815
 20
712.2127533916223
 30
0.0
 10
524.4780767244324
 20
712.1705423825813
 30
0.0
 10
524.4725997442631
 20
712.1606310992738
 30
0.0
  0
SPLINE
  5
24B
330
1F
100
AcDbEntity
  8
0
  6
Continuous
 62
     7
370
    25
100
AcDbSpline
210
0.0
220
0.0
230
1.0
 70
     8
 71
     3
 72
    28
 73
    24
 74
     0
 42
0.000000001
 43
0.00000001
 40
0.0
 40
0.0
 40
0.0
 40
0.0
 40
0.0885577904272321
 40
0.1796438193735518
 40
0.2695757108504269
 40
0.3157367678527888
 40
0.3623220932277411
 40
0.3904539690316892
 40
0.4187952486339988
 40
0.4469625905235285
 40
0.4757849359529027
 40
0.493765125940216
 40
0.5122126959858445
 40
0.5302154725933187
 40
0.5487865500347942
 40
0.5721716297902774
 40
0.5962043255368833
 40
0.6385840534980274
 40
0.6819817284823815
 40
0.7628828890611773
 40
0.8459448991942614
 40
0.9222316806844275
 40
0.9999999999999999
 40
0.9999999999999999
 40
0.9999999999999999
 40
0.9999999999999999
 10
295.7324041937548
 20
481.8473626152723
 30
0.0
 10
295.8488858189847
 20
481.7406206911654
 30
0.0
 10
296.0851745062042
 20
481.5240894651565
 30
0.0
 10
296.4209629230143
 20
481.2426323398133
 30
0.0
 10
296.6812449918072
 20
481.0358497498869
 30
0.0
 10
296.8726947973477
 20
480.8958089592745
 30
0.0
 10
296.9908218782518
 20
480.8178254281924
 30
0.0
 10
297.0848299474789
 20
480.7658226946444
 30
0.0
 10
297.1574778555077
 20
480.7349754815084
 30
0.0
 10
297.2252535740835
 20
480.7203485910716
 30
0.0
 10
297.2785495291606
 20
480.7284221000006
 30
0.0
 10
297.3181138775784
 20
480.7564696426074
 30
0.0
 10
297.3454281909695
 20
480.7955807421934
 30
0.0
 10
297.3660032518002
 20
480.8512572469272
 30
0.0
 10
297.3801444547034
 20
480.9271875698593
 30
0.0
 10
297.3857233552075
 20
481.0250426241661
 30
0.0
 10
297.3802470352327
 20
481.171113314267
 30
0.0
 10
297.3553095354533
 20
481.361826025215
 30
0.0
 10
297.2906489253515
 20
481.6573243202218
 30
0.0
 10
297.1701334442759
 20
482.0254268968493
 30
0.0
 10
296.9789020684773
 20
482.4358676901034
 30
0.0
 10
296.748506668967
 20
482.8212881355187
 30
0.0
 10
296.5677016206436
 20
483.0464748386507
 30
0.0
 10
296.4764297013217
 20
483.1601509931124
 30
0.0
  0
SPLINE
  5
24C
330
1F
100
AcDbEntity
  8
0
  6
Continuous
 62
     7
370
    25
100
AcDbSpline
210
0.0
220
0.0
230
1.0
 70
     8
 71
     3
 72
    14
 73
    10
 74
     0
 42
0.000000001
 43
0.00000001
 40
0.0
 40
0.0
 40
0.0
 40
0.0
 40
0.220765348438179
 40
0.3402146168140553
 40
0.4605704991790948
 40
0.5641909618660854
 40
0.6633542991971745
 40
0.8105247403618525
 40
1.0
 40
1.0
 40
1.0
 40
1.0
 10
295.4583617749215
 20
481.7003715757412
 30
0.0
 10
295.4521583605398
 20
481.7409606111877
 30
0.0
 10
295.442598471446
 20
481.8035111121563
 30
0.0
 10
295.4613425145811
 20
481.8775257220914
 30
0.0
 10
295.4925625957114
 20
481.9188426969627
 30
0.0
 10
295.5359675851682
 20
481.9370147202878
 30
0.0
 10
295.5895317024729
 20
481.9355743174209
 30
0.0
 10
295.6586371299977
 20
481.909273188092
 30
0.0
 10
295.7058379958478
 20
481.8696588603212
 30
0.0
 10
295.7324041937549
 20
481.8473626152723
 30
0.0
  0
SPLINE
  5
24D
330
1F
100
AcDbEntity
  8
0
  6
Continuous
 62
     7
370
    25
100
AcDbSpline
210
0.0
220
0.0
230
1.0
 70
     8
 71
     3
 72
    23
 73
    19
 74
     0
 42
0.000000001
 43
0.00000001
 40
0.0
 40
0.0
 40
0.0
 40
0.0
 40
0.086390105063673
 40
0.1752766177962657
 40
0.2621177065427438
 40
0.3519363559727683
 40
0.4192459175639057
 40
0.452807600612898
 40
0.4875598503476028
 40
0.534232617054251
 40
0.5808027178643259
 40
0.6174159281963868
 40
0.6550189806174282
 40
0.7176192476618429
 40
0.7818570182170677
 40
0.868941619754452
 40
0.9585429605715874
 40
1.0
 40
1.0
 40
1.0
 40
1.0
 10
292.8178828875426
 20
481.1989167074657
 30
0.0
 10
292.8813597198476
 20
481.0610646082789
 30
0.0
 10
293.0101476691925
 20
480.7813769092792
 30
0.0
 10
293.2715232063679
 20
480.3923372465894
 30
0.0
 10
293.5767598508723
 20
480.0328173731442
 30
0.0
 10
293.897963444448
 20
479.7496527284085
 30
0.0
 10
294.1808709565603
 20
479.585224247234
 30
0.0
 10
294.3972094731142
 20
479.5170391687284
 30
0.0
 10
294.5871029826471
 20
479.4977259316092
 30
0.0
 10
294.7974102853499
 20
479.5430311676696
 30
0.0
 10
294.982166702828
 20
479.6634964764876
 30
0.0
 10
295.1231229556946
 20
479.813056383156
 30
0.0
 10
295.2551420011081
 20
480.006676620144
 30
0.0
 10
295.3747622868177
 20
480.2641316628937
 30
0.0
 10
295.477460338357
 20
480.6186768303814
 30
0.0
 10
295.5287378818924
 20
481.0316144686013
 30
0.0
 10
295.5143863026256
 20
481.4085793367365
 30
0.0
 10
295.4718249833603
 20
481.6302512213973
 30
0.0
 10
295.4583617749215
 20
481.7003715757412
 30
0.0
  0
SPLINE
  5
24E
330
1F
100
AcDbEntity
  8
0
  6
Continuous
 62
     7
370
    25
100
AcDbSpline
210
0.0
220
0.0
230
1.0
 70
     8
 71
     3
 72
    14
 73
    10
 74
     0
 42
0.000000001
 43
0.00000001
 40
0.0
 40
0.0
 40
0.0
 40
0.0
 40
0.2243030424883259
 40
0.3489011866266116
 40
0.4744001356117633
 40
0.5826741857066091
 40
0.6867417687947664
 40
0.8381564871696764
 40
1.0
 40
1.0
 40
1.0
 40
1.0
 10
292.3977247304069
 20
481.2142705036957
 30
0.0
 10
292.4192783333461
 20
481.2507691397158
 30
0.0
 10
292.4528047517047
 20
481.3075424107174
 30
0.0
 10
292.5286599790667
 20
481.3579231168928
 30
0.0
 10
292.5959388467522
 20
481.3746214382499
 30
0.0
 10
292.6604882482524
 20
481.3653811123679
 30
0.0
 10
292.7221704328566
 20
481.3342264252194
 30
0.0
 10
292.7790525829029
 20
481.2784789041163
 30
0.0
 10
292.8046553357897
 20
481.2260195871248
 30
0.0
 10
292.8178828875427
 20
481.1989167074657
 30
0.0
  0
SPLINE
  5
24F
330
1F
100
AcDbEntity
  8
0
  6
Continuous
 62
     7
370
    25
100
AcDbSpline
210
0.0
220
0.0
230
1.0
 70
     8
 71
     3
 72
    26
 73
    22
 74
     0
 42
0.000000001
 43
0.00000001
 40
0.0
 40
0.0
 40
0.0
 40
0.0
 40
0.085426115936099
 40
0.1733276547195608
 40
0.2448517261352476
 40
0.3181224083912756
 40
0.3577740645396695
 40
0.3980844094313243
 40
0.428768203281536
 40
0.4601978879083258
 40
0.4855692359538117
 40
0.5116681185372481
 40
0.5370453561645243
 40
0.5630880149114156
 40
0.5995557531473632
 40
0.637034587382552
 40
0.6960497304231564
 40
0.756632117583144
 40
0.8401423063242408
 40
0.9260534647419585
 40
1.0
 40
1.0
 40
1.0
 40
1.0
 10
289.8491269213659
 20
481.9069247783478
 30
0.0
 10
289.8170252473669
 20
481.7666051914477
 30
0.0
 10
289.7518916777804
 20
481.4818999272308
 30
0.0
 10
289.7495013787364
 20
481.0691482442812
 30
0.0
 10
289.8050304754139
 20
480.6835214161864
 30
0.0
 10
289.8984030712282
 20
480.3885696589835
 30
0.0
 10
290.0120401642194
 20
480.1606891234065
 30
0.0
 10
290.1152641646434
 20
480.0094123042912
 30
0.0
 10
290.2301796890161
 20
479.8870026835092
 30
0.0
 10
290.3436387903766
 20
479.8010199727294
 30
0.0
 10
290.463148922878
 20
479.7415148469227
 30
0.0
 10
290.5817272078529
 20
479.70798007556
 30
0.0
 10
290.7054949824333
 20
479.6971514530881
 30
0.0
 10
290.8465616221463
 20
479.7092387987503
 30
0.0
 10
291.0042388370647
 20
479.7518946077986
 30
0.0
 10
291.2049655332838
 20
479.8425456892189
 30
0.0
 10
291.4275533187697
 20
479.987888208354
 30
0.0
 10
291.6924676855161
 20
480.2151748095887
 30
0.0
 10
291.9619928581054
 20
480.5114992791868
 30
0.0
 10
292.2115353589982
 20
480.8569795393328
 30
0.0
 10
292.3388376051383
 20
481.10126814692
 30
0.0
 10
292.3977247304069
 20
481.2142705036957
 30
0.0
  0
SPLINE
  5
250
330
1F
100
AcDbEntity
  8
0
  6
Continuous
 62
     7
370
    25
100
AcDbSpline
210
0.0
220
0.0
230
1.0
 70
     8
 71
     3
 72
    14
 73
    10
 74
     0
 42
0.000000001
 43
0.00000001
 40
0.0
 40
0.0
 40
0.0
 40
0.0
 40
0.2239799089306602
 40
0.3530600787850526
 40
0.4831615846560798
 40
0.5937368434044649
 40
0.6971871626482021
 40
0.8442013099711085
 40
1.0
 40
1.0
 40
1.0
 40
1.0
 10
289.5992406879153
 20
482.0736746901646
 30
0.0
 10
289.6317944153767
 20
482.0970370622511
 30
0.0
 10
289.6831089356709
 20
482.1338632265656
 30
0.0
 10
289.7578440015774
 20
482.1501441155042
 30
0.0
 10
289.8096785649375
 20
482.1395997891335
 30
0.0
 10
289.8445385756888
 20
482.106602267127
 30
0.0
 10
289.8645078771997
 20
482.0563062911904
 30
0.0
 10
289.868108394277
 20
481.9879750053481
 30
0.0
 10
289.8555752734848
 20
481.9344590168902
 30
0.0
 10
289.8491269213659
 20
481.9069247783478
 30
0.0
  0
SPLINE
  5
251
330
1F
100
AcDbEntity
  8
0
  6
Continuous
 62
     7
370
    25
100
AcDbSpline
210
0.0
220
0.0
230
1.0
 70
     8
 71
     3
 72
    25
 73
    21
 74
     0
 42
0.000000001
 43
0.00000001
 40
0.0
 40
0.0
 40
0.0
 40
0.0
 40
0.0875462653424556
 40
0.17762759296003
 40
0.2471474788262656
 40
0.318248505808561
 40
0.3544110039426032
 40
0.3911111694055485
 40
0.4196256508468989
 40
0.4488279610873451
 40
0.4955774367114223
 40
0.5423030312794792
 40
0.5762969204455036
 40
0.6112229844817039
 40
0.6688576767939515
 40
0.7279867562248815
 40
0.8132488808160989
 40
0.9009541844562668
 40
0.9502506997642257
 40
1.0
 40
1.0
 40
1.0
 40
1.0
 10
289.0616700893411
 20
483.4388553113589
 30
0.0
 10
288.9571516458603
 20
483.3249758659998
 30
0.0
 10
288.7450882361555
 20
483.0939193876037
 30
0.0
 10
288.4979603399931
 20
482.7271817438792
 30
0.0
 10
288.3045879855461
 20
482.3684990767533
 30
0.0
 10
288.1871057101241
 20
482.0847205213776
 30
0.0
 10
288.1151337923412
 20
481.8555548969725
 30
0.0
 10
288.077838793221
 20
481.6979260839231
 30
0.0
 10
288.0569683473362
 20
481.5591547517869
 30
0.0
 10
288.0500122263639
 20
481.4193212155695
 30
0.0
 10
288.0717838072828
 20
481.2891259257364
 30
0.0
 10
288.1329959790831
 20
481.2205877880327
 30
0.0
 10
288.2091416931618
 20
481.2032349742783
 30
0.0
 10
288.3067823510759
 20
481.2155029878083
 30
0.0
 10
288.4415958984674
 20
481.2673654914302
 30
0.0
 10
288.6429568101921
 20
481.3762608459167
 30
0.0
 10
288.9002357129933
 20
481.5419939023558
 30
0.0
 10
289.1696446203998
 20
481.7354043654474
 30
0.0
 10
289.4060787750822
 20
481.9162736796535
 30
0.0
 10
289.5346574524689
 20
482.021048029079
 30
0.0
 10
289.5992406879153
 20
482.0736746901646
 30
0.0
  0
SPLINE
  5
252
330
1F
100
AcDbEntity
  8
0
  6
Continuous
 62
     7
370
    25
100
AcDbSpline
210
0.0
220
0.0
230
1.0
 70
     8
 71
     3
 72
    14
 73
    10
 74
     0
 42
0.000000001
 43
0.00000001
 40
0.0
 40
0.0
 40
0.0
 40
0.0
 40
0.2200911109485595
 40
0.3501199592092341
 40
0.4590676183976581
 40
0.5685351145661265
 40
0.6668402217390302
 40
0.7968948941937074
 40
1.0
 40
1.0
 40
1.0
 40
1.0
 10
289.1702252101143
 20
483.630822252539
 30
0.0
 10
289.188951926334
 20
483.6429914179444
 30
0.0
 10
289.2187423031045
 20
483.6623500720806
 30
0.0
 10
289.2363859887122
 20
483.6612189581344
 30
0.0
 10
289.2351143587243
 20
483.6451644485612
 30
0.0
 10
289.2181229890456
 20
483.6158364737772
 30
0.0
 10
289.1863154024147
 20
483.5740337661849
 30
0.0
 10
289.1337761678074
 20
483.5133224107282
 30
0.0
 10
289.0889795648098
 20
483.4670590005167
 30
0.0
 10
289.061670089341
 20
483.4388553113589
 30
0.0
  0
SPLINE
  5
253
330
1F
100
AcDbEntity
  8
0
  6
Continuous
 62
     7
370
    25
100
AcDbSpline
210
0.0
220
0.0
230
1.0
 70
     8
 71
     3
 72
    11
 73
     7
 74
     0
 42
0.000000001
 43
0.00000001
 40
0.0
 40
0.0
 40
0.0
 40
0.0
 40
0.1049083671508503
 40
0.4229451041602368
 40
0.7083613692849745
 40
1.0
 40
1.0
 40
1.0
 40
1.0
 10
288.8014659840373
 20
483.1511764412261
 30
0.0
 10
288.7990965602002
 20
483.1652817997293
 30
0.0
 10
288.7895440694048
 20
483.2221484966703
 30
0.0
 10
288.8513881142817
 20
483.3349062304246
 30
0.0
 10
288.9714802731763
 20
483.4795987925751
 30
0.0
 10
289.1035023677098
 20
483.5800533663349
 30
0.0
 10
289.1702252101143
 20
483.630822252539
 30
0.0
  0
SPLINE
  5
254
330
1F
100
AcDbEntity
  8
0
  6
Continuous
 62
     7
370
    25
100
AcDbSpline
210
0.0
220
0.0
230
1.0
 70
     8
 71
     3
 72
    11
 73
     7
 74
     0
 42
0.000000001
 43
0.00000001
 40
0.0
 40
0.0
 40
0.0
 40
0.0
 40
0.2974144720820692
 40
0.6031725411133291
 40
0.908832172412553
 40
1.0
 40
1.0
 40
1.0
 40
1.0
 10
296.3979968510244
 20
483.3583758484821
 30
0.0
 10
296.4797158859753
 20
483.2887551421528
 30
0.0
 10
296.6454464828209
 20
483.1475606062692
 30
0.0
 10
296.7890542770428
 20
482.9476928563769
 30
0.0
 10
296.8485765232158
 20
482.796738682381
 30
0.0
 10
296.8475434280496
 20
482.7177093513097
 30
0.0
 10
296.8473060829772
 20
482.6995530159348
 30
0.0
  0
SPLINE
  5
255
330
1F
100
AcDbEntity
  8
0
  6
Continuous
 62
     7
370
    25
100
AcDbSpline
210
0.0
220
0.0
230
1.0
 70
     8
 71
     3
 72
    15
 73
    11
 74
     0
 42
0.000000001
 43
0.00000001
 40
0.0
 40
0.0
 40
0.0
 40
0.0
 40
0.2155767705932649
 40
0.3329005538677319
 40
0.4328760582231109
 40
0.5332634977247579
 40
0.6250838127945265
 40
0.7535547096889059
 40
0.9421338378892272
 40
1.0
 40
1.0
 40
1.0
 40
1.0
 10
296.4764297013217
 20
483.1601509931124
 30
0.0
 10
296.4489359898635
 20
483.1928144062904
 30
0.0
 10
296.4064793200322
 20
483.2432542950979
 30
0.0
 10
296.3583059211238
 20
483.309116812858
 30
0.0
 10
296.3315725861866
 20
483.3520034316213
 30
0.0
 10
296.3192243693158
 20
483.3810891043813
 30
0.0
 10
296.3202838760337
 20
483.3977899107993
 30
0.0
 10
296.338840276617
 20
483.3985858290859
 30
0.0
 10
296.369194045906
 20
483.3806702474558
 30
0.0
 10
296.392519870855
 20
483.3626152265762
 30
0.0
 10
296.3979968510244
 20
483.3583758484821
 30
0.0
  0
LWPOLYLINE
  5
256
330
1F
100
AcDbEntity
  8
0
  6
Continuous
 62
     7
370
    25
100
AcDbPolyline
 90
       15
 70
   128
 43
0.0
 10
292.8178828875
 20
328.2392564712
 10
292.9831016604
 20
328.1229508634
 10
293.1885712613
 20
328.0251290054
 10
293.4266596722
 20
327.9494244185
 10
293.688523273
 20
327.8986490944
 10
293.9644353315
 20
327.8746890454
 10
294.2441472959
 20
327.87843425
 10
294.5172694698
 20
327.9097455952
 10
294.7736569295
 20
327.9674600441
 10
295.0037863501
 20
328.0494338356
 10
295.1991097425
 20
328.1526221131
 10
295.3523719621
 20
328.2731920235
 10
295.4578801956
 20
328.4066650856
 10
295.5117154167
 20
328.5480835399
 10
295.5185534867
 20
328.6205713601
  0
LWPOLYLINE
  5
257
330
1F
100
AcDbEntity
  8
0
  6
Continuous
 62
     7
370
    25
100
AcDbPolyline
 90
       15
 70
   128
 43
0.0
 10
289.7547963211
 20
328.6747335868
 10
289.7552003171
 20
328.6570948072
 10
289.7887259087
 20
328.514021999
 10
289.874917888
 20
328.3769187054
 10
290.0105747169
 20
328.2508775279
 10
290.1906575215
 20
328.140580174
 10
290.4084772576
 20
328.0501235583
 10
290.6559431704
 20
327.9828676258
 10
290.9238633193
 20
327.9413105489
 10
291.2022860061
 20
327.9269959348
 10
291.4808694235
 20
327.9404554894
 10
291.7492657942
 20
327.9811892674
 10
291.997505731
 20
328.0476842425
 10
292.2163685428
 20
328.1374705072
 10
292.3977247304
 20
328.2472130165
  0
ARC
  5
258
330
1F
100
AcDbEntity
  8
0
  6
Continuous
 62
     7
370
    25
100
AcDbCircle
 10
292.6015672396
 20
327.9139026783
 30
0.0
 40
0.3907013566541769
100
AcDbArc
 50
56.3815430532
 51
121.448693132
  0
LWPOLYLINE
  5
259
330
1F
100
AcDbEntity
  8
0
  6
Continuous
 62
     7
370
    25
100
AcDbPolyline
 90
       10
 70
   128
 43
0.0
 10
295.7324041938
 20
328.9978705865
 10
296.0119691584
 20
328.991884362
 10
296.2885716395
 20
329.013630488
 10
296.5519374401
 20
329.0623012205
 10
296.7922840299
 20
329.1360887206
 10
297.0006839104
 20
329.2322522056
 10
297.1693962204
 20
329.3472197532
 10
297.2921542644
 20
329.4767209778
 10
297.3643982845
 20
329.6159456509
 10
297.384029904
 20
329.7384961799
  0
ARC
  5
25A
330
1F
100
AcDbEntity
  8
0
  6
Continuous
 62
     7
370
    25
100
AcDbCircle
 10
295.6938682626
 20
328.5928607878
 30
0.0
 40
0.4068389792642201
100
AcDbArc
 50
84.5647754414
 51
115.5259165901
  0
ARC
  5
25B
330
1F
100
AcDbEntity
  8
0
  6
Continuous
 62
     7
370
    25
100
AcDbCircle
 10
289.6180786675
 20
328.6790527432
 30
0.0
 40
0.4353694513878996
100
AcDbArc
 50
71.6979304477
 51
92.4799025142
  0
LWPOLYLINE
  5
25C
330
1F
100
AcDbEntity
  8
0
  6
Continuous
 62
     7
370
    25
100
AcDbPolyline
 90
       10
 70
   128
 43
0.0
 10
288.0537571992
 20
329.8601975986
 10
288.0597819678
 20
329.7921473977
 10
288.1119794539
 20
329.6505661727
 10
288.2159409943
 20
329.5167715539
 10
288.3678050136
 20
329.3957332445
 10
288.5619306335
 20
329.2919471242
 10
288.7911072
 20
329.2092682526
 10
289.0468221168
 20
329.1507676759
 10
289.3195770402
 20
329.1186183553
 10
289.5992406879
 20
329.1140144539
  0
SPLINE
  5
25D
330
1F
100
AcDbEntity
  8
0
  6
Continuous
 62
     7
370
    25
100
AcDbSpline
210
0.0
220
0.0
230
1.0
 70
     8
 71
     3
 72
    16
 73
    12
 74
     0
 42
0.000000001
 43
0.00000001
 40
0.0
 40
0.0
 40
0.0
 40
0.0
 40
0.011975441078165
 40
0.0631818781038007
 40
0.1158064034067895
 40
0.2086055254836366
 40
0.3036336517240131
 40
0.4807833654643557
 40
0.6626647032906824
 40
0.8297102859061817
 40
1.0
 40
1.0
 40
1.0
 40
1.0
 10
872.841876091072
 20
616.741705753186
 30
0.0
 10
872.8405127640206
 20
616.7381068911502
 30
0.0
 10
872.8333199129999
 20
616.7191194600426
 30
0.0
 10
872.8305040883713
 20
616.704151652849
 30
0.0
 10
872.8352677287882
 20
616.6951553338765
 30
0.0
 10
872.8605241839555
 20
616.7151321133705
 30
0.0
 10
872.9250631034417
 20
616.7769285343707
 30
0.0
 10
873.0456358700371
 20
616.8910383871524
 30
0.0
 10
873.2368489979639
 20
617.054784446701
 30
0.0
 10
873.4672488744234
 20
617.238290157651
 30
0.0
 10
873.6480533342852
 20
617.3745683030115
 30
0.0
 10
873.7393249565467
 20
617.4433626646959
 30
0.0
  0
SPLINE
  5
25E
330
1F
100
AcDbEntity
  8
0
  6
Continuous
 62
     7
370
    25
100
AcDbSpline
210
0.0
220
0.0
230
1.0
 70
     8
 71
     3
 72
    13
 73
     9
 74
     0
 42
0.000000001
 43
0.00000001
 40
0.0
 40
0.0
 40
0.0
 40
0.0
 40
0.3100674990052782
 40
0.4887601577754828
 40
0.6688667072193369
 40
0.8219420169453869
 40
0.96515388765444
 40
0.9999999999999999
 40
0.9999999999999999
 40
0.9999999999999999
 40
0.9999999999999999
 10
880.6165139699532
 20
618.9922881038045
 30
0.0
 10
880.583944751797
 20
619.0168078404164
 30
0.0
 10
880.5326058134833
 20
619.0554583612657
 30
0.0
 10
880.457995352676
 20
619.110098643817
 30
0.0
 10
880.4057705087075
 20
619.1481245511494
 30
0.0
 10
880.3721433868254
 20
619.1724427504123
 30
0.0
 10
880.3557807090099
 20
619.1842541634098
 30
0.0
 10
880.3550437881777
 20
619.184555304335
 30
0.0
 10
880.3548995720877
 20
619.1846142378934
 30
0.0
  0
SPLINE
  5
25F
330
1F
100
AcDbEntity
  8
0
  6
Continuous
 62
     7
370
    25
100
AcDbSpline
210
0.0
220
0.0
230
1.0
 70
     8
 71
     3
 72
    19
 73
    15
 74
     0
 42
0.000000001
 43
0.00000001
 40
0.0
 40
0.0
 40
0.0
 40
0.0
 40
0.1465136637194084
 40
0.2972698986122602
 40
0.4136153890769205
 40
0.5326070092978319
 40
0.5931270105810321
 40
0.6545468287771717
 40
0.7022674383164722
 40
0.751139168545765
 40
0.8293770799386921
 40
0.9075750250235497
 40
0.9644657356244325
 40
1.0
 40
1.0
 40
1.0
 40
1.0
 10
881.1540845685273
 20
617.4412400145733
 30
0.0
 10
881.2586030142222
 20
617.3701817995708
 30
0.0
 10
881.4706664284191
 20
617.2260077489525
 30
0.0
 10
881.7177942927871
 20
617.0623916359302
 30
0.0
 10
881.9111667433958
 20
616.9381384368324
 30
0.0
 10
882.0286487303158
 20
616.870014689004
 30
0.0
 10
882.1006212514795
 20
616.840988658555
 30
0.0
 10
882.1379145081937
 20
616.8377498591905
 30
0.0
 10
882.1587901755003
 20
616.8545867826747
 30
0.0
 10
882.1657236945916
 20
616.89758986218
 30
0.0
 10
882.1440888140028
 20
616.9946193124223
 30
0.0
 10
882.0823754136637
 20
617.1493135354577
 30
0.0
 10
882.0164783833925
 20
617.2901686707692
 30
0.0
 10
881.9731293773782
 20
617.3709870399232
 30
0.0
 10
881.956463156581
 20
617.4020589584892
 30
0.0
  0
SPLINE
  5
260
330
1F
100
AcDbEntity
  8
0
  6
Continuous
 62
     7
370
    25
100
AcDbSpline
210
0.0
220
0.0
230
1.0
 70
     8
 71
     3
 72
     9
 73
     5
 74
     0
 42
0.000000001
 43
0.00000001
 40
0.0
 40
0.0
 40
0.0
 40
0.0
 40
0.3493015586956943
 40
1.0
 40
1.0
 40
1.0
 40
1.0
 10
880.9108018444384
 20
618.7444004592802
 30
0.0
 10
880.8771515457543
 20
618.7754899999383
 30
0.0
 10
880.7808155923451
 20
618.8644948723303
 30
0.0
 10
880.6812809842783
 20
618.9419125449206
 30
0.0
 10
880.6165139699532
 20
618.9922881038045
 30
0.0
  0
SPLINE
  5
261
330
1F
100
AcDbEntity
  8
0
  6
Continuous
 62
     7
370
    25
100
AcDbSpline
210
0.0
220
0.0
230
1.0
 70
     8
 71
     3
 72
    14
 73
    10
 74
     0
 42
0.000000001
 43
0.00000001
 40
0.0
 40
0.0
 40
0.0
 40
0.0
 40
0.2200911109485595
 40
0.3501199592092341
 40
0.4590676183976581
 40
0.5685351145661265
 40
0.6668402217390302
 40
0.7968948941937074
 40
1.0
 40
1.0
 40
1.0
 40
1.0
 10
881.0455294477542
 20
617.2148041263787
 30
0.0
 10
881.0268027315344
 20
617.2526679857333
 30
0.0
 10
880.997012354764
 20
617.3129016445828
 30
0.0
 10
880.9793686691562
 20
617.3901892757574
 30
0.0
 10
880.980640299144
 20
617.440925964489
 30
0.0
 10
880.9976316688229
 20
617.4734002756705
 30
0.0
 10
881.0294392554538
 20
617.4886534511692
 30
0.0
 10
881.0819784900609
 20
617.4842911481704
 30
0.0
 10
881.1267750930587
 20
617.4575452124412
 30
0.0
 10
881.1540845685274
 20
617.4412400145733
 30
0.0
  0
SPLINE
  5
262
330
1F
100
AcDbEntity
  8
0
  6
Continuous
 62
     7
370
    25
100
AcDbSpline
210
0.0
220
0.0
230
1.0
 70
     8
 71
     3
 72
    27
 73
    23
 74
     0
 42
0.000000001
 43
0.00000001
 40
0.0
 40
0.0
 40
0.0
 40
0.0
 40
0.091068347180396
 40
0.1847464164709011
 40
0.2588266946055581
 40
0.3345190598259187
 40
0.362644742719528
 40
0.3910056482847556
 40
0.4191743039829984
 40
0.448120360697975
 40
0.4657704782447663
 40
0.4839081706433212
 40
0.5015721548764682
 40
0.5197440214872955
 40
0.5448446854435508
 40
0.5706253690117588
 40
0.6177938154944818
 40
0.6660858441031574
 40
0.751879685963629
 40
0.8400397940083109
 40
0.9191574739584852
 40
1.0
 40
1.0
 40
1.0
 40
1.0
 10
879.1672712106937
 20
615.9681631796382
 30
0.0
 10
879.2702490898902
 20
615.8311298486444
 30
0.0
 10
879.4791558587773
 20
615.5531362578743
 30
0.0
 10
879.8028216612997
 20
615.2067394282816
 30
0.0
 10
880.1151542764854
 20
614.9169728016922
 30
0.0
 10
880.34978797281
 20
614.7374212928293
 30
0.0
 10
880.5280002476135
 20
614.6321782570741
 30
0.0
 10
880.6441415921528
 20
614.5780353979017
 30
0.0
 10
880.7635827095045
 20
614.5418902399396
 30
0.0
 10
880.8696946828463
 20
614.5339937929665
 30
0.0
 10
880.9599514137703
 20
614.5506949214717
 30
0.0
 10
881.0315730630259
 20
614.5812815822998
 30
0.0
 10
881.0984912007115
 20
614.6289702907414
 30
0.0
 10
881.1659954925158
 20
614.6990501138215
 30
0.0
 10
881.2306499904249
 20
614.7953419084515
 30
0.0
 10
881.3040092828529
 20
614.9492374204777
 30
0.0
 10
881.3674717763089
 20
615.1577896609742
 30
0.0
 10
881.4216917763432
 20
615.4835677542032
 30
0.0
 10
881.4310467368673
 20
615.8945753880575
 30
0.0
 10
881.3674779088215
 20
616.360407180389
 30
0.0
 10
881.2435129128789
 20
616.8079635145275
 30
0.0
 10
881.1119966481052
 20
617.078219202775
 30
0.0
 10
881.0455294477542
 20
617.2148041263787
 30
0.0
  0
SPLINE
  5
263
330
1F
100
AcDbEntity
  8
0
  6
Continuous
 62
     7
370
    25
100
AcDbSpline
210
0.0
220
0.0
230
1.0
 70
     8
 71
     3
 72
    15
 73
    11
 74
     0
 42
0.000000001
 43
0.00000001
 40
0.0
 40
0.0
 40
0.0
 40
0.0
 40
0.2150763736127623
 40
0.3413349926978211
 40
0.4465934903530034
 40
0.5524796219272401
 40
0.6449070621727223
 40
0.766214653902494
 40
0.940631656051666
 40
1.0
 40
1.0
 40
1.0
 40
1.0
 10
878.7820189557599
 20
615.8669228900989
 30
0.0
 10
878.789391119531
 20
615.907850428317
 30
0.0
 10
878.801091044654
 20
615.9728041037214
 30
0.0
 10
878.8467974777647
 20
616.0444218906105
 30
0.0
 10
878.8959664334632
 20
616.0843911755869
 30
0.0
 10
878.9514797877321
 20
616.100537028632
 30
0.0
 10
879.0124855867251
 20
616.0944073966923
 30
0.0
 10
879.0812883294503
 20
616.0622673573353
 30
0.0
 10
879.1329942402286
 20
616.0141574517886
 30
0.0
 10
879.1603295720885
 20
615.9774777605608
 30
0.0
 10
879.1672712106937
 20
615.9681631796382
 30
0.0
  0
SPLINE
  5
264
330
1F
100
AcDbEntity
  8
0
  6
Continuous
 62
     7
370
    25
100
AcDbSpline
210
0.0
220
0.0
230
1.0
 70
     8
 71
     3
 72
    10
 73
     6
 74
     0
 42
0.000000001
 43
0.00000001
 40
0.0
 40
0.0
 40
0.0
 40
0.0
 40
0.4787893468173409
 40
0.9710174308859703
 40
1.0
 40
1.0
 40
1.0
 40
1.0
 10
875.9022986450569
 20
615.8655114241324
 30
0.0
 10
875.9233505326835
 20
615.6852691412488
 30
0.0
 10
875.966045195742
 20
615.3197255057729
 30
0.0
 10
876.0652185183975
 20
614.9443450963045
 30
0.0
 10
876.1483528514008
 20
614.7616888159973
 30
0.0
 10
876.1529756397825
 20
614.7515319854803
 30
0.0
  0
SPLINE
  5
265
330
1F
100
AcDbEntity
  8
0
  6
Continuous
 62
     7
370
    25
100
AcDbSpline
210
0.0
220
0.0
230
1.0
 70
     8
 71
     3
 72
    11
 73
     7
 74
     0
 42
0.000000001
 43
0.00000001
 40
0.0
 40
0.0
 40
0.0
 40
0.0
 40
0.1926194731676369
 40
0.4826179747733798
 40
0.7789736208159097
 40
1.0
 40
1.0
 40
1.0
 40
1.0
 10
878.1826351418283
 20
614.1999140231667
 30
0.0
 10
878.2422641673035
 20
614.2982726713893
 30
0.0
 10
878.3916677506443
 20
614.5447153120324
 30
0.0
 10
878.5742229008621
 20
614.9756335981241
 30
0.0
 10
878.7189782808523
 20
615.4364304523344
 30
0.0
 10
878.7631491107894
 20
615.7380644098638
 30
0.0
 10
878.7820189557599
 20
615.8669228900989
 30
0.0
  0
SPLINE
  5
266
330
1F
100
AcDbEntity
  8
0
  6
Continuous
 62
     7
370
    25
100
AcDbSpline
210
0.0
220
0.0
230
1.0
 70
     8
 71
     3
 72
    15
 73
    11
 74
     0
 42
0.000000001
 43
0.00000001
 40
0.0
 40
0.0
 40
0.0
 40
0.0
 40
0.2129294053202189
 40
0.3333107283175603
 40
0.4345062010026767
 40
0.5362836886506531
 40
0.6256367151020122
 40
0.7456368547566248
 40
0.921192717688107
 40
1.0
 40
1.0
 40
1.0
 40
1.0
 10
875.5304520616414
 20
615.9665713577963
 30
0.0
 10
875.557551722394
 20
615.9990699422991
 30
0.0
 10
875.5999723906388
 20
616.0499418585273
 30
0.0
 10
875.6743956683315
 20
616.0906921330026
 30
0.0
 10
875.7346041074976
 20
616.1025875195751
 30
0.0
 10
875.7880973949729
 20
616.0915243387386
 30
0.0
 10
875.8353051828739
 20
616.0589837615637
 30
0.0
 10
875.8765570537561
 20
615.999586385055
 30
0.0
 10
875.8967258374653
 20
615.9298317237618
 30
0.0
 10
875.9009804673772
 20
615.8807255835898
 30
0.0
 10
875.9022986450569
 20
615.8655114241324
 30
0.0
  0
SPLINE
  5
267
330
1F
100
AcDbEntity
  8
0
  6
Continuous
 62
     7
370
    25
100
AcDbSpline
210
0.0
220
0.0
230
1.0
 70
     8
 71
     3
 72
    11
 73
     7
 74
     0
 42
0.000000001
 43
0.00000001
 40
0.0
 40
0.0
 40
0.0
 40
0.0
 40
0.3033653015543545
 40
0.615241143254317
 40
0.9270165776269079
 40
1.0
 40
1.0
 40
1.0
 40
1.0
 10
873.817757806844
 20
617.2161026991247
 30
0.0
 10
873.7360131825179
 20
617.0538746008874
 30
0.0
 10
873.5702306890437
 20
616.7248672947912
 30
0.0
 10
873.427020452914
 20
616.1896621182657
 30
0.0
 10
873.3680289660491
 20
615.7786090331527
 30
0.0
 10
873.3685836779407
 20
615.5513494539172
 30
0.0
 10
873.3686888990981
 20
615.5082414615501
 30
0.0
  0
SPLINE
  5
268
330
1F
100
AcDbEntity
  8
0
  6
Continuous
 62
     7
370
    25
100
AcDbSpline
210
0.0
220
0.0
230
1.0
 70
     8
 71
     3
 72
    11
 73
     7
 74
     0
 42
0.000000001
 43
0.00000001
 40
0.0
 40
0.0
 40
0.0
 40
0.0
 40
0.0400071753140184
 40
0.5136382513083606
 40
0.755943164190983
 40
0.9999999999999999
 40
0.9999999999999999
 40
0.9999999999999999
 40
0.9999999999999999
 10
874.8159365985133
 20
615.1149105476162
 30
0.0
 10
874.8256125617169
 20
615.1246332745102
 30
0.0
 10
874.9498388981325
 20
615.2494599937314
 30
0.0
 10
875.1346369372668
 20
615.4641216061225
 30
0.0
 10
875.3633518367235
 20
615.7422011858716
 30
0.0
 10
875.474618388975
 20
615.8916019151071
 30
0.0
 10
875.5304520616414
 20
615.9665713577963
 30
0.0
  0
SPLINE
  5
269
330
1F
100
AcDbEntity
  8
0
  6
Continuous
 62
     7
370
    25
100
AcDbSpline
210
0.0
220
0.0
230
1.0
 70
     8
 71
     3
 72
    15
 73
    11
 74
     0
 42
0.000000001
 43
0.00000001
 40
0.0
 40
0.0
 40
0.0
 40
0.0
 40
0.2155767705932649
 40
0.3329005538677319
 40
0.4328760582231109
 40
0.5332634977247579
 40
0.6250838127945265
 40
0.7535547096889059
 40
0.9421338378892272
 40
1.0
 40
1.0
 40
1.0
 40
1.0
 10
873.7393249565467
 20
617.4433626646959
 30
0.0
 10
873.7668186680052
 20
617.4614610854239
 30
0.0
 10
873.8092753378362
 20
617.4894092463876
 30
0.0
 10
873.8574487367448
 20
617.4948206680903
 30
0.0
 10
873.8841820716818
 20
617.4812708094549
 30
0.0
 10
873.8965302885525
 20
617.4512541351942
 30
0.0
 10
873.8954707818348
 20
617.404716229376
 30
0.0
 10
873.8769143812514
 20
617.3350119881159
 30
0.0
 10
873.8465606119624
 20
617.2682249914732
 30
0.0
 10
873.8232347870133
 20
617.2260139824322
 30
0.0
 10
873.817757806844
 20
617.2161026991247
 30
0.0
  0
LWPOLYLINE
  5
26A
330
1F
100
AcDbEntity
  8
0
  6
Continuous
 62
     7
370
    25
100
AcDbPolyline
 90
       16
 70
   128
 43
0.0
 10
875.9022986451
 20
463.207538111
 10
875.9531762344
 20
463.0658294942
 10
876.0558898397
 20
462.931779443
 10
876.2066242392
 20
462.8103671485
 10
876.3997805138
 20
462.7061023818
 10
876.6281840147
 20
462.6228579813
 10
876.8833508609
 20
462.5637259995
 10
877.1558030662
 20
462.5309028507
 10
877.4354205926
 20
462.5256077268
 10
877.7118172514
 20
462.5480373112
 10
877.9747264906
 20
462.5973584735
 10
878.2143827387
 20
462.671739215
 10
878.4218841394
 20
462.7684167176
 10
878.5895232048
 20
462.883799966
 10
878.7110731043
 20
463.0136031337
 10
878.7820189558
 20
463.153004777
  0
LWPOLYLINE
  5
26B
330
1F
100
AcDbEntity
  8
0
  6
Continuous
 62
     7
370
    25
100
AcDbPolyline
 90
       13
 70
   128
 43
0.0
 10
879.1672712107
 20
463.2397275114
 10
879.4141075628
 20
463.1718606646
 10
879.681637385
 20
463.1296418185
 10
879.9599234776
 20
463.1146391611
 10
880.2386291068
 20
463.1274099554
 10
880.5074019558
 20
463.1674798394
 10
880.7562586536
 20
463.2333604465
 10
880.9759555998
 20
463.3226046899
 10
881.1583323119
 20
463.4318976572
 10
881.2966145403
 20
463.557179741
 10
881.3856658926
 20
463.69379743
 10
881.4221786214
 20
463.8366761598
 10
881.4230351526
 20
463.8623575058
  0
LWPOLYLINE
  5
26C
330
1F
100
AcDbEntity
  8
0
  6
Continuous
 62
     7
370
    25
100
AcDbPolyline
 90
       12
 70
   128
 43
0.0
 10
873.3656371065
 20
463.959954466
 10
873.3827913123
 20
463.8453480617
 10
873.4521224673
 20
463.7057310793
 10
873.5721678641
 20
463.5755570389
 10
873.7384685043
 20
463.4596611601
 10
873.9448472719
 20
463.3623483105
 10
874.1836383785
 20
463.2872331049
 10
874.445972103
 20
463.2371056428
 10
874.7221042507
 20
463.213827872
 10
875.0017780949
 20
463.2182644284
 10
875.274605355
 20
463.2502505192
 10
875.5304520616
 20
463.3085980446
  0
ARC
  5
26D
330
1F
100
AcDbEntity
  8
0
  6
Continuous
 62
     7
370
    25
100
AcDbCircle
 10
879.0318742365
 20
462.9421345349
 30
0.0
 40
0.3269463569458008
100
AcDbArc
 50
65.5357138736
 51
139.8366539866
  0
LWPOLYLINE
  5
26E
330
1F
100
AcDbEntity
  8
0
  6
Continuous
 62
     7
370
    25
100
AcDbPolyline
 90
        9
 70
   128
 43
0.0
 10
875.5304520616
 20
463.3085980446
 10
875.588081664
 20
463.3207466193
 10
875.6497530549
 20
463.3251828645
 10
875.711640108
 20
463.3216315534
 10
875.7699033167
 20
463.310313011
 10
875.8209280001
 20
463.291929446
 10
875.8615485591
 20
463.2676213847
 10
875.8892448722
 20
463.2388969124
 10
875.9022986451
 20
463.207538111
  0
ARC
  5
26F
330
1F
100
AcDbEntity
  8
0
  6
Continuous
 62
     7
370
    25
100
AcDbCircle
 10
881.3382060128
 20
465.4761266624
 30
0.0
 40
0.8453470201587957
100
AcDbArc
 50
275.7592277186
 51
347.0333704443
  0
ARC
  5
270
330
1F
100
AcDbEntity
  8
0
  6
Continuous
 62
     7
370
    25
100
AcDbCircle
 10
873.5484993756
 20
465.5330401853
 30
0.0
 40
0.7275743127336157
100
AcDbArc
 50
189.8842400731
 51
255.4436885599
  0
SPLINE
  5
271
330
1F
100
AcDbEntity
  8
0
  6
Continuous
 62
     7
370
    25
100
AcDbSpline
210
0.0
220
0.0
230
1.0
 70
     8
 71
     3
 72
    28
 73
    24
 74
     0
 42
0.000000001
 43
0.00000001
 40
0.0
 40
0.0
 40
0.0
 40
0.0
 40
0.0885577904272319
 40
0.1796438193735513
 40
0.269575710850426
 40
0.3157367678527878
 40
0.3623220932277399
 40
0.3904539690316881
 40
0.4187952486339975
 40
0.4469625905235272
 40
0.4757849359529013
 40
0.4937651259402145
 40
0.5122126959858428
 40
0.530215472593317
 40
0.5487865500347925
 40
0.5721716297902757
 40
0.5962043255368814
 40
0.6385840534980254
 40
0.6819817284823794
 40
0.762882889061175
 40
0.8459448991942619
 40
0.9222316806844277
 40
1.0
 40
1.0
 40
1.0
 40
1.0
 10
645.0775622563365
 20
386.9028342151236
 30
0.0
 10
645.1940438815664
 20
386.7960922910166
 30
0.0
 10
645.4303325687861
 20
386.5795610650076
 30
0.0
 10
645.7661209855961
 20
386.2981039396647
 30
0.0
 10
646.0264030543888
 20
386.0913213497381
 30
0.0
 10
646.2178528599294
 20
385.9512805591257
 30
0.0
 10
646.3359799408333
 20
385.8732970280436
 30
0.0
 10
646.4299880100606
 20
385.8212942944957
 30
0.0
 10
646.5026359180894
 20
385.7904470813596
 30
0.0
 10
646.5704116366653
 20
385.7758201909229
 30
0.0
 10
646.6237075917421
 20
385.7838936998517
 30
0.0
 10
646.6632719401601
 20
385.8119412424586
 30
0.0
 10
646.690586253551
 20
385.8510523420447
 30
0.0
 10
646.711161314382
 20
385.9067288467783
 30
0.0
 10
646.7253025172851
 20
385.9826591697105
 30
0.0
 10
646.7308814177892
 20
386.0805142240173
 30
0.0
 10
646.7254050978144
 20
386.2265849141181
 30
0.0
 10
646.7004675980348
 20
386.4172976250662
 30
0.0
 10
646.6358069879333
 20
386.7127959200729
 30
0.0
 10
646.5152915068575
 20
387.0808984967005
 30
0.0
 10
646.3240601310589
 20
387.4913392899546
 30
0.0
 10
646.0936647315485
 20
387.87675973537
 30
0.0
 10
645.9128596832253
 20
388.101946438502
 30
0.0
 10
645.8215877639034
 20
388.2156225929635
 30
0.0
  0
SPLINE
  5
272
330
1F
100
AcDbEntity
  8
0
  6
Continuous
 62
     7
370
    25
100
AcDbSpline
210
0.0
220
0.0
230
1.0
 70
     8
 71
     3
 72
    14
 73
    10
 74
     0
 42
0.000000001
 43
0.00000001
 40
0.0
 40
0.0
 40
0.0
 40
0.0
 40
0.220765348438179
 40
0.3402146168140553
 40
0.4605704991790948
 40
0.5641909618660854
 40
0.6633542991971745
 40
0.8105247403618525
 40
1.0
 40
1.0
 40
1.0
 40
1.0
 10
644.8035198375031
 20
386.7558431755924
 30
0.0
 10
644.7973164231215
 20
386.796432211039
 30
0.0
 10
644.7877565340277
 20
386.8589827120076
 30
0.0
 10
644.8065005771628
 20
386.9329973219426
 30
0.0
 10
644.8377206582929
 20
386.9743142968139
 30
0.0
 10
644.8811256477501
 20
386.9924863201391
 30
0.0
 10
644.9346897650545
 20
386.9910459172721
 30
0.0
 10
645.0037951925794
 20
386.9647447879432
 30
0.0
 10
645.0509960584294
 20
386.9251304601725
 30
0.0
 10
645.0775622563365
 20
386.9028342151236
 30
0.0
  0
SPLINE
  5
273
330
1F
100
AcDbEntity
  8
0
  6
Continuous
 62
     7
370
    25
100
AcDbSpline
210
0.0
220
0.0
230
1.0
 70
     8
 71
     3
 72
    23
 73
    19
 74
     0
 42
0.000000001
 43
0.00000001
 40
0.0
 40
0.0
 40
0.0
 40
0.0
 40
0.086390105063673
 40
0.1752766177962657
 40
0.2621177065427438
 40
0.3519363559727683
 40
0.4192459175639057
 40
0.452807600612898
 40
0.4875598503476028
 40
0.534232617054251
 40
0.5808027178643259
 40
0.6174159281963868
 40
0.6550189806174282
 40
0.7176192476618429
 40
0.7818570182170677
 40
0.868941619754452
 40
0.9585429605715874
 40
1.0
 40
1.0
 40
1.0
 40
1.0
 10
642.1630409501244
 20
386.254388307317
 30
0.0
 10
642.2265177824293
 20
386.1165362081301
 30
0.0
 10
642.3553057317743
 20
385.8368485091304
 30
0.0
 10
642.6166812689495
 20
385.4478088464407
 30
0.0
 10
642.9219179134539
 20
385.0882889729955
 30
0.0
 10
643.2431215070296
 20
384.8051243282597
 30
0.0
 10
643.5260290191419
 20
384.6406958470853
 30
0.0
 10
643.7423675356957
 20
384.5725107685796
 30
0.0
 10
643.9322610452288
 20
384.5531975314605
 30
0.0
 10
644.1425683479318
 20
384.5985027675207
 30
0.0
 10
644.3273247654096
 20
384.7189680763389
 30
0.0
 10
644.4682810182761
 20
384.8685279830073
 30
0.0
 10
644.6003000636898
 20
385.0621482199953
 30
0.0
 10
644.7199203493993
 20
385.319603262745
 30
0.0
 10
644.8226184009387
 20
385.6741484302326
 30
0.0
 10
644.873895944474
 20
386.0870860684527
 30
0.0
 10
644.8595443652073
 20
386.4640509365878
 30
0.0
 10
644.8169830459419
 20
386.6857228212486
 30
0.0
 10
644.8035198375031
 20
386.7558431755924
 30
0.0
  0
SPLINE
  5
274
330
1F
100
AcDbEntity
  8
0
  6
Continuous
 62
     7
370
    25
100
AcDbSpline
210
0.0
220
0.0
230
1.0
 70
     8
 71
     3
 72
    14
 73
    10
 74
     0
 42
0.000000001
 43
0.00000001
 40
0.0
 40
0.0
 40
0.0
 40
0.0
 40
0.2243030424883259
 40
0.3489011866266116
 40
0.4744001356117633
 40
0.5826741857066091
 40
0.6867417687947664
 40
0.8381564871696764
 40
1.0
 40
1.0
 40
1.0
 40
1.0
 10
641.7428827929886
 20
386.2697421035469
 30
0.0
 10
641.7644363959278
 20
386.306240739567
 30
0.0
 10
641.7979628142864
 20
386.3630140105686
 30
0.0
 10
641.8738180416483
 20
386.4133947167441
 30
0.0
 10
641.9410969093337
 20
386.4300930381011
 30
0.0
 10
642.005646310834
 20
386.420852712219
 30
0.0
 10
642.0673284954382
 20
386.3896980250706
 30
0.0
 10
642.1242106454846
 20
386.3339505039675
 30
0.0
 10
642.1498133983714
 20
386.281491186976
 30
0.0
 10
642.1630409501244
 20
386.254388307317
 30
0.0
  0
SPLINE
  5
275
330
1F
100
AcDbEntity
  8
0
  6
Continuous
 62
     7
370
    25
100
AcDbSpline
210
0.0
220
0.0
230
1.0
 70
     8
 71
     3
 72
    26
 73
    22
 74
     0
 42
0.000000001
 43
0.00000001
 40
0.0
 40
0.0
 40
0.0
 40
0.0
 40
0.085426115936099
 40
0.1733276547195608
 40
0.2448517261352476
 40
0.3181224083912756
 40
0.3577740645396695
 40
0.3980844094313243
 40
0.428768203281536
 40
0.4601978879083258
 40
0.4855692359538117
 40
0.5116681185372481
 40
0.5370453561645243
 40
0.5630880149114156
 40
0.5995557531473632
 40
0.637034587382552
 40
0.6960497304231564
 40
0.756632117583144
 40
0.8401423063242408
 40
0.9260534647419585
 40
1.0
 40
1.0
 40
1.0
 40
1.0
 10
639.1942849839476
 20
386.9623963781991
 30
0.0
 10
639.1621833099485
 20
386.8220767912989
 30
0.0
 10
639.097049740362
 20
386.5373715270821
 30
0.0
 10
639.0946594413182
 20
386.1246198441324
 30
0.0
 10
639.1501885379954
 20
385.7389930160376
 30
0.0
 10
639.24356113381
 20
385.4440412588347
 30
0.0
 10
639.3571982268011
 20
385.2161607232578
 30
0.0
 10
639.460422227225
 20
385.0648839041424
 30
0.0
 10
639.5753377515979
 20
384.9424742833604
 30
0.0
 10
639.6887968529583
 20
384.8564915725805
 30
0.0
 10
639.8083069854596
 20
384.796986446774
 30
0.0
 10
639.9268852704345
 20
384.7634516754113
 30
0.0
 10
640.050653045015
 20
384.7526230529392
 30
0.0
 10
640.1917196847279
 20
384.7647103986016
 30
0.0
 10
640.3493968996464
 20
384.8073662076499
 30
0.0
 10
640.5501235958654
 20
384.8980172890702
 30
0.0
 10
640.7727113813513
 20
385.0433598082053
 30
0.0
 10
641.0376257480979
 20
385.27064640944
 30
0.0
 10
641.307150920687
 20
385.5669708790379
 30
0.0
 10
641.5566934215799
 20
385.912451139184
 30
0.0
 10
641.68399566772
 20
386.1567397467712
 30
0.0
 10
641.7428827929886
 20
386.2697421035469
 30
0.0
  0
SPLINE
  5
276
330
1F
100
AcDbEntity
  8
0
  6
Continuous
 62
     7
370
    25
100
AcDbSpline
210
0.0
220
0.0
230
1.0
 70
     8
 71
     3
 72
    14
 73
    10
 74
     0
 42
0.000000001
 43
0.00000001
 40
0.0
 40
0.0
 40
0.0
 40
0.0
 40
0.2239799089306602
 40
0.3530600787850526
 40
0.4831615846560798
 40
0.5937368434044649
 40
0.6971871626482021
 40
0.8442013099711085
 40
1.0
 40
1.0
 40
1.0
 40
1.0
 10
638.9443987504969
 20
387.1291462900159
 30
0.0
 10
638.9769524779585
 20
387.1525086621023
 30
0.0
 10
639.0282669982527
 20
387.1893348264168
 30
0.0
 10
639.103002064159
 20
387.2056157153556
 30
0.0
 10
639.1548366275192
 20
387.1950713889847
 30
0.0
 10
639.1896966382706
 20
387.1620738669783
 30
0.0
 10
639.2096659397814
 20
387.1117778910415
 30
0.0
 10
639.2132664568586
 20
387.0434466051994
 30
0.0
 10
639.2007333360665
 20
386.9899306167414
 30
0.0
 10
639.1942849839476
 20
386.9623963781991
 30
0.0
  0
SPLINE
  5
277
330
1F
100
AcDbEntity
  8
0
  6
Continuous
 62
     7
370
    25
100
AcDbSpline
210
0.0
220
0.0
230
1.0
 70
     8
 71
     3
 72
    25
 73
    21
 74
     0
 42
0.000000001
 43
0.00000001
 40
0.0
 40
0.0
 40
0.0
 40
0.0
 40
0.0875462653424556
 40
0.17762759296003
 40
0.2471474788262656
 40
0.318248505808561
 40
0.3544110039426032
 40
0.3911111694055485
 40
0.4196256508468989
 40
0.4488279610873451
 40
0.4955774367114223
 40
0.5423030312794792
 40
0.5762969204455036
 40
0.6112229844817039
 40
0.6688576767939515
 40
0.7279867562248815
 40
0.8132488808160989
 40
0.9009541844562668
 40
0.9502506997642257
 40
1.0
 40
1.0
 40
1.0
 40
1.0
 10
638.4068281519227
 20
388.4943269112102
 30
0.0
 10
638.3023097084418
 20
388.3804474658511
 30
0.0
 10
638.0902462987372
 20
388.149390987455
 30
0.0
 10
637.8431184025748
 20
387.7826533437304
 30
0.0
 10
637.649746048128
 20
387.4239706766044
 30
0.0
 10
637.5322637727056
 20
387.1401921212289
 30
0.0
 10
637.460291854923
 20
386.9110264968235
 30
0.0
 10
637.4229968558025
 20
386.7533976837744
 30
0.0
 10
637.402126409918
 20
386.6146263516381
 30
0.0
 10
637.3951702889455
 20
386.4747928154208
 30
0.0
 10
637.4169418698644
 20
386.3445975255876
 30
0.0
 10
637.4781540416648
 20
386.2760593878839
 30
0.0
 10
637.5542997557433
 20
386.2587065741296
 30
0.0
 10
637.6519404136577
 20
386.2709745876595
 30
0.0
 10
637.7867539610492
 20
386.3228370912815
 30
0.0
 10
637.9881148727737
 20
386.4317324457679
 30
0.0
 10
638.2453937755749
 20
386.5974655022071
 30
0.0
 10
638.5148026829814
 20
386.7908759652987
 30
0.0
 10
638.7512368376638
 20
386.9717452795048
 30
0.0
 10
638.8798155150506
 20
387.0765196289302
 30
0.0
 10
638.9443987504969
 20
387.1291462900159
 30
0.0
  0
SPLINE
  5
278
330
1F
100
AcDbEntity
  8
0
  6
Continuous
 62
     7
370
    25
100
AcDbSpline
210
0.0
220
0.0
230
1.0
 70
     8
 71
     3
 72
    14
 73
    10
 74
     0
 42
0.000000001
 43
0.00000001
 40
0.0
 40
0.0
 40
0.0
 40
0.0
 40
0.2200911109485595
 40
0.3501199592092341
 40
0.4590676183976581
 40
0.5685351145661265
 40
0.6668402217390302
 40
0.7968948941937074
 40
1.0
 40
1.0
 40
1.0
 40
1.0
 10
638.5153832726959
 20
388.6862938523902
 30
0.0
 10
638.5341099889157
 20
388.6984630177955
 30
0.0
 10
638.5639003656861
 20
388.7178216719318
 30
0.0
 10
638.5815440512938
 20
388.7166905579858
 30
0.0
 10
638.5802724213061
 20
388.7006360484123
 30
0.0
 10
638.5632810516273
 20
388.6713080736284
 30
0.0
 10
638.5314734649963
 20
388.6295053660361
 30
0.0
 10
638.4789342303892
 20
388.5687940105794
 30
0.0
 10
638.4341376273916
 20
388.5225306003679
 30
0.0
 10
638.4068281519227
 20
388.4943269112102
 30
0.0
  0
SPLINE
  5
279
330
1F
100
AcDbEntity
  8
0
  6
Continuous
 62
     7
370
    25
100
AcDbSpline
210
0.0
220
0.0
230
1.0
 70
     8
 71
     3
 72
    11
 73
     7
 74
     0
 42
0.000000001
 43
0.00000001
 40
0.0
 40
0.0
 40
0.0
 40
0.0
 40
0.1049083671508503
 40
0.4229451041602368
 40
0.7083613692849745
 40
1.0
 40
1.0
 40
1.0
 40
1.0
 10
638.146624046619
 20
388.2066480410774
 30
0.0
 10
638.1442546227819
 20
388.2207533995805
 30
0.0
 10
638.1347021319863
 20
388.2776200965216
 30
0.0
 10
638.1965461768633
 20
388.3903778302759
 30
0.0
 10
638.3166383357581
 20
388.5350703924262
 30
0.0
 10
638.4486604302914
 20
388.6355249661862
 30
0.0
 10
638.5153832726959
 20
388.6862938523902
 30
0.0
  0
SPLINE
  5
27A
330
1F
100
AcDbEntity
  8
0
  6
Continuous
 62
     7
370
    25
100
AcDbSpline
210
0.0
220
0.0
230
1.0
 70
     8
 71
     3
 72
    11
 73
     7
 74
     0
 42
0.000000001
 43
0.00000001
 40
0.0
 40
0.0
 40
0.0
 40
0.0
 40
0.2974144720820666
 40
0.6031725411133237
 40
0.908832172412545
 40
1.0
 40
1.0
 40
1.0
 40
1.0
 10
645.7431549136061
 20
388.4138474483333
 30
0.0
 10
645.824873948557
 20
388.3442267420041
 30
0.0
 10
645.9906045454023
 20
388.2030322061204
 30
0.0
 10
646.1342123396245
 20
388.003164456228
 30
0.0
 10
646.1937345857972
 20
387.8522102822324
 30
0.0
 10
646.1927014906314
 20
387.7731809511608
 30
0.0
 10
646.1924641455589
 20
387.7550246157861
 30
0.0
  0
SPLINE
  5
27B
330
1F
100
AcDbEntity
  8
0
  6
Continuous
 62
     7
370
    25
100
AcDbSpline
210
0.0
220
0.0
230
1.0
 70
     8
 71
     3
 72
    15
 73
    11
 74
     0
 42
0.000000001
 43
0.00000001
 40
0.0
 40
0.0
 40
0.0
 40
0.0
 40
0.2155767705932649
 40
0.3329005538677319
 40
0.4328760582231109
 40
0.5332634977247579
 40
0.6250838127945265
 40
0.7535547096889059
 40
0.9421338378892272
 40
1.0
 40
1.0
 40
1.0
 40
1.0
 10
645.8215877639034
 20
388.2156225929635
 30
0.0
 10
645.7940940524451
 20
388.2482860061417
 30
0.0
 10
645.7516373826138
 20
388.2987258949492
 30
0.0
 10
645.7034639837054
 20
388.3645884127091
 30
0.0
 10
645.6767306487682
 20
388.4074750314726
 30
0.0
 10
645.6643824318974
 20
388.4365607042326
 30
0.0
 10
645.6654419386155
 20
388.4532615106505
 30
0.0
 10
645.6839983391986
 20
388.4540574289371
 30
0.0
 10
645.7143521084876
 20
388.4361418473071
 30
0.0
 10
645.7376779334367
 20
388.4180868264274
 30
0.0
 10
645.743154913606
 20
388.4138474483333
 30
0.0
  0
LWPOLYLINE
  5
27C
330
1F
100
AcDbEntity
  8
0
  6
Continuous
 62
     7
370
    25
100
AcDbPolyline
 90
       15
 70
   128
 43
0.0
 10
642.1630409501
 20
233.294728071
 10
642.328259723
 20
233.1784224632
 10
642.5337293239
 20
233.0806006052
 10
642.7718177348
 20
233.0048960184
 10
643.0336813356
 20
232.9541206943
 10
643.3095933941
 20
232.9301606453
 10
643.5893053585
 20
232.9339058498
 10
643.8624275324
 20
232.965217195
 10
644.118814992
 20
233.0229316439
 10
644.3489444127
 20
233.1049054355
 10
644.5442678051
 20
233.208093713
 10
644.6975300247
 20
233.3286636234
 10
644.8030382581
 20
233.4621366854
 10
644.8568734793
 20
233.6035551397
 10
644.8637115493
 20
233.67604296
  0
LWPOLYLINE
  5
27D
330
1F
100
AcDbEntity
  8
0
  6
Continuous
 62
     7
370
    25
100
AcDbPolyline
 90
       15
 70
   128
 43
0.0
 10
639.0999543837
 20
233.7302051867
 10
639.1003583796
 20
233.712566407
 10
639.1338839713
 20
233.5694935989
 10
639.2200759506
 20
233.4323903052
 10
639.3557327795
 20
233.3063491277
 10
639.5358155841
 20
233.1960517738
 10
639.7536353202
 20
233.1055951582
 10
640.001101233
 20
233.0383392257
 10
640.2690213818
 20
232.9967821487
 10
640.5474440686
 20
232.9824675346
 10
640.8260274861
 20
232.9959270892
 10
641.0944238568
 20
233.0366608673
 10
641.3426637936
 20
233.1031558423
 10
641.5615266054
 20
233.1929421071
 10
641.742882793
 20
233.3026846163
  0
ARC
  5
27E
330
1F
100
AcDbEntity
  8
0
  6
Continuous
 62
     7
370
    25
100
AcDbCircle
 10
641.9467253022
 20
232.9693742781
 30
0.0
 40
0.3907013566542066
100
AcDbArc
 50
56.3815430532
 51
121.448693132
  0
LWPOLYLINE
  5
27F
330
1F
100
AcDbEntity
  8
0
  6
Continuous
 62
     7
370
    25
100
AcDbPolyline
 90
       10
 70
   128
 43
0.0
 10
645.0775622563
 20
234.0533421864
 10
645.357127221
 20
234.0473559619
 10
645.6337297021
 20
234.0691020879
 10
645.8970955027
 20
234.1177728203
 10
646.1374420925
 20
234.1915603205
 10
646.345841973
 20
234.2877238055
 10
646.514554283
 20
234.4026913531
 10
646.6373123269
 20
234.5321925776
 10
646.709556347
 20
234.6714172508
 10
646.7291879666
 20
234.7939677797
  0
ARC
  5
280
330
1F
100
AcDbEntity
  8
0
  6
Continuous
 62
     7
370
    25
100
AcDbCircle
 10
645.0390263252
 20
233.6483323876
 30
0.0
 40
0.4068389792658069
100
AcDbArc
 50
84.5647754414
 51
115.52591659
  0
ARC
  5
281
330
1F
100
AcDbEntity
  8
0
  6
Continuous
 62
     7
370
    25
100
AcDbCircle
 10
638.9632367301
 20
233.7345243431
 30
0.0
 40
0.4353694513895447
100
AcDbArc
 50
71.6979304477
 51
92.4799025141
  0
LWPOLYLINE
  5
282
330
1F
100
AcDbEntity
  8
0
  6
Continuous
 62
     7
370
    25
100
AcDbPolyline
 90
       10
 70
   128
 43
0.0
 10
637.3989152618
 20
234.9156691985
 10
637.4049400304
 20
234.8476189976
 10
637.4571375165
 20
234.7060377726
 10
637.5610990569
 20
234.5722431537
 10
637.7129630761
 20
234.4512048444
 10
637.9070886961
 20
234.3474187241
 10
638.1362652626
 20
234.2647398525
 10
638.3919801794
 20
234.2062392758
 10
638.6647351028
 20
234.1740899552
 10
638.9443987505
 20
234.1694860537
  0
LWPOLYLINE
  5
283
330
1F
100
AcDbEntity
  8
0
  6
Continuous
 62
     7
370
    25
100
AcDbPolyline
 90
       35
 70
   128
 43
0.0
 10
646.7291879666
 20
235.7602842426
 10
646.7926914183
 20
235.5806438702
 10
646.8375803333
 20
235.3256170807
 10
646.8304649195
 20
235.0695707088
 10
646.7714231348
 20
234.8153100522
 10
646.6611018532
 20
234.5656208437
 10
646.500709778
 20
234.3232387306
 10
646.2920041981
 20
234.0908193021
 10
646.0372717357
 20
233.870908994
 10
645.7393032928
 20
233.6659171897
 10
645.4013634742
 20
233.4780898223
 10
645.0271548191
 20
233.3094847678
 10
644.6207772359
 20
233.1619492984
 10
644.1866830825
 20
233.0370998436
 10
643.7296283851
 20
232.9363042801
 10
643.2546207309
 20
232.8606669452
 10
642.7668644029
 20
232.8110165375
 10
642.2717033616
 20
232.7878970371
 10
641.774562695
 20
232.7915617461
 10
641.2808891802
 20
232.8219705133
 10
640.7960916077
 20
232.8787901737
 10
640.325481521
 20
232.9613981994
 10
639.8742150227
 20
233.0688895195
 10
639.4472362831
 20
233.2000864366
 10
639.0492233705
 20
233.3535515297
 10
638.6845369978
 20
233.5276034034
 10
638.3571727451
 20
233.7203351087
 10
638.0707172836
 20
233.9296350368
 10
637.8283090794
 20
234.153210054
 10
637.6326040076
 20
234.3886106254
 10
637.4857462537
 20
234.6332576532
 10
637.389344822
 20
234.8844707334
 10
637.344455907
 20
235.1394975229
 10
637.3515713208
 20
235.3955438948
 10
637.3989152618
 20
235.6133619679
  0
LWPOLYLINE
  5
284
330
1F
100
AcDbEntity
  8
0
  6
Continuous
 62
     7
370
    25
100
AcDbPolyline
 90
       29
 70
   128
 43
0.0
 10
881.6708806783
 20
463.8278186197
 10
881.4161482158
 20
463.6079083116
 10
881.118179773
 20
463.4029165073
 10
880.7802399543
 20
463.21508914
 10
880.4060312992
 20
463.0464840854
 10
879.9996537161
 20
462.898948616
 10
879.5655595626
 20
462.7740991612
 10
879.1085048653
 20
462.6733035977
 10
878.633497211
 20
462.5976662629
 10
878.145740883
 20
462.5480158551
 10
877.6505798417
 20
462.5248963547
 10
877.1534391751
 20
462.5285610638
 10
876.6597656604
 20
462.5589698309
 10
876.1749680878
 20
462.6157894914
 10
875.7043580011
 20
462.6983975171
 10
875.2530915029
 20
462.8058888371
 10
874.8261127633
 20
462.9370857542
 10
874.4280998507
 20
463.0905508474
 10
874.0634134779
 20
463.264602721
 10
873.7360492252
 20
463.4573344263
 10
873.4495937638
 20
463.6666343545
 10
873.2071855596
 20
463.8902093716
 10
873.0114804877
 20
464.125609943
 10
872.8646227338
 20
464.3702569709
 10
872.7682213022
 20
464.6214700511
 10
872.7233323871
 20
464.8764968405
 10
872.7304478009
 20
465.1325432124
 10
872.7894895857
 20
465.3868038691
 10
872.8317247539
 20
465.4972835602
  0
ARC
  5
285
330
1F
100
AcDbEntity
  8
0
  6
Continuous
 62
     7
370
    25
100
AcDbCircle
 10
880.7048701216
 20
464.9798979436
 30
0.0
 40
1.503483676087007
100
AcDbArc
 50
309.9796005818
 51
14.2647796697
  0
LWPOLYLINE
  5
286
330
1F
100
AcDbEntity
  8
0
  6
Continuous
 62
     7
370
    25
100
AcDbPolyline
 90
       35
 70
   128
 43
0.0
 10
297.384029904
 20
330.7048126427
 10
297.4475333557
 20
330.5251722703
 10
297.4924222707
 20
330.2701454809
 10
297.4853068569
 20
330.014099109
 10
297.4262650722
 20
329.7598384523
 10
297.3159437906
 20
329.5101492438
 10
297.1555517154
 20
329.2677671307
 10
296.9468461355
 20
329.0353477022
 10
296.6921136731
 20
328.8154373941
 10
296.3941452303
 20
328.6104455898
 10
296.0562054116
 20
328.4226182225
 10
295.6819967565
 20
328.254013168
 10
295.2756191733
 20
328.1064776985
 10
294.8415250199
 20
327.9816282437
 10
294.3844703226
 20
327.8808326802
 10
293.9094626683
 20
327.8051953454
 10
293.4217063403
 20
327.7555449376
 10
292.926545299
 20
327.7324254372
 10
292.4294046324
 20
327.7360901463
 10
291.9357311177
 20
327.7664989134
 10
291.4509335451
 20
327.8233185739
 10
290.9803234584
 20
327.9059265996
 10
290.5290569602
 20
328.0134179196
 10
290.1020782205
 20
328.1446148367
 10
289.704065308
 20
328.2980799299
 10
289.3393789352
 20
328.4721318035
 10
289.0120146825
 20
328.6648635089
 10
288.725559221
 20
328.874163437
 10
288.4831510169
 20
329.0977384541
 10
288.287445945
 20
329.3331390255
 10
288.1405881911
 20
329.5777860534
 10
288.0441867595
 20
329.8289991336
 10
287.9992978444
 20
330.084025923
 10
288.0064132582
 20
330.3400722949
 10
288.0537571992
 20
330.557890368
  0
LINE
  5
287
330
1F
100
AcDbEntity
  8
0
  6
Continuous
 62
     8
370
    18
100
AcDbLine
 10
697.1281183791
 20
385.9183955447
 30
0.0
 11
697.1281183791
 21
381.6325590412
 31
0.0
  0
LINE
  5
288
330
1F
100
AcDbEntity
  8
0
  6
Continuous
 62
     8
370
    18
100
AcDbLine
 10
672.1325184329
 20
377.652411467
 30
0.0
 11
672.1325184329
 21
381.9382479705
 31
0.0
  0
LINE
  5
289
330
1F
100
AcDbEntity
  8
0
  6
Continuous
 62
     8
370
    18
100
AcDbLine
 10
267.0690187046
 20
492.0258277357
 30
0.0
 11
267.0690187046
 21
487.7399912322
 31
0.0
  0
LINE
  5
28A
330
1F
100
AcDbEntity
  8
0
  6
Continuous
 62
     8
370
    18
100
AcDbLine
 10
910.8746065091
 20
590.2556841576
 30
0.0
 11
910.8746065091
 21
594.5415206611
 31
0.0
  0
LINE
  5
28B
330
1F
100
AcDbEntity
  8
0
  6
Continuous
 62
     8
370
    18
100
AcDbLine
 10
299.1034297178
 20
479.0337247332
 30
0.0
 11
297.384029904
 21
477.3555378043
 31
0.0
  0
LINE
  5
28C
330
1F
100
AcDbEntity
  8
0
  6
Continuous
 62
     8
370
    18
100
AcDbLine
 10
309.4074964065
 20
476.2333001967
 30
0.0
 11
297.384029904
 21
464.4980282938
 31
0.0
  0
LINE
  5
28D
330
1F
100
AcDbEntity
  8
0
  6
Continuous
 62
     8
370
    18
100
AcDbLine
 10
648.4485877804
 20
384.0891963331
 30
0.0
 11
646.7291879666
 21
382.4110094041
 31
0.0
  0
LINE
  5
28E
330
1F
100
AcDbEntity
  8
0
  6
Continuous
 62
     8
370
    18
100
AcDbLine
 10
658.7526544691
 20
381.2887717965
 30
0.0
 11
646.7291879666
 21
369.5534998936
 31
0.0
  0
LINE
  5
28F
330
1F
100
AcDbEntity
  8
0
  6
Continuous
 62
     8
370
    18
100
AcDbLine
 10
529.4368608932
 20
710.8114512902
 30
0.0
 11
529.4368608932
 21
708.9815427459
 31
0.0
  0
LINE
  5
290
330
1F
100
AcDbEntity
  8
0
  6
Continuous
 62
     8
370
    18
100
AcDbLine
 10
526.5571405825
 20
710.8100398243
 30
0.0
 11
526.5571405825
 21
709.7641890214
 31
0.0
  0
LINE
  5
291
330
1F
100
AcDbEntity
  8
0
  6
Continuous
 62
     8
370
    18
100
AcDbLine
 10
529.8221131481
 20
710.9126915798
 30
0.0
 11
529.8221131481
 21
708.876839438
 31
0.0
  0
LINE
  5
292
330
1F
100
AcDbEntity
  8
0
  6
Continuous
 62
     8
370
    18
100
AcDbLine
 10
526.1852939991
 20
710.9110997579
 30
0.0
 11
526.1852939991
 21
709.8652489551
 31
0.0
  0
LINE
  5
293
330
1F
100
AcDbEntity
  8
0
  6
Continuous
 62
     8
370
    18
100
AcDbLine
 10
531.8089265059
 20
712.3857684147
 30
0.0
 11
531.8089265059
 21
711.9177517144
 31
0.0
  0
LINE
  5
294
330
1F
100
AcDbEntity
  8
0
  6
Continuous
 62
     8
370
    18
100
AcDbLine
 10
524.394166894
 20
712.3878910648
 30
0.0
 11
524.394166894
 21
711.991045233
 31
0.0
  0
LINE
  5
295
330
1F
100
AcDbEntity
  8
0
  6
Continuous
 62
     8
370
    18
100
AcDbLine
 10
292.8178828875
 20
481.1989167075
 30
0.0
 11
292.8178828875
 21
328.2392564712
 31
0.0
  0
LINE
  5
296
330
1F
100
AcDbEntity
  8
0
  6
Continuous
 62
     8
370
    18
100
AcDbLine
 10
292.3977247304
 20
481.2142705037
 30
0.0
 11
292.3977247304
 21
328.2472130165
 31
0.0
  0
LINE
  5
297
330
1F
100
AcDbEntity
  8
0
  6
Continuous
 62
     8
370
    18
100
AcDbLine
 10
295.7324041938
 20
481.8473626153
 30
0.0
 11
295.7324041938
 21
328.9978705865
 31
0.0
  0
LINE
  5
298
330
1F
100
AcDbEntity
  8
0
  6
Continuous
 62
     8
370
    18
100
AcDbLine
 10
289.5992406879
 20
482.0736746902
 30
0.0
 11
289.5992406879
 21
329.1140144539
 31
0.0
  0
LINE
  5
299
330
1F
100
AcDbEntity
  8
0
  6
Continuous
 62
     8
370
    18
100
AcDbLine
 10
296.397996851
 20
483.3583758485
 30
0.0
 11
296.397996851
 21
483.2560534388
 31
0.0
  0
LINE
  5
29A
330
1F
100
AcDbEntity
  8
0
  6
Continuous
 62
     8
370
    18
100
AcDbLine
 10
289.1702252101
 20
483.6308222525
 30
0.0
 11
289.1702252101
 21
483.5564432839
 31
0.0
  0
LINE
  5
29B
330
1F
100
AcDbEntity
  8
0
  6
Continuous
 62
     8
370
    18
100
AcDbLine
 10
878.7820189558
 20
615.8669228901
 30
0.0
 11
878.7820189558
 21
614.0370143458
 31
0.0
  0
LINE
  5
29C
330
1F
100
AcDbEntity
  8
0
  6
Continuous
 62
     8
370
    18
100
AcDbLine
 10
878.7820189558
 20
558.9323348618
 30
0.0
 11
878.7820189558
 21
463.153004777
 31
0.0
  0
LINE
  5
29D
330
1F
100
AcDbEntity
  8
0
  6
Continuous
 62
     8
370
    18
100
AcDbLine
 10
875.9022986451
 20
615.8655114241
 30
0.0
 11
875.9022986451
 21
614.8196606213
 31
0.0
  0
LINE
  5
29E
330
1F
100
AcDbEntity
  8
0
  6
Continuous
 62
     8
370
    18
100
AcDbLine
 10
875.9022986451
 20
556.1216395566
 30
0.0
 11
875.9022986451
 21
463.207538111
 31
0.0
  0
LINE
  5
29F
330
1F
100
AcDbEntity
  8
0
  6
Continuous
 62
     8
370
    18
100
AcDbLine
 10
879.1672712107
 20
615.9681631796
 30
0.0
 11
879.1672712107
 21
613.9323110378
 31
0.0
  0
LINE
  5
2A0
330
1F
100
AcDbEntity
  8
0
  6
Continuous
 62
     8
370
    18
100
AcDbLine
 10
879.1672712107
 20
559.308352873
 30
0.0
 11
879.1672712107
 21
463.2397275114
 31
0.0
  0
LINE
  5
2A1
330
1F
100
AcDbEntity
  8
0
  6
Continuous
 62
     8
370
    18
100
AcDbLine
 10
875.5304520616
 20
615.9665713578
 30
0.0
 11
875.5304520616
 21
614.920720555
 31
0.0
  0
LINE
  5
2A2
330
1F
100
AcDbEntity
  8
0
  6
Continuous
 62
     8
370
    18
100
AcDbLine
 10
875.5304520616
 20
555.7587058917
 30
0.0
 11
875.5304520616
 21
463.3085980446
 31
0.0
  0
LINE
  5
2A3
330
1F
100
AcDbEntity
  8
0
  6
Continuous
 62
     8
370
    18
100
AcDbLine
 10
881.1540845685
 20
617.4412400146
 30
0.0
 11
881.1540845685
 21
616.9732233143
 31
0.0
  0
LINE
  5
2A4
330
1F
100
AcDbEntity
  8
0
  6
Continuous
 62
     8
370
    18
100
AcDbLine
 10
873.7393249565
 20
617.4433626647
 30
0.0
 11
873.7393249565
 21
617.0465168329
 31
0.0
  0
LINE
  5
2A5
330
1F
100
AcDbEntity
  8
0
  6
Continuous
 62
     8
370
    18
100
AcDbLine
 10
642.1630409501
 20
386.2543883073
 30
0.0
 11
642.1630409501
 21
233.294728071
 31
0.0
  0
LINE
  5
2A6
330
1F
100
AcDbEntity
  8
0
  6
Continuous
 62
     8
370
    18
100
AcDbLine
 10
641.742882793
 20
386.2697421035
 30
0.0
 11
641.742882793
 21
233.3026846163
 31
0.0
  0
LINE
  5
2A7
330
1F
100
AcDbEntity
  8
0
  6
Continuous
 62
     8
370
    18
100
AcDbLine
 10
645.0775622563
 20
386.9028342151
 30
0.0
 11
645.0775622563
 21
234.0533421864
 31
0.0
  0
LINE
  5
2A8
330
1F
100
AcDbEntity
  8
0
  6
Continuous
 62
     8
370
    18
100
AcDbLine
 10
638.9443987505
 20
387.12914629
 30
0.0
 11
638.9443987505
 21
234.1694860537
 31
0.0
  0
LINE
  5
2A9
330
1F
100
AcDbEntity
  8
0
  6
Continuous
 62
     8
370
    18
100
AcDbLine
 10
645.7431549136
 20
388.4138474483
 30
0.0
 11
645.7431549136
 21
388.3115250387
 31
0.0
  0
LINE
  5
2AA
330
1F
100
AcDbEntity
  8
0
  6
Continuous
 62
     8
370
    18
100
AcDbLine
 10
638.5153832727
 20
388.6862938524
 30
0.0
 11
638.5153832727
 21
388.6119148837
 31
0.0
  0
ARC
  5
2AB
330
1F
100
AcDbEntity
  8
0
  6
Continuous
 62
     8
370
    18
100
AcDbCircle
 10
645.2481692651
 20
234.0098726793
 30
0.0
 40
1.594096871877319
100
AcDbArc
 50
310.9054520812
 51
357.7326486245
  0
LWPOLYLINE
  5
2AC
330
1F
100
AcDbEntity
  8
0
  6
Continuous
 62
     8
370
    18
100
AcDbPolyline
 90
       27
 70
   128
 43
0.0
 10
637.3410181202
 20
233.9468063507
 10
637.344455907
 20
233.8537465718
 10
637.389344822
 20
233.5987197824
 10
637.4857462537
 20
233.3475067022
 10
637.6326040076
 20
233.1028596743
 10
637.8283090794
 20
232.8674591029
 10
638.0707172836
 20
232.6438840858
 10
638.3571727451
 20
232.4345841577
 10
638.6845369978
 20
232.2418524523
 10
639.0492233705
 20
232.0678005787
 10
639.4472362831
 20
231.9143354855
 10
639.8742150227
 20
231.7831385684
 10
640.325481521
 20
231.6756472484
 10
640.7960916077
 20
231.5930392227
 10
641.2808891802
 20
231.5362195622
 10
641.774562695
 20
231.5058107951
 10
642.2717033616
 20
231.502146086
 10
642.7668644029
 20
231.5252655864
 10
643.2546207309
 20
231.5749159942
 10
643.7296283851
 20
231.650553329
 10
644.1866830825
 20
231.7513488925
 10
644.6207772359
 20
231.8761983473
 10
645.0271548191
 20
232.0237338167
 10
645.4013634742
 20
232.1923388713
 10
645.7393032928
 20
232.3801662386
 10
646.0372717357
 20
232.5851580429
 10
646.2920041981
 20
232.805068351
  0
LWPOLYLINE
  5
2AD
330
1F
100
AcDbEntity
  8
0
  6
Continuous
 62
     8
370
    18
100
AcDbPolyline
 90
       32
 70
   128
 43
0.0
 10
872.7198946003
 20
463.6838056684
 10
872.7233323871
 20
463.5907458895
 10
872.7682213022
 20
463.3357191
 10
872.8646227338
 20
463.0845060198
 10
873.0114804877
 20
462.839858992
 10
873.2071855596
 20
462.6044584205
 10
873.4495937638
 20
462.3808834034
 10
873.7360492252
 20
462.1715834753
 10
874.0634134779
 20
461.97885177
 10
874.4280998507
 20
461.8047998963
 10
874.8261127633
 20
461.6513348031
 10
875.2530915029
 20
461.5201378861
 10
875.7043580011
 20
461.412646566
 10
876.1749680878
 20
461.3300385403
 10
876.6597656604
 20
461.2732188799
 10
877.1534391751
 20
461.2428101127
 10
877.6505798417
 20
461.2391454037
 10
878.145740883
 20
461.2622649041
 10
878.633497211
 20
461.3119153118
 10
879.1085048653
 20
461.3875526467
 10
879.5655595626
 20
461.4883482102
 10
879.9996537161
 20
461.613197665
 10
880.4060312992
 20
461.7607331344
 10
880.7802399543
 20
461.9293381889
 10
881.118179773
 20
462.1171655563
 10
881.4161482158
 20
462.3221573606
 10
881.6708806783
 20
462.5420676686
 10
881.8795862581
 20
462.7744870972
 10
882.0399783334
 20
463.0168692103
 10
882.1502996149
 20
463.2665584187
 10
882.2093413996
 20
463.5208190754
 10
882.2198946003
 20
463.6838056684
  0
ARC
  5
2AE
330
1F
100
AcDbEntity
  8
0
  6
Continuous
 62
     8
370
    18
100
AcDbCircle
 10
295.9030112025
 20
328.9544010794
 30
0.0
 40
1.594096871877671
100
AcDbArc
 50
310.9054520812
 51
357.7326486245
  0
LWPOLYLINE
  5
2AF
330
1F
100
AcDbEntity
  8
0
  6
Continuous
 62
     8
370
    18
100
AcDbPolyline
 90
       27
 70
   128
 43
0.0
 10
287.9958600576
 20
328.8913347509
 10
287.9992978444
 20
328.798274972
 10
288.0441867595
 20
328.5432481825
 10
288.1405881911
 20
328.2920351023
 10
288.287445945
 20
328.0473880745
 10
288.4831510169
 20
327.8119875031
 10
288.725559221
 20
327.5884124859
 10
289.0120146825
 20
327.3791125578
 10
289.3393789352
 20
327.1863808525
 10
289.704065308
 20
327.0123289788
 10
290.1020782205
 20
326.8588638856
 10
290.5290569602
 20
326.7276669686
 10
290.9803234584
 20
326.6201756485
 10
291.4509335451
 20
326.5375676228
 10
291.9357311177
 20
326.4807479624
 10
292.4294046324
 20
326.4503391952
 10
292.926545299
 20
326.4466744862
 10
293.4217063403
 20
326.4697939866
 10
293.9094626683
 20
326.5194443943
 10
294.3844703226
 20
326.5950817292
 10
294.8415250199
 20
326.6958772927
 10
295.2756191733
 20
326.8207267475
 10
295.6819967565
 20
326.9682622169
 10
296.0562054116
 20
327.1368672714
 10
296.3941452303
 20
327.3246946388
 10
296.6921136731
 20
327.5296864431
 10
296.9468461355
 20
327.7495967511
  0
ENDSEC
  0
SECTION
  2
OBJECTS
  0
DICTIONARY
  5
C
330
0
100
AcDbDictionary
281
     1
  3
ACAD_GROUP
350
D
  3
ACAD_LAYOUT
350
1A
  3
ACAD_MLINESTYLE
350
17
  3
ACAD_PLOTSETTINGS
350
19
  3
ACAD_PLOTSTYLENAME
350
E
  3
ACAD_SCALELIST
350
47
  0
DICTIONARY
  5
D
102
{ACAD_REACTORS
330
C
102
}
330
C
100
AcDbDictionary
281
     1
  0
DICTIONARY
  5
1A
102
{ACAD_REACTORS
330
C
102
}
330
C
100
AcDbDictionary
281
     1
  3
Layout1
350
1E
  3
Layout2
350
26
  3
Model
350
22
  0
DICTIONARY
  5
17
102
{ACAD_REACTORS
330
C
102
}
330
C
100
AcDbDictionary
281
     1
  3
Standard
350
18
  0
DICTIONARY
  5
19
102
{ACAD_REACTORS
330
C
102
}
330
C
100
AcDbDictionary
281
     1
  0
ACDBDICTIONARYWDFLT
  5
E
102
{ACAD_REACTORS
330
C
102
}
330
C
100
AcDbDictionary
281
     1
  3
Normal
350
F
100
AcDbDictionaryWithDefault
340
F
  0
DICTIONARY
  5
47
102
{ACAD_REACTORS
330
C
102
}
330
C
100
AcDbDictionary
281
     1
  3
A0
350
48
  3
A1
350
49
  3
A2
350
4A
  3
A3
350
4B
  3
A4
350
4C
  3
A5
350
4D
  3
A6
350
4E
  3
A7
350
4F
  3
A8
350
50
  3
A9
350
51
  3
B0
350
52
  3
B1
350
53
  3
B2
350
54
  3
B3
350
55
  3
B4
350
56
  3
B5
350
57
  3
B6
350
58
  3
B7
350
59
  3
B8
350
5A
  3
B9
350
5B
  3
C0
350
5C
  3
C1
350
5D
  3
C2
350
5E
  3
C3
350
5F
  3
C4
350
60
  3
C5
350
61
  3
C6
350
62
  3
C7
350
63
  3
C8
350
64
  3
C9
350
65
  3
D0
350
66
  3
D1
350
67
  3
D2
350
68
  0
LAYOUT
  5
1E
102
{ACAD_REACTORS
330
1A
102
}
330
1A
100
AcDbPlotSettings
  1

  2
none_device
  4

  6

 40
0.0
 41
0.0
 42
0.0
 43
0.0
 44
0.0
 45
0.0
 46
0.0
 47
0.0
 48
0.0
 49
0.0
140
0.0
141
0.0
142
1.0
143
1.0
 70
   688
 72
     1
 73
     0
 74
     5
  7

 75
    16
147
1.0
148
0.0
149
0.0
100
AcDbLayout
  1
Layout1
 70
     1
 71
     1
 10
0.0
 20
0.0
 11
420.0
 21
297.0
 12
0.0
 22
0.0
 32
0.0
 14
1.0000000000E+20
 24
1.0000000000E+20
 34
1.0000000000E+20
 15
-1.0000000000E+20
 25
-1.0000000000E+20
 35
-1.0000000000E+20
146
0.0
 13
0.0
 23
0.0
 33
0.0
 16
1.0
 26
0.0
 36
0.0
 17
0.0
 27
1.0
 37
0.0
 76
     0
330
1B
  0
LAYOUT
  5
26
102
{ACAD_REACTORS
330
1A
102
}
330
1A
100
AcDbPlotSettings
  1

  2
none_device
  4

  6

 40
0.0
 41
0.0
 42
0.0
 43
0.0
 44
0.0
 45
0.0
 46
0.0
 47
0.0
 48
0.0
 49
0.0
140
0.0
141
0.0
142
1.0
143
1.0
 70
   688
 72
     1
 73
     0
 74
     5
  7

 75
    16
147
1.0
148
0.0
149
0.0
100
AcDbLayout
  1
Layout2
 70
     1
 71
     2
 10
0.0
 20
0.0
 11
0.0
 21
0.0
 12
0.0
 22
0.0
 32
0.0
 14
0.0
 24
0.0
 34
0.0
 15
0.0
 25
0.0
 35
0.0
146
0.0
 13
0.0
 23
0.0
 33
0.0
 16
1.0
 26
0.0
 36
0.0
 17
0.0
 27
1.0
 37
0.0
 76
     0
330
23
  0
LAYOUT
  5
22
102
{ACAD_REACTORS
330
1A
102
}
330
1A
100
AcDbPlotSettings
  1

  2
none_device
  4
Letter_(8.50_x_11.00_Inches)
  6

 40
6.35
 41
6.35
 42
6.35000508
 43
6.35000508
 44
215.9
 45
279.4
 46
0.0
 47
0.0
 48
0.0
 49
0.0
140
0.0
141
0.0
142
1.0
143
1.0
 70
  1712
 72
     1
 73
     0
 74
     0
  7

 75
     0
147
1.0
148
0.0
149
0.0
100
AcDbLayout
  1
Model
 70
     1
 71
     0
 10
0.0
 20
0.0
 11
4455.0
 21
3150.0
 12
0.0
 22
0.0
 32
0.0
 14
0.0
 24
0.0
 34
0.0
 15
4455.0
 25
3150.0
 35
0.0
146
0.0
 13
0.0
 23
0.0
 33
0.0
 16
1.0
 26
0.0
 36
0.0
 17
0.0
 27
1.0
 37
0.0
 76
     0
330
1F
331
29
  0
MLINESTYLE
  5
18
102
{ACAD_REACTORS
330
17
102
}
330
17
100
AcDbMlineStyle
  2
Standard
 70
     0
  3

 62
   256
 51
90.0
 52
90.0
 71
     2
 49
0.5
 62
   256
  6
BYLAYER
 49
-0.5
 62
   256
  6
BYLAYER
  0
ACDBPLACEHOLDER
  5
F
102
{ACAD_REACTORS
330
E
102
}
330
E
  0
SCALE
  5
48
102
{ACAD_REACTORS
330
47
102
}
330
47
100
AcDbScale
 70
     0
300
1:1
140
1.0
141
1.0
290
     1
  0
SCALE
  5
49
102
{ACAD_REACTORS
330
47
102
}
330
47
100
AcDbScale
 70
     0
300
1:2
140
1.0
141
2.0
290
     0
  0
SCALE
  5
4A
102
{ACAD_REACTORS
330
47
102
}
330
47
100
AcDbScale
 70
     0
300
1:4
140
1.0
141
4.0
290
     0
  0
SCALE
  5
4B
102
{ACAD_REACTORS
330
47
102
}
330
47
100
AcDbScale
 70
     0
300
1:5
140
1.0
141
5.0
290
     0
  0
SCALE
  5
4C
102
{ACAD_REACTORS
330
47
102
}
330
47
100
AcDbScale
 70
     0
300
1:8
140
1.0
141
8.0
290
     0
  0
SCALE
  5
4D
102
{ACAD_REACTORS
330
47
102
}
330
47
100
AcDbScale
 70
     0
300
1:10
140
1.0
141
10.0
290
     0
  0
SCALE
  5
4E
102
{ACAD_REACTORS
330
47
102
}
330
47
100
AcDbScale
 70
     0
300
1:16
140
1.0
141
16.0
290
     0
  0
SCALE
  5
4F
102
{ACAD_REACTORS
330
47
102
}
330
47
100
AcDbScale
 70
     0
300
1:20
140
1.0
141
20.0
290
     0
  0
SCALE
  5
50
102
{ACAD_REACTORS
330
47
102
}
330
47
100
AcDbScale
 70
     0
300
1:30
140
1.0
141
30.0
290
     0
  0
SCALE
  5
51
102
{ACAD_REACTORS
330
47
102
}
330
47
100
AcDbScale
 70
     0
300
1:40
140
1.0
141
40.0
290
     0
  0
SCALE
  5
52
102
{ACAD_REACTORS
330
47
102
}
330
47
100
AcDbScale
 70
     0
300
1:50
140
1.0
141
50.0
290
     0
  0
SCALE
  5
53
102
{ACAD_REACTORS
330
47
102
}
330
47
100
AcDbScale
 70
     0
300
1:100
140
1.0
141
100.0
290
     0
  0
SCALE
  5
54
102
{ACAD_REACTORS
330
47
102
}
330
47
100
AcDbScale
 70
     0
300
2:1
140
2.0
141
1.0
290
     0
  0
SCALE
  5
55
102
{ACAD_REACTORS
330
47
102
}
330
47
100
AcDbScale
 70
     0
300
4:1
140
4.0
141
1.0
290
     0
  0
SCALE
  5
56
102
{ACAD_REACTORS
330
47
102
}
330
47
100
AcDbScale
 70
     0
300
8:1
140
8.0
141
1.0
290
     0
  0
SCALE
  5
57
102
{ACAD_REACTORS
330
47
102
}
330
47
100
AcDbScale
 70
     0
300
10:1
140
10.0
141
1.0
290
     0
  0
SCALE
  5
58
102
{ACAD_REACTORS
330
47
102
}
330
47
100
AcDbScale
 70
     0
300
100:1
140
100.0
141
1.0
290
     0
  0
SCALE
  5
59
102
{ACAD_REACTORS
330
47
102
}
330
47
100
AcDbScale
 70
     0
300
1/128" = 1'-0"
140
0.0078125
141
12.0
290
     0
  0
SCALE
  5
5A
102
{ACAD_REACTORS
330
47
102
}
330
47
100
AcDbScale
 70
     0
300
1/64" = 1'-0"
140
0.015625
141
12.0
290
     0
  0
SCALE
  5
5B
102
{ACAD_REACTORS
330
47
102
}
330
47
100
AcDbScale
 70
     0
300
1/32" = 1'-0"
140
0.03125
141
12.0
290
     0
  0
SCALE
  5
5C
102
{ACAD_REACTORS
330
47
102
}
330
47
100
AcDbScale
 70
     0
300
1/16" = 1'-0"
140
0.0625
141
12.0
290
     0
  0
SCALE
  5
5D
102
{ACAD_REACTORS
330
47
102
}
330
47
100
AcDbScale
 70
     0
300
3/32" = 1'-0"
140
0.09375
141
12.0
290
     0
  0
SCALE
  5
5E
102
{ACAD_REACTORS
330
47
102
}
330
47
100
AcDbScale
 70
     0
300
1/8" = 1'-0"
140
0.125
141
12.0
290
     0
  0
SCALE
  5
5F
102
{ACAD_REACTORS
330
47
102
}
330
47
100
AcDbScale
 70
     0
300
3/16" = 1'-0"
140
0.1875
141
12.0
290
     0
  0
SCALE
  5
60
102
{ACAD_REACTORS
330
47
102
}
330
47
100
AcDbScale
 70
     0
300
1/4" = 1'-0"
140
0.25
141
12.0
290
     0
  0
SCALE
  5
61
102
{ACAD_REACTORS
330
47
102
}
330
47
100
AcDbScale
 70
     0
300
3/8" = 1'-0"
140
0.375
141
12.0
290
     0
  0
SCALE
  5
62
102
{ACAD_REACTORS
330
47
102
}
330
47
100
AcDbScale
 70
     0
300
1/2" = 1'-0"
140
0.5
141
12.0
290
     0
  0
SCALE
  5
63
102
{ACAD_REACTORS
330
47
102
}
330
47
100
AcDbScale
 70
     0
300
3/4" = 1'-0"
140
0.75
141
12.0
290
     0
  0
SCALE
  5
64
102
{ACAD_REACTORS
330
47
102
}
330
47
100
AcDbScale
 70
     0
300
1" = 1'-0"
140
1.0
141
12.0
290
     0
  0
SCALE
  5
65
102
{ACAD_REACTORS
330
47
102
}
330
47
100
AcDbScale
 70
     0
300
1-1/2" = 1'-0"
140
1.5
141
12.0
290
     0
  0
SCALE
  5
66
102
{ACAD_REACTORS
330
47
102
}
330
47
100
AcDbScale
 70
     0
300
3" = 1'-0"
140
3.0
141
12.0
290
     0
  0
SCALE
  5
67
102
{ACAD_REACTORS
330
47
102
}
330
47
100
AcDbScale
 70
     0
300
6" = 1'-0"
140
6.0
141
12.0
290
     0
  0
SCALE
  5
68
102
{ACAD_REACTORS
330
47
102
}
330
47
100
AcDbScale
 70
     0
300
1'-0" = 1'-0"
140
12.0
141
12.0
290
     0
  0
ENDSEC
  0
EOF
