  0
SECTION
  2
HEADER
  9
$ACADVER
  1
AC1015
  9
$ACADMAINTVER
 70
     6
  9
$DWGCODEPAGE
  3
ANSI_1252
  9
$INSBASE
 10
0.0
 20
0.0
 30
0.0
  9
$EXTMIN
 10
0.0
 20
0.0
 30
0.0
  9
$EXTMAX
 10
4455.0
 20
3150.0
 30
0.0
  9
$LIMMIN
 10
0.0
 20
0.0
  9
$LIMMAX
 10
4455.0
 20
3150.0
  9
$ORTHOMODE
 70
     0
  9
$REGENMODE
 70
     1
  9
$FILLMODE
 70
     1
  9
$QTEXTMODE
 70
     0
  9
$MIRRTEXT
 70
     1
  9
$LTSCALE
 40
15.0
  9
$ATTMODE
 70
     1
  9
$TEXTSIZE
 40
52.5
  9
$TRACEWID
 40
1.0
  9
$TEXTSTYLE
  7
Standard
  9
$CLAYER
  8
0
  9
$CELTYPE
  6
ByLayer
  9
$CECOLOR
 62
   256
  9
$CELTSCALE
 40
1.0
  9
$DISPSILH
 70
     0
  9
$DIMSCALE
 40
1.0
  9
$DIMASZ
 40
37.5
  9
$DIMEXO
 40
0.0
  9
$DIMDLI
 40
3.75
  9
$DIMRND
 40
0.0
  9
$DIMDLE
 40
0.0
  9
$DIMEXE
 40
15.0
  9
$DIMTP
 40
0.0
  9
$DIMTM
 40
0.0
  9
$DIMTXT
 40
45.0
  9
$DIMCEN
 40
2.5
  9
$DIMTSZ
 40
0.0
  9
$DIMTOL
 70
     0
  9
$DIMLIM
 70
     0
  9
$DIMTIH
 70
     1
  9
$DIMTOH
 70
     1
  9
$DIMSE1
 70
     0
  9
$DIMSE2
 70
     0
  9
$DIMTAD
 70
     1
  9
$DIMZIN
 70
     0
  9
$DIMBLK
  1

  9
$DIMASO
 70
     1
  9
$DIMSHO
 70
     1
  9
$DIMPOST
  1

  9
$DIMAPOST
  1

  9
$DIMALT
 70
     0
  9
$DIMALTD
 70
     3
  9
$DIMALTF
 40
0.0393700787
  9
$DIMLFAC
 40
1.0
  9
$DIMTOFL
 70
     1
  9
$DIMTVP
 40
0.0
  9
$DIMTIX
 70
     0
  9
$DIMSOXD
 70
     0
  9
$DIMSAH
 70
     0
  9
$DIMBLK1
  1

  9
$DIMBLK2
  1

  9
$DIMSTYLE
  2
ISO-25
  9
$DIMCLRD
 70
     0
  9
$DIMCLRE
 70
     0
  9
$DIMCLRT
 70
     0
  9
$DIMTFAC
 40
1.0
  9
$DIMGAP
 40
22.5
  9
$DIMJUST
 70
     0
  9
$DIMSD1
 70
     0
  9
$DIMSD2
 70
     0
  9
$DIMTOLJ
 70
     0
  9
$DIMTZIN
 70
     0
  9
$DIMALTZ
 70
     0
  9
$DIMALTTZ
 70
     0
  9
$DIMUPT
 70
     0
  9
$DIMDEC
 70
     1
  9
$DIMTDEC
 70
     1
  9
$DIMALTU
 70
     2
  9
$DIMALTTD
 70
     3
  9
$DIMTXSTY
  7
Standard
  9
$DIMAUNIT
 70
     0
  9
$DIMADEC
 70
     2
  9
$DIMALTRND
 40
0.0
  9
$DIMAZIN
 70
     0
  9
$DIMDSEP
 70
    44
  9
$DIMATFIT
 70
     3
  9
$DIMFRAC
 70
     0
  9
$DIMLDRBLK
  1

  9
$DIMLUNIT
 70
     2
  9
$DIMLWD
 70
    -2
  9
$DIMLWE
 70
    -2
  9
$DIMTMOVE
 70
     0
  9
$LUNITS
 70
     2
  9
$LUPREC
 70
     2
  9
$SKETCHINC
 40
1.0
  9
$FILLETRAD
 40
10.0
  9
$AUNITS
 70
     0
  9
$AUPREC
 70
     2
  9
$MENU
  1
.
  9
$ELEVATION
 40
0.0
  9
$PELEVATION
 40
0.0
  9
$THICKNESS
 40
0.0
  9
$LIMCHECK
 70
     0
  9
$CHAMFERA
 40
0.0
  9
$CHAMFERB
 40
0.0
  9
$CHAMFERC
 40
0.0
  9
$CHAMFERD
 40
0.0
  9
$SKPOLY
 70
     0
  9
$TDCREATE
 40
2459174.711402026
  9
$TDUCREATE
 40
2459174.669735359
  9
$TDUPDATE
 40
2459174.711402917
  9
$TDUUPDATE
 40
2459174.66973625
  9
$TDINDWG
 40
0.0000000116
  9
$TDUSRTIMER
 40
0.0000000116
  9
$USRTIMER
 70
     1
  9
$ANGBASE
 50
0.0
  9
$ANGDIR
 70
     0
  9
$PDMODE
 70
     0
  9
$PDSIZE
 40
-1.0
  9
$PLINEWID
 40
0.0
  9
$SPLFRAME
 70
     0
  9
$SPLINETYPE
 70
     6
  9
$SPLINESEGS
 70
     8
  9
$HANDSEED
  5
2B0
  9
$SURFTAB1
 70
     6
  9
$SURFTAB2
 70
     6
  9
$SURFTYPE
 70
     6
  9
$SURFU
 70
     6
  9
$SURFV
 70
     6
  9
$UCSBASE
  2

  9
$UCSNAME
  2

  9
$UCSORG
 10
0.0
 20
0.0
 30
0.0
  9
$UCSXDIR
 10
1.0
 20
0.0
 30
0.0
  9
$UCSYDIR
 10
0.0
 20
1.0
 30
0.0
  9
$UCSORTHOREF
  2

  9
$UCSORTHOVIEW
 70
     0
  9
$UCSORGTOP
 10
0.0
 20
0.0
 30
0.0
  9
$UCSORGBOTTOM
 10
0.0
 20
0.0
 30
0.0
  9
$UCSORGLEFT
 10
0.0
 20
0.0
 30
0.0
  9
$UCSORGRIGHT
 10
0.0
 20
0.0
 30
0.0
  9
$UCSORGFRONT
 10
0.0
 20
0.0
 30
0.0
  9
$UCSORGBACK
 10
0.0
 20
0.0
 30
0.0
  9
$PUCSBASE
  2

  9
$PUCSNAME
  2

  9
$PUCSORG
 10
0.0
 20
0.0
 30
0.0
  9
$PUCSXDIR
 10
1.0
 20
0.0
 30
0.0
  9
$PUCSYDIR
 10
0.0
 20
1.0
 30
0.0
  9
$PUCSORTHOREF
  2

  9
$PUCSORTHOVIEW
 70
     0
  9
$PUCSORGTOP
 10
0.0
 20
0.0
 30
0.0
  9
$PUCSORGBOTTOM
 10
0.0
 20
0.0
 30
0.0
  9
$PUCSORGLEFT
 10
0.0
 20
0.0
 30
0.0
  9
$PUCSORGRIGHT
 10
0.0
 20
0.0
 30
0.0
  9
$PUCSORGFRONT
 10
0.0
 20
0.0
 30
0.0
  9
$PUCSORGBACK
 10
0.0
 20
0.0
 30
0.0
  9
$USERI1
 70
     0
  9
$USERI2
 70
     0
  9
$USERI3
 70
     0
  9
$USERI4
 70
     0
  9
$USERI5
 70
     0
  9
$USERR1
 40
0.0
  9
$USERR2
 40
0.0
  9
$USERR3
 40
0.0
  9
$USERR4
 40
0.0
  9
$USERR5
 40
0.0
  9
$WORLDVIEW
 70
     1
  9
$SHADEDGE
 70
     3
  9
$SHADEDIF
 70
    70
  9
$TILEMODE
 70
     1
  9
$MAXACTVP
 70
    64
  9
$PINSBASE
 10
0.0
 20
0.0
 30
0.0
  9
$PLIMCHECK
 70
     0
  9
$PEXTMIN
 10
1.0000000000E+20
 20
1.0000000000E+20
 30
1.0000000000E+20
  9
$PEXTMAX
 10
-1.0000000000E+20
 20
-1.0000000000E+20
 30
-1.0000000000E+20
  9
$PLIMMIN
 10
0.0
 20
0.0
  9
$PLIMMAX
 10
420.0
 20
297.0
  9
$UNITMODE
 70
     0
  9
$VISRETAIN
 70
     1
  9
$PLINEGEN
 70
     0
  9
$PSLTSCALE
 70
     1
  9
$TREEDEPTH
 70
  3020
  9
$CMLSTYLE
  2
Standard
  9
$CMLJUST
 70
     0
  9
$CMLSCALE
 40
20.0
  9
$PROXYGRAPHICS
 70
     1
  9
$MEASUREMENT
 70
     1
  9
$CELWEIGHT
370
    -1
  9
$ENDCAPS
280
     0
  9
$JOINSTYLE
280
     0
  9
$LWDISPLAY
290
     1
  9
$INSUNITS
 70
     4
  9
$HYPERLINKBASE
  1

  9
$STYLESHEET
  1

  9
$XEDIT
290
     1
  9
$CEPSNTYPE
380
     0
  9
$PSTYLEMODE
290
     1
  9
$FINGERPRINTGUID
  2
{c1af01c8-6791-42cd-a403-cb147f39acb2}
  9
$VERSIONGUID
  2
{FAEB1C32-E019-11D5-929B-00C0DF256EC4}
  9
$EXTNAMES
290
     1
  9
$PSVPSCALE
 40
0.0
  9
$OLESTARTUP
290
     0
  0
ENDSEC
  0
SECTION
  2
CLASSES
  0
CLASS
  1
ACDBDICTIONARYWDFLT
  2
AcDbDictionaryWithDefault
  3
ObjectDBX Classes
 90
        0
280
     0
281
     0
  0
CLASS
  1
VISUALSTYLE
  2
AcDbVisualStyle
  3
ObjectDBX Classes
 90
     4095
280
     0
281
     0
  0
CLASS
  1
MATERIAL
  2
AcDbMaterial
  3
ObjectDBX Classes
 90
     1153
280
     0
281
     0
  0
CLASS
  1
SCALE
  2
AcDbScale
  3
ObjectDBX Classes
 90
     1153
280
     0
281
     0
  0
CLASS
  1
TABLESTYLE
  2
AcDbTableStyle
  3
ObjectDBX Classes
 90
     4095
280
     0
281
     0
  0
CLASS
  1
MLEADERSTYLE
  2
AcDbMLeaderStyle
  3
ACDB_MLEADERSTYLE_CLASS
 90
     4095
280
     0
281
     0
  0
CLASS
  1
SUN
  2
AcDbSun
  3
SCENEOE
 90
     1153
280
     0
281
     0
  0
CLASS
  1
ACDBPLACEHOLDER
  2
AcDbPlaceHolder
  3
ObjectDBX Classes
 90
        0
280
     0
281
     0
  0
CLASS
  1
LAYOUT
  2
AcDbLayout
  3
ObjectDBX Classes
 90
        0
280
     0
281
     0
  0
ENDSEC
  0
SECTION
  2
TABLES
  0
TABLE
  2
VPORT
  5
8
330
0
100
AcDbSymbolTable
 70
     1
  0
VPORT
  5
29
330
8
100
AcDbSymbolTableRecord
100
AcDbViewportTableRecord
  2
*Active
 70
     0
 10
0.0
 20
0.0
 11
1.0
 21
1.0
 12
2227.5
 22
1575.0
 13
0.0
 23
0.0
 14
10.0
 24
10.0
 15
10.0
 25
10.0
 16
0.0
 26
0.0
 36
1.0
 17
0.0
 27
0.0
 37
0.0
 40
3150.0
 41
1.4142857143
 42
50.0
 43
0.0
 44
0.0
 50
0.0
 51
0.0
 71
     0
 72
  2000
 73
     1
 74
     3
 75
     0
 76
     0
 77
     0
 78
     0
281
     0
 65
     1
110
0.0
120
0.0
130
0.0
111
1.0
121
0.0
131
0.0
112
0.0
122
1.0
132
0.0
 79
     0
146
0.0
  0
ENDTAB
  0
TABLE
  2
LTYPE
  5
5
330
0
100
AcDbSymbolTable
 70
     6
  0
LTYPE
  5
14
330
5
100
AcDbSymbolTableRecord
100
AcDbLinetypeTableRecord
  2
ByBlock
 70
     0
  3

 72
    65
 73
     0
 40
0.0
  0
LTYPE
  5
15
330
5
100
AcDbSymbolTableRecord
100
AcDbLinetypeTableRecord
  2
ByLayer
 70
     0
  3

 72
    65
 73
     0
 40
0.0
  0
LTYPE
  5
16
330
5
100
AcDbSymbolTableRecord
100
AcDbLinetypeTableRecord
  2
Continuous
 70
     0
  3
Solid line
 72
    65
 73
     0
 40
0.0
  0
LTYPE
  5
6E
330
5
100
AcDbSymbolTableRecord
100
AcDbLinetypeTableRecord
  2
HIDDEN
 70
     0
  3
Hidden __ __ __ __ __ __ __ __ __ __ __ __ __ __
 72
    65
 73
     2
 40
1.905
 49
1.27
 74
     0
 49
-0.635
 74
     0
  0
LTYPE
  5
6F
330
5
100
AcDbSymbolTableRecord
100
AcDbLinetypeTableRecord
  2
PHANTOM
 70
     0
  3
Phantom ______  __  __  ______  __  __  ______
 72
    65
 73
     6
 40
12.7
 49
6.35
 74
     0
 49
-1.27
 74
     0
 49
1.27
 74
     0
 49
-1.27
 74
     0
 49
1.27
 74
     0
 49
-1.27
 74
     0
  0
LTYPE
  5
70
330
5
100
AcDbSymbolTableRecord
100
AcDbLinetypeTableRecord
  2
CENTER
 70
     0
  3
Center ____ _ ____ _ ____ _ ____ _ ____ _ ____
 72
    65
 73
     4
 40
10.16
 49
6.35
 74
     0
 49
-1.27
 74
     0
 49
1.27
 74
     0
 49
-1.27
 74
     0
  0
LTYPE
  5
71
330
5
100
AcDbSymbolTableRecord
100
AcDbLinetypeTableRecord
  2
CENTERX2
 70
     0
  3
Center (2x) ________  __  ________  __  _____
 72
    65
 73
     4
 40
20.32
 49
12.7
 74
     0
 49
-2.54
 74
     0
 49
2.54
 74
     0
 49
-2.54
 74
     0
  0
LTYPE
  5
72
330
5
100
AcDbSymbolTableRecord
100
AcDbLinetypeTableRecord
  2
DOT2
 70
     0
  3
Dot (.5x) ........................................
 72
    65
 73
     2
 40
0.635
 49
0.0
 74
     0
 49
-0.635
 74
     0
  0
ENDTAB
  0
TABLE
  2
LAYER
  5
2
330
0
100
AcDbSymbolTable
 70
     2
  0
LAYER
  5
10
330
2
100
AcDbSymbolTableRecord
100
AcDbLayerTableRecord
  2
0
 70
     0
 62
     7
  6
Continuous
370
    -3
390
F
  0
LAYER
  5
73
330
2
100
AcDbSymbolTableRecord
100
AcDbLayerTableRecord
  2
FORMAT
 70
     0
 62
     7
  6
Continuous
370
    -3
390
F
  0
ENDTAB
  0
TABLE
  2
STYLE
  5
3
330
0
100
AcDbSymbolTable
 70
     2
  0
STYLE
  5
11
330
3
100
AcDbSymbolTableRecord
100
AcDbTextStyleTableRecord
  2
Standard
 70
     0
 40
0.0
 41
1.0
 50
0.0
 71
     0
 42
52.5
  3
txt
  4

  0
STYLE
  5
E7
330
3
100
AcDbSymbolTableRecord
100
AcDbTextStyleTableRecord
  2
SLDTEXTSTYLE0
 70
     0
 40
0.0
 41
0.605
 50
0.0
 71
     0
 42
52.5
  3
TXT
  4

  0
ENDTAB
  0
TABLE
  2
VIEW
  5
6
330
0
100
AcDbSymbolTable
 70
     0
  0
ENDTAB
  0
TABLE
  2
UCS
  5
7
330
0
100
AcDbSymbolTable
 70
     0
  0
ENDTAB
  0
TABLE
  2
APPID
  5
9
330
0
100
AcDbSymbolTable
 70
     1
  0
APPID
  5
12
330
9
100
AcDbSymbolTableRecord
100
AcDbRegAppTableRecord
  2
ACAD
 70
     0
  0
ENDTAB
  0
TABLE
  2
DIMSTYLE
  5
A
330
0
100
AcDbSymbolTable
 70
     1
100
AcDbDimStyleTable
  0
DIMSTYLE
105
27
330
A
100
AcDbSymbolTableRecord
100
AcDbDimStyleTableRecord
  2
ISO-25
 70
     0
 41
2.5
 42
0.625
 43
3.75
 44
1.25
 73
     0
 74
     0
 77
     1
 78
     8
140
2.5
141
2.5
143
0.0393700787
147
0.625
171
     3
172
     1
178
     0
271
     2
272
     2
274
     3
278
    44
283
     0
284
     8
340
11
  0
ENDTAB
  0
TABLE
  2
BLOCK_RECORD
  5
1
330
0
100
AcDbSymbolTable
 70
     2
  0
BLOCK_RECORD
  5
1F
330
1
100
AcDbSymbolTableRecord
100
AcDbBlockTableRecord
  2
*Model_Space
340
22
  0
BLOCK_RECORD
  5
1B
330
1
100
AcDbSymbolTableRecord
100
AcDbBlockTableRecord
  2
*Paper_Space
340
1E
  0
BLOCK_RECORD
  5
23
330
1
100
AcDbSymbolTableRecord
100
AcDbBlockTableRecord
  2
*Paper_Space0
340
26
  0
BLOCK_RECORD
  5
EE
330
1
100
AcDbSymbolTableRecord
100
AcDbBlockTableRecord
  2
SW_NOTE_0
340
0
102
{BLKREFS
331
F3
102
}
  0
ENDTAB
  0
ENDSEC
  0
SECTION
  2
BLOCKS
  0
BLOCK
  5
20
330
1F
100
AcDbEntity
  8
0
100
AcDbBlockBegin
  2
*Model_Space
 70
     0
 10
0.0
 20
0.0
 30
0.0
  3
*Model_Space
  1

  0
ENDBLK
  5
21
330
1F
100
AcDbEntity
  8
0
100
AcDbBlockEnd
  0
BLOCK
  5
1C
330
1B
100
AcDbEntity
 67
     1
  8
0
100
AcDbBlockBegin
  2
*Paper_Space
 70
     0
 10
0.0
 20
0.0
 30
0.0
  3
*Paper_Space
  1

  0
ENDBLK
  5
1D
330
1B
100
AcDbEntity
 67
     1
  8
0
100
AcDbBlockEnd
  0
BLOCK
  5
24
330
23
100
AcDbEntity
  8
0
100
AcDbBlockBegin
  2
*Paper_Space0
 70
     0
 10
0.0
 20
0.0
 30
0.0
  3
*Paper_Space0
  1

  0
ENDBLK
  5
25
330
23
100
AcDbEntity
  8
0
100
AcDbBlockEnd
  0
BLOCK
  5
EF
330
EE
100
AcDbEntity
  8
0
100
AcDbBlockBegin
  2
SW_NOTE_0
 70
     0
 10
0.0
 20
0.0
 30
0.0
  3
SW_NOTE_0
  1

  0
MTEXT
  5
F1
330
EE
100
AcDbEntity
  8
0
  6
Continuous
 62
     0
370
     0
100
AcDbMText
 10
49.359375
 20
34.8048289738
 30
0.0
 40
27.0
 41
0.0
 71
     2
 72
     1
  1
SCALA
  7
SLDTEXTSTYLE0
 73
     1
 44
1.0
  0
MTEXT
  5
F2
330
EE
100
AcDbEntity
  8
0
  6
Continuous
 62
     0
370
     0
100
AcDbMText
 10
53.4147810657
 20
-2.4595061469
 30
0.0
 40
55.5625
 41
0.0
 71
     2
 72
     1
  1
1:1
  7
SLDTEXTSTYLE0
 73
     1
 44
1.0
  0
ENDBLK
  5
F0
330
EE
100
AcDbEntity
  8
0
100
AcDbBlockEnd
  0
ENDSEC
  0
SECTION
  2
ENTITIES
  0
HATCH
  5
74
330
1F
100
AcDbEntity
  8
0
  6
Continuous
 62
     7
100
AcDbHatch
 10
0.0
 20
0.0
 30
0.0
210
0.0
220
0.0
230
1.0
  2
SOLID
 70
     1
 71
     0
 91
        2
 92
        0
 93
        6
 72
     1
 10
3510.364839630325
 20
478.9717232620642
 11
3534.971866308667
 21
478.9717232620642
 72
     3
 10
3526.618147735648
 20
497.9339160554321
 11
40.63327027197528
 21
0.0
 40
0.4768529109443385
 50
293.775699558261
 51
426.2243004403767
 73
     1
 72
     1
 10
3534.971866309184
 20
516.8961088487492
 11
3485.984877466922
 21
516.8961088487492
 72
     1
 10
3485.984877466922
 20
516.8961088487492
 11
3485.984877466922
 21
457.3006457872621
 72
     1
 10
3485.984877466922
 20
457.3006457872621
 11
3510.364839630325
 21
457.3006457872621
 72
     1
 10
3510.364839630325
 20
457.3006457872621
 11
3510.364839630325
 21
478.9717232620642
 97
        0
 92
        0
 93
        6
 72
     3
 10
3525.263705395451
 20
497.9339160554321
 11
14.89886576646227
 21
0.0
 40
0.5895245510672578
 50
316.3365658560249
 51
403.6634341442267
 73
     0
 72
     2
 10
3529.385821470631
 20
500.6428007400895
 40
10.83553873881616
 50
69.99121011132848
 51
90.0
 73
     0
 72
     1
 10
3529.385821470631
 20
489.8072620012733
 11
3510.364839629721
 21
489.8072620012733
 72
     1
 10
3510.364839629721
 20
489.8072620012733
 11
3510.364839629721
 21
506.060570109435
 72
     1
 10
3510.364839629721
 20
506.060570109435
 11
3529.385821471518
 21
506.060570109435
 72
     2
 10
3529.385821471518
 20
495.2250313732109
 40
10.83553873622417
 50
270.0000000000008
 51
290.0087898889544
 73
     0
 97
        0
 75
     0
 76
     1
 98
        1
 10
0.0
 20
0.0
  0
HATCH
  5
75
330
1F
100
AcDbEntity
  8
0
  6
Continuous
 62
     7
100
AcDbHatch
 10
0.0
 20
0.0
 30
0.0
210
0.0
220
0.0
230
1.0
  2
SOLID
 70
     1
 71
     0
 91
        1
 92
        0
 93
       12
 72
     1
 10
3653.935727922185
 20
516.89610884631
 11
3572.669187380694
 21
516.89610884631
 72
     1
 10
3572.669187380694
 20
516.89610884631
 11
3572.669187380694
 21
457.300645784823
 72
     1
 10
3572.669187380694
 20
457.300645784823
 11
3653.935727922185
 21
457.300645784823
 72
     1
 10
3653.935727922185
 20
457.300645784823
 11
3653.935727922185
 21
468.136184519505
 72
     1
 10
3653.935727922185
 20
468.136184519505
 11
3599.758034227767
 21
468.136184519505
 72
     1
 10
3599.758034227767
 20
468.136184519505
 11
3599.758034227767
 21
481.6806079430411
 72
     1
 10
3599.758034227767
 20
481.6806079430411
 11
3648.517958554844
 21
481.6806079430411
 72
     1
 10
3648.517958554844
 20
481.6806079430411
 11
3648.517958554844
 21
492.5161466829075
 72
     1
 10
3648.517958554844
 20
492.5161466829075
 11
3599.758034227767
 21
492.5161466829075
 72
     1
 10
3599.758034227767
 20
492.5161466829075
 11
3599.758034227767
 21
506.0605701064436
 72
     1
 10
3599.758034227767
 20
506.0605701064436
 11
3653.935727922185
 21
506.0605701064436
 72
     1
 10
3653.935727922185
 20
506.0605701064436
 11
3653.935727922185
 21
516.89610884631
 97
        0
 75
     0
 76
     1
 98
        1
 10
0.0
 20
0.0
  0
HATCH
  5
76
330
1F
100
AcDbEntity
  8
0
  6
Continuous
 62
     7
100
AcDbHatch
 10
0.0
 20
0.0
 30
0.0
210
0.0
220
0.0
230
1.0
  2
SOLID
 70
     1
 71
     0
 91
        1
 92
        0
 93
        6
 72
     1
 10
3968.166351360068
 20
516.896108849379
 11
3941.077504512995
 21
516.896108849379
 72
     1
 10
3941.077504512995
 20
516.896108849379
 11
3941.077504512995
 21
457.3006457878918
 72
     1
 10
3941.077504512995
 20
457.3006457878918
 11
4014.217391003474
 21
457.3006457878918
 72
     1
 10
4014.217391003474
 20
457.3006457878918
 11
4014.217391003474
 21
470.8450692114284
 72
     1
 10
4014.217391003474
 20
470.8450692114284
 11
3968.166351360068
 21
470.8450692114284
 72
     1
 10
3968.166351360068
 20
470.8450692114284
 11
3968.166351360068
 21
516.896108849379
 97
        0
 75
     0
 76
     1
 98
        1
 10
0.0
 20
0.0
  0
HATCH
  5
77
330
1F
100
AcDbEntity
  8
0
  6
Continuous
 62
     7
100
AcDbHatch
 10
0.0
 20
0.0
 30
0.0
210
0.0
220
0.0
230
1.0
  2
SOLID
 70
     1
 71
     0
 91
        1
 92
        0
 93
        4
 72
     1
 10
4016.926275686005
 20
516.8961088487489
 11
4016.926275686005
 21
457.3006457872619
 72
     1
 10
4016.926275686005
 20
457.3006457872619
 11
4044.015122533078
 21
457.3006457872619
 72
     1
 10
4044.015122533078
 20
457.3006457872619
 11
4044.015122533078
 21
516.8961088487489
 72
     1
 10
4044.015122533078
 20
516.8961088487489
 11
4016.926275686005
 21
516.8961088487489
 97
        0
 75
     0
 76
     1
 98
        1
 10
0.0
 20
0.0
  0
HATCH
  5
78
330
1F
100
AcDbEntity
  8
0
  6
Continuous
 62
     7
100
AcDbHatch
 10
0.0
 20
0.0
 30
0.0
210
0.0
220
0.0
230
1.0
  2
SOLID
 70
     1
 71
     0
 91
        2
 92
        0
 93
        4
 72
     3
 10
3702.695652247627
 20
487.0983773139296
 11
43.3421549567338
 21
0.0
 40
0.6929224243374511
 50
280.2934314618138
 51
439.7065685387132
 73
     1
 72
     1
 10
3708.107289002345
 20
516.8961088463723
 11
3659.353497294997
 21
516.896108846372
 72
     1
 10
3659.353497294997
 20
516.896108846372
 11
3659.353497294997
 21
457.3006457815111
 72
     1
 10
3659.353497294997
 20
457.3006457815111
 11
3708.107289002623
 21
457.3006457815111
 97
        0
 92
        0
 93
        6
 72
     2
 10
3709.420759151997
 20
487.0983773132712
 40
16.25330810997023
 50
56.16906508602241
 51
90.0
 73
     0
 72
     1
 10
3709.420759151997
 20
470.8450692033011
 11
3683.73345945474
 21
470.8450692033011
 72
     1
 10
3683.73345945474
 20
470.8450692033011
 11
3683.73345945474
 21
503.3516854240493
 72
     1
 10
3683.73345945474
 20
503.3516854240493
 11
3709.420759151997
 21
503.3516854240493
 72
     2
 10
3709.420759151997
 20
487.0983773132712
 40
16.25330811077806
 50
270.0000000000008
 51
303.8314447476084
 73
     0
 72
     3
 10
3693.214555856416
 20
487.0983773139296
 11
33.86105856006918
 21
0.0
 40
0.5985848325441406
 50
331.8713554011804
 51
388.1288999924611
 73
     0
 97
        0
 75
     0
 76
     1
 98
        1
 10
0.0
 20
0.0
  0
HATCH
  5
79
330
1F
100
AcDbEntity
  8
0
  6
Continuous
 62
     7
100
AcDbHatch
 10
0.0
 20
0.0
 30
0.0
210
0.0
220
0.0
230
1.0
  2
SOLID
 70
     1
 71
     0
 91
        3
 92
        0
 93
       19
 72
     1
 10
3838.305303288919
 20
472.1564369380282
 11
3840.533301976077
 21
463.4514816274054
 72
     2
 10
3848.180349956368
 20
465.1715759510745
 40
7.838116310390116
 50
192.676878510139
 51
204.7368873206727
 73
     1
 72
     1
 10
3841.061467316795
 20
461.891701371279
 11
3876.06427207871
 21
516.896108849379
 72
     1
 10
3876.06427207871
 20
516.896108849379
 11
3903.153118925783
 21
516.896108849379
 72
     1
 10
3903.153118925783
 20
516.896108849379
 11
3941.077504512995
 21
457.3006457878918
 72
     1
 10
3941.077504512995
 20
457.3006457878918
 11
3913.988657665649
 21
457.3006457878918
 72
     1
 10
3913.988657665649
 20
457.3006457878918
 11
3907.893667124934
 21
468.136184522574
 72
     1
 10
3907.893667124934
 20
468.136184522574
 11
3871.323723879558
 21
468.136184522574
 72
     1
 10
3871.323723879558
 20
468.136184522574
 11
3865.228733338844
 21
457.3006457878918
 72
     1
 10
3865.228733338844
 20
457.3006457878918
 11
3819.177693694659
 21
457.3006457878918
 72
     1
 10
3819.177693694659
 20
457.3006457878918
 11
3819.177693694659
 21
468.1361845239816
 72
     2
 10
3808.342154954792
 20
468.1361845239816
 40
10.83553873986634
 50
0.0
 51
90.0
 73
     1
 72
     1
 10
3808.342154954792
 20
478.9717232638475
 11
3781.253308107446
 21
478.9717232638475
 72
     1
 10
3781.253308107446
 20
478.9717232638475
 11
3781.253308107446
 21
457.3006457892997
 72
     1
 10
3781.253308107446
 20
457.3006457892997
 11
3756.873345944045
 21
457.3006457892997
 72
     1
 10
3756.873345944045
 20
457.3006457892997
 11
3756.873345944045
 21
516.8961088507866
 72
     1
 10
3756.873345944045
 20
516.8961088507866
 11
3813.02888745868
 21
516.8961088507866
 72
     3
 10
3807.044921560378
 20
499.4046031234453
 11
36.48999933802743
 21
0.0
 40
0.4859291160023138
 50
288.8861745463018
 51
398.6942257036358
 73
     0
 72
     2
 10
3823.556377394376
 20
469.4441941062505
 40
14.99623540163429
 50
279.2678272406091
 51
349.5800515720783
 73
     0
 97
        0
 92
        0
 93
        3
 72
     1
 10
3889.608695501106
 20
500.6428007391028
 11
3877.418714419404
 21
478.9717232593709
 72
     1
 10
3877.418714419404
 20
478.9717232593709
 11
3901.798676582808
 21
478.9717232593709
 72
     1
 10
3901.798676582808
 20
478.9717232593709
 11
3889.608695501106
 21
500.6428007391028
 97
        0
 92
        0
 93
        6
 72
     2
 10
3807.717258628007
 20
497.933916056143
 40
8.126654055321543
 50
270.0000000000008
 51
305.5869104965617
 73
     1
 72
     3
 10
3798.861058561583
 20
497.9339160554321
 11
17.6077504512262
 21
0.0
 40
0.5900077182209744
 50
334.0585416903787
 51
385.9414583083991
 73
     1
 72
     2
 10
3807.717258628007
 20
497.933916056143
 40
8.126654054164838
 50
54.41308949502037
 51
90.0
 73
     1
 72
     1
 10
3807.717258628007
 20
506.0605701103083
 11
3781.253308106577
 21
506.0605701103083
 72
     1
 10
3781.253308106577
 20
506.0605701103083
 11
3781.253308106577
 21
489.807262000821
 72
     1
 10
3781.253308106577
 20
489.807262000821
 11
3807.717258628007
 21
489.8072620008215
 97
        0
 75
     0
 76
     1
 98
        1
 10
0.0
 20
0.0
  0
LINE
  5
7A
330
1F
100
AcDbEntity
  8
0
  6
Continuous
 62
     7
370
    25
100
AcDbLine
 10
4305.0
 20
150.0
 30
0.0
 11
4305.0
 21
3000.0
 31
0.0
  0
LINE
  5
7B
330
1F
100
AcDbEntity
  8
0
  6
Continuous
 62
   179
370
    18
100
AcDbLine
 10
3485.9848774669
 20
516.8961088487
 30
0.0
 11
3485.9848774669
 21
457.3006457873
 31
0.0
  0
LINE
  5
7C
330
1F
100
AcDbEntity
  8
0
  6
Continuous
 62
   179
370
    18
100
AcDbLine
 10
3485.9848774669
 20
516.8961088487
 30
0.0
 11
3534.9718663092
 21
516.8961088487
 31
0.0
  0
LINE
  5
7D
330
1F
100
AcDbEntity
  8
0
  6
Continuous
 62
   179
370
    18
100
AcDbLine
 10
3485.9848774669
 20
457.3006457873
 30
0.0
 11
3510.3648396303
 21
457.3006457873
 31
0.0
  0
LINE
  5
7E
330
1F
100
AcDbEntity
  8
0
  6
Continuous
 62
   179
370
    18
100
AcDbLine
 10
3510.3648396303
 20
457.3006457873
 30
0.0
 11
3510.3648396303
 21
478.9717232621
 31
0.0
  0
LINE
  5
7F
330
1F
100
AcDbEntity
  8
0
  6
Continuous
 62
   179
370
    18
100
AcDbLine
 10
3534.9718663087
 20
478.9717232621
 30
0.0
 11
3510.3648396303
 21
478.9717232621
 31
0.0
  0
LINE
  5
80
330
1F
100
AcDbEntity
  8
0
  6
Continuous
 62
   179
370
    18
100
AcDbLine
 10
3510.3648396297
 20
489.8072620013
 30
0.0
 11
3510.3648396297
 21
506.0605701094
 31
0.0
  0
LINE
  5
81
330
1F
100
AcDbEntity
  8
0
  6
Continuous
 62
   179
370
    18
100
AcDbLine
 10
3510.3648396297
 20
506.0605701094
 30
0.0
 11
3529.3858214715
 21
506.0605701094
 31
0.0
  0
LINE
  5
82
330
1F
100
AcDbEntity
  8
0
  6
Continuous
 62
   179
370
    18
100
AcDbLine
 10
3510.3648396297
 20
489.8072620013
 30
0.0
 11
3529.3858214706
 21
489.8072620013
 31
0.0
  0
LINE
  5
83
330
1F
100
AcDbEntity
  8
0
  6
Continuous
 62
   179
370
    18
100
AcDbLine
 10
3572.6691873807
 20
516.8961088463
 30
0.0
 11
3653.9357279222
 21
516.8961088463
 31
0.0
  0
LINE
  5
84
330
1F
100
AcDbEntity
  8
0
  6
Continuous
 62
   179
370
    18
100
AcDbLine
 10
3653.9357279222
 20
516.8961088463
 30
0.0
 11
3653.9357279222
 21
506.0605701064
 31
0.0
  0
LINE
  5
85
330
1F
100
AcDbEntity
  8
0
  6
Continuous
 62
   179
370
    18
100
AcDbLine
 10
3653.9357279222
 20
506.0605701064
 30
0.0
 11
3599.7580342278
 21
506.0605701064
 31
0.0
  0
LINE
  5
86
330
1F
100
AcDbEntity
  8
0
  6
Continuous
 62
   179
370
    18
100
AcDbLine
 10
3599.7580342278
 20
506.0605701064
 30
0.0
 11
3599.7580342278
 21
492.5161466829
 31
0.0
  0
LINE
  5
87
330
1F
100
AcDbEntity
  8
0
  6
Continuous
 62
   179
370
    18
100
AcDbLine
 10
3599.7580342278
 20
492.5161466829
 30
0.0
 11
3648.5179585548
 21
492.5161466829
 31
0.0
  0
LINE
  5
88
330
1F
100
AcDbEntity
  8
0
  6
Continuous
 62
   179
370
    18
100
AcDbLine
 10
3648.5179585548
 20
492.5161466829
 30
0.0
 11
3648.5179585548
 21
481.680607943
 31
0.0
  0
LINE
  5
89
330
1F
100
AcDbEntity
  8
0
  6
Continuous
 62
   179
370
    18
100
AcDbLine
 10
3648.5179585548
 20
481.680607943
 30
0.0
 11
3599.7580342278
 21
481.680607943
 31
0.0
  0
LINE
  5
8A
330
1F
100
AcDbEntity
  8
0
  6
Continuous
 62
   179
370
    18
100
AcDbLine
 10
3599.7580342278
 20
481.680607943
 30
0.0
 11
3599.7580342278
 21
468.1361845195
 31
0.0
  0
LINE
  5
8B
330
1F
100
AcDbEntity
  8
0
  6
Continuous
 62
   179
370
    18
100
AcDbLine
 10
3599.7580342278
 20
468.1361845195
 30
0.0
 11
3653.9357279222
 21
468.1361845195
 31
0.0
  0
LINE
  5
8C
330
1F
100
AcDbEntity
  8
0
  6
Continuous
 62
   179
370
    18
100
AcDbLine
 10
3653.9357279222
 20
468.1361845195
 30
0.0
 11
3653.9357279222
 21
457.3006457848
 31
0.0
  0
LINE
  5
8D
330
1F
100
AcDbEntity
  8
0
  6
Continuous
 62
   179
370
    18
100
AcDbLine
 10
3653.9357279222
 20
457.3006457848
 30
0.0
 11
3572.6691873807
 21
457.3006457848
 31
0.0
  0
LINE
  5
8E
330
1F
100
AcDbEntity
  8
0
  6
Continuous
 62
   179
370
    18
100
AcDbLine
 10
3659.353497295
 20
516.8961088464
 30
0.0
 11
3659.353497295
 21
457.3006457815
 31
0.0
  0
LINE
  5
8F
330
1F
100
AcDbEntity
  8
0
  6
Continuous
 62
   179
370
    18
100
AcDbLine
 10
3659.353497295
 20
516.8961088464
 30
0.0
 11
3708.1072890023
 21
516.8961088464
 31
0.0
  0
LINE
  5
90
330
1F
100
AcDbEntity
  8
0
  6
Continuous
 62
   179
370
    18
100
AcDbLine
 10
3708.1072890026
 20
457.3006457815
 30
0.0
 11
3659.353497295
 21
457.3006457815
 31
0.0
  0
LINE
  5
91
330
1F
100
AcDbEntity
  8
0
  6
Continuous
 62
   179
370
    18
100
AcDbLine
 10
3683.7334594547
 20
487.0983773105
 30
0.0
 11
3683.7334594547
 21
470.8450692033
 31
0.0
  0
LINE
  5
92
330
1F
100
AcDbEntity
  8
0
  6
Continuous
 62
   179
370
    18
100
AcDbLine
 10
3683.7334594547
 20
470.8450692033
 30
0.0
 11
3709.420759152
 21
470.8450692033
 31
0.0
  0
LINE
  5
93
330
1F
100
AcDbEntity
  8
0
  6
Continuous
 62
   179
370
    18
100
AcDbLine
 10
3683.7334594547
 20
487.0983773105
 30
0.0
 11
3683.7334594547
 21
503.351685424
 31
0.0
  0
LINE
  5
94
330
1F
100
AcDbEntity
  8
0
  6
Continuous
 62
   179
370
    18
100
AcDbLine
 10
3683.7334594547
 20
503.351685424
 30
0.0
 11
3709.420759152
 21
503.351685424
 31
0.0
  0
LINE
  5
95
330
1F
100
AcDbEntity
  8
0
  6
Continuous
 62
   179
370
    18
100
AcDbLine
 10
3756.873345944
 20
516.8961088508
 30
0.0
 11
3756.873345944
 21
457.3006457893
 31
0.0
  0
LINE
  5
96
330
1F
100
AcDbEntity
  8
0
  6
Continuous
 62
     7
370
    18
100
AcDbLine
 10
4093.1984921262
 20
420.0000000006
 30
0.0
 11
4093.1984921262
 21
285.0000000003
 31
0.0
  0
LINE
  5
97
330
1F
100
AcDbEntity
  8
0
  6
Continuous
 62
   179
370
    18
100
AcDbLine
 10
3756.873345944
 20
457.3006457893
 30
0.0
 11
3781.2533081074
 21
457.3006457893
 31
0.0
  0
LINE
  5
98
330
1F
100
AcDbEntity
  8
0
  6
Continuous
 62
   179
370
    18
100
AcDbLine
 10
3781.2533081074
 20
457.3006457893
 30
0.0
 11
3781.2533081074
 21
478.9717232638
 31
0.0
  0
LINE
  5
99
330
1F
100
AcDbEntity
  8
0
  6
Continuous
 62
   179
370
    18
100
AcDbLine
 10
3781.2533081074
 20
478.9717232638
 30
0.0
 11
3808.3421549548
 21
478.9717232638
 31
0.0
  0
LINE
  5
9A
330
1F
100
AcDbEntity
  8
0
  6
Continuous
 62
   179
370
    18
100
AcDbLine
 10
3819.1776936947
 20
468.136184524
 30
0.0
 11
3819.1776936947
 21
457.3006457879
 31
0.0
  0
LINE
  5
9B
330
1F
100
AcDbEntity
  8
0
  6
Continuous
 62
   179
370
    18
100
AcDbLine
 10
3781.2533081066
 20
489.8072620008
 30
0.0
 11
3781.2533081066
 21
506.0605701103
 31
0.0
  0
LINE
  5
9C
330
1F
100
AcDbEntity
  8
0
  6
Continuous
 62
   179
370
    18
100
AcDbLine
 10
3781.2533081066
 20
506.0605701103
 30
0.0
 11
3807.717258628
 21
506.0605701103
 31
0.0
  0
LINE
  5
9D
330
1F
100
AcDbEntity
  8
0
  6
Continuous
 62
   179
370
    18
100
AcDbLine
 10
3781.2533081066
 20
489.8072620008
 30
0.0
 11
3807.717258628
 21
489.8072620008
 31
0.0
  0
LINE
  5
9E
330
1F
100
AcDbEntity
  8
0
  6
Continuous
 62
   179
370
    18
100
AcDbLine
 10
3838.3053032889
 20
472.156436938
 30
0.0
 11
3840.5333019761
 21
463.4514816274
 31
0.0
  0
LINE
  5
9F
330
1F
100
AcDbEntity
  8
0
  6
Continuous
 62
     7
370
    25
100
AcDbLine
 10
4305.0
 20
3000.0
 30
0.0
 11
150.0
 21
3000.0
 31
0.0
  0
LINE
  5
A0
330
1F
100
AcDbEntity
  8
0
  6
Continuous
 62
     7
370
    18
100
AcDbLine
 10
4093.1984921262
 20
285.0000000003
 30
0.0
 11
4093.1984921262
 21
150.0
 31
0.0
  0
LINE
  5
A1
330
1F
100
AcDbEntity
  8
0
  6
Continuous
 62
     7
370
    25
100
AcDbLine
 10
150.0
 20
3000.0
 30
0.0
 11
150.0
 21
150.0
 31
0.0
  0
LINE
  5
A2
330
1F
100
AcDbEntity
  8
0
  6
Continuous
 62
     7
370
    25
100
AcDbLine
 10
3225.0
 20
555.0000000009
 30
0.0
 11
4305.0
 21
555.0000000009
 31
0.0
  0
LINE
  5
A3
330
1F
100
AcDbEntity
  8
0
  6
Continuous
 62
    19
370
    18
100
AcDbLine
 10
4192.9326190259
 20
240.4182064643
 30
0.0
 11
4145.1273994681
 21
231.1227471059
 31
0.0
  0
LINE
  5
A4
330
1F
100
AcDbEntity
  8
0
  6
Continuous
 62
    19
370
    18
100
AcDbLine
 10
4232.0258777281
 20
248.2322360861
 30
0.0
 11
4232.0258777281
 21
187.321545177
 31
0.0
  0
LINE
  5
A5
330
1F
100
AcDbEntity
  8
0
  6
Continuous
 62
    19
370
    18
100
AcDbLine
 10
4192.9326190259
 20
240.4182064643
 30
0.0
 11
4192.9326190259
 21
195.1355747988
 31
0.0
  0
LINE
  5
A6
330
1F
100
AcDbEntity
  8
0
  6
Continuous
 62
     7
370
    25
100
AcDbLine
 10
150.0
 20
150.0
 30
0.0
 11
4305.0
 21
150.0
 31
0.0
  0
LINE
  5
A7
330
1F
100
AcDbEntity
  8
0
  6
Continuous
 62
    19
370
    18
100
AcDbLine
 10
4145.1273994681
 20
231.1227471059
 30
0.0
 11
4145.1273994681
 21
204.4310341572
 31
0.0
  0
LINE
  5
A8
330
1F
100
AcDbEntity
  8
0
  6
Continuous
 62
   179
370
    18
100
AcDbLine
 10
3819.1776936947
 20
457.3006457879
 30
0.0
 11
3865.2287333388
 21
457.3006457879
 31
0.0
  0
LINE
  5
A9
330
1F
100
AcDbEntity
  8
0
  6
Continuous
 62
    19
370
    18
100
AcDbLine
 10
4192.9326190259
 20
195.1355747988
 30
0.0
 11
4145.1273994681
 21
204.4310341572
 31
0.0
  0
LINE
  5
AA
330
1F
100
AcDbEntity
  8
0
  6
CENTERX2
 62
    19
370
    18
100
AcDbLine
 10
4258.3810686372
 20
217.7768906315
 30
0.0
 11
4139.1778035964
 21
217.7768906315
 31
0.0
  0
LINE
  5
AB
330
1F
100
AcDbEntity
  8
0
  6
Continuous
 62
   179
370
    18
100
AcDbLine
 10
3756.873345944
 20
516.8961088508
 30
0.0
 11
3813.0288874587
 21
516.8961088508
 31
0.0
  0
LINE
  5
AC
330
1F
100
AcDbEntity
  8
0
  6
Continuous
 62
   179
370
    18
100
AcDbLine
 10
3572.6691873807
 20
516.8961088463
 30
0.0
 11
3572.6691873807
 21
457.3006457848
 31
0.0
  0
LINE
  5
AD
330
1F
100
AcDbEntity
  8
0
  6
Continuous
 62
   179
370
    18
100
AcDbLine
 10
3876.0642720787
 20
516.8961088494
 30
0.0
 11
3903.1531189258
 21
516.8961088494
 31
0.0
  0
LINE
  5
AE
330
1F
100
AcDbEntity
  8
0
  6
Continuous
 62
   179
370
    18
100
AcDbLine
 10
3876.0642720787
 20
516.8961088494
 30
0.0
 11
3841.0614673168
 21
461.8917013713
 31
0.0
  0
LINE
  5
AF
330
1F
100
AcDbEntity
  8
0
  6
Continuous
 62
   179
370
    18
100
AcDbLine
 10
3865.2287333388
 20
457.3006457879
 30
0.0
 11
3871.3237238796
 21
468.1361845226
 31
0.0
  0
LINE
  5
B0
330
1F
100
AcDbEntity
  8
0
  6
Continuous
 62
   179
370
    18
100
AcDbLine
 10
3889.6086955011
 20
500.6428007391
 30
0.0
 11
3901.7986765828
 21
478.9717232594
 31
0.0
  0
LINE
  5
B1
330
1F
100
AcDbEntity
  8
0
  6
Continuous
 62
   179
370
    18
100
AcDbLine
 10
3877.4187144194
 20
478.9717232594
 30
0.0
 11
3889.6086955011
 21
500.6428007391
 31
0.0
  0
LINE
  5
B2
330
1F
100
AcDbEntity
  8
0
  6
Continuous
 62
   179
370
    18
100
AcDbLine
 10
3877.4187144194
 20
478.9717232594
 30
0.0
 11
3901.7986765828
 21
478.9717232594
 31
0.0
  0
LINE
  5
B3
330
1F
100
AcDbEntity
  8
0
  6
Continuous
 62
   179
370
    18
100
AcDbLine
 10
3871.3237238796
 20
468.1361845226
 30
0.0
 11
3907.8936671249
 21
468.1361845226
 31
0.0
  0
LINE
  5
B4
330
1F
100
AcDbEntity
  8
0
  6
Continuous
 62
   179
370
    18
100
AcDbLine
 10
3907.8936671249
 20
468.1361845226
 30
0.0
 11
3913.9886576656
 21
457.3006457879
 31
0.0
  0
LINE
  5
B5
330
1F
100
AcDbEntity
  8
0
  6
Continuous
 62
   179
370
    18
100
AcDbLine
 10
3941.077504513
 20
516.8961088494
 30
0.0
 11
3941.077504513
 21
457.3006457879
 31
0.0
  0
LINE
  5
B6
330
1F
100
AcDbEntity
  8
0
  6
Continuous
 62
   179
370
    18
100
AcDbLine
 10
3903.1531189258
 20
516.8961088494
 30
0.0
 11
3941.077504513
 21
457.3006457879
 31
0.0
  0
LINE
  5
B7
330
1F
100
AcDbEntity
  8
0
  6
Continuous
 62
   179
370
    18
100
AcDbLine
 10
3913.9886576656
 20
457.3006457879
 30
0.0
 11
3941.077504513
 21
457.3006457879
 31
0.0
  0
LINE
  5
B8
330
1F
100
AcDbEntity
  8
0
  6
Continuous
 62
   179
370
    18
100
AcDbLine
 10
3941.077504513
 20
457.3006457879
 30
0.0
 11
4014.2173910035
 21
457.3006457879
 31
0.0
  0
LINE
  5
B9
330
1F
100
AcDbEntity
  8
0
  6
Continuous
 62
   179
370
    18
100
AcDbLine
 10
4014.2173910035
 20
457.3006457879
 30
0.0
 11
4014.2173910035
 21
470.8450692114
 31
0.0
  0
LINE
  5
BA
330
1F
100
AcDbEntity
  8
0
  6
Continuous
 62
   179
370
    18
100
AcDbLine
 10
4014.2173910035
 20
470.8450692114
 30
0.0
 11
3968.1663513601
 21
470.8450692114
 31
0.0
  0
LINE
  5
BB
330
1F
100
AcDbEntity
  8
0
  6
Continuous
 62
   179
370
    18
100
AcDbLine
 10
3968.1663513601
 20
470.8450692114
 30
0.0
 11
3968.1663513601
 21
516.8961088494
 31
0.0
  0
LINE
  5
BC
330
1F
100
AcDbEntity
  8
0
  6
Continuous
 62
   179
370
    18
100
AcDbLine
 10
3941.077504513
 20
516.8961088494
 30
0.0
 11
3968.1663513601
 21
516.8961088494
 31
0.0
  0
LINE
  5
BD
330
1F
100
AcDbEntity
  8
0
  6
Continuous
 62
   179
370
    18
100
AcDbLine
 10
4016.926275686
 20
516.8961088487
 30
0.0
 11
4016.926275686
 21
457.3006457873
 31
0.0
  0
LINE
  5
BE
330
1F
100
AcDbEntity
  8
0
  6
Continuous
 62
   179
370
    18
100
AcDbLine
 10
4044.0151225331
 20
516.8961088487
 30
0.0
 11
4044.0151225331
 21
457.3006457873
 31
0.0
  0
LINE
  5
BF
330
1F
100
AcDbEntity
  8
0
  6
Continuous
 62
   179
370
    18
100
AcDbLine
 10
4016.926275686
 20
516.8961088487
 30
0.0
 11
4044.0151225331
 21
516.8961088487
 31
0.0
  0
LINE
  5
C0
330
1F
100
AcDbEntity
  8
0
  6
Continuous
 62
   179
370
    18
100
AcDbLine
 10
4016.926275686
 20
457.3006457873
 30
0.0
 11
4044.0151225331
 21
457.3006457873
 31
0.0
  0
LINE
  5
C1
330
1F
100
AcDbEntity
  8
0
  6
Continuous
 62
   179
370
    18
100
AcDbLine
 10
4056.1727466361
 20
511.9395831343
 30
0.0
 11
4062.4300319759
 21
511.9395831343
 31
0.0
  0
LINE
  5
C2
330
1F
100
AcDbEntity
  8
0
  6
Continuous
 62
   179
370
    18
100
AcDbLine
 10
4062.4300319759
 20
507.8762561058
 30
0.0
 11
4056.1727466361
 21
507.8762561058
 31
0.0
  0
LINE
  5
C3
330
1F
100
AcDbEntity
  8
0
  6
Continuous
 62
   179
370
    18
100
AcDbLine
 10
4056.1727466361
 20
507.8762561058
 30
0.0
 11
4056.1727466361
 21
511.9395831343
 31
0.0
  0
LINE
  5
C4
330
1F
100
AcDbEntity
  8
0
  6
Continuous
 62
   179
370
    18
100
AcDbLine
 10
4056.1727466361
 20
507.8762561058
 30
0.0
 11
4060.2360736616
 21
507.8762561058
 31
0.0
  0
LINE
  5
C5
330
1F
100
AcDbEntity
  8
0
  6
Continuous
 62
   179
370
    18
100
AcDbLine
 10
4056.1727466361
 20
507.8762561058
 30
0.0
 11
4056.1727466361
 21
501.7812655676
 31
0.0
  0
LINE
  5
C6
330
1F
100
AcDbEntity
  8
0
  6
Continuous
 62
   179
370
    18
100
AcDbLine
 10
4064.2994006871
 20
501.7812655676
 30
0.0
 11
4060.2360736616
 21
507.8762561058
 31
0.0
  0
LINE
  5
C7
330
1F
100
AcDbEntity
  8
0
  6
Continuous
 62
     7
370
    18
100
AcDbLine
 10
3225.0
 20
285.0000000003
 30
0.0
 11
4305.0
 21
285.0000000003
 31
0.0
  0
LINE
  5
C8
330
1F
100
AcDbEntity
  8
0
  6
Continuous
 62
     7
370
    18
100
AcDbLine
 10
4305.0
 20
420.0000000006
 30
0.0
 11
3225.0
 21
420.0000000006
 31
0.0
  0
LINE
  5
C9
330
1F
100
AcDbEntity
  8
0
  6
Continuous
 62
     7
370
    18
100
AcDbLine
 10
150.0
 20
825.0
 30
0.0
 11
150.0
 21
975.0
 31
0.0
  0
LINE
  5
CA
330
1F
100
AcDbEntity
  8
0
  6
Continuous
 62
     7
370
    18
100
AcDbLine
 10
150.0
 20
975.0
 30
0.0
 11
150.0
 21
1125.0
 31
0.0
  0
LINE
  5
CB
330
1F
100
AcDbEntity
  8
0
  6
Continuous
 62
     7
370
    18
100
AcDbLine
 10
150.0
 20
1125.0
 30
0.0
 11
150.0
 21
1275.0
 31
0.0
  0
LINE
  5
CC
330
1F
100
AcDbEntity
  8
0
  6
Continuous
 62
     7
370
    18
100
AcDbLine
 10
150.0
 20
1275.0
 30
0.0
 11
150.0
 21
1425.0
 31
0.0
  0
LINE
  5
CD
330
1F
100
AcDbEntity
  8
0
  6
Continuous
 62
     7
370
    18
100
AcDbLine
 10
150.0
 20
1425.0
 30
0.0
 11
150.0
 21
1575.0
 31
0.0
  0
LINE
  5
CE
330
1F
100
AcDbEntity
  8
0
  6
Continuous
 62
     7
370
    18
100
AcDbLine
 10
150.0
 20
1575.0
 30
0.0
 11
150.0
 21
1725.0
 31
0.0
  0
LINE
  5
CF
330
1F
100
AcDbEntity
  8
0
  6
Continuous
 62
     7
370
    18
100
AcDbLine
 10
150.0
 20
1725.0
 30
0.0
 11
150.0
 21
1875.0
 31
0.0
  0
LINE
  5
D0
330
1F
100
AcDbEntity
  8
0
  6
Continuous
 62
     7
370
    18
100
AcDbLine
 10
150.0
 20
1875.0
 30
0.0
 11
150.0
 21
2025.0
 31
0.0
  0
LINE
  5
D1
330
1F
100
AcDbEntity
  8
0
  6
Continuous
 62
     7
370
    18
100
AcDbLine
 10
150.0
 20
2025.0
 30
0.0
 11
150.0
 21
2175.0
 31
0.0
  0
LINE
  5
D2
330
1F
100
AcDbEntity
  8
0
  6
Continuous
 62
     7
370
    18
100
AcDbLine
 10
150.0
 20
2175.0
 30
0.0
 11
150.0
 21
2325.0
 31
0.0
  0
LINE
  5
D3
330
1F
100
AcDbEntity
  8
0
  6
Continuous
 62
     7
370
    25
100
AcDbLine
 10
3225.0
 20
555.0000000009
 30
0.0
 11
3225.0
 21
150.0
 31
0.0
  0
ARC
  5
D4
330
1F
100
AcDbEntity
  8
0
  6
Continuous
 62
   179
370
    18
100
AcDbCircle
 10
3529.3858214715
 20
495.2250313732
 30
0.0
 40
10.83553873622431
100
AcDbArc
 50
69.991210111
 51
90.0
  0
ARC
  5
D5
330
1F
100
AcDbEntity
  8
0
  6
Continuous
 62
   179
370
    18
100
AcDbCircle
 10
3529.3858214706
 20
500.6428007401
 30
0.0
 40
10.83553873881613
100
AcDbArc
 50
270.0
 51
290.0087898887
  0
ARC
  5
D6
330
1F
100
AcDbEntity
  8
0
  6
Continuous
 62
   179
370
    18
100
AcDbCircle
 10
3709.420759152
 20
487.0983773133
 30
0.0
 40
16.25330811077811
100
AcDbArc
 50
56.1685552524
 51
90.0
  0
ARC
  5
D7
330
1F
100
AcDbEntity
  8
0
  6
Continuous
 62
   179
370
    18
100
AcDbCircle
 10
3709.420759152
 20
487.0983773133
 30
0.0
 40
16.2533081099705
100
AcDbArc
 50
270.0
 51
303.830934914
  0
ARC
  5
D8
330
1F
100
AcDbEntity
  8
0
  6
Continuous
 62
   179
370
    18
100
AcDbCircle
 10
3808.3421549548
 20
468.136184524
 30
0.0
 40
10.83553873986693
100
AcDbArc
 50
0.0
 51
90.0
  0
ARC
  5
D9
330
1F
100
AcDbEntity
  8
0
  6
Continuous
 62
   179
370
    18
100
AcDbCircle
 10
3807.717258628
 20
497.9339160561
 30
0.0
 40
8.126654054165272
100
AcDbArc
 50
54.413089495
 51
90.0
  0
ARC
  5
DA
330
1F
100
AcDbEntity
  8
0
  6
Continuous
 62
   179
370
    18
100
AcDbCircle
 10
3807.717258628
 20
497.9339160561
 30
0.0
 40
8.126654055322035
100
AcDbArc
 50
270.0
 51
305.5869104966
  0
ARC
  5
DB
330
1F
100
AcDbEntity
  8
0
  6
Continuous
 62
   179
370
    18
100
AcDbCircle
 10
3823.5563773944
 20
469.4441941063
 30
0.0
 40
14.99623540163448
100
AcDbArc
 50
10.4199484279
 51
80.7321727594
  0
ARC
  5
DC
330
1F
100
AcDbEntity
  8
0
  6
Continuous
 62
   179
370
    18
100
AcDbCircle
 10
3848.1803499564
 20
465.1715759511
 30
0.0
 40
7.838116310390694
100
AcDbArc
 50
192.6768785101
 51
204.7368873207
  0
CIRCLE
  5
DD
330
1F
100
AcDbEntity
  8
0
  6
Continuous
 62
   179
370
    18
100
AcDbCircle
 10
4059.4296312926
 20
506.8013546003
 30
0.0
 40
8.8951532178462
  0
CIRCLE
  5
DE
330
1F
100
AcDbEntity
  8
0
  6
Continuous
 62
    19
370
    18
100
AcDbCircle
 10
4232.0258777281
 20
217.7768906315
 30
0.0
 40
12.88061814414652
  0
CIRCLE
  5
DF
330
1F
100
AcDbEntity
  8
0
  6
Continuous
 62
    19
370
    18
100
AcDbCircle
 10
4232.0258777281
 20
217.7768906315
 30
0.0
 40
25.16390372495578
  0
ELLIPSE
  5
E0
330
1F
100
AcDbEntity
  8
0
  6
Continuous
 62
   179
370
    18
100
AcDbEllipse
 10
3525.2637053955
 20
497.9339160554
 30
0.0
 11
14.89886576646222
 21
0.0
 31
0.0
210
0.0
220
0.0
230
1.0
 40
0.5895245511
 41
5.265715075739372
 42
7.300655538615912
  0
ELLIPSE
  5
E1
330
1F
100
AcDbEntity
  8
0
  6
Continuous
 62
   179
370
    18
100
AcDbEllipse
 10
3693.2145558564
 20
487.0983773139
 30
0.0
 11
33.86105856006907
 21
0.0
 31
0.0
210
0.0
220
0.0
230
1.0
 40
0.5985848325
 41
5.554193105221739
 42
7.01217218274472
  0
ELLIPSE
  5
E2
330
1F
100
AcDbEntity
  8
0
  6
Continuous
 62
   179
370
    18
100
AcDbEllipse
 10
3798.8610585616
 20
497.9339160554
 30
0.0
 11
17.60775045122637
 21
0.0
 31
0.0
210
0.0
220
0.0
230
1.0
 40
0.5900077182
 41
5.593675727225946
 42
6.972694887106603
  0
ELLIPSE
  5
E3
330
1F
100
AcDbEntity
  8
0
  6
Continuous
 62
   179
370
    18
100
AcDbEllipse
 10
3807.0449215604
 20
499.4046031234
 30
0.0
 11
36.4899993380277
 21
0.0
 31
0.0
210
0.0
220
0.0
230
1.0
 40
0.485929116
 41
5.257694056962845
 42
7.689248379254997
  0
ELLIPSE
  5
E4
330
1F
100
AcDbEntity
  8
0
  6
Continuous
 62
   179
370
    18
100
AcDbEllipse
 10
3702.6956522476
 20
487.0983773139
 30
0.0
 11
43.34215495673379
 21
0.0
 31
0.0
210
0.0
220
0.0
230
1.0
 40
0.6929224243
 41
4.837574201223028
 42
7.728796413142616
  0
ELLIPSE
  5
E5
330
1F
100
AcDbEntity
  8
0
  6
Continuous
 62
   179
370
    18
100
AcDbEllipse
 10
3526.6181477356
 20
497.9339160554
 30
0.0
 11
40.63327027197511
 21
0.0
 31
0.0
210
0.0
220
0.0
230
1.0
 40
0.4768529109
 41
4.919453630382234
 42
7.646916983963976
  0
ELLIPSE
  5
E6
330
1F
100
AcDbEntity
  8
0
  6
Continuous
 62
   179
370
    18
100
AcDbEllipse
 10
4062.064122662
 20
509.90791962
 30
0.0
 11
2.235278033911982
 21
0.0
 31
0.0
210
0.0
220
0.0
230
1.0
 40
0.9213369296
 41
4.876826485633795
 42
7.689544128725418
  0
MTEXT
  5
E8
330
1F
100
AcDbEntity
  8
0
  6
Continuous
 62
     7
370
     0
100
AcDbMText
 10
3347.1674181705
 20
248.4569886556
 30
0.0
 40
55.5625
 41
0.0
 71
     1
 72
     1
  1
BLT_99X99X45
  7
SLDTEXTSTYLE0
 73
     1
 44
1.0
  0
MTEXT
  5
E9
330
1F
100
AcDbEntity
  8
0
  6
Continuous
 62
     7
370
     0
100
AcDbMText
 10
3238.3268981734
 20
219.580700246
 30
0.0
 40
27.0
 41
0.0
 71
     1
 72
     1
  1
COD.
  7
SLDTEXTSTYLE0
 73
     1
 44
1.0
  0
MTEXT
  5
EA
330
1F
100
AcDbEntity
  8
0
  6
Continuous
 62
     7
370
     0
100
AcDbMText
 10
160.6282767702
 20
112.0822758273
 30
0.0
 40
27.0
 41
0.0
 71
     1
 72
     1
  1
This document is the property of PEDRALI S.p.A. who willsafeguard its rights according to the civil and penal prevision of the Law.
  7
SLDTEXTSTYLE0
 73
     1
 44
1.0
  0
MTEXT
  5
EB
330
1F
100
AcDbEntity
  8
0
  6
Continuous
 62
     7
370
     0
100
AcDbMText
 10
2161.2908979918
 20
115.1768387873
 30
0.0
 40
27.0
 41
0.0
 71
     1
 72
     1
  1
Questo disegno è posto sotto la tutela delle vigenti Leggi e non puo essere utilizzato da terze persone se non previa autorizzazione scritta della PEDRALI S.p.A.
  7
SLDTEXTSTYLE0
 73
     1
 44
1.0
  0
MTEXT
  5
EC
330
1F
100
AcDbEntity
  8
0
  6
Continuous
 62
     7
370
     0
100
AcDbMText
 10
3238.3268981734
 20
351.4653149456
 30
0.0
 40
27.0
 41
0.0
 71
     1
 72
     1
  1
SERIE:
  7
SLDTEXTSTYLE0
 73
     1
 44
1.0
  0
MTEXT
  5
ED
330
1F
100
AcDbEntity
  8
0
  6
Continuous
 62
     7
370
     0
100
AcDbMText
 10
3347.1674181705
 20
380.3416033552
 30
0.0
 40
55.5625
 41
0.0
 71
     1
 72
     1
  1
BLUME
  7
SLDTEXTSTYLE0
 73
     1
 44
1.0
  0
INSERT
  5
F3
330
1F
100
AcDbEntity
  8
0
  6
Continuous
 62
     7
370
     0
100
AcDbBlockReference
  2
SW_NOTE_0
 10
4150.4824592931
 20
363.9948192571
 30
0.0
  0
ARC
  5
F4
330
1F
100
AcDbEntity
  8
0
  6
Continuous
 62
     7
370
    25
100
AcDbCircle
 10
1351.1088512221
 20
2100.899448972
 30
0.0
 40
5.000000000000455
100
AcDbArc
 50
180.0
 51
270.0
  0
ARC
  5
F5
330
1F
100
AcDbEntity
  8
0
  6
Continuous
 62
     7
370
    25
100
AcDbCircle
 10
1360.1088512221
 20
2100.899448972
 30
0.0
 40
5.000000000000455
100
AcDbArc
 50
270.0
 51
0.0
  0
LINE
  5
F6
330
1F
100
AcDbEntity
  8
0
  6
Continuous
 62
     7
370
    25
100
AcDbLine
 10
1365.1088512221
 20
2100.899448972
 30
0.0
 11
1365.1088512221
 21
2103.899448972
 31
0.0
  0
LINE
  5
F7
330
1F
100
AcDbEntity
  8
0
  6
Continuous
 62
     7
370
    25
100
AcDbLine
 10
1346.1088512221
 20
2103.899448972
 30
0.0
 11
1346.1088512221
 21
2100.899448972
 31
0.0
  0
LINE
  5
F8
330
1F
100
AcDbEntity
  8
0
  6
Continuous
 62
     7
370
    25
100
AcDbLine
 10
2155.1088512221
 20
2100.899448972
 30
0.0
 11
2155.1088512221
 21
2103.899448972
 31
0.0
  0
LINE
  5
F9
330
1F
100
AcDbEntity
  8
0
  6
Continuous
 62
     7
370
    25
100
AcDbLine
 10
2136.1088512221
 20
2103.899448972
 30
0.0
 11
2136.1088512221
 21
2100.899448972
 31
0.0
  0
ARC
  5
FA
330
1F
100
AcDbEntity
  8
0
  6
Continuous
 62
     7
370
    25
100
AcDbCircle
 10
2141.1088512221
 20
2100.899448972
 30
0.0
 40
5.0
100
AcDbArc
 50
180.0
 51
270.0
  0
ARC
  5
FB
330
1F
100
AcDbEntity
  8
0
  6
Continuous
 62
     7
370
    25
100
AcDbCircle
 10
2150.1088512221
 20
2100.899448972
 30
0.0
 40
5.0
100
AcDbArc
 50
270.0
 51
0.0
  0
ARC
  5
FC
330
1F
100
AcDbEntity
  8
0
  6
Continuous
 62
     7
370
    25
100
AcDbCircle
 10
1355.6088512221
 20
2533.899448972
 30
0.0
 40
9.999999999999945
100
AcDbArc
 50
29.5357713305
 51
150.4594815778
  0
LINE
  5
FD
330
1F
100
AcDbEntity
  8
0
  6
Continuous
 62
     7
370
    25
100
AcDbLine
 10
1347.5479706638
 20
2538.4569778032
 30
0.0
 11
1347.5479706638
 21
2103.899448972
 31
0.0
  0
LINE
  5
FE
330
1F
100
AcDbEntity
  8
0
  6
Continuous
 62
     7
370
    25
100
AcDbLine
 10
1363.6697317805
 20
2103.899448972
 30
0.0
 11
1363.6697317805
 21
2538.4519976941
 31
0.0
  0
LINE
  5
FF
330
1F
100
AcDbEntity
  8
0
  6
Continuous
 62
     7
370
    25
100
AcDbLine
 10
1346.2742358956
 20
2537.009799336
 30
0.0
 11
1346.2742358956
 21
2103.899448972
 31
0.0
  0
LINE
  5
100
330
1F
100
AcDbEntity
  8
0
  6
Continuous
 62
     7
370
    25
100
AcDbLine
 10
1364.9434665487
 20
2103.899448972
 30
0.0
 11
1364.9434665487
 21
2537.0072394836
 31
0.0
  0
ARC
  5
101
330
1F
100
AcDbEntity
  8
0
  6
Continuous
 62
     7
370
    25
100
AcDbCircle
 10
2145.6088512221
 20
2533.899448972
 30
0.0
 40
9.999999999999982
100
AcDbArc
 50
29.5357713305
 51
150.4594815778
  0
LINE
  5
102
330
1F
100
AcDbEntity
  8
0
  6
Continuous
 62
     7
370
    25
100
AcDbLine
 10
2137.5479706638
 20
2538.4569778032
 30
0.0
 11
2137.5479706638
 21
2103.899448972
 31
0.0
  0
LINE
  5
103
330
1F
100
AcDbEntity
  8
0
  6
Continuous
 62
     7
370
    25
100
AcDbLine
 10
2153.6697317805
 20
2103.899448972
 30
0.0
 11
2153.6697317805
 21
2538.4519976941
 31
0.0
  0
LINE
  5
104
330
1F
100
AcDbEntity
  8
0
  6
Continuous
 62
     7
370
    25
100
AcDbLine
 10
2136.2742358956
 20
2537.009799336
 30
0.0
 11
2136.2742358956
 21
2103.899448972
 31
0.0
  0
LINE
  5
105
330
1F
100
AcDbEntity
  8
0
  6
Continuous
 62
     7
370
    25
100
AcDbLine
 10
2154.9434665487
 20
2103.899448972
 30
0.0
 11
2154.9434665487
 21
2537.0072394836
 31
0.0
  0
LINE
  5
106
330
1F
100
AcDbEntity
  8
0
  6
Continuous
 62
     7
370
    25
100
AcDbLine
 10
2208.6088512221
 20
2528.8994489763
 30
0.0
 11
2154.9434665487
 21
2528.8994489763
 31
0.0
  0
LINE
  5
107
330
1F
100
AcDbEntity
  8
0
  6
Continuous
 62
     7
370
    25
100
AcDbLine
 10
2136.2742358956
 20
2528.8994489763
 30
0.0
 11
1364.9434665487
 21
2528.8994489763
 31
0.0
  0
LINE
  5
108
330
1F
100
AcDbEntity
  8
0
  6
Continuous
 62
     7
370
    25
100
AcDbLine
 10
1346.2742358956
 20
2528.8994489763
 30
0.0
 11
1292.6088512221
 21
2528.8994489763
 31
0.0
  0
LINE
  5
109
330
1F
100
AcDbEntity
  8
0
  6
Continuous
 62
     7
370
    25
100
AcDbLine
 10
2208.6088512221
 20
2538.8994489763
 30
0.0
 11
2154.2691052575
 21
2538.8994489763
 31
0.0
  0
LINE
  5
10A
330
1F
100
AcDbEntity
  8
0
  6
Continuous
 62
     7
370
    25
100
AcDbLine
 10
2136.9485971868
 20
2538.8994489763
 30
0.0
 11
1364.2691052575
 21
2538.8994489763
 31
0.0
  0
LINE
  5
10B
330
1F
100
AcDbEntity
  8
0
  6
Continuous
 62
     7
370
    25
100
AcDbLine
 10
1346.9485971868
 20
2538.8994489763
 30
0.0
 11
1292.6088512221
 21
2538.8994489763
 31
0.0
  0
LINE
  5
10C
330
1F
100
AcDbEntity
  8
0
  6
Continuous
 62
     7
370
    25
100
AcDbLine
 10
1255.6088512221
 20
2528.8994489763
 30
0.0
 11
1255.6088512221
 21
2538.8994489763
 31
0.0
  0
LINE
  5
10D
330
1F
100
AcDbEntity
  8
0
  6
Continuous
 62
     7
370
    25
100
AcDbLine
 10
1292.6088512221
 20
2528.8994489763
 30
0.0
 11
1255.6088512221
 21
2528.8994489763
 31
0.0
  0
LINE
  5
10E
330
1F
100
AcDbEntity
  8
0
  6
Continuous
 62
     7
370
    25
100
AcDbLine
 10
1255.6088512221
 20
2538.8994489763
 30
0.0
 11
1292.6088512221
 21
2538.8994489763
 31
0.0
  0
LINE
  5
10F
330
1F
100
AcDbEntity
  8
0
  6
Continuous
 62
     7
370
    25
100
AcDbLine
 10
2245.6088512221
 20
2538.8994489763
 30
0.0
 11
2245.6088512221
 21
2528.8994489763
 31
0.0
  0
LINE
  5
110
330
1F
100
AcDbEntity
  8
0
  6
Continuous
 62
     7
370
    25
100
AcDbLine
 10
2245.6088512221
 20
2528.8994489763
 30
0.0
 11
2208.6088512221
 21
2528.8994489763
 31
0.0
  0
LINE
  5
111
330
1F
100
AcDbEntity
  8
0
  6
Continuous
 62
     7
370
    25
100
AcDbLine
 10
2208.6088512221
 20
2538.8994489763
 30
0.0
 11
2245.6088512221
 21
2538.8994489763
 31
0.0
  0
LINE
  5
112
330
1F
100
AcDbEntity
  8
0
  6
Continuous
 62
     7
370
    25
100
AcDbLine
 10
2136.2742358956
 20
2493.8994489763
 30
0.0
 11
1364.9434665487
 21
2493.8994489763
 31
0.0
  0
LINE
  5
113
330
1F
100
AcDbEntity
  8
0
  6
Continuous
 62
     7
370
    25
100
AcDbLine
 10
1360.1088512221
 20
2095.899448972
 30
0.0
 11
1351.1088512222
 21
2095.899448972
 31
0.0
  0
LINE
  5
114
330
1F
100
AcDbEntity
  8
0
  6
Continuous
 62
     7
370
    25
100
AcDbLine
 10
1365.1088512221
 20
2103.899448972
 30
0.0
 11
1346.1088512221
 21
2103.899448972
 31
0.0
  0
LINE
  5
115
330
1F
100
AcDbEntity
  8
0
  6
Continuous
 62
     7
370
    25
100
AcDbLine
 10
2155.1088512221
 20
2103.899448972
 30
0.0
 11
2136.1088512221
 21
2103.899448972
 31
0.0
  0
LINE
  5
116
330
1F
100
AcDbEntity
  8
0
  6
Continuous
 62
     7
370
    25
100
AcDbLine
 10
2150.1088512221
 20
2095.899448972
 30
0.0
 11
2141.1088512222
 21
2095.899448972
 31
0.0
  0
SPLINE
  5
117
330
1F
100
AcDbEntity
  8
0
  6
Continuous
 62
     7
370
    25
100
AcDbSpline
210
0.0
220
0.0
230
1.0
 70
     8
 71
     3
 72
    26
 73
    22
 74
     0
 42
0.000000001
 43
0.00000001
 40
0.0
 40
0.0
 40
0.0
 40
0.0
 40
0.0854261159360881
 40
0.1733276547195537
 40
0.2448517261352417
 40
0.3181224083912654
 40
0.3577740645396542
 40
0.3980844094313124
 40
0.4287682032815219
 40
0.4601978879083142
 40
0.4855692359538006
 40
0.5116681185372366
 40
0.5370453561645123
 40
0.5630880149113963
 40
0.599555753147348
 40
0.6370345873825398
 40
0.6960497304231432
 40
0.7566321175831298
 40
0.8401423063242253
 40
0.9260534647419589
 40
1.0
 40
1.0
 40
1.0
 40
1.0
 10
1352.727185020852
 20
2540.812404848667
 30
0.0
 10
1352.768606596827
 20
2540.611437658329
 30
0.0
 10
1352.852650036469
 20
2540.203679780131
 30
0.0
 10
1353.141224500791
 20
2539.617597135927
 30
0.0
 10
1353.515592032309
 20
2539.073358654701
 30
0.0
 10
1353.896557133426
 20
2538.663001027951
 30
0.0
 10
1354.271756599845
 20
2538.355566172173
 30
0.0
 10
1354.576592414229
 20
2538.159990635351
 30
0.0
 10
1354.887886869216
 20
2538.01345976524
 30
0.0
 10
1355.174951681176
 20
2537.924044202831
 30
0.0
 10
1355.45998962721
 20
2537.88001810768
 30
0.0
 10
1355.728851870435
 20
2537.8778840304
 30
0.0
 10
1355.996271267282
 20
2537.915053589767
 30
0.0
 10
1356.287449295377
 20
2537.996885564706
 30
0.0
 10
1356.596003326882
 20
2538.134585237652
 30
0.0
 10
1356.966025789482
 20
2538.365371711778
 30
0.0
 10
1357.345522682755
 20
2538.68618090285
 30
0.0
 10
1357.754593040711
 20
2539.13987070794
 30
0.0
 10
1358.114493111643
 20
2539.680838183449
 30
0.0
 10
1358.382084556024
 20
2540.263161129536
 30
0.0
 10
1358.456222770631
 20
2540.638692550018
 30
0.0
 10
1358.490517423421
 20
2540.812404848667
 30
0.0
  0
SPLINE
  5
118
330
1F
100
AcDbEntity
  8
0
  6
Continuous
 62
     7
370
    25
100
AcDbSpline
210
0.0
220
0.0
230
1.0
 70
     8
 71
     3
 72
    14
 73
    10
 74
     0
 42
0.000000001
 43
0.00000001
 40
0.0
 40
0.0
 40
0.0
 40
0.0
 40
0.199645949346293
 40
0.4049915957704318
 40
0.6077353381762723
 40
0.7118014853057886
 40
0.8168241091226135
 40
0.9440115703823927
 40
1.0
 40
1.0
 40
1.0
 40
1.0
 10
1363.028621150861
 20
2540.538093268283
 30
0.0
 10
1363.241938296918
 20
2540.298419266165
 30
0.0
 10
1363.674662585437
 20
2539.812228802995
 30
0.0
 10
1364.192772904584
 20
2539.057707532045
 30
0.0
 10
1364.534548761024
 20
2538.423009235035
 30
0.0
 10
1364.740708719209
 20
2537.924642267605
 30
0.0
 10
1364.8667264467
 20
2537.533872438661
 30
0.0
 10
1364.935365195961
 20
2537.216522612521
 30
0.0
 10
1364.940576627983
 20
2537.056232718505
 30
0.0
 10
1364.942169522624
 20
2537.007239483607
 30
0.0
  0
SPLINE
  5
119
330
1F
100
AcDbEntity
  8
0
  6
Continuous
 62
     7
370
    25
100
AcDbSpline
210
0.0
220
0.0
230
1.0
 70
     8
 71
     3
 72
    14
 73
    10
 74
     0
 42
0.000000001
 43
0.00000001
 40
0.0
 40
0.0
 40
0.0
 40
0.0
 40
0.2207653484382386
 40
0.3402146168141025
 40
0.4605704991791288
 40
0.5641909618661088
 40
0.6633542991972092
 40
0.810524740361872
 40
1.0
 40
1.0
 40
1.0
 40
1.0
 10
1362.841506827891
 20
2540.578305893038
 30
0.0
 10
1362.800808032369
 20
2540.634739371044
 30
0.0
 10
1362.738088383561
 20
2540.721707249977
 30
0.0
 10
1362.697146978185
 20
2540.799005314945
 30
0.0
 10
1362.697826074152
 20
2540.825184425316
 30
0.0
 10
1362.731860979971
 20
2540.812555922937
 30
0.0
 10
1362.793908535374
 20
2540.767096314815
 30
0.0
 10
1362.894314856441
 20
2540.677623266965
 30
0.0
 10
1362.980252578004
 20
2540.588343086701
 30
0.0
 10
1363.028621150861
 20
2540.538093268284
 30
0.0
  0
SPLINE
  5
11A
330
1F
100
AcDbEntity
  8
0
  6
Continuous
 62
     7
370
    25
100
AcDbSpline
210
0.0
220
0.0
230
1.0
 70
     8
 71
     3
 72
    23
 73
    19
 74
     0
 42
0.000000001
 43
0.00000001
 40
0.0
 40
0.0
 40
0.0
 40
0.0
 40
0.0863901050636669
 40
0.1752766177962498
 40
0.2621177065427325
 40
0.3519363559727515
 40
0.4192459175638912
 40
0.4528076006128764
 40
0.487559850347596
 40
0.5342326170542364
 40
0.5808027178643183
 40
0.6174159281963738
 40
0.6550189806174139
 40
0.71761924766183
 40
0.7818570182170486
 40
0.8689416197544367
 40
0.958542960571562
 40
1.0
 40
1.0
 40
1.0
 40
1.0
 10
1359.248127850167
 20
2540.795145088705
 30
0.0
 10
1359.44646245454
 20
2540.584292722179
 30
0.0
 10
1359.848862921825
 20
2540.156495005857
 30
0.0
 10
1360.506532359638
 20
2539.500256474055
 30
0.0
 10
1361.18871788835
 20
2538.844572793362
 30
0.0
 10
1361.825458260185
 20
2538.272174366371
 30
0.0
 10
1362.325262173509
 20
2537.887729436366
 30
0.0
 10
1362.6733906174
 20
2537.684167256791
 30
0.0
 10
1362.957030754407
 20
2537.571833036546
 30
0.0
 10
1363.237347354295
 20
2537.55950282295
 30
0.0
 10
1363.443026051558
 20
2537.684634413077
 30
0.0
 10
1363.568848413516
 20
2537.874585952752
 30
0.0
 10
1363.655741426463
 20
2538.137574329223
 30
0.0
 10
1363.683825536256
 20
2538.50202728752
 30
0.0
 10
1363.619440448578
 20
2539.012502918393
 30
0.0
 10
1363.426073843071
 20
2539.61026471291
 30
0.0
 10
1363.141036349641
 20
2540.155527894813
 30
0.0
 10
1362.913486522324
 20
2540.476708458008
 30
0.0
 10
1362.841506827891
 20
2540.578305893038
 30
0.0
  0
SPLINE
  5
11B
330
1F
100
AcDbEntity
  8
0
  6
Continuous
 62
     7
370
    25
100
AcDbSpline
210
0.0
220
0.0
230
1.0
 70
     8
 71
     3
 72
    14
 73
    10
 74
     0
 42
0.000000001
 43
0.00000001
 40
0.0
 40
0.0
 40
0.0
 40
0.0
 40
0.2243030424882945
 40
0.3489011866265971
 40
0.4744001356116995
 40
0.5826741857065817
 40
0.6867417687947303
 40
0.8381564871696274
 40
0.9999999999999999
 40
0.9999999999999999
 40
0.9999999999999999
 40
0.9999999999999999
 10
1358.490517423421
 20
2540.812404848667
 30
0.0
 10
1358.505162961836
 20
2540.867336850213
 30
0.0
 10
1358.527943953459
 20
2540.952783040823
 30
0.0
 10
1358.629728579865
 20
2541.02863212436
 30
0.0
 10
1358.738418621415
 20
2541.054313082668
 30
0.0
 10
1358.859386631273
 20
2541.041495808145
 30
0.0
 10
1358.989681685112
 20
2540.996084485042
 30
0.0
 10
1359.127498386034
 20
2540.913906793791
 30
0.0
 10
1359.207035396875
 20
2540.835601289471
 30
0.0
 10
1359.248127850167
 20
2540.795145088706
 30
0.0
  0
SPLINE
  5
11C
330
1F
100
AcDbEntity
  8
0
  6
Continuous
 62
     7
370
    25
100
AcDbSpline
210
0.0
220
0.0
230
1.0
 70
     8
 71
     3
 72
    14
 73
    10
 74
     0
 42
0.000000001
 43
0.00000001
 40
0.0
 40
0.0
 40
0.0
 40
0.0
 40
0.2239799089305531
 40
0.3530600787849406
 40
0.4831615846560053
 40
0.5937368434043864
 40
0.6971871626480907
 40
0.8442013099709667
 40
1.0
 40
1.0
 40
1.0
 40
1.0
 10
1351.969574594106
 20
2540.795145088705
 30
0.0
 10
1352.028194946777
 20
2540.850992319009
 30
0.0
 10
1352.120598352205
 20
2540.93902444486
 30
0.0
 10
1352.287636535797
 20
2541.02187314497
 30
0.0
 10
1352.423067849903
 20
2541.053590501677
 30
0.0
 10
1352.537508430701
 20
2541.044550255765
 30
0.0
 10
1352.631327529477
 20
2541.002509578552
 30
0.0
 10
1352.701435758421
 20
2540.925137745473
 30
0.0
 10
1352.71843752735
 20
2540.850702267282
 30
0.0
 10
1352.727185020852
 20
2540.812404848667
 30
0.0
  0
SPLINE
  5
11D
330
1F
100
AcDbEntity
  8
0
  6
Continuous
 62
     7
370
    25
100
AcDbSpline
210
0.0
220
0.0
230
1.0
 70
     8
 71
     3
 72
    24
 73
    20
 74
     0
 42
0.000000001
 43
0.00000001
 40
0.0
 40
0.0
 40
0.0
 40
0.0
 40
0.0875562630610314
 40
0.1776478778994291
 40
0.2471757028850866
 40
0.318284849551935
 40
0.3544514774164573
 40
0.3911558340110771
 40
0.4196735717850682
 40
0.448879216907695
 40
0.4956340312872186
 40
0.5423649618835358
 40
0.5763627331264953
 40
0.6112927856933141
 40
0.6689340598446841
 40
0.7280698917726417
 40
0.8133417532352666
 40
0.9010570727560778
 40
1.0
 40
1.0
 40
1.0
 40
1.0
 10
1348.376195616383
 20
2540.578305893038
 30
0.0
 10
1348.23012153528
 20
2540.362551443271
 30
0.0
 10
1347.933743530821
 20
2539.924794978929
 30
0.0
 10
1347.680670803573
 20
2539.306066556549
 30
0.0
 10
1347.551052181786
 20
2538.742657498987
 30
0.0
 10
1347.538658092225
 20
2538.332116361439
 30
0.0
 10
1347.592705832453
 20
2538.0309016846
 30
0.0
 10
1347.666634949744
 20
2537.843227200753
 30
0.0
 10
1347.770723265195
 20
2537.700977308202
 30
0.0
 10
1347.924084565642
 20
2537.58799927981
 30
0.0
 10
1348.168549888519
 20
2537.549381802737
 30
0.0
 10
1348.478890520468
 20
2537.649619742734
 30
0.0
 10
1348.77467450853
 20
2537.816538442225
 30
0.0
 10
1349.103843124515
 20
2538.046593822718
 30
0.0
 10
1349.500678121027
 20
2538.371541023867
 30
0.0
 10
1350.026759776473
 20
2538.844195773151
 30
0.0
 10
1350.624670776461
 20
2539.415757856162
 30
0.0
 10
1351.310882593707
 20
2540.096591681094
 30
0.0
 10
1351.741379052201
 20
2540.553140064654
 30
0.0
 10
1351.969574594106
 20
2540.795145088705
 30
0.0
  0
SPLINE
  5
11E
330
1F
100
AcDbEntity
  8
0
  6
Continuous
 62
     7
370
    25
100
AcDbSpline
210
0.0
220
0.0
230
1.0
 70
     8
 71
     3
 72
    14
 73
    10
 74
     0
 42
0.000000001
 43
0.00000001
 40
0.0
 40
0.0
 40
0.0
 40
0.0
 40
0.2200911109485773
 40
0.3501199592091929
 40
0.4590676183976134
 40
0.5685351145660782
 40
0.6668402217389787
 40
0.7968948941936516
 40
1.0
 40
1.0
 40
1.0
 40
1.0
 10
1348.189081293413
 20
2540.538093268284
 30
0.0
 10
1348.245488717278
 20
2540.596463465932
 30
0.0
 10
1348.335221395974
 20
2540.689318516423
 30
0.0
 10
1348.437488363669
 20
2540.778165252837
 30
0.0
 10
1348.495761077681
 20
2540.818626641332
 30
0.0
 10
1348.521707505107
 20
2540.822297262452
 30
0.0
 10
1348.517145576669
 20
2540.791323691631
 30
0.0
 10
1348.475272272061
 20
2540.715406588397
 30
0.0
 10
1348.413719935488
 20
2540.630231447115
 30
0.0
 10
1348.376195616383
 20
2540.578305893038
 30
0.0
  0
SPLINE
  5
11F
330
1F
100
AcDbEntity
  8
0
  6
Continuous
 62
     7
370
    25
100
AcDbSpline
210
0.0
220
0.0
230
1.0
 70
     8
 71
     3
 72
    14
 73
    10
 74
     0
 42
0.000000001
 43
0.00000001
 40
0.0
 40
0.0
 40
0.0
 40
0.0
 40
0.031846861633398
 40
0.1382021891221507
 40
0.2470909675485117
 40
0.4405387664055782
 40
0.6393220179585587
 40
0.8177164190617484
 40
1.0
 40
1.0
 40
1.0
 40
1.0
 10
1346.276939886852
 20
2537.009799335982
 30
0.0
 10
1346.276643277205
 20
2537.036071842992
 30
0.0
 10
1346.275356114184
 20
2537.150083641846
 30
0.0
 10
1346.322277286382
 20
2537.41264025326
 30
0.0
 10
1346.452454585108
 20
2537.875929441391
 30
0.0
 10
1346.707736766763
 20
2538.487555777162
 30
0.0
 10
1347.11424971459
 20
2539.195036370701
 30
0.0
 10
1347.607084560238
 20
2539.887297332649
 30
0.0
 10
1347.993692787392
 20
2540.319607427488
 30
0.0
 10
1348.189081293413
 20
2540.538093268284
 30
0.0
  0
SPLINE
  5
120
330
1F
100
AcDbEntity
  8
0
  6
Continuous
 62
     7
370
    25
100
AcDbSpline
210
0.0
220
0.0
230
1.0
 70
     8
 71
     3
 72
    26
 73
    22
 74
     0
 42
0.000000001
 43
0.00000001
 40
0.0
 40
0.0
 40
0.0
 40
0.0
 40
0.0854261159360883
 40
0.173327654719554
 40
0.2448517261352421
 40
0.3181224083912659
 40
0.3577740645396547
 40
0.3980844094313131
 40
0.4287682032815225
 40
0.4601978879083149
 40
0.4855692359538014
 40
0.5116681185372374
 40
0.5370453561645132
 40
0.5630880149113972
 40
0.5995557531473517
 40
0.6370345873825436
 40
0.6960497304231427
 40
0.7566321175831293
 40
0.8401423063242249
 40
0.9260534647419588
 40
1.0
 40
1.0
 40
1.0
 40
1.0
 10
2142.727185020853
 20
2540.812404848667
 30
0.0
 10
2142.768606596827
 20
2540.611437658329
 30
0.0
 10
2142.852650036468
 20
2540.203679780131
 30
0.0
 10
2143.141224500792
 20
2539.617597135927
 30
0.0
 10
2143.515592032309
 20
2539.073358654701
 30
0.0
 10
2143.896557133427
 20
2538.66300102795
 30
0.0
 10
2144.271756599845
 20
2538.355566172173
 30
0.0
 10
2144.576592414229
 20
2538.159990635351
 30
0.0
 10
2144.887886869216
 20
2538.01345976524
 30
0.0
 10
2145.174951681176
 20
2537.924044202831
 30
0.0
 10
2145.45998962721
 20
2537.88001810768
 30
0.0
 10
2145.728851870435
 20
2537.8778840304
 30
0.0
 10
2145.996271267282
 20
2537.915053589767
 30
0.0
 10
2146.287449295377
 20
2537.996885564707
 30
0.0
 10
2146.596003326883
 20
2538.134585237652
 30
0.0
 10
2146.966025789482
 20
2538.365371711779
 30
0.0
 10
2147.345522682755
 20
2538.686180902851
 30
0.0
 10
2147.754593040711
 20
2539.13987070794
 30
0.0
 10
2148.114493111643
 20
2539.680838183449
 30
0.0
 10
2148.382084556024
 20
2540.263161129536
 30
0.0
 10
2148.456222770631
 20
2540.638692550018
 30
0.0
 10
2148.490517423421
 20
2540.812404848667
 30
0.0
  0
SPLINE
  5
121
330
1F
100
AcDbEntity
  8
0
  6
Continuous
 62
     7
370
    25
100
AcDbSpline
210
0.0
220
0.0
230
1.0
 70
     8
 71
     3
 72
    14
 73
    10
 74
     0
 42
0.000000001
 43
0.00000001
 40
0.0
 40
0.0
 40
0.0
 40
0.0
 40
0.1996459493463011
 40
0.4049915957704314
 40
0.6077353381762731
 40
0.7118014853058038
 40
0.8168241091226293
 40
0.9440115703823924
 40
1.0
 40
1.0
 40
1.0
 40
1.0
 10
2153.028621150861
 20
2540.538093268284
 30
0.0
 10
2153.241938296917
 20
2540.298419266165
 30
0.0
 10
2153.674662585437
 20
2539.812228802995
 30
0.0
 10
2154.192772904583
 20
2539.057707532045
 30
0.0
 10
2154.534548761024
 20
2538.423009235035
 30
0.0
 10
2154.74070871921
 20
2537.924642267605
 30
0.0
 10
2154.8667264467
 20
2537.533872438662
 30
0.0
 10
2154.93536519596
 20
2537.216522612521
 30
0.0
 10
2154.940576627983
 20
2537.056232718505
 30
0.0
 10
2154.942169522624
 20
2537.007239483607
 30
0.0
  0
SPLINE
  5
122
330
1F
100
AcDbEntity
  8
0
  6
Continuous
 62
     7
370
    25
100
AcDbSpline
210
0.0
220
0.0
230
1.0
 70
     8
 71
     3
 72
    14
 73
    10
 74
     0
 42
0.000000001
 43
0.00000001
 40
0.0
 40
0.0
 40
0.0
 40
0.0
 40
0.2207653484382966
 40
0.3402146168141575
 40
0.4605704991790858
 40
0.5641909618661556
 40
0.6633542991972535
 40
0.8105247403619125
 40
1.0
 40
1.0
 40
1.0
 40
1.0
 10
2152.84150682789
 20
2540.578305893038
 30
0.0
 10
2152.800808032369
 20
2540.634739371044
 30
0.0
 10
2152.738088383561
 20
2540.721707249977
 30
0.0
 10
2152.697146978185
 20
2540.799005314945
 30
0.0
 10
2152.697826074152
 20
2540.825184425316
 30
0.0
 10
2152.731860979971
 20
2540.812555922937
 30
0.0
 10
2152.793908535375
 20
2540.767096314815
 30
0.0
 10
2152.89431485644
 20
2540.677623266965
 30
0.0
 10
2152.980252578005
 20
2540.588343086701
 30
0.0
 10
2153.028621150861
 20
2540.538093268284
 30
0.0
  0
SPLINE
  5
123
330
1F
100
AcDbEntity
  8
0
  6
Continuous
 62
     7
370
    25
100
AcDbSpline
210
0.0
220
0.0
230
1.0
 70
     8
 71
     3
 72
    23
 73
    19
 74
     0
 42
0.000000001
 43
0.00000001
 40
0.0
 40
0.0
 40
0.0
 40
0.0
 40
0.0863901050636703
 40
0.1752766177962519
 40
0.2621177065427345
 40
0.3519363559727536
 40
0.4192459175638977
 40
0.4528076006128831
 40
0.4875598503476026
 40
0.5342326170542432
 40
0.5808027178643163
 40
0.6174159281963807
 40
0.6550189806174209
 40
0.7176192476618372
 40
0.7818570182170481
 40
0.8689416197544364
 40
0.9585429605715619
 40
1.0
 40
1.0
 40
1.0
 40
1.0
 10
2149.248127850168
 20
2540.795145088706
 30
0.0
 10
2149.44646245454
 20
2540.584292722179
 30
0.0
 10
2149.848862921825
 20
2540.156495005857
 30
0.0
 10
2150.506532359638
 20
2539.500256474055
 30
0.0
 10
2151.188717888351
 20
2538.844572793363
 30
0.0
 10
2151.825458260185
 20
2538.272174366371
 30
0.0
 10
2152.325262173509
 20
2537.887729436366
 30
0.0
 10
2152.6733906174
 20
2537.684167256792
 30
0.0
 10
2152.957030754407
 20
2537.571833036546
 30
0.0
 10
2153.237347354295
 20
2537.55950282295
 30
0.0
 10
2153.443026051559
 20
2537.684634413077
 30
0.0
 10
2153.568848413515
 20
2537.874585952753
 30
0.0
 10
2153.655741426463
 20
2538.137574329223
 30
0.0
 10
2153.683825536256
 20
2538.50202728752
 30
0.0
 10
2153.619440448578
 20
2539.012502918394
 30
0.0
 10
2153.42607384307
 20
2539.61026471291
 30
0.0
 10
2153.141036349641
 20
2540.155527894813
 30
0.0
 10
2152.913486522324
 20
2540.476708458008
 30
0.0
 10
2152.84150682789
 20
2540.578305893038
 30
0.0
  0
SPLINE
  5
124
330
1F
100
AcDbEntity
  8
0
  6
Continuous
 62
     7
370
    25
100
AcDbSpline
210
0.0
220
0.0
230
1.0
 70
     8
 71
     3
 72
    14
 73
    10
 74
     0
 42
0.000000001
 43
0.00000001
 40
0.0
 40
0.0
 40
0.0
 40
0.0
 40
0.2243030424882935
 40
0.348901186626666
 40
0.4744001356117679
 40
0.5826741857066136
 40
0.6867417687947617
 40
0.8381564871696582
 40
1.0
 40
1.0
 40
1.0
 40
1.0
 10
2148.490517423421
 20
2540.812404848667
 30
0.0
 10
2148.505162961836
 20
2540.867336850213
 30
0.0
 10
2148.527943953459
 20
2540.952783040824
 30
0.0
 10
2148.629728579865
 20
2541.02863212436
 30
0.0
 10
2148.738418621415
 20
2541.054313082668
 30
0.0
 10
2148.859386631273
 20
2541.041495808145
 30
0.0
 10
2148.989681685112
 20
2540.996084485042
 30
0.0
 10
2149.127498386034
 20
2540.913906793791
 30
0.0
 10
2149.207035396875
 20
2540.835601289471
 30
0.0
 10
2149.248127850168
 20
2540.795145088706
 30
0.0
  0
SPLINE
  5
125
330
1F
100
AcDbEntity
  8
0
  6
Continuous
 62
     7
370
    25
100
AcDbSpline
210
0.0
220
0.0
230
1.0
 70
     8
 71
     3
 72
    14
 73
    10
 74
     0
 42
0.000000001
 43
0.00000001
 40
0.0
 40
0.0
 40
0.0
 40
0.0
 40
0.2239799089305531
 40
0.3530600787849406
 40
0.4831615846560053
 40
0.5937368434043864
 40
0.6971871626480907
 40
0.8442013099709667
 40
1.0
 40
1.0
 40
1.0
 40
1.0
 10
2141.969574594106
 20
2540.795145088706
 30
0.0
 10
2142.028194946778
 20
2540.850992319009
 30
0.0
 10
2142.120598352205
 20
2540.93902444486
 30
0.0
 10
2142.287636535797
 20
2541.02187314497
 30
0.0
 10
2142.423067849903
 20
2541.053590501677
 30
0.0
 10
2142.537508430702
 20
2541.044550255765
 30
0.0
 10
2142.631327529476
 20
2541.002509578552
 30
0.0
 10
2142.701435758422
 20
2540.925137745474
 30
0.0
 10
2142.71843752735
 20
2540.850702267282
 30
0.0
 10
2142.727185020853
 20
2540.812404848667
 30
0.0
  0
SPLINE
  5
126
330
1F
100
AcDbEntity
  8
0
  6
Continuous
 62
     7
370
    25
100
AcDbSpline
210
0.0
220
0.0
230
1.0
 70
     8
 71
     3
 72
    24
 73
    20
 74
     0
 42
0.000000001
 43
0.00000001
 40
0.0
 40
0.0
 40
0.0
 40
0.0
 40
0.0875562630610313
 40
0.1776478778994289
 40
0.2471757028850863
 40
0.3182848495519346
 40
0.3544514774164569
 40
0.3911558340110766
 40
0.4196735717850661
 40
0.4488792169076949
 40
0.4956340312872157
 40
0.5423649618835328
 40
0.5763627331264922
 40
0.611292785693311
 40
0.668934059844681
 40
0.7280698917726385
 40
0.8133417532352669
 40
0.901057072756078
 40
1.0
 40
1.0
 40
1.0
 40
1.0
 10
2138.376195616383
 20
2540.578305893038
 30
0.0
 10
2138.23012153528
 20
2540.36255144327
 30
0.0
 10
2137.933743530821
 20
2539.924794978929
 30
0.0
 10
2137.680670803573
 20
2539.306066556549
 30
0.0
 10
2137.551052181786
 20
2538.742657498987
 30
0.0
 10
2137.538658092225
 20
2538.33211636144
 30
0.0
 10
2137.592705832453
 20
2538.0309016846
 30
0.0
 10
2137.666634949744
 20
2537.843227200753
 30
0.0
 10
2137.770723265195
 20
2537.700977308202
 30
0.0
 10
2137.924084565642
 20
2537.58799927981
 30
0.0
 10
2138.16854988852
 20
2537.549381802737
 30
0.0
 10
2138.478890520468
 20
2537.649619742734
 30
0.0
 10
2138.77467450853
 20
2537.816538442225
 30
0.0
 10
2139.103843124515
 20
2538.046593822718
 30
0.0
 10
2139.500678121027
 20
2538.371541023867
 30
0.0
 10
2140.026759776473
 20
2538.844195773151
 30
0.0
 10
2140.624670776461
 20
2539.415757856162
 30
0.0
 10
2141.310882593707
 20
2540.096591681094
 30
0.0
 10
2141.741379052201
 20
2540.553140064653
 30
0.0
 10
2141.969574594106
 20
2540.795145088706
 30
0.0
  0
SPLINE
  5
127
330
1F
100
AcDbEntity
  8
0
  6
Continuous
 62
     7
370
    25
100
AcDbSpline
210
0.0
220
0.0
230
1.0
 70
     8
 71
     3
 72
    14
 73
    10
 74
     0
 42
0.000000001
 43
0.00000001
 40
0.0
 40
0.0
 40
0.0
 40
0.0
 40
0.2200911109485773
 40
0.3501199592091929
 40
0.4590676183976134
 40
0.5685351145660782
 40
0.6668402217389787
 40
0.7968948941936516
 40
1.0
 40
1.0
 40
1.0
 40
1.0
 10
2138.189081293413
 20
2540.538093268284
 30
0.0
 10
2138.245488717278
 20
2540.596463465932
 30
0.0
 10
2138.335221395974
 20
2540.689318516423
 30
0.0
 10
2138.437488363669
 20
2540.778165252837
 30
0.0
 10
2138.495761077681
 20
2540.818626641332
 30
0.0
 10
2138.521707505107
 20
2540.822297262452
 30
0.0
 10
2138.517145576669
 20
2540.791323691632
 30
0.0
 10
2138.47527227206
 20
2540.715406588397
 30
0.0
 10
2138.413719935488
 20
2540.630231447115
 30
0.0
 10
2138.376195616383
 20
2540.578305893038
 30
0.0
  0
SPLINE
  5
128
330
1F
100
AcDbEntity
  8
0
  6
Continuous
 62
     7
370
    25
100
AcDbSpline
210
0.0
220
0.0
230
1.0
 70
     8
 71
     3
 72
    14
 73
    10
 74
     0
 42
0.000000001
 43
0.00000001
 40
0.0
 40
0.0
 40
0.0
 40
0.0
 40
0.0318468616334088
 40
0.1382021891221604
 40
0.2470909675485201
 40
0.4405387664055844
 40
0.6393220179585627
 40
0.8177164190617505
 40
1.0
 40
1.0
 40
1.0
 40
1.0
 10
2136.276939886852
 20
2537.009799335981
 30
0.0
 10
2136.276643277205
 20
2537.036071842993
 30
0.0
 10
2136.275356114184
 20
2537.150083641846
 30
0.0
 10
2136.322277286382
 20
2537.41264025326
 30
0.0
 10
2136.452454585108
 20
2537.875929441391
 30
0.0
 10
2136.707736766763
 20
2538.487555777162
 30
0.0
 10
2137.114249714589
 20
2539.195036370701
 30
0.0
 10
2137.607084560238
 20
2539.887297332649
 30
0.0
 10
2137.993692787392
 20
2540.319607427488
 30
0.0
 10
2138.189081293413
 20
2540.538093268284
 30
0.0
  0
LINE
  5
129
330
1F
100
AcDbEntity
  8
0
  6
Continuous
 62
     8
370
    18
100
AcDbLine
 10
2208.6088512221
 20
2528.8994489763
 30
0.0
 11
2208.6088512221
 21
2538.8994489763
 31
0.0
  0
LINE
  5
12A
330
1F
100
AcDbEntity
  8
0
  6
Continuous
 62
     8
370
    18
100
AcDbLine
 10
1292.6088512221
 20
2538.8994489763
 30
0.0
 11
1292.6088512221
 21
2528.8994489763
 31
0.0
  0
LINE
  5
12B
330
1F
100
AcDbEntity
  8
0
  6
Continuous
 62
     8
370
    18
100
AcDbLine
 10
2136.2742358956
 20
2526.3994489763
 30
0.0
 11
1364.9434665487
 21
2526.3994489763
 31
0.0
  0
LINE
  5
12C
330
1F
100
AcDbEntity
  8
0
  6
Continuous
 62
     8
370
    18
100
AcDbLine
 10
2136.2742358956
 20
2496.3994489763
 30
0.0
 11
1364.9434665487
 21
2496.3994489763
 31
0.0
  0
LINE
  5
12D
330
1F
100
AcDbEntity
  8
0
  6
Continuous
 62
     8
370
    18
100
AcDbLine
 10
1346.1088512221
 20
2100.899448972
 30
0.0
 11
1365.1088512221
 21
2100.899448972
 31
0.0
  0
LINE
  5
12E
330
1F
100
AcDbEntity
  8
0
  6
Continuous
 62
     8
370
    18
100
AcDbLine
 10
2136.1088512221
 20
2100.899448972
 30
0.0
 11
2155.1088512221
 21
2100.899448972
 31
0.0
  0
LINE
  5
12F
330
1F
100
AcDbEntity
  8
0
  6
Continuous
 62
     8
370
    18
100
AcDbLine
 10
1358.4905174234
 20
2540.8124048487
 30
0.0
 11
1358.4905174234
 21
2103.899448972
 31
0.0
  0
LINE
  5
130
330
1F
100
AcDbEntity
  8
0
  6
Continuous
 62
     8
370
    18
100
AcDbLine
 10
1352.7271850209
 20
2540.8124048487
 30
0.0
 11
1352.7271850209
 21
2103.899448972
 31
0.0
  0
LINE
  5
131
330
1F
100
AcDbEntity
  8
0
  6
Continuous
 62
     8
370
    18
100
AcDbLine
 10
1351.9695745941
 20
2540.7951450887
 30
0.0
 11
1351.9695745941
 21
2103.899448972
 31
0.0
  0
LINE
  5
132
330
1F
100
AcDbEntity
  8
0
  6
Continuous
 62
     8
370
    18
100
AcDbLine
 10
1359.2481278502
 20
2540.7951450887
 30
0.0
 11
1359.2481278502
 21
2103.899448972
 31
0.0
  0
LINE
  5
133
330
1F
100
AcDbEntity
  8
0
  6
Continuous
 62
     8
370
    18
100
AcDbLine
 10
1363.0286211509
 20
2540.5380932683
 30
0.0
 11
1363.0286211509
 21
2540.306553548
 31
0.0
  0
LINE
  5
134
330
1F
100
AcDbEntity
  8
0
  6
Continuous
 62
     8
370
    18
100
AcDbLine
 10
1348.1890812934
 20
2540.5380932683
 30
0.0
 11
1348.1890812934
 21
2540.2824380577
 31
0.0
  0
LINE
  5
135
330
1F
100
AcDbEntity
  8
0
  6
Continuous
 62
     8
370
    18
100
AcDbLine
 10
2148.4905174234
 20
2540.8124048487
 30
0.0
 11
2148.4905174234
 21
2103.899448972
 31
0.0
  0
LINE
  5
136
330
1F
100
AcDbEntity
  8
0
  6
Continuous
 62
     8
370
    18
100
AcDbLine
 10
2142.7271850209
 20
2540.8124048487
 30
0.0
 11
2142.7271850209
 21
2103.899448972
 31
0.0
  0
LINE
  5
137
330
1F
100
AcDbEntity
  8
0
  6
Continuous
 62
     8
370
    18
100
AcDbLine
 10
2141.9695745941
 20
2540.7951450887
 30
0.0
 11
2141.9695745941
 21
2103.899448972
 31
0.0
  0
LINE
  5
138
330
1F
100
AcDbEntity
  8
0
  6
Continuous
 62
     8
370
    18
100
AcDbLine
 10
2149.2481278502
 20
2540.7951450887
 30
0.0
 11
2149.2481278502
 21
2103.899448972
 31
0.0
  0
LINE
  5
139
330
1F
100
AcDbEntity
  8
0
  6
Continuous
 62
     8
370
    18
100
AcDbLine
 10
2153.0286211509
 20
2540.5380932683
 30
0.0
 11
2153.0286211509
 21
2540.306553548
 31
0.0
  0
LINE
  5
13A
330
1F
100
AcDbEntity
  8
0
  6
Continuous
 62
     8
370
    18
100
AcDbLine
 10
2138.1890812934
 20
2540.5380932683
 30
0.0
 11
2138.1890812934
 21
2540.2824380577
 31
0.0
  0
LINE
  5
13B
330
1F
100
AcDbEntity
  8
0
  6
Continuous
 62
     7
370
    25
100
AcDbLine
 10
2440.8095669673
 20
2100.899448972
 30
0.0
 11
2440.8095669673
 21
2103.899448972
 31
0.0
  0
LINE
  5
13C
330
1F
100
AcDbEntity
  8
0
  6
Continuous
 62
     7
370
    25
100
AcDbLine
 10
2421.8095669673
 20
2103.899448972
 30
0.0
 11
2421.8095669673
 21
2100.899448972
 31
0.0
  0
ARC
  5
13D
330
1F
100
AcDbEntity
  8
0
  6
Continuous
 62
     7
370
    25
100
AcDbCircle
 10
2426.8095669673
 20
2100.899448972
 30
0.0
 40
5.0
100
AcDbArc
 50
180.0
 51
270.0
  0
ARC
  5
13E
330
1F
100
AcDbEntity
  8
0
  6
Continuous
 62
     7
370
    25
100
AcDbCircle
 10
2435.8095669673
 20
2100.899448972
 30
0.0
 40
5.0
100
AcDbArc
 50
270.0
 51
0.0
  0
ARC
  5
13F
330
1F
100
AcDbEntity
  8
0
  6
Continuous
 62
     7
370
    25
100
AcDbCircle
 10
3435.5140970024
 20
2100.899448972
 30
0.0
 40
5.000000000000455
100
AcDbArc
 50
180.0
 51
270.0
  0
ARC
  5
140
330
1F
100
AcDbEntity
  8
0
  6
Continuous
 62
     7
370
    25
100
AcDbCircle
 10
3444.5140970024
 20
2100.899448972
 30
0.0
 40
5.000000000000455
100
AcDbArc
 50
270.0
 51
0.0
  0
LINE
  5
141
330
1F
100
AcDbEntity
  8
0
  6
Continuous
 62
     7
370
    25
100
AcDbLine
 10
3449.5140970024
 20
2100.899448972
 30
0.0
 11
3449.5140970024
 21
2103.899448972
 31
0.0
  0
LINE
  5
142
330
1F
100
AcDbEntity
  8
0
  6
Continuous
 62
     7
370
    25
100
AcDbLine
 10
3430.5140970024
 20
2103.899448972
 30
0.0
 11
3430.5140970024
 21
2100.899448972
 31
0.0
  0
LINE
  5
143
330
1F
100
AcDbEntity
  8
0
  6
Continuous
 62
     7
370
    25
100
AcDbLine
 10
3435.6426336587
 20
2539.9420434527
 30
0.0
 11
3435.6426336587
 21
2528.449398191
 31
0.0
  0
LINE
  5
144
330
1F
100
AcDbEntity
  8
0
  6
Continuous
 62
     7
370
    25
100
AcDbLine
 10
3435.6426336587
 20
2494.3494997616
 30
0.0
 11
3435.6426336587
 21
2103.899448972
 31
0.0
  0
ARC
  5
145
330
1F
100
AcDbEntity
  8
0
  6
Continuous
 62
     7
370
    25
100
AcDbCircle
 10
3440.3407198102
 20
2533.899448972
 30
0.0
 40
10.00000000000009
100
AcDbArc
 50
23.4927471921
 51
139.5991717239
  0
LINE
  5
146
330
1F
100
AcDbEntity
  8
0
  6
Continuous
 62
     7
370
    25
100
AcDbLine
 10
3447.0304978459
 20
2103.899448972
 30
0.0
 11
3447.0304978459
 21
2539.2558460328
 31
0.0
  0
LINE
  5
147
330
1F
100
AcDbEntity
  8
0
  6
Continuous
 62
     7
370
    25
100
AcDbLine
 10
3431.167342618
 20
2536.6693009131
 30
0.0
 11
3431.167342618
 21
2528.8994489763
 31
0.0
  0
LINE
  5
148
330
1F
100
AcDbEntity
  8
0
  6
Continuous
 62
     7
370
    25
100
AcDbLine
 10
3431.167342618
 20
2493.8994489763
 30
0.0
 11
3431.167342618
 21
2103.899448972
 31
0.0
  0
LINE
  5
149
330
1F
100
AcDbEntity
  8
0
  6
Continuous
 62
     7
370
    25
100
AcDbLine
 10
3449.5140970024
 20
2103.899448972
 30
0.0
 11
3449.5140970024
 21
2537.8855256006
 31
0.0
  0
LINE
  5
14A
330
1F
100
AcDbEntity
  8
0
  6
Continuous
 62
     7
370
    25
100
AcDbLine
 10
2435.681030311
 20
2103.899448972
 30
0.0
 11
2435.681030311
 21
2494.3494997615
 31
0.0
  0
LINE
  5
14B
330
1F
100
AcDbEntity
  8
0
  6
Continuous
 62
     7
370
    25
100
AcDbLine
 10
2435.681030311
 20
2528.449398191
 30
0.0
 11
2435.681030311
 21
2539.9429929067
 31
0.0
  0
ARC
  5
14C
330
1F
100
AcDbEntity
  8
0
  6
Continuous
 62
     7
370
    25
100
AcDbCircle
 10
2430.9829441595
 20
2533.899448972
 30
0.0
 40
10.00000000000013
100
AcDbArc
 50
40.3981265226
 51
156.5046142365
  0
LINE
  5
14D
330
1F
100
AcDbEntity
  8
0
  6
Continuous
 62
     7
370
    25
100
AcDbLine
 10
2424.2931661238
 20
2539.2563420635
 30
0.0
 11
2424.2931661238
 21
2103.899448972
 31
0.0
  0
LINE
  5
14E
330
1F
100
AcDbEntity
  8
0
  6
Continuous
 62
     7
370
    25
100
AcDbLine
 10
2440.1563213518
 20
2103.899448972
 30
0.0
 11
2440.1563213518
 21
2493.8994489763
 31
0.0
  0
LINE
  5
14F
330
1F
100
AcDbEntity
  8
0
  6
Continuous
 62
     7
370
    25
100
AcDbLine
 10
2440.1563213518
 20
2528.8994489763
 30
0.0
 11
2440.1563213518
 21
2536.672272765
 31
0.0
  0
LINE
  5
150
330
1F
100
AcDbEntity
  8
0
  6
Continuous
 62
     7
370
    25
100
AcDbLine
 10
2421.8095669673
 20
2537.8855256006
 30
0.0
 11
2421.8095669673
 21
2103.899448972
 31
0.0
  0
LINE
  5
151
330
1F
100
AcDbEntity
  8
0
  6
Continuous
 62
     7
370
    25
100
AcDbLine
 10
2440.6618319849
 20
2528.8994489763
 30
0.0
 11
2440.6618319849
 21
2538.8994489763
 31
0.0
  0
LINE
  5
152
330
1F
100
AcDbEntity
  8
0
  6
Continuous
 62
     7
370
    25
100
AcDbLine
 10
2440.6618319849
 20
2538.8994489763
 30
0.0
 11
2477.6618319849
 21
2538.8994489763
 31
0.0
  0
LINE
  5
153
330
1F
100
AcDbEntity
  8
0
  6
Continuous
 62
     7
370
    25
100
AcDbLine
 10
2477.6618319849
 20
2528.8994489763
 30
0.0
 11
2440.6618319849
 21
2528.8994489763
 31
0.0
  0
LINE
  5
154
330
1F
100
AcDbEntity
  8
0
  6
Continuous
 62
     7
370
    25
100
AcDbLine
 10
3393.6618319849
 20
2538.8994489763
 30
0.0
 11
2477.6618319849
 21
2538.8994489763
 31
0.0
  0
LINE
  5
155
330
1F
100
AcDbEntity
  8
0
  6
Continuous
 62
     7
370
    25
100
AcDbLine
 10
3393.6618319849
 20
2528.8994489763
 30
0.0
 11
2477.6618319849
 21
2528.8994489763
 31
0.0
  0
LINE
  5
156
330
1F
100
AcDbEntity
  8
0
  6
Continuous
 62
     7
370
    25
100
AcDbLine
 10
3430.6618319849
 20
2538.8994489763
 30
0.0
 11
3430.6618319849
 21
2528.8994489763
 31
0.0
  0
LINE
  5
157
330
1F
100
AcDbEntity
  8
0
  6
Continuous
 62
     7
370
    25
100
AcDbLine
 10
3393.6618319849
 20
2538.8994489763
 30
0.0
 11
3430.6618319849
 21
2538.8994489763
 31
0.0
  0
LINE
  5
158
330
1F
100
AcDbEntity
  8
0
  6
Continuous
 62
     7
370
    25
100
AcDbLine
 10
3430.6618319849
 20
2528.8994489763
 30
0.0
 11
3393.6618319849
 21
2528.8994489763
 31
0.0
  0
LINE
  5
159
330
1F
100
AcDbEntity
  8
0
  6
Continuous
 62
     7
370
    25
100
AcDbLine
 10
2439.2174483085
 20
2493.8994489763
 30
0.0
 11
3432.1042615076
 21
2493.8994489763
 31
0.0
  0
LINE
  5
15A
330
1F
100
AcDbEntity
  8
0
  6
Continuous
 62
     7
370
    25
100
AcDbLine
 10
2435.4818319849
 20
2496.1539777445
 30
0.0
 11
2435.4818319849
 21
2496.3994489763
 31
0.0
  0
LINE
  5
15B
330
1F
100
AcDbEntity
  8
0
  6
Continuous
 62
     7
370
    25
100
AcDbLine
 10
3435.8418319849
 20
2496.1653381281
 30
0.0
 11
3435.8418319849
 21
2496.3994489763
 31
0.0
  0
LINE
  5
15C
330
1F
100
AcDbEntity
  8
0
  6
Continuous
 62
     7
370
    25
100
AcDbLine
 10
2435.4818319849
 20
2526.3994489763
 30
0.0
 11
2435.4818319849
 21
2526.644920208
 31
0.0
  0
LINE
  5
15D
330
1F
100
AcDbEntity
  8
0
  6
Continuous
 62
     7
370
    25
100
AcDbLine
 10
2439.2174483085
 20
2528.8994489763
 30
0.0
 11
2440.6618319849
 21
2528.8994489763
 31
0.0
  0
LINE
  5
15E
330
1F
100
AcDbEntity
  8
0
  6
Continuous
 62
     7
370
    25
100
AcDbLine
 10
3430.6618319849
 20
2528.8994489763
 30
0.0
 11
3432.1042615076
 21
2528.8994489763
 31
0.0
  0
LINE
  5
15F
330
1F
100
AcDbEntity
  8
0
  6
Continuous
 62
     7
370
    25
100
AcDbLine
 10
3435.8418319849
 20
2526.3994489763
 30
0.0
 11
3435.8418319849
 21
2526.6335598245
 31
0.0
  0
LINE
  5
160
330
1F
100
AcDbEntity
  8
0
  6
Continuous
 62
     7
370
    25
100
AcDbLine
 10
2435.4818319849
 20
2496.3994489763
 30
0.0
 11
2435.4818319849
 21
2526.3994489763
 31
0.0
  0
LINE
  5
161
330
1F
100
AcDbEntity
  8
0
  6
Continuous
 62
     7
370
    25
100
AcDbLine
 10
3435.8418319849
 20
2496.3994489763
 30
0.0
 11
3435.8418319849
 21
2526.3994489763
 31
0.0
  0
LINE
  5
162
330
1F
100
AcDbEntity
  8
0
  6
Continuous
 62
     7
370
    25
100
AcDbLine
 10
3432.1042615076
 20
2493.8994489763
 30
0.0
 11
3432.1062156613
 21
2493.8994489763
 31
0.0
  0
LINE
  5
163
330
1F
100
AcDbEntity
  8
0
  6
Continuous
 62
     7
370
    25
100
AcDbLine
 10
3432.1042615076
 20
2528.8994489763
 30
0.0
 11
3432.1062156613
 21
2528.8994489763
 31
0.0
  0
LINE
  5
164
330
1F
100
AcDbEntity
  8
0
  6
Continuous
 62
     7
370
    25
100
AcDbLine
 10
2440.8095669673
 20
2103.899448972
 30
0.0
 11
2421.8095669673
 21
2103.899448972
 31
0.0
  0
LINE
  5
165
330
1F
100
AcDbEntity
  8
0
  6
Continuous
 62
     7
370
    25
100
AcDbLine
 10
2431.3095669673
 20
2095.899448972
 30
0.0
 11
2426.8095669673
 21
2095.899448972
 31
0.0
  0
LINE
  5
166
330
1F
100
AcDbEntity
  8
0
  6
Continuous
 62
     7
370
    25
100
AcDbLine
 10
2435.8095669673
 20
2095.899448972
 30
0.0
 11
2431.3095669673
 21
2095.899448972
 31
0.0
  0
LINE
  5
167
330
1F
100
AcDbEntity
  8
0
  6
Continuous
 62
     7
370
    25
100
AcDbLine
 10
3444.5140970024
 20
2095.899448972
 30
0.0
 11
3435.5140970024
 21
2095.899448972
 31
0.0
  0
LINE
  5
168
330
1F
100
AcDbEntity
  8
0
  6
Continuous
 62
     7
370
    25
100
AcDbLine
 10
3440.0140970024
 20
2103.899448972
 30
0.0
 11
3430.5140970024
 21
2103.899448972
 31
0.0
  0
LINE
  5
169
330
1F
100
AcDbEntity
  8
0
  6
Continuous
 62
     7
370
    25
100
AcDbLine
 10
3449.5140970024
 20
2103.899448972
 30
0.0
 11
3440.0140970024
 21
2103.899448972
 31
0.0
  0
SPLINE
  5
16A
330
1F
100
AcDbEntity
  8
0
  6
Continuous
 62
     7
370
    25
100
AcDbSpline
210
0.0
220
0.0
230
1.0
 70
     8
 71
     3
 72
    27
 73
    23
 74
     0
 42
0.000000001
 43
0.00000001
 40
0.0
 40
0.0
 40
0.0
 40
0.0
 40
0.0910683471803979
 40
0.1847464164709046
 40
0.258826694605563
 40
0.3345190598259283
 40
0.3626447427195219
 40
0.3910056482847437
 40
0.4191743039829892
 40
0.4481203606979621
 40
0.4657704782447525
 40
0.483908170643317
 40
0.5015721548764651
 40
0.5197440214872919
 40
0.5448446854435515
 40
0.5706253690117599
 40
0.6177938154944744
 40
0.6660858441031506
 40
0.7518796859636183
 40
0.8400397940083039
 40
0.9191574739584839
 40
1.0
 40
1.0
 40
1.0
 40
1.0
 10
3435.657522925269
 20
2540.255636481947
 30
0.0
 10
3435.650537971815
 20
2540.005948195433
 30
0.0
 10
3435.636367898899
 20
2539.499416369649
 30
0.0
 10
3435.818919438465
 20
2538.772404144129
 30
0.0
 10
3436.107552517361
 20
2538.098268322805
 30
0.0
 10
3436.409590968485
 20
2537.622914999361
 30
0.0
 10
3436.690873984754
 20
2537.299265480587
 30
0.0
 10
3436.894861139915
 20
2537.10799881616
 30
0.0
 10
3437.129012857145
 20
2536.940324723329
 30
0.0
 10
3437.363464087943
 20
2536.829906489068
 30
0.0
 10
3437.585893620813
 20
2536.774994009743
 30
0.0
 10
3437.778800372745
 20
2536.760720423467
 30
0.0
 10
3437.97691785465
 20
2536.779827737146
 30
0.0
 10
3438.197611280131
 20
2536.836213431262
 30
0.0
 10
3438.437589878957
 20
2536.938849440796
 30
0.0
 10
3438.756301270823
 20
2537.127920381816
 30
0.0
 10
3439.115529791524
 20
2537.410717436995
 30
0.0
 10
3439.598782331665
 20
2537.876912633337
 30
0.0
 10
3440.120744772955
 20
2538.487221797598
 30
0.0
 10
3440.619290313899
 20
2539.19511614488
 30
0.0
 10
3441.021855002923
 20
2539.887277808812
 30
0.0
 10
3441.190915045665
 20
2540.319600872926
 30
0.0
 10
3441.276356551714
 20
2540.538093268284
 30
0.0
  0
SPLINE
  5
16B
330
1F
100
AcDbEntity
  8
0
  6
Continuous
 62
     7
370
    25
100
AcDbSpline
210
0.0
220
0.0
230
1.0
 70
     8
 71
     3
 72
    17
 73
    13
 74
     0
 42
0.000000001
 43
0.00000001
 40
0.0
 40
0.0
 40
0.0
 40
0.0
 40
0.1708555594497436
 40
0.3466620610186351
 40
0.489712989905456
 40
0.6362572085081502
 40
0.7155620653438635
 40
0.7961843253238022
 40
0.8575531082407298
 40
0.9204137017652801
 40
0.9711573861386726
 40
1.0
 40
1.0
 40
1.0
 40
1.0
 10
3446.966958634123
 20
2540.812404848667
 30
0.0
 10
3447.183025480529
 20
2540.611437454465
 30
0.0
 10
3447.62142021895
 20
2540.203679162631
 30
0.0
 10
3448.178529219489
 20
2539.61759949084
 30
0.0
 10
3448.650018849012
 20
2539.07335157336
 30
0.0
 10
3448.97181034199
 20
2538.6630230659
 30
0.0
 10
3449.195892260304
 20
2538.355524264838
 30
0.0
 10
3449.331095000524
 20
2538.160136830682
 30
0.0
 10
3449.428905302758
 20
2538.013052629894
 30
0.0
 10
3449.485509525058
 20
2537.925491030737
 30
0.0
 10
3449.512716798789
 20
2537.882725029366
 30
0.0
 10
3449.511408322875
 20
2537.884780983107
 30
0.0
 10
3449.510934122336
 20
2537.885526074678
 30
0.0
  0
SPLINE
  5
16C
330
1F
100
AcDbEntity
  8
0
  6
Continuous
 62
     7
370
    25
100
AcDbSpline
210
0.0
220
0.0
230
1.0
 70
     8
 71
     3
 72
    14
 73
    10
 74
     0
 42
0.000000001
 43
0.00000001
 40
0.0
 40
0.0
 40
0.0
 40
0.0
 40
0.2239799089305531
 40
0.3530600787849406
 40
0.4831615846560053
 40
0.5937368434043864
 40
0.6971871626480907
 40
0.8442013099709667
 40
1.0
 40
1.0
 40
1.0
 40
1.0
 10
3446.602112681658
 20
2540.795145088705
 30
0.0
 10
3446.57369467489
 20
2540.850992319009
 30
0.0
 10
3446.52889930125
 20
2540.93902444486
 30
0.0
 10
3446.525174097888
 20
2541.02187314497
 30
0.0
 10
3446.559690791429
 20
2541.053590501677
 30
0.0
 10
3446.627172285265
 20
2541.044550255765
 30
0.0
 10
3446.719388126936
 20
2541.002509578552
 30
0.0
 10
3446.836817943692
 20
2540.925137745473
 30
0.0
 10
3446.92274747091
 20
2540.850702267282
 30
0.0
 10
3446.966958634123
 20
2540.812404848667
 30
0.0
  0
SPLINE
  5
16D
330
1F
100
AcDbEntity
  8
0
  6
Continuous
 62
     7
370
    25
100
AcDbSpline
210
0.0
220
0.0
230
1.0
 70
     8
 71
     3
 72
    24
 73
    20
 74
     0
 42
0.000000001
 43
0.00000001
 40
0.0
 40
0.0
 40
0.0
 40
0.0
 40
0.0875562630610312
 40
0.1776478778994356
 40
0.2471757028850856
 40
0.3182848495519417
 40
0.3544514774164556
 40
0.3911558340110754
 40
0.4196735717850664
 40
0.4488792169076932
 40
0.4956340312872254
 40
0.5423649618835424
 40
0.576362733126496
 40
0.6112927856933148
 40
0.6689340598446847
 40
0.7280698917726421
 40
0.8133417532352668
 40
0.9010570727560779
 40
0.9999999999999999
 40
0.9999999999999999
 40
0.9999999999999999
 40
0.9999999999999999
 10
3442.096157965403
 20
2540.578305893038
 30
0.0
 10
3442.267246697841
 20
2540.36255144327
 30
0.0
 10
3442.614378349963
 20
2539.924794978929
 30
0.0
 10
3443.193843441474
 20
2539.306066556549
 30
0.0
 10
3443.776895379209
 20
2538.742657498987
 30
0.0
 10
3444.256872252436
 20
2538.332116361439
 30
0.0
 10
3444.667728328611
 20
2538.030901684601
 30
0.0
 10
3444.967654689944
 20
2537.843227200753
 30
0.0
 10
3445.254348078617
 20
2537.700977308202
 30
0.0
 10
3445.574787847337
 20
2537.58799927981
 30
0.0
 10
3445.944764410161
 20
2537.549381802737
 30
0.0
 10
3446.270558707595
 20
2537.649619742734
 30
0.0
 10
3446.504768952792
 20
2537.816538442225
 30
0.0
 10
3446.710134848693
 20
2538.046593822718
 30
0.0
 10
3446.884399902391
 20
2538.371541023867
 30
0.0
 10
3447.018561886372
 20
2538.844195773151
 30
0.0
 10
3447.048403557842
 20
2539.415757856162
 30
0.0
 10
3446.939361028626
 20
2540.096591681094
 30
0.0
 10
3446.718948121053
 20
2540.553140064653
 30
0.0
 10
3446.602112681658
 20
2540.795145088705
 30
0.0
  0
SPLINE
  5
16E
330
1F
100
AcDbEntity
  8
0
  6
Continuous
 62
     7
370
    25
100
AcDbSpline
210
0.0
220
0.0
230
1.0
 70
     8
 71
     3
 72
    14
 73
    10
 74
     0
 42
0.000000001
 43
0.00000001
 40
0.0
 40
0.0
 40
0.0
 40
0.0
 40
0.2200911109485839
 40
0.3501199592092674
 40
0.4590676183976911
 40
0.5685351145661591
 40
0.6668402217389687
 40
0.7968948941936455
 40
1.0
 40
1.0
 40
1.0
 40
1.0
 10
3441.276356551714
 20
2540.538093268284
 30
0.0
 10
3441.302999873501
 20
2540.596463465932
 30
0.0
 10
3441.345383951154
 20
2540.689318516423
 30
0.0
 10
3441.463575365879
 20
2540.778165252837
 30
0.0
 10
3441.579455457112
 20
2540.818626641331
 30
0.0
 10
3441.70144129909
 20
2540.822297262452
 30
0.0
 10
3441.829105986796
 20
2540.791323691631
 30
0.0
 10
3441.97490764119
 20
2540.715406588398
 30
0.0
 10
3442.050235585139
 20
2540.630231447115
 30
0.0
 10
3442.096157965403
 20
2540.578305893038
 30
0.0
  0
SPLINE
  5
16F
330
1F
100
AcDbEntity
  8
0
  6
Continuous
 62
     7
370
    25
100
AcDbSpline
210
0.0
220
0.0
230
1.0
 70
     8
 71
     3
 72
    15
 73
    11
 74
     0
 42
0.000000001
 43
0.00000001
 40
0.0
 40
0.0
 40
0.0
 40
0.0
 40
0.2150763736126738
 40
0.3413349926978222
 40
0.446593490352974
 40
0.5524796219272535
 40
0.6449070621726983
 40
0.7662146539024285
 40
0.9406316560516657
 40
1.0
 40
1.0
 40
1.0
 40
1.0
 10
3435.000093235766
 20
2540.221763152694
 30
0.0
 10
3435.058273497501
 20
2540.282406131796
 30
0.0
 10
3435.150607950051
 20
2540.378649017433
 30
0.0
 10
3435.299672483525
 20
2540.473464085558
 30
0.0
 10
3435.416025624887
 20
2540.518854088193
 30
0.0
 10
3435.512744662437
 20
2540.52601997417
 30
0.0
 10
3435.590403571447
 20
2540.497643315242
 30
0.0
 10
3435.647992662751
 20
2540.427156865213
 30
0.0
 10
3435.663299509119
 20
2540.337292743022
 30
0.0
 10
3435.65869277654
 20
2540.272173190021
 30
0.0
 10
3435.657522925269
 20
2540.255636481947
 30
0.0
  0
SPLINE
  5
170
330
1F
100
AcDbEntity
  8
0
  6
Continuous
 62
     7
370
    25
100
AcDbSpline
210
0.0
220
0.0
230
1.0
 70
     8
 71
     3
 72
    26
 73
    22
 74
     0
 42
0.000000001
 43
0.00000001
 40
0.0
 40
0.0
 40
0.0
 40
0.0
 40
0.0912035599485244
 40
0.1849670362499695
 40
0.2785634207445228
 40
0.3265394520589588
 40
0.3749439889045985
 40
0.4231405593180557
 40
0.4430841889857747
 40
0.4634373414447631
 40
0.4878409265543382
 40
0.5123587387506972
 40
0.5280992736585298
 40
0.5442699367721624
 40
0.5755700365325684
 40
0.6075525397506825
 40
0.683442401457062
 40
0.7611024134337999
 40
0.8469107031299032
 40
0.9346000221708236
 40
0.9999999999999999
 40
0.9999999999999999
 40
0.9999999999999999
 40
0.9999999999999999
 10
3432.499477023162
 20
2540.091229008658
 30
0.0
 10
3432.304013297469
 20
2539.81452996591
 30
0.0
 10
3431.907599538443
 20
2539.253365446686
 30
0.0
 10
3431.497315892995
 20
2538.378808473661
 30
0.0
 10
3431.27368027959
 20
2537.637530486079
 30
0.0
 10
3431.180763954466
 20
2537.050200690768
 30
0.0
 10
3431.158127353143
 20
2536.617563686604
 30
0.0
 10
3431.185893810403
 20
2536.292863209181
 30
0.0
 10
3431.242913657795
 20
2536.086139533936
 30
0.0
 10
3431.304389851627
 20
2535.964552227123
 30
0.0
 10
3431.40035457641
 20
2535.894231050879
 30
0.0
 10
3431.518590080027
 20
2535.924327194997
 30
0.0
 10
3431.629123228775
 20
2536.006280374322
 30
0.0
 10
3431.756042638395
 20
2536.131255270277
 30
0.0
 10
3431.918424524375
 20
2536.32874253166
 30
0.0
 10
3432.207919232939
 20
2536.716717720826
 30
0.0
 10
3432.612598376261
 20
2537.282618342841
 30
0.0
 10
3433.174469070502
 20
2538.032411708392
 30
0.0
 10
3433.803330196085
 20
2538.822443645663
 30
0.0
 10
3434.428728386227
 20
2539.565688669034
 30
0.0
 10
3434.829067685228
 20
2540.025381628956
 30
0.0
 10
3435.000093235766
 20
2540.221763152694
 30
0.0
  0
SPLINE
  5
171
330
1F
100
AcDbEntity
  8
0
  6
Continuous
 62
     7
370
    25
100
AcDbSpline
210
0.0
220
0.0
230
1.0
 70
     8
 71
     3
 72
    12
 73
     8
 74
     0
 42
0.000000001
 43
0.00000001
 40
0.0
 40
0.0
 40
0.0
 40
0.0
 40
0.0732840821204851
 40
0.2518520338976241
 40
0.491666844901602
 40
0.8425072373435062
 40
1.0
 40
1.0
 40
1.0
 40
1.0
 10
3432.725494372066
 20
2540.380573311109
 30
0.0
 10
3432.726410194639
 20
2540.381719449022
 30
0.0
 10
3432.729557559945
 20
2540.385658328465
 30
0.0
 10
3432.706535004643
 20
2540.356855052705
 30
0.0
 10
3432.650560459293
 20
2540.286319556342
 30
0.0
 10
3432.573227881014
 20
2540.187526357011
 30
0.0
 10
3432.516921862784
 20
2540.114006937579
 30
0.0
 10
3432.499477023162
 20
2540.091229008658
 30
0.0
  0
SPLINE
  5
172
330
1F
100
AcDbEntity
  8
0
  6
Continuous
 62
     7
370
    25
100
AcDbSpline
210
0.0
220
0.0
230
1.0
 70
     8
 71
     3
 72
    27
 73
    23
 74
     0
 42
0.000000001
 43
0.00000001
 40
0.0
 40
0.0
 40
0.0
 40
0.0
 40
0.0885627570442145
 40
0.1796538943995933
 40
0.2695908295576351
 40
0.3157544754264159
 40
0.3623424134621817
 40
0.4187626527282479
 40
0.446931574336493
 40
0.4757555362193681
 40
0.4937367345958537
 40
0.5121853392428816
 40
0.5301891255062613
 40
0.5487612444758514
 40
0.5721476357447943
 40
0.5961816793253278
 40
0.6385637840833137
 40
0.6819638929543772
 40
0.7628695907407601
 40
0.8459362592691241
 40
0.9222273191770641
 40
1.0
 40
1.0
 40
1.0
 40
1.0
 10
2430.047307418029
 20
2540.538093268284
 30
0.0
 10
2430.142226345831
 20
2540.2984151062
 30
0.0
 10
2430.334774044221
 20
2539.812216204336
 30
0.0
 10
2430.792041200483
 20
2539.057759333988
 30
0.0
 10
2431.259414772266
 20
2538.422857179657
 30
0.0
 10
2431.689936203819
 20
2537.924914432397
 30
0.0
 10
2432.073276896307
 20
2537.532730377792
 30
0.0
 10
2432.448185328422
 20
2537.212394329601
 30
0.0
 10
2432.807761372125
 20
2536.979692168844
 30
0.0
 10
2433.064450050542
 20
2536.857969005388
 30
0.0
 10
2433.299023226469
 20
2536.789129312582
 30
0.0
 10
2433.498797945187
 20
2536.761984090251
 30
0.0
 10
2433.69868797273
 20
2536.769136862771
 30
0.0
 10
2433.907273628953
 20
2536.813560032649
 30
0.0
 10
2434.119408064882
 20
2536.901298702868
 30
0.0
 10
2434.378222349997
 20
2537.062813290122
 30
0.0
 10
2434.649185278089
 20
2537.307895041941
 30
0.0
 10
2434.989740243885
 20
2537.725000029031
 30
0.0
 10
2435.313595104083
 20
2538.287436621499
 30
0.0
 10
2435.558662914154
 20
2538.957343123197
 30
0.0
 10
2435.690354677975
 20
2539.621061332777
 30
0.0
 10
2435.674263837162
 20
2540.042759617286
 30
0.0
 10
2435.666141044474
 20
2540.255636481947
 30
0.0
  0
SPLINE
  5
173
330
1F
100
AcDbEntity
  8
0
  6
Continuous
 62
     7
370
    25
100
AcDbSpline
210
0.0
220
0.0
230
1.0
 70
     8
 71
     3
 72
    14
 73
    10
 74
     0
 42
0.000000001
 43
0.00000001
 40
0.0
 40
0.0
 40
0.0
 40
0.0
 40
0.220765348438307
 40
0.3402146168140888
 40
0.4605704991791176
 40
0.5641909618660997
 40
0.6633542991972022
 40
0.8105247403618681
 40
1.0
 40
1.0
 40
1.0
 40
1.0
 10
2429.227506004341
 20
2540.578305893038
 30
0.0
 10
2429.278048443983
 20
2540.634739371044
 30
0.0
 10
2429.355937826793
 20
2540.721707249977
 30
0.0
 10
2429.51385112283
 20
2540.799005314946
 30
0.0
 10
2429.646356304899
 20
2540.825184425316
 30
0.0
 10
2429.767867879221
 20
2540.812555922937
 30
0.0
 10
2429.87983010007
 20
2540.767096314815
 30
0.0
 10
2429.985701480718
 20
2540.677623266965
 30
0.0
 10
2430.025120883286
 20
2540.588343086701
 30
0.0
 10
2430.047307418029
 20
2540.538093268284
 30
0.0
  0
SPLINE
  5
174
330
1F
100
AcDbEntity
  8
0
  6
Continuous
 62
     7
370
    25
100
AcDbSpline
210
0.0
220
0.0
230
1.0
 70
     8
 71
     3
 72
    23
 73
    19
 74
     0
 42
0.000000001
 43
0.00000001
 40
0.0
 40
0.0
 40
0.0
 40
0.0
 40
0.0863901050636673
 40
0.1752766177962506
 40
0.2621177065427337
 40
0.3519363559727531
 40
0.4192459175638973
 40
0.4528076006128828
 40
0.4875598503476024
 40
0.5342326170542431
 40
0.5808027178643163
 40
0.617415928196372
 40
0.6550189806174123
 40
0.7176192476618286
 40
0.7818570182170476
 40
0.8689416197544361
 40
0.9585429605715617
 40
1.0
 40
1.0
 40
1.0
 40
1.0
 10
2424.721551288084
 20
2540.795145088706
 30
0.0
 10
2424.61772113505
 20
2540.584292722179
 30
0.0
 10
2424.407060457699
 20
2540.156495005857
 30
0.0
 10
2424.280846023356
 20
2539.500256474056
 30
0.0
 10
2424.296136607404
 20
2538.844572793362
 30
0.0
 10
2424.465974290349
 20
2538.272174366371
 30
0.0
 10
2424.731199507765
 20
2537.887729436366
 30
0.0
 10
2424.998581469573
 20
2537.684167256792
 30
0.0
 10
2425.274844198797
 20
2537.571833036546
 30
0.0
 10
2425.644887547744
 20
2537.55950282295
 30
0.0
 10
2426.04687752301
 20
2537.684634413077
 30
0.0
 10
2426.412497010055
 20
2537.874585952753
 30
0.0
 10
2426.813590185536
 20
2538.137574329223
 30
0.0
 10
2427.272995786861
 20
2538.50202728752
 30
0.0
 10
2427.835117135411
 20
2539.012502918393
 30
0.0
 10
2428.421306807729
 20
2539.61026471291
 30
0.0
 10
2428.899968417232
 20
2540.155527894813
 30
0.0
 10
2429.148795714624
 20
2540.476708458008
 30
0.0
 10
2429.22750600434
 20
2540.578305893038
 30
0.0
  0
SPLINE
  5
175
330
1F
100
AcDbEntity
  8
0
  6
Continuous
 62
     7
370
    25
100
AcDbSpline
210
0.0
220
0.0
230
1.0
 70
     8
 71
     3
 72
    14
 73
    10
 74
     0
 42
0.000000001
 43
0.00000001
 40
0.0
 40
0.0
 40
0.0
 40
0.0
 40
0.2243030424882868
 40
0.3489011866266555
 40
0.4744001356117536
 40
0.5826741857065961
 40
0.6867417687947411
 40
0.838156487169633
 40
1.0
 40
1.0
 40
1.0
 40
1.0
 10
2424.356705335619
 20
2540.812404848667
 30
0.0
 10
2424.421317986649
 20
2540.867336850213
 30
0.0
 10
2424.521822332757
 20
2540.952783040824
 30
0.0
 10
2424.654007668387
 20
2541.02863212436
 30
0.0
 10
2424.736353228017
 20
2541.054313082668
 30
0.0
 10
2424.783734246693
 20
2541.041495808146
 30
0.0
 10
2424.801152594122
 20
2540.996084485042
 30
0.0
 10
2424.783746620407
 20
2540.913906793791
 30
0.0
 10
2424.742738141619
 20
2540.835601289471
 30
0.0
 10
2424.721551288084
 20
2540.795145088706
 30
0.0
  0
SPLINE
  5
176
330
1F
100
AcDbEntity
  8
0
  6
Continuous
 62
     7
370
    25
100
AcDbSpline
210
0.0
220
0.0
230
1.0
 70
     8
 71
     3
 72
    17
 73
    13
 74
     0
 42
0.000000001
 43
0.00000001
 40
0.0
 40
0.0
 40
0.0
 40
0.0
 40
0.0233545167349648
 40
0.0741080420468532
 40
0.1261923846893402
 40
0.199126496069389
 40
0.2740827615997
 40
0.3921108385751339
 40
0.5132733451228996
 40
0.6802905965796241
 40
0.8521096975144523
 40
1.0
 40
1.0
 40
1.0
 40
1.0
 10
2421.812729827777
 20
2537.885526043804
 30
0.0
 10
2421.812012835234
 20
2537.884398101118
 30
0.0
 10
2421.809737690164
 20
2537.880818938042
 30
0.0
 10
2421.832390185783
 20
2537.916457914594
 30
0.0
 10
2421.883878997578
 20
2537.996333583759
 30
0.0
 10
2421.975326508066
 20
2538.134755978015
 30
0.0
 10
2422.134156989195
 20
2538.365295226743
 30
0.0
 10
2422.36893895207
 20
2538.686205568576
 30
0.0
 10
2422.728979676249
 20
2539.139861171306
 30
0.0
 10
2423.201990383175
 20
2539.680841166417
 30
0.0
 10
2423.764286930763
 20
2540.26316049618
 30
0.0
 10
2424.169337944268
 20
2540.638692349703
 30
0.0
 10
2424.356705335619
 20
2540.812404848667
 30
0.0
  0
SPLINE
  5
177
330
1F
100
AcDbEntity
  8
0
  6
Continuous
 62
     7
370
    25
100
AcDbSpline
210
0.0
220
0.0
230
1.0
 70
     8
 71
     3
 72
    11
 73
     7
 74
     0
 42
0.000000001
 43
0.00000001
 40
0.0
 40
0.0
 40
0.0
 40
0.0
 40
0.4262271616498511
 40
0.6671980578002666
 40
0.8697640633245519
 40
1.0
 40
1.0
 40
1.0
 40
1.0
 10
2438.824186946581
 20
2540.091229008658
 30
0.0
 10
2438.776981100217
 20
2540.152504977617
 30
0.0
 10
2438.70308705534
 20
2540.248423800157
 30
0.0
 10
2438.631109564919
 20
2540.339277446977
 30
0.0
 10
2438.597713214577
 20
2540.381153298157
 30
0.0
 10
2438.598042553096
 20
2540.380734788832
 30
0.0
 10
2438.598171433685
 20
2540.380571012883
 30
0.0
  0
SPLINE
  5
178
330
1F
100
AcDbEntity
  8
0
  6
Continuous
 62
     7
370
    25
100
AcDbSpline
210
0.0
220
0.0
230
1.0
 70
     8
 71
     3
 72
    23
 73
    19
 74
     0
 42
0.000000001
 43
0.00000001
 40
0.0
 40
0.0
 40
0.0
 40
0.0
 40
0.0897333625634514
 40
0.1819840841675975
 40
0.274205105977251
 40
0.3688433122749613
 40
0.4236413335966949
 40
0.4510235156839157
 40
0.4792354352735694
 40
0.5037881481849751
 40
0.5284425765595036
 40
0.5611688451749712
 40
0.6013459240441595
 40
0.6426470274020736
 40
0.7287280788474689
 40
0.8170135534706837
 40
0.9073353330993367
 40
1.0
 40
1.0
 40
1.0
 40
1.0
 10
2436.323570733977
 20
2540.221763152694
 30
0.0
 10
2436.558792049648
 20
2539.951331649518
 30
0.0
 10
2437.035833525487
 20
2539.402882020197
 30
0.0
 10
2437.74694022111
 20
2538.544528196048
 30
0.0
 10
2438.43014597417
 20
2537.66615182374
 30
0.0
 10
2438.974510310442
 20
2536.91490476196
 30
0.0
 10
2439.345675643654
 20
2536.403219365239
 30
0.0
 10
2439.571143693247
 20
2536.126448474827
 30
0.0
 10
2439.732592583141
 20
2535.966467320291
 30
0.0
 10
2439.880626998302
 20
2535.892880267512
 30
0.0
 10
2440.00811959807
 20
2535.938198362061
 30
0.0
 10
2440.102882526226
 20
2536.123694970072
 30
0.0
 10
2440.153791720883
 20
2536.419369076355
 30
0.0
 10
2440.163424335459
 20
2536.903204857221
 30
0.0
 10
2440.072672115313
 20
2537.571354103702
 30
0.0
 10
2439.814342692772
 20
2538.403673251335
 30
0.0
 10
2439.414303599091
 20
2539.255074408562
 30
0.0
 10
2439.022564389562
 20
2539.810141852755
 30
0.0
 10
2438.824186946581
 20
2540.091229008658
 30
0.0
  0
SPLINE
  5
179
330
1F
100
AcDbEntity
  8
0
  6
Continuous
 62
     7
370
    25
100
AcDbSpline
210
0.0
220
0.0
230
1.0
 70
     8
 71
     3
 72
    15
 73
    11
 74
     0
 42
0.000000001
 43
0.00000001
 40
0.0
 40
0.0
 40
0.0
 40
0.0
 40
0.2155767705933886
 40
0.3329005538677475
 40
0.4328760582230964
 40
0.5332634977247768
 40
0.6250838127945025
 40
0.7535547096888731
 40
0.9421338378892107
 40
1.0
 40
1.0
 40
1.0
 40
1.0
 10
2435.666141044474
 20
2540.255636481947
 30
0.0
 10
2435.665489524019
 20
2540.314856932686
 30
0.0
 10
2435.664483425265
 20
2540.406307049491
 30
0.0
 10
2435.723324823693
 20
2540.489457607619
 30
0.0
 10
2435.795284317952
 20
2540.523682851751
 30
0.0
 10
2435.885248552839
 20
2540.522596714307
 30
0.0
 10
2435.994830357376
 20
2540.487787757671
 30
0.0
 10
2436.133212884441
 20
2540.407397006744
 30
0.0
 10
2436.245466307459
 20
2540.308580150101
 30
0.0
 10
2436.308718833496
 20
2540.238271786878
 30
0.0
 10
2436.323570733977
 20
2540.221763152694
 30
0.0
  0
LINE
  5
17A
330
1F
100
AcDbEntity
  8
0
  6
Continuous
 62
     8
370
    18
100
AcDbLine
 10
2477.6618319849
 20
2538.8994489763
 30
0.0
 11
2477.6618319849
 21
2528.8994489763
 31
0.0
  0
LINE
  5
17B
330
1F
100
AcDbEntity
  8
0
  6
Continuous
 62
     8
370
    18
100
AcDbLine
 10
3393.6618319849
 20
2528.8994489763
 30
0.0
 11
3393.6618319849
 21
2538.8994489763
 31
0.0
  0
SPLINE
  5
17C
330
1F
100
AcDbEntity
  8
0
  6
Continuous
 62
     8
370
    18
100
AcDbSpline
210
0.0
220
0.0
230
1.0
 70
     8
 71
     3
 72
     9
 73
     5
 74
     0
 42
0.000000001
 43
0.00000001
 40
0.0
 40
0.0
 40
0.0
 40
0.0
 40
0.8278582226933381
 40
1.0
 40
1.0
 40
1.0
 40
1.0
 10
3435.642633658719
 20
2494.087722660784
 30
0.0
 10
3435.623198080684
 20
2494.066221438894
 30
0.0
 10
3435.599721140428
 20
2494.04024933244
 30
0.0
 10
3435.554968537356
 20
2494.022063643332
 30
0.0
 10
3435.547264744725
 20
2494.018933126487
 30
0.0
  0
LINE
  5
17D
330
1F
100
AcDbEntity
  8
0
  6
Continuous
 62
     8
370
    18
100
AcDbLine
 10
3435.5472647447
 20
2494.0189331265
 30
0.0
 11
3434.0653736984
 21
2494.0189331265
 31
0.0
  0
SPLINE
  5
17E
330
1F
100
AcDbEntity
  8
0
  6
Continuous
 62
     8
370
    18
100
AcDbSpline
210
0.0
220
0.0
230
1.0
 70
     8
 71
     3
 72
    12
 73
     8
 74
     0
 42
0.000000001
 43
0.00000001
 40
0.0
 40
0.0
 40
0.0
 40
0.0
 40
0.21976661807706
 40
0.4461263745600057
 40
0.6658123558414003
 40
0.8916163130674817
 40
1.0
 40
1.0
 40
1.0
 40
1.0
 10
3434.065373698407
 20
2494.018933126487
 30
0.0
 10
3433.907307029576
 20
2494.016467544024
 30
0.0
 10
3433.586431591251
 20
2494.011462410055
 30
0.0
 10
3433.121438911817
 20
2493.97533180936
 30
0.0
 10
3432.679794687549
 20
2493.932860502639
 30
0.0
 10
3432.343792693551
 20
2493.903567203085
 30
0.0
 10
3432.162921595251
 20
2493.900457511101
 30
0.0
 10
3432.104261507615
 20
2493.899448976261
 30
0.0
  0
LINE
  5
17F
330
1F
100
AcDbEntity
  8
0
  6
Continuous
 62
     8
370
    18
100
AcDbLine
 10
2435.4818319849
 20
2496.3994489763
 30
0.0
 11
3435.8418319849
 21
2496.3994489763
 31
0.0
  0
SPLINE
  5
180
330
1F
100
AcDbEntity
  8
0
  6
Continuous
 62
     8
370
    18
100
AcDbSpline
210
0.0
220
0.0
230
1.0
 70
     8
 71
     3
 72
    12
 73
     8
 74
     0
 42
0.000000001
 43
0.00000001
 40
0.0
 40
0.0
 40
0.0
 40
0.0
 40
0.2328745883257343
 40
0.5570906977023034
 40
0.7267440679505817
 40
0.8962385510603513
 40
1.0
 40
1.0
 40
1.0
 40
1.0
 10
3435.84183198487
 20
2496.165338128057
 30
0.0
 10
3435.829379536825
 20
2495.971903408141
 30
0.0
 10
3435.799590357081
 20
2495.509162136745
 30
0.0
 10
3435.705970751658
 20
2494.966372430324
 30
0.0
 10
3435.651147093914
 20
2494.55631842268
 30
0.0
 10
3435.636922844697
 20
2494.323470563389
 30
0.0
 10
3435.65295218026
 20
2494.213236606916
 30
0.0
 10
3435.659038881
 20
2494.171378283987
 30
0.0
  0
LINE
  5
181
330
1F
100
AcDbEntity
  8
0
  6
Continuous
 62
     8
370
    18
100
AcDbLine
 10
2435.4818319849
 20
2526.3994489763
 30
0.0
 11
3435.8418319849
 21
2526.3994489763
 31
0.0
  0
SPLINE
  5
182
330
1F
100
AcDbEntity
  8
0
  6
Continuous
 62
     8
370
    18
100
AcDbSpline
210
0.0
220
0.0
230
1.0
 70
     8
 71
     3
 72
    12
 73
     8
 74
     0
 42
0.000000001
 43
0.00000001
 40
0.0
 40
0.0
 40
0.0
 40
0.0
 40
0.219567186404869
 40
0.4458094407665553
 40
0.6652298297422371
 40
0.8908660496253848
 40
1.0
 40
1.0
 40
1.0
 40
1.0
 10
3432.104261507615
 20
2528.899448976261
 30
0.0
 10
3432.225655013178
 20
2528.895501530255
 30
0.0
 10
3432.472132511541
 20
2528.887486631831
 30
0.0
 10
3432.896157289897
 20
2528.844305107044
 30
0.0
 10
3433.351852525806
 20
2528.804193802477
 30
0.0
 10
3433.746426385513
 20
2528.782465053843
 30
0.0
 10
3433.986960413647
 20
2528.78057950773
 30
0.0
 10
3434.065373698407
 20
2528.779964826034
 30
0.0
  0
LINE
  5
183
330
1F
100
AcDbEntity
  8
0
  6
Continuous
 62
     8
370
    18
100
AcDbLine
 10
3434.0653736984
 20
2528.779964826
 30
0.0
 11
3435.5416722422
 21
2528.779964826
 31
0.0
  0
SPLINE
  5
184
330
1F
100
AcDbEntity
  8
0
  6
Continuous
 62
     8
370
    18
100
AcDbSpline
210
0.0
220
0.0
230
1.0
 70
     8
 71
     3
 72
    13
 73
     9
 74
     0
 42
0.000000001
 43
0.00000001
 40
0.0
 40
0.0
 40
0.0
 40
0.0
 40
0.1541665842389473
 40
0.3084622735678856
 40
0.6143708700448104
 40
0.7811095375671796
 40
0.9477835065529615
 40
1.0
 40
1.0
 40
1.0
 40
1.0
 10
3435.659038881
 20
2528.627519668534
 30
0.0
 10
3435.651426609478
 20
2528.563398261574
 30
0.0
 10
3435.636195691623
 20
2528.435101749895
 30
0.0
 10
3435.665831176484
 20
2528.096666897073
 30
0.0
 10
3435.736678928116
 20
2527.66953635718
 30
0.0
 10
3435.803193168574
 20
2527.175726824665
 30
0.0
 10
3435.832128820968
 20
2526.859852337503
 30
0.0
 10
3435.839963109198
 20
2526.677144842362
 30
0.0
 10
3435.84183198487
 20
2526.633559824465
 30
0.0
  0
LINE
  5
185
330
1F
100
AcDbEntity
  8
0
  6
Continuous
 62
     8
370
    18
100
AcDbLine
 10
2431.3095669673
 20
2100.899448972
 30
0.0
 11
2440.8095669673
 21
2100.899448972
 31
0.0
  0
LINE
  5
186
330
1F
100
AcDbEntity
  8
0
  6
Continuous
 62
     8
370
    18
100
AcDbLine
 10
2421.8095669673
 20
2100.899448972
 30
0.0
 11
2431.3095669673
 21
2100.899448972
 31
0.0
  0
LINE
  5
187
330
1F
100
AcDbEntity
  8
0
  6
Continuous
 62
     8
370
    18
100
AcDbLine
 10
3430.5140970024
 20
2100.899448972
 30
0.0
 11
3449.5140970024
 21
2100.899448972
 31
0.0
  0
LINE
  5
188
330
1F
100
AcDbEntity
  8
0
  6
Continuous
 62
     8
370
    18
100
AcDbLine
 10
3441.2763565517
 20
2540.5380932683
 30
0.0
 11
3441.2763565517
 21
2103.899448972
 31
0.0
  0
LINE
  5
189
330
1F
100
AcDbEntity
  8
0
  6
Continuous
 62
     8
370
    18
100
AcDbLine
 10
3442.0961579654
 20
2540.578305893
 30
0.0
 11
3442.0961579654
 21
2103.899448972
 31
0.0
  0
LINE
  5
18A
330
1F
100
AcDbEntity
  8
0
  6
Continuous
 62
     8
370
    18
100
AcDbLine
 10
3435.0000932358
 20
2540.2217631527
 30
0.0
 11
3435.0000932358
 21
2528.8231239093
 31
0.0
  0
LINE
  5
18B
330
1F
100
AcDbEntity
  8
0
  6
Continuous
 62
     8
370
    18
100
AcDbLine
 10
3435.0000932358
 20
2493.9757740432
 30
0.0
 11
3435.0000932358
 21
2103.899448972
 31
0.0
  0
LINE
  5
18C
330
1F
100
AcDbEntity
  8
0
  6
Continuous
 62
     8
370
    18
100
AcDbLine
 10
3446.9669586341
 20
2540.8124048487
 30
0.0
 11
3446.9669586341
 21
2539.7492058877
 31
0.0
  0
LINE
  5
18D
330
1F
100
AcDbEntity
  8
0
  6
Continuous
 62
     8
370
    18
100
AcDbLine
 10
2430.047307418
 20
2540.5380932683
 30
0.0
 11
2430.047307418
 21
2103.899448972
 31
0.0
  0
LINE
  5
18E
330
1F
100
AcDbEntity
  8
0
  6
Continuous
 62
     8
370
    18
100
AcDbLine
 10
2429.2275060043
 20
2540.578305893
 30
0.0
 11
2429.2275060043
 21
2103.899448972
 31
0.0
  0
LINE
  5
18F
330
1F
100
AcDbEntity
  8
0
  6
Continuous
 62
     8
370
    18
100
AcDbLine
 10
2436.323570734
 20
2540.2217631527
 30
0.0
 11
2436.323570734
 21
2528.8231239093
 31
0.0
  0
LINE
  5
190
330
1F
100
AcDbEntity
  8
0
  6
Continuous
 62
     8
370
    18
100
AcDbLine
 10
2436.323570734
 20
2493.9757740432
 30
0.0
 11
2436.323570734
 21
2103.899448972
 31
0.0
  0
LINE
  5
191
330
1F
100
AcDbEntity
  8
0
  6
Continuous
 62
     8
370
    18
100
AcDbLine
 10
2424.3567053356
 20
2540.8124048487
 30
0.0
 11
2424.3567053356
 21
2539.752034027
 31
0.0
  0
ARC
  5
192
330
1F
100
AcDbEntity
  8
0
  6
Continuous
 62
     7
370
    25
100
AcDbCircle
 10
1292.6088512221
 20
1757.8827353395
 30
0.0
 40
37.00000000000023
100
AcDbArc
 50
90.0
 51
180.0
  0
LINE
  5
193
330
1F
100
AcDbEntity
  8
0
  6
Continuous
 62
     7
370
    25
100
AcDbLine
 10
1292.6088512221
 20
1794.8827353395
 30
0.0
 11
2208.6088512221
 21
1794.8827353395
 31
0.0
  0
ARC
  5
194
330
1F
100
AcDbEntity
  8
0
  6
Continuous
 62
     7
370
    25
100
AcDbCircle
 10
2208.6088512221
 20
1757.8827353395
 30
0.0
 40
37.0
100
AcDbArc
 50
0.0
 51
90.0
  0
LINE
  5
195
330
1F
100
AcDbEntity
  8
0
  6
Continuous
 62
     7
370
    25
100
AcDbLine
 10
2245.6088512221
 20
1757.8827353395
 30
0.0
 11
2245.6088512221
 21
841.8827353395
 31
0.0
  0
ARC
  5
196
330
1F
100
AcDbEntity
  8
0
  6
Continuous
 62
     7
370
    25
100
AcDbCircle
 10
2208.6088512221
 20
841.8827353395
 30
0.0
 40
37.0
100
AcDbArc
 50
270.0
 51
0.0
  0
LINE
  5
197
330
1F
100
AcDbEntity
  8
0
  6
Continuous
 62
     7
370
    25
100
AcDbLine
 10
2208.6088512221
 20
804.8827353395
 30
0.0
 11
1292.6088512221
 21
804.8827353395
 31
0.0
  0
ARC
  5
198
330
1F
100
AcDbEntity
  8
0
  6
Continuous
 62
     7
370
    25
100
AcDbCircle
 10
1292.6088512221
 20
841.8827353395
 30
0.0
 40
37.0
100
AcDbArc
 50
180.0
 51
270.0
  0
LINE
  5
199
330
1F
100
AcDbEntity
  8
0
  6
Continuous
 62
     7
370
    25
100
AcDbLine
 10
1255.6088512221
 20
841.8827353395
 30
0.0
 11
1255.6088512221
 21
1757.8827353395
 31
0.0
  0
LINE
  5
19A
330
1F
100
AcDbEntity
  8
0
  6
Continuous
 62
     7
370
    25
100
AcDbLine
 10
1348.1088512221
 20
1800.0627353395
 30
0.0
 11
1348.1088512221
 21
1794.8827353395
 31
0.0
  0
LINE
  5
19B
330
1F
100
AcDbEntity
  8
0
  6
Continuous
 62
     7
370
    25
100
AcDbLine
 10
1348.1088512221
 20
804.8827353395
 30
0.0
 11
1348.1088512221
 21
799.7027353395
 31
0.0
  0
LINE
  5
19C
330
1F
100
AcDbEntity
  8
0
  6
Continuous
 62
     7
370
    25
100
AcDbLine
 10
1363.1088512221
 20
1800.0627353395
 30
0.0
 11
1363.1088512221
 21
1794.8827353395
 31
0.0
  0
LINE
  5
19D
330
1F
100
AcDbEntity
  8
0
  6
Continuous
 62
     7
370
    25
100
AcDbLine
 10
1363.1088512221
 20
804.8827353395
 30
0.0
 11
1363.1088512221
 21
799.7027353395
 31
0.0
  0
LINE
  5
19E
330
1F
100
AcDbEntity
  8
0
  6
Continuous
 62
     7
370
    25
100
AcDbLine
 10
2153.1088512221
 20
1800.0627353395
 30
0.0
 11
2153.1088512221
 21
1794.8827353395
 31
0.0
  0
LINE
  5
19F
330
1F
100
AcDbEntity
  8
0
  6
Continuous
 62
     7
370
    25
100
AcDbLine
 10
2153.1088512221
 20
804.8827353395
 30
0.0
 11
2153.1088512221
 21
799.7027353395
 31
0.0
  0
LINE
  5
1A0
330
1F
100
AcDbEntity
  8
0
  6
Continuous
 62
     7
370
    25
100
AcDbLine
 10
2138.1088512221
 20
1800.0627353395
 30
0.0
 11
2138.1088512221
 21
1794.8827353395
 31
0.0
  0
LINE
  5
1A1
330
1F
100
AcDbEntity
  8
0
  6
Continuous
 62
     7
370
    25
100
AcDbLine
 10
2138.1088512221
 20
804.8827353395
 30
0.0
 11
2138.1088512221
 21
799.7027353395
 31
0.0
  0
ARC
  5
1A2
330
1F
100
AcDbEntity
  8
0
  6
Continuous
 62
     7
370
    25
100
AcDbCircle
 10
1355.6088512222
 20
1804.2350003571
 30
0.0
 40
9.5
100
AcDbArc
 50
349.0399369919
 51
0.0
  0
ARC
  5
1A3
330
1F
100
AcDbEntity
  8
0
  6
Continuous
 62
     7
370
    25
100
AcDbCircle
 10
1355.6088512222
 20
1804.2350003571
 30
0.0
 40
9.50000000000005
100
AcDbArc
 50
322.1363536382
 51
343.9674585501
  0
ARC
  5
1A4
330
1F
100
AcDbEntity
  8
0
  6
Continuous
 62
     7
370
    25
100
AcDbCircle
 10
1355.6088512222
 20
1804.2350003571
 30
0.0
 40
9.500000000000194
100
AcDbArc
 50
196.0598785074
 51
217.8636463617
  0
ARC
  5
1A5
330
1F
100
AcDbEntity
  8
0
  6
Continuous
 62
     7
370
    25
100
AcDbCircle
 10
1355.6088512222
 20
1804.2350003571
 30
0.0
 40
9.500000000000066
100
AcDbArc
 50
143.7037708136
 51
191.82311448
  0
ARC
  5
1A6
330
1F
100
AcDbEntity
  8
0
  6
Continuous
 62
     7
370
    25
100
AcDbCircle
 10
1355.6088512222
 20
1804.2350003571
 30
0.0
 40
9.49999999999986
100
AcDbArc
 50
91.5378938682
 51
138.2973523495
  0
ARC
  5
1A7
330
1F
100
AcDbEntity
  8
0
  6
Continuous
 62
     7
370
    25
100
AcDbCircle
 10
1355.6088512222
 20
1804.2350003571
 30
0.0
 40
9.500000000000053
100
AcDbArc
 50
40.7437276488
 51
86.9116146319
  0
ARC
  5
1A8
330
1F
100
AcDbEntity
  8
0
  6
Continuous
 62
     7
370
    25
100
AcDbCircle
 10
1355.6088512222
 20
1804.2350003571
 30
0.0
 40
9.5
100
AcDbArc
 50
0.0
 51
35.7228735033
  0
ARC
  5
1A9
330
1F
100
AcDbEntity
  8
0
  6
Continuous
 62
     7
370
    25
100
AcDbCircle
 10
2145.6088512222
 20
1804.2350003571
 30
0.0
 40
9.500000000000226
100
AcDbArc
 50
349.0399369919
 51
0.0
  0
ARC
  5
1AA
330
1F
100
AcDbEntity
  8
0
  6
Continuous
 62
     7
370
    25
100
AcDbCircle
 10
2145.6088512222
 20
1804.2350003571
 30
0.0
 40
9.49999999999987
100
AcDbArc
 50
322.1363536382
 51
343.9674585501
  0
ARC
  5
1AB
330
1F
100
AcDbEntity
  8
0
  6
Continuous
 62
     7
370
    25
100
AcDbCircle
 10
2145.6088512222
 20
1804.2350003571
 30
0.0
 40
9.500000000000183
100
AcDbArc
 50
196.0598785074
 51
217.8636463617
  0
ARC
  5
1AC
330
1F
100
AcDbEntity
  8
0
  6
Continuous
 62
     7
370
    25
100
AcDbCircle
 10
2145.6088512222
 20
1804.2350003571
 30
0.0
 40
9.500000000000403
100
AcDbArc
 50
143.7037708136
 51
191.82311448
  0
ARC
  5
1AD
330
1F
100
AcDbEntity
  8
0
  6
Continuous
 62
     7
370
    25
100
AcDbCircle
 10
2145.6088512222
 20
1804.2350003571
 30
0.0
 40
9.500000000000288
100
AcDbArc
 50
91.5378938682
 51
138.2973523495
  0
ARC
  5
1AE
330
1F
100
AcDbEntity
  8
0
  6
Continuous
 62
     7
370
    25
100
AcDbCircle
 10
2145.6088512222
 20
1804.2350003571
 30
0.0
 40
9.500000000000108
100
AcDbArc
 50
40.7437276488
 51
86.9116146319
  0
ARC
  5
1AF
330
1F
100
AcDbEntity
  8
0
  6
Continuous
 62
     7
370
    25
100
AcDbCircle
 10
2145.6088512222
 20
1804.2350003571
 30
0.0
 40
9.499999999999861
100
AcDbArc
 50
0.0
 51
35.7228735033
  0
ARC
  5
1B0
330
1F
100
AcDbEntity
  8
0
  6
Continuous
 62
     7
370
    25
100
AcDbCircle
 10
1355.6088512221
 20
795.5304703219
 30
0.0
 40
9.500000000000348
100
AcDbArc
 50
169.0399369919
 51
180.0
  0
ARC
  5
1B1
330
1F
100
AcDbEntity
  8
0
  6
Continuous
 62
     7
370
    25
100
AcDbCircle
 10
1355.6088512221
 20
795.5304703219
 30
0.0
 40
9.50000000000022
100
AcDbArc
 50
142.1363536382
 51
163.9674585502
  0
ARC
  5
1B2
330
1F
100
AcDbEntity
  8
0
  6
Continuous
 62
     7
370
    25
100
AcDbCircle
 10
1355.6088512221
 20
795.5304703219
 30
0.0
 40
9.499999999999948
100
AcDbArc
 50
16.0598785073
 51
37.8636463617
  0
ARC
  5
1B3
330
1F
100
AcDbEntity
  8
0
  6
Continuous
 62
     7
370
    25
100
AcDbCircle
 10
1355.6088512221
 20
795.5304703219
 30
0.0
 40
9.499999999999854
100
AcDbArc
 50
323.7037708137
 51
11.82311448
  0
ARC
  5
1B4
330
1F
100
AcDbEntity
  8
0
  6
Continuous
 62
     7
370
    25
100
AcDbCircle
 10
1355.6088512221
 20
795.5304703219
 30
0.0
 40
9.499999999999956
100
AcDbArc
 50
271.5378938683
 51
318.2973523492
  0
ARC
  5
1B5
330
1F
100
AcDbEntity
  8
0
  6
Continuous
 62
     7
370
    25
100
AcDbCircle
 10
1355.6088512221
 20
795.5304703219
 30
0.0
 40
9.500000000000133
100
AcDbArc
 50
220.7437276489
 51
266.9116146318
  0
ARC
  5
1B6
330
1F
100
AcDbEntity
  8
0
  6
Continuous
 62
     7
370
    25
100
AcDbCircle
 10
1355.6088512221
 20
795.5304703219
 30
0.0
 40
9.500000000000227
100
AcDbArc
 50
180.0
 51
215.7228735032
  0
ARC
  5
1B7
330
1F
100
AcDbEntity
  8
0
  6
Continuous
 62
     7
370
    25
100
AcDbCircle
 10
2145.6088512221
 20
795.5304703219
 30
0.0
 40
9.499999999999545
100
AcDbArc
 50
169.0399369919
 51
180.0
  0
ARC
  5
1B8
330
1F
100
AcDbEntity
  8
0
  6
Continuous
 62
     7
370
    25
100
AcDbCircle
 10
2145.6088512221
 20
795.5304703219
 30
0.0
 40
9.499999999999785
100
AcDbArc
 50
142.1363536382
 51
163.9674585501
  0
ARC
  5
1B9
330
1F
100
AcDbEntity
  8
0
  6
Continuous
 62
     7
370
    25
100
AcDbCircle
 10
2145.6088512221
 20
795.5304703219
 30
0.0
 40
9.500000000000162
100
AcDbArc
 50
16.0598785073
 51
37.8636463617
  0
ARC
  5
1BA
330
1F
100
AcDbEntity
  8
0
  6
Continuous
 62
     7
370
    25
100
AcDbCircle
 10
2145.6088512221
 20
795.5304703219
 30
0.0
 40
9.500000000000375
100
AcDbArc
 50
323.7037708137
 51
11.82311448
  0
ARC
  5
1BB
330
1F
100
AcDbEntity
  8
0
  6
Continuous
 62
     7
370
    25
100
AcDbCircle
 10
2145.6088512221
 20
795.5304703219
 30
0.0
 40
9.500000000000256
100
AcDbArc
 50
271.5378938683
 51
318.2973523492
  0
ARC
  5
1BC
330
1F
100
AcDbEntity
  8
0
  6
Continuous
 62
     7
370
    25
100
AcDbCircle
 10
2145.6088512221
 20
795.5304703219
 30
0.0
 40
9.499999999999874
100
AcDbArc
 50
220.7437276489
 51
266.9116146318
  0
ARC
  5
1BD
330
1F
100
AcDbEntity
  8
0
  6
Continuous
 62
     7
370
    25
100
AcDbCircle
 10
2145.6088512221
 20
795.5304703219
 30
0.0
 40
9.499999999999632
100
AcDbArc
 50
180.0
 51
215.7228735031
  0
SPLINE
  5
1BE
330
1F
100
AcDbEntity
  8
0
  6
Continuous
 62
     7
370
    25
100
AcDbSpline
210
0.0
220
0.0
230
1.0
 70
     8
 71
     3
 72
    27
 73
    23
 74
     0
 42
0.000000001
 43
0.00000001
 40
0.0
 40
0.0
 40
0.0
 40
0.0
 40
0.0885627570442149
 40
0.1796538943995941
 40
0.2695908295576363
 40
0.3157544754264173
 40
0.3623424134621833
 40
0.4187626527282497
 40
0.4469315743364949
 40
0.4757555362193702
 40
0.4937367345958559
 40
0.5121853392428838
 40
0.5301891255062636
 40
0.5487612444758538
 40
0.5721476357447929
 40
0.5961816793253265
 40
0.6385637840833126
 40
0.6819638929543763
 40
0.7628695907407596
 40
0.8459362592691239
 40
0.9222273191770637
 40
0.9999999999999999
 40
0.9999999999999999
 40
0.9999999999999999
 40
0.9999999999999999
 10
1363.028621150861
 20
794.2682107726554
 30
0.0
 10
1363.241941544923
 20
794.3631297004579
 30
0.0
 10
1363.67467242218
 20
794.5556773988479
 30
0.0
 10
1364.192732458818
 20
795.0129445551098
 30
0.0
 10
1364.534667482367
 20
795.480318126893
 30
0.0
 10
1364.740496219199
 20
795.9108395584462
 30
0.0
 10
1364.867618141565
 20
796.2941802509341
 30
0.0
 10
1364.933918829803
 20
796.6690886830485
 30
0.0
 10
1364.947855408567
 20
797.0286647267516
 30
0.0
 10
1364.932929086864
 20
797.2853534051686
 30
0.0
 10
1364.898617344183
 20
797.5199265810962
 30
0.0
 10
1364.854966925627
 20
797.7197012998137
 30
0.0
 10
1364.796015559053
 20
797.9195913273569
 30
0.0
 10
1364.717926305337
 20
798.12817698358
 30
0.0
 10
1364.618601831661
 20
798.3403114195098
 30
0.0
 10
1364.469645055048
 20
798.5991257046244
 30
0.0
 10
1364.270268600954
 20
798.8700886327159
 30
0.0
 10
1363.944340575269
 20
799.2106435985118
 30
0.0
 10
1363.500916223662
 20
799.5344984587103
 30
0.0
 10
1362.939151650623
 20
799.7795662687814
 30
0.0
 10
1362.348649573427
 20
799.9112580326021
 30
0.0
 10
1361.948272685216
 20
799.8951671917891
 30
0.0
 10
1361.746159041941
 20
799.887044399101
 30
0.0
  0
SPLINE
  5
1BF
330
1F
100
AcDbEntity
  8
0
  6
Continuous
 62
     7
370
    25
100
AcDbSpline
210
0.0
220
0.0
230
1.0
 70
     8
 71
     3
 72
    14
 73
    10
 74
     0
 42
0.000000001
 43
0.00000001
 40
0.0
 40
0.0
 40
0.0
 40
0.0
 40
0.220765348438307
 40
0.3402146168140888
 40
0.4605704991791176
 40
0.5641909618660997
 40
0.6633542991972022
 40
0.8105247403618681
 40
1.0
 40
1.0
 40
1.0
 40
1.0
 10
1362.841506827891
 20
793.4484093589675
 30
0.0
 10
1362.800808032369
 20
793.4989517986096
 30
0.0
 10
1362.738088383561
 20
793.5768411814196
 30
0.0
 10
1362.697146978185
 20
793.7347544774566
 30
0.0
 10
1362.697826074152
 20
793.8672596595263
 30
0.0
 10
1362.731860979971
 20
793.9887712338482
 30
0.0
 10
1362.793908535374
 20
794.1007334546974
 30
0.0
 10
1362.89431485644
 20
794.2066048353445
 30
0.0
 10
1362.980252578004
 20
794.2460242379135
 30
0.0
 10
1363.028621150861
 20
794.2682107726554
 30
0.0
  0
SPLINE
  5
1C0
330
1F
100
AcDbEntity
  8
0
  6
Continuous
 62
     7
370
    25
100
AcDbSpline
210
0.0
220
0.0
230
1.0
 70
     8
 71
     3
 72
    23
 73
    19
 74
     0
 42
0.000000001
 43
0.00000001
 40
0.0
 40
0.0
 40
0.0
 40
0.0
 40
0.0863901050636673
 40
0.1752766177962506
 40
0.2621177065427337
 40
0.3519363559727531
 40
0.4192459175638973
 40
0.4528076006128828
 40
0.4875598503476024
 40
0.5342326170542431
 40
0.5808027178643163
 40
0.617415928196372
 40
0.6550189806174123
 40
0.7176192476618286
 40
0.7818570182170476
 40
0.8689416197544361
 40
0.9585429605715617
 40
1.0
 40
1.0
 40
1.0
 40
1.0
 10
1359.248127850167
 20
788.9424546427113
 30
0.0
 10
1359.44646245454
 20
788.8386244896769
 30
0.0
 10
1359.848862921825
 20
788.627963812326
 30
0.0
 10
1360.506532359638
 20
788.5017493779826
 30
0.0
 10
1361.18871788835
 20
788.5170399620312
 30
0.0
 10
1361.825458260185
 20
788.686877644976
 30
0.0
 10
1362.325262173509
 20
788.952102862392
 30
0.0
 10
1362.6733906174
 20
789.2194848241998
 30
0.0
 10
1362.957030754407
 20
789.4957475534242
 30
0.0
 10
1363.237347354295
 20
789.8657909023705
 30
0.0
 10
1363.443026051559
 20
790.267780877637
 30
0.0
 10
1363.568848413515
 20
790.6334003646814
 30
0.0
 10
1363.655741426463
 20
791.0344935401629
 30
0.0
 10
1363.683825536257
 20
791.4938991414884
 30
0.0
 10
1363.619440448578
 20
792.0560204900378
 30
0.0
 10
1363.42607384307
 20
792.6422101623556
 30
0.0
 10
1363.141036349641
 20
793.1208717718586
 30
0.0
 10
1362.913486522324
 20
793.3696990692509
 30
0.0
 10
1362.841506827891
 20
793.4484093589674
 30
0.0
  0
SPLINE
  5
1C1
330
1F
100
AcDbEntity
  8
0
  6
Continuous
 62
     7
370
    25
100
AcDbSpline
210
0.0
220
0.0
230
1.0
 70
     8
 71
     3
 72
    14
 73
    10
 74
     0
 42
0.000000001
 43
0.00000001
 40
0.0
 40
0.0
 40
0.0
 40
0.0
 40
0.2243030424882868
 40
0.3489011866266555
 40
0.4744001356117536
 40
0.5826741857065961
 40
0.6867417687947411
 40
0.838156487169633
 40
1.0
 40
1.0
 40
1.0
 40
1.0
 10
1358.490517423421
 20
788.5776086902463
 30
0.0
 10
1358.505162961836
 20
788.6422213412761
 30
0.0
 10
1358.527943953459
 20
788.7427256873842
 30
0.0
 10
1358.629728579865
 20
788.8749110230137
 30
0.0
 10
1358.738418621415
 20
788.9572565826439
 30
0.0
 10
1358.859386631273
 20
789.0046376013198
 30
0.0
 10
1358.989681685112
 20
789.0220559487494
 30
0.0
 10
1359.127498386034
 20
789.0046499750345
 30
0.0
 10
1359.207035396875
 20
788.9636414962457
 30
0.0
 10
1359.248127850167
 20
788.9424546427113
 30
0.0
  0
SPLINE
  5
1C2
330
1F
100
AcDbEntity
  8
0
  6
Continuous
 62
     7
370
    25
100
AcDbSpline
210
0.0
220
0.0
230
1.0
 70
     8
 71
     3
 72
    26
 73
    22
 74
     0
 42
0.000000001
 43
0.00000001
 40
0.0
 40
0.0
 40
0.0
 40
0.0
 40
0.08542611593609
 40
0.1733276547195557
 40
0.2448517261352437
 40
0.3181224083912675
 40
0.3577740645396607
 40
0.3980844094313153
 40
0.4287682032815248
 40
0.4601978879083172
 40
0.4855692359538036
 40
0.5116681185372396
 40
0.5370453561645154
 40
0.5630880149113994
 40
0.5995557531473511
 40
0.637034587382543
 40
0.6960497304231464
 40
0.756632117583133
 40
0.8401423063242286
 40
0.9260534647419589
 40
1.0
 40
1.0
 40
1.0
 40
1.0
 10
1352.727185020852
 20
788.5776086902462
 30
0.0
 10
1352.768606596827
 20
788.3615419734745
 30
0.0
 10
1352.852650036469
 20
787.9231474980775
 30
0.0
 10
1353.141224500791
 20
787.3660366074296
 30
0.0
 10
1353.515592032309
 20
786.8945529782657
 30
0.0
 10
1353.896557133427
 20
786.5727429688063
 30
0.0
 10
1354.271756599845
 20
786.3487017122562
 30
0.0
 10
1354.576592414229
 20
786.213379360617
 30
0.0
 10
1354.887886869216
 20
786.1159209123406
 30
0.0
 10
1355.174951681176
 20
786.0581377850338
 30
0.0
 10
1355.45998962721
 20
786.0301270950927
 30
0.0
 10
1355.728851870435
 20
786.0287770277731
 30
0.0
 10
1355.996271267282
 20
786.0524005491598
 30
0.0
 10
1356.287449295377
 20
786.1051333494582
 30
0.0
 10
1356.596003326883
 20
786.1961212911948
 30
0.0
 10
1356.966025789482
 20
786.3551089796251
 30
0.0
 10
1357.345522682755
 20
786.5898266220937
 30
0.0
 10
1357.754593040711
 20
786.9498890950931
 30
0.0
 10
1358.114493111643
 20
787.4228918409733
 30
0.0
 10
1358.382084556023
 20
787.9851906881322
 30
0.0
 10
1358.456222770631
 20
788.3902414262725
 30
0.0
 10
1358.490517423421
 20
788.5776086902463
 30
0.0
  0
SPLINE
  5
1C3
330
1F
100
AcDbEntity
  8
0
  6
Continuous
 62
     7
370
    25
100
AcDbSpline
210
0.0
220
0.0
230
1.0
 70
     8
 71
     3
 72
    14
 73
    10
 74
     0
 42
0.000000001
 43
0.00000001
 40
0.0
 40
0.0
 40
0.0
 40
0.0
 40
0.2239799089305531
 40
0.3530600787849406
 40
0.4831615846560053
 40
0.5937368434043864
 40
0.6971871626480907
 40
0.8442013099709667
 40
1.0
 40
1.0
 40
1.0
 40
1.0
 10
1351.969574594106
 20
788.9424546427113
 30
0.0
 10
1352.028194946777
 20
788.9708726494791
 30
0.0
 10
1352.120598352205
 20
789.0156680231192
 30
0.0
 10
1352.287636535797
 20
789.0193932264807
 30
0.0
 10
1352.423067849903
 20
788.9848765329403
 30
0.0
 10
1352.537508430701
 20
788.9173950391045
 30
0.0
 10
1352.631327529477
 20
788.825179197433
 30
0.0
 10
1352.701435758421
 20
788.7077493806764
 30
0.0
 10
1352.71843752735
 20
788.6218198534593
 30
0.0
 10
1352.727185020852
 20
788.5776086902462
 30
0.0
  0
SPLINE
  5
1C4
330
1F
100
AcDbEntity
  8
0
  6
Continuous
 62
     7
370
    25
100
AcDbSpline
210
0.0
220
0.0
230
1.0
 70
     8
 71
     3
 72
    24
 73
    20
 74
     0
 42
0.000000001
 43
0.00000001
 40
0.0
 40
0.0
 40
0.0
 40
0.0
 40
0.0875562630610312
 40
0.1776478778994356
 40
0.2471757028850856
 40
0.3182848495519417
 40
0.3544514774164556
 40
0.3911558340110754
 40
0.4196735717850664
 40
0.4488792169076932
 40
0.4956340312872254
 40
0.5423649618835424
 40
0.576362733126496
 40
0.6112927856933148
 40
0.6689340598446847
 40
0.7280698917726421
 40
0.8133417532352668
 40
0.9010570727560779
 40
0.9999999999999999
 40
0.9999999999999999
 40
0.9999999999999999
 40
0.9999999999999999
 10
1348.376195616383
 20
793.4484093589671
 30
0.0
 10
1348.23012153528
 20
793.2773206265291
 30
0.0
 10
1347.933743530821
 20
792.9301889744061
 30
0.0
 10
1347.680670803573
 20
792.3507238828951
 30
0.0
 10
1347.551052181786
 20
791.7676719451606
 30
0.0
 10
1347.538658092225
 20
791.2876950719335
 30
0.0
 10
1347.592705832453
 20
790.8768389957576
 30
0.0
 10
1347.666634949744
 20
790.5769126344252
 30
0.0
 10
1347.770723265195
 20
790.2902192457525
 30
0.0
 10
1347.924084565642
 20
789.9697794770327
 30
0.0
 10
1348.168549888519
 20
789.5998029142083
 30
0.0
 10
1348.478890520468
 20
789.2740086167745
 30
0.0
 10
1348.77467450853
 20
789.0397983715774
 30
0.0
 10
1349.103843124515
 20
788.8344324756767
 30
0.0
 10
1349.500678121027
 20
788.6601674219784
 30
0.0
 10
1350.026759776473
 20
788.526005437998
 30
0.0
 10
1350.624670776461
 20
788.4961637665277
 30
0.0
 10
1351.310882593707
 20
788.605206295744
 30
0.0
 10
1351.741379052201
 20
788.825619203316
 30
0.0
 10
1351.969574594106
 20
788.9424546427113
 30
0.0
  0
SPLINE
  5
1C5
330
1F
100
AcDbEntity
  8
0
  6
Continuous
 62
     7
370
    25
100
AcDbSpline
210
0.0
220
0.0
230
1.0
 70
     8
 71
     3
 72
    14
 73
    10
 74
     0
 42
0.000000001
 43
0.00000001
 40
0.0
 40
0.0
 40
0.0
 40
0.0
 40
0.2200911109485839
 40
0.3501199592092674
 40
0.4590676183976911
 40
0.5685351145661591
 40
0.6668402217389687
 40
0.7968948941936455
 40
1.0
 40
1.0
 40
1.0
 40
1.0
 10
1348.189081293413
 20
794.2682107726548
 30
0.0
 10
1348.245488717278
 20
794.241567450868
 30
0.0
 10
1348.335221395974
 20
794.1991833732153
 30
0.0
 10
1348.437488363669
 20
794.0809919584904
 30
0.0
 10
1348.495761077681
 20
793.9651118672579
 30
0.0
 10
1348.521707505107
 20
793.8431260252797
 30
0.0
 10
1348.517145576669
 20
793.7154613375734
 30
0.0
 10
1348.475272272061
 20
793.569659683179
 30
0.0
 10
1348.413719935488
 20
793.4943317392307
 30
0.0
 10
1348.376195616383
 20
793.4484093589671
 30
0.0
  0
SPLINE
  5
1C6
330
1F
100
AcDbEntity
  8
0
  6
Continuous
 62
     7
370
    25
100
AcDbSpline
210
0.0
220
0.0
230
1.0
 70
     8
 71
     3
 72
    27
 73
    23
 74
     0
 42
0.000000001
 43
0.00000001
 40
0.0
 40
0.0
 40
0.0
 40
0.0
 40
0.0910683471803978
 40
0.1847464164709046
 40
0.258826694605563
 40
0.3345190598259283
 40
0.3626447427195219
 40
0.3910056482847438
 40
0.4191743039829892
 40
0.4481203606979621
 40
0.4657704782447525
 40
0.4839081706433171
 40
0.5015721548764652
 40
0.519744021487292
 40
0.5448446854435516
 40
0.57062536901176
 40
0.6177938154944741
 40
0.6660858441031503
 40
0.7518796859636181
 40
0.8400397940083038
 40
0.9191574739584837
 40
0.9999999999999999
 40
0.9999999999999999
 40
0.9999999999999999
 40
0.9999999999999999
 10
1349.471543402334
 20
799.8870443991002
 30
0.0
 10
1349.234986055945
 20
799.8940293525542
 30
0.0
 10
1348.755092400374
 20
799.9081994254695
 30
0.0
 10
1348.119492982509
 20
799.7256478859048
 30
0.0
 10
1347.565499920462
 20
799.4370148070079
 30
0.0
 10
1347.194286992795
 20
799.1349763558839
 30
0.0
 10
1346.939711631423
 20
798.8536933396157
 30
0.0
 10
1346.784713875267
 20
798.6497061844542
 30
0.0
 10
1346.638171527495
 20
798.4155544672251
 30
0.0
 10
1346.521929406465
 20
798.1811032364266
 30
0.0
 10
1346.435198229643
 20
797.9586737035562
 30
0.0
 10
1346.375029169798
 20
797.7657669516249
 30
0.0
 10
1346.328246139142
 20
797.5676494697191
 30
0.0
 10
1346.292050612632
 20
797.3469560442384
 30
0.0
 10
1346.272476058605
 20
797.1069774454121
 30
0.0
 10
1346.274762931837
 20
796.7882660535465
 30
0.0
 10
1346.320810503989
 20
796.4290375328446
 30
0.0
 10
1346.453204593656
 20
795.9457849927041
 30
0.0
 10
1346.707481997051
 20
795.4238225514148
 30
0.0
 10
1347.114310568746
 20
794.92527701047
 30
0.0
 10
1347.607069666865
 20
794.522712321446
 30
0.0
 10
1347.993687787374
 20
794.3536522787044
 30
0.0
 10
1348.189081293413
 20
794.2682107726549
 30
0.0
  0
SPLINE
  5
1C7
330
1F
100
AcDbEntity
  8
0
  6
Continuous
 62
     7
370
    25
100
AcDbSpline
210
0.0
220
0.0
230
1.0
 70
     8
 71
     3
 72
    15
 73
    11
 74
     0
 42
0.000000001
 43
0.00000001
 40
0.0
 40
0.0
 40
0.0
 40
0.0
 40
0.2150763736126738
 40
0.3413349926978222
 40
0.446593490352974
 40
0.5524796219272535
 40
0.6449070621726983
 40
0.7662146539024285
 40
0.9406316560516657
 40
1.0
 40
1.0
 40
1.0
 40
1.0
 10
1349.995826084773
 20
800.5444740886027
 30
0.0
 10
1350.009855797678
 20
800.4862938268685
 30
0.0
 10
1350.032121525298
 20
800.3939593743177
 30
0.0
 10
1350.007421516037
 20
800.2448948408443
 30
0.0
 10
1349.957630093002
 20
800.128541699482
 30
0.0
 10
1349.883130964054
 20
800.0318226619319
 30
0.0
 10
1349.786153594255
 20
799.9541637529229
 30
0.0
 10
1349.660953850636
 20
799.8965746616182
 30
0.0
 10
1349.552104671071
 20
799.8812678152497
 30
0.0
 10
1349.487858356822
 20
799.8858745478293
 30
0.0
 10
1349.471543402334
 20
799.8870443991002
 30
0.0
  0
SPLINE
  5
1C8
330
1F
100
AcDbEntity
  8
0
  6
Continuous
 62
     7
370
    25
100
AcDbSpline
210
0.0
220
0.0
230
1.0
 70
     8
 71
     3
 72
    26
 73
    22
 74
     0
 42
0.000000001
 43
0.00000001
 40
0.0
 40
0.0
 40
0.0
 40
0.0
 40
0.0912035599485244
 40
0.1849670362499695
 40
0.2785634207445228
 40
0.3265394520589588
 40
0.3749439889045985
 40
0.4231405593180557
 40
0.4430841889857747
 40
0.4634373414447631
 40
0.4878409265543382
 40
0.5123587387506972
 40
0.5280992736585298
 40
0.5442699367721624
 40
0.5755700365325684
 40
0.6075525397506825
 40
0.683442401457062
 40
0.7611024134337999
 40
0.8469107031299032
 40
0.9346000221708236
 40
0.9999999999999999
 40
0.9999999999999999
 40
0.9999999999999999
 40
0.9999999999999999
 10
1355.18840915486
 20
803.0450903012069
 30
0.0
 10
1355.040786200854
 20
803.2405540268999
 30
0.0
 10
1354.741396787761
 20
803.6369677859262
 30
0.0
 10
1354.148378521516
 20
804.0472514313742
 30
0.0
 10
1353.590392969965
 20
804.2708870447786
 30
0.0
 10
1353.102625037973
 20
804.363803369903
 30
0.0
 10
1352.709342899236
 20
804.3864399712257
 30
0.0
 10
1352.36521055571
 20
804.3586735139658
 30
0.0
 10
1352.07781012056
 20
804.3016536665747
 30
0.0
 10
1351.853171850151
 20
804.2401774727429
 30
0.0
 10
1351.593745110551
 20
804.1442127479595
 30
0.0
 10
1351.355563755478
 20
804.0259772443417
 30
0.0
 10
1351.172429374833
 20
803.915444095594
 30
0.0
 10
1350.988124734418
 20
803.788524685974
 30
0.0
 10
1350.790886916923
 20
803.6261427999935
 30
0.0
 10
1350.50282174068
 20
803.33664809143
 30
0.0
 10
1350.212548888622
 20
802.9319689481083
 30
0.0
 10
1349.961090871523
 20
802.3700982538669
 30
0.0
 10
1349.831663702622
 20
801.7412371282836
 30
0.0
 10
1349.837340005673
 20
801.115838938142
 30
0.0
 10
1349.948386749027
 20
800.7154996391415
 30
0.0
 10
1349.995826084773
 20
800.5444740886027
 30
0.0
  0
SPLINE
  5
1C9
330
1F
100
AcDbEntity
  8
0
  6
Continuous
 62
     7
370
    25
100
AcDbSpline
210
0.0
220
0.0
230
1.0
 70
     8
 71
     3
 72
    15
 73
    11
 74
     0
 42
0.000000001
 43
0.00000001
 40
0.0
 40
0.0
 40
0.0
 40
0.0
 40
0.21292940532031
 40
0.3333107283176499
 40
0.4345062010027768
 40
0.5362836886507053
 40
0.6256367151021829
 40
0.745636854756794
 40
0.9211927176880819
 40
1.0
 40
1.0
 40
1.0
 40
1.0
 10
1356.029293289414
 20
803.0450903012069
 30
0.0
 10
1355.992829381805
 20
802.9980575227612
 30
0.0
 10
1355.935750315699
 20
802.9244343911182
 30
0.0
 10
1355.806121803903
 20
802.8511515790776
 30
0.0
 10
1355.687963193827
 20
802.8170495443758
 30
0.0
 10
1355.569217075918
 20
802.8128383255801
 30
0.0
 10
1355.449889735205
 20
802.8366647592679
 30
0.0
 10
1355.326010463111
 20
802.8946411867565
 30
0.0
 10
1355.239966904155
 20
802.9712670035617
 30
0.0
 10
1355.200604493245
 20
803.0276283268612
 30
0.0
 10
1355.18840915486
 20
803.0450903012069
 30
0.0
  0
SPLINE
  5
1CA
330
1F
100
AcDbEntity
  8
0
  6
Continuous
 62
     7
370
    25
100
AcDbSpline
210
0.0
220
0.0
230
1.0
 70
     8
 71
     3
 72
    23
 73
    19
 74
     0
 42
0.000000001
 43
0.00000001
 40
0.0
 40
0.0
 40
0.0
 40
0.0
 40
0.0897333625634514
 40
0.1819840841675975
 40
0.2742051059772509
 40
0.3688433122749612
 40
0.4236413335966948
 40
0.4510235156839156
 40
0.4792354352735692
 40
0.5037881481849749
 40
0.5284425765595033
 40
0.561168845174971
 40
0.6013459240441593
 40
0.6426470274020734
 40
0.7287280788474692
 40
0.8170135534706837
 40
0.9073353330993367
 40
0.9999999999999999
 40
0.9999999999999999
 40
0.9999999999999999
 40
0.9999999999999999
 10
1361.221876359501
 20
800.5444740886036
 30
0.0
 10
1361.282250623274
 20
800.7796954042755
 30
0.0
 10
1361.40469287648
 20
801.2567368801142
 30
0.0
 10
1361.358862379994
 20
801.967843575736
 30
0.0
 10
1361.15761556848
 20
802.6510493287965
 30
0.0
 10
1360.836017864958
 20
803.1954136650693
 30
0.0
 10
1360.495775340205
 20
803.56657899828
 30
0.0
 10
1360.226363768161
 20
803.7920470478739
 30
0.0
 10
1359.991323974988
 20
803.9534959377678
 30
0.0
 10
1359.718369422736
 20
804.1015303529281
 30
0.0
 10
1359.407751185646
 20
804.2290229526965
 30
0.0
 10
1359.065142338556
 20
804.3237858808526
 30
0.0
 10
1358.711616278184
 20
804.3746950755097
 30
0.0
 10
1358.236273894874
 20
804.3843276900856
 30
0.0
 10
1357.676602185542
 20
804.2935754699398
 30
0.0
 10
1357.052397343286
 20
804.0352460473989
 30
0.0
 10
1356.475840786519
 20
803.6352069537173
 30
0.0
 10
1356.179407593542
 20
803.243467744189
 30
0.0
 10
1356.029293289414
 20
803.0450903012069
 30
0.0
  0
SPLINE
  5
1CB
330
1F
100
AcDbEntity
  8
0
  6
Continuous
 62
     7
370
    25
100
AcDbSpline
210
0.0
220
0.0
230
1.0
 70
     8
 71
     3
 72
    15
 73
    11
 74
     0
 42
0.000000001
 43
0.00000001
 40
0.0
 40
0.0
 40
0.0
 40
0.0
 40
0.2155767705933886
 40
0.3329005538677475
 40
0.4328760582230964
 40
0.5332634977247768
 40
0.6250838127945025
 40
0.7535547096888731
 40
0.9421338378892107
 40
1.0
 40
1.0
 40
1.0
 40
1.0
 10
1361.746159041941
 20
799.887044399101
 30
0.0
 10
1361.684329280673
 20
799.8863928786458
 30
0.0
 10
1361.588849782975
 20
799.8853867798914
 30
0.0
 10
1361.448861915125
 20
799.9442281783195
 30
0.0
 10
1361.350435806589
 20
800.0161876725788
 30
0.0
 10
1361.27503897143
 20
800.106151907466
 30
0.0
 10
1361.219610087455
 20
800.215733712002
 30
0.0
 10
1361.188550472721
 20
800.3541162390678
 30
0.0
 10
1361.197957090993
 20
800.4663696620861
 30
0.0
 10
1361.217328005313
 20
800.529622188123
 30
0.0
 10
1361.221876359501
 20
800.5444740886036
 30
0.0
  0
SPLINE
  5
1CC
330
1F
100
AcDbEntity
  8
0
  6
Continuous
 62
     7
370
    25
100
AcDbSpline
210
0.0
220
0.0
230
1.0
 70
     8
 71
     3
 72
    27
 73
    23
 74
     0
 42
0.000000001
 43
0.00000001
 40
0.0
 40
0.0
 40
0.0
 40
0.0
 40
0.0885627570442147
 40
0.1796538943995937
 40
0.2695908295576358
 40
0.3157544754264167
 40
0.3623424134621826
 40
0.4187626527282489
 40
0.4469315743364941
 40
0.4757555362193692
 40
0.4937367345958549
 40
0.5121853392428828
 40
0.5301891255062625
 40
0.5487612444758527
 40
0.5721476357447938
 40
0.5961816793253274
 40
0.6385637840833134
 40
0.681963892954377
 40
0.7628695907407601
 40
0.8459362592691243
 40
0.9222273191770639
 40
1.0
 40
1.0
 40
1.0
 40
1.0
 10
2153.028621150861
 20
794.2682107726561
 30
0.0
 10
2153.241941544923
 20
794.3631297004586
 30
0.0
 10
2153.674672422181
 20
794.5556773988487
 30
0.0
 10
2154.192732458817
 20
795.0129445551104
 30
0.0
 10
2154.534667482368
 20
795.4803181268938
 30
0.0
 10
2154.740496219199
 20
795.9108395584467
 30
0.0
 10
2154.867618141564
 20
796.2941802509348
 30
0.0
 10
2154.933918829803
 20
796.669088683049
 30
0.0
 10
2154.947855408568
 20
797.0286647267523
 30
0.0
 10
2154.932929086864
 20
797.2853534051694
 30
0.0
 10
2154.898617344183
 20
797.5199265810968
 30
0.0
 10
2154.854966925627
 20
797.7197012998143
 30
0.0
 10
2154.796015559053
 20
797.9195913273575
 30
0.0
 10
2154.717926305337
 20
798.1281769835807
 30
0.0
 10
2154.618601831661
 20
798.3403114195103
 30
0.0
 10
2154.469645055048
 20
798.599125704625
 30
0.0
 10
2154.270268600954
 20
798.8700886327165
 30
0.0
 10
2153.944340575269
 20
799.2106435985125
 30
0.0
 10
2153.500916223662
 20
799.534498458711
 30
0.0
 10
2152.939151650623
 20
799.779566268782
 30
0.0
 10
2152.348649573426
 20
799.9112580326027
 30
0.0
 10
2151.948272685216
 20
799.8951671917897
 30
0.0
 10
2151.746159041941
 20
799.8870443991016
 30
0.0
  0
SPLINE
  5
1CD
330
1F
100
AcDbEntity
  8
0
  6
Continuous
 62
     7
370
    25
100
AcDbSpline
210
0.0
220
0.0
230
1.0
 70
     8
 71
     3
 72
    14
 73
    10
 74
     0
 42
0.000000001
 43
0.00000001
 40
0.0
 40
0.0
 40
0.0
 40
0.0
 40
0.220765348438307
 40
0.3402146168140888
 40
0.4605704991791176
 40
0.5641909618660997
 40
0.6633542991972022
 40
0.8105247403618681
 40
1.0
 40
1.0
 40
1.0
 40
1.0
 10
2152.84150682789
 20
793.4484093589681
 30
0.0
 10
2152.800808032369
 20
793.4989517986103
 30
0.0
 10
2152.73808838356
 20
793.5768411814204
 30
0.0
 10
2152.697146978185
 20
793.7347544774573
 30
0.0
 10
2152.697826074151
 20
793.8672596595269
 30
0.0
 10
2152.731860979971
 20
793.9887712338489
 30
0.0
 10
2152.793908535375
 20
794.1007334546979
 30
0.0
 10
2152.894314856441
 20
794.2066048353452
 30
0.0
 10
2152.980252578005
 20
794.2460242379143
 30
0.0
 10
2153.028621150861
 20
794.2682107726561
 30
0.0
  0
SPLINE
  5
1CE
330
1F
100
AcDbEntity
  8
0
  6
Continuous
 62
     7
370
    25
100
AcDbSpline
210
0.0
220
0.0
230
1.0
 70
     8
 71
     3
 72
    23
 73
    19
 74
     0
 42
0.000000001
 43
0.00000001
 40
0.0
 40
0.0
 40
0.0
 40
0.0
 40
0.0863901050636673
 40
0.1752766177962506
 40
0.2621177065427337
 40
0.3519363559727531
 40
0.4192459175638973
 40
0.4528076006128828
 40
0.4875598503476024
 40
0.5342326170542431
 40
0.5808027178643163
 40
0.617415928196372
 40
0.6550189806174123
 40
0.7176192476618286
 40
0.7818570182170476
 40
0.8689416197544361
 40
0.9585429605715617
 40
1.0
 40
1.0
 40
1.0
 40
1.0
 10
2149.248127850168
 20
788.9424546427118
 30
0.0
 10
2149.44646245454
 20
788.8386244896777
 30
0.0
 10
2149.848862921825
 20
788.6279638123268
 30
0.0
 10
2150.506532359638
 20
788.5017493779834
 30
0.0
 10
2151.18871788835
 20
788.5170399620317
 30
0.0
 10
2151.825458260186
 20
788.6868776449764
 30
0.0
 10
2152.325262173509
 20
788.9521028623927
 30
0.0
 10
2152.6733906174
 20
789.2194848242005
 30
0.0
 10
2152.957030754407
 20
789.4957475534247
 30
0.0
 10
2153.237347354296
 20
789.8657909023709
 30
0.0
 10
2153.443026051559
 20
790.2677808776377
 30
0.0
 10
2153.568848413515
 20
790.6334003646821
 30
0.0
 10
2153.655741426463
 20
791.0344935401636
 30
0.0
 10
2153.683825536256
 20
791.493899141489
 30
0.0
 10
2153.619440448578
 20
792.0560204900383
 30
0.0
 10
2153.42607384307
 20
792.6422101623563
 30
0.0
 10
2153.141036349641
 20
793.1208717718591
 30
0.0
 10
2152.913486522324
 20
793.3696990692517
 30
0.0
 10
2152.841506827891
 20
793.448409358968
 30
0.0
  0
SPLINE
  5
1CF
330
1F
100
AcDbEntity
  8
0
  6
Continuous
 62
     7
370
    25
100
AcDbSpline
210
0.0
220
0.0
230
1.0
 70
     8
 71
     3
 72
    14
 73
    10
 74
     0
 42
0.000000001
 43
0.00000001
 40
0.0
 40
0.0
 40
0.0
 40
0.0
 40
0.2243030424882868
 40
0.3489011866266555
 40
0.4744001356117536
 40
0.5826741857065961
 40
0.6867417687947411
 40
0.838156487169633
 40
1.0
 40
1.0
 40
1.0
 40
1.0
 10
2148.490517423421
 20
788.5776086902468
 30
0.0
 10
2148.505162961836
 20
788.6422213412767
 30
0.0
 10
2148.527943953459
 20
788.7427256873849
 30
0.0
 10
2148.629728579865
 20
788.8749110230143
 30
0.0
 10
2148.738418621415
 20
788.9572565826446
 30
0.0
 10
2148.859386631273
 20
789.0046376013204
 30
0.0
 10
2148.989681685112
 20
789.0220559487502
 30
0.0
 10
2149.127498386034
 20
789.0046499750349
 30
0.0
 10
2149.207035396875
 20
788.9636414962463
 30
0.0
 10
2149.248127850168
 20
788.9424546427118
 30
0.0
  0
SPLINE
  5
1D0
330
1F
100
AcDbEntity
  8
0
  6
Continuous
 62
     7
370
    25
100
AcDbSpline
210
0.0
220
0.0
230
1.0
 70
     8
 71
     3
 72
    26
 73
    22
 74
     0
 42
0.000000001
 43
0.00000001
 40
0.0
 40
0.0
 40
0.0
 40
0.0
 40
0.08542611593609
 40
0.1733276547195557
 40
0.2448517261352437
 40
0.3181224083912675
 40
0.3577740645396607
 40
0.3980844094313153
 40
0.4287682032815248
 40
0.4601978879083172
 40
0.4855692359538036
 40
0.5116681185372396
 40
0.5370453561645154
 40
0.5630880149113994
 40
0.5995557531473511
 40
0.637034587382543
 40
0.6960497304231464
 40
0.756632117583133
 40
0.8401423063242286
 40
0.9260534647419589
 40
1.0
 40
1.0
 40
1.0
 40
1.0
 10
2142.727185020853
 20
788.5776086902467
 30
0.0
 10
2142.768606596827
 20
788.3615419734751
 30
0.0
 10
2142.852650036469
 20
787.9231474980783
 30
0.0
 10
2143.141224500792
 20
787.3660366074304
 30
0.0
 10
2143.515592032309
 20
786.8945529782663
 30
0.0
 10
2143.896557133427
 20
786.5727429688069
 30
0.0
 10
2144.271756599845
 20
786.3487017122569
 30
0.0
 10
2144.576592414229
 20
786.2133793606176
 30
0.0
 10
2144.887886869216
 20
786.1159209123414
 30
0.0
 10
2145.174951681176
 20
786.0581377850343
 30
0.0
 10
2145.45998962721
 20
786.0301270950932
 30
0.0
 10
2145.728851870435
 20
786.0287770277739
 30
0.0
 10
2145.996271267282
 20
786.0524005491604
 30
0.0
 10
2146.287449295377
 20
786.1051333494589
 30
0.0
 10
2146.596003326883
 20
786.1961212911955
 30
0.0
 10
2146.966025789482
 20
786.3551089796259
 30
0.0
 10
2147.345522682755
 20
786.5898266220943
 30
0.0
 10
2147.754593040711
 20
786.9498890950937
 30
0.0
 10
2148.114493111643
 20
787.4228918409741
 30
0.0
 10
2148.382084556024
 20
787.9851906881329
 30
0.0
 10
2148.456222770631
 20
788.3902414262731
 30
0.0
 10
2148.490517423421
 20
788.5776086902468
 30
0.0
  0
SPLINE
  5
1D1
330
1F
100
AcDbEntity
  8
0
  6
Continuous
 62
     7
370
    25
100
AcDbSpline
210
0.0
220
0.0
230
1.0
 70
     8
 71
     3
 72
    14
 73
    10
 74
     0
 42
0.000000001
 43
0.00000001
 40
0.0
 40
0.0
 40
0.0
 40
0.0
 40
0.2239799089305531
 40
0.3530600787849406
 40
0.4831615846560053
 40
0.5937368434043864
 40
0.6971871626480907
 40
0.8442013099709667
 40
1.0
 40
1.0
 40
1.0
 40
1.0
 10
2141.969574594106
 20
788.9424546427118
 30
0.0
 10
2142.028194946778
 20
788.9708726494798
 30
0.0
 10
2142.120598352205
 20
789.0156680231199
 30
0.0
 10
2142.287636535797
 20
789.0193932264815
 30
0.0
 10
2142.423067849903
 20
788.9848765329409
 30
0.0
 10
2142.537508430702
 20
788.9173950391049
 30
0.0
 10
2142.631327529476
 20
788.8251791974337
 30
0.0
 10
2142.701435758422
 20
788.7077493806772
 30
0.0
 10
2142.71843752735
 20
788.6218198534601
 30
0.0
 10
2142.727185020853
 20
788.5776086902467
 30
0.0
  0
SPLINE
  5
1D2
330
1F
100
AcDbEntity
  8
0
  6
Continuous
 62
     7
370
    25
100
AcDbSpline
210
0.0
220
0.0
230
1.0
 70
     8
 71
     3
 72
    24
 73
    20
 74
     0
 42
0.000000001
 43
0.00000001
 40
0.0
 40
0.0
 40
0.0
 40
0.0
 40
0.0875562630610312
 40
0.1776478778994356
 40
0.2471757028850856
 40
0.3182848495519417
 40
0.3544514774164556
 40
0.3911558340110754
 40
0.4196735717850664
 40
0.4488792169076932
 40
0.4956340312872254
 40
0.5423649618835424
 40
0.576362733126496
 40
0.6112927856933148
 40
0.6689340598446847
 40
0.7280698917726421
 40
0.8133417532352668
 40
0.9010570727560779
 40
0.9999999999999999
 40
0.9999999999999999
 40
0.9999999999999999
 40
0.9999999999999999
 10
2138.376195616383
 20
793.4484093589678
 30
0.0
 10
2138.23012153528
 20
793.2773206265298
 30
0.0
 10
2137.933743530821
 20
792.9301889744067
 30
0.0
 10
2137.680670803573
 20
792.3507238828957
 30
0.0
 10
2137.551052181786
 20
791.767671945161
 30
0.0
 10
2137.538658092225
 20
791.2876950719342
 30
0.0
 10
2137.592705832453
 20
790.8768389957582
 30
0.0
 10
2137.666634949744
 20
790.5769126344258
 30
0.0
 10
2137.770723265195
 20
790.2902192457533
 30
0.0
 10
2137.924084565643
 20
789.9697794770333
 30
0.0
 10
2138.16854988852
 20
789.5998029142089
 30
0.0
 10
2138.478890520468
 20
789.2740086167753
 30
0.0
 10
2138.77467450853
 20
789.0397983715781
 30
0.0
 10
2139.103843124515
 20
788.8344324756773
 30
0.0
 10
2139.500678121027
 20
788.6601674219792
 30
0.0
 10
2140.026759776473
 20
788.5260054379986
 30
0.0
 10
2140.624670776461
 20
788.4961637665283
 30
0.0
 10
2141.310882593707
 20
788.6052062957447
 30
0.0
 10
2141.741379052201
 20
788.8256192033167
 30
0.0
 10
2141.969574594106
 20
788.9424546427118
 30
0.0
  0
SPLINE
  5
1D3
330
1F
100
AcDbEntity
  8
0
  6
Continuous
 62
     7
370
    25
100
AcDbSpline
210
0.0
220
0.0
230
1.0
 70
     8
 71
     3
 72
    14
 73
    10
 74
     0
 42
0.000000001
 43
0.00000001
 40
0.0
 40
0.0
 40
0.0
 40
0.0
 40
0.2200911109485839
 40
0.3501199592092674
 40
0.4590676183976911
 40
0.5685351145661591
 40
0.6668402217389687
 40
0.7968948941936455
 40
1.0
 40
1.0
 40
1.0
 40
1.0
 10
2138.189081293413
 20
794.2682107726554
 30
0.0
 10
2138.245488717278
 20
794.241567450869
 30
0.0
 10
2138.335221395974
 20
794.199183373216
 30
0.0
 10
2138.437488363669
 20
794.0809919584909
 30
0.0
 10
2138.495761077681
 20
793.9651118672585
 30
0.0
 10
2138.521707505107
 20
793.8431260252805
 30
0.0
 10
2138.517145576669
 20
793.7154613375739
 30
0.0
 10
2138.475272272061
 20
793.5696596831797
 30
0.0
 10
2138.413719935488
 20
793.4943317392313
 30
0.0
 10
2138.376195616383
 20
793.4484093589678
 30
0.0
  0
SPLINE
  5
1D4
330
1F
100
AcDbEntity
  8
0
  6
Continuous
 62
     7
370
    25
100
AcDbSpline
210
0.0
220
0.0
230
1.0
 70
     8
 71
     3
 72
    27
 73
    23
 74
     0
 42
0.000000001
 43
0.00000001
 40
0.0
 40
0.0
 40
0.0
 40
0.0
 40
0.0910683471803978
 40
0.1847464164709045
 40
0.2588266946055629
 40
0.3345190598259282
 40
0.3626447427195218
 40
0.3910056482847437
 40
0.4191743039829891
 40
0.448120360697962
 40
0.4657704782447524
 40
0.483908170643317
 40
0.5015721548764651
 40
0.5197440214872919
 40
0.5448446854435515
 40
0.5706253690117599
 40
0.6177938154944743
 40
0.6660858441031505
 40
0.7518796859636183
 40
0.8400397940083039
 40
0.9191574739584839
 40
1.0
 40
1.0
 40
1.0
 40
1.0
 10
2139.471543402333
 20
799.8870443991009
 30
0.0
 10
2139.234986055944
 20
799.8940293525548
 30
0.0
 10
2138.755092400374
 20
799.9081994254702
 30
0.0
 10
2138.119492982509
 20
799.725647885905
 30
0.0
 10
2137.565499920462
 20
799.4370148070087
 30
0.0
 10
2137.194286992795
 20
799.1349763558846
 30
0.0
 10
2136.939711631423
 20
798.8536933396164
 30
0.0
 10
2136.784713875267
 20
798.6497061844548
 30
0.0
 10
2136.638171527495
 20
798.4155544672257
 30
0.0
 10
2136.521929406465
 20
798.1811032364271
 30
0.0
 10
2136.435198229643
 20
797.9586737035568
 30
0.0
 10
2136.375029169798
 20
797.7657669516257
 30
0.0
 10
2136.328246139142
 20
797.5676494697198
 30
0.0
 10
2136.292050612632
 20
797.3469560442388
 30
0.0
 10
2136.272476058606
 20
797.1069774454127
 30
0.0
 10
2136.274762931837
 20
796.7882660535473
 30
0.0
 10
2136.320810503989
 20
796.4290375328455
 30
0.0
 10
2136.453204593656
 20
795.945784992705
 30
0.0
 10
2136.707481997051
 20
795.4238225514154
 30
0.0
 10
2137.114310568745
 20
794.9252770104706
 30
0.0
 10
2137.607069666865
 20
794.522712321447
 30
0.0
 10
2137.993687787374
 20
794.3536522787051
 30
0.0
 10
2138.189081293413
 20
794.2682107726555
 30
0.0
  0
SPLINE
  5
1D5
330
1F
100
AcDbEntity
  8
0
  6
Continuous
 62
     7
370
    25
100
AcDbSpline
210
0.0
220
0.0
230
1.0
 70
     8
 71
     3
 72
    15
 73
    11
 74
     0
 42
0.000000001
 43
0.00000001
 40
0.0
 40
0.0
 40
0.0
 40
0.0
 40
0.2150763736126738
 40
0.3413349926978222
 40
0.446593490352974
 40
0.5524796219272535
 40
0.6449070621726983
 40
0.7662146539024285
 40
0.9406316560516657
 40
1.0
 40
1.0
 40
1.0
 40
1.0
 10
2139.995826084773
 20
800.5444740886034
 30
0.0
 10
2140.009855797678
 20
800.4862938268693
 30
0.0
 10
2140.032121525298
 20
800.3939593743183
 30
0.0
 10
2140.007421516037
 20
800.244894840845
 30
0.0
 10
2139.957630093003
 20
800.1285416994826
 30
0.0
 10
2139.883130964054
 20
800.0318226619326
 30
0.0
 10
2139.786153594255
 20
799.9541637529236
 30
0.0
 10
2139.660953850636
 20
799.8965746616186
 30
0.0
 10
2139.552104671071
 20
799.8812678152503
 30
0.0
 10
2139.487858356822
 20
799.8858745478299
 30
0.0
 10
2139.471543402333
 20
799.8870443991009
 30
0.0
  0
SPLINE
  5
1D6
330
1F
100
AcDbEntity
  8
0
  6
Continuous
 62
     7
370
    25
100
AcDbSpline
210
0.0
220
0.0
230
1.0
 70
     8
 71
     3
 72
    26
 73
    22
 74
     0
 42
0.000000001
 43
0.00000001
 40
0.0
 40
0.0
 40
0.0
 40
0.0
 40
0.0912035599485244
 40
0.1849670362499695
 40
0.2785634207445228
 40
0.3265394520589588
 40
0.3749439889045985
 40
0.4231405593180557
 40
0.4430841889857747
 40
0.4634373414447631
 40
0.4878409265543382
 40
0.5123587387506972
 40
0.5280992736585298
 40
0.5442699367721624
 40
0.5755700365325684
 40
0.6075525397506825
 40
0.683442401457062
 40
0.7611024134337999
 40
0.8469107031299032
 40
0.9346000221708236
 40
0.9999999999999999
 40
0.9999999999999999
 40
0.9999999999999999
 40
0.9999999999999999
 10
2145.18840915486
 20
803.0450903012077
 30
0.0
 10
2145.040786200854
 20
803.2405540269004
 30
0.0
 10
2144.741396787761
 20
803.6369677859269
 30
0.0
 10
2144.148378521515
 20
804.0472514313749
 30
0.0
 10
2143.590392969966
 20
804.2708870447793
 30
0.0
 10
2143.102625037973
 20
804.3638033699037
 30
0.0
 10
2142.709342899237
 20
804.3864399712264
 30
0.0
 10
2142.36521055571
 20
804.3586735139666
 30
0.0
 10
2142.07781012056
 20
804.3016536665752
 30
0.0
 10
2141.853171850151
 20
804.2401774727435
 30
0.0
 10
2141.593745110551
 20
804.1442127479601
 30
0.0
 10
2141.355563755477
 20
804.0259772443424
 30
0.0
 10
2141.172429374833
 20
803.9154440955946
 30
0.0
 10
2140.988124734418
 20
803.7885246859748
 30
0.0
 10
2140.790886916923
 20
803.6261427999942
 30
0.0
 10
2140.50282174068
 20
803.3366480914308
 30
0.0
 10
2140.212548888623
 20
802.9319689481091
 30
0.0
 10
2139.961090871523
 20
802.3700982538677
 30
0.0
 10
2139.831663702622
 20
801.7412371282843
 30
0.0
 10
2139.837340005673
 20
801.1158389381427
 30
0.0
 10
2139.948386749027
 20
800.715499639142
 30
0.0
 10
2139.995826084773
 20
800.5444740886034
 30
0.0
  0
SPLINE
  5
1D7
330
1F
100
AcDbEntity
  8
0
  6
Continuous
 62
     7
370
    25
100
AcDbSpline
210
0.0
220
0.0
230
1.0
 70
     8
 71
     3
 72
    15
 73
    11
 74
     0
 42
0.000000001
 43
0.00000001
 40
0.0
 40
0.0
 40
0.0
 40
0.0
 40
0.21292940532031
 40
0.3333107283176499
 40
0.4345062010027768
 40
0.5362836886507053
 40
0.6256367151021829
 40
0.745636854756794
 40
0.9211927176880819
 40
1.0
 40
1.0
 40
1.0
 40
1.0
 10
2146.029293289414
 20
803.0450903012076
 30
0.0
 10
2145.992829381806
 20
802.9980575227618
 30
0.0
 10
2145.935750315699
 20
802.9244343911189
 30
0.0
 10
2145.806121803903
 20
802.8511515790782
 30
0.0
 10
2145.687963193827
 20
802.8170495443763
 30
0.0
 10
2145.569217075918
 20
802.8128383255807
 30
0.0
 10
2145.449889735205
 20
802.8366647592685
 30
0.0
 10
2145.326010463111
 20
802.8946411867572
 30
0.0
 10
2145.239966904155
 20
802.9712670035624
 30
0.0
 10
2145.200604493245
 20
803.027628326862
 30
0.0
 10
2145.18840915486
 20
803.0450903012077
 30
0.0
  0
SPLINE
  5
1D8
330
1F
100
AcDbEntity
  8
0
  6
Continuous
 62
     7
370
    25
100
AcDbSpline
210
0.0
220
0.0
230
1.0
 70
     8
 71
     3
 72
    23
 73
    19
 74
     0
 42
0.000000001
 43
0.00000001
 40
0.0
 40
0.0
 40
0.0
 40
0.0
 40
0.0897333625634514
 40
0.1819840841675975
 40
0.2742051059772509
 40
0.3688433122749612
 40
0.4236413335966948
 40
0.4510235156839156
 40
0.4792354352735692
 40
0.5037881481849749
 40
0.5284425765595033
 40
0.561168845174971
 40
0.6013459240441593
 40
0.6426470274020734
 40
0.7287280788474692
 40
0.8170135534706837
 40
0.9073353330993367
 40
0.9999999999999999
 40
0.9999999999999999
 40
0.9999999999999999
 40
0.9999999999999999
 10
2151.221876359501
 20
800.5444740886041
 30
0.0
 10
2151.282250623274
 20
800.779695404276
 30
0.0
 10
2151.404692876481
 20
801.2567368801148
 30
0.0
 10
2151.358862379994
 20
801.9678435757367
 30
0.0
 10
2151.15761556848
 20
802.6510493287971
 30
0.0
 10
2150.836017864958
 20
803.19541366507
 30
0.0
 10
2150.495775340205
 20
803.5665789982806
 30
0.0
 10
2150.226363768162
 20
803.7920470478746
 30
0.0
 10
2149.991323974988
 20
803.9534959377686
 30
0.0
 10
2149.718369422736
 20
804.1015303529288
 30
0.0
 10
2149.407751185646
 20
804.2290229526972
 30
0.0
 10
2149.065142338556
 20
804.3237858808533
 30
0.0
 10
2148.711616278184
 20
804.3746950755104
 30
0.0
 10
2148.236273894874
 20
804.3843276900864
 30
0.0
 10
2147.676602185542
 20
804.2935754699403
 30
0.0
 10
2147.052397343286
 20
804.0352460473996
 30
0.0
 10
2146.475840786519
 20
803.635206953718
 30
0.0
 10
2146.179407593542
 20
803.2434677441898
 30
0.0
 10
2146.029293289414
 20
803.0450903012077
 30
0.0
  0
SPLINE
  5
1D9
330
1F
100
AcDbEntity
  8
0
  6
Continuous
 62
     7
370
    25
100
AcDbSpline
210
0.0
220
0.0
230
1.0
 70
     8
 71
     3
 72
    15
 73
    11
 74
     0
 42
0.000000001
 43
0.00000001
 40
0.0
 40
0.0
 40
0.0
 40
0.0
 40
0.2155767705933886
 40
0.3329005538677475
 40
0.4328760582230964
 40
0.5332634977247768
 40
0.6250838127945025
 40
0.7535547096888731
 40
0.9421338378892107
 40
1.0
 40
1.0
 40
1.0
 40
1.0
 10
2151.746159041941
 20
799.8870443991016
 30
0.0
 10
2151.684329280673
 20
799.8863928786465
 30
0.0
 10
2151.588849782975
 20
799.8853867798921
 30
0.0
 10
2151.448861915125
 20
799.94422817832
 30
0.0
 10
2151.350435806589
 20
800.0161876725795
 30
0.0
 10
2151.27503897143
 20
800.1061519074667
 30
0.0
 10
2151.219610087455
 20
800.2157337120027
 30
0.0
 10
2151.188550472721
 20
800.3541162390685
 30
0.0
 10
2151.197957090993
 20
800.4663696620867
 30
0.0
 10
2151.217328005313
 20
800.5296221881235
 30
0.0
 10
2151.221876359501
 20
800.5444740886041
 30
0.0
  0
SPLINE
  5
1DA
330
1F
100
AcDbEntity
  8
0
  6
Continuous
 62
     7
370
    25
100
AcDbSpline
210
0.0
220
0.0
230
1.0
 70
     8
 71
     3
 72
    27
 73
    23
 74
     0
 42
0.000000001
 43
0.00000001
 40
0.0
 40
0.0
 40
0.0
 40
0.0
 40
0.0885627570442147
 40
0.1796538943995937
 40
0.2695908295576358
 40
0.3157544754264167
 40
0.3623424134621826
 40
0.4187626527282489
 40
0.4469315743364941
 40
0.4757555362193692
 40
0.4937367345958549
 40
0.5121853392428828
 40
0.5301891255062625
 40
0.5487612444758527
 40
0.5721476357447938
 40
0.5961816793253274
 40
0.6385637840833134
 40
0.681963892954377
 40
0.7628695907407601
 40
0.8459362592691243
 40
0.9222273191770639
 40
1.0
 40
1.0
 40
1.0
 40
1.0
 10
2138.189081293429
 20
1805.49725990634
 30
0.0
 10
2137.975760899367
 20
1805.402340978537
 30
0.0
 10
2137.54303002211
 20
1805.209793280147
 30
0.0
 10
2137.024969985473
 20
1804.752526123885
 30
0.0
 10
2136.683034961923
 20
1804.285152552102
 30
0.0
 10
2136.477206225091
 20
1803.854631120549
 30
0.0
 10
2136.350084302726
 20
1803.471290428061
 30
0.0
 10
2136.283783614487
 20
1803.096381995947
 30
0.0
 10
2136.269847035723
 20
1802.736805952243
 30
0.0
 10
2136.284773357426
 20
1802.480117273826
 30
0.0
 10
2136.319085100108
 20
1802.245544097899
 30
0.0
 10
2136.362735518663
 20
1802.045769379181
 30
0.0
 10
2136.421686885237
 20
1801.845879351638
 30
0.0
 10
2136.499776138953
 20
1801.637293695415
 30
0.0
 10
2136.599100612629
 20
1801.425159259485
 30
0.0
 10
2136.748057389243
 20
1801.166344974371
 30
0.0
 10
2136.947433843337
 20
1800.895382046279
 30
0.0
 10
2137.273361869021
 20
1800.554827080483
 30
0.0
 10
2137.716786220627
 20
1800.230972220285
 30
0.0
 10
2138.278550793667
 20
1799.985904410214
 30
0.0
 10
2138.869052870863
 20
1799.854212646393
 30
0.0
 10
2139.269429759075
 20
1799.870303487206
 30
0.0
 10
2139.47154340235
 20
1799.878426279894
 30
0.0
  0
SPLINE
  5
1DB
330
1F
100
AcDbEntity
  8
0
  6
Continuous
 62
     7
370
    25
100
AcDbSpline
210
0.0
220
0.0
230
1.0
 70
     8
 71
     3
 72
    14
 73
    10
 74
     0
 42
0.000000001
 43
0.00000001
 40
0.0
 40
0.0
 40
0.0
 40
0.0
 40
0.220765348438307
 40
0.3402146168140888
 40
0.4605704991791176
 40
0.5641909618660997
 40
0.6633542991972022
 40
0.8105247403618681
 40
1.0
 40
1.0
 40
1.0
 40
1.0
 10
2138.376195616399
 20
1806.317061320028
 30
0.0
 10
2138.416894411921
 20
1806.266518880386
 30
0.0
 10
2138.479614060729
 20
1806.188629497575
 30
0.0
 10
2138.520555466106
 20
1806.030716201538
 30
0.0
 10
2138.519876370138
 20
1805.898211019469
 30
0.0
 10
2138.485841464319
 20
1805.776699445147
 30
0.0
 10
2138.423793908916
 20
1805.664737224298
 30
0.0
 10
2138.32338758785
 20
1805.55886584365
 30
0.0
 10
2138.237449866286
 20
1805.519446441082
 30
0.0
 10
2138.189081293429
 20
1805.49725990634
 30
0.0
  0
SPLINE
  5
1DC
330
1F
100
AcDbEntity
  8
0
  6
Continuous
 62
     7
370
    25
100
AcDbSpline
210
0.0
220
0.0
230
1.0
 70
     8
 71
     3
 72
    23
 73
    19
 74
     0
 42
0.000000001
 43
0.00000001
 40
0.0
 40
0.0
 40
0.0
 40
0.0
 40
0.0863901050636673
 40
0.1752766177962506
 40
0.2621177065427337
 40
0.3519363559727531
 40
0.4192459175638973
 40
0.4528076006128828
 40
0.4875598503476024
 40
0.5342326170542431
 40
0.5808027178643163
 40
0.617415928196372
 40
0.6550189806174123
 40
0.7176192476618286
 40
0.7818570182170476
 40
0.8689416197544361
 40
0.9585429605715617
 40
1.0
 40
1.0
 40
1.0
 40
1.0
 10
2141.969574594123
 20
1810.823016036284
 30
0.0
 10
2141.77123998975
 20
1810.926846189318
 30
0.0
 10
2141.368839522465
 20
1811.137506866669
 30
0.0
 10
2140.711170084653
 20
1811.263721301013
 30
0.0
 10
2140.02898455594
 20
1811.248430716964
 30
0.0
 10
2139.392244184105
 20
1811.078593034019
 30
0.0
 10
2138.892440270781
 20
1810.813367816603
 30
0.0
 10
2138.54431182689
 20
1810.545985854795
 30
0.0
 10
2138.260671689884
 20
1810.269723125571
 30
0.0
 10
2137.980355089995
 20
1809.899679776624
 30
0.0
 10
2137.774676392732
 20
1809.497689801358
 30
0.0
 10
2137.648854030775
 20
1809.132070314314
 30
0.0
 10
2137.561961017827
 20
1808.730977138832
 30
0.0
 10
2137.533876908034
 20
1808.271571537507
 30
0.0
 10
2137.598261995712
 20
1807.709450188957
 30
0.0
 10
2137.79162860122
 20
1807.123260516639
 30
0.0
 10
2138.076666094649
 20
1806.644598907136
 30
0.0
 10
2138.304215921966
 20
1806.395771609744
 30
0.0
 10
2138.376195616399
 20
1806.317061320028
 30
0.0
  0
SPLINE
  5
1DD
330
1F
100
AcDbEntity
  8
0
  6
Continuous
 62
     7
370
    25
100
AcDbSpline
210
0.0
220
0.0
230
1.0
 70
     8
 71
     3
 72
    14
 73
    10
 74
     0
 42
0.000000001
 43
0.00000001
 40
0.0
 40
0.0
 40
0.0
 40
0.0
 40
0.2243030424882868
 40
0.3489011866266555
 40
0.4744001356117536
 40
0.5826741857065961
 40
0.6867417687947411
 40
0.838156487169633
 40
1.0
 40
1.0
 40
1.0
 40
1.0
 10
2142.727185020869
 20
1811.187861988749
 30
0.0
 10
2142.712539482454
 20
1811.123249337719
 30
0.0
 10
2142.689758490831
 20
1811.022744991611
 30
0.0
 10
2142.587973864425
 20
1810.890559655981
 30
0.0
 10
2142.479283822875
 20
1810.808214096351
 30
0.0
 10
2142.358315813018
 20
1810.760833077675
 30
0.0
 10
2142.228020759178
 20
1810.743414730246
 30
0.0
 10
2142.090204058256
 20
1810.760820703961
 30
0.0
 10
2142.010667047416
 20
1810.801829182749
 30
0.0
 10
2141.969574594123
 20
1810.823016036284
 30
0.0
  0
SPLINE
  5
1DE
330
1F
100
AcDbEntity
  8
0
  6
Continuous
 62
     7
370
    25
100
AcDbSpline
210
0.0
220
0.0
230
1.0
 70
     8
 71
     3
 72
    26
 73
    22
 74
     0
 42
0.000000001
 43
0.00000001
 40
0.0
 40
0.0
 40
0.0
 40
0.0
 40
0.08542611593609
 40
0.1733276547195557
 40
0.2448517261352437
 40
0.3181224083912675
 40
0.3577740645396607
 40
0.3980844094313153
 40
0.4287682032815248
 40
0.4601978879083172
 40
0.4855692359538036
 40
0.5116681185372396
 40
0.5370453561645154
 40
0.5630880149113994
 40
0.5995557531473511
 40
0.637034587382543
 40
0.6960497304231464
 40
0.756632117583133
 40
0.8401423063242286
 40
0.9260534647419589
 40
1.0
 40
1.0
 40
1.0
 40
1.0
 10
2148.490517423438
 20
1811.187861988749
 30
0.0
 10
2148.449095847463
 20
1811.403928705521
 30
0.0
 10
2148.365052407822
 20
1811.842323180917
 30
0.0
 10
2148.076477943499
 20
1812.399434071565
 30
0.0
 10
2147.702110411981
 20
1812.870917700729
 30
0.0
 10
2147.321145310863
 20
1813.192727710189
 30
0.0
 10
2146.945945844445
 20
1813.416768966739
 30
0.0
 10
2146.641110030062
 20
1813.552091318378
 30
0.0
 10
2146.329815575074
 20
1813.649549766654
 30
0.0
 10
2146.042750763115
 20
1813.707332893961
 30
0.0
 10
2145.75771281708
 20
1813.735343583902
 30
0.0
 10
2145.488850573855
 20
1813.736693651222
 30
0.0
 10
2145.221431177009
 20
1813.713070129835
 30
0.0
 10
2144.930253148914
 20
1813.660337329537
 30
0.0
 10
2144.621699117408
 20
1813.5693493878
 30
0.0
 10
2144.251676654809
 20
1813.41036169937
 30
0.0
 10
2143.872179761535
 20
1813.175644056902
 30
0.0
 10
2143.463109403579
 20
1812.815581583902
 30
0.0
 10
2143.103209332648
 20
1812.342578838022
 30
0.0
 10
2142.835617888267
 20
1811.780279990863
 30
0.0
 10
2142.76147967366
 20
1811.375229252723
 30
0.0
 10
2142.727185020869
 20
1811.187861988749
 30
0.0
  0
SPLINE
  5
1DF
330
1F
100
AcDbEntity
  8
0
  6
Continuous
 62
     7
370
    25
100
AcDbSpline
210
0.0
220
0.0
230
1.0
 70
     8
 71
     3
 72
    14
 73
    10
 74
     0
 42
0.000000001
 43
0.00000001
 40
0.0
 40
0.0
 40
0.0
 40
0.0
 40
0.2239799089305531
 40
0.3530600787849406
 40
0.4831615846560053
 40
0.5937368434043864
 40
0.6971871626480907
 40
0.8442013099709667
 40
1.0
 40
1.0
 40
1.0
 40
1.0
 10
2149.248127850184
 20
1810.823016036284
 30
0.0
 10
2149.189507497513
 20
1810.794598029516
 30
0.0
 10
2149.097104092085
 20
1810.749802655876
 30
0.0
 10
2148.930065908493
 20
1810.746077452514
 30
0.0
 10
2148.794634594388
 20
1810.780594146055
 30
0.0
 10
2148.680194013589
 20
1810.848075639891
 30
0.0
 10
2148.586374914814
 20
1810.940291481562
 30
0.0
 10
2148.516266685869
 20
1811.057721298318
 30
0.0
 10
2148.49926491694
 20
1811.143650825536
 30
0.0
 10
2148.490517423438
 20
1811.187861988749
 30
0.0
  0
SPLINE
  5
1E0
330
1F
100
AcDbEntity
  8
0
  6
Continuous
 62
     7
370
    25
100
AcDbSpline
210
0.0
220
0.0
230
1.0
 70
     8
 71
     3
 72
    24
 73
    20
 74
     0
 42
0.000000001
 43
0.00000001
 40
0.0
 40
0.0
 40
0.0
 40
0.0
 40
0.0875562630610312
 40
0.1776478778994356
 40
0.2471757028850856
 40
0.3182848495519417
 40
0.3544514774164556
 40
0.3911558340110754
 40
0.4196735717850664
 40
0.4488792169076932
 40
0.4956340312872254
 40
0.5423649618835424
 40
0.576362733126496
 40
0.6112927856933148
 40
0.6689340598446847
 40
0.7280698917726421
 40
0.8133417532352668
 40
0.9010570727560779
 40
0.9999999999999999
 40
0.9999999999999999
 40
0.9999999999999999
 40
0.9999999999999999
 10
2152.841506827907
 20
1806.317061320028
 30
0.0
 10
2152.987580909009
 20
1806.488150052466
 30
0.0
 10
2153.283958913469
 20
1806.835281704589
 30
0.0
 10
2153.537031640718
 20
1807.4147467961
 30
0.0
 10
2153.666650262505
 20
1807.997798733835
 30
0.0
 10
2153.679044352065
 20
1808.477775607061
 30
0.0
 10
2153.624996611838
 20
1808.888631683237
 30
0.0
 10
2153.551067494546
 20
1809.18855804457
 30
0.0
 10
2153.446979179095
 20
1809.475251433242
 30
0.0
 10
2153.293617878648
 20
1809.795691201962
 30
0.0
 10
2153.049152555771
 20
1810.165667764787
 30
0.0
 10
2152.738811923822
 20
1810.49146206222
 30
0.0
 10
2152.44302793576
 20
1810.725672307418
 30
0.0
 10
2152.113859319775
 20
1810.931038203318
 30
0.0
 10
2151.717024323263
 20
1811.105303257017
 30
0.0
 10
2151.190942667818
 20
1811.239465240997
 30
0.0
 10
2150.593031667829
 20
1811.269306912468
 30
0.0
 10
2149.906819850584
 20
1811.160264383251
 30
0.0
 10
2149.476323392089
 20
1810.939851475679
 30
0.0
 10
2149.248127850184
 20
1810.823016036284
 30
0.0
  0
SPLINE
  5
1E1
330
1F
100
AcDbEntity
  8
0
  6
Continuous
 62
     7
370
    25
100
AcDbSpline
210
0.0
220
0.0
230
1.0
 70
     8
 71
     3
 72
    14
 73
    10
 74
     0
 42
0.000000001
 43
0.00000001
 40
0.0
 40
0.0
 40
0.0
 40
0.0
 40
0.2200911109485839
 40
0.3501199592092674
 40
0.4590676183976911
 40
0.5685351145661591
 40
0.6668402217389687
 40
0.7968948941936455
 40
1.0
 40
1.0
 40
1.0
 40
1.0
 10
2153.028621150877
 20
1805.49725990634
 30
0.0
 10
2152.972213727013
 20
1805.523903228127
 30
0.0
 10
2152.882481048316
 20
1805.56628730578
 30
0.0
 10
2152.780214080622
 20
1805.684478720505
 30
0.0
 10
2152.721941366609
 20
1805.800358811737
 30
0.0
 10
2152.695994939183
 20
1805.922344653715
 30
0.0
 10
2152.700556867621
 20
1806.050009341422
 30
0.0
 10
2152.742430172229
 20
1806.195810995816
 30
0.0
 10
2152.803982508803
 20
1806.271138939765
 30
0.0
 10
2152.841506827907
 20
1806.317061320028
 30
0.0
  0
SPLINE
  5
1E2
330
1F
100
AcDbEntity
  8
0
  6
Continuous
 62
     7
370
    25
100
AcDbSpline
210
0.0
220
0.0
230
1.0
 70
     8
 71
     3
 72
    27
 73
    23
 74
     0
 42
0.000000001
 43
0.00000001
 40
0.0
 40
0.0
 40
0.0
 40
0.0
 40
0.0910683471803978
 40
0.1847464164709045
 40
0.2588266946055629
 40
0.3345190598259282
 40
0.3626447427195218
 40
0.3910056482847437
 40
0.4191743039829891
 40
0.448120360697962
 40
0.4657704782447524
 40
0.483908170643317
 40
0.5015721548764651
 40
0.5197440214872919
 40
0.5448446854435515
 40
0.5706253690117599
 40
0.6177938154944743
 40
0.6660858441031505
 40
0.7518796859636183
 40
0.8400397940083039
 40
0.9191574739584839
 40
1.0
 40
1.0
 40
1.0
 40
1.0
 10
2151.746159041957
 20
1799.878426279895
 30
0.0
 10
2151.982716388346
 20
1799.871441326441
 30
0.0
 10
2152.462610043916
 20
1799.857271253526
 30
0.0
 10
2153.098209461782
 20
1800.03982279309
 30
0.0
 10
2153.652202523828
 20
1800.328455871987
 30
0.0
 10
2154.023415451496
 20
1800.630494323111
 30
0.0
 10
2154.277990812868
 20
1800.911777339379
 30
0.0
 10
2154.432988569023
 20
1801.115764494541
 30
0.0
 10
2154.579530916795
 20
1801.34991621177
 30
0.0
 10
2154.695773037825
 20
1801.584367442568
 30
0.0
 10
2154.782504214647
 20
1801.806796975439
 30
0.0
 10
2154.842673274492
 20
1801.99970372737
 30
0.0
 10
2154.889456305148
 20
1802.197821209276
 30
0.0
 10
2154.925651831659
 20
1802.418514634757
 30
0.0
 10
2154.945226385685
 20
1802.658493233583
 30
0.0
 10
2154.942939512453
 20
1802.977204625448
 30
0.0
 10
2154.896891940301
 20
1803.33643314615
 30
0.0
 10
2154.764497850634
 20
1803.819685686291
 30
0.0
 10
2154.51022044724
 20
1804.34164812758
 30
0.0
 10
2154.103391875545
 20
1804.840193668525
 30
0.0
 10
2153.610632777426
 20
1805.242758357549
 30
0.0
 10
2153.224014656916
 20
1805.411818400291
 30
0.0
 10
2153.028621150877
 20
1805.49725990634
 30
0.0
  0
SPLINE
  5
1E3
330
1F
100
AcDbEntity
  8
0
  6
Continuous
 62
     7
370
    25
100
AcDbSpline
210
0.0
220
0.0
230
1.0
 70
     8
 71
     3
 72
    15
 73
    11
 74
     0
 42
0.000000001
 43
0.00000001
 40
0.0
 40
0.0
 40
0.0
 40
0.0
 40
0.2150763736126738
 40
0.3413349926978222
 40
0.446593490352974
 40
0.5524796219272535
 40
0.6449070621726983
 40
0.7662146539024285
 40
0.9406316560516657
 40
1.0
 40
1.0
 40
1.0
 40
1.0
 10
2151.221876359518
 20
1799.220996590392
 30
0.0
 10
2151.207846646612
 20
1799.279176852127
 30
0.0
 10
2151.185580918992
 20
1799.371511304677
 30
0.0
 10
2151.210280928253
 20
1799.520575838151
 30
0.0
 10
2151.260072351288
 20
1799.636928979513
 30
0.0
 10
2151.334571480237
 20
1799.733648017063
 30
0.0
 10
2151.431548850035
 20
1799.811306926072
 30
0.0
 10
2151.556748593654
 20
1799.868896017377
 30
0.0
 10
2151.665597773219
 20
1799.884202863745
 30
0.0
 10
2151.729844087468
 20
1799.879596131165
 30
0.0
 10
2151.746159041957
 20
1799.878426279895
 30
0.0
  0
SPLINE
  5
1E4
330
1F
100
AcDbEntity
  8
0
  6
Continuous
 62
     7
370
    25
100
AcDbSpline
210
0.0
220
0.0
230
1.0
 70
     8
 71
     3
 72
    26
 73
    22
 74
     0
 42
0.000000001
 43
0.00000001
 40
0.0
 40
0.0
 40
0.0
 40
0.0
 40
0.0912035599485244
 40
0.1849670362499695
 40
0.2785634207445228
 40
0.3265394520589588
 40
0.3749439889045985
 40
0.4231405593180557
 40
0.4430841889857747
 40
0.4634373414447631
 40
0.4878409265543382
 40
0.5123587387506972
 40
0.5280992736585298
 40
0.5442699367721624
 40
0.5755700365325684
 40
0.6075525397506825
 40
0.683442401457062
 40
0.7611024134337999
 40
0.8469107031299032
 40
0.9346000221708236
 40
0.9999999999999999
 40
0.9999999999999999
 40
0.9999999999999999
 40
0.9999999999999999
 10
2146.02929328943
 20
1796.720380377788
 30
0.0
 10
2146.176916243437
 20
1796.524916652095
 30
0.0
 10
2146.476305656529
 20
1796.128502893069
 30
0.0
 10
2147.069323922774
 20
1795.718219247621
 30
0.0
 10
2147.627309474325
 20
1795.494583634216
 30
0.0
 10
2148.115077406318
 20
1795.401667309092
 30
0.0
 10
2148.508359545054
 20
1795.379030707769
 30
0.0
 10
2148.852491888581
 20
1795.406797165029
 30
0.0
 10
2149.13989232373
 20
1795.46381701242
 30
0.0
 10
2149.36453059414
 20
1795.525293206252
 30
0.0
 10
2149.62395733374
 20
1795.621257931036
 30
0.0
 10
2149.862138688813
 20
1795.739493434653
 30
0.0
 10
2150.045273069458
 20
1795.850026583401
 30
0.0
 10
2150.229577709873
 20
1795.976945993021
 30
0.0
 10
2150.426815527368
 20
1796.139327879001
 30
0.0
 10
2150.71488070361
 20
1796.428822587565
 30
0.0
 10
2151.005153555668
 20
1796.833501730887
 30
0.0
 10
2151.256611572768
 20
1797.395372425128
 30
0.0
 10
2151.386038741668
 20
1798.024233550711
 30
0.0
 10
2151.380362438617
 20
1798.649631740853
 30
0.0
 10
2151.269315695264
 20
1799.049971039854
 30
0.0
 10
2151.221876359518
 20
1799.220996590392
 30
0.0
  0
SPLINE
  5
1E5
330
1F
100
AcDbEntity
  8
0
  6
Continuous
 62
     7
370
    25
100
AcDbSpline
210
0.0
220
0.0
230
1.0
 70
     8
 71
     3
 72
    15
 73
    11
 74
     0
 42
0.000000001
 43
0.00000001
 40
0.0
 40
0.0
 40
0.0
 40
0.0
 40
0.21292940532031
 40
0.3333107283176499
 40
0.4345062010027768
 40
0.5362836886507053
 40
0.6256367151021829
 40
0.745636854756794
 40
0.9211927176880819
 40
1.0
 40
1.0
 40
1.0
 40
1.0
 10
2145.188409154876
 20
1796.720380377788
 30
0.0
 10
2145.224873062485
 20
1796.767413156234
 30
0.0
 10
2145.281952128591
 20
1796.841036287877
 30
0.0
 10
2145.411580640387
 20
1796.914319099918
 30
0.0
 10
2145.529739250464
 20
1796.948421134619
 30
0.0
 10
2145.648485368371
 20
1796.952632353415
 30
0.0
 10
2145.767812709085
 20
1796.928805919727
 30
0.0
 10
2145.891691981179
 20
1796.870829492238
 30
0.0
 10
2145.977735540135
 20
1796.794203675433
 30
0.0
 10
2146.017097951045
 20
1796.737842352134
 30
0.0
 10
2146.02929328943
 20
1796.720380377788
 30
0.0
  0
SPLINE
  5
1E6
330
1F
100
AcDbEntity
  8
0
  6
Continuous
 62
     7
370
    25
100
AcDbSpline
210
0.0
220
0.0
230
1.0
 70
     8
 71
     3
 72
    23
 73
    19
 74
     0
 42
0.000000001
 43
0.00000001
 40
0.0
 40
0.0
 40
0.0
 40
0.0
 40
0.0897333625634514
 40
0.1819840841675975
 40
0.2742051059772509
 40
0.3688433122749612
 40
0.4236413335966948
 40
0.4510235156839156
 40
0.4792354352735692
 40
0.5037881481849749
 40
0.5284425765595033
 40
0.561168845174971
 40
0.6013459240441593
 40
0.6426470274020734
 40
0.7287280788474692
 40
0.8170135534706837
 40
0.9073353330993367
 40
0.9999999999999999
 40
0.9999999999999999
 40
0.9999999999999999
 40
0.9999999999999999
 10
2139.995826084789
 20
1799.220996590391
 30
0.0
 10
2139.935451821016
 20
1798.985775274719
 30
0.0
 10
2139.81300956781
 20
1798.508733798881
 30
0.0
 10
2139.858840064297
 20
1797.797627103259
 30
0.0
 10
2140.06008687581
 20
1797.114421350198
 30
0.0
 10
2140.381684579333
 20
1796.570057013926
 30
0.0
 10
2140.721927104084
 20
1796.198891680715
 30
0.0
 10
2140.991338676129
 20
1795.973423631121
 30
0.0
 10
2141.226378469303
 20
1795.811974741227
 30
0.0
 10
2141.499333021554
 20
1795.663940326067
 30
0.0
 10
2141.809951258644
 20
1795.536447726298
 30
0.0
 10
2142.152560105734
 20
1795.441684798142
 30
0.0
 10
2142.506086166106
 20
1795.390775603485
 30
0.0
 10
2142.981428549416
 20
1795.381142988909
 30
0.0
 10
2143.541100258748
 20
1795.471895209055
 30
0.0
 10
2144.165305101005
 20
1795.730224631596
 30
0.0
 10
2144.741861657772
 20
1796.130263725278
 30
0.0
 10
2145.038294850749
 20
1796.522002934806
 30
0.0
 10
2145.188409154876
 20
1796.720380377788
 30
0.0
  0
SPLINE
  5
1E7
330
1F
100
AcDbEntity
  8
0
  6
Continuous
 62
     7
370
    25
100
AcDbSpline
210
0.0
220
0.0
230
1.0
 70
     8
 71
     3
 72
    15
 73
    11
 74
     0
 42
0.000000001
 43
0.00000001
 40
0.0
 40
0.0
 40
0.0
 40
0.0
 40
0.2155767705933886
 40
0.3329005538677475
 40
0.4328760582230964
 40
0.5332634977247768
 40
0.6250838127945025
 40
0.7535547096888731
 40
0.9421338378892107
 40
1.0
 40
1.0
 40
1.0
 40
1.0
 10
2139.47154340235
 20
1799.878426279894
 30
0.0
 10
2139.533373163618
 20
1799.879077800349
 30
0.0
 10
2139.628852661316
 20
1799.880083899104
 30
0.0
 10
2139.768840529165
 20
1799.821242500675
 30
0.0
 10
2139.867266637701
 20
1799.749283006416
 30
0.0
 10
2139.94266347286
 20
1799.659318771529
 30
0.0
 10
2139.998092356835
 20
1799.549736966993
 30
0.0
 10
2140.02915197157
 20
1799.411354439927
 30
0.0
 10
2140.019745353298
 20
1799.299101016909
 30
0.0
 10
2140.000374438977
 20
1799.235848490872
 30
0.0
 10
2139.995826084789
 20
1799.220996590391
 30
0.0
  0
SPLINE
  5
1E8
330
1F
100
AcDbEntity
  8
0
  6
Continuous
 62
     7
370
    25
100
AcDbSpline
210
0.0
220
0.0
230
1.0
 70
     8
 71
     3
 72
    27
 73
    23
 74
     0
 42
0.000000001
 43
0.00000001
 40
0.0
 40
0.0
 40
0.0
 40
0.0
 40
0.0885627570442147
 40
0.1796538943995937
 40
0.2695908295576358
 40
0.3157544754264167
 40
0.3623424134621826
 40
0.4187626527282489
 40
0.4469315743364941
 40
0.4757555362193692
 40
0.4937367345958549
 40
0.5121853392428828
 40
0.5301891255062625
 40
0.5487612444758527
 40
0.5721476357447938
 40
0.5961816793253274
 40
0.6385637840833134
 40
0.681963892954377
 40
0.7628695907407601
 40
0.8459362592691243
 40
0.9222273191770639
 40
1.0
 40
1.0
 40
1.0
 40
1.0
 10
1348.189081293429
 20
1805.497259906341
 30
0.0
 10
1347.975760899367
 20
1805.402340978538
 30
0.0
 10
1347.543030022109
 20
1805.209793280148
 30
0.0
 10
1347.024969985473
 20
1804.752526123887
 30
0.0
 10
1346.683034961922
 20
1804.285152552103
 30
0.0
 10
1346.477206225091
 20
1803.85463112055
 30
0.0
 10
1346.350084302725
 20
1803.471290428062
 30
0.0
 10
1346.283783614487
 20
1803.096381995948
 30
0.0
 10
1346.269847035723
 20
1802.736805952244
 30
0.0
 10
1346.284773357426
 20
1802.480117273828
 30
0.0
 10
1346.319085100107
 20
1802.2455440979
 30
0.0
 10
1346.362735518663
 20
1802.045769379183
 30
0.0
 10
1346.421686885237
 20
1801.845879351639
 30
0.0
 10
1346.499776138953
 20
1801.637293695416
 30
0.0
 10
1346.599100612629
 20
1801.425159259486
 30
0.0
 10
1346.748057389242
 20
1801.166344974372
 30
0.0
 10
1346.947433843336
 20
1800.89538204628
 30
0.0
 10
1347.273361869021
 20
1800.554827080484
 30
0.0
 10
1347.716786220627
 20
1800.230972220286
 30
0.0
 10
1348.278550793667
 20
1799.985904410215
 30
0.0
 10
1348.869052870863
 20
1799.854212646394
 30
0.0
 10
1349.269429759074
 20
1799.870303487207
 30
0.0
 10
1349.471543402349
 20
1799.878426279895
 30
0.0
  0
SPLINE
  5
1E9
330
1F
100
AcDbEntity
  8
0
  6
Continuous
 62
     7
370
    25
100
AcDbSpline
210
0.0
220
0.0
230
1.0
 70
     8
 71
     3
 72
    14
 73
    10
 74
     0
 42
0.000000001
 43
0.00000001
 40
0.0
 40
0.0
 40
0.0
 40
0.0
 40
0.220765348438307
 40
0.3402146168140888
 40
0.4605704991791176
 40
0.5641909618660997
 40
0.6633542991972022
 40
0.8105247403618681
 40
1.0
 40
1.0
 40
1.0
 40
1.0
 10
1348.376195616399
 20
1806.317061320029
 30
0.0
 10
1348.416894411921
 20
1806.266518880386
 30
0.0
 10
1348.47961406073
 20
1806.188629497576
 30
0.0
 10
1348.520555466105
 20
1806.030716201539
 30
0.0
 10
1348.519876370139
 20
1805.89821101947
 30
0.0
 10
1348.485841464319
 20
1805.776699445148
 30
0.0
 10
1348.423793908916
 20
1805.664737224299
 30
0.0
 10
1348.323387587849
 20
1805.558865843652
 30
0.0
 10
1348.237449866285
 20
1805.519446441083
 30
0.0
 10
1348.189081293429
 20
1805.497259906341
 30
0.0
  0
SPLINE
  5
1EA
330
1F
100
AcDbEntity
  8
0
  6
Continuous
 62
     7
370
    25
100
AcDbSpline
210
0.0
220
0.0
230
1.0
 70
     8
 71
     3
 72
    23
 73
    19
 74
     0
 42
0.000000001
 43
0.00000001
 40
0.0
 40
0.0
 40
0.0
 40
0.0
 40
0.0863901050636673
 40
0.1752766177962506
 40
0.2621177065427337
 40
0.3519363559727531
 40
0.4192459175638973
 40
0.4528076006128828
 40
0.4875598503476024
 40
0.5342326170542431
 40
0.5808027178643163
 40
0.617415928196372
 40
0.6550189806174123
 40
0.7176192476618286
 40
0.7818570182170476
 40
0.8689416197544361
 40
0.9585429605715617
 40
1.0
 40
1.0
 40
1.0
 40
1.0
 10
1351.969574594123
 20
1810.823016036285
 30
0.0
 10
1351.77123998975
 20
1810.926846189319
 30
0.0
 10
1351.368839522465
 20
1811.13750686667
 30
0.0
 10
1350.711170084652
 20
1811.263721301013
 30
0.0
 10
1350.02898455594
 20
1811.248430716965
 30
0.0
 10
1349.392244184105
 20
1811.07859303402
 30
0.0
 10
1348.892440270781
 20
1810.813367816604
 30
0.0
 10
1348.54431182689
 20
1810.545985854796
 30
0.0
 10
1348.260671689883
 20
1810.269723125572
 30
0.0
 10
1347.980355089995
 20
1809.899679776626
 30
0.0
 10
1347.774676392731
 20
1809.497689801359
 30
0.0
 10
1347.648854030775
 20
1809.132070314315
 30
0.0
 10
1347.561961017827
 20
1808.730977138833
 30
0.0
 10
1347.533876908033
 20
1808.271571537508
 30
0.0
 10
1347.598261995712
 20
1807.709450188958
 30
0.0
 10
1347.79162860122
 20
1807.123260516641
 30
0.0
 10
1348.076666094649
 20
1806.644598907138
 30
0.0
 10
1348.304215921966
 20
1806.395771609745
 30
0.0
 10
1348.376195616399
 20
1806.317061320029
 30
0.0
  0
SPLINE
  5
1EB
330
1F
100
AcDbEntity
  8
0
  6
Continuous
 62
     7
370
    25
100
AcDbSpline
210
0.0
220
0.0
230
1.0
 70
     8
 71
     3
 72
    14
 73
    10
 74
     0
 42
0.000000001
 43
0.00000001
 40
0.0
 40
0.0
 40
0.0
 40
0.0
 40
0.2243030424882868
 40
0.3489011866266555
 40
0.4744001356117536
 40
0.5826741857065961
 40
0.6867417687947411
 40
0.838156487169633
 40
1.0
 40
1.0
 40
1.0
 40
1.0
 10
1352.727185020869
 20
1811.18786198875
 30
0.0
 10
1352.712539482454
 20
1811.12324933772
 30
0.0
 10
1352.689758490831
 20
1811.022744991612
 30
0.0
 10
1352.587973864425
 20
1810.890559655982
 30
0.0
 10
1352.479283822875
 20
1810.808214096352
 30
0.0
 10
1352.358315813017
 20
1810.760833077676
 30
0.0
 10
1352.228020759178
 20
1810.743414730247
 30
0.0
 10
1352.090204058256
 20
1810.760820703962
 30
0.0
 10
1352.010667047416
 20
1810.801829182751
 30
0.0
 10
1351.969574594123
 20
1810.823016036285
 30
0.0
  0
SPLINE
  5
1EC
330
1F
100
AcDbEntity
  8
0
  6
Continuous
 62
     7
370
    25
100
AcDbSpline
210
0.0
220
0.0
230
1.0
 70
     8
 71
     3
 72
    26
 73
    22
 74
     0
 42
0.000000001
 43
0.00000001
 40
0.0
 40
0.0
 40
0.0
 40
0.0
 40
0.08542611593609
 40
0.1733276547195557
 40
0.2448517261352437
 40
0.3181224083912675
 40
0.3577740645396607
 40
0.3980844094313153
 40
0.4287682032815248
 40
0.4601978879083172
 40
0.4855692359538036
 40
0.5116681185372396
 40
0.5370453561645154
 40
0.5630880149113994
 40
0.5995557531473511
 40
0.637034587382543
 40
0.6960497304231464
 40
0.756632117583133
 40
0.8401423063242286
 40
0.9260534647419589
 40
1.0
 40
1.0
 40
1.0
 40
1.0
 10
1358.490517423437
 20
1811.18786198875
 30
0.0
 10
1358.449095847463
 20
1811.403928705522
 30
0.0
 10
1358.365052407821
 20
1811.842323180919
 30
0.0
 10
1358.076477943499
 20
1812.399434071567
 30
0.0
 10
1357.702110411981
 20
1812.870917700731
 30
0.0
 10
1357.321145310863
 20
1813.19272771019
 30
0.0
 10
1356.945945844445
 20
1813.41676896674
 30
0.0
 10
1356.641110030061
 20
1813.552091318379
 30
0.0
 10
1356.329815575074
 20
1813.649549766656
 30
0.0
 10
1356.042750763115
 20
1813.707332893963
 30
0.0
 10
1355.75771281708
 20
1813.735343583903
 30
0.0
 10
1355.488850573855
 20
1813.736693651223
 30
0.0
 10
1355.221431177008
 20
1813.713070129837
 30
0.0
 10
1354.930253148914
 20
1813.660337329538
 30
0.0
 10
1354.621699117408
 20
1813.569349387801
 30
0.0
 10
1354.251676654808
 20
1813.410361699371
 30
0.0
 10
1353.872179761535
 20
1813.175644056902
 30
0.0
 10
1353.463109403579
 20
1812.815581583903
 30
0.0
 10
1353.103209332647
 20
1812.342578838023
 30
0.0
 10
1352.835617888266
 20
1811.780279990864
 30
0.0
 10
1352.761479673659
 20
1811.375229252724
 30
0.0
 10
1352.727185020869
 20
1811.18786198875
 30
0.0
  0
SPLINE
  5
1ED
330
1F
100
AcDbEntity
  8
0
  6
Continuous
 62
     7
370
    25
100
AcDbSpline
210
0.0
220
0.0
230
1.0
 70
     8
 71
     3
 72
    14
 73
    10
 74
     0
 42
0.000000001
 43
0.00000001
 40
0.0
 40
0.0
 40
0.0
 40
0.0
 40
0.2239799089305531
 40
0.3530600787849406
 40
0.4831615846560053
 40
0.5937368434043864
 40
0.6971871626480907
 40
0.8442013099709667
 40
1.0
 40
1.0
 40
1.0
 40
1.0
 10
1359.248127850184
 20
1810.823016036285
 30
0.0
 10
1359.189507497513
 20
1810.794598029517
 30
0.0
 10
1359.097104092085
 20
1810.749802655877
 30
0.0
 10
1358.930065908492
 20
1810.746077452515
 30
0.0
 10
1358.794634594388
 20
1810.780594146056
 30
0.0
 10
1358.680194013589
 20
1810.848075639892
 30
0.0
 10
1358.586374914813
 20
1810.940291481563
 30
0.0
 10
1358.516266685868
 20
1811.05772129832
 30
0.0
 10
1358.49926491694
 20
1811.143650825537
 30
0.0
 10
1358.490517423437
 20
1811.18786198875
 30
0.0
  0
SPLINE
  5
1EE
330
1F
100
AcDbEntity
  8
0
  6
Continuous
 62
     7
370
    25
100
AcDbSpline
210
0.0
220
0.0
230
1.0
 70
     8
 71
     3
 72
    24
 73
    20
 74
     0
 42
0.000000001
 43
0.00000001
 40
0.0
 40
0.0
 40
0.0
 40
0.0
 40
0.0875562630610312
 40
0.1776478778994356
 40
0.2471757028850856
 40
0.3182848495519417
 40
0.3544514774164556
 40
0.3911558340110754
 40
0.4196735717850664
 40
0.4488792169076932
 40
0.4956340312872254
 40
0.5423649618835424
 40
0.576362733126496
 40
0.6112927856933148
 40
0.6689340598446847
 40
0.7280698917726421
 40
0.8133417532352668
 40
0.9010570727560779
 40
0.9999999999999999
 40
0.9999999999999999
 40
0.9999999999999999
 40
0.9999999999999999
 10
1362.841506827907
 20
1806.317061320029
 30
0.0
 10
1362.98758090901
 20
1806.488150052467
 30
0.0
 10
1363.283958913469
 20
1806.83528170459
 30
0.0
 10
1363.537031640717
 20
1807.414746796101
 30
0.0
 10
1363.666650262504
 20
1807.997798733836
 30
0.0
 10
1363.679044352065
 20
1808.477775607063
 30
0.0
 10
1363.624996611837
 20
1808.888631683239
 30
0.0
 10
1363.551067494546
 20
1809.188558044571
 30
0.0
 10
1363.446979179095
 20
1809.475251433244
 30
0.0
 10
1363.293617878648
 20
1809.795691201964
 30
0.0
 10
1363.04915255577
 20
1810.165667764788
 30
0.0
 10
1362.738811923822
 20
1810.491462062222
 30
0.0
 10
1362.44302793576
 20
1810.725672307419
 30
0.0
 10
1362.113859319775
 20
1810.931038203319
 30
0.0
 10
1361.717024323263
 20
1811.105303257018
 30
0.0
 10
1361.190942667817
 20
1811.239465240998
 30
0.0
 10
1360.593031667829
 20
1811.269306912468
 30
0.0
 10
1359.906819850583
 20
1811.160264383252
 30
0.0
 10
1359.476323392089
 20
1810.93985147568
 30
0.0
 10
1359.248127850184
 20
1810.823016036285
 30
0.0
  0
SPLINE
  5
1EF
330
1F
100
AcDbEntity
  8
0
  6
Continuous
 62
     7
370
    25
100
AcDbSpline
210
0.0
220
0.0
230
1.0
 70
     8
 71
     3
 72
    14
 73
    10
 74
     0
 42
0.000000001
 43
0.00000001
 40
0.0
 40
0.0
 40
0.0
 40
0.0
 40
0.2200911109485839
 40
0.3501199592092674
 40
0.4590676183976911
 40
0.5685351145661591
 40
0.6668402217389687
 40
0.7968948941936455
 40
1.0
 40
1.0
 40
1.0
 40
1.0
 10
1363.028621150877
 20
1805.497259906341
 30
0.0
 10
1362.972213727012
 20
1805.523903228128
 30
0.0
 10
1362.882481048316
 20
1805.566287305781
 30
0.0
 10
1362.780214080621
 20
1805.684478720506
 30
0.0
 10
1362.721941366609
 20
1805.800358811738
 30
0.0
 10
1362.695994939183
 20
1805.922344653716
 30
0.0
 10
1362.700556867621
 20
1806.050009341423
 30
0.0
 10
1362.742430172229
 20
1806.195810995817
 30
0.0
 10
1362.803982508802
 20
1806.271138939766
 30
0.0
 10
1362.841506827907
 20
1806.317061320029
 30
0.0
  0
SPLINE
  5
1F0
330
1F
100
AcDbEntity
  8
0
  6
Continuous
 62
     7
370
    25
100
AcDbSpline
210
0.0
220
0.0
230
1.0
 70
     8
 71
     3
 72
    27
 73
    23
 74
     0
 42
0.000000001
 43
0.00000001
 40
0.0
 40
0.0
 40
0.0
 40
0.0
 40
0.0910683471803978
 40
0.1847464164709045
 40
0.2588266946055629
 40
0.3345190598259282
 40
0.3626447427195218
 40
0.3910056482847437
 40
0.4191743039829891
 40
0.448120360697962
 40
0.4657704782447524
 40
0.483908170643317
 40
0.5015721548764651
 40
0.5197440214872919
 40
0.5448446854435515
 40
0.5706253690117599
 40
0.6177938154944743
 40
0.6660858441031505
 40
0.7518796859636183
 40
0.8400397940083039
 40
0.9191574739584839
 40
1.0
 40
1.0
 40
1.0
 40
1.0
 10
1361.746159041957
 20
1799.878426279896
 30
0.0
 10
1361.982716388345
 20
1799.871441326442
 30
0.0
 10
1362.462610043916
 20
1799.857271253527
 30
0.0
 10
1363.098209461781
 20
1800.039822793092
 30
0.0
 10
1363.652202523828
 20
1800.328455871988
 30
0.0
 10
1364.023415451496
 20
1800.630494323112
 30
0.0
 10
1364.277990812867
 20
1800.91177733938
 30
0.0
 10
1364.432988569023
 20
1801.115764494542
 30
0.0
 10
1364.579530916795
 20
1801.349916211771
 30
0.0
 10
1364.695773037825
 20
1801.58436744257
 30
0.0
 10
1364.782504214646
 20
1801.80679697544
 30
0.0
 10
1364.842673274492
 20
1801.999703727371
 30
0.0
 10
1364.889456305148
 20
1802.197821209277
 30
0.0
 10
1364.925651831659
 20
1802.418514634758
 30
0.0
 10
1364.945226385684
 20
1802.658493233584
 30
0.0
 10
1364.942939512453
 20
1802.97720462545
 30
0.0
 10
1364.896891940301
 20
1803.336433146152
 30
0.0
 10
1364.764497850634
 20
1803.819685686292
 30
0.0
 10
1364.510220447239
 20
1804.341648127581
 30
0.0
 10
1364.103391875545
 20
1804.840193668526
 30
0.0
 10
1363.610632777425
 20
1805.24275835755
 30
0.0
 10
1363.224014656916
 20
1805.411818400292
 30
0.0
 10
1363.028621150877
 20
1805.497259906341
 30
0.0
  0
SPLINE
  5
1F1
330
1F
100
AcDbEntity
  8
0
  6
Continuous
 62
     7
370
    25
100
AcDbSpline
210
0.0
220
0.0
230
1.0
 70
     8
 71
     3
 72
    15
 73
    11
 74
     0
 42
0.000000001
 43
0.00000001
 40
0.0
 40
0.0
 40
0.0
 40
0.0
 40
0.2150763736126738
 40
0.3413349926978222
 40
0.446593490352974
 40
0.5524796219272535
 40
0.6449070621726983
 40
0.7662146539024285
 40
0.9406316560516657
 40
1.0
 40
1.0
 40
1.0
 40
1.0
 10
1361.221876359517
 20
1799.220996590393
 30
0.0
 10
1361.207846646611
 20
1799.279176852127
 30
0.0
 10
1361.185580918992
 20
1799.371511304679
 30
0.0
 10
1361.210280928253
 20
1799.520575838152
 30
0.0
 10
1361.260072351288
 20
1799.636928979514
 30
0.0
 10
1361.334571480236
 20
1799.733648017064
 30
0.0
 10
1361.431548850035
 20
1799.811306926073
 30
0.0
 10
1361.556748593654
 20
1799.868896017378
 30
0.0
 10
1361.665597773219
 20
1799.884202863746
 30
0.0
 10
1361.729844087468
 20
1799.879596131167
 30
0.0
 10
1361.746159041957
 20
1799.878426279896
 30
0.0
  0
SPLINE
  5
1F2
330
1F
100
AcDbEntity
  8
0
  6
Continuous
 62
     7
370
    25
100
AcDbSpline
210
0.0
220
0.0
230
1.0
 70
     8
 71
     3
 72
    26
 73
    22
 74
     0
 42
0.000000001
 43
0.00000001
 40
0.0
 40
0.0
 40
0.0
 40
0.0
 40
0.0912035599485244
 40
0.1849670362499695
 40
0.2785634207445228
 40
0.3265394520589588
 40
0.3749439889045985
 40
0.4231405593180557
 40
0.4430841889857747
 40
0.4634373414447631
 40
0.4878409265543382
 40
0.5123587387506972
 40
0.5280992736585298
 40
0.5442699367721624
 40
0.5755700365325684
 40
0.6075525397506825
 40
0.683442401457062
 40
0.7611024134337999
 40
0.8469107031299032
 40
0.9346000221708236
 40
0.9999999999999999
 40
0.9999999999999999
 40
0.9999999999999999
 40
0.9999999999999999
 10
1356.02929328943
 20
1796.720380377789
 30
0.0
 10
1356.176916243436
 20
1796.524916652096
 30
0.0
 10
1356.476305656529
 20
1796.12850289307
 30
0.0
 10
1357.069323922774
 20
1795.718219247622
 30
0.0
 10
1357.627309474324
 20
1795.494583634217
 30
0.0
 10
1358.115077406318
 20
1795.401667309093
 30
0.0
 10
1358.508359545054
 20
1795.37903070777
 30
0.0
 10
1358.852491888581
 20
1795.40679716503
 30
0.0
 10
1359.13989232373
 20
1795.463817012421
 30
0.0
 10
1359.364530594139
 20
1795.525293206253
 30
0.0
 10
1359.623957333739
 20
1795.621257931037
 30
0.0
 10
1359.862138688813
 20
1795.739493434654
 30
0.0
 10
1360.045273069457
 20
1795.850026583402
 30
0.0
 10
1360.229577709872
 20
1795.976945993022
 30
0.0
 10
1360.426815527367
 20
1796.139327879003
 30
0.0
 10
1360.71488070361
 20
1796.428822587566
 30
0.0
 10
1361.005153555667
 20
1796.833501730888
 30
0.0
 10
1361.256611572767
 20
1797.395372425129
 30
0.0
 10
1361.386038741668
 20
1798.024233550713
 30
0.0
 10
1361.380362438617
 20
1798.649631740854
 30
0.0
 10
1361.269315695263
 20
1799.049971039854
 30
0.0
 10
1361.221876359517
 20
1799.220996590393
 30
0.0
  0
SPLINE
  5
1F3
330
1F
100
AcDbEntity
  8
0
  6
Continuous
 62
     7
370
    25
100
AcDbSpline
210
0.0
220
0.0
230
1.0
 70
     8
 71
     3
 72
    15
 73
    11
 74
     0
 42
0.000000001
 43
0.00000001
 40
0.0
 40
0.0
 40
0.0
 40
0.0
 40
0.21292940532031
 40
0.3333107283176499
 40
0.4345062010027768
 40
0.5362836886507053
 40
0.6256367151021829
 40
0.745636854756794
 40
0.9211927176880819
 40
1.0
 40
1.0
 40
1.0
 40
1.0
 10
1355.188409154876
 20
1796.720380377789
 30
0.0
 10
1355.224873062484
 20
1796.767413156235
 30
0.0
 10
1355.281952128591
 20
1796.841036287878
 30
0.0
 10
1355.411580640387
 20
1796.914319099919
 30
0.0
 10
1355.529739250463
 20
1796.94842113462
 30
0.0
 10
1355.648485368371
 20
1796.952632353416
 30
0.0
 10
1355.767812709085
 20
1796.928805919728
 30
0.0
 10
1355.891691981179
 20
1796.870829492239
 30
0.0
 10
1355.977735540135
 20
1796.794203675435
 30
0.0
 10
1356.017097951045
 20
1796.737842352135
 30
0.0
 10
1356.02929328943
 20
1796.720380377789
 30
0.0
  0
SPLINE
  5
1F4
330
1F
100
AcDbEntity
  8
0
  6
Continuous
 62
     7
370
    25
100
AcDbSpline
210
0.0
220
0.0
230
1.0
 70
     8
 71
     3
 72
    23
 73
    19
 74
     0
 42
0.000000001
 43
0.00000001
 40
0.0
 40
0.0
 40
0.0
 40
0.0
 40
0.0897333625634514
 40
0.1819840841675975
 40
0.2742051059772509
 40
0.3688433122749612
 40
0.4236413335966948
 40
0.4510235156839156
 40
0.4792354352735692
 40
0.5037881481849749
 40
0.5284425765595033
 40
0.561168845174971
 40
0.6013459240441593
 40
0.6426470274020734
 40
0.7287280788474692
 40
0.8170135534706837
 40
0.9073353330993367
 40
0.9999999999999999
 40
0.9999999999999999
 40
0.9999999999999999
 40
0.9999999999999999
 10
1349.995826084789
 20
1799.220996590393
 30
0.0
 10
1349.935451821016
 20
1798.985775274721
 30
0.0
 10
1349.81300956781
 20
1798.508733798882
 30
0.0
 10
1349.858840064296
 20
1797.79762710326
 30
0.0
 10
1350.06008687581
 20
1797.1144213502
 30
0.0
 10
1350.381684579332
 20
1796.570057013927
 30
0.0
 10
1350.721927104084
 20
1796.198891680716
 30
0.0
 10
1350.991338676129
 20
1795.973423631122
 30
0.0
 10
1351.226378469302
 20
1795.811974741228
 30
0.0
 10
1351.499333021554
 20
1795.663940326068
 30
0.0
 10
1351.809951258644
 20
1795.5364477263
 30
0.0
 10
1352.152560105734
 20
1795.441684798143
 30
0.0
 10
1352.506086166106
 20
1795.390775603486
 30
0.0
 10
1352.981428549417
 20
1795.381142988911
 30
0.0
 10
1353.541100258748
 20
1795.471895209056
 30
0.0
 10
1354.165305101005
 20
1795.730224631597
 30
0.0
 10
1354.741861657772
 20
1796.130263725279
 30
0.0
 10
1355.038294850748
 20
1796.522002934807
 30
0.0
 10
1355.188409154876
 20
1796.720380377789
 30
0.0
  0
SPLINE
  5
1F5
330
1F
100
AcDbEntity
  8
0
  6
Continuous
 62
     7
370
    25
100
AcDbSpline
210
0.0
220
0.0
230
1.0
 70
     8
 71
     3
 72
    15
 73
    11
 74
     0
 42
0.000000001
 43
0.00000001
 40
0.0
 40
0.0
 40
0.0
 40
0.0
 40
0.2155767705933886
 40
0.3329005538677475
 40
0.4328760582230964
 40
0.5332634977247768
 40
0.6250838127945025
 40
0.7535547096888731
 40
0.9421338378892107
 40
1.0
 40
1.0
 40
1.0
 40
1.0
 10
1349.471543402349
 20
1799.878426279895
 30
0.0
 10
1349.533373163617
 20
1799.87907780035
 30
0.0
 10
1349.628852661315
 20
1799.880083899105
 30
0.0
 10
1349.768840529165
 20
1799.821242500677
 30
0.0
 10
1349.867266637701
 20
1799.749283006417
 30
0.0
 10
1349.94266347286
 20
1799.65931877153
 30
0.0
 10
1349.998092356835
 20
1799.549736966994
 30
0.0
 10
1350.029151971569
 20
1799.411354439928
 30
0.0
 10
1350.019745353298
 20
1799.29910101691
 30
0.0
 10
1350.000374438977
 20
1799.235848490873
 30
0.0
 10
1349.995826084789
 20
1799.220996590393
 30
0.0
  0
LINE
  5
1F6
330
1F
100
AcDbEntity
  8
0
  6
Continuous
 62
     8
370
    18
100
AcDbLine
 10
1350.6088512221
 20
1796.3411482328
 30
0.0
 11
1350.6088512221
 21
1794.8827353395
 31
0.0
  0
LINE
  5
1F7
330
1F
100
AcDbEntity
  8
0
  6
Continuous
 62
     8
370
    18
100
AcDbLine
 10
1350.6088512221
 20
804.8827353395
 30
0.0
 11
1350.6088512221
 21
803.4403058168
 31
0.0
  0
LINE
  5
1F8
330
1F
100
AcDbEntity
  8
0
  6
Continuous
 62
     8
370
    18
100
AcDbLine
 10
1360.6088512221
 20
1796.3281188158
 30
0.0
 11
1360.6088512221
 21
1794.8827353395
 31
0.0
  0
LINE
  5
1F9
330
1F
100
AcDbEntity
  8
0
  6
Continuous
 62
     8
370
    18
100
AcDbLine
 10
1360.6088512221
 20
804.8827353395
 30
0.0
 11
1360.6088512221
 21
803.4401326671
 31
0.0
  0
LINE
  5
1FA
330
1F
100
AcDbEntity
  8
0
  6
Continuous
 62
     8
370
    18
100
AcDbLine
 10
1349.8452123749
 20
801.479193626
 30
0.0
 11
1349.8452123749
 21
799.9973025796
 31
0.0
  0
LINE
  5
1FB
330
1F
100
AcDbEntity
  8
0
  6
Continuous
 62
     8
370
    18
100
AcDbLine
 10
1361.3724247713
 20
799.9975992649
 30
0.0
 11
1361.3724247713
 21
801.479091612
 31
0.0
  0
LINE
  5
1FC
330
1F
100
AcDbEntity
  8
0
  6
Continuous
 62
     8
370
    18
100
AcDbLine
 10
2151.3724247713
 20
799.9975992649
 30
0.0
 11
2151.3724247713
 21
801.479091612
 31
0.0
  0
LINE
  5
1FD
330
1F
100
AcDbEntity
  8
0
  6
Continuous
 62
     8
370
    18
100
AcDbLine
 10
2150.6088512221
 20
1796.3281188158
 30
0.0
 11
2150.6088512221
 21
1794.8827353395
 31
0.0
  0
LINE
  5
1FE
330
1F
100
AcDbEntity
  8
0
  6
Continuous
 62
     8
370
    18
100
AcDbLine
 10
2150.6088512221
 20
804.8827353395
 30
0.0
 11
2150.6088512221
 21
803.4401326671
 31
0.0
  0
LINE
  5
1FF
330
1F
100
AcDbEntity
  8
0
  6
Continuous
 62
     8
370
    18
100
AcDbLine
 10
2140.6088512221
 20
1796.3411482328
 30
0.0
 11
2140.6088512221
 21
1794.8827353395
 31
0.0
  0
LINE
  5
200
330
1F
100
AcDbEntity
  8
0
  6
Continuous
 62
     8
370
    18
100
AcDbLine
 10
2140.6088512221
 20
804.8827353395
 30
0.0
 11
2140.6088512221
 21
803.4403058168
 31
0.0
  0
LINE
  5
201
330
1F
100
AcDbEntity
  8
0
  6
Continuous
 62
     8
370
    18
100
AcDbLine
 10
2139.8452123749
 20
801.479193626
 30
0.0
 11
2139.8452123749
 21
799.9973025796
 31
0.0
  0
LINE
  5
202
330
1F
100
AcDbEntity
  8
0
  6
Continuous
 62
     7
370
    25
100
AcDbLine
 10
257.2028833998
 20
534.7394363897
 30
0.0
 11
257.2028833998
 21
530.4535998862
 31
0.0
  0
LINE
  5
203
330
1F
100
AcDbEntity
  8
0
  6
Continuous
 62
     7
370
    25
100
AcDbLine
 10
913.012871258
 20
628.9891452373
 30
0.0
 11
913.012871258
 21
633.2749817408
 31
0.0
  0
LINE
  5
204
330
1F
100
AcDbEntity
  8
0
  6
Continuous
 62
     7
370
    25
100
AcDbLine
 10
297.384029904
 20
498.4174923543
 30
0.0
 11
309.7017945725
 21
510.4400082893
 31
0.0
  0
LINE
  5
205
330
1F
100
AcDbEntity
  8
0
  6
Continuous
 62
     7
370
    25
100
AcDbLine
 10
646.7291879666
 20
403.4729639541
 30
0.0
 11
659.0469526351
 21
415.4954798891
 31
0.0
  0
LINE
  5
206
330
1F
100
AcDbEntity
  8
0
  6
Continuous
 62
     7
370
    25
100
AcDbLine
 10
882.2198946003
 20
463.6838056684
 30
0.0
 11
882.2198946003
 21
464.9695566194
 31
0.0
  0
LINE
  5
207
330
1F
100
AcDbEntity
  8
0
  6
Continuous
 62
     7
370
    25
100
AcDbLine
 10
872.7198946003
 20
464.9695566194
 30
0.0
 11
872.7198946003
 21
463.6838056684
 31
0.0
  0
SPLINE
  5
208
330
1F
100
AcDbEntity
  8
0
  6
Continuous
 62
     7
370
    25
100
AcDbSpline
210
0.0
220
0.0
230
1.0
 70
     8
 71
     3
 72
    40
 73
    36
 74
     0
 42
0.000000001
 43
0.00000001
 40
0.0
 40
0.0
 40
0.0
 40
0.0
 40
0.0023658343192707
 40
0.0313390498472123
 40
0.0598945214566168
 40
0.0881766384572086
 40
0.1163562574098983
 40
0.1446218671330637
 40
0.1731879654017303
 40
0.2022994775799699
 40
0.2322248558693144
 40
0.2632232283549795
 40
0.2954658374443783
 40
0.3289131128283852
 40
0.3632326495402128
 40
0.3978240759622519
 40
0.4322651912438489
 40
0.4664656639877032
 40
0.5005177934251903
 40
0.5346091977827676
 40
0.5689319476009681
 40
0.6036997958332162
 40
0.639162934923621
 40
0.6755132248239554
 40
0.7127549564474589
 40
0.7454924333712556
 40
0.7770976457939508
 40
0.8075777143232393
 40
0.8371131542002392
 40
0.8659198251943703
 40
0.8941922886308514
 40
0.9220905509020287
 40
0.9527608426252806
 40
0.9827325558034576
 40
1.0
 40
1.0
 40
1.0
 40
1.0
 10
872.7217278465304
 20
463.6875671910792
 30
0.0
 10
872.7211129647272
 20
463.6771055381398
 30
0.0
 10
872.7129679262861
 20
463.5385251395527
 30
0.0
 10
872.7425477002877
 20
463.2728115762638
 30
0.0
 10
872.8119527392158
 20
462.8995501119321
 30
0.0
 10
872.9293483923626
 20
462.5417714713727
 30
0.0
 10
873.0852968928406
 20
462.2023217810442
 30
0.0
 10
873.278990369318
 20
461.8829237536689
 30
0.0
 10
873.5080860056095
 20
461.584714218213
 30
0.0
 10
873.7716951033798
 20
461.3082926815067
 30
0.0
 10
874.0697360872072
 20
461.0540483971881
 30
0.0
 10
874.4028617741795
 20
460.8226314476401
 30
0.0
 10
874.7714606226407
 20
460.6155193198802
 30
0.0
 10
875.1740945026978
 20
460.4352948469468
 30
0.0
 10
875.605841335715
 20
460.2852828181507
 30
0.0
 10
876.0589197028582
 20
460.1681580535664
 30
0.0
 10
876.5251138658788
 20
460.0850218935917
 30
0.0
 10
876.9982863473022
 20
460.0356516347562
 30
0.0
 10
877.4746294204601
 20
460.019479673514
 30
0.0
 10
877.9514954561787
 20
460.0363210156409
 30
0.0
 10
878.4267638253912
 20
460.0866591689123
 30
0.0
 10
878.8985987513638
 20
460.171825153852
 30
0.0
 10
879.3651322608316
 20
460.2942135894635
 30
0.0
 10
879.8234418883485
 20
460.4572551849873
 30
0.0
 10
880.2477813127041
 20
460.6552685744148
 30
0.0
 10
880.629238361248
 20
460.8816059542535
 30
0.0
 10
880.9615821514786
 20
461.1262053347396
 30
0.0
 10
881.2567537783409
 20
461.3944483295502
 30
0.0
 10
881.5142822726787
 20
461.6842881682352
 30
0.0
 10
881.733841411448
 20
461.9939183890128
 30
0.0
 10
881.914439015791
 20
462.3212398432057
 30
0.0
 10
882.0607058270786
 20
462.6758761064698
 30
0.0
 10
882.1627229391377
 20
463.054247816301
 30
0.0
 10
882.2163607233973
 20
463.3967471974651
 30
0.0
 10
882.21460018877
 20
463.6061880661913
 30
0.0
 10
882.2139566562616
 20
463.6827454968101
 30
0.0
  0
LINE
  5
209
330
1F
100
AcDbEntity
  8
0
  6
Continuous
 62
     7
370
    25
100
AcDbLine
 10
297.4958600576
 20
328.8913347509
 30
0.0
 11
297.4958600576
 21
330.177085702
 31
0.0
  0
LINE
  5
20A
330
1F
100
AcDbEntity
  8
0
  6
Continuous
 62
     7
370
    25
100
AcDbLine
 10
287.9958600576
 20
330.177085702
 30
0.0
 11
287.9958600576
 21
328.8913347509
 31
0.0
  0
SPLINE
  5
20B
330
1F
100
AcDbEntity
  8
0
  6
Continuous
 62
     7
370
    25
100
AcDbSpline
210
0.0
220
0.0
230
1.0
 70
     8
 71
     3
 72
    33
 73
    29
 74
     0
 42
0.000000001
 43
0.00000001
 40
0.0
 40
0.0
 40
0.0
 40
0.0
 40
0.0150257824393253
 40
0.0509575089975419
 40
0.0864191586810556
 40
0.1216106078962845
 40
0.1567510488049602
 40
0.1920854486834729
 40
0.2278939316340919
 40
0.2644939140878753
 40
0.302223075590968
 40
0.3413816677187515
 40
0.3821122200640206
 40
0.4242443749241716
 40
0.4672559504070349
 40
0.5103491212951635
 40
0.5531838234229252
 40
0.5957382787193937
 40
0.6381781531368849
 40
0.6807611232080949
 40
0.7237044499619274
 40
0.7673112616868187
 40
0.8118801513566771
 40
0.857594576888328
 40
0.8992359665875137
 40
0.9397015864559897
 40
0.9787199023326142
 40
1.0
 40
1.0
 40
1.0
 40
1.0
 10
288.0017980016071
 20
328.8923949224749
 30
0.0
 10
288.0003234076316
 20
328.8389914597085
 30
0.0
 10
287.9953225608486
 20
328.6578822598776
 30
0.0
 10
288.0370486832736
 20
328.3520787269368
 30
0.0
 10
288.1231460278459
 20
327.9836389213137
 30
0.0
 10
288.2539406970398
 20
327.6318593989942
 30
0.0
 10
288.4229666761192
 20
327.2990499230105
 30
0.0
 10
288.628855775775
 20
326.9867543729829
 30
0.0
 10
288.8697385232334
 20
326.6958955673541
 30
0.0
 10
289.1450018441211
 20
326.426961434413
 30
0.0
 10
289.4548721495701
 20
326.1803670993078
 30
0.0
 10
289.8000576609794
 20
325.9569840193025
 30
0.0
 10
290.1805179304163
 20
325.7586644273603
 30
0.0
 10
290.5938412596323
 20
325.5883001836167
 30
0.0
 10
291.0338424499292
 20
325.4492193473309
 30
0.0
 10
291.492311632147
 20
325.343594940796
 30
0.0
 10
291.9614196532759
 20
325.2720054064505
 30
0.0
 10
292.4360143079531
 20
325.2339781086042
 30
0.0
 10
292.9128285995083
 20
325.2290220816179
 30
0.0
 10
293.3893899006975
 20
325.2571647970681
 30
0.0
 10
293.8637153700707
 20
325.3191557372182
 30
0.0
 10
294.33396952971
 20
325.4166581423437
 30
0.0
 10
294.798141856702
 20
325.5524431062954
 30
0.0
 10
295.2356510361598
 20
325.7236195869864
 30
0.0
 10
295.6378277059241
 20
325.9256901739076
 30
0.0
 10
295.9961651011885
 20
326.1515247752993
 30
0.0
 10
296.2747883512197
 20
326.3663807140136
 30
0.0
 10
296.427945182064
 20
326.5105528321444
 30
0.0
 10
296.4819962279743
 20
326.5614330555933
 30
0.0
  0
SPLINE
  5
20C
330
1F
100
AcDbEntity
  8
0
  6
Continuous
 62
     7
370
    25
100
AcDbSpline
210
0.0
220
0.0
230
1.0
 70
     8
 71
     3
 72
    14
 73
    10
 74
     0
 42
0.000000001
 43
0.00000001
 40
0.0
 40
0.0
 40
0.0
 40
0.0
 40
0.1373049393724674
 40
0.2840666335231807
 40
0.4278505888641788
 40
0.5695434862253679
 40
0.7098367643995048
 40
0.8624887772667534
 40
1.0
 40
1.0
 40
1.0
 40
1.0
 10
296.4819962279744
 20
326.5614330555933
 30
0.0
 10
296.5641994675126
 20
326.6462296221482
 30
0.0
 10
296.7342676211204
 20
326.8216630428659
 30
0.0
 10
296.9555060886836
 20
327.1185602058578
 30
0.0
 10
297.1468492960669
 20
327.4410785443476
 30
0.0
 10
297.2983567718834
 20
327.7798662316226
 30
0.0
 10
297.4114901379138
 20
328.1421804431935
 30
0.0
 10
297.4832316941167
 20
328.5131231908039
 30
0.0
 10
297.4905558306899
 20
328.7671753847239
 30
0.0
 10
297.4940268113384
 20
328.8875732282058
 30
0.0
  0
LINE
  5
20D
330
1F
100
AcDbEntity
  8
0
  6
Continuous
 62
     7
370
    25
100
AcDbLine
 10
646.8410181202
 20
233.9468063507
 30
0.0
 11
646.8410181202
 21
235.2325573018
 31
0.0
  0
LINE
  5
20E
330
1F
100
AcDbEntity
  8
0
  6
Continuous
 62
     7
370
    25
100
AcDbLine
 10
637.3410181202
 20
235.2325573018
 30
0.0
 11
637.3410181202
 21
233.9468063507
 31
0.0
  0
SPLINE
  5
20F
330
1F
100
AcDbEntity
  8
0
  6
Continuous
 62
     7
370
    25
100
AcDbSpline
210
0.0
220
0.0
230
1.0
 70
     8
 71
     3
 72
    33
 73
    29
 74
     0
 42
0.000000001
 43
0.00000001
 40
0.0
 40
0.0
 40
0.0
 40
0.0
 40
0.0150257824393254
 40
0.0509575089975434
 40
0.0864191586810562
 40
0.1216106078962849
 40
0.1567510488049625
 40
0.1920854486834768
 40
0.2278939316340942
 40
0.2644939140878776
 40
0.3022230755909703
 40
0.3413816677187537
 40
0.3821122200640228
 40
0.4242443749241737
 40
0.4672559504070371
 40
0.5103491212951656
 40
0.5531838234229274
 40
0.5957382787193936
 40
0.6381781531368848
 40
0.6807611232080947
 40
0.7237044499619272
 40
0.7673112616868185
 40
0.811880151356677
 40
0.8575945768883279
 40
0.899235966587519
 40
0.9397015864559907
 40
0.9787199023326143
 40
1.0
 40
1.0
 40
1.0
 40
1.0
 10
637.3469560641889
 20
233.9478665223261
 30
0.0
 10
637.3454814702134
 20
233.8944630595597
 30
0.0
 10
637.3404806234305
 20
233.7133538597289
 30
0.0
 10
637.3822067458555
 20
233.4075503267881
 30
0.0
 10
637.4683040904276
 20
233.039110521165
 30
0.0
 10
637.5990987596214
 20
232.6873309988453
 30
0.0
 10
637.7681247387011
 20
232.3545215228618
 30
0.0
 10
637.9740138383567
 20
232.0422259728341
 30
0.0
 10
638.2148965858153
 20
231.7513671672054
 30
0.0
 10
638.4901599067028
 20
231.4824330342641
 30
0.0
 10
638.800030212152
 20
231.2358386991591
 30
0.0
 10
639.1452157235611
 20
231.0124556191537
 30
0.0
 10
639.5256759929981
 20
230.8141360272116
 30
0.0
 10
639.9389993222139
 20
230.6437717834679
 30
0.0
 10
640.379000512511
 20
230.5046909471821
 30
0.0
 10
640.8374696947288
 20
230.3990665406471
 30
0.0
 10
641.3065777158577
 20
230.3274770063018
 30
0.0
 10
641.7811723705349
 20
230.2894497084555
 30
0.0
 10
642.2579866620899
 20
230.2844936814691
 30
0.0
 10
642.7345479632792
 20
230.3126363969193
 30
0.0
 10
643.2088734326526
 20
230.3746273370695
 30
0.0
 10
643.6791275922917
 20
230.4721297421949
 30
0.0
 10
644.1432999192838
 20
230.6079147061466
 30
0.0
 10
644.5808090987416
 20
230.7790911868377
 30
0.0
 10
644.982985768506
 20
230.9811617737589
 30
0.0
 10
645.3413231637703
 20
231.2069963751506
 30
0.0
 10
645.6199464138014
 20
231.4218523138649
 30
0.0
 10
645.7731032446457
 20
231.5660244319957
 30
0.0
 10
645.8271542905561
 20
231.6169046554446
 30
0.0
  0
SPLINE
  5
210
330
1F
100
AcDbEntity
  8
0
  6
Continuous
 62
     7
370
    25
100
AcDbSpline
210
0.0
220
0.0
230
1.0
 70
     8
 71
     3
 72
    14
 73
    10
 74
     0
 42
0.000000001
 43
0.00000001
 40
0.0
 40
0.0
 40
0.0
 40
0.0
 40
0.1373049393724674
 40
0.2840666335231981
 40
0.427850588864179
 40
0.5695434862253681
 40
0.7098367643995064
 40
0.8624887772667711
 40
1.0
 40
1.0
 40
1.0
 40
1.0
 10
645.8271542905561
 20
231.6169046554446
 30
0.0
 10
645.9093575300943
 20
231.7017012219994
 30
0.0
 10
646.0794256837021
 20
231.8771346427171
 30
0.0
 10
646.3006641512653
 20
232.1740318057089
 30
0.0
 10
646.4920073586487
 20
232.4965501441989
 30
0.0
 10
646.6435148344652
 20
232.835337831474
 30
0.0
 10
646.7566482004956
 20
233.1976520430447
 30
0.0
 10
646.8283897566985
 20
233.5685947906551
 30
0.0
 10
646.8357138932718
 20
233.8226469845752
 30
0.0
 10
646.8391848739202
 20
233.943044828057
 30
0.0
  0
ARC
  5
211
330
1F
100
AcDbEntity
  8
0
  6
Continuous
 62
     7
370
    25
100
AcDbCircle
 10
292.6696433784
 20
514.3936655375
 30
0.0
 40
4.999999999999964
100
AcDbArc
 50
35.956881161
 51
74.7954868413
  0
ARC
  5
212
330
1F
100
AcDbEntity
  8
0
  6
Continuous
 62
     7
370
    25
100
AcDbCircle
 10
292.6696433784
 20
514.3936655375
 30
0.0
 40
4.999999999999986
100
AcDbArc
 50
74.7954868413
 51
138.5284822358
  0
LINE
  5
213
330
1F
100
AcDbEntity
  8
0
  6
Continuous
 62
     7
370
    25
100
AcDbLine
 10
295.5185534867
 20
328.6205713601
 30
0.0
 11
295.5185534867
 21
515.4252622226
 31
0.0
  0
LINE
  5
214
330
1F
100
AcDbEntity
  8
0
  6
Continuous
 62
     7
370
    25
100
AcDbLine
 10
289.7547963211
 20
515.5112697495
 30
0.0
 11
289.7547963211
 21
328.6747335868
 31
0.0
  0
LINE
  5
215
330
1F
100
AcDbEntity
  8
0
  6
Continuous
 62
     7
370
    25
100
AcDbLine
 10
297.384029904
 20
329.7384961799
 30
0.0
 11
297.384029904
 21
515.3228530292
 31
0.0
  0
LINE
  5
216
330
1F
100
AcDbEntity
  8
0
  6
Continuous
 62
     7
370
    25
100
AcDbLine
 10
288.0537571992
 20
515.7496476798
 30
0.0
 11
288.0537571992
 21
329.8601975986
 31
0.0
  0
LINE
  5
217
330
1F
100
AcDbEntity
  8
0
  6
Continuous
 62
     7
370
    25
100
AcDbLine
 10
296.8501175513
 20
516.9215502368
 30
0.0
 11
296.8501175513
 21
516.9895376533
 31
0.0
  0
ARC
  5
218
330
1F
100
AcDbEntity
  8
0
  6
Continuous
 62
     7
370
    25
100
AcDbCircle
 10
642.014801441
 20
419.4491371374
 30
0.0
 40
5.000000000000044
100
AcDbArc
 50
35.956881161
 51
74.7954868413
  0
ARC
  5
219
330
1F
100
AcDbEntity
  8
0
  6
Continuous
 62
     7
370
    25
100
AcDbCircle
 10
642.014801441
 20
419.4491371374
 30
0.0
 40
5.000000000000006
100
AcDbArc
 50
74.7954868413
 51
138.5284822358
  0
LINE
  5
21A
330
1F
100
AcDbEntity
  8
0
  6
Continuous
 62
     7
370
    25
100
AcDbLine
 10
644.8637115493
 20
233.67604296
 30
0.0
 11
644.8637115493
 21
420.4807338224
 31
0.0
  0
LINE
  5
21B
330
1F
100
AcDbEntity
  8
0
  6
Continuous
 62
     7
370
    25
100
AcDbLine
 10
639.0999543837
 20
420.5667413494
 30
0.0
 11
639.0999543837
 21
233.7302051867
 31
0.0
  0
LINE
  5
21C
330
1F
100
AcDbEntity
  8
0
  6
Continuous
 62
     7
370
    25
100
AcDbLine
 10
646.7291879666
 20
234.7939677797
 30
0.0
 11
646.7291879666
 21
420.3783246291
 31
0.0
  0
LINE
  5
21D
330
1F
100
AcDbEntity
  8
0
  6
Continuous
 62
     7
370
    25
100
AcDbLine
 10
637.3989152618
 20
420.8051192796
 30
0.0
 11
637.3989152618
 21
234.9156691985
 31
0.0
  0
LINE
  5
21E
330
1F
100
AcDbEntity
  8
0
  6
Continuous
 62
     7
370
    25
100
AcDbLine
 10
646.1952756139
 20
421.9770218366
 30
0.0
 11
646.1952756139
 21
422.0450092531
 31
0.0
  0
ARC
  5
21F
330
1F
100
AcDbEntity
  8
0
  6
Continuous
 62
     7
370
    25
100
AcDbCircle
 10
877.5461112794
 20
649.3349160858
 30
0.0
 40
5.000000000000068
100
AcDbArc
 50
55.8242927207
 51
160.1986289137
  0
ARC
  5
220
330
1F
100
AcDbEntity
  8
0
  6
Continuous
 62
     7
370
    25
100
AcDbCircle
 10
877.5461112794
 20
649.3349160858
 30
0.0
 40
5.000000000000047
100
AcDbArc
 50
28.0474076389
 51
47.6115469466
  0
LINE
  5
221
330
1F
100
AcDbEntity
  8
0
  6
Continuous
 62
     7
370
    25
100
AcDbLine
 10
881.4230351526
 20
463.8623575058
 30
0.0
 11
881.4230351526
 21
595.7967396621
 31
0.0
  0
LINE
  5
222
330
1F
100
AcDbEntity
  8
0
  6
Continuous
 62
     7
370
    25
100
AcDbLine
 10
881.4230351526
 20
647.6059347617
 30
0.0
 11
881.4230351526
 21
650.0161092485
 31
0.0
  0
LINE
  5
223
330
1F
100
AcDbEntity
  8
0
  6
Continuous
 62
     7
370
    25
100
AcDbLine
 10
873.3656371065
 20
587.9324721582
 30
0.0
 11
873.3656371065
 21
463.959954466
 31
0.0
  0
LINE
  5
224
330
1F
100
AcDbEntity
  8
0
  6
Continuous
 62
     7
370
    25
100
AcDbLine
 10
882.1619974587
 20
465.2864447227
 30
0.0
 11
882.1619974587
 21
596.5179895267
 31
0.0
  0
LINE
  5
225
330
1F
100
AcDbEntity
  8
0
  6
Continuous
 62
     7
370
    25
100
AcDbLine
 10
882.1619974587
 20
647.405100641
 30
0.0
 11
882.1619974587
 21
651.1758948039
 31
0.0
  0
LINE
  5
226
330
1F
100
AcDbEntity
  8
0
  6
Continuous
 62
     7
370
    25
100
AcDbLine
 10
872.8317247539
 20
650.9925029908
 30
0.0
 11
872.8317247539
 21
649.9408688386
 31
0.0
  0
LINE
  5
227
330
1F
100
AcDbEntity
  8
0
  6
Continuous
 62
     7
370
    25
100
AcDbLine
 10
872.8317247539
 20
587.4113573341
 30
0.0
 11
872.8317247539
 21
465.4081461415
 31
0.0
  0
ARC
  5
228
330
1F
100
AcDbEntity
  8
0
  6
Continuous
 62
     7
370
    25
100
AcDbCircle
 10
528.2009532169
 20
744.2794444859
 30
0.0
 40
5.000000000000068
100
AcDbArc
 50
55.8242927207
 51
160.1986289137
  0
ARC
  5
229
330
1F
100
AcDbEntity
  8
0
  6
Continuous
 62
     7
370
    25
100
AcDbCircle
 10
528.2009532169
 20
744.2794444859
 30
0.0
 40
5.000000000000131
100
AcDbArc
 50
28.0474076389
 51
47.6115469466
  0
LINE
  5
22A
330
1F
100
AcDbEntity
  8
0
  6
Continuous
 62
     7
370
    25
100
AcDbLine
 10
532.07787709
 20
742.5504631618
 30
0.0
 11
532.07787709
 21
744.9606376486
 31
0.0
  0
LINE
  5
22B
330
1F
100
AcDbEntity
  8
0
  6
Continuous
 62
     7
370
    25
100
AcDbLine
 10
532.8168393961
 20
742.3496290411
 30
0.0
 11
532.8168393961
 21
746.120423204
 31
0.0
  0
LINE
  5
22C
330
1F
100
AcDbEntity
  8
0
  6
Continuous
 62
     7
370
    25
100
AcDbLine
 10
523.4865666913
 20
745.937031391
 30
0.0
 11
523.4865666913
 21
744.8853972387
 31
0.0
  0
LWPOLYLINE
  5
22D
330
1F
100
AcDbEntity
  8
0
  6
Continuous
 62
     7
370
    25
100
AcDbPolyline
 90
       30
 70
   128
 43
0.0
 10
498.083236225
 20
751.7894781319
 10
497.1847674296
 20
752.0178625559
 10
496.2636093852
 20
752.2208594906
 10
495.3224640071
 20
752.3978735111
 10
494.3640918368
 20
752.5483854047
 10
493.3913039451
 20
752.6719536941
 10
492.4069536864
 20
752.7682159322
 10
491.4139283297
 20
752.8368897653
 10
490.4151405894
 20
752.8777737612
 10
489.413520082
 20
752.8907480002
 10
488.4120047332
 20
752.8757744264
 10
487.4135321598
 20
752.8328969601
 10
486.4210310541
 20
752.7622413682
 10
485.4374125928
 20
752.6640148956
 10
484.4655618983
 20
752.5385056577
 10
483.5083295762
 20
752.3860817946
 10
482.5685233537
 20
752.2071903917
 10
481.6488998445
 20
752.0023561684
 10
480.7521564628
 20
751.7721799388
 10
479.8809235113
 20
751.5173368493
 10
479.0377564666
 20
751.2385743987
 10
478.2251284827
 20
750.9367102452
 10
477.4454231375
 20
750.6126298085
 10
476.7009274413
 20
750.2672836723
 10
475.993825128
 20
749.9016847963
 10
475.3261902508
 20
749.5169055451
 10
474.6999810976
 20
749.1140745423
 10
474.1170344479
 20
748.6943733609
 10
473.5790601845
 20
748.2590330567
 10
473.0876362788
 20
747.8093305577
  0
LINE
  5
22E
330
1F
100
AcDbEntity
  8
0
  6
Continuous
 62
     7
370
    25
100
AcDbLine
 10
498.083236225
 20
751.7894781319
 30
0.0
 11
903.1467359533
 21
641.7018983667
 31
0.0
  0
LWPOLYLINE
  5
22F
330
1F
100
AcDbEntity
  8
0
  6
Continuous
 62
     7
370
    25
100
AcDbPolyline
 90
       30
 70
   128
 43
0.0
 10
910.8746065091
 20
628.8282126892
 10
911.3180386263
 20
629.2909583279
 10
911.7121782921
 20
629.7653897938
 10
912.0558694269
 20
630.2501154975
 10
912.3481039255
 20
630.7437136552
 10
912.5880246138
 20
631.2447364582
 10
912.7749277629
 20
631.7517143205
 10
912.9082651538
 20
632.2631601885
 10
912.9876456849
 20
632.7775739035
 10
913.0128365195
 20
633.2934466014
 10
912.9837637684
 20
633.8092651387
 10
912.9005127071
 20
634.3235165307
 10
912.7633275253
 20
634.8346923896
 10
912.5726106108
 20
635.3412933483
 10
912.328921369
 20
635.8418334591
 10
912.0329745827
 20
636.3348445515
 10
911.6856383146
 20
636.8188805391
 10
911.2879313619
 20
637.292521661
 10
910.8410202676
 20
637.754378646
 10
910.346215899
 20
638.2030967881
 10
909.8049696025
 20
638.6373599197
 10
909.2188689467
 20
639.0558942721
 10
908.5896330659
 20
639.4574722121
 10
907.9191076174
 20
639.8409158423
 10
907.2092593677
 20
640.2051004564
 10
906.4621704241
 20
640.5489578383
 10
905.6800321273
 20
640.8714793951
 10
904.8651386235
 20
641.1717191153
 10
904.0198801359
 20
641.4487963443
 10
903.1467359533
 20
641.7018983667
  0
LINE
  5
230
330
1F
100
AcDbEntity
  8
0
  6
Continuous
 62
     7
370
    25
100
AcDbLine
 10
910.8746065091
 20
628.8282126892
 30
0.0
 11
697.1281183791
 21
420.2050875728
 31
0.0
  0
LWPOLYLINE
  5
231
330
1F
100
AcDbEntity
  8
0
  6
Continuous
 62
     7
370
    25
100
AcDbPolyline
 90
       30
 70
   128
 43
0.0
 10
672.1325184329
 20
416.2249399986
 10
673.0309872283
 20
415.9965555746
 10
673.9521452727
 20
415.7935586399
 10
674.8932906508
 20
415.6165446194
 10
675.8516628211
 20
415.4660327258
 10
676.8244507128
 20
415.3424644364
 10
677.8088009714
 20
415.2462021983
 10
678.8018263282
 20
415.1775283652
 10
679.8006140685
 20
415.1366443692
 10
680.8022345758
 20
415.1236701303
 10
681.8037499247
 20
415.138643704
 10
682.802222498
 20
415.1815211704
 10
683.7947236037
 20
415.2521767623
 10
684.778342065
 20
415.3504032348
 10
685.7501927595
 20
415.4759124728
 10
686.7074250817
 20
415.6283363359
 10
687.6472313041
 20
415.8072277388
 10
688.5668548133
 20
416.0120619621
 10
689.4635981951
 20
416.2422381917
 10
690.3348311465
 20
416.4970812812
 10
691.1779981913
 20
416.7758437318
 10
691.9906261752
 20
417.0777078852
 10
692.7703315204
 20
417.401788322
 10
693.5148272166
 20
417.7471344582
 10
694.2219295298
 20
418.1127333341
 10
694.8895644071
 20
418.4975125854
 10
695.5157735602
 20
418.9003435881
 10
696.09872021
 20
419.3200447696
 10
696.6366944733
 20
419.7553850738
 10
697.1281183791
 20
420.2050875728
  0
LINE
  5
232
330
1F
100
AcDbEntity
  8
0
  6
Continuous
 62
     7
370
    25
100
AcDbLine
 10
672.1325184329
 20
416.2249399986
 30
0.0
 11
644.6621041017
 21
423.690809994
 31
0.0
  0
LINE
  5
233
330
1F
100
AcDbEntity
  8
0
  6
Continuous
 62
     7
370
    25
100
AcDbLine
 10
641.8786837926
 20
424.4472839925
 30
0.0
 11
295.3169460391
 21
518.6353383941
 31
0.0
  0
LINE
  5
234
330
1F
100
AcDbEntity
  8
0
  6
Continuous
 62
     7
370
    25
100
AcDbLine
 10
292.53352573
 20
519.3918123927
 30
0.0
 11
267.0690187046
 21
526.3125197638
 31
0.0
  0
LWPOLYLINE
  5
235
330
1F
100
AcDbEntity
  8
0
  6
Continuous
 62
     7
370
    25
100
AcDbPolyline
 90
       30
 70
   128
 43
0.0
 10
259.3411481488
 20
539.1862054413
 10
258.8977160316
 20
538.7234598026
 10
258.5035763658
 20
538.2490283367
 10
258.1598852309
 20
537.764302633
 10
257.8676507323
 20
537.2707044753
 10
257.6277300441
 20
536.7696816723
 10
257.440826895
 20
536.26270381
 10
257.3074895041
 20
535.751257942
 10
257.228108973
 20
535.236844227
 10
257.2029181384
 20
534.7209715291
 10
257.2319908895
 20
534.2051529918
 10
257.3152419507
 20
533.6909015997
 10
257.4524271326
 20
533.1797257409
 10
257.6431440471
 20
532.6731247822
 10
257.8868332888
 20
532.1725846714
 10
258.1827800752
 20
531.6795735789
 10
258.5301163433
 20
531.1955375913
 10
258.927823296
 20
530.7218964695
 10
259.3747343903
 20
530.2600394845
 10
259.8695387589
 20
529.8113213424
 10
260.4107850554
 20
529.3770582108
 10
260.9968857112
 20
528.9585238584
 10
261.6261215919
 20
528.5569459184
 10
262.2966470405
 20
528.1735022882
 10
263.0064952902
 20
527.8093176741
 10
263.7535842337
 20
527.4654602921
 10
264.5357225306
 20
527.1429387354
 10
265.3506160343
 20
526.8426990151
 10
266.1958745219
 20
526.5656217862
 10
267.0690187046
 20
526.3125197638
  0
LINE
  5
236
330
1F
100
AcDbEntity
  8
0
  6
Continuous
 62
     7
370
    25
100
AcDbLine
 10
259.3411481488
 20
539.1862054413
 30
0.0
 11
473.0876362788
 21
747.8093305577
 31
0.0
  0
LWPOLYLINE
  5
237
330
1F
100
AcDbEntity
  8
0
  6
Continuous
 62
     7
370
    25
100
AcDbPolyline
 90
       30
 70
   128
 43
0.0
 10
697.1281183791
 20
415.9192510693
 10
696.6366944733
 20
415.4695485703
 10
696.09872021
 20
415.0342082661
 10
695.5157735602
 20
414.6145070846
 10
694.8895644071
 20
414.2116760819
 10
694.2219295298
 20
413.8268968306
 10
693.5148272166
 20
413.4612979546
 10
692.7703315204
 20
413.1159518184
 10
691.9906261752
 20
412.7918713817
 10
691.1779981913
 20
412.4900072283
 10
690.3348311465
 20
412.2112447777
 10
689.4635981951
 20
411.9564016882
 10
688.5668548133
 20
411.7262254586
 10
687.6472313041
 20
411.5213912353
 10
686.7074250817
 20
411.3424998324
 10
685.7501927595
 20
411.1900759693
 10
684.778342065
 20
411.0645667313
 10
683.7947236037
 20
410.9663402588
 10
682.802222498
 20
410.8956846669
 10
681.8037499247
 20
410.8528072005
 10
680.8022345758
 20
410.8378336268
 10
679.8006140685
 20
410.8508078657
 10
678.8018263282
 20
410.8916918617
 10
677.8088009714
 20
410.9603656948
 10
676.8244507128
 20
411.0566279329
 10
675.8516628211
 20
411.1801962223
 10
674.8932906508
 20
411.3307081159
 10
673.9521452727
 20
411.5077221364
 10
673.0309872283
 20
411.7107190711
 10
672.1325184329
 20
411.9391034951
  0
LINE
  5
238
330
1F
100
AcDbEntity
  8
0
  6
Continuous
 62
     7
370
    25
100
AcDbLine
 10
672.1325184329
 20
411.9391034951
 30
0.0
 11
646.7291879666
 21
418.8431843883
 31
0.0
  0
LINE
  5
239
330
1F
100
AcDbEntity
  8
0
  6
Continuous
 62
     7
370
    25
100
AcDbLine
 10
637.5097341587
 20
421.3488343843
 30
0.0
 11
297.384029904
 21
513.7877127884
 31
0.0
  0
LINE
  5
23A
330
1F
100
AcDbEntity
  8
0
  6
Continuous
 62
     7
370
    25
100
AcDbLine
 10
288.1645760961
 20
516.2933627844
 30
0.0
 11
267.0690187046
 21
522.0266832603
 31
0.0
  0
LINE
  5
23B
330
1F
100
AcDbEntity
  8
0
  6
Continuous
 62
     7
370
    25
100
AcDbLine
 10
910.8746065091
 20
624.5423761856
 30
0.0
 11
697.1281183791
 21
415.9192510693
 31
0.0
  0
LWPOLYLINE
  5
23C
330
1F
100
AcDbEntity
  8
0
  6
Continuous
 62
     7
370
    25
100
AcDbPolyline
 90
       22
 70
   128
 43
0.0
 10
267.0690187046
 20
522.0266832603
 10
266.1958745219
 20
522.2797852827
 10
265.3506160343
 20
522.5568625116
 10
264.5357225306
 20
522.8571022319
 10
263.7535842337
 20
523.1796237886
 10
263.0064952902
 20
523.5234811706
 10
262.2966470405
 20
523.8876657847
 10
261.6261215919
 20
524.2711094149
 10
260.9968857112
 20
524.6726873549
 10
260.4107850554
 20
525.0912217073
 10
259.8695387589
 20
525.5254848389
 10
259.3747343903
 20
525.974202981
 10
258.927823296
 20
526.436059966
 10
258.5301163433
 20
526.9097010878
 10
258.1827800752
 20
527.3937370754
 10
257.8868332888
 20
527.8867481679
 10
257.6431440471
 20
528.3872882787
 10
257.4524271326
 20
528.8938892374
 10
257.3152419507
 20
529.4050650962
 10
257.2319908895
 20
529.9193164883
 10
257.2029181384
 20
530.4351350255
 10
257.2028833998
 20
530.4535998862
  0
ARC
  5
23D
330
1F
100
AcDbEntity
  8
0
  6
Continuous
 62
     7
370
    25
100
AcDbCircle
 10
906.6898212856
 20
629.2921493463
 30
0.0
 40
6.330305872869203
100
AcDbArc
 50
311.3816478755
 51
357.2564528301
  0
LWPOLYLINE
  5
23E
330
1F
100
AcDbEntity
  8
0
  6
Continuous
 62
     7
370
    25
100
AcDbPolyline
 90
       28
 70
   128
 43
0.0
 10
881.6708806783
 20
463.8278186197
 10
881.4114495246
 20
463.6043030032
 10
881.1073589787
 20
463.3962562557
 10
880.7620545079
 20
463.20603563
 10
880.3794485499
 20
463.0357964018
 10
879.963876183
 20
462.8874674495
 10
879.5200460083
 20
462.7627293995
 10
879.0529867989
 20
462.6629955837
 10
878.5679905223
 20
462.589396026
 10
878.0705523801
 20
462.542764639
 10
877.5663085453
 20
462.5236297748
 10
877.060972302
 20
462.5322082391
 10
876.5602693117
 20
462.5684028345
 10
876.0698727394
 20
462.6318034616
 10
875.5953389742
 20
462.7216917662
 10
875.1420446733
 20
462.8370492778
 10
874.7151258422
 20
462.9765689497
 10
874.3194196419
 20
463.1386699682
 10
873.9594095817
 20
463.3215156641
 10
873.6391747195
 20
463.5230343225
 10
873.3623434443
 20
463.7409426565
 10
873.1320523649
 20
463.9727716777
 10
872.9509107714
 20
464.2158946705
 10
872.8209710703
 20
464.4675569544
 10
872.7437055305
 20
464.7249070951
 10
872.7199896013
 20
464.9850292126
 10
872.7500919937
 20
465.2449760195
 10
872.8317247539
 20
465.4972835602
  0
ARC
  5
23F
330
1F
100
AcDbEntity
  8
0
  6
Continuous
 62
     7
370
    25
100
AcDbCircle
 10
880.7070179255
 20
464.9792051403
 30
0.0
 40
1.50157328359781
100
AcDbArc
 50
309.9337864771
 51
14.3105937744
  0
LWPOLYLINE
  5
240
330
1F
100
AcDbEntity
  8
0
  6
Continuous
 62
     7
370
    25
100
AcDbPolyline
 90
       35
 70
   128
 43
0.0
 10
297.384029904
 20
330.7048126427
 10
297.3947835875
 20
330.679085367
 10
297.4720491274
 20
330.4217352263
 10
297.4957650566
 20
330.1616131088
 10
297.4656626641
 20
329.9016663019
 10
297.3820830223
 20
329.6448401069
 10
297.2459731216
 20
329.3940444671
 10
297.0588751419
 20
329.1521209974
 10
296.8229089778
 20
328.9218107874
 10
296.5407482203
 20
328.7057233437
 10
296.2155898636
 20
328.5063070235
 10
295.8511180818
 20
328.3258212933
 10
295.4514624857
 20
328.1663111286
 10
295.0211513331
 20
328.0295838433
 10
294.5650602211
 20
327.9171886122
 10
294.0883568444
 20
327.830398918
 10
293.5964424426
 20
327.7701981229
 10
293.0948906025
 20
327.7372683257
 10
292.5893841069
 20
327.7319826343
 10
292.0856505463
 20
327.7544009377
 10
291.5893974233
 20
327.8042692275
 10
291.1062474841
 20
327.8810224761
 10
290.6416750105
 20
327.9837910385
 10
290.2009437942
 20
328.1114105059
 10
289.7890474961
 20
328.2624348986
 10
289.4106530658
 20
328.43515305
 10
289.0700478634
 20
328.6276079943
 10
288.7710910819
 20
328.8376191403
 10
288.5171700212
 20
329.0628069776
 10
288.3111617083
 20
329.300620038
 10
288.1554002997
 20
329.5483638047
 10
288.0516506344
 20
329.8032312417
 10
288.0010882376
 20
330.0623345991
 10
288.0042860014
 20
330.3227381324
 10
288.0537571992
 20
330.557890368
  0
LWPOLYLINE
  5
241
330
1F
100
AcDbEntity
  8
0
  6
Continuous
 62
     7
370
    25
100
AcDbPolyline
 90
       35
 70
   128
 43
0.0
 10
646.7291879666
 20
235.7602842426
 10
646.7399416501
 20
235.7345569668
 10
646.8172071899
 20
235.4772068262
 10
646.8409231191
 20
235.2170847086
 10
646.8108207267
 20
234.9571379017
 10
646.7272410848
 20
234.7003117067
 10
646.5911311842
 20
234.4495160669
 10
646.4040332044
 20
234.2075925973
 10
646.1680670404
 20
233.9772823872
 10
645.8859062829
 20
233.7611949436
 10
645.5607479262
 20
233.5617786234
 10
645.1962761444
 20
233.3812928932
 10
644.7966205483
 20
233.2217827285
 10
644.3663093957
 20
233.0850554432
 10
643.9102182837
 20
232.972660212
 10
643.4335149069
 20
232.8858705179
 10
642.9416005052
 20
232.8256697227
 10
642.4400486651
 20
232.7927399256
 10
641.9345421695
 20
232.7874542342
 10
641.4308086089
 20
232.8098725375
 10
640.9345554859
 20
232.8597408274
 10
640.4514055467
 20
232.936494076
 10
639.986833073
 20
233.0392626384
 10
639.5461018568
 20
233.1668821057
 10
639.1342055587
 20
233.3179064984
 10
638.7558111284
 20
233.4906246498
 10
638.415205926
 20
233.6830795942
 10
638.1162491445
 20
233.8930907401
 10
637.8623280838
 20
234.1182785774
 10
637.6563197709
 20
234.3560916379
 10
637.5005583623
 20
234.6038354046
 10
637.396808697
 20
234.8587028416
 10
637.3462463002
 20
235.117806199
 10
637.349444064
 20
235.3782097323
 10
637.3989152618
 20
235.6133619679
  0
SPLINE
  5
242
330
1F
100
AcDbEntity
  8
0
  6
Continuous
 62
     7
370
    25
100
AcDbSpline
210
0.0
220
0.0
230
1.0
 70
     8
 71
     3
 72
    27
 73
    23
 74
     0
 42
0.000000001
 43
0.00000001
 40
0.0
 40
0.0
 40
0.0
 40
0.0
 40
0.0885627570442149
 40
0.1796538943995941
 40
0.2695908295576364
 40
0.3157544754264174
 40
0.3623424134621834
 40
0.4187626527282498
 40
0.446931574336495
 40
0.4757555362193702
 40
0.4937367345958559
 40
0.5121853392428839
 40
0.5301891255062636
 40
0.548761244475854
 40
0.5721476357447911
 40
0.5961816793253247
 40
0.6385637840833108
 40
0.6819638929543745
 40
0.7628695907407577
 40
0.8459362592691221
 40
0.9222273191770637
 40
1.0
 40
1.0
 40
1.0
 40
1.0
 10
295.7324041937549
 20
516.1340546433578
 30
0.0
 10
295.8488855178346
 20
516.0273132413209
 30
0.0
 10
296.0851735941565
 20
515.8107830743568
 30
0.0
 10
296.4209666730841
 20
515.5293178668239
 30
0.0
 10
296.6812339841454
 20
515.32256086072
 30
0.0
 10
296.872714500024
 20
515.1824668310409
 30
0.0
 10
297.0183806327121
 20
515.0864128390588
 30
0.0
 10
297.1351834160604
 20
515.02654091784
 30
0.0
 10
297.22525253825
 20
515.0070287004957
 30
0.0
 10
297.2785496948515
 20
515.0151160345863
 30
0.0
 10
297.3181138411309
 20
515.0431612513132
 30
0.0
 10
297.3454282005612
 20
515.0822728806455
 30
0.0
 10
297.3660032491873
 20
515.137949244945
 30
0.0
 10
297.3801444556181
 20
515.2138796084687
 30
0.0
 10
297.3857233549362
 20
515.3117346491275
 30
0.0
 10
297.3802470353708
 20
515.4578053439373
 30
0.0
 10
297.3553095354081
 20
515.648518052778
 30
0.0
 10
297.2906489253762
 20
515.9440163485888
 30
0.0
 10
297.1701334442678
 20
516.3121189248378
 30
0.0
 10
296.9789020684794
 20
516.7225597182124
 30
0.0
 10
296.7485066689665
 20
517.1079801635982
 30
0.0
 10
296.5677016206435
 20
517.3331668667341
 30
0.0
 10
296.4764297013218
 20
517.4468430211977
 30
0.0
  0
SPLINE
  5
243
330
1F
100
AcDbEntity
  8
0
  6
Continuous
 62
     7
370
    25
100
AcDbSpline
210
0.0
220
0.0
230
1.0
 70
     8
 71
     3
 72
    14
 73
    10
 74
     0
 42
0.000000001
 43
0.00000001
 40
0.0
 40
0.0
 40
0.0
 40
0.0
 40
0.220765348438307
 40
0.3402146168140888
 40
0.4605704991791176
 40
0.5641909618660997
 40
0.6633542991972022
 40
0.8105247403618681
 40
1.0
 40
1.0
 40
1.0
 40
1.0
 10
295.4583617749216
 20
515.9870636038265
 30
0.0
 10
295.4521583605398
 20
516.0276526392731
 30
0.0
 10
295.4425984714462
 20
516.0902031402416
 30
0.0
 10
295.461342514581
 20
516.1642177501768
 30
0.0
 10
295.4925625957115
 20
516.205534725048
 30
0.0
 10
295.5359675851683
 20
516.2237067483733
 30
0.0
 10
295.589531702473
 20
516.2222663455063
 30
0.0
 10
295.6586371299977
 20
516.1959652161773
 30
0.0
 10
295.7058379958477
 20
516.1563508884067
 30
0.0
 10
295.7324041937549
 20
516.1340546433578
 30
0.0
  0
SPLINE
  5
244
330
1F
100
AcDbEntity
  8
0
  6
Continuous
 62
     7
370
    25
100
AcDbSpline
210
0.0
220
0.0
230
1.0
 70
     8
 71
     3
 72
    23
 73
    19
 74
     0
 42
0.000000001
 43
0.00000001
 40
0.0
 40
0.0
 40
0.0
 40
0.0
 40
0.0863901050636673
 40
0.1752766177962506
 40
0.2621177065427337
 40
0.3519363559727531
 40
0.4192459175638973
 40
0.4528076006128828
 40
0.4875598503476024
 40
0.5342326170542431
 40
0.5808027178643163
 40
0.617415928196372
 40
0.6550189806174123
 40
0.7176192476618286
 40
0.7818570182170476
 40
0.8689416197544361
 40
0.9585429605715617
 40
1.0
 40
1.0
 40
1.0
 40
1.0
 10
292.8178828875427
 20
515.4856087355511
 30
0.0
 10
292.8813597198477
 20
515.3477566363642
 30
0.0
 10
293.0101476691925
 20
515.0680689373646
 30
0.0
 10
293.2715232063678
 20
514.6790292746749
 30
0.0
 10
293.5767598508722
 20
514.3195094012297
 30
0.0
 10
293.897963444448
 20
514.036344756494
 30
0.0
 10
294.1808709565603
 20
513.8719162753194
 30
0.0
 10
294.397209473114
 20
513.8037311968137
 30
0.0
 10
294.587102982647
 20
513.7844179596946
 30
0.0
 10
294.7974102853501
 20
513.8297231957549
 30
0.0
 10
294.982166702828
 20
513.9501885045729
 30
0.0
 10
295.1231229556944
 20
514.0997484112413
 30
0.0
 10
295.255142001108
 20
514.2933686482294
 30
0.0
 10
295.3747622868178
 20
514.5508236909791
 30
0.0
 10
295.477460338357
 20
514.9053688584667
 30
0.0
 10
295.5287378818925
 20
515.3183064966867
 30
0.0
 10
295.5143863026258
 20
515.6952713648218
 30
0.0
 10
295.4718249833604
 20
515.9169432494826
 30
0.0
 10
295.4583617749215
 20
515.9870636038265
 30
0.0
  0
SPLINE
  5
245
330
1F
100
AcDbEntity
  8
0
  6
Continuous
 62
     7
370
    25
100
AcDbSpline
210
0.0
220
0.0
230
1.0
 70
     8
 71
     3
 72
    14
 73
    10
 74
     0
 42
0.000000001
 43
0.00000001
 40
0.0
 40
0.0
 40
0.0
 40
0.0
 40
0.2243030424882868
 40
0.3489011866266555
 40
0.4744001356117536
 40
0.5826741857065961
 40
0.6867417687947411
 40
0.838156487169633
 40
1.0
 40
1.0
 40
1.0
 40
1.0
 10
292.3977247304069
 20
515.500962531781
 30
0.0
 10
292.4192783333461
 20
515.5374611678012
 30
0.0
 10
292.4528047517047
 20
515.5942344388029
 30
0.0
 10
292.5286599790667
 20
515.6446151449783
 30
0.0
 10
292.5959388467523
 20
515.6613134663352
 30
0.0
 10
292.6604882482522
 20
515.6520731404532
 30
0.0
 10
292.7221704328567
 20
515.6209184533047
 30
0.0
 10
292.779052582903
 20
515.5651709322016
 30
0.0
 10
292.8046553357898
 20
515.5127116152102
 30
0.0
 10
292.8178828875427
 20
515.4856087355511
 30
0.0
  0
SPLINE
  5
246
330
1F
100
AcDbEntity
  8
0
  6
Continuous
 62
     7
370
    25
100
AcDbSpline
210
0.0
220
0.0
230
1.0
 70
     8
 71
     3
 72
    26
 73
    22
 74
     0
 42
0.000000001
 43
0.00000001
 40
0.0
 40
0.0
 40
0.0
 40
0.0
 40
0.085426115936091
 40
0.1733276547195567
 40
0.2448517261352448
 40
0.3181224083912687
 40
0.3577740645396619
 40
0.3980844094313166
 40
0.428768203281526
 40
0.4601978879083184
 40
0.4855692359538049
 40
0.5116681185372409
 40
0.5370453561645167
 40
0.5630880149114006
 40
0.5995557531473523
 40
0.6370345873825443
 40
0.6960497304231478
 40
0.7566321175831344
 40
0.84014230632423
 40
0.9260534647419588
 40
1.0
 40
1.0
 40
1.0
 40
1.0
 10
289.8491269213658
 20
516.1936168064332
 30
0.0
 10
289.8170252473668
 20
516.0532972195331
 30
0.0
 10
289.7518916777802
 20
515.7685919553162
 30
0.0
 10
289.7495013787364
 20
515.3558402723665
 30
0.0
 10
289.8050304754138
 20
514.9702134442717
 30
0.0
 10
289.8984030712282
 20
514.6752616870689
 30
0.0
 10
290.0120401642194
 20
514.4473811514918
 30
0.0
 10
290.1152641646434
 20
514.2961043323766
 30
0.0
 10
290.230179689016
 20
514.1736947115945
 30
0.0
 10
290.3436387903766
 20
514.0877120008147
 30
0.0
 10
290.4631489228779
 20
514.028206875008
 30
0.0
 10
290.5817272078528
 20
513.9946721036454
 30
0.0
 10
290.7054949824334
 20
513.9838434811734
 30
0.0
 10
290.8465616221462
 20
513.9959308268358
 30
0.0
 10
291.0042388370648
 20
514.0385866358839
 30
0.0
 10
291.2049655332837
 20
514.1292377173044
 30
0.0
 10
291.4275533187696
 20
514.2745802364394
 30
0.0
 10
291.6924676855161
 20
514.5018668376741
 30
0.0
 10
291.9619928581055
 20
514.7981913072721
 30
0.0
 10
292.2115353589981
 20
515.1436715674182
 30
0.0
 10
292.3388376051383
 20
515.3879601750054
 30
0.0
 10
292.3977247304069
 20
515.500962531781
 30
0.0
  0
SPLINE
  5
247
330
1F
100
AcDbEntity
  8
0
  6
Continuous
 62
     7
370
    25
100
AcDbSpline
210
0.0
220
0.0
230
1.0
 70
     8
 71
     3
 72
    14
 73
    10
 74
     0
 42
0.000000001
 43
0.00000001
 40
0.0
 40
0.0
 40
0.0
 40
0.0
 40
0.2239799089305531
 40
0.3530600787849406
 40
0.4831615846560053
 40
0.5937368434043864
 40
0.6971871626480907
 40
0.8442013099709667
 40
1.0
 40
1.0
 40
1.0
 40
1.0
 10
289.5992406879153
 20
516.36036671825
 30
0.0
 10
289.6317944153767
 20
516.3837290903364
 30
0.0
 10
289.683108935671
 20
516.4205552546509
 30
0.0
 10
289.7578440015772
 20
516.4368361435896
 30
0.0
 10
289.8096785649376
 20
516.4262918172188
 30
0.0
 10
289.8445385756887
 20
516.3932942952124
 30
0.0
 10
289.8645078771997
 20
516.3429983192757
 30
0.0
 10
289.8681083942769
 20
516.2746670334335
 30
0.0
 10
289.8555752734848
 20
516.2211510449755
 30
0.0
 10
289.8491269213658
 20
516.1936168064332
 30
0.0
  0
SPLINE
  5
248
330
1F
100
AcDbEntity
  8
0
  6
Continuous
 62
     7
370
    25
100
AcDbSpline
210
0.0
220
0.0
230
1.0
 70
     8
 71
     3
 72
    24
 73
    20
 74
     0
 42
0.000000001
 43
0.00000001
 40
0.0
 40
0.0
 40
0.0
 40
0.0
 40
0.0875562630610312
 40
0.1776478778994356
 40
0.2471757028850856
 40
0.3182848495519417
 40
0.3544514774164556
 40
0.3911558340110754
 40
0.4196735717850664
 40
0.4488792169076932
 40
0.4956340312872254
 40
0.5423649618835424
 40
0.576362733126496
 40
0.6112927856933148
 40
0.6689340598446847
 40
0.7280698917726421
 40
0.8133417532352668
 40
0.9010570727560779
 40
0.9999999999999999
 40
0.9999999999999999
 40
0.9999999999999999
 40
0.9999999999999999
 10
289.0616700893409
 20
517.7255473394442
 30
0.0
 10
288.9571516458603
 20
517.6116678940864
 30
0.0
 10
288.7450882361563
 20
517.380611415693
 30
0.0
 10
288.497960339989
 20
517.01387377195
 30
0.0
 10
288.3045879855575
 20
516.6551911048798
 30
0.0
 10
288.1871057100891
 20
516.3714125493369
 30
0.0
 10
288.1151337924031
 20
516.1422469252813
 30
0.0
 10
288.0778387930027
 20
515.9846181112229
 30
0.0
 10
288.0569683479575
 20
515.8458467821108
 30
0.0
 10
288.0500122233515
 20
515.7060132328021
 30
0.0
 10
288.0717838262475
 20
515.575818022148
 30
0.0
 10
288.1329959174657
 20
515.5072795941247
 30
0.0
 10
288.2091418563007
 20
515.4899275901164
 30
0.0
 10
288.306781542503
 20
515.5021921027927
 30
0.0
 10
288.4416012251122
 20
515.554076710178
 30
0.0
 10
288.6429329102446
 20
515.6628667680509
 30
0.0
 10
288.9003710867781
 20
515.8291736506966
 30
0.0
 10
289.2292649928098
 20
516.0633318650628
 30
0.0
 10
289.4710672712271
 20
516.2574627369556
 30
0.0
 10
289.5992406879153
 20
516.36036671825
 30
0.0
  0
SPLINE
  5
249
330
1F
100
AcDbEntity
  8
0
  6
Continuous
 62
     7
370
    25
100
AcDbSpline
210
0.0
220
0.0
230
1.0
 70
     8
 71
     3
 72
    14
 73
    10
 74
     0
 42
0.000000001
 43
0.00000001
 40
0.0
 40
0.0
 40
0.0
 40
0.0
 40
0.2200911109485839
 40
0.3501199592092674
 40
0.4590676183976911
 40
0.5685351145661591
 40
0.6668402217389687
 40
0.7968948941936455
 40
1.0
 40
1.0
 40
1.0
 40
1.0
 10
289.170225210114
 20
517.9175142806243
 30
0.0
 10
289.1889519263339
 20
517.9296834460297
 30
0.0
 10
289.2187423031045
 20
517.9490421001659
 30
0.0
 10
289.236385988712
 20
517.9479109862198
 30
0.0
 10
289.2351143587243
 20
517.9318564766464
 30
0.0
 10
289.2181229890454
 20
517.9025285018624
 30
0.0
 10
289.1863154024145
 20
517.8607257942703
 30
0.0
 10
289.1337761678073
 20
517.8000144388134
 30
0.0
 10
289.0889795648097
 20
517.753751028602
 30
0.0
 10
289.0616700893409
 20
517.7255473394442
 30
0.0
  0
SPLINE
  5
24A
330
1F
100
AcDbEntity
  8
0
  6
Continuous
 62
     7
370
    25
100
AcDbSpline
210
0.0
220
0.0
230
1.0
 70
     8
 71
     3
 72
    11
 73
     7
 74
     0
 42
0.000000001
 43
0.00000001
 40
0.0
 40
0.0
 40
0.0
 40
0.0
 40
0.1049083671508805
 40
0.4229451041602475
 40
0.7083613692849874
 40
0.9999999999999999
 40
0.9999999999999999
 40
0.9999999999999999
 40
0.9999999999999999
 10
288.8014659840371
 20
517.4378684693114
 30
0.0
 10
288.7990965602
 20
517.4519738278145
 30
0.0
 10
288.7895440694047
 20
517.5088405247556
 30
0.0
 10
288.8513881142815
 20
517.6215982585101
 30
0.0
 10
288.9714802731762
 20
517.7662908206604
 30
0.0
 10
289.1035023677097
 20
517.8667453944201
 30
0.0
 10
289.1702252101141
 20
517.9175142806243
 30
0.0
  0
SPLINE
  5
24B
330
1F
100
AcDbEntity
  8
0
  6
Continuous
 62
     7
370
    25
100
AcDbSpline
210
0.0
220
0.0
230
1.0
 70
     8
 71
     3
 72
    11
 73
     7
 74
     0
 42
0.000000001
 43
0.00000001
 40
0.0
 40
0.0
 40
0.0
 40
0.0
 40
0.2979383423231273
 40
0.6042349781303127
 40
0.9104330028157737
 40
1.0
 40
1.0
 40
1.0
 40
1.0
 10
296.3979968510246
 20
517.6450678765674
 30
0.0
 10
296.4799374979964
 20
517.5753851891357
 30
0.0
 10
296.6461175359364
 20
517.4340649522434
 30
0.0
 10
296.7862823522929
 20
517.2351601445382
 30
0.0
 10
296.8557073599383
 20
517.0817724584741
 30
0.0
 10
296.8431549724731
 20
517.006331596215
 30
0.0
 10
296.8403141967839
 20
516.9892583049333
 30
0.0
  0
SPLINE
  5
24C
330
1F
100
AcDbEntity
  8
0
  6
Continuous
 62
     7
370
    25
100
AcDbSpline
210
0.0
220
0.0
230
1.0
 70
     8
 71
     3
 72
    15
 73
    11
 74
     0
 42
0.000000001
 43
0.00000001
 40
0.0
 40
0.0
 40
0.0
 40
0.0
 40
0.2155767705933886
 40
0.3329005538677475
 40
0.4328760582230964
 40
0.5332634977247768
 40
0.6250838127945025
 40
0.7535547096888731
 40
0.9421338378892107
 40
1.0
 40
1.0
 40
1.0
 40
1.0
 10
296.4764297013218
 20
517.4468430211977
 30
0.0
 10
296.4489359898635
 20
517.4795064343757
 30
0.0
 10
296.4064793200322
 20
517.5299463231834
 30
0.0
 10
296.3583059211239
 20
517.5958088409433
 30
0.0
 10
296.3315725861866
 20
517.6386954597067
 30
0.0
 10
296.319224369316
 20
517.6677811324666
 30
0.0
 10
296.3202838760338
 20
517.6844819388846
 30
0.0
 10
296.3388402766172
 20
517.6852778571713
 30
0.0
 10
296.3691940459059
 20
517.6673622755413
 30
0.0
 10
296.392519870855
 20
517.6493072546616
 30
0.0
 10
296.3979968510246
 20
517.6450678765674
 30
0.0
  0
LWPOLYLINE
  5
24D
330
1F
100
AcDbEntity
  8
0
  6
Continuous
 62
     7
370
    25
100
AcDbPolyline
 90
       15
 70
   128
 43
0.0
 10
292.8178828875
 20
328.2392564712
 10
292.9831016604
 20
328.1229508634
 10
293.1885712613
 20
328.0251290054
 10
293.4266596722
 20
327.9494244185
 10
293.688523273
 20
327.8986490944
 10
293.9644353315
 20
327.8746890454
 10
294.2441472959
 20
327.87843425
 10
294.5172694698
 20
327.9097455952
 10
294.7736569295
 20
327.9674600441
 10
295.0037863501
 20
328.0494338356
 10
295.1991097425
 20
328.1526221131
 10
295.3523719621
 20
328.2731920235
 10
295.4578801956
 20
328.4066650856
 10
295.5117154167
 20
328.5480835399
 10
295.5185534867
 20
328.6205713601
  0
LWPOLYLINE
  5
24E
330
1F
100
AcDbEntity
  8
0
  6
Continuous
 62
     7
370
    25
100
AcDbPolyline
 90
       15
 70
   128
 43
0.0
 10
289.7547963211
 20
328.6747335868
 10
289.7552003171
 20
328.6570948072
 10
289.7887259087
 20
328.514021999
 10
289.874917888
 20
328.3769187054
 10
290.0105747169
 20
328.2508775279
 10
290.1906575215
 20
328.140580174
 10
290.4084772576
 20
328.0501235583
 10
290.6559431704
 20
327.9828676258
 10
290.9238633193
 20
327.9413105489
 10
291.2022860061
 20
327.9269959348
 10
291.4808694235
 20
327.9404554894
 10
291.7492657942
 20
327.9811892674
 10
291.997505731
 20
328.0476842425
 10
292.2163685428
 20
328.1374705072
 10
292.3977247304
 20
328.2472130165
  0
ARC
  5
24F
330
1F
100
AcDbEntity
  8
0
  6
Continuous
 62
     7
370
    25
100
AcDbCircle
 10
292.6015672396
 20
327.9139026783
 30
0.0
 40
0.3907013566541769
100
AcDbArc
 50
56.3815430532
 51
121.448693132
  0
LWPOLYLINE
  5
250
330
1F
100
AcDbEntity
  8
0
  6
Continuous
 62
     7
370
    25
100
AcDbPolyline
 90
       10
 70
   128
 43
0.0
 10
295.7324041938
 20
328.9978705865
 10
296.0119691584
 20
328.991884362
 10
296.2885716395
 20
329.013630488
 10
296.5519374401
 20
329.0623012205
 10
296.7922840299
 20
329.1360887206
 10
297.0006839104
 20
329.2322522056
 10
297.1693962204
 20
329.3472197532
 10
297.2921542644
 20
329.4767209778
 10
297.3643982845
 20
329.6159456509
 10
297.384029904
 20
329.7384961799
  0
ARC
  5
251
330
1F
100
AcDbEntity
  8
0
  6
Continuous
 62
     7
370
    25
100
AcDbCircle
 10
295.6938682626
 20
328.5928607878
 30
0.0
 40
0.406838979265351
100
AcDbArc
 50
84.5647754414
 51
115.52591659
  0
ARC
  5
252
330
1F
100
AcDbEntity
  8
0
  6
Continuous
 62
     7
370
    25
100
AcDbCircle
 10
289.6180786675
 20
328.6790527432
 30
0.0
 40
0.4353694513878996
100
AcDbArc
 50
71.6979304477
 51
92.4799025142
  0
LWPOLYLINE
  5
253
330
1F
100
AcDbEntity
  8
0
  6
Continuous
 62
     7
370
    25
100
AcDbPolyline
 90
       10
 70
   128
 43
0.0
 10
288.0537571992
 20
329.8601975986
 10
288.0597819678
 20
329.7921473977
 10
288.1119794539
 20
329.6505661727
 10
288.2159409943
 20
329.5167715539
 10
288.3678050136
 20
329.3957332445
 10
288.5619306335
 20
329.2919471242
 10
288.7911072
 20
329.2092682526
 10
289.0468221168
 20
329.1507676759
 10
289.3195770402
 20
329.1186183553
 10
289.5992406879
 20
329.1140144539
  0
SPLINE
  5
254
330
1F
100
AcDbEntity
  8
0
  6
Continuous
 62
     7
370
    25
100
AcDbSpline
210
0.0
220
0.0
230
1.0
 70
     8
 71
     3
 72
    27
 73
    23
 74
     0
 42
0.000000001
 43
0.00000001
 40
0.0
 40
0.0
 40
0.0
 40
0.0
 40
0.0885627570442147
 40
0.1796538943995937
 40
0.2695908295576359
 40
0.3157544754264168
 40
0.3623424134621827
 40
0.4187626527282489
 40
0.4469315743364942
 40
0.4757555362193693
 40
0.493736734595855
 40
0.5121853392428829
 40
0.5301891255062626
 40
0.5487612444758528
 40
0.5721476357447919
 40
0.5961816793253255
 40
0.6385637840833115
 40
0.6819638929543751
 40
0.7628695907407582
 40
0.8459362592691224
 40
0.9222273191770639
 40
1.0
 40
1.0
 40
1.0
 40
1.0
 10
645.0775622563365
 20
421.189526243209
 30
0.0
 10
645.1940435804162
 20
421.0827848411722
 30
0.0
 10
645.4303316567381
 20
420.866254674208
 30
0.0
 10
645.7661247356656
 20
420.5847894666752
 30
0.0
 10
646.0263920467272
 20
420.3780324605711
 30
0.0
 10
646.2178725626055
 20
420.2379384308921
 30
0.0
 10
646.3635386952938
 20
420.14188443891
 30
0.0
 10
646.4803414786421
 20
420.0820125176912
 30
0.0
 10
646.5704106008317
 20
420.0625003003469
 30
0.0
 10
646.6237077574333
 20
420.0705876344374
 30
0.0
 10
646.6632719037124
 20
420.0986328511646
 30
0.0
 10
646.6905862631429
 20
420.1377444804968
 30
0.0
 10
646.7111613117688
 20
420.1934208447964
 30
0.0
 10
646.7253025181998
 20
420.26935120832
 30
0.0
 10
646.7308814175178
 20
420.3672062489787
 30
0.0
 10
646.7254050979523
 20
420.5132769437886
 30
0.0
 10
646.7004675979897
 20
420.7039896526292
 30
0.0
 10
646.6358069879578
 20
420.9994879484399
 30
0.0
 10
646.5152915068494
 20
421.367590524689
 30
0.0
 10
646.3240601310611
 20
421.7780313180637
 30
0.0
 10
646.0936647315481
 20
422.1634517634495
 30
0.0
 10
645.9128596832252
 20
422.3886384665853
 30
0.0
 10
645.8215877639034
 20
422.502314621049
 30
0.0
  0
SPLINE
  5
255
330
1F
100
AcDbEntity
  8
0
  6
Continuous
 62
     7
370
    25
100
AcDbSpline
210
0.0
220
0.0
230
1.0
 70
     8
 71
     3
 72
    14
 73
    10
 74
     0
 42
0.000000001
 43
0.00000001
 40
0.0
 40
0.0
 40
0.0
 40
0.0
 40
0.220765348438307
 40
0.3402146168140888
 40
0.4605704991791176
 40
0.5641909618660997
 40
0.6633542991972022
 40
0.8105247403618681
 40
1.0
 40
1.0
 40
1.0
 40
1.0
 10
644.8035198375032
 20
421.0425352036778
 30
0.0
 10
644.7973164231215
 20
421.0831242391245
 30
0.0
 10
644.7877565340277
 20
421.1456747400929
 30
0.0
 10
644.8065005771628
 20
421.219689350028
 30
0.0
 10
644.8377206582929
 20
421.2610063248992
 30
0.0
 10
644.88112564775
 20
421.2791783482246
 30
0.0
 10
644.9346897650545
 20
421.2777379453576
 30
0.0
 10
645.0037951925794
 20
421.2514368160286
 30
0.0
 10
645.0509960584295
 20
421.2118224882578
 30
0.0
 10
645.0775622563365
 20
421.189526243209
 30
0.0
  0
SPLINE
  5
256
330
1F
100
AcDbEntity
  8
0
  6
Continuous
 62
     7
370
    25
100
AcDbSpline
210
0.0
220
0.0
230
1.0
 70
     8
 71
     3
 72
    23
 73
    19
 74
     0
 42
0.000000001
 43
0.00000001
 40
0.0
 40
0.0
 40
0.0
 40
0.0
 40
0.0863901050636673
 40
0.1752766177962506
 40
0.2621177065427337
 40
0.3519363559727531
 40
0.4192459175638973
 40
0.4528076006128828
 40
0.4875598503476024
 40
0.5342326170542431
 40
0.5808027178643163
 40
0.617415928196372
 40
0.6550189806174123
 40
0.7176192476618286
 40
0.7818570182170476
 40
0.8689416197544361
 40
0.9585429605715617
 40
1.0
 40
1.0
 40
1.0
 40
1.0
 10
642.1630409501244
 20
420.5410803354023
 30
0.0
 10
642.2265177824293
 20
420.4032282362154
 30
0.0
 10
642.3553057317741
 20
420.1235405372158
 30
0.0
 10
642.6166812689495
 20
419.7345008745261
 30
0.0
 10
642.9219179134539
 20
419.3749810010809
 30
0.0
 10
643.2431215070296
 20
419.0918163563452
 30
0.0
 10
643.5260290191418
 20
418.9273878751706
 30
0.0
 10
643.7423675356957
 20
418.859202796665
 30
0.0
 10
643.9322610452288
 20
418.839889559546
 30
0.0
 10
644.1425683479317
 20
418.8851947956062
 30
0.0
 10
644.3273247654096
 20
419.0056601044242
 30
0.0
 10
644.4682810182762
 20
419.1552200110926
 30
0.0
 10
644.6003000636896
 20
419.3488402480806
 30
0.0
 10
644.7199203493994
 20
419.6062952908302
 30
0.0
 10
644.8226184009386
 20
419.9608404583178
 30
0.0
 10
644.873895944474
 20
420.3737780965379
 30
0.0
 10
644.8595443652074
 20
420.750742964673
 30
0.0
 10
644.8169830459422
 20
420.9724148493339
 30
0.0
 10
644.8035198375032
 20
421.0425352036778
 30
0.0
  0
SPLINE
  5
257
330
1F
100
AcDbEntity
  8
0
  6
Continuous
 62
     7
370
    25
100
AcDbSpline
210
0.0
220
0.0
230
1.0
 70
     8
 71
     3
 72
    14
 73
    10
 74
     0
 42
0.000000001
 43
0.00000001
 40
0.0
 40
0.0
 40
0.0
 40
0.0
 40
0.2243030424882868
 40
0.3489011866266555
 40
0.4744001356117536
 40
0.5826741857065961
 40
0.6867417687947411
 40
0.838156487169633
 40
1.0
 40
1.0
 40
1.0
 40
1.0
 10
641.7428827929886
 20
420.5564341316323
 30
0.0
 10
641.7644363959278
 20
420.5929327676524
 30
0.0
 10
641.7979628142864
 20
420.649706038654
 30
0.0
 10
641.8738180416483
 20
420.7000867448295
 30
0.0
 10
641.9410969093337
 20
420.7167850661865
 30
0.0
 10
642.005646310834
 20
420.7075447403044
 30
0.0
 10
642.0673284954382
 20
420.6763900531561
 30
0.0
 10
642.1242106454847
 20
420.6206425320528
 30
0.0
 10
642.1498133983713
 20
420.5681832150614
 30
0.0
 10
642.1630409501244
 20
420.5410803354023
 30
0.0
  0
SPLINE
  5
258
330
1F
100
AcDbEntity
  8
0
  6
Continuous
 62
     7
370
    25
100
AcDbSpline
210
0.0
220
0.0
230
1.0
 70
     8
 71
     3
 72
    26
 73
    22
 74
     0
 42
0.000000001
 43
0.00000001
 40
0.0
 40
0.0
 40
0.0
 40
0.0
 40
0.085426115936091
 40
0.1733276547195567
 40
0.2448517261352448
 40
0.3181224083912687
 40
0.3577740645396619
 40
0.3980844094313166
 40
0.428768203281526
 40
0.4601978879083184
 40
0.4855692359538049
 40
0.5116681185372409
 40
0.5370453561645167
 40
0.5630880149114006
 40
0.5995557531473523
 40
0.6370345873825443
 40
0.6960497304231478
 40
0.7566321175831344
 40
0.84014230632423
 40
0.9260534647419588
 40
1.0
 40
1.0
 40
1.0
 40
1.0
 10
639.1942849839475
 20
421.2490884062843
 30
0.0
 10
639.1621833099484
 20
421.1087688193843
 30
0.0
 10
639.097049740362
 20
420.8240635551674
 30
0.0
 10
639.0946594413181
 20
420.4113118722178
 30
0.0
 10
639.1501885379954
 20
420.025685044123
 30
0.0
 10
639.24356113381
 20
419.73073328692
 30
0.0
 10
639.357198226801
 20
419.5028527513431
 30
0.0
 10
639.460422227225
 20
419.3515759322277
 30
0.0
 10
639.5753377515977
 20
419.2291663114457
 30
0.0
 10
639.6887968529583
 20
419.1431836006659
 30
0.0
 10
639.8083069854596
 20
419.0836784748593
 30
0.0
 10
639.9268852704345
 20
419.0501437034966
 30
0.0
 10
640.0506530450149
 20
419.0393150810246
 30
0.0
 10
640.1917196847278
 20
419.0514024266869
 30
0.0
 10
640.3493968996464
 20
419.0940582357352
 30
0.0
 10
640.5501235958653
 20
419.1847093171555
 30
0.0
 10
640.7727113813512
 20
419.3300518362906
 30
0.0
 10
641.0376257480979
 20
419.5573384375253
 30
0.0
 10
641.3071509206869
 20
419.8536629071234
 30
0.0
 10
641.5566934215799
 20
420.1991431672695
 30
0.0
 10
641.6839956677201
 20
420.4434317748566
 30
0.0
 10
641.7428827929886
 20
420.5564341316323
 30
0.0
  0
SPLINE
  5
259
330
1F
100
AcDbEntity
  8
0
  6
Continuous
 62
     7
370
    25
100
AcDbSpline
210
0.0
220
0.0
230
1.0
 70
     8
 71
     3
 72
    14
 73
    10
 74
     0
 42
0.000000001
 43
0.00000001
 40
0.0
 40
0.0
 40
0.0
 40
0.0
 40
0.2239799089305531
 40
0.3530600787849406
 40
0.4831615846560053
 40
0.5937368434043864
 40
0.6971871626480907
 40
0.8442013099709667
 40
1.0
 40
1.0
 40
1.0
 40
1.0
 10
638.9443987504969
 20
421.4158383181012
 30
0.0
 10
638.9769524779584
 20
421.4392006901876
 30
0.0
 10
639.0282669982525
 20
421.4760268545022
 30
0.0
 10
639.1030020641589
 20
421.4923077434408
 30
0.0
 10
639.1548366275191
 20
421.4817634170701
 30
0.0
 10
639.1896966382703
 20
421.4487658950636
 30
0.0
 10
639.2096659397813
 20
421.398469919127
 30
0.0
 10
639.2132664568585
 20
421.3301386332847
 30
0.0
 10
639.2007333360664
 20
421.2766226448268
 30
0.0
 10
639.1942849839475
 20
421.2490884062843
 30
0.0
  0
SPLINE
  5
25A
330
1F
100
AcDbEntity
  8
0
  6
Continuous
 62
     7
370
    25
100
AcDbSpline
210
0.0
220
0.0
230
1.0
 70
     8
 71
     3
 72
    24
 73
    20
 74
     0
 42
0.000000001
 43
0.00000001
 40
0.0
 40
0.0
 40
0.0
 40
0.0
 40
0.0875562630610312
 40
0.1776478778994356
 40
0.2471757028850856
 40
0.3182848495519417
 40
0.3544514774164556
 40
0.3911558340110754
 40
0.4196735717850664
 40
0.4488792169076932
 40
0.4956340312872254
 40
0.5423649618835424
 40
0.576362733126496
 40
0.6112927856933148
 40
0.6689340598446847
 40
0.7280698917726421
 40
0.8133417532352668
 40
0.9010570727560779
 40
0.9999999999999999
 40
0.9999999999999999
 40
0.9999999999999999
 40
0.9999999999999999
 10
638.4068281519226
 20
422.7810189392955
 30
0.0
 10
638.302309708442
 20
422.6671394939377
 30
0.0
 10
638.0902462987381
 20
422.4360830155442
 30
0.0
 10
637.8431184025704
 20
422.0693453718012
 30
0.0
 10
637.6497460481391
 20
421.7106627047309
 30
0.0
 10
637.5322637726705
 20
421.4268841491882
 30
0.0
 10
637.4602918549847
 20
421.1977185251325
 30
0.0
 10
637.4229968555843
 20
421.040089711074
 30
0.0
 10
637.4021264105392
 20
420.9013183819621
 30
0.0
 10
637.3951702859332
 20
420.7614848326534
 30
0.0
 10
637.4169418888291
 20
420.6312896219993
 30
0.0
 10
637.4781539800473
 20
420.562751193976
 30
0.0
 10
637.5542999188824
 20
420.5453991899677
 30
0.0
 10
637.6519396050845
 20
420.5576637026439
 30
0.0
 10
637.7867592876938
 20
420.6095483100293
 30
0.0
 10
637.9880909728261
 20
420.7183383679021
 30
0.0
 10
638.2455291493596
 20
420.8846452505479
 30
0.0
 10
638.5744230553914
 20
421.118803464914
 30
0.0
 10
638.8162253338087
 20
421.3129343368069
 30
0.0
 10
638.9443987504969
 20
421.4158383181012
 30
0.0
  0
SPLINE
  5
25B
330
1F
100
AcDbEntity
  8
0
  6
Continuous
 62
     7
370
    25
100
AcDbSpline
210
0.0
220
0.0
230
1.0
 70
     8
 71
     3
 72
    14
 73
    10
 74
     0
 42
0.000000001
 43
0.00000001
 40
0.0
 40
0.0
 40
0.0
 40
0.0
 40
0.2200911109485839
 40
0.3501199592092674
 40
0.4590676183976911
 40
0.5685351145661591
 40
0.6668402217389687
 40
0.7968948941936455
 40
1.0
 40
1.0
 40
1.0
 40
1.0
 10
638.5153832726958
 20
422.9729858804755
 30
0.0
 10
638.5341099889155
 20
422.9851550458809
 30
0.0
 10
638.5639003656861
 20
423.0045137000172
 30
0.0
 10
638.5815440512936
 20
423.003382586071
 30
0.0
 10
638.580272421306
 20
422.9873280764977
 30
0.0
 10
638.5632810516271
 20
422.9580001017137
 30
0.0
 10
638.531473464996
 20
422.9161973941215
 30
0.0
 10
638.478934230389
 20
422.8554860386646
 30
0.0
 10
638.4341376273912
 20
422.8092226284533
 30
0.0
 10
638.4068281519226
 20
422.7810189392955
 30
0.0
  0
SPLINE
  5
25C
330
1F
100
AcDbEntity
  8
0
  6
Continuous
 62
     7
370
    25
100
AcDbSpline
210
0.0
220
0.0
230
1.0
 70
     8
 71
     3
 72
    11
 73
     7
 74
     0
 42
0.000000001
 43
0.00000001
 40
0.0
 40
0.0
 40
0.0
 40
0.0
 40
0.1049083671508919
 40
0.4229451041602549
 40
0.7083613692849912
 40
1.0
 40
1.0
 40
1.0
 40
1.0
 10
638.1466240466187
 20
422.4933400691626
 30
0.0
 10
638.1442546227815
 20
422.5074454276659
 30
0.0
 10
638.1347021319862
 20
422.5643121246069
 30
0.0
 10
638.1965461768632
 20
422.6770698583613
 30
0.0
 10
638.3166383357578
 20
422.8217624205115
 30
0.0
 10
638.4486604302912
 20
422.9222169942715
 30
0.0
 10
638.5153832726958
 20
422.9729858804755
 30
0.0
  0
SPLINE
  5
25D
330
1F
100
AcDbEntity
  8
0
  6
Continuous
 62
     7
370
    25
100
AcDbSpline
210
0.0
220
0.0
230
1.0
 70
     8
 71
     3
 72
    11
 73
     7
 74
     0
 42
0.000000001
 43
0.00000001
 40
0.0
 40
0.0
 40
0.0
 40
0.0
 40
0.2979383423231288
 40
0.6042349781303157
 40
0.9104330028157782
 40
1.0
 40
1.0
 40
1.0
 40
1.0
 10
645.7431549136061
 20
422.7005394764187
 30
0.0
 10
645.825095560578
 20
422.6308567889869
 30
0.0
 10
645.991275598518
 20
422.4895365520946
 30
0.0
 10
646.1314404148743
 20
422.2906317443894
 30
0.0
 10
646.2008654225201
 20
422.1372440583253
 30
0.0
 10
646.1883130350548
 20
422.0618031960662
 30
0.0
 10
646.1854722593656
 20
422.0447299047844
 30
0.0
  0
SPLINE
  5
25E
330
1F
100
AcDbEntity
  8
0
  6
Continuous
 62
     7
370
    25
100
AcDbSpline
210
0.0
220
0.0
230
1.0
 70
     8
 71
     3
 72
    15
 73
    11
 74
     0
 42
0.000000001
 43
0.00000001
 40
0.0
 40
0.0
 40
0.0
 40
0.0
 40
0.2155767705933886
 40
0.3329005538677475
 40
0.4328760582230964
 40
0.5332634977247768
 40
0.6250838127945025
 40
0.7535547096888731
 40
0.9421338378892107
 40
1.0
 40
1.0
 40
1.0
 40
1.0
 10
645.8215877639034
 20
422.502314621049
 30
0.0
 10
645.7940940524451
 20
422.534978034227
 30
0.0
 10
645.7516373826139
 20
422.5854179230345
 30
0.0
 10
645.7034639837054
 20
422.6512804407946
 30
0.0
 10
645.6767306487683
 20
422.6941670595579
 30
0.0
 10
645.6643824318976
 20
422.7232527323179
 30
0.0
 10
645.6654419386155
 20
422.7399535387358
 30
0.0
 10
645.6839983391988
 20
422.7407494570225
 30
0.0
 10
645.7143521084876
 20
422.7228338753924
 30
0.0
 10
645.7376779334368
 20
422.7047788545128
 30
0.0
 10
645.7431549136061
 20
422.7005394764187
 30
0.0
  0
LWPOLYLINE
  5
25F
330
1F
100
AcDbEntity
  8
0
  6
Continuous
 62
     7
370
    25
100
AcDbPolyline
 90
       15
 70
   128
 43
0.0
 10
642.1630409501
 20
233.294728071
 10
642.328259723
 20
233.1784224632
 10
642.5337293239
 20
233.0806006052
 10
642.7718177348
 20
233.0048960184
 10
643.0336813356
 20
232.9541206943
 10
643.3095933941
 20
232.9301606453
 10
643.5893053585
 20
232.9339058498
 10
643.8624275324
 20
232.965217195
 10
644.118814992
 20
233.0229316439
 10
644.3489444127
 20
233.1049054355
 10
644.5442678051
 20
233.208093713
 10
644.6975300247
 20
233.3286636234
 10
644.8030382581
 20
233.4621366854
 10
644.8568734793
 20
233.6035551397
 10
644.8637115493
 20
233.67604296
  0
LWPOLYLINE
  5
260
330
1F
100
AcDbEntity
  8
0
  6
Continuous
 62
     7
370
    25
100
AcDbPolyline
 90
       15
 70
   128
 43
0.0
 10
639.0999543837
 20
233.7302051867
 10
639.1003583796
 20
233.712566407
 10
639.1338839713
 20
233.5694935989
 10
639.2200759506
 20
233.4323903052
 10
639.3557327795
 20
233.3063491277
 10
639.5358155841
 20
233.1960517738
 10
639.7536353202
 20
233.1055951582
 10
640.001101233
 20
233.0383392257
 10
640.2690213818
 20
232.9967821487
 10
640.5474440686
 20
232.9824675346
 10
640.8260274861
 20
232.9959270892
 10
641.0944238568
 20
233.0366608673
 10
641.3426637936
 20
233.1031558423
 10
641.5615266054
 20
233.1929421071
 10
641.742882793
 20
233.3026846163
  0
ARC
  5
261
330
1F
100
AcDbEntity
  8
0
  6
Continuous
 62
     7
370
    25
100
AcDbCircle
 10
641.9467253022
 20
232.9693742781
 30
0.0
 40
0.3907013566542066
100
AcDbArc
 50
56.3815430532
 51
121.448693132
  0
LWPOLYLINE
  5
262
330
1F
100
AcDbEntity
  8
0
  6
Continuous
 62
     7
370
    25
100
AcDbPolyline
 90
       10
 70
   128
 43
0.0
 10
645.0775622563
 20
234.0533421864
 10
645.357127221
 20
234.0473559619
 10
645.6337297021
 20
234.0691020879
 10
645.8970955027
 20
234.1177728203
 10
646.1374420925
 20
234.1915603205
 10
646.345841973
 20
234.2877238055
 10
646.514554283
 20
234.4026913531
 10
646.6373123269
 20
234.5321925776
 10
646.709556347
 20
234.6714172508
 10
646.7291879666
 20
234.7939677797
  0
ARC
  5
263
330
1F
100
AcDbEntity
  8
0
  6
Continuous
 62
     7
370
    25
100
AcDbCircle
 10
645.0390263252
 20
233.6483323876
 30
0.0
 40
0.4068389792653988
100
AcDbArc
 50
84.5647754414
 51
115.5259165901
  0
ARC
  5
264
330
1F
100
AcDbEntity
  8
0
  6
Continuous
 62
     7
370
    25
100
AcDbCircle
 10
638.9632367301
 20
233.7345243431
 30
0.0
 40
0.4353694513882051
100
AcDbArc
 50
71.6979304477
 51
92.4799025142
  0
LWPOLYLINE
  5
265
330
1F
100
AcDbEntity
  8
0
  6
Continuous
 62
     7
370
    25
100
AcDbPolyline
 90
       10
 70
   128
 43
0.0
 10
637.3989152618
 20
234.9156691985
 10
637.4049400304
 20
234.8476189976
 10
637.4571375165
 20
234.7060377726
 10
637.5610990569
 20
234.5722431537
 10
637.7129630761
 20
234.4512048444
 10
637.9070886961
 20
234.3474187241
 10
638.1362652626
 20
234.2647398525
 10
638.3919801794
 20
234.2062392758
 10
638.6647351028
 20
234.1740899552
 10
638.9443987505
 20
234.1694860537
  0
SPLINE
  5
266
330
1F
100
AcDbEntity
  8
0
  6
Continuous
 62
     7
370
    25
100
AcDbSpline
210
0.0
220
0.0
230
1.0
 70
     8
 71
     3
 72
    16
 73
    12
 74
     0
 42
0.000000001
 43
0.00000001
 40
0.0
 40
0.0
 40
0.0
 40
0.0
 40
0.0121781782513085
 40
0.0633741079993571
 40
0.1159878350408936
 40
0.2087679152513074
 40
0.303776542245917
 40
0.4808899058451064
 40
0.662733922627243
 40
0.8297452284133847
 40
1.0
 40
1.0
 40
1.0
 40
1.0
 10
872.8419427029742
 20
651.0285761519586
 30
0.0
 10
872.8405550837421
 20
651.0249138381963
 30
0.0
 10
872.8333340421987
 20
651.0058554976866
 30
0.0
 10
872.8305004438172
 20
650.990836708765
 30
0.0
 10
872.8352695780535
 20
650.9818508996757
 30
0.0
 10
872.8605235744951
 20
651.0018229755356
 30
0.0
 10
872.9250634320558
 20
651.0636211911068
 30
0.0
 10
873.0456357570554
 20
651.1777301990993
 30
0.0
 10
873.2368490256492
 20
651.3414765277491
 30
0.0
 10
873.4672488675974
 20
651.5249821726775
 30
0.0
 10
873.6480533319954
 20
651.661260326716
 30
0.0
 10
873.739324956547
 20
651.7300546927811
 30
0.0
  0
SPLINE
  5
267
330
1F
100
AcDbEntity
  8
0
  6
Continuous
 62
     7
370
    25
100
AcDbSpline
210
0.0
220
0.0
230
1.0
 70
     8
 71
     3
 72
    13
 73
     9
 74
     0
 42
0.000000001
 43
0.00000001
 40
0.0
 40
0.0
 40
0.0
 40
0.0
 40
0.3100454659530977
 40
0.4887254270214691
 40
0.6688191782940482
 40
0.8218836106586314
 40
0.9650853048911973
 40
1.0
 40
1.0
 40
1.0
 40
1.0
 10
880.6165139699534
 20
653.27898013189
 30
0.0
 10
880.5839447629294
 20
653.3034998601474
 30
0.0
 10
880.5326058421631
 20
653.3421503678278
 30
0.0
 10
880.4579952918115
 20
653.3967907175803
 30
0.0
 10
880.4057707283083
 20
653.434816414429
 30
0.0
 10
880.3721427204415
 20
653.4591352786064
 30
0.0
 10
880.3557787826827
 20
653.470947536631
 30
0.0
 10
880.3550424059862
 20
653.4712481686565
 30
0.0
 10
880.3548980601012
 20
653.471307099087
 30
0.0
  0
SPLINE
  5
268
330
1F
100
AcDbEntity
  8
0
  6
Continuous
 62
     7
370
    25
100
AcDbSpline
210
0.0
220
0.0
230
1.0
 70
     8
 71
     3
 72
    19
 73
    15
 74
     0
 42
0.000000001
 43
0.00000001
 40
0.0
 40
0.0
 40
0.0
 40
0.0
 40
0.1466807018366625
 40
0.2976088117410802
 40
0.4140869460232956
 40
0.5332142268761816
 40
0.5938032261409683
 40
0.6552930681869811
 40
0.7030680833057412
 40
0.7519955314906106
 40
0.830322640799196
 40
0.9086097382347066
 40
0.9655653091151434
 40
0.9999999999999999
 40
0.9999999999999999
 40
0.9999999999999999
 40
0.9999999999999999
 10
881.1540845685278
 20
651.7279320426586
 30
0.0
 10
881.2586030143086
 20
651.6568738276054
 30
0.0
 10
881.4706664286799
 20
651.5126997768843
 30
0.0
 10
881.7177942918138
 20
651.3490836645905
 30
0.0
 10
881.9111667461549
 20
651.2248304632894
 30
0.0
 10
882.0286487218772
 20
651.1567067220716
 30
0.0
 10
882.1006212664594
 20
651.1276806777967
 30
0.0
 10
882.1379144555475
 20
651.1244419183579
 30
0.0
 10
882.1587903255074
 20
651.1412787221972
 30
0.0
 10
882.1657229673758
 20
651.184282319607
 30
0.0
 10
882.1440933923918
 20
651.2813086374697
 30
0.0
 10
882.0823605384027
 20
651.4360143457596
 30
0.0
 10
882.0169508394599
 20
651.5759013201184
 30
0.0
 10
881.9741543960258
 20
651.6557130163919
 30
0.0
 10
881.9580292392295
 20
651.6857850507323
 30
0.0
  0
LINE
  5
269
330
1F
100
AcDbEntity
  8
0
  6
Continuous
 62
     7
370
    25
100
AcDbLine
 10
880.9135106092
 20
653.0245188272
 30
0.0
 11
880.61651397
 21
653.2789801319
 31
0.0
  0
SPLINE
  5
26A
330
1F
100
AcDbEntity
  8
0
  6
Continuous
 62
     7
370
    25
100
AcDbSpline
210
0.0
220
0.0
230
1.0
 70
     8
 71
     3
 72
    14
 73
    10
 74
     0
 42
0.000000001
 43
0.00000001
 40
0.0
 40
0.0
 40
0.0
 40
0.0
 40
0.2200911109485839
 40
0.3501199592092674
 40
0.4590676183976911
 40
0.5685351145661591
 40
0.6668402217389687
 40
0.7968948941936455
 40
1.0
 40
1.0
 40
1.0
 40
1.0
 10
881.0455294477546
 20
651.5014961544641
 30
0.0
 10
881.0268027315349
 20
651.5393600138187
 30
0.0
 10
880.9970123547641
 20
651.5995936726682
 30
0.0
 10
880.9793686691569
 20
651.6768813038428
 30
0.0
 10
880.9806402991444
 20
651.7276179925743
 30
0.0
 10
880.9976316688233
 20
651.760092303756
 30
0.0
 10
881.0294392554542
 20
651.7753454792545
 30
0.0
 10
881.0819784900615
 20
651.7709831762558
 30
0.0
 10
881.126775093059
 20
651.7442372405266
 30
0.0
 10
881.1540845685278
 20
651.7279320426586
 30
0.0
  0
SPLINE
  5
26B
330
1F
100
AcDbEntity
  8
0
  6
Continuous
 62
     7
370
    25
100
AcDbSpline
210
0.0
220
0.0
230
1.0
 70
     8
 71
     3
 72
    27
 73
    23
 74
     0
 42
0.000000001
 43
0.00000001
 40
0.0
 40
0.0
 40
0.0
 40
0.0
 40
0.0910683471803953
 40
0.184746416470903
 40
0.2588266946055622
 40
0.3345190598259249
 40
0.3626447427195189
 40
0.391005648284741
 40
0.4191743039829868
 40
0.44812036069796
 40
0.4657704782447506
 40
0.4839081706433153
 40
0.5015721548764637
 40
0.5197440214872907
 40
0.5448446854435505
 40
0.5706253690117592
 40
0.6177938154944738
 40
0.6660858441031505
 40
0.7518796859636191
 40
0.840039794008302
 40
0.9191574739584829
 40
1.0
 40
1.0
 40
1.0
 40
1.0
 10
879.167271210694
 20
650.2548552077236
 30
0.0
 10
879.2702490898906
 20
650.1178218767299
 30
0.0
 10
879.4791558587776
 20
649.8398282859595
 30
0.0
 10
879.8028216613003
 20
649.493431456367
 30
0.0
 10
880.1151542764859
 20
649.2036648297776
 30
0.0
 10
880.3497879728105
 20
649.0241133209147
 30
0.0
 10
880.5280002476137
 20
648.9188702851595
 30
0.0
 10
880.6441415921531
 20
648.8647274259872
 30
0.0
 10
880.7635827095045
 20
648.8285822680249
 30
0.0
 10
880.8696946828467
 20
648.8206858210522
 30
0.0
 10
880.9599514137705
 20
648.8373869495571
 30
0.0
 10
881.0315730630261
 20
648.8679736103853
 30
0.0
 10
881.0984912007116
 20
648.915662318827
 30
0.0
 10
881.1659954925161
 20
648.9857421419069
 30
0.0
 10
881.2306499904251
 20
649.082033936537
 30
0.0
 10
881.304009282853
 20
649.2359294485632
 30
0.0
 10
881.3674717763092
 20
649.4444816890594
 30
0.0
 10
881.4216917763433
 20
649.7702597822887
 30
0.0
 10
881.431046736868
 20
650.1812674161429
 30
0.0
 10
881.3674779088219
 20
650.6470992084744
 30
0.0
 10
881.2435129128794
 20
651.0946555426128
 30
0.0
 10
881.1119966481058
 20
651.3649112308603
 30
0.0
 10
881.0455294477546
 20
651.5014961544641
 30
0.0
  0
SPLINE
  5
26C
330
1F
100
AcDbEntity
  8
0
  6
Continuous
 62
     7
370
    25
100
AcDbSpline
210
0.0
220
0.0
230
1.0
 70
     8
 71
     3
 72
    15
 73
    11
 74
     0
 42
0.000000001
 43
0.00000001
 40
0.0
 40
0.0
 40
0.0
 40
0.0
 40
0.2150763736126738
 40
0.3413349926978222
 40
0.446593490352974
 40
0.5524796219272535
 40
0.6449070621726983
 40
0.7662146539024285
 40
0.9406316560516657
 40
1.0
 40
1.0
 40
1.0
 40
1.0
 10
878.7820189557603
 20
650.1536149181843
 30
0.0
 10
878.7893911195314
 20
650.1945424564024
 30
0.0
 10
878.8010910446543
 20
650.2594961318067
 30
0.0
 10
878.846797477765
 20
650.331113918696
 30
0.0
 10
878.8959664334635
 20
650.3710832036722
 30
0.0
 10
878.9514797877324
 20
650.3872290567174
 30
0.0
 10
879.0124855867255
 20
650.3810994247775
 30
0.0
 10
879.0812883294509
 20
650.3489593854208
 30
0.0
 10
879.132994240229
 20
650.300849479874
 30
0.0
 10
879.1603295720888
 20
650.2641697886462
 30
0.0
 10
879.167271210694
 20
650.2548552077236
 30
0.0
  0
SPLINE
  5
26D
330
1F
100
AcDbEntity
  8
0
  6
Continuous
 62
     7
370
    25
100
AcDbSpline
210
0.0
220
0.0
230
1.0
 70
     8
 71
     3
 72
    10
 73
     6
 74
     0
 42
0.000000001
 43
0.00000001
 40
0.0
 40
0.0
 40
0.0
 40
0.0
 40
0.4787893468175463
 40
0.9710174308862946
 40
1.0
 40
1.0
 40
1.0
 40
1.0
 10
875.902298645057
 20
650.1522034522177
 30
0.0
 10
875.9233505326836
 20
649.9719611693342
 30
0.0
 10
875.9660451957423
 20
649.6064175338583
 30
0.0
 10
876.0652185183975
 20
649.2310371243894
 30
0.0
 10
876.1483528514009
 20
649.048380844083
 30
0.0
 10
876.1529756397827
 20
649.0382240135659
 30
0.0
  0
SPLINE
  5
26E
330
1F
100
AcDbEntity
  8
0
  6
Continuous
 62
     7
370
    25
100
AcDbSpline
210
0.0
220
0.0
230
1.0
 70
     8
 71
     3
 72
    11
 73
     7
 74
     0
 42
0.000000001
 43
0.00000001
 40
0.0
 40
0.0
 40
0.0
 40
0.0
 40
0.1926194731675706
 40
0.4826179747733278
 40
0.7789736208158903
 40
1.0
 40
1.0
 40
1.0
 40
1.0
 10
878.1826351418288
 20
648.4866060512522
 30
0.0
 10
878.2422641673038
 20
648.5849646994749
 30
0.0
 10
878.3916677506445
 20
648.8314073401177
 30
0.0
 10
878.5742229008625
 20
649.2623256262095
 30
0.0
 10
878.7189782808525
 20
649.7231224804199
 30
0.0
 10
878.7631491107898
 20
650.0247564379492
 30
0.0
 10
878.7820189557603
 20
650.1536149181844
 30
0.0
  0
SPLINE
  5
26F
330
1F
100
AcDbEntity
  8
0
  6
Continuous
 62
     7
370
    25
100
AcDbSpline
210
0.0
220
0.0
230
1.0
 70
     8
 71
     3
 72
    15
 73
    11
 74
     0
 42
0.000000001
 43
0.00000001
 40
0.0
 40
0.0
 40
0.0
 40
0.0
 40
0.21292940532031
 40
0.3333107283176499
 40
0.4345062010027768
 40
0.5362836886507053
 40
0.6256367151021829
 40
0.745636854756794
 40
0.9211927176880819
 40
1.0
 40
1.0
 40
1.0
 40
1.0
 10
875.5304520616417
 20
650.2532633858816
 30
0.0
 10
875.5575517223944
 20
650.2857619703844
 30
0.0
 10
875.5999723906391
 20
650.3366338866127
 30
0.0
 10
875.6743956683316
 20
650.3773841610878
 30
0.0
 10
875.734604107498
 20
650.3892795476604
 30
0.0
 10
875.7880973949732
 20
650.378216366824
 30
0.0
 10
875.8353051828741
 20
650.3456757896488
 30
0.0
 10
875.8765570537563
 20
650.2862784131402
 30
0.0
 10
875.8967258374655
 20
650.216523751847
 30
0.0
 10
875.9009804673773
 20
650.167417611675
 30
0.0
 10
875.902298645057
 20
650.1522034522177
 30
0.0
  0
SPLINE
  5
270
330
1F
100
AcDbEntity
  8
0
  6
Continuous
 62
     7
370
    25
100
AcDbSpline
210
0.0
220
0.0
230
1.0
 70
     8
 71
     3
 72
    11
 73
     7
 74
     0
 42
0.000000001
 43
0.00000001
 40
0.0
 40
0.0
 40
0.0
 40
0.0
 40
0.3030438973969797
 40
0.6145893183415719
 40
0.9260344383365752
 40
1.0
 40
1.0
 40
1.0
 40
1.0
 10
873.8177578068443
 20
651.50279472721
 30
0.0
 10
873.7357842439645
 20
651.340552591123
 30
0.0
 10
873.5695374507934
 20
651.0115168155127
 30
0.0
 10
873.4298840179882
 20
650.4765297318777
 30
0.0
 10
873.360667872766
 20
650.0642294026422
 30
0.0
 10
873.372134734083
 20
649.837006137675
 30
0.0
 10
873.3743353810245
 20
649.7933988968377
 30
0.0
  0
SPLINE
  5
271
330
1F
100
AcDbEntity
  8
0
  6
Continuous
 62
     7
370
    25
100
AcDbSpline
210
0.0
220
0.0
230
1.0
 70
     8
 71
     3
 72
    10
 73
     6
 74
     0
 42
0.000000001
 43
0.00000001
 40
0.0
 40
0.0
 40
0.0
 40
0.0
 40
0.040024986256389
 40
0.5138669198253445
 40
1.0
 40
1.0
 40
1.0
 40
1.0
 10
874.8159365985138
 20
649.4016025757018
 30
0.0
 10
874.8256110559226
 20
649.4113288035901
 30
0.0
 10
874.9498180599641
 20
649.5362004708645
 30
0.0
 10
875.1955809069344
 20
649.816757858411
 30
0.0
 10
875.4178796014056
 20
650.1065248554253
 30
0.0
 10
875.5304520616415
 20
650.2532633858816
 30
0.0
  0
SPLINE
  5
272
330
1F
100
AcDbEntity
  8
0
  6
Continuous
 62
     7
370
    25
100
AcDbSpline
210
0.0
220
0.0
230
1.0
 70
     8
 71
     3
 72
    15
 73
    11
 74
     0
 42
0.000000001
 43
0.00000001
 40
0.0
 40
0.0
 40
0.0
 40
0.0
 40
0.2155767705933886
 40
0.3329005538677475
 40
0.4328760582230964
 40
0.5332634977247768
 40
0.6250838127945025
 40
0.7535547096888731
 40
0.9421338378892107
 40
1.0
 40
1.0
 40
1.0
 40
1.0
 10
873.739324956547
 20
651.7300546927811
 30
0.0
 10
873.7668186680053
 20
651.7481531135093
 30
0.0
 10
873.8092753378365
 20
651.776101274473
 30
0.0
 10
873.8574487367448
 20
651.7815126961755
 30
0.0
 10
873.8841820716821
 20
651.7679628375403
 30
0.0
 10
873.8965302885528
 20
651.7379461632795
 30
0.0
 10
873.895470781835
 20
651.6914082574614
 30
0.0
 10
873.8769143812516
 20
651.6217040162012
 30
0.0
 10
873.8465606119628
 20
651.5549170195586
 30
0.0
 10
873.8232347870136
 20
651.5127060105174
 30
0.0
 10
873.8177578068443
 20
651.50279472721
 30
0.0
  0
LWPOLYLINE
  5
273
330
1F
100
AcDbEntity
  8
0
  6
Continuous
 62
     7
370
    25
100
AcDbPolyline
 90
       16
 70
   128
 43
0.0
 10
875.9022986451
 20
463.207538111
 10
875.9531762344
 20
463.0658294942
 10
876.0558898397
 20
462.931779443
 10
876.2066242392
 20
462.8103671485
 10
876.3997805138
 20
462.7061023818
 10
876.6281840147
 20
462.6228579813
 10
876.8833508609
 20
462.5637259995
 10
877.1558030662
 20
462.5309028507
 10
877.4354205926
 20
462.5256077268
 10
877.7118172514
 20
462.5480373112
 10
877.9747264906
 20
462.5973584735
 10
878.2143827387
 20
462.671739215
 10
878.4218841394
 20
462.7684167176
 10
878.5895232048
 20
462.883799966
 10
878.7110731043
 20
463.0136031337
 10
878.7820189558
 20
463.153004777
  0
LWPOLYLINE
  5
274
330
1F
100
AcDbEntity
  8
0
  6
Continuous
 62
     7
370
    25
100
AcDbPolyline
 90
       13
 70
   128
 43
0.0
 10
879.1672712107
 20
463.2397275114
 10
879.4141075628
 20
463.1718606646
 10
879.681637385
 20
463.1296418185
 10
879.9599234776
 20
463.1146391611
 10
880.2386291068
 20
463.1274099554
 10
880.5074019558
 20
463.1674798394
 10
880.7562586536
 20
463.2333604465
 10
880.9759555998
 20
463.3226046899
 10
881.1583323119
 20
463.4318976572
 10
881.2966145403
 20
463.557179741
 10
881.3856658926
 20
463.69379743
 10
881.4221786214
 20
463.8366761598
 10
881.4230351526
 20
463.8623575058
  0
LWPOLYLINE
  5
275
330
1F
100
AcDbEntity
  8
0
  6
Continuous
 62
     7
370
    25
100
AcDbPolyline
 90
       12
 70
   128
 43
0.0
 10
873.3656371065
 20
463.959954466
 10
873.3827913123
 20
463.8453480617
 10
873.4521224673
 20
463.7057310793
 10
873.5721678641
 20
463.5755570389
 10
873.7384685043
 20
463.4596611601
 10
873.9448472719
 20
463.3623483105
 10
874.1836383785
 20
463.2872331049
 10
874.445972103
 20
463.2371056428
 10
874.7221042507
 20
463.213827872
 10
875.0017780949
 20
463.2182644284
 10
875.274605355
 20
463.2502505192
 10
875.5304520616
 20
463.3085980446
  0
ARC
  5
276
330
1F
100
AcDbEntity
  8
0
  6
Continuous
 62
     7
370
    25
100
AcDbCircle
 10
879.0318742365
 20
462.9421345349
 30
0.0
 40
0.3269463569462712
100
AcDbArc
 50
65.5357138737
 51
139.8366539865
  0
LWPOLYLINE
  5
277
330
1F
100
AcDbEntity
  8
0
  6
Continuous
 62
     7
370
    25
100
AcDbPolyline
 90
        9
 70
   128
 43
0.0
 10
875.5304520616
 20
463.3085980446
 10
875.588081664
 20
463.3207466193
 10
875.6497530549
 20
463.3251828645
 10
875.711640108
 20
463.3216315534
 10
875.7699033167
 20
463.310313011
 10
875.8209280001
 20
463.291929446
 10
875.8615485591
 20
463.2676213847
 10
875.8892448722
 20
463.2388969124
 10
875.9022986451
 20
463.207538111
  0
ARC
  5
278
330
1F
100
AcDbEntity
  8
0
  6
Continuous
 62
     7
370
    25
100
AcDbCircle
 10
881.3382060128
 20
465.4761266624
 30
0.0
 40
0.8453470201587099
100
AcDbArc
 50
275.7592277186
 51
347.0333704443
  0
ARC
  5
279
330
1F
100
AcDbEntity
  8
0
  6
Continuous
 62
     7
370
    25
100
AcDbCircle
 10
873.5484993756
 20
465.5330401853
 30
0.0
 40
0.7275743127347246
100
AcDbArc
 50
189.8842400732
 51
255.4436885599
  0
SPLINE
  5
27A
330
1F
100
AcDbEntity
  8
0
  6
Continuous
 62
     7
370
    25
100
AcDbSpline
210
0.0
220
0.0
230
1.0
 70
     8
 71
     3
 72
    16
 73
    12
 74
     0
 42
0.000000001
 43
0.00000001
 40
0.0
 40
0.0
 40
0.0
 40
0.0
 40
0.0121781782513085
 40
0.0633741079993571
 40
0.1159878350408936
 40
0.2087679152513074
 40
0.303776542245917
 40
0.4808899058451064
 40
0.662733922627243
 40
0.8297452284133847
 40
1.0
 40
1.0
 40
1.0
 40
1.0
 10
523.4967846403929
 20
745.9731045521078
 30
0.0
 10
523.4953970211609
 20
745.9694422383454
 30
0.0
 10
523.4881759796173
 20
745.9503838978359
 30
0.0
 10
523.4853423812361
 20
745.9353651089141
 30
0.0
 10
523.490111515472
 20
745.9263792998249
 30
0.0
 10
523.515365511914
 20
745.9463513756846
 30
0.0
 10
523.5799053694744
 20
746.008149591256
 30
0.0
 10
523.700477694474
 20
746.1222585992485
 30
0.0
 10
523.891690963068
 20
746.2860049278984
 30
0.0
 10
524.1220908050161
 20
746.4695105728266
 30
0.0
 10
524.3028952694142
 20
746.6057887268652
 30
0.0
 10
524.3941668939657
 20
746.6745830929303
 30
0.0
  0
SPLINE
  5
27B
330
1F
100
AcDbEntity
  8
0
  6
Continuous
 62
     7
370
    25
100
AcDbSpline
210
0.0
220
0.0
230
1.0
 70
     8
 71
     3
 72
    13
 73
     9
 74
     0
 42
0.000000001
 43
0.00000001
 40
0.0
 40
0.0
 40
0.0
 40
0.0
 40
0.3100454659530977
 40
0.4887254270214691
 40
0.6688191782940482
 40
0.8218836106586314
 40
0.9650853048911973
 40
1.0
 40
1.0
 40
1.0
 40
1.0
 10
531.2713559073721
 20
748.2235085320391
 30
0.0
 10
531.2387867003481
 20
748.2480282602967
 30
0.0
 10
531.1874477795818
 20
748.286678767977
 30
0.0
 10
531.1128372292301
 20
748.3413191177294
 30
0.0
 10
531.0606126657269
 20
748.3793448145781
 30
0.0
 10
531.0269846578601
 20
748.4036636787555
 30
0.0
 10
531.0106207201015
 20
748.4154759367801
 30
0.0
 10
531.0098843434048
 20
748.4157765688057
 30
0.0
 10
531.0097399975199
 20
748.4158354992361
 30
0.0
  0
SPLINE
  5
27C
330
1F
100
AcDbEntity
  8
0
  6
Continuous
 62
     7
370
    25
100
AcDbSpline
210
0.0
220
0.0
230
1.0
 70
     8
 71
     3
 72
    19
 73
    15
 74
     0
 42
0.000000001
 43
0.00000001
 40
0.0
 40
0.0
 40
0.0
 40
0.0
 40
0.1466807018366625
 40
0.2976088117410802
 40
0.4140869460232956
 40
0.5332142268761816
 40
0.5938032261409683
 40
0.6552930681869811
 40
0.7030680833057412
 40
0.7519955314906106
 40
0.830322640799196
 40
0.9086097382347066
 40
0.9655653091151434
 40
0.9999999999999999
 40
0.9999999999999999
 40
0.9999999999999999
 40
0.9999999999999999
 10
531.8089265059466
 20
746.6724604428078
 30
0.0
 10
531.9134449517273
 20
746.6014022277545
 30
0.0
 10
532.1255083660985
 20
746.4572281770335
 30
0.0
 10
532.3726362292326
 20
746.2936120647396
 30
0.0
 10
532.5660086835734
 20
746.1693588634386
 30
0.0
 10
532.683490659296
 20
746.1012351222207
 30
0.0
 10
532.7554632038781
 20
746.0722090779459
 30
0.0
 10
532.7927563929661
 20
746.068970318507
 30
0.0
 10
532.8136322629263
 20
746.0858071223465
 30
0.0
 10
532.8205649047945
 20
746.1288107197561
 30
0.0
 10
532.7989353298104
 20
746.2258370376189
 30
0.0
 10
532.7372024758215
 20
746.3805427459089
 30
0.0
 10
532.6717927768786
 20
746.5204297202675
 30
0.0
 10
532.6289963334445
 20
746.6002414165412
 30
0.0
 10
532.6128711766481
 20
746.6303134508815
 30
0.0
  0
LINE
  5
27D
330
1F
100
AcDbEntity
  8
0
  6
Continuous
 62
     7
370
    25
100
AcDbLine
 10
531.5683525466
 20
747.9690472273
 30
0.0
 11
531.2713559074
 21
748.223508532
 31
0.0
  0
SPLINE
  5
27E
330
1F
100
AcDbEntity
  8
0
  6
Continuous
 62
     7
370
    25
100
AcDbSpline
210
0.0
220
0.0
230
1.0
 70
     8
 71
     3
 72
    14
 73
    10
 74
     0
 42
0.000000001
 43
0.00000001
 40
0.0
 40
0.0
 40
0.0
 40
0.0
 40
0.2200911109485839
 40
0.3501199592092674
 40
0.4590676183976911
 40
0.5685351145661591
 40
0.6668402217389687
 40
0.7968948941936455
 40
1.0
 40
1.0
 40
1.0
 40
1.0
 10
531.7003713851734
 20
746.4460245546134
 30
0.0
 10
531.6816446689535
 20
746.4838884139679
 30
0.0
 10
531.651854292183
 20
746.5441220728173
 30
0.0
 10
531.6342106065755
 20
746.6214097039918
 30
0.0
 10
531.6354822365631
 20
746.6721463927233
 30
0.0
 10
531.652473606242
 20
746.7046207039052
 30
0.0
 10
531.684281192873
 20
746.7198738794037
 30
0.0
 10
531.7368204274801
 20
746.7155115764049
 30
0.0
 10
531.7816170304778
 20
746.6887656406758
 30
0.0
 10
531.8089265059466
 20
746.6724604428078
 30
0.0
  0
SPLINE
  5
27F
330
1F
100
AcDbEntity
  8
0
  6
Continuous
 62
     7
370
    25
100
AcDbSpline
210
0.0
220
0.0
230
1.0
 70
     8
 71
     3
 72
    27
 73
    23
 74
     0
 42
0.000000001
 43
0.00000001
 40
0.0
 40
0.0
 40
0.0
 40
0.0
 40
0.0910683471803953
 40
0.184746416470903
 40
0.2588266946055622
 40
0.3345190598259249
 40
0.3626447427195189
 40
0.391005648284741
 40
0.4191743039829868
 40
0.44812036069796
 40
0.4657704782447506
 40
0.4839081706433153
 40
0.5015721548764637
 40
0.5197440214872907
 40
0.5448446854435505
 40
0.5706253690117592
 40
0.6177938154944738
 40
0.6660858441031505
 40
0.7518796859636191
 40
0.840039794008302
 40
0.9191574739584829
 40
1.0
 40
1.0
 40
1.0
 40
1.0
 10
529.8221131481129
 20
745.1993836078727
 30
0.0
 10
529.9250910273093
 20
745.062350276879
 30
0.0
 10
530.1339977961965
 20
744.7843566861086
 30
0.0
 10
530.4576635987189
 20
744.4379598565163
 30
0.0
 10
530.7699962139046
 20
744.1481932299266
 30
0.0
 10
531.0046299102293
 20
743.9686417210638
 30
0.0
 10
531.1828421850323
 20
743.8633986853088
 30
0.0
 10
531.2989835295717
 20
743.8092558261363
 30
0.0
 10
531.4184246469234
 20
743.7731106681739
 30
0.0
 10
531.5245366202653
 20
743.7652142212014
 30
0.0
 10
531.6147933511892
 20
743.7819153497062
 30
0.0
 10
531.6864150004449
 20
743.8125020105344
 30
0.0
 10
531.7533331381303
 20
743.8601907189762
 30
0.0
 10
531.8208374299348
 20
743.9302705420561
 30
0.0
 10
531.885491927844
 20
744.0265623366862
 30
0.0
 10
531.9588512202718
 20
744.1804578487123
 30
0.0
 10
532.0223137137281
 20
744.3890100892088
 30
0.0
 10
532.0765337137623
 20
744.7147881824378
 30
0.0
 10
532.0858886742866
 20
745.1257958162921
 30
0.0
 10
532.0223198462406
 20
745.5916276086235
 30
0.0
 10
531.8983548502982
 20
746.039183942762
 30
0.0
 10
531.7668385855244
 20
746.3094396310095
 30
0.0
 10
531.7003713851734
 20
746.4460245546132
 30
0.0
  0
SPLINE
  5
280
330
1F
100
AcDbEntity
  8
0
  6
Continuous
 62
     7
370
    25
100
AcDbSpline
210
0.0
220
0.0
230
1.0
 70
     8
 71
     3
 72
    15
 73
    11
 74
     0
 42
0.000000001
 43
0.00000001
 40
0.0
 40
0.0
 40
0.0
 40
0.0
 40
0.2150763736126738
 40
0.3413349926978222
 40
0.446593490352974
 40
0.5524796219272535
 40
0.6449070621726983
 40
0.7662146539024285
 40
0.9406316560516657
 40
1.0
 40
1.0
 40
1.0
 40
1.0
 10
529.4368608931791
 20
745.0981433183335
 30
0.0
 10
529.4442330569501
 20
745.1390708565515
 30
0.0
 10
529.455932982073
 20
745.204024531956
 30
0.0
 10
529.5016394151837
 20
745.2756423188451
 30
0.0
 10
529.5508083708824
 20
745.3156116038214
 30
0.0
 10
529.6063217251511
 20
745.3317574568666
 30
0.0
 10
529.6673275241442
 20
745.3256278249266
 30
0.0
 10
529.7361302668695
 20
745.29348778557
 30
0.0
 10
529.7878361776476
 20
745.2453778800232
 30
0.0
 10
529.8151715095076
 20
745.2086981887953
 30
0.0
 10
529.8221131481129
 20
745.1993836078727
 30
0.0
  0
SPLINE
  5
281
330
1F
100
AcDbEntity
  8
0
  6
Continuous
 62
     7
370
    25
100
AcDbSpline
210
0.0
220
0.0
230
1.0
 70
     8
 71
     3
 72
    10
 73
     6
 74
     0
 42
0.000000001
 43
0.00000001
 40
0.0
 40
0.0
 40
0.0
 40
0.0
 40
0.4787893468171605
 40
0.9710174308855122
 40
1.0
 40
1.0
 40
1.0
 40
1.0
 10
526.5571405824758
 20
745.0967318523668
 30
0.0
 10
526.5781924701023
 20
744.9164895694834
 30
0.0
 10
526.6208871331611
 20
744.5509459340075
 30
0.0
 10
526.7200604558162
 20
744.1755655245388
 30
0.0
 10
526.80319478882
 20
743.9929092442317
 30
0.0
 10
526.8078175772018
 20
743.9827524137144
 30
0.0
  0
SPLINE
  5
282
330
1F
100
AcDbEntity
  8
0
  6
Continuous
 62
     7
370
    25
100
AcDbSpline
210
0.0
220
0.0
230
1.0
 70
     8
 71
     3
 72
    11
 73
     7
 74
     0
 42
0.000000001
 43
0.00000001
 40
0.0
 40
0.0
 40
0.0
 40
0.0
 40
0.1926194731678948
 40
0.4826179747735356
 40
0.7789736208159791
 40
1.0
 40
1.0
 40
1.0
 40
1.0
 10
528.8374770792472
 20
743.4311344514009
 30
0.0
 10
528.8971061047223
 20
743.5294930996237
 30
0.0
 10
529.0465096880632
 20
743.7759357402667
 30
0.0
 10
529.2290648382814
 20
744.2068540263585
 30
0.0
 10
529.3738202182714
 20
744.6676508805692
 30
0.0
 10
529.4179910482086
 20
744.9692848380986
 30
0.0
 10
529.4368608931791
 20
745.0981433183337
 30
0.0
  0
SPLINE
  5
283
330
1F
100
AcDbEntity
  8
0
  6
Continuous
 62
     7
370
    25
100
AcDbSpline
210
0.0
220
0.0
230
1.0
 70
     8
 71
     3
 72
    15
 73
    11
 74
     0
 42
0.000000001
 43
0.00000001
 40
0.0
 40
0.0
 40
0.0
 40
0.0
 40
0.21292940532031
 40
0.3333107283176499
 40
0.4345062010027768
 40
0.5362836886507053
 40
0.6256367151021829
 40
0.745636854756794
 40
0.9211927176880819
 40
1.0
 40
1.0
 40
1.0
 40
1.0
 10
526.1852939990603
 20
745.1977917860308
 30
0.0
 10
526.212393659813
 20
745.2302903705337
 30
0.0
 10
526.2548143280576
 20
745.281162286762
 30
0.0
 10
526.3292376057506
 20
745.3219125612368
 30
0.0
 10
526.3894460449164
 20
745.3338079478096
 30
0.0
 10
526.4429393323919
 20
745.3227447669731
 30
0.0
 10
526.4901471202929
 20
745.290204189798
 30
0.0
 10
526.531398991175
 20
745.2308068132894
 30
0.0
 10
526.5515677748842
 20
745.1610521519962
 30
0.0
 10
526.5558224047961
 20
745.1119460118241
 30
0.0
 10
526.5571405824758
 20
745.0967318523668
 30
0.0
  0
SPLINE
  5
284
330
1F
100
AcDbEntity
  8
0
  6
Continuous
 62
     7
370
    25
100
AcDbSpline
210
0.0
220
0.0
230
1.0
 70
     8
 71
     3
 72
    11
 73
     7
 74
     0
 42
0.000000001
 43
0.00000001
 40
0.0
 40
0.0
 40
0.0
 40
0.0
 40
0.3030438973968593
 40
0.6145893183413279
 40
0.9260344383362074
 40
1.0
 40
1.0
 40
1.0
 40
1.0
 10
524.472599744263
 20
746.4473231273593
 30
0.0
 10
524.3906261813833
 20
746.2850809912721
 30
0.0
 10
524.2243793882121
 20
745.9560452156618
 30
0.0
 10
524.0847259554071
 20
745.4210581320268
 30
0.0
 10
524.0155098101848
 20
745.008757802791
 30
0.0
 10
524.0269766715018
 20
744.7815345378237
 30
0.0
 10
524.0291773184432
 20
744.7379272969863
 30
0.0
  0
SPLINE
  5
285
330
1F
100
AcDbEntity
  8
0
  6
Continuous
 62
     7
370
    25
100
AcDbSpline
210
0.0
220
0.0
230
1.0
 70
     8
 71
     3
 72
    10
 73
     6
 74
     0
 42
0.000000001
 43
0.00000001
 40
0.0
 40
0.0
 40
0.0
 40
0.0
 40
0.0400249862571362
 40
0.5138669198257229
 40
1.0
 40
1.0
 40
1.0
 40
1.0
 10
525.4707785359319
 20
744.3461309758503
 30
0.0
 10
525.4804529933409
 20
744.3558572037388
 30
0.0
 10
525.6046599973822
 20
744.4807288710131
 30
0.0
 10
525.850422844353
 20
744.7612862585602
 30
0.0
 10
526.0727215388243
 20
745.0510532555746
 30
0.0
 10
526.1852939990603
 20
745.1977917860307
 30
0.0
  0
SPLINE
  5
286
330
1F
100
AcDbEntity
  8
0
  6
Continuous
 62
     7
370
    25
100
AcDbSpline
210
0.0
220
0.0
230
1.0
 70
     8
 71
     3
 72
    15
 73
    11
 74
     0
 42
0.000000001
 43
0.00000001
 40
0.0
 40
0.0
 40
0.0
 40
0.0
 40
0.2155767705933886
 40
0.3329005538677475
 40
0.4328760582230964
 40
0.5332634977247768
 40
0.6250838127945025
 40
0.7535547096888731
 40
0.9421338378892107
 40
1.0
 40
1.0
 40
1.0
 40
1.0
 10
524.3941668939657
 20
746.6745830929303
 30
0.0
 10
524.4216606054241
 20
746.6926815136585
 30
0.0
 10
524.4641172752553
 20
746.7206296746222
 30
0.0
 10
524.5122906741635
 20
746.7260410963246
 30
0.0
 10
524.5390240091008
 20
746.7124912376895
 30
0.0
 10
524.5513722259715
 20
746.6824745634286
 30
0.0
 10
524.5503127192536
 20
746.6359366576105
 30
0.0
 10
524.5317563186703
 20
746.5662324163503
 30
0.0
 10
524.5014025493815
 20
746.4994454197077
 30
0.0
 10
524.4780767244324
 20
746.4572344106666
 30
0.0
 10
524.472599744263
 20
746.4473231273593
 30
0.0
  0
LINE
  5
287
330
1F
100
AcDbEntity
  8
0
  6
Continuous
 62
     8
370
    18
100
AcDbLine
 10
697.1281183791
 20
420.2050875728
 30
0.0
 11
697.1281183791
 21
415.9192510693
 31
0.0
  0
LINE
  5
288
330
1F
100
AcDbEntity
  8
0
  6
Continuous
 62
     8
370
    18
100
AcDbLine
 10
672.1325184329
 20
411.9391034951
 30
0.0
 11
672.1325184329
 21
416.2249399986
 31
0.0
  0
LINE
  5
289
330
1F
100
AcDbEntity
  8
0
  6
Continuous
 62
     8
370
    18
100
AcDbLine
 10
267.0690187046
 20
526.3125197638
 30
0.0
 11
267.0690187046
 21
522.0266832603
 31
0.0
  0
LINE
  5
28A
330
1F
100
AcDbEntity
  8
0
  6
Continuous
 62
     8
370
    18
100
AcDbLine
 10
910.8746065091
 20
624.5423761856
 30
0.0
 11
910.8746065091
 21
628.8282126892
 31
0.0
  0
LINE
  5
28B
330
1F
100
AcDbEntity
  8
0
  6
Continuous
 62
     8
370
    18
100
AcDbLine
 10
299.1034297178
 20
513.3204167613
 30
0.0
 11
297.384029904
 21
511.6422298324
 31
0.0
  0
LINE
  5
28C
330
1F
100
AcDbEntity
  8
0
  6
Continuous
 62
     8
370
    18
100
AcDbLine
 10
309.4074964065
 20
510.5199922247
 30
0.0
 11
297.384029904
 21
498.7847203219
 31
0.0
  0
LINE
  5
28D
330
1F
100
AcDbEntity
  8
0
  6
Continuous
 62
     8
370
    18
100
AcDbLine
 10
648.4485877804
 20
418.3758883612
 30
0.0
 11
646.7291879666
 21
416.6977014322
 31
0.0
  0
LINE
  5
28E
330
1F
100
AcDbEntity
  8
0
  6
Continuous
 62
     8
370
    18
100
AcDbLine
 10
658.7526544691
 20
415.5754638246
 30
0.0
 11
646.7291879666
 21
403.8401919217
 31
0.0
  0
LWPOLYLINE
  5
28F
330
1F
100
AcDbEntity
  8
0
  6
Continuous
 62
     8
370
    18
100
AcDbPolyline
 90
       32
 70
   128
 43
0.0
 10
872.7198946003
 20
463.6838056684
 10
872.7251227803
 20
463.5690545656
 10
872.7756851771
 20
463.3099512082
 10
872.8794348424
 20
463.0550837712
 10
873.035196251
 20
462.8073400045
 10
873.2412045639
 20
462.569526944
 10
873.4951256247
 20
462.3443391067
 10
873.7940824061
 20
462.1343279608
 10
874.1346876085
 20
461.9418730164
 10
874.5130820388
 20
461.769154865
 10
874.9249783369
 20
461.6181304723
 10
875.3657095532
 20
461.490511005
 10
875.8302820268
 20
461.3877424426
 10
876.3134319661
 20
461.3109891939
 10
876.8096850891
 20
461.2611209041
 10
877.3134186496
 20
461.2387026007
 10
877.8189251452
 20
461.2439882921
 10
878.3204769853
 20
461.2769180893
 10
878.8123913871
 20
461.3371188845
 10
879.2890947638
 20
461.4239085786
 10
879.7451858758
 20
461.5363038098
 10
880.1754970285
 20
461.6730310951
 10
880.5751526245
 20
461.8325412598
 10
880.9396244063
 20
462.01302699
 10
881.264782763
 20
462.2124433102
 10
881.5469435205
 20
462.4285307538
 10
881.7829096846
 20
462.6588409639
 10
881.9700076644
 20
462.9007644335
 10
882.106117565
 20
463.1515600733
 10
882.1896972069
 20
463.4083862683
 10
882.2197995993
 20
463.6683330752
 10
882.2198946003
 20
463.6838056684
  0
ARC
  5
290
330
1F
100
AcDbEntity
  8
0
  6
Continuous
 62
     8
370
    18
100
AcDbCircle
 10
295.9060053666
 20
328.9529613115
 30
0.0
 40
1.591048638958517
100
AcDbArc
 50
310.8579104794
 51
357.7801902263
  0
LWPOLYLINE
  5
291
330
1F
100
AcDbEntity
  8
0
  6
Continuous
 62
     8
370
    18
100
AcDbPolyline
 90
       26
 70
   128
 43
0.0
 10
287.9958600576
 20
328.8913347509
 10
288.0196709878
 20
328.6466852265
 10
288.0969365276
 20
328.3893350859
 10
288.2268762287
 20
328.137672802
 10
288.4080178222
 20
327.8945498091
 10
288.6383089016
 20
327.662720788
 10
288.9151401768
 20
327.4448124539
 10
289.235375039
 20
327.2432937955
 10
289.5953850992
 20
327.0604480997
 10
289.9910912995
 20
326.8983470811
 10
290.4180101306
 20
326.7588274093
 10
290.8713044315
 20
326.6434698977
 10
291.3458381967
 20
326.5535815931
 10
291.836234769
 20
326.4901809659
 10
292.3369377593
 20
326.4539863706
 10
292.8422740026
 20
326.4454079063
 10
293.3465178374
 20
326.4645427705
 10
293.8439559796
 20
326.5111741575
 10
294.3289522561
 20
326.5847737151
 10
294.7960114655
 20
326.6845075309
 10
295.2398416403
 20
326.809245581
 10
295.6554140071
 20
326.9575745332
 10
296.0380199652
 20
327.1278137615
 10
296.383324436
 20
327.3180343872
 10
296.6874149819
 20
327.5260811347
 10
296.9468461355
 20
327.7495967511
  0
ARC
  5
292
330
1F
100
AcDbEntity
  8
0
  6
Continuous
 62
     8
370
    18
100
AcDbCircle
 10
645.2511634291
 20
234.0084329114
 30
0.0
 40
1.591048638958575
100
AcDbArc
 50
310.8579104794
 51
357.7801902263
  0
LWPOLYLINE
  5
293
330
1F
100
AcDbEntity
  8
0
  6
Continuous
 62
     8
370
    18
100
AcDbPolyline
 90
       26
 70
   128
 43
0.0
 10
637.3410181202
 20
233.9468063507
 10
637.3648290504
 20
233.7021568264
 10
637.4420945902
 20
233.4448066857
 10
637.5720342913
 20
233.1931444018
 10
637.7531758848
 20
232.950021409
 10
637.9834669641
 20
232.7181923878
 10
638.2602982394
 20
232.5002840538
 10
638.5805331016
 20
232.2987653954
 10
638.9405431618
 20
232.1159196995
 10
639.3362493621
 20
231.953818681
 10
639.7631681931
 20
231.8142990091
 10
640.2164624941
 20
231.6989414975
 10
640.6909962593
 20
231.609053193
 10
641.1813928316
 20
231.5456525658
 10
641.6820958219
 20
231.5094579704
 10
642.1874320652
 20
231.5008795061
 10
642.6916759
 20
231.5200143703
 10
643.1891140421
 20
231.5666457574
 10
643.6741103187
 20
231.640245315
 10
644.1411695281
 20
231.7399791308
 10
644.5849997029
 20
231.8647171808
 10
645.0005720697
 20
232.0130461331
 10
645.3831780277
 20
232.1832853613
 10
645.7284824985
 20
232.373505987
 10
646.0325730445
 20
232.5815527345
 10
646.2920041981
 20
232.805068351
  0
LINE
  5
294
330
1F
100
AcDbEntity
  8
0
  6
Continuous
 62
     8
370
    18
100
AcDbLine
 10
292.8178828875
 20
515.4856087356
 30
0.0
 11
292.8178828875
 21
328.2392564712
 31
0.0
  0
LINE
  5
295
330
1F
100
AcDbEntity
  8
0
  6
Continuous
 62
     8
370
    18
100
AcDbLine
 10
292.3977247304
 20
515.5009625318
 30
0.0
 11
292.3977247304
 21
328.2472130165
 31
0.0
  0
LINE
  5
296
330
1F
100
AcDbEntity
  8
0
  6
Continuous
 62
     8
370
    18
100
AcDbLine
 10
295.7324041938
 20
516.1340546434
 30
0.0
 11
295.7324041938
 21
328.9978705865
 31
0.0
  0
LINE
  5
297
330
1F
100
AcDbEntity
  8
0
  6
Continuous
 62
     8
370
    18
100
AcDbLine
 10
289.5992406879
 20
516.3603667183
 30
0.0
 11
289.5992406879
 21
329.1140144539
 31
0.0
  0
LINE
  5
298
330
1F
100
AcDbEntity
  8
0
  6
Continuous
 62
     8
370
    18
100
AcDbLine
 10
296.397996851
 20
517.6450678766
 30
0.0
 11
296.397996851
 21
517.5427454669
 31
0.0
  0
LINE
  5
299
330
1F
100
AcDbEntity
  8
0
  6
Continuous
 62
     8
370
    18
100
AcDbLine
 10
289.1702252101
 20
517.9175142806
 30
0.0
 11
289.1702252101
 21
517.843135312
 31
0.0
  0
LINE
  5
29A
330
1F
100
AcDbEntity
  8
0
  6
Continuous
 62
     8
370
    18
100
AcDbLine
 10
642.1630409501
 20
420.5410803354
 30
0.0
 11
642.1630409501
 21
233.294728071
 31
0.0
  0
LINE
  5
29B
330
1F
100
AcDbEntity
  8
0
  6
Continuous
 62
     8
370
    18
100
AcDbLine
 10
641.742882793
 20
420.5564341316
 30
0.0
 11
641.742882793
 21
233.3026846163
 31
0.0
  0
LINE
  5
29C
330
1F
100
AcDbEntity
  8
0
  6
Continuous
 62
     8
370
    18
100
AcDbLine
 10
645.0775622563
 20
421.1895262432
 30
0.0
 11
645.0775622563
 21
234.0533421864
 31
0.0
  0
LINE
  5
29D
330
1F
100
AcDbEntity
  8
0
  6
Continuous
 62
     8
370
    18
100
AcDbLine
 10
638.9443987505
 20
421.4158383181
 30
0.0
 11
638.9443987505
 21
234.1694860537
 31
0.0
  0
LINE
  5
29E
330
1F
100
AcDbEntity
  8
0
  6
Continuous
 62
     8
370
    18
100
AcDbLine
 10
645.7431549136
 20
422.7005394764
 30
0.0
 11
645.7431549136
 21
422.5982170667
 31
0.0
  0
LINE
  5
29F
330
1F
100
AcDbEntity
  8
0
  6
Continuous
 62
     8
370
    18
100
AcDbLine
 10
638.5153832727
 20
422.9729858805
 30
0.0
 11
638.5153832727
 21
422.8986069118
 31
0.0
  0
LINE
  5
2A0
330
1F
100
AcDbEntity
  8
0
  6
Continuous
 62
     8
370
    18
100
AcDbLine
 10
878.7820189558
 20
650.1536149182
 30
0.0
 11
878.7820189558
 21
648.3237063739
 31
0.0
  0
LINE
  5
2A1
330
1F
100
AcDbEntity
  8
0
  6
Continuous
 62
     8
370
    18
100
AcDbLine
 10
878.7820189558
 20
593.2190268898
 30
0.0
 11
878.7820189558
 21
463.153004777
 31
0.0
  0
LINE
  5
2A2
330
1F
100
AcDbEntity
  8
0
  6
Continuous
 62
     8
370
    18
100
AcDbLine
 10
875.9022986451
 20
650.1522034522
 30
0.0
 11
875.9022986451
 21
649.1063526494
 31
0.0
  0
LINE
  5
2A3
330
1F
100
AcDbEntity
  8
0
  6
Continuous
 62
     8
370
    18
100
AcDbLine
 10
875.9022986451
 20
590.4083315847
 30
0.0
 11
875.9022986451
 21
463.207538111
 31
0.0
  0
LINE
  5
2A4
330
1F
100
AcDbEntity
  8
0
  6
Continuous
 62
     8
370
    18
100
AcDbLine
 10
879.1672712107
 20
650.2548552077
 30
0.0
 11
879.1672712107
 21
648.2190030659
 31
0.0
  0
LINE
  5
2A5
330
1F
100
AcDbEntity
  8
0
  6
Continuous
 62
     8
370
    18
100
AcDbLine
 10
879.1672712107
 20
593.5950449011
 30
0.0
 11
879.1672712107
 21
463.2397275114
 31
0.0
  0
LINE
  5
2A6
330
1F
100
AcDbEntity
  8
0
  6
Continuous
 62
     8
370
    18
100
AcDbLine
 10
875.5304520616
 20
650.2532633859
 30
0.0
 11
875.5304520616
 21
649.207412583
 31
0.0
  0
LINE
  5
2A7
330
1F
100
AcDbEntity
  8
0
  6
Continuous
 62
     8
370
    18
100
AcDbLine
 10
875.5304520616
 20
590.0453979198
 30
0.0
 11
875.5304520616
 21
463.3085980446
 31
0.0
  0
LINE
  5
2A8
330
1F
100
AcDbEntity
  8
0
  6
Continuous
 62
     8
370
    18
100
AcDbLine
 10
881.1540845685
 20
651.7279320427
 30
0.0
 11
881.1540845685
 21
651.2599153424
 31
0.0
  0
LINE
  5
2A9
330
1F
100
AcDbEntity
  8
0
  6
Continuous
 62
     8
370
    18
100
AcDbLine
 10
873.7393249565
 20
651.7300546928
 30
0.0
 11
873.7393249565
 21
651.3332088609
 31
0.0
  0
LINE
  5
2AA
330
1F
100
AcDbEntity
  8
0
  6
Continuous
 62
     8
370
    18
100
AcDbLine
 10
529.4368608932
 20
745.0981433183
 30
0.0
 11
529.4368608932
 21
743.268234774
 31
0.0
  0
LINE
  5
2AB
330
1F
100
AcDbEntity
  8
0
  6
Continuous
 62
     8
370
    18
100
AcDbLine
 10
526.5571405825
 20
745.0967318524
 30
0.0
 11
526.5571405825
 21
744.0508810495
 31
0.0
  0
LINE
  5
2AC
330
1F
100
AcDbEntity
  8
0
  6
Continuous
 62
     8
370
    18
100
AcDbLine
 10
529.8221131481
 20
745.1993836079
 30
0.0
 11
529.8221131481
 21
743.1635314661
 31
0.0
  0
LINE
  5
2AD
330
1F
100
AcDbEntity
  8
0
  6
Continuous
 62
     8
370
    18
100
AcDbLine
 10
526.1852939991
 20
745.197791786
 30
0.0
 11
526.1852939991
 21
744.1519409832
 31
0.0
  0
LINE
  5
2AE
330
1F
100
AcDbEntity
  8
0
  6
Continuous
 62
     8
370
    18
100
AcDbLine
 10
531.8089265059
 20
746.6724604428
 30
0.0
 11
531.8089265059
 21
746.2044437425
 31
0.0
  0
LINE
  5
2AF
330
1F
100
AcDbEntity
  8
0
  6
Continuous
 62
     8
370
    18
100
AcDbLine
 10
524.394166894
 20
746.6745830929
 30
0.0
 11
524.394166894
 21
746.2777372611
 31
0.0
  0
ENDSEC
  0
SECTION
  2
OBJECTS
  0
DICTIONARY
  5
C
330
0
100
AcDbDictionary
281
     1
  3
ACAD_GROUP
350
D
  3
ACAD_LAYOUT
350
1A
  3
ACAD_MLINESTYLE
350
17
  3
ACAD_PLOTSETTINGS
350
19
  3
ACAD_PLOTSTYLENAME
350
E
  3
ACAD_SCALELIST
350
47
  0
DICTIONARY
  5
D
102
{ACAD_REACTORS
330
C
102
}
330
C
100
AcDbDictionary
281
     1
  0
DICTIONARY
  5
1A
102
{ACAD_REACTORS
330
C
102
}
330
C
100
AcDbDictionary
281
     1
  3
Layout1
350
1E
  3
Layout2
350
26
  3
Model
350
22
  0
DICTIONARY
  5
17
102
{ACAD_REACTORS
330
C
102
}
330
C
100
AcDbDictionary
281
     1
  3
Standard
350
18
  0
DICTIONARY
  5
19
102
{ACAD_REACTORS
330
C
102
}
330
C
100
AcDbDictionary
281
     1
  0
ACDBDICTIONARYWDFLT
  5
E
102
{ACAD_REACTORS
330
C
102
}
330
C
100
AcDbDictionary
281
     1
  3
Normal
350
F
100
AcDbDictionaryWithDefault
340
F
  0
DICTIONARY
  5
47
102
{ACAD_REACTORS
330
C
102
}
330
C
100
AcDbDictionary
281
     1
  3
A0
350
48
  3
A1
350
49
  3
A2
350
4A
  3
A3
350
4B
  3
A4
350
4C
  3
A5
350
4D
  3
A6
350
4E
  3
A7
350
4F
  3
A8
350
50
  3
A9
350
51
  3
B0
350
52
  3
B1
350
53
  3
B2
350
54
  3
B3
350
55
  3
B4
350
56
  3
B5
350
57
  3
B6
350
58
  3
B7
350
59
  3
B8
350
5A
  3
B9
350
5B
  3
C0
350
5C
  3
C1
350
5D
  3
C2
350
5E
  3
C3
350
5F
  3
C4
350
60
  3
C5
350
61
  3
C6
350
62
  3
C7
350
63
  3
C8
350
64
  3
C9
350
65
  3
D0
350
66
  3
D1
350
67
  3
D2
350
68
  0
LAYOUT
  5
1E
102
{ACAD_REACTORS
330
1A
102
}
330
1A
100
AcDbPlotSettings
  1

  2
none_device
  4

  6

 40
0.0
 41
0.0
 42
0.0
 43
0.0
 44
0.0
 45
0.0
 46
0.0
 47
0.0
 48
0.0
 49
0.0
140
0.0
141
0.0
142
1.0
143
1.0
 70
   688
 72
     1
 73
     0
 74
     5
  7

 75
    16
147
1.0
148
0.0
149
0.0
100
AcDbLayout
  1
Layout1
 70
     1
 71
     1
 10
0.0
 20
0.0
 11
420.0
 21
297.0
 12
0.0
 22
0.0
 32
0.0
 14
1.0000000000E+20
 24
1.0000000000E+20
 34
1.0000000000E+20
 15
-1.0000000000E+20
 25
-1.0000000000E+20
 35
-1.0000000000E+20
146
0.0
 13
0.0
 23
0.0
 33
0.0
 16
1.0
 26
0.0
 36
0.0
 17
0.0
 27
1.0
 37
0.0
 76
     0
330
1B
  0
LAYOUT
  5
26
102
{ACAD_REACTORS
330
1A
102
}
330
1A
100
AcDbPlotSettings
  1

  2
none_device
  4

  6

 40
0.0
 41
0.0
 42
0.0
 43
0.0
 44
0.0
 45
0.0
 46
0.0
 47
0.0
 48
0.0
 49
0.0
140
0.0
141
0.0
142
1.0
143
1.0
 70
   688
 72
     1
 73
     0
 74
     5
  7

 75
    16
147
1.0
148
0.0
149
0.0
100
AcDbLayout
  1
Layout2
 70
     1
 71
     2
 10
0.0
 20
0.0
 11
0.0
 21
0.0
 12
0.0
 22
0.0
 32
0.0
 14
0.0
 24
0.0
 34
0.0
 15
0.0
 25
0.0
 35
0.0
146
0.0
 13
0.0
 23
0.0
 33
0.0
 16
1.0
 26
0.0
 36
0.0
 17
0.0
 27
1.0
 37
0.0
 76
     0
330
23
  0
LAYOUT
  5
22
102
{ACAD_REACTORS
330
1A
102
}
330
1A
100
AcDbPlotSettings
  1

  2
none_device
  4
Letter_(8.50_x_11.00_Inches)
  6

 40
6.35
 41
6.35
 42
6.35000508
 43
6.35000508
 44
215.9
 45
279.4
 46
0.0
 47
0.0
 48
0.0
 49
0.0
140
0.0
141
0.0
142
1.0
143
1.0
 70
  1712
 72
     1
 73
     0
 74
     0
  7

 75
     0
147
1.0
148
0.0
149
0.0
100
AcDbLayout
  1
Model
 70
     1
 71
     0
 10
0.0
 20
0.0
 11
4455.0
 21
3150.0
 12
0.0
 22
0.0
 32
0.0
 14
0.0
 24
0.0
 34
0.0
 15
4455.0
 25
3150.0
 35
0.0
146
0.0
 13
0.0
 23
0.0
 33
0.0
 16
1.0
 26
0.0
 36
0.0
 17
0.0
 27
1.0
 37
0.0
 76
     0
330
1F
331
29
  0
MLINESTYLE
  5
18
102
{ACAD_REACTORS
330
17
102
}
330
17
100
AcDbMlineStyle
  2
Standard
 70
     0
  3

 62
   256
 51
90.0
 52
90.0
 71
     2
 49
0.5
 62
   256
  6
BYLAYER
 49
-0.5
 62
   256
  6
BYLAYER
  0
ACDBPLACEHOLDER
  5
F
102
{ACAD_REACTORS
330
E
102
}
330
E
  0
SCALE
  5
48
102
{ACAD_REACTORS
330
47
102
}
330
47
100
AcDbScale
 70
     0
300
1:1
140
1.0
141
1.0
290
     1
  0
SCALE
  5
49
102
{ACAD_REACTORS
330
47
102
}
330
47
100
AcDbScale
 70
     0
300
1:2
140
1.0
141
2.0
290
     0
  0
SCALE
  5
4A
102
{ACAD_REACTORS
330
47
102
}
330
47
100
AcDbScale
 70
     0
300
1:4
140
1.0
141
4.0
290
     0
  0
SCALE
  5
4B
102
{ACAD_REACTORS
330
47
102
}
330
47
100
AcDbScale
 70
     0
300
1:5
140
1.0
141
5.0
290
     0
  0
SCALE
  5
4C
102
{ACAD_REACTORS
330
47
102
}
330
47
100
AcDbScale
 70
     0
300
1:8
140
1.0
141
8.0
290
     0
  0
SCALE
  5
4D
102
{ACAD_REACTORS
330
47
102
}
330
47
100
AcDbScale
 70
     0
300
1:10
140
1.0
141
10.0
290
     0
  0
SCALE
  5
4E
102
{ACAD_REACTORS
330
47
102
}
330
47
100
AcDbScale
 70
     0
300
1:16
140
1.0
141
16.0
290
     0
  0
SCALE
  5
4F
102
{ACAD_REACTORS
330
47
102
}
330
47
100
AcDbScale
 70
     0
300
1:20
140
1.0
141
20.0
290
     0
  0
SCALE
  5
50
102
{ACAD_REACTORS
330
47
102
}
330
47
100
AcDbScale
 70
     0
300
1:30
140
1.0
141
30.0
290
     0
  0
SCALE
  5
51
102
{ACAD_REACTORS
330
47
102
}
330
47
100
AcDbScale
 70
     0
300
1:40
140
1.0
141
40.0
290
     0
  0
SCALE
  5
52
102
{ACAD_REACTORS
330
47
102
}
330
47
100
AcDbScale
 70
     0
300
1:50
140
1.0
141
50.0
290
     0
  0
SCALE
  5
53
102
{ACAD_REACTORS
330
47
102
}
330
47
100
AcDbScale
 70
     0
300
1:100
140
1.0
141
100.0
290
     0
  0
SCALE
  5
54
102
{ACAD_REACTORS
330
47
102
}
330
47
100
AcDbScale
 70
     0
300
2:1
140
2.0
141
1.0
290
     0
  0
SCALE
  5
55
102
{ACAD_REACTORS
330
47
102
}
330
47
100
AcDbScale
 70
     0
300
4:1
140
4.0
141
1.0
290
     0
  0
SCALE
  5
56
102
{ACAD_REACTORS
330
47
102
}
330
47
100
AcDbScale
 70
     0
300
8:1
140
8.0
141
1.0
290
     0
  0
SCALE
  5
57
102
{ACAD_REACTORS
330
47
102
}
330
47
100
AcDbScale
 70
     0
300
10:1
140
10.0
141
1.0
290
     0
  0
SCALE
  5
58
102
{ACAD_REACTORS
330
47
102
}
330
47
100
AcDbScale
 70
     0
300
100:1
140
100.0
141
1.0
290
     0
  0
SCALE
  5
59
102
{ACAD_REACTORS
330
47
102
}
330
47
100
AcDbScale
 70
     0
300
1/128" = 1'-0"
140
0.0078125
141
12.0
290
     0
  0
SCALE
  5
5A
102
{ACAD_REACTORS
330
47
102
}
330
47
100
AcDbScale
 70
     0
300
1/64" = 1'-0"
140
0.015625
141
12.0
290
     0
  0
SCALE
  5
5B
102
{ACAD_REACTORS
330
47
102
}
330
47
100
AcDbScale
 70
     0
300
1/32" = 1'-0"
140
0.03125
141
12.0
290
     0
  0
SCALE
  5
5C
102
{ACAD_REACTORS
330
47
102
}
330
47
100
AcDbScale
 70
     0
300
1/16" = 1'-0"
140
0.0625
141
12.0
290
     0
  0
SCALE
  5
5D
102
{ACAD_REACTORS
330
47
102
}
330
47
100
AcDbScale
 70
     0
300
3/32" = 1'-0"
140
0.09375
141
12.0
290
     0
  0
SCALE
  5
5E
102
{ACAD_REACTORS
330
47
102
}
330
47
100
AcDbScale
 70
     0
300
1/8" = 1'-0"
140
0.125
141
12.0
290
     0
  0
SCALE
  5
5F
102
{ACAD_REACTORS
330
47
102
}
330
47
100
AcDbScale
 70
     0
300
3/16" = 1'-0"
140
0.1875
141
12.0
290
     0
  0
SCALE
  5
60
102
{ACAD_REACTORS
330
47
102
}
330
47
100
AcDbScale
 70
     0
300
1/4" = 1'-0"
140
0.25
141
12.0
290
     0
  0
SCALE
  5
61
102
{ACAD_REACTORS
330
47
102
}
330
47
100
AcDbScale
 70
     0
300
3/8" = 1'-0"
140
0.375
141
12.0
290
     0
  0
SCALE
  5
62
102
{ACAD_REACTORS
330
47
102
}
330
47
100
AcDbScale
 70
     0
300
1/2" = 1'-0"
140
0.5
141
12.0
290
     0
  0
SCALE
  5
63
102
{ACAD_REACTORS
330
47
102
}
330
47
100
AcDbScale
 70
     0
300
3/4" = 1'-0"
140
0.75
141
12.0
290
     0
  0
SCALE
  5
64
102
{ACAD_REACTORS
330
47
102
}
330
47
100
AcDbScale
 70
     0
300
1" = 1'-0"
140
1.0
141
12.0
290
     0
  0
SCALE
  5
65
102
{ACAD_REACTORS
330
47
102
}
330
47
100
AcDbScale
 70
     0
300
1-1/2" = 1'-0"
140
1.5
141
12.0
290
     0
  0
SCALE
  5
66
102
{ACAD_REACTORS
330
47
102
}
330
47
100
AcDbScale
 70
     0
300
3" = 1'-0"
140
3.0
141
12.0
290
     0
  0
SCALE
  5
67
102
{ACAD_REACTORS
330
47
102
}
330
47
100
AcDbScale
 70
     0
300
6" = 1'-0"
140
6.0
141
12.0
290
     0
  0
SCALE
  5
68
102
{ACAD_REACTORS
330
47
102
}
330
47
100
AcDbScale
 70
     0
300
1'-0" = 1'-0"
140
12.0
141
12.0
290
     0
  0
ENDSEC
  0
EOF
