  0
SECTION
  2
HEADER
  9
$ACADVER
  1
AC1014
  9
$ACADMAINTVER
 70
     9
  9
$DWGCODEPAGE
  3
ANSI_1252
  9
$INSBASE
 10
0.0
 20
0.0
 30
0.0
  9
$EXTMIN
 10
1.000000000000000E+20
 20
1.000000000000000E+20
 30
1.000000000000000E+20
  9
$EXTMAX
 10
-1.000000000000000E+20
 20
-1.000000000000000E+20
 30
-1.000000000000000E+20
  9
$LIMMIN
 10
0.0
 20
0.0
  9
$LIMMAX
 10
12.0
 20
9.0
  9
$ORTHOMODE
 70
     0
  9
$REGENMODE
 70
     1
  9
$FILLMODE
 70
     1
  9
$QTEXTMODE
 70
     0
  9
$MIRRTEXT
 70
     1
  9
$DRAGMODE
 70
     2
  9
$LTSCALE
 40
1.0
  9
$OSMODE
 70
    37
  9
$ATTMODE
 70
     1
  9
$TEXTSIZE
 40
0.2
  9
$TRACEWID
 40
0.05
  9
$TEXTSTYLE
  7
STANDARD
  9
$CLAYER
  8
0
  9
$CELTYPE
  6
BYLAYER
  9
$CECOLOR
 62
   256
  9
$CELTSCALE
 40
1.0
  9
$DELOBJ
 70
     1
  9
$DISPSILH
 70
     0
  9
$DIMSCALE
 40
1.0
  9
$DIMASZ
 40
0.18
  9
$DIMEXO
 40
0.0625
  9
$DIMDLI
 40
0.38
  9
$DIMRND
 40
0.0
  9
$DIMDLE
 40
0.0
  9
$DIMEXE
 40
0.18
  9
$DIMTP
 40
0.0
  9
$DIMTM
 40
0.0
  9
$DIMTXT
 40
0.18
  9
$DIMCEN
 40
0.09
  9
$DIMTSZ
 40
0.0
  9
$DIMTOL
 70
     0
  9
$DIMLIM
 70
     0
  9
$DIMTIH
 70
     1
  9
$DIMTOH
 70
     1
  9
$DIMSE1
 70
     0
  9
$DIMSE2
 70
     0
  9
$DIMTAD
 70
     0
  9
$DIMZIN
 70
     0
  9
$DIMBLK
  1

  9
$DIMASO
 70
     1
  9
$DIMSHO
 70
     1
  9
$DIMPOST
  1

  9
$DIMAPOST
  1

  9
$DIMALT
 70
     0
  9
$DIMALTD
 70
     2
  9
$DIMALTF
 40
25.4
  9
$DIMLFAC
 40
1.0
  9
$DIMTOFL
 70
     0
  9
$DIMTVP
 40
0.0
  9
$DIMTIX
 70
     0
  9
$DIMSOXD
 70
     0
  9
$DIMSAH
 70
     0
  9
$DIMBLK1
  1

  9
$DIMBLK2
  1

  9
$DIMSTYLE
  2
STANDARD
  9
$DIMCLRD
 70
     0
  9
$DIMCLRE
 70
     0
  9
$DIMCLRT
 70
     0
  9
$DIMTFAC
 40
1.0
  9
$DIMGAP
 40
0.09
  9
$DIMJUST
 70
     0
  9
$DIMSD1
 70
     0
  9
$DIMSD2
 70
     0
  9
$DIMTOLJ
 70
     1
  9
$DIMTZIN
 70
     0
  9
$DIMALTZ
 70
     0
  9
$DIMALTTZ
 70
     0
  9
$DIMFIT
 70
     3
  9
$DIMUPT
 70
     0
  9
$DIMUNIT
 70
     2
  9
$DIMDEC
 70
     4
  9
$DIMTDEC
 70
     4
  9
$DIMALTU
 70
     2
  9
$DIMALTTD
 70
     2
  9
$DIMTXSTY
  7
STANDARD
  9
$DIMAUNIT
 70
     0
  9
$LUNITS
 70
     2
  9
$LUPREC
 70
     4
  9
$SKETCHINC
 40
0.1
  9
$FILLETRAD
 40
0.5
  9
$AUNITS
 70
     0
  9
$AUPREC
 70
     0
  9
$MENU
  1
.
  9
$ELEVATION
 40
0.0
  9
$PELEVATION
 40
0.0
  9
$THICKNESS
 40
0.0
  9
$LIMCHECK
 70
     0
  9
$CHAMFERA
 40
0.5
  9
$CHAMFERB
 40
0.5
  9
$CHAMFERC
 40
1.0
  9
$CHAMFERD
 40
0.0
  9
$SKPOLY
 70
     0
  9
$TDCREATE
 40
2460493.468892176
  9
$TDUPDATE
 40
2460493.468892315
  9
$TDINDWG
 40
0.0000000116
  9
$TDUSRTIMER
 40
0.0000000116
  9
$USRTIMER
 70
     1
  9
$ANGBASE
 50
0.0
  9
$ANGDIR
 70
     0
  9
$PDMODE
 70
     0
  9
$PDSIZE
 40
0.0
  9
$PLINEWID
 40
0.0
  9
$COORDS
 70
     1
  9
$SPLFRAME
 70
     0
  9
$SPLINETYPE
 70
     6
  9
$SPLINESEGS
 70
     8
  9
$ATTDIA
 70
     0
  9
$ATTREQ
 70
     1
  9
$HANDLING
 70
     1
  9
$HANDSEED
  5
674
  9
$SURFTAB1
 70
     6
  9
$SURFTAB2
 70
     6
  9
$SURFTYPE
 70
     6
  9
$SURFU
 70
     6
  9
$SURFV
 70
     6
  9
$UCSNAME
  2

  9
$UCSORG
 10
0.0
 20
0.0
 30
0.0
  9
$UCSXDIR
 10
1.0
 20
0.0
 30
0.0
  9
$UCSYDIR
 10
0.0
 20
1.0
 30
0.0
  9
$PUCSNAME
  2

  9
$PUCSORG
 10
0.0
 20
0.0
 30
0.0
  9
$PUCSXDIR
 10
1.0
 20
0.0
 30
0.0
  9
$PUCSYDIR
 10
0.0
 20
1.0
 30
0.0
  9
$USERI1
 70
     0
  9
$USERI2
 70
     0
  9
$USERI3
 70
     0
  9
$USERI4
 70
     0
  9
$USERI5
 70
     0
  9
$USERR1
 40
0.0
  9
$USERR2
 40
0.0
  9
$USERR3
 40
0.0
  9
$USERR4
 40
0.0
  9
$USERR5
 40
0.0
  9
$WORLDVIEW
 70
     1
  9
$SHADEDGE
 70
     3
  9
$SHADEDIF
 70
    70
  9
$TILEMODE
 70
     1
  9
$MAXACTVP
 70
    64
  9
$PINSBASE
 10
0.0
 20
0.0
 30
0.0
  9
$PLIMCHECK
 70
     0
  9
$PEXTMIN
 10
1.000000000000000E+20
 20
1.000000000000000E+20
 30
1.000000000000000E+20
  9
$PEXTMAX
 10
-1.000000000000000E+20
 20
-1.000000000000000E+20
 30
-1.000000000000000E+20
  9
$PLIMMIN
 10
0.0
 20
0.0
  9
$PLIMMAX
 10
12.0
 20
9.0
  9
$UNITMODE
 70
     0
  9
$VISRETAIN
 70
     1
  9
$PLINEGEN
 70
     0
  9
$PSLTSCALE
 70
     1
  9
$TREEDEPTH
 70
  3020
  9
$PICKSTYLE
 70
     1
  9
$CMLSTYLE
  2
STANDARD
  9
$CMLJUST
 70
     0
  9
$CMLSCALE
 40
1.0
  9
$PROXYGRAPHICS
 70
     1
  9
$MEASUREMENT
 70
     0
  0
ENDSEC
  0
SECTION
  2
CLASSES
  0
CLASS
  1
ACDBDICTIONARYWDFLT
  2
AcDbDictionaryWithDefault
  3
ObjectDBX Classes
 90
        0
280
     0
281
     0
  0
CLASS
  1
VISUALSTYLE
  2
AcDbVisualStyle
  3
ObjectDBX Classes
 90
     4095
280
     0
281
     0
  0
CLASS
  1
MATERIAL
  2
AcDbMaterial
  3
ObjectDBX Classes
 90
     1153
280
     0
281
     0
  0
CLASS
  1
SUN
  2
AcDbSun
  3
SCENEOE
 90
     1024
280
     0
281
     0
  0
CLASS
  1
DICTIONARYVAR
  2
AcDbDictionaryVar
  3
ObjectDBX Classes
 90
        0
280
     0
281
     0
  0
CLASS
  1
XRECORD
  2
AcDbXrecord
  3
AutoCAD 2000
 90
        0
280
     0
281
     0
  0
CLASS
  1
LWPOLYLINE
  2
AcDbPolyline
  3
AutoCAD 2000
 90
        0
280
     0
281
     1
  0
CLASS
  1
HATCH
  2
AcDbHatch
  3
AutoCAD 2000
 90
        0
280
     0
281
     1
  0
CLASS
  1
ACDBPLACEHOLDER
  2
AcDbPlaceHolder
  3
ObjectDBX Classes
 90
        0
280
     0
281
     0
  0
CLASS
  1
LAYOUT
  2
AcDbLayout
  3
ObjectDBX Classes
 90
        0
280
     0
281
     0
  0
ENDSEC
  0
SECTION
  2
TABLES
  0
TABLE
  2
VPORT
  5
8
330
0
100
AcDbSymbolTable
 70
     1
  0
VPORT
  5
29
330
8
100
AcDbSymbolTableRecord
100
AcDbViewportTableRecord
  2
*ACTIVE
 70
     0
 10
0.0
 20
0.0
 11
1.0
 21
1.0
 12
0.0
 22
0.0
 13
0.0
 23
0.0
 14
0.5
 24
0.5
 15
0.5
 25
0.5
 16
0.0
 26
0.0
 36
1.0
 17
74.99999786197358
 27
39.74999886684608
 37
0.0
 40
39.99999998999989
 41
1.000000000000008
 42
50.0
 43
0.0
 44
0.0
 50
0.0
 51
0.0
 71
     0
 72
   100
 73
     1
 74
     3
 75
     0
 76
     0
 77
     0
 78
     0
  0
ENDTAB
  0
TABLE
  2
LTYPE
  5
5
330
0
100
AcDbSymbolTable
 70
     1
  0
LTYPE
  5
14
330
5
100
AcDbSymbolTableRecord
100
AcDbLinetypeTableRecord
  2
BYBLOCK
 70
     0
  3

 72
    65
 73
     0
 40
0.0
  0
LTYPE
  5
15
330
5
100
AcDbSymbolTableRecord
100
AcDbLinetypeTableRecord
  2
BYLAYER
 70
     0
  3

 72
    65
 73
     0
 40
0.0
  0
LTYPE
  5
16
330
5
100
AcDbSymbolTableRecord
100
AcDbLinetypeTableRecord
  2
CONTINUOUS
 70
     0
  3
Solid line
 72
    65
 73
     0
 40
0.0
  0
ENDTAB
  0
TABLE
  2
LAYER
  5
2
330
0
100
AcDbSymbolTable
 70
     6
  0
LAYER
  5
10
330
2
100
AcDbSymbolTableRecord
100
AcDbLayerTableRecord
  2
0
 70
     0
 62
     7
  6
CONTINUOUS
  0
LAYER
  5
40
330
2
100
AcDbSymbolTableRecord
100
AcDbLayerTableRecord
  2
REFERENCIAS
 70
     0
 62
     7
  6
CONTINUOUS
  0
LAYER
  5
42
330
2
100
AcDbSymbolTableRecord
100
AcDbLayerTableRecord
  2
M_U_00C1RGENES
 70
     0
 62
     7
  6
CONTINUOUS
  0
LAYER
  5
51
330
2
100
AcDbSymbolTableRecord
100
AcDbLayerTableRecord
  2
DIBUJOS
 70
     0
 62
     7
  6
CONTINUOUS
  0
LAYER
  5
633
330
2
100
AcDbSymbolTableRecord
100
AcDbLayerTableRecord
  2
COTAS_LINEA
 70
     0
 62
     7
  6
CONTINUOUS
  0
LAYER
  5
644
330
2
100
AcDbSymbolTableRecord
100
AcDbLayerTableRecord
  2
COTAS_N_U_00DAMERO
 70
     0
 62
     7
  6
CONTINUOUS
  0
ENDTAB
  0
TABLE
  2
STYLE
  5
3
330
0
100
AcDbSymbolTable
 70
     1
  0
STYLE
  5
11
330
3
100
AcDbSymbolTableRecord
100
AcDbTextStyleTableRecord
  2
STANDARD
 70
     0
 40
0.0
 41
1.0
 50
0.0
 71
     0
 42
0.2
  3
txt
  4

  0
ENDTAB
  0
TABLE
  2
VIEW
  5
6
330
0
100
AcDbSymbolTable
 70
     0
  0
ENDTAB
  0
TABLE
  2
UCS
  5
7
330
0
100
AcDbSymbolTable
 70
     0
  0
ENDTAB
  0
TABLE
  2
APPID
  5
9
330
0
100
AcDbSymbolTable
 70
     1
  0
APPID
  5
12
330
9
100
AcDbSymbolTableRecord
100
AcDbRegAppTableRecord
  2
ACAD
 70
     0
  0
ENDTAB
  0
TABLE
  2
DIMSTYLE
  5
A
330
0
100
AcDbSymbolTable
 70
     1
  0
DIMSTYLE
105
27
330
A
100
AcDbSymbolTableRecord
100
AcDbDimStyleTableRecord
  2
STANDARD
 70
     0
  3

  4

  5

  6

  7

 40
1.0
 41
0.18
 42
0.0625
 43
0.38
 44
0.18
 45
0.0
 46
0.0
 47
0.0
 48
0.0
140
0.18
141
0.09
142
0.0
143
25.4
144
1.0
145
0.0
146
1.0
147
0.09
 71
     0
 72
     0
 73
     1
 74
     1
 75
     0
 76
     0
 77
     0
 78
     0
170
     0
171
     2
172
     0
173
     0
174
     0
175
     0
176
     0
177
     0
178
     0
270
     2
271
     4
272
     4
273
     2
274
     2
340
11
275
     0
280
     0
281
     0
282
     0
283
     1
284
     0
285
     0
286
     0
287
     3
288
     0
  0
ENDTAB
  0
TABLE
  2
BLOCK_RECORD
  5
1
330
0
100
AcDbSymbolTable
 70
     4
  0
BLOCK_RECORD
  5
1F
330
1
100
AcDbSymbolTableRecord
100
AcDbBlockTableRecord
  2
*MODEL_SPACE
  0
BLOCK_RECORD
  5
1B
330
1
100
AcDbSymbolTableRecord
100
AcDbBlockTableRecord
  2
*PAPER_SPACE
  0
BLOCK_RECORD
  5
52
330
1
100
AcDbSymbolTableRecord
100
AcDbBlockTableRecord
  2
BLOCK_2
  0
BLOCK_RECORD
  5
323
330
1
100
AcDbSymbolTableRecord
100
AcDbBlockTableRecord
  2
BLOCK_3
  0
BLOCK_RECORD
  5
564
330
1
100
AcDbSymbolTableRecord
100
AcDbBlockTableRecord
  2
BLOCK_4
  0
ENDTAB
  0
ENDSEC
  0
SECTION
  2
BLOCKS
  0
BLOCK
  5
20
330
1F
100
AcDbEntity
  8
0
100
AcDbBlockBegin
  2
*MODEL_SPACE
 70
     0
 10
0.0
 20
0.0
 30
0.0
  3
*MODEL_SPACE
  1

  0
ENDBLK
  5
21
330
1F
100
AcDbEntity
  8
0
100
AcDbBlockEnd
  0
BLOCK
  5
1C
330
1B
100
AcDbEntity
 67
     1
  8
0
100
AcDbBlockBegin
  2
*PAPER_SPACE
 70
     0
 10
0.0
 20
0.0
 30
0.0
  3
*PAPER_SPACE
  1

  0
ENDBLK
  5
1D
330
1B
100
AcDbEntity
 67
     1
  8
0
100
AcDbBlockEnd
  0
BLOCK
  5
54
330
52
100
AcDbEntity
  8
0
100
AcDbBlockBegin
  2
BLOCK_2
 70
     0
 10
0.0
 20
0.0
 30
0.0
  3
BLOCK_2
  1

  0
POLYLINE
  5
56
330
52
100
AcDbEntity
  8
DIBUJOS
 62
     7
100
AcDb2dPolyline
 66
     1
 10
0.0
 20
0.0
 30
0.0
  0
VERTEX
  5
57
330
56
100
AcDbEntity
  8
DIBUJOS
 62
     7
100
AcDbVertex
100
AcDb2dVertex
 10
62.80572909625076
 20
49.19289288285898
 30
0.0
  0
VERTEX
  5
58
330
56
100
AcDbEntity
  8
DIBUJOS
 62
     7
100
AcDbVertex
100
AcDb2dVertex
 10
62.79967717029135
 20
49.19289288285898
 30
0.0
  0
SEQEND
  5
59
330
56
100
AcDbEntity
  8
DIBUJOS
 62
     7
  0
POLYLINE
  5
5A
330
52
100
AcDbEntity
  8
DIBUJOS
 62
     7
100
AcDb2dPolyline
 66
     1
 10
0.0
 20
0.0
 30
0.0
  0
VERTEX
  5
5B
330
5A
100
AcDbEntity
  8
DIBUJOS
 62
     7
100
AcDbVertex
100
AcDb2dVertex
 10
62.81783131955699
 20
49.19289288285898
 30
0.0
  0
VERTEX
  5
5C
330
5A
100
AcDbEntity
  8
DIBUJOS
 62
     7
100
AcDbVertex
100
AcDb2dVertex
 10
62.81177939359758
 20
49.19894525375165
 30
0.0
  0
VERTEX
  5
5D
330
5A
100
AcDbEntity
  8
DIBUJOS
 62
     7
100
AcDbVertex
100
AcDb2dVertex
 10
62.80572909625076
 20
49.19289288285898
 30
0.0
  0
SEQEND
  5
5E
330
5A
100
AcDbEntity
  8
DIBUJOS
 62
     7
  0
POLYLINE
  5
5F
330
52
100
AcDbEntity
  8
DIBUJOS
 62
     7
100
AcDb2dPolyline
 66
     1
 10
0.0
 20
0.0
 30
0.0
  0
VERTEX
  5
60
330
5F
100
AcDbEntity
  8
DIBUJOS
 62
     7
100
AcDbVertex
100
AcDb2dVertex
 10
62.82388161690348
 20
49.19289288285898
 30
0.0
  0
VERTEX
  5
61
330
5F
100
AcDbEntity
  8
DIBUJOS
 62
     7
100
AcDbVertex
100
AcDb2dVertex
 10
62.81783131955699
 20
49.19289288285898
 30
0.0
  0
SEQEND
  5
62
330
5F
100
AcDbEntity
  8
DIBUJOS
 62
     7
  0
POLYLINE
  5
63
330
52
100
AcDbEntity
  8
DIBUJOS
 62
     7
100
AcDb2dPolyline
 66
     1
 10
0.0
 20
0.0
 30
0.0
  0
VERTEX
  5
64
330
63
100
AcDbEntity
  8
DIBUJOS
 62
     7
100
AcDbVertex
100
AcDb2dVertex
 10
66.44842665241276
 20
49.19289288285898
 30
0.0
  0
VERTEX
  5
65
330
63
100
AcDbEntity
  8
DIBUJOS
 62
     7
100
AcDbVertex
100
AcDb2dVertex
 10
66.34462863058614
 20
49.25201262415558
 30
0.0
  0
VERTEX
  5
66
330
63
100
AcDbEntity
  8
DIBUJOS
 62
     7
100
AcDbVertex
100
AcDb2dVertex
 10
66.27839293931191
 20
49.27579863721103
 30
0.0
  0
VERTEX
  5
67
330
63
100
AcDbEntity
  8
DIBUJOS
 62
     7
100
AcDbVertex
100
AcDb2dVertex
 10
66.13437957633457
 20
49.32178753509081
 30
0.0
  0
VERTEX
  5
68
330
63
100
AcDbEntity
  8
DIBUJOS
 62
     7
100
AcDbVertex
100
AcDb2dVertex
 10
65.98209123063269
 20
49.3719818209266
 30
0.0
  0
VERTEX
  5
69
330
63
100
AcDbEntity
  8
DIBUJOS
 62
     7
100
AcDbVertex
100
AcDb2dVertex
 10
65.69851224681828
 20
49.41925090274629
 30
0.0
  0
VERTEX
  5
6A
330
63
100
AcDbEntity
  8
DIBUJOS
 62
     7
100
AcDbVertex
100
AcDb2dVertex
 10
65.5228728477239
 20
49.44373075595255
 30
0.0
  0
VERTEX
  5
6B
330
63
100
AcDbEntity
  8
DIBUJOS
 62
     7
100
AcDbVertex
100
AcDb2dVertex
 10
65.4502415931442
 20
49.44980918656951
 30
0.0
  0
VERTEX
  5
6C
330
63
100
AcDbEntity
  8
DIBUJOS
 62
     7
100
AcDbVertex
100
AcDb2dVertex
 10
65.0384728503944
 20
49.48041307490872
 30
0.0
  0
VERTEX
  5
6D
330
63
100
AcDbEntity
  8
DIBUJOS
 62
     7
100
AcDbVertex
100
AcDb2dVertex
 10
64.7904546317379
 20
49.48941345207596
 30
0.0
  0
VERTEX
  5
6E
330
63
100
AcDbEntity
  8
DIBUJOS
 62
     7
100
AcDbVertex
100
AcDb2dVertex
 10
64.46968138391244
 20
49.48631560238886
 30
0.0
  0
VERTEX
  5
6F
330
63
100
AcDbEntity
  8
DIBUJOS
 62
     7
100
AcDbVertex
100
AcDb2dVertex
 10
64.22173156700207
 20
49.48040981744354
 30
0.0
  0
VERTEX
  5
70
330
63
100
AcDbEntity
  8
DIBUJOS
 62
     7
100
AcDbVertex
100
AcDb2dVertex
 10
63.74991260520513
 20
49.44430081241448
 30
0.0
  0
VERTEX
  5
71
330
63
100
AcDbEntity
  8
DIBUJOS
 62
     7
100
AcDbVertex
100
AcDb2dVertex
 10
63.56774572515115
 20
49.41925090274629
 30
0.0
  0
VERTEX
  5
72
330
63
100
AcDbEntity
  8
DIBUJOS
 62
     7
100
AcDbVertex
100
AcDb2dVertex
 10
63.32047178264154
 20
49.37803419181895
 30
0.0
  0
VERTEX
  5
73
330
63
100
AcDbEntity
  8
DIBUJOS
 62
     7
100
AcDbVertex
100
AcDb2dVertex
 10
63.10888400849235
 20
49.31210634763539
 30
0.0
  0
VERTEX
  5
74
330
63
100
AcDbEntity
  8
DIBUJOS
 62
     7
100
AcDbVertex
100
AcDb2dVertex
 10
62.96963922441898
 20
49.26942703469999
 30
0.0
  0
VERTEX
  5
75
330
63
100
AcDbEntity
  8
DIBUJOS
 62
     7
100
AcDbVertex
100
AcDb2dVertex
 10
62.91557741542355
 20
49.24596025326291
 30
0.0
  0
VERTEX
  5
76
330
63
100
AcDbEntity
  8
DIBUJOS
 62
     7
100
AcDbVertex
100
AcDb2dVertex
 10
62.82388161690348
 20
49.19289288285898
 30
0.0
  0
SEQEND
  5
77
330
63
100
AcDbEntity
  8
DIBUJOS
 62
     7
  0
POLYLINE
  5
78
330
52
100
AcDbEntity
  8
DIBUJOS
 62
     7
100
AcDb2dPolyline
 66
     1
 10
0.0
 20
0.0
 30
0.0
  0
VERTEX
  5
79
330
78
100
AcDbEntity
  8
DIBUJOS
 62
     7
100
AcDbVertex
100
AcDb2dVertex
 10
66.45447694975925
 20
49.19289288285898
 30
0.0
  0
VERTEX
  5
7A
330
78
100
AcDbEntity
  8
DIBUJOS
 62
     7
100
AcDbVertex
100
AcDb2dVertex
 10
66.44842665241276
 20
49.19289288285898
 30
0.0
  0
SEQEND
  5
7B
330
78
100
AcDbEntity
  8
DIBUJOS
 62
     7
  0
POLYLINE
  5
7C
330
52
100
AcDbEntity
  8
DIBUJOS
 62
     7
100
AcDb2dPolyline
 66
     1
 10
0.0
 20
0.0
 30
0.0
  0
VERTEX
  5
7D
330
7C
100
AcDbEntity
  8
DIBUJOS
 62
     7
100
AcDbVertex
100
AcDb2dVertex
 10
62.79362687294486
 20
49.18684051196695
 30
0.0
  0
VERTEX
  5
7E
330
7C
100
AcDbEntity
  8
DIBUJOS
 62
     7
100
AcDbVertex
100
AcDb2dVertex
 10
62.79967717029135
 20
49.19289288285898
 30
0.0
  0
SEQEND
  5
7F
330
7C
100
AcDbEntity
  8
DIBUJOS
 62
     7
  0
POLYLINE
  5
80
330
52
100
AcDbEntity
  8
DIBUJOS
 62
     7
100
AcDb2dPolyline
 66
     1
 10
0.0
 20
0.0
 30
0.0
  0
VERTEX
  5
81
330
80
100
AcDbEntity
  8
DIBUJOS
 62
     7
100
AcDbVertex
100
AcDb2dVertex
 10
62.80572909625076
 20
49.18684051196695
 30
0.0
  0
VERTEX
  5
82
330
80
100
AcDbEntity
  8
DIBUJOS
 62
     7
100
AcDbVertex
100
AcDb2dVertex
 10
62.80572909625076
 20
49.19289288285898
 30
0.0
  0
SEQEND
  5
83
330
80
100
AcDbEntity
  8
DIBUJOS
 62
     7
  0
POLYLINE
  5
84
330
52
100
AcDbEntity
  8
DIBUJOS
 62
     7
100
AcDb2dPolyline
 66
     1
 10
0.0
 20
0.0
 30
0.0
  0
VERTEX
  5
85
330
84
100
AcDbEntity
  8
DIBUJOS
 62
     7
100
AcDbVertex
100
AcDb2dVertex
 10
62.82388161690348
 20
49.18684051196695
 30
0.0
  0
VERTEX
  5
86
330
84
100
AcDbEntity
  8
DIBUJOS
 62
     7
100
AcDbVertex
100
AcDb2dVertex
 10
62.82388161690348
 20
49.19289288285898
 30
0.0
  0
SEQEND
  5
87
330
84
100
AcDbEntity
  8
DIBUJOS
 62
     7
  0
POLYLINE
  5
88
330
52
100
AcDbEntity
  8
DIBUJOS
 62
     7
100
AcDb2dPolyline
 66
     1
 10
0.0
 20
0.0
 30
0.0
  0
VERTEX
  5
89
330
88
100
AcDbEntity
  8
DIBUJOS
 62
     7
100
AcDbVertex
100
AcDb2dVertex
 10
66.44842665241276
 20
49.18684051196695
 30
0.0
  0
VERTEX
  5
8A
330
88
100
AcDbEntity
  8
DIBUJOS
 62
     7
100
AcDbVertex
100
AcDb2dVertex
 10
66.44842665241276
 20
49.19289288285898
 30
0.0
  0
SEQEND
  5
8B
330
88
100
AcDbEntity
  8
DIBUJOS
 62
     7
  0
POLYLINE
  5
8C
330
52
100
AcDbEntity
  8
DIBUJOS
 62
     7
100
AcDb2dPolyline
 66
     1
 10
0.0
 20
0.0
 30
0.0
  0
VERTEX
  5
8D
330
8C
100
AcDbEntity
  8
DIBUJOS
 62
     7
100
AcDbVertex
100
AcDb2dVertex
 10
66.47262947041166
 20
49.18684051196695
 30
0.0
  0
VERTEX
  5
8E
330
8C
100
AcDbEntity
  8
DIBUJOS
 62
     7
100
AcDbVertex
100
AcDb2dVertex
 10
66.46052887571867
 20
49.19894525375165
 30
0.0
  0
VERTEX
  5
8F
330
8C
100
AcDbEntity
  8
DIBUJOS
 62
     7
100
AcDbVertex
100
AcDb2dVertex
 10
66.45447694975925
 20
49.19289288285898
 30
0.0
  0
SEQEND
  5
90
330
8C
100
AcDbEntity
  8
DIBUJOS
 62
     7
  0
POLYLINE
  5
91
330
52
100
AcDbEntity
  8
DIBUJOS
 62
     7
100
AcDb2dPolyline
 66
     1
 10
0.0
 20
0.0
 30
0.0
  0
VERTEX
  5
92
330
91
100
AcDbEntity
  8
DIBUJOS
 62
     7
100
AcDbVertex
100
AcDb2dVertex
 10
62.79362687294486
 20
49.18079139853978
 30
0.0
  0
VERTEX
  5
93
330
91
100
AcDbEntity
  8
DIBUJOS
 62
     7
100
AcDbVertex
100
AcDb2dVertex
 10
62.78757657559836
 20
49.18079139853978
 30
0.0
  0
SEQEND
  5
94
330
91
100
AcDbEntity
  8
DIBUJOS
 62
     7
  0
POLYLINE
  5
95
330
52
100
AcDbEntity
  8
DIBUJOS
 62
     7
100
AcDb2dPolyline
 66
     1
 10
0.0
 20
0.0
 30
0.0
  0
VERTEX
  5
96
330
95
100
AcDbEntity
  8
DIBUJOS
 62
     7
100
AcDbVertex
100
AcDb2dVertex
 10
62.79362687294486
 20
49.18079139853978
 30
0.0
  0
VERTEX
  5
97
330
95
100
AcDbEntity
  8
DIBUJOS
 62
     7
100
AcDbVertex
100
AcDb2dVertex
 10
62.79362687294486
 20
49.18684051196695
 30
0.0
  0
SEQEND
  5
98
330
95
100
AcDbEntity
  8
DIBUJOS
 62
     7
  0
POLYLINE
  5
99
330
52
100
AcDbEntity
  8
DIBUJOS
 62
     7
100
AcDb2dPolyline
 66
     1
 10
0.0
 20
0.0
 30
0.0
  0
VERTEX
  5
9A
330
99
100
AcDbEntity
  8
DIBUJOS
 62
     7
100
AcDbVertex
100
AcDb2dVertex
 10
62.80572909625076
 20
49.18079139853978
 30
0.0
  0
VERTEX
  5
9B
330
99
100
AcDbEntity
  8
DIBUJOS
 62
     7
100
AcDbVertex
100
AcDb2dVertex
 10
62.80572909625076
 20
49.18684051196695
 30
0.0
  0
SEQEND
  5
9C
330
99
100
AcDbEntity
  8
DIBUJOS
 62
     7
  0
POLYLINE
  5
9D
330
52
100
AcDbEntity
  8
DIBUJOS
 62
     7
100
AcDb2dPolyline
 66
     1
 10
0.0
 20
0.0
 30
0.0
  0
VERTEX
  5
9E
330
9D
100
AcDbEntity
  8
DIBUJOS
 62
     7
100
AcDbVertex
100
AcDb2dVertex
 10
66.46657917306516
 20
49.18079139853978
 30
0.0
  0
VERTEX
  5
9F
330
9D
100
AcDbEntity
  8
DIBUJOS
 62
     7
100
AcDbVertex
100
AcDb2dVertex
 10
66.47262947041166
 20
49.18684051196695
 30
0.0
  0
SEQEND
  5
A0
330
9D
100
AcDbEntity
  8
DIBUJOS
 62
     7
  0
POLYLINE
  5
A1
330
52
100
AcDbEntity
  8
DIBUJOS
 62
     7
100
AcDb2dPolyline
 66
     1
 10
0.0
 20
0.0
 30
0.0
  0
VERTEX
  5
A2
330
A1
100
AcDbEntity
  8
DIBUJOS
 62
     7
100
AcDbVertex
100
AcDb2dVertex
 10
66.48473169371789
 20
49.18079139853978
 30
0.0
  0
VERTEX
  5
A3
330
A1
100
AcDbEntity
  8
DIBUJOS
 62
     7
100
AcDbVertex
100
AcDb2dVertex
 10
66.47262947041166
 20
49.18684051196695
 30
0.0
  0
SEQEND
  5
A4
330
A1
100
AcDbEntity
  8
DIBUJOS
 62
     7
  0
POLYLINE
  5
A5
330
52
100
AcDbEntity
  8
DIBUJOS
 62
     7
100
AcDb2dPolyline
 66
     1
 10
0.0
 20
0.0
 30
0.0
  0
VERTEX
  5
A6
330
A5
100
AcDbEntity
  8
DIBUJOS
 62
     7
100
AcDbVertex
100
AcDb2dVertex
 10
62.77547435229214
 20
49.17473902764711
 30
0.0
  0
VERTEX
  5
A7
330
A5
100
AcDbEntity
  8
DIBUJOS
 62
     7
100
AcDbVertex
100
AcDb2dVertex
 10
62.78757657559836
 20
49.18079139853978
 30
0.0
  0
SEQEND
  5
A8
330
A5
100
AcDbEntity
  8
DIBUJOS
 62
     7
  0
POLYLINE
  5
A9
330
52
100
AcDbEntity
  8
DIBUJOS
 62
     7
100
AcDb2dPolyline
 66
     1
 10
0.0
 20
0.0
 30
0.0
  0
VERTEX
  5
AA
330
A9
100
AcDbEntity
  8
DIBUJOS
 62
     7
100
AcDbVertex
100
AcDb2dVertex
 10
62.79362687294486
 20
49.17473902764711
 30
0.0
  0
VERTEX
  5
AB
330
A9
100
AcDbEntity
  8
DIBUJOS
 62
     7
100
AcDbVertex
100
AcDb2dVertex
 10
62.79362687294486
 20
49.18079139853978
 30
0.0
  0
SEQEND
  5
AC
330
A9
100
AcDbEntity
  8
DIBUJOS
 62
     7
  0
POLYLINE
  5
AD
330
52
100
AcDbEntity
  8
DIBUJOS
 62
     7
100
AcDb2dPolyline
 66
     1
 10
0.0
 20
0.0
 30
0.0
  0
VERTEX
  5
AE
330
AD
100
AcDbEntity
  8
DIBUJOS
 62
     7
100
AcDbVertex
100
AcDb2dVertex
 10
62.80572909625076
 20
49.17473902764711
 30
0.0
  0
VERTEX
  5
AF
330
AD
100
AcDbEntity
  8
DIBUJOS
 62
     7
100
AcDbVertex
100
AcDb2dVertex
 10
62.80572909625076
 20
49.18079139853978
 30
0.0
  0
SEQEND
  5
B0
330
AD
100
AcDbEntity
  8
DIBUJOS
 62
     7
  0
POLYLINE
  5
B1
330
52
100
AcDbEntity
  8
DIBUJOS
 62
     7
100
AcDb2dPolyline
 66
     1
 10
0.0
 20
0.0
 30
0.0
  0
VERTEX
  5
B2
330
B1
100
AcDbEntity
  8
DIBUJOS
 62
     7
100
AcDbVertex
100
AcDb2dVertex
 10
62.81177939359758
 20
49.17473902764711
 30
0.0
  0
VERTEX
  5
B3
330
B1
100
AcDbEntity
  8
DIBUJOS
 62
     7
100
AcDbVertex
100
AcDb2dVertex
 10
62.80572909625076
 20
49.17473902764711
 30
0.0
  0
SEQEND
  5
B4
330
B1
100
AcDbEntity
  8
DIBUJOS
 62
     7
  0
POLYLINE
  5
B5
330
52
100
AcDbEntity
  8
DIBUJOS
 62
     7
100
AcDb2dPolyline
 66
     1
 10
0.0
 20
0.0
 30
0.0
  0
VERTEX
  5
B6
330
B5
100
AcDbEntity
  8
DIBUJOS
 62
     7
100
AcDbVertex
100
AcDb2dVertex
 10
62.81177939359758
 20
49.17473902764711
 30
0.0
  0
VERTEX
  5
B7
330
B5
100
AcDbEntity
  8
DIBUJOS
 62
     7
100
AcDbVertex
100
AcDb2dVertex
 10
62.82388161690348
 20
49.18684051196695
 30
0.0
  0
SEQEND
  5
B8
330
B5
100
AcDbEntity
  8
DIBUJOS
 62
     7
  0
POLYLINE
  5
B9
330
52
100
AcDbEntity
  8
DIBUJOS
 62
     7
100
AcDb2dPolyline
 66
     1
 10
0.0
 20
0.0
 30
0.0
  0
VERTEX
  5
BA
330
B9
100
AcDbEntity
  8
DIBUJOS
 62
     7
100
AcDbVertex
100
AcDb2dVertex
 10
66.46052887571867
 20
49.17473902764711
 30
0.0
  0
VERTEX
  5
BB
330
B9
100
AcDbEntity
  8
DIBUJOS
 62
     7
100
AcDbVertex
100
AcDb2dVertex
 10
66.44842665241276
 20
49.18684051196695
 30
0.0
  0
SEQEND
  5
BC
330
B9
100
AcDbEntity
  8
DIBUJOS
 62
     7
  0
POLYLINE
  5
BD
330
52
100
AcDbEntity
  8
DIBUJOS
 62
     7
100
AcDb2dPolyline
 66
     1
 10
0.0
 20
0.0
 30
0.0
  0
VERTEX
  5
BE
330
BD
100
AcDbEntity
  8
DIBUJOS
 62
     7
100
AcDbVertex
100
AcDb2dVertex
 10
66.46657917306516
 20
49.17473902764711
 30
0.0
  0
VERTEX
  5
BF
330
BD
100
AcDbEntity
  8
DIBUJOS
 62
     7
100
AcDbVertex
100
AcDb2dVertex
 10
66.46052887571867
 20
49.17473902764711
 30
0.0
  0
SEQEND
  5
C0
330
BD
100
AcDbEntity
  8
DIBUJOS
 62
     7
  0
POLYLINE
  5
C1
330
52
100
AcDbEntity
  8
DIBUJOS
 62
     7
100
AcDb2dPolyline
 66
     1
 10
0.0
 20
0.0
 30
0.0
  0
VERTEX
  5
C2
330
C1
100
AcDbEntity
  8
DIBUJOS
 62
     7
100
AcDbVertex
100
AcDb2dVertex
 10
66.46657917306516
 20
49.17473902764711
 30
0.0
  0
VERTEX
  5
C3
330
C1
100
AcDbEntity
  8
DIBUJOS
 62
     7
100
AcDbVertex
100
AcDb2dVertex
 10
66.46657917306516
 20
49.18079139853978
 30
0.0
  0
SEQEND
  5
C4
330
C1
100
AcDbEntity
  8
DIBUJOS
 62
     7
  0
POLYLINE
  5
C5
330
52
100
AcDbEntity
  8
DIBUJOS
 62
     7
100
AcDb2dPolyline
 66
     1
 10
0.0
 20
0.0
 30
0.0
  0
VERTEX
  5
C6
330
C5
100
AcDbEntity
  8
DIBUJOS
 62
     7
100
AcDbVertex
100
AcDb2dVertex
 10
66.47868139637139
 20
49.17473902764711
 30
0.0
  0
VERTEX
  5
C7
330
C5
100
AcDbEntity
  8
DIBUJOS
 62
     7
100
AcDbVertex
100
AcDb2dVertex
 10
66.48473169371789
 20
49.18079139853978
 30
0.0
  0
SEQEND
  5
C8
330
C5
100
AcDbEntity
  8
DIBUJOS
 62
     7
  0
POLYLINE
  5
C9
330
52
100
AcDbEntity
  8
DIBUJOS
 62
     7
100
AcDb2dPolyline
 66
     1
 10
0.0
 20
0.0
 30
0.0
  0
VERTEX
  5
CA
330
C9
100
AcDbEntity
  8
DIBUJOS
 62
     7
100
AcDbVertex
100
AcDb2dVertex
 10
62.76337212898623
 20
49.16868665675477
 30
0.0
  0
VERTEX
  5
CB
330
C9
100
AcDbEntity
  8
DIBUJOS
 62
     7
100
AcDbVertex
100
AcDb2dVertex
 10
62.7573202030265
 20
49.16868665675477
 30
0.0
  0
SEQEND
  5
CC
330
C9
100
AcDbEntity
  8
DIBUJOS
 62
     7
  0
POLYLINE
  5
CD
330
52
100
AcDbEntity
  8
DIBUJOS
 62
     7
100
AcDb2dPolyline
 66
     1
 10
0.0
 20
0.0
 30
0.0
  0
VERTEX
  5
CE
330
CD
100
AcDbEntity
  8
DIBUJOS
 62
     7
100
AcDbVertex
100
AcDb2dVertex
 10
62.76337212898623
 20
49.16868665675477
 30
0.0
  0
VERTEX
  5
CF
330
CD
100
AcDbEntity
  8
DIBUJOS
 62
     7
100
AcDbVertex
100
AcDb2dVertex
 10
62.77547435229214
 20
49.17473902764711
 30
0.0
  0
SEQEND
  5
D0
330
CD
100
AcDbEntity
  8
DIBUJOS
 62
     7
  0
POLYLINE
  5
D1
330
52
100
AcDbEntity
  8
DIBUJOS
 62
     7
100
AcDb2dPolyline
 66
     1
 10
0.0
 20
0.0
 30
0.0
  0
VERTEX
  5
D2
330
D1
100
AcDbEntity
  8
DIBUJOS
 62
     7
100
AcDbVertex
100
AcDb2dVertex
 10
62.78152464963863
 20
49.16868665675477
 30
0.0
  0
VERTEX
  5
D3
330
D1
100
AcDbEntity
  8
DIBUJOS
 62
     7
100
AcDbVertex
100
AcDb2dVertex
 10
62.77547435229214
 20
49.17473902764711
 30
0.0
  0
SEQEND
  5
D4
330
D1
100
AcDbEntity
  8
DIBUJOS
 62
     7
  0
POLYLINE
  5
D5
330
52
100
AcDbEntity
  8
DIBUJOS
 62
     7
100
AcDb2dPolyline
 66
     1
 10
0.0
 20
0.0
 30
0.0
  0
VERTEX
  5
D6
330
D5
100
AcDbEntity
  8
DIBUJOS
 62
     7
100
AcDbVertex
100
AcDb2dVertex
 10
62.79362687294486
 20
49.16868665675477
 30
0.0
  0
VERTEX
  5
D7
330
D5
100
AcDbEntity
  8
DIBUJOS
 62
     7
100
AcDbVertex
100
AcDb2dVertex
 10
62.79362687294486
 20
49.17473902764711
 30
0.0
  0
SEQEND
  5
D8
330
D5
100
AcDbEntity
  8
DIBUJOS
 62
     7
  0
POLYLINE
  5
D9
330
52
100
AcDbEntity
  8
DIBUJOS
 62
     7
100
AcDb2dPolyline
 66
     1
 10
0.0
 20
0.0
 30
0.0
  0
VERTEX
  5
DA
330
D9
100
AcDbEntity
  8
DIBUJOS
 62
     7
100
AcDbVertex
100
AcDb2dVertex
 10
62.79967717029135
 20
49.16868665675477
 30
0.0
  0
VERTEX
  5
DB
330
D9
100
AcDbEntity
  8
DIBUJOS
 62
     7
100
AcDbVertex
100
AcDb2dVertex
 10
62.79362687294486
 20
49.16868665675477
 30
0.0
  0
SEQEND
  5
DC
330
D9
100
AcDbEntity
  8
DIBUJOS
 62
     7
  0
POLYLINE
  5
DD
330
52
100
AcDbEntity
  8
DIBUJOS
 62
     7
100
AcDb2dPolyline
 66
     1
 10
0.0
 20
0.0
 30
0.0
  0
VERTEX
  5
DE
330
DD
100
AcDbEntity
  8
DIBUJOS
 62
     7
100
AcDbVertex
100
AcDb2dVertex
 10
62.79967717029135
 20
49.16868665675477
 30
0.0
  0
VERTEX
  5
DF
330
DD
100
AcDbEntity
  8
DIBUJOS
 62
     7
100
AcDbVertex
100
AcDb2dVertex
 10
62.80572909625076
 20
49.17473902764711
 30
0.0
  0
SEQEND
  5
E0
330
DD
100
AcDbEntity
  8
DIBUJOS
 62
     7
  0
POLYLINE
  5
E1
330
52
100
AcDbEntity
  8
DIBUJOS
 62
     7
100
AcDb2dPolyline
 66
     1
 10
0.0
 20
0.0
 30
0.0
  0
VERTEX
  5
E2
330
E1
100
AcDbEntity
  8
DIBUJOS
 62
     7
100
AcDbVertex
100
AcDb2dVertex
 10
66.47262947041166
 20
49.16868665675477
 30
0.0
  0
VERTEX
  5
E3
330
E1
100
AcDbEntity
  8
DIBUJOS
 62
     7
100
AcDbVertex
100
AcDb2dVertex
 10
66.46657917306516
 20
49.17473902764711
 30
0.0
  0
SEQEND
  5
E4
330
E1
100
AcDbEntity
  8
DIBUJOS
 62
     7
  0
POLYLINE
  5
E5
330
52
100
AcDbEntity
  8
DIBUJOS
 62
     7
100
AcDb2dPolyline
 66
     1
 10
0.0
 20
0.0
 30
0.0
  0
VERTEX
  5
E6
330
E5
100
AcDbEntity
  8
DIBUJOS
 62
     7
100
AcDbVertex
100
AcDb2dVertex
 10
66.47868139637139
 20
49.16868665675477
 30
0.0
  0
VERTEX
  5
E7
330
E5
100
AcDbEntity
  8
DIBUJOS
 62
     7
100
AcDbVertex
100
AcDb2dVertex
 10
66.47262947041166
 20
49.16868665675477
 30
0.0
  0
SEQEND
  5
E8
330
E5
100
AcDbEntity
  8
DIBUJOS
 62
     7
  0
POLYLINE
  5
E9
330
52
100
AcDbEntity
  8
DIBUJOS
 62
     7
100
AcDb2dPolyline
 66
     1
 10
0.0
 20
0.0
 30
0.0
  0
VERTEX
  5
EA
330
E9
100
AcDbEntity
  8
DIBUJOS
 62
     7
100
AcDbVertex
100
AcDb2dVertex
 10
66.47868139637139
 20
49.16868665675477
 30
0.0
  0
VERTEX
  5
EB
330
E9
100
AcDbEntity
  8
DIBUJOS
 62
     7
100
AcDbVertex
100
AcDb2dVertex
 10
66.47868139637139
 20
49.17473902764711
 30
0.0
  0
SEQEND
  5
EC
330
E9
100
AcDbEntity
  8
DIBUJOS
 62
     7
  0
POLYLINE
  5
ED
330
52
100
AcDbEntity
  8
DIBUJOS
 62
     7
100
AcDb2dPolyline
 66
     1
 10
0.0
 20
0.0
 30
0.0
  0
VERTEX
  5
EE
330
ED
100
AcDbEntity
  8
DIBUJOS
 62
     7
100
AcDbVertex
100
AcDb2dVertex
 10
66.49683391702379
 20
49.16868665675477
 30
0.0
  0
VERTEX
  5
EF
330
ED
100
AcDbEntity
  8
DIBUJOS
 62
     7
100
AcDbVertex
100
AcDb2dVertex
 10
66.49683391702379
 20
49.17473902764711
 30
0.0
  0
VERTEX
  5
F0
330
ED
100
AcDbEntity
  8
DIBUJOS
 62
     7
100
AcDbVertex
100
AcDb2dVertex
 10
66.48473169371789
 20
49.18079139853978
 30
0.0
  0
SEQEND
  5
F1
330
ED
100
AcDbEntity
  8
DIBUJOS
 62
     7
  0
POLYLINE
  5
F2
330
52
100
AcDbEntity
  8
DIBUJOS
 62
     7
100
AcDb2dPolyline
 66
     1
 10
0.0
 20
0.0
 30
0.0
  0
VERTEX
  5
F3
330
F2
100
AcDbEntity
  8
DIBUJOS
 62
     7
100
AcDbVertex
100
AcDb2dVertex
 10
62.75126990568
 20
49.1626375433276
 30
0.0
  0
VERTEX
  5
F4
330
F2
100
AcDbEntity
  8
DIBUJOS
 62
     7
100
AcDbVertex
100
AcDb2dVertex
 10
62.74521960833351
 20
49.1626375433276
 30
0.0
  0
SEQEND
  5
F5
330
F2
100
AcDbEntity
  8
DIBUJOS
 62
     7
  0
POLYLINE
  5
F6
330
52
100
AcDbEntity
  8
DIBUJOS
 62
     7
100
AcDb2dPolyline
 66
     1
 10
0.0
 20
0.0
 30
0.0
  0
VERTEX
  5
F7
330
F6
100
AcDbEntity
  8
DIBUJOS
 62
     7
100
AcDbVertex
100
AcDb2dVertex
 10
62.75126990568
 20
49.1626375433276
 30
0.0
  0
VERTEX
  5
F8
330
F6
100
AcDbEntity
  8
DIBUJOS
 62
     7
100
AcDbVertex
100
AcDb2dVertex
 10
62.7573202030265
 20
49.16868665675477
 30
0.0
  0
SEQEND
  5
F9
330
F6
100
AcDbEntity
  8
DIBUJOS
 62
     7
  0
POLYLINE
  5
FA
330
52
100
AcDbEntity
  8
DIBUJOS
 62
     7
100
AcDb2dPolyline
 66
     1
 10
0.0
 20
0.0
 30
0.0
  0
VERTEX
  5
FB
330
FA
100
AcDbEntity
  8
DIBUJOS
 62
     7
100
AcDbVertex
100
AcDb2dVertex
 10
62.76337212898623
 20
49.1626375433276
 30
0.0
  0
VERTEX
  5
FC
330
FA
100
AcDbEntity
  8
DIBUJOS
 62
     7
100
AcDbVertex
100
AcDb2dVertex
 10
62.76337212898623
 20
49.16868665675477
 30
0.0
  0
SEQEND
  5
FD
330
FA
100
AcDbEntity
  8
DIBUJOS
 62
     7
  0
POLYLINE
  5
FE
330
52
100
AcDbEntity
  8
DIBUJOS
 62
     7
100
AcDb2dPolyline
 66
     1
 10
0.0
 20
0.0
 30
0.0
  0
VERTEX
  5
FF
330
FE
100
AcDbEntity
  8
DIBUJOS
 62
     7
100
AcDbVertex
100
AcDb2dVertex
 10
62.78152464963863
 20
49.1626375433276
 30
0.0
  0
VERTEX
  5
100
330
FE
100
AcDbEntity
  8
DIBUJOS
 62
     7
100
AcDbVertex
100
AcDb2dVertex
 10
62.78152464963863
 20
49.16868665675477
 30
0.0
  0
SEQEND
  5
101
330
FE
100
AcDbEntity
  8
DIBUJOS
 62
     7
  0
POLYLINE
  5
102
330
52
100
AcDbEntity
  8
DIBUJOS
 62
     7
100
AcDb2dPolyline
 66
     1
 10
0.0
 20
0.0
 30
0.0
  0
VERTEX
  5
103
330
102
100
AcDbEntity
  8
DIBUJOS
 62
     7
100
AcDbVertex
100
AcDb2dVertex
 10
62.78757657559836
 20
49.1626375433276
 30
0.0
  0
VERTEX
  5
104
330
102
100
AcDbEntity
  8
DIBUJOS
 62
     7
100
AcDbVertex
100
AcDb2dVertex
 10
62.78152464963863
 20
49.1626375433276
 30
0.0
  0
SEQEND
  5
105
330
102
100
AcDbEntity
  8
DIBUJOS
 62
     7
  0
POLYLINE
  5
106
330
52
100
AcDbEntity
  8
DIBUJOS
 62
     7
100
AcDb2dPolyline
 66
     1
 10
0.0
 20
0.0
 30
0.0
  0
VERTEX
  5
107
330
106
100
AcDbEntity
  8
DIBUJOS
 62
     7
100
AcDbVertex
100
AcDb2dVertex
 10
62.78757657559836
 20
49.1626375433276
 30
0.0
  0
VERTEX
  5
108
330
106
100
AcDbEntity
  8
DIBUJOS
 62
     7
100
AcDbVertex
100
AcDb2dVertex
 10
62.79362687294486
 20
49.16868665675477
 30
0.0
  0
SEQEND
  5
109
330
106
100
AcDbEntity
  8
DIBUJOS
 62
     7
  0
POLYLINE
  5
10A
330
52
100
AcDbEntity
  8
DIBUJOS
 62
     7
100
AcDb2dPolyline
 66
     1
 10
0.0
 20
0.0
 30
0.0
  0
VERTEX
  5
10B
330
10A
100
AcDbEntity
  8
DIBUJOS
 62
     7
100
AcDbVertex
100
AcDb2dVertex
 10
66.47868139637139
 20
49.16868665675477
 30
0.0
  0
VERTEX
  5
10C
330
10A
100
AcDbEntity
  8
DIBUJOS
 62
     7
100
AcDbVertex
100
AcDb2dVertex
 10
66.48473169371789
 20
49.1626375433276
 30
0.0
  0
VERTEX
  5
10D
330
10A
100
AcDbEntity
  8
DIBUJOS
 62
     7
100
AcDbVertex
100
AcDb2dVertex
 10
66.49683391702379
 20
49.16868665675477
 30
0.0
  0
SEQEND
  5
10E
330
10A
100
AcDbEntity
  8
DIBUJOS
 62
     7
  0
POLYLINE
  5
10F
330
52
100
AcDbEntity
  8
DIBUJOS
 62
     7
100
AcDb2dPolyline
 66
     1
 10
0.0
 20
0.0
 30
0.0
  0
VERTEX
  5
110
330
10F
100
AcDbEntity
  8
DIBUJOS
 62
     7
100
AcDbVertex
100
AcDb2dVertex
 10
66.5028858429832
 20
49.1626375433276
 30
0.0
  0
VERTEX
  5
111
330
10F
100
AcDbEntity
  8
DIBUJOS
 62
     7
100
AcDbVertex
100
AcDb2dVertex
 10
66.49683391702379
 20
49.16868665675477
 30
0.0
  0
SEQEND
  5
112
330
10F
100
AcDbEntity
  8
DIBUJOS
 62
     7
  0
POLYLINE
  5
113
330
52
100
AcDbEntity
  8
DIBUJOS
 62
     7
100
AcDb2dPolyline
 66
     1
 10
0.0
 20
0.0
 30
0.0
  0
VERTEX
  5
114
330
113
100
AcDbEntity
  8
DIBUJOS
 62
     7
100
AcDbVertex
100
AcDb2dVertex
 10
66.5089361403297
 20
49.1626375433276
 30
0.0
  0
VERTEX
  5
115
330
113
100
AcDbEntity
  8
DIBUJOS
 62
     7
100
AcDbVertex
100
AcDb2dVertex
 10
66.5028858429832
 20
49.1626375433276
 30
0.0
  0
SEQEND
  5
116
330
113
100
AcDbEntity
  8
DIBUJOS
 62
     7
  0
POLYLINE
  5
117
330
52
100
AcDbEntity
  8
DIBUJOS
 62
     7
100
AcDb2dPolyline
 66
     1
 10
0.0
 20
0.0
 30
0.0
  0
VERTEX
  5
118
330
117
100
AcDbEntity
  8
DIBUJOS
 62
     7
100
AcDbVertex
100
AcDb2dVertex
 10
62.73916768237378
 20
49.15658517243525
 30
0.0
  0
VERTEX
  5
119
330
117
100
AcDbEntity
  8
DIBUJOS
 62
     7
100
AcDbVertex
100
AcDb2dVertex
 10
62.73311738502728
 20
49.15658517243525
 30
0.0
  0
SEQEND
  5
11A
330
117
100
AcDbEntity
  8
DIBUJOS
 62
     7
  0
POLYLINE
  5
11B
330
52
100
AcDbEntity
  8
DIBUJOS
 62
     7
100
AcDb2dPolyline
 66
     1
 10
0.0
 20
0.0
 30
0.0
  0
VERTEX
  5
11C
330
11B
100
AcDbEntity
  8
DIBUJOS
 62
     7
100
AcDbVertex
100
AcDb2dVertex
 10
62.73916768237378
 20
49.15658517243525
 30
0.0
  0
VERTEX
  5
11D
330
11B
100
AcDbEntity
  8
DIBUJOS
 62
     7
100
AcDbVertex
100
AcDb2dVertex
 10
62.74521960833351
 20
49.1626375433276
 30
0.0
  0
SEQEND
  5
11E
330
11B
100
AcDbEntity
  8
DIBUJOS
 62
     7
  0
POLYLINE
  5
11F
330
52
100
AcDbEntity
  8
DIBUJOS
 62
     7
100
AcDb2dPolyline
 66
     1
 10
0.0
 20
0.0
 30
0.0
  0
VERTEX
  5
120
330
11F
100
AcDbEntity
  8
DIBUJOS
 62
     7
100
AcDbVertex
100
AcDb2dVertex
 10
62.75126990568
 20
49.15658517243525
 30
0.0
  0
VERTEX
  5
121
330
11F
100
AcDbEntity
  8
DIBUJOS
 62
     7
100
AcDbVertex
100
AcDb2dVertex
 10
62.75126990568
 20
49.1626375433276
 30
0.0
  0
SEQEND
  5
122
330
11F
100
AcDbEntity
  8
DIBUJOS
 62
     7
  0
POLYLINE
  5
123
330
52
100
AcDbEntity
  8
DIBUJOS
 62
     7
100
AcDb2dPolyline
 66
     1
 10
0.0
 20
0.0
 30
0.0
  0
VERTEX
  5
124
330
123
100
AcDbEntity
  8
DIBUJOS
 62
     7
100
AcDbVertex
100
AcDb2dVertex
 10
62.76942242633272
 20
49.15658517243525
 30
0.0
  0
VERTEX
  5
125
330
123
100
AcDbEntity
  8
DIBUJOS
 62
     7
100
AcDbVertex
100
AcDb2dVertex
 10
62.76337212898623
 20
49.1626375433276
 30
0.0
  0
SEQEND
  5
126
330
123
100
AcDbEntity
  8
DIBUJOS
 62
     7
  0
POLYLINE
  5
127
330
52
100
AcDbEntity
  8
DIBUJOS
 62
     7
100
AcDb2dPolyline
 66
     1
 10
0.0
 20
0.0
 30
0.0
  0
VERTEX
  5
128
330
127
100
AcDbEntity
  8
DIBUJOS
 62
     7
100
AcDbVertex
100
AcDb2dVertex
 10
62.76942242633272
 20
49.15658517243525
 30
0.0
  0
VERTEX
  5
129
330
127
100
AcDbEntity
  8
DIBUJOS
 62
     7
100
AcDbVertex
100
AcDb2dVertex
 10
62.78152464963863
 20
49.1626375433276
 30
0.0
  0
SEQEND
  5
12A
330
127
100
AcDbEntity
  8
DIBUJOS
 62
     7
  0
POLYLINE
  5
12B
330
52
100
AcDbEntity
  8
DIBUJOS
 62
     7
100
AcDb2dPolyline
 66
     1
 10
0.0
 20
0.0
 30
0.0
  0
VERTEX
  5
12C
330
12B
100
AcDbEntity
  8
DIBUJOS
 62
     7
100
AcDbVertex
100
AcDb2dVertex
 10
66.5028858429832
 20
49.15658517243525
 30
0.0
  0
VERTEX
  5
12D
330
12B
100
AcDbEntity
  8
DIBUJOS
 62
     7
100
AcDbVertex
100
AcDb2dVertex
 10
66.5028858429832
 20
49.1626375433276
 30
0.0
  0
SEQEND
  5
12E
330
12B
100
AcDbEntity
  8
DIBUJOS
 62
     7
  0
POLYLINE
  5
12F
330
52
100
AcDbEntity
  8
DIBUJOS
 62
     7
100
AcDb2dPolyline
 66
     1
 10
0.0
 20
0.0
 30
0.0
  0
VERTEX
  5
130
330
12F
100
AcDbEntity
  8
DIBUJOS
 62
     7
100
AcDbVertex
100
AcDb2dVertex
 10
66.52708866098241
 20
49.15658517243525
 30
0.0
  0
VERTEX
  5
131
330
12F
100
AcDbEntity
  8
DIBUJOS
 62
     7
100
AcDbVertex
100
AcDb2dVertex
 10
66.5149864376762
 20
49.16868665675477
 30
0.0
  0
VERTEX
  5
132
330
12F
100
AcDbEntity
  8
DIBUJOS
 62
     7
100
AcDbVertex
100
AcDb2dVertex
 10
66.5089361403297
 20
49.1626375433276
 30
0.0
  0
SEQEND
  5
133
330
12F
100
AcDbEntity
  8
DIBUJOS
 62
     7
  0
POLYLINE
  5
134
330
52
100
AcDbEntity
  8
DIBUJOS
 62
     7
100
AcDb2dPolyline
 66
     1
 10
0.0
 20
0.0
 30
0.0
  0
VERTEX
  5
135
330
134
100
AcDbEntity
  8
DIBUJOS
 62
     7
100
AcDbVertex
100
AcDb2dVertex
 10
62.72706545906787
 20
49.15053280154259
 30
0.0
  0
VERTEX
  5
136
330
134
100
AcDbEntity
  8
DIBUJOS
 62
     7
100
AcDbVertex
100
AcDb2dVertex
 10
62.72101516172138
 20
49.15053280154259
 30
0.0
  0
SEQEND
  5
137
330
134
100
AcDbEntity
  8
DIBUJOS
 62
     7
  0
POLYLINE
  5
138
330
52
100
AcDbEntity
  8
DIBUJOS
 62
     7
100
AcDb2dPolyline
 66
     1
 10
0.0
 20
0.0
 30
0.0
  0
VERTEX
  5
139
330
138
100
AcDbEntity
  8
DIBUJOS
 62
     7
100
AcDbVertex
100
AcDb2dVertex
 10
62.72706545906787
 20
49.15053280154259
 30
0.0
  0
VERTEX
  5
13A
330
138
100
AcDbEntity
  8
DIBUJOS
 62
     7
100
AcDbVertex
100
AcDb2dVertex
 10
62.73311738502728
 20
49.15658517243525
 30
0.0
  0
SEQEND
  5
13B
330
138
100
AcDbEntity
  8
DIBUJOS
 62
     7
  0
POLYLINE
  5
13C
330
52
100
AcDbEntity
  8
DIBUJOS
 62
     7
100
AcDb2dPolyline
 66
     1
 10
0.0
 20
0.0
 30
0.0
  0
VERTEX
  5
13D
330
13C
100
AcDbEntity
  8
DIBUJOS
 62
     7
100
AcDbVertex
100
AcDb2dVertex
 10
62.73916768237378
 20
49.15053280154259
 30
0.0
  0
VERTEX
  5
13E
330
13C
100
AcDbEntity
  8
DIBUJOS
 62
     7
100
AcDbVertex
100
AcDb2dVertex
 10
62.73916768237378
 20
49.15658517243525
 30
0.0
  0
SEQEND
  5
13F
330
13C
100
AcDbEntity
  8
DIBUJOS
 62
     7
  0
POLYLINE
  5
140
330
52
100
AcDbEntity
  8
DIBUJOS
 62
     7
100
AcDb2dPolyline
 66
     1
 10
0.0
 20
0.0
 30
0.0
  0
VERTEX
  5
141
330
140
100
AcDbEntity
  8
DIBUJOS
 62
     7
100
AcDbVertex
100
AcDb2dVertex
 10
62.75126990568
 20
49.15053280154259
 30
0.0
  0
VERTEX
  5
142
330
140
100
AcDbEntity
  8
DIBUJOS
 62
     7
100
AcDbVertex
100
AcDb2dVertex
 10
62.75126990568
 20
49.15658517243525
 30
0.0
  0
SEQEND
  5
143
330
140
100
AcDbEntity
  8
DIBUJOS
 62
     7
  0
POLYLINE
  5
144
330
52
100
AcDbEntity
  8
DIBUJOS
 62
     7
100
AcDb2dPolyline
 66
     1
 10
0.0
 20
0.0
 30
0.0
  0
VERTEX
  5
145
330
144
100
AcDbEntity
  8
DIBUJOS
 62
     7
100
AcDbVertex
100
AcDb2dVertex
 10
66.52103836363592
 20
49.15053280154259
 30
0.0
  0
VERTEX
  5
146
330
144
100
AcDbEntity
  8
DIBUJOS
 62
     7
100
AcDbVertex
100
AcDb2dVertex
 10
66.52708866098241
 20
49.15658517243525
 30
0.0
  0
SEQEND
  5
147
330
144
100
AcDbEntity
  8
DIBUJOS
 62
     7
  0
POLYLINE
  5
148
330
52
100
AcDbEntity
  8
DIBUJOS
 62
     7
100
AcDb2dPolyline
 66
     1
 10
0.0
 20
0.0
 30
0.0
  0
VERTEX
  5
149
330
148
100
AcDbEntity
  8
DIBUJOS
 62
     7
100
AcDbVertex
100
AcDb2dVertex
 10
66.53919088428864
 20
49.15053280154259
 30
0.0
  0
VERTEX
  5
14A
330
148
100
AcDbEntity
  8
DIBUJOS
 62
     7
100
AcDbVertex
100
AcDb2dVertex
 10
66.52708866098241
 20
49.15658517243525
 30
0.0
  0
SEQEND
  5
14B
330
148
100
AcDbEntity
  8
DIBUJOS
 62
     7
  0
POLYLINE
  5
14C
330
52
100
AcDbEntity
  8
DIBUJOS
 62
     7
100
AcDb2dPolyline
 66
     1
 10
0.0
 20
0.0
 30
0.0
  0
VERTEX
  5
14D
330
14C
100
AcDbEntity
  8
DIBUJOS
 62
     7
100
AcDbVertex
100
AcDb2dVertex
 10
62.71496323576164
 20
49.14448043065024
 30
0.0
  0
VERTEX
  5
14E
330
14C
100
AcDbEntity
  8
DIBUJOS
 62
     7
100
AcDbVertex
100
AcDb2dVertex
 10
62.72101516172138
 20
49.15053280154259
 30
0.0
  0
SEQEND
  5
14F
330
14C
100
AcDbEntity
  8
DIBUJOS
 62
     7
  0
POLYLINE
  5
150
330
52
100
AcDbEntity
  8
DIBUJOS
 62
     7
100
AcDb2dPolyline
 66
     1
 10
0.0
 20
0.0
 30
0.0
  0
VERTEX
  5
151
330
150
100
AcDbEntity
  8
DIBUJOS
 62
     7
100
AcDbVertex
100
AcDb2dVertex
 10
62.72706545906787
 20
49.14448043065024
 30
0.0
  0
VERTEX
  5
152
330
150
100
AcDbEntity
  8
DIBUJOS
 62
     7
100
AcDbVertex
100
AcDb2dVertex
 10
62.72706545906787
 20
49.15053280154259
 30
0.0
  0
SEQEND
  5
153
330
150
100
AcDbEntity
  8
DIBUJOS
 62
     7
  0
POLYLINE
  5
154
330
52
100
AcDbEntity
  8
DIBUJOS
 62
     7
100
AcDb2dPolyline
 66
     1
 10
0.0
 20
0.0
 30
0.0
  0
VERTEX
  5
155
330
154
100
AcDbEntity
  8
DIBUJOS
 62
     7
100
AcDbVertex
100
AcDb2dVertex
 10
62.73916768237378
 20
49.14448043065024
 30
0.0
  0
VERTEX
  5
156
330
154
100
AcDbEntity
  8
DIBUJOS
 62
     7
100
AcDbVertex
100
AcDb2dVertex
 10
62.73916768237378
 20
49.15053280154259
 30
0.0
  0
SEQEND
  5
157
330
154
100
AcDbEntity
  8
DIBUJOS
 62
     7
  0
POLYLINE
  5
158
330
52
100
AcDbEntity
  8
DIBUJOS
 62
     7
100
AcDb2dPolyline
 66
     1
 10
0.0
 20
0.0
 30
0.0
  0
VERTEX
  5
159
330
158
100
AcDbEntity
  8
DIBUJOS
 62
     7
100
AcDbVertex
100
AcDb2dVertex
 10
62.75126990568
 20
49.14448043065024
 30
0.0
  0
VERTEX
  5
15A
330
158
100
AcDbEntity
  8
DIBUJOS
 62
     7
100
AcDbVertex
100
AcDb2dVertex
 10
62.75126990568
 20
49.15053280154259
 30
0.0
  0
SEQEND
  5
15B
330
158
100
AcDbEntity
  8
DIBUJOS
 62
     7
  0
POLYLINE
  5
15C
330
52
100
AcDbEntity
  8
DIBUJOS
 62
     7
100
AcDb2dPolyline
 66
     1
 10
0.0
 20
0.0
 30
0.0
  0
VERTEX
  5
15D
330
15C
100
AcDbEntity
  8
DIBUJOS
 62
     7
100
AcDbVertex
100
AcDb2dVertex
 10
62.7573202030265
 20
49.14448043065024
 30
0.0
  0
VERTEX
  5
15E
330
15C
100
AcDbEntity
  8
DIBUJOS
 62
     7
100
AcDbVertex
100
AcDb2dVertex
 10
62.75126990568
 20
49.14448043065024
 30
0.0
  0
SEQEND
  5
15F
330
15C
100
AcDbEntity
  8
DIBUJOS
 62
     7
  0
POLYLINE
  5
160
330
52
100
AcDbEntity
  8
DIBUJOS
 62
     7
100
AcDb2dPolyline
 66
     1
 10
0.0
 20
0.0
 30
0.0
  0
VERTEX
  5
161
330
160
100
AcDbEntity
  8
DIBUJOS
 62
     7
100
AcDbVertex
100
AcDb2dVertex
 10
62.7573202030265
 20
49.14448043065024
 30
0.0
  0
VERTEX
  5
162
330
160
100
AcDbEntity
  8
DIBUJOS
 62
     7
100
AcDbVertex
100
AcDb2dVertex
 10
62.76942242633272
 20
49.15658517243525
 30
0.0
  0
SEQEND
  5
163
330
160
100
AcDbEntity
  8
DIBUJOS
 62
     7
  0
POLYLINE
  5
164
330
52
100
AcDbEntity
  8
DIBUJOS
 62
     7
100
AcDb2dPolyline
 66
     1
 10
0.0
 20
0.0
 30
0.0
  0
VERTEX
  5
165
330
164
100
AcDbEntity
  8
DIBUJOS
 62
     7
100
AcDbVertex
100
AcDb2dVertex
 10
66.5149864376762
 20
49.14448043065024
 30
0.0
  0
VERTEX
  5
166
330
164
100
AcDbEntity
  8
DIBUJOS
 62
     7
100
AcDbVertex
100
AcDb2dVertex
 10
66.5028858429832
 20
49.15658517243525
 30
0.0
  0
SEQEND
  5
167
330
164
100
AcDbEntity
  8
DIBUJOS
 62
     7
  0
POLYLINE
  5
168
330
52
100
AcDbEntity
  8
DIBUJOS
 62
     7
100
AcDb2dPolyline
 66
     1
 10
0.0
 20
0.0
 30
0.0
  0
VERTEX
  5
169
330
168
100
AcDbEntity
  8
DIBUJOS
 62
     7
100
AcDbVertex
100
AcDb2dVertex
 10
66.52103836363592
 20
49.14448043065024
 30
0.0
  0
VERTEX
  5
16A
330
168
100
AcDbEntity
  8
DIBUJOS
 62
     7
100
AcDbVertex
100
AcDb2dVertex
 10
66.5149864376762
 20
49.14448043065024
 30
0.0
  0
SEQEND
  5
16B
330
168
100
AcDbEntity
  8
DIBUJOS
 62
     7
  0
POLYLINE
  5
16C
330
52
100
AcDbEntity
  8
DIBUJOS
 62
     7
100
AcDb2dPolyline
 66
     1
 10
0.0
 20
0.0
 30
0.0
  0
VERTEX
  5
16D
330
16C
100
AcDbEntity
  8
DIBUJOS
 62
     7
100
AcDbVertex
100
AcDb2dVertex
 10
66.52103836363592
 20
49.14448043065024
 30
0.0
  0
VERTEX
  5
16E
330
16C
100
AcDbEntity
  8
DIBUJOS
 62
     7
100
AcDbVertex
100
AcDb2dVertex
 10
66.52103836363592
 20
49.15053280154259
 30
0.0
  0
SEQEND
  5
16F
330
16C
100
AcDbEntity
  8
DIBUJOS
 62
     7
  0
POLYLINE
  5
170
330
52
100
AcDbEntity
  8
DIBUJOS
 62
     7
100
AcDb2dPolyline
 66
     1
 10
0.0
 20
0.0
 30
0.0
  0
VERTEX
  5
171
330
170
100
AcDbEntity
  8
DIBUJOS
 62
     7
100
AcDbVertex
100
AcDb2dVertex
 10
66.53314058694215
 20
49.14448043065024
 30
0.0
  0
VERTEX
  5
172
330
170
100
AcDbEntity
  8
DIBUJOS
 62
     7
100
AcDbVertex
100
AcDb2dVertex
 10
66.53919088428864
 20
49.15053280154259
 30
0.0
  0
SEQEND
  5
173
330
170
100
AcDbEntity
  8
DIBUJOS
 62
     7
  0
POLYLINE
  5
174
330
52
100
AcDbEntity
  8
DIBUJOS
 62
     7
100
AcDb2dPolyline
 66
     1
 10
0.0
 20
0.0
 30
0.0
  0
VERTEX
  5
175
330
174
100
AcDbEntity
  8
DIBUJOS
 62
     7
100
AcDbVertex
100
AcDb2dVertex
 10
66.55129310759487
 20
49.14448043065024
 30
0.0
  0
VERTEX
  5
176
330
174
100
AcDbEntity
  8
DIBUJOS
 62
     7
100
AcDbVertex
100
AcDb2dVertex
 10
66.53919088428864
 20
49.15053280154259
 30
0.0
  0
SEQEND
  5
177
330
174
100
AcDbEntity
  8
DIBUJOS
 62
     7
  0
POLYLINE
  5
178
330
52
100
AcDbEntity
  8
DIBUJOS
 62
     7
100
AcDb2dPolyline
 66
     1
 10
0.0
 20
0.0
 30
0.0
  0
VERTEX
  5
179
330
178
100
AcDbEntity
  8
DIBUJOS
 62
     7
100
AcDbVertex
100
AcDb2dVertex
 10
62.71496323576164
 20
49.13843131722307
 30
0.0
  0
VERTEX
  5
17A
330
178
100
AcDbEntity
  8
DIBUJOS
 62
     7
100
AcDbVertex
100
AcDb2dVertex
 10
62.70891293841515
 20
49.13843131722307
 30
0.0
  0
SEQEND
  5
17B
330
178
100
AcDbEntity
  8
DIBUJOS
 62
     7
  0
POLYLINE
  5
17C
330
52
100
AcDbEntity
  8
DIBUJOS
 62
     7
100
AcDb2dPolyline
 66
     1
 10
0.0
 20
0.0
 30
0.0
  0
VERTEX
  5
17D
330
17C
100
AcDbEntity
  8
DIBUJOS
 62
     7
100
AcDbVertex
100
AcDb2dVertex
 10
62.71496323576164
 20
49.13843131722307
 30
0.0
  0
VERTEX
  5
17E
330
17C
100
AcDbEntity
  8
DIBUJOS
 62
     7
100
AcDbVertex
100
AcDb2dVertex
 10
62.71496323576164
 20
49.14448043065024
 30
0.0
  0
SEQEND
  5
17F
330
17C
100
AcDbEntity
  8
DIBUJOS
 62
     7
  0
POLYLINE
  5
180
330
52
100
AcDbEntity
  8
DIBUJOS
 62
     7
100
AcDb2dPolyline
 66
     1
 10
0.0
 20
0.0
 30
0.0
  0
VERTEX
  5
181
330
180
100
AcDbEntity
  8
DIBUJOS
 62
     7
100
AcDbVertex
100
AcDb2dVertex
 10
62.72706545906787
 20
49.13843131722307
 30
0.0
  0
VERTEX
  5
182
330
180
100
AcDbEntity
  8
DIBUJOS
 62
     7
100
AcDbVertex
100
AcDb2dVertex
 10
62.72706545906787
 20
49.14448043065024
 30
0.0
  0
SEQEND
  5
183
330
180
100
AcDbEntity
  8
DIBUJOS
 62
     7
  0
POLYLINE
  5
184
330
52
100
AcDbEntity
  8
DIBUJOS
 62
     7
100
AcDb2dPolyline
 66
     1
 10
0.0
 20
0.0
 30
0.0
  0
VERTEX
  5
185
330
184
100
AcDbEntity
  8
DIBUJOS
 62
     7
100
AcDbVertex
100
AcDb2dVertex
 10
62.73916768237378
 20
49.13843131722307
 30
0.0
  0
VERTEX
  5
186
330
184
100
AcDbEntity
  8
DIBUJOS
 62
     7
100
AcDbVertex
100
AcDb2dVertex
 10
62.73916768237378
 20
49.14448043065024
 30
0.0
  0
SEQEND
  5
187
330
184
100
AcDbEntity
  8
DIBUJOS
 62
     7
  0
POLYLINE
  5
188
330
52
100
AcDbEntity
  8
DIBUJOS
 62
     7
100
AcDb2dPolyline
 66
     1
 10
0.0
 20
0.0
 30
0.0
  0
VERTEX
  5
189
330
188
100
AcDbEntity
  8
DIBUJOS
 62
     7
100
AcDbVertex
100
AcDb2dVertex
 10
62.74521960833351
 20
49.13843131722307
 30
0.0
  0
VERTEX
  5
18A
330
188
100
AcDbEntity
  8
DIBUJOS
 62
     7
100
AcDbVertex
100
AcDb2dVertex
 10
62.73916768237378
 20
49.13843131722307
 30
0.0
  0
SEQEND
  5
18B
330
188
100
AcDbEntity
  8
DIBUJOS
 62
     7
  0
POLYLINE
  5
18C
330
52
100
AcDbEntity
  8
DIBUJOS
 62
     7
100
AcDb2dPolyline
 66
     1
 10
0.0
 20
0.0
 30
0.0
  0
VERTEX
  5
18D
330
18C
100
AcDbEntity
  8
DIBUJOS
 62
     7
100
AcDbVertex
100
AcDb2dVertex
 10
62.74521960833351
 20
49.13843131722307
 30
0.0
  0
VERTEX
  5
18E
330
18C
100
AcDbEntity
  8
DIBUJOS
 62
     7
100
AcDbVertex
100
AcDb2dVertex
 10
62.75126990568
 20
49.14448043065024
 30
0.0
  0
SEQEND
  5
18F
330
18C
100
AcDbEntity
  8
DIBUJOS
 62
     7
  0
POLYLINE
  5
190
330
52
100
AcDbEntity
  8
DIBUJOS
 62
     7
100
AcDb2dPolyline
 66
     1
 10
0.0
 20
0.0
 30
0.0
  0
VERTEX
  5
191
330
190
100
AcDbEntity
  8
DIBUJOS
 62
     7
100
AcDbVertex
100
AcDb2dVertex
 10
66.52708866098241
 20
49.13843131722307
 30
0.0
  0
VERTEX
  5
192
330
190
100
AcDbEntity
  8
DIBUJOS
 62
     7
100
AcDbVertex
100
AcDb2dVertex
 10
66.52103836363592
 20
49.14448043065024
 30
0.0
  0
SEQEND
  5
193
330
190
100
AcDbEntity
  8
DIBUJOS
 62
     7
  0
POLYLINE
  5
194
330
52
100
AcDbEntity
  8
DIBUJOS
 62
     7
100
AcDb2dPolyline
 66
     1
 10
0.0
 20
0.0
 30
0.0
  0
VERTEX
  5
195
330
194
100
AcDbEntity
  8
DIBUJOS
 62
     7
100
AcDbVertex
100
AcDb2dVertex
 10
66.53314058694215
 20
49.13843131722307
 30
0.0
  0
VERTEX
  5
196
330
194
100
AcDbEntity
  8
DIBUJOS
 62
     7
100
AcDbVertex
100
AcDb2dVertex
 10
66.52708866098241
 20
49.13843131722307
 30
0.0
  0
SEQEND
  5
197
330
194
100
AcDbEntity
  8
DIBUJOS
 62
     7
  0
POLYLINE
  5
198
330
52
100
AcDbEntity
  8
DIBUJOS
 62
     7
100
AcDb2dPolyline
 66
     1
 10
0.0
 20
0.0
 30
0.0
  0
VERTEX
  5
199
330
198
100
AcDbEntity
  8
DIBUJOS
 62
     7
100
AcDbVertex
100
AcDb2dVertex
 10
66.53314058694215
 20
49.13843131722307
 30
0.0
  0
VERTEX
  5
19A
330
198
100
AcDbEntity
  8
DIBUJOS
 62
     7
100
AcDbVertex
100
AcDb2dVertex
 10
66.53314058694215
 20
49.14448043065024
 30
0.0
  0
SEQEND
  5
19B
330
198
100
AcDbEntity
  8
DIBUJOS
 62
     7
  0
POLYLINE
  5
19C
330
52
100
AcDbEntity
  8
DIBUJOS
 62
     7
100
AcDb2dPolyline
 66
     1
 10
0.0
 20
0.0
 30
0.0
  0
VERTEX
  5
19D
330
19C
100
AcDbEntity
  8
DIBUJOS
 62
     7
100
AcDbVertex
100
AcDb2dVertex
 10
66.54524281024837
 20
49.13843131722307
 30
0.0
  0
VERTEX
  5
19E
330
19C
100
AcDbEntity
  8
DIBUJOS
 62
     7
100
AcDbVertex
100
AcDb2dVertex
 10
66.55129310759487
 20
49.14448043065024
 30
0.0
  0
SEQEND
  5
19F
330
19C
100
AcDbEntity
  8
DIBUJOS
 62
     7
  0
POLYLINE
  5
1A0
330
52
100
AcDbEntity
  8
DIBUJOS
 62
     7
100
AcDb2dPolyline
 66
     1
 10
0.0
 20
0.0
 30
0.0
  0
VERTEX
  5
1A1
330
1A0
100
AcDbEntity
  8
DIBUJOS
 62
     7
100
AcDbVertex
100
AcDb2dVertex
 10
66.55734340494136
 20
49.13843131722307
 30
0.0
  0
VERTEX
  5
1A2
330
1A0
100
AcDbEntity
  8
DIBUJOS
 62
     7
100
AcDbVertex
100
AcDb2dVertex
 10
66.55129310759487
 20
49.14448043065024
 30
0.0
  0
SEQEND
  5
1A3
330
1A0
100
AcDbEntity
  8
DIBUJOS
 62
     7
  0
POLYLINE
  5
1A4
330
52
100
AcDbEntity
  8
DIBUJOS
 62
     7
100
AcDb2dPolyline
 66
     1
 10
0.0
 20
0.0
 30
0.0
  0
VERTEX
  5
1A5
330
1A4
100
AcDbEntity
  8
DIBUJOS
 62
     7
100
AcDbVertex
100
AcDb2dVertex
 10
62.70286264106865
 20
49.13237894633041
 30
0.0
  0
VERTEX
  5
1A6
330
1A4
100
AcDbEntity
  8
DIBUJOS
 62
     7
100
AcDbVertex
100
AcDb2dVertex
 10
62.70891293841515
 20
49.13843131722307
 30
0.0
  0
SEQEND
  5
1A7
330
1A4
100
AcDbEntity
  8
DIBUJOS
 62
     7
  0
POLYLINE
  5
1A8
330
52
100
AcDbEntity
  8
DIBUJOS
 62
     7
100
AcDb2dPolyline
 66
     1
 10
0.0
 20
0.0
 30
0.0
  0
VERTEX
  5
1A9
330
1A8
100
AcDbEntity
  8
DIBUJOS
 62
     7
100
AcDbVertex
100
AcDb2dVertex
 10
62.72101516172138
 20
49.13237894633041
 30
0.0
  0
VERTEX
  5
1AA
330
1A8
100
AcDbEntity
  8
DIBUJOS
 62
     7
100
AcDbVertex
100
AcDb2dVertex
 10
62.71496323576164
 20
49.13843131722307
 30
0.0
  0
SEQEND
  5
1AB
330
1A8
100
AcDbEntity
  8
DIBUJOS
 62
     7
  0
POLYLINE
  5
1AC
330
52
100
AcDbEntity
  8
DIBUJOS
 62
     7
100
AcDb2dPolyline
 66
     1
 10
0.0
 20
0.0
 30
0.0
  0
VERTEX
  5
1AD
330
1AC
100
AcDbEntity
  8
DIBUJOS
 62
     7
100
AcDbVertex
100
AcDb2dVertex
 10
62.72101516172138
 20
49.13237894633041
 30
0.0
  0
VERTEX
  5
1AE
330
1AC
100
AcDbEntity
  8
DIBUJOS
 62
     7
100
AcDbVertex
100
AcDb2dVertex
 10
62.72706545906787
 20
49.13843131722307
 30
0.0
  0
SEQEND
  5
1AF
330
1AC
100
AcDbEntity
  8
DIBUJOS
 62
     7
  0
POLYLINE
  5
1B0
330
52
100
AcDbEntity
  8
DIBUJOS
 62
     7
100
AcDb2dPolyline
 66
     1
 10
0.0
 20
0.0
 30
0.0
  0
VERTEX
  5
1B1
330
1B0
100
AcDbEntity
  8
DIBUJOS
 62
     7
100
AcDbVertex
100
AcDb2dVertex
 10
62.72706545906787
 20
49.13843131722307
 30
0.0
  0
VERTEX
  5
1B2
330
1B0
100
AcDbEntity
  8
DIBUJOS
 62
     7
100
AcDbVertex
100
AcDb2dVertex
 10
62.73311738502728
 20
49.13237894633041
 30
0.0
  0
VERTEX
  5
1B3
330
1B0
100
AcDbEntity
  8
DIBUJOS
 62
     7
100
AcDbVertex
100
AcDb2dVertex
 10
62.73916768237378
 20
49.13843131722307
 30
0.0
  0
SEQEND
  5
1B4
330
1B0
100
AcDbEntity
  8
DIBUJOS
 62
     7
  0
POLYLINE
  5
1B5
330
52
100
AcDbEntity
  8
DIBUJOS
 62
     7
100
AcDb2dPolyline
 66
     1
 10
0.0
 20
0.0
 30
0.0
  0
VERTEX
  5
1B6
330
1B5
100
AcDbEntity
  8
DIBUJOS
 62
     7
100
AcDbVertex
100
AcDb2dVertex
 10
66.53314058694215
 20
49.13843131722307
 30
0.0
  0
VERTEX
  5
1B7
330
1B5
100
AcDbEntity
  8
DIBUJOS
 62
     7
100
AcDbVertex
100
AcDb2dVertex
 10
66.53919088428864
 20
49.13237894633041
 30
0.0
  0
VERTEX
  5
1B8
330
1B5
100
AcDbEntity
  8
DIBUJOS
 62
     7
100
AcDbVertex
100
AcDb2dVertex
 10
66.54524281024837
 20
49.13843131722307
 30
0.0
  0
SEQEND
  5
1B9
330
1B5
100
AcDbEntity
  8
DIBUJOS
 62
     7
  0
POLYLINE
  5
1BA
330
52
100
AcDbEntity
  8
DIBUJOS
 62
     7
100
AcDb2dPolyline
 66
     1
 10
0.0
 20
0.0
 30
0.0
  0
VERTEX
  5
1BB
330
1BA
100
AcDbEntity
  8
DIBUJOS
 62
     7
100
AcDbVertex
100
AcDb2dVertex
 10
66.55129310759487
 20
49.13237894633041
 30
0.0
  0
VERTEX
  5
1BC
330
1BA
100
AcDbEntity
  8
DIBUJOS
 62
     7
100
AcDbVertex
100
AcDb2dVertex
 10
66.54524281024837
 20
49.13843131722307
 30
0.0
  0
SEQEND
  5
1BD
330
1BA
100
AcDbEntity
  8
DIBUJOS
 62
     7
  0
POLYLINE
  5
1BE
330
52
100
AcDbEntity
  8
DIBUJOS
 62
     7
100
AcDb2dPolyline
 66
     1
 10
0.0
 20
0.0
 30
0.0
  0
VERTEX
  5
1BF
330
1BE
100
AcDbEntity
  8
DIBUJOS
 62
     7
100
AcDbVertex
100
AcDb2dVertex
 10
66.55129310759487
 20
49.13237894633041
 30
0.0
  0
VERTEX
  5
1C0
330
1BE
100
AcDbEntity
  8
DIBUJOS
 62
     7
100
AcDbVertex
100
AcDb2dVertex
 10
66.55734340494136
 20
49.13843131722307
 30
0.0
  0
SEQEND
  5
1C1
330
1BE
100
AcDbEntity
  8
DIBUJOS
 62
     7
  0
POLYLINE
  5
1C2
330
52
100
AcDbEntity
  8
DIBUJOS
 62
     7
100
AcDb2dPolyline
 66
     1
 10
0.0
 20
0.0
 30
0.0
  0
VERTEX
  5
1C3
330
1C2
100
AcDbEntity
  8
DIBUJOS
 62
     7
100
AcDbVertex
100
AcDb2dVertex
 10
66.56944562824728
 20
49.13237894633041
 30
0.0
  0
VERTEX
  5
1C4
330
1C2
100
AcDbEntity
  8
DIBUJOS
 62
     7
100
AcDbVertex
100
AcDb2dVertex
 10
66.55734340494136
 20
49.13843131722307
 30
0.0
  0
SEQEND
  5
1C5
330
1C2
100
AcDbEntity
  8
DIBUJOS
 62
     7
  0
POLYLINE
  5
1C6
330
52
100
AcDbEntity
  8
DIBUJOS
 62
     7
100
AcDb2dPolyline
 66
     1
 10
0.0
 20
0.0
 30
0.0
  0
VERTEX
  5
1C7
330
1C6
100
AcDbEntity
  8
DIBUJOS
 62
     7
100
AcDbVertex
100
AcDb2dVertex
 10
62.68470849180301
 20
49.12632657543806
 30
0.0
  0
VERTEX
  5
1C8
330
1C6
100
AcDbEntity
  8
DIBUJOS
 62
     7
100
AcDbVertex
100
AcDb2dVertex
 10
62.67865819445652
 20
49.12632657543806
 30
0.0
  0
SEQEND
  5
1C9
330
1C6
100
AcDbEntity
  8
DIBUJOS
 62
     7
  0
POLYLINE
  5
1CA
330
52
100
AcDbEntity
  8
DIBUJOS
 62
     7
100
AcDb2dPolyline
 66
     1
 10
0.0
 20
0.0
 30
0.0
  0
VERTEX
  5
1CB
330
1CA
100
AcDbEntity
  8
DIBUJOS
 62
     7
100
AcDbVertex
100
AcDb2dVertex
 10
62.69076041776243
 20
49.12632657543806
 30
0.0
  0
VERTEX
  5
1CC
330
1CA
100
AcDbEntity
  8
DIBUJOS
 62
     7
100
AcDbVertex
100
AcDb2dVertex
 10
62.68470849180301
 20
49.12632657543806
 30
0.0
  0
SEQEND
  5
1CD
330
1CA
100
AcDbEntity
  8
DIBUJOS
 62
     7
  0
POLYLINE
  5
1CE
330
52
100
AcDbEntity
  8
DIBUJOS
 62
     7
100
AcDb2dPolyline
 66
     1
 10
0.0
 20
0.0
 30
0.0
  0
VERTEX
  5
1CF
330
1CE
100
AcDbEntity
  8
DIBUJOS
 62
     7
100
AcDbVertex
100
AcDb2dVertex
 10
62.69076041776243
 20
49.12632657543806
 30
0.0
  0
VERTEX
  5
1D0
330
1CE
100
AcDbEntity
  8
DIBUJOS
 62
     7
100
AcDbVertex
100
AcDb2dVertex
 10
62.70286264106865
 20
49.13237894633041
 30
0.0
  0
SEQEND
  5
1D1
330
1CE
100
AcDbEntity
  8
DIBUJOS
 62
     7
  0
POLYLINE
  5
1D2
330
52
100
AcDbEntity
  8
DIBUJOS
 62
     7
100
AcDb2dPolyline
 66
     1
 10
0.0
 20
0.0
 30
0.0
  0
VERTEX
  5
1D3
330
1D2
100
AcDbEntity
  8
DIBUJOS
 62
     7
100
AcDbVertex
100
AcDb2dVertex
 10
62.70891293841515
 20
49.12632657543806
 30
0.0
  0
VERTEX
  5
1D4
330
1D2
100
AcDbEntity
  8
DIBUJOS
 62
     7
100
AcDbVertex
100
AcDb2dVertex
 10
62.70286264106865
 20
49.13237894633041
 30
0.0
  0
SEQEND
  5
1D5
330
1D2
100
AcDbEntity
  8
DIBUJOS
 62
     7
  0
POLYLINE
  5
1D6
330
52
100
AcDbEntity
  8
DIBUJOS
 62
     7
100
AcDb2dPolyline
 66
     1
 10
0.0
 20
0.0
 30
0.0
  0
VERTEX
  5
1D7
330
1D6
100
AcDbEntity
  8
DIBUJOS
 62
     7
100
AcDbVertex
100
AcDb2dVertex
 10
66.56339533090078
 20
49.12632657543806
 30
0.0
  0
VERTEX
  5
1D8
330
1D6
100
AcDbEntity
  8
DIBUJOS
 62
     7
100
AcDbVertex
100
AcDb2dVertex
 10
66.56944562824728
 20
49.13237894633041
 30
0.0
  0
SEQEND
  5
1D9
330
1D6
100
AcDbEntity
  8
DIBUJOS
 62
     7
  0
POLYLINE
  5
1DA
330
52
100
AcDbEntity
  8
DIBUJOS
 62
     7
100
AcDb2dPolyline
 66
     1
 10
0.0
 20
0.0
 30
0.0
  0
VERTEX
  5
1DB
330
1DA
100
AcDbEntity
  8
DIBUJOS
 62
     7
100
AcDbVertex
100
AcDb2dVertex
 10
66.5815478515535
 20
49.12632657543806
 30
0.0
  0
VERTEX
  5
1DC
330
1DA
100
AcDbEntity
  8
DIBUJOS
 62
     7
100
AcDbVertex
100
AcDb2dVertex
 10
66.56944562824728
 20
49.13237894633041
 30
0.0
  0
SEQEND
  5
1DD
330
1DA
100
AcDbEntity
  8
DIBUJOS
 62
     7
  0
POLYLINE
  5
1DE
330
52
100
AcDbEntity
  8
DIBUJOS
 62
     7
100
AcDb2dPolyline
 66
     1
 10
0.0
 20
0.0
 30
0.0
  0
VERTEX
  5
1DF
330
1DE
100
AcDbEntity
  8
DIBUJOS
 62
     7
100
AcDbVertex
100
AcDb2dVertex
 10
62.67260626849711
 20
49.12027746201121
 30
0.0
  0
VERTEX
  5
1E0
330
1DE
100
AcDbEntity
  8
DIBUJOS
 62
     7
100
AcDbVertex
100
AcDb2dVertex
 10
62.6665559711503
 20
49.12027746201121
 30
0.0
  0
SEQEND
  5
1E1
330
1DE
100
AcDbEntity
  8
DIBUJOS
 62
     7
  0
POLYLINE
  5
1E2
330
52
100
AcDbEntity
  8
DIBUJOS
 62
     7
100
AcDb2dPolyline
 66
     1
 10
0.0
 20
0.0
 30
0.0
  0
VERTEX
  5
1E3
330
1E2
100
AcDbEntity
  8
DIBUJOS
 62
     7
100
AcDbVertex
100
AcDb2dVertex
 10
62.67260626849711
 20
49.12027746201121
 30
0.0
  0
VERTEX
  5
1E4
330
1E2
100
AcDbEntity
  8
DIBUJOS
 62
     7
100
AcDbVertex
100
AcDb2dVertex
 10
62.67865819445652
 20
49.12632657543806
 30
0.0
  0
SEQEND
  5
1E5
330
1E2
100
AcDbEntity
  8
DIBUJOS
 62
     7
  0
POLYLINE
  5
1E6
330
52
100
AcDbEntity
  8
DIBUJOS
 62
     7
100
AcDb2dPolyline
 66
     1
 10
0.0
 20
0.0
 30
0.0
  0
VERTEX
  5
1E7
330
1E6
100
AcDbEntity
  8
DIBUJOS
 62
     7
100
AcDbVertex
100
AcDb2dVertex
 10
62.68470849180301
 20
49.12027746201121
 30
0.0
  0
VERTEX
  5
1E8
330
1E6
100
AcDbEntity
  8
DIBUJOS
 62
     7
100
AcDbVertex
100
AcDb2dVertex
 10
62.68470849180301
 20
49.12632657543806
 30
0.0
  0
SEQEND
  5
1E9
330
1E6
100
AcDbEntity
  8
DIBUJOS
 62
     7
  0
POLYLINE
  5
1EA
330
52
100
AcDbEntity
  8
DIBUJOS
 62
     7
100
AcDb2dPolyline
 66
     1
 10
0.0
 20
0.0
 30
0.0
  0
VERTEX
  5
1EB
330
1EA
100
AcDbEntity
  8
DIBUJOS
 62
     7
100
AcDbVertex
100
AcDb2dVertex
 10
62.69681071510892
 20
49.12027746201121
 30
0.0
  0
VERTEX
  5
1EC
330
1EA
100
AcDbEntity
  8
DIBUJOS
 62
     7
100
AcDbVertex
100
AcDb2dVertex
 10
62.69076041776243
 20
49.12632657543806
 30
0.0
  0
SEQEND
  5
1ED
330
1EA
100
AcDbEntity
  8
DIBUJOS
 62
     7
  0
POLYLINE
  5
1EE
330
52
100
AcDbEntity
  8
DIBUJOS
 62
     7
100
AcDb2dPolyline
 66
     1
 10
0.0
 20
0.0
 30
0.0
  0
VERTEX
  5
1EF
330
1EE
100
AcDbEntity
  8
DIBUJOS
 62
     7
100
AcDbVertex
100
AcDb2dVertex
 10
62.70891293841515
 20
49.12027746201121
 30
0.0
  0
VERTEX
  5
1F0
330
1EE
100
AcDbEntity
  8
DIBUJOS
 62
     7
100
AcDbVertex
100
AcDb2dVertex
 10
62.70891293841515
 20
49.12632657543806
 30
0.0
  0
SEQEND
  5
1F1
330
1EE
100
AcDbEntity
  8
DIBUJOS
 62
     7
  0
POLYLINE
  5
1F2
330
52
100
AcDbEntity
  8
DIBUJOS
 62
     7
100
AcDb2dPolyline
 66
     1
 10
0.0
 20
0.0
 30
0.0
  0
VERTEX
  5
1F3
330
1F2
100
AcDbEntity
  8
DIBUJOS
 62
     7
100
AcDbVertex
100
AcDb2dVertex
 10
62.71496323576164
 20
49.12027746201121
 30
0.0
  0
VERTEX
  5
1F4
330
1F2
100
AcDbEntity
  8
DIBUJOS
 62
     7
100
AcDbVertex
100
AcDb2dVertex
 10
62.70891293841515
 20
49.12027746201121
 30
0.0
  0
SEQEND
  5
1F5
330
1F2
100
AcDbEntity
  8
DIBUJOS
 62
     7
  0
POLYLINE
  5
1F6
330
52
100
AcDbEntity
  8
DIBUJOS
 62
     7
100
AcDb2dPolyline
 66
     1
 10
0.0
 20
0.0
 30
0.0
  0
VERTEX
  5
1F7
330
1F6
100
AcDbEntity
  8
DIBUJOS
 62
     7
100
AcDbVertex
100
AcDb2dVertex
 10
62.71496323576164
 20
49.12027746201121
 30
0.0
  0
VERTEX
  5
1F8
330
1F6
100
AcDbEntity
  8
DIBUJOS
 62
     7
100
AcDbVertex
100
AcDb2dVertex
 10
62.72101516172138
 20
49.13237894633041
 30
0.0
  0
SEQEND
  5
1F9
330
1F6
100
AcDbEntity
  8
DIBUJOS
 62
     7
  0
POLYLINE
  5
1FA
330
52
100
AcDbEntity
  8
DIBUJOS
 62
     7
100
AcDb2dPolyline
 66
     1
 10
0.0
 20
0.0
 30
0.0
  0
VERTEX
  5
1FB
330
1FA
100
AcDbEntity
  8
DIBUJOS
 62
     7
100
AcDbVertex
100
AcDb2dVertex
 10
66.55734340494136
 20
49.12027746201121
 30
0.0
  0
VERTEX
  5
1FC
330
1FA
100
AcDbEntity
  8
DIBUJOS
 62
     7
100
AcDbVertex
100
AcDb2dVertex
 10
66.55129310759487
 20
49.13237894633041
 30
0.0
  0
SEQEND
  5
1FD
330
1FA
100
AcDbEntity
  8
DIBUJOS
 62
     7
  0
POLYLINE
  5
1FE
330
52
100
AcDbEntity
  8
DIBUJOS
 62
     7
100
AcDb2dPolyline
 66
     1
 10
0.0
 20
0.0
 30
0.0
  0
VERTEX
  5
1FF
330
1FE
100
AcDbEntity
  8
DIBUJOS
 62
     7
100
AcDbVertex
100
AcDb2dVertex
 10
66.56339533090078
 20
49.12027746201121
 30
0.0
  0
VERTEX
  5
200
330
1FE
100
AcDbEntity
  8
DIBUJOS
 62
     7
100
AcDbVertex
100
AcDb2dVertex
 10
66.55734340494136
 20
49.12027746201121
 30
0.0
  0
SEQEND
  5
201
330
1FE
100
AcDbEntity
  8
DIBUJOS
 62
     7
  0
POLYLINE
  5
202
330
52
100
AcDbEntity
  8
DIBUJOS
 62
     7
100
AcDb2dPolyline
 66
     1
 10
0.0
 20
0.0
 30
0.0
  0
VERTEX
  5
203
330
202
100
AcDbEntity
  8
DIBUJOS
 62
     7
100
AcDbVertex
100
AcDb2dVertex
 10
66.56339533090078
 20
49.12027746201121
 30
0.0
  0
VERTEX
  5
204
330
202
100
AcDbEntity
  8
DIBUJOS
 62
     7
100
AcDbVertex
100
AcDb2dVertex
 10
66.56339533090078
 20
49.12632657543806
 30
0.0
  0
SEQEND
  5
205
330
202
100
AcDbEntity
  8
DIBUJOS
 62
     7
  0
POLYLINE
  5
206
330
52
100
AcDbEntity
  8
DIBUJOS
 62
     7
100
AcDb2dPolyline
 66
     1
 10
0.0
 20
0.0
 30
0.0
  0
VERTEX
  5
207
330
206
100
AcDbEntity
  8
DIBUJOS
 62
     7
100
AcDbVertex
100
AcDb2dVertex
 10
66.575497554207
 20
49.12027746201121
 30
0.0
  0
VERTEX
  5
208
330
206
100
AcDbEntity
  8
DIBUJOS
 62
     7
100
AcDbVertex
100
AcDb2dVertex
 10
66.5815478515535
 20
49.12632657543806
 30
0.0
  0
SEQEND
  5
209
330
206
100
AcDbEntity
  8
DIBUJOS
 62
     7
  0
POLYLINE
  5
20A
330
52
100
AcDbEntity
  8
DIBUJOS
 62
     7
100
AcDb2dPolyline
 66
     1
 10
0.0
 20
0.0
 30
0.0
  0
VERTEX
  5
20B
330
20A
100
AcDbEntity
  8
DIBUJOS
 62
     7
100
AcDbVertex
100
AcDb2dVertex
 10
66.59365007485972
 20
49.12027746201121
 30
0.0
  0
VERTEX
  5
20C
330
20A
100
AcDbEntity
  8
DIBUJOS
 62
     7
100
AcDbVertex
100
AcDb2dVertex
 10
66.5815478515535
 20
49.12632657543806
 30
0.0
  0
SEQEND
  5
20D
330
20A
100
AcDbEntity
  8
DIBUJOS
 62
     7
  0
POLYLINE
  5
20E
330
52
100
AcDbEntity
  8
DIBUJOS
 62
     7
100
AcDb2dPolyline
 66
     1
 10
0.0
 20
0.0
 30
0.0
  0
VERTEX
  5
20F
330
20E
100
AcDbEntity
  8
DIBUJOS
 62
     7
100
AcDbVertex
100
AcDb2dVertex
 10
66.59970037220623
 20
49.12027746201121
 30
0.0
  0
VERTEX
  5
210
330
20E
100
AcDbEntity
  8
DIBUJOS
 62
     7
100
AcDbVertex
100
AcDb2dVertex
 10
66.59365007485972
 20
49.12027746201121
 30
0.0
  0
SEQEND
  5
211
330
20E
100
AcDbEntity
  8
DIBUJOS
 62
     7
  0
POLYLINE
  5
212
330
52
100
AcDbEntity
  8
DIBUJOS
 62
     7
100
AcDb2dPolyline
 66
     1
 10
0.0
 20
0.0
 30
0.0
  0
VERTEX
  5
213
330
212
100
AcDbEntity
  8
DIBUJOS
 62
     7
100
AcDbVertex
100
AcDb2dVertex
 10
66.60575229816595
 20
49.12027746201121
 30
0.0
  0
VERTEX
  5
214
330
212
100
AcDbEntity
  8
DIBUJOS
 62
     7
100
AcDbVertex
100
AcDb2dVertex
 10
66.59970037220623
 20
49.12027746201121
 30
0.0
  0
SEQEND
  5
215
330
212
100
AcDbEntity
  8
DIBUJOS
 62
     7
  0
POLYLINE
  5
216
330
52
100
AcDbEntity
  8
DIBUJOS
 62
     7
100
AcDb2dPolyline
 66
     1
 10
0.0
 20
0.0
 30
0.0
  0
VERTEX
  5
217
330
216
100
AcDbEntity
  8
DIBUJOS
 62
     7
100
AcDbVertex
100
AcDb2dVertex
 10
62.67260626849711
 20
49.11422509111854
 30
0.0
  0
VERTEX
  5
218
330
216
100
AcDbEntity
  8
DIBUJOS
 62
     7
100
AcDbVertex
100
AcDb2dVertex
 10
62.67260626849711
 20
49.12027746201121
 30
0.0
  0
SEQEND
  5
219
330
216
100
AcDbEntity
  8
DIBUJOS
 62
     7
  0
POLYLINE
  5
21A
330
52
100
AcDbEntity
  8
DIBUJOS
 62
     7
100
AcDb2dPolyline
 66
     1
 10
0.0
 20
0.0
 30
0.0
  0
VERTEX
  5
21B
330
21A
100
AcDbEntity
  8
DIBUJOS
 62
     7
100
AcDbVertex
100
AcDb2dVertex
 10
62.68470849180301
 20
49.11422509111854
 30
0.0
  0
VERTEX
  5
21C
330
21A
100
AcDbEntity
  8
DIBUJOS
 62
     7
100
AcDbVertex
100
AcDb2dVertex
 10
62.68470849180301
 20
49.12027746201121
 30
0.0
  0
SEQEND
  5
21D
330
21A
100
AcDbEntity
  8
DIBUJOS
 62
     7
  0
POLYLINE
  5
21E
330
52
100
AcDbEntity
  8
DIBUJOS
 62
     7
100
AcDb2dPolyline
 66
     1
 10
0.0
 20
0.0
 30
0.0
  0
VERTEX
  5
21F
330
21E
100
AcDbEntity
  8
DIBUJOS
 62
     7
100
AcDbVertex
100
AcDb2dVertex
 10
62.69681071510892
 20
49.11422509111854
 30
0.0
  0
VERTEX
  5
220
330
21E
100
AcDbEntity
  8
DIBUJOS
 62
     7
100
AcDbVertex
100
AcDb2dVertex
 10
62.69681071510892
 20
49.12027746201121
 30
0.0
  0
SEQEND
  5
221
330
21E
100
AcDbEntity
  8
DIBUJOS
 62
     7
  0
POLYLINE
  5
222
330
52
100
AcDbEntity
  8
DIBUJOS
 62
     7
100
AcDb2dPolyline
 66
     1
 10
0.0
 20
0.0
 30
0.0
  0
VERTEX
  5
223
330
222
100
AcDbEntity
  8
DIBUJOS
 62
     7
100
AcDbVertex
100
AcDb2dVertex
 10
62.70286264106865
 20
49.11422509111854
 30
0.0
  0
VERTEX
  5
224
330
222
100
AcDbEntity
  8
DIBUJOS
 62
     7
100
AcDbVertex
100
AcDb2dVertex
 10
62.69681071510892
 20
49.11422509111854
 30
0.0
  0
SEQEND
  5
225
330
222
100
AcDbEntity
  8
DIBUJOS
 62
     7
  0
POLYLINE
  5
226
330
52
100
AcDbEntity
  8
DIBUJOS
 62
     7
100
AcDb2dPolyline
 66
     1
 10
0.0
 20
0.0
 30
0.0
  0
VERTEX
  5
227
330
226
100
AcDbEntity
  8
DIBUJOS
 62
     7
100
AcDbVertex
100
AcDb2dVertex
 10
62.70286264106865
 20
49.11422509111854
 30
0.0
  0
VERTEX
  5
228
330
226
100
AcDbEntity
  8
DIBUJOS
 62
     7
100
AcDbVertex
100
AcDb2dVertex
 10
62.70891293841515
 20
49.12027746201121
 30
0.0
  0
SEQEND
  5
229
330
226
100
AcDbEntity
  8
DIBUJOS
 62
     7
  0
POLYLINE
  5
22A
330
52
100
AcDbEntity
  8
DIBUJOS
 62
     7
100
AcDb2dPolyline
 66
     1
 10
0.0
 20
0.0
 30
0.0
  0
VERTEX
  5
22B
330
22A
100
AcDbEntity
  8
DIBUJOS
 62
     7
100
AcDbVertex
100
AcDb2dVertex
 10
66.56944562824728
 20
49.11422509111854
 30
0.0
  0
VERTEX
  5
22C
330
22A
100
AcDbEntity
  8
DIBUJOS
 62
     7
100
AcDbVertex
100
AcDb2dVertex
 10
66.56339533090078
 20
49.12027746201121
 30
0.0
  0
SEQEND
  5
22D
330
22A
100
AcDbEntity
  8
DIBUJOS
 62
     7
  0
POLYLINE
  5
22E
330
52
100
AcDbEntity
  8
DIBUJOS
 62
     7
100
AcDb2dPolyline
 66
     1
 10
0.0
 20
0.0
 30
0.0
  0
VERTEX
  5
22F
330
22E
100
AcDbEntity
  8
DIBUJOS
 62
     7
100
AcDbVertex
100
AcDb2dVertex
 10
66.575497554207
 20
49.11422509111854
 30
0.0
  0
VERTEX
  5
230
330
22E
100
AcDbEntity
  8
DIBUJOS
 62
     7
100
AcDbVertex
100
AcDb2dVertex
 10
66.56944562824728
 20
49.11422509111854
 30
0.0
  0
SEQEND
  5
231
330
22E
100
AcDbEntity
  8
DIBUJOS
 62
     7
  0
POLYLINE
  5
232
330
52
100
AcDbEntity
  8
DIBUJOS
 62
     7
100
AcDb2dPolyline
 66
     1
 10
0.0
 20
0.0
 30
0.0
  0
VERTEX
  5
233
330
232
100
AcDbEntity
  8
DIBUJOS
 62
     7
100
AcDbVertex
100
AcDb2dVertex
 10
66.575497554207
 20
49.11422509111854
 30
0.0
  0
VERTEX
  5
234
330
232
100
AcDbEntity
  8
DIBUJOS
 62
     7
100
AcDbVertex
100
AcDb2dVertex
 10
66.575497554207
 20
49.12027746201121
 30
0.0
  0
SEQEND
  5
235
330
232
100
AcDbEntity
  8
DIBUJOS
 62
     7
  0
POLYLINE
  5
236
330
52
100
AcDbEntity
  8
DIBUJOS
 62
     7
100
AcDb2dPolyline
 66
     1
 10
0.0
 20
0.0
 30
0.0
  0
VERTEX
  5
237
330
236
100
AcDbEntity
  8
DIBUJOS
 62
     7
100
AcDbVertex
100
AcDb2dVertex
 10
66.58759977751323
 20
49.11422509111854
 30
0.0
  0
VERTEX
  5
238
330
236
100
AcDbEntity
  8
DIBUJOS
 62
     7
100
AcDbVertex
100
AcDb2dVertex
 10
66.59365007485972
 20
49.12027746201121
 30
0.0
  0
SEQEND
  5
239
330
236
100
AcDbEntity
  8
DIBUJOS
 62
     7
  0
POLYLINE
  5
23A
330
52
100
AcDbEntity
  8
DIBUJOS
 62
     7
100
AcDb2dPolyline
 66
     1
 10
0.0
 20
0.0
 30
0.0
  0
VERTEX
  5
23B
330
23A
100
AcDbEntity
  8
DIBUJOS
 62
     7
100
AcDbVertex
100
AcDb2dVertex
 10
66.59970037220623
 20
49.11422509111854
 30
0.0
  0
VERTEX
  5
23C
330
23A
100
AcDbEntity
  8
DIBUJOS
 62
     7
100
AcDbVertex
100
AcDb2dVertex
 10
66.59970037220623
 20
49.12027746201121
 30
0.0
  0
SEQEND
  5
23D
330
23A
100
AcDbEntity
  8
DIBUJOS
 62
     7
  0
POLYLINE
  5
23E
330
52
100
AcDbEntity
  8
DIBUJOS
 62
     7
100
AcDb2dPolyline
 66
     1
 10
0.0
 20
0.0
 30
0.0
  0
VERTEX
  5
23F
330
23E
100
AcDbEntity
  8
DIBUJOS
 62
     7
100
AcDbVertex
100
AcDb2dVertex
 10
62.67865819445652
 20
49.10817272022619
 30
0.0
  0
VERTEX
  5
240
330
23E
100
AcDbEntity
  8
DIBUJOS
 62
     7
100
AcDbVertex
100
AcDb2dVertex
 10
62.67260626849711
 20
49.11422509111854
 30
0.0
  0
SEQEND
  5
241
330
23E
100
AcDbEntity
  8
DIBUJOS
 62
     7
  0
POLYLINE
  5
242
330
52
100
AcDbEntity
  8
DIBUJOS
 62
     7
100
AcDb2dPolyline
 66
     1
 10
0.0
 20
0.0
 30
0.0
  0
VERTEX
  5
243
330
242
100
AcDbEntity
  8
DIBUJOS
 62
     7
100
AcDbVertex
100
AcDb2dVertex
 10
62.67865819445652
 20
49.10817272022619
 30
0.0
  0
VERTEX
  5
244
330
242
100
AcDbEntity
  8
DIBUJOS
 62
     7
100
AcDbVertex
100
AcDb2dVertex
 10
62.68470849180301
 20
49.11422509111854
 30
0.0
  0
SEQEND
  5
245
330
242
100
AcDbEntity
  8
DIBUJOS
 62
     7
  0
POLYLINE
  5
246
330
52
100
AcDbEntity
  8
DIBUJOS
 62
     7
100
AcDb2dPolyline
 66
     1
 10
0.0
 20
0.0
 30
0.0
  0
VERTEX
  5
247
330
246
100
AcDbEntity
  8
DIBUJOS
 62
     7
100
AcDbVertex
100
AcDb2dVertex
 10
62.68470849180301
 20
49.11422509111854
 30
0.0
  0
VERTEX
  5
248
330
246
100
AcDbEntity
  8
DIBUJOS
 62
     7
100
AcDbVertex
100
AcDb2dVertex
 10
62.69076041776243
 20
49.10817272022619
 30
0.0
  0
VERTEX
  5
249
330
246
100
AcDbEntity
  8
DIBUJOS
 62
     7
100
AcDbVertex
100
AcDb2dVertex
 10
62.69681071510892
 20
49.11422509111854
 30
0.0
  0
SEQEND
  5
24A
330
246
100
AcDbEntity
  8
DIBUJOS
 62
     7
  0
POLYLINE
  5
24B
330
52
100
AcDbEntity
  8
DIBUJOS
 62
     7
100
AcDb2dPolyline
 66
     1
 10
0.0
 20
0.0
 30
0.0
  0
VERTEX
  5
24C
330
24B
100
AcDbEntity
  8
DIBUJOS
 62
     7
100
AcDbVertex
100
AcDb2dVertex
 10
66.575497554207
 20
49.11422509111854
 30
0.0
  0
VERTEX
  5
24D
330
24B
100
AcDbEntity
  8
DIBUJOS
 62
     7
100
AcDbVertex
100
AcDb2dVertex
 10
66.5815478515535
 20
49.10817272022619
 30
0.0
  0
VERTEX
  5
24E
330
24B
100
AcDbEntity
  8
DIBUJOS
 62
     7
100
AcDbVertex
100
AcDb2dVertex
 10
66.58759977751323
 20
49.11422509111854
 30
0.0
  0
SEQEND
  5
24F
330
24B
100
AcDbEntity
  8
DIBUJOS
 62
     7
  0
POLYLINE
  5
250
330
52
100
AcDbEntity
  8
DIBUJOS
 62
     7
100
AcDb2dPolyline
 66
     1
 10
0.0
 20
0.0
 30
0.0
  0
VERTEX
  5
251
330
250
100
AcDbEntity
  8
DIBUJOS
 62
     7
100
AcDbVertex
100
AcDb2dVertex
 10
66.59365007485972
 20
49.10817272022619
 30
0.0
  0
VERTEX
  5
252
330
250
100
AcDbEntity
  8
DIBUJOS
 62
     7
100
AcDbVertex
100
AcDb2dVertex
 10
66.58759977751323
 20
49.11422509111854
 30
0.0
  0
SEQEND
  5
253
330
250
100
AcDbEntity
  8
DIBUJOS
 62
     7
  0
POLYLINE
  5
254
330
52
100
AcDbEntity
  8
DIBUJOS
 62
     7
100
AcDb2dPolyline
 66
     1
 10
0.0
 20
0.0
 30
0.0
  0
VERTEX
  5
255
330
254
100
AcDbEntity
  8
DIBUJOS
 62
     7
100
AcDbVertex
100
AcDb2dVertex
 10
66.59365007485972
 20
49.10817272022619
 30
0.0
  0
VERTEX
  5
256
330
254
100
AcDbEntity
  8
DIBUJOS
 62
     7
100
AcDbVertex
100
AcDb2dVertex
 10
66.59970037220623
 20
49.11422509111854
 30
0.0
  0
SEQEND
  5
257
330
254
100
AcDbEntity
  8
DIBUJOS
 62
     7
  0
POLYLINE
  5
258
330
52
100
AcDbEntity
  8
DIBUJOS
 62
     7
100
AcDb2dPolyline
 66
     1
 10
0.0
 20
0.0
 30
0.0
  0
VERTEX
  5
259
330
258
100
AcDbEntity
  8
DIBUJOS
 62
     7
100
AcDbVertex
100
AcDb2dVertex
 10
62.28534326576693
 20
45.2594576913032
 30
0.0
  0
VERTEX
  5
25A
330
258
100
AcDbEntity
  8
DIBUJOS
 62
     7
100
AcDbVertex
100
AcDb2dVertex
 10
62.30025647513479
 20
45.4468661962486
 30
0.0
  0
VERTEX
  5
25B
330
258
100
AcDbEntity
  8
DIBUJOS
 62
     7
100
AcDbVertex
100
AcDb2dVertex
 10
62.31187500037595
 20
45.51920473252947
 30
0.0
  0
VERTEX
  5
25C
330
258
100
AcDbEntity
  8
DIBUJOS
 62
     7
100
AcDbVertex
100
AcDb2dVertex
 10
62.32524754183271
 20
45.59874878248917
 30
0.0
  0
VERTEX
  5
25D
330
258
100
AcDbEntity
  8
DIBUJOS
 62
     7
100
AcDbVertex
100
AcDb2dVertex
 10
62.35977088050081
 20
45.77927752030573
 30
0.0
  0
VERTEX
  5
25E
330
258
100
AcDbEntity
  8
DIBUJOS
 62
     7
100
AcDbVertex
100
AcDb2dVertex
 10
62.40212784776599
 20
45.90030539336319
 30
0.0
  0
VERTEX
  5
25F
330
258
100
AcDbEntity
  8
DIBUJOS
 62
     7
100
AcDbVertex
100
AcDb2dVertex
 10
62.47776552196918
 20
46.1012128353259
 30
0.0
  0
VERTEX
  5
260
330
258
100
AcDbEntity
  8
DIBUJOS
 62
     7
100
AcDbVertex
100
AcDb2dVertex
 10
62.50783460404406
 20
46.14995103408463
 30
0.0
  0
VERTEX
  5
261
330
258
100
AcDbEntity
  8
DIBUJOS
 62
     7
100
AcDbVertex
100
AcDb2dVertex
 10
62.6317573968829
 20
46.35338626927314
 30
0.0
  0
VERTEX
  5
262
330
258
100
AcDbEntity
  8
DIBUJOS
 62
     7
100
AcDbVertex
100
AcDb2dVertex
 10
62.84808606351562
 20
46.59077406733154
 30
0.0
  0
VERTEX
  5
263
330
258
100
AcDbEntity
  8
DIBUJOS
 62
     7
100
AcDbVertex
100
AcDb2dVertex
 10
62.95204206080422
 20
46.66799228692624
 30
0.0
  0
VERTEX
  5
264
330
258
100
AcDbEntity
  8
DIBUJOS
 62
     7
100
AcDbVertex
100
AcDb2dVertex
 10
63.09726548325119
 20
46.77691867566418
 30
0.0
  0
VERTEX
  5
265
330
258
100
AcDbEntity
  8
DIBUJOS
 62
     7
100
AcDbVertex
100
AcDb2dVertex
 10
63.19964824036855
 20
46.83162129374718
 30
0.0
  0
VERTEX
  5
266
330
258
100
AcDbEntity
  8
DIBUJOS
 62
     7
100
AcDbVertex
100
AcDb2dVertex
 10
63.27104989212273
 20
46.86430018760814
 30
0.0
  0
VERTEX
  5
267
330
258
100
AcDbEntity
  8
DIBUJOS
 62
     7
100
AcDbVertex
100
AcDb2dVertex
 10
63.42339523927939
 20
46.93943037181974
 30
0.0
  0
VERTEX
  5
268
330
258
100
AcDbEntity
  8
DIBUJOS
 62
     7
100
AcDbVertex
100
AcDb2dVertex
 10
63.57367061929579
 20
46.97415169654685
 30
0.0
  0
VERTEX
  5
269
330
258
100
AcDbEntity
  8
DIBUJOS
 62
     7
100
AcDbVertex
100
AcDb2dVertex
 10
63.78621927512317
 20
47.02372380647277
 30
0.0
  0
VERTEX
  5
26A
330
258
100
AcDbEntity
  8
DIBUJOS
 62
     7
100
AcDbVertex
100
AcDb2dVertex
 10
64.26386704289722
 20
47.05959501652056
 30
0.0
  0
VERTEX
  5
26B
330
258
100
AcDbEntity
  8
DIBUJOS
 62
     7
100
AcDbVertex
100
AcDb2dVertex
 10
64.39713970304864
 20
47.06883970359974
 30
0.0
  0
VERTEX
  5
26C
330
258
100
AcDbEntity
  8
DIBUJOS
 62
     7
100
AcDbVertex
100
AcDb2dVertex
 10
64.88727078957352
 20
47.06883970359974
 30
0.0
  0
VERTEX
  5
26D
330
258
100
AcDbEntity
  8
DIBUJOS
 62
     7
100
AcDbVertex
100
AcDb2dVertex
 10
65.49819121749866
 20
47.02372380647277
 30
0.0
  0
VERTEX
  5
26E
330
258
100
AcDbEntity
  8
DIBUJOS
 62
     7
100
AcDbVertex
100
AcDb2dVertex
 10
65.67941675923036
 20
46.98198264360044
 30
0.0
  0
VERTEX
  5
26F
330
258
100
AcDbEntity
  8
DIBUJOS
 62
     7
100
AcDbVertex
100
AcDb2dVertex
 10
65.860946851596
 20
46.93962256228404
 30
0.0
  0
VERTEX
  5
270
330
258
100
AcDbEntity
  8
DIBUJOS
 62
     7
100
AcDbVertex
100
AcDb2dVertex
 10
65.94558912715281
 20
46.89818760116842
 30
0.0
  0
VERTEX
  5
271
330
258
100
AcDbEntity
  8
DIBUJOS
 62
     7
100
AcDbVertex
100
AcDb2dVertex
 10
65.97705393058074
 20
46.88245404282033
 30
0.0
  0
VERTEX
  5
272
330
258
100
AcDbEntity
  8
DIBUJOS
 62
     7
100
AcDbVertex
100
AcDb2dVertex
 10
66.18109308341123
 20
46.78296778909136
 30
0.0
  0
VERTEX
  5
273
330
258
100
AcDbEntity
  8
DIBUJOS
 62
     7
100
AcDbVertex
100
AcDb2dVertex
 10
66.25597508117586
 20
46.72538231404373
 30
0.0
  0
VERTEX
  5
274
330
258
100
AcDbEntity
  8
DIBUJOS
 62
     7
100
AcDbVertex
100
AcDb2dVertex
 10
66.43027413176004
 20
46.59682643822388
 30
0.0
  0
VERTEX
  5
275
330
258
100
AcDbEntity
  8
DIBUJOS
 62
     7
100
AcDbVertex
100
AcDb2dVertex
 10
66.65870502169898
 20
46.34735018570796
 30
0.0
  0
VERTEX
  5
276
330
258
100
AcDbEntity
  8
DIBUJOS
 62
     7
100
AcDbVertex
100
AcDb2dVertex
 10
66.77983474321852
 20
46.1480910212863
 30
0.0
  0
VERTEX
  5
277
330
258
100
AcDbEntity
  8
DIBUJOS
 62
     7
100
AcDbVertex
100
AcDb2dVertex
 10
66.81008948717714
 20
46.09967856907724
 30
0.0
  0
VERTEX
  5
278
330
258
100
AcDbEntity
  8
DIBUJOS
 62
     7
100
AcDbVertex
100
AcDb2dVertex
 10
66.87623071889675
 20
45.92451161946772
 30
0.0
  0
VERTEX
  5
279
330
258
100
AcDbEntity
  8
DIBUJOS
 62
     7
100
AcDbVertex
100
AcDb2dVertex
 10
66.92463961212134
 20
45.78532989119839
 30
0.0
  0
VERTEX
  5
27A
330
258
100
AcDbEntity
  8
DIBUJOS
 62
     7
100
AcDbVertex
100
AcDb2dVertex
 10
66.9482056424319
 20
45.67659895038992
 30
0.0
  0
VERTEX
  5
27B
330
258
100
AcDbEntity
  8
DIBUJOS
 62
     7
100
AcDbVertex
100
AcDb2dVertex
 10
66.95916295078912
 20
45.61085026680837
 30
0.0
  0
VERTEX
  5
27C
330
258
100
AcDbEntity
  8
DIBUJOS
 62
     7
100
AcDbVertex
100
AcDb2dVertex
 10
66.98423707675063
 20
45.46496141708185
 30
0.0
  0
VERTEX
  5
27D
330
258
100
AcDbEntity
  8
DIBUJOS
 62
     7
100
AcDbVertex
100
AcDb2dVertex
 10
66.9930153008955
 20
45.36838408004116
 30
0.0
  0
SEQEND
  5
27E
330
258
100
AcDbEntity
  8
DIBUJOS
 62
     7
  0
POLYLINE
  5
27F
330
52
100
AcDbEntity
  8
DIBUJOS
 62
     7
100
AcDb2dPolyline
 66
     1
 10
0.0
 20
0.0
 30
0.0
  0
VERTEX
  5
280
330
27F
100
AcDbEntity
  8
DIBUJOS
 62
     7
100
AcDbVertex
100
AcDb2dVertex
 10
62.27929296842043
 20
45.25340857787604
 30
0.0
  0
VERTEX
  5
281
330
27F
100
AcDbEntity
  8
DIBUJOS
 62
     7
100
AcDbVertex
100
AcDb2dVertex
 10
62.25295341014711
 20
45.33759451616799
 30
0.0
  0
VERTEX
  5
282
330
27F
100
AcDbEntity
  8
DIBUJOS
 62
     7
100
AcDbVertex
100
AcDb2dVertex
 10
62.20922189349834
 20
45.56844458097503
 30
0.0
  0
VERTEX
  5
283
330
27F
100
AcDbEntity
  8
DIBUJOS
 62
     7
100
AcDbVertex
100
AcDb2dVertex
 10
62.17982054275902
 20
45.78563935042026
 30
0.0
  0
VERTEX
  5
284
330
27F
100
AcDbEntity
  8
DIBUJOS
 62
     7
100
AcDbVertex
100
AcDb2dVertex
 10
62.14337544073457
 20
46.19118077487428
 30
0.0
  0
VERTEX
  5
285
330
27F
100
AcDbEntity
  8
DIBUJOS
 62
     7
100
AcDbVertex
100
AcDb2dVertex
 10
62.10986509936101
 20
46.78442061870259
 30
0.0
  0
VERTEX
  5
286
330
27F
100
AcDbEntity
  8
DIBUJOS
 62
     7
100
AcDbVertex
100
AcDb2dVertex
 10
62.10986509936101
 20
47.38956649892093
 30
0.0
  0
VERTEX
  5
287
330
27F
100
AcDbEntity
  8
DIBUJOS
 62
     7
100
AcDbVertex
100
AcDb2dVertex
 10
62.11591539670751
 20
47.56505593761463
 30
0.0
  0
VERTEX
  5
288
330
27F
100
AcDbEntity
  8
DIBUJOS
 62
     7
100
AcDbVertex
100
AcDb2dVertex
 10
62.15491742116376
 20
47.97023252593269
 30
0.0
  0
VERTEX
  5
289
330
27F
100
AcDbEntity
  8
DIBUJOS
 62
     7
100
AcDbVertex
100
AcDb2dVertex
 10
62.22123617170192
 20
48.32713021812707
 30
0.0
  0
VERTEX
  5
28A
330
27F
100
AcDbEntity
  8
DIBUJOS
 62
     7
100
AcDbVertex
100
AcDb2dVertex
 10
62.31741391323628
 20
48.61740296852125
 30
0.0
  0
VERTEX
  5
28B
330
27F
100
AcDbEntity
  8
DIBUJOS
 62
     7
100
AcDbVertex
100
AcDb2dVertex
 10
62.35935232695635
 20
48.701797384605
 30
0.0
  0
VERTEX
  5
28C
330
27F
100
AcDbEntity
  8
DIBUJOS
 62
     7
100
AcDbVertex
100
AcDb2dVertex
 10
62.37489743817383
 20
48.72753787695851
 30
0.0
  0
VERTEX
  5
28D
330
27F
100
AcDbEntity
  8
DIBUJOS
 62
     7
100
AcDbVertex
100
AcDb2dVertex
 10
62.47897558143848
 20
48.90847705542765
 30
0.0
  0
VERTEX
  5
28E
330
27F
100
AcDbEntity
  8
DIBUJOS
 62
     7
100
AcDbVertex
100
AcDb2dVertex
 10
62.67865819445652
 20
49.10212034933352
 30
0.0
  0
VERTEX
  5
28F
330
27F
100
AcDbEntity
  8
DIBUJOS
 62
     7
100
AcDbVertex
100
AcDb2dVertex
 10
62.67865819445652
 20
49.10817272022619
 30
0.0
  0
SEQEND
  5
290
330
27F
100
AcDbEntity
  8
DIBUJOS
 62
     7
  0
POLYLINE
  5
291
330
52
100
AcDbEntity
  8
DIBUJOS
 62
     7
100
AcDb2dPolyline
 66
     1
 10
0.0
 20
0.0
 30
0.0
  0
VERTEX
  5
292
330
291
100
AcDbEntity
  8
DIBUJOS
 62
     7
100
AcDbVertex
100
AcDb2dVertex
 10
62.28534326576693
 20
45.25340857787604
 30
0.0
  0
VERTEX
  5
293
330
291
100
AcDbEntity
  8
DIBUJOS
 62
     7
100
AcDbVertex
100
AcDb2dVertex
 10
62.27929296842043
 20
45.25340857787604
 30
0.0
  0
SEQEND
  5
294
330
291
100
AcDbEntity
  8
DIBUJOS
 62
     7
  0
POLYLINE
  5
295
330
52
100
AcDbEntity
  8
DIBUJOS
 62
     7
100
AcDb2dPolyline
 66
     1
 10
0.0
 20
0.0
 30
0.0
  0
VERTEX
  5
296
330
295
100
AcDbEntity
  8
DIBUJOS
 62
     7
100
AcDbVertex
100
AcDb2dVertex
 10
62.28534326576693
 20
45.25340857787604
 30
0.0
  0
VERTEX
  5
297
330
295
100
AcDbEntity
  8
DIBUJOS
 62
     7
100
AcDbVertex
100
AcDb2dVertex
 10
62.28534326576693
 20
45.2594576913032
 30
0.0
  0
SEQEND
  5
298
330
295
100
AcDbEntity
  8
DIBUJOS
 62
     7
  0
POLYLINE
  5
299
330
52
100
AcDbEntity
  8
DIBUJOS
 62
     7
100
AcDb2dPolyline
 66
     1
 10
0.0
 20
0.0
 30
0.0
  0
VERTEX
  5
29A
330
299
100
AcDbEntity
  8
DIBUJOS
 62
     7
100
AcDbVertex
100
AcDb2dVertex
 10
62.28534326576693
 20
45.24735620698369
 30
0.0
  0
VERTEX
  5
29B
330
299
100
AcDbEntity
  8
DIBUJOS
 62
     7
100
AcDbVertex
100
AcDb2dVertex
 10
62.28534326576693
 20
45.25340857787604
 30
0.0
  0
SEQEND
  5
29C
330
299
100
AcDbEntity
  8
DIBUJOS
 62
     7
  0
POLYLINE
  5
29D
330
52
100
AcDbEntity
  8
DIBUJOS
 62
     7
100
AcDb2dPolyline
 66
     1
 10
0.0
 20
0.0
 30
0.0
  0
VERTEX
  5
29E
330
29D
100
AcDbEntity
  8
DIBUJOS
 62
     7
100
AcDbVertex
100
AcDb2dVertex
 10
67.00511752420172
 20
45.20499612566698
 30
0.0
  0
VERTEX
  5
29F
330
29D
100
AcDbEntity
  8
DIBUJOS
 62
     7
100
AcDbVertex
100
AcDb2dVertex
 10
66.99906722685523
 20
45.24735620698369
 30
0.0
  0
VERTEX
  5
2A0
330
29D
100
AcDbEntity
  8
DIBUJOS
 62
     7
100
AcDbVertex
100
AcDb2dVertex
 10
67.00725263586291
 20
45.27102820874675
 30
0.0
  0
VERTEX
  5
2A1
330
29D
100
AcDbEntity
  8
DIBUJOS
 62
     7
100
AcDbVertex
100
AcDb2dVertex
 10
67.01508463584676
 20
45.29630288353422
 30
0.0
  0
VERTEX
  5
2A2
330
29D
100
AcDbEntity
  8
DIBUJOS
 62
     7
100
AcDbVertex
100
AcDb2dVertex
 10
67.0681692770336
 20
45.56771816616924
 30
0.0
  0
VERTEX
  5
2A3
330
29D
100
AcDbEntity
  8
DIBUJOS
 62
     7
100
AcDbVertex
100
AcDb2dVertex
 10
67.09237209503283
 20
45.7311093780086
 30
0.0
  0
VERTEX
  5
2A4
330
29D
100
AcDbEntity
  8
DIBUJOS
 62
     7
100
AcDbVertex
100
AcDb2dVertex
 10
67.12941164080738
 20
46.12502816557113
 30
0.0
  0
VERTEX
  5
2A5
330
29D
100
AcDbEntity
  8
DIBUJOS
 62
     7
100
AcDbVertex
100
AcDb2dVertex
 10
67.14103505188726
 20
46.28195330840006
 30
0.0
  0
VERTEX
  5
2A6
330
29D
100
AcDbEntity
  8
DIBUJOS
 62
     7
100
AcDbVertex
100
AcDb2dVertex
 10
67.16535350141055
 20
46.7843131223412
 30
0.0
  0
VERTEX
  5
2A7
330
29D
100
AcDbEntity
  8
DIBUJOS
 62
     7
100
AcDbVertex
100
AcDb2dVertex
 10
67.17147708634286
 20
47.22008382660263
 30
0.0
  0
VERTEX
  5
2A8
330
29D
100
AcDbEntity
  8
DIBUJOS
 62
     7
100
AcDbVertex
100
AcDb2dVertex
 10
67.15954912462935
 20
47.58914163749545
 30
0.0
  0
VERTEX
  5
2A9
330
29D
100
AcDbEntity
  8
DIBUJOS
 62
     7
100
AcDbVertex
100
AcDb2dVertex
 10
67.12344114549866
 20
47.98838638114455
 30
0.0
  0
VERTEX
  5
2AA
330
29D
100
AcDbEntity
  8
DIBUJOS
 62
     7
100
AcDbVertex
100
AcDb2dVertex
 10
67.06935165008181
 20
48.26655764721955
 30
0.0
  0
VERTEX
  5
2AB
330
29D
100
AcDbEntity
  8
DIBUJOS
 62
     7
100
AcDbVertex
100
AcDb2dVertex
 10
67.05712402357342
 20
48.33317933155423
 30
0.0
  0
VERTEX
  5
2AC
330
29D
100
AcDbEntity
  8
DIBUJOS
 62
     7
100
AcDbVertex
100
AcDb2dVertex
 10
66.97909880269209
 20
48.56293814541985
 30
0.0
  0
VERTEX
  5
2AD
330
29D
100
AcDbEntity
  8
DIBUJOS
 62
     7
100
AcDbVertex
100
AcDb2dVertex
 10
66.96699657938588
 20
48.5992458558439
 30
0.0
  0
VERTEX
  5
2AE
330
29D
100
AcDbEntity
  8
DIBUJOS
 62
     7
100
AcDbVertex
100
AcDb2dVertex
 10
66.9311084630123
 20
48.67759115850047
 30
0.0
  0
VERTEX
  5
2AF
330
29D
100
AcDbEntity
  8
DIBUJOS
 62
     7
100
AcDbVertex
100
AcDb2dVertex
 10
66.91556335179514
 20
48.70333165085398
 30
0.0
  0
VERTEX
  5
2B0
330
29D
100
AcDbEntity
  8
DIBUJOS
 62
     7
100
AcDbVertex
100
AcDb2dVertex
 10
66.80543491118368
 20
48.89637231364264
 30
0.0
  0
VERTEX
  5
2B1
330
29D
100
AcDbEntity
  8
DIBUJOS
 62
     7
100
AcDbVertex
100
AcDb2dVertex
 10
66.59365007485972
 20
49.10212034933352
 30
0.0
  0
VERTEX
  5
2B2
330
29D
100
AcDbEntity
  8
DIBUJOS
 62
     7
100
AcDbVertex
100
AcDb2dVertex
 10
66.59365007485972
 20
49.10817272022619
 30
0.0
  0
SEQEND
  5
2B3
330
29D
100
AcDbEntity
  8
DIBUJOS
 62
     7
  0
POLYLINE
  5
2B4
330
52
100
AcDbEntity
  8
DIBUJOS
 62
     7
100
AcDb2dPolyline
 66
     1
 10
0.0
 20
0.0
 30
0.0
  0
VERTEX
  5
2B5
330
2B4
100
AcDbEntity
  8
DIBUJOS
 62
     7
100
AcDbVertex
100
AcDb2dVertex
 10
62.27929296842043
 20
45.05370965561232
 30
0.0
  0
VERTEX
  5
2B6
330
2B4
100
AcDbEntity
  8
DIBUJOS
 62
     7
100
AcDbVertex
100
AcDb2dVertex
 10
62.28534326576693
 20
45.24735620698369
 30
0.0
  0
SEQEND
  5
2B7
330
2B4
100
AcDbEntity
  8
DIBUJOS
 62
     7
  0
POLYLINE
  5
2B8
330
52
100
AcDbEntity
  8
DIBUJOS
 62
     7
100
AcDb2dPolyline
 66
     1
 10
0.0
 20
0.0
 30
0.0
  0
VERTEX
  5
2B9
330
2B8
100
AcDbEntity
  8
DIBUJOS
 62
     7
100
AcDbVertex
100
AcDb2dVertex
 10
63.09012564379852
 20
42.64523902018851
 30
0.0
  0
VERTEX
  5
2BA
330
2B8
100
AcDbEntity
  8
DIBUJOS
 62
     7
100
AcDbVertex
100
AcDb2dVertex
 10
63.08407371783911
 20
42.64523902018851
 30
0.0
  0
SEQEND
  5
2BB
330
2B8
100
AcDbEntity
  8
DIBUJOS
 62
     7
  0
POLYLINE
  5
2BC
330
52
100
AcDbEntity
  8
DIBUJOS
 62
     7
100
AcDb2dPolyline
 66
     1
 10
0.0
 20
0.0
 30
0.0
  0
VERTEX
  5
2BD
330
2BC
100
AcDbEntity
  8
DIBUJOS
 62
     7
100
AcDbVertex
100
AcDb2dVertex
 10
66.33345797392379
 20
42.63313590713641
 30
0.0
  0
VERTEX
  5
2BE
330
2BC
100
AcDbEntity
  8
DIBUJOS
 62
     7
100
AcDbVertex
100
AcDb2dVertex
 10
66.33345797392379
 20
42.63918664929585
 30
0.0
  0
VERTEX
  5
2BF
330
2BC
100
AcDbEntity
  8
DIBUJOS
 62
     7
100
AcDbVertex
100
AcDb2dVertex
 10
66.34555856861742
 20
42.64523902018851
 30
0.0
  0
SEQEND
  5
2C0
330
2BC
100
AcDbEntity
  8
DIBUJOS
 62
     7
  0
POLYLINE
  5
2C1
330
52
100
AcDbEntity
  8
DIBUJOS
 62
     7
100
AcDb2dPolyline
 66
     1
 10
0.0
 20
0.0
 30
0.0
  0
VERTEX
  5
2C2
330
2C1
100
AcDbEntity
  8
DIBUJOS
 62
     7
100
AcDbVertex
100
AcDb2dVertex
 10
62.41241416756149
 20
42.62708353624375
 30
0.0
  0
VERTEX
  5
2C3
330
2C1
100
AcDbEntity
  8
DIBUJOS
 62
     7
100
AcDbVertex
100
AcDb2dVertex
 10
62.40575802617388
 20
42.63192575870421
 30
0.0
  0
VERTEX
  5
2C4
330
2C1
100
AcDbEntity
  8
DIBUJOS
 62
     7
100
AcDbVertex
100
AcDb2dVertex
 10
62.37005720029664
 20
42.64523902018851
 30
0.0
  0
VERTEX
  5
2C5
330
2C1
100
AcDbEntity
  8
DIBUJOS
 62
     7
100
AcDbVertex
100
AcDb2dVertex
 10
62.33375215899151
 20
42.68154673061256
 30
0.0
  0
VERTEX
  5
2C6
330
2C1
100
AcDbEntity
  8
DIBUJOS
 62
     7
100
AcDbVertex
100
AcDb2dVertex
 10
62.30168151152215
 20
42.74750714945172
 30
0.0
  0
VERTEX
  5
2C7
330
2C1
100
AcDbEntity
  8
DIBUJOS
 62
     7
100
AcDbVertex
100
AcDb2dVertex
 10
62.29958060073434
 20
42.75469800453503
 30
0.0
  0
VERTEX
  5
2C8
330
2C1
100
AcDbEntity
  8
DIBUJOS
 62
     7
100
AcDbVertex
100
AcDb2dVertex
 10
62.28224727242755
 20
42.85105383392193
 30
0.0
  0
VERTEX
  5
2C9
330
2C1
100
AcDbEntity
  8
DIBUJOS
 62
     7
100
AcDbVertex
100
AcDb2dVertex
 10
62.27633703580007
 20
43.11113150789627
 30
0.0
  0
VERTEX
  5
2CA
330
2C1
100
AcDbEntity
  8
DIBUJOS
 62
     7
100
AcDbVertex
100
AcDb2dVertex
 10
62.27445110193032
 20
44.96354301066894
 30
0.0
  0
VERTEX
  5
2CB
330
2C1
100
AcDbEntity
  8
DIBUJOS
 62
     7
100
AcDbVertex
100
AcDb2dVertex
 10
62.19881342772681
 20
45.14387630055568
 30
0.0
  0
VERTEX
  5
2CC
330
2C1
100
AcDbEntity
  8
DIBUJOS
 62
     7
100
AcDbVertex
100
AcDb2dVertex
 10
62.13620465763465
 20
45.33261059395826
 30
0.0
  0
VERTEX
  5
2CD
330
2C1
100
AcDbEntity
  8
DIBUJOS
 62
     7
100
AcDbVertex
100
AcDb2dVertex
 10
62.07747361512828
 20
45.57360114885576
 30
0.0
  0
VERTEX
  5
2CE
330
2C1
100
AcDbEntity
  8
DIBUJOS
 62
     7
100
AcDbVertex
100
AcDb2dVertex
 10
62.03385773000358
 20
45.85279525909642
 30
0.0
  0
VERTEX
  5
2CF
330
2C1
100
AcDbEntity
  8
DIBUJOS
 62
     7
100
AcDbVertex
100
AcDb2dVertex
 10
62.01649345804988
 20
45.99740718234885
 30
0.0
  0
VERTEX
  5
2D0
330
2C1
100
AcDbEntity
  8
DIBUJOS
 62
     7
100
AcDbVertex
100
AcDb2dVertex
 10
61.9860335088513
 20
46.37273561432232
 30
0.0
  0
VERTEX
  5
2D1
330
2C1
100
AcDbEntity
  8
DIBUJOS
 62
     7
100
AcDbVertex
100
AcDb2dVertex
 10
61.97360556294264
 20
46.56062296669573
 30
0.0
  0
VERTEX
  5
2D2
330
2C1
100
AcDbEntity
  8
DIBUJOS
 62
     7
100
AcDbVertex
100
AcDb2dVertex
 10
61.95858975095432
 20
46.92965471786491
 30
0.0
  0
VERTEX
  5
2D3
330
2C1
100
AcDbEntity
  8
DIBUJOS
 62
     7
100
AcDbVertex
100
AcDb2dVertex
 10
61.95858975095432
 20
47.24433239975861
 30
0.0
  0
VERTEX
  5
2D4
330
2C1
100
AcDbEntity
  8
DIBUJOS
 62
     7
100
AcDbVertex
100
AcDb2dVertex
 10
61.97357461929509
 20
47.50441170246586
 30
0.0
  0
VERTEX
  5
2D5
330
2C1
100
AcDbEntity
  8
DIBUJOS
 62
     7
100
AcDbVertex
100
AcDb2dVertex
 10
61.99228901143775
 20
47.70456666989913
 30
0.0
  0
VERTEX
  5
2D6
330
2C1
100
AcDbEntity
  8
DIBUJOS
 62
     7
100
AcDbVertex
100
AcDb2dVertex
 10
62.00960442500124
 20
47.84914927596178
 30
0.0
  0
VERTEX
  5
2D7
330
2C1
100
AcDbEntity
  8
DIBUJOS
 62
     7
100
AcDbVertex
100
AcDb2dVertex
 10
62.03492610014064
 20
47.99517493923949
 30
0.0
  0
VERTEX
  5
2D8
330
2C1
100
AcDbEntity
  8
DIBUJOS
 62
     7
100
AcDbVertex
100
AcDb2dVertex
 10
62.08798794074577
 20
48.23630230768785
 30
0.0
  0
VERTEX
  5
2D9
330
2C1
100
AcDbEntity
  8
DIBUJOS
 62
     7
100
AcDbVertex
100
AcDb2dVertex
 10
62.22017920185588
 20
48.59287099586705
 30
0.0
  0
VERTEX
  5
2DA
330
2C1
100
AcDbEntity
  8
DIBUJOS
 62
     7
100
AcDbVertex
100
AcDb2dVertex
 10
62.26598068564491
 20
48.66702394042961
 30
0.0
  0
VERTEX
  5
2DB
330
2C1
100
AcDbEntity
  8
DIBUJOS
 62
     7
100
AcDbVertex
100
AcDb2dVertex
 10
62.39426164690877
 20
48.8721660875381
 30
0.0
  0
VERTEX
  5
2DC
330
2C1
100
AcDbEntity
  8
DIBUJOS
 62
     7
100
AcDbVertex
100
AcDb2dVertex
 10
62.46687335813225
 20
48.94478476585169
 30
0.0
  0
VERTEX
  5
2DD
330
2C1
100
AcDbEntity
  8
DIBUJOS
 62
     7
100
AcDbVertex
100
AcDb2dVertex
 10
62.6665559711503
 20
49.12027746201121
 30
0.0
  0
SEQEND
  5
2DE
330
2C1
100
AcDbEntity
  8
DIBUJOS
 62
     7
  0
POLYLINE
  5
2DF
330
52
100
AcDbEntity
  8
DIBUJOS
 62
     7
100
AcDb2dPolyline
 66
     1
 10
0.0
 20
0.0
 30
0.0
  0
VERTEX
  5
2E0
330
2DF
100
AcDbEntity
  8
DIBUJOS
 62
     7
100
AcDbVertex
100
AcDb2dVertex
 10
66.3274060479647
 20
42.62708353624375
 30
0.0
  0
VERTEX
  5
2E1
330
2DF
100
AcDbEntity
  8
DIBUJOS
 62
     7
100
AcDbVertex
100
AcDb2dVertex
 10
66.30320322996548
 20
42.63313590713641
 30
0.0
  0
VERTEX
  5
2E2
330
2DF
100
AcDbEntity
  8
DIBUJOS
 62
     7
100
AcDbVertex
100
AcDb2dVertex
 10
66.27294360016779
 20
42.63010483549151
 30
0.0
  0
VERTEX
  5
2E3
330
2DF
100
AcDbEntity
  8
DIBUJOS
 62
     7
100
AcDbVertex
100
AcDb2dVertex
 10
62.41241416756149
 20
42.62708353624375
 30
0.0
  0
SEQEND
  5
2E4
330
2DF
100
AcDbEntity
  8
DIBUJOS
 62
     7
  0
POLYLINE
  5
2E5
330
52
100
AcDbEntity
  8
DIBUJOS
 62
     7
100
AcDb2dPolyline
 66
     1
 10
0.0
 20
0.0
 30
0.0
  0
VERTEX
  5
2E6
330
2E5
100
AcDbEntity
  8
DIBUJOS
 62
     7
100
AcDbVertex
100
AcDb2dVertex
 10
66.33345797392379
 20
42.62708353624375
 30
0.0
  0
VERTEX
  5
2E7
330
2E5
100
AcDbEntity
  8
DIBUJOS
 62
     7
100
AcDbVertex
100
AcDb2dVertex
 10
66.3274060479647
 20
42.62708353624375
 30
0.0
  0
SEQEND
  5
2E8
330
2E5
100
AcDbEntity
  8
DIBUJOS
 62
     7
  0
POLYLINE
  5
2E9
330
52
100
AcDbEntity
  8
DIBUJOS
 62
     7
100
AcDb2dPolyline
 66
     1
 10
0.0
 20
0.0
 30
0.0
  0
VERTEX
  5
2EA
330
2E9
100
AcDbEntity
  8
DIBUJOS
 62
     7
100
AcDbVertex
100
AcDb2dVertex
 10
66.33345797392379
 20
42.62708353624375
 30
0.0
  0
VERTEX
  5
2EB
330
2E9
100
AcDbEntity
  8
DIBUJOS
 62
     7
100
AcDbVertex
100
AcDb2dVertex
 10
66.33345797392379
 20
42.63313590713641
 30
0.0
  0
SEQEND
  5
2EC
330
2E9
100
AcDbEntity
  8
DIBUJOS
 62
     7
  0
POLYLINE
  5
2ED
330
52
100
AcDbEntity
  8
DIBUJOS
 62
     7
100
AcDb2dPolyline
 66
     1
 10
0.0
 20
0.0
 30
0.0
  0
VERTEX
  5
2EE
330
2ED
100
AcDbEntity
  8
DIBUJOS
 62
     7
100
AcDbVertex
100
AcDb2dVertex
 10
66.33950827127092
 20
42.62708353624375
 30
0.0
  0
VERTEX
  5
2EF
330
2ED
100
AcDbEntity
  8
DIBUJOS
 62
     7
100
AcDbVertex
100
AcDb2dVertex
 10
66.33345797392379
 20
42.62708353624375
 30
0.0
  0
SEQEND
  5
2F0
330
2ED
100
AcDbEntity
  8
DIBUJOS
 62
     7
  0
POLYLINE
  5
2F1
330
52
100
AcDbEntity
  8
DIBUJOS
 62
     7
100
AcDb2dPolyline
 66
     1
 10
0.0
 20
0.0
 30
0.0
  0
VERTEX
  5
2F2
330
2F1
100
AcDbEntity
  8
DIBUJOS
 62
     7
100
AcDbVertex
100
AcDb2dVertex
 10
66.87199632506098
 20
42.62708353624375
 30
0.0
  0
VERTEX
  5
2F3
330
2F1
100
AcDbEntity
  8
DIBUJOS
 62
     7
100
AcDbVertex
100
AcDb2dVertex
 10
66.33950827127092
 20
42.62708353624375
 30
0.0
  0
SEQEND
  5
2F4
330
2F1
100
AcDbEntity
  8
DIBUJOS
 62
     7
  0
POLYLINE
  5
2F5
330
52
100
AcDbEntity
  8
DIBUJOS
 62
     7
100
AcDb2dPolyline
 66
     1
 10
0.0
 20
0.0
 30
0.0
  0
VERTEX
  5
2F6
330
2F5
100
AcDbEntity
  8
DIBUJOS
 62
     7
100
AcDbVertex
100
AcDb2dVertex
 10
66.87199632506098
 20
42.62708353624375
 30
0.0
  0
VERTEX
  5
2F7
330
2F5
100
AcDbEntity
  8
DIBUJOS
 62
     7
100
AcDbVertex
100
AcDb2dVertex
 10
66.87865246644826
 20
42.63192575870421
 30
0.0
  0
VERTEX
  5
2F8
330
2F5
100
AcDbEntity
  8
DIBUJOS
 62
     7
100
AcDbVertex
100
AcDb2dVertex
 10
66.9143532923252
 20
42.64523902018851
 30
0.0
  0
VERTEX
  5
2F9
330
2F5
100
AcDbEntity
  8
DIBUJOS
 62
     7
100
AcDbVertex
100
AcDb2dVertex
 10
66.95671025959037
 20
42.68759910150491
 30
0.0
  0
VERTEX
  5
2FA
330
2F5
100
AcDbEntity
  8
DIBUJOS
 62
     7
100
AcDbVertex
100
AcDb2dVertex
 10
66.98877927844649
 20
42.75961026250383
 30
0.0
  0
VERTEX
  5
2FB
330
2F5
100
AcDbEntity
  8
DIBUJOS
 62
     7
100
AcDbVertex
100
AcDb2dVertex
 10
66.99534258889238
 20
42.7900073017848
 30
0.0
  0
VERTEX
  5
2FC
330
2F5
100
AcDbEntity
  8
DIBUJOS
 62
     7
100
AcDbVertex
100
AcDb2dVertex
 10
67.00230653813976
 20
42.82696813404046
 30
0.0
  0
VERTEX
  5
2FD
330
2F5
100
AcDbEntity
  8
DIBUJOS
 62
     7
100
AcDbVertex
100
AcDb2dVertex
 10
67.00792851026368
 20
42.91131368814208
 30
0.0
  0
VERTEX
  5
2FE
330
2F5
100
AcDbEntity
  8
DIBUJOS
 62
     7
100
AcDbVertex
100
AcDb2dVertex
 10
67.01418564146273
 20
44.99318594668725
 30
0.0
  0
VERTEX
  5
2FF
330
2F5
100
AcDbEntity
  8
DIBUJOS
 62
     7
100
AcDbVertex
100
AcDb2dVertex
 10
67.01842980697725
 20
45.00469457228635
 30
0.0
  0
VERTEX
  5
300
330
2F5
100
AcDbEntity
  8
DIBUJOS
 62
     7
100
AcDbVertex
100
AcDb2dVertex
 10
67.09104151820041
 20
45.18018401098005
 30
0.0
  0
VERTEX
  5
301
330
2F5
100
AcDbEntity
  8
DIBUJOS
 62
     7
100
AcDbVertex
100
AcDb2dVertex
 10
67.16030805829372
 20
45.40522927227217
 30
0.0
  0
VERTEX
  5
302
330
2F5
100
AcDbEntity
  8
DIBUJOS
 62
     7
100
AcDbVertex
100
AcDb2dVertex
 10
67.16457991022902
 20
45.42231467880141
 30
0.0
  0
VERTEX
  5
303
330
2F5
100
AcDbEntity
  8
DIBUJOS
 62
     7
100
AcDbVertex
100
AcDb2dVertex
 10
67.21444966932661
 20
45.6653150899101
 30
0.0
  0
VERTEX
  5
304
330
2F5
100
AcDbEntity
  8
DIBUJOS
 62
     7
100
AcDbVertex
100
AcDb2dVertex
 10
67.21935505172442
 20
45.69475280560211
 30
0.0
  0
VERTEX
  5
305
330
2F5
100
AcDbEntity
  8
DIBUJOS
 62
     7
100
AcDbVertex
100
AcDb2dVertex
 10
67.25656397325263
 20
45.96774795900274
 30
0.0
  0
VERTEX
  5
306
330
2F5
100
AcDbEntity
  8
DIBUJOS
 62
     7
100
AcDbVertex
100
AcDb2dVertex
 10
67.27408947789512
 20
46.15482420246747
 30
0.0
  0
VERTEX
  5
307
330
2F5
100
AcDbEntity
  8
DIBUJOS
 62
     7
100
AcDbVertex
100
AcDb2dVertex
 10
67.30446473921654
 20
46.59667007988003
 30
0.0
  0
VERTEX
  5
308
330
2F5
100
AcDbEntity
  8
DIBUJOS
 62
     7
100
AcDbVertex
100
AcDb2dVertex
 10
67.31371851836161
 20
46.76626676349073
 30
0.0
  0
VERTEX
  5
309
330
2F5
100
AcDbEntity
  8
DIBUJOS
 62
     7
100
AcDbVertex
100
AcDb2dVertex
 10
67.31371851836161
 20
47.3351016758192
 30
0.0
  0
VERTEX
  5
30A
330
2F5
100
AcDbEntity
  8
DIBUJOS
 62
     7
100
AcDbVertex
100
AcDb2dVertex
 10
67.29875807921611
 20
47.57701083598647
 30
0.0
  0
VERTEX
  5
30B
330
2F5
100
AcDbEntity
  8
DIBUJOS
 62
     7
100
AcDbVertex
100
AcDb2dVertex
 10
67.26265335731124
 20
47.88548630357561
 30
0.0
  0
VERTEX
  5
30C
330
2F5
100
AcDbEntity
  8
DIBUJOS
 62
     7
100
AcDbVertex
100
AcDb2dVertex
 10
67.20852477518228
 20
48.13947740326941
 30
0.0
  0
VERTEX
  5
30D
330
2F5
100
AcDbEntity
  8
DIBUJOS
 62
     7
100
AcDbVertex
100
AcDb2dVertex
 10
67.17272948975041
 20
48.27852231798788
 30
0.0
  0
VERTEX
  5
30E
330
2F5
100
AcDbEntity
  8
DIBUJOS
 62
     7
100
AcDbVertex
100
AcDb2dVertex
 10
67.04626443199696
 20
48.60529822673624
 30
0.0
  0
VERTEX
  5
30F
330
2F5
100
AcDbEntity
  8
DIBUJOS
 62
     7
100
AcDbVertex
100
AcDb2dVertex
 10
67.00027728632452
 20
48.67912542474945
 30
0.0
  0
VERTEX
  5
310
330
2F5
100
AcDbEntity
  8
DIBUJOS
 62
     7
100
AcDbVertex
100
AcDb2dVertex
 10
66.87804662240748
 20
48.8721660875381
 30
0.0
  0
VERTEX
  5
311
330
2F5
100
AcDbEntity
  8
DIBUJOS
 62
     7
100
AcDbVertex
100
AcDb2dVertex
 10
66.81148520853017
 20
48.93873239495935
 30
0.0
  0
VERTEX
  5
312
330
2F5
100
AcDbEntity
  8
DIBUJOS
 62
     7
100
AcDbVertex
100
AcDb2dVertex
 10
66.60575229816595
 20
49.12027746201121
 30
0.0
  0
SEQEND
  5
313
330
2F5
100
AcDbEntity
  8
DIBUJOS
 62
     7
  0
POLYLINE
  5
314
330
52
100
AcDbEntity
  8
DIBUJOS
 62
     7
100
AcDb2dPolyline
 66
     1
 10
0.0
 20
0.0
 30
0.0
  0
VERTEX
  5
315
330
314
100
AcDbEntity
  8
DIBUJOS
 62
     7
100
AcDbVertex
100
AcDb2dVertex
 10
62.41241416756149
 20
42.62708353624375
 30
0.0
  0
VERTEX
  5
316
330
314
100
AcDbEntity
  8
DIBUJOS
 62
     7
100
AcDbVertex
100
AcDb2dVertex
 10
62.39607592180626
 20
42.6022730502894
 30
0.0
  0
VERTEX
  5
317
330
314
100
AcDbEntity
  8
DIBUJOS
 62
     7
100
AcDbVertex
100
AcDb2dVertex
 10
62.39244574339836
 20
42.59138008566919
 30
0.0
  0
VERTEX
  5
318
330
314
100
AcDbEntity
  8
DIBUJOS
 62
     7
100
AcDbVertex
100
AcDb2dVertex
 10
62.38820972094936
 20
42.58472345492735
 30
0.0
  0
VERTEX
  5
319
330
314
100
AcDbEntity
  8
DIBUJOS
 62
     7
100
AcDbVertex
100
AcDb2dVertex
 10
62.38820972094936
 20
42.44554009792479
 30
0.0
  0
VERTEX
  5
31A
330
314
100
AcDbEntity
  8
DIBUJOS
 62
     7
100
AcDbVertex
100
AcDb2dVertex
 10
62.40031194425526
 20
42.4152831296605
 30
0.0
  0
VERTEX
  5
31B
330
314
100
AcDbEntity
  8
DIBUJOS
 62
     7
100
AcDbVertex
100
AcDb2dVertex
 10
62.4184660935209
 20
42.40318164534067
 30
0.0
  0
VERTEX
  5
31C
330
314
100
AcDbEntity
  8
DIBUJOS
 62
     7
100
AcDbVertex
100
AcDb2dVertex
 10
66.86594439910125
 20
42.40318164534067
 30
0.0
  0
VERTEX
  5
31D
330
314
100
AcDbEntity
  8
DIBUJOS
 62
     7
100
AcDbVertex
100
AcDb2dVertex
 10
66.87804662240748
 20
42.40923238750107
 30
0.0
  0
VERTEX
  5
31E
330
314
100
AcDbEntity
  8
DIBUJOS
 62
     7
100
AcDbVertex
100
AcDb2dVertex
 10
66.89619914305989
 20
42.43343861360528
 30
0.0
  0
VERTEX
  5
31F
330
314
100
AcDbEntity
  8
DIBUJOS
 62
     7
100
AcDbVertex
100
AcDb2dVertex
 10
66.89619914305989
 20
42.59682656797946
 30
0.0
  0
VERTEX
  5
320
330
314
100
AcDbEntity
  8
DIBUJOS
 62
     7
100
AcDbVertex
100
AcDb2dVertex
 10
66.88869612290493
 20
42.60784005882305
 30
0.0
  0
VERTEX
  5
321
330
314
100
AcDbEntity
  8
DIBUJOS
 62
     7
100
AcDbVertex
100
AcDb2dVertex
 10
66.87199632506098
 20
42.62708353624375
 30
0.0
  0
SEQEND
  5
322
330
314
100
AcDbEntity
  8
DIBUJOS
 62
     7
  0
ENDBLK
  5
55
330
52
100
AcDbEntity
  8
0
100
AcDbBlockEnd
  0
BLOCK
  5
325
330
323
100
AcDbEntity
  8
0
100
AcDbBlockBegin
  2
BLOCK_3
 70
     0
 10
0.0
 20
0.0
 30
0.0
  3
BLOCK_3
  1

  0
POLYLINE
  5
327
330
323
100
AcDbEntity
  8
DIBUJOS
 62
     7
100
AcDb2dPolyline
 66
     1
 10
0.0
 20
0.0
 30
0.0
  0
VERTEX
  5
328
330
327
100
AcDbEntity
  8
DIBUJOS
 62
     7
100
AcDbVertex
100
AcDb2dVertex
 10
77.35231487428406
 20
49.44100099986658
 30
0.0
  0
VERTEX
  5
329
330
327
100
AcDbEntity
  8
DIBUJOS
 62
     7
100
AcDbVertex
100
AcDb2dVertex
 10
77.34021102236524
 20
49.44100099986658
 30
0.0
  0
SEQEND
  5
32A
330
327
100
AcDbEntity
  8
DIBUJOS
 62
     7
  0
POLYLINE
  5
32B
330
323
100
AcDbEntity
  8
DIBUJOS
 62
     7
100
AcDb2dPolyline
 66
     1
 10
0.0
 20
0.0
 30
0.0
  0
VERTEX
  5
32C
330
32B
100
AcDbEntity
  8
DIBUJOS
 62
     7
100
AcDbVertex
100
AcDb2dVertex
 10
77.35836680024411
 20
49.44100099986658
 30
0.0
  0
VERTEX
  5
32D
330
32B
100
AcDbEntity
  8
DIBUJOS
 62
     7
100
AcDbVertex
100
AcDb2dVertex
 10
77.35231487428406
 20
49.44100099986658
 30
0.0
  0
SEQEND
  5
32E
330
32B
100
AcDbEntity
  8
DIBUJOS
 62
     7
  0
POLYLINE
  5
32F
330
323
100
AcDbEntity
  8
DIBUJOS
 62
     7
100
AcDb2dPolyline
 66
     1
 10
0.0
 20
0.0
 30
0.0
  0
VERTEX
  5
330
330
32F
100
AcDbEntity
  8
DIBUJOS
 62
     7
100
AcDbVertex
100
AcDb2dVertex
 10
77.3644154689777
 20
49.44100099986658
 30
0.0
  0
VERTEX
  5
331
330
32F
100
AcDbEntity
  8
DIBUJOS
 62
     7
100
AcDbVertex
100
AcDb2dVertex
 10
77.35836680024411
 20
49.44100099986658
 30
0.0
  0
SEQEND
  5
332
330
32F
100
AcDbEntity
  8
DIBUJOS
 62
     7
  0
POLYLINE
  5
333
330
323
100
AcDbEntity
  8
DIBUJOS
 62
     7
100
AcDb2dPolyline
 66
     1
 10
0.0
 20
0.0
 30
0.0
  0
VERTEX
  5
334
330
333
100
AcDbEntity
  8
DIBUJOS
 62
     7
100
AcDbVertex
100
AcDb2dVertex
 10
77.35836680024411
 20
49.43495188643973
 30
0.0
  0
VERTEX
  5
335
330
333
100
AcDbEntity
  8
DIBUJOS
 62
     7
100
AcDbVertex
100
AcDb2dVertex
 10
77.35836680024411
 20
49.44100099986658
 30
0.0
  0
SEQEND
  5
336
330
333
100
AcDbEntity
  8
DIBUJOS
 62
     7
  0
POLYLINE
  5
337
330
323
100
AcDbEntity
  8
DIBUJOS
 62
     7
100
AcDb2dPolyline
 66
     1
 10
0.0
 20
0.0
 30
0.0
  0
VERTEX
  5
338
330
337
100
AcDbEntity
  8
DIBUJOS
 62
     7
100
AcDbVertex
100
AcDb2dVertex
 10
77.37046739493711
 20
49.43495188643973
 30
0.0
  0
VERTEX
  5
339
330
337
100
AcDbEntity
  8
DIBUJOS
 62
     7
100
AcDbVertex
100
AcDb2dVertex
 10
77.3644154689777
 20
49.44100099986658
 30
0.0
  0
SEQEND
  5
33A
330
337
100
AcDbEntity
  8
DIBUJOS
 62
     7
  0
POLYLINE
  5
33B
330
323
100
AcDbEntity
  8
DIBUJOS
 62
     7
100
AcDb2dPolyline
 66
     1
 10
0.0
 20
0.0
 30
0.0
  0
VERTEX
  5
33C
330
33B
100
AcDbEntity
  8
DIBUJOS
 62
     7
100
AcDbVertex
100
AcDb2dVertex
 10
77.3765193208965
 20
49.43495188643973
 30
0.0
  0
VERTEX
  5
33D
330
33B
100
AcDbEntity
  8
DIBUJOS
 62
     7
100
AcDbVertex
100
AcDb2dVertex
 10
77.37046739493711
 20
49.43495188643973
 30
0.0
  0
SEQEND
  5
33E
330
33B
100
AcDbEntity
  8
DIBUJOS
 62
     7
  0
POLYLINE
  5
33F
330
323
100
AcDbEntity
  8
DIBUJOS
 62
     7
100
AcDb2dPolyline
 66
     1
 10
0.0
 20
0.0
 30
0.0
  0
VERTEX
  5
340
330
33F
100
AcDbEntity
  8
DIBUJOS
 62
     7
100
AcDbVertex
100
AcDb2dVertex
 10
77.38256798963009
 20
49.43495188643973
 30
0.0
  0
VERTEX
  5
341
330
33F
100
AcDbEntity
  8
DIBUJOS
 62
     7
100
AcDbVertex
100
AcDb2dVertex
 10
77.3765193208965
 20
49.43495188643973
 30
0.0
  0
SEQEND
  5
342
330
33F
100
AcDbEntity
  8
DIBUJOS
 62
     7
  0
POLYLINE
  5
343
330
323
100
AcDbEntity
  8
DIBUJOS
 62
     7
100
AcDb2dPolyline
 66
     1
 10
0.0
 20
0.0
 30
0.0
  0
VERTEX
  5
344
330
343
100
AcDbEntity
  8
DIBUJOS
 62
     7
100
AcDbVertex
100
AcDb2dVertex
 10
77.35231487428406
 20
49.42889951554707
 30
0.0
  0
VERTEX
  5
345
330
343
100
AcDbEntity
  8
DIBUJOS
 62
     7
100
AcDbVertex
100
AcDb2dVertex
 10
77.35836680024411
 20
49.43495188643973
 30
0.0
  0
SEQEND
  5
346
330
343
100
AcDbEntity
  8
DIBUJOS
 62
     7
  0
POLYLINE
  5
347
330
323
100
AcDbEntity
  8
DIBUJOS
 62
     7
100
AcDb2dPolyline
 66
     1
 10
0.0
 20
0.0
 30
0.0
  0
VERTEX
  5
348
330
347
100
AcDbEntity
  8
DIBUJOS
 62
     7
100
AcDbVertex
100
AcDb2dVertex
 10
77.3765193208965
 20
49.42889951554707
 30
0.0
  0
VERTEX
  5
349
330
347
100
AcDbEntity
  8
DIBUJOS
 62
     7
100
AcDbVertex
100
AcDb2dVertex
 10
77.3765193208965
 20
49.43495188643973
 30
0.0
  0
SEQEND
  5
34A
330
347
100
AcDbEntity
  8
DIBUJOS
 62
     7
  0
POLYLINE
  5
34B
330
323
100
AcDbEntity
  8
DIBUJOS
 62
     7
100
AcDb2dPolyline
 66
     1
 10
0.0
 20
0.0
 30
0.0
  0
VERTEX
  5
34C
330
34B
100
AcDbEntity
  8
DIBUJOS
 62
     7
100
AcDbVertex
100
AcDb2dVertex
 10
77.3886199155895
 20
49.42889951554707
 30
0.0
  0
VERTEX
  5
34D
330
34B
100
AcDbEntity
  8
DIBUJOS
 62
     7
100
AcDbVertex
100
AcDb2dVertex
 10
77.38256798963009
 20
49.43495188643973
 30
0.0
  0
SEQEND
  5
34E
330
34B
100
AcDbEntity
  8
DIBUJOS
 62
     7
  0
POLYLINE
  5
34F
330
323
100
AcDbEntity
  8
DIBUJOS
 62
     7
100
AcDb2dPolyline
 66
     1
 10
0.0
 20
0.0
 30
0.0
  0
VERTEX
  5
350
330
34F
100
AcDbEntity
  8
DIBUJOS
 62
     7
100
AcDbVertex
100
AcDb2dVertex
 10
77.39467184154955
 20
49.42889951554707
 30
0.0
  0
VERTEX
  5
351
330
34F
100
AcDbEntity
  8
DIBUJOS
 62
     7
100
AcDbVertex
100
AcDb2dVertex
 10
77.3886199155895
 20
49.42889951554707
 30
0.0
  0
SEQEND
  5
352
330
34F
100
AcDbEntity
  8
DIBUJOS
 62
     7
  0
POLYLINE
  5
353
330
323
100
AcDbEntity
  8
DIBUJOS
 62
     7
100
AcDb2dPolyline
 66
     1
 10
0.0
 20
0.0
 30
0.0
  0
VERTEX
  5
354
330
353
100
AcDbEntity
  8
DIBUJOS
 62
     7
100
AcDbVertex
100
AcDb2dVertex
 10
77.40072376750896
 20
49.42889951554707
 30
0.0
  0
VERTEX
  5
355
330
353
100
AcDbEntity
  8
DIBUJOS
 62
     7
100
AcDbVertex
100
AcDb2dVertex
 10
77.39467184154955
 20
49.42889951554707
 30
0.0
  0
SEQEND
  5
356
330
353
100
AcDbEntity
  8
DIBUJOS
 62
     7
  0
POLYLINE
  5
357
330
323
100
AcDbEntity
  8
DIBUJOS
 62
     7
100
AcDb2dPolyline
 66
     1
 10
0.0
 20
0.0
 30
0.0
  0
VERTEX
  5
358
330
357
100
AcDbEntity
  8
DIBUJOS
 62
     7
100
AcDbVertex
100
AcDb2dVertex
 10
77.34626294832529
 20
49.4228471446544
 30
0.0
  0
VERTEX
  5
359
330
357
100
AcDbEntity
  8
DIBUJOS
 62
     7
100
AcDbVertex
100
AcDb2dVertex
 10
77.34021102236524
 20
49.4228471446544
 30
0.0
  0
VERTEX
  5
35A
330
357
100
AcDbEntity
  8
DIBUJOS
 62
     7
100
AcDbVertex
100
AcDb2dVertex
 10
77.3341623536323
 20
49.43495188643973
 30
0.0
  0
VERTEX
  5
35B
330
357
100
AcDbEntity
  8
DIBUJOS
 62
     7
100
AcDbVertex
100
AcDb2dVertex
 10
77.34021102236524
 20
49.44100099986658
 30
0.0
  0
SEQEND
  5
35C
330
357
100
AcDbEntity
  8
DIBUJOS
 62
     7
  0
POLYLINE
  5
35D
330
323
100
AcDbEntity
  8
DIBUJOS
 62
     7
100
AcDb2dPolyline
 66
     1
 10
0.0
 20
0.0
 30
0.0
  0
VERTEX
  5
35E
330
35D
100
AcDbEntity
  8
DIBUJOS
 62
     7
100
AcDbVertex
100
AcDb2dVertex
 10
77.35231487428406
 20
49.4228471446544
 30
0.0
  0
VERTEX
  5
35F
330
35D
100
AcDbEntity
  8
DIBUJOS
 62
     7
100
AcDbVertex
100
AcDb2dVertex
 10
77.34626294832529
 20
49.4228471446544
 30
0.0
  0
SEQEND
  5
360
330
35D
100
AcDbEntity
  8
DIBUJOS
 62
     7
  0
POLYLINE
  5
361
330
323
100
AcDbEntity
  8
DIBUJOS
 62
     7
100
AcDb2dPolyline
 66
     1
 10
0.0
 20
0.0
 30
0.0
  0
VERTEX
  5
362
330
361
100
AcDbEntity
  8
DIBUJOS
 62
     7
100
AcDbVertex
100
AcDb2dVertex
 10
77.35231487428406
 20
49.4228471446544
 30
0.0
  0
VERTEX
  5
363
330
361
100
AcDbEntity
  8
DIBUJOS
 62
     7
100
AcDbVertex
100
AcDb2dVertex
 10
77.35231487428406
 20
49.42889951554707
 30
0.0
  0
SEQEND
  5
364
330
361
100
AcDbEntity
  8
DIBUJOS
 62
     7
  0
POLYLINE
  5
365
330
323
100
AcDbEntity
  8
DIBUJOS
 62
     7
100
AcDb2dPolyline
 66
     1
 10
0.0
 20
0.0
 30
0.0
  0
VERTEX
  5
366
330
365
100
AcDbEntity
  8
DIBUJOS
 62
     7
100
AcDbVertex
100
AcDb2dVertex
 10
77.37046739493711
 20
49.4228471446544
 30
0.0
  0
VERTEX
  5
367
330
365
100
AcDbEntity
  8
DIBUJOS
 62
     7
100
AcDbVertex
100
AcDb2dVertex
 10
77.3765193208965
 20
49.42889951554707
 30
0.0
  0
SEQEND
  5
368
330
365
100
AcDbEntity
  8
DIBUJOS
 62
     7
  0
POLYLINE
  5
369
330
323
100
AcDbEntity
  8
DIBUJOS
 62
     7
100
AcDb2dPolyline
 66
     1
 10
0.0
 20
0.0
 30
0.0
  0
VERTEX
  5
36A
330
369
100
AcDbEntity
  8
DIBUJOS
 62
     7
100
AcDbVertex
100
AcDb2dVertex
 10
77.39467184154955
 20
49.4228471446544
 30
0.0
  0
VERTEX
  5
36B
330
369
100
AcDbEntity
  8
DIBUJOS
 62
     7
100
AcDbVertex
100
AcDb2dVertex
 10
77.39467184154955
 20
49.42889951554707
 30
0.0
  0
SEQEND
  5
36C
330
369
100
AcDbEntity
  8
DIBUJOS
 62
     7
  0
POLYLINE
  5
36D
330
323
100
AcDbEntity
  8
DIBUJOS
 62
     7
100
AcDb2dPolyline
 66
     1
 10
0.0
 20
0.0
 30
0.0
  0
VERTEX
  5
36E
330
36D
100
AcDbEntity
  8
DIBUJOS
 62
     7
100
AcDbVertex
100
AcDb2dVertex
 10
77.40677243624255
 20
49.4228471446544
 30
0.0
  0
VERTEX
  5
36F
330
36D
100
AcDbEntity
  8
DIBUJOS
 62
     7
100
AcDbVertex
100
AcDb2dVertex
 10
77.40072376750896
 20
49.42889951554707
 30
0.0
  0
SEQEND
  5
370
330
36D
100
AcDbEntity
  8
DIBUJOS
 62
     7
  0
POLYLINE
  5
371
330
323
100
AcDbEntity
  8
DIBUJOS
 62
     7
100
AcDb2dPolyline
 66
     1
 10
0.0
 20
0.0
 30
0.0
  0
VERTEX
  5
372
330
371
100
AcDbEntity
  8
DIBUJOS
 62
     7
100
AcDbVertex
100
AcDb2dVertex
 10
77.41282436220196
 20
49.4228471446544
 30
0.0
  0
VERTEX
  5
373
330
371
100
AcDbEntity
  8
DIBUJOS
 62
     7
100
AcDbVertex
100
AcDb2dVertex
 10
77.40677243624255
 20
49.4228471446544
 30
0.0
  0
SEQEND
  5
374
330
371
100
AcDbEntity
  8
DIBUJOS
 62
     7
  0
POLYLINE
  5
375
330
323
100
AcDbEntity
  8
DIBUJOS
 62
     7
100
AcDb2dPolyline
 66
     1
 10
0.0
 20
0.0
 30
0.0
  0
VERTEX
  5
376
330
375
100
AcDbEntity
  8
DIBUJOS
 62
     7
100
AcDbVertex
100
AcDb2dVertex
 10
77.3644154689777
 20
49.41679803122755
 30
0.0
  0
VERTEX
  5
377
330
375
100
AcDbEntity
  8
DIBUJOS
 62
     7
100
AcDbVertex
100
AcDb2dVertex
 10
77.35231487428406
 20
49.4228471446544
 30
0.0
  0
SEQEND
  5
378
330
375
100
AcDbEntity
  8
DIBUJOS
 62
     7
  0
POLYLINE
  5
379
330
323
100
AcDbEntity
  8
DIBUJOS
 62
     7
100
AcDb2dPolyline
 66
     1
 10
0.0
 20
0.0
 30
0.0
  0
VERTEX
  5
37A
330
379
100
AcDbEntity
  8
DIBUJOS
 62
     7
100
AcDbVertex
100
AcDb2dVertex
 10
77.37046739493711
 20
49.41679803122755
 30
0.0
  0
VERTEX
  5
37B
330
379
100
AcDbEntity
  8
DIBUJOS
 62
     7
100
AcDbVertex
100
AcDb2dVertex
 10
77.3644154689777
 20
49.41679803122755
 30
0.0
  0
SEQEND
  5
37C
330
379
100
AcDbEntity
  8
DIBUJOS
 62
     7
  0
POLYLINE
  5
37D
330
323
100
AcDbEntity
  8
DIBUJOS
 62
     7
100
AcDb2dPolyline
 66
     1
 10
0.0
 20
0.0
 30
0.0
  0
VERTEX
  5
37E
330
37D
100
AcDbEntity
  8
DIBUJOS
 62
     7
100
AcDbVertex
100
AcDb2dVertex
 10
77.37046739493711
 20
49.41679803122755
 30
0.0
  0
VERTEX
  5
37F
330
37D
100
AcDbEntity
  8
DIBUJOS
 62
     7
100
AcDbVertex
100
AcDb2dVertex
 10
77.37046739493711
 20
49.4228471446544
 30
0.0
  0
SEQEND
  5
380
330
37D
100
AcDbEntity
  8
DIBUJOS
 62
     7
  0
POLYLINE
  5
381
330
323
100
AcDbEntity
  8
DIBUJOS
 62
     7
100
AcDb2dPolyline
 66
     1
 10
0.0
 20
0.0
 30
0.0
  0
VERTEX
  5
382
330
381
100
AcDbEntity
  8
DIBUJOS
 62
     7
100
AcDbVertex
100
AcDb2dVertex
 10
77.3886199155895
 20
49.41679803122755
 30
0.0
  0
VERTEX
  5
383
330
381
100
AcDbEntity
  8
DIBUJOS
 62
     7
100
AcDbVertex
100
AcDb2dVertex
 10
77.39467184154955
 20
49.4228471446544
 30
0.0
  0
SEQEND
  5
384
330
381
100
AcDbEntity
  8
DIBUJOS
 62
     7
  0
POLYLINE
  5
385
330
323
100
AcDbEntity
  8
DIBUJOS
 62
     7
100
AcDb2dPolyline
 66
     1
 10
0.0
 20
0.0
 30
0.0
  0
VERTEX
  5
386
330
385
100
AcDbEntity
  8
DIBUJOS
 62
     7
100
AcDbVertex
100
AcDb2dVertex
 10
77.40677243624255
 20
49.41679803122755
 30
0.0
  0
VERTEX
  5
387
330
385
100
AcDbEntity
  8
DIBUJOS
 62
     7
100
AcDbVertex
100
AcDb2dVertex
 10
77.40677243624255
 20
49.4228471446544
 30
0.0
  0
SEQEND
  5
388
330
385
100
AcDbEntity
  8
DIBUJOS
 62
     7
  0
POLYLINE
  5
389
330
323
100
AcDbEntity
  8
DIBUJOS
 62
     7
100
AcDb2dPolyline
 66
     1
 10
0.0
 20
0.0
 30
0.0
  0
VERTEX
  5
38A
330
389
100
AcDbEntity
  8
DIBUJOS
 62
     7
100
AcDbVertex
100
AcDb2dVertex
 10
77.42492495689496
 20
49.41679803122755
 30
0.0
  0
VERTEX
  5
38B
330
389
100
AcDbEntity
  8
DIBUJOS
 62
     7
100
AcDbVertex
100
AcDb2dVertex
 10
77.41282436220196
 20
49.4228471446544
 30
0.0
  0
SEQEND
  5
38C
330
389
100
AcDbEntity
  8
DIBUJOS
 62
     7
  0
POLYLINE
  5
38D
330
323
100
AcDbEntity
  8
DIBUJOS
 62
     7
100
AcDb2dPolyline
 66
     1
 10
0.0
 20
0.0
 30
0.0
  0
VERTEX
  5
38E
330
38D
100
AcDbEntity
  8
DIBUJOS
 62
     7
100
AcDbVertex
100
AcDb2dVertex
 10
77.43097688285435
 20
49.41679803122755
 30
0.0
  0
VERTEX
  5
38F
330
38D
100
AcDbEntity
  8
DIBUJOS
 62
     7
100
AcDbVertex
100
AcDb2dVertex
 10
77.42492495689496
 20
49.41679803122755
 30
0.0
  0
SEQEND
  5
390
330
38D
100
AcDbEntity
  8
DIBUJOS
 62
     7
  0
POLYLINE
  5
391
330
323
100
AcDbEntity
  8
DIBUJOS
 62
     7
100
AcDb2dPolyline
 66
     1
 10
0.0
 20
0.0
 30
0.0
  0
VERTEX
  5
392
330
391
100
AcDbEntity
  8
DIBUJOS
 62
     7
100
AcDbVertex
100
AcDb2dVertex
 10
77.38256798963009
 20
49.4107456603352
 30
0.0
  0
VERTEX
  5
393
330
391
100
AcDbEntity
  8
DIBUJOS
 62
     7
100
AcDbVertex
100
AcDb2dVertex
 10
77.37046739493711
 20
49.41679803122755
 30
0.0
  0
SEQEND
  5
394
330
391
100
AcDbEntity
  8
DIBUJOS
 62
     7
  0
POLYLINE
  5
395
330
323
100
AcDbEntity
  8
DIBUJOS
 62
     7
100
AcDb2dPolyline
 66
     1
 10
0.0
 20
0.0
 30
0.0
  0
VERTEX
  5
396
330
395
100
AcDbEntity
  8
DIBUJOS
 62
     7
100
AcDbVertex
100
AcDb2dVertex
 10
77.3886199155895
 20
49.4107456603352
 30
0.0
  0
VERTEX
  5
397
330
395
100
AcDbEntity
  8
DIBUJOS
 62
     7
100
AcDbVertex
100
AcDb2dVertex
 10
77.38256798963009
 20
49.4107456603352
 30
0.0
  0
SEQEND
  5
398
330
395
100
AcDbEntity
  8
DIBUJOS
 62
     7
  0
POLYLINE
  5
399
330
323
100
AcDbEntity
  8
DIBUJOS
 62
     7
100
AcDb2dPolyline
 66
     1
 10
0.0
 20
0.0
 30
0.0
  0
VERTEX
  5
39A
330
399
100
AcDbEntity
  8
DIBUJOS
 62
     7
100
AcDbVertex
100
AcDb2dVertex
 10
77.3886199155895
 20
49.4107456603352
 30
0.0
  0
VERTEX
  5
39B
330
399
100
AcDbEntity
  8
DIBUJOS
 62
     7
100
AcDbVertex
100
AcDb2dVertex
 10
77.3886199155895
 20
49.41679803122755
 30
0.0
  0
SEQEND
  5
39C
330
399
100
AcDbEntity
  8
DIBUJOS
 62
     7
  0
POLYLINE
  5
39D
330
323
100
AcDbEntity
  8
DIBUJOS
 62
     7
100
AcDb2dPolyline
 66
     1
 10
0.0
 20
0.0
 30
0.0
  0
VERTEX
  5
39E
330
39D
100
AcDbEntity
  8
DIBUJOS
 62
     7
100
AcDbVertex
100
AcDb2dVertex
 10
77.40072376750896
 20
49.4107456603352
 30
0.0
  0
VERTEX
  5
39F
330
39D
100
AcDbEntity
  8
DIBUJOS
 62
     7
100
AcDbVertex
100
AcDb2dVertex
 10
77.40677243624255
 20
49.41679803122755
 30
0.0
  0
SEQEND
  5
3A0
330
39D
100
AcDbEntity
  8
DIBUJOS
 62
     7
  0
POLYLINE
  5
3A1
330
323
100
AcDbEntity
  8
DIBUJOS
 62
     7
100
AcDb2dPolyline
 66
     1
 10
0.0
 20
0.0
 30
0.0
  0
VERTEX
  5
3A2
330
3A1
100
AcDbEntity
  8
DIBUJOS
 62
     7
100
AcDbVertex
100
AcDb2dVertex
 10
77.42492495689496
 20
49.4107456603352
 30
0.0
  0
VERTEX
  5
3A3
330
3A1
100
AcDbEntity
  8
DIBUJOS
 62
     7
100
AcDbVertex
100
AcDb2dVertex
 10
77.42492495689496
 20
49.41679803122755
 30
0.0
  0
SEQEND
  5
3A4
330
3A1
100
AcDbEntity
  8
DIBUJOS
 62
     7
  0
POLYLINE
  5
3A5
330
323
100
AcDbEntity
  8
DIBUJOS
 62
     7
100
AcDb2dPolyline
 66
     1
 10
0.0
 20
0.0
 30
0.0
  0
VERTEX
  5
3A6
330
3A5
100
AcDbEntity
  8
DIBUJOS
 62
     7
100
AcDbVertex
100
AcDb2dVertex
 10
77.39467184154955
 20
49.40469328944253
 30
0.0
  0
VERTEX
  5
3A7
330
3A5
100
AcDbEntity
  8
DIBUJOS
 62
     7
100
AcDbVertex
100
AcDb2dVertex
 10
77.3886199155895
 20
49.4107456603352
 30
0.0
  0
SEQEND
  5
3A8
330
3A5
100
AcDbEntity
  8
DIBUJOS
 62
     7
  0
POLYLINE
  5
3A9
330
323
100
AcDbEntity
  8
DIBUJOS
 62
     7
100
AcDb2dPolyline
 66
     1
 10
0.0
 20
0.0
 30
0.0
  0
VERTEX
  5
3AA
330
3A9
100
AcDbEntity
  8
DIBUJOS
 62
     7
100
AcDbVertex
100
AcDb2dVertex
 10
77.40072376750896
 20
49.40469328944253
 30
0.0
  0
VERTEX
  5
3AB
330
3A9
100
AcDbEntity
  8
DIBUJOS
 62
     7
100
AcDbVertex
100
AcDb2dVertex
 10
77.39467184154955
 20
49.40469328944253
 30
0.0
  0
SEQEND
  5
3AC
330
3A9
100
AcDbEntity
  8
DIBUJOS
 62
     7
  0
POLYLINE
  5
3AD
330
323
100
AcDbEntity
  8
DIBUJOS
 62
     7
100
AcDb2dPolyline
 66
     1
 10
0.0
 20
0.0
 30
0.0
  0
VERTEX
  5
3AE
330
3AD
100
AcDbEntity
  8
DIBUJOS
 62
     7
100
AcDbVertex
100
AcDb2dVertex
 10
77.40072376750896
 20
49.40469328944253
 30
0.0
  0
VERTEX
  5
3AF
330
3AD
100
AcDbEntity
  8
DIBUJOS
 62
     7
100
AcDbVertex
100
AcDb2dVertex
 10
77.40072376750896
 20
49.4107456603352
 30
0.0
  0
SEQEND
  5
3B0
330
3AD
100
AcDbEntity
  8
DIBUJOS
 62
     7
  0
POLYLINE
  5
3B1
330
323
100
AcDbEntity
  8
DIBUJOS
 62
     7
100
AcDb2dPolyline
 66
     1
 10
0.0
 20
0.0
 30
0.0
  0
VERTEX
  5
3B2
330
3B1
100
AcDbEntity
  8
DIBUJOS
 62
     7
100
AcDbVertex
100
AcDb2dVertex
 10
77.40677243624255
 20
49.40469328944253
 30
0.0
  0
VERTEX
  5
3B3
330
3B1
100
AcDbEntity
  8
DIBUJOS
 62
     7
100
AcDbVertex
100
AcDb2dVertex
 10
77.40072376750896
 20
49.40469328944253
 30
0.0
  0
SEQEND
  5
3B4
330
3B1
100
AcDbEntity
  8
DIBUJOS
 62
     7
  0
POLYLINE
  5
3B5
330
323
100
AcDbEntity
  8
DIBUJOS
 62
     7
100
AcDb2dPolyline
 66
     1
 10
0.0
 20
0.0
 30
0.0
  0
VERTEX
  5
3B6
330
3B5
100
AcDbEntity
  8
DIBUJOS
 62
     7
100
AcDbVertex
100
AcDb2dVertex
 10
77.41887628816137
 20
49.40469328944253
 30
0.0
  0
VERTEX
  5
3B7
330
3B5
100
AcDbEntity
  8
DIBUJOS
 62
     7
100
AcDbVertex
100
AcDb2dVertex
 10
77.40677243624255
 20
49.40469328944253
 30
0.0
  0
SEQEND
  5
3B8
330
3B5
100
AcDbEntity
  8
DIBUJOS
 62
     7
  0
POLYLINE
  5
3B9
330
323
100
AcDbEntity
  8
DIBUJOS
 62
     7
100
AcDb2dPolyline
 66
     1
 10
0.0
 20
0.0
 30
0.0
  0
VERTEX
  5
3BA
330
3B9
100
AcDbEntity
  8
DIBUJOS
 62
     7
100
AcDbVertex
100
AcDb2dVertex
 10
77.41887628816137
 20
49.40469328944253
 30
0.0
  0
VERTEX
  5
3BB
330
3B9
100
AcDbEntity
  8
DIBUJOS
 62
     7
100
AcDbVertex
100
AcDb2dVertex
 10
77.42492495689496
 20
49.4107456603352
 30
0.0
  0
SEQEND
  5
3BC
330
3B9
100
AcDbEntity
  8
DIBUJOS
 62
     7
  0
POLYLINE
  5
3BD
330
323
100
AcDbEntity
  8
DIBUJOS
 62
     7
100
AcDb2dPolyline
 66
     1
 10
0.0
 20
0.0
 30
0.0
  0
VERTEX
  5
3BE
330
3BD
100
AcDbEntity
  8
DIBUJOS
 62
     7
100
AcDbVertex
100
AcDb2dVertex
 10
77.42492495689496
 20
49.39864091854987
 30
0.0
  0
VERTEX
  5
3BF
330
3BD
100
AcDbEntity
  8
DIBUJOS
 62
     7
100
AcDbVertex
100
AcDb2dVertex
 10
77.41887628816137
 20
49.40469328944253
 30
0.0
  0
SEQEND
  5
3C0
330
3BD
100
AcDbEntity
  8
DIBUJOS
 62
     7
  0
POLYLINE
  5
3C1
330
323
100
AcDbEntity
  8
DIBUJOS
 62
     7
100
AcDb2dPolyline
 66
     1
 10
0.0
 20
0.0
 30
0.0
  0
VERTEX
  5
3C2
330
3C1
100
AcDbEntity
  8
DIBUJOS
 62
     7
100
AcDbVertex
100
AcDb2dVertex
 10
77.50963889142466
 20
49.38653943423036
 30
0.0
  0
VERTEX
  5
3C3
330
3C1
100
AcDbEntity
  8
DIBUJOS
 62
     7
100
AcDbVertex
100
AcDb2dVertex
 10
77.43097688285435
 20
49.41679803122755
 30
0.0
  0
SEQEND
  5
3C4
330
3C1
100
AcDbEntity
  8
DIBUJOS
 62
     7
  0
POLYLINE
  5
3C5
330
323
100
AcDbEntity
  8
DIBUJOS
 62
     7
100
AcDb2dPolyline
 66
     1
 10
0.0
 20
0.0
 30
0.0
  0
VERTEX
  5
3C6
330
3C5
100
AcDbEntity
  8
DIBUJOS
 62
     7
100
AcDbVertex
100
AcDb2dVertex
 10
77.51569081738407
 20
49.38653943423036
 30
0.0
  0
VERTEX
  5
3C7
330
3C5
100
AcDbEntity
  8
DIBUJOS
 62
     7
100
AcDbVertex
100
AcDb2dVertex
 10
77.50963889142466
 20
49.38653943423036
 30
0.0
  0
SEQEND
  5
3C8
330
3C5
100
AcDbEntity
  8
DIBUJOS
 62
     7
  0
POLYLINE
  5
3C9
330
323
100
AcDbEntity
  8
DIBUJOS
 62
     7
100
AcDb2dPolyline
 66
     1
 10
0.0
 20
0.0
 30
0.0
  0
VERTEX
  5
3CA
330
3C9
100
AcDbEntity
  8
DIBUJOS
 62
     7
100
AcDbVertex
100
AcDb2dVertex
 10
77.52174274334348
 20
49.38653943423036
 30
0.0
  0
VERTEX
  5
3CB
330
3C9
100
AcDbEntity
  8
DIBUJOS
 62
     7
100
AcDbVertex
100
AcDb2dVertex
 10
77.51569081738407
 20
49.38653943423036
 30
0.0
  0
SEQEND
  5
3CC
330
3C9
100
AcDbEntity
  8
DIBUJOS
 62
     7
  0
POLYLINE
  5
3CD
330
323
100
AcDbEntity
  8
DIBUJOS
 62
     7
100
AcDb2dPolyline
 66
     1
 10
0.0
 20
0.0
 30
0.0
  0
VERTEX
  5
3CE
330
3CD
100
AcDbEntity
  8
DIBUJOS
 62
     7
100
AcDbVertex
100
AcDb2dVertex
 10
77.51569081738407
 20
49.38048706333769
 30
0.0
  0
VERTEX
  5
3CF
330
3CD
100
AcDbEntity
  8
DIBUJOS
 62
     7
100
AcDbVertex
100
AcDb2dVertex
 10
77.51569081738407
 20
49.38653943423036
 30
0.0
  0
SEQEND
  5
3D0
330
3CD
100
AcDbEntity
  8
DIBUJOS
 62
     7
  0
POLYLINE
  5
3D1
330
323
100
AcDbEntity
  8
DIBUJOS
 62
     7
100
AcDb2dPolyline
 66
     1
 10
0.0
 20
0.0
 30
0.0
  0
VERTEX
  5
3D2
330
3D1
100
AcDbEntity
  8
DIBUJOS
 62
     7
100
AcDbVertex
100
AcDb2dVertex
 10
77.52779466930353
 20
49.38048706333769
 30
0.0
  0
VERTEX
  5
3D3
330
3D1
100
AcDbEntity
  8
DIBUJOS
 62
     7
100
AcDbVertex
100
AcDb2dVertex
 10
77.52174274334348
 20
49.38653943423036
 30
0.0
  0
SEQEND
  5
3D4
330
3D1
100
AcDbEntity
  8
DIBUJOS
 62
     7
  0
POLYLINE
  5
3D5
330
323
100
AcDbEntity
  8
DIBUJOS
 62
     7
100
AcDb2dPolyline
 66
     1
 10
0.0
 20
0.0
 30
0.0
  0
VERTEX
  5
3D6
330
3D5
100
AcDbEntity
  8
DIBUJOS
 62
     7
100
AcDbVertex
100
AcDb2dVertex
 10
77.53384333803648
 20
49.38048706333769
 30
0.0
  0
VERTEX
  5
3D7
330
3D5
100
AcDbEntity
  8
DIBUJOS
 62
     7
100
AcDbVertex
100
AcDb2dVertex
 10
77.52779466930353
 20
49.38048706333769
 30
0.0
  0
SEQEND
  5
3D8
330
3D5
100
AcDbEntity
  8
DIBUJOS
 62
     7
  0
POLYLINE
  5
3D9
330
323
100
AcDbEntity
  8
DIBUJOS
 62
     7
100
AcDb2dPolyline
 66
     1
 10
0.0
 20
0.0
 30
0.0
  0
VERTEX
  5
3DA
330
3D9
100
AcDbEntity
  8
DIBUJOS
 62
     7
100
AcDbVertex
100
AcDb2dVertex
 10
77.50963889142466
 20
49.37443794991083
 30
0.0
  0
VERTEX
  5
3DB
330
3D9
100
AcDbEntity
  8
DIBUJOS
 62
     7
100
AcDbVertex
100
AcDb2dVertex
 10
77.51569081738407
 20
49.38048706333769
 30
0.0
  0
SEQEND
  5
3DC
330
3D9
100
AcDbEntity
  8
DIBUJOS
 62
     7
  0
POLYLINE
  5
3DD
330
323
100
AcDbEntity
  8
DIBUJOS
 62
     7
100
AcDb2dPolyline
 66
     1
 10
0.0
 20
0.0
 30
0.0
  0
VERTEX
  5
3DE
330
3DD
100
AcDbEntity
  8
DIBUJOS
 62
     7
100
AcDbVertex
100
AcDb2dVertex
 10
77.52779466930353
 20
49.37443794991083
 30
0.0
  0
VERTEX
  5
3DF
330
3DD
100
AcDbEntity
  8
DIBUJOS
 62
     7
100
AcDbVertex
100
AcDb2dVertex
 10
77.52779466930353
 20
49.38048706333769
 30
0.0
  0
SEQEND
  5
3E0
330
3DD
100
AcDbEntity
  8
DIBUJOS
 62
     7
  0
POLYLINE
  5
3E1
330
323
100
AcDbEntity
  8
DIBUJOS
 62
     7
100
AcDb2dPolyline
 66
     1
 10
0.0
 20
0.0
 30
0.0
  0
VERTEX
  5
3E2
330
3E1
100
AcDbEntity
  8
DIBUJOS
 62
     7
100
AcDbVertex
100
AcDb2dVertex
 10
77.53989526399651
 20
49.37443794991083
 30
0.0
  0
VERTEX
  5
3E3
330
3E1
100
AcDbEntity
  8
DIBUJOS
 62
     7
100
AcDbVertex
100
AcDb2dVertex
 10
77.53384333803648
 20
49.38048706333769
 30
0.0
  0
SEQEND
  5
3E4
330
3E1
100
AcDbEntity
  8
DIBUJOS
 62
     7
  0
POLYLINE
  5
3E5
330
323
100
AcDbEntity
  8
DIBUJOS
 62
     7
100
AcDb2dPolyline
 66
     1
 10
0.0
 20
0.0
 30
0.0
  0
VERTEX
  5
3E6
330
3E5
100
AcDbEntity
  8
DIBUJOS
 62
     7
100
AcDbVertex
100
AcDb2dVertex
 10
77.54594718995592
 20
49.37443794991083
 30
0.0
  0
VERTEX
  5
3E7
330
3E5
100
AcDbEntity
  8
DIBUJOS
 62
     7
100
AcDbVertex
100
AcDb2dVertex
 10
77.53989526399651
 20
49.37443794991083
 30
0.0
  0
SEQEND
  5
3E8
330
3E5
100
AcDbEntity
  8
DIBUJOS
 62
     7
  0
POLYLINE
  5
3E9
330
323
100
AcDbEntity
  8
DIBUJOS
 62
     7
100
AcDb2dPolyline
 66
     1
 10
0.0
 20
0.0
 30
0.0
  0
VERTEX
  5
3EA
330
3E9
100
AcDbEntity
  8
DIBUJOS
 62
     7
100
AcDbVertex
100
AcDb2dVertex
 10
77.55199585868951
 20
49.37443794991083
 30
0.0
  0
VERTEX
  5
3EB
330
3E9
100
AcDbEntity
  8
DIBUJOS
 62
     7
100
AcDbVertex
100
AcDb2dVertex
 10
77.54594718995592
 20
49.37443794991083
 30
0.0
  0
SEQEND
  5
3EC
330
3E9
100
AcDbEntity
  8
DIBUJOS
 62
     7
  0
POLYLINE
  5
3ED
330
323
100
AcDbEntity
  8
DIBUJOS
 62
     7
100
AcDb2dPolyline
 66
     1
 10
0.0
 20
0.0
 30
0.0
  0
VERTEX
  5
3EE
330
3ED
100
AcDbEntity
  8
DIBUJOS
 62
     7
100
AcDbVertex
100
AcDb2dVertex
 10
77.50359022269107
 20
49.36838557901849
 30
0.0
  0
VERTEX
  5
3EF
330
3ED
100
AcDbEntity
  8
DIBUJOS
 62
     7
100
AcDbVertex
100
AcDb2dVertex
 10
77.49753829673166
 20
49.36838557901849
 30
0.0
  0
SEQEND
  5
3F0
330
3ED
100
AcDbEntity
  8
DIBUJOS
 62
     7
  0
POLYLINE
  5
3F1
330
323
100
AcDbEntity
  8
DIBUJOS
 62
     7
100
AcDb2dPolyline
 66
     1
 10
0.0
 20
0.0
 30
0.0
  0
VERTEX
  5
3F2
330
3F1
100
AcDbEntity
  8
DIBUJOS
 62
     7
100
AcDbVertex
100
AcDb2dVertex
 10
77.50963889142466
 20
49.36838557901849
 30
0.0
  0
VERTEX
  5
3F3
330
3F1
100
AcDbEntity
  8
DIBUJOS
 62
     7
100
AcDbVertex
100
AcDb2dVertex
 10
77.50359022269107
 20
49.36838557901849
 30
0.0
  0
SEQEND
  5
3F4
330
3F1
100
AcDbEntity
  8
DIBUJOS
 62
     7
  0
POLYLINE
  5
3F5
330
323
100
AcDbEntity
  8
DIBUJOS
 62
     7
100
AcDb2dPolyline
 66
     1
 10
0.0
 20
0.0
 30
0.0
  0
VERTEX
  5
3F6
330
3F5
100
AcDbEntity
  8
DIBUJOS
 62
     7
100
AcDbVertex
100
AcDb2dVertex
 10
77.50963889142466
 20
49.36838557901849
 30
0.0
  0
VERTEX
  5
3F7
330
3F5
100
AcDbEntity
  8
DIBUJOS
 62
     7
100
AcDbVertex
100
AcDb2dVertex
 10
77.50963889142466
 20
49.37443794991083
 30
0.0
  0
SEQEND
  5
3F8
330
3F5
100
AcDbEntity
  8
DIBUJOS
 62
     7
  0
POLYLINE
  5
3F9
330
323
100
AcDbEntity
  8
DIBUJOS
 62
     7
100
AcDb2dPolyline
 66
     1
 10
0.0
 20
0.0
 30
0.0
  0
VERTEX
  5
3FA
330
3F9
100
AcDbEntity
  8
DIBUJOS
 62
     7
100
AcDbVertex
100
AcDb2dVertex
 10
77.51569081738407
 20
49.36838557901849
 30
0.0
  0
VERTEX
  5
3FB
330
3F9
100
AcDbEntity
  8
DIBUJOS
 62
     7
100
AcDbVertex
100
AcDb2dVertex
 10
77.50963889142466
 20
49.36838557901849
 30
0.0
  0
SEQEND
  5
3FC
330
3F9
100
AcDbEntity
  8
DIBUJOS
 62
     7
  0
POLYLINE
  5
3FD
330
323
100
AcDbEntity
  8
DIBUJOS
 62
     7
100
AcDb2dPolyline
 66
     1
 10
0.0
 20
0.0
 30
0.0
  0
VERTEX
  5
3FE
330
3FD
100
AcDbEntity
  8
DIBUJOS
 62
     7
100
AcDbVertex
100
AcDb2dVertex
 10
77.52174274334348
 20
49.36838557901849
 30
0.0
  0
VERTEX
  5
3FF
330
3FD
100
AcDbEntity
  8
DIBUJOS
 62
     7
100
AcDbVertex
100
AcDb2dVertex
 10
77.51569081738407
 20
49.36838557901849
 30
0.0
  0
SEQEND
  5
400
330
3FD
100
AcDbEntity
  8
DIBUJOS
 62
     7
  0
POLYLINE
  5
401
330
323
100
AcDbEntity
  8
DIBUJOS
 62
     7
100
AcDb2dPolyline
 66
     1
 10
0.0
 20
0.0
 30
0.0
  0
VERTEX
  5
402
330
401
100
AcDbEntity
  8
DIBUJOS
 62
     7
100
AcDbVertex
100
AcDb2dVertex
 10
77.52174274334348
 20
49.36838557901849
 30
0.0
  0
VERTEX
  5
403
330
401
100
AcDbEntity
  8
DIBUJOS
 62
     7
100
AcDbVertex
100
AcDb2dVertex
 10
77.52779466930353
 20
49.37443794991083
 30
0.0
  0
SEQEND
  5
404
330
401
100
AcDbEntity
  8
DIBUJOS
 62
     7
  0
POLYLINE
  5
405
330
323
100
AcDbEntity
  8
DIBUJOS
 62
     7
100
AcDb2dPolyline
 66
     1
 10
0.0
 20
0.0
 30
0.0
  0
VERTEX
  5
406
330
405
100
AcDbEntity
  8
DIBUJOS
 62
     7
100
AcDbVertex
100
AcDb2dVertex
 10
77.54594718995592
 20
49.36838557901849
 30
0.0
  0
VERTEX
  5
407
330
405
100
AcDbEntity
  8
DIBUJOS
 62
     7
100
AcDbVertex
100
AcDb2dVertex
 10
77.54594718995592
 20
49.37443794991083
 30
0.0
  0
SEQEND
  5
408
330
405
100
AcDbEntity
  8
DIBUJOS
 62
     7
  0
POLYLINE
  5
409
330
323
100
AcDbEntity
  8
DIBUJOS
 62
     7
100
AcDb2dPolyline
 66
     1
 10
0.0
 20
0.0
 30
0.0
  0
VERTEX
  5
40A
330
409
100
AcDbEntity
  8
DIBUJOS
 62
     7
100
AcDbVertex
100
AcDb2dVertex
 10
77.53989526399651
 20
49.36233320812583
 30
0.0
  0
VERTEX
  5
40B
330
409
100
AcDbEntity
  8
DIBUJOS
 62
     7
100
AcDbVertex
100
AcDb2dVertex
 10
77.54594718995592
 20
49.36838557901849
 30
0.0
  0
SEQEND
  5
40C
330
409
100
AcDbEntity
  8
DIBUJOS
 62
     7
  0
POLYLINE
  5
40D
330
323
100
AcDbEntity
  8
DIBUJOS
 62
     7
100
AcDb2dPolyline
 66
     1
 10
0.0
 20
0.0
 30
0.0
  0
VERTEX
  5
40E
330
40D
100
AcDbEntity
  8
DIBUJOS
 62
     7
100
AcDbVertex
100
AcDb2dVertex
 10
77.53384333803648
 20
49.35628083723348
 30
0.0
  0
VERTEX
  5
40F
330
40D
100
AcDbEntity
  8
DIBUJOS
 62
     7
100
AcDbVertex
100
AcDb2dVertex
 10
77.52174274334348
 20
49.36838557901849
 30
0.0
  0
SEQEND
  5
410
330
40D
100
AcDbEntity
  8
DIBUJOS
 62
     7
  0
POLYLINE
  5
411
330
323
100
AcDbEntity
  8
DIBUJOS
 62
     7
100
AcDb2dPolyline
 66
     1
 10
0.0
 20
0.0
 30
0.0
  0
VERTEX
  5
412
330
411
100
AcDbEntity
  8
DIBUJOS
 62
     7
100
AcDbVertex
100
AcDb2dVertex
 10
77.53989526399651
 20
49.35628083723348
 30
0.0
  0
VERTEX
  5
413
330
411
100
AcDbEntity
  8
DIBUJOS
 62
     7
100
AcDbVertex
100
AcDb2dVertex
 10
77.53384333803648
 20
49.35628083723348
 30
0.0
  0
SEQEND
  5
414
330
411
100
AcDbEntity
  8
DIBUJOS
 62
     7
  0
POLYLINE
  5
415
330
323
100
AcDbEntity
  8
DIBUJOS
 62
     7
100
AcDb2dPolyline
 66
     1
 10
0.0
 20
0.0
 30
0.0
  0
VERTEX
  5
416
330
415
100
AcDbEntity
  8
DIBUJOS
 62
     7
100
AcDbVertex
100
AcDb2dVertex
 10
77.53989526399651
 20
49.35628083723348
 30
0.0
  0
VERTEX
  5
417
330
415
100
AcDbEntity
  8
DIBUJOS
 62
     7
100
AcDbVertex
100
AcDb2dVertex
 10
77.53989526399651
 20
49.36233320812583
 30
0.0
  0
SEQEND
  5
418
330
415
100
AcDbEntity
  8
DIBUJOS
 62
     7
  0
POLYLINE
  5
419
330
323
100
AcDbEntity
  8
DIBUJOS
 62
     7
100
AcDb2dPolyline
 66
     1
 10
0.0
 20
0.0
 30
0.0
  0
VERTEX
  5
41A
330
419
100
AcDbEntity
  8
DIBUJOS
 62
     7
100
AcDbVertex
100
AcDb2dVertex
 10
77.61855727256682
 20
49.34417935291396
 30
0.0
  0
VERTEX
  5
41B
330
419
100
AcDbEntity
  8
DIBUJOS
 62
     7
100
AcDbVertex
100
AcDb2dVertex
 10
77.55199585868951
 20
49.37443794991083
 30
0.0
  0
SEQEND
  5
41C
330
419
100
AcDbEntity
  8
DIBUJOS
 62
     7
  0
POLYLINE
  5
41D
330
323
100
AcDbEntity
  8
DIBUJOS
 62
     7
100
AcDb2dPolyline
 66
     1
 10
0.0
 20
0.0
 30
0.0
  0
VERTEX
  5
41E
330
41D
100
AcDbEntity
  8
DIBUJOS
 62
     7
100
AcDbVertex
100
AcDb2dVertex
 10
77.62460919852623
 20
49.34417935291396
 30
0.0
  0
VERTEX
  5
41F
330
41D
100
AcDbEntity
  8
DIBUJOS
 62
     7
100
AcDbVertex
100
AcDb2dVertex
 10
77.61855727256682
 20
49.34417935291396
 30
0.0
  0
SEQEND
  5
420
330
41D
100
AcDbEntity
  8
DIBUJOS
 62
     7
  0
POLYLINE
  5
421
330
323
100
AcDbEntity
  8
DIBUJOS
 62
     7
100
AcDb2dPolyline
 66
     1
 10
0.0
 20
0.0
 30
0.0
  0
VERTEX
  5
422
330
421
100
AcDbEntity
  8
DIBUJOS
 62
     7
100
AcDbVertex
100
AcDb2dVertex
 10
77.61855727256682
 20
49.33812698202129
 30
0.0
  0
VERTEX
  5
423
330
421
100
AcDbEntity
  8
DIBUJOS
 62
     7
100
AcDbVertex
100
AcDb2dVertex
 10
77.61855727256682
 20
49.34417935291396
 30
0.0
  0
SEQEND
  5
424
330
421
100
AcDbEntity
  8
DIBUJOS
 62
     7
  0
POLYLINE
  5
425
330
323
100
AcDbEntity
  8
DIBUJOS
 62
     7
100
AcDb2dPolyline
 66
     1
 10
0.0
 20
0.0
 30
0.0
  0
VERTEX
  5
426
330
425
100
AcDbEntity
  8
DIBUJOS
 62
     7
100
AcDbVertex
100
AcDb2dVertex
 10
77.6125086038326
 20
49.33207786859413
 30
0.0
  0
VERTEX
  5
427
330
425
100
AcDbEntity
  8
DIBUJOS
 62
     7
100
AcDbVertex
100
AcDb2dVertex
 10
77.61855727256682
 20
49.33812698202129
 30
0.0
  0
SEQEND
  5
428
330
425
100
AcDbEntity
  8
DIBUJOS
 62
     7
  0
POLYLINE
  5
429
330
323
100
AcDbEntity
  8
DIBUJOS
 62
     7
100
AcDb2dPolyline
 66
     1
 10
0.0
 20
0.0
 30
0.0
  0
VERTEX
  5
42A
330
429
100
AcDbEntity
  8
DIBUJOS
 62
     7
100
AcDbVertex
100
AcDb2dVertex
 10
77.60645667787382
 20
49.32602549770178
 30
0.0
  0
VERTEX
  5
42B
330
429
100
AcDbEntity
  8
DIBUJOS
 62
     7
100
AcDbVertex
100
AcDb2dVertex
 10
77.53989526399651
 20
49.35628083723348
 30
0.0
  0
SEQEND
  5
42C
330
429
100
AcDbEntity
  8
DIBUJOS
 62
     7
  0
POLYLINE
  5
42D
330
323
100
AcDbEntity
  8
DIBUJOS
 62
     7
100
AcDb2dPolyline
 66
     1
 10
0.0
 20
0.0
 30
0.0
  0
VERTEX
  5
42E
330
42D
100
AcDbEntity
  8
DIBUJOS
 62
     7
100
AcDbVertex
100
AcDb2dVertex
 10
77.6125086038326
 20
49.32602549770178
 30
0.0
  0
VERTEX
  5
42F
330
42D
100
AcDbEntity
  8
DIBUJOS
 62
     7
100
AcDbVertex
100
AcDb2dVertex
 10
77.60645667787382
 20
49.32602549770178
 30
0.0
  0
SEQEND
  5
430
330
42D
100
AcDbEntity
  8
DIBUJOS
 62
     7
  0
POLYLINE
  5
431
330
323
100
AcDbEntity
  8
DIBUJOS
 62
     7
100
AcDb2dPolyline
 66
     1
 10
0.0
 20
0.0
 30
0.0
  0
VERTEX
  5
432
330
431
100
AcDbEntity
  8
DIBUJOS
 62
     7
100
AcDbVertex
100
AcDb2dVertex
 10
77.6125086038326
 20
49.32602549770178
 30
0.0
  0
VERTEX
  5
433
330
431
100
AcDbEntity
  8
DIBUJOS
 62
     7
100
AcDbVertex
100
AcDb2dVertex
 10
77.6125086038326
 20
49.33207786859413
 30
0.0
  0
SEQEND
  5
434
330
431
100
AcDbEntity
  8
DIBUJOS
 62
     7
  0
POLYLINE
  5
435
330
323
100
AcDbEntity
  8
DIBUJOS
 62
     7
100
AcDb2dPolyline
 66
     1
 10
0.0
 20
0.0
 30
0.0
  0
VERTEX
  5
436
330
435
100
AcDbEntity
  8
DIBUJOS
 62
     7
100
AcDbVertex
100
AcDb2dVertex
 10
77.67301809175049
 20
49.31997312680911
 30
0.0
  0
VERTEX
  5
437
330
435
100
AcDbEntity
  8
DIBUJOS
 62
     7
100
AcDbVertex
100
AcDb2dVertex
 10
77.62460919852623
 20
49.34417935291396
 30
0.0
  0
SEQEND
  5
438
330
435
100
AcDbEntity
  8
DIBUJOS
 62
     7
  0
POLYLINE
  5
439
330
323
100
AcDbEntity
  8
DIBUJOS
 62
     7
100
AcDb2dPolyline
 66
     1
 10
0.0
 20
0.0
 30
0.0
  0
VERTEX
  5
43A
330
439
100
AcDbEntity
  8
DIBUJOS
 62
     7
100
AcDbVertex
100
AcDb2dVertex
 10
77.67906676048408
 20
49.31997312680911
 30
0.0
  0
VERTEX
  5
43B
330
439
100
AcDbEntity
  8
DIBUJOS
 62
     7
100
AcDbVertex
100
AcDb2dVertex
 10
77.67301809175049
 20
49.31997312680911
 30
0.0
  0
SEQEND
  5
43C
330
439
100
AcDbEntity
  8
DIBUJOS
 62
     7
  0
POLYLINE
  5
43D
330
323
100
AcDbEntity
  8
DIBUJOS
 62
     7
100
AcDb2dPolyline
 66
     1
 10
0.0
 20
0.0
 30
0.0
  0
VERTEX
  5
43E
330
43D
100
AcDbEntity
  8
DIBUJOS
 62
     7
100
AcDbVertex
100
AcDb2dVertex
 10
77.67301809175049
 20
49.31392075591677
 30
0.0
  0
VERTEX
  5
43F
330
43D
100
AcDbEntity
  8
DIBUJOS
 62
     7
100
AcDbVertex
100
AcDb2dVertex
 10
77.67301809175049
 20
49.31997312680911
 30
0.0
  0
SEQEND
  5
440
330
43D
100
AcDbEntity
  8
DIBUJOS
 62
     7
  0
POLYLINE
  5
441
330
323
100
AcDbEntity
  8
DIBUJOS
 62
     7
100
AcDb2dPolyline
 66
     1
 10
0.0
 20
0.0
 30
0.0
  0
VERTEX
  5
442
330
441
100
AcDbEntity
  8
DIBUJOS
 62
     7
100
AcDbVertex
100
AcDb2dVertex
 10
77.68511868644349
 20
49.31392075591677
 30
0.0
  0
VERTEX
  5
443
330
441
100
AcDbEntity
  8
DIBUJOS
 62
     7
100
AcDbVertex
100
AcDb2dVertex
 10
77.67906676048408
 20
49.31997312680911
 30
0.0
  0
SEQEND
  5
444
330
441
100
AcDbEntity
  8
DIBUJOS
 62
     7
  0
POLYLINE
  5
445
330
323
100
AcDbEntity
  8
DIBUJOS
 62
     7
100
AcDb2dPolyline
 66
     1
 10
0.0
 20
0.0
 30
0.0
  0
VERTEX
  5
446
330
445
100
AcDbEntity
  8
DIBUJOS
 62
     7
100
AcDbVertex
100
AcDb2dVertex
 10
77.6911706124029
 20
49.31392075591677
 30
0.0
  0
VERTEX
  5
447
330
445
100
AcDbEntity
  8
DIBUJOS
 62
     7
100
AcDbVertex
100
AcDb2dVertex
 10
77.68511868644349
 20
49.31392075591677
 30
0.0
  0
SEQEND
  5
448
330
445
100
AcDbEntity
  8
DIBUJOS
 62
     7
  0
POLYLINE
  5
449
330
323
100
AcDbEntity
  8
DIBUJOS
 62
     7
100
AcDb2dPolyline
 66
     1
 10
0.0
 20
0.0
 30
0.0
  0
VERTEX
  5
44A
330
449
100
AcDbEntity
  8
DIBUJOS
 62
     7
100
AcDbVertex
100
AcDb2dVertex
 10
77.66696616579044
 20
49.30787164248992
 30
0.0
  0
VERTEX
  5
44B
330
449
100
AcDbEntity
  8
DIBUJOS
 62
     7
100
AcDbVertex
100
AcDb2dVertex
 10
77.67301809175049
 20
49.31392075591677
 30
0.0
  0
SEQEND
  5
44C
330
449
100
AcDbEntity
  8
DIBUJOS
 62
     7
  0
POLYLINE
  5
44D
330
323
100
AcDbEntity
  8
DIBUJOS
 62
     7
100
AcDb2dPolyline
 66
     1
 10
0.0
 20
0.0
 30
0.0
  0
VERTEX
  5
44E
330
44D
100
AcDbEntity
  8
DIBUJOS
 62
     7
100
AcDbVertex
100
AcDb2dVertex
 10
77.68511868644349
 20
49.30787164248992
 30
0.0
  0
VERTEX
  5
44F
330
44D
100
AcDbEntity
  8
DIBUJOS
 62
     7
100
AcDbVertex
100
AcDb2dVertex
 10
77.68511868644349
 20
49.31392075591677
 30
0.0
  0
SEQEND
  5
450
330
44D
100
AcDbEntity
  8
DIBUJOS
 62
     7
  0
POLYLINE
  5
451
330
323
100
AcDbEntity
  8
DIBUJOS
 62
     7
100
AcDb2dPolyline
 66
     1
 10
0.0
 20
0.0
 30
0.0
  0
VERTEX
  5
452
330
451
100
AcDbEntity
  8
DIBUJOS
 62
     7
100
AcDbVertex
100
AcDb2dVertex
 10
77.66091423983167
 20
49.30181927159725
 30
0.0
  0
VERTEX
  5
453
330
451
100
AcDbEntity
  8
DIBUJOS
 62
     7
100
AcDbVertex
100
AcDb2dVertex
 10
77.6125086038326
 20
49.32602549770178
 30
0.0
  0
SEQEND
  5
454
330
451
100
AcDbEntity
  8
DIBUJOS
 62
     7
  0
POLYLINE
  5
455
330
323
100
AcDbEntity
  8
DIBUJOS
 62
     7
100
AcDb2dPolyline
 66
     1
 10
0.0
 20
0.0
 30
0.0
  0
VERTEX
  5
456
330
455
100
AcDbEntity
  8
DIBUJOS
 62
     7
100
AcDbVertex
100
AcDb2dVertex
 10
77.66696616579044
 20
49.30181927159725
 30
0.0
  0
VERTEX
  5
457
330
455
100
AcDbEntity
  8
DIBUJOS
 62
     7
100
AcDbVertex
100
AcDb2dVertex
 10
77.66091423983167
 20
49.30181927159725
 30
0.0
  0
SEQEND
  5
458
330
455
100
AcDbEntity
  8
DIBUJOS
 62
     7
  0
POLYLINE
  5
459
330
323
100
AcDbEntity
  8
DIBUJOS
 62
     7
100
AcDb2dPolyline
 66
     1
 10
0.0
 20
0.0
 30
0.0
  0
VERTEX
  5
45A
330
459
100
AcDbEntity
  8
DIBUJOS
 62
     7
100
AcDbVertex
100
AcDb2dVertex
 10
77.66696616579044
 20
49.30181927159725
 30
0.0
  0
VERTEX
  5
45B
330
459
100
AcDbEntity
  8
DIBUJOS
 62
     7
100
AcDbVertex
100
AcDb2dVertex
 10
77.66696616579044
 20
49.30787164248992
 30
0.0
  0
SEQEND
  5
45C
330
459
100
AcDbEntity
  8
DIBUJOS
 62
     7
  0
POLYLINE
  5
45D
330
323
100
AcDbEntity
  8
DIBUJOS
 62
     7
100
AcDb2dPolyline
 66
     1
 10
0.0
 20
0.0
 30
0.0
  0
VERTEX
  5
45E
330
45D
100
AcDbEntity
  8
DIBUJOS
 62
     7
100
AcDbVertex
100
AcDb2dVertex
 10
77.67906676048408
 20
49.30181927159725
 30
0.0
  0
VERTEX
  5
45F
330
45D
100
AcDbEntity
  8
DIBUJOS
 62
     7
100
AcDbVertex
100
AcDb2dVertex
 10
77.68511868644349
 20
49.30787164248992
 30
0.0
  0
SEQEND
  5
460
330
45D
100
AcDbEntity
  8
DIBUJOS
 62
     7
  0
POLYLINE
  5
461
330
323
100
AcDbEntity
  8
DIBUJOS
 62
     7
100
AcDb2dPolyline
 66
     1
 10
0.0
 20
0.0
 30
0.0
  0
VERTEX
  5
462
330
461
100
AcDbEntity
  8
DIBUJOS
 62
     7
100
AcDbVertex
100
AcDb2dVertex
 10
77.67301809175049
 20
49.29576690070459
 30
0.0
  0
VERTEX
  5
463
330
461
100
AcDbEntity
  8
DIBUJOS
 62
     7
100
AcDbVertex
100
AcDb2dVertex
 10
77.66696616579044
 20
49.30181927159725
 30
0.0
  0
SEQEND
  5
464
330
461
100
AcDbEntity
  8
DIBUJOS
 62
     7
  0
POLYLINE
  5
465
330
323
100
AcDbEntity
  8
DIBUJOS
 62
     7
100
AcDb2dPolyline
 66
     1
 10
0.0
 20
0.0
 30
0.0
  0
VERTEX
  5
466
330
465
100
AcDbEntity
  8
DIBUJOS
 62
     7
100
AcDbVertex
100
AcDb2dVertex
 10
77.67906676048408
 20
49.29576690070459
 30
0.0
  0
VERTEX
  5
467
330
465
100
AcDbEntity
  8
DIBUJOS
 62
     7
100
AcDbVertex
100
AcDb2dVertex
 10
77.67301809175049
 20
49.29576690070459
 30
0.0
  0
SEQEND
  5
468
330
465
100
AcDbEntity
  8
DIBUJOS
 62
     7
  0
POLYLINE
  5
469
330
323
100
AcDbEntity
  8
DIBUJOS
 62
     7
100
AcDb2dPolyline
 66
     1
 10
0.0
 20
0.0
 30
0.0
  0
VERTEX
  5
46A
330
469
100
AcDbEntity
  8
DIBUJOS
 62
     7
100
AcDbVertex
100
AcDb2dVertex
 10
77.67906676048408
 20
49.29576690070459
 30
0.0
  0
VERTEX
  5
46B
330
469
100
AcDbEntity
  8
DIBUJOS
 62
     7
100
AcDbVertex
100
AcDb2dVertex
 10
77.67906676048408
 20
49.30181927159725
 30
0.0
  0
SEQEND
  5
46C
330
469
100
AcDbEntity
  8
DIBUJOS
 62
     7
  0
POLYLINE
  5
46D
330
323
100
AcDbEntity
  8
DIBUJOS
 62
     7
100
AcDb2dPolyline
 66
     1
 10
0.0
 20
0.0
 30
0.0
  0
VERTEX
  5
46E
330
46D
100
AcDbEntity
  8
DIBUJOS
 62
     7
100
AcDbVertex
100
AcDb2dVertex
 10
77.76378069501378
 20
49.2776130454924
 30
0.0
  0
VERTEX
  5
46F
330
46D
100
AcDbEntity
  8
DIBUJOS
 62
     7
100
AcDbVertex
100
AcDb2dVertex
 10
77.6911706124029
 20
49.31392075591677
 30
0.0
  0
SEQEND
  5
470
330
46D
100
AcDbEntity
  8
DIBUJOS
 62
     7
  0
POLYLINE
  5
471
330
323
100
AcDbEntity
  8
DIBUJOS
 62
     7
100
AcDb2dPolyline
 66
     1
 10
0.0
 20
0.0
 30
0.0
  0
VERTEX
  5
472
330
471
100
AcDbEntity
  8
DIBUJOS
 62
     7
100
AcDbVertex
100
AcDb2dVertex
 10
77.76983262097319
 20
49.2776130454924
 30
0.0
  0
VERTEX
  5
473
330
471
100
AcDbEntity
  8
DIBUJOS
 62
     7
100
AcDbVertex
100
AcDb2dVertex
 10
77.76378069501378
 20
49.2776130454924
 30
0.0
  0
SEQEND
  5
474
330
471
100
AcDbEntity
  8
DIBUJOS
 62
     7
  0
POLYLINE
  5
475
330
323
100
AcDbEntity
  8
DIBUJOS
 62
     7
100
AcDb2dPolyline
 66
     1
 10
0.0
 20
0.0
 30
0.0
  0
VERTEX
  5
476
330
475
100
AcDbEntity
  8
DIBUJOS
 62
     7
100
AcDbVertex
100
AcDb2dVertex
 10
77.7758845469326
 20
49.2776130454924
 30
0.0
  0
VERTEX
  5
477
330
475
100
AcDbEntity
  8
DIBUJOS
 62
     7
100
AcDbVertex
100
AcDb2dVertex
 10
77.76983262097319
 20
49.2776130454924
 30
0.0
  0
SEQEND
  5
478
330
475
100
AcDbEntity
  8
DIBUJOS
 62
     7
  0
POLYLINE
  5
479
330
323
100
AcDbEntity
  8
DIBUJOS
 62
     7
100
AcDb2dPolyline
 66
     1
 10
0.0
 20
0.0
 30
0.0
  0
VERTEX
  5
47A
330
479
100
AcDbEntity
  8
DIBUJOS
 62
     7
100
AcDbVertex
100
AcDb2dVertex
 10
77.76983262097319
 20
49.27156067460005
 30
0.0
  0
VERTEX
  5
47B
330
479
100
AcDbEntity
  8
DIBUJOS
 62
     7
100
AcDbVertex
100
AcDb2dVertex
 10
77.76983262097319
 20
49.2776130454924
 30
0.0
  0
SEQEND
  5
47C
330
479
100
AcDbEntity
  8
DIBUJOS
 62
     7
  0
POLYLINE
  5
47D
330
323
100
AcDbEntity
  8
DIBUJOS
 62
     7
100
AcDb2dPolyline
 66
     1
 10
0.0
 20
0.0
 30
0.0
  0
VERTEX
  5
47E
330
47D
100
AcDbEntity
  8
DIBUJOS
 62
     7
100
AcDbVertex
100
AcDb2dVertex
 10
77.76378069501378
 20
49.26551156117321
 30
0.0
  0
VERTEX
  5
47F
330
47D
100
AcDbEntity
  8
DIBUJOS
 62
     7
100
AcDbVertex
100
AcDb2dVertex
 10
77.76983262097319
 20
49.27156067460005
 30
0.0
  0
SEQEND
  5
480
330
47D
100
AcDbEntity
  8
DIBUJOS
 62
     7
  0
POLYLINE
  5
481
330
323
100
AcDbEntity
  8
DIBUJOS
 62
     7
100
AcDb2dPolyline
 66
     1
 10
0.0
 20
0.0
 30
0.0
  0
VERTEX
  5
482
330
481
100
AcDbEntity
  8
DIBUJOS
 62
     7
100
AcDbVertex
100
AcDb2dVertex
 10
77.75773202627956
 20
49.25945919028054
 30
0.0
  0
VERTEX
  5
483
330
481
100
AcDbEntity
  8
DIBUJOS
 62
     7
100
AcDbVertex
100
AcDb2dVertex
 10
77.67906676048408
 20
49.29576690070459
 30
0.0
  0
SEQEND
  5
484
330
481
100
AcDbEntity
  8
DIBUJOS
 62
     7
  0
POLYLINE
  5
485
330
323
100
AcDbEntity
  8
DIBUJOS
 62
     7
100
AcDb2dPolyline
 66
     1
 10
0.0
 20
0.0
 30
0.0
  0
VERTEX
  5
486
330
485
100
AcDbEntity
  8
DIBUJOS
 62
     7
100
AcDbVertex
100
AcDb2dVertex
 10
77.76378069501378
 20
49.25945919028054
 30
0.0
  0
VERTEX
  5
487
330
485
100
AcDbEntity
  8
DIBUJOS
 62
     7
100
AcDbVertex
100
AcDb2dVertex
 10
77.75773202627956
 20
49.25945919028054
 30
0.0
  0
SEQEND
  5
488
330
485
100
AcDbEntity
  8
DIBUJOS
 62
     7
  0
POLYLINE
  5
489
330
323
100
AcDbEntity
  8
DIBUJOS
 62
     7
100
AcDb2dPolyline
 66
     1
 10
0.0
 20
0.0
 30
0.0
  0
VERTEX
  5
48A
330
489
100
AcDbEntity
  8
DIBUJOS
 62
     7
100
AcDbVertex
100
AcDb2dVertex
 10
77.76378069501378
 20
49.25945919028054
 30
0.0
  0
VERTEX
  5
48B
330
489
100
AcDbEntity
  8
DIBUJOS
 62
     7
100
AcDbVertex
100
AcDb2dVertex
 10
77.76378069501378
 20
49.26551156117321
 30
0.0
  0
SEQEND
  5
48C
330
489
100
AcDbEntity
  8
DIBUJOS
 62
     7
  0
POLYLINE
  5
48D
330
323
100
AcDbEntity
  8
DIBUJOS
 62
     7
100
AcDb2dPolyline
 66
     1
 10
0.0
 20
0.0
 30
0.0
  0
VERTEX
  5
48E
330
48D
100
AcDbEntity
  8
DIBUJOS
 62
     7
100
AcDbVertex
100
AcDb2dVertex
 10
78.02397442456233
 20
49.13237894633041
 30
0.0
  0
VERTEX
  5
48F
330
48D
100
AcDbEntity
  8
DIBUJOS
 62
     7
100
AcDbVertex
100
AcDb2dVertex
 10
77.7758845469326
 20
49.2776130454924
 30
0.0
  0
SEQEND
  5
490
330
48D
100
AcDbEntity
  8
DIBUJOS
 62
     7
  0
POLYLINE
  5
491
330
323
100
AcDbEntity
  8
DIBUJOS
 62
     7
100
AcDb2dPolyline
 66
     1
 10
0.0
 20
0.0
 30
0.0
  0
VERTEX
  5
492
330
491
100
AcDbEntity
  8
DIBUJOS
 62
     7
100
AcDbVertex
100
AcDb2dVertex
 10
78.03002635052172
 20
49.13237894633041
 30
0.0
  0
VERTEX
  5
493
330
491
100
AcDbEntity
  8
DIBUJOS
 62
     7
100
AcDbVertex
100
AcDb2dVertex
 10
78.02397442456233
 20
49.13237894633041
 30
0.0
  0
SEQEND
  5
494
330
491
100
AcDbEntity
  8
DIBUJOS
 62
     7
  0
POLYLINE
  5
495
330
323
100
AcDbEntity
  8
DIBUJOS
 62
     7
100
AcDb2dPolyline
 66
     1
 10
0.0
 20
0.0
 30
0.0
  0
VERTEX
  5
496
330
495
100
AcDbEntity
  8
DIBUJOS
 62
     7
100
AcDbVertex
100
AcDb2dVertex
 10
78.02397442456233
 20
49.12632657543806
 30
0.0
  0
VERTEX
  5
497
330
495
100
AcDbEntity
  8
DIBUJOS
 62
     7
100
AcDbVertex
100
AcDb2dVertex
 10
78.02397442456233
 20
49.13237894633041
 30
0.0
  0
SEQEND
  5
498
330
495
100
AcDbEntity
  8
DIBUJOS
 62
     7
  0
POLYLINE
  5
499
330
323
100
AcDbEntity
  8
DIBUJOS
 62
     7
100
AcDb2dPolyline
 66
     1
 10
0.0
 20
0.0
 30
0.0
  0
VERTEX
  5
49A
330
499
100
AcDbEntity
  8
DIBUJOS
 62
     7
100
AcDbVertex
100
AcDb2dVertex
 10
78.01792249860227
 20
49.12027746201121
 30
0.0
  0
VERTEX
  5
49B
330
499
100
AcDbEntity
  8
DIBUJOS
 62
     7
100
AcDbVertex
100
AcDb2dVertex
 10
78.02397442456233
 20
49.12632657543806
 30
0.0
  0
SEQEND
  5
49C
330
499
100
AcDbEntity
  8
DIBUJOS
 62
     7
  0
POLYLINE
  5
49D
330
323
100
AcDbEntity
  8
DIBUJOS
 62
     7
100
AcDb2dPolyline
 66
     1
 10
0.0
 20
0.0
 30
0.0
  0
VERTEX
  5
49E
330
49D
100
AcDbEntity
  8
DIBUJOS
 62
     7
100
AcDbVertex
100
AcDb2dVertex
 10
78.01187382986933
 20
49.11422509111854
 30
0.0
  0
VERTEX
  5
49F
330
49D
100
AcDbEntity
  8
DIBUJOS
 62
     7
100
AcDbVertex
100
AcDb2dVertex
 10
77.76378069501378
 20
49.25945919028054
 30
0.0
  0
SEQEND
  5
4A0
330
49D
100
AcDbEntity
  8
DIBUJOS
 62
     7
  0
POLYLINE
  5
4A1
330
323
100
AcDbEntity
  8
DIBUJOS
 62
     7
100
AcDb2dPolyline
 66
     1
 10
0.0
 20
0.0
 30
0.0
  0
VERTEX
  5
4A2
330
4A1
100
AcDbEntity
  8
DIBUJOS
 62
     7
100
AcDbVertex
100
AcDb2dVertex
 10
78.01792249860227
 20
49.11422509111854
 30
0.0
  0
VERTEX
  5
4A3
330
4A1
100
AcDbEntity
  8
DIBUJOS
 62
     7
100
AcDbVertex
100
AcDb2dVertex
 10
78.01187382986933
 20
49.11422509111854
 30
0.0
  0
SEQEND
  5
4A4
330
4A1
100
AcDbEntity
  8
DIBUJOS
 62
     7
  0
POLYLINE
  5
4A5
330
323
100
AcDbEntity
  8
DIBUJOS
 62
     7
100
AcDb2dPolyline
 66
     1
 10
0.0
 20
0.0
 30
0.0
  0
VERTEX
  5
4A6
330
4A5
100
AcDbEntity
  8
DIBUJOS
 62
     7
100
AcDbVertex
100
AcDb2dVertex
 10
78.01792249860227
 20
49.11422509111854
 30
0.0
  0
VERTEX
  5
4A7
330
4A5
100
AcDbEntity
  8
DIBUJOS
 62
     7
100
AcDbVertex
100
AcDb2dVertex
 10
78.01792249860227
 20
49.12027746201121
 30
0.0
  0
SEQEND
  5
4A8
330
4A5
100
AcDbEntity
  8
DIBUJOS
 62
     7
  0
POLYLINE
  5
4A9
330
323
100
AcDbEntity
  8
DIBUJOS
 62
     7
100
AcDb2dPolyline
 66
     1
 10
0.0
 20
0.0
 30
0.0
  0
VERTEX
  5
4AA
330
4A9
100
AcDbEntity
  8
DIBUJOS
 62
     7
100
AcDbVertex
100
AcDb2dVertex
 10
79.25837840120123
 20
47.04463347749521
 30
0.0
  0
VERTEX
  5
4AB
330
4A9
100
AcDbEntity
  8
DIBUJOS
 62
     7
100
AcDbVertex
100
AcDb2dVertex
 10
79.22579636924603
 20
47.20150650087587
 30
0.0
  0
VERTEX
  5
4AC
330
4A9
100
AcDbEntity
  8
DIBUJOS
 62
     7
100
AcDbVertex
100
AcDb2dVertex
 10
79.18757933626232
 20
47.35386141961347
 30
0.0
  0
VERTEX
  5
4AD
330
4A9
100
AcDbEntity
  8
DIBUJOS
 62
     7
100
AcDbVertex
100
AcDb2dVertex
 10
79.15127429495688
 20
47.4809416635636
 30
0.0
  0
VERTEX
  5
4AE
330
4A9
100
AcDbEntity
  8
DIBUJOS
 62
     7
100
AcDbVertex
100
AcDb2dVertex
 10
79.093790770019
 20
47.66732732434301
 30
0.0
  0
VERTEX
  5
4AF
330
4A9
100
AcDbEntity
  8
DIBUJOS
 62
     7
100
AcDbVertex
100
AcDb2dVertex
 10
78.98184642589746
 20
47.95295492893914
 30
0.0
  0
VERTEX
  5
4B0
330
4A9
100
AcDbEntity
  8
DIBUJOS
 62
     7
100
AcDbVertex
100
AcDb2dVertex
 10
78.89392086650496
 20
48.13296247227652
 30
0.0
  0
VERTEX
  5
4B1
330
4A9
100
AcDbEntity
  8
DIBUJOS
 62
     7
100
AcDbVertex
100
AcDb2dVertex
 10
78.78174525933527
 20
48.34057052076575
 30
0.0
  0
VERTEX
  5
4B2
330
4A9
100
AcDbEntity
  8
DIBUJOS
 62
     7
100
AcDbVertex
100
AcDb2dVertex
 10
78.57311016057997
 20
48.64084369023436
 30
0.0
  0
VERTEX
  5
4B3
330
4A9
100
AcDbEntity
  8
DIBUJOS
 62
     7
100
AcDbVertex
100
AcDb2dVertex
 10
78.5156103495117
 20
48.7040971552454
 30
0.0
  0
VERTEX
  5
4B4
330
4A9
100
AcDbEntity
  8
DIBUJOS
 62
     7
100
AcDbVertex
100
AcDb2dVertex
 10
78.32652512137571
 20
48.90847705542765
 30
0.0
  0
VERTEX
  5
4B5
330
4A9
100
AcDbEntity
  8
DIBUJOS
 62
     7
100
AcDbVertex
100
AcDb2dVertex
 10
78.0714517511424
 20
49.10677852499358
 30
0.0
  0
VERTEX
  5
4B6
330
4A9
100
AcDbEntity
  8
DIBUJOS
 62
     7
100
AcDbVertex
100
AcDb2dVertex
 10
78.03002635052172
 20
49.13237894633041
 30
0.0
  0
SEQEND
  5
4B7
330
4A9
100
AcDbEntity
  8
DIBUJOS
 62
     7
  0
POLYLINE
  5
4B8
330
323
100
AcDbEntity
  8
DIBUJOS
 62
     7
100
AcDb2dPolyline
 66
     1
 10
0.0
 20
0.0
 30
0.0
  0
VERTEX
  5
4B9
330
4B8
100
AcDbEntity
  8
DIBUJOS
 62
     7
100
AcDbVertex
100
AcDb2dVertex
 10
79.25837840120123
 20
47.03858110660254
 30
0.0
  0
VERTEX
  5
4BA
330
4B8
100
AcDbEntity
  8
DIBUJOS
 62
     7
100
AcDbVertex
100
AcDb2dVertex
 10
79.25837840120123
 20
47.04463347749521
 30
0.0
  0
SEQEND
  5
4BB
330
4B8
100
AcDbEntity
  8
DIBUJOS
 62
     7
  0
POLYLINE
  5
4BC
330
323
100
AcDbEntity
  8
DIBUJOS
 62
     7
100
AcDb2dPolyline
 66
     1
 10
0.0
 20
0.0
 30
0.0
  0
VERTEX
  5
4BD
330
4BC
100
AcDbEntity
  8
DIBUJOS
 62
     7
100
AcDbVertex
100
AcDb2dVertex
 10
79.26442706993481
 20
47.03858110660254
 30
0.0
  0
VERTEX
  5
4BE
330
4BC
100
AcDbEntity
  8
DIBUJOS
 62
     7
100
AcDbVertex
100
AcDb2dVertex
 10
79.25837840120123
 20
47.03858110660254
 30
0.0
  0
SEQEND
  5
4BF
330
4BC
100
AcDbEntity
  8
DIBUJOS
 62
     7
  0
POLYLINE
  5
4C0
330
323
100
AcDbEntity
  8
DIBUJOS
 62
     7
100
AcDb2dPolyline
 66
     1
 10
0.0
 20
0.0
 30
0.0
  0
VERTEX
  5
4C1
330
4C0
100
AcDbEntity
  8
DIBUJOS
 62
     7
100
AcDbVertex
100
AcDb2dVertex
 10
79.25837840120123
 20
47.03253199317538
 30
0.0
  0
VERTEX
  5
4C2
330
4C0
100
AcDbEntity
  8
DIBUJOS
 62
     7
100
AcDbVertex
100
AcDb2dVertex
 10
79.25837840120123
 20
47.03858110660254
 30
0.0
  0
SEQEND
  5
4C3
330
4C0
100
AcDbEntity
  8
DIBUJOS
 62
     7
  0
POLYLINE
  5
4C4
330
323
100
AcDbEntity
  8
DIBUJOS
 62
     7
100
AcDb2dPolyline
 66
     1
 10
0.0
 20
0.0
 30
0.0
  0
VERTEX
  5
4C5
330
4C4
100
AcDbEntity
  8
DIBUJOS
 62
     7
100
AcDbVertex
100
AcDb2dVertex
 10
79.1010511268348
 20
44.87822021691861
 30
0.0
  0
VERTEX
  5
4C6
330
4C4
100
AcDbEntity
  8
DIBUJOS
 62
     7
100
AcDbVertex
100
AcDb2dVertex
 10
79.15085411279951
 20
44.96200874442029
 30
0.0
  0
VERTEX
  5
4C7
330
4C4
100
AcDbEntity
  8
DIBUJOS
 62
     7
100
AcDbVertex
100
AcDb2dVertex
 10
79.24143431140521
 20
45.16203015576787
 30
0.0
  0
VERTEX
  5
4C8
330
4C4
100
AcDbEntity
  8
DIBUJOS
 62
     7
100
AcDbVertex
100
AcDb2dVertex
 10
79.27834519675145
 20
45.27700891539849
 30
0.0
  0
VERTEX
  5
4C9
330
4C4
100
AcDbEntity
  8
DIBUJOS
 62
     7
100
AcDbVertex
100
AcDb2dVertex
 10
79.32121354850246
 20
45.44658931168138
 30
0.0
  0
VERTEX
  5
4CA
330
4C4
100
AcDbEntity
  8
DIBUJOS
 62
     7
100
AcDbVertex
100
AcDb2dVertex
 10
79.33312522408622
 20
45.50098247054217
 30
0.0
  0
VERTEX
  5
4CB
330
4C4
100
AcDbEntity
  8
DIBUJOS
 62
     7
100
AcDbVertex
100
AcDb2dVertex
 10
79.36729352511756
 20
45.74962481189093
 30
0.0
  0
VERTEX
  5
4CC
330
4C4
100
AcDbEntity
  8
DIBUJOS
 62
     7
100
AcDbVertex
100
AcDb2dVertex
 10
79.36729352511756
 20
46.13086554374069
 30
0.0
  0
VERTEX
  5
4CD
330
4C4
100
AcDbEntity
  8
DIBUJOS
 62
     7
100
AcDbVertex
100
AcDb2dVertex
 10
79.35243731720446
 20
46.33638555684681
 30
0.0
  0
VERTEX
  5
4CE
330
4C4
100
AcDbEntity
  8
DIBUJOS
 62
     7
100
AcDbVertex
100
AcDb2dVertex
 10
79.32142852542084
 20
46.65165283999575
 30
0.0
  0
VERTEX
  5
4CF
330
4C4
100
AcDbEntity
  8
DIBUJOS
 62
     7
100
AcDbVertex
100
AcDb2dVertex
 10
79.30424340089795
 20
46.77195429824744
 30
0.0
  0
VERTEX
  5
4D0
330
4C4
100
AcDbEntity
  8
DIBUJOS
 62
     7
100
AcDbVertex
100
AcDb2dVertex
 10
79.27280791250466
 20
46.97248061674734
 30
0.0
  0
VERTEX
  5
4D1
330
4C4
100
AcDbEntity
  8
DIBUJOS
 62
     7
100
AcDbVertex
100
AcDb2dVertex
 10
79.25837840120123
 20
47.03253199317538
 30
0.0
  0
SEQEND
  5
4D2
330
4C4
100
AcDbEntity
  8
DIBUJOS
 62
     7
  0
SPLINE
  5
4D3
330
323
100
AcDbEntity
  8
DIBUJOS
 62
     7
100
AcDbSpline
210
0.0
220
0.0
230
1.0
 70
     8
 71
     3
 72
    89
 73
    85
 74
     0
 42
0.0000000001
 43
0.0000000001
 12
1.0
 22
0.0
 32
0.0
 13
1.0
 23
0.0
 33
0.0
 40
0.0
 40
0.0
 40
0.0
 40
0.0
 40
1.0
 40
1.0
 40
1.0
 40
2.0
 40
2.0
 40
2.0
 40
3.0
 40
3.0
 40
3.0
 40
4.0
 40
4.0
 40
4.0
 40
5.0
 40
5.0
 40
5.0
 40
6.0
 40
6.0
 40
6.0
 40
7.0
 40
7.0
 40
7.0
 40
8.0
 40
8.0
 40
8.0
 40
9.0
 40
9.0
 40
9.0
 40
10.0
 40
10.0
 40
10.0
 40
11.0
 40
11.0
 40
11.0
 40
12.0
 40
12.0
 40
12.0
 40
13.0
 40
13.0
 40
13.0
 40
14.0
 40
14.0
 40
14.0
 40
15.0
 40
15.0
 40
15.0
 40
16.0
 40
16.0
 40
16.0
 40
17.0
 40
17.0
 40
17.0
 40
18.0
 40
18.0
 40
18.0
 40
19.0
 40
19.0
 40
19.0
 40
20.0
 40
20.0
 40
20.0
 40
21.0
 40
21.0
 40
21.0
 40
22.0
 40
22.0
 40
22.0
 40
23.0
 40
23.0
 40
23.0
 40
24.0
 40
24.0
 40
24.0
 40
25.0
 40
25.0
 40
25.0
 40
26.0
 40
26.0
 40
26.0
 40
27.0
 40
27.0
 40
27.0
 40
28.0
 40
28.0
 40
28.0
 40
28.0
 10
78.01792249860227
 20
49.11422509111854
 30
0.0
 10
78.01792249860227
 20
49.11422509111854
 30
0.0
 10
78.05910035004506
 20
49.08249086225131
 30
0.0
 10
78.05910035004506
 20
49.08249086225131
 30
0.0
 10
78.05910035004506
 20
49.08249086225131
 30
0.0
 10
78.2720643021914
 20
48.92057853974749
 30
0.0
 10
78.2720643021914
 20
48.92057853974749
 30
0.0
 10
78.2720643021914
 20
48.92057853974749
 30
0.0
 10
78.4732566394733
 20
48.71016907093104
 30
0.0
 10
78.4732566394733
 20
48.71016907093104
 30
0.0
 10
78.4732566394733
 20
48.71016907093104
 30
0.0
 10
78.54285378800812
 20
48.63476851708354
 30
0.0
 10
78.54285378800812
 20
48.63476851708354
 30
0.0
 10
78.54285378800812
 20
48.63476851708354
 30
0.0
 10
78.557859828318
 20
48.61288812134306
 30
0.0
 10
78.557859828318
 20
48.61288812134306
 30
0.0
 10
78.557859828318
 20
48.61288812134306
 30
0.0
 10
78.74264551809793
 20
48.35081199228694
 30
0.0
 10
78.74264551809793
 20
48.35081199228694
 30
0.0
 10
78.74264551809793
 20
48.35081199228694
 30
0.0
 10
78.92696868178224
 20
48.00774224112504
 30
0.0
 10
78.92696868178224
 20
48.00774224112504
 30
0.0
 10
78.92696868178224
 20
48.00774224112504
 30
0.0
 10
78.93525506479683
 20
47.99349734450865
 30
0.0
 10
78.93525506479683
 20
47.99349734450865
 30
0.0
 10
78.93525506479683
 20
47.99349734450865
 30
0.0
 10
79.08713300001881
 20
47.60681013034862
 30
0.0
 10
79.08713300001881
 20
47.60681013034862
 30
0.0
 10
79.08713300001881
 20
47.60681013034862
 30
0.0
 10
79.09286571782711
 20
47.58872793937736
 30
0.0
 10
79.09286571782711
 20
47.58872793937736
 30
0.0
 10
79.09286571782711
 20
47.58872793937736
 30
0.0
 10
79.19553999667416
 20
47.22570946951522
 30
0.0
 10
79.19553999667416
 20
47.22570946951522
 30
0.0
 10
79.19553999667416
 20
47.22570946951522
 30
0.0
 10
79.2136925173272
 20
47.13494019345494
 30
0.0
 10
79.2136925173272
 20
47.13494019345494
 30
0.0
 10
79.2136925173272
 20
47.13494019345494
 30
0.0
 10
79.2678732150722
 20
46.85671355046682
 30
0.0
 10
79.2678732150722
 20
46.85671355046682
 30
0.0
 10
79.2678732150722
 20
46.85671355046682
 30
0.0
 10
79.28609088024554
 20
46.72354510350387
 30
0.0
 10
79.28609088024554
 20
46.72354510350387
 30
0.0
 10
79.28609088024554
 20
46.72354510350387
 30
0.0
 10
79.31609318918723
 20
46.47559985977143
 30
0.0
 10
79.31609318918723
 20
46.47559985977143
 30
0.0
 10
79.31609318918723
 20
46.47559985977143
 30
0.0
 10
79.32221025966693
 20
46.39083083515555
 30
0.0
 10
79.32221025966693
 20
46.39083083515555
 30
0.0
 10
79.32221025966693
 20
46.39083083515555
 30
0.0
 10
79.34309233573093
 20
46.10061020420931
 30
0.0
 10
79.34309233573093
 20
46.10061020420931
 30
0.0
 10
79.34309233573093
 20
46.10061020420931
 30
0.0
 10
79.33990676867599
 20
45.82815253261532
 30
0.0
 10
79.33990676867599
 20
45.82815253261532
 30
0.0
 10
79.33990676867599
 20
45.82815253261532
 30
0.0
 10
79.33417405086705
 20
45.71346042994874
 30
0.0
 10
79.33417405086705
 20
45.71346042994874
 30
0.0
 10
79.33417405086705
 20
45.71346042994874
 30
0.0
 10
79.30892077747376
 20
45.51308721232719
 30
0.0
 10
79.30892077747376
 20
45.51308721232719
 30
0.0
 10
79.30892077747376
 20
45.51308721232719
 30
0.0
 10
79.2786644049019
 20
45.3799545974847
 30
0.0
 10
79.2786644049019
 20
45.3799545974847
 30
0.0
 10
79.2786644049019
 20
45.3799545974847
 30
0.0
 10
79.21420390181338
 20
45.17534341725218
 30
0.0
 10
79.21420390181338
 20
45.17534341725218
 30
0.0
 10
79.21420390181338
 20
45.17534341725218
 30
0.0
 10
79.1482483319775
 20
45.01800783377067
 30
0.0
 10
79.1482483319775
 20
45.01800783377067
 30
0.0
 10
79.1482483319775
 20
45.01800783377067
 30
0.0
 10
79.05403958357681
 20
44.84097761389732
 30
0.0
 10
79.05403958357681
 20
44.84097761389732
 30
0.0
 10
79.05403958357681
 20
44.84097761389732
 30
0.0
 10
79.04780199573334
 20
44.82920187612748
 30
0.0
 10
79.04780199573334
 20
44.82920187612748
 30
0.0
 10
79.04780199573334
 20
44.82920187612748
 30
0.0
 10
78.94224832907852
 20
44.66759901284521
 30
0.0
 10
78.94224832907852
 20
44.66759901284521
 30
0.0
 10
78.94224832907852
 20
44.66759901284521
 30
0.0
 10
78.73821243347417
 20
44.39846324791318
 30
0.0
 10
78.47457085936577
 20
44.2470539855722
 30
0.0
 10
78.38911560354673
 20
44.19797706251675
 30
0.0
 10
77.76911084301055
 20
44.01837378934703
 30
0.0
 10
77.53083366118749
 20
44.17623640242017
 30
0.0
  0
POLYLINE
  5
4D4
330
323
100
AcDbEntity
  8
DIBUJOS
 62
     7
100
AcDb2dPolyline
 66
     1
 10
0.0
 20
0.0
 30
0.0
  0
VERTEX
  5
4D5
330
4D4
100
AcDbEntity
  8
DIBUJOS
 62
     7
100
AcDbVertex
100
AcDb2dVertex
 10
78.35072956798751
 20
42.63313590713641
 30
0.0
  0
VERTEX
  5
4D6
330
4D4
100
AcDbEntity
  8
DIBUJOS
 62
     7
100
AcDbVertex
100
AcDb2dVertex
 10
78.34467764202746
 20
42.64523902018851
 30
0.0
  0
SEQEND
  5
4D7
330
4D4
100
AcDbEntity
  8
DIBUJOS
 62
     7
  0
POLYLINE
  5
4D8
330
323
100
AcDbEntity
  8
DIBUJOS
 62
     7
100
AcDb2dPolyline
 66
     1
 10
0.0
 20
0.0
 30
0.0
  0
VERTEX
  5
4D9
330
4D8
100
AcDbEntity
  8
DIBUJOS
 62
     7
100
AcDbVertex
100
AcDb2dVertex
 10
81.59406026949988
 20
42.63313590713641
 30
0.0
  0
VERTEX
  5
4DA
330
4D8
100
AcDbEntity
  8
DIBUJOS
 62
     7
100
AcDbVertex
100
AcDb2dVertex
 10
81.59406026949988
 20
42.63918664929585
 30
0.0
  0
VERTEX
  5
4DB
330
4D8
100
AcDbEntity
  8
DIBUJOS
 62
     7
100
AcDbVertex
100
AcDb2dVertex
 10
81.60616086419287
 20
42.64523902018851
 30
0.0
  0
SEQEND
  5
4DC
330
4D8
100
AcDbEntity
  8
DIBUJOS
 62
     7
  0
POLYLINE
  5
4DD
330
323
100
AcDbEntity
  8
DIBUJOS
 62
     7
100
AcDb2dPolyline
 66
     1
 10
0.0
 20
0.0
 30
0.0
  0
VERTEX
  5
4DE
330
4DD
100
AcDbEntity
  8
DIBUJOS
 62
     7
100
AcDbVertex
100
AcDb2dVertex
 10
77.67301809175049
 20
42.62708353624375
 30
0.0
  0
VERTEX
  5
4DF
330
4DD
100
AcDbEntity
  8
DIBUJOS
 62
     7
100
AcDbVertex
100
AcDb2dVertex
 10
77.66636032174965
 20
42.63192575870421
 30
0.0
  0
VERTEX
  5
4E0
330
4DD
100
AcDbEntity
  8
DIBUJOS
 62
     7
100
AcDbVertex
100
AcDb2dVertex
 10
77.63066112448564
 20
42.64523902018851
 30
0.0
  0
VERTEX
  5
4E1
330
4DD
100
AcDbEntity
  8
DIBUJOS
 62
     7
100
AcDbVertex
100
AcDb2dVertex
 10
77.58830415722078
 20
42.68759910150491
 30
0.0
  0
VERTEX
  5
4E2
330
4DD
100
AcDbEntity
  8
DIBUJOS
 62
     7
100
AcDbVertex
100
AcDb2dVertex
 10
77.56591398550614
 20
42.73661581356377
 30
0.0
  0
VERTEX
  5
4E3
330
4DD
100
AcDbEntity
  8
DIBUJOS
 62
     7
100
AcDbVertex
100
AcDb2dVertex
 10
77.56228543571116
 20
42.74750714945172
 30
0.0
  0
VERTEX
  5
4E4
330
4DD
100
AcDbEntity
  8
DIBUJOS
 62
     7
100
AcDbVertex
100
AcDb2dVertex
 10
77.54848782625764
 20
42.79688706891332
 30
0.0
  0
VERTEX
  5
4E5
330
4DD
100
AcDbEntity
  8
DIBUJOS
 62
     7
100
AcDbVertex
100
AcDb2dVertex
 10
77.54340329642838
 20
42.83246999326418
 30
0.0
  0
VERTEX
  5
4E6
330
4DD
100
AcDbEntity
  8
DIBUJOS
 62
     7
100
AcDbVertex
100
AcDb2dVertex
 10
77.53685301488674
 20
43.00834055542099
 30
0.0
  0
VERTEX
  5
4E7
330
4DD
100
AcDbEntity
  8
DIBUJOS
 62
     7
100
AcDbVertex
100
AcDb2dVertex
 10
77.53083366118749
 20
44.17623640242017
 30
0.0
  0
VERTEX
  5
4E8
330
4DD
100
AcDbEntity
  8
DIBUJOS
 62
     7
100
AcDbVertex
100
AcDb2dVertex
 10
77.51448238652767
 20
44.22405925337464
 30
0.0
  0
VERTEX
  5
4E9
330
4DD
100
AcDbEntity
  8
DIBUJOS
 62
     7
100
AcDbVertex
100
AcDb2dVertex
 10
77.48916071138828
 20
44.30891948702411
 30
0.0
  0
VERTEX
  5
4EA
330
4DD
100
AcDbEntity
  8
DIBUJOS
 62
     7
100
AcDbVertex
100
AcDb2dVertex
 10
77.47100819073523
 20
44.3996887630847
 30
0.0
  0
VERTEX
  5
4EB
330
4DD
100
AcDbEntity
  8
DIBUJOS
 62
     7
100
AcDbVertex
100
AcDb2dVertex
 10
77.40423179994083
 20
44.82339381514707
 30
0.0
  0
VERTEX
  5
4EC
330
4DD
100
AcDbEntity
  8
DIBUJOS
 62
     7
100
AcDbVertex
100
AcDb2dVertex
 10
77.39811472946049
 20
44.87184209947659
 30
0.0
  0
VERTEX
  5
4ED
330
4DD
100
AcDbEntity
  8
DIBUJOS
 62
     7
100
AcDbVertex
100
AcDb2dVertex
 10
77.28235943088636
 20
45.85884762998909
 30
0.0
  0
VERTEX
  5
4EE
330
4DD
100
AcDbEntity
  8
DIBUJOS
 62
     7
100
AcDbVertex
100
AcDb2dVertex
 10
77.27099496927538
 20
45.96113204657946
 30
0.0
  0
VERTEX
  5
4EF
330
4DD
100
AcDbEntity
  8
DIBUJOS
 62
     7
100
AcDbVertex
100
AcDb2dVertex
 10
77.01091849986479
 20
47.87936878337301
 30
0.0
  0
VERTEX
  5
4F0
330
4DD
100
AcDbEntity
  8
DIBUJOS
 62
     7
100
AcDbVertex
100
AcDb2dVertex
 10
76.98066212729229
 20
48.10327067427577
 30
0.0
  0
VERTEX
  5
4F1
330
4DD
100
AcDbEntity
  8
DIBUJOS
 62
     7
100
AcDbVertex
100
AcDb2dVertex
 10
76.88299420485092
 20
48.87851488779098
 30
0.0
  0
VERTEX
  5
4F2
330
4DD
100
AcDbEntity
  8
DIBUJOS
 62
     7
100
AcDbVertex
100
AcDb2dVertex
 10
76.8770823396102
 20
48.9328819869278
 30
0.0
  0
VERTEX
  5
4F3
330
4DD
100
AcDbEntity
  8
DIBUJOS
 62
     7
100
AcDbVertex
100
AcDb2dVertex
 10
76.86218378775949
 20
49.12632657543806
 30
0.0
  0
VERTEX
  5
4F4
330
4DD
100
AcDbEntity
  8
DIBUJOS
 62
     7
100
AcDbVertex
100
AcDb2dVertex
 10
76.8715906565275
 20
49.19316325249553
 30
0.0
  0
VERTEX
  5
4F5
330
4DD
100
AcDbEntity
  8
DIBUJOS
 62
     7
100
AcDbVertex
100
AcDb2dVertex
 10
76.8815479964941
 20
49.25885330169814
 30
0.0
  0
VERTEX
  5
4F6
330
4DD
100
AcDbEntity
  8
DIBUJOS
 62
     7
100
AcDbVertex
100
AcDb2dVertex
 10
76.90333232416796
 20
49.30847753107199
 30
0.0
  0
VERTEX
  5
4F7
330
4DD
100
AcDbEntity
  8
DIBUJOS
 62
     7
100
AcDbVertex
100
AcDb2dVertex
 10
76.93024026838286
 20
49.35500065329325
 30
0.0
  0
VERTEX
  5
4F8
330
4DD
100
AcDbEntity
  8
DIBUJOS
 62
     7
100
AcDbVertex
100
AcDb2dVertex
 10
76.9650502429416
 20
49.39864091854987
 30
0.0
  0
VERTEX
  5
4F9
330
4DD
100
AcDbEntity
  8
DIBUJOS
 62
     7
100
AcDbVertex
100
AcDb2dVertex
 10
77.01252756952233
 20
49.43634608167203
 30
0.0
  0
VERTEX
  5
4FA
330
4DD
100
AcDbEntity
  8
DIBUJOS
 62
     7
100
AcDbVertex
100
AcDb2dVertex
 10
77.03068009017473
 20
49.44845082345704
 30
0.0
  0
VERTEX
  5
4FB
330
4DD
100
AcDbEntity
  8
DIBUJOS
 62
     7
100
AcDbVertex
100
AcDb2dVertex
 10
77.09265532980437
 20
49.48122744128291
 30
0.0
  0
VERTEX
  5
4FC
330
4DD
100
AcDbEntity
  8
DIBUJOS
 62
     7
100
AcDbVertex
100
AcDb2dVertex
 10
77.10973948032036
 20
49.48549797854917
 30
0.0
  0
VERTEX
  5
4FD
330
4DD
100
AcDbEntity
  8
DIBUJOS
 62
     7
100
AcDbVertex
100
AcDb2dVertex
 10
77.1889389311847
 20
49.48941345207596
 30
0.0
  0
VERTEX
  5
4FE
330
4DD
100
AcDbEntity
  8
DIBUJOS
 62
     7
100
AcDbVertex
100
AcDb2dVertex
 10
77.28521927533919
 20
49.46307358607105
 30
0.0
  0
VERTEX
  5
4FF
330
4DD
100
AcDbEntity
  8
DIBUJOS
 62
     7
100
AcDbVertex
100
AcDb2dVertex
 10
77.34021102236524
 20
49.44100099986658
 30
0.0
  0
SEQEND
  5
500
330
4DD
100
AcDbEntity
  8
DIBUJOS
 62
     7
  0
POLYLINE
  5
501
330
323
100
AcDbEntity
  8
DIBUJOS
 62
     7
100
AcDb2dPolyline
 66
     1
 10
0.0
 20
0.0
 30
0.0
  0
VERTEX
  5
502
330
501
100
AcDbEntity
  8
DIBUJOS
 62
     7
100
AcDbVertex
100
AcDb2dVertex
 10
77.67906676048408
 20
42.62708353624375
 30
0.0
  0
VERTEX
  5
503
330
501
100
AcDbEntity
  8
DIBUJOS
 62
     7
100
AcDbVertex
100
AcDb2dVertex
 10
77.67301809175049
 20
42.62708353624375
 30
0.0
  0
SEQEND
  5
504
330
501
100
AcDbEntity
  8
DIBUJOS
 62
     7
  0
POLYLINE
  5
505
330
323
100
AcDbEntity
  8
DIBUJOS
 62
     7
100
AcDb2dPolyline
 66
     1
 10
0.0
 20
0.0
 30
0.0
  0
VERTEX
  5
506
330
505
100
AcDbEntity
  8
DIBUJOS
 62
     7
100
AcDbVertex
100
AcDb2dVertex
 10
78.34467764202746
 20
42.62708353624375
 30
0.0
  0
VERTEX
  5
507
330
505
100
AcDbEntity
  8
DIBUJOS
 62
     7
100
AcDbVertex
100
AcDb2dVertex
 10
77.67906676048408
 20
42.62708353624375
 30
0.0
  0
SEQEND
  5
508
330
505
100
AcDbEntity
  8
DIBUJOS
 62
     7
  0
POLYLINE
  5
509
330
323
100
AcDbEntity
  8
DIBUJOS
 62
     7
100
AcDb2dPolyline
 66
     1
 10
0.0
 20
0.0
 30
0.0
  0
VERTEX
  5
50A
330
509
100
AcDbEntity
  8
DIBUJOS
 62
     7
100
AcDbVertex
100
AcDb2dVertex
 10
78.35072956798751
 20
42.62708353624375
 30
0.0
  0
VERTEX
  5
50B
330
509
100
AcDbEntity
  8
DIBUJOS
 62
     7
100
AcDbVertex
100
AcDb2dVertex
 10
78.34467764202746
 20
42.62708353624375
 30
0.0
  0
SEQEND
  5
50C
330
509
100
AcDbEntity
  8
DIBUJOS
 62
     7
  0
POLYLINE
  5
50D
330
323
100
AcDbEntity
  8
DIBUJOS
 62
     7
100
AcDb2dPolyline
 66
     1
 10
0.0
 20
0.0
 30
0.0
  0
VERTEX
  5
50E
330
50D
100
AcDbEntity
  8
DIBUJOS
 62
     7
100
AcDbVertex
100
AcDb2dVertex
 10
78.35072956798751
 20
42.62708353624375
 30
0.0
  0
VERTEX
  5
50F
330
50D
100
AcDbEntity
  8
DIBUJOS
 62
     7
100
AcDbVertex
100
AcDb2dVertex
 10
78.35072956798751
 20
42.63313590713641
 30
0.0
  0
SEQEND
  5
510
330
50D
100
AcDbEntity
  8
DIBUJOS
 62
     7
  0
POLYLINE
  5
511
330
323
100
AcDbEntity
  8
DIBUJOS
 62
     7
100
AcDb2dPolyline
 66
     1
 10
0.0
 20
0.0
 30
0.0
  0
VERTEX
  5
512
330
511
100
AcDbEntity
  8
DIBUJOS
 62
     7
100
AcDbVertex
100
AcDb2dVertex
 10
78.3567782367211
 20
42.62708353624375
 30
0.0
  0
VERTEX
  5
513
330
511
100
AcDbEntity
  8
DIBUJOS
 62
     7
100
AcDbVertex
100
AcDb2dVertex
 10
78.35072956798751
 20
42.62708353624375
 30
0.0
  0
SEQEND
  5
514
330
511
100
AcDbEntity
  8
DIBUJOS
 62
     7
  0
POLYLINE
  5
515
330
323
100
AcDbEntity
  8
DIBUJOS
 62
     7
100
AcDb2dPolyline
 66
     1
 10
0.0
 20
0.0
 30
0.0
  0
VERTEX
  5
516
330
515
100
AcDbEntity
  8
DIBUJOS
 62
     7
100
AcDbVertex
100
AcDb2dVertex
 10
81.58800834354047
 20
42.62708353624375
 30
0.0
  0
VERTEX
  5
517
330
515
100
AcDbEntity
  8
DIBUJOS
 62
     7
100
AcDbVertex
100
AcDb2dVertex
 10
81.56380389692801
 20
42.63313590713641
 30
0.0
  0
VERTEX
  5
518
330
515
100
AcDbEntity
  8
DIBUJOS
 62
     7
100
AcDbVertex
100
AcDb2dVertex
 10
81.52749234117093
 20
42.63010320675924
 30
0.0
  0
VERTEX
  5
519
330
515
100
AcDbEntity
  8
DIBUJOS
 62
     7
100
AcDbVertex
100
AcDb2dVertex
 10
78.3567782367211
 20
42.62708353624375
 30
0.0
  0
SEQEND
  5
51A
330
515
100
AcDbEntity
  8
DIBUJOS
 62
     7
  0
POLYLINE
  5
51B
330
323
100
AcDbEntity
  8
DIBUJOS
 62
     7
100
AcDb2dPolyline
 66
     1
 10
0.0
 20
0.0
 30
0.0
  0
VERTEX
  5
51C
330
51B
100
AcDbEntity
  8
DIBUJOS
 62
     7
100
AcDbVertex
100
AcDb2dVertex
 10
81.59406026949988
 20
42.62708353624375
 30
0.0
  0
VERTEX
  5
51D
330
51B
100
AcDbEntity
  8
DIBUJOS
 62
     7
100
AcDbVertex
100
AcDb2dVertex
 10
81.58800834354047
 20
42.62708353624375
 30
0.0
  0
SEQEND
  5
51E
330
51B
100
AcDbEntity
  8
DIBUJOS
 62
     7
  0
POLYLINE
  5
51F
330
323
100
AcDbEntity
  8
DIBUJOS
 62
     7
100
AcDb2dPolyline
 66
     1
 10
0.0
 20
0.0
 30
0.0
  0
VERTEX
  5
520
330
51F
100
AcDbEntity
  8
DIBUJOS
 62
     7
100
AcDbVertex
100
AcDb2dVertex
 10
81.59406026949988
 20
42.62708353624375
 30
0.0
  0
VERTEX
  5
521
330
51F
100
AcDbEntity
  8
DIBUJOS
 62
     7
100
AcDbVertex
100
AcDb2dVertex
 10
81.59406026949988
 20
42.63313590713641
 30
0.0
  0
SEQEND
  5
522
330
51F
100
AcDbEntity
  8
DIBUJOS
 62
     7
  0
POLYLINE
  5
523
330
323
100
AcDbEntity
  8
DIBUJOS
 62
     7
100
AcDb2dPolyline
 66
     1
 10
0.0
 20
0.0
 30
0.0
  0
VERTEX
  5
524
330
523
100
AcDbEntity
  8
DIBUJOS
 62
     7
100
AcDbVertex
100
AcDb2dVertex
 10
81.60011219545993
 20
42.62708353624375
 30
0.0
  0
VERTEX
  5
525
330
523
100
AcDbEntity
  8
DIBUJOS
 62
     7
100
AcDbVertex
100
AcDb2dVertex
 10
81.59406026949988
 20
42.62708353624375
 30
0.0
  0
SEQEND
  5
526
330
523
100
AcDbEntity
  8
DIBUJOS
 62
     7
  0
POLYLINE
  5
527
330
323
100
AcDbEntity
  8
DIBUJOS
 62
     7
100
AcDb2dPolyline
 66
     1
 10
0.0
 20
0.0
 30
0.0
  0
VERTEX
  5
528
330
527
100
AcDbEntity
  8
DIBUJOS
 62
     7
100
AcDbVertex
100
AcDb2dVertex
 10
82.13259699202352
 20
42.62708353624375
 30
0.0
  0
VERTEX
  5
529
330
527
100
AcDbEntity
  8
DIBUJOS
 62
     7
100
AcDbVertex
100
AcDb2dVertex
 10
81.60011219545993
 20
42.62708353624375
 30
0.0
  0
SEQEND
  5
52A
330
527
100
AcDbEntity
  8
DIBUJOS
 62
     7
  0
POLYLINE
  5
52B
330
323
100
AcDbEntity
  8
DIBUJOS
 62
     7
100
AcDb2dPolyline
 66
     1
 10
0.0
 20
0.0
 30
0.0
  0
VERTEX
  5
52C
330
52B
100
AcDbEntity
  8
DIBUJOS
 62
     7
100
AcDbVertex
100
AcDb2dVertex
 10
82.13259699202352
 20
42.62708353624375
 30
0.0
  0
VERTEX
  5
52D
330
52B
100
AcDbEntity
  8
DIBUJOS
 62
     7
100
AcDbVertex
100
AcDb2dVertex
 10
82.15740728267676
 20
42.63797650086396
 30
0.0
  0
VERTEX
  5
52E
330
52B
100
AcDbEntity
  8
DIBUJOS
 62
     7
100
AcDbVertex
100
AcDb2dVertex
 10
82.1931097371666
 20
42.65734050450803
 30
0.0
  0
VERTEX
  5
52F
330
52B
100
AcDbEntity
  8
DIBUJOS
 62
     7
100
AcDbVertex
100
AcDb2dVertex
 10
82.22196550254701
 20
42.69458147879706
 30
0.0
  0
VERTEX
  5
530
330
52B
100
AcDbEntity
  8
DIBUJOS
 62
     7
100
AcDbVertex
100
AcDb2dVertex
 10
82.24333290528868
 20
42.7354040363993
 30
0.0
  0
VERTEX
  5
531
330
52B
100
AcDbEntity
  8
DIBUJOS
 62
     7
100
AcDbVertex
100
AcDb2dVertex
 10
82.2514824848104
 20
42.76074874669479
 30
0.0
  0
VERTEX
  5
532
330
52B
100
AcDbEntity
  8
DIBUJOS
 62
     7
100
AcDbVertex
100
AcDb2dVertex
 10
82.26881418450364
 20
42.8571029473491
 30
0.0
  0
VERTEX
  5
533
330
52B
100
AcDbEntity
  8
DIBUJOS
 62
     7
100
AcDbVertex
100
AcDb2dVertex
 10
82.27472930697017
 20
43.12928862057395
 30
0.0
  0
VERTEX
  5
534
330
52B
100
AcDbEntity
  8
DIBUJOS
 62
     7
100
AcDbVertex
100
AcDb2dVertex
 10
82.2717717457369
 20
43.14145688293599
 30
0.0
  0
VERTEX
  5
535
330
52B
100
AcDbEntity
  8
DIBUJOS
 62
     7
100
AcDbVertex
100
AcDb2dVertex
 10
82.27782367169631
 20
43.17776459336036
 30
0.0
  0
VERTEX
  5
536
330
52B
100
AcDbEntity
  8
DIBUJOS
 62
     7
100
AcDbVertex
100
AcDb2dVertex
 10
82.2717717457369
 20
43.18381696425303
 30
0.0
  0
VERTEX
  5
537
330
52B
100
AcDbEntity
  8
DIBUJOS
 62
     7
100
AcDbVertex
100
AcDb2dVertex
 10
82.27782367169631
 20
43.19591844857222
 30
0.0
  0
VERTEX
  5
538
330
52B
100
AcDbEntity
  8
DIBUJOS
 62
     7
100
AcDbVertex
100
AcDb2dVertex
 10
82.27782367169631
 20
44.85401399081409
 30
0.0
  0
VERTEX
  5
539
330
52B
100
AcDbEntity
  8
DIBUJOS
 62
     7
100
AcDbVertex
100
AcDb2dVertex
 10
82.2629088337152
 20
45.25321964487723
 30
0.0
  0
VERTEX
  5
53A
330
52B
100
AcDbEntity
  8
DIBUJOS
 62
     7
100
AcDbVertex
100
AcDb2dVertex
 10
82.25079195289246
 20
45.44082685521792
 30
0.0
  0
VERTEX
  5
53B
330
52B
100
AcDbEntity
  8
DIBUJOS
 62
     7
100
AcDbVertex
100
AcDb2dVertex
 10
82.2390626819663
 20
45.51926336690873
 30
0.0
  0
VERTEX
  5
53C
330
52B
100
AcDbEntity
  8
DIBUJOS
 62
     7
100
AcDbVertex
100
AcDb2dVertex
 10
82.20275764066149
 20
45.7250114025993
 30
0.0
  0
VERTEX
  5
53D
330
52B
100
AcDbEntity
  8
DIBUJOS
 62
     7
100
AcDbVertex
100
AcDb2dVertex
 10
82.16708775843115
 20
45.84584382772697
 30
0.0
  0
VERTEX
  5
53E
330
52B
100
AcDbEntity
  8
DIBUJOS
 62
     7
100
AcDbVertex
100
AcDb2dVertex
 10
82.09205755688231
 20
46.05885275400918
 30
0.0
  0
VERTEX
  5
53F
330
52B
100
AcDbEntity
  8
DIBUJOS
 62
     7
100
AcDbVertex
100
AcDb2dVertex
 10
82.058589559447
 20
46.12388479518177
 30
0.0
  0
VERTEX
  5
540
330
52B
100
AcDbEntity
  8
DIBUJOS
 62
     7
100
AcDbVertex
100
AcDb2dVertex
 10
81.93431335758433
 20
46.32544373024415
 30
0.0
  0
VERTEX
  5
541
330
52B
100
AcDbEntity
  8
DIBUJOS
 62
     7
100
AcDbVertex
100
AcDb2dVertex
 10
81.88600869559279
 20
46.38633879023584
 30
0.0
  0
VERTEX
  5
542
330
52B
100
AcDbEntity
  8
DIBUJOS
 62
     7
100
AcDbVertex
100
AcDb2dVertex
 10
81.68482612998899
 20
46.60287880911623
 30
0.0
  0
VERTEX
  5
543
330
52B
100
AcDbEntity
  8
DIBUJOS
 62
     7
100
AcDbVertex
100
AcDb2dVertex
 10
81.56271598343538
 20
46.69219851303076
 30
0.0
  0
VERTEX
  5
544
330
52B
100
AcDbEntity
  8
DIBUJOS
 62
     7
100
AcDbVertex
100
AcDb2dVertex
 10
81.48405397486509
 20
46.75271244955966
 30
0.0
  0
VERTEX
  5
545
330
52B
100
AcDbEntity
  8
DIBUJOS
 62
     7
100
AcDbVertex
100
AcDb2dVertex
 10
81.41797788766608
 20
46.79531358332313
 30
0.0
  0
VERTEX
  5
546
330
52B
100
AcDbEntity
  8
DIBUJOS
 62
     7
100
AcDbVertex
100
AcDb2dVertex
 10
81.29211541672791
 20
46.8582478167158
 30
0.0
  0
VERTEX
  5
547
330
52B
100
AcDbEntity
  8
DIBUJOS
 62
     7
100
AcDbVertex
100
AcDb2dVertex
 10
81.12154751855886
 20
46.93962256228404
 30
0.0
  0
VERTEX
  5
548
330
52B
100
AcDbEntity
  8
DIBUJOS
 62
     7
100
AcDbVertex
100
AcDb2dVertex
 10
80.82006844910899
 20
47.01045940697122
 30
0.0
  0
VERTEX
  5
549
330
52B
100
AcDbEntity
  8
DIBUJOS
 62
     7
100
AcDbVertex
100
AcDb2dVertex
 10
80.75877396971853
 20
47.02374986619706
 30
0.0
  0
VERTEX
  5
54A
330
52B
100
AcDbEntity
  8
DIBUJOS
 62
     7
100
AcDbVertex
100
AcDb2dVertex
 10
80.39617631108416
 20
47.05346120899048
 30
0.0
  0
VERTEX
  5
54B
330
52B
100
AcDbEntity
  8
DIBUJOS
 62
     7
100
AcDbVertex
100
AcDb2dVertex
 10
80.1478714565367
 20
47.06883970359974
 30
0.0
  0
VERTEX
  5
54C
330
52B
100
AcDbEntity
  8
DIBUJOS
 62
     7
100
AcDbVertex
100
AcDb2dVertex
 10
79.65169170127791
 20
47.06883970359974
 30
0.0
  0
VERTEX
  5
54D
330
52B
100
AcDbEntity
  8
DIBUJOS
 62
     7
100
AcDbVertex
100
AcDb2dVertex
 10
79.27069397281196
 20
47.04185811689197
 30
0.0
  0
VERTEX
  5
54E
330
52B
100
AcDbEntity
  8
DIBUJOS
 62
     7
100
AcDbVertex
100
AcDb2dVertex
 10
79.26442706993481
 20
47.03858110660254
 30
0.0
  0
SEQEND
  5
54F
330
52B
100
AcDbEntity
  8
DIBUJOS
 62
     7
  0
POLYLINE
  5
550
330
323
100
AcDbEntity
  8
DIBUJOS
 62
     7
100
AcDb2dPolyline
 66
     1
 10
0.0
 20
0.0
 30
0.0
  0
VERTEX
  5
551
330
550
100
AcDbEntity
  8
DIBUJOS
 62
     7
100
AcDbVertex
100
AcDb2dVertex
 10
77.67301809175049
 20
42.62103279408399
 30
0.0
  0
VERTEX
  5
552
330
550
100
AcDbEntity
  8
DIBUJOS
 62
     7
100
AcDbVertex
100
AcDb2dVertex
 10
77.67301809175049
 20
42.62708353624375
 30
0.0
  0
SEQEND
  5
553
330
550
100
AcDbEntity
  8
DIBUJOS
 62
     7
  0
POLYLINE
  5
554
330
323
100
AcDbEntity
  8
DIBUJOS
 62
     7
100
AcDb2dPolyline
 66
     1
 10
0.0
 20
0.0
 30
0.0
  0
VERTEX
  5
555
330
554
100
AcDbEntity
  8
DIBUJOS
 62
     7
100
AcDbVertex
100
AcDb2dVertex
 10
77.67301809175049
 20
42.62103279408399
 30
0.0
  0
VERTEX
  5
556
330
554
100
AcDbEntity
  8
DIBUJOS
 62
     7
100
AcDbVertex
100
AcDb2dVertex
 10
77.65924654010485
 20
42.60100101001308
 30
0.0
  0
VERTEX
  5
557
330
554
100
AcDbEntity
  8
DIBUJOS
 62
     7
100
AcDbVertex
100
AcDb2dVertex
 10
77.65253665448765
 20
42.57913853033299
 30
0.0
  0
VERTEX
  5
558
330
554
100
AcDbEntity
  8
DIBUJOS
 62
     7
100
AcDbVertex
100
AcDb2dVertex
 10
77.64881364513803
 20
42.50605566318659
 30
0.0
  0
VERTEX
  5
559
330
554
100
AcDbEntity
  8
DIBUJOS
 62
     7
100
AcDbVertex
100
AcDb2dVertex
 10
77.65486557109745
 20
42.50000329229393
 30
0.0
  0
VERTEX
  5
55A
330
554
100
AcDbEntity
  8
DIBUJOS
 62
     7
100
AcDbVertex
100
AcDb2dVertex
 10
77.64881364513803
 20
42.48790180797409
 30
0.0
  0
VERTEX
  5
55B
330
554
100
AcDbEntity
  8
DIBUJOS
 62
     7
100
AcDbVertex
100
AcDb2dVertex
 10
77.6523216775699
 20
42.46333237446651
 30
0.0
  0
VERTEX
  5
55C
330
554
100
AcDbEntity
  8
DIBUJOS
 62
     7
100
AcDbVertex
100
AcDb2dVertex
 10
77.65486557109745
 20
42.42738624271293
 30
0.0
  0
VERTEX
  5
55D
330
554
100
AcDbEntity
  8
DIBUJOS
 62
     7
100
AcDbVertex
100
AcDb2dVertex
 10
77.68511868644349
 20
42.40318164534067
 30
0.0
  0
VERTEX
  5
55E
330
554
100
AcDbEntity
  8
DIBUJOS
 62
     7
100
AcDbVertex
100
AcDb2dVertex
 10
82.12654832328994
 20
42.40318164534067
 30
0.0
  0
VERTEX
  5
55F
330
554
100
AcDbEntity
  8
DIBUJOS
 62
     7
100
AcDbVertex
100
AcDb2dVertex
 10
82.15075276990238
 20
42.42133550055317
 30
0.0
  0
VERTEX
  5
560
330
554
100
AcDbEntity
  8
DIBUJOS
 62
     7
100
AcDbVertex
100
AcDb2dVertex
 10
82.15680143863533
 20
42.43343861360528
 30
0.0
  0
VERTEX
  5
561
330
554
100
AcDbEntity
  8
DIBUJOS
 62
     7
100
AcDbVertex
100
AcDb2dVertex
 10
82.15680143863533
 20
42.59682656797946
 30
0.0
  0
VERTEX
  5
562
330
554
100
AcDbEntity
  8
DIBUJOS
 62
     7
100
AcDbVertex
100
AcDb2dVertex
 10
82.13259699202352
 20
42.62708353624375
 30
0.0
  0
SEQEND
  5
563
330
554
100
AcDbEntity
  8
DIBUJOS
 62
     7
  0
ENDBLK
  5
326
330
323
100
AcDbEntity
  8
0
100
AcDbBlockEnd
  0
BLOCK
  5
566
330
564
100
AcDbEntity
  8
0
100
AcDbBlockBegin
  2
BLOCK_4
 70
     0
 10
0.0
 20
0.0
 30
0.0
  3
BLOCK_4
  1

  0
POLYLINE
  5
568
330
564
100
AcDbEntity
  8
DIBUJOS
 62
     7
100
AcDb2dPolyline
 66
     1
 10
0.0
 20
0.0
 30
0.0
  0
VERTEX
  5
569
330
568
100
AcDbEntity
  8
DIBUJOS
 62
     7
100
AcDbVertex
100
AcDb2dVertex
 10
63.17483957832822
 20
32.2067188752514
 30
0.0
  0
VERTEX
  5
56A
330
568
100
AcDbEntity
  8
DIBUJOS
 62
     7
100
AcDbVertex
100
AcDb2dVertex
 10
63.16878765236881
 20
32.2067188752514
 30
0.0
  0
SEQEND
  5
56B
330
568
100
AcDbEntity
  8
DIBUJOS
 62
     7
  0
POLYLINE
  5
56C
330
564
100
AcDbEntity
  8
DIBUJOS
 62
     7
100
AcDb2dPolyline
 66
     1
 10
0.0
 20
0.0
 30
0.0
  0
VERTEX
  5
56D
330
56C
100
AcDbEntity
  8
DIBUJOS
 62
     7
100
AcDbVertex
100
AcDb2dVertex
 10
65.6981034649516
 20
32.00702158172027
 30
0.0
  0
VERTEX
  5
56E
330
56C
100
AcDbEntity
  8
DIBUJOS
 62
     7
100
AcDbVertex
100
AcDb2dVertex
 10
65.75861295286919
 20
32.07358788914183
 30
0.0
  0
SEQEND
  5
56F
330
56C
100
AcDbEntity
  8
DIBUJOS
 62
     7
  0
POLYLINE
  5
570
330
564
100
AcDbEntity
  8
DIBUJOS
 62
     7
100
AcDb2dPolyline
 66
     1
 10
0.0
 20
0.0
 30
0.0
  0
VERTEX
  5
571
330
570
100
AcDbEntity
  8
DIBUJOS
 62
     7
100
AcDbVertex
100
AcDb2dVertex
 10
63.4955411671811
 20
31.91625067692741
 30
0.0
  0
VERTEX
  5
572
330
570
100
AcDbEntity
  8
DIBUJOS
 62
     7
100
AcDbVertex
100
AcDb2dVertex
 10
63.47257772368551
 20
31.92984082297863
 30
0.0
  0
VERTEX
  5
573
330
570
100
AcDbEntity
  8
DIBUJOS
 62
     7
100
AcDbVertex
100
AcDb2dVertex
 10
63.44108360522326
 20
31.95861075824412
 30
0.0
  0
SEQEND
  5
574
330
570
100
AcDbEntity
  8
DIBUJOS
 62
     7
  0
POLYLINE
  5
575
330
564
100
AcDbEntity
  8
DIBUJOS
 62
     7
100
AcDb2dPolyline
 66
     1
 10
0.0
 20
0.0
 30
0.0
  0
VERTEX
  5
576
330
575
100
AcDbEntity
  8
DIBUJOS
 62
     7
100
AcDbVertex
100
AcDb2dVertex
 10
62.12196732266724
 20
31.45028978244422
 30
0.0
  0
VERTEX
  5
577
330
575
100
AcDbEntity
  8
DIBUJOS
 62
     7
100
AcDbVertex
100
AcDb2dVertex
 10
62.1038131734016
 20
31.57737002639436
 30
0.0
  0
VERTEX
  5
578
330
575
100
AcDbEntity
  8
DIBUJOS
 62
     7
100
AcDbVertex
100
AcDb2dVertex
 10
62.11983058239313
 20
31.68682901074119
 30
0.0
  0
VERTEX
  5
579
330
575
100
AcDbEntity
  8
DIBUJOS
 62
     7
100
AcDbVertex
100
AcDb2dVertex
 10
62.13620465763465
 20
31.75232686947917
 30
0.0
  0
VERTEX
  5
57A
330
575
100
AcDbEntity
  8
DIBUJOS
 62
     7
100
AcDbVertex
100
AcDb2dVertex
 10
62.16855868376818
 20
31.86844411330075
 30
0.0
  0
VERTEX
  5
57B
330
575
100
AcDbEntity
  8
DIBUJOS
 62
     7
100
AcDbVertex
100
AcDb2dVertex
 10
62.22362371838005
 20
32.01972895462283
 30
0.0
  0
VERTEX
  5
57C
330
575
100
AcDbEntity
  8
DIBUJOS
 62
     7
100
AcDbVertex
100
AcDb2dVertex
 10
62.34725010365045
 20
32.26630280538082
 30
0.0
  0
VERTEX
  5
57D
330
575
100
AcDbEntity
  8
DIBUJOS
 62
     7
100
AcDbVertex
100
AcDb2dVertex
 10
62.4473234875139
 20
32.42550165912647
 30
0.0
  0
VERTEX
  5
57E
330
575
100
AcDbEntity
  8
DIBUJOS
 62
     7
100
AcDbVertex
100
AcDb2dVertex
 10
62.5046555514411
 20
32.508110984118
 30
0.0
  0
VERTEX
  5
57F
330
575
100
AcDbEntity
  8
DIBUJOS
 62
     7
100
AcDbVertex
100
AcDb2dVertex
 10
62.57431458727068
 20
32.59519118050335
 30
0.0
  0
VERTEX
  5
580
330
575
100
AcDbEntity
  8
DIBUJOS
 62
     7
100
AcDbVertex
100
AcDb2dVertex
 10
62.67260626849711
 20
32.72109222194366
 30
0.0
  0
VERTEX
  5
581
330
575
100
AcDbEntity
  8
DIBUJOS
 62
     7
100
AcDbVertex
100
AcDb2dVertex
 10
62.76942242633272
 20
32.8179138688966
 30
0.0
  0
VERTEX
  5
582
330
575
100
AcDbEntity
  8
DIBUJOS
 62
     7
100
AcDbVertex
100
AcDb2dVertex
 10
62.9704747028953
 20
33.0040031003158
 30
0.0
  0
VERTEX
  5
583
330
575
100
AcDbEntity
  8
DIBUJOS
 62
     7
100
AcDbVertex
100
AcDb2dVertex
 10
63.1819794177809
 20
33.15534168981873
 30
0.0
  0
VERTEX
  5
584
330
575
100
AcDbEntity
  8
DIBUJOS
 62
     7
100
AcDbVertex
100
AcDb2dVertex
 10
63.26669335231061
 20
33.21585725507958
 30
0.0
  0
VERTEX
  5
585
330
575
100
AcDbEntity
  8
DIBUJOS
 62
     7
100
AcDbVertex
100
AcDb2dVertex
 10
63.52640175518116
 20
33.34923092236882
 30
0.0
  0
VERTEX
  5
586
330
575
100
AcDbEntity
  8
DIBUJOS
 62
     7
100
AcDbVertex
100
AcDb2dVertex
 10
63.57965088628262
 20
33.37585744533744
 30
0.0
  0
VERTEX
  5
587
330
575
100
AcDbEntity
  8
DIBUJOS
 62
     7
100
AcDbVertex
100
AcDb2dVertex
 10
63.72003407085239
 20
33.43939756731283
 30
0.0
  0
VERTEX
  5
588
330
575
100
AcDbEntity
  8
DIBUJOS
 62
     7
100
AcDbVertex
100
AcDb2dVertex
 10
63.85799713648355
 20
33.47933735176576
 30
0.0
  0
VERTEX
  5
589
330
575
100
AcDbEntity
  8
DIBUJOS
 62
     7
100
AcDbVertex
100
AcDb2dVertex
 10
64.16747106721897
 20
33.56559666684593
 30
0.0
  0
VERTEX
  5
58A
330
575
100
AcDbEntity
  8
DIBUJOS
 62
     7
100
AcDbVertex
100
AcDb2dVertex
 10
64.57837501645844
 20
33.60725802181343
 30
0.0
  0
VERTEX
  5
58B
330
575
100
AcDbEntity
  8
DIBUJOS
 62
     7
100
AcDbVertex
100
AcDb2dVertex
 10
64.68153625059607
 20
33.61065230086106
 30
0.0
  0
VERTEX
  5
58C
330
575
100
AcDbEntity
  8
DIBUJOS
 62
     7
100
AcDbVertex
100
AcDb2dVertex
 10
65.11086144163527
 20
33.5656357564319
 30
0.0
  0
VERTEX
  5
58D
330
575
100
AcDbEntity
  8
DIBUJOS
 62
     7
100
AcDbVertex
100
AcDb2dVertex
 10
65.41310107336275
 20
33.4817576486289
 30
0.0
  0
VERTEX
  5
58E
330
575
100
AcDbEntity
  8
DIBUJOS
 62
     7
100
AcDbVertex
100
AcDb2dVertex
 10
65.55348425793251
 20
33.44302801260849
 30
0.0
  0
VERTEX
  5
58F
330
575
100
AcDbEntity
  8
DIBUJOS
 62
     7
100
AcDbVertex
100
AcDb2dVertex
 10
65.6866070856868
 20
33.38190818749752
 30
0.0
  0
VERTEX
  5
590
330
575
100
AcDbEntity
  8
DIBUJOS
 62
     7
100
AcDbVertex
100
AcDb2dVertex
 10
65.71565177017614
 20
33.36738477758132
 30
0.0
  0
VERTEX
  5
591
330
575
100
AcDbEntity
  8
DIBUJOS
 62
     7
100
AcDbVertex
100
AcDb2dVertex
 10
65.98948187648972
 20
33.23080902170908
 30
0.0
  0
VERTEX
  5
592
330
575
100
AcDbEntity
  8
DIBUJOS
 62
     7
100
AcDbVertex
100
AcDb2dVertex
 10
66.04999136440729
 20
33.18844894039237
 30
0.0
  0
VERTEX
  5
593
330
575
100
AcDbEntity
  8
DIBUJOS
 62
     7
100
AcDbVertex
100
AcDb2dVertex
 10
66.32864705108123
 20
32.98884285589514
 30
0.0
  0
VERTEX
  5
594
330
575
100
AcDbEntity
  8
DIBUJOS
 62
     7
100
AcDbVertex
100
AcDb2dVertex
 10
66.61180259551244
 20
32.71503985105131
 30
0.0
  0
VERTEX
  5
595
330
575
100
AcDbEntity
  8
DIBUJOS
 62
     7
100
AcDbVertex
100
AcDb2dVertex
 10
66.71319352730374
 20
32.58677877585843
 30
0.0
  0
VERTEX
  5
596
330
575
100
AcDbEntity
  8
DIBUJOS
 62
     7
100
AcDbVertex
100
AcDb2dVertex
 10
66.76765271787482
 20
32.52021409716978
 30
0.0
  0
VERTEX
  5
597
330
575
100
AcDbEntity
  8
DIBUJOS
 62
     7
100
AcDbVertex
100
AcDb2dVertex
 10
66.84295164057133
 20
32.41307279952438
 30
0.0
  0
VERTEX
  5
598
330
575
100
AcDbEntity
  8
DIBUJOS
 62
     7
100
AcDbVertex
100
AcDb2dVertex
 10
66.9311084630123
 20
32.2723535475409
 30
0.0
  0
VERTEX
  5
599
330
575
100
AcDbEntity
  8
DIBUJOS
 62
     7
100
AcDbVertex
100
AcDb2dVertex
 10
67.0547364768956
 20
32.02578132551518
 30
0.0
  0
VERTEX
  5
59A
330
575
100
AcDbEntity
  8
DIBUJOS
 62
     7
100
AcDbVertex
100
AcDb2dVertex
 10
67.10979988289456
 20
31.87449485546019
 30
0.0
  0
VERTEX
  5
59B
330
575
100
AcDbEntity
  8
DIBUJOS
 62
     7
100
AcDbVertex
100
AcDb2dVertex
 10
67.13610361168159
 20
31.78258546647637
 30
0.0
  0
VERTEX
  5
59C
330
575
100
AcDbEntity
  8
DIBUJOS
 62
     7
100
AcDbVertex
100
AcDb2dVertex
 10
67.1524776869231
 20
31.71708597900484
 30
0.0
  0
VERTEX
  5
59D
330
575
100
AcDbEntity
  8
DIBUJOS
 62
     7
100
AcDbVertex
100
AcDb2dVertex
 10
67.17151943028144
 20
31.58947313944678
 30
0.0
  0
VERTEX
  5
59E
330
575
100
AcDbEntity
  8
DIBUJOS
 62
     7
100
AcDbVertex
100
AcDb2dVertex
 10
67.16568248123944
 20
31.49888791018692
 30
0.0
  0
VERTEX
  5
59F
330
575
100
AcDbEntity
  8
DIBUJOS
 62
     7
100
AcDbVertex
100
AcDb2dVertex
 10
67.16030805829372
 20
31.47502860415763
 30
0.0
  0
VERTEX
  5
5A0
330
575
100
AcDbEntity
  8
DIBUJOS
 62
     7
100
AcDbVertex
100
AcDb2dVertex
 10
67.15639287260842
 20
31.462392895496
 30
0.0
  0
SEQEND
  5
5A1
330
575
100
AcDbEntity
  8
DIBUJOS
 62
     7
  0
POLYLINE
  5
5A2
330
564
100
AcDbEntity
  8
DIBUJOS
 62
     7
100
AcDb2dPolyline
 66
     1
 10
0.0
 20
0.0
 30
0.0
  0
VERTEX
  5
5A3
330
5A2
100
AcDbEntity
  8
DIBUJOS
 62
     7
100
AcDbVertex
100
AcDb2dVertex
 10
62.33980245633801
 20
31.40792970112751
 30
0.0
  0
VERTEX
  5
5A4
330
5A2
100
AcDbEntity
  8
DIBUJOS
 62
     7
100
AcDbVertex
100
AcDb2dVertex
 10
62.46687335813225
 20
31.49264986376093
 30
0.0
  0
VERTEX
  5
5A5
330
5A2
100
AcDbEntity
  8
DIBUJOS
 62
     7
100
AcDbVertex
100
AcDb2dVertex
 10
62.55912614230319
 20
31.59428441598454
 30
0.0
  0
VERTEX
  5
5A6
330
5A2
100
AcDbEntity
  8
DIBUJOS
 62
     7
100
AcDbVertex
100
AcDb2dVertex
 10
62.76189660559574
 20
31.83876208769616
 30
0.0
  0
VERTEX
  5
5A7
330
5A2
100
AcDbEntity
  8
DIBUJOS
 62
     7
100
AcDbVertex
100
AcDb2dVertex
 10
62.91010201847092
 20
32.01170418837171
 30
0.0
  0
VERTEX
  5
5A8
330
5A2
100
AcDbEntity
  8
DIBUJOS
 62
     7
100
AcDbVertex
100
AcDb2dVertex
 10
63.09012564379852
 20
32.2067188752514
 30
0.0
  0
VERTEX
  5
5A9
330
5A2
100
AcDbEntity
  8
DIBUJOS
 62
     7
100
AcDbVertex
100
AcDb2dVertex
 10
63.37561173345245
 20
32.42311882311576
 30
0.0
  0
VERTEX
  5
5AA
330
5A2
100
AcDbEntity
  8
DIBUJOS
 62
     7
100
AcDbVertex
100
AcDb2dVertex
 10
63.41781072525498
 20
32.45343116829381
 30
0.0
  0
VERTEX
  5
5AB
330
5A2
100
AcDbEntity
  8
DIBUJOS
 62
     7
100
AcDbVertex
100
AcDb2dVertex
 10
63.70188155019967
 20
32.61095568477413
 30
0.0
  0
VERTEX
  5
5AC
330
5A2
100
AcDbEntity
  8
DIBUJOS
 62
     7
100
AcDbVertex
100
AcDb2dVertex
 10
63.79264578207587
 20
32.65876224840079
 30
0.0
  0
VERTEX
  5
5AD
330
5A2
100
AcDbEntity
  8
DIBUJOS
 62
     7
100
AcDbVertex
100
AcDb2dVertex
 10
64.20996809520284
 20
32.78520402911357
 30
0.0
  0
VERTEX
  5
5AE
330
5A2
100
AcDbEntity
  8
DIBUJOS
 62
     7
100
AcDbVertex
100
AcDb2dVertex
 10
64.59077201871986
 20
32.83001698194902
 30
0.0
  0
VERTEX
  5
5AF
330
5A2
100
AcDbEntity
  8
DIBUJOS
 62
     7
100
AcDbVertex
100
AcDb2dVertex
 10
64.67573350242745
 20
32.82669436714232
 30
0.0
  0
VERTEX
  5
5B0
330
5A2
100
AcDbEntity
  8
DIBUJOS
 62
     7
100
AcDbVertex
100
AcDb2dVertex
 10
64.73574789198894
 20
32.82123811243556
 30
0.0
  0
VERTEX
  5
5B1
330
5A2
100
AcDbEntity
  8
DIBUJOS
 62
     7
100
AcDbVertex
100
AcDb2dVertex
 10
65.0450622186488
 20
32.78998435972991
 30
0.0
  0
VERTEX
  5
5B2
330
5A2
100
AcDbEntity
  8
DIBUJOS
 62
     7
100
AcDbVertex
100
AcDb2dVertex
 10
65.07538536435386
 20
32.78374142710584
 30
0.0
  0
VERTEX
  5
5B3
330
5A2
100
AcDbEntity
  8
DIBUJOS
 62
     7
100
AcDbVertex
100
AcDb2dVertex
 10
65.46756026393383
 20
32.66481299056088
 30
0.0
  0
VERTEX
  5
5B4
330
5A2
100
AcDbEntity
  8
DIBUJOS
 62
     7
100
AcDbVertex
100
AcDb2dVertex
 10
65.55832449581003
 20
32.61700642693357
 30
0.0
  0
VERTEX
  5
5B5
330
5A2
100
AcDbEntity
  8
DIBUJOS
 62
     7
100
AcDbVertex
100
AcDb2dVertex
 10
65.88677339676993
 20
32.43812596665838
 30
0.0
  0
VERTEX
  5
5B6
330
5A2
100
AcDbEntity
  8
DIBUJOS
 62
     7
100
AcDbVertex
100
AcDb2dVertex
 10
65.93518066138095
 20
32.40181825623466
 30
0.0
  0
VERTEX
  5
5B7
330
5A2
100
AcDbEntity
  8
DIBUJOS
 62
     7
100
AcDbVertex
100
AcDb2dVertex
 10
66.20033514617045
 20
32.19461576219898
 30
0.0
  0
VERTEX
  5
5B8
330
5A2
100
AcDbEntity
  8
DIBUJOS
 62
     7
100
AcDbVertex
100
AcDb2dVertex
 10
66.39246099480395
 20
31.9874979622675
 30
0.0
  0
VERTEX
  5
5B9
330
5A2
100
AcDbEntity
  8
DIBUJOS
 62
     7
100
AcDbVertex
100
AcDb2dVertex
 10
66.57697307759717
 20
31.77219578027524
 30
0.0
  0
VERTEX
  5
5BA
330
5A2
100
AcDbEntity
  8
DIBUJOS
 62
     7
100
AcDbVertex
100
AcDb2dVertex
 10
66.78123046457122
 20
31.52895757418466
 30
0.0
  0
VERTEX
  5
5BB
330
5A2
100
AcDbEntity
  8
DIBUJOS
 62
     7
100
AcDbVertex
100
AcDb2dVertex
 10
66.85291223776409
 20
31.47309855585064
 30
0.0
  0
VERTEX
  5
5BC
330
5A2
100
AcDbEntity
  8
DIBUJOS
 62
     7
100
AcDbVertex
100
AcDb2dVertex
 10
66.95065833363064
 20
31.41398044328759
 30
0.0
  0
SEQEND
  5
5BD
330
5A2
100
AcDbEntity
  8
DIBUJOS
 62
     7
  0
POLYLINE
  5
5BE
330
564
100
AcDbEntity
  8
DIBUJOS
 62
     7
100
AcDb2dPolyline
 66
     1
 10
0.0
 20
0.0
 30
0.0
  0
VERTEX
  5
5BF
330
5BE
100
AcDbEntity
  8
DIBUJOS
 62
     7
100
AcDbVertex
100
AcDb2dVertex
 10
66.95065833363064
 20
31.41398044328759
 30
0.0
  0
VERTEX
  5
5C0
330
5BE
100
AcDbEntity
  8
DIBUJOS
 62
     7
100
AcDbVertex
100
AcDb2dVertex
 10
66.95671025959037
 20
31.42003281417993
 30
0.0
  0
VERTEX
  5
5C1
330
5BE
100
AcDbEntity
  8
DIBUJOS
 62
     7
100
AcDbVertex
100
AcDb2dVertex
 10
67.01116782154821
 20
31.40187733023516
 30
0.0
  0
VERTEX
  5
5C2
330
5BE
100
AcDbEntity
  8
DIBUJOS
 62
     7
100
AcDbVertex
100
AcDb2dVertex
 10
67.0716789380787
 20
31.40187733023516
 30
0.0
  0
VERTEX
  5
5C3
330
5BE
100
AcDbEntity
  8
DIBUJOS
 62
     7
100
AcDbVertex
100
AcDb2dVertex
 10
67.16849509591464
 20
31.44423741155123
 30
0.0
  0
VERTEX
  5
5C4
330
5BE
100
AcDbEntity
  8
DIBUJOS
 62
     7
100
AcDbVertex
100
AcDb2dVertex
 10
67.19269791391386
 20
31.46844363765672
 30
0.0
  0
VERTEX
  5
5C5
330
5BE
100
AcDbEntity
  8
DIBUJOS
 62
     7
100
AcDbVertex
100
AcDb2dVertex
 10
67.23970945717186
 20
31.53593995147681
 30
0.0
  0
VERTEX
  5
5C6
330
5BE
100
AcDbEntity
  8
DIBUJOS
 62
     7
100
AcDbVertex
100
AcDb2dVertex
 10
67.2423168666071
 20
31.54045642738759
 30
0.0
  0
VERTEX
  5
5C7
330
5BE
100
AcDbEntity
  8
DIBUJOS
 62
     7
100
AcDbVertex
100
AcDb2dVertex
 10
67.28164787089226
 20
31.6263867384529
 30
0.0
  0
VERTEX
  5
5C8
330
5BE
100
AcDbEntity
  8
DIBUJOS
 62
     7
100
AcDbVertex
100
AcDb2dVertex
 10
67.28527804930047
 20
31.63727970307344
 30
0.0
  0
VERTEX
  5
5C9
330
5BE
100
AcDbEntity
  8
DIBUJOS
 62
     7
100
AcDbVertex
100
AcDb2dVertex
 10
67.31371851836161
 20
31.74075798076822
 30
0.0
  0
VERTEX
  5
5CA
330
5BE
100
AcDbEntity
  8
DIBUJOS
 62
     7
100
AcDbVertex
100
AcDb2dVertex
 10
67.31371851836161
 20
31.93440453213927
 30
0.0
  0
VERTEX
  5
5CB
330
5BE
100
AcDbEntity
  8
DIBUJOS
 62
     7
100
AcDbVertex
100
AcDb2dVertex
 10
67.29323708109908
 20
32.03681436115175
 30
0.0
  0
VERTEX
  5
5CC
330
5BE
100
AcDbEntity
  8
DIBUJOS
 62
     7
100
AcDbVertex
100
AcDb2dVertex
 10
67.26107523130125
 20
32.14680919857232
 30
0.0
  0
VERTEX
  5
5CD
330
5BE
100
AcDbEntity
  8
DIBUJOS
 62
     7
100
AcDbVertex
100
AcDb2dVertex
 10
67.18543755709774
 20
32.33924560151149
 30
0.0
  0
VERTEX
  5
5CE
330
5BE
100
AcDbEntity
  8
DIBUJOS
 62
     7
100
AcDbVertex
100
AcDb2dVertex
 10
67.12129626215936
 20
32.4796391069453
 30
0.0
  0
VERTEX
  5
5CF
330
5BE
100
AcDbEntity
  8
DIBUJOS
 62
     7
100
AcDbVertex
100
AcDb2dVertex
 10
66.99761450404678
 20
32.6836932605782
 30
0.0
  0
VERTEX
  5
5D0
330
5BE
100
AcDbEntity
  8
DIBUJOS
 62
     7
100
AcDbVertex
100
AcDb2dVertex
 10
66.92790660982696
 20
32.77664340978871
 30
0.0
  0
VERTEX
  5
5D1
330
5BE
100
AcDbEntity
  8
DIBUJOS
 62
     7
100
AcDbVertex
100
AcDb2dVertex
 10
66.87654504120816
 20
32.84683690504011
 30
0.0
  0
VERTEX
  5
5D2
330
5BE
100
AcDbEntity
  8
DIBUJOS
 62
     7
100
AcDbVertex
100
AcDb2dVertex
 10
66.65415956277698
 20
33.090229840741
 30
0.0
  0
VERTEX
  5
5D3
330
5BE
100
AcDbEntity
  8
DIBUJOS
 62
     7
100
AcDbVertex
100
AcDb2dVertex
 10
66.40478796670571
 20
33.30053344192896
 30
0.0
  0
VERTEX
  5
5D4
330
5BE
100
AcDbEntity
  8
DIBUJOS
 62
     7
100
AcDbVertex
100
AcDb2dVertex
 10
66.34649013526095
 20
33.3397337817138
 30
0.0
  0
VERTEX
  5
5D5
330
5BE
100
AcDbEntity
  8
DIBUJOS
 62
     7
100
AcDbVertex
100
AcDb2dVertex
 10
66.01214891241689
 20
33.54892821589995
 30
0.0
  0
VERTEX
  5
5D6
330
5BE
100
AcDbEntity
  8
DIBUJOS
 62
     7
100
AcDbVertex
100
AcDb2dVertex
 10
65.96495170727451
 20
33.56950236797623
 30
0.0
  0
VERTEX
  5
5D7
330
5BE
100
AcDbEntity
  8
DIBUJOS
 62
     7
100
AcDbVertex
100
AcDb2dVertex
 10
65.6068050480072
 20
33.72954490528524
 30
0.0
  0
VERTEX
  5
5D8
330
5BE
100
AcDbEntity
  8
DIBUJOS
 62
     7
100
AcDbVertex
100
AcDb2dVertex
 10
65.4263416971657
 20
33.77617715260079
 30
0.0
  0
VERTEX
  5
5D9
330
5BE
100
AcDbEntity
  8
DIBUJOS
 62
     7
100
AcDbVertex
100
AcDb2dVertex
 10
65.14716811155363
 20
33.85005321259645
 30
0.0
  0
VERTEX
  5
5DA
330
5BE
100
AcDbEntity
  8
DIBUJOS
 62
     7
100
AcDbVertex
100
AcDb2dVertex
 10
65.09935040485298
 20
33.85536613882071
 30
0.0
  0
VERTEX
  5
5DB
330
5BE
100
AcDbEntity
  8
DIBUJOS
 62
     7
100
AcDbVertex
100
AcDb2dVertex
 10
64.68758817655548
 20
33.89506975702497
 30
0.0
  0
VERTEX
  5
5DC
330
5BE
100
AcDbEntity
  8
DIBUJOS
 62
     7
100
AcDbVertex
100
AcDb2dVertex
 10
64.58472009276014
 20
33.89506975702497
 30
0.0
  0
VERTEX
  5
5DD
330
5BE
100
AcDbEntity
  8
DIBUJOS
 62
     7
100
AcDbVertex
100
AcDb2dVertex
 10
64.39135812684947
 20
33.8742203491147
 30
0.0
  0
VERTEX
  5
5DE
330
5BE
100
AcDbEntity
  8
DIBUJOS
 62
     7
100
AcDbVertex
100
AcDb2dVertex
 10
64.13114485394472
 20
33.84998154835488
 30
0.0
  0
VERTEX
  5
5DF
330
5BE
100
AcDbEntity
  8
DIBUJOS
 62
     7
100
AcDbVertex
100
AcDb2dVertex
 10
63.74416685849194
 20
33.74770038923
 30
0.0
  0
VERTEX
  5
5E0
330
5BE
100
AcDbEntity
  8
DIBUJOS
 62
     7
100
AcDbVertex
100
AcDb2dVertex
 10
63.65340099800282
 20
33.72349416312515
 30
0.0
  0
VERTEX
  5
5E1
330
5BE
100
AcDbEntity
  8
DIBUJOS
 62
     7
100
AcDbVertex
100
AcDb2dVertex
 10
63.22385268698068
 20
33.5247219897951
 30
0.0
  0
VERTEX
  5
5E2
330
5BE
100
AcDbEntity
  8
DIBUJOS
 62
     7
100
AcDbVertex
100
AcDb2dVertex
 10
63.16180578837814
 20
33.48496950960871
 30
0.0
  0
VERTEX
  5
5E3
330
5BE
100
AcDbEntity
  8
DIBUJOS
 62
     7
100
AcDbVertex
100
AcDb2dVertex
 10
62.86755124625746
 20
33.29447781357079
 30
0.0
  0
VERTEX
  5
5E4
330
5BE
100
AcDbEntity
  8
DIBUJOS
 62
     7
100
AcDbVertex
100
AcDb2dVertex
 10
62.69552899666736
 20
33.14618658304056
 30
0.0
  0
VERTEX
  5
5E5
330
5BE
100
AcDbEntity
  8
DIBUJOS
 62
     7
100
AcDbVertex
100
AcDb2dVertex
 10
62.58639075276841
 20
33.04920369154569
 30
0.0
  0
VERTEX
  5
5E6
330
5BE
100
AcDbEntity
  8
DIBUJOS
 62
     7
100
AcDbVertex
100
AcDb2dVertex
 10
62.41997256055894
 20
32.86494352700212
 30
0.0
  0
VERTEX
  5
5E7
330
5BE
100
AcDbEntity
  8
DIBUJOS
 62
     7
100
AcDbVertex
100
AcDb2dVertex
 10
62.29284628592188
 20
32.69579637363062
 30
0.0
  0
VERTEX
  5
5E8
330
5BE
100
AcDbEntity
  8
DIBUJOS
 62
     7
100
AcDbVertex
100
AcDb2dVertex
 10
62.25654124461643
 20
32.64738555015383
 30
0.0
  0
VERTEX
  5
5E9
330
5BE
100
AcDbEntity
  8
DIBUJOS
 62
     7
100
AcDbVertex
100
AcDb2dVertex
 10
62.15343212609516
 20
32.46632584546163
 30
0.0
  0
VERTEX
  5
5EA
330
5BE
100
AcDbEntity
  8
DIBUJOS
 62
     7
100
AcDbVertex
100
AcDb2dVertex
 10
62.08687071221818
 20
32.32109174629963
 30
0.0
  0
VERTEX
  5
5EB
330
5BE
100
AcDbEntity
  8
DIBUJOS
 62
     7
100
AcDbVertex
100
AcDb2dVertex
 10
62.0169641272107
 20
32.14068679217132
 30
0.0
  0
VERTEX
  5
5EC
330
5BE
100
AcDbEntity
  8
DIBUJOS
 62
     7
100
AcDbVertex
100
AcDb2dVertex
 10
61.98046690956988
 20
32.01353814144607
 30
0.0
  0
VERTEX
  5
5ED
330
5BE
100
AcDbEntity
  8
DIBUJOS
 62
     7
100
AcDbVertex
100
AcDb2dVertex
 10
61.95858975095432
 20
31.83153051429398
 30
0.0
  0
VERTEX
  5
5EE
330
5BE
100
AcDbEntity
  8
DIBUJOS
 62
     7
100
AcDbVertex
100
AcDb2dVertex
 10
61.95858975095432
 20
31.74075798076822
 30
0.0
  0
VERTEX
  5
5EF
330
5BE
100
AcDbEntity
  8
DIBUJOS
 62
     7
100
AcDbVertex
100
AcDb2dVertex
 10
61.99098123518737
 20
31.62631507421197
 30
0.0
  0
VERTEX
  5
5F0
330
5BE
100
AcDbEntity
  8
DIBUJOS
 62
     7
100
AcDbVertex
100
AcDb2dVertex
 10
61.99308051736227
 20
31.61912421912867
 30
0.0
  0
VERTEX
  5
5F1
330
5BE
100
AcDbEntity
  8
DIBUJOS
 62
     7
100
AcDbVertex
100
AcDb2dVertex
 10
62.02394110536233
 20
31.54650716954767
 30
0.0
  0
VERTEX
  5
5F2
330
5BE
100
AcDbEntity
  8
DIBUJOS
 62
     7
100
AcDbVertex
100
AcDb2dVertex
 10
62.07961035540238
 20
31.462392895496
 30
0.0
  0
VERTEX
  5
5F3
330
5BE
100
AcDbEntity
  8
DIBUJOS
 62
     7
100
AcDbVertex
100
AcDb2dVertex
 10
62.11591539670751
 20
31.42608355633937
 30
0.0
  0
VERTEX
  5
5F4
330
5BE
100
AcDbEntity
  8
DIBUJOS
 62
     7
100
AcDbVertex
100
AcDb2dVertex
 10
62.20668125719695
 20
31.38977584591565
 30
0.0
  0
VERTEX
  5
5F5
330
5BE
100
AcDbEntity
  8
DIBUJOS
 62
     7
100
AcDbVertex
100
AcDb2dVertex
 10
62.26113881915479
 20
31.38977584591565
 30
0.0
  0
VERTEX
  5
5F6
330
5BE
100
AcDbEntity
  8
DIBUJOS
 62
     7
100
AcDbVertex
100
AcDb2dVertex
 10
62.33375215899151
 20
31.41398044328759
 30
0.0
  0
VERTEX
  5
5F7
330
5BE
100
AcDbEntity
  8
DIBUJOS
 62
     7
100
AcDbVertex
100
AcDb2dVertex
 10
62.33980245633801
 20
31.40792970112751
 30
0.0
  0
SEQEND
  5
5F8
330
5BE
100
AcDbEntity
  8
DIBUJOS
 62
     7
  0
POLYLINE
  5
5F9
330
564
100
AcDbEntity
  8
DIBUJOS
 62
     7
100
AcDb2dPolyline
 66
     1
 10
0.0
 20
0.0
 30
0.0
  0
VERTEX
  5
5FA
330
5F9
100
AcDbEntity
  8
DIBUJOS
 62
     7
100
AcDbVertex
100
AcDb2dVertex
 10
65.8614794080513
 20
29.74378504545879
 30
0.0
  0
VERTEX
  5
5FB
330
5F9
100
AcDbEntity
  8
DIBUJOS
 62
     7
100
AcDbVertex
100
AcDb2dVertex
 10
65.79491962278755
 20
29.79824661109502
 30
0.0
  0
SEQEND
  5
5FC
330
5F9
100
AcDbEntity
  8
DIBUJOS
 62
     7
  0
POLYLINE
  5
5FD
330
564
100
AcDbEntity
  8
DIBUJOS
 62
     7
100
AcDb2dPolyline
 66
     1
 10
0.0
 20
0.0
 30
0.0
  0
VERTEX
  5
5FE
330
5FD
100
AcDbEntity
  8
DIBUJOS
 62
     7
100
AcDbVertex
100
AcDb2dVertex
 10
63.52579753975265
 20
29.64090939888059
 30
0.0
  0
VERTEX
  5
5FF
330
5FD
100
AcDbEntity
  8
DIBUJOS
 62
     7
100
AcDbVertex
100
AcDb2dVertex
 10
63.53184783709914
 20
29.64090939888059
 30
0.0
  0
VERTEX
  5
600
330
5FD
100
AcDbEntity
  8
DIBUJOS
 62
     7
100
AcDbVertex
100
AcDb2dVertex
 10
63.54545164160436
 20
29.65772932197169
 30
0.0
  0
VERTEX
  5
601
330
5FD
100
AcDbEntity
  8
DIBUJOS
 62
     7
100
AcDbVertex
100
AcDb2dVertex
 10
63.59235732501672
 20
29.70747570630152
 30
0.0
  0
SEQEND
  5
602
330
5FD
100
AcDbEntity
  8
DIBUJOS
 62
     7
  0
POLYLINE
  5
603
330
564
100
AcDbEntity
  8
DIBUJOS
 62
     7
100
AcDb2dPolyline
 66
     1
 10
0.0
 20
0.0
 30
0.0
  0
VERTEX
  5
604
330
603
100
AcDbEntity
  8
DIBUJOS
 62
     7
100
AcDbVertex
100
AcDb2dVertex
 10
66.18218262551773
 20
29.44121210534946
 30
0.0
  0
VERTEX
  5
605
330
603
100
AcDbEntity
  8
DIBUJOS
 62
     7
100
AcDbVertex
100
AcDb2dVertex
 10
66.17613232817124
 20
29.44726447624181
 30
0.0
  0
SEQEND
  5
606
330
603
100
AcDbEntity
  8
DIBUJOS
 62
     7
  0
POLYLINE
  5
607
330
564
100
AcDbEntity
  8
DIBUJOS
 62
     7
100
AcDb2dPolyline
 66
     1
 10
0.0
 20
0.0
 30
0.0
  0
VERTEX
  5
608
330
607
100
AcDbEntity
  8
DIBUJOS
 62
     7
100
AcDbVertex
100
AcDb2dVertex
 10
62.33980245633801
 20
31.40792970112751
 30
0.0
  0
VERTEX
  5
609
330
607
100
AcDbEntity
  8
DIBUJOS
 62
     7
100
AcDbVertex
100
AcDb2dVertex
 10
62.3458527536845
 20
31.40187733023516
 30
0.0
  0
VERTEX
  5
60A
330
607
100
AcDbEntity
  8
DIBUJOS
 62
     7
100
AcDbVertex
100
AcDb2dVertex
 10
62.32983697330588
 20
31.34082916936448
 30
0.0
  0
VERTEX
  5
60B
330
607
100
AcDbEntity
  8
DIBUJOS
 62
     7
100
AcDbVertex
100
AcDb2dVertex
 10
62.32556512137059
 20
31.32374376283555
 30
0.0
  0
VERTEX
  5
60C
330
607
100
AcDbEntity
  8
DIBUJOS
 62
     7
100
AcDbVertex
100
AcDb2dVertex
 10
62.30027113265228
 20
31.2201579887797
 30
0.0
  0
VERTEX
  5
60D
330
607
100
AcDbEntity
  8
DIBUJOS
 62
     7
100
AcDbVertex
100
AcDb2dVertex
 10
62.27324104246102
 20
30.74227151311318
 30
0.0
  0
VERTEX
  5
60E
330
607
100
AcDbEntity
  8
DIBUJOS
 62
     7
100
AcDbVertex
100
AcDb2dVertex
 10
62.28788553068156
 20
30.65791455788313
 30
0.0
  0
VERTEX
  5
60F
330
607
100
AcDbEntity
  8
DIBUJOS
 62
     7
100
AcDbVertex
100
AcDb2dVertex
 10
62.30095515011793
 20
30.56641723828417
 30
0.0
  0
VERTEX
  5
610
330
607
100
AcDbEntity
  8
DIBUJOS
 62
     7
100
AcDbVertex
100
AcDb2dVertex
 10
62.34766865719491
 20
30.27086413632069
 30
0.0
  0
VERTEX
  5
611
330
607
100
AcDbEntity
  8
DIBUJOS
 62
     7
100
AcDbVertex
100
AcDb2dVertex
 10
62.36582117784731
 20
30.2224533128439
 30
0.0
  0
VERTEX
  5
612
330
607
100
AcDbEntity
  8
DIBUJOS
 62
     7
100
AcDbVertex
100
AcDb2dVertex
 10
62.50457574940364
 20
29.83548758538373
 30
0.0
  0
VERTEX
  5
613
330
607
100
AcDbEntity
  8
DIBUJOS
 62
     7
100
AcDbVertex
100
AcDb2dVertex
 10
62.52598712469679
 20
29.80336734685529
 30
0.0
  0
VERTEX
  5
614
330
607
100
AcDbEntity
  8
DIBUJOS
 62
     7
100
AcDbVertex
100
AcDb2dVertex
 10
62.74062040518223
 20
29.44230172755829
 30
0.0
  0
VERTEX
  5
615
330
607
100
AcDbEntity
  8
DIBUJOS
 62
     7
100
AcDbVertex
100
AcDb2dVertex
 10
62.774021629484
 20
29.39776240182456
 30
0.0
  0
VERTEX
  5
616
330
607
100
AcDbEntity
  8
DIBUJOS
 62
     7
100
AcDbVertex
100
AcDb2dVertex
 10
62.99936141192231
 20
29.09022834176398
 30
0.0
  0
VERTEX
  5
617
330
607
100
AcDbEntity
  8
DIBUJOS
 62
     7
100
AcDbVertex
100
AcDb2dVertex
 10
63.02356422992153
 20
29.06602374439268
 30
0.0
  0
VERTEX
  5
618
330
607
100
AcDbEntity
  8
DIBUJOS
 62
     7
100
AcDbVertex
100
AcDb2dVertex
 10
63.38755435268312
 20
28.84351604872222
 30
0.0
  0
VERTEX
  5
619
330
607
100
AcDbEntity
  8
DIBUJOS
 62
     7
100
AcDbVertex
100
AcDb2dVertex
 10
63.3920704965708
 20
28.84091007632417
 30
0.0
  0
VERTEX
  5
61A
330
607
100
AcDbEntity
  8
DIBUJOS
 62
     7
100
AcDbVertex
100
AcDb2dVertex
 10
63.79143572260657
 20
28.64726352495311
 30
0.0
  0
VERTEX
  5
61B
330
607
100
AcDbEntity
  8
DIBUJOS
 62
     7
100
AcDbVertex
100
AcDb2dVertex
 10
63.82290052603449
 20
28.63152996660567
 30
0.0
  0
VERTEX
  5
61C
330
607
100
AcDbEntity
  8
DIBUJOS
 62
     7
100
AcDbVertex
100
AcDb2dVertex
 10
64.25850076301637
 20
28.5174779559084
 30
0.0
  0
VERTEX
  5
61D
330
607
100
AcDbEntity
  8
DIBUJOS
 62
     7
100
AcDbVertex
100
AcDb2dVertex
 10
64.3731030035766
 20
28.50607682667101
 30
0.0
  0
VERTEX
  5
61E
330
607
100
AcDbEntity
  8
DIBUJOS
 62
     7
100
AcDbVertex
100
AcDb2dVertex
 10
64.76625018512546
 20
28.48508571901114
 30
0.0
  0
VERTEX
  5
61F
330
607
100
AcDbEntity
  8
DIBUJOS
 62
     7
100
AcDbVertex
100
AcDb2dVertex
 10
65.19640434018902
 20
28.54951512906683
 30
0.0
  0
VERTEX
  5
620
330
607
100
AcDbEntity
  8
DIBUJOS
 62
     7
100
AcDbVertex
100
AcDb2dVertex
 10
65.44456587679099
 20
28.63455615205184
 30
0.0
  0
VERTEX
  5
621
330
607
100
AcDbEntity
  8
DIBUJOS
 62
     7
100
AcDbVertex
100
AcDb2dVertex
 10
65.63093783564642
 20
28.69870053387608
 30
0.0
  0
VERTEX
  5
622
330
607
100
AcDbEntity
  8
DIBUJOS
 62
     7
100
AcDbVertex
100
AcDb2dVertex
 10
65.7761612580934
 20
28.78281643665937
 30
0.0
  0
VERTEX
  5
623
330
607
100
AcDbEntity
  8
DIBUJOS
 62
     7
100
AcDbVertex
100
AcDb2dVertex
 10
65.98915615388697
 20
28.90747638374573
 30
0.0
  0
VERTEX
  5
624
330
607
100
AcDbEntity
  8
DIBUJOS
 62
     7
100
AcDbVertex
100
AcDb2dVertex
 10
66.1046085304407
 20
28.98590312304005
 30
0.0
  0
VERTEX
  5
625
330
607
100
AcDbEntity
  8
DIBUJOS
 62
     7
100
AcDbVertex
100
AcDb2dVertex
 10
66.43027413176004
 20
29.2294116987659
 30
0.0
  0
VERTEX
  5
626
330
607
100
AcDbEntity
  8
DIBUJOS
 62
     7
100
AcDbVertex
100
AcDb2dVertex
 10
66.54403275077908
 20
29.41761176782765
 30
0.0
  0
VERTEX
  5
627
330
607
100
AcDbEntity
  8
DIBUJOS
 62
     7
100
AcDbVertex
100
AcDb2dVertex
 10
66.65881413877044
 20
29.6055316948554
 30
0.0
  0
VERTEX
  5
628
330
607
100
AcDbEntity
  8
DIBUJOS
 62
     7
100
AcDbVertex
100
AcDb2dVertex
 10
66.71951091718499
 20
29.72623545009642
 30
0.0
  0
VERTEX
  5
629
330
607
100
AcDbEntity
  8
DIBUJOS
 62
     7
100
AcDbVertex
100
AcDb2dVertex
 10
66.79212262840815
 20
29.87752029141786
 30
0.0
  0
VERTEX
  5
62A
330
607
100
AcDbEntity
  8
DIBUJOS
 62
     7
100
AcDbVertex
100
AcDb2dVertex
 10
66.87591151074629
 20
30.05899369422911
 30
0.0
  0
VERTEX
  5
62B
330
607
100
AcDbEntity
  8
DIBUJOS
 62
     7
100
AcDbVertex
100
AcDb2dVertex
 10
66.96489566859773
 20
30.40890900913165
 30
0.0
  0
VERTEX
  5
62C
330
607
100
AcDbEntity
  8
DIBUJOS
 62
     7
100
AcDbVertex
100
AcDb2dVertex
 10
66.98426802039819
 20
30.48838139485011
 30
0.0
  0
VERTEX
  5
62D
330
607
100
AcDbEntity
  8
DIBUJOS
 62
     7
100
AcDbVertex
100
AcDb2dVertex
 10
66.9896603580869
 20
30.54230384994614
 30
0.0
  0
VERTEX
  5
62E
330
607
100
AcDbEntity
  8
DIBUJOS
 62
     7
100
AcDbVertex
100
AcDb2dVertex
 10
67.01116782154821
 20
30.88145487011574
 30
0.0
  0
VERTEX
  5
62F
330
607
100
AcDbEntity
  8
DIBUJOS
 62
     7
100
AcDbVertex
100
AcDb2dVertex
 10
67.01116782154821
 20
30.99037963012111
 30
0.0
  0
VERTEX
  5
630
330
607
100
AcDbEntity
  8
DIBUJOS
 62
     7
100
AcDbVertex
100
AcDb2dVertex
 10
66.97241008904403
 20
31.23808056394098
 30
0.0
  0
VERTEX
  5
631
330
607
100
AcDbEntity
  8
DIBUJOS
 62
     7
100
AcDbVertex
100
AcDb2dVertex
 10
66.95065833363064
 20
31.41398044328759
 30
0.0
  0
SEQEND
  5
632
330
607
100
AcDbEntity
  8
DIBUJOS
 62
     7
  0
ENDBLK
  5
567
330
564
100
AcDbEntity
  8
0
100
AcDbBlockEnd
  0
ENDSEC
  0
SECTION
  2
ENTITIES
  0
MTEXT
  5
41
330
1F
100
AcDbEntity
  8
REFERENCIAS
 62
   255
100
AcDbMText
 10
61.49112712594395
 20
54.85563098807646
 30
0.0
 40
1.49859999962535
 41
0.0
 71
     7
 72
     1
  1
\fMyriad Pro|b0|i0|c0|p34;\W1;CHERRY_2334__ARMCHAIR
  0
MTEXT
  5
43
330
1F
100
AcDbEntity
  8
M_U_00C1RGENES
 62
   255
100
AcDbMText
 10
90.14127864703391
 20
23.7555119243149
 30
0.0
 40
1.748366666229575
 41
0.0
 71
     7
 72
     1
  1
\fMyriad Pro|b0|i0|c0|p34;\W1;400
  0
MTEXT
  5
44
330
1F
100
AcDbEntity
  8
M_U_00C1RGENES
 62
   255
100
AcDbMText
 10
84.21176331851954
 20
20.50332059082737
 30
0.0
 40
1.748366666229575
 41
0.0
 71
     7
 72
     1
  1
\fMyriad Pro|b0|i0|c0|p34;\W1;400
  0
POLYLINE
  5
45
330
1F
100
AcDbEntity
  8
M_U_00C1RGENES
 62
   255
100
AcDb2dPolyline
 66
     1
 10
0.0
 20
0.0
 30
0.0
  0
VERTEX
  5
46
330
45
100
AcDbEntity
  8
M_U_00C1RGENES
 62
   255
100
AcDbVertex
100
AcDb2dVertex
 10
84.41666477502157
 20
24.76314475783758
 30
0.0
  0
VERTEX
  5
47
330
45
100
AcDbEntity
  8
M_U_00C1RGENES
 62
   255
100
AcDbVertex
100
AcDb2dVertex
 10
94.99999810570907
 20
19.74726776251925
 30
0.0
  0
SEQEND
  5
48
330
45
100
AcDbEntity
  8
M_U_00C1RGENES
 62
   255
  0
POLYLINE
  5
49
330
1F
100
AcDbEntity
  8
M_U_00C1RGENES
 62
   254
100
AcDb2dPolyline
 66
     1
 10
0.0
 20
0.0
 30
0.0
  0
VERTEX
  5
4A
330
49
100
AcDbEntity
  8
M_U_00C1RGENES
 62
   254
100
AcDbVertex
100
AcDb2dVertex
 10
54.99999767595828
 20
20.88258920325216
 30
0.0
  0
VERTEX
  5
4B
330
49
100
AcDbEntity
  8
M_U_00C1RGENES
 62
   254
100
AcDbVertex
100
AcDb2dVertex
 10
54.99999767595828
 20
19.74726776251925
 30
0.0
  0
SEQEND
  5
4C
330
49
100
AcDbEntity
  8
M_U_00C1RGENES
 62
   254
  0
POLYLINE
  5
4D
330
1F
100
AcDbEntity
  8
M_U_00C1RGENES
 62
   255
100
AcDb2dPolyline
 66
     1
 10
0.0
 20
0.0
 30
0.0
  0
VERTEX
  5
4E
330
4D
100
AcDbEntity
  8
M_U_00C1RGENES
 62
   255
100
AcDbVertex
100
AcDb2dVertex
 10
94.99999797321169
 20
59.74726768656564
 30
0.0
  0
VERTEX
  5
4F
330
4D
100
AcDbEntity
  8
M_U_00C1RGENES
 62
   255
100
AcDbVertex
100
AcDb2dVertex
 10
93.86467653247878
 20
59.74726768651462
 30
0.0
  0
SEQEND
  5
50
330
4D
100
AcDbEntity
  8
M_U_00C1RGENES
 62
   255
  0
INSERT
  5
53
330
1F
100
AcDbEntity
  8
DIBUJOS
100
AcDbBlockReference
  2
BLOCK_2
 10
0.0
 20
0.0
 30
0.0
  0
INSERT
  5
324
330
1F
100
AcDbEntity
  8
DIBUJOS
100
AcDbBlockReference
  2
BLOCK_3
 10
0.0
 20
0.0
 30
0.0
  0
INSERT
  5
565
330
1F
100
AcDbEntity
  8
DIBUJOS
100
AcDbBlockReference
  2
BLOCK_4
 10
0.0
 20
0.0
 30
0.0
  0
POLYLINE
  5
634
330
1F
100
AcDbEntity
  8
COTAS_LINEA
 62
     7
100
AcDb2dPolyline
 66
     1
 10
0.0
 20
0.0
 30
0.0
  0
VERTEX
  5
635
330
634
100
AcDbEntity
  8
COTAS_LINEA
 62
     7
100
AcDbVertex
100
AcDb2dVertex
 10
85.03985403249419
 20
45.949318484247
 30
0.0
  0
VERTEX
  5
636
330
634
100
AcDbEntity
  8
COTAS_LINEA
 62
     7
100
AcDbVertex
100
AcDb2dVertex
 10
85.03985403380068
 20
42.33143791450131
 30
0.0
  0
SEQEND
  5
637
330
634
100
AcDbEntity
  8
COTAS_LINEA
 62
     7
  0
POLYLINE
  5
638
330
1F
100
AcDbEntity
  8
COTAS_LINEA
 62
     7
100
AcDb2dPolyline
 66
     1
 10
0.0
 20
0.0
 30
0.0
  0
VERTEX
  5
639
330
638
100
AcDbEntity
  8
COTAS_LINEA
 62
     7
100
AcDbVertex
100
AcDb2dVertex
 10
69.50282335947695
 20
49.48941345207596
 30
0.0
  0
VERTEX
  5
63A
330
638
100
AcDbEntity
  8
COTAS_LINEA
 62
     7
100
AcDbVertex
100
AcDb2dVertex
 10
69.50282336078345
 20
42.33145573149524
 30
0.0
  0
SEQEND
  5
63B
330
638
100
AcDbEntity
  8
COTAS_LINEA
 62
     7
  0
POLYLINE
  5
63C
330
1F
100
AcDbEntity
  8
COTAS_LINEA
 62
     7
100
AcDb2dPolyline
 66
     1
 10
0.0
 20
0.0
 30
0.0
  0
VERTEX
  5
63D
330
63C
100
AcDbEntity
  8
COTAS_LINEA
 62
     7
100
AcDbVertex
100
AcDb2dVertex
 10
75.74015951016409
 20
38.66119575631178
 30
0.0
  0
VERTEX
  5
63E
330
63C
100
AcDbEntity
  8
COTAS_LINEA
 62
     7
100
AcDbVertex
100
AcDb2dVertex
 10
83.73114551263471
 20
38.66119575631178
 30
0.0
  0
SEQEND
  5
63F
330
63C
100
AcDbEntity
  8
COTAS_LINEA
 62
     7
  0
POLYLINE
  5
640
330
1F
100
AcDbEntity
  8
COTAS_LINEA
 62
     7
100
AcDb2dPolyline
 66
     1
 10
0.0
 20
0.0
 30
0.0
  0
VERTEX
  5
641
330
640
100
AcDbEntity
  8
COTAS_LINEA
 62
     7
100
AcDbVertex
100
AcDb2dVertex
 10
61.60456795805398
 20
38.66119575631178
 30
0.0
  0
VERTEX
  5
642
330
640
100
AcDbEntity
  8
COTAS_LINEA
 62
     7
100
AcDbVertex
100
AcDb2dVertex
 10
67.80351820943932
 20
38.66119575631178
 30
0.0
  0
SEQEND
  5
643
330
640
100
AcDbEntity
  8
COTAS_LINEA
 62
     7
  0
MTEXT
  5
645
330
1F
100
AcDbEntity
  8
COTAS_N_U_00DAMERO
 62
     7
100
AcDbMText
 10
85.79840742721305
 20
43.35631136340137
 30
0.0
 40
1.998533025814148
 41
0.0
 71
     7
 72
     1
  1
\fMyriad Pro|b0|i0|c0|p34;\W1;47
  0
MTEXT
  5
646
330
1F
100
AcDbEntity
  8
COTAS_N_U_00DAMERO
 62
     7
100
AcDbMText
 10
70.26136860680397
 20
44.06186691878055
 30
0.0
 40
1.998533025814148
 41
0.0
 71
     7
 72
     1
  1
\fMyriad Pro|b0|i0|c0|p34;\W1;71
  0
MTEXT
  5
647
330
1F
100
AcDbEntity
  8
COTAS_N_U_00DAMERO
 62
     7
100
AcDbMText
 10
78.15890818867155
 20
39.21634011877664
 30
0.0
 40
1.998533025814148
 41
0.0
 71
     7
 72
     1
  1
\fMyriad Pro|b0|i0|c0|p34;\W1;55
  0
MTEXT
  5
648
330
1F
100
AcDbEntity
  8
COTAS_N_U_00DAMERO
 62
     7
100
AcDbMText
 10
63.19841417216156
 20
39.21616786400239
 30
0.0
 40
1.998533025814148
 41
0.0
 71
     7
 72
     1
  1
\fMyriad Pro|b0|i0|c0|p34;\W1;53
  0
ENDSEC
  0
SECTION
  2
OBJECTS
  0
DICTIONARY
  5
C
330
0
100
AcDbDictionary
  3
ACAD_GROUP
350
D
  3
ACAD_LAYOUT
350
1A
  3
ACAD_MATERIAL
350
3B
  3
ACAD_MLEADERSTYLE
350
66B
  3
ACAD_MLINESTYLE
350
17
  3
ACAD_PLOTSETTINGS
350
19
  3
ACAD_VISUALSTYLE
350
2A
  3
ACDBHEADERROUNDTRIPXREC
350
649
  3
ACDBVARIABLEDICTIONARY
350
669
  0
DICTIONARY
  5
D
102
{ACAD_REACTORS
330
C
102
}
330
C
100
AcDbDictionary
  0
DICTIONARY
  5
1A
102
{ACAD_REACTORS
330
C
102
}
330
C
100
AcDbDictionary
  0
DICTIONARY
  5
3B
102
{ACAD_REACTORS
330
C
102
}
330
C
100
AcDbDictionary
  3
BYBLOCK
350
3D
  3
BYLAYER
350
3C
  3
GLOBAL
350
3E
  0
DICTIONARY
  5
66B
102
{ACAD_REACTORS
330
C
102
}
330
C
100
AcDbDictionary
  0
DICTIONARY
  5
17
102
{ACAD_REACTORS
330
C
102
}
330
C
100
AcDbDictionary
  3
STANDARD
350
18
  0
DICTIONARY
  5
19
102
{ACAD_REACTORS
330
C
102
}
330
C
100
AcDbDictionary
  0
DICTIONARY
  5
2A
102
{ACAD_REACTORS
330
C
102
}
330
C
100
AcDbDictionary
  3
2DWIREFRAME
350
2F
  3
3D_HIDDEN
350
31
  3
3DWIREFRAME
350
30
  3
BASIC
350
32
  3
BRIGHTEN
350
36
  3
COLORCHANGE
350
3A
  3
CONCEPTUAL
350
34
  3
DIM
350
35
  3
FACEPATTERN
350
39
  3
FLAT
350
2B
  3
FLATWITHEDGES
350
2C
  3
GOURAUD
350
2D
  3
GOURAUDWITHEDGES
350
2E
  3
LINEPATTERN
350
38
  3
REALISTIC
350
33
  3
THICKEN
350
37
  0
DICTIONARY
  5
649
102
{ACAD_REACTORS
330
C
102
}
330
C
100
AcDbDictionary
  3
CEPSNTYPE
350
652
  3
DIMSTYLEDATA
350
668
  3
FINGERPRINTGUID
350
653
  3
HYPERLINKBASE
350
64C
  3
INSUNITS
350
651
  3
LAYOUTDICT
350
64E
  3
LWETCUNION
350
650
  3
PLOTSETDICT
350
64F
  3
PSVPSCALE
350
655
  3
PUCSBASE
350
658
  3
PUCSORGBACK
350
65E
  3
PUCSORGBOTTOM
350
65A
  3
PUCSORGFRONT
350
65D
  3
PUCSORGLEFT
350
65B
  3
PUCSORGRIGHT
350
65C
  3
PUCSORGTOP
350
659
  3
PUCSORTHOREF
350
656
  3
PUCSORTHOVIEW
350
657
  3
STYLESHEET
350
64D
  3
TSTACKALIGN
350
64A
  3
TSTACKSIZE
350
64B
  3
UCSBASE
350
661
  3
UCSORGBACK
350
667
  3
UCSORGBOTTOM
350
663
  3
UCSORGFRONT
350
666
  3
UCSORGLEFT
350
664
  3
UCSORGRIGHT
350
665
  3
UCSORGTOP
350
662
  3
UCSORTHOREF
350
65F
  3
UCSORTHOVIEW
350
660
  3
VERSIONGUID
350
654
  0
DICTIONARY
  5
669
102
{ACAD_REACTORS
330
C
102
}
330
C
100
AcDbDictionary
  3
DIMASSOC
350
66C
  3
HIDETEXT
350
66D
  0
MATERIAL
  5
3D
102
{ACAD_REACTORS
330
3B
102
}
102
{ACAD_XDICTIONARY
360
670
102
}
330
3B
100
AcDbMaterial
  1
ByBlock
  0
MATERIAL
  5
3C
102
{ACAD_REACTORS
330
3B
102
}
102
{ACAD_XDICTIONARY
360
66E
102
}
330
3B
100
AcDbMaterial
  1
ByLayer
  0
MATERIAL
  5
3E
102
{ACAD_REACTORS
330
3B
102
}
102
{ACAD_XDICTIONARY
360
672
102
}
330
3B
100
AcDbMaterial
  1
Global
  0
MLINESTYLE
  5
18
102
{ACAD_REACTORS
330
17
102
}
330
17
100
AcDbMlineStyle
  2
Standard
 70
     0
  3

 62
   256
 51
90.0
 52
90.0
 71
     2
 49
0.5
 62
   256
  6
BYLAYER
 49
-0.5
 62
   256
  6
BYLAYER
  0
ACAD_PROXY_OBJECT
  5
2F
102
{ACAD_REACTORS
330
2A
102
}
330
2A
100
AcDbProxyObject
 90
      499
 91
      501
 93
      436
310
42CC9915DA5C99599C985B595049028333333333333E3BF0000000000000FB0107901411070040501600405405064090741402480A0340
1001
ACAD
1000
AcDbSavedByObjectVersion
1070
     0
  0
ACAD_PROXY_OBJECT
  5
31
102
{ACAD_REACTORS
330
2A
102
}
330
2A
100
AcDbProxyObject
 90
      499
 91
      501
 93
      500
310
424CD108121A5919195B90640502408333333333333E3BF0000000000000FB01079024090700405020000000000001110200405405064090740C02480A0340
1001
ACAD
1000
AcDbSavedByObjectVersion
1070
     0
  0
ACAD_PROXY_OBJECT
  5
30
102
{ACAD_REACTORS
330
2A
102
}
330
2A
100
AcDbProxyObject
 90
      499
 91
      501
 93
      436
310
42CCD915DA5C99599C985B595059028333333333333E3BF0000000000000FB0107901411070040501600405405064090741402480A0340
1001
ACAD
1000
AcDbSavedByObjectVersion
1070
     0
  0
ACAD_PROXY_OBJECT
  5
32
102
{ACAD_REACTORS
330
2A
102
}
330
2A
100
AcDbProxyObject
 90
      499
 91
      501
 93
      388
310
4150985CDA58D07406404333333333333E3BF0000000000000FB0107A41107004050150841D405064090741402480A0350
1001
ACAD
1000
AcDbSavedByObjectVersion
1070
     0
  0
ACAD_PROXY_OBJECT
  5
36
102
{ACAD_REACTORS
330
2A
102
}
330
2A
100
AcDbProxyObject
 90
      499
 91
      501
 93
      428
310
42109C9A59DA1D195B90C409028333333333333E3BF0000000000000FB010790141107004050150841D405064090741402480A029950
1001
ACAD
1000
AcDbSavedByObjectVersion
1070
     0
  0
ACAD_PROXY_OBJECT
  5
3A
102
{ACAD_REACTORS
330
2A
102
}
330
2A
100
AcDbProxyObject
 90
      499
 91
      501
 93
      452
310
42D0DBDB1BDC90DA185B99D95104090240C333333333333E3BF0000000000000FB0108901411070040501508421405064090741402480A0350
1001
ACAD
1000
AcDbSavedByObjectVersion
1070
     0
  0
ACAD_PROXY_OBJECT
  5
34
102
{ACAD_REACTORS
330
2A
102
}
330
2A
100
AcDbProxyObject
 90
      499
 91
      501
 93
      500
310
4290DBDB98D95C1D1D585B10940D028333333333333E3BF0000000000000FB0107902409070040501000000000000111010841D405064090740C02480A0340
1001
ACAD
1000
AcDbSavedByObjectVersion
1070
     0
  0
ACAD_PROXY_OBJECT
  5
35
102
{ACAD_REACTORS
330
2A
102
}
330
2A
100
AcDbProxyObject
 90
      499
 91
      501
 93
      412
310
40D11A5B50B409028333333333333E3BF0000000000000FB010790141107004050150841D405064090741402480A02677FFFFFD0
1001
ACAD
1000
AcDbSavedByObjectVersion
1070
     0
  0
ACAD_PROXY_OBJECT
  5
39
102
{ACAD_REACTORS
330
2A
102
}
330
2A
100
AcDbProxyObject
 90
      499
 91
      501
 93
      444
310
42D19858D95C185D1D195C9B90F409028333333333333E3BF0000000000000FB010790141107004050150841D405064090741402480A0350
1001
ACAD
1000
AcDbSavedByObjectVersion
1070
     0
  0
ACAD_PROXY_OBJECT
  5
2B
102
{ACAD_REACTORS
330
2A
102
}
330
2A
100
AcDbProxyObject
 90
      499
 91
      501
 93
      388
310
41119B185D240901404333333333333E3BF0000000000000F9010740A41107004050150841D405064090741402480A1B50
1001
ACAD
1000
AcDbSavedByObjectVersion
1070
     0
  0
ACAD_PROXY_OBJECT
  5
2C
102
{ACAD_REACTORS
330
2A
102
}
330
2A
100
AcDbProxyObject
 90
      499
 91
      501
 93
      476
310
43519B185D15DA5D1A115919D95CD0140901404333333333333E3BF0000000000000F9010740901411070040501600405405064090741402480A1B50
1001
ACAD
1000
AcDbSavedByObjectVersion
1070
     0
  0
ACAD_PROXY_OBJECT
  5
2D
102
{ACAD_REACTORS
330
2A
102
}
330
2A
100
AcDbProxyObject
 90
      499
 91
      501
 93
      412
310
41D1DBDD5C985D5910240902404333333333333E3BF0000000000000F9010740A411070040501641D405064090741402480A1B50
1001
ACAD
1000
AcDbSavedByObjectVersion
1070
     0
  0
ACAD_PROXY_OBJECT
  5
2E
102
{ACAD_REACTORS
330
2A
102
}
330
2A
100
AcDbProxyObject
 90
      499
 91
      501
 93
      500
310
4411DBDD5C985D5915DA5D1A115919D95CD0340902404333333333333E3BF0000000000000F9010740901411070040501600405405064090741402480A1B50
1001
ACAD
1000
AcDbSavedByObjectVersion
1070
     0
  0
ACAD_PROXY_OBJECT
  5
38
102
{ACAD_REACTORS
330
2A
102
}
330
2A
100
AcDbProxyObject
 90
      499
 91
      501
 93
      444
310
42D31A5B995C185D1D195C9B90E409028333333333333E3BF0000000000000FB010790141107004050750841D405064090741402483A0350
1001
ACAD
1000
AcDbSavedByObjectVersion
1070
     0
  0
ACAD_PROXY_OBJECT
  5
33
102
{ACAD_REACTORS
330
2A
102
}
330
2A
100
AcDbProxyObject
 90
      499
 91
      501
 93
      420
310
425499585B1A5CDD1A58D08409028333333333333E3BF0000000000000FB01079019070040501508421405064090741402480A1B40
1001
ACAD
1000
AcDbSavedByObjectVersion
1070
     0
  0
ACAD_PROXY_OBJECT
  5
37
102
{ACAD_REACTORS
330
2A
102
}
330
2A
100
AcDbProxyObject
 90
      499
 91
      501
 93
      412
310
41D51A1A58DAD95B90D409028333333333333E3BF0000000000000FB010790141107004050150C41D405064090741402480A0350
1001
ACAD
1000
AcDbSavedByObjectVersion
1070
     0
  0
XRECORD
  5
652
102
{ACAD_REACTORS
330
649
102
}
330
649
100
AcDbXrecord
 90
        0
  0
XRECORD
  5
668
102
{ACAD_REACTORS
330
649
102
}
330
649
100
AcDbXrecord
1000
DSTYLE
1002
{
1070
   340
340
11
1002
}
  0
XRECORD
  5
653
102
{ACAD_REACTORS
330
649
102
}
330
649
100
AcDbXrecord
  1
{0F69B7E4-3031-4F57-A1B0-903110ABEEED}
  0
XRECORD
  5
64C
102
{ACAD_REACTORS
330
649
102
}
330
649
100
AcDbXrecord
  1

  0
XRECORD
  5
651
102
{ACAD_REACTORS
330
649
102
}
330
649
100
AcDbXrecord
 90
        1
  0
XRECORD
  5
64E
102
{ACAD_REACTORS
330
649
102
}
330
649
100
AcDbXrecord
340
1A
  0
XRECORD
  5
650
102
{ACAD_REACTORS
330
649
102
}
330
649
100
AcDbXrecord
 90
    10269
  0
XRECORD
  5
64F
102
{ACAD_REACTORS
330
649
102
}
330
649
100
AcDbXrecord
340
19
  0
XRECORD
  5
655
102
{ACAD_REACTORS
330
649
102
}
330
649
100
AcDbXrecord
 40
0.0
  0
XRECORD
  5
658
102
{ACAD_REACTORS
330
649
102
}
330
649
100
AcDbXrecord
340
0
  0
XRECORD
  5
65E
102
{ACAD_REACTORS
330
649
102
}
330
649
100
AcDbXrecord
 10
0.0
 20
0.0
 30
0.0
  0
XRECORD
  5
65A
102
{ACAD_REACTORS
330
649
102
}
330
649
100
AcDbXrecord
 10
0.0
 20
0.0
 30
0.0
  0
XRECORD
  5
65D
102
{ACAD_REACTORS
330
649
102
}
330
649
100
AcDbXrecord
 10
0.0
 20
0.0
 30
0.0
  0
XRECORD
  5
65B
102
{ACAD_REACTORS
330
649
102
}
330
649
100
AcDbXrecord
 10
0.0
 20
0.0
 30
0.0
  0
XRECORD
  5
65C
102
{ACAD_REACTORS
330
649
102
}
330
649
100
AcDbXrecord
 10
0.0
 20
0.0
 30
0.0
  0
XRECORD
  5
659
102
{ACAD_REACTORS
330
649
102
}
330
649
100
AcDbXrecord
 10
0.0
 20
0.0
 30
0.0
  0
XRECORD
  5
656
102
{ACAD_REACTORS
330
649
102
}
330
649
100
AcDbXrecord
340
0
  0
XRECORD
  5
657
102
{ACAD_REACTORS
330
649
102
}
330
649
100
AcDbXrecord
 70
     0
  0
XRECORD
  5
64D
102
{ACAD_REACTORS
330
649
102
}
330
649
100
AcDbXrecord
  1

  0
XRECORD
  5
64A
102
{ACAD_REACTORS
330
649
102
}
330
649
100
AcDbXrecord
 90
        1
  0
XRECORD
  5
64B
102
{ACAD_REACTORS
330
649
102
}
330
649
100
AcDbXrecord
 90
       70
  0
XRECORD
  5
661
102
{ACAD_REACTORS
330
649
102
}
330
649
100
AcDbXrecord
340
0
  0
XRECORD
  5
667
102
{ACAD_REACTORS
330
649
102
}
330
649
100
AcDbXrecord
 10
0.0
 20
0.0
 30
0.0
  0
XRECORD
  5
663
102
{ACAD_REACTORS
330
649
102
}
330
649
100
AcDbXrecord
 10
0.0
 20
0.0
 30
0.0
  0
XRECORD
  5
666
102
{ACAD_REACTORS
330
649
102
}
330
649
100
AcDbXrecord
 10
0.0
 20
0.0
 30
0.0
  0
XRECORD
  5
664
102
{ACAD_REACTORS
330
649
102
}
330
649
100
AcDbXrecord
 10
0.0
 20
0.0
 30
0.0
  0
XRECORD
  5
665
102
{ACAD_REACTORS
330
649
102
}
330
649
100
AcDbXrecord
 10
0.0
 20
0.0
 30
0.0
  0
XRECORD
  5
662
102
{ACAD_REACTORS
330
649
102
}
330
649
100
AcDbXrecord
 10
0.0
 20
0.0
 30
0.0
  0
XRECORD
  5
65F
102
{ACAD_REACTORS
330
649
102
}
330
649
100
AcDbXrecord
340
0
  0
XRECORD
  5
660
102
{ACAD_REACTORS
330
649
102
}
330
649
100
AcDbXrecord
 70
     0
  0
XRECORD
  5
654
102
{ACAD_REACTORS
330
649
102
}
330
649
100
AcDbXrecord
  1
{FAEB1C32-E019-11D5-929B-00C0DF256EC4}
  0
DICTIONARYVAR
  5
66C
102
{ACAD_REACTORS
330
669
102
}
330
669
100
DictionaryVariables
280
     0
  1
2
  0
DICTIONARYVAR
  5
66D
102
{ACAD_REACTORS
330
669
102
}
330
669
100
DictionaryVariables
280
     0
  1
1
  0
DICTIONARY
  5
670
330
3D
100
AcDbDictionary
280
     1
  3
ACAD_XREC_ROUNDTRIP
360
671
  0
DICTIONARY
  5
66E
330
3C
100
AcDbDictionary
280
     1
  3
ACAD_XREC_ROUNDTRIP
360
66F
  0
DICTIONARY
  5
672
330
3E
100
AcDbDictionary
280
     1
  3
ACAD_XREC_ROUNDTRIP
360
673
  0
XRECORD
  5
671
102
{ACAD_REACTORS
330
670
102
}
330
670
100
AcDbXrecord
102
MATERIAL
148
0.0
149
0.0
149
0.0
 93
        0
 94
      127
282
     0
 72
     1
 77
     1
171
     1
175
     1
179
     1
273
     0
  0
XRECORD
  5
66F
102
{ACAD_REACTORS
330
66E
102
}
330
66E
100
AcDbXrecord
102
MATERIAL
148
0.0
149
0.0
149
0.0
 93
        0
 94
      127
282
     0
 72
     1
 77
     1
171
     1
175
     1
179
     1
273
     0
  0
XRECORD
  5
673
102
{ACAD_REACTORS
330
672
102
}
330
672
100
AcDbXrecord
102
MATERIAL
148
0.0
149
0.0
149
0.0
 93
        0
 94
      127
282
     0
 72
     1
 77
     1
171
     1
175
     1
179
     1
273
     0
  0
ENDSEC
  0
EOF
