  0
SECTION
  2
HEADER
  9
$ACADVER
  1
AC1014
  9
$ACADMAINTVER
 70
     9
  9
$DWGCODEPAGE
  3
ANSI_1252
  9
$INSBASE
 10
0.0
 20
0.0
 30
0.0
  9
$EXTMIN
 10
1.000000000000000E+20
 20
1.000000000000000E+20
 30
1.000000000000000E+20
  9
$EXTMAX
 10
-1.000000000000000E+20
 20
-1.000000000000000E+20
 30
-1.000000000000000E+20
  9
$LIMMIN
 10
0.0
 20
0.0
  9
$LIMMAX
 10
12.0
 20
9.0
  9
$ORTHOMODE
 70
     0
  9
$REGENMODE
 70
     1
  9
$FILLMODE
 70
     1
  9
$QTEXTMODE
 70
     0
  9
$MIRRTEXT
 70
     1
  9
$DRAGMODE
 70
     2
  9
$LTSCALE
 40
1.0
  9
$OSMODE
 70
    37
  9
$ATTMODE
 70
     1
  9
$TEXTSIZE
 40
0.2
  9
$TRACEWID
 40
0.05
  9
$TEXTSTYLE
  7
STANDARD
  9
$CLAYER
  8
0
  9
$CELTYPE
  6
BYLAYER
  9
$CECOLOR
 62
   256
  9
$CELTSCALE
 40
1.0
  9
$DELOBJ
 70
     1
  9
$DISPSILH
 70
     0
  9
$DIMSCALE
 40
1.0
  9
$DIMASZ
 40
0.18
  9
$DIMEXO
 40
0.0625
  9
$DIMDLI
 40
0.38
  9
$DIMRND
 40
0.0
  9
$DIMDLE
 40
0.0
  9
$DIMEXE
 40
0.18
  9
$DIMTP
 40
0.0
  9
$DIMTM
 40
0.0
  9
$DIMTXT
 40
0.18
  9
$DIMCEN
 40
0.09
  9
$DIMTSZ
 40
0.0
  9
$DIMTOL
 70
     0
  9
$DIMLIM
 70
     0
  9
$DIMTIH
 70
     1
  9
$DIMTOH
 70
     1
  9
$DIMSE1
 70
     0
  9
$DIMSE2
 70
     0
  9
$DIMTAD
 70
     0
  9
$DIMZIN
 70
     0
  9
$DIMBLK
  1

  9
$DIMASO
 70
     1
  9
$DIMSHO
 70
     1
  9
$DIMPOST
  1

  9
$DIMAPOST
  1

  9
$DIMALT
 70
     0
  9
$DIMALTD
 70
     2
  9
$DIMALTF
 40
25.4
  9
$DIMLFAC
 40
1.0
  9
$DIMTOFL
 70
     0
  9
$DIMTVP
 40
0.0
  9
$DIMTIX
 70
     0
  9
$DIMSOXD
 70
     0
  9
$DIMSAH
 70
     0
  9
$DIMBLK1
  1

  9
$DIMBLK2
  1

  9
$DIMSTYLE
  2
STANDARD
  9
$DIMCLRD
 70
     0
  9
$DIMCLRE
 70
     0
  9
$DIMCLRT
 70
     0
  9
$DIMTFAC
 40
1.0
  9
$DIMGAP
 40
0.09
  9
$DIMJUST
 70
     0
  9
$DIMSD1
 70
     0
  9
$DIMSD2
 70
     0
  9
$DIMTOLJ
 70
     1
  9
$DIMTZIN
 70
     0
  9
$DIMALTZ
 70
     0
  9
$DIMALTTZ
 70
     0
  9
$DIMFIT
 70
     3
  9
$DIMUPT
 70
     0
  9
$DIMUNIT
 70
     2
  9
$DIMDEC
 70
     4
  9
$DIMTDEC
 70
     4
  9
$DIMALTU
 70
     2
  9
$DIMALTTD
 70
     2
  9
$DIMTXSTY
  7
STANDARD
  9
$DIMAUNIT
 70
     0
  9
$LUNITS
 70
     2
  9
$LUPREC
 70
     4
  9
$SKETCHINC
 40
0.1
  9
$FILLETRAD
 40
0.5
  9
$AUNITS
 70
     0
  9
$AUPREC
 70
     0
  9
$MENU
  1
.
  9
$ELEVATION
 40
0.0
  9
$PELEVATION
 40
0.0
  9
$THICKNESS
 40
0.0
  9
$LIMCHECK
 70
     0
  9
$CHAMFERA
 40
0.5
  9
$CHAMFERB
 40
0.5
  9
$CHAMFERC
 40
1.0
  9
$CHAMFERD
 40
0.0
  9
$SKPOLY
 70
     0
  9
$TDCREATE
 40
2459957.478556968
  9
$TDUPDATE
 40
2459957.47855713
  9
$TDINDWG
 40
0.0000000116
  9
$TDUSRTIMER
 40
0.0000000116
  9
$USRTIMER
 70
     1
  9
$ANGBASE
 50
0.0
  9
$ANGDIR
 70
     0
  9
$PDMODE
 70
     0
  9
$PDSIZE
 40
0.0
  9
$PLINEWID
 40
0.0
  9
$COORDS
 70
     1
  9
$SPLFRAME
 70
     0
  9
$SPLINETYPE
 70
     6
  9
$SPLINESEGS
 70
     8
  9
$ATTDIA
 70
     0
  9
$ATTREQ
 70
     1
  9
$HANDLING
 70
     1
  9
$HANDSEED
  5
6C0
  9
$SURFTAB1
 70
     6
  9
$SURFTAB2
 70
     6
  9
$SURFTYPE
 70
     6
  9
$SURFU
 70
     6
  9
$SURFV
 70
     6
  9
$UCSNAME
  2

  9
$UCSORG
 10
0.0
 20
0.0
 30
0.0
  9
$UCSXDIR
 10
1.0
 20
0.0
 30
0.0
  9
$UCSYDIR
 10
0.0
 20
1.0
 30
0.0
  9
$PUCSNAME
  2

  9
$PUCSORG
 10
0.0
 20
0.0
 30
0.0
  9
$PUCSXDIR
 10
1.0
 20
0.0
 30
0.0
  9
$PUCSYDIR
 10
0.0
 20
1.0
 30
0.0
  9
$USERI1
 70
     0
  9
$USERI2
 70
     0
  9
$USERI3
 70
     0
  9
$USERI4
 70
     0
  9
$USERI5
 70
     0
  9
$USERR1
 40
0.0
  9
$USERR2
 40
0.0
  9
$USERR3
 40
0.0
  9
$USERR4
 40
0.0
  9
$USERR5
 40
0.0
  9
$WORLDVIEW
 70
     1
  9
$SHADEDGE
 70
     3
  9
$SHADEDIF
 70
    70
  9
$TILEMODE
 70
     1
  9
$MAXACTVP
 70
    64
  9
$PINSBASE
 10
0.0
 20
0.0
 30
0.0
  9
$PLIMCHECK
 70
     0
  9
$PEXTMIN
 10
1.000000000000000E+20
 20
1.000000000000000E+20
 30
1.000000000000000E+20
  9
$PEXTMAX
 10
-1.000000000000000E+20
 20
-1.000000000000000E+20
 30
-1.000000000000000E+20
  9
$PLIMMIN
 10
0.0
 20
0.0
  9
$PLIMMAX
 10
12.0
 20
9.0
  9
$UNITMODE
 70
     0
  9
$VISRETAIN
 70
     1
  9
$PLINEGEN
 70
     0
  9
$PSLTSCALE
 70
     1
  9
$TREEDEPTH
 70
  3020
  9
$PICKSTYLE
 70
     1
  9
$CMLSTYLE
  2
STANDARD
  9
$CMLJUST
 70
     0
  9
$CMLSCALE
 40
1.0
  9
$PROXYGRAPHICS
 70
     1
  9
$MEASUREMENT
 70
     0
  0
ENDSEC
  0
SECTION
  2
CLASSES
  0
CLASS
  1
ACDBDICTIONARYWDFLT
  2
AcDbDictionaryWithDefault
  3
ObjectDBX Classes
 90
        0
280
     0
281
     0
  0
CLASS
  1
VISUALSTYLE
  2
AcDbVisualStyle
  3
ObjectDBX Classes
 90
     4095
280
     0
281
     0
  0
CLASS
  1
MATERIAL
  2
AcDbMaterial
  3
ObjectDBX Classes
 90
     1153
280
     0
281
     0
  0
CLASS
  1
SUN
  2
AcDbSun
  3
SCENEOE
 90
     1024
280
     0
281
     0
  0
CLASS
  1
DICTIONARYVAR
  2
AcDbDictionaryVar
  3
ObjectDBX Classes
 90
        0
280
     0
281
     0
  0
CLASS
  1
XRECORD
  2
AcDbXrecord
  3
AutoCAD 2000
 90
        0
280
     0
281
     0
  0
CLASS
  1
LWPOLYLINE
  2
AcDbPolyline
  3
AutoCAD 2000
 90
        0
280
     0
281
     1
  0
CLASS
  1
HATCH
  2
AcDbHatch
  3
AutoCAD 2000
 90
        0
280
     0
281
     1
  0
CLASS
  1
ACDBPLACEHOLDER
  2
AcDbPlaceHolder
  3
ObjectDBX Classes
 90
        0
280
     0
281
     0
  0
CLASS
  1
LAYOUT
  2
AcDbLayout
  3
ObjectDBX Classes
 90
        0
280
     0
281
     0
  0
ENDSEC
  0
SECTION
  2
TABLES
  0
TABLE
  2
VPORT
  5
8
330
0
100
AcDbSymbolTable
 70
     1
  0
VPORT
  5
29
330
8
100
AcDbSymbolTableRecord
100
AcDbViewportTableRecord
  2
*ACTIVE
 70
     0
 10
0.0
 20
0.0
 11
1.0
 21
1.0
 12
0.0
 22
0.0
 13
0.0
 23
0.0
 14
0.5
 24
0.5
 15
0.5
 25
0.5
 16
0.0
 26
0.0
 36
1.0
 17
74.99999786197358
 27
39.74999886684608
 37
0.0
 40
39.99999998999989
 41
1.000000000000008
 42
50.0
 43
0.0
 44
0.0
 50
0.0
 51
0.0
 71
     0
 72
   100
 73
     1
 74
     3
 75
     0
 76
     0
 77
     0
 78
     0
  0
ENDTAB
  0
TABLE
  2
LTYPE
  5
5
330
0
100
AcDbSymbolTable
 70
     1
  0
LTYPE
  5
14
330
5
100
AcDbSymbolTableRecord
100
AcDbLinetypeTableRecord
  2
BYBLOCK
 70
     0
  3

 72
    65
 73
     0
 40
0.0
  0
LTYPE
  5
15
330
5
100
AcDbSymbolTableRecord
100
AcDbLinetypeTableRecord
  2
BYLAYER
 70
     0
  3

 72
    65
 73
     0
 40
0.0
  0
LTYPE
  5
16
330
5
100
AcDbSymbolTableRecord
100
AcDbLinetypeTableRecord
  2
CONTINUOUS
 70
     0
  3
Solid line
 72
    65
 73
     0
 40
0.0
  0
ENDTAB
  0
TABLE
  2
LAYER
  5
2
330
0
100
AcDbSymbolTable
 70
     6
  0
LAYER
  5
10
330
2
100
AcDbSymbolTableRecord
100
AcDbLayerTableRecord
  2
0
 70
     0
 62
     7
  6
CONTINUOUS
  0
LAYER
  5
40
330
2
100
AcDbSymbolTableRecord
100
AcDbLayerTableRecord
  2
REFERENCIAS
 70
     0
 62
     7
  6
CONTINUOUS
  0
LAYER
  5
42
330
2
100
AcDbSymbolTableRecord
100
AcDbLayerTableRecord
  2
M_U_00C1RGENES
 70
     4
 62
     7
  6
CONTINUOUS
  0
LAYER
  5
51
330
2
100
AcDbSymbolTableRecord
100
AcDbLayerTableRecord
  2
DIBUJOS
 70
     4
 62
     7
  6
CONTINUOUS
  0
LAYER
  5
67F
330
2
100
AcDbSymbolTableRecord
100
AcDbLayerTableRecord
  2
COTAS_LINEA
 70
     4
 62
     7
  6
CONTINUOUS
  0
LAYER
  5
690
330
2
100
AcDbSymbolTableRecord
100
AcDbLayerTableRecord
  2
COTAS_N_U_00DAMERO
 70
     4
 62
     7
  6
CONTINUOUS
  0
ENDTAB
  0
TABLE
  2
STYLE
  5
3
330
0
100
AcDbSymbolTable
 70
     1
  0
STYLE
  5
11
330
3
100
AcDbSymbolTableRecord
100
AcDbTextStyleTableRecord
  2
STANDARD
 70
     0
 40
0.0
 41
1.0
 50
0.0
 71
     0
 42
0.2
  3
txt
  4

  0
ENDTAB
  0
TABLE
  2
VIEW
  5
6
330
0
100
AcDbSymbolTable
 70
     0
  0
ENDTAB
  0
TABLE
  2
UCS
  5
7
330
0
100
AcDbSymbolTable
 70
     0
  0
ENDTAB
  0
TABLE
  2
APPID
  5
9
330
0
100
AcDbSymbolTable
 70
     1
  0
APPID
  5
12
330
9
100
AcDbSymbolTableRecord
100
AcDbRegAppTableRecord
  2
ACAD
 70
     0
  0
ENDTAB
  0
TABLE
  2
DIMSTYLE
  5
A
330
0
100
AcDbSymbolTable
 70
     1
  0
DIMSTYLE
105
27
330
A
100
AcDbSymbolTableRecord
100
AcDbDimStyleTableRecord
  2
STANDARD
 70
     0
  3

  4

  5

  6

  7

 40
1.0
 41
0.18
 42
0.0625
 43
0.38
 44
0.18
 45
0.0
 46
0.0
 47
0.0
 48
0.0
140
0.18
141
0.09
142
0.0
143
25.4
144
1.0
145
0.0
146
1.0
147
0.09
 71
     0
 72
     0
 73
     1
 74
     1
 75
     0
 76
     0
 77
     0
 78
     0
170
     0
171
     2
172
     0
173
     0
174
     0
175
     0
176
     0
177
     0
178
     0
270
     2
271
     4
272
     4
273
     2
274
     2
340
11
275
     0
280
     0
281
     0
282
     0
283
     1
284
     0
285
     0
286
     0
287
     3
288
     0
  0
ENDTAB
  0
TABLE
  2
BLOCK_RECORD
  5
1
330
0
100
AcDbSymbolTable
 70
     5
  0
BLOCK_RECORD
  5
1F
330
1
100
AcDbSymbolTableRecord
100
AcDbBlockTableRecord
  2
*MODEL_SPACE
  0
BLOCK_RECORD
  5
1B
330
1
100
AcDbSymbolTableRecord
100
AcDbBlockTableRecord
  2
*PAPER_SPACE
  0
BLOCK_RECORD
  5
52
330
1
100
AcDbSymbolTableRecord
100
AcDbBlockTableRecord
  2
BLOCK_2
  0
BLOCK_RECORD
  5
24B
330
1
100
AcDbSymbolTableRecord
100
AcDbBlockTableRecord
  2
BLOCK_3
  0
BLOCK_RECORD
  5
4D9
330
1
100
AcDbSymbolTableRecord
100
AcDbBlockTableRecord
  2
BLOCK_4
  0
BLOCK_RECORD
  5
5C2
330
1
100
AcDbSymbolTableRecord
100
AcDbBlockTableRecord
  2
BLOCK_5
  0
ENDTAB
  0
ENDSEC
  0
SECTION
  2
BLOCKS
  0
BLOCK
  5
20
330
1F
100
AcDbEntity
  8
0
100
AcDbBlockBegin
  2
*MODEL_SPACE
 70
     0
 10
0.0
 20
0.0
 30
0.0
  3
*MODEL_SPACE
  1

  0
ENDBLK
  5
21
330
1F
100
AcDbEntity
  8
0
100
AcDbBlockEnd
  0
BLOCK
  5
1C
330
1B
100
AcDbEntity
 67
     1
  8
0
100
AcDbBlockBegin
  2
*PAPER_SPACE
 70
     0
 10
0.0
 20
0.0
 30
0.0
  3
*PAPER_SPACE
  1

  0
ENDBLK
  5
1D
330
1B
100
AcDbEntity
 67
     1
  8
0
100
AcDbBlockEnd
  0
BLOCK
  5
54
330
52
100
AcDbEntity
  8
0
100
AcDbBlockBegin
  2
BLOCK_2
 70
     0
 10
0.0
 20
0.0
 30
0.0
  3
BLOCK_2
  1

  0
POLYLINE
  5
56
330
52
100
AcDbEntity
  8
DIBUJOS
 62
     7
100
AcDb2dPolyline
 66
     1
 10
0.0
 20
0.0
 30
0.0
  0
VERTEX
  5
57
330
56
100
AcDbEntity
  8
DIBUJOS
 62
     7
100
AcDbVertex
100
AcDb2dVertex
 10
62.63528195124869
 20
50.32140011372255
 30
0.0
  0
VERTEX
  5
58
330
56
100
AcDbEntity
  8
DIBUJOS
 62
     7
100
AcDbVertex
100
AcDb2dVertex
 10
62.62963523836825
 20
50.32140011372255
 30
0.0
  0
SEQEND
  5
59
330
56
100
AcDbEntity
  8
DIBUJOS
 62
     7
  0
POLYLINE
  5
5A
330
52
100
AcDbEntity
  8
DIBUJOS
 62
     7
100
AcDb2dPolyline
 66
     1
 10
0.0
 20
0.0
 30
0.0
  0
VERTEX
  5
5B
330
5A
100
AcDbEntity
  8
DIBUJOS
 62
     7
100
AcDbVertex
100
AcDb2dVertex
 10
62.64092866412946
 20
50.32140011372255
 30
0.0
  0
VERTEX
  5
5C
330
5A
100
AcDbEntity
  8
DIBUJOS
 62
     7
100
AcDbVertex
100
AcDb2dVertex
 10
62.63528195124869
 20
50.32140011372255
 30
0.0
  0
SEQEND
  5
5D
330
5A
100
AcDbEntity
  8
DIBUJOS
 62
     7
  0
POLYLINE
  5
5E
330
52
100
AcDbEntity
  8
DIBUJOS
 62
     7
100
AcDb2dPolyline
 66
     1
 10
0.0
 20
0.0
 30
0.0
  0
VERTEX
  5
5F
330
5E
100
AcDbEntity
  8
DIBUJOS
 62
     7
100
AcDbVertex
100
AcDb2dVertex
 10
68.4795142798759
 20
50.32140011372255
 30
0.0
  0
VERTEX
  5
60
330
5E
100
AcDbEntity
  8
DIBUJOS
 62
     7
100
AcDbVertex
100
AcDb2dVertex
 10
68.47386832688102
 20
50.32140011372255
 30
0.0
  0
SEQEND
  5
61
330
5E
100
AcDbEntity
  8
DIBUJOS
 62
     7
  0
POLYLINE
  5
62
330
52
100
AcDbEntity
  8
DIBUJOS
 62
     7
100
AcDb2dPolyline
 66
     1
 10
0.0
 20
0.0
 30
0.0
  0
VERTEX
  5
63
330
62
100
AcDbEntity
  8
DIBUJOS
 62
     7
100
AcDbVertex
100
AcDb2dVertex
 10
68.48516175264191
 20
50.32140011372255
 30
0.0
  0
VERTEX
  5
64
330
62
100
AcDbEntity
  8
DIBUJOS
 62
     7
100
AcDbVertex
100
AcDb2dVertex
 10
68.4795142798759
 20
50.32140011372255
 30
0.0
  0
SEQEND
  5
65
330
62
100
AcDbEntity
  8
DIBUJOS
 62
     7
  0
POLYLINE
  5
66
330
52
100
AcDbEntity
  8
DIBUJOS
 62
     7
100
AcDb2dPolyline
 66
     1
 10
0.0
 20
0.0
 30
0.0
  0
VERTEX
  5
67
330
66
100
AcDbEntity
  8
DIBUJOS
 62
     7
100
AcDbVertex
100
AcDb2dVertex
 10
62.6239885254878
 20
50.3157526409559
 30
0.0
  0
VERTEX
  5
68
330
66
100
AcDbEntity
  8
DIBUJOS
 62
     7
100
AcDbVertex
100
AcDb2dVertex
 10
62.61834181260735
 20
50.32140011372255
 30
0.0
  0
VERTEX
  5
69
330
66
100
AcDbEntity
  8
DIBUJOS
 62
     7
100
AcDbVertex
100
AcDb2dVertex
 10
60.8114294054953
 20
50.3157526409559
 30
0.0
  0
SEQEND
  5
6A
330
66
100
AcDbEntity
  8
DIBUJOS
 62
     7
  0
POLYLINE
  5
6B
330
52
100
AcDbEntity
  8
DIBUJOS
 62
     7
100
AcDb2dPolyline
 66
     1
 10
0.0
 20
0.0
 30
0.0
  0
VERTEX
  5
6C
330
6B
100
AcDbEntity
  8
DIBUJOS
 62
     7
100
AcDbVertex
100
AcDb2dVertex
 10
62.6239885254878
 20
50.3157526409559
 30
0.0
  0
VERTEX
  5
6D
330
6B
100
AcDbEntity
  8
DIBUJOS
 62
     7
100
AcDbVertex
100
AcDb2dVertex
 10
62.62963523836825
 20
50.32140011372255
 30
0.0
  0
SEQEND
  5
6E
330
6B
100
AcDbEntity
  8
DIBUJOS
 62
     7
  0
POLYLINE
  5
6F
330
52
100
AcDbEntity
  8
DIBUJOS
 62
     7
100
AcDb2dPolyline
 66
     1
 10
0.0
 20
0.0
 30
0.0
  0
VERTEX
  5
70
330
6F
100
AcDbEntity
  8
DIBUJOS
 62
     7
100
AcDbVertex
100
AcDb2dVertex
 10
62.63528195124869
 20
50.3157526409559
 30
0.0
  0
VERTEX
  5
71
330
6F
100
AcDbEntity
  8
DIBUJOS
 62
     7
100
AcDbVertex
100
AcDb2dVertex
 10
62.63528195124869
 20
50.32140011372255
 30
0.0
  0
SEQEND
  5
72
330
6F
100
AcDbEntity
  8
DIBUJOS
 62
     7
  0
POLYLINE
  5
73
330
52
100
AcDbEntity
  8
DIBUJOS
 62
     7
100
AcDb2dPolyline
 66
     1
 10
0.0
 20
0.0
 30
0.0
  0
VERTEX
  5
74
330
73
100
AcDbEntity
  8
DIBUJOS
 62
     7
100
AcDbVertex
100
AcDb2dVertex
 10
62.64092866412946
 20
50.32140011372255
 30
0.0
  0
VERTEX
  5
75
330
73
100
AcDbEntity
  8
DIBUJOS
 62
     7
100
AcDbVertex
100
AcDb2dVertex
 10
68.46822085411469
 20
50.31857637733907
 30
0.0
  0
VERTEX
  5
76
330
73
100
AcDbEntity
  8
DIBUJOS
 62
     7
100
AcDbVertex
100
AcDb2dVertex
 10
68.47386832688102
 20
50.32140011372255
 30
0.0
  0
SEQEND
  5
77
330
73
100
AcDbEntity
  8
DIBUJOS
 62
     7
  0
POLYLINE
  5
78
330
52
100
AcDbEntity
  8
DIBUJOS
 62
     7
100
AcDb2dPolyline
 66
     1
 10
0.0
 20
0.0
 30
0.0
  0
VERTEX
  5
79
330
78
100
AcDbEntity
  8
DIBUJOS
 62
     7
100
AcDbVertex
100
AcDb2dVertex
 10
68.4795142798759
 20
50.3157526409559
 30
0.0
  0
VERTEX
  5
7A
330
78
100
AcDbEntity
  8
DIBUJOS
 62
     7
100
AcDbVertex
100
AcDb2dVertex
 10
68.4795142798759
 20
50.32140011372255
 30
0.0
  0
SEQEND
  5
7B
330
78
100
AcDbEntity
  8
DIBUJOS
 62
     7
  0
POLYLINE
  5
7C
330
52
100
AcDbEntity
  8
DIBUJOS
 62
     7
100
AcDb2dPolyline
 66
     1
 10
0.0
 20
0.0
 30
0.0
  0
VERTEX
  5
7D
330
7C
100
AcDbEntity
  8
DIBUJOS
 62
     7
100
AcDbVertex
100
AcDb2dVertex
 10
68.49080770563648
 20
50.3157526409559
 30
0.0
  0
VERTEX
  5
7E
330
7C
100
AcDbEntity
  8
DIBUJOS
 62
     7
100
AcDbVertex
100
AcDb2dVertex
 10
68.48516175264191
 20
50.32140011372255
 30
0.0
  0
SEQEND
  5
7F
330
7C
100
AcDbEntity
  8
DIBUJOS
 62
     7
  0
POLYLINE
  5
80
330
52
100
AcDbEntity
  8
DIBUJOS
 62
     7
100
AcDb2dPolyline
 66
     1
 10
0.0
 20
0.0
 30
0.0
  0
VERTEX
  5
81
330
80
100
AcDbEntity
  8
DIBUJOS
 62
     7
100
AcDbVertex
100
AcDb2dVertex
 10
60.80578269261486
 20
50.31010820773343
 30
0.0
  0
VERTEX
  5
82
330
80
100
AcDbEntity
  8
DIBUJOS
 62
     7
100
AcDbVertex
100
AcDb2dVertex
 10
60.8114294054953
 20
50.3157526409559
 30
0.0
  0
SEQEND
  5
83
330
80
100
AcDbEntity
  8
DIBUJOS
 62
     7
  0
POLYLINE
  5
84
330
52
100
AcDbEntity
  8
DIBUJOS
 62
     7
100
AcDb2dPolyline
 66
     1
 10
0.0
 20
0.0
 30
0.0
  0
VERTEX
  5
85
330
84
100
AcDbEntity
  8
DIBUJOS
 62
     7
100
AcDbVertex
100
AcDb2dVertex
 10
62.6239885254878
 20
50.3157526409559
 30
0.0
  0
VERTEX
  5
86
330
84
100
AcDbEntity
  8
DIBUJOS
 62
     7
100
AcDbVertex
100
AcDb2dVertex
 10
62.62963523836825
 20
50.31010820773343
 30
0.0
  0
VERTEX
  5
87
330
84
100
AcDbEntity
  8
DIBUJOS
 62
     7
100
AcDbVertex
100
AcDb2dVertex
 10
62.63528195124869
 20
50.3157526409559
 30
0.0
  0
SEQEND
  5
88
330
84
100
AcDbEntity
  8
DIBUJOS
 62
     7
  0
POLYLINE
  5
89
330
52
100
AcDbEntity
  8
DIBUJOS
 62
     7
100
AcDb2dPolyline
 66
     1
 10
0.0
 20
0.0
 30
0.0
  0
VERTEX
  5
8A
330
89
100
AcDbEntity
  8
DIBUJOS
 62
     7
100
AcDbVertex
100
AcDb2dVertex
 10
68.4795142798759
 20
50.3157526409559
 30
0.0
  0
VERTEX
  5
8B
330
89
100
AcDbEntity
  8
DIBUJOS
 62
     7
100
AcDbVertex
100
AcDb2dVertex
 10
68.48516175264191
 20
50.31010820773343
 30
0.0
  0
VERTEX
  5
8C
330
89
100
AcDbEntity
  8
DIBUJOS
 62
     7
100
AcDbVertex
100
AcDb2dVertex
 10
68.49080770563648
 20
50.3157526409559
 30
0.0
  0
SEQEND
  5
8D
330
89
100
AcDbEntity
  8
DIBUJOS
 62
     7
  0
POLYLINE
  5
8E
330
52
100
AcDbEntity
  8
DIBUJOS
 62
     7
100
AcDb2dPolyline
 66
     1
 10
0.0
 20
0.0
 30
0.0
  0
VERTEX
  5
8F
330
8E
100
AcDbEntity
  8
DIBUJOS
 62
     7
100
AcDbVertex
100
AcDb2dVertex
 10
68.7505519388224
 20
50.12941643510201
 30
0.0
  0
VERTEX
  5
90
330
8E
100
AcDbEntity
  8
DIBUJOS
 62
     7
100
AcDbVertex
100
AcDb2dVertex
 10
68.7618438448112
 20
50.14070834109113
 30
0.0
  0
VERTEX
  5
91
330
8E
100
AcDbEntity
  8
DIBUJOS
 62
     7
100
AcDbVertex
100
AcDb2dVertex
 10
68.75619789181695
 20
50.1520032866238
 30
0.0
  0
VERTEX
  5
92
330
8E
100
AcDbEntity
  8
DIBUJOS
 62
     7
100
AcDbVertex
100
AcDb2dVertex
 10
68.75619789181695
 20
50.25364259870073
 30
0.0
  0
VERTEX
  5
93
330
8E
100
AcDbEntity
  8
DIBUJOS
 62
     7
100
AcDbVertex
100
AcDb2dVertex
 10
68.7618438448112
 20
50.27622641067833
 30
0.0
  0
VERTEX
  5
94
330
8E
100
AcDbEntity
  8
DIBUJOS
 62
     7
100
AcDbVertex
100
AcDb2dVertex
 10
68.7618438448112
 20
50.30446073496677
 30
0.0
  0
VERTEX
  5
95
330
8E
100
AcDbEntity
  8
DIBUJOS
 62
     7
100
AcDbVertex
100
AcDb2dVertex
 10
68.74490446605574
 20
50.32140011372255
 30
0.0
  0
VERTEX
  5
96
330
8E
100
AcDbEntity
  8
DIBUJOS
 62
     7
100
AcDbVertex
100
AcDb2dVertex
 10
68.7392585130615
 20
50.3157526409559
 30
0.0
  0
VERTEX
  5
97
330
8E
100
AcDbEntity
  8
DIBUJOS
 62
     7
100
AcDbVertex
100
AcDb2dVertex
 10
68.6940848100176
 20
50.32140011372255
 30
0.0
  0
VERTEX
  5
98
330
8E
100
AcDbEntity
  8
DIBUJOS
 62
     7
100
AcDbVertex
100
AcDb2dVertex
 10
68.49080770563648
 20
50.3157526409559
 30
0.0
  0
SEQEND
  5
99
330
8E
100
AcDbEntity
  8
DIBUJOS
 62
     7
  0
POLYLINE
  5
9A
330
52
100
AcDbEntity
  8
DIBUJOS
 62
     7
100
AcDb2dPolyline
 66
     1
 10
0.0
 20
0.0
 30
0.0
  0
VERTEX
  5
9B
330
9A
100
AcDbEntity
  8
DIBUJOS
 62
     7
100
AcDbVertex
100
AcDb2dVertex
 10
68.7505519388224
 20
50.12376896233535
 30
0.0
  0
VERTEX
  5
9C
330
9A
100
AcDbEntity
  8
DIBUJOS
 62
     7
100
AcDbVertex
100
AcDb2dVertex
 10
68.74490446605574
 20
50.12376896233535
 30
0.0
  0
SEQEND
  5
9D
330
9A
100
AcDbEntity
  8
DIBUJOS
 62
     7
  0
POLYLINE
  5
9E
330
52
100
AcDbEntity
  8
DIBUJOS
 62
     7
100
AcDb2dPolyline
 66
     1
 10
0.0
 20
0.0
 30
0.0
  0
VERTEX
  5
9F
330
9E
100
AcDbEntity
  8
DIBUJOS
 62
     7
100
AcDbVertex
100
AcDb2dVertex
 10
68.7505519388224
 20
50.12376896233535
 30
0.0
  0
VERTEX
  5
A0
330
9E
100
AcDbEntity
  8
DIBUJOS
 62
     7
100
AcDbVertex
100
AcDb2dVertex
 10
68.7505519388224
 20
50.12941643510201
 30
0.0
  0
SEQEND
  5
A1
330
9E
100
AcDbEntity
  8
DIBUJOS
 62
     7
  0
POLYLINE
  5
A2
330
52
100
AcDbEntity
  8
DIBUJOS
 62
     7
100
AcDb2dPolyline
 66
     1
 10
0.0
 20
0.0
 30
0.0
  0
VERTEX
  5
A3
330
A2
100
AcDbEntity
  8
DIBUJOS
 62
     7
100
AcDbVertex
100
AcDb2dVertex
 10
60.80578269261486
 20
50.31010820773343
 30
0.0
  0
VERTEX
  5
A4
330
A2
100
AcDbEntity
  8
DIBUJOS
 62
     7
100
AcDbVertex
100
AcDb2dVertex
 10
60.80578269261486
 20
50.12941643510201
 30
0.0
  0
VERTEX
  5
A5
330
A2
100
AcDbEntity
  8
DIBUJOS
 62
     7
100
AcDbVertex
100
AcDb2dVertex
 10
60.8114294054953
 20
50.12376896233535
 30
0.0
  0
VERTEX
  5
A6
330
A2
100
AcDbEntity
  8
DIBUJOS
 62
     7
100
AcDbVertex
100
AcDb2dVertex
 10
68.53033393591373
 20
50.12094522595219
 30
0.0
  0
VERTEX
  5
A7
330
A2
100
AcDbEntity
  8
DIBUJOS
 62
     7
100
AcDbVertex
100
AcDb2dVertex
 10
68.74490446605574
 20
50.12376896233535
 30
0.0
  0
SEQEND
  5
A8
330
A2
100
AcDbEntity
  8
DIBUJOS
 62
     7
  0
POLYLINE
  5
A9
330
52
100
AcDbEntity
  8
DIBUJOS
 62
     7
100
AcDb2dPolyline
 66
     1
 10
0.0
 20
0.0
 30
0.0
  0
VERTEX
  5
AA
330
A9
100
AcDbEntity
  8
DIBUJOS
 62
     7
100
AcDbVertex
100
AcDb2dVertex
 10
68.75619789181695
 20
50.11812452911288
 30
0.0
  0
VERTEX
  5
AB
330
A9
100
AcDbEntity
  8
DIBUJOS
 62
     7
100
AcDbVertex
100
AcDb2dVertex
 10
68.7505519388224
 20
50.12376896233535
 30
0.0
  0
SEQEND
  5
AC
330
A9
100
AcDbEntity
  8
DIBUJOS
 62
     7
  0
POLYLINE
  5
AD
330
52
100
AcDbEntity
  8
DIBUJOS
 62
     7
100
AcDb2dPolyline
 66
     1
 10
0.0
 20
0.0
 30
0.0
  0
VERTEX
  5
AE
330
AD
100
AcDbEntity
  8
DIBUJOS
 62
     7
100
AcDbVertex
100
AcDb2dVertex
 10
65.21013211238646
 20
50.08424273205779
 30
0.0
  0
VERTEX
  5
AF
330
AD
100
AcDbEntity
  8
DIBUJOS
 62
     7
100
AcDbVertex
100
AcDb2dVertex
 10
65.2044861593919
 20
50.08989020482476
 30
0.0
  0
SEQEND
  5
B0
330
AD
100
AcDbEntity
  8
DIBUJOS
 62
     7
  0
POLYLINE
  5
B1
330
52
100
AcDbEntity
  8
DIBUJOS
 62
     7
100
AcDb2dPolyline
 66
     1
 10
0.0
 20
0.0
 30
0.0
  0
VERTEX
  5
B2
330
B1
100
AcDbEntity
  8
DIBUJOS
 62
     7
100
AcDbVertex
100
AcDb2dVertex
 10
65.21013211238646
 20
50.04471650178086
 30
0.0
  0
VERTEX
  5
B3
330
B1
100
AcDbEntity
  8
DIBUJOS
 62
     7
100
AcDbVertex
100
AcDb2dVertex
 10
65.21577806538103
 20
50.06165588053632
 30
0.0
  0
VERTEX
  5
B4
330
B1
100
AcDbEntity
  8
DIBUJOS
 62
     7
100
AcDbVertex
100
AcDb2dVertex
 10
65.21182665817078
 20
50.07351618125477
 30
0.0
  0
VERTEX
  5
B5
330
B1
100
AcDbEntity
  8
DIBUJOS
 62
     7
100
AcDbVertex
100
AcDb2dVertex
 10
65.21013211238646
 20
50.08424273205779
 30
0.0
  0
SEQEND
  5
B6
330
B1
100
AcDbEntity
  8
DIBUJOS
 62
     7
  0
POLYLINE
  5
B7
330
52
100
AcDbEntity
  8
DIBUJOS
 62
     7
100
AcDb2dPolyline
 66
     1
 10
0.0
 20
0.0
 30
0.0
  0
VERTEX
  5
B8
330
B7
100
AcDbEntity
  8
DIBUJOS
 62
     7
100
AcDbVertex
100
AcDb2dVertex
 10
64.40831408107806
 20
50.03907206855807
 30
0.0
  0
VERTEX
  5
B9
330
B7
100
AcDbEntity
  8
DIBUJOS
 62
     7
100
AcDbVertex
100
AcDb2dVertex
 10
64.40831408107806
 20
50.08424273205779
 30
0.0
  0
VERTEX
  5
BA
330
B7
100
AcDbEntity
  8
DIBUJOS
 62
     7
100
AcDbVertex
100
AcDb2dVertex
 10
65.13692621473068
 20
50.08730051332982
 30
0.0
  0
VERTEX
  5
BB
330
B7
100
AcDbEntity
  8
DIBUJOS
 62
     7
100
AcDbVertex
100
AcDb2dVertex
 10
65.2044861593919
 20
50.08989020482476
 30
0.0
  0
SEQEND
  5
BC
330
B7
100
AcDbEntity
  8
DIBUJOS
 62
     7
  0
POLYLINE
  5
BD
330
52
100
AcDbEntity
  8
DIBUJOS
 62
     7
100
AcDb2dPolyline
 66
     1
 10
0.0
 20
0.0
 30
0.0
  0
VERTEX
  5
BE
330
BD
100
AcDbEntity
  8
DIBUJOS
 62
     7
100
AcDbVertex
100
AcDb2dVertex
 10
65.21013211238646
 20
50.03907206855807
 30
0.0
  0
VERTEX
  5
BF
330
BD
100
AcDbEntity
  8
DIBUJOS
 62
     7
100
AcDbVertex
100
AcDb2dVertex
 10
65.2044861593919
 20
50.03907206855807
 30
0.0
  0
SEQEND
  5
C0
330
BD
100
AcDbEntity
  8
DIBUJOS
 62
     7
  0
POLYLINE
  5
C1
330
52
100
AcDbEntity
  8
DIBUJOS
 62
     7
100
AcDb2dPolyline
 66
     1
 10
0.0
 20
0.0
 30
0.0
  0
VERTEX
  5
C2
330
C1
100
AcDbEntity
  8
DIBUJOS
 62
     7
100
AcDbVertex
100
AcDb2dVertex
 10
65.21013211238646
 20
50.03907206855807
 30
0.0
  0
VERTEX
  5
C3
330
C1
100
AcDbEntity
  8
DIBUJOS
 62
     7
100
AcDbVertex
100
AcDb2dVertex
 10
65.21013211238646
 20
50.04471650178086
 30
0.0
  0
SEQEND
  5
C4
330
C1
100
AcDbEntity
  8
DIBUJOS
 62
     7
  0
POLYLINE
  5
C5
330
52
100
AcDbEntity
  8
DIBUJOS
 62
     7
100
AcDb2dPolyline
 66
     1
 10
0.0
 20
0.0
 30
0.0
  0
VERTEX
  5
C6
330
C5
100
AcDbEntity
  8
DIBUJOS
 62
     7
100
AcDbVertex
100
AcDb2dVertex
 10
64.40831408107806
 20
50.03342459579206
 30
0.0
  0
VERTEX
  5
C7
330
C5
100
AcDbEntity
  8
DIBUJOS
 62
     7
100
AcDbVertex
100
AcDb2dVertex
 10
64.40831408107806
 20
50.03907206855807
 30
0.0
  0
SEQEND
  5
C8
330
C5
100
AcDbEntity
  8
DIBUJOS
 62
     7
  0
POLYLINE
  5
C9
330
52
100
AcDbEntity
  8
DIBUJOS
 62
     7
100
AcDb2dPolyline
 66
     1
 10
0.0
 20
0.0
 30
0.0
  0
VERTEX
  5
CA
330
C9
100
AcDbEntity
  8
DIBUJOS
 62
     7
100
AcDbVertex
100
AcDb2dVertex
 10
64.41396155384439
 20
50.03342459579206
 30
0.0
  0
VERTEX
  5
CB
330
C9
100
AcDbEntity
  8
DIBUJOS
 62
     7
100
AcDbVertex
100
AcDb2dVertex
 10
64.40831408107806
 20
50.03342459579206
 30
0.0
  0
SEQEND
  5
CC
330
C9
100
AcDbEntity
  8
DIBUJOS
 62
     7
  0
POLYLINE
  5
CD
330
52
100
AcDbEntity
  8
DIBUJOS
 62
     7
100
AcDb2dPolyline
 66
     1
 10
0.0
 20
0.0
 30
0.0
  0
VERTEX
  5
CE
330
CD
100
AcDbEntity
  8
DIBUJOS
 62
     7
100
AcDbVertex
100
AcDb2dVertex
 10
65.18754526086468
 20
50.03342459579206
 30
0.0
  0
VERTEX
  5
CF
330
CD
100
AcDbEntity
  8
DIBUJOS
 62
     7
100
AcDbVertex
100
AcDb2dVertex
 10
65.2044861593919
 20
50.03907206855807
 30
0.0
  0
SEQEND
  5
D0
330
CD
100
AcDbEntity
  8
DIBUJOS
 62
     7
  0
POLYLINE
  5
D1
330
52
100
AcDbEntity
  8
DIBUJOS
 62
     7
100
AcDb2dPolyline
 66
     1
 10
0.0
 20
0.0
 30
0.0
  0
VERTEX
  5
D2
330
D1
100
AcDbEntity
  8
DIBUJOS
 62
     7
100
AcDbVertex
100
AcDb2dVertex
 10
65.21013211238646
 20
50.03342459579206
 30
0.0
  0
VERTEX
  5
D3
330
D1
100
AcDbEntity
  8
DIBUJOS
 62
     7
100
AcDbVertex
100
AcDb2dVertex
 10
65.21013211238646
 20
50.03907206855807
 30
0.0
  0
SEQEND
  5
D4
330
D1
100
AcDbEntity
  8
DIBUJOS
 62
     7
  0
POLYLINE
  5
D5
330
52
100
AcDbEntity
  8
DIBUJOS
 62
     7
100
AcDb2dPolyline
 66
     1
 10
0.0
 20
0.0
 30
0.0
  0
VERTEX
  5
D6
330
D5
100
AcDbEntity
  8
DIBUJOS
 62
     7
100
AcDbVertex
100
AcDb2dVertex
 10
64.40831408107806
 20
50.02777712302508
 30
0.0
  0
VERTEX
  5
D7
330
D5
100
AcDbEntity
  8
DIBUJOS
 62
     7
100
AcDbVertex
100
AcDb2dVertex
 10
64.40831408107806
 20
50.03342459579206
 30
0.0
  0
SEQEND
  5
D8
330
D5
100
AcDbEntity
  8
DIBUJOS
 62
     7
  0
POLYLINE
  5
D9
330
52
100
AcDbEntity
  8
DIBUJOS
 62
     7
100
AcDb2dPolyline
 66
     1
 10
0.0
 20
0.0
 30
0.0
  0
VERTEX
  5
DA
330
D9
100
AcDbEntity
  8
DIBUJOS
 62
     7
100
AcDbVertex
100
AcDb2dVertex
 10
64.41396155384439
 20
50.03342459579206
 30
0.0
  0
VERTEX
  5
DB
330
D9
100
AcDbEntity
  8
DIBUJOS
 62
     7
100
AcDbVertex
100
AcDb2dVertex
 10
64.41960750683927
 20
50.02777712302508
 30
0.0
  0
VERTEX
  5
DC
330
D9
100
AcDbEntity
  8
DIBUJOS
 62
     7
100
AcDbVertex
100
AcDb2dVertex
 10
64.44840566654109
 20
50.03229388542112
 30
0.0
  0
VERTEX
  5
DD
330
D9
100
AcDbEntity
  8
DIBUJOS
 62
     7
100
AcDbVertex
100
AcDb2dVertex
 10
64.45348778412196
 20
50.03342459579206
 30
0.0
  0
SEQEND
  5
DE
330
D9
100
AcDbEntity
  8
DIBUJOS
 62
     7
  0
POLYLINE
  5
DF
330
52
100
AcDbEntity
  8
DIBUJOS
 62
     7
100
AcDb2dPolyline
 66
     1
 10
0.0
 20
0.0
 30
0.0
  0
VERTEX
  5
E0
330
DF
100
AcDbEntity
  8
DIBUJOS
 62
     7
100
AcDbVertex
100
AcDb2dVertex
 10
64.47607463564407
 20
50.02777712302508
 30
0.0
  0
VERTEX
  5
E1
330
DF
100
AcDbEntity
  8
DIBUJOS
 62
     7
100
AcDbVertex
100
AcDb2dVertex
 10
64.47042716287741
 20
50.02777712302508
 30
0.0
  0
SEQEND
  5
E2
330
DF
100
AcDbEntity
  8
DIBUJOS
 62
     7
  0
POLYLINE
  5
E3
330
52
100
AcDbEntity
  8
DIBUJOS
 62
     7
100
AcDb2dPolyline
 66
     1
 10
0.0
 20
0.0
 30
0.0
  0
VERTEX
  5
E4
330
E3
100
AcDbEntity
  8
DIBUJOS
 62
     7
100
AcDbVertex
100
AcDb2dVertex
 10
65.17625183510346
 20
50.02777712302508
 30
0.0
  0
VERTEX
  5
E5
330
E3
100
AcDbEntity
  8
DIBUJOS
 62
     7
100
AcDbVertex
100
AcDb2dVertex
 10
65.14237307759286
 20
50.02777712302508
 30
0.0
  0
SEQEND
  5
E6
330
E3
100
AcDbEntity
  8
DIBUJOS
 62
     7
  0
POLYLINE
  5
E7
330
52
100
AcDbEntity
  8
DIBUJOS
 62
     7
100
AcDb2dPolyline
 66
     1
 10
0.0
 20
0.0
 30
0.0
  0
VERTEX
  5
E8
330
E7
100
AcDbEntity
  8
DIBUJOS
 62
     7
100
AcDbVertex
100
AcDb2dVertex
 10
64.50995339315466
 20
50.02212965025875
 30
0.0
  0
VERTEX
  5
E9
330
E7
100
AcDbEntity
  8
DIBUJOS
 62
     7
100
AcDbVertex
100
AcDb2dVertex
 10
64.50430744016074
 20
50.03342459579206
 30
0.0
  0
SEQEND
  5
EA
330
E7
100
AcDbEntity
  8
DIBUJOS
 62
     7
  0
POLYLINE
  5
EB
330
52
100
AcDbEntity
  8
DIBUJOS
 62
     7
100
AcDb2dPolyline
 66
     1
 10
0.0
 20
0.0
 30
0.0
  0
VERTEX
  5
EC
330
EB
100
AcDbEntity
  8
DIBUJOS
 62
     7
100
AcDbVertex
100
AcDb2dVertex
 10
64.50995339315466
 20
50.02212965025875
 30
0.0
  0
VERTEX
  5
ED
330
EB
100
AcDbEntity
  8
DIBUJOS
 62
     7
100
AcDbVertex
100
AcDb2dVertex
 10
64.51560086592131
 20
50.02777712302508
 30
0.0
  0
SEQEND
  5
EE
330
EB
100
AcDbEntity
  8
DIBUJOS
 62
     7
  0
POLYLINE
  5
EF
330
52
100
AcDbEntity
  8
DIBUJOS
 62
     7
100
AcDb2dPolyline
 66
     1
 10
0.0
 20
0.0
 30
0.0
  0
VERTEX
  5
F0
330
EF
100
AcDbEntity
  8
DIBUJOS
 62
     7
100
AcDbVertex
100
AcDb2dVertex
 10
65.402115791007
 20
49.48005737190835
 30
0.0
  0
VERTEX
  5
F1
330
EF
100
AcDbEntity
  8
DIBUJOS
 62
     7
100
AcDbVertex
100
AcDb2dVertex
 10
65.21212453348363
 20
50.01698370225359
 30
0.0
  0
VERTEX
  5
F2
330
EF
100
AcDbEntity
  8
DIBUJOS
 62
     7
100
AcDbVertex
100
AcDb2dVertex
 10
65.21013211238646
 20
50.03342459579206
 30
0.0
  0
SEQEND
  5
F3
330
EF
100
AcDbEntity
  8
DIBUJOS
 62
     7
  0
POLYLINE
  5
F4
330
52
100
AcDbEntity
  8
DIBUJOS
 62
     7
100
AcDb2dPolyline
 66
     1
 10
0.0
 20
0.0
 30
0.0
  0
VERTEX
  5
F5
330
F4
100
AcDbEntity
  8
DIBUJOS
 62
     7
100
AcDbVertex
100
AcDb2dVertex
 10
65.402115791007
 20
49.48005737190835
 30
0.0
  0
VERTEX
  5
F6
330
F4
100
AcDbEntity
  8
DIBUJOS
 62
     7
100
AcDbVertex
100
AcDb2dVertex
 10
65.40776326377335
 20
49.48570484467501
 30
0.0
  0
SEQEND
  5
F7
330
F4
100
AcDbEntity
  8
DIBUJOS
 62
     7
  0
POLYLINE
  5
F8
330
52
100
AcDbEntity
  8
DIBUJOS
 62
     7
100
AcDb2dPolyline
 66
     1
 10
0.0
 20
0.0
 30
0.0
  0
VERTEX
  5
F9
330
F8
100
AcDbEntity
  8
DIBUJOS
 62
     7
100
AcDbVertex
100
AcDb2dVertex
 10
63.96223364203825
 20
48.76858522691597
 30
0.0
  0
VERTEX
  5
FA
330
F8
100
AcDbEntity
  8
DIBUJOS
 62
     7
100
AcDbVertex
100
AcDb2dVertex
 10
63.9565861692716
 20
48.77423269968231
 30
0.0
  0
SEQEND
  5
FB
330
F8
100
AcDbEntity
  8
DIBUJOS
 62
     7
  0
POLYLINE
  5
FC
330
52
100
AcDbEntity
  8
DIBUJOS
 62
     7
100
AcDb2dPolyline
 66
     1
 10
0.0
 20
0.0
 30
0.0
  0
VERTEX
  5
FD
330
FC
100
AcDbEntity
  8
DIBUJOS
 62
     7
100
AcDbVertex
100
AcDb2dVertex
 10
63.96223364203825
 20
48.76858522691597
 30
0.0
  0
VERTEX
  5
FE
330
FC
100
AcDbEntity
  8
DIBUJOS
 62
     7
100
AcDbVertex
100
AcDb2dVertex
 10
64.40718489047921
 20
50.02269500544422
 30
0.0
  0
VERTEX
  5
FF
330
FC
100
AcDbEntity
  8
DIBUJOS
 62
     7
100
AcDbVertex
100
AcDb2dVertex
 10
64.40831408107806
 20
50.02777712302508
 30
0.0
  0
SEQEND
  5
100
330
FC
100
AcDbEntity
  8
DIBUJOS
 62
     7
  0
POLYLINE
  5
101
330
52
100
AcDbEntity
  8
DIBUJOS
 62
     7
100
AcDb2dPolyline
 66
     1
 10
0.0
 20
0.0
 30
0.0
  0
VERTEX
  5
102
330
101
100
AcDbEntity
  8
DIBUJOS
 62
     7
100
AcDbVertex
100
AcDb2dVertex
 10
64.40831408107806
 20
48.28862299082108
 30
0.0
  0
VERTEX
  5
103
330
101
100
AcDbEntity
  8
DIBUJOS
 62
     7
100
AcDbVertex
100
AcDb2dVertex
 10
64.50600046617265
 20
48.5590968143545
 30
0.0
  0
VERTEX
  5
104
330
101
100
AcDbEntity
  8
DIBUJOS
 62
     7
100
AcDbVertex
100
AcDb2dVertex
 10
64.50995339315466
 20
49.63251482025165
 30
0.0
  0
VERTEX
  5
105
330
101
100
AcDbEntity
  8
DIBUJOS
 62
     7
100
AcDbVertex
100
AcDb2dVertex
 10
64.50995339315466
 20
49.69462790205068
 30
0.0
  0
VERTEX
  5
106
330
101
100
AcDbEntity
  8
DIBUJOS
 62
     7
100
AcDbVertex
100
AcDb2dVertex
 10
64.50430744016074
 20
50.01083774426995
 30
0.0
  0
VERTEX
  5
107
330
101
100
AcDbEntity
  8
DIBUJOS
 62
     7
100
AcDbVertex
100
AcDb2dVertex
 10
64.50995339315466
 20
50.02212965025875
 30
0.0
  0
SEQEND
  5
108
330
101
100
AcDbEntity
  8
DIBUJOS
 62
     7
  0
POLYLINE
  5
109
330
52
100
AcDbEntity
  8
DIBUJOS
 62
     7
100
AcDb2dPolyline
 66
     1
 10
0.0
 20
0.0
 30
0.0
  0
VERTEX
  5
10A
330
109
100
AcDbEntity
  8
DIBUJOS
 62
     7
100
AcDbVertex
100
AcDb2dVertex
 10
65.2044861593919
 20
48.28862299082108
 30
0.0
  0
VERTEX
  5
10B
330
109
100
AcDbEntity
  8
DIBUJOS
 62
     7
100
AcDbVertex
100
AcDb2dVertex
 10
65.20249221852298
 20
48.30506692390308
 30
0.0
  0
VERTEX
  5
10C
330
109
100
AcDbEntity
  8
DIBUJOS
 62
     7
100
AcDbVertex
100
AcDb2dVertex
 10
65.11244572729187
 20
48.5590968143545
 30
0.0
  0
VERTEX
  5
10D
330
109
100
AcDbEntity
  8
DIBUJOS
 62
     7
100
AcDbVertex
100
AcDb2dVertex
 10
65.10849280031017
 20
48.56530660276245
 30
0.0
  0
VERTEX
  5
10E
330
109
100
AcDbEntity
  8
DIBUJOS
 62
     7
100
AcDbVertex
100
AcDb2dVertex
 10
65.11414027307652
 20
49.6494541990071
 30
0.0
  0
VERTEX
  5
10F
330
109
100
AcDbEntity
  8
DIBUJOS
 62
     7
100
AcDbVertex
100
AcDb2dVertex
 10
65.10849280031017
 20
49.66074914454009
 30
0.0
  0
VERTEX
  5
110
330
109
100
AcDbEntity
  8
DIBUJOS
 62
     7
100
AcDbVertex
100
AcDb2dVertex
 10
65.11214633220726
 20
50.01698370225359
 30
0.0
  0
VERTEX
  5
111
330
109
100
AcDbEntity
  8
DIBUJOS
 62
     7
100
AcDbVertex
100
AcDb2dVertex
 10
65.11978622607076
 20
50.03907206855807
 30
0.0
  0
SEQEND
  5
112
330
109
100
AcDbEntity
  8
DIBUJOS
 62
     7
  0
POLYLINE
  5
113
330
52
100
AcDbEntity
  8
DIBUJOS
 62
     7
100
AcDb2dPolyline
 66
     1
 10
0.0
 20
0.0
 30
0.0
  0
VERTEX
  5
114
330
113
100
AcDbEntity
  8
DIBUJOS
 62
     7
100
AcDbVertex
100
AcDb2dVertex
 10
64.40831408107806
 20
48.28297855759828
 30
0.0
  0
VERTEX
  5
115
330
113
100
AcDbEntity
  8
DIBUJOS
 62
     7
100
AcDbVertex
100
AcDb2dVertex
 10
64.40831408107806
 20
48.28862299082108
 30
0.0
  0
SEQEND
  5
116
330
113
100
AcDbEntity
  8
DIBUJOS
 62
     7
  0
POLYLINE
  5
117
330
52
100
AcDbEntity
  8
DIBUJOS
 62
     7
100
AcDb2dPolyline
 66
     1
 10
0.0
 20
0.0
 30
0.0
  0
VERTEX
  5
118
330
117
100
AcDbEntity
  8
DIBUJOS
 62
     7
100
AcDbVertex
100
AcDb2dVertex
 10
64.41396155384439
 20
48.28297855759828
 30
0.0
  0
VERTEX
  5
119
330
117
100
AcDbEntity
  8
DIBUJOS
 62
     7
100
AcDbVertex
100
AcDb2dVertex
 10
64.40831408107806
 20
48.28297855759828
 30
0.0
  0
SEQEND
  5
11A
330
117
100
AcDbEntity
  8
DIBUJOS
 62
     7
  0
POLYLINE
  5
11B
330
52
100
AcDbEntity
  8
DIBUJOS
 62
     7
100
AcDb2dPolyline
 66
     1
 10
0.0
 20
0.0
 30
0.0
  0
VERTEX
  5
11C
330
11B
100
AcDbEntity
  8
DIBUJOS
 62
     7
100
AcDbVertex
100
AcDb2dVertex
 10
64.40831408107806
 20
48.27733108483195
 30
0.0
  0
VERTEX
  5
11D
330
11B
100
AcDbEntity
  8
DIBUJOS
 62
     7
100
AcDbVertex
100
AcDb2dVertex
 10
64.40831408107806
 20
48.28297855759828
 30
0.0
  0
SEQEND
  5
11E
330
11B
100
AcDbEntity
  8
DIBUJOS
 62
     7
  0
POLYLINE
  5
11F
330
52
100
AcDbEntity
  8
DIBUJOS
 62
     7
100
AcDb2dPolyline
 66
     1
 10
0.0
 20
0.0
 30
0.0
  0
VERTEX
  5
120
330
11F
100
AcDbEntity
  8
DIBUJOS
 62
     7
100
AcDbVertex
100
AcDb2dVertex
 10
64.70758454454155
 20
48.27733108483195
 30
0.0
  0
VERTEX
  5
121
330
11F
100
AcDbEntity
  8
DIBUJOS
 62
     7
100
AcDbVertex
100
AcDb2dVertex
 10
64.41396155384439
 20
48.28297855759828
 30
0.0
  0
SEQEND
  5
122
330
11F
100
AcDbEntity
  8
DIBUJOS
 62
     7
  0
POLYLINE
  5
123
330
52
100
AcDbEntity
  8
DIBUJOS
 62
     7
100
AcDb2dPolyline
 66
     1
 10
0.0
 20
0.0
 30
0.0
  0
VERTEX
  5
124
330
123
100
AcDbEntity
  8
DIBUJOS
 62
     7
100
AcDbVertex
100
AcDb2dVertex
 10
64.7132304975361
 20
48.27733108483195
 30
0.0
  0
VERTEX
  5
125
330
123
100
AcDbEntity
  8
DIBUJOS
 62
     7
100
AcDbVertex
100
AcDb2dVertex
 10
64.70758454454155
 20
48.27733108483195
 30
0.0
  0
SEQEND
  5
126
330
123
100
AcDbEntity
  8
DIBUJOS
 62
     7
  0
POLYLINE
  5
127
330
52
100
AcDbEntity
  8
DIBUJOS
 62
     7
100
AcDb2dPolyline
 66
     1
 10
0.0
 20
0.0
 30
0.0
  0
VERTEX
  5
128
330
127
100
AcDbEntity
  8
DIBUJOS
 62
     7
100
AcDbVertex
100
AcDb2dVertex
 10
64.71887797030243
 20
48.27733108483195
 30
0.0
  0
VERTEX
  5
129
330
127
100
AcDbEntity
  8
DIBUJOS
 62
     7
100
AcDbVertex
100
AcDb2dVertex
 10
64.7132304975361
 20
48.27733108483195
 30
0.0
  0
SEQEND
  5
12A
330
127
100
AcDbEntity
  8
DIBUJOS
 62
     7
  0
POLYLINE
  5
12B
330
52
100
AcDbEntity
  8
DIBUJOS
 62
     7
100
AcDb2dPolyline
 66
     1
 10
0.0
 20
0.0
 30
0.0
  0
VERTEX
  5
12C
330
12B
100
AcDbEntity
  8
DIBUJOS
 62
     7
100
AcDbVertex
100
AcDb2dVertex
 10
64.89392227016752
 20
48.27733108483195
 30
0.0
  0
VERTEX
  5
12D
330
12B
100
AcDbEntity
  8
DIBUJOS
 62
     7
100
AcDbVertex
100
AcDb2dVertex
 10
64.72452392329733
 20
48.28297855759828
 30
0.0
  0
VERTEX
  5
12E
330
12B
100
AcDbEntity
  8
DIBUJOS
 62
     7
100
AcDbVertex
100
AcDb2dVertex
 10
64.71887797030243
 20
48.27733108483195
 30
0.0
  0
SEQEND
  5
12F
330
12B
100
AcDbEntity
  8
DIBUJOS
 62
     7
  0
POLYLINE
  5
130
330
52
100
AcDbEntity
  8
DIBUJOS
 62
     7
100
AcDb2dPolyline
 66
     1
 10
0.0
 20
0.0
 30
0.0
  0
VERTEX
  5
131
330
130
100
AcDbEntity
  8
DIBUJOS
 62
     7
100
AcDbVertex
100
AcDb2dVertex
 10
64.89956974293354
 20
48.27733108483195
 30
0.0
  0
VERTEX
  5
132
330
130
100
AcDbEntity
  8
DIBUJOS
 62
     7
100
AcDbVertex
100
AcDb2dVertex
 10
64.89392227016752
 20
48.27733108483195
 30
0.0
  0
SEQEND
  5
133
330
130
100
AcDbEntity
  8
DIBUJOS
 62
     7
  0
POLYLINE
  5
134
330
52
100
AcDbEntity
  8
DIBUJOS
 62
     7
100
AcDb2dPolyline
 66
     1
 10
0.0
 20
0.0
 30
0.0
  0
VERTEX
  5
135
330
134
100
AcDbEntity
  8
DIBUJOS
 62
     7
100
AcDbVertex
100
AcDb2dVertex
 10
64.90521569592875
 20
48.27733108483195
 30
0.0
  0
VERTEX
  5
136
330
134
100
AcDbEntity
  8
DIBUJOS
 62
     7
100
AcDbVertex
100
AcDb2dVertex
 10
64.89956974293354
 20
48.27733108483195
 30
0.0
  0
SEQEND
  5
137
330
134
100
AcDbEntity
  8
DIBUJOS
 62
     7
  0
POLYLINE
  5
138
330
52
100
AcDbEntity
  8
DIBUJOS
 62
     7
100
AcDb2dPolyline
 66
     1
 10
0.0
 20
0.0
 30
0.0
  0
VERTEX
  5
139
330
138
100
AcDbEntity
  8
DIBUJOS
 62
     7
100
AcDbVertex
100
AcDb2dVertex
 10
64.90521569592875
 20
48.27733108483195
 30
0.0
  0
VERTEX
  5
13A
330
138
100
AcDbEntity
  8
DIBUJOS
 62
     7
100
AcDbVertex
100
AcDb2dVertex
 10
65.19206354303216
 20
48.28072017640059
 30
0.0
  0
VERTEX
  5
13B
330
138
100
AcDbEntity
  8
DIBUJOS
 62
     7
100
AcDbVertex
100
AcDb2dVertex
 10
65.2044861593919
 20
48.28862299082108
 30
0.0
  0
SEQEND
  5
13C
330
138
100
AcDbEntity
  8
DIBUJOS
 62
     7
  0
POLYLINE
  5
13D
330
52
100
AcDbEntity
  8
DIBUJOS
 62
     7
100
AcDb2dPolyline
 66
     1
 10
0.0
 20
0.0
 30
0.0
  0
VERTEX
  5
13E
330
13D
100
AcDbEntity
  8
DIBUJOS
 62
     7
100
AcDbVertex
100
AcDb2dVertex
 10
64.7132304975361
 20
48.27168361206562
 30
0.0
  0
VERTEX
  5
13F
330
13D
100
AcDbEntity
  8
DIBUJOS
 62
     7
100
AcDbVertex
100
AcDb2dVertex
 10
64.7132304975361
 20
48.27733108483195
 30
0.0
  0
SEQEND
  5
140
330
13D
100
AcDbEntity
  8
DIBUJOS
 62
     7
  0
POLYLINE
  5
141
330
52
100
AcDbEntity
  8
DIBUJOS
 62
     7
100
AcDb2dPolyline
 66
     1
 10
0.0
 20
0.0
 30
0.0
  0
VERTEX
  5
142
330
141
100
AcDbEntity
  8
DIBUJOS
 62
     7
100
AcDbVertex
100
AcDb2dVertex
 10
64.89956974293354
 20
48.27168361206562
 30
0.0
  0
VERTEX
  5
143
330
141
100
AcDbEntity
  8
DIBUJOS
 62
     7
100
AcDbVertex
100
AcDb2dVertex
 10
64.89956974293354
 20
48.27733108483195
 30
0.0
  0
SEQEND
  5
144
330
141
100
AcDbEntity
  8
DIBUJOS
 62
     7
  0
POLYLINE
  5
145
330
52
100
AcDbEntity
  8
DIBUJOS
 62
     7
100
AcDb2dPolyline
 66
     1
 10
0.0
 20
0.0
 30
0.0
  0
VERTEX
  5
146
330
145
100
AcDbEntity
  8
DIBUJOS
 62
     7
100
AcDbVertex
100
AcDb2dVertex
 10
65.2609517684246
 20
48.15310492123323
 30
0.0
  0
VERTEX
  5
147
330
145
100
AcDbEntity
  8
DIBUJOS
 62
     7
100
AcDbVertex
100
AcDb2dVertex
 10
65.2044861593919
 20
48.28862299082108
 30
0.0
  0
SEQEND
  5
148
330
145
100
AcDbEntity
  8
DIBUJOS
 62
     7
  0
POLYLINE
  5
149
330
52
100
AcDbEntity
  8
DIBUJOS
 62
     7
100
AcDb2dPolyline
 66
     1
 10
0.0
 20
0.0
 30
0.0
  0
VERTEX
  5
14A
330
149
100
AcDbEntity
  8
DIBUJOS
 62
     7
100
AcDbVertex
100
AcDb2dVertex
 10
65.2609517684246
 20
48.15310492123323
 30
0.0
  0
VERTEX
  5
14B
330
149
100
AcDbEntity
  8
DIBUJOS
 62
     7
100
AcDbVertex
100
AcDb2dVertex
 10
65.26659772141949
 20
48.15875239399988
 30
0.0
  0
SEQEND
  5
14C
330
149
100
AcDbEntity
  8
DIBUJOS
 62
     7
  0
POLYLINE
  5
14D
330
52
100
AcDbEntity
  8
DIBUJOS
 62
     7
100
AcDb2dPolyline
 66
     1
 10
0.0
 20
0.0
 30
0.0
  0
VERTEX
  5
14E
330
14D
100
AcDbEntity
  8
DIBUJOS
 62
     7
100
AcDbVertex
100
AcDb2dVertex
 10
63.74201563912926
 20
48.14746048801108
 30
0.0
  0
VERTEX
  5
14F
330
14D
100
AcDbEntity
  8
DIBUJOS
 62
     7
100
AcDbVertex
100
AcDb2dVertex
 10
63.7363696861347
 20
48.15310492123323
 30
0.0
  0
SEQEND
  5
150
330
14D
100
AcDbEntity
  8
DIBUJOS
 62
     7
  0
POLYLINE
  5
151
330
52
100
AcDbEntity
  8
DIBUJOS
 62
     7
100
AcDb2dPolyline
 66
     1
 10
0.0
 20
0.0
 30
0.0
  0
VERTEX
  5
152
330
151
100
AcDbEntity
  8
DIBUJOS
 62
     7
100
AcDbVertex
100
AcDb2dVertex
 10
63.74201563912926
 20
48.14746048801108
 30
0.0
  0
VERTEX
  5
153
330
151
100
AcDbEntity
  8
DIBUJOS
 62
     7
100
AcDbVertex
100
AcDb2dVertex
 10
63.960239701169
 20
48.75214433337815
 30
0.0
  0
VERTEX
  5
154
330
151
100
AcDbEntity
  8
DIBUJOS
 62
     7
100
AcDbVertex
100
AcDb2dVertex
 10
63.96223364203825
 20
48.76858522691597
 30
0.0
  0
SEQEND
  5
155
330
151
100
AcDbEntity
  8
DIBUJOS
 62
     7
  0
POLYLINE
  5
156
330
52
100
AcDbEntity
  8
DIBUJOS
 62
     7
100
AcDb2dPolyline
 66
     1
 10
0.0
 20
0.0
 30
0.0
  0
VERTEX
  5
157
330
156
100
AcDbEntity
  8
DIBUJOS
 62
     7
100
AcDbVertex
100
AcDb2dVertex
 10
66.10794198300515
 20
47.48680647928444
 30
0.0
  0
VERTEX
  5
158
330
156
100
AcDbEntity
  8
DIBUJOS
 62
     7
100
AcDbVertex
100
AcDb2dVertex
 10
65.402115791007
 20
49.48005737190835
 30
0.0
  0
SEQEND
  5
159
330
156
100
AcDbEntity
  8
DIBUJOS
 62
     7
  0
POLYLINE
  5
15A
330
52
100
AcDbEntity
  8
DIBUJOS
 62
     7
100
AcDb2dPolyline
 66
     1
 10
0.0
 20
0.0
 30
0.0
  0
VERTEX
  5
15B
330
15A
100
AcDbEntity
  8
DIBUJOS
 62
     7
100
AcDbVertex
100
AcDb2dVertex
 10
66.10794198300515
 20
47.48680647928444
 30
0.0
  0
VERTEX
  5
15C
330
15A
100
AcDbEntity
  8
DIBUJOS
 62
     7
100
AcDbVertex
100
AcDb2dVertex
 10
66.1135879359997
 20
47.49245395205077
 30
0.0
  0
SEQEND
  5
15D
330
15A
100
AcDbEntity
  8
DIBUJOS
 62
     7
  0
POLYLINE
  5
15E
330
52
100
AcDbEntity
  8
DIBUJOS
 62
     7
100
AcDb2dPolyline
 66
     1
 10
0.0
 20
0.0
 30
0.0
  0
VERTEX
  5
15F
330
15E
100
AcDbEntity
  8
DIBUJOS
 62
     7
100
AcDbVertex
100
AcDb2dVertex
 10
63.39757299239429
 20
47.17059663706549
 30
0.0
  0
VERTEX
  5
160
330
15E
100
AcDbEntity
  8
DIBUJOS
 62
     7
100
AcDbVertex
100
AcDb2dVertex
 10
63.39192703939909
 20
47.17624410983215
 30
0.0
  0
SEQEND
  5
161
330
15E
100
AcDbEntity
  8
DIBUJOS
 62
     7
  0
POLYLINE
  5
162
330
52
100
AcDbEntity
  8
DIBUJOS
 62
     7
100
AcDb2dPolyline
 66
     1
 10
0.0
 20
0.0
 30
0.0
  0
VERTEX
  5
163
330
162
100
AcDbEntity
  8
DIBUJOS
 62
     7
100
AcDbVertex
100
AcDb2dVertex
 10
63.39757299239429
 20
47.17059663706549
 30
0.0
  0
VERTEX
  5
164
330
162
100
AcDbEntity
  8
DIBUJOS
 62
     7
100
AcDbVertex
100
AcDb2dVertex
 10
63.7386280673324
 20
48.12600130731605
 30
0.0
  0
VERTEX
  5
165
330
162
100
AcDbEntity
  8
DIBUJOS
 62
     7
100
AcDbVertex
100
AcDb2dVertex
 10
63.74201563912926
 20
48.14746048801108
 30
0.0
  0
SEQEND
  5
166
330
162
100
AcDbEntity
  8
DIBUJOS
 62
     7
  0
POLYLINE
  5
167
330
52
100
AcDbEntity
  8
DIBUJOS
 62
     7
100
AcDb2dPolyline
 66
     1
 10
0.0
 20
0.0
 30
0.0
  0
VERTEX
  5
168
330
167
100
AcDbEntity
  8
DIBUJOS
 62
     7
100
AcDbVertex
100
AcDb2dVertex
 10
66.2378140995981
 20
47.11413102803279
 30
0.0
  0
VERTEX
  5
169
330
167
100
AcDbEntity
  8
DIBUJOS
 62
     7
100
AcDbVertex
100
AcDb2dVertex
 10
66.10794198300515
 20
47.48680647928444
 30
0.0
  0
SEQEND
  5
16A
330
167
100
AcDbEntity
  8
DIBUJOS
 62
     7
  0
POLYLINE
  5
16B
330
52
100
AcDbEntity
  8
DIBUJOS
 62
     7
100
AcDb2dPolyline
 66
     1
 10
0.0
 20
0.0
 30
0.0
  0
VERTEX
  5
16C
330
16B
100
AcDbEntity
  8
DIBUJOS
 62
     7
100
AcDbVertex
100
AcDb2dVertex
 10
66.2378140995981
 20
47.11413102803279
 30
0.0
  0
VERTEX
  5
16D
330
16B
100
AcDbEntity
  8
DIBUJOS
 62
     7
100
AcDbVertex
100
AcDb2dVertex
 10
66.24346005259267
 20
47.11977850079912
 30
0.0
  0
SEQEND
  5
16E
330
16B
100
AcDbEntity
  8
DIBUJOS
 62
     7
  0
POLYLINE
  5
16F
330
52
100
AcDbEntity
  8
DIBUJOS
 62
     7
100
AcDb2dPolyline
 66
     1
 10
0.0
 20
0.0
 30
0.0
  0
VERTEX
  5
170
330
16F
100
AcDbEntity
  8
DIBUJOS
 62
     7
100
AcDbVertex
100
AcDb2dVertex
 10
63.33545991059461
 20
46.99555233720073
 30
0.0
  0
VERTEX
  5
171
330
16F
100
AcDbEntity
  8
DIBUJOS
 62
     7
100
AcDbVertex
100
AcDb2dVertex
 10
63.32981395760005
 20
47.00119980996706
 30
0.0
  0
SEQEND
  5
172
330
16F
100
AcDbEntity
  8
DIBUJOS
 62
     7
  0
POLYLINE
  5
173
330
52
100
AcDbEntity
  8
DIBUJOS
 62
     7
100
AcDb2dPolyline
 66
     1
 10
0.0
 20
0.0
 30
0.0
  0
VERTEX
  5
174
330
173
100
AcDbEntity
  8
DIBUJOS
 62
     7
100
AcDbVertex
100
AcDb2dVertex
 10
63.33545991059461
 20
46.99555233720073
 30
0.0
  0
VERTEX
  5
175
330
173
100
AcDbEntity
  8
DIBUJOS
 62
     7
100
AcDbVertex
100
AcDb2dVertex
 10
63.39558057129681
 20
47.15415574352767
 30
0.0
  0
VERTEX
  5
176
330
173
100
AcDbEntity
  8
DIBUJOS
 62
     7
100
AcDbVertex
100
AcDb2dVertex
 10
63.39757299239429
 20
47.17059663706549
 30
0.0
  0
SEQEND
  5
177
330
173
100
AcDbEntity
  8
DIBUJOS
 62
     7
  0
POLYLINE
  5
178
330
52
100
AcDbEntity
  8
DIBUJOS
 62
     7
100
AcDb2dPolyline
 66
     1
 10
0.0
 20
0.0
 30
0.0
  0
VERTEX
  5
179
330
178
100
AcDbEntity
  8
DIBUJOS
 62
     7
100
AcDbVertex
100
AcDb2dVertex
 10
66.63872235536643
 20
45.97916529552176
 30
0.0
  0
VERTEX
  5
17A
330
178
100
AcDbEntity
  8
DIBUJOS
 62
     7
100
AcDbVertex
100
AcDb2dVertex
 10
66.2378140995981
 20
47.11413102803279
 30
0.0
  0
SEQEND
  5
17B
330
178
100
AcDbEntity
  8
DIBUJOS
 62
     7
  0
POLYLINE
  5
17C
330
52
100
AcDbEntity
  8
DIBUJOS
 62
     7
100
AcDb2dPolyline
 66
     1
 10
0.0
 20
0.0
 30
0.0
  0
VERTEX
  5
17D
330
17C
100
AcDbEntity
  8
DIBUJOS
 62
     7
100
AcDbVertex
100
AcDb2dVertex
 10
66.63872235536643
 20
45.97916529552176
 30
0.0
  0
VERTEX
  5
17E
330
17C
100
AcDbEntity
  8
DIBUJOS
 62
     7
100
AcDbVertex
100
AcDb2dVertex
 10
66.64436830836065
 20
45.98480972874455
 30
0.0
  0
SEQEND
  5
17F
330
17C
100
AcDbEntity
  8
DIBUJOS
 62
     7
  0
POLYLINE
  5
180
330
52
100
AcDbEntity
  8
DIBUJOS
 62
     7
100
AcDb2dPolyline
 66
     1
 10
0.0
 20
0.0
 30
0.0
  0
VERTEX
  5
181
330
180
100
AcDbEntity
  8
DIBUJOS
 62
     7
100
AcDbVertex
100
AcDb2dVertex
 10
63.22817464552345
 20
45.03053576886526
 30
0.0
  0
VERTEX
  5
182
330
180
100
AcDbEntity
  8
DIBUJOS
 62
     7
100
AcDbVertex
100
AcDb2dVertex
 10
64.40831408107806
 20
48.27733108483195
 30
0.0
  0
SEQEND
  5
183
330
180
100
AcDbEntity
  8
DIBUJOS
 62
     7
  0
POLYLINE
  5
184
330
52
100
AcDbEntity
  8
DIBUJOS
 62
     7
100
AcDb2dPolyline
 66
     1
 10
0.0
 20
0.0
 30
0.0
  0
VERTEX
  5
185
330
184
100
AcDbEntity
  8
DIBUJOS
 62
     7
100
AcDbVertex
100
AcDb2dVertex
 10
63.23382211828978
 20
45.0248882960986
 30
0.0
  0
VERTEX
  5
186
330
184
100
AcDbEntity
  8
DIBUJOS
 62
     7
100
AcDbVertex
100
AcDb2dVertex
 10
63.22817464552345
 20
45.03053576886526
 30
0.0
  0
SEQEND
  5
187
330
184
100
AcDbEntity
  8
DIBUJOS
 62
     7
  0
POLYLINE
  5
188
330
52
100
AcDbEntity
  8
DIBUJOS
 62
     7
100
AcDb2dPolyline
 66
     1
 10
0.0
 20
0.0
 30
0.0
  0
VERTEX
  5
189
330
188
100
AcDbEntity
  8
DIBUJOS
 62
     7
100
AcDbVertex
100
AcDb2dVertex
 10
66.98881095509627
 20
44.9797145930547
 30
0.0
  0
VERTEX
  5
18A
330
188
100
AcDbEntity
  8
DIBUJOS
 62
     7
100
AcDbVertex
100
AcDb2dVertex
 10
66.63872235536643
 20
45.97916529552176
 30
0.0
  0
SEQEND
  5
18B
330
188
100
AcDbEntity
  8
DIBUJOS
 62
     7
  0
POLYLINE
  5
18C
330
52
100
AcDbEntity
  8
DIBUJOS
 62
     7
100
AcDb2dPolyline
 66
     1
 10
0.0
 20
0.0
 30
0.0
  0
VERTEX
  5
18D
330
18C
100
AcDbEntity
  8
DIBUJOS
 62
     7
100
AcDbVertex
100
AcDb2dVertex
 10
66.99445842786261
 20
44.97407015983223
 30
0.0
  0
VERTEX
  5
18E
330
18C
100
AcDbEntity
  8
DIBUJOS
 62
     7
100
AcDbVertex
100
AcDb2dVertex
 10
66.98881095509627
 20
44.9797145930547
 30
0.0
  0
SEQEND
  5
18F
330
18C
100
AcDbEntity
  8
DIBUJOS
 62
     7
  0
POLYLINE
  5
190
330
52
100
AcDbEntity
  8
DIBUJOS
 62
     7
100
AcDb2dPolyline
 66
     1
 10
0.0
 20
0.0
 30
0.0
  0
VERTEX
  5
191
330
190
100
AcDbEntity
  8
DIBUJOS
 62
     7
100
AcDbVertex
100
AcDb2dVertex
 10
66.98881095509627
 20
44.96842268706558
 30
0.0
  0
VERTEX
  5
192
330
190
100
AcDbEntity
  8
DIBUJOS
 62
     7
100
AcDbVertex
100
AcDb2dVertex
 10
66.98316500210203
 20
44.97407015983223
 30
0.0
  0
VERTEX
  5
193
330
190
100
AcDbEntity
  8
DIBUJOS
 62
     7
100
AcDbVertex
100
AcDb2dVertex
 10
66.98881095509627
 20
44.9797145930547
 30
0.0
  0
SEQEND
  5
194
330
190
100
AcDbEntity
  8
DIBUJOS
 62
     7
  0
POLYLINE
  5
195
330
52
100
AcDbEntity
  8
DIBUJOS
 62
     7
100
AcDb2dPolyline
 66
     1
 10
0.0
 20
0.0
 30
0.0
  0
VERTEX
  5
196
330
195
100
AcDbEntity
  8
DIBUJOS
 62
     7
100
AcDbVertex
100
AcDb2dVertex
 10
66.99445842786261
 20
44.96842268706558
 30
0.0
  0
VERTEX
  5
197
330
195
100
AcDbEntity
  8
DIBUJOS
 62
     7
100
AcDbVertex
100
AcDb2dVertex
 10
66.98881095509627
 20
44.96842268706558
 30
0.0
  0
SEQEND
  5
198
330
195
100
AcDbEntity
  8
DIBUJOS
 62
     7
  0
POLYLINE
  5
199
330
52
100
AcDbEntity
  8
DIBUJOS
 62
     7
100
AcDb2dPolyline
 66
     1
 10
0.0
 20
0.0
 30
0.0
  0
VERTEX
  5
19A
330
199
100
AcDbEntity
  8
DIBUJOS
 62
     7
100
AcDbVertex
100
AcDb2dVertex
 10
66.99445842786261
 20
44.96842268706558
 30
0.0
  0
VERTEX
  5
19B
330
199
100
AcDbEntity
  8
DIBUJOS
 62
     7
100
AcDbVertex
100
AcDb2dVertex
 10
66.99445842786261
 20
44.97407015983223
 30
0.0
  0
SEQEND
  5
19C
330
199
100
AcDbEntity
  8
DIBUJOS
 62
     7
  0
POLYLINE
  5
19D
330
52
100
AcDbEntity
  8
DIBUJOS
 62
     7
100
AcDb2dPolyline
 66
     1
 10
0.0
 20
0.0
 30
0.0
  0
VERTEX
  5
19E
330
19D
100
AcDbEntity
  8
DIBUJOS
 62
     7
100
AcDbVertex
100
AcDb2dVertex
 10
66.99445842786261
 20
44.96277521429925
 30
0.0
  0
VERTEX
  5
19F
330
19D
100
AcDbEntity
  8
DIBUJOS
 62
     7
100
AcDbVertex
100
AcDb2dVertex
 10
66.99445842786261
 20
44.96842268706558
 30
0.0
  0
SEQEND
  5
1A0
330
19D
100
AcDbEntity
  8
DIBUJOS
 62
     7
  0
POLYLINE
  5
1A1
330
52
100
AcDbEntity
  8
DIBUJOS
 62
     7
100
AcDb2dPolyline
 66
     1
 10
0.0
 20
0.0
 30
0.0
  0
VERTEX
  5
1A2
330
1A1
100
AcDbEntity
  8
DIBUJOS
 62
     7
100
AcDbVertex
100
AcDb2dVertex
 10
62.38118443094323
 20
44.28518486636165
 30
0.0
  0
VERTEX
  5
1A3
330
1A1
100
AcDbEntity
  8
DIBUJOS
 62
     7
100
AcDbVertex
100
AcDb2dVertex
 10
63.33545991059461
 20
46.99555233720073
 30
0.0
  0
SEQEND
  5
1A4
330
1A1
100
AcDbEntity
  8
DIBUJOS
 62
     7
  0
POLYLINE
  5
1A5
330
52
100
AcDbEntity
  8
DIBUJOS
 62
     7
100
AcDb2dPolyline
 66
     1
 10
0.0
 20
0.0
 30
0.0
  0
VERTEX
  5
1A6
330
1A5
100
AcDbEntity
  8
DIBUJOS
 62
     7
100
AcDbVertex
100
AcDb2dVertex
 10
62.38683114382368
 20
44.27953739359499
 30
0.0
  0
VERTEX
  5
1A7
330
1A5
100
AcDbEntity
  8
DIBUJOS
 62
     7
100
AcDbVertex
100
AcDb2dVertex
 10
62.38118443094323
 20
44.28518486636165
 30
0.0
  0
SEQEND
  5
1A8
330
1A5
100
AcDbEntity
  8
DIBUJOS
 62
     7
  0
POLYLINE
  5
1A9
330
52
100
AcDbEntity
  8
DIBUJOS
 62
     7
100
AcDb2dPolyline
 66
     1
 10
0.0
 20
0.0
 30
0.0
  0
VERTEX
  5
1AA
330
1A9
100
AcDbEntity
  8
DIBUJOS
 62
     7
100
AcDbVertex
100
AcDb2dVertex
 10
62.24001964847526
 20
43.88427509082124
 30
0.0
  0
VERTEX
  5
1AB
330
1A9
100
AcDbEntity
  8
DIBUJOS
 62
     7
100
AcDbVertex
100
AcDb2dVertex
 10
62.38118443094323
 20
44.28518486636165
 30
0.0
  0
SEQEND
  5
1AC
330
1A9
100
AcDbEntity
  8
DIBUJOS
 62
     7
  0
POLYLINE
  5
1AD
330
52
100
AcDbEntity
  8
DIBUJOS
 62
     7
100
AcDb2dPolyline
 66
     1
 10
0.0
 20
0.0
 30
0.0
  0
VERTEX
  5
1AE
330
1AD
100
AcDbEntity
  8
DIBUJOS
 62
     7
100
AcDbVertex
100
AcDb2dVertex
 10
62.23437293559481
 20
43.87862761805491
 30
0.0
  0
VERTEX
  5
1AF
330
1AD
100
AcDbEntity
  8
DIBUJOS
 62
     7
100
AcDbVertex
100
AcDb2dVertex
 10
62.24001964847526
 20
43.88427509082124
 30
0.0
  0
SEQEND
  5
1B0
330
1AD
100
AcDbEntity
  8
DIBUJOS
 62
     7
  0
POLYLINE
  5
1B1
330
52
100
AcDbEntity
  8
DIBUJOS
 62
     7
100
AcDb2dPolyline
 66
     1
 10
0.0
 20
0.0
 30
0.0
  0
VERTEX
  5
1B2
330
1B1
100
AcDbEntity
  8
DIBUJOS
 62
     7
100
AcDbVertex
100
AcDb2dVertex
 10
62.23437293559481
 20
43.87298318483212
 30
0.0
  0
VERTEX
  5
1B3
330
1B1
100
AcDbEntity
  8
DIBUJOS
 62
     7
100
AcDbVertex
100
AcDb2dVertex
 10
62.23437293559481
 20
43.87862761805491
 30
0.0
  0
SEQEND
  5
1B4
330
1B1
100
AcDbEntity
  8
DIBUJOS
 62
     7
  0
POLYLINE
  5
1B5
330
52
100
AcDbEntity
  8
DIBUJOS
 62
     7
100
AcDb2dPolyline
 66
     1
 10
0.0
 20
0.0
 30
0.0
  0
VERTEX
  5
1B6
330
1B5
100
AcDbEntity
  8
DIBUJOS
 62
     7
100
AcDbVertex
100
AcDb2dVertex
 10
62.24001964847526
 20
43.87298318483212
 30
0.0
  0
VERTEX
  5
1B7
330
1B5
100
AcDbEntity
  8
DIBUJOS
 62
     7
100
AcDbVertex
100
AcDb2dVertex
 10
62.23437293559481
 20
43.87298318483212
 30
0.0
  0
SEQEND
  5
1B8
330
1B5
100
AcDbEntity
  8
DIBUJOS
 62
     7
  0
POLYLINE
  5
1B9
330
52
100
AcDbEntity
  8
DIBUJOS
 62
     7
100
AcDb2dPolyline
 66
     1
 10
0.0
 20
0.0
 30
0.0
  0
VERTEX
  5
1BA
330
1B9
100
AcDbEntity
  8
DIBUJOS
 62
     7
100
AcDbVertex
100
AcDb2dVertex
 10
62.24001964847526
 20
43.87298318483212
 30
0.0
  0
VERTEX
  5
1BB
330
1B9
100
AcDbEntity
  8
DIBUJOS
 62
     7
100
AcDbVertex
100
AcDb2dVertex
 10
62.24566636135571
 20
43.87862761805491
 30
0.0
  0
VERTEX
  5
1BC
330
1B9
100
AcDbEntity
  8
DIBUJOS
 62
     7
100
AcDbVertex
100
AcDb2dVertex
 10
62.24001964847526
 20
43.88427509082124
 30
0.0
  0
SEQEND
  5
1BD
330
1B9
100
AcDbEntity
  8
DIBUJOS
 62
     7
  0
POLYLINE
  5
1BE
330
52
100
AcDbEntity
  8
DIBUJOS
 62
     7
100
AcDb2dPolyline
 66
     1
 10
0.0
 20
0.0
 30
0.0
  0
VERTEX
  5
1BF
330
1BE
100
AcDbEntity
  8
DIBUJOS
 62
     7
100
AcDbVertex
100
AcDb2dVertex
 10
62.23437293559481
 20
43.86733571206578
 30
0.0
  0
VERTEX
  5
1C0
330
1BE
100
AcDbEntity
  8
DIBUJOS
 62
     7
100
AcDbVertex
100
AcDb2dVertex
 10
62.23437293559481
 20
43.87298318483212
 30
0.0
  0
SEQEND
  5
1C1
330
1BE
100
AcDbEntity
  8
DIBUJOS
 62
     7
  0
POLYLINE
  5
1C2
330
52
100
AcDbEntity
  8
DIBUJOS
 62
     7
100
AcDb2dPolyline
 66
     1
 10
0.0
 20
0.0
 30
0.0
  0
VERTEX
  5
1C3
330
1C2
100
AcDbEntity
  8
DIBUJOS
 62
     7
100
AcDbVertex
100
AcDb2dVertex
 10
62.76515330795577
 20
43.76004892722252
 30
0.0
  0
VERTEX
  5
1C4
330
1C2
100
AcDbEntity
  8
DIBUJOS
 62
     7
100
AcDbVertex
100
AcDb2dVertex
 10
62.75950735496153
 20
43.76569639998885
 30
0.0
  0
SEQEND
  5
1C5
330
1C2
100
AcDbEntity
  8
DIBUJOS
 62
     7
  0
POLYLINE
  5
1C6
330
52
100
AcDbEntity
  8
DIBUJOS
 62
     7
100
AcDb2dPolyline
 66
     1
 10
0.0
 20
0.0
 30
0.0
  0
VERTEX
  5
1C7
330
1C6
100
AcDbEntity
  8
DIBUJOS
 62
     7
100
AcDbVertex
100
AcDb2dVertex
 10
62.76515330795577
 20
43.76004892722252
 30
0.0
  0
VERTEX
  5
1C8
330
1C6
100
AcDbEntity
  8
DIBUJOS
 62
     7
100
AcDbVertex
100
AcDb2dVertex
 10
63.22817464552345
 20
45.03053576886526
 30
0.0
  0
SEQEND
  5
1C9
330
1C6
100
AcDbEntity
  8
DIBUJOS
 62
     7
  0
POLYLINE
  5
1CA
330
52
100
AcDbEntity
  8
DIBUJOS
 62
     7
100
AcDb2dPolyline
 66
     1
 10
0.0
 20
0.0
 30
0.0
  0
VERTEX
  5
1CB
330
1CA
100
AcDbEntity
  8
DIBUJOS
 62
     7
100
AcDbVertex
100
AcDb2dVertex
 10
62.61834181260735
 20
43.35349471845996
 30
0.0
  0
VERTEX
  5
1CC
330
1CA
100
AcDbEntity
  8
DIBUJOS
 62
     7
100
AcDbVertex
100
AcDb2dVertex
 10
62.61269509972691
 20
43.35914219122662
 30
0.0
  0
SEQEND
  5
1CD
330
1CA
100
AcDbEntity
  8
DIBUJOS
 62
     7
  0
POLYLINE
  5
1CE
330
52
100
AcDbEntity
  8
DIBUJOS
 62
     7
100
AcDb2dPolyline
 66
     1
 10
0.0
 20
0.0
 30
0.0
  0
VERTEX
  5
1CF
330
1CE
100
AcDbEntity
  8
DIBUJOS
 62
     7
100
AcDbVertex
100
AcDb2dVertex
 10
62.61834181260735
 20
43.35349471845996
 30
0.0
  0
VERTEX
  5
1D0
330
1CE
100
AcDbEntity
  8
DIBUJOS
 62
     7
100
AcDbVertex
100
AcDb2dVertex
 10
62.76316088685861
 20
43.74360803368437
 30
0.0
  0
VERTEX
  5
1D1
330
1CE
100
AcDbEntity
  8
DIBUJOS
 62
     7
100
AcDbVertex
100
AcDb2dVertex
 10
62.76515330795577
 20
43.76004892722252
 30
0.0
  0
SEQEND
  5
1D2
330
1CE
100
AcDbEntity
  8
DIBUJOS
 62
     7
  0
POLYLINE
  5
1D3
330
52
100
AcDbEntity
  8
DIBUJOS
 62
     7
100
AcDb2dPolyline
 66
     1
 10
0.0
 20
0.0
 30
0.0
  0
VERTEX
  5
1D4
330
1D3
100
AcDbEntity
  8
DIBUJOS
 62
     7
100
AcDbVertex
100
AcDb2dVertex
 10
67.62687811230049
 20
43.18409485181734
 30
0.0
  0
VERTEX
  5
1D5
330
1D3
100
AcDbEntity
  8
DIBUJOS
 62
     7
100
AcDbVertex
100
AcDb2dVertex
 10
66.99445842786261
 20
44.96277521429925
 30
0.0
  0
SEQEND
  5
1D6
330
1D3
100
AcDbEntity
  8
DIBUJOS
 62
     7
  0
POLYLINE
  5
1D7
330
52
100
AcDbEntity
  8
DIBUJOS
 62
     7
100
AcDb2dPolyline
 66
     1
 10
0.0
 20
0.0
 30
0.0
  0
VERTEX
  5
1D8
330
1D7
100
AcDbEntity
  8
DIBUJOS
 62
     7
100
AcDbVertex
100
AcDb2dVertex
 10
67.62687811230049
 20
43.18409485181734
 30
0.0
  0
VERTEX
  5
1D9
330
1D7
100
AcDbEntity
  8
DIBUJOS
 62
     7
100
AcDbVertex
100
AcDb2dVertex
 10
67.63252406529504
 20
43.189742324584
 30
0.0
  0
SEQEND
  5
1DA
330
1D7
100
AcDbEntity
  8
DIBUJOS
 62
     7
  0
POLYLINE
  5
1DB
330
52
100
AcDbEntity
  8
DIBUJOS
 62
     7
100
AcDb2dPolyline
 66
     1
 10
0.0
 20
0.0
 30
0.0
  0
VERTEX
  5
1DC
330
1DB
100
AcDbEntity
  8
DIBUJOS
 62
     7
100
AcDbVertex
100
AcDb2dVertex
 10
61.98027617517491
 20
43.14456862154042
 30
0.0
  0
VERTEX
  5
1DD
330
1DB
100
AcDbEntity
  8
DIBUJOS
 62
     7
100
AcDbVertex
100
AcDb2dVertex
 10
62.23437293559481
 20
43.86733571206578
 30
0.0
  0
SEQEND
  5
1DE
330
1DB
100
AcDbEntity
  8
DIBUJOS
 62
     7
  0
POLYLINE
  5
1DF
330
52
100
AcDbEntity
  8
DIBUJOS
 62
     7
100
AcDb2dPolyline
 66
     1
 10
0.0
 20
0.0
 30
0.0
  0
VERTEX
  5
1E0
330
1DF
100
AcDbEntity
  8
DIBUJOS
 62
     7
100
AcDbVertex
100
AcDb2dVertex
 10
61.98027617517491
 20
43.13892418831762
 30
0.0
  0
VERTEX
  5
1E1
330
1DF
100
AcDbEntity
  8
DIBUJOS
 62
     7
100
AcDbVertex
100
AcDb2dVertex
 10
61.98027617517491
 20
43.14456862154042
 30
0.0
  0
SEQEND
  5
1E2
330
1DF
100
AcDbEntity
  8
DIBUJOS
 62
     7
  0
POLYLINE
  5
1E3
330
52
100
AcDbEntity
  8
DIBUJOS
 62
     7
100
AcDb2dPolyline
 66
     1
 10
0.0
 20
0.0
 30
0.0
  0
VERTEX
  5
1E4
330
1E3
100
AcDbEntity
  8
DIBUJOS
 62
     7
100
AcDbVertex
100
AcDb2dVertex
 10
61.98592288805536
 20
43.13892418831762
 30
0.0
  0
VERTEX
  5
1E5
330
1E3
100
AcDbEntity
  8
DIBUJOS
 62
     7
100
AcDbVertex
100
AcDb2dVertex
 10
61.98027617517491
 20
43.13892418831762
 30
0.0
  0
SEQEND
  5
1E6
330
1E3
100
AcDbEntity
  8
DIBUJOS
 62
     7
  0
POLYLINE
  5
1E7
330
52
100
AcDbEntity
  8
DIBUJOS
 62
     7
100
AcDb2dPolyline
 66
     1
 10
0.0
 20
0.0
 30
0.0
  0
VERTEX
  5
1E8
330
1E7
100
AcDbEntity
  8
DIBUJOS
 62
     7
100
AcDbVertex
100
AcDb2dVertex
 10
67.63252406529504
 20
43.13892418831762
 30
0.0
  0
VERTEX
  5
1E9
330
1E7
100
AcDbEntity
  8
DIBUJOS
 62
     7
100
AcDbVertex
100
AcDb2dVertex
 10
67.63817001828993
 20
43.14456862154042
 30
0.0
  0
VERTEX
  5
1EA
330
1E7
100
AcDbEntity
  8
DIBUJOS
 62
     7
100
AcDbVertex
100
AcDb2dVertex
 10
67.62857113831303
 20
43.17336830101401
 30
0.0
  0
VERTEX
  5
1EB
330
1E7
100
AcDbEntity
  8
DIBUJOS
 62
     7
100
AcDbVertex
100
AcDb2dVertex
 10
67.62687811230049
 20
43.18409485181734
 30
0.0
  0
SEQEND
  5
1EC
330
1E7
100
AcDbEntity
  8
DIBUJOS
 62
     7
  0
POLYLINE
  5
1ED
330
52
100
AcDbEntity
  8
DIBUJOS
 62
     7
100
AcDb2dPolyline
 66
     1
 10
0.0
 20
0.0
 30
0.0
  0
VERTEX
  5
1EE
330
1ED
100
AcDbEntity
  8
DIBUJOS
 62
     7
100
AcDbVertex
100
AcDb2dVertex
 10
64.89956974293354
 20
42.97517179444166
 30
0.0
  0
VERTEX
  5
1EF
330
1ED
100
AcDbEntity
  8
DIBUJOS
 62
     7
100
AcDbVertex
100
AcDb2dVertex
 10
64.90521569592875
 20
48.26603917884282
 30
0.0
  0
VERTEX
  5
1F0
330
1ED
100
AcDbEntity
  8
DIBUJOS
 62
     7
100
AcDbVertex
100
AcDb2dVertex
 10
64.89956974293354
 20
48.27168361206562
 30
0.0
  0
SEQEND
  5
1F1
330
1ED
100
AcDbEntity
  8
DIBUJOS
 62
     7
  0
POLYLINE
  5
1F2
330
52
100
AcDbEntity
  8
DIBUJOS
 62
     7
100
AcDb2dPolyline
 66
     1
 10
0.0
 20
0.0
 30
0.0
  0
VERTEX
  5
1F3
330
1F2
100
AcDbEntity
  8
DIBUJOS
 62
     7
100
AcDbVertex
100
AcDb2dVertex
 10
62.47153031725894
 20
42.96952432167533
 30
0.0
  0
VERTEX
  5
1F4
330
1F2
100
AcDbEntity
  8
DIBUJOS
 62
     7
100
AcDbVertex
100
AcDb2dVertex
 10
62.45967229619846
 20
42.97404412361491
 30
0.0
  0
VERTEX
  5
1F5
330
1F2
100
AcDbEntity
  8
DIBUJOS
 62
     7
100
AcDbVertex
100
AcDb2dVertex
 10
62.05932863572973
 20
43.13892418831762
 30
0.0
  0
VERTEX
  5
1F6
330
1F2
100
AcDbEntity
  8
DIBUJOS
 62
     7
100
AcDbVertex
100
AcDb2dVertex
 10
61.98592288805536
 20
43.13892418831762
 30
0.0
  0
SEQEND
  5
1F7
330
1F2
100
AcDbEntity
  8
DIBUJOS
 62
     7
  0
POLYLINE
  5
1F8
330
52
100
AcDbEntity
  8
DIBUJOS
 62
     7
100
AcDb2dPolyline
 66
     1
 10
0.0
 20
0.0
 30
0.0
  0
VERTEX
  5
1F9
330
1F8
100
AcDbEntity
  8
DIBUJOS
 62
     7
100
AcDbVertex
100
AcDb2dVertex
 10
62.47717703013939
 20
42.96952432167533
 30
0.0
  0
VERTEX
  5
1FA
330
1F8
100
AcDbEntity
  8
DIBUJOS
 62
     7
100
AcDbVertex
100
AcDb2dVertex
 10
62.47153031725894
 20
42.96952432167533
 30
0.0
  0
SEQEND
  5
1FB
330
1F8
100
AcDbEntity
  8
DIBUJOS
 62
     7
  0
POLYLINE
  5
1FC
330
52
100
AcDbEntity
  8
DIBUJOS
 62
     7
100
AcDb2dPolyline
 66
     1
 10
0.0
 20
0.0
 30
0.0
  0
VERTEX
  5
1FD
330
1FC
100
AcDbEntity
  8
DIBUJOS
 62
     7
100
AcDbVertex
100
AcDb2dVertex
 10
62.47717703013939
 20
42.96952432167533
 30
0.0
  0
VERTEX
  5
1FE
330
1FC
100
AcDbEntity
  8
DIBUJOS
 62
     7
100
AcDbVertex
100
AcDb2dVertex
 10
62.61634939151051
 20
43.33705382492182
 30
0.0
  0
VERTEX
  5
1FF
330
1FC
100
AcDbEntity
  8
DIBUJOS
 62
     7
100
AcDbVertex
100
AcDb2dVertex
 10
62.61834181260735
 20
43.35349471845996
 30
0.0
  0
SEQEND
  5
200
330
1FC
100
AcDbEntity
  8
DIBUJOS
 62
     7
  0
POLYLINE
  5
201
330
52
100
AcDbEntity
  8
DIBUJOS
 62
     7
100
AcDb2dPolyline
 66
     1
 10
0.0
 20
0.0
 30
0.0
  0
VERTEX
  5
202
330
201
100
AcDbEntity
  8
DIBUJOS
 62
     7
100
AcDbVertex
100
AcDb2dVertex
 10
64.71887797030243
 20
42.96952432167533
 30
0.0
  0
VERTEX
  5
203
330
201
100
AcDbEntity
  8
DIBUJOS
 62
     7
100
AcDbVertex
100
AcDb2dVertex
 10
64.7132304975361
 20
48.27168361206562
 30
0.0
  0
SEQEND
  5
204
330
201
100
AcDbEntity
  8
DIBUJOS
 62
     7
  0
POLYLINE
  5
205
330
52
100
AcDbEntity
  8
DIBUJOS
 62
     7
100
AcDb2dPolyline
 66
     1
 10
0.0
 20
0.0
 30
0.0
  0
VERTEX
  5
206
330
205
100
AcDbEntity
  8
DIBUJOS
 62
     7
100
AcDbVertex
100
AcDb2dVertex
 10
64.72452392329733
 20
42.96952432167533
 30
0.0
  0
VERTEX
  5
207
330
205
100
AcDbEntity
  8
DIBUJOS
 62
     7
100
AcDbVertex
100
AcDb2dVertex
 10
64.71887797030243
 20
42.96952432167533
 30
0.0
  0
SEQEND
  5
208
330
205
100
AcDbEntity
  8
DIBUJOS
 62
     7
  0
POLYLINE
  5
209
330
52
100
AcDbEntity
  8
DIBUJOS
 62
     7
100
AcDb2dPolyline
 66
     1
 10
0.0
 20
0.0
 30
0.0
  0
VERTEX
  5
20A
330
209
100
AcDbEntity
  8
DIBUJOS
 62
     7
100
AcDbVertex
100
AcDb2dVertex
 10
64.89956974293354
 20
42.96952432167533
 30
0.0
  0
VERTEX
  5
20B
330
209
100
AcDbEntity
  8
DIBUJOS
 62
     7
100
AcDbVertex
100
AcDb2dVertex
 10
64.89392227016752
 20
42.96952432167533
 30
0.0
  0
SEQEND
  5
20C
330
209
100
AcDbEntity
  8
DIBUJOS
 62
     7
  0
POLYLINE
  5
20D
330
52
100
AcDbEntity
  8
DIBUJOS
 62
     7
100
AcDb2dPolyline
 66
     1
 10
0.0
 20
0.0
 30
0.0
  0
VERTEX
  5
20E
330
20D
100
AcDbEntity
  8
DIBUJOS
 62
     7
100
AcDbVertex
100
AcDb2dVertex
 10
64.89956974293354
 20
42.96952432167533
 30
0.0
  0
VERTEX
  5
20F
330
20D
100
AcDbEntity
  8
DIBUJOS
 62
     7
100
AcDbVertex
100
AcDb2dVertex
 10
64.89956974293354
 20
42.97517179444166
 30
0.0
  0
SEQEND
  5
210
330
20D
100
AcDbEntity
  8
DIBUJOS
 62
     7
  0
POLYLINE
  5
211
330
52
100
AcDbEntity
  8
DIBUJOS
 62
     7
100
AcDb2dPolyline
 66
     1
 10
0.0
 20
0.0
 30
0.0
  0
VERTEX
  5
212
330
211
100
AcDbEntity
  8
DIBUJOS
 62
     7
100
AcDbVertex
100
AcDb2dVertex
 10
67.14126992321134
 20
42.96952432167533
 30
0.0
  0
VERTEX
  5
213
330
211
100
AcDbEntity
  8
DIBUJOS
 62
     7
100
AcDbVertex
100
AcDb2dVertex
 10
67.1367531608153
 20
42.97573714962714
 30
0.0
  0
VERTEX
  5
214
330
211
100
AcDbEntity
  8
DIBUJOS
 62
     7
100
AcDbVertex
100
AcDb2dVertex
 10
65.26264479443715
 20
48.1423783704299
 30
0.0
  0
VERTEX
  5
215
330
211
100
AcDbEntity
  8
DIBUJOS
 62
     7
100
AcDbVertex
100
AcDb2dVertex
 10
65.2609517684246
 20
48.15310492123323
 30
0.0
  0
SEQEND
  5
216
330
211
100
AcDbEntity
  8
DIBUJOS
 62
     7
  0
POLYLINE
  5
217
330
52
100
AcDbEntity
  8
DIBUJOS
 62
     7
100
AcDb2dPolyline
 66
     1
 10
0.0
 20
0.0
 30
0.0
  0
VERTEX
  5
218
330
217
100
AcDbEntity
  8
DIBUJOS
 62
     7
100
AcDbVertex
100
AcDb2dVertex
 10
67.14126992321134
 20
42.96952432167533
 30
0.0
  0
VERTEX
  5
219
330
217
100
AcDbEntity
  8
DIBUJOS
 62
     7
100
AcDbVertex
100
AcDb2dVertex
 10
67.17458484530887
 20
42.98251229322054
 30
0.0
  0
VERTEX
  5
21A
330
217
100
AcDbEntity
  8
DIBUJOS
 62
     7
100
AcDbVertex
100
AcDb2dVertex
 10
67.54217817897965
 20
43.13892418831762
 30
0.0
  0
VERTEX
  5
21B
330
217
100
AcDbEntity
  8
DIBUJOS
 62
     7
100
AcDbVertex
100
AcDb2dVertex
 10
67.63252406529504
 20
43.13892418831762
 30
0.0
  0
SEQEND
  5
21C
330
217
100
AcDbEntity
  8
DIBUJOS
 62
     7
  0
POLYLINE
  5
21D
330
52
100
AcDbEntity
  8
DIBUJOS
 62
     7
100
AcDb2dPolyline
 66
     1
 10
0.0
 20
0.0
 30
0.0
  0
VERTEX
  5
21E
330
21D
100
AcDbEntity
  8
DIBUJOS
 62
     7
100
AcDbVertex
100
AcDb2dVertex
 10
62.47717703013939
 20
42.96387988845286
 30
0.0
  0
VERTEX
  5
21F
330
21D
100
AcDbEntity
  8
DIBUJOS
 62
     7
100
AcDbVertex
100
AcDb2dVertex
 10
62.47717703013939
 20
42.96952432167533
 30
0.0
  0
SEQEND
  5
220
330
21D
100
AcDbEntity
  8
DIBUJOS
 62
     7
  0
POLYLINE
  5
221
330
52
100
AcDbEntity
  8
DIBUJOS
 62
     7
100
AcDb2dPolyline
 66
     1
 10
0.0
 20
0.0
 30
0.0
  0
VERTEX
  5
222
330
221
100
AcDbEntity
  8
DIBUJOS
 62
     7
100
AcDbVertex
100
AcDb2dVertex
 10
64.71887797030243
 20
42.96387988845286
 30
0.0
  0
VERTEX
  5
223
330
221
100
AcDbEntity
  8
DIBUJOS
 62
     7
100
AcDbVertex
100
AcDb2dVertex
 10
64.71887797030243
 20
42.96952432167533
 30
0.0
  0
SEQEND
  5
224
330
221
100
AcDbEntity
  8
DIBUJOS
 62
     7
  0
POLYLINE
  5
225
330
52
100
AcDbEntity
  8
DIBUJOS
 62
     7
100
AcDb2dPolyline
 66
     1
 10
0.0
 20
0.0
 30
0.0
  0
VERTEX
  5
226
330
225
100
AcDbEntity
  8
DIBUJOS
 62
     7
100
AcDbVertex
100
AcDb2dVertex
 10
64.72452392329733
 20
42.96952432167533
 30
0.0
  0
VERTEX
  5
227
330
225
100
AcDbEntity
  8
DIBUJOS
 62
     7
100
AcDbVertex
100
AcDb2dVertex
 10
64.89392227016752
 20
42.96952432167533
 30
0.0
  0
SEQEND
  5
228
330
225
100
AcDbEntity
  8
DIBUJOS
 62
     7
  0
POLYLINE
  5
229
330
52
100
AcDbEntity
  8
DIBUJOS
 62
     7
100
AcDb2dPolyline
 66
     1
 10
0.0
 20
0.0
 30
0.0
  0
VERTEX
  5
22A
330
229
100
AcDbEntity
  8
DIBUJOS
 62
     7
100
AcDbVertex
100
AcDb2dVertex
 10
61.98027617517491
 20
43.13892418831762
 30
0.0
  0
VERTEX
  5
22B
330
229
100
AcDbEntity
  8
DIBUJOS
 62
     7
100
AcDbVertex
100
AcDb2dVertex
 10
61.97575865289331
 20
43.13271136036582
 30
0.0
  0
VERTEX
  5
22C
330
229
100
AcDbEntity
  8
DIBUJOS
 62
     7
100
AcDbVertex
100
AcDb2dVertex
 10
61.88428357597876
 20
42.8565931036096
 30
0.0
  0
VERTEX
  5
22D
330
229
100
AcDbEntity
  8
DIBUJOS
 62
     7
100
AcDbVertex
100
AcDb2dVertex
 10
61.8899302888592
 20
42.85094563084295
 30
0.0
  0
VERTEX
  5
22E
330
229
100
AcDbEntity
  8
DIBUJOS
 62
     7
100
AcDbVertex
100
AcDb2dVertex
 10
62.26260649999737
 20
42.84812493400332
 30
0.0
  0
VERTEX
  5
22F
330
229
100
AcDbEntity
  8
DIBUJOS
 62
     7
100
AcDbVertex
100
AcDb2dVertex
 10
62.33601148778585
 20
42.84812493400332
 30
0.0
  0
VERTEX
  5
230
330
229
100
AcDbEntity
  8
DIBUJOS
 62
     7
100
AcDbVertex
100
AcDb2dVertex
 10
62.43765079986214
 20
42.85094563084295
 30
0.0
  0
VERTEX
  5
231
330
229
100
AcDbEntity
  8
DIBUJOS
 62
     7
100
AcDbVertex
100
AcDb2dVertex
 10
62.44894422562304
 20
42.86224057637593
 30
0.0
  0
VERTEX
  5
232
330
229
100
AcDbEntity
  8
DIBUJOS
 62
     7
100
AcDbVertex
100
AcDb2dVertex
 10
62.47518384915602
 20
42.94743595537053
 30
0.0
  0
VERTEX
  5
233
330
229
100
AcDbEntity
  8
DIBUJOS
 62
     7
100
AcDbVertex
100
AcDb2dVertex
 10
62.47717703013939
 20
42.96387988845286
 30
0.0
  0
SEQEND
  5
234
330
229
100
AcDbEntity
  8
DIBUJOS
 62
     7
  0
POLYLINE
  5
235
330
52
100
AcDbEntity
  8
DIBUJOS
 62
     7
100
AcDb2dPolyline
 66
     1
 10
0.0
 20
0.0
 30
0.0
  0
VERTEX
  5
236
330
235
100
AcDbEntity
  8
DIBUJOS
 62
     7
100
AcDbVertex
100
AcDb2dVertex
 10
64.71887797030243
 20
42.96387988845286
 30
0.0
  0
VERTEX
  5
237
330
235
100
AcDbEntity
  8
DIBUJOS
 62
     7
100
AcDbVertex
100
AcDb2dVertex
 10
64.7132304975361
 20
42.8565931036096
 30
0.0
  0
VERTEX
  5
238
330
235
100
AcDbEntity
  8
DIBUJOS
 62
     7
100
AcDbVertex
100
AcDb2dVertex
 10
64.71887797030243
 20
42.85094563084295
 30
0.0
  0
VERTEX
  5
239
330
235
100
AcDbEntity
  8
DIBUJOS
 62
     7
100
AcDbVertex
100
AcDb2dVertex
 10
64.87698289141207
 20
42.8453011976208
 30
0.0
  0
VERTEX
  5
23A
330
235
100
AcDbEntity
  8
DIBUJOS
 62
     7
100
AcDbVertex
100
AcDb2dVertex
 10
64.88827631717297
 20
42.85094563084295
 30
0.0
  0
VERTEX
  5
23B
330
235
100
AcDbEntity
  8
DIBUJOS
 62
     7
100
AcDbVertex
100
AcDb2dVertex
 10
64.89392227016752
 20
42.8453011976208
 30
0.0
  0
VERTEX
  5
23C
330
235
100
AcDbEntity
  8
DIBUJOS
 62
     7
100
AcDbVertex
100
AcDb2dVertex
 10
64.90521569592875
 20
42.8565931036096
 30
0.0
  0
VERTEX
  5
23D
330
235
100
AcDbEntity
  8
DIBUJOS
 62
     7
100
AcDbVertex
100
AcDb2dVertex
 10
64.90521569592875
 20
42.96387988845286
 30
0.0
  0
VERTEX
  5
23E
330
235
100
AcDbEntity
  8
DIBUJOS
 62
     7
100
AcDbVertex
100
AcDb2dVertex
 10
64.89956974293354
 20
42.96952432167533
 30
0.0
  0
SEQEND
  5
23F
330
235
100
AcDbEntity
  8
DIBUJOS
 62
     7
  0
POLYLINE
  5
240
330
52
100
AcDbEntity
  8
DIBUJOS
 62
     7
100
AcDb2dPolyline
 66
     1
 10
0.0
 20
0.0
 30
0.0
  0
VERTEX
  5
241
330
240
100
AcDbEntity
  8
DIBUJOS
 62
     7
100
AcDbVertex
100
AcDb2dVertex
 10
67.14126992321134
 20
42.96952432167533
 30
0.0
  0
VERTEX
  5
242
330
240
100
AcDbEntity
  8
DIBUJOS
 62
     7
100
AcDbVertex
100
AcDb2dVertex
 10
67.16950272772738
 20
42.86224057637593
 30
0.0
  0
VERTEX
  5
243
330
240
100
AcDbEntity
  8
DIBUJOS
 62
     7
100
AcDbVertex
100
AcDb2dVertex
 10
67.18079615348891
 20
42.85094563084295
 30
0.0
  0
VERTEX
  5
244
330
240
100
AcDbEntity
  8
DIBUJOS
 62
     7
100
AcDbVertex
100
AcDb2dVertex
 10
67.26549456703765
 20
42.8453011976208
 30
0.0
  0
VERTEX
  5
245
330
240
100
AcDbEntity
  8
DIBUJOS
 62
     7
100
AcDbVertex
100
AcDb2dVertex
 10
67.36713387911458
 20
42.85094563084295
 30
0.0
  0
VERTEX
  5
246
330
240
100
AcDbEntity
  8
DIBUJOS
 62
     7
100
AcDbVertex
100
AcDb2dVertex
 10
67.72286995161076
 20
42.85094563084295
 30
0.0
  0
VERTEX
  5
247
330
240
100
AcDbEntity
  8
DIBUJOS
 62
     7
100
AcDbVertex
100
AcDb2dVertex
 10
67.73416337737166
 20
42.86224057637593
 30
0.0
  0
VERTEX
  5
248
330
240
100
AcDbEntity
  8
DIBUJOS
 62
     7
100
AcDbVertex
100
AcDb2dVertex
 10
67.64697253773603
 20
43.12048935391055
 30
0.0
  0
VERTEX
  5
249
330
240
100
AcDbEntity
  8
DIBUJOS
 62
     7
100
AcDbVertex
100
AcDb2dVertex
 10
67.63252406529504
 20
43.13892418831762
 30
0.0
  0
SEQEND
  5
24A
330
240
100
AcDbEntity
  8
DIBUJOS
 62
     7
  0
ENDBLK
  5
55
330
52
100
AcDbEntity
  8
0
100
AcDbBlockEnd
  0
BLOCK
  5
24D
330
24B
100
AcDbEntity
  8
0
100
AcDbBlockBegin
  2
BLOCK_3
 70
     0
 10
0.0
 20
0.0
 30
0.0
  3
BLOCK_3
  1

  0
POLYLINE
  5
24F
330
24B
100
AcDbEntity
  8
DIBUJOS
 62
     7
100
AcDb2dPolyline
 66
     1
 10
0.0
 20
0.0
 30
0.0
  0
VERTEX
  5
250
330
24F
100
AcDbEntity
  8
DIBUJOS
 62
     7
100
AcDbVertex
100
AcDb2dVertex
 10
81.22362461200919
 20
50.32140011372255
 30
0.0
  0
VERTEX
  5
251
330
24F
100
AcDbEntity
  8
DIBUJOS
 62
     7
100
AcDbVertex
100
AcDb2dVertex
 10
81.21797713924286
 20
50.32140011372255
 30
0.0
  0
SEQEND
  5
252
330
24F
100
AcDbEntity
  8
DIBUJOS
 62
     7
  0
POLYLINE
  5
253
330
24B
100
AcDbEntity
  8
DIBUJOS
 62
     7
100
AcDb2dPolyline
 66
     1
 10
0.0
 20
0.0
 30
0.0
  0
VERTEX
  5
254
330
253
100
AcDbEntity
  8
DIBUJOS
 62
     7
100
AcDbVertex
100
AcDb2dVertex
 10
81.22927208477617
 20
50.32140011372255
 30
0.0
  0
VERTEX
  5
255
330
253
100
AcDbEntity
  8
DIBUJOS
 62
     7
100
AcDbVertex
100
AcDb2dVertex
 10
81.22362461200919
 20
50.32140011372255
 30
0.0
  0
SEQEND
  5
256
330
253
100
AcDbEntity
  8
DIBUJOS
 62
     7
  0
POLYLINE
  5
257
330
24B
100
AcDbEntity
  8
DIBUJOS
 62
     7
100
AcDb2dPolyline
 66
     1
 10
0.0
 20
0.0
 30
0.0
  0
VERTEX
  5
258
330
257
100
AcDbEntity
  8
DIBUJOS
 62
     7
100
AcDbVertex
100
AcDb2dVertex
 10
81.29138516657521
 20
50.32140011372255
 30
0.0
  0
VERTEX
  5
259
330
257
100
AcDbEntity
  8
DIBUJOS
 62
     7
100
AcDbVertex
100
AcDb2dVertex
 10
81.28573769380887
 20
50.32140011372255
 30
0.0
  0
SEQEND
  5
25A
330
257
100
AcDbEntity
  8
DIBUJOS
 62
     7
  0
POLYLINE
  5
25B
330
24B
100
AcDbEntity
  8
DIBUJOS
 62
     7
100
AcDb2dPolyline
 66
     1
 10
0.0
 20
0.0
 30
0.0
  0
VERTEX
  5
25C
330
25B
100
AcDbEntity
  8
DIBUJOS
 62
     7
100
AcDbVertex
100
AcDb2dVertex
 10
81.297029599798
 20
50.32140011372255
 30
0.0
  0
VERTEX
  5
25D
330
25B
100
AcDbEntity
  8
DIBUJOS
 62
     7
100
AcDbVertex
100
AcDb2dVertex
 10
81.29138516657521
 20
50.32140011372255
 30
0.0
  0
SEQEND
  5
25E
330
25B
100
AcDbEntity
  8
DIBUJOS
 62
     7
  0
POLYLINE
  5
25F
330
24B
100
AcDbEntity
  8
DIBUJOS
 62
     7
100
AcDb2dPolyline
 66
     1
 10
0.0
 20
0.0
 30
0.0
  0
VERTEX
  5
260
330
25F
100
AcDbEntity
  8
DIBUJOS
 62
     7
100
AcDbVertex
100
AcDb2dVertex
 10
81.30267707256434
 20
50.32140011372255
 30
0.0
  0
VERTEX
  5
261
330
25F
100
AcDbEntity
  8
DIBUJOS
 62
     7
100
AcDbVertex
100
AcDb2dVertex
 10
81.297029599798
 20
50.32140011372255
 30
0.0
  0
SEQEND
  5
262
330
25F
100
AcDbEntity
  8
DIBUJOS
 62
     7
  0
POLYLINE
  5
263
330
24B
100
AcDbEntity
  8
DIBUJOS
 62
     7
100
AcDb2dPolyline
 66
     1
 10
0.0
 20
0.0
 30
0.0
  0
VERTEX
  5
264
330
263
100
AcDbEntity
  8
DIBUJOS
 62
     7
100
AcDbVertex
100
AcDb2dVertex
 10
81.30832454533066
 20
50.32140011372255
 30
0.0
  0
VERTEX
  5
265
330
263
100
AcDbEntity
  8
DIBUJOS
 62
     7
100
AcDbVertex
100
AcDb2dVertex
 10
81.30267707256434
 20
50.32140011372255
 30
0.0
  0
SEQEND
  5
266
330
263
100
AcDbEntity
  8
DIBUJOS
 62
     7
  0
POLYLINE
  5
267
330
24B
100
AcDbEntity
  8
DIBUJOS
 62
     7
100
AcDb2dPolyline
 66
     1
 10
0.0
 20
0.0
 30
0.0
  0
VERTEX
  5
268
330
267
100
AcDbEntity
  8
DIBUJOS
 62
     7
100
AcDbVertex
100
AcDb2dVertex
 10
81.43819514215153
 20
50.32140011372255
 30
0.0
  0
VERTEX
  5
269
330
267
100
AcDbEntity
  8
DIBUJOS
 62
     7
100
AcDbVertex
100
AcDb2dVertex
 10
81.4325476693852
 20
50.32140011372255
 30
0.0
  0
SEQEND
  5
26A
330
267
100
AcDbEntity
  8
DIBUJOS
 62
     7
  0
POLYLINE
  5
26B
330
24B
100
AcDbEntity
  8
DIBUJOS
 62
     7
100
AcDb2dPolyline
 66
     1
 10
0.0
 20
0.0
 30
0.0
  0
VERTEX
  5
26C
330
26B
100
AcDbEntity
  8
DIBUJOS
 62
     7
100
AcDbVertex
100
AcDb2dVertex
 10
81.44384261491787
 20
50.32140011372255
 30
0.0
  0
VERTEX
  5
26D
330
26B
100
AcDbEntity
  8
DIBUJOS
 62
     7
100
AcDbVertex
100
AcDb2dVertex
 10
81.43819514215153
 20
50.32140011372255
 30
0.0
  0
SEQEND
  5
26E
330
26B
100
AcDbEntity
  8
DIBUJOS
 62
     7
  0
POLYLINE
  5
26F
330
24B
100
AcDbEntity
  8
DIBUJOS
 62
     7
100
AcDb2dPolyline
 66
     1
 10
0.0
 20
0.0
 30
0.0
  0
VERTEX
  5
270
330
26F
100
AcDbEntity
  8
DIBUJOS
 62
     7
100
AcDbVertex
100
AcDb2dVertex
 10
81.93509675700221
 20
50.32140011372255
 30
0.0
  0
VERTEX
  5
271
330
26F
100
AcDbEntity
  8
DIBUJOS
 62
     7
100
AcDbVertex
100
AcDb2dVertex
 10
81.92944928423589
 20
50.32140011372255
 30
0.0
  0
SEQEND
  5
272
330
26F
100
AcDbEntity
  8
DIBUJOS
 62
     7
  0
POLYLINE
  5
273
330
24B
100
AcDbEntity
  8
DIBUJOS
 62
     7
100
AcDb2dPolyline
 66
     1
 10
0.0
 20
0.0
 30
0.0
  0
VERTEX
  5
274
330
273
100
AcDbEntity
  8
DIBUJOS
 62
     7
100
AcDbVertex
100
AcDb2dVertex
 10
81.94074422976854
 20
50.32140011372255
 30
0.0
  0
VERTEX
  5
275
330
273
100
AcDbEntity
  8
DIBUJOS
 62
     7
100
AcDbVertex
100
AcDb2dVertex
 10
81.93509675700221
 20
50.32140011372255
 30
0.0
  0
SEQEND
  5
276
330
273
100
AcDbEntity
  8
DIBUJOS
 62
     7
  0
POLYLINE
  5
277
330
24B
100
AcDbEntity
  8
DIBUJOS
 62
     7
100
AcDb2dPolyline
 66
     1
 10
0.0
 20
0.0
 30
0.0
  0
VERTEX
  5
278
330
277
100
AcDbEntity
  8
DIBUJOS
 62
     7
100
AcDbVertex
100
AcDb2dVertex
 10
78.09540798687425
 20
50.3157526409559
 30
0.0
  0
VERTEX
  5
279
330
277
100
AcDbEntity
  8
DIBUJOS
 62
     7
100
AcDbVertex
100
AcDb2dVertex
 10
78.08976051410791
 20
50.32140011372255
 30
0.0
  0
VERTEX
  5
27A
330
277
100
AcDbEntity
  8
DIBUJOS
 62
     7
100
AcDbVertex
100
AcDb2dVertex
 10
78.08411304134158
 20
50.3157526409559
 30
0.0
  0
SEQEND
  5
27B
330
277
100
AcDbEntity
  8
DIBUJOS
 62
     7
  0
POLYLINE
  5
27C
330
24B
100
AcDbEntity
  8
DIBUJOS
 62
     7
100
AcDb2dPolyline
 66
     1
 10
0.0
 20
0.0
 30
0.0
  0
VERTEX
  5
27D
330
27C
100
AcDbEntity
  8
DIBUJOS
 62
     7
100
AcDbVertex
100
AcDb2dVertex
 10
81.10504592117745
 20
50.3157526409559
 30
0.0
  0
VERTEX
  5
27E
330
27C
100
AcDbEntity
  8
DIBUJOS
 62
     7
100
AcDbVertex
100
AcDb2dVertex
 10
81.09939844841112
 20
50.32140011372255
 30
0.0
  0
VERTEX
  5
27F
330
27C
100
AcDbEntity
  8
DIBUJOS
 62
     7
100
AcDbVertex
100
AcDb2dVertex
 10
78.10613453767823
 20
50.31744870651231
 30
0.0
  0
VERTEX
  5
280
330
27C
100
AcDbEntity
  8
DIBUJOS
 62
     7
100
AcDbVertex
100
AcDb2dVertex
 10
78.09540798687425
 20
50.3157526409559
 30
0.0
  0
SEQEND
  5
281
330
27C
100
AcDbEntity
  8
DIBUJOS
 62
     7
  0
POLYLINE
  5
282
330
24B
100
AcDbEntity
  8
DIBUJOS
 62
     7
100
AcDb2dPolyline
 66
     1
 10
0.0
 20
0.0
 30
0.0
  0
VERTEX
  5
283
330
282
100
AcDbEntity
  8
DIBUJOS
 62
     7
100
AcDbVertex
100
AcDb2dVertex
 10
81.21233270602072
 20
50.3157526409559
 30
0.0
  0
VERTEX
  5
284
330
282
100
AcDbEntity
  8
DIBUJOS
 62
     7
100
AcDbVertex
100
AcDb2dVertex
 10
81.2016031156732
 20
50.31744870651231
 30
0.0
  0
VERTEX
  5
285
330
282
100
AcDbEntity
  8
DIBUJOS
 62
     7
100
AcDbVertex
100
AcDb2dVertex
 10
81.11069339394379
 20
50.32140011372255
 30
0.0
  0
VERTEX
  5
286
330
282
100
AcDbEntity
  8
DIBUJOS
 62
     7
100
AcDbVertex
100
AcDb2dVertex
 10
81.10504592117745
 20
50.3157526409559
 30
0.0
  0
SEQEND
  5
287
330
282
100
AcDbEntity
  8
DIBUJOS
 62
     7
  0
POLYLINE
  5
288
330
24B
100
AcDbEntity
  8
DIBUJOS
 62
     7
100
AcDb2dPolyline
 66
     1
 10
0.0
 20
0.0
 30
0.0
  0
VERTEX
  5
289
330
288
100
AcDbEntity
  8
DIBUJOS
 62
     7
100
AcDbVertex
100
AcDb2dVertex
 10
81.21233270602072
 20
50.3157526409559
 30
0.0
  0
VERTEX
  5
28A
330
288
100
AcDbEntity
  8
DIBUJOS
 62
     7
100
AcDbVertex
100
AcDb2dVertex
 10
81.21797713924286
 20
50.32140011372255
 30
0.0
  0
SEQEND
  5
28B
330
288
100
AcDbEntity
  8
DIBUJOS
 62
     7
  0
POLYLINE
  5
28C
330
24B
100
AcDbEntity
  8
DIBUJOS
 62
     7
100
AcDb2dPolyline
 66
     1
 10
0.0
 20
0.0
 30
0.0
  0
VERTEX
  5
28D
330
28C
100
AcDbEntity
  8
DIBUJOS
 62
     7
100
AcDbVertex
100
AcDb2dVertex
 10
81.22362461200919
 20
50.3157526409559
 30
0.0
  0
VERTEX
  5
28E
330
28C
100
AcDbEntity
  8
DIBUJOS
 62
     7
100
AcDbVertex
100
AcDb2dVertex
 10
81.22362461200919
 20
50.32140011372255
 30
0.0
  0
SEQEND
  5
28F
330
28C
100
AcDbEntity
  8
DIBUJOS
 62
     7
  0
POLYLINE
  5
290
330
24B
100
AcDbEntity
  8
DIBUJOS
 62
     7
100
AcDb2dPolyline
 66
     1
 10
0.0
 20
0.0
 30
0.0
  0
VERTEX
  5
291
330
290
100
AcDbEntity
  8
DIBUJOS
 62
     7
100
AcDbVertex
100
AcDb2dVertex
 10
81.22927208477617
 20
50.32140011372255
 30
0.0
  0
VERTEX
  5
292
330
290
100
AcDbEntity
  8
DIBUJOS
 62
     7
100
AcDbVertex
100
AcDb2dVertex
 10
81.28573769380887
 20
50.32140011372255
 30
0.0
  0
SEQEND
  5
293
330
290
100
AcDbEntity
  8
DIBUJOS
 62
     7
  0
POLYLINE
  5
294
330
24B
100
AcDbEntity
  8
DIBUJOS
 62
     7
100
AcDb2dPolyline
 66
     1
 10
0.0
 20
0.0
 30
0.0
  0
VERTEX
  5
295
330
294
100
AcDbEntity
  8
DIBUJOS
 62
     7
100
AcDbVertex
100
AcDb2dVertex
 10
81.29138516657521
 20
50.3157526409559
 30
0.0
  0
VERTEX
  5
296
330
294
100
AcDbEntity
  8
DIBUJOS
 62
     7
100
AcDbVertex
100
AcDb2dVertex
 10
81.29138516657521
 20
50.32140011372255
 30
0.0
  0
SEQEND
  5
297
330
294
100
AcDbEntity
  8
DIBUJOS
 62
     7
  0
POLYLINE
  5
298
330
24B
100
AcDbEntity
  8
DIBUJOS
 62
     7
100
AcDb2dPolyline
 66
     1
 10
0.0
 20
0.0
 30
0.0
  0
VERTEX
  5
299
330
298
100
AcDbEntity
  8
DIBUJOS
 62
     7
100
AcDbVertex
100
AcDb2dVertex
 10
81.30267707256434
 20
50.3157526409559
 30
0.0
  0
VERTEX
  5
29A
330
298
100
AcDbEntity
  8
DIBUJOS
 62
     7
100
AcDbVertex
100
AcDb2dVertex
 10
81.30267707256434
 20
50.32140011372255
 30
0.0
  0
SEQEND
  5
29B
330
298
100
AcDbEntity
  8
DIBUJOS
 62
     7
  0
POLYLINE
  5
29C
330
24B
100
AcDbEntity
  8
DIBUJOS
 62
     7
100
AcDb2dPolyline
 66
     1
 10
0.0
 20
0.0
 30
0.0
  0
VERTEX
  5
29D
330
29C
100
AcDbEntity
  8
DIBUJOS
 62
     7
100
AcDbVertex
100
AcDb2dVertex
 10
81.42690323616304
 20
50.3157526409559
 30
0.0
  0
VERTEX
  5
29E
330
29C
100
AcDbEntity
  8
DIBUJOS
 62
     7
100
AcDbVertex
100
AcDb2dVertex
 10
81.30832454533066
 20
50.32140011372255
 30
0.0
  0
SEQEND
  5
29F
330
29C
100
AcDbEntity
  8
DIBUJOS
 62
     7
  0
POLYLINE
  5
2A0
330
24B
100
AcDbEntity
  8
DIBUJOS
 62
     7
100
AcDb2dPolyline
 66
     1
 10
0.0
 20
0.0
 30
0.0
  0
VERTEX
  5
2A1
330
2A0
100
AcDbEntity
  8
DIBUJOS
 62
     7
100
AcDbVertex
100
AcDb2dVertex
 10
81.42690323616304
 20
50.3157526409559
 30
0.0
  0
VERTEX
  5
2A2
330
2A0
100
AcDbEntity
  8
DIBUJOS
 62
     7
100
AcDbVertex
100
AcDb2dVertex
 10
81.4325476693852
 20
50.32140011372255
 30
0.0
  0
SEQEND
  5
2A3
330
2A0
100
AcDbEntity
  8
DIBUJOS
 62
     7
  0
POLYLINE
  5
2A4
330
24B
100
AcDbEntity
  8
DIBUJOS
 62
     7
100
AcDb2dPolyline
 66
     1
 10
0.0
 20
0.0
 30
0.0
  0
VERTEX
  5
2A5
330
2A4
100
AcDbEntity
  8
DIBUJOS
 62
     7
100
AcDbVertex
100
AcDb2dVertex
 10
81.43819514215153
 20
50.3157526409559
 30
0.0
  0
VERTEX
  5
2A6
330
2A4
100
AcDbEntity
  8
DIBUJOS
 62
     7
100
AcDbVertex
100
AcDb2dVertex
 10
81.43819514215153
 20
50.32140011372255
 30
0.0
  0
SEQEND
  5
2A7
330
2A4
100
AcDbEntity
  8
DIBUJOS
 62
     7
  0
POLYLINE
  5
2A8
330
24B
100
AcDbEntity
  8
DIBUJOS
 62
     7
100
AcDb2dPolyline
 66
     1
 10
0.0
 20
0.0
 30
0.0
  0
VERTEX
  5
2A9
330
2A8
100
AcDbEntity
  8
DIBUJOS
 62
     7
100
AcDbVertex
100
AcDb2dVertex
 10
81.44384261491787
 20
50.32140011372255
 30
0.0
  0
VERTEX
  5
2AA
330
2A8
100
AcDbEntity
  8
DIBUJOS
 62
     7
100
AcDbVertex
100
AcDb2dVertex
 10
81.92944928423589
 20
50.32140011372255
 30
0.0
  0
SEQEND
  5
2AB
330
2A8
100
AcDbEntity
  8
DIBUJOS
 62
     7
  0
POLYLINE
  5
2AC
330
24B
100
AcDbEntity
  8
DIBUJOS
 62
     7
100
AcDb2dPolyline
 66
     1
 10
0.0
 20
0.0
 30
0.0
  0
VERTEX
  5
2AD
330
2AC
100
AcDbEntity
  8
DIBUJOS
 62
     7
100
AcDbVertex
100
AcDb2dVertex
 10
81.93509675700221
 20
50.3157526409559
 30
0.0
  0
VERTEX
  5
2AE
330
2AC
100
AcDbEntity
  8
DIBUJOS
 62
     7
100
AcDbVertex
100
AcDb2dVertex
 10
81.93509675700221
 20
50.32140011372255
 30
0.0
  0
SEQEND
  5
2AF
330
2AC
100
AcDbEntity
  8
DIBUJOS
 62
     7
  0
POLYLINE
  5
2B0
330
24B
100
AcDbEntity
  8
DIBUJOS
 62
     7
100
AcDb2dPolyline
 66
     1
 10
0.0
 20
0.0
 30
0.0
  0
VERTEX
  5
2B1
330
2B0
100
AcDbEntity
  8
DIBUJOS
 62
     7
100
AcDbVertex
100
AcDb2dVertex
 10
82.4715246021295
 20
50.3157526409559
 30
0.0
  0
VERTEX
  5
2B2
330
2B0
100
AcDbEntity
  8
DIBUJOS
 62
     7
100
AcDbVertex
100
AcDb2dVertex
 10
81.94074422976854
 20
50.32140011372255
 30
0.0
  0
SEQEND
  5
2B3
330
2B0
100
AcDbEntity
  8
DIBUJOS
 62
     7
  0
POLYLINE
  5
2B4
330
24B
100
AcDbEntity
  8
DIBUJOS
 62
     7
100
AcDb2dPolyline
 66
     1
 10
0.0
 20
0.0
 30
0.0
  0
VERTEX
  5
2B5
330
2B4
100
AcDbEntity
  8
DIBUJOS
 62
     7
100
AcDbVertex
100
AcDb2dVertex
 10
78.08411304134158
 20
50.3157526409559
 30
0.0
  0
VERTEX
  5
2B6
330
2B4
100
AcDbEntity
  8
DIBUJOS
 62
     7
100
AcDbVertex
100
AcDb2dVertex
 10
78.08976051410791
 20
50.31010820773343
 30
0.0
  0
VERTEX
  5
2B7
330
2B4
100
AcDbEntity
  8
DIBUJOS
 62
     7
100
AcDbVertex
100
AcDb2dVertex
 10
78.09540798687425
 20
50.3157526409559
 30
0.0
  0
SEQEND
  5
2B8
330
2B4
100
AcDbEntity
  8
DIBUJOS
 62
     7
  0
POLYLINE
  5
2B9
330
24B
100
AcDbEntity
  8
DIBUJOS
 62
     7
100
AcDb2dPolyline
 66
     1
 10
0.0
 20
0.0
 30
0.0
  0
VERTEX
  5
2BA
330
2B9
100
AcDbEntity
  8
DIBUJOS
 62
     7
100
AcDbVertex
100
AcDb2dVertex
 10
81.09939844841112
 20
50.31010820773343
 30
0.0
  0
VERTEX
  5
2BB
330
2B9
100
AcDbEntity
  8
DIBUJOS
 62
     7
100
AcDbVertex
100
AcDb2dVertex
 10
81.10504592117745
 20
50.3157526409559
 30
0.0
  0
SEQEND
  5
2BC
330
2B9
100
AcDbEntity
  8
DIBUJOS
 62
     7
  0
POLYLINE
  5
2BD
330
24B
100
AcDbEntity
  8
DIBUJOS
 62
     7
100
AcDb2dPolyline
 66
     1
 10
0.0
 20
0.0
 30
0.0
  0
VERTEX
  5
2BE
330
2BD
100
AcDbEntity
  8
DIBUJOS
 62
     7
100
AcDbVertex
100
AcDb2dVertex
 10
81.21233270602072
 20
50.3157526409559
 30
0.0
  0
VERTEX
  5
2BF
330
2BD
100
AcDbEntity
  8
DIBUJOS
 62
     7
100
AcDbVertex
100
AcDb2dVertex
 10
81.21797713924286
 20
50.31010820773343
 30
0.0
  0
VERTEX
  5
2C0
330
2BD
100
AcDbEntity
  8
DIBUJOS
 62
     7
100
AcDbVertex
100
AcDb2dVertex
 10
81.22362461200919
 20
50.3157526409559
 30
0.0
  0
SEQEND
  5
2C1
330
2BD
100
AcDbEntity
  8
DIBUJOS
 62
     7
  0
POLYLINE
  5
2C2
330
24B
100
AcDbEntity
  8
DIBUJOS
 62
     7
100
AcDb2dPolyline
 66
     1
 10
0.0
 20
0.0
 30
0.0
  0
VERTEX
  5
2C3
330
2C2
100
AcDbEntity
  8
DIBUJOS
 62
     7
100
AcDbVertex
100
AcDb2dVertex
 10
81.29138516657521
 20
50.3157526409559
 30
0.0
  0
VERTEX
  5
2C4
330
2C2
100
AcDbEntity
  8
DIBUJOS
 62
     7
100
AcDbVertex
100
AcDb2dVertex
 10
81.297029599798
 20
50.31010820773343
 30
0.0
  0
VERTEX
  5
2C5
330
2C2
100
AcDbEntity
  8
DIBUJOS
 62
     7
100
AcDbVertex
100
AcDb2dVertex
 10
81.30267707256434
 20
50.3157526409559
 30
0.0
  0
SEQEND
  5
2C6
330
2C2
100
AcDbEntity
  8
DIBUJOS
 62
     7
  0
POLYLINE
  5
2C7
330
24B
100
AcDbEntity
  8
DIBUJOS
 62
     7
100
AcDb2dPolyline
 66
     1
 10
0.0
 20
0.0
 30
0.0
  0
VERTEX
  5
2C8
330
2C7
100
AcDbEntity
  8
DIBUJOS
 62
     7
100
AcDbVertex
100
AcDb2dVertex
 10
81.42690323616304
 20
50.3157526409559
 30
0.0
  0
VERTEX
  5
2C9
330
2C7
100
AcDbEntity
  8
DIBUJOS
 62
     7
100
AcDbVertex
100
AcDb2dVertex
 10
81.4325476693852
 20
50.31010820773343
 30
0.0
  0
VERTEX
  5
2CA
330
2C7
100
AcDbEntity
  8
DIBUJOS
 62
     7
100
AcDbVertex
100
AcDb2dVertex
 10
81.43819514215153
 20
50.3157526409559
 30
0.0
  0
SEQEND
  5
2CB
330
2C7
100
AcDbEntity
  8
DIBUJOS
 62
     7
  0
POLYLINE
  5
2CC
330
24B
100
AcDbEntity
  8
DIBUJOS
 62
     7
100
AcDb2dPolyline
 66
     1
 10
0.0
 20
0.0
 30
0.0
  0
VERTEX
  5
2CD
330
2CC
100
AcDbEntity
  8
DIBUJOS
 62
     7
100
AcDbVertex
100
AcDb2dVertex
 10
81.92944928423589
 20
50.31010820773343
 30
0.0
  0
VERTEX
  5
2CE
330
2CC
100
AcDbEntity
  8
DIBUJOS
 62
     7
100
AcDbVertex
100
AcDb2dVertex
 10
81.93509675700221
 20
50.3157526409559
 30
0.0
  0
SEQEND
  5
2CF
330
2CC
100
AcDbEntity
  8
DIBUJOS
 62
     7
  0
POLYLINE
  5
2D0
330
24B
100
AcDbEntity
  8
DIBUJOS
 62
     7
100
AcDb2dPolyline
 66
     1
 10
0.0
 20
0.0
 30
0.0
  0
VERTEX
  5
2D1
330
2D0
100
AcDbEntity
  8
DIBUJOS
 62
     7
100
AcDbVertex
100
AcDb2dVertex
 10
82.46587712936316
 20
50.31010820773343
 30
0.0
  0
VERTEX
  5
2D2
330
2D0
100
AcDbEntity
  8
DIBUJOS
 62
     7
100
AcDbVertex
100
AcDb2dVertex
 10
82.4715246021295
 20
50.3157526409559
 30
0.0
  0
SEQEND
  5
2D3
330
2D0
100
AcDbEntity
  8
DIBUJOS
 62
     7
  0
POLYLINE
  5
2D4
330
24B
100
AcDbEntity
  8
DIBUJOS
 62
     7
100
AcDb2dPolyline
 66
     1
 10
0.0
 20
0.0
 30
0.0
  0
VERTEX
  5
2D5
330
2D4
100
AcDbEntity
  8
DIBUJOS
 62
     7
100
AcDbVertex
100
AcDb2dVertex
 10
78.08411304134158
 20
50.3157526409559
 30
0.0
  0
VERTEX
  5
2D6
330
2D4
100
AcDbEntity
  8
DIBUJOS
 62
     7
100
AcDbVertex
100
AcDb2dVertex
 10
78.055881756597
 20
50.32140011372255
 30
0.0
  0
VERTEX
  5
2D7
330
2D4
100
AcDbEntity
  8
DIBUJOS
 62
     7
100
AcDbVertex
100
AcDb2dVertex
 10
77.621093223546
 20
50.3157526409559
 30
0.0
  0
VERTEX
  5
2D8
330
2D4
100
AcDbEntity
  8
DIBUJOS
 62
     7
100
AcDbVertex
100
AcDb2dVertex
 10
77.621093223546
 20
50.13506390786834
 30
0.0
  0
VERTEX
  5
2D9
330
2D4
100
AcDbEntity
  8
DIBUJOS
 62
     7
100
AcDbVertex
100
AcDb2dVertex
 10
77.63238512953512
 20
50.12376896233535
 30
0.0
  0
VERTEX
  5
2DA
330
2D4
100
AcDbEntity
  8
DIBUJOS
 62
     7
100
AcDbVertex
100
AcDb2dVertex
 10
83.01924435324655
 20
50.12376896233535
 30
0.0
  0
VERTEX
  5
2DB
330
2D4
100
AcDbEntity
  8
DIBUJOS
 62
     7
100
AcDbVertex
100
AcDb2dVertex
 10
84.06386571921365
 20
50.12376896233535
 30
0.0
  0
VERTEX
  5
2DC
330
2D4
100
AcDbEntity
  8
DIBUJOS
 62
     7
100
AcDbVertex
100
AcDb2dVertex
 10
84.62287737631918
 20
50.12376896233535
 30
0.0
  0
VERTEX
  5
2DD
330
2D4
100
AcDbEntity
  8
DIBUJOS
 62
     7
100
AcDbVertex
100
AcDb2dVertex
 10
84.63529999267925
 20
50.14014602544952
 30
0.0
  0
VERTEX
  5
2DE
330
2D4
100
AcDbEntity
  8
DIBUJOS
 62
     7
100
AcDbVertex
100
AcDb2dVertex
 10
84.63417232185249
 20
50.31010820773343
 30
0.0
  0
VERTEX
  5
2DF
330
2D4
100
AcDbEntity
  8
DIBUJOS
 62
     7
100
AcDbVertex
100
AcDb2dVertex
 10
84.62287737631918
 20
50.32140011372255
 30
0.0
  0
VERTEX
  5
2E0
330
2D4
100
AcDbEntity
  8
DIBUJOS
 62
     7
100
AcDbVertex
100
AcDb2dVertex
 10
84.54947238853103
 20
50.32140011372255
 30
0.0
  0
VERTEX
  5
2E1
330
2D4
100
AcDbEntity
  8
DIBUJOS
 62
     7
100
AcDbVertex
100
AcDb2dVertex
 10
82.4715246021295
 20
50.3157526409559
 30
0.0
  0
SEQEND
  5
2E2
330
2D4
100
AcDbEntity
  8
DIBUJOS
 62
     7
  0
POLYLINE
  5
2E3
330
24B
100
AcDbEntity
  8
DIBUJOS
 62
     7
100
AcDb2dPolyline
 66
     1
 10
0.0
 20
0.0
 30
0.0
  0
VERTEX
  5
2E4
330
2E3
100
AcDbEntity
  8
DIBUJOS
 62
     7
100
AcDbVertex
100
AcDb2dVertex
 10
81.53418698146213
 20
50.03342459579206
 30
0.0
  0
VERTEX
  5
2E5
330
2E3
100
AcDbEntity
  8
DIBUJOS
 62
     7
100
AcDbVertex
100
AcDb2dVertex
 10
81.53418698146213
 20
50.03907206855807
 30
0.0
  0
SEQEND
  5
2E6
330
2E3
100
AcDbEntity
  8
DIBUJOS
 62
     7
  0
POLYLINE
  5
2E7
330
24B
100
AcDbEntity
  8
DIBUJOS
 62
     7
100
AcDb2dPolyline
 66
     1
 10
0.0
 20
0.0
 30
0.0
  0
VERTEX
  5
2E8
330
2E7
100
AcDbEntity
  8
DIBUJOS
 62
     7
100
AcDbVertex
100
AcDb2dVertex
 10
80.74930984868095
 20
50.02777712302508
 30
0.0
  0
VERTEX
  5
2E9
330
2E7
100
AcDbEntity
  8
DIBUJOS
 62
     7
100
AcDbVertex
100
AcDb2dVertex
 10
80.74930984868095
 20
50.03342459579206
 30
0.0
  0
SEQEND
  5
2EA
330
2E7
100
AcDbEntity
  8
DIBUJOS
 62
     7
  0
POLYLINE
  5
2EB
330
24B
100
AcDbEntity
  8
DIBUJOS
 62
     7
100
AcDb2dPolyline
 66
     1
 10
0.0
 20
0.0
 30
0.0
  0
VERTEX
  5
2EC
330
2EB
100
AcDbEntity
  8
DIBUJOS
 62
     7
100
AcDbVertex
100
AcDb2dVertex
 10
80.75495732144728
 20
50.02777712302508
 30
0.0
  0
VERTEX
  5
2ED
330
2EB
100
AcDbEntity
  8
DIBUJOS
 62
     7
100
AcDbVertex
100
AcDb2dVertex
 10
80.74930984868095
 20
50.02777712302508
 30
0.0
  0
SEQEND
  5
2EE
330
2EB
100
AcDbEntity
  8
DIBUJOS
 62
     7
  0
POLYLINE
  5
2EF
330
24B
100
AcDbEntity
  8
DIBUJOS
 62
     7
100
AcDb2dPolyline
 66
     1
 10
0.0
 20
0.0
 30
0.0
  0
VERTEX
  5
2F0
330
2EF
100
AcDbEntity
  8
DIBUJOS
 62
     7
100
AcDbVertex
100
AcDb2dVertex
 10
80.76060479421426
 20
50.02777712302508
 30
0.0
  0
VERTEX
  5
2F1
330
2EF
100
AcDbEntity
  8
DIBUJOS
 62
     7
100
AcDbVertex
100
AcDb2dVertex
 10
80.75495732144728
 20
50.02777712302508
 30
0.0
  0
SEQEND
  5
2F2
330
2EF
100
AcDbEntity
  8
DIBUJOS
 62
     7
  0
POLYLINE
  5
2F3
330
24B
100
AcDbEntity
  8
DIBUJOS
 62
     7
100
AcDb2dPolyline
 66
     1
 10
0.0
 20
0.0
 30
0.0
  0
VERTEX
  5
2F4
330
2F3
100
AcDbEntity
  8
DIBUJOS
 62
     7
100
AcDbVertex
100
AcDb2dVertex
 10
80.77754417296907
 20
50.02777712302508
 30
0.0
  0
VERTEX
  5
2F5
330
2F3
100
AcDbEntity
  8
DIBUJOS
 62
     7
100
AcDbVertex
100
AcDb2dVertex
 10
80.77189670020273
 20
50.03907206855807
 30
0.0
  0
SEQEND
  5
2F6
330
2F3
100
AcDbEntity
  8
DIBUJOS
 62
     7
  0
POLYLINE
  5
2F7
330
24B
100
AcDbEntity
  8
DIBUJOS
 62
     7
100
AcDb2dPolyline
 66
     1
 10
0.0
 20
0.0
 30
0.0
  0
VERTEX
  5
2F8
330
2F7
100
AcDbEntity
  8
DIBUJOS
 62
     7
100
AcDbVertex
100
AcDb2dVertex
 10
80.80012798494732
 20
50.02777712302508
 30
0.0
  0
VERTEX
  5
2F9
330
2F7
100
AcDbEntity
  8
DIBUJOS
 62
     7
100
AcDbVertex
100
AcDb2dVertex
 10
80.79448355172516
 20
50.03342459579206
 30
0.0
  0
SEQEND
  5
2FA
330
2F7
100
AcDbEntity
  8
DIBUJOS
 62
     7
  0
POLYLINE
  5
2FB
330
24B
100
AcDbEntity
  8
DIBUJOS
 62
     7
100
AcDb2dPolyline
 66
     1
 10
0.0
 20
0.0
 30
0.0
  0
VERTEX
  5
2FC
330
2FB
100
AcDbEntity
  8
DIBUJOS
 62
     7
100
AcDbVertex
100
AcDb2dVertex
 10
81.49466075118424
 20
50.02777712302508
 30
0.0
  0
VERTEX
  5
2FD
330
2FB
100
AcDbEntity
  8
DIBUJOS
 62
     7
100
AcDbVertex
100
AcDb2dVertex
 10
81.4890132784179
 20
50.03342459579206
 30
0.0
  0
SEQEND
  5
2FE
330
2FB
100
AcDbEntity
  8
DIBUJOS
 62
     7
  0
POLYLINE
  5
2FF
330
24B
100
AcDbEntity
  8
DIBUJOS
 62
     7
100
AcDb2dPolyline
 66
     1
 10
0.0
 20
0.0
 30
0.0
  0
VERTEX
  5
300
330
2FF
100
AcDbEntity
  8
DIBUJOS
 62
     7
100
AcDbVertex
100
AcDb2dVertex
 10
81.51160012994033
 20
50.03342459579206
 30
0.0
  0
VERTEX
  5
301
330
2FF
100
AcDbEntity
  8
DIBUJOS
 62
     7
100
AcDbVertex
100
AcDb2dVertex
 10
81.52854254823933
 20
50.02777712302508
 30
0.0
  0
VERTEX
  5
302
330
2FF
100
AcDbEntity
  8
DIBUJOS
 62
     7
100
AcDbVertex
100
AcDb2dVertex
 10
81.53418698146213
 20
50.03342459579206
 30
0.0
  0
SEQEND
  5
303
330
2FF
100
AcDbEntity
  8
DIBUJOS
 62
     7
  0
POLYLINE
  5
304
330
24B
100
AcDbEntity
  8
DIBUJOS
 62
     7
100
AcDb2dPolyline
 66
     1
 10
0.0
 20
0.0
 30
0.0
  0
VERTEX
  5
305
330
304
100
AcDbEntity
  8
DIBUJOS
 62
     7
100
AcDbVertex
100
AcDb2dVertex
 10
81.5454819269948
 20
50.02212965025875
 30
0.0
  0
VERTEX
  5
306
330
304
100
AcDbEntity
  8
DIBUJOS
 62
     7
100
AcDbVertex
100
AcDb2dVertex
 10
81.53418698146213
 20
50.03342459579206
 30
0.0
  0
SEQEND
  5
307
330
304
100
AcDbEntity
  8
DIBUJOS
 62
     7
  0
POLYLINE
  5
308
330
24B
100
AcDbEntity
  8
DIBUJOS
 62
     7
100
AcDb2dPolyline
 66
     1
 10
0.0
 20
0.0
 30
0.0
  0
VERTEX
  5
309
330
308
100
AcDbEntity
  8
DIBUJOS
 62
     7
100
AcDbVertex
100
AcDb2dVertex
 10
81.5454819269948
 20
50.02212965025875
 30
0.0
  0
VERTEX
  5
30A
330
308
100
AcDbEntity
  8
DIBUJOS
 62
     7
100
AcDbVertex
100
AcDb2dVertex
 10
81.55112636021758
 20
50.02777712302508
 30
0.0
  0
VERTEX
  5
30B
330
308
100
AcDbEntity
  8
DIBUJOS
 62
     7
100
AcDbVertex
100
AcDb2dVertex
 10
81.55112636021758
 20
50.07859525929145
 30
0.0
  0
VERTEX
  5
30C
330
308
100
AcDbEntity
  8
DIBUJOS
 62
     7
100
AcDbVertex
100
AcDb2dVertex
 10
81.53983445422845
 20
50.08989020482476
 30
0.0
  0
VERTEX
  5
30D
330
308
100
AcDbEntity
  8
DIBUJOS
 62
     7
100
AcDbVertex
100
AcDb2dVertex
 10
80.75495732144728
 20
50.08989020482476
 30
0.0
  0
VERTEX
  5
30E
330
308
100
AcDbEntity
  8
DIBUJOS
 62
     7
100
AcDbVertex
100
AcDb2dVertex
 10
80.74930984868095
 20
50.08424273205779
 30
0.0
  0
VERTEX
  5
30F
330
308
100
AcDbEntity
  8
DIBUJOS
 62
     7
100
AcDbVertex
100
AcDb2dVertex
 10
80.74930984868095
 20
50.03342459579206
 30
0.0
  0
SEQEND
  5
310
330
308
100
AcDbEntity
  8
DIBUJOS
 62
     7
  0
POLYLINE
  5
311
330
24B
100
AcDbEntity
  8
DIBUJOS
 62
     7
100
AcDb2dPolyline
 66
     1
 10
0.0
 20
0.0
 30
0.0
  0
VERTEX
  5
312
330
311
100
AcDbEntity
  8
DIBUJOS
 62
     7
100
AcDbVertex
100
AcDb2dVertex
 10
81.80522312063717
 20
49.29936559927725
 30
0.0
  0
VERTEX
  5
313
330
311
100
AcDbEntity
  8
DIBUJOS
 62
     7
100
AcDbVertex
100
AcDb2dVertex
 10
81.5454819269948
 20
50.02212965025875
 30
0.0
  0
SEQEND
  5
314
330
311
100
AcDbEntity
  8
DIBUJOS
 62
     7
  0
POLYLINE
  5
315
330
24B
100
AcDbEntity
  8
DIBUJOS
 62
     7
100
AcDb2dPolyline
 66
     1
 10
0.0
 20
0.0
 30
0.0
  0
VERTEX
  5
316
330
315
100
AcDbEntity
  8
DIBUJOS
 62
     7
100
AcDbVertex
100
AcDb2dVertex
 10
81.80522312063717
 20
49.29936559927725
 30
0.0
  0
VERTEX
  5
317
330
315
100
AcDbEntity
  8
DIBUJOS
 62
     7
100
AcDbVertex
100
AcDb2dVertex
 10
81.8108705934035
 20
49.30501307204359
 30
0.0
  0
SEQEND
  5
318
330
315
100
AcDbEntity
  8
DIBUJOS
 62
     7
  0
POLYLINE
  5
319
330
24B
100
AcDbEntity
  8
DIBUJOS
 62
     7
100
AcDb2dPolyline
 66
     1
 10
0.0
 20
0.0
 30
0.0
  0
VERTEX
  5
31A
330
319
100
AcDbEntity
  8
DIBUJOS
 62
     7
100
AcDbVertex
100
AcDb2dVertex
 10
80.43874747922865
 20
49.15255562370061
 30
0.0
  0
VERTEX
  5
31B
330
319
100
AcDbEntity
  8
DIBUJOS
 62
     7
100
AcDbVertex
100
AcDb2dVertex
 10
80.74930984868095
 20
50.02777712302508
 30
0.0
  0
SEQEND
  5
31C
330
319
100
AcDbEntity
  8
DIBUJOS
 62
     7
  0
POLYLINE
  5
31D
330
24B
100
AcDbEntity
  8
DIBUJOS
 62
     7
100
AcDb2dPolyline
 66
     1
 10
0.0
 20
0.0
 30
0.0
  0
VERTEX
  5
31E
330
31D
100
AcDbEntity
  8
DIBUJOS
 62
     7
100
AcDbVertex
100
AcDb2dVertex
 10
80.444394951995
 20
49.14690815093459
 30
0.0
  0
VERTEX
  5
31F
330
31D
100
AcDbEntity
  8
DIBUJOS
 62
     7
100
AcDbVertex
100
AcDb2dVertex
 10
80.43874747922865
 20
49.15255562370061
 30
0.0
  0
SEQEND
  5
320
330
31D
100
AcDbEntity
  8
DIBUJOS
 62
     7
  0
POLYLINE
  5
321
330
24B
100
AcDbEntity
  8
DIBUJOS
 62
     7
100
AcDb2dPolyline
 66
     1
 10
0.0
 20
0.0
 30
0.0
  0
VERTEX
  5
322
330
321
100
AcDbEntity
  8
DIBUJOS
 62
     7
100
AcDbVertex
100
AcDb2dVertex
 10
80.85094916075788
 20
48.57660154829575
 30
0.0
  0
VERTEX
  5
323
330
321
100
AcDbEntity
  8
DIBUJOS
 62
     7
100
AcDbVertex
100
AcDb2dVertex
 10
80.84530168799154
 20
48.62177221179547
 30
0.0
  0
VERTEX
  5
324
330
321
100
AcDbEntity
  8
DIBUJOS
 62
     7
100
AcDbVertex
100
AcDb2dVertex
 10
80.84812542437439
 20
48.6274196845618
 30
0.0
  0
VERTEX
  5
325
330
321
100
AcDbEntity
  8
DIBUJOS
 62
     7
100
AcDbVertex
100
AcDb2dVertex
 10
80.84530168799154
 20
50.02777712302508
 30
0.0
  0
VERTEX
  5
326
330
321
100
AcDbEntity
  8
DIBUJOS
 62
     7
100
AcDbVertex
100
AcDb2dVertex
 10
80.83457513718756
 20
50.02947014903763
 30
0.0
  0
VERTEX
  5
327
330
321
100
AcDbEntity
  8
DIBUJOS
 62
     7
100
AcDbVertex
100
AcDb2dVertex
 10
80.81707040324696
 20
50.02777712302508
 30
0.0
  0
VERTEX
  5
328
330
321
100
AcDbEntity
  8
DIBUJOS
 62
     7
100
AcDbVertex
100
AcDb2dVertex
 10
80.80577545771365
 20
50.03907206855807
 30
0.0
  0
SEQEND
  5
329
330
321
100
AcDbEntity
  8
DIBUJOS
 62
     7
  0
POLYLINE
  5
32A
330
24B
100
AcDbEntity
  8
DIBUJOS
 62
     7
100
AcDb2dPolyline
 66
     1
 10
0.0
 20
0.0
 30
0.0
  0
VERTEX
  5
32B
330
32A
100
AcDbEntity
  8
DIBUJOS
 62
     7
100
AcDbVertex
100
AcDb2dVertex
 10
80.23546885507545
 20
48.57095407552909
 30
0.0
  0
VERTEX
  5
32C
330
32A
100
AcDbEntity
  8
DIBUJOS
 62
     7
100
AcDbVertex
100
AcDb2dVertex
 10
80.43874747922865
 20
49.15255562370061
 30
0.0
  0
SEQEND
  5
32D
330
32A
100
AcDbEntity
  8
DIBUJOS
 62
     7
  0
POLYLINE
  5
32E
330
24B
100
AcDbEntity
  8
DIBUJOS
 62
     7
100
AcDb2dPolyline
 66
     1
 10
0.0
 20
0.0
 30
0.0
  0
VERTEX
  5
32F
330
32E
100
AcDbEntity
  8
DIBUJOS
 62
     7
100
AcDbVertex
100
AcDb2dVertex
 10
80.8565966335242
 20
48.57095407552909
 30
0.0
  0
VERTEX
  5
330
330
32E
100
AcDbEntity
  8
DIBUJOS
 62
     7
100
AcDbVertex
100
AcDb2dVertex
 10
80.85094916075788
 20
48.57660154829575
 30
0.0
  0
SEQEND
  5
331
330
32E
100
AcDbEntity
  8
DIBUJOS
 62
     7
  0
POLYLINE
  5
332
330
24B
100
AcDbEntity
  8
DIBUJOS
 62
     7
100
AcDb2dPolyline
 66
     1
 10
0.0
 20
0.0
 30
0.0
  0
VERTEX
  5
333
330
332
100
AcDbEntity
  8
DIBUJOS
 62
     7
100
AcDbVertex
100
AcDb2dVertex
 10
80.23546885507545
 20
48.56530660276245
 30
0.0
  0
VERTEX
  5
334
330
332
100
AcDbEntity
  8
DIBUJOS
 62
     7
100
AcDbVertex
100
AcDb2dVertex
 10
80.22982138230847
 20
48.56530660276245
 30
0.0
  0
SEQEND
  5
335
330
332
100
AcDbEntity
  8
DIBUJOS
 62
     7
  0
POLYLINE
  5
336
330
24B
100
AcDbEntity
  8
DIBUJOS
 62
     7
100
AcDb2dPolyline
 66
     1
 10
0.0
 20
0.0
 30
0.0
  0
VERTEX
  5
337
330
336
100
AcDbEntity
  8
DIBUJOS
 62
     7
100
AcDbVertex
100
AcDb2dVertex
 10
80.23546885507545
 20
48.56530660276245
 30
0.0
  0
VERTEX
  5
338
330
336
100
AcDbEntity
  8
DIBUJOS
 62
     7
100
AcDbVertex
100
AcDb2dVertex
 10
80.23546885507545
 20
48.57095407552909
 30
0.0
  0
SEQEND
  5
339
330
336
100
AcDbEntity
  8
DIBUJOS
 62
     7
  0
POLYLINE
  5
33A
330
24B
100
AcDbEntity
  8
DIBUJOS
 62
     7
100
AcDb2dPolyline
 66
     1
 10
0.0
 20
0.0
 30
0.0
  0
VERTEX
  5
33B
330
33A
100
AcDbEntity
  8
DIBUJOS
 62
     7
100
AcDbVertex
100
AcDb2dVertex
 10
80.23546885507545
 20
48.55966216953998
 30
0.0
  0
VERTEX
  5
33C
330
33A
100
AcDbEntity
  8
DIBUJOS
 62
     7
100
AcDbVertex
100
AcDb2dVertex
 10
80.23546885507545
 20
48.56530660276245
 30
0.0
  0
SEQEND
  5
33D
330
33A
100
AcDbEntity
  8
DIBUJOS
 62
     7
  0
POLYLINE
  5
33E
330
24B
100
AcDbEntity
  8
DIBUJOS
 62
     7
100
AcDb2dPolyline
 66
     1
 10
0.0
 20
0.0
 30
0.0
  0
VERTEX
  5
33F
330
33E
100
AcDbEntity
  8
DIBUJOS
 62
     7
100
AcDbVertex
100
AcDb2dVertex
 10
80.22417694908633
 20
48.54836722400731
 30
0.0
  0
VERTEX
  5
340
330
33E
100
AcDbEntity
  8
DIBUJOS
 62
     7
100
AcDbVertex
100
AcDb2dVertex
 10
80.21852947631999
 20
48.55401469677364
 30
0.0
  0
VERTEX
  5
341
330
33E
100
AcDbEntity
  8
DIBUJOS
 62
     7
100
AcDbVertex
100
AcDb2dVertex
 10
80.22417694908633
 20
48.56530660276245
 30
0.0
  0
VERTEX
  5
342
330
33E
100
AcDbEntity
  8
DIBUJOS
 62
     7
100
AcDbVertex
100
AcDb2dVertex
 10
80.22982138230847
 20
48.56530660276245
 30
0.0
  0
SEQEND
  5
343
330
33E
100
AcDbEntity
  8
DIBUJOS
 62
     7
  0
POLYLINE
  5
344
330
24B
100
AcDbEntity
  8
DIBUJOS
 62
     7
100
AcDb2dPolyline
 66
     1
 10
0.0
 20
0.0
 30
0.0
  0
VERTEX
  5
345
330
344
100
AcDbEntity
  8
DIBUJOS
 62
     7
100
AcDbVertex
100
AcDb2dVertex
 10
80.22417694908633
 20
48.54836722400731
 30
0.0
  0
VERTEX
  5
346
330
344
100
AcDbEntity
  8
DIBUJOS
 62
     7
100
AcDbVertex
100
AcDb2dVertex
 10
80.23546885507545
 20
48.55966216953998
 30
0.0
  0
SEQEND
  5
347
330
344
100
AcDbEntity
  8
DIBUJOS
 62
     7
  0
POLYLINE
  5
348
330
24B
100
AcDbEntity
  8
DIBUJOS
 62
     7
100
AcDb2dPolyline
 66
     1
 10
0.0
 20
0.0
 30
0.0
  0
VERTEX
  5
349
330
348
100
AcDbEntity
  8
DIBUJOS
 62
     7
100
AcDbVertex
100
AcDb2dVertex
 10
80.80577545771365
 20
48.46366729068584
 30
0.0
  0
VERTEX
  5
34A
330
348
100
AcDbEntity
  8
DIBUJOS
 62
     7
100
AcDbVertex
100
AcDb2dVertex
 10
80.80012798494732
 20
48.46931476345249
 30
0.0
  0
SEQEND
  5
34B
330
348
100
AcDbEntity
  8
DIBUJOS
 62
     7
  0
POLYLINE
  5
34C
330
24B
100
AcDbEntity
  8
DIBUJOS
 62
     7
100
AcDb2dPolyline
 66
     1
 10
0.0
 20
0.0
 30
0.0
  0
VERTEX
  5
34D
330
34C
100
AcDbEntity
  8
DIBUJOS
 62
     7
100
AcDbVertex
100
AcDb2dVertex
 10
80.80577545771365
 20
48.46366729068584
 30
0.0
  0
VERTEX
  5
34E
330
34C
100
AcDbEntity
  8
DIBUJOS
 62
     7
100
AcDbVertex
100
AcDb2dVertex
 10
80.85094916075788
 20
48.57660154829575
 30
0.0
  0
SEQEND
  5
34F
330
34C
100
AcDbEntity
  8
DIBUJOS
 62
     7
  0
POLYLINE
  5
350
330
24B
100
AcDbEntity
  8
DIBUJOS
 62
     7
100
AcDb2dPolyline
 66
     1
 10
0.0
 20
0.0
 30
0.0
  0
VERTEX
  5
351
330
350
100
AcDbEntity
  8
DIBUJOS
 62
     7
100
AcDbVertex
100
AcDb2dVertex
 10
80.16771134005297
 20
48.38461483013135
 30
0.0
  0
VERTEX
  5
352
330
350
100
AcDbEntity
  8
DIBUJOS
 62
     7
100
AcDbVertex
100
AcDb2dVertex
 10
80.22417694908633
 20
48.54836722400731
 30
0.0
  0
SEQEND
  5
353
330
350
100
AcDbEntity
  8
DIBUJOS
 62
     7
  0
POLYLINE
  5
354
330
24B
100
AcDbEntity
  8
DIBUJOS
 62
     7
100
AcDb2dPolyline
 66
     1
 10
0.0
 20
0.0
 30
0.0
  0
VERTEX
  5
355
330
354
100
AcDbEntity
  8
DIBUJOS
 62
     7
100
AcDbVertex
100
AcDb2dVertex
 10
80.16771134005297
 20
48.3733229241419
 30
0.0
  0
VERTEX
  5
356
330
354
100
AcDbEntity
  8
DIBUJOS
 62
     7
100
AcDbVertex
100
AcDb2dVertex
 10
80.16206386728665
 20
48.37897039690855
 30
0.0
  0
VERTEX
  5
357
330
354
100
AcDbEntity
  8
DIBUJOS
 62
     7
100
AcDbVertex
100
AcDb2dVertex
 10
80.16771134005297
 20
48.38461483013135
 30
0.0
  0
SEQEND
  5
358
330
354
100
AcDbEntity
  8
DIBUJOS
 62
     7
  0
POLYLINE
  5
359
330
24B
100
AcDbEntity
  8
DIBUJOS
 62
     7
100
AcDb2dPolyline
 66
     1
 10
0.0
 20
0.0
 30
0.0
  0
VERTEX
  5
35A
330
359
100
AcDbEntity
  8
DIBUJOS
 62
     7
100
AcDbVertex
100
AcDb2dVertex
 10
80.16771134005297
 20
48.3733229241419
 30
0.0
  0
VERTEX
  5
35B
330
359
100
AcDbEntity
  8
DIBUJOS
 62
     7
100
AcDbVertex
100
AcDb2dVertex
 10
80.17335577327577
 20
48.37897039690855
 30
0.0
  0
VERTEX
  5
35C
330
359
100
AcDbEntity
  8
DIBUJOS
 62
     7
100
AcDbVertex
100
AcDb2dVertex
 10
80.16771134005297
 20
48.38461483013135
 30
0.0
  0
SEQEND
  5
35D
330
359
100
AcDbEntity
  8
DIBUJOS
 62
     7
  0
POLYLINE
  5
35E
330
24B
100
AcDbEntity
  8
DIBUJOS
 62
     7
100
AcDb2dPolyline
 66
     1
 10
0.0
 20
0.0
 30
0.0
  0
VERTEX
  5
35F
330
35E
100
AcDbEntity
  8
DIBUJOS
 62
     7
100
AcDbVertex
100
AcDb2dVertex
 10
80.74930984868095
 20
48.28862299082108
 30
0.0
  0
VERTEX
  5
360
330
35E
100
AcDbEntity
  8
DIBUJOS
 62
     7
100
AcDbVertex
100
AcDb2dVertex
 10
80.80577545771365
 20
48.46366729068584
 30
0.0
  0
SEQEND
  5
361
330
35E
100
AcDbEntity
  8
DIBUJOS
 62
     7
  0
POLYLINE
  5
362
330
24B
100
AcDbEntity
  8
DIBUJOS
 62
     7
100
AcDb2dPolyline
 66
     1
 10
0.0
 20
0.0
 30
0.0
  0
VERTEX
  5
363
330
362
100
AcDbEntity
  8
DIBUJOS
 62
     7
100
AcDbVertex
100
AcDb2dVertex
 10
81.5454819269948
 20
48.28862299082108
 30
0.0
  0
VERTEX
  5
364
330
362
100
AcDbEntity
  8
DIBUJOS
 62
     7
100
AcDbVertex
100
AcDb2dVertex
 10
81.50369731551984
 20
48.41736591681518
 30
0.0
  0
VERTEX
  5
365
330
362
100
AcDbEntity
  8
DIBUJOS
 62
     7
100
AcDbVertex
100
AcDb2dVertex
 10
81.44666635130135
 20
48.57095407552909
 30
0.0
  0
VERTEX
  5
366
330
362
100
AcDbEntity
  8
DIBUJOS
 62
     7
100
AcDbVertex
100
AcDb2dVertex
 10
81.44666635130135
 20
49.3840655325984
 30
0.0
  0
VERTEX
  5
367
330
362
100
AcDbEntity
  8
DIBUJOS
 62
     7
100
AcDbVertex
100
AcDb2dVertex
 10
81.45513452090763
 20
50.03342459579206
 30
0.0
  0
VERTEX
  5
368
330
362
100
AcDbEntity
  8
DIBUJOS
 62
     7
100
AcDbVertex
100
AcDb2dVertex
 10
81.47207389966245
 20
50.03342459579206
 30
0.0
  0
SEQEND
  5
369
330
362
100
AcDbEntity
  8
DIBUJOS
 62
     7
  0
POLYLINE
  5
36A
330
24B
100
AcDbEntity
  8
DIBUJOS
 62
     7
100
AcDb2dPolyline
 66
     1
 10
0.0
 20
0.0
 30
0.0
  0
VERTEX
  5
36B
330
36A
100
AcDbEntity
  8
DIBUJOS
 62
     7
100
AcDbVertex
100
AcDb2dVertex
 10
80.74930984868095
 20
48.28297855759828
 30
0.0
  0
VERTEX
  5
36C
330
36A
100
AcDbEntity
  8
DIBUJOS
 62
     7
100
AcDbVertex
100
AcDb2dVertex
 10
80.74930984868095
 20
48.28862299082108
 30
0.0
  0
SEQEND
  5
36D
330
36A
100
AcDbEntity
  8
DIBUJOS
 62
     7
  0
POLYLINE
  5
36E
330
24B
100
AcDbEntity
  8
DIBUJOS
 62
     7
100
AcDb2dPolyline
 66
     1
 10
0.0
 20
0.0
 30
0.0
  0
VERTEX
  5
36F
330
36E
100
AcDbEntity
  8
DIBUJOS
 62
     7
100
AcDbVertex
100
AcDb2dVertex
 10
80.75495732144728
 20
48.28297855759828
 30
0.0
  0
VERTEX
  5
370
330
36E
100
AcDbEntity
  8
DIBUJOS
 62
     7
100
AcDbVertex
100
AcDb2dVertex
 10
80.74930984868095
 20
48.28297855759828
 30
0.0
  0
SEQEND
  5
371
330
36E
100
AcDbEntity
  8
DIBUJOS
 62
     7
  0
POLYLINE
  5
372
330
24B
100
AcDbEntity
  8
DIBUJOS
 62
     7
100
AcDb2dPolyline
 66
     1
 10
0.0
 20
0.0
 30
0.0
  0
VERTEX
  5
373
330
372
100
AcDbEntity
  8
DIBUJOS
 62
     7
100
AcDbVertex
100
AcDb2dVertex
 10
81.5454819269948
 20
48.28297855759828
 30
0.0
  0
VERTEX
  5
374
330
372
100
AcDbEntity
  8
DIBUJOS
 62
     7
100
AcDbVertex
100
AcDb2dVertex
 10
81.53983445422845
 20
48.28297855759828
 30
0.0
  0
SEQEND
  5
375
330
372
100
AcDbEntity
  8
DIBUJOS
 62
     7
  0
POLYLINE
  5
376
330
24B
100
AcDbEntity
  8
DIBUJOS
 62
     7
100
AcDb2dPolyline
 66
     1
 10
0.0
 20
0.0
 30
0.0
  0
VERTEX
  5
377
330
376
100
AcDbEntity
  8
DIBUJOS
 62
     7
100
AcDbVertex
100
AcDb2dVertex
 10
81.5454819269948
 20
48.28297855759828
 30
0.0
  0
VERTEX
  5
378
330
376
100
AcDbEntity
  8
DIBUJOS
 62
     7
100
AcDbVertex
100
AcDb2dVertex
 10
81.5454819269948
 20
48.28862299082108
 30
0.0
  0
SEQEND
  5
379
330
376
100
AcDbEntity
  8
DIBUJOS
 62
     7
  0
POLYLINE
  5
37A
330
24B
100
AcDbEntity
  8
DIBUJOS
 62
     7
100
AcDb2dPolyline
 66
     1
 10
0.0
 20
0.0
 30
0.0
  0
VERTEX
  5
37B
330
37A
100
AcDbEntity
  8
DIBUJOS
 62
     7
100
AcDbVertex
100
AcDb2dVertex
 10
81.04858031214475
 20
48.27733108483195
 30
0.0
  0
VERTEX
  5
37C
330
37A
100
AcDbEntity
  8
DIBUJOS
 62
     7
100
AcDbVertex
100
AcDb2dVertex
 10
80.75495732144728
 20
48.28297855759828
 30
0.0
  0
SEQEND
  5
37D
330
37A
100
AcDbEntity
  8
DIBUJOS
 62
     7
  0
POLYLINE
  5
37E
330
24B
100
AcDbEntity
  8
DIBUJOS
 62
     7
100
AcDb2dPolyline
 66
     1
 10
0.0
 20
0.0
 30
0.0
  0
VERTEX
  5
37F
330
37E
100
AcDbEntity
  8
DIBUJOS
 62
     7
100
AcDbVertex
100
AcDb2dVertex
 10
81.05422778491108
 20
48.27733108483195
 30
0.0
  0
VERTEX
  5
380
330
37E
100
AcDbEntity
  8
DIBUJOS
 62
     7
100
AcDbVertex
100
AcDb2dVertex
 10
81.04858031214475
 20
48.27733108483195
 30
0.0
  0
SEQEND
  5
381
330
37E
100
AcDbEntity
  8
DIBUJOS
 62
     7
  0
POLYLINE
  5
382
330
24B
100
AcDbEntity
  8
DIBUJOS
 62
     7
100
AcDb2dPolyline
 66
     1
 10
0.0
 20
0.0
 30
0.0
  0
VERTEX
  5
383
330
382
100
AcDbEntity
  8
DIBUJOS
 62
     7
100
AcDbVertex
100
AcDb2dVertex
 10
81.23491651799831
 20
48.27733108483195
 30
0.0
  0
VERTEX
  5
384
330
382
100
AcDbEntity
  8
DIBUJOS
 62
     7
100
AcDbVertex
100
AcDb2dVertex
 10
81.22927208477617
 20
48.28297855759828
 30
0.0
  0
VERTEX
  5
385
330
382
100
AcDbEntity
  8
DIBUJOS
 62
     7
100
AcDbVertex
100
AcDb2dVertex
 10
81.05422778491108
 20
48.27733108483195
 30
0.0
  0
SEQEND
  5
386
330
382
100
AcDbEntity
  8
DIBUJOS
 62
     7
  0
POLYLINE
  5
387
330
24B
100
AcDbEntity
  8
DIBUJOS
 62
     7
100
AcDb2dPolyline
 66
     1
 10
0.0
 20
0.0
 30
0.0
  0
VERTEX
  5
388
330
387
100
AcDbEntity
  8
DIBUJOS
 62
     7
100
AcDbVertex
100
AcDb2dVertex
 10
81.24056399076466
 20
48.27733108483195
 30
0.0
  0
VERTEX
  5
389
330
387
100
AcDbEntity
  8
DIBUJOS
 62
     7
100
AcDbVertex
100
AcDb2dVertex
 10
81.23491651799831
 20
48.27733108483195
 30
0.0
  0
SEQEND
  5
38A
330
387
100
AcDbEntity
  8
DIBUJOS
 62
     7
  0
POLYLINE
  5
38B
330
24B
100
AcDbEntity
  8
DIBUJOS
 62
     7
100
AcDb2dPolyline
 66
     1
 10
0.0
 20
0.0
 30
0.0
  0
VERTEX
  5
38C
330
38B
100
AcDbEntity
  8
DIBUJOS
 62
     7
100
AcDbVertex
100
AcDb2dVertex
 10
81.24621146353162
 20
48.27733108483195
 30
0.0
  0
VERTEX
  5
38D
330
38B
100
AcDbEntity
  8
DIBUJOS
 62
     7
100
AcDbVertex
100
AcDb2dVertex
 10
81.24056399076466
 20
48.27733108483195
 30
0.0
  0
SEQEND
  5
38E
330
38B
100
AcDbEntity
  8
DIBUJOS
 62
     7
  0
POLYLINE
  5
38F
330
24B
100
AcDbEntity
  8
DIBUJOS
 62
     7
100
AcDb2dPolyline
 66
     1
 10
0.0
 20
0.0
 30
0.0
  0
VERTEX
  5
390
330
38F
100
AcDbEntity
  8
DIBUJOS
 62
     7
100
AcDbVertex
100
AcDb2dVertex
 10
81.24621146353162
 20
48.27733108483195
 30
0.0
  0
VERTEX
  5
391
330
38F
100
AcDbEntity
  8
DIBUJOS
 62
     7
100
AcDbVertex
100
AcDb2dVertex
 10
81.53983445422845
 20
48.28297855759828
 30
0.0
  0
SEQEND
  5
392
330
38F
100
AcDbEntity
  8
DIBUJOS
 62
     7
  0
POLYLINE
  5
393
330
24B
100
AcDbEntity
  8
DIBUJOS
 62
     7
100
AcDb2dPolyline
 66
     1
 10
0.0
 20
0.0
 30
0.0
  0
VERTEX
  5
394
330
393
100
AcDbEntity
  8
DIBUJOS
 62
     7
100
AcDbVertex
100
AcDb2dVertex
 10
81.05422778491108
 20
48.27168361206562
 30
0.0
  0
VERTEX
  5
395
330
393
100
AcDbEntity
  8
DIBUJOS
 62
     7
100
AcDbVertex
100
AcDb2dVertex
 10
81.05422778491108
 20
48.27733108483195
 30
0.0
  0
SEQEND
  5
396
330
393
100
AcDbEntity
  8
DIBUJOS
 62
     7
  0
POLYLINE
  5
397
330
24B
100
AcDbEntity
  8
DIBUJOS
 62
     7
100
AcDb2dPolyline
 66
     1
 10
0.0
 20
0.0
 30
0.0
  0
VERTEX
  5
398
330
397
100
AcDbEntity
  8
DIBUJOS
 62
     7
100
AcDbVertex
100
AcDb2dVertex
 10
81.24056399076466
 20
48.27168361206562
 30
0.0
  0
VERTEX
  5
399
330
397
100
AcDbEntity
  8
DIBUJOS
 62
     7
100
AcDbVertex
100
AcDb2dVertex
 10
81.24056399076466
 20
48.27733108483195
 30
0.0
  0
SEQEND
  5
39A
330
397
100
AcDbEntity
  8
DIBUJOS
 62
     7
  0
POLYLINE
  5
39B
330
24B
100
AcDbEntity
  8
DIBUJOS
 62
     7
100
AcDb2dPolyline
 66
     1
 10
0.0
 20
0.0
 30
0.0
  0
VERTEX
  5
39C
330
39B
100
AcDbEntity
  8
DIBUJOS
 62
     7
100
AcDbVertex
100
AcDb2dVertex
 10
82.44893775060835
 20
47.47551457329563
 30
0.0
  0
VERTEX
  5
39D
330
39B
100
AcDbEntity
  8
DIBUJOS
 62
     7
100
AcDbVertex
100
AcDb2dVertex
 10
81.80522312063717
 20
49.29936559927725
 30
0.0
  0
SEQEND
  5
39E
330
39B
100
AcDbEntity
  8
DIBUJOS
 62
     7
  0
POLYLINE
  5
39F
330
24B
100
AcDbEntity
  8
DIBUJOS
 62
     7
100
AcDb2dPolyline
 66
     1
 10
0.0
 20
0.0
 30
0.0
  0
VERTEX
  5
3A0
330
39F
100
AcDbEntity
  8
DIBUJOS
 62
     7
100
AcDbVertex
100
AcDb2dVertex
 10
82.44893775060835
 20
47.47551457329563
 30
0.0
  0
VERTEX
  5
3A1
330
39F
100
AcDbEntity
  8
DIBUJOS
 62
     7
100
AcDbVertex
100
AcDb2dVertex
 10
82.45458522337468
 20
47.48115900651811
 30
0.0
  0
SEQEND
  5
3A2
330
39F
100
AcDbEntity
  8
DIBUJOS
 62
     7
  0
POLYLINE
  5
3A3
330
24B
100
AcDbEntity
  8
DIBUJOS
 62
     7
100
AcDb2dPolyline
 66
     1
 10
0.0
 20
0.0
 30
0.0
  0
VERTEX
  5
3A4
330
3A3
100
AcDbEntity
  8
DIBUJOS
 62
     7
100
AcDbVertex
100
AcDb2dVertex
 10
81.88992305395799
 20
47.34564093693059
 30
0.0
  0
VERTEX
  5
3A5
330
3A3
100
AcDbEntity
  8
DIBUJOS
 62
     7
100
AcDbVertex
100
AcDb2dVertex
 10
81.87663720710026
 20
47.37902424876805
 30
0.0
  0
VERTEX
  5
3A6
330
3A3
100
AcDbEntity
  8
DIBUJOS
 62
     7
100
AcDbVertex
100
AcDb2dVertex
 10
81.55564616215716
 20
48.26547382365767
 30
0.0
  0
VERTEX
  5
3A7
330
3A3
100
AcDbEntity
  8
DIBUJOS
 62
     7
100
AcDbVertex
100
AcDb2dVertex
 10
81.5454819269948
 20
48.28297855759828
 30
0.0
  0
SEQEND
  5
3A8
330
3A3
100
AcDbEntity
  8
DIBUJOS
 62
     7
  0
POLYLINE
  5
3A9
330
24B
100
AcDbEntity
  8
DIBUJOS
 62
     7
100
AcDb2dPolyline
 66
     1
 10
0.0
 20
0.0
 30
0.0
  0
VERTEX
  5
3AA
330
3A9
100
AcDbEntity
  8
DIBUJOS
 62
     7
100
AcDbVertex
100
AcDb2dVertex
 10
81.88992305395799
 20
47.34564093693059
 30
0.0
  0
VERTEX
  5
3AB
330
3A9
100
AcDbEntity
  8
DIBUJOS
 62
     7
100
AcDbVertex
100
AcDb2dVertex
 10
81.89557052672497
 20
47.35128840969724
 30
0.0
  0
SEQEND
  5
3AC
330
3A9
100
AcDbEntity
  8
DIBUJOS
 62
     7
  0
POLYLINE
  5
3AD
330
24B
100
AcDbEntity
  8
DIBUJOS
 62
     7
100
AcDb2dPolyline
 66
     1
 10
0.0
 20
0.0
 30
0.0
  0
VERTEX
  5
3AE
330
3AD
100
AcDbEntity
  8
DIBUJOS
 62
     7
100
AcDbVertex
100
AcDb2dVertex
 10
80.3879263034181
 20
47.30611470665301
 30
0.0
  0
VERTEX
  5
3AF
330
3AD
100
AcDbEntity
  8
DIBUJOS
 62
     7
100
AcDbVertex
100
AcDb2dVertex
 10
80.38228187019595
 20
47.31176217941967
 30
0.0
  0
SEQEND
  5
3B0
330
3AD
100
AcDbEntity
  8
DIBUJOS
 62
     7
  0
POLYLINE
  5
3B1
330
24B
100
AcDbEntity
  8
DIBUJOS
 62
     7
100
AcDb2dPolyline
 66
     1
 10
0.0
 20
0.0
 30
0.0
  0
VERTEX
  5
3B2
330
3B1
100
AcDbEntity
  8
DIBUJOS
 62
     7
100
AcDbVertex
100
AcDb2dVertex
 10
80.3879263034181
 20
47.30611470665301
 30
0.0
  0
VERTEX
  5
3B3
330
3B1
100
AcDbEntity
  8
DIBUJOS
 62
     7
100
AcDbVertex
100
AcDb2dVertex
 10
80.74930984868095
 20
48.28297855759828
 30
0.0
  0
SEQEND
  5
3B4
330
3B1
100
AcDbEntity
  8
DIBUJOS
 62
     7
  0
POLYLINE
  5
3B5
330
24B
100
AcDbEntity
  8
DIBUJOS
 62
     7
100
AcDb2dPolyline
 66
     1
 10
0.0
 20
0.0
 30
0.0
  0
VERTEX
  5
3B6
330
3B5
100
AcDbEntity
  8
DIBUJOS
 62
     7
100
AcDbVertex
100
AcDb2dVertex
 10
82.67480018673918
 20
46.83744741609109
 30
0.0
  0
VERTEX
  5
3B7
330
3B5
100
AcDbEntity
  8
DIBUJOS
 62
     7
100
AcDbVertex
100
AcDb2dVertex
 10
82.44893775060835
 20
47.47551457329563
 30
0.0
  0
SEQEND
  5
3B8
330
3B5
100
AcDbEntity
  8
DIBUJOS
 62
     7
  0
POLYLINE
  5
3B9
330
24B
100
AcDbEntity
  8
DIBUJOS
 62
     7
100
AcDb2dPolyline
 66
     1
 10
0.0
 20
0.0
 30
0.0
  0
VERTEX
  5
3BA
330
3B9
100
AcDbEntity
  8
DIBUJOS
 62
     7
100
AcDbVertex
100
AcDb2dVertex
 10
82.67480018673918
 20
46.83744741609109
 30
0.0
  0
VERTEX
  5
3BB
330
3B9
100
AcDbEntity
  8
DIBUJOS
 62
     7
100
AcDbVertex
100
AcDb2dVertex
 10
82.6804476595055
 20
46.84309488885775
 30
0.0
  0
SEQEND
  5
3BC
330
3B9
100
AcDbEntity
  8
DIBUJOS
 62
     7
  0
POLYLINE
  5
3BD
330
24B
100
AcDbEntity
  8
DIBUJOS
 62
     7
100
AcDb2dPolyline
 66
     1
 10
0.0
 20
0.0
 30
0.0
  0
VERTEX
  5
3BE
330
3BD
100
AcDbEntity
  8
DIBUJOS
 62
     7
100
AcDbVertex
100
AcDb2dVertex
 10
82.77643949881545
 20
46.5494718981606
 30
0.0
  0
VERTEX
  5
3BF
330
3BD
100
AcDbEntity
  8
DIBUJOS
 62
     7
100
AcDbVertex
100
AcDb2dVertex
 10
82.67480018673918
 20
46.83744741609109
 30
0.0
  0
SEQEND
  5
3C0
330
3BD
100
AcDbEntity
  8
DIBUJOS
 62
     7
  0
POLYLINE
  5
3C1
330
24B
100
AcDbEntity
  8
DIBUJOS
 62
     7
100
AcDb2dPolyline
 66
     1
 10
0.0
 20
0.0
 30
0.0
  0
VERTEX
  5
3C2
330
3C1
100
AcDbEntity
  8
DIBUJOS
 62
     7
100
AcDbVertex
100
AcDb2dVertex
 10
82.77643949881545
 20
46.5494718981606
 30
0.0
  0
VERTEX
  5
3C3
330
3C1
100
AcDbEntity
  8
DIBUJOS
 62
     7
100
AcDbVertex
100
AcDb2dVertex
 10
82.78208697158243
 20
46.55511633138308
 30
0.0
  0
SEQEND
  5
3C4
330
3C1
100
AcDbEntity
  8
DIBUJOS
 62
     7
  0
POLYLINE
  5
3C5
330
24B
100
AcDbEntity
  8
DIBUJOS
 62
     7
100
AcDb2dPolyline
 66
     1
 10
0.0
 20
0.0
 30
0.0
  0
VERTEX
  5
3C6
330
3C5
100
AcDbEntity
  8
DIBUJOS
 62
     7
100
AcDbVertex
100
AcDb2dVertex
 10
82.79337887757156
 20
46.49865072235037
 30
0.0
  0
VERTEX
  5
3C7
330
3C5
100
AcDbEntity
  8
DIBUJOS
 62
     7
100
AcDbVertex
100
AcDb2dVertex
 10
82.77643949881545
 20
46.5494718981606
 30
0.0
  0
SEQEND
  5
3C8
330
3C5
100
AcDbEntity
  8
DIBUJOS
 62
     7
  0
POLYLINE
  5
3C9
330
24B
100
AcDbEntity
  8
DIBUJOS
 62
     7
100
AcDb2dPolyline
 66
     1
 10
0.0
 20
0.0
 30
0.0
  0
VERTEX
  5
3CA
330
3C9
100
AcDbEntity
  8
DIBUJOS
 62
     7
100
AcDbVertex
100
AcDb2dVertex
 10
82.79337887757156
 20
46.49865072235037
 30
0.0
  0
VERTEX
  5
3CB
330
3C9
100
AcDbEntity
  8
DIBUJOS
 62
     7
100
AcDbVertex
100
AcDb2dVertex
 10
82.79902635033788
 20
46.5042981951167
 30
0.0
  0
SEQEND
  5
3CC
330
3C9
100
AcDbEntity
  8
DIBUJOS
 62
     7
  0
POLYLINE
  5
3CD
330
24B
100
AcDbEntity
  8
DIBUJOS
 62
     7
100
AcDb2dPolyline
 66
     1
 10
0.0
 20
0.0
 30
0.0
  0
VERTEX
  5
3CE
330
3CD
100
AcDbEntity
  8
DIBUJOS
 62
     7
100
AcDbVertex
100
AcDb2dVertex
 10
79.45059172229426
 20
46.36313265276285
 30
0.0
  0
VERTEX
  5
3CF
330
3CD
100
AcDbEntity
  8
DIBUJOS
 62
     7
100
AcDbVertex
100
AcDb2dVertex
 10
79.44494424952794
 20
46.36878012552918
 30
0.0
  0
SEQEND
  5
3D0
330
3CD
100
AcDbEntity
  8
DIBUJOS
 62
     7
  0
POLYLINE
  5
3D1
330
24B
100
AcDbEntity
  8
DIBUJOS
 62
     7
100
AcDb2dPolyline
 66
     1
 10
0.0
 20
0.0
 30
0.0
  0
VERTEX
  5
3D2
330
3D1
100
AcDbEntity
  8
DIBUJOS
 62
     7
100
AcDbVertex
100
AcDb2dVertex
 10
79.45059172229426
 20
46.36313265276285
 30
0.0
  0
VERTEX
  5
3D3
330
3D1
100
AcDbEntity
  8
DIBUJOS
 62
     7
100
AcDbVertex
100
AcDb2dVertex
 10
80.16771134005297
 20
48.3733229241419
 30
0.0
  0
SEQEND
  5
3D4
330
3D1
100
AcDbEntity
  8
DIBUJOS
 62
     7
  0
POLYLINE
  5
3D5
330
24B
100
AcDbEntity
  8
DIBUJOS
 62
     7
100
AcDb2dPolyline
 66
     1
 10
0.0
 20
0.0
 30
0.0
  0
VERTEX
  5
3D6
330
3D5
100
AcDbEntity
  8
DIBUJOS
 62
     7
100
AcDbVertex
100
AcDb2dVertex
 10
82.88372628365872
 20
46.24455396193078
 30
0.0
  0
VERTEX
  5
3D7
330
3D5
100
AcDbEntity
  8
DIBUJOS
 62
     7
100
AcDbVertex
100
AcDb2dVertex
 10
82.79337887757156
 20
46.49865072235037
 30
0.0
  0
SEQEND
  5
3D8
330
3D5
100
AcDbEntity
  8
DIBUJOS
 62
     7
  0
POLYLINE
  5
3D9
330
24B
100
AcDbEntity
  8
DIBUJOS
 62
     7
100
AcDb2dPolyline
 66
     1
 10
0.0
 20
0.0
 30
0.0
  0
VERTEX
  5
3DA
330
3D9
100
AcDbEntity
  8
DIBUJOS
 62
     7
100
AcDbVertex
100
AcDb2dVertex
 10
82.88372628365872
 20
46.24455396193078
 30
0.0
  0
VERTEX
  5
3DB
330
3D9
100
AcDbEntity
  8
DIBUJOS
 62
     7
100
AcDbVertex
100
AcDb2dVertex
 10
82.8893707168815
 20
46.25020143469712
 30
0.0
  0
SEQEND
  5
3DC
330
3D9
100
AcDbEntity
  8
DIBUJOS
 62
     7
  0
POLYLINE
  5
3DD
330
24B
100
AcDbEntity
  8
DIBUJOS
 62
     7
100
AcDb2dPolyline
 66
     1
 10
0.0
 20
0.0
 30
0.0
  0
VERTEX
  5
3DE
330
3DD
100
AcDbEntity
  8
DIBUJOS
 62
     7
100
AcDbVertex
100
AcDb2dVertex
 10
79.37718673450611
 20
46.15420959538685
 30
0.0
  0
VERTEX
  5
3DF
330
3DD
100
AcDbEntity
  8
DIBUJOS
 62
     7
100
AcDbVertex
100
AcDb2dVertex
 10
79.37153926173913
 20
46.159854028609
 30
0.0
  0
SEQEND
  5
3E0
330
3DD
100
AcDbEntity
  8
DIBUJOS
 62
     7
  0
POLYLINE
  5
3E1
330
24B
100
AcDbEntity
  8
DIBUJOS
 62
     7
100
AcDb2dPolyline
 66
     1
 10
0.0
 20
0.0
 30
0.0
  0
VERTEX
  5
3E2
330
3E1
100
AcDbEntity
  8
DIBUJOS
 62
     7
100
AcDbVertex
100
AcDb2dVertex
 10
79.37718673450611
 20
46.15420959538685
 30
0.0
  0
VERTEX
  5
3E3
330
3E1
100
AcDbEntity
  8
DIBUJOS
 62
     7
100
AcDbVertex
100
AcDb2dVertex
 10
79.45059172229426
 20
46.36313265276285
 30
0.0
  0
SEQEND
  5
3E4
330
3E1
100
AcDbEntity
  8
DIBUJOS
 62
     7
  0
POLYLINE
  5
3E5
330
24B
100
AcDbEntity
  8
DIBUJOS
 62
     7
100
AcDb2dPolyline
 66
     1
 10
0.0
 20
0.0
 30
0.0
  0
VERTEX
  5
3E6
330
3E5
100
AcDbEntity
  8
DIBUJOS
 62
     7
100
AcDbVertex
100
AcDb2dVertex
 10
79.70468848271385
 20
45.40885869288324
 30
0.0
  0
VERTEX
  5
3E7
330
3E5
100
AcDbEntity
  8
DIBUJOS
 62
     7
100
AcDbVertex
100
AcDb2dVertex
 10
80.3879263034181
 20
47.30611470665301
 30
0.0
  0
SEQEND
  5
3E8
330
3E5
100
AcDbEntity
  8
DIBUJOS
 62
     7
  0
POLYLINE
  5
3E9
330
24B
100
AcDbEntity
  8
DIBUJOS
 62
     7
100
AcDb2dPolyline
 66
     1
 10
0.0
 20
0.0
 30
0.0
  0
VERTEX
  5
3EA
330
3E9
100
AcDbEntity
  8
DIBUJOS
 62
     7
100
AcDbVertex
100
AcDb2dVertex
 10
79.69904100994752
 20
45.4032112201169
 30
0.0
  0
VERTEX
  5
3EB
330
3E9
100
AcDbEntity
  8
DIBUJOS
 62
     7
100
AcDbVertex
100
AcDb2dVertex
 10
79.70468848271385
 20
45.40885869288324
 30
0.0
  0
SEQEND
  5
3EC
330
3E9
100
AcDbEntity
  8
DIBUJOS
 62
     7
  0
POLYLINE
  5
3ED
330
24B
100
AcDbEntity
  8
DIBUJOS
 62
     7
100
AcDb2dPolyline
 66
     1
 10
0.0
 20
0.0
 30
0.0
  0
VERTEX
  5
3EE
330
3ED
100
AcDbEntity
  8
DIBUJOS
 62
     7
100
AcDbVertex
100
AcDb2dVertex
 10
79.69904100994752
 20
45.39756374735025
 30
0.0
  0
VERTEX
  5
3EF
330
3ED
100
AcDbEntity
  8
DIBUJOS
 62
     7
100
AcDbVertex
100
AcDb2dVertex
 10
79.69904100994752
 20
45.4032112201169
 30
0.0
  0
SEQEND
  5
3F0
330
3ED
100
AcDbEntity
  8
DIBUJOS
 62
     7
  0
POLYLINE
  5
3F1
330
24B
100
AcDbEntity
  8
DIBUJOS
 62
     7
100
AcDb2dPolyline
 66
     1
 10
0.0
 20
0.0
 30
0.0
  0
VERTEX
  5
3F2
330
3F1
100
AcDbEntity
  8
DIBUJOS
 62
     7
100
AcDbVertex
100
AcDb2dVertex
 10
79.70468848271385
 20
45.39756374735025
 30
0.0
  0
VERTEX
  5
3F3
330
3F1
100
AcDbEntity
  8
DIBUJOS
 62
     7
100
AcDbVertex
100
AcDb2dVertex
 10
79.69904100994752
 20
45.39756374735025
 30
0.0
  0
SEQEND
  5
3F4
330
3F1
100
AcDbEntity
  8
DIBUJOS
 62
     7
  0
POLYLINE
  5
3F5
330
24B
100
AcDbEntity
  8
DIBUJOS
 62
     7
100
AcDb2dPolyline
 66
     1
 10
0.0
 20
0.0
 30
0.0
  0
VERTEX
  5
3F6
330
3F5
100
AcDbEntity
  8
DIBUJOS
 62
     7
100
AcDbVertex
100
AcDb2dVertex
 10
79.70468848271385
 20
45.39756374735025
 30
0.0
  0
VERTEX
  5
3F7
330
3F5
100
AcDbEntity
  8
DIBUJOS
 62
     7
100
AcDbVertex
100
AcDb2dVertex
 10
79.71033595548083
 20
45.4032112201169
 30
0.0
  0
VERTEX
  5
3F8
330
3F5
100
AcDbEntity
  8
DIBUJOS
 62
     7
100
AcDbVertex
100
AcDb2dVertex
 10
79.70468848271385
 20
45.40885869288324
 30
0.0
  0
SEQEND
  5
3F9
330
3F5
100
AcDbEntity
  8
DIBUJOS
 62
     7
  0
POLYLINE
  5
3FA
330
24B
100
AcDbEntity
  8
DIBUJOS
 62
     7
100
AcDb2dPolyline
 66
     1
 10
0.0
 20
0.0
 30
0.0
  0
VERTEX
  5
3FB
330
3FA
100
AcDbEntity
  8
DIBUJOS
 62
     7
100
AcDbVertex
100
AcDb2dVertex
 10
79.68210163119207
 20
45.35803751707332
 30
0.0
  0
VERTEX
  5
3FC
330
3FA
100
AcDbEntity
  8
DIBUJOS
 62
     7
100
AcDbVertex
100
AcDb2dVertex
 10
79.67645719796927
 20
45.36368498983965
 30
0.0
  0
SEQEND
  5
3FD
330
3FA
100
AcDbEntity
  8
DIBUJOS
 62
     7
  0
POLYLINE
  5
3FE
330
24B
100
AcDbEntity
  8
DIBUJOS
 62
     7
100
AcDb2dPolyline
 66
     1
 10
0.0
 20
0.0
 30
0.0
  0
VERTEX
  5
3FF
330
3FE
100
AcDbEntity
  8
DIBUJOS
 62
     7
100
AcDbVertex
100
AcDb2dVertex
 10
79.68210163119207
 20
45.35803751707332
 30
0.0
  0
VERTEX
  5
400
330
3FE
100
AcDbEntity
  8
DIBUJOS
 62
     7
100
AcDbVertex
100
AcDb2dVertex
 10
79.69904100994752
 20
45.39756374735025
 30
0.0
  0
SEQEND
  5
401
330
3FE
100
AcDbEntity
  8
DIBUJOS
 62
     7
  0
POLYLINE
  5
402
330
24B
100
AcDbEntity
  8
DIBUJOS
 62
     7
100
AcDb2dPolyline
 66
     1
 10
0.0
 20
0.0
 30
0.0
  0
VERTEX
  5
403
330
402
100
AcDbEntity
  8
DIBUJOS
 62
     7
100
AcDbVertex
100
AcDb2dVertex
 10
83.21687550463344
 20
45.30157190803997
 30
0.0
  0
VERTEX
  5
404
330
402
100
AcDbEntity
  8
DIBUJOS
 62
     7
100
AcDbVertex
100
AcDb2dVertex
 10
82.88372628365872
 20
46.24455396193078
 30
0.0
  0
SEQEND
  5
405
330
402
100
AcDbEntity
  8
DIBUJOS
 62
     7
  0
POLYLINE
  5
406
330
24B
100
AcDbEntity
  8
DIBUJOS
 62
     7
100
AcDb2dPolyline
 66
     1
 10
0.0
 20
0.0
 30
0.0
  0
VERTEX
  5
407
330
406
100
AcDbEntity
  8
DIBUJOS
 62
     7
100
AcDbVertex
100
AcDb2dVertex
 10
83.21687550463344
 20
45.30157190803997
 30
0.0
  0
VERTEX
  5
408
330
406
100
AcDbEntity
  8
DIBUJOS
 62
     7
100
AcDbVertex
100
AcDb2dVertex
 10
83.22252297739976
 20
45.30721938080663
 30
0.0
  0
SEQEND
  5
409
330
406
100
AcDbEntity
  8
DIBUJOS
 62
     7
  0
POLYLINE
  5
40A
330
24B
100
AcDbEntity
  8
DIBUJOS
 62
     7
100
AcDb2dPolyline
 66
     1
 10
0.0
 20
0.0
 30
0.0
  0
VERTEX
  5
40B
330
40A
100
AcDbEntity
  8
DIBUJOS
 62
     7
100
AcDbVertex
100
AcDb2dVertex
 10
79.55223103437119
 20
44.99665397181016
 30
0.0
  0
VERTEX
  5
40C
330
40A
100
AcDbEntity
  8
DIBUJOS
 62
     7
100
AcDbVertex
100
AcDb2dVertex
 10
79.54658356160486
 20
45.00230144457682
 30
0.0
  0
SEQEND
  5
40D
330
40A
100
AcDbEntity
  8
DIBUJOS
 62
     7
  0
POLYLINE
  5
40E
330
24B
100
AcDbEntity
  8
DIBUJOS
 62
     7
100
AcDb2dPolyline
 66
     1
 10
0.0
 20
0.0
 30
0.0
  0
VERTEX
  5
40F
330
40E
100
AcDbEntity
  8
DIBUJOS
 62
     7
100
AcDbVertex
100
AcDb2dVertex
 10
79.55223103437119
 20
44.99665397181016
 30
0.0
  0
VERTEX
  5
410
330
40E
100
AcDbEntity
  8
DIBUJOS
 62
     7
100
AcDbVertex
100
AcDb2dVertex
 10
79.68040860517951
 20
45.34730792672548
 30
0.0
  0
VERTEX
  5
411
330
40E
100
AcDbEntity
  8
DIBUJOS
 62
     7
100
AcDbVertex
100
AcDb2dVertex
 10
79.68210163119207
 20
45.35803751707332
 30
0.0
  0
SEQEND
  5
412
330
40E
100
AcDbEntity
  8
DIBUJOS
 62
     7
  0
POLYLINE
  5
413
330
24B
100
AcDbEntity
  8
DIBUJOS
 62
     7
100
AcDb2dPolyline
 66
     1
 10
0.0
 20
0.0
 30
0.0
  0
VERTEX
  5
414
330
413
100
AcDbEntity
  8
DIBUJOS
 62
     7
100
AcDbVertex
100
AcDb2dVertex
 10
83.38627233173155
 20
44.8216096719454
 30
0.0
  0
VERTEX
  5
415
330
413
100
AcDbEntity
  8
DIBUJOS
 62
     7
100
AcDbVertex
100
AcDb2dVertex
 10
83.21687550463344
 20
45.30157190803997
 30
0.0
  0
SEQEND
  5
416
330
413
100
AcDbEntity
  8
DIBUJOS
 62
     7
  0
POLYLINE
  5
417
330
24B
100
AcDbEntity
  8
DIBUJOS
 62
     7
100
AcDb2dPolyline
 66
     1
 10
0.0
 20
0.0
 30
0.0
  0
VERTEX
  5
418
330
417
100
AcDbEntity
  8
DIBUJOS
 62
     7
100
AcDbVertex
100
AcDb2dVertex
 10
83.38627233173155
 20
44.8216096719454
 30
0.0
  0
VERTEX
  5
419
330
417
100
AcDbEntity
  8
DIBUJOS
 62
     7
100
AcDbVertex
100
AcDb2dVertex
 10
83.39191980449851
 20
44.82725714471172
 30
0.0
  0
SEQEND
  5
41A
330
417
100
AcDbEntity
  8
DIBUJOS
 62
     7
  0
POLYLINE
  5
41B
330
24B
100
AcDbEntity
  8
DIBUJOS
 62
     7
100
AcDb2dPolyline
 66
     1
 10
0.0
 20
0.0
 30
0.0
  0
VERTEX
  5
41C
330
41B
100
AcDbEntity
  8
DIBUJOS
 62
     7
100
AcDbVertex
100
AcDb2dVertex
 10
79.42800487077248
 20
44.65221284484664
 30
0.0
  0
VERTEX
  5
41D
330
41B
100
AcDbEntity
  8
DIBUJOS
 62
     7
100
AcDbVertex
100
AcDb2dVertex
 10
79.4223573980055
 20
44.65786031761329
 30
0.0
  0
SEQEND
  5
41E
330
41B
100
AcDbEntity
  8
DIBUJOS
 62
     7
  0
POLYLINE
  5
41F
330
24B
100
AcDbEntity
  8
DIBUJOS
 62
     7
100
AcDb2dPolyline
 66
     1
 10
0.0
 20
0.0
 30
0.0
  0
VERTEX
  5
420
330
41F
100
AcDbEntity
  8
DIBUJOS
 62
     7
100
AcDbVertex
100
AcDb2dVertex
 10
79.42800487077248
 20
44.65221284484664
 30
0.0
  0
VERTEX
  5
421
330
41F
100
AcDbEntity
  8
DIBUJOS
 62
     7
100
AcDbVertex
100
AcDb2dVertex
 10
79.55053800835864
 20
44.98592742100683
 30
0.0
  0
VERTEX
  5
422
330
41F
100
AcDbEntity
  8
DIBUJOS
 62
     7
100
AcDbVertex
100
AcDb2dVertex
 10
79.55223103437119
 20
44.99665397181016
 30
0.0
  0
SEQEND
  5
423
330
41F
100
AcDbEntity
  8
DIBUJOS
 62
     7
  0
POLYLINE
  5
424
330
24B
100
AcDbEntity
  8
DIBUJOS
 62
     7
100
AcDb2dPolyline
 66
     1
 10
0.0
 20
0.0
 30
0.0
  0
VERTEX
  5
425
330
424
100
AcDbEntity
  8
DIBUJOS
 62
     7
100
AcDbVertex
100
AcDb2dVertex
 10
79.26425247689652
 20
44.19483746027353
 30
0.0
  0
VERTEX
  5
426
330
424
100
AcDbEntity
  8
DIBUJOS
 62
     7
100
AcDbVertex
100
AcDb2dVertex
 10
79.42800487077248
 20
44.65221284484664
 30
0.0
  0
SEQEND
  5
427
330
424
100
AcDbEntity
  8
DIBUJOS
 62
     7
  0
POLYLINE
  5
428
330
24B
100
AcDbEntity
  8
DIBUJOS
 62
     7
100
AcDb2dPolyline
 66
     1
 10
0.0
 20
0.0
 30
0.0
  0
VERTEX
  5
429
330
428
100
AcDbEntity
  8
DIBUJOS
 62
     7
100
AcDbVertex
100
AcDb2dVertex
 10
79.26989994966284
 20
44.18918998750719
 30
0.0
  0
VERTEX
  5
42A
330
428
100
AcDbEntity
  8
DIBUJOS
 62
     7
100
AcDbVertex
100
AcDb2dVertex
 10
79.26425247689652
 20
44.19483746027353
 30
0.0
  0
SEQEND
  5
42B
330
428
100
AcDbEntity
  8
DIBUJOS
 62
     7
  0
POLYLINE
  5
42C
330
24B
100
AcDbEntity
  8
DIBUJOS
 62
     7
100
AcDb2dPolyline
 66
     1
 10
0.0
 20
0.0
 30
0.0
  0
VERTEX
  5
42D
330
42C
100
AcDbEntity
  8
DIBUJOS
 62
     7
100
AcDbVertex
100
AcDb2dVertex
 10
78.66571458951309
 20
44.13272437847449
 30
0.0
  0
VERTEX
  5
42E
330
42C
100
AcDbEntity
  8
DIBUJOS
 62
     7
100
AcDbVertex
100
AcDb2dVertex
 10
79.37718673450611
 20
46.15420959538685
 30
0.0
  0
SEQEND
  5
42F
330
42C
100
AcDbEntity
  8
DIBUJOS
 62
     7
  0
POLYLINE
  5
430
330
24B
100
AcDbEntity
  8
DIBUJOS
 62
     7
100
AcDb2dPolyline
 66
     1
 10
0.0
 20
0.0
 30
0.0
  0
VERTEX
  5
431
330
430
100
AcDbEntity
  8
DIBUJOS
 62
     7
100
AcDbVertex
100
AcDb2dVertex
 10
78.67136206227943
 20
44.12707994525169
 30
0.0
  0
VERTEX
  5
432
330
430
100
AcDbEntity
  8
DIBUJOS
 62
     7
100
AcDbVertex
100
AcDb2dVertex
 10
78.66571458951309
 20
44.13272437847449
 30
0.0
  0
SEQEND
  5
433
330
430
100
AcDbEntity
  8
DIBUJOS
 62
     7
  0
POLYLINE
  5
434
330
24B
100
AcDbEntity
  8
DIBUJOS
 62
     7
100
AcDb2dPolyline
 66
     1
 10
0.0
 20
0.0
 30
0.0
  0
VERTEX
  5
435
330
434
100
AcDbEntity
  8
DIBUJOS
 62
     7
100
AcDbVertex
100
AcDb2dVertex
 10
79.21908181339647
 20
44.07625876944179
 30
0.0
  0
VERTEX
  5
436
330
434
100
AcDbEntity
  8
DIBUJOS
 62
     7
100
AcDbVertex
100
AcDb2dVertex
 10
79.21343434063014
 20
44.08190624220811
 30
0.0
  0
SEQEND
  5
437
330
434
100
AcDbEntity
  8
DIBUJOS
 62
     7
  0
POLYLINE
  5
438
330
24B
100
AcDbEntity
  8
DIBUJOS
 62
     7
100
AcDb2dPolyline
 66
     1
 10
0.0
 20
0.0
 30
0.0
  0
VERTEX
  5
439
330
438
100
AcDbEntity
  8
DIBUJOS
 62
     7
100
AcDbVertex
100
AcDb2dVertex
 10
79.21908181339647
 20
44.07625876944179
 30
0.0
  0
VERTEX
  5
43A
330
438
100
AcDbEntity
  8
DIBUJOS
 62
     7
100
AcDbVertex
100
AcDb2dVertex
 10
79.26425247689652
 20
44.19483746027353
 30
0.0
  0
SEQEND
  5
43B
330
438
100
AcDbEntity
  8
DIBUJOS
 62
     7
  0
POLYLINE
  5
43C
330
24B
100
AcDbEntity
  8
DIBUJOS
 62
     7
100
AcDb2dPolyline
 66
     1
 10
0.0
 20
0.0
 30
0.0
  0
VERTEX
  5
43D
330
43C
100
AcDbEntity
  8
DIBUJOS
 62
     7
100
AcDbVertex
100
AcDb2dVertex
 10
78.51890157439323
 20
43.7148782637228
 30
0.0
  0
VERTEX
  5
43E
330
43C
100
AcDbEntity
  8
DIBUJOS
 62
     7
100
AcDbVertex
100
AcDb2dVertex
 10
78.66571458951309
 20
44.13272437847449
 30
0.0
  0
SEQEND
  5
43F
330
43C
100
AcDbEntity
  8
DIBUJOS
 62
     7
  0
POLYLINE
  5
440
330
24B
100
AcDbEntity
  8
DIBUJOS
 62
     7
100
AcDb2dPolyline
 66
     1
 10
0.0
 20
0.0
 30
0.0
  0
VERTEX
  5
441
330
440
100
AcDbEntity
  8
DIBUJOS
 62
     7
100
AcDbVertex
100
AcDb2dVertex
 10
78.52454904715955
 20
43.70923079095647
 30
0.0
  0
VERTEX
  5
442
330
440
100
AcDbEntity
  8
DIBUJOS
 62
     7
100
AcDbVertex
100
AcDb2dVertex
 10
78.51890157439323
 20
43.7148782637228
 30
0.0
  0
SEQEND
  5
443
330
440
100
AcDbEntity
  8
DIBUJOS
 62
     7
  0
POLYLINE
  5
444
330
24B
100
AcDbEntity
  8
DIBUJOS
 62
     7
100
AcDb2dPolyline
 66
     1
 10
0.0
 20
0.0
 30
0.0
  0
VERTEX
  5
445
330
444
100
AcDbEntity
  8
DIBUJOS
 62
     7
100
AcDbVertex
100
AcDb2dVertex
 10
83.97351831312649
 20
43.15021609430675
 30
0.0
  0
VERTEX
  5
446
330
444
100
AcDbEntity
  8
DIBUJOS
 62
     7
100
AcDbVertex
100
AcDb2dVertex
 10
83.38627233173155
 20
44.8216096719454
 30
0.0
  0
SEQEND
  5
447
330
444
100
AcDbEntity
  8
DIBUJOS
 62
     7
  0
POLYLINE
  5
448
330
24B
100
AcDbEntity
  8
DIBUJOS
 62
     7
100
AcDb2dPolyline
 66
     1
 10
0.0
 20
0.0
 30
0.0
  0
VERTEX
  5
449
330
448
100
AcDbEntity
  8
DIBUJOS
 62
     7
100
AcDbVertex
100
AcDb2dVertex
 10
78.32127042300635
 20
43.14456862154042
 30
0.0
  0
VERTEX
  5
44A
330
448
100
AcDbEntity
  8
DIBUJOS
 62
     7
100
AcDbVertex
100
AcDb2dVertex
 10
78.5152480424955
 20
43.70873230573915
 30
0.0
  0
VERTEX
  5
44B
330
448
100
AcDbEntity
  8
DIBUJOS
 62
     7
100
AcDbVertex
100
AcDb2dVertex
 10
78.51890157439323
 20
43.7148782637228
 30
0.0
  0
SEQEND
  5
44C
330
448
100
AcDbEntity
  8
DIBUJOS
 62
     7
  0
POLYLINE
  5
44D
330
24B
100
AcDbEntity
  8
DIBUJOS
 62
     7
100
AcDb2dPolyline
 66
     1
 10
0.0
 20
0.0
 30
0.0
  0
VERTEX
  5
44E
330
44D
100
AcDbEntity
  8
DIBUJOS
 62
     7
100
AcDbVertex
100
AcDb2dVertex
 10
83.97351831312649
 20
43.14456862154042
 30
0.0
  0
VERTEX
  5
44F
330
44D
100
AcDbEntity
  8
DIBUJOS
 62
     7
100
AcDbVertex
100
AcDb2dVertex
 10
83.96787387990305
 20
43.14456862154042
 30
0.0
  0
SEQEND
  5
450
330
44D
100
AcDbEntity
  8
DIBUJOS
 62
     7
  0
POLYLINE
  5
451
330
24B
100
AcDbEntity
  8
DIBUJOS
 62
     7
100
AcDb2dPolyline
 66
     1
 10
0.0
 20
0.0
 30
0.0
  0
VERTEX
  5
452
330
451
100
AcDbEntity
  8
DIBUJOS
 62
     7
100
AcDbVertex
100
AcDb2dVertex
 10
83.97351831312649
 20
43.14456862154042
 30
0.0
  0
VERTEX
  5
453
330
451
100
AcDbEntity
  8
DIBUJOS
 62
     7
100
AcDbVertex
100
AcDb2dVertex
 10
83.97351831312649
 20
43.15021609430675
 30
0.0
  0
SEQEND
  5
454
330
451
100
AcDbEntity
  8
DIBUJOS
 62
     7
  0
POLYLINE
  5
455
330
24B
100
AcDbEntity
  8
DIBUJOS
 62
     7
100
AcDb2dPolyline
 66
     1
 10
0.0
 20
0.0
 30
0.0
  0
VERTEX
  5
456
330
455
100
AcDbEntity
  8
DIBUJOS
 62
     7
100
AcDbVertex
100
AcDb2dVertex
 10
78.32127042300635
 20
43.13892418831762
 30
0.0
  0
VERTEX
  5
457
330
455
100
AcDbEntity
  8
DIBUJOS
 62
     7
100
AcDbVertex
100
AcDb2dVertex
 10
78.32127042300635
 20
43.14456862154042
 30
0.0
  0
SEQEND
  5
458
330
455
100
AcDbEntity
  8
DIBUJOS
 62
     7
  0
POLYLINE
  5
459
330
24B
100
AcDbEntity
  8
DIBUJOS
 62
     7
100
AcDb2dPolyline
 66
     1
 10
0.0
 20
0.0
 30
0.0
  0
VERTEX
  5
45A
330
459
100
AcDbEntity
  8
DIBUJOS
 62
     7
100
AcDbVertex
100
AcDb2dVertex
 10
78.32691789577268
 20
43.13892418831762
 30
0.0
  0
VERTEX
  5
45B
330
459
100
AcDbEntity
  8
DIBUJOS
 62
     7
100
AcDbVertex
100
AcDb2dVertex
 10
78.32127042300635
 20
43.13892418831762
 30
0.0
  0
SEQEND
  5
45C
330
459
100
AcDbEntity
  8
DIBUJOS
 62
     7
  0
POLYLINE
  5
45D
330
24B
100
AcDbEntity
  8
DIBUJOS
 62
     7
100
AcDb2dPolyline
 66
     1
 10
0.0
 20
0.0
 30
0.0
  0
VERTEX
  5
45E
330
45D
100
AcDbEntity
  8
DIBUJOS
 62
     7
100
AcDbVertex
100
AcDb2dVertex
 10
83.97351831312649
 20
43.13892418831762
 30
0.0
  0
VERTEX
  5
45F
330
45D
100
AcDbEntity
  8
DIBUJOS
 62
     7
100
AcDbVertex
100
AcDb2dVertex
 10
83.97351831312649
 20
43.14456862154042
 30
0.0
  0
SEQEND
  5
460
330
45D
100
AcDbEntity
  8
DIBUJOS
 62
     7
  0
POLYLINE
  5
461
330
24B
100
AcDbEntity
  8
DIBUJOS
 62
     7
100
AcDb2dPolyline
 66
     1
 10
0.0
 20
0.0
 30
0.0
  0
VERTEX
  5
462
330
461
100
AcDbEntity
  8
DIBUJOS
 62
     7
100
AcDbVertex
100
AcDb2dVertex
 10
83.75894778298415
 20
43.0881030125074
 30
0.0
  0
VERTEX
  5
463
330
461
100
AcDbEntity
  8
DIBUJOS
 62
     7
100
AcDbVertex
100
AcDb2dVertex
 10
83.75330334976137
 20
43.09375048527372
 30
0.0
  0
SEQEND
  5
464
330
461
100
AcDbEntity
  8
DIBUJOS
 62
     7
  0
POLYLINE
  5
465
330
24B
100
AcDbEntity
  8
DIBUJOS
 62
     7
100
AcDb2dPolyline
 66
     1
 10
0.0
 20
0.0
 30
0.0
  0
VERTEX
  5
466
330
465
100
AcDbEntity
  8
DIBUJOS
 62
     7
100
AcDbVertex
100
AcDb2dVertex
 10
83.75894778298415
 20
43.0881030125074
 30
0.0
  0
VERTEX
  5
467
330
465
100
AcDbEntity
  8
DIBUJOS
 62
     7
100
AcDbVertex
100
AcDb2dVertex
 10
83.7640299005647
 20
43.08923372287833
 30
0.0
  0
VERTEX
  5
468
330
465
100
AcDbEntity
  8
DIBUJOS
 62
     7
100
AcDbVertex
100
AcDb2dVertex
 10
83.88335024013452
 20
43.13630106183893
 30
0.0
  0
VERTEX
  5
469
330
465
100
AcDbEntity
  8
DIBUJOS
 62
     7
100
AcDbVertex
100
AcDb2dVertex
 10
83.96787387990305
 20
43.14456862154042
 30
0.0
  0
SEQEND
  5
46A
330
465
100
AcDbEntity
  8
DIBUJOS
 62
     7
  0
POLYLINE
  5
46B
330
24B
100
AcDbEntity
  8
DIBUJOS
 62
     7
100
AcDb2dPolyline
 66
     1
 10
0.0
 20
0.0
 30
0.0
  0
VERTEX
  5
46C
330
46B
100
AcDbEntity
  8
DIBUJOS
 62
     7
100
AcDbVertex
100
AcDb2dVertex
 10
81.05422778491108
 20
42.97517179444166
 30
0.0
  0
VERTEX
  5
46D
330
46B
100
AcDbEntity
  8
DIBUJOS
 62
     7
100
AcDbVertex
100
AcDb2dVertex
 10
81.05154386755227
 20
48.15888005484815
 30
0.0
  0
VERTEX
  5
46E
330
46B
100
AcDbEntity
  8
DIBUJOS
 62
     7
100
AcDbVertex
100
AcDb2dVertex
 10
81.05422778491108
 20
48.27168361206562
 30
0.0
  0
SEQEND
  5
46F
330
46B
100
AcDbEntity
  8
DIBUJOS
 62
     7
  0
POLYLINE
  5
470
330
24B
100
AcDbEntity
  8
DIBUJOS
 62
     7
100
AcDb2dPolyline
 66
     1
 10
0.0
 20
0.0
 30
0.0
  0
VERTEX
  5
471
330
470
100
AcDbEntity
  8
DIBUJOS
 62
     7
100
AcDbVertex
100
AcDb2dVertex
 10
81.24056399076466
 20
42.97517179444166
 30
0.0
  0
VERTEX
  5
472
330
470
100
AcDbEntity
  8
DIBUJOS
 62
     7
100
AcDbVertex
100
AcDb2dVertex
 10
81.24056399076466
 20
48.27168361206562
 30
0.0
  0
SEQEND
  5
473
330
470
100
AcDbEntity
  8
DIBUJOS
 62
     7
  0
POLYLINE
  5
474
330
24B
100
AcDbEntity
  8
DIBUJOS
 62
     7
100
AcDb2dPolyline
 66
     1
 10
0.0
 20
0.0
 30
0.0
  0
VERTEX
  5
475
330
474
100
AcDbEntity
  8
DIBUJOS
 62
     7
100
AcDbVertex
100
AcDb2dVertex
 10
78.81817203785639
 20
42.96952432167533
 30
0.0
  0
VERTEX
  5
476
330
474
100
AcDbEntity
  8
DIBUJOS
 62
     7
100
AcDbVertex
100
AcDb2dVertex
 10
79.21738574783974
 20
44.06553221863813
 30
0.0
  0
VERTEX
  5
477
330
474
100
AcDbEntity
  8
DIBUJOS
 62
     7
100
AcDbVertex
100
AcDb2dVertex
 10
79.21908181339647
 20
44.07625876944179
 30
0.0
  0
SEQEND
  5
478
330
474
100
AcDbEntity
  8
DIBUJOS
 62
     7
  0
POLYLINE
  5
479
330
24B
100
AcDbEntity
  8
DIBUJOS
 62
     7
100
AcDb2dPolyline
 66
     1
 10
0.0
 20
0.0
 30
0.0
  0
VERTEX
  5
47A
330
479
100
AcDbEntity
  8
DIBUJOS
 62
     7
100
AcDbVertex
100
AcDb2dVertex
 10
81.05422778491108
 20
42.96952432167533
 30
0.0
  0
VERTEX
  5
47B
330
479
100
AcDbEntity
  8
DIBUJOS
 62
     7
100
AcDbVertex
100
AcDb2dVertex
 10
81.05422778491108
 20
42.97517179444166
 30
0.0
  0
SEQEND
  5
47C
330
479
100
AcDbEntity
  8
DIBUJOS
 62
     7
  0
POLYLINE
  5
47D
330
24B
100
AcDbEntity
  8
DIBUJOS
 62
     7
100
AcDb2dPolyline
 66
     1
 10
0.0
 20
0.0
 30
0.0
  0
VERTEX
  5
47E
330
47D
100
AcDbEntity
  8
DIBUJOS
 62
     7
100
AcDbVertex
100
AcDb2dVertex
 10
81.05987221813324
 20
42.96952432167533
 30
0.0
  0
VERTEX
  5
47F
330
47D
100
AcDbEntity
  8
DIBUJOS
 62
     7
100
AcDbVertex
100
AcDb2dVertex
 10
81.05422778491108
 20
42.96952432167533
 30
0.0
  0
SEQEND
  5
480
330
47D
100
AcDbEntity
  8
DIBUJOS
 62
     7
  0
POLYLINE
  5
481
330
24B
100
AcDbEntity
  8
DIBUJOS
 62
     7
100
AcDb2dPolyline
 66
     1
 10
0.0
 20
0.0
 30
0.0
  0
VERTEX
  5
482
330
481
100
AcDbEntity
  8
DIBUJOS
 62
     7
100
AcDbVertex
100
AcDb2dVertex
 10
81.24056399076466
 20
42.96952432167533
 30
0.0
  0
VERTEX
  5
483
330
481
100
AcDbEntity
  8
DIBUJOS
 62
     7
100
AcDbVertex
100
AcDb2dVertex
 10
81.23491651799831
 20
42.96952432167533
 30
0.0
  0
SEQEND
  5
484
330
481
100
AcDbEntity
  8
DIBUJOS
 62
     7
  0
POLYLINE
  5
485
330
24B
100
AcDbEntity
  8
DIBUJOS
 62
     7
100
AcDb2dPolyline
 66
     1
 10
0.0
 20
0.0
 30
0.0
  0
VERTEX
  5
486
330
485
100
AcDbEntity
  8
DIBUJOS
 62
     7
100
AcDbVertex
100
AcDb2dVertex
 10
81.24056399076466
 20
42.96952432167533
 30
0.0
  0
VERTEX
  5
487
330
485
100
AcDbEntity
  8
DIBUJOS
 62
     7
100
AcDbVertex
100
AcDb2dVertex
 10
81.24056399076466
 20
42.97517179444166
 30
0.0
  0
SEQEND
  5
488
330
485
100
AcDbEntity
  8
DIBUJOS
 62
     7
  0
POLYLINE
  5
489
330
24B
100
AcDbEntity
  8
DIBUJOS
 62
     7
100
AcDb2dPolyline
 66
     1
 10
0.0
 20
0.0
 30
0.0
  0
VERTEX
  5
48A
330
489
100
AcDbEntity
  8
DIBUJOS
 62
     7
100
AcDbVertex
100
AcDb2dVertex
 10
83.47661973781999
 20
42.96952432167533
 30
0.0
  0
VERTEX
  5
48B
330
489
100
AcDbEntity
  8
DIBUJOS
 62
     7
100
AcDbVertex
100
AcDb2dVertex
 10
81.88992305395799
 20
47.34564093693059
 30
0.0
  0
SEQEND
  5
48C
330
489
100
AcDbEntity
  8
DIBUJOS
 62
     7
  0
POLYLINE
  5
48D
330
24B
100
AcDbEntity
  8
DIBUJOS
 62
     7
100
AcDb2dPolyline
 66
     1
 10
0.0
 20
0.0
 30
0.0
  0
VERTEX
  5
48E
330
48D
100
AcDbEntity
  8
DIBUJOS
 62
     7
100
AcDbVertex
100
AcDb2dVertex
 10
83.48226417104213
 20
42.96952432167533
 30
0.0
  0
VERTEX
  5
48F
330
48D
100
AcDbEntity
  8
DIBUJOS
 62
     7
100
AcDbVertex
100
AcDb2dVertex
 10
83.47661973781999
 20
42.96952432167533
 30
0.0
  0
SEQEND
  5
490
330
48D
100
AcDbEntity
  8
DIBUJOS
 62
     7
  0
POLYLINE
  5
491
330
24B
100
AcDbEntity
  8
DIBUJOS
 62
     7
100
AcDb2dPolyline
 66
     1
 10
0.0
 20
0.0
 30
0.0
  0
VERTEX
  5
492
330
491
100
AcDbEntity
  8
DIBUJOS
 62
     7
100
AcDbVertex
100
AcDb2dVertex
 10
83.48226417104213
 20
42.96952432167533
 30
0.0
  0
VERTEX
  5
493
330
491
100
AcDbEntity
  8
DIBUJOS
 62
     7
100
AcDbVertex
100
AcDb2dVertex
 10
83.75894778298415
 20
43.0881030125074
 30
0.0
  0
SEQEND
  5
494
330
491
100
AcDbEntity
  8
DIBUJOS
 62
     7
  0
POLYLINE
  5
495
330
24B
100
AcDbEntity
  8
DIBUJOS
 62
     7
100
AcDb2dPolyline
 66
     1
 10
0.0
 20
0.0
 30
0.0
  0
VERTEX
  5
496
330
495
100
AcDbEntity
  8
DIBUJOS
 62
     7
100
AcDbVertex
100
AcDb2dVertex
 10
78.81252456508942
 20
42.96387988845286
 30
0.0
  0
VERTEX
  5
497
330
495
100
AcDbEntity
  8
DIBUJOS
 62
     7
100
AcDbVertex
100
AcDb2dVertex
 10
78.80010194872999
 20
42.97291341324365
 30
0.0
  0
VERTEX
  5
498
330
495
100
AcDbEntity
  8
DIBUJOS
 62
     7
100
AcDbVertex
100
AcDb2dVertex
 10
78.41145065417312
 20
43.13628586411898
 30
0.0
  0
VERTEX
  5
499
330
495
100
AcDbEntity
  8
DIBUJOS
 62
     7
100
AcDbVertex
100
AcDb2dVertex
 10
78.32691789577268
 20
43.13892418831762
 30
0.0
  0
SEQEND
  5
49A
330
495
100
AcDbEntity
  8
DIBUJOS
 62
     7
  0
POLYLINE
  5
49B
330
24B
100
AcDbEntity
  8
DIBUJOS
 62
     7
100
AcDb2dPolyline
 66
     1
 10
0.0
 20
0.0
 30
0.0
  0
VERTEX
  5
49C
330
49B
100
AcDbEntity
  8
DIBUJOS
 62
     7
100
AcDbVertex
100
AcDb2dVertex
 10
78.81817203785639
 20
42.96387988845286
 30
0.0
  0
VERTEX
  5
49D
330
49B
100
AcDbEntity
  8
DIBUJOS
 62
     7
100
AcDbVertex
100
AcDb2dVertex
 10
78.81252456508942
 20
42.96387988845286
 30
0.0
  0
SEQEND
  5
49E
330
49B
100
AcDbEntity
  8
DIBUJOS
 62
     7
  0
POLYLINE
  5
49F
330
24B
100
AcDbEntity
  8
DIBUJOS
 62
     7
100
AcDb2dPolyline
 66
     1
 10
0.0
 20
0.0
 30
0.0
  0
VERTEX
  5
4A0
330
49F
100
AcDbEntity
  8
DIBUJOS
 62
     7
100
AcDbVertex
100
AcDb2dVertex
 10
78.81817203785639
 20
42.96387988845286
 30
0.0
  0
VERTEX
  5
4A1
330
49F
100
AcDbEntity
  8
DIBUJOS
 62
     7
100
AcDbVertex
100
AcDb2dVertex
 10
78.81817203785639
 20
42.96952432167533
 30
0.0
  0
SEQEND
  5
4A2
330
49F
100
AcDbEntity
  8
DIBUJOS
 62
     7
  0
POLYLINE
  5
4A3
330
24B
100
AcDbEntity
  8
DIBUJOS
 62
     7
100
AcDb2dPolyline
 66
     1
 10
0.0
 20
0.0
 30
0.0
  0
VERTEX
  5
4A4
330
4A3
100
AcDbEntity
  8
DIBUJOS
 62
     7
100
AcDbVertex
100
AcDb2dVertex
 10
81.05422778491108
 20
42.96387988845286
 30
0.0
  0
VERTEX
  5
4A5
330
4A3
100
AcDbEntity
  8
DIBUJOS
 62
     7
100
AcDbVertex
100
AcDb2dVertex
 10
81.05422778491108
 20
42.96952432167533
 30
0.0
  0
SEQEND
  5
4A6
330
4A3
100
AcDbEntity
  8
DIBUJOS
 62
     7
  0
POLYLINE
  5
4A7
330
24B
100
AcDbEntity
  8
DIBUJOS
 62
     7
100
AcDb2dPolyline
 66
     1
 10
0.0
 20
0.0
 30
0.0
  0
VERTEX
  5
4A8
330
4A7
100
AcDbEntity
  8
DIBUJOS
 62
     7
100
AcDbVertex
100
AcDb2dVertex
 10
81.05987221813324
 20
42.96952432167533
 30
0.0
  0
VERTEX
  5
4A9
330
4A7
100
AcDbEntity
  8
DIBUJOS
 62
     7
100
AcDbVertex
100
AcDb2dVertex
 10
81.23491651799831
 20
42.96952432167533
 30
0.0
  0
SEQEND
  5
4AA
330
4A7
100
AcDbEntity
  8
DIBUJOS
 62
     7
  0
POLYLINE
  5
4AB
330
24B
100
AcDbEntity
  8
DIBUJOS
 62
     7
100
AcDb2dPolyline
 66
     1
 10
0.0
 20
0.0
 30
0.0
  0
VERTEX
  5
4AC
330
4AB
100
AcDbEntity
  8
DIBUJOS
 62
     7
100
AcDbVertex
100
AcDb2dVertex
 10
81.24056399076466
 20
42.96387988845286
 30
0.0
  0
VERTEX
  5
4AD
330
4AB
100
AcDbEntity
  8
DIBUJOS
 62
     7
100
AcDbVertex
100
AcDb2dVertex
 10
81.24056399076466
 20
42.96952432167533
 30
0.0
  0
SEQEND
  5
4AE
330
4AB
100
AcDbEntity
  8
DIBUJOS
 62
     7
  0
POLYLINE
  5
4AF
330
24B
100
AcDbEntity
  8
DIBUJOS
 62
     7
100
AcDb2dPolyline
 66
     1
 10
0.0
 20
0.0
 30
0.0
  0
VERTEX
  5
4B0
330
4AF
100
AcDbEntity
  8
DIBUJOS
 62
     7
100
AcDbVertex
100
AcDb2dVertex
 10
83.47661973781999
 20
42.96387988845286
 30
0.0
  0
VERTEX
  5
4B1
330
4AF
100
AcDbEntity
  8
DIBUJOS
 62
     7
100
AcDbVertex
100
AcDb2dVertex
 10
83.47661973781999
 20
42.96952432167533
 30
0.0
  0
SEQEND
  5
4B2
330
4AF
100
AcDbEntity
  8
DIBUJOS
 62
     7
  0
POLYLINE
  5
4B3
330
24B
100
AcDbEntity
  8
DIBUJOS
 62
     7
100
AcDb2dPolyline
 66
     1
 10
0.0
 20
0.0
 30
0.0
  0
VERTEX
  5
4B4
330
4B3
100
AcDbEntity
  8
DIBUJOS
 62
     7
100
AcDbVertex
100
AcDb2dVertex
 10
78.81817203785639
 20
42.95823241568652
 30
0.0
  0
VERTEX
  5
4B5
330
4B3
100
AcDbEntity
  8
DIBUJOS
 62
     7
100
AcDbVertex
100
AcDb2dVertex
 10
78.81817203785639
 20
42.96387988845286
 30
0.0
  0
SEQEND
  5
4B6
330
4B3
100
AcDbEntity
  8
DIBUJOS
 62
     7
  0
POLYLINE
  5
4B7
330
24B
100
AcDbEntity
  8
DIBUJOS
 62
     7
100
AcDb2dPolyline
 66
     1
 10
0.0
 20
0.0
 30
0.0
  0
VERTEX
  5
4B8
330
4B7
100
AcDbEntity
  8
DIBUJOS
 62
     7
100
AcDbVertex
100
AcDb2dVertex
 10
78.32127042300635
 20
43.13892418831762
 30
0.0
  0
VERTEX
  5
4B9
330
4B7
100
AcDbEntity
  8
DIBUJOS
 62
     7
100
AcDbVertex
100
AcDb2dVertex
 10
78.22527858369575
 20
42.87353248236506
 30
0.0
  0
VERTEX
  5
4BA
330
4B7
100
AcDbEntity
  8
DIBUJOS
 62
     7
100
AcDbVertex
100
AcDb2dVertex
 10
78.22527858369575
 20
42.85094563084295
 30
0.0
  0
VERTEX
  5
4BB
330
4B7
100
AcDbEntity
  8
DIBUJOS
 62
     7
100
AcDbVertex
100
AcDb2dVertex
 10
78.56407527743616
 20
42.85094563084295
 30
0.0
  0
VERTEX
  5
4BC
330
4B7
100
AcDbEntity
  8
DIBUJOS
 62
     7
100
AcDbVertex
100
AcDb2dVertex
 10
78.73911957730189
 20
42.8453011976208
 30
0.0
  0
VERTEX
  5
4BD
330
4B7
100
AcDbEntity
  8
DIBUJOS
 62
     7
100
AcDbVertex
100
AcDb2dVertex
 10
78.75655744127434
 20
42.8489547295182
 30
0.0
  0
VERTEX
  5
4BE
330
4B7
100
AcDbEntity
  8
DIBUJOS
 62
     7
100
AcDbVertex
100
AcDb2dVertex
 10
78.77299833481281
 20
42.85094563084295
 30
0.0
  0
VERTEX
  5
4BF
330
4B7
100
AcDbEntity
  8
DIBUJOS
 62
     7
100
AcDbVertex
100
AcDb2dVertex
 10
78.78429328034548
 20
42.86224057637593
 30
0.0
  0
VERTEX
  5
4C0
330
4B7
100
AcDbEntity
  8
DIBUJOS
 62
     7
100
AcDbVertex
100
AcDb2dVertex
 10
78.81704436702898
 20
42.95315029810566
 30
0.0
  0
VERTEX
  5
4C1
330
4B7
100
AcDbEntity
  8
DIBUJOS
 62
     7
100
AcDbVertex
100
AcDb2dVertex
 10
78.81817203785639
 20
42.95823241568652
 30
0.0
  0
SEQEND
  5
4C2
330
4B7
100
AcDbEntity
  8
DIBUJOS
 62
     7
  0
POLYLINE
  5
4C3
330
24B
100
AcDbEntity
  8
DIBUJOS
 62
     7
100
AcDb2dPolyline
 66
     1
 10
0.0
 20
0.0
 30
0.0
  0
VERTEX
  5
4C4
330
4C3
100
AcDbEntity
  8
DIBUJOS
 62
     7
100
AcDbVertex
100
AcDb2dVertex
 10
81.05422778491108
 20
42.96387988845286
 30
0.0
  0
VERTEX
  5
4C5
330
4C3
100
AcDbEntity
  8
DIBUJOS
 62
     7
100
AcDbVertex
100
AcDb2dVertex
 10
81.05422778491108
 20
42.8565931036096
 30
0.0
  0
VERTEX
  5
4C6
330
4C3
100
AcDbEntity
  8
DIBUJOS
 62
     7
100
AcDbVertex
100
AcDb2dVertex
 10
81.05987221813324
 20
42.85094563084295
 30
0.0
  0
VERTEX
  5
4C7
330
4C3
100
AcDbEntity
  8
DIBUJOS
 62
     7
100
AcDbVertex
100
AcDb2dVertex
 10
81.12198529993292
 20
42.84812493400332
 30
0.0
  0
VERTEX
  5
4C8
330
4C3
100
AcDbEntity
  8
DIBUJOS
 62
     7
100
AcDbVertex
100
AcDb2dVertex
 10
81.13328024546557
 20
42.85094563084295
 30
0.0
  0
VERTEX
  5
4C9
330
4C3
100
AcDbEntity
  8
DIBUJOS
 62
     7
100
AcDbVertex
100
AcDb2dVertex
 10
81.23491651799831
 20
42.85094563084295
 30
0.0
  0
VERTEX
  5
4CA
330
4C3
100
AcDbEntity
  8
DIBUJOS
 62
     7
100
AcDbVertex
100
AcDb2dVertex
 10
81.24056399076466
 20
42.8565931036096
 30
0.0
  0
VERTEX
  5
4CB
330
4C3
100
AcDbEntity
  8
DIBUJOS
 62
     7
100
AcDbVertex
100
AcDb2dVertex
 10
81.2422570167772
 20
42.95315029810566
 30
0.0
  0
VERTEX
  5
4CC
330
4C3
100
AcDbEntity
  8
DIBUJOS
 62
     7
100
AcDbVertex
100
AcDb2dVertex
 10
81.24056399076466
 20
42.96387988845286
 30
0.0
  0
SEQEND
  5
4CD
330
4C3
100
AcDbEntity
  8
DIBUJOS
 62
     7
  0
POLYLINE
  5
4CE
330
24B
100
AcDbEntity
  8
DIBUJOS
 62
     7
100
AcDb2dPolyline
 66
     1
 10
0.0
 20
0.0
 30
0.0
  0
VERTEX
  5
4CF
330
4CE
100
AcDbEntity
  8
DIBUJOS
 62
     7
100
AcDbVertex
100
AcDb2dVertex
 10
83.47661973781999
 20
42.96387988845286
 30
0.0
  0
VERTEX
  5
4D0
330
4CE
100
AcDbEntity
  8
DIBUJOS
 62
     7
100
AcDbVertex
100
AcDb2dVertex
 10
83.50684496343318
 20
42.86838349481572
 30
0.0
  0
VERTEX
  5
4D1
330
4CE
100
AcDbEntity
  8
DIBUJOS
 62
     7
100
AcDbVertex
100
AcDb2dVertex
 10
83.51614596809723
 20
42.85094563084295
 30
0.0
  0
VERTEX
  5
4D2
330
4CE
100
AcDbEntity
  8
DIBUJOS
 62
     7
100
AcDbVertex
100
AcDb2dVertex
 10
83.64036909215177
 20
42.8453011976208
 30
0.0
  0
VERTEX
  5
4D3
330
4CE
100
AcDbEntity
  8
DIBUJOS
 62
     7
100
AcDbVertex
100
AcDb2dVertex
 10
84.05257077368098
 20
42.85094563084295
 30
0.0
  0
VERTEX
  5
4D4
330
4CE
100
AcDbEntity
  8
DIBUJOS
 62
     7
100
AcDbVertex
100
AcDb2dVertex
 10
84.05821824644731
 20
42.8453011976208
 30
0.0
  0
VERTEX
  5
4D5
330
4CE
100
AcDbEntity
  8
DIBUJOS
 62
     7
100
AcDbVertex
100
AcDb2dVertex
 10
84.07515762520278
 20
42.86224057637593
 30
0.0
  0
VERTEX
  5
4D6
330
4CE
100
AcDbEntity
  8
DIBUJOS
 62
     7
100
AcDbVertex
100
AcDb2dVertex
 10
83.98255487746145
 20
43.12650157195788
 30
0.0
  0
VERTEX
  5
4D7
330
4CE
100
AcDbEntity
  8
DIBUJOS
 62
     7
100
AcDbVertex
100
AcDb2dVertex
 10
83.97351831312649
 20
43.13892418831762
 30
0.0
  0
SEQEND
  5
4D8
330
4CE
100
AcDbEntity
  8
DIBUJOS
 62
     7
  0
ENDBLK
  5
24E
330
24B
100
AcDbEntity
  8
0
100
AcDbBlockEnd
  0
BLOCK
  5
4DB
330
4D9
100
AcDbEntity
  8
0
100
AcDbBlockBegin
  2
BLOCK_4
 70
     0
 10
0.0
 20
0.0
 30
0.0
  3
BLOCK_4
  1

  0
POLYLINE
  5
4DD
330
4D9
100
AcDbEntity
  8
DIBUJOS
 62
     7
100
AcDb2dPolyline
 66
     1
 10
0.0
 20
0.0
 30
0.0
  0
VERTEX
  5
4DE
330
4DD
100
AcDbEntity
  8
DIBUJOS
 62
     7
100
AcDbVertex
100
AcDb2dVertex
 10
83.77588716173896
 20
32.22968919107901
 30
0.0
  0
VERTEX
  5
4DF
330
4DD
100
AcDbEntity
  8
DIBUJOS
 62
     7
100
AcDbVertex
100
AcDb2dVertex
 10
83.77024272851682
 20
32.23533514407357
 30
0.0
  0
SEQEND
  5
4E0
330
4DD
100
AcDbEntity
  8
DIBUJOS
 62
     7
  0
POLYLINE
  5
4E1
330
4D9
100
AcDbEntity
  8
DIBUJOS
 62
     7
100
AcDb2dPolyline
 66
     1
 10
0.0
 20
0.0
 30
0.0
  0
VERTEX
  5
4E2
330
4E1
100
AcDbEntity
  8
DIBUJOS
 62
     7
100
AcDbVertex
100
AcDb2dVertex
 10
78.18575235341851
 20
31.84007436107223
 30
0.0
  0
VERTEX
  5
4E3
330
4E1
100
AcDbEntity
  8
DIBUJOS
 62
     7
100
AcDbVertex
100
AcDb2dVertex
 10
78.18010488065154
 20
31.84572031406615
 30
0.0
  0
SEQEND
  5
4E4
330
4E1
100
AcDbEntity
  8
DIBUJOS
 62
     7
  0
POLYLINE
  5
4E5
330
4D9
100
AcDbEntity
  8
DIBUJOS
 62
     7
100
AcDb2dPolyline
 66
     1
 10
0.0
 20
0.0
 30
0.0
  0
VERTEX
  5
4E6
330
4E5
100
AcDbEntity
  8
DIBUJOS
 62
     7
100
AcDbVertex
100
AcDb2dVertex
 10
78.18575235341851
 20
31.84007436107223
 30
0.0
  0
VERTEX
  5
4E7
330
4E5
100
AcDbEntity
  8
DIBUJOS
 62
     7
100
AcDbVertex
100
AcDb2dVertex
 10
78.30737058825848
 20
32.01685576033698
 30
0.0
  0
VERTEX
  5
4E8
330
4E5
100
AcDbEntity
  8
DIBUJOS
 62
     7
100
AcDbVertex
100
AcDb2dVertex
 10
78.38478473459249
 20
32.12115771296472
 30
0.0
  0
VERTEX
  5
4E9
330
4E5
100
AcDbEntity
  8
DIBUJOS
 62
     7
100
AcDbVertex
100
AcDb2dVertex
 10
78.65441964398043
 20
32.42732034246589
 30
0.0
  0
VERTEX
  5
4EA
330
4E5
100
AcDbEntity
  8
DIBUJOS
 62
     7
100
AcDbVertex
100
AcDb2dVertex
 10
78.82438486580787
 20
32.57300264721546
 30
0.0
  0
VERTEX
  5
4EB
330
4E5
100
AcDbEntity
  8
DIBUJOS
 62
     7
100
AcDbVertex
100
AcDb2dVertex
 10
78.97752317200882
 20
32.70824867761472
 30
0.0
  0
VERTEX
  5
4EC
330
4E5
100
AcDbEntity
  8
DIBUJOS
 62
     7
100
AcDbVertex
100
AcDb2dVertex
 10
79.23186917503722
 20
32.88220330095308
 30
0.0
  0
VERTEX
  5
4ED
330
4E5
100
AcDbEntity
  8
DIBUJOS
 62
     7
100
AcDbVertex
100
AcDb2dVertex
 10
79.3272348682816
 20
32.94550484445867
 30
0.0
  0
VERTEX
  5
4EE
330
4E5
100
AcDbEntity
  8
DIBUJOS
 62
     7
100
AcDbVertex
100
AcDb2dVertex
 10
79.54771427197517
 20
33.06312759870064
 30
0.0
  0
VERTEX
  5
4EF
330
4E5
100
AcDbEntity
  8
DIBUJOS
 62
     7
100
AcDbVertex
100
AcDb2dVertex
 10
79.77753115486105
 20
33.17380043556835
 30
0.0
  0
VERTEX
  5
4F0
330
4E5
100
AcDbEntity
  8
DIBUJOS
 62
     7
100
AcDbVertex
100
AcDb2dVertex
 10
80.21883343072088
 20
33.328344530873
 30
0.0
  0
VERTEX
  5
4F1
330
4E5
100
AcDbEntity
  8
DIBUJOS
 62
     7
100
AcDbVertex
100
AcDb2dVertex
 10
80.65297758044184
 20
33.41220099073173
 30
0.0
  0
VERTEX
  5
4F2
330
4E5
100
AcDbEntity
  8
DIBUJOS
 62
     7
100
AcDbVertex
100
AcDb2dVertex
 10
81.12763277269924
 20
33.44935485691119
 30
0.0
  0
VERTEX
  5
4F3
330
4E5
100
AcDbEntity
  8
DIBUJOS
 62
     7
100
AcDbVertex
100
AcDb2dVertex
 10
81.522895075473
 20
33.4211220523942
 30
0.0
  0
VERTEX
  5
4F4
330
4E5
100
AcDbEntity
  8
DIBUJOS
 62
     7
100
AcDbVertex
100
AcDb2dVertex
 10
81.62968033555508
 20
33.40783620553646
 30
0.0
  0
VERTEX
  5
4F5
330
4E5
100
AcDbEntity
  8
DIBUJOS
 62
     7
100
AcDbVertex
100
AcDb2dVertex
 10
81.80484317763622
 20
33.37365957271303
 30
0.0
  0
VERTEX
  5
4F6
330
4E5
100
AcDbEntity
  8
DIBUJOS
 62
     7
100
AcDbVertex
100
AcDb2dVertex
 10
82.0756969441706
 20
33.31214224153968
 30
0.0
  0
VERTEX
  5
4F7
330
4E5
100
AcDbEntity
  8
DIBUJOS
 62
     7
100
AcDbVertex
100
AcDb2dVertex
 10
82.44272492265623
 20
33.18791759771273
 30
0.0
  0
VERTEX
  5
4F8
330
4E5
100
AcDbEntity
  8
DIBUJOS
 62
     7
100
AcDbVertex
100
AcDb2dVertex
 10
82.64569959240855
 20
33.0923163398074
 30
0.0
  0
VERTEX
  5
4F9
330
4E5
100
AcDbEntity
  8
DIBUJOS
 62
     7
100
AcDbVertex
100
AcDb2dVertex
 10
82.90687545082275
 20
32.95922990542601
 30
0.0
  0
VERTEX
  5
4FA
330
4E5
100
AcDbEntity
  8
DIBUJOS
 62
     7
100
AcDbVertex
100
AcDb2dVertex
 10
83.27334111366613
 20
32.70964990740246
 30
0.0
  0
VERTEX
  5
4FB
330
4E5
100
AcDbEntity
  8
DIBUJOS
 62
     7
100
AcDbVertex
100
AcDb2dVertex
 10
83.47219720128847
 20
32.53600531755271
 30
0.0
  0
VERTEX
  5
4FC
330
4E5
100
AcDbEntity
  8
DIBUJOS
 62
     7
100
AcDbVertex
100
AcDb2dVertex
 10
83.61918650996127
 20
32.4059797039869
 30
0.0
  0
VERTEX
  5
4FD
330
4E5
100
AcDbEntity
  8
DIBUJOS
 62
     7
100
AcDbVertex
100
AcDb2dVertex
 10
83.77024272851682
 20
32.23533514407357
 30
0.0
  0
SEQEND
  5
4FE
330
4E5
100
AcDbEntity
  8
DIBUJOS
 62
     7
  0
POLYLINE
  5
4FF
330
4D9
100
AcDbEntity
  8
DIBUJOS
 62
     7
100
AcDb2dPolyline
 66
     1
 10
0.0
 20
0.0
 30
0.0
  0
VERTEX
  5
500
330
4FF
100
AcDbEntity
  8
DIBUJOS
 62
     7
100
AcDbVertex
100
AcDb2dVertex
 10
78.18010488065154
 20
31.8287809353107
 30
0.0
  0
VERTEX
  5
501
330
4FF
100
AcDbEntity
  8
DIBUJOS
 62
     7
100
AcDbVertex
100
AcDb2dVertex
 10
78.18575235341851
 20
31.84007436107223
 30
0.0
  0
SEQEND
  5
502
330
4FF
100
AcDbEntity
  8
DIBUJOS
 62
     7
  0
POLYLINE
  5
503
330
4D9
100
AcDbEntity
  8
DIBUJOS
 62
     7
100
AcDb2dPolyline
 66
     1
 10
0.0
 20
0.0
 30
0.0
  0
VERTEX
  5
504
330
503
100
AcDbEntity
  8
DIBUJOS
 62
     7
100
AcDbVertex
100
AcDb2dVertex
 10
78.18575235341851
 20
31.82313346254436
 30
0.0
  0
VERTEX
  5
505
330
503
100
AcDbEntity
  8
DIBUJOS
 62
     7
100
AcDbVertex
100
AcDb2dVertex
 10
78.18010488065154
 20
31.8287809353107
 30
0.0
  0
SEQEND
  5
506
330
503
100
AcDbEntity
  8
DIBUJOS
 62
     7
  0
POLYLINE
  5
507
330
4D9
100
AcDbEntity
  8
DIBUJOS
 62
     7
100
AcDb2dPolyline
 66
     1
 10
0.0
 20
0.0
 30
0.0
  0
VERTEX
  5
508
330
507
100
AcDbEntity
  8
DIBUJOS
 62
     7
100
AcDbVertex
100
AcDb2dVertex
 10
84.16550503129058
 20
31.69326134595109
 30
0.0
  0
VERTEX
  5
509
330
507
100
AcDbEntity
  8
DIBUJOS
 62
     7
100
AcDbVertex
100
AcDb2dVertex
 10
84.11581456585095
 20
31.76723320869681
 30
0.0
  0
VERTEX
  5
50A
330
507
100
AcDbEntity
  8
DIBUJOS
 62
     7
100
AcDbVertex
100
AcDb2dVertex
 10
83.89871209555058
 20
32.08727743568204
 30
0.0
  0
VERTEX
  5
50B
330
507
100
AcDbEntity
  8
DIBUJOS
 62
     7
100
AcDbVertex
100
AcDb2dVertex
 10
83.77588716173896
 20
32.22968919107901
 30
0.0
  0
SEQEND
  5
50C
330
507
100
AcDbEntity
  8
DIBUJOS
 62
     7
  0
POLYLINE
  5
50D
330
4D9
100
AcDbEntity
  8
DIBUJOS
 62
     7
100
AcDb2dPolyline
 66
     1
 10
0.0
 20
0.0
 30
0.0
  0
VERTEX
  5
50E
330
50D
100
AcDbEntity
  8
DIBUJOS
 62
     7
100
AcDbVertex
100
AcDb2dVertex
 10
84.16550503129058
 20
31.69326134595109
 30
0.0
  0
VERTEX
  5
50F
330
50D
100
AcDbEntity
  8
DIBUJOS
 62
     7
100
AcDbVertex
100
AcDb2dVertex
 10
84.17114946451336
 20
31.69890881871806
 30
0.0
  0
SEQEND
  5
510
330
50D
100
AcDbEntity
  8
DIBUJOS
 62
     7
  0
POLYLINE
  5
511
330
4D9
100
AcDbEntity
  8
DIBUJOS
 62
     7
100
AcDb2dPolyline
 66
     1
 10
0.0
 20
0.0
 30
0.0
  0
VERTEX
  5
512
330
511
100
AcDbEntity
  8
DIBUJOS
 62
     7
100
AcDbVertex
100
AcDb2dVertex
 10
77.98812120203164
 20
31.48998424157029
 30
0.0
  0
VERTEX
  5
513
330
511
100
AcDbEntity
  8
DIBUJOS
 62
     7
100
AcDbVertex
100
AcDb2dVertex
 10
77.98247676880884
 20
31.49563019456421
 30
0.0
  0
SEQEND
  5
514
330
511
100
AcDbEntity
  8
DIBUJOS
 62
     7
  0
POLYLINE
  5
515
330
4D9
100
AcDbEntity
  8
DIBUJOS
 62
     7
100
AcDb2dPolyline
 66
     1
 10
0.0
 20
0.0
 30
0.0
  0
VERTEX
  5
516
330
515
100
AcDbEntity
  8
DIBUJOS
 62
     7
100
AcDbVertex
100
AcDb2dVertex
 10
77.98812120203164
 20
31.48998424157029
 30
0.0
  0
VERTEX
  5
517
330
515
100
AcDbEntity
  8
DIBUJOS
 62
     7
100
AcDbVertex
100
AcDb2dVertex
 10
78.04345914023693
 20
31.59783486182692
 30
0.0
  0
VERTEX
  5
518
330
515
100
AcDbEntity
  8
DIBUJOS
 62
     7
100
AcDbVertex
100
AcDb2dVertex
 10
78.1024323730768
 20
31.71474636277006
 30
0.0
  0
VERTEX
  5
519
330
515
100
AcDbEntity
  8
DIBUJOS
 62
     7
100
AcDbVertex
100
AcDb2dVertex
 10
78.18010488065154
 20
31.8287809353107
 30
0.0
  0
SEQEND
  5
51A
330
515
100
AcDbEntity
  8
DIBUJOS
 62
     7
  0
POLYLINE
  5
51B
330
4D9
100
AcDbEntity
  8
DIBUJOS
 62
     7
100
AcDb2dPolyline
 66
     1
 10
0.0
 20
0.0
 30
0.0
  0
VERTEX
  5
51C
330
51B
100
AcDbEntity
  8
DIBUJOS
 62
     7
100
AcDbVertex
100
AcDb2dVertex
 10
77.84131122645466
 20
31.15118906760101
 30
0.0
  0
VERTEX
  5
51D
330
51B
100
AcDbEntity
  8
DIBUJOS
 62
     7
100
AcDbVertex
100
AcDb2dVertex
 10
77.83566375368834
 20
31.15683502059557
 30
0.0
  0
SEQEND
  5
51E
330
51B
100
AcDbEntity
  8
DIBUJOS
 62
     7
  0
POLYLINE
  5
51F
330
4D9
100
AcDbEntity
  8
DIBUJOS
 62
     7
100
AcDb2dPolyline
 66
     1
 10
0.0
 20
0.0
 30
0.0
  0
VERTEX
  5
520
330
51F
100
AcDbEntity
  8
DIBUJOS
 62
     7
100
AcDbVertex
100
AcDb2dVertex
 10
77.84131122645466
 20
31.15118906760101
 30
0.0
  0
VERTEX
  5
521
330
51F
100
AcDbEntity
  8
DIBUJOS
 62
     7
100
AcDbVertex
100
AcDb2dVertex
 10
77.8715364520685
 20
31.23538899593307
 30
0.0
  0
VERTEX
  5
522
330
51F
100
AcDbEntity
  8
DIBUJOS
 62
     7
100
AcDbVertex
100
AcDb2dVertex
 10
77.96666506088013
 20
31.44424670311269
 30
0.0
  0
VERTEX
  5
523
330
51F
100
AcDbEntity
  8
DIBUJOS
 62
     7
100
AcDbVertex
100
AcDb2dVertex
 10
77.98812120203164
 20
31.48998424157029
 30
0.0
  0
SEQEND
  5
524
330
51F
100
AcDbEntity
  8
DIBUJOS
 62
     7
  0
POLYLINE
  5
525
330
4D9
100
AcDbEntity
  8
DIBUJOS
 62
     7
100
AcDb2dPolyline
 66
     1
 10
0.0
 20
0.0
 30
0.0
  0
VERTEX
  5
526
330
525
100
AcDbEntity
  8
DIBUJOS
 62
     7
100
AcDbVertex
100
AcDb2dVertex
 10
77.62674069631296
 20
29.80729723817011
 30
0.0
  0
VERTEX
  5
527
330
525
100
AcDbEntity
  8
DIBUJOS
 62
     7
100
AcDbVertex
100
AcDb2dVertex
 10
77.621093223546
 20
29.9710481122743
 30
0.0
  0
VERTEX
  5
528
330
525
100
AcDbEntity
  8
DIBUJOS
 62
     7
100
AcDbVertex
100
AcDb2dVertex
 10
77.65844617985752
 20
30.43450410463467
 30
0.0
  0
VERTEX
  5
529
330
525
100
AcDbEntity
  8
DIBUJOS
 62
     7
100
AcDbVertex
100
AcDb2dVertex
 10
77.67518798825269
 20
30.51346081955353
 30
0.0
  0
VERTEX
  5
52A
330
525
100
AcDbEntity
  8
DIBUJOS
 62
     7
100
AcDbVertex
100
AcDb2dVertex
 10
77.75295776123612
 20
30.89094634919746
 30
0.0
  0
VERTEX
  5
52B
330
525
100
AcDbEntity
  8
DIBUJOS
 62
     7
100
AcDbVertex
100
AcDb2dVertex
 10
77.84131122645466
 20
31.15118906760101
 30
0.0
  0
SEQEND
  5
52C
330
525
100
AcDbEntity
  8
DIBUJOS
 62
     7
  0
POLYLINE
  5
52D
330
4D9
100
AcDbEntity
  8
DIBUJOS
 62
     7
100
AcDb2dPolyline
 66
     1
 10
0.0
 20
0.0
 30
0.0
  0
VERTEX
  5
52E
330
52D
100
AcDbEntity
  8
DIBUJOS
 62
     7
100
AcDbVertex
100
AcDb2dVertex
 10
77.62674069631296
 20
29.80164976540377
 30
0.0
  0
VERTEX
  5
52F
330
52D
100
AcDbEntity
  8
DIBUJOS
 62
     7
100
AcDbVertex
100
AcDb2dVertex
 10
77.62674069631296
 20
29.80729723817011
 30
0.0
  0
SEQEND
  5
530
330
52D
100
AcDbEntity
  8
DIBUJOS
 62
     7
  0
POLYLINE
  5
531
330
4D9
100
AcDbEntity
  8
DIBUJOS
 62
     7
100
AcDb2dPolyline
 66
     1
 10
0.0
 20
0.0
 30
0.0
  0
VERTEX
  5
532
330
531
100
AcDbEntity
  8
DIBUJOS
 62
     7
100
AcDbVertex
100
AcDb2dVertex
 10
77.63238512953512
 20
29.80164976540377
 30
0.0
  0
VERTEX
  5
533
330
531
100
AcDbEntity
  8
DIBUJOS
 62
     7
100
AcDbVertex
100
AcDb2dVertex
 10
77.62674069631296
 20
29.80164976540377
 30
0.0
  0
SEQEND
  5
534
330
531
100
AcDbEntity
  8
DIBUJOS
 62
     7
  0
POLYLINE
  5
535
330
4D9
100
AcDbEntity
  8
DIBUJOS
 62
     7
100
AcDb2dPolyline
 66
     1
 10
0.0
 20
0.0
 30
0.0
  0
VERTEX
  5
536
330
535
100
AcDbEntity
  8
DIBUJOS
 62
     7
100
AcDbVertex
100
AcDb2dVertex
 10
77.63238512953512
 20
29.80164976540377
 30
0.0
  0
VERTEX
  5
537
330
535
100
AcDbEntity
  8
DIBUJOS
 62
     7
100
AcDbVertex
100
AcDb2dVertex
 10
77.63803260230145
 20
29.80729723817011
 30
0.0
  0
SEQEND
  5
538
330
535
100
AcDbEntity
  8
DIBUJOS
 62
     7
  0
POLYLINE
  5
539
330
4D9
100
AcDbEntity
  8
DIBUJOS
 62
     7
100
AcDb2dPolyline
 66
     1
 10
0.0
 20
0.0
 30
0.0
  0
VERTEX
  5
53A
330
539
100
AcDbEntity
  8
DIBUJOS
 62
     7
100
AcDbVertex
100
AcDb2dVertex
 10
77.62674069631296
 20
29.79600381240921
 30
0.0
  0
VERTEX
  5
53B
330
539
100
AcDbEntity
  8
DIBUJOS
 62
     7
100
AcDbVertex
100
AcDb2dVertex
 10
77.62674069631296
 20
29.80164976540377
 30
0.0
  0
SEQEND
  5
53C
330
539
100
AcDbEntity
  8
DIBUJOS
 62
     7
  0
POLYLINE
  5
53D
330
4D9
100
AcDbEntity
  8
DIBUJOS
 62
     7
100
AcDb2dPolyline
 66
     1
 10
0.0
 20
0.0
 30
0.0
  0
VERTEX
  5
53E
330
53D
100
AcDbEntity
  8
DIBUJOS
 62
     7
100
AcDbVertex
100
AcDb2dVertex
 10
77.88083745673255
 20
28.62151032984948
 30
0.0
  0
VERTEX
  5
53F
330
53D
100
AcDbEntity
  8
DIBUJOS
 62
     7
100
AcDbVertex
100
AcDb2dVertex
 10
77.76112805552923
 20
28.96538914117108
 30
0.0
  0
VERTEX
  5
540
330
53D
100
AcDbEntity
  8
DIBUJOS
 62
     7
100
AcDbVertex
100
AcDb2dVertex
 10
77.71509112198734
 20
29.15179373676521
 30
0.0
  0
VERTEX
  5
541
330
53D
100
AcDbEntity
  8
DIBUJOS
 62
     7
100
AcDbVertex
100
AcDb2dVertex
 10
77.68537653976722
 20
29.30518432511852
 30
0.0
  0
VERTEX
  5
542
330
53D
100
AcDbEntity
  8
DIBUJOS
 62
     7
100
AcDbVertex
100
AcDb2dVertex
 10
77.64368007506779
 20
29.5362595792233
 30
0.0
  0
VERTEX
  5
543
330
53D
100
AcDbEntity
  8
DIBUJOS
 62
     7
100
AcDbVertex
100
AcDb2dVertex
 10
77.64932450829058
 20
29.54190705198963
 30
0.0
  0
VERTEX
  5
544
330
53D
100
AcDbEntity
  8
DIBUJOS
 62
     7
100
AcDbVertex
100
AcDb2dVertex
 10
77.62981671484881
 20
29.79014357156296
 30
0.0
  0
VERTEX
  5
545
330
53D
100
AcDbEntity
  8
DIBUJOS
 62
     7
100
AcDbVertex
100
AcDb2dVertex
 10
77.62674069631296
 20
29.79600381240921
 30
0.0
  0
SEQEND
  5
546
330
53D
100
AcDbEntity
  8
DIBUJOS
 62
     7
  0
POLYLINE
  5
547
330
4D9
100
AcDbEntity
  8
DIBUJOS
 62
     7
100
AcDb2dPolyline
 66
     1
 10
0.0
 20
0.0
 30
0.0
  0
VERTEX
  5
548
330
547
100
AcDbEntity
  8
DIBUJOS
 62
     7
100
AcDbVertex
100
AcDb2dVertex
 10
77.88083745673255
 20
28.61586437685492
 30
0.0
  0
VERTEX
  5
549
330
547
100
AcDbEntity
  8
DIBUJOS
 62
     7
100
AcDbVertex
100
AcDb2dVertex
 10
77.88083745673255
 20
28.62151032984948
 30
0.0
  0
SEQEND
  5
54A
330
547
100
AcDbEntity
  8
DIBUJOS
 62
     7
  0
POLYLINE
  5
54B
330
4D9
100
AcDbEntity
  8
DIBUJOS
 62
     7
100
AcDb2dPolyline
 66
     1
 10
0.0
 20
0.0
 30
0.0
  0
VERTEX
  5
54C
330
54B
100
AcDbEntity
  8
DIBUJOS
 62
     7
100
AcDbVertex
100
AcDb2dVertex
 10
77.88648188995471
 20
28.61586437685492
 30
0.0
  0
VERTEX
  5
54D
330
54B
100
AcDbEntity
  8
DIBUJOS
 62
     7
100
AcDbVertex
100
AcDb2dVertex
 10
77.88083745673255
 20
28.61586437685492
 30
0.0
  0
SEQEND
  5
54E
330
54B
100
AcDbEntity
  8
DIBUJOS
 62
     7
  0
POLYLINE
  5
54F
330
4D9
100
AcDbEntity
  8
DIBUJOS
 62
     7
100
AcDb2dPolyline
 66
     1
 10
0.0
 20
0.0
 30
0.0
  0
VERTEX
  5
550
330
54F
100
AcDbEntity
  8
DIBUJOS
 62
     7
100
AcDbVertex
100
AcDb2dVertex
 10
77.88083745673255
 20
28.61021690408859
 30
0.0
  0
VERTEX
  5
551
330
54F
100
AcDbEntity
  8
DIBUJOS
 62
     7
100
AcDbVertex
100
AcDb2dVertex
 10
77.88083745673255
 20
28.61586437685492
 30
0.0
  0
SEQEND
  5
552
330
54F
100
AcDbEntity
  8
DIBUJOS
 62
     7
  0
POLYLINE
  5
553
330
4D9
100
AcDbEntity
  8
DIBUJOS
 62
     7
100
AcDb2dPolyline
 66
     1
 10
0.0
 20
0.0
 30
0.0
  0
VERTEX
  5
554
330
553
100
AcDbEntity
  8
DIBUJOS
 62
     7
100
AcDbVertex
100
AcDb2dVertex
 10
77.88648188995471
 20
28.59892499809946
 30
0.0
  0
VERTEX
  5
555
330
553
100
AcDbEntity
  8
DIBUJOS
 62
     7
100
AcDbVertex
100
AcDb2dVertex
 10
77.88083745673255
 20
28.61021690408859
 30
0.0
  0
SEQEND
  5
556
330
553
100
AcDbEntity
  8
DIBUJOS
 62
     7
  0
POLYLINE
  5
557
330
4D9
100
AcDbEntity
  8
DIBUJOS
 62
     7
100
AcDb2dPolyline
 66
     1
 10
0.0
 20
0.0
 30
0.0
  0
VERTEX
  5
558
330
557
100
AcDbEntity
  8
DIBUJOS
 62
     7
100
AcDbVertex
100
AcDb2dVertex
 10
77.88648188995471
 20
28.59892499809946
 30
0.0
  0
VERTEX
  5
559
330
557
100
AcDbEntity
  8
DIBUJOS
 62
     7
100
AcDbVertex
100
AcDb2dVertex
 10
77.89212936272104
 20
28.60457095109403
 30
0.0
  0
VERTEX
  5
55A
330
557
100
AcDbEntity
  8
DIBUJOS
 62
     7
100
AcDbVertex
100
AcDb2dVertex
 10
77.88648188995471
 20
28.61586437685492
 30
0.0
  0
SEQEND
  5
55B
330
557
100
AcDbEntity
  8
DIBUJOS
 62
     7
  0
POLYLINE
  5
55C
330
4D9
100
AcDbEntity
  8
DIBUJOS
 62
     7
100
AcDb2dPolyline
 66
     1
 10
0.0
 20
0.0
 30
0.0
  0
VERTEX
  5
55D
330
55C
100
AcDbEntity
  8
DIBUJOS
 62
     7
100
AcDbVertex
100
AcDb2dVertex
 10
78.8689932136663
 20
27.26067988154965
 30
0.0
  0
VERTEX
  5
55E
330
55C
100
AcDbEntity
  8
DIBUJOS
 62
     7
100
AcDbVertex
100
AcDb2dVertex
 10
78.8689932136663
 20
27.2663265944301
 30
0.0
  0
VERTEX
  5
55F
330
55C
100
AcDbEntity
  8
DIBUJOS
 62
     7
100
AcDbVertex
100
AcDb2dVertex
 10
78.68830144103552
 20
27.41878480265864
 30
0.0
  0
VERTEX
  5
560
330
55C
100
AcDbEntity
  8
DIBUJOS
 62
     7
100
AcDbVertex
100
AcDb2dVertex
 10
78.41590966523226
 20
27.72268449164616
 30
0.0
  0
VERTEX
  5
561
330
55C
100
AcDbEntity
  8
DIBUJOS
 62
     7
100
AcDbVertex
100
AcDb2dVertex
 10
78.40167852018779
 20
27.74165732534267
 30
0.0
  0
VERTEX
  5
562
330
55C
100
AcDbEntity
  8
DIBUJOS
 62
     7
100
AcDbVertex
100
AcDb2dVertex
 10
78.33256536853901
 20
27.8140471054324
 30
0.0
  0
VERTEX
  5
563
330
55C
100
AcDbEntity
  8
DIBUJOS
 62
     7
100
AcDbVertex
100
AcDb2dVertex
 10
78.06830437295706
 20
28.23246009514132
 30
0.0
  0
VERTEX
  5
564
330
55C
100
AcDbEntity
  8
DIBUJOS
 62
     7
100
AcDbVertex
100
AcDb2dVertex
 10
77.88648188995471
 20
28.59892499809946
 30
0.0
  0
SEQEND
  5
565
330
55C
100
AcDbEntity
  8
DIBUJOS
 62
     7
  0
POLYLINE
  5
566
330
4D9
100
AcDbEntity
  8
DIBUJOS
 62
     7
100
AcDb2dPolyline
 66
     1
 10
0.0
 20
0.0
 30
0.0
  0
VERTEX
  5
567
330
566
100
AcDbEntity
  8
DIBUJOS
 62
     7
100
AcDbVertex
100
AcDb2dVertex
 10
78.8746376468891
 20
27.25503316866856
 30
0.0
  0
VERTEX
  5
568
330
566
100
AcDbEntity
  8
DIBUJOS
 62
     7
100
AcDbVertex
100
AcDb2dVertex
 10
78.8689932136663
 20
27.26067988154965
 30
0.0
  0
SEQEND
  5
569
330
566
100
AcDbEntity
  8
DIBUJOS
 62
     7
  0
POLYLINE
  5
56A
330
4D9
100
AcDbEntity
  8
DIBUJOS
 62
     7
100
AcDb2dPolyline
 66
     1
 10
0.0
 20
0.0
 30
0.0
  0
VERTEX
  5
56B
330
56A
100
AcDbEntity
  8
DIBUJOS
 62
     7
100
AcDbVertex
100
AcDb2dVertex
 10
79.84020655230105
 20
26.67907985314928
 30
0.0
  0
VERTEX
  5
56C
330
56A
100
AcDbEntity
  8
DIBUJOS
 62
     7
100
AcDbVertex
100
AcDb2dVertex
 10
79.8181181859969
 20
26.6867189871272
 30
0.0
  0
VERTEX
  5
56D
330
56A
100
AcDbEntity
  8
DIBUJOS
 62
     7
100
AcDbVertex
100
AcDb2dVertex
 10
79.49068330775667
 20
26.84396067773852
 30
0.0
  0
VERTEX
  5
56E
330
56A
100
AcDbEntity
  8
DIBUJOS
 62
     7
100
AcDbVertex
100
AcDb2dVertex
 10
79.48390816416358
 20
26.84734824953539
 30
0.0
  0
VERTEX
  5
56F
330
56A
100
AcDbEntity
  8
DIBUJOS
 62
     7
100
AcDbVertex
100
AcDb2dVertex
 10
79.33878817505561
 20
26.92414232889218
 30
0.0
  0
VERTEX
  5
570
330
56A
100
AcDbEntity
  8
DIBUJOS
 62
     7
100
AcDbVertex
100
AcDb2dVertex
 10
79.29869658959258
 20
26.95124594280937
 30
0.0
  0
VERTEX
  5
571
330
56A
100
AcDbEntity
  8
DIBUJOS
 62
     7
100
AcDbVertex
100
AcDb2dVertex
 10
78.93675072868878
 20
27.19856755963586
 30
0.0
  0
VERTEX
  5
572
330
56A
100
AcDbEntity
  8
DIBUJOS
 62
     7
100
AcDbVertex
100
AcDb2dVertex
 10
78.93675072868878
 20
27.20421351263042
 30
0.0
  0
VERTEX
  5
573
330
56A
100
AcDbEntity
  8
DIBUJOS
 62
     7
100
AcDbVertex
100
AcDb2dVertex
 10
78.8746376468891
 20
27.25503316866856
 30
0.0
  0
SEQEND
  5
574
330
56A
100
AcDbEntity
  8
DIBUJOS
 62
     7
  0
POLYLINE
  5
575
330
4D9
100
AcDbEntity
  8
DIBUJOS
 62
     7
100
AcDb2dPolyline
 66
     1
 10
0.0
 20
0.0
 30
0.0
  0
VERTEX
  5
576
330
575
100
AcDbEntity
  8
DIBUJOS
 62
     7
100
AcDbVertex
100
AcDb2dVertex
 10
79.8345621190789
 20
26.67343314026883
 30
0.0
  0
VERTEX
  5
577
330
575
100
AcDbEntity
  8
DIBUJOS
 62
     7
100
AcDbVertex
100
AcDb2dVertex
 10
79.84020655230105
 20
26.67907985314928
 30
0.0
  0
SEQEND
  5
578
330
575
100
AcDbEntity
  8
DIBUJOS
 62
     7
  0
POLYLINE
  5
579
330
4D9
100
AcDbEntity
  8
DIBUJOS
 62
     7
100
AcDb2dPolyline
 66
     1
 10
0.0
 20
0.0
 30
0.0
  0
VERTEX
  5
57A
330
579
100
AcDbEntity
  8
DIBUJOS
 62
     7
100
AcDbVertex
100
AcDb2dVertex
 10
82.11014105686665
 20
26.57744130095887
 30
0.0
  0
VERTEX
  5
57B
330
579
100
AcDbEntity
  8
DIBUJOS
 62
     7
100
AcDbVertex
100
AcDb2dVertex
 10
82.11014105686665
 20
26.58308725395344
 30
0.0
  0
VERTEX
  5
57C
330
579
100
AcDbEntity
  8
DIBUJOS
 62
     7
100
AcDbVertex
100
AcDb2dVertex
 10
82.11578852963363
 20
26.58873396683389
 30
0.0
  0
VERTEX
  5
57D
330
579
100
AcDbEntity
  8
DIBUJOS
 62
     7
100
AcDbVertex
100
AcDb2dVertex
 10
82.12143296285643
 20
26.58308725395344
 30
0.0
  0
SEQEND
  5
57E
330
579
100
AcDbEntity
  8
DIBUJOS
 62
     7
  0
POLYLINE
  5
57F
330
4D9
100
AcDbEntity
  8
DIBUJOS
 62
     7
100
AcDb2dPolyline
 66
     1
 10
0.0
 20
0.0
 30
0.0
  0
VERTEX
  5
580
330
57F
100
AcDbEntity
  8
DIBUJOS
 62
     7
100
AcDbVertex
100
AcDb2dVertex
 10
82.12143296285643
 20
26.57744130095887
 30
0.0
  0
VERTEX
  5
581
330
57F
100
AcDbEntity
  8
DIBUJOS
 62
     7
100
AcDbVertex
100
AcDb2dVertex
 10
82.12143296285643
 20
26.58308725395344
 30
0.0
  0
SEQEND
  5
582
330
57F
100
AcDbEntity
  8
DIBUJOS
 62
     7
  0
POLYLINE
  5
583
330
4D9
100
AcDbEntity
  8
DIBUJOS
 62
     7
100
AcDb2dPolyline
 66
     1
 10
0.0
 20
0.0
 30
0.0
  0
VERTEX
  5
584
330
583
100
AcDbEntity
  8
DIBUJOS
 62
     7
100
AcDbVertex
100
AcDb2dVertex
 10
82.12708043562276
 20
26.57744130095887
 30
0.0
  0
VERTEX
  5
585
330
583
100
AcDbEntity
  8
DIBUJOS
 62
     7
100
AcDbVertex
100
AcDb2dVertex
 10
82.12143296285643
 20
26.57744130095887
 30
0.0
  0
SEQEND
  5
586
330
583
100
AcDbEntity
  8
DIBUJOS
 62
     7
  0
POLYLINE
  5
587
330
4D9
100
AcDbEntity
  8
DIBUJOS
 62
     7
100
AcDb2dPolyline
 66
     1
 10
0.0
 20
0.0
 30
0.0
  0
VERTEX
  5
588
330
587
100
AcDbEntity
  8
DIBUJOS
 62
     7
100
AcDbVertex
100
AcDb2dVertex
 10
82.12708043562276
 20
26.57744130095887
 30
0.0
  0
VERTEX
  5
589
330
587
100
AcDbEntity
  8
DIBUJOS
 62
     7
100
AcDbVertex
100
AcDb2dVertex
 10
82.13329326357488
 20
26.58195806335491
 30
0.0
  0
VERTEX
  5
58A
330
587
100
AcDbEntity
  8
DIBUJOS
 62
     7
100
AcDbVertex
100
AcDb2dVertex
 10
82.4099100055481
 20
26.67708667216655
 30
0.0
  0
VERTEX
  5
58B
330
587
100
AcDbEntity
  8
DIBUJOS
 62
     7
100
AcDbVertex
100
AcDb2dVertex
 10
82.42518371418736
 20
26.68200085494081
 30
0.0
  0
VERTEX
  5
58C
330
587
100
AcDbEntity
  8
DIBUJOS
 62
     7
100
AcDbVertex
100
AcDb2dVertex
 10
82.75329033165269
 20
26.83831396485807
 30
0.0
  0
VERTEX
  5
58D
330
587
100
AcDbEntity
  8
DIBUJOS
 62
     7
100
AcDbVertex
100
AcDb2dVertex
 10
82.80523917829001
 20
26.86428838817673
 30
0.0
  0
VERTEX
  5
58E
330
587
100
AcDbEntity
  8
DIBUJOS
 62
     7
100
AcDbVertex
100
AcDb2dVertex
 10
82.92223426669399
 20
26.92888553731599
 30
0.0
  0
VERTEX
  5
58F
330
587
100
AcDbEntity
  8
DIBUJOS
 62
     7
100
AcDbVertex
100
AcDb2dVertex
 10
83.00896765495587
 20
26.98828810574639
 30
0.0
  0
VERTEX
  5
590
330
587
100
AcDbEntity
  8
DIBUJOS
 62
     7
100
AcDbVertex
100
AcDb2dVertex
 10
83.2552983804361
 20
27.15477152991374
 30
0.0
  0
VERTEX
  5
591
330
587
100
AcDbEntity
  8
DIBUJOS
 62
     7
100
AcDbVertex
100
AcDb2dVertex
 10
83.28008890136351
 20
27.1746037946785
 30
0.0
  0
VERTEX
  5
592
330
587
100
AcDbEntity
  8
DIBUJOS
 62
     7
100
AcDbVertex
100
AcDb2dVertex
 10
83.5456660195006
 20
27.40608482790816
 30
0.0
  0
VERTEX
  5
593
330
587
100
AcDbEntity
  8
DIBUJOS
 62
     7
100
AcDbVertex
100
AcDb2dVertex
 10
83.64741475516166
 20
27.50225979974466
 30
0.0
  0
VERTEX
  5
594
330
587
100
AcDbEntity
  8
DIBUJOS
 62
     7
100
AcDbVertex
100
AcDb2dVertex
 10
83.91565147430539
 20
27.80964660559539
 30
0.0
  0
VERTEX
  5
595
330
587
100
AcDbEntity
  8
DIBUJOS
 62
     7
100
AcDbVertex
100
AcDb2dVertex
 10
84.1133829306445
 20
28.10853864582938
 30
0.0
  0
VERTEX
  5
596
330
587
100
AcDbEntity
  8
DIBUJOS
 62
     7
100
AcDbVertex
100
AcDb2dVertex
 10
84.15285444912968
 20
28.16515243263278
 30
0.0
  0
VERTEX
  5
597
330
587
100
AcDbEntity
  8
DIBUJOS
 62
     7
100
AcDbVertex
100
AcDb2dVertex
 10
84.25359101663585
 20
28.36289604714798
 30
0.0
  0
VERTEX
  5
598
330
587
100
AcDbEntity
  8
DIBUJOS
 62
     7
100
AcDbVertex
100
AcDb2dVertex
 10
84.26844526820237
 20
28.3947778242461
 30
0.0
  0
VERTEX
  5
599
330
587
100
AcDbEntity
  8
DIBUJOS
 62
     7
100
AcDbVertex
100
AcDb2dVertex
 10
84.37837949587617
 20
28.62772163802919
 30
0.0
  0
VERTEX
  5
59A
330
587
100
AcDbEntity
  8
DIBUJOS
 62
     7
100
AcDbVertex
100
AcDb2dVertex
 10
84.50230778416237
 20
28.98339084055754
 30
0.0
  0
VERTEX
  5
59B
330
587
100
AcDbEntity
  8
DIBUJOS
 62
     7
100
AcDbVertex
100
AcDb2dVertex
 10
84.60228446566664
 20
29.4680020592127
 30
0.0
  0
VERTEX
  5
59C
330
587
100
AcDbEntity
  8
DIBUJOS
 62
     7
100
AcDbVertex
100
AcDb2dVertex
 10
84.63417232185249
 20
29.846823468448
 30
0.0
  0
VERTEX
  5
59D
330
587
100
AcDbEntity
  8
DIBUJOS
 62
     7
100
AcDbVertex
100
AcDb2dVertex
 10
84.62525126018939
 20
30.135139415307
 30
0.0
  0
VERTEX
  5
59E
330
587
100
AcDbEntity
  8
DIBUJOS
 62
     7
100
AcDbVertex
100
AcDb2dVertex
 10
84.60336958287742
 20
30.41691578323387
 30
0.0
  0
VERTEX
  5
59F
330
587
100
AcDbEntity
  8
DIBUJOS
 62
     7
100
AcDbVertex
100
AcDb2dVertex
 10
84.55342683528545
 20
30.65372209756518
 30
0.0
  0
VERTEX
  5
5A0
330
587
100
AcDbEntity
  8
DIBUJOS
 62
     7
100
AcDbVertex
100
AcDb2dVertex
 10
84.52489463568416
 20
30.8062479356484
 30
0.0
  0
VERTEX
  5
5A1
330
587
100
AcDbEntity
  8
DIBUJOS
 62
     7
100
AcDbVertex
100
AcDb2dVertex
 10
84.42411855410619
 20
31.11674343513317
 30
0.0
  0
VERTEX
  5
5A2
330
587
100
AcDbEntity
  8
DIBUJOS
 62
     7
100
AcDbVertex
100
AcDb2dVertex
 10
84.39502099931912
 20
31.20151023842216
 30
0.0
  0
VERTEX
  5
5A3
330
587
100
AcDbEntity
  8
DIBUJOS
 62
     7
100
AcDbVertex
100
AcDb2dVertex
 10
84.35054031230928
 20
31.31971810488485
 30
0.0
  0
VERTEX
  5
5A4
330
587
100
AcDbEntity
  8
DIBUJOS
 62
     7
100
AcDbVertex
100
AcDb2dVertex
 10
84.16550503129058
 20
31.69326134595109
 30
0.0
  0
SEQEND
  5
5A5
330
587
100
AcDbEntity
  8
DIBUJOS
 62
     7
  0
POLYLINE
  5
5A6
330
4D9
100
AcDbEntity
  8
DIBUJOS
 62
     7
100
AcDb2dPolyline
 66
     1
 10
0.0
 20
0.0
 30
0.0
  0
VERTEX
  5
5A7
330
5A6
100
AcDbEntity
  8
DIBUJOS
 62
     7
100
AcDbVertex
100
AcDb2dVertex
 10
82.11014105686665
 20
26.57179458807843
 30
0.0
  0
VERTEX
  5
5A8
330
5A6
100
AcDbEntity
  8
DIBUJOS
 62
     7
100
AcDbVertex
100
AcDb2dVertex
 10
82.10449358410033
 20
26.57179458807843
 30
0.0
  0
SEQEND
  5
5A9
330
5A6
100
AcDbEntity
  8
DIBUJOS
 62
     7
  0
POLYLINE
  5
5AA
330
4D9
100
AcDbEntity
  8
DIBUJOS
 62
     7
100
AcDb2dPolyline
 66
     1
 10
0.0
 20
0.0
 30
0.0
  0
VERTEX
  5
5AB
330
5AA
100
AcDbEntity
  8
DIBUJOS
 62
     7
100
AcDbVertex
100
AcDb2dVertex
 10
82.11014105686665
 20
26.57179458807843
 30
0.0
  0
VERTEX
  5
5AC
330
5AA
100
AcDbEntity
  8
DIBUJOS
 62
     7
100
AcDbVertex
100
AcDb2dVertex
 10
82.11014105686665
 20
26.57744130095887
 30
0.0
  0
SEQEND
  5
5AD
330
5AA
100
AcDbEntity
  8
DIBUJOS
 62
     7
  0
POLYLINE
  5
5AE
330
4D9
100
AcDbEntity
  8
DIBUJOS
 62
     7
100
AcDb2dPolyline
 66
     1
 10
0.0
 20
0.0
 30
0.0
  0
VERTEX
  5
5AF
330
5AE
100
AcDbEntity
  8
DIBUJOS
 62
     7
100
AcDbVertex
100
AcDb2dVertex
 10
82.11578852963363
 20
26.57179458807843
 30
0.0
  0
VERTEX
  5
5B0
330
5AE
100
AcDbEntity
  8
DIBUJOS
 62
     7
100
AcDbVertex
100
AcDb2dVertex
 10
82.11014105686665
 20
26.57179458807843
 30
0.0
  0
SEQEND
  5
5B1
330
5AE
100
AcDbEntity
  8
DIBUJOS
 62
     7
  0
POLYLINE
  5
5B2
330
4D9
100
AcDbEntity
  8
DIBUJOS
 62
     7
100
AcDb2dPolyline
 66
     1
 10
0.0
 20
0.0
 30
0.0
  0
VERTEX
  5
5B3
330
5B2
100
AcDbEntity
  8
DIBUJOS
 62
     7
100
AcDbVertex
100
AcDb2dVertex
 10
82.11578852963363
 20
26.57179458807843
 30
0.0
  0
VERTEX
  5
5B4
330
5B2
100
AcDbEntity
  8
DIBUJOS
 62
     7
100
AcDbVertex
100
AcDb2dVertex
 10
82.12143296285643
 20
26.57744130095887
 30
0.0
  0
SEQEND
  5
5B5
330
5B2
100
AcDbEntity
  8
DIBUJOS
 62
     7
  0
POLYLINE
  5
5B6
330
4D9
100
AcDbEntity
  8
DIBUJOS
 62
     7
100
AcDb2dPolyline
 66
     1
 10
0.0
 20
0.0
 30
0.0
  0
VERTEX
  5
5B7
330
5B6
100
AcDbEntity
  8
DIBUJOS
 62
     7
100
AcDbVertex
100
AcDb2dVertex
 10
79.84020655230105
 20
26.67907985314928
 30
0.0
  0
VERTEX
  5
5B8
330
5B6
100
AcDbEntity
  8
DIBUJOS
 62
     7
100
AcDbVertex
100
AcDb2dVertex
 10
80.10051614067275
 20
26.5904285126182
 30
0.0
  0
VERTEX
  5
5B9
330
5B6
100
AcDbEntity
  8
DIBUJOS
 62
     7
100
AcDbVertex
100
AcDb2dVertex
 10
80.26370317936357
 20
26.54073804717859
 30
0.0
  0
VERTEX
  5
5BA
330
5B6
100
AcDbEntity
  8
DIBUJOS
 62
     7
100
AcDbVertex
100
AcDb2dVertex
 10
80.6359956480704
 20
26.46786649936391
 30
0.0
  0
VERTEX
  5
5BB
330
5B6
100
AcDbEntity
  8
DIBUJOS
 62
     7
100
AcDbVertex
100
AcDb2dVertex
 10
80.93021438939293
 20
26.44449240594387
 30
0.0
  0
VERTEX
  5
5BC
330
5B6
100
AcDbEntity
  8
DIBUJOS
 62
     7
100
AcDbVertex
100
AcDb2dVertex
 10
81.07681159688869
 20
26.43062904572425
 30
0.0
  0
VERTEX
  5
5BD
330
5B6
100
AcDbEntity
  8
DIBUJOS
 62
     7
100
AcDbVertex
100
AcDb2dVertex
 10
81.44414656931939
 20
26.45078350215435
 30
0.0
  0
VERTEX
  5
5BE
330
5B6
100
AcDbEntity
  8
DIBUJOS
 62
     7
100
AcDbVertex
100
AcDb2dVertex
 10
81.51160012994033
 20
26.45321589724669
 30
0.0
  0
VERTEX
  5
5BF
330
5B6
100
AcDbEntity
  8
DIBUJOS
 62
     7
100
AcDbVertex
100
AcDb2dVertex
 10
81.7544049843708
 20
26.49274212752393
 30
0.0
  0
VERTEX
  5
5C0
330
5B6
100
AcDbEntity
  8
DIBUJOS
 62
     7
100
AcDbVertex
100
AcDb2dVertex
 10
82.10449358410033
 20
26.57179458807843
 30
0.0
  0
SEQEND
  5
5C1
330
5B6
100
AcDbEntity
  8
DIBUJOS
 62
     7
  0
ENDBLK
  5
4DC
330
4D9
100
AcDbEntity
  8
0
100
AcDbBlockEnd
  0
BLOCK
  5
5C4
330
5C2
100
AcDbEntity
  8
0
100
AcDbBlockBegin
  2
BLOCK_5
 70
     0
 10
0.0
 20
0.0
 30
0.0
  3
BLOCK_5
  1

  0
POLYLINE
  5
5C6
330
5C2
100
AcDbEntity
  8
DIBUJOS
 62
     7
100
AcDb2dPolyline
 66
     1
 10
0.0
 20
0.0
 30
0.0
  0
VERTEX
  5
5C7
330
5C6
100
AcDbEntity
  8
DIBUJOS
 62
     7
100
AcDbVertex
100
AcDb2dVertex
 10
66.67260263264943
 20
33.4211220523942
 30
0.0
  0
VERTEX
  5
5C8
330
5C6
100
AcDbEntity
  8
DIBUJOS
 62
     7
100
AcDbVertex
100
AcDb2dVertex
 10
66.67824858564398
 20
33.42676952516118
 30
0.0
  0
SEQEND
  5
5C9
330
5C6
100
AcDbEntity
  8
DIBUJOS
 62
     7
  0
POLYLINE
  5
5CA
330
5C2
100
AcDbEntity
  8
DIBUJOS
 62
     7
100
AcDb2dPolyline
 66
     1
 10
0.0
 20
0.0
 30
0.0
  0
VERTEX
  5
5CB
330
5CA
100
AcDbEntity
  8
DIBUJOS
 62
     7
100
AcDbVertex
100
AcDb2dVertex
 10
62.04238849708838
 20
32.81128921947875
 30
0.0
  0
VERTEX
  5
5CC
330
5CA
100
AcDbEntity
  8
DIBUJOS
 62
     7
100
AcDbVertex
100
AcDb2dVertex
 10
62.35982251565657
 20
33.09222059417112
 30
0.0
  0
VERTEX
  5
5CD
330
5CA
100
AcDbEntity
  8
DIBUJOS
 62
     7
100
AcDbVertex
100
AcDb2dVertex
 10
62.54550066023257
 20
33.21671575741487
 30
0.0
  0
VERTEX
  5
5CE
330
5CA
100
AcDbEntity
  8
DIBUJOS
 62
     7
100
AcDbVertex
100
AcDb2dVertex
 10
62.77181598842118
 20
33.36894827950089
 30
0.0
  0
VERTEX
  5
5CF
330
5CA
100
AcDbEntity
  8
DIBUJOS
 62
     7
100
AcDbVertex
100
AcDb2dVertex
 10
63.25753664063865
 20
33.61084734981769
 30
0.0
  0
VERTEX
  5
5D0
330
5CA
100
AcDbEntity
  8
DIBUJOS
 62
     7
100
AcDbVertex
100
AcDb2dVertex
 10
63.29085156273618
 20
33.62270613076374
 30
0.0
  0
VERTEX
  5
5D1
330
5CA
100
AcDbEntity
  8
DIBUJOS
 62
     7
100
AcDbVertex
100
AcDb2dVertex
 10
63.78120296024977
 20
33.78487644198371
 30
0.0
  0
VERTEX
  5
5D2
330
5CA
100
AcDbEntity
  8
DIBUJOS
 62
     7
100
AcDbVertex
100
AcDb2dVertex
 10
63.83744364302584
 20
33.79549204943049
 30
0.0
  0
VERTEX
  5
5D3
330
5CA
100
AcDbEntity
  8
DIBUJOS
 62
     7
100
AcDbVertex
100
AcDb2dVertex
 10
64.2671500584963
 20
33.8841433899622
 30
0.0
  0
VERTEX
  5
5D4
330
5CA
100
AcDbEntity
  8
DIBUJOS
 62
     7
100
AcDbVertex
100
AcDb2dVertex
 10
64.30667628877355
 20
33.88131965357871
 30
0.0
  0
VERTEX
  5
5D5
330
5CA
100
AcDbEntity
  8
DIBUJOS
 62
     7
100
AcDbVertex
100
AcDb2dVertex
 10
64.34620251905079
 20
33.88978934295676
 30
0.0
  0
VERTEX
  5
5D6
330
5CA
100
AcDbEntity
  8
DIBUJOS
 62
     7
100
AcDbVertex
100
AcDb2dVertex
 10
64.35184847204503
 20
33.88978934295676
 30
0.0
  0
VERTEX
  5
5D7
330
5CA
100
AcDbEntity
  8
DIBUJOS
 62
     7
100
AcDbVertex
100
AcDb2dVertex
 10
64.84310261412907
 20
33.91237619447855
 30
0.0
  0
VERTEX
  5
5D8
330
5CA
100
AcDbEntity
  8
DIBUJOS
 62
     7
100
AcDbVertex
100
AcDb2dVertex
 10
65.01262862184785
 20
33.89811921331013
 30
0.0
  0
VERTEX
  5
5D9
330
5CA
100
AcDbEntity
  8
DIBUJOS
 62
     7
100
AcDbVertex
100
AcDb2dVertex
 10
65.29526518072886
 20
33.88066919116159
 30
0.0
  0
VERTEX
  5
5DA
330
5CA
100
AcDbEntity
  8
DIBUJOS
 62
     7
100
AcDbVertex
100
AcDb2dVertex
 10
65.76322425753709
 20
33.79131875550778
 30
0.0
  0
VERTEX
  5
5DB
330
5CA
100
AcDbEntity
  8
DIBUJOS
 62
     7
100
AcDbVertex
100
AcDb2dVertex
 10
66.08479129606998
 20
33.68538304797679
 30
0.0
  0
VERTEX
  5
5DC
330
5CA
100
AcDbEntity
  8
DIBUJOS
 62
     7
100
AcDbVertex
100
AcDb2dVertex
 10
66.27684184465835
 20
33.6224067356788
 30
0.0
  0
VERTEX
  5
5DD
330
5CA
100
AcDbEntity
  8
DIBUJOS
 62
     7
100
AcDbVertex
100
AcDb2dVertex
 10
66.54216516087068
 20
33.49339936935625
 30
0.0
  0
VERTEX
  5
5DE
330
5CA
100
AcDbEntity
  8
DIBUJOS
 62
     7
100
AcDbVertex
100
AcDb2dVertex
 10
66.67824858564398
 20
33.42676952516118
 30
0.0
  0
SEQEND
  5
5DF
330
5CA
100
AcDbEntity
  8
DIBUJOS
 62
     7
  0
POLYLINE
  5
5E0
330
5C2
100
AcDbEntity
  8
DIBUJOS
 62
     7
100
AcDb2dPolyline
 66
     1
 10
0.0
 20
0.0
 30
0.0
  0
VERTEX
  5
5E1
330
5E0
100
AcDbEntity
  8
DIBUJOS
 62
     7
100
AcDbVertex
100
AcDb2dVertex
 10
62.03674178420793
 20
32.80564174671242
 30
0.0
  0
VERTEX
  5
5E2
330
5E0
100
AcDbEntity
  8
DIBUJOS
 62
     7
100
AcDbVertex
100
AcDb2dVertex
 10
62.04238849708838
 20
32.81128921947875
 30
0.0
  0
SEQEND
  5
5E3
330
5E0
100
AcDbEntity
  8
DIBUJOS
 62
     7
  0
POLYLINE
  5
5E4
330
5C2
100
AcDbEntity
  8
DIBUJOS
 62
     7
100
AcDb2dPolyline
 66
     1
 10
0.0
 20
0.0
 30
0.0
  0
VERTEX
  5
5E5
330
5E4
100
AcDbEntity
  8
DIBUJOS
 62
     7
100
AcDbVertex
100
AcDb2dVertex
 10
67.71722399861652
 20
32.60801211509731
 30
0.0
  0
VERTEX
  5
5E6
330
5E4
100
AcDbEntity
  8
DIBUJOS
 62
     7
100
AcDbVertex
100
AcDb2dVertex
 10
67.62263034954981
 20
32.71652079663184
 30
0.0
  0
VERTEX
  5
5E7
330
5E4
100
AcDbEntity
  8
DIBUJOS
 62
     7
100
AcDbVertex
100
AcDb2dVertex
 10
67.32870948353981
 20
32.98206447978421
 30
0.0
  0
VERTEX
  5
5E8
330
5E4
100
AcDbEntity
  8
DIBUJOS
 62
     7
100
AcDbVertex
100
AcDb2dVertex
 10
67.20218694444337
 20
33.09222363371531
 30
0.0
  0
VERTEX
  5
5E9
330
5E4
100
AcDbEntity
  8
DIBUJOS
 62
     7
100
AcDbVertex
100
AcDb2dVertex
 10
67.05036020148194
 20
33.19412890589244
 30
0.0
  0
VERTEX
  5
5EA
330
5E4
100
AcDbEntity
  8
DIBUJOS
 62
     7
100
AcDbVertex
100
AcDb2dVertex
 10
66.99908765338633
 20
33.22778273714736
 30
0.0
  0
VERTEX
  5
5EB
330
5E4
100
AcDbEntity
  8
DIBUJOS
 62
     7
100
AcDbVertex
100
AcDb2dVertex
 10
66.73923247684418
 20
33.39627681967472
 30
0.0
  0
VERTEX
  5
5EC
330
5E4
100
AcDbEntity
  8
DIBUJOS
 62
     7
100
AcDbVertex
100
AcDb2dVertex
 10
66.67824858564398
 20
33.42676952516118
 30
0.0
  0
SEQEND
  5
5ED
330
5E4
100
AcDbEntity
  8
DIBUJOS
 62
     7
  0
POLYLINE
  5
5EE
330
5C2
100
AcDbEntity
  8
DIBUJOS
 62
     7
100
AcDb2dPolyline
 66
     1
 10
0.0
 20
0.0
 30
0.0
  0
VERTEX
  5
5EF
330
5EE
100
AcDbEntity
  8
DIBUJOS
 62
     7
100
AcDbVertex
100
AcDb2dVertex
 10
67.71722399861652
 20
32.60801211509731
 30
0.0
  0
VERTEX
  5
5F0
330
5EE
100
AcDbEntity
  8
DIBUJOS
 62
     7
100
AcDbVertex
100
AcDb2dVertex
 10
67.72286995161076
 20
32.61365806809187
 30
0.0
  0
SEQEND
  5
5F1
330
5EE
100
AcDbEntity
  8
DIBUJOS
 62
     7
  0
POLYLINE
  5
5F2
330
5C2
100
AcDbEntity
  8
DIBUJOS
 62
     7
100
AcDb2dPolyline
 66
     1
 10
0.0
 20
0.0
 30
0.0
  0
VERTEX
  5
5F3
330
5F2
100
AcDbEntity
  8
DIBUJOS
 62
     7
100
AcDbVertex
100
AcDb2dVertex
 10
61.40432285965594
 20
32.02641208669758
 30
0.0
  0
VERTEX
  5
5F4
330
5F2
100
AcDbEntity
  8
DIBUJOS
 62
     7
100
AcDbVertex
100
AcDb2dVertex
 10
61.52177160000295
 20
32.20202022197604
 30
0.0
  0
VERTEX
  5
5F5
330
5F2
100
AcDbEntity
  8
DIBUJOS
 62
     7
100
AcDbVertex
100
AcDb2dVertex
 10
61.63157512728463
 20
32.36405071417133
 30
0.0
  0
VERTEX
  5
5F6
330
5F2
100
AcDbEntity
  8
DIBUJOS
 62
     7
100
AcDbVertex
100
AcDb2dVertex
 10
61.6598185702053
 20
32.39786260171409
 30
0.0
  0
VERTEX
  5
5F7
330
5F2
100
AcDbEntity
  8
DIBUJOS
 62
     7
100
AcDbVertex
100
AcDb2dVertex
 10
62.00286226681114
 20
32.7830564149624
 30
0.0
  0
VERTEX
  5
5F8
330
5F2
100
AcDbEntity
  8
DIBUJOS
 62
     7
100
AcDbVertex
100
AcDb2dVertex
 10
62.03674178420793
 20
32.80564174671242
 30
0.0
  0
SEQEND
  5
5F9
330
5F2
100
AcDbEntity
  8
DIBUJOS
 62
     7
  0
POLYLINE
  5
5FA
330
5C2
100
AcDbEntity
  8
DIBUJOS
 62
     7
100
AcDb2dPolyline
 66
     1
 10
0.0
 20
0.0
 30
0.0
  0
VERTEX
  5
5FB
330
5FA
100
AcDbEntity
  8
DIBUJOS
 62
     7
100
AcDbVertex
100
AcDb2dVertex
 10
61.40996957253639
 20
32.02076461393124
 30
0.0
  0
VERTEX
  5
5FC
330
5FA
100
AcDbEntity
  8
DIBUJOS
 62
     7
100
AcDbVertex
100
AcDb2dVertex
 10
61.40432285965594
 20
32.02641208669758
 30
0.0
  0
SEQEND
  5
5FD
330
5FA
100
AcDbEntity
  8
DIBUJOS
 62
     7
  0
POLYLINE
  5
5FE
330
5C2
100
AcDbEntity
  8
DIBUJOS
 62
     7
100
AcDb2dPolyline
 66
     1
 10
0.0
 20
0.0
 30
0.0
  0
VERTEX
  5
5FF
330
5FE
100
AcDbEntity
  8
DIBUJOS
 62
     7
100
AcDbVertex
100
AcDb2dVertex
 10
60.92436138344692
 20
30.90273826017599
 30
0.0
  0
VERTEX
  5
600
330
5FE
100
AcDbEntity
  8
DIBUJOS
 62
     7
100
AcDbVertex
100
AcDb2dVertex
 10
60.91871467056647
 20
30.90838421317055
 30
0.0
  0
SEQEND
  5
601
330
5FE
100
AcDbEntity
  8
DIBUJOS
 62
     7
  0
POLYLINE
  5
602
330
5C2
100
AcDbEntity
  8
DIBUJOS
 62
     7
100
AcDb2dPolyline
 66
     1
 10
0.0
 20
0.0
 30
0.0
  0
VERTEX
  5
603
330
602
100
AcDbEntity
  8
DIBUJOS
 62
     7
100
AcDbVertex
100
AcDb2dVertex
 10
60.92436138344692
 20
30.90273826017599
 30
0.0
  0
VERTEX
  5
604
330
602
100
AcDbEntity
  8
DIBUJOS
 62
     7
100
AcDbVertex
100
AcDb2dVertex
 10
61.10139886429474
 20
31.43866610031451
 30
0.0
  0
VERTEX
  5
605
330
602
100
AcDbEntity
  8
DIBUJOS
 62
     7
100
AcDbVertex
100
AcDb2dVertex
 10
61.16264795571021
 20
31.56847286671076
 30
0.0
  0
VERTEX
  5
606
330
602
100
AcDbEntity
  8
DIBUJOS
 62
     7
100
AcDbVertex
100
AcDb2dVertex
 10
61.18862237902855
 20
31.62606766634264
 30
0.0
  0
VERTEX
  5
607
330
602
100
AcDbEntity
  8
DIBUJOS
 62
     7
100
AcDbVertex
100
AcDb2dVertex
 10
61.36609907398566
 20
31.96907716807883
 30
0.0
  0
VERTEX
  5
608
330
602
100
AcDbEntity
  8
DIBUJOS
 62
     7
100
AcDbVertex
100
AcDb2dVertex
 10
61.40432285965594
 20
32.02641208669758
 30
0.0
  0
SEQEND
  5
609
330
602
100
AcDbEntity
  8
DIBUJOS
 62
     7
  0
POLYLINE
  5
60A
330
5C2
100
AcDbEntity
  8
DIBUJOS
 62
     7
100
AcDb2dPolyline
 66
     1
 10
0.0
 20
0.0
 30
0.0
  0
VERTEX
  5
60B
330
60A
100
AcDbEntity
  8
DIBUJOS
 62
     7
100
AcDbVertex
100
AcDb2dVertex
 10
68.64326667375123
 20
29.00547920686234
 30
0.0
  0
VERTEX
  5
60C
330
60A
100
AcDbEntity
  8
DIBUJOS
 62
     7
100
AcDbVertex
100
AcDb2dVertex
 10
68.6895680476222
 20
29.24771870610701
 30
0.0
  0
VERTEX
  5
60D
330
60A
100
AcDbEntity
  8
DIBUJOS
 62
     7
100
AcDbVertex
100
AcDb2dVertex
 10
68.73361104029517
 20
29.51367424747328
 30
0.0
  0
VERTEX
  5
60E
330
60A
100
AcDbEntity
  8
DIBUJOS
 62
     7
100
AcDbVertex
100
AcDb2dVertex
 10
68.7279650873006
 20
29.5362595792233
 30
0.0
  0
VERTEX
  5
60F
330
60A
100
AcDbEntity
  8
DIBUJOS
 62
     7
100
AcDbVertex
100
AcDb2dVertex
 10
68.75360668055058
 20
29.86960941010249
 30
0.0
  0
VERTEX
  5
610
330
60A
100
AcDbEntity
  8
DIBUJOS
 62
     7
100
AcDbVertex
100
AcDb2dVertex
 10
68.75878910308367
 20
29.93697026463069
 30
0.0
  0
VERTEX
  5
611
330
60A
100
AcDbEntity
  8
DIBUJOS
 62
     7
100
AcDbVertex
100
AcDb2dVertex
 10
68.7279650873006
 20
30.36066446205349
 30
0.0
  0
VERTEX
  5
612
330
60A
100
AcDbEntity
  8
DIBUJOS
 62
     7
100
AcDbVertex
100
AcDb2dVertex
 10
68.71896043817794
 20
30.47962461565859
 30
0.0
  0
VERTEX
  5
613
330
60A
100
AcDbEntity
  8
DIBUJOS
 62
     7
100
AcDbVertex
100
AcDb2dVertex
 10
68.61108094225285
 20
31.01058736066085
 30
0.0
  0
VERTEX
  5
614
330
60A
100
AcDbEntity
  8
DIBUJOS
 62
     7
100
AcDbVertex
100
AcDb2dVertex
 10
68.59443943880993
 20
31.05004824074171
 30
0.0
  0
VERTEX
  5
615
330
60A
100
AcDbEntity
  8
DIBUJOS
 62
     7
100
AcDbVertex
100
AcDb2dVertex
 10
68.43885885899886
 20
31.49506635915083
 30
0.0
  0
VERTEX
  5
616
330
60A
100
AcDbEntity
  8
DIBUJOS
 62
     7
100
AcDbVertex
100
AcDb2dVertex
 10
68.23501639943225
 20
31.90726804068004
 30
0.0
  0
VERTEX
  5
617
330
60A
100
AcDbEntity
  8
DIBUJOS
 62
     7
100
AcDbVertex
100
AcDb2dVertex
 10
68.10548319199604
 20
32.10444781978186
 30
0.0
  0
VERTEX
  5
618
330
60A
100
AcDbEntity
  8
DIBUJOS
 62
     7
100
AcDbVertex
100
AcDb2dVertex
 10
68.01762213290708
 20
32.24154645225329
 30
0.0
  0
VERTEX
  5
619
330
60A
100
AcDbEntity
  8
DIBUJOS
 62
     7
100
AcDbVertex
100
AcDb2dVertex
 10
68.0164929423079
 20
32.24662856983447
 30
0.0
  0
VERTEX
  5
61A
330
60A
100
AcDbEntity
  8
DIBUJOS
 62
     7
100
AcDbVertex
100
AcDb2dVertex
 10
67.82312019207602
 20
32.48827535799828
 30
0.0
  0
VERTEX
  5
61B
330
60A
100
AcDbEntity
  8
DIBUJOS
 62
     7
100
AcDbVertex
100
AcDb2dVertex
 10
67.71722399861652
 20
32.60801211509731
 30
0.0
  0
SEQEND
  5
61C
330
60A
100
AcDbEntity
  8
DIBUJOS
 62
     7
  0
POLYLINE
  5
61D
330
5C2
100
AcDbEntity
  8
DIBUJOS
 62
     7
100
AcDb2dPolyline
 66
     1
 10
0.0
 20
0.0
 30
0.0
  0
VERTEX
  5
61E
330
61D
100
AcDbEntity
  8
DIBUJOS
 62
     7
100
AcDbVertex
100
AcDb2dVertex
 10
68.6489126267458
 20
28.99983325386714
 30
0.0
  0
VERTEX
  5
61F
330
61D
100
AcDbEntity
  8
DIBUJOS
 62
     7
100
AcDbVertex
100
AcDb2dVertex
 10
68.64326667375123
 20
29.00547920686234
 30
0.0
  0
SEQEND
  5
620
330
61D
100
AcDbEntity
  8
DIBUJOS
 62
     7
  0
POLYLINE
  5
621
330
5C2
100
AcDbEntity
  8
DIBUJOS
 62
     7
100
AcDb2dPolyline
 66
     1
 10
0.0
 20
0.0
 30
0.0
  0
VERTEX
  5
622
330
621
100
AcDbEntity
  8
DIBUJOS
 62
     7
100
AcDbVertex
100
AcDb2dVertex
 10
68.38916839355956
 20
28.28271439599432
 30
0.0
  0
VERTEX
  5
623
330
621
100
AcDbEntity
  8
DIBUJOS
 62
     7
100
AcDbVertex
100
AcDb2dVertex
 10
68.4377296684
 20
28.37983618578932
 30
0.0
  0
VERTEX
  5
624
330
621
100
AcDbEntity
  8
DIBUJOS
 62
     7
100
AcDbVertex
100
AcDb2dVertex
 10
68.60739397537138
 20
28.86481366949758
 30
0.0
  0
VERTEX
  5
625
330
621
100
AcDbEntity
  8
DIBUJOS
 62
     7
100
AcDbVertex
100
AcDb2dVertex
 10
68.64326667375123
 20
29.00547920686234
 30
0.0
  0
SEQEND
  5
626
330
621
100
AcDbEntity
  8
DIBUJOS
 62
     7
  0
POLYLINE
  5
627
330
5C2
100
AcDbEntity
  8
DIBUJOS
 62
     7
100
AcDb2dPolyline
 66
     1
 10
0.0
 20
0.0
 30
0.0
  0
VERTEX
  5
628
330
627
100
AcDbEntity
  8
DIBUJOS
 62
     7
100
AcDbVertex
100
AcDb2dVertex
 10
68.38352244056532
 20
28.27706768311387
 30
0.0
  0
VERTEX
  5
629
330
627
100
AcDbEntity
  8
DIBUJOS
 62
     7
100
AcDbVertex
100
AcDb2dVertex
 10
68.37787496779866
 20
28.28271439599432
 30
0.0
  0
SEQEND
  5
62A
330
627
100
AcDbEntity
  8
DIBUJOS
 62
     7
  0
POLYLINE
  5
62B
330
5C2
100
AcDbEntity
  8
DIBUJOS
 62
     7
100
AcDb2dPolyline
 66
     1
 10
0.0
 20
0.0
 30
0.0
  0
VERTEX
  5
62C
330
62B
100
AcDbEntity
  8
DIBUJOS
 62
     7
100
AcDbVertex
100
AcDb2dVertex
 10
68.38352244056532
 20
28.27706768311387
 30
0.0
  0
VERTEX
  5
62D
330
62B
100
AcDbEntity
  8
DIBUJOS
 62
     7
100
AcDbVertex
100
AcDb2dVertex
 10
68.38916839355956
 20
28.28271439599432
 30
0.0
  0
SEQEND
  5
62E
330
62B
100
AcDbEntity
  8
DIBUJOS
 62
     7
  0
POLYLINE
  5
62F
330
5C2
100
AcDbEntity
  8
DIBUJOS
 62
     7
100
AcDb2dPolyline
 66
     1
 10
0.0
 20
0.0
 30
0.0
  0
VERTEX
  5
630
330
62F
100
AcDbEntity
  8
DIBUJOS
 62
     7
100
AcDbVertex
100
AcDb2dVertex
 10
68.39481586632621
 20
28.27706768311387
 30
0.0
  0
VERTEX
  5
631
330
62F
100
AcDbEntity
  8
DIBUJOS
 62
     7
100
AcDbVertex
100
AcDb2dVertex
 10
68.38916839355956
 20
28.28271439599432
 30
0.0
  0
SEQEND
  5
632
330
62F
100
AcDbEntity
  8
DIBUJOS
 62
     7
  0
POLYLINE
  5
633
330
5C2
100
AcDbEntity
  8
DIBUJOS
 62
     7
100
AcDb2dPolyline
 66
     1
 10
0.0
 20
0.0
 30
0.0
  0
VERTEX
  5
634
330
633
100
AcDbEntity
  8
DIBUJOS
 62
     7
100
AcDbVertex
100
AcDb2dVertex
 10
68.36658306180986
 20
28.24318816571707
 30
0.0
  0
VERTEX
  5
635
330
633
100
AcDbEntity
  8
DIBUJOS
 62
     7
100
AcDbVertex
100
AcDb2dVertex
 10
68.36093558904352
 20
28.24883487859752
 30
0.0
  0
SEQEND
  5
636
330
633
100
AcDbEntity
  8
DIBUJOS
 62
     7
  0
POLYLINE
  5
637
330
5C2
100
AcDbEntity
  8
DIBUJOS
 62
     7
100
AcDb2dPolyline
 66
     1
 10
0.0
 20
0.0
 30
0.0
  0
VERTEX
  5
638
330
637
100
AcDbEntity
  8
DIBUJOS
 62
     7
100
AcDbVertex
100
AcDb2dVertex
 10
68.36658306180986
 20
28.24318816571707
 30
0.0
  0
VERTEX
  5
639
330
637
100
AcDbEntity
  8
DIBUJOS
 62
     7
100
AcDbVertex
100
AcDb2dVertex
 10
68.38352244056532
 20
28.27706768311387
 30
0.0
  0
SEQEND
  5
63A
330
637
100
AcDbEntity
  8
DIBUJOS
 62
     7
  0
POLYLINE
  5
63B
330
5C2
100
AcDbEntity
  8
DIBUJOS
 62
     7
100
AcDb2dPolyline
 66
     1
 10
0.0
 20
0.0
 30
0.0
  0
VERTEX
  5
63C
330
63B
100
AcDbEntity
  8
DIBUJOS
 62
     7
100
AcDbVertex
100
AcDb2dVertex
 10
61.19539828250785
 20
28.23754221272251
 30
0.0
  0
VERTEX
  5
63D
330
63B
100
AcDbEntity
  8
DIBUJOS
 62
     7
100
AcDbVertex
100
AcDb2dVertex
 10
61.12368632073223
 20
28.3849183033705
 30
0.0
  0
VERTEX
  5
63E
330
63B
100
AcDbEntity
  8
DIBUJOS
 62
     7
100
AcDbVertex
100
AcDb2dVertex
 10
60.97883457138246
 20
28.80170361726391
 30
0.0
  0
VERTEX
  5
63F
330
63B
100
AcDbEntity
  8
DIBUJOS
 62
     7
100
AcDbVertex
100
AcDb2dVertex
 10
60.93229763285117
 20
28.95504101359692
 30
0.0
  0
VERTEX
  5
640
330
63B
100
AcDbEntity
  8
DIBUJOS
 62
     7
100
AcDbVertex
100
AcDb2dVertex
 10
60.92771931968946
 20
28.98251241233896
 30
0.0
  0
VERTEX
  5
641
330
63B
100
AcDbEntity
  8
DIBUJOS
 62
     7
100
AcDbVertex
100
AcDb2dVertex
 10
60.84223290435627
 20
29.41224922324932
 30
0.0
  0
VERTEX
  5
642
330
63B
100
AcDbEntity
  8
DIBUJOS
 62
     7
100
AcDbVertex
100
AcDb2dVertex
 10
60.82020684870399
 20
29.7110531167078
 30
0.0
  0
VERTEX
  5
643
330
63B
100
AcDbEntity
  8
DIBUJOS
 62
     7
100
AcDbVertex
100
AcDb2dVertex
 10
60.80578269261486
 20
29.98234153803584
 30
0.0
  0
VERTEX
  5
644
330
63B
100
AcDbEntity
  8
DIBUJOS
 62
     7
100
AcDbVertex
100
AcDb2dVertex
 10
60.8090578012834
 20
29.99961982594739
 30
0.0
  0
VERTEX
  5
645
330
63B
100
AcDbEntity
  8
DIBUJOS
 62
     7
100
AcDbVertex
100
AcDb2dVertex
 10
60.81707611837575
 20
30.05010057282944
 30
0.0
  0
VERTEX
  5
646
330
63B
100
AcDbEntity
  8
DIBUJOS
 62
     7
100
AcDbVertex
100
AcDb2dVertex
 10
60.8114294054953
 20
30.06704147135666
 30
0.0
  0
VERTEX
  5
647
330
63B
100
AcDbEntity
  8
DIBUJOS
 62
     7
100
AcDbVertex
100
AcDb2dVertex
 10
60.85264942167099
 20
30.52385150074431
 30
0.0
  0
VERTEX
  5
648
330
63B
100
AcDbEntity
  8
DIBUJOS
 62
     7
100
AcDbVertex
100
AcDb2dVertex
 10
60.85443059445969
 20
30.53049594394527
 30
0.0
  0
VERTEX
  5
649
330
63B
100
AcDbEntity
  8
DIBUJOS
 62
     7
100
AcDbVertex
100
AcDb2dVertex
 10
60.92436138344692
 20
30.90273826017599
 30
0.0
  0
SEQEND
  5
64A
330
63B
100
AcDbEntity
  8
DIBUJOS
 62
     7
  0
POLYLINE
  5
64B
330
5C2
100
AcDbEntity
  8
DIBUJOS
 62
     7
100
AcDb2dPolyline
 66
     1
 10
0.0
 20
0.0
 30
0.0
  0
VERTEX
  5
64C
330
64B
100
AcDbEntity
  8
DIBUJOS
 62
     7
100
AcDbVertex
100
AcDb2dVertex
 10
61.1897515696274
 20
28.23189549984206
 30
0.0
  0
VERTEX
  5
64D
330
64B
100
AcDbEntity
  8
DIBUJOS
 62
     7
100
AcDbVertex
100
AcDb2dVertex
 10
61.19539828250785
 20
28.23754221272251
 30
0.0
  0
SEQEND
  5
64E
330
64B
100
AcDbEntity
  8
DIBUJOS
 62
     7
  0
POLYLINE
  5
64F
330
5C2
100
AcDbEntity
  8
DIBUJOS
 62
     7
100
AcDb2dPolyline
 66
     1
 10
0.0
 20
0.0
 30
0.0
  0
VERTEX
  5
650
330
64F
100
AcDbEntity
  8
DIBUJOS
 62
     7
100
AcDbVertex
100
AcDb2dVertex
 10
62.16096718792045
 20
26.95576346509129
 30
0.0
  0
VERTEX
  5
651
330
64F
100
AcDbEntity
  8
DIBUJOS
 62
     7
100
AcDbVertex
100
AcDb2dVertex
 10
61.96205866816435
 20
27.13504944861901
 30
0.0
  0
VERTEX
  5
652
330
64F
100
AcDbEntity
  8
DIBUJOS
 62
     7
100
AcDbVertex
100
AcDb2dVertex
 10
61.80523111542394
 20
27.31714625046824
 30
0.0
  0
VERTEX
  5
653
330
64F
100
AcDbEntity
  8
DIBUJOS
 62
     7
100
AcDbVertex
100
AcDb2dVertex
 10
61.62592841440418
 20
27.52158066123045
 30
0.0
  0
VERTEX
  5
654
330
64F
100
AcDbEntity
  8
DIBUJOS
 62
     7
100
AcDbVertex
100
AcDb2dVertex
 10
61.37739249974687
 20
27.89396811568768
 30
0.0
  0
VERTEX
  5
655
330
64F
100
AcDbEntity
  8
DIBUJOS
 62
     7
100
AcDbVertex
100
AcDb2dVertex
 10
61.35610961260414
 20
27.92306946990419
 30
0.0
  0
VERTEX
  5
656
330
64F
100
AcDbEntity
  8
DIBUJOS
 62
     7
100
AcDbVertex
100
AcDb2dVertex
 10
61.20838549416717
 20
28.21551995649998
 30
0.0
  0
VERTEX
  5
657
330
64F
100
AcDbEntity
  8
DIBUJOS
 62
     7
100
AcDbVertex
100
AcDb2dVertex
 10
61.19539828250785
 20
28.23754221272251
 30
0.0
  0
SEQEND
  5
658
330
64F
100
AcDbEntity
  8
DIBUJOS
 62
     7
  0
POLYLINE
  5
659
330
5C2
100
AcDbEntity
  8
DIBUJOS
 62
     7
100
AcDb2dPolyline
 66
     1
 10
0.0
 20
0.0
 30
0.0
  0
VERTEX
  5
65A
330
659
100
AcDbEntity
  8
DIBUJOS
 62
     7
100
AcDbVertex
100
AcDb2dVertex
 10
62.1666139008009
 20
26.95011675221084
 30
0.0
  0
VERTEX
  5
65B
330
659
100
AcDbEntity
  8
DIBUJOS
 62
     7
100
AcDbVertex
100
AcDb2dVertex
 10
62.16096718792045
 20
26.95576346509129
 30
0.0
  0
SEQEND
  5
65C
330
659
100
AcDbEntity
  8
DIBUJOS
 62
     7
  0
POLYLINE
  5
65D
330
5C2
100
AcDbEntity
  8
DIBUJOS
 62
     7
100
AcDb2dPolyline
 66
     1
 10
0.0
 20
0.0
 30
0.0
  0
VERTEX
  5
65E
330
65D
100
AcDbEntity
  8
DIBUJOS
 62
     7
100
AcDbVertex
100
AcDb2dVertex
 10
62.1666139008009
 20
26.95011675221084
 30
0.0
  0
VERTEX
  5
65F
330
65D
100
AcDbEntity
  8
DIBUJOS
 62
     7
100
AcDbVertex
100
AcDb2dVertex
 10
62.33152208128585
 20
26.81034028146833
 30
0.0
  0
VERTEX
  5
660
330
65D
100
AcDbEntity
  8
DIBUJOS
 62
     7
100
AcDbVertex
100
AcDb2dVertex
 10
62.67567673122642
 20
26.57309779257159
 30
0.0
  0
VERTEX
  5
661
330
65D
100
AcDbEntity
  8
DIBUJOS
 62
     7
100
AcDbVertex
100
AcDb2dVertex
 10
62.67989029910713
 20
26.57066539747926
 30
0.0
  0
VERTEX
  5
662
330
65D
100
AcDbEntity
  8
DIBUJOS
 62
     7
100
AcDbVertex
100
AcDb2dVertex
 10
62.70868769892338
 20
26.55485444943708
 30
0.0
  0
VERTEX
  5
663
330
65D
100
AcDbEntity
  8
DIBUJOS
 62
     7
100
AcDbVertex
100
AcDb2dVertex
 10
62.70868769892338
 20
26.54920773655664
 30
0.0
  0
VERTEX
  5
664
330
65D
100
AcDbEntity
  8
DIBUJOS
 62
     7
100
AcDbVertex
100
AcDb2dVertex
 10
62.83739111084537
 20
26.47288174697693
 30
0.0
  0
VERTEX
  5
665
330
65D
100
AcDbEntity
  8
DIBUJOS
 62
     7
100
AcDbVertex
100
AcDb2dVertex
 10
63.2403373808707
 20
26.27382732910843
 30
0.0
  0
VERTEX
  5
666
330
65D
100
AcDbEntity
  8
DIBUJOS
 62
     7
100
AcDbVertex
100
AcDb2dVertex
 10
63.5448829729597
 20
26.16723204052714
 30
0.0
  0
VERTEX
  5
667
330
65D
100
AcDbEntity
  8
DIBUJOS
 62
     7
100
AcDbVertex
100
AcDb2dVertex
 10
63.71999414279262
 20
26.1099024411096
 30
0.0
  0
VERTEX
  5
668
330
65D
100
AcDbEntity
  8
DIBUJOS
 62
     7
100
AcDbVertex
100
AcDb2dVertex
 10
63.94008144530916
 20
26.06012534866625
 30
0.0
  0
VERTEX
  5
669
330
65D
100
AcDbEntity
  8
DIBUJOS
 62
     7
100
AcDbVertex
100
AcDb2dVertex
 10
64.1491352030773
 20
26.02012115009347
 30
0.0
  0
VERTEX
  5
66A
330
65D
100
AcDbEntity
  8
DIBUJOS
 62
     7
100
AcDbVertex
100
AcDb2dVertex
 10
64.36314189780624
 20
25.9873708232952
 30
0.0
  0
VERTEX
  5
66B
330
65D
100
AcDbEntity
  8
DIBUJOS
 62
     7
100
AcDbVertex
100
AcDb2dVertex
 10
64.36878785080081
 20
25.99019455967869
 30
0.0
  0
VERTEX
  5
66C
330
65D
100
AcDbEntity
  8
DIBUJOS
 62
     7
100
AcDbVertex
100
AcDb2dVertex
 10
64.74130828530815
 20
25.96496026532635
 30
0.0
  0
VERTEX
  5
66D
330
65D
100
AcDbEntity
  8
DIBUJOS
 62
     7
100
AcDbVertex
100
AcDb2dVertex
 10
65.09743189966542
 20
25.98200222869234
 30
0.0
  0
VERTEX
  5
66E
330
65D
100
AcDbEntity
  8
DIBUJOS
 62
     7
100
AcDbVertex
100
AcDb2dVertex
 10
65.17060588210921
 20
25.99019455967869
 30
0.0
  0
VERTEX
  5
66F
330
65D
100
AcDbEntity
  8
DIBUJOS
 62
     7
100
AcDbVertex
100
AcDb2dVertex
 10
65.17625183510346
 20
25.9873708232952
 30
0.0
  0
VERTEX
  5
670
330
65D
100
AcDbEntity
  8
DIBUJOS
 62
     7
100
AcDbVertex
100
AcDb2dVertex
 10
65.34608483676732
 20
26.00496218424083
 30
0.0
  0
VERTEX
  5
671
330
65D
100
AcDbEntity
  8
DIBUJOS
 62
     7
100
AcDbVertex
100
AcDb2dVertex
 10
65.41302775399487
 20
26.02071690071916
 30
0.0
  0
VERTEX
  5
672
330
65D
100
AcDbEntity
  8
DIBUJOS
 62
     7
100
AcDbVertex
100
AcDb2dVertex
 10
65.83069301587798
 20
26.10425572822915
 30
0.0
  0
VERTEX
  5
673
330
65D
100
AcDbEntity
  8
DIBUJOS
 62
     7
100
AcDbVertex
100
AcDb2dVertex
 10
66.25368811817869
 20
26.24802008071017
 30
0.0
  0
VERTEX
  5
674
330
65D
100
AcDbEntity
  8
DIBUJOS
 62
     7
100
AcDbVertex
100
AcDb2dVertex
 10
66.49134550483221
 20
26.35835248864938
 30
0.0
  0
VERTEX
  5
675
330
65D
100
AcDbEntity
  8
DIBUJOS
 62
     7
100
AcDbVertex
100
AcDb2dVertex
 10
66.79769506628999
 20
26.51402501466667
 30
0.0
  0
VERTEX
  5
676
330
65D
100
AcDbEntity
  8
DIBUJOS
 62
     7
100
AcDbVertex
100
AcDb2dVertex
 10
67.21343021772815
 20
26.79341382077484
 30
0.0
  0
VERTEX
  5
677
330
65D
100
AcDbEntity
  8
DIBUJOS
 62
     7
100
AcDbVertex
100
AcDb2dVertex
 10
67.54904906820903
 20
27.08988258454968
 30
0.0
  0
VERTEX
  5
678
330
65D
100
AcDbEntity
  8
DIBUJOS
 62
     7
100
AcDbVertex
100
AcDb2dVertex
 10
67.63956972830495
 20
27.18040324464559
 30
0.0
  0
VERTEX
  5
679
330
65D
100
AcDbEntity
  8
DIBUJOS
 62
     7
100
AcDbVertex
100
AcDb2dVertex
 10
67.67629805832361
 20
27.22237782762069
 30
0.0
  0
VERTEX
  5
67A
330
65D
100
AcDbEntity
  8
DIBUJOS
 62
     7
100
AcDbVertex
100
AcDb2dVertex
 10
67.93874444613215
 20
27.52520151802998
 30
0.0
  0
VERTEX
  5
67B
330
65D
100
AcDbEntity
  8
DIBUJOS
 62
     7
100
AcDbVertex
100
AcDb2dVertex
 10
67.9474314629067
 20
27.53823204319118
 30
0.0
  0
VERTEX
  5
67C
330
65D
100
AcDbEntity
  8
DIBUJOS
 62
     7
100
AcDbVertex
100
AcDb2dVertex
 10
68.23219266304909
 20
27.96593995847579
 30
0.0
  0
VERTEX
  5
67D
330
65D
100
AcDbEntity
  8
DIBUJOS
 62
     7
100
AcDbVertex
100
AcDb2dVertex
 10
68.36658306180986
 20
28.24318816571707
 30
0.0
  0
SEQEND
  5
67E
330
65D
100
AcDbEntity
  8
DIBUJOS
 62
     7
  0
ENDBLK
  5
5C5
330
5C2
100
AcDbEntity
  8
0
100
AcDbBlockEnd
  0
ENDSEC
  0
SECTION
  2
ENTITIES
  0
MTEXT
  5
41
330
1F
100
AcDbEntity
  8
REFERENCIAS
 62
   255
100
AcDbMText
 10
58.66890490442729
 20
54.85563098807646
 30
0.0
 40
1.49859999962535
 41
0.0
 71
     7
 72
     1
  1
\fMyriad Pro|b0|i0|c0|p34;\W1;DIEL_1107_80x80_70x70__TABLE
  0
MTEXT
  5
43
330
1F
100
AcDbEntity
  8
M_U_00C1RGENES
 62
   255
100
AcDbMText
 10
90.14127864703391
 20
23.7555119243149
 30
0.0
 40
1.748366666229575
 41
0.0
 71
     7
 72
     1
  1
\fMyriad Pro|b0|i0|c0|p34;\W1;400
  0
MTEXT
  5
44
330
1F
100
AcDbEntity
  8
M_U_00C1RGENES
 62
   255
100
AcDbMText
 10
84.21176331851954
 20
20.50332059082737
 30
0.0
 40
1.748366666229575
 41
0.0
 71
     7
 72
     1
  1
\fMyriad Pro|b0|i0|c0|p34;\W1;400
  0
POLYLINE
  5
45
330
1F
100
AcDbEntity
  8
M_U_00C1RGENES
 62
   255
100
AcDb2dPolyline
 66
     1
 10
0.0
 20
0.0
 30
0.0
  0
VERTEX
  5
46
330
45
100
AcDbEntity
  8
M_U_00C1RGENES
 62
   255
100
AcDbVertex
100
AcDb2dVertex
 10
84.41666477502157
 20
24.76314475783758
 30
0.0
  0
VERTEX
  5
47
330
45
100
AcDbEntity
  8
M_U_00C1RGENES
 62
   255
100
AcDbVertex
100
AcDb2dVertex
 10
94.99999810570907
 20
19.74726776251925
 30
0.0
  0
SEQEND
  5
48
330
45
100
AcDbEntity
  8
M_U_00C1RGENES
 62
   255
  0
POLYLINE
  5
49
330
1F
100
AcDbEntity
  8
M_U_00C1RGENES
 62
   254
100
AcDb2dPolyline
 66
     1
 10
0.0
 20
0.0
 30
0.0
  0
VERTEX
  5
4A
330
49
100
AcDbEntity
  8
M_U_00C1RGENES
 62
   254
100
AcDbVertex
100
AcDb2dVertex
 10
54.99999767595828
 20
20.88258920325216
 30
0.0
  0
VERTEX
  5
4B
330
49
100
AcDbEntity
  8
M_U_00C1RGENES
 62
   254
100
AcDbVertex
100
AcDb2dVertex
 10
54.99999767595828
 20
19.74726776251925
 30
0.0
  0
SEQEND
  5
4C
330
49
100
AcDbEntity
  8
M_U_00C1RGENES
 62
   254
  0
POLYLINE
  5
4D
330
1F
100
AcDbEntity
  8
M_U_00C1RGENES
 62
   255
100
AcDb2dPolyline
 66
     1
 10
0.0
 20
0.0
 30
0.0
  0
VERTEX
  5
4E
330
4D
100
AcDbEntity
  8
M_U_00C1RGENES
 62
   255
100
AcDbVertex
100
AcDb2dVertex
 10
94.99999797321169
 20
59.74726768656564
 30
0.0
  0
VERTEX
  5
4F
330
4D
100
AcDbEntity
  8
M_U_00C1RGENES
 62
   255
100
AcDbVertex
100
AcDb2dVertex
 10
93.86467653247878
 20
59.74726768651462
 30
0.0
  0
SEQEND
  5
50
330
4D
100
AcDbEntity
  8
M_U_00C1RGENES
 62
   255
  0
INSERT
  5
53
330
1F
100
AcDbEntity
  8
DIBUJOS
100
AcDbBlockReference
  2
BLOCK_2
 10
0.0
 20
0.0
 30
0.0
  0
INSERT
  5
24C
330
1F
100
AcDbEntity
  8
DIBUJOS
100
AcDbBlockReference
  2
BLOCK_3
 10
0.0
 20
0.0
 30
0.0
  0
INSERT
  5
4DA
330
1F
100
AcDbEntity
  8
DIBUJOS
100
AcDbBlockReference
  2
BLOCK_4
 10
0.0
 20
0.0
 30
0.0
  0
INSERT
  5
5C3
330
1F
100
AcDbEntity
  8
DIBUJOS
100
AcDbBlockReference
  2
BLOCK_5
 10
0.0
 20
0.0
 30
0.0
  0
POLYLINE
  5
680
330
1F
100
AcDbEntity
  8
COTAS_LINEA
 62
     7
100
AcDb2dPolyline
 66
     1
 10
0.0
 20
0.0
 30
0.0
  0
VERTEX
  5
681
330
680
100
AcDbEntity
  8
COTAS_LINEA
 62
     7
100
AcDbVertex
100
AcDb2dVertex
 10
70.80484641930238
 20
50.30444322189562
 30
0.0
  0
VERTEX
  5
682
330
680
100
AcDbEntity
  8
COTAS_LINEA
 62
     7
100
AcDbVertex
100
AcDb2dVertex
 10
70.80484642016577
 20
42.68421520733689
 30
0.0
  0
SEQEND
  5
683
330
680
100
AcDbEntity
  8
COTAS_LINEA
 62
     7
  0
POLYLINE
  5
684
330
1F
100
AcDbEntity
  8
COTAS_LINEA
 62
     7
100
AcDb2dPolyline
 66
     1
 10
0.0
 20
0.0
 30
0.0
  0
VERTEX
  5
685
330
684
100
AcDbEntity
  8
COTAS_LINEA
 62
     7
100
AcDbVertex
100
AcDb2dVertex
 10
86.67984641533363
 20
50.30444322189562
 30
0.0
  0
VERTEX
  5
686
330
684
100
AcDbEntity
  8
COTAS_LINEA
 62
     7
100
AcDbVertex
100
AcDb2dVertex
 10
86.67984641619735
 20
42.68421520733689
 30
0.0
  0
SEQEND
  5
687
330
684
100
AcDbEntity
  8
COTAS_LINEA
 62
     7
  0
POLYLINE
  5
688
330
1F
100
AcDbEntity
  8
COTAS_LINEA
 62
     7
100
AcDb2dPolyline
 66
     1
 10
0.0
 20
0.0
 30
0.0
  0
VERTEX
  5
689
330
688
100
AcDbEntity
  8
COTAS_LINEA
 62
     7
100
AcDbVertex
100
AcDb2dVertex
 10
77.50404839861201
 20
38.66119575631178
 30
0.0
  0
VERTEX
  5
68A
330
688
100
AcDbEntity
  8
COTAS_LINEA
 62
     7
100
AcDbVertex
100
AcDb2dVertex
 10
85.49503440108263
 20
38.66119575631178
 30
0.0
  0
SEQEND
  5
68B
330
688
100
AcDbEntity
  8
COTAS_LINEA
 62
     7
  0
POLYLINE
  5
68C
330
1F
100
AcDbEntity
  8
COTAS_LINEA
 62
     7
100
AcDb2dPolyline
 66
     1
 10
0.0
 20
0.0
 30
0.0
  0
VERTEX
  5
68D
330
68C
100
AcDbEntity
  8
COTAS_LINEA
 62
     7
100
AcDbVertex
100
AcDb2dVertex
 10
61.60456795805398
 20
38.66119575631178
 30
0.0
  0
VERTEX
  5
68E
330
68C
100
AcDbEntity
  8
COTAS_LINEA
 62
     7
100
AcDbVertex
100
AcDb2dVertex
 10
67.80351820943932
 20
38.66119575631178
 30
0.0
  0
SEQEND
  5
68F
330
68C
100
AcDbEntity
  8
COTAS_LINEA
 62
     7
  0
MTEXT
  5
691
330
1F
100
AcDbEntity
  8
COTAS_N_U_00DAMERO
 62
     7
100
AcDbMText
 10
71.58015385003846
 20
45.13618226512384
 30
0.0
 40
1.998533025814148
 41
0.0
 71
     7
 72
     1
  1
\fMyriad Pro|b0|i0|c0|p34;\W1;75
  0
MTEXT
  5
692
330
1F
100
AcDbEntity
  8
COTAS_N_U_00DAMERO
 62
     7
100
AcDbMText
 10
87.4551538460697
 20
45.13618226512384
 30
0.0
 40
1.998533025814148
 41
0.0
 71
     7
 72
     1
  1
\fMyriad Pro|b0|i0|c0|p34;\W1;75
  0
MTEXT
  5
693
330
1F
100
AcDbEntity
  8
COTAS_N_U_00DAMERO
 62
     7
100
AcDbMText
 10
79.92279707711945
 20
39.21634011877664
 30
0.0
 40
1.998533025814148
 41
0.0
 71
     7
 72
     1
  1
\fMyriad Pro|b0|i0|c0|p34;\W1;70
  0
MTEXT
  5
694
330
1F
100
AcDbEntity
  8
COTAS_N_U_00DAMERO
 62
     7
100
AcDbMText
 10
63.19841417216156
 20
39.21616786400239
 30
0.0
 40
1.998533025814148
 41
0.0
 71
     7
 72
     1
  1
\fMyriad Pro|b0|i0|c0|p34;\W1;80
  0
ENDSEC
  0
SECTION
  2
OBJECTS
  0
DICTIONARY
  5
C
330
0
100
AcDbDictionary
  3
ACAD_GROUP
350
D
  3
ACAD_LAYOUT
350
1A
  3
ACAD_MATERIAL
350
3B
  3
ACAD_MLEADERSTYLE
350
6B7
  3
ACAD_MLINESTYLE
350
17
  3
ACAD_PLOTSETTINGS
350
19
  3
ACAD_VISUALSTYLE
350
2A
  3
ACDBHEADERROUNDTRIPXREC
350
695
  3
ACDBVARIABLEDICTIONARY
350
6B5
  0
DICTIONARY
  5
D
102
{ACAD_REACTORS
330
C
102
}
330
C
100
AcDbDictionary
  0
DICTIONARY
  5
1A
102
{ACAD_REACTORS
330
C
102
}
330
C
100
AcDbDictionary
  0
DICTIONARY
  5
3B
102
{ACAD_REACTORS
330
C
102
}
330
C
100
AcDbDictionary
  3
BYBLOCK
350
3D
  3
BYLAYER
350
3C
  3
GLOBAL
350
3E
  0
DICTIONARY
  5
6B7
102
{ACAD_REACTORS
330
C
102
}
330
C
100
AcDbDictionary
  0
DICTIONARY
  5
17
102
{ACAD_REACTORS
330
C
102
}
330
C
100
AcDbDictionary
  3
STANDARD
350
18
  0
DICTIONARY
  5
19
102
{ACAD_REACTORS
330
C
102
}
330
C
100
AcDbDictionary
  0
DICTIONARY
  5
2A
102
{ACAD_REACTORS
330
C
102
}
330
C
100
AcDbDictionary
  3
2DWIREFRAME
350
2F
  3
3D_HIDDEN
350
31
  3
3DWIREFRAME
350
30
  3
BASIC
350
32
  3
BRIGHTEN
350
36
  3
COLORCHANGE
350
3A
  3
CONCEPTUAL
350
34
  3
DIM
350
35
  3
FACEPATTERN
350
39
  3
FLAT
350
2B
  3
FLATWITHEDGES
350
2C
  3
GOURAUD
350
2D
  3
GOURAUDWITHEDGES
350
2E
  3
LINEPATTERN
350
38
  3
REALISTIC
350
33
  3
THICKEN
350
37
  0
DICTIONARY
  5
695
102
{ACAD_REACTORS
330
C
102
}
330
C
100
AcDbDictionary
  3
CEPSNTYPE
350
69E
  3
DIMSTYLEDATA
350
6B4
  3
FINGERPRINTGUID
350
69F
  3
HYPERLINKBASE
350
698
  3
INSUNITS
350
69D
  3
LAYOUTDICT
350
69A
  3
LWETCUNION
350
69C
  3
PLOTSETDICT
350
69B
  3
PSVPSCALE
350
6A1
  3
PUCSBASE
350
6A4
  3
PUCSORGBACK
350
6AA
  3
PUCSORGBOTTOM
350
6A6
  3
PUCSORGFRONT
350
6A9
  3
PUCSORGLEFT
350
6A7
  3
PUCSORGRIGHT
350
6A8
  3
PUCSORGTOP
350
6A5
  3
PUCSORTHOREF
350
6A2
  3
PUCSORTHOVIEW
350
6A3
  3
STYLESHEET
350
699
  3
TSTACKALIGN
350
696
  3
TSTACKSIZE
350
697
  3
UCSBASE
350
6AD
  3
UCSORGBACK
350
6B3
  3
UCSORGBOTTOM
350
6AF
  3
UCSORGFRONT
350
6B2
  3
UCSORGLEFT
350
6B0
  3
UCSORGRIGHT
350
6B1
  3
UCSORGTOP
350
6AE
  3
UCSORTHOREF
350
6AB
  3
UCSORTHOVIEW
350
6AC
  3
VERSIONGUID
350
6A0
  0
DICTIONARY
  5
6B5
102
{ACAD_REACTORS
330
C
102
}
330
C
100
AcDbDictionary
  3
DIMASSOC
350
6B8
  3
HIDETEXT
350
6B9
  0
MATERIAL
  5
3D
102
{ACAD_REACTORS
330
3B
102
}
102
{ACAD_XDICTIONARY
360
6BC
102
}
330
3B
100
AcDbMaterial
  1
ByBlock
  0
MATERIAL
  5
3C
102
{ACAD_REACTORS
330
3B
102
}
102
{ACAD_XDICTIONARY
360
6BA
102
}
330
3B
100
AcDbMaterial
  1
ByLayer
  0
MATERIAL
  5
3E
102
{ACAD_REACTORS
330
3B
102
}
102
{ACAD_XDICTIONARY
360
6BE
102
}
330
3B
100
AcDbMaterial
  1
Global
  0
MLINESTYLE
  5
18
102
{ACAD_REACTORS
330
17
102
}
330
17
100
AcDbMlineStyle
  2
Standard
 70
     0
  3

 62
   256
 51
90.0
 52
90.0
 71
     2
 49
0.5
 62
   256
  6
BYLAYER
 49
-0.5
 62
   256
  6
BYLAYER
  0
ACAD_PROXY_OBJECT
  5
2F
102
{ACAD_REACTORS
330
2A
102
}
330
2A
100
AcDbProxyObject
 90
      499
 91
      501
 93
      436
310
42CC9915DA5C99599C985B595049028333333333333E3BF0000000000000FB0107901411070040501600405405064090741402480A0340
1001
ACAD
1000
AcDbSavedByObjectVersion
1070
     0
  0
ACAD_PROXY_OBJECT
  5
31
102
{ACAD_REACTORS
330
2A
102
}
330
2A
100
AcDbProxyObject
 90
      499
 91
      501
 93
      500
310
424CD108121A5919195B90640502408333333333333E3BF0000000000000FB01079024090700405020000000000001110200405405064090740C02480A0340
1001
ACAD
1000
AcDbSavedByObjectVersion
1070
     0
  0
ACAD_PROXY_OBJECT
  5
30
102
{ACAD_REACTORS
330
2A
102
}
330
2A
100
AcDbProxyObject
 90
      499
 91
      501
 93
      436
310
42CCD915DA5C99599C985B595059028333333333333E3BF0000000000000FB0107901411070040501600405405064090741402480A0340
1001
ACAD
1000
AcDbSavedByObjectVersion
1070
     0
  0
ACAD_PROXY_OBJECT
  5
32
102
{ACAD_REACTORS
330
2A
102
}
330
2A
100
AcDbProxyObject
 90
      499
 91
      501
 93
      388
310
4150985CDA58D07406404333333333333E3BF0000000000000FB0107A41107004050150841D405064090741402480A0350
1001
ACAD
1000
AcDbSavedByObjectVersion
1070
     0
  0
ACAD_PROXY_OBJECT
  5
36
102
{ACAD_REACTORS
330
2A
102
}
330
2A
100
AcDbProxyObject
 90
      499
 91
      501
 93
      428
310
42109C9A59DA1D195B90C409028333333333333E3BF0000000000000FB010790141107004050150841D405064090741402480A029950
1001
ACAD
1000
AcDbSavedByObjectVersion
1070
     0
  0
ACAD_PROXY_OBJECT
  5
3A
102
{ACAD_REACTORS
330
2A
102
}
330
2A
100
AcDbProxyObject
 90
      499
 91
      501
 93
      452
310
42D0DBDB1BDC90DA185B99D95104090240C333333333333E3BF0000000000000FB0108901411070040501508421405064090741402480A0350
1001
ACAD
1000
AcDbSavedByObjectVersion
1070
     0
  0
ACAD_PROXY_OBJECT
  5
34
102
{ACAD_REACTORS
330
2A
102
}
330
2A
100
AcDbProxyObject
 90
      499
 91
      501
 93
      500
310
4290DBDB98D95C1D1D585B10940D028333333333333E3BF0000000000000FB0107902409070040501000000000000111010841D405064090740C02480A0340
1001
ACAD
1000
AcDbSavedByObjectVersion
1070
     0
  0
ACAD_PROXY_OBJECT
  5
35
102
{ACAD_REACTORS
330
2A
102
}
330
2A
100
AcDbProxyObject
 90
      499
 91
      501
 93
      412
310
40D11A5B50B409028333333333333E3BF0000000000000FB010790141107004050150841D405064090741402480A02677FFFFFD0
1001
ACAD
1000
AcDbSavedByObjectVersion
1070
     0
  0
ACAD_PROXY_OBJECT
  5
39
102
{ACAD_REACTORS
330
2A
102
}
330
2A
100
AcDbProxyObject
 90
      499
 91
      501
 93
      444
310
42D19858D95C185D1D195C9B90F409028333333333333E3BF0000000000000FB010790141107004050150841D405064090741402480A0350
1001
ACAD
1000
AcDbSavedByObjectVersion
1070
     0
  0
ACAD_PROXY_OBJECT
  5
2B
102
{ACAD_REACTORS
330
2A
102
}
330
2A
100
AcDbProxyObject
 90
      499
 91
      501
 93
      388
310
41119B185D240901404333333333333E3BF0000000000000F9010740A41107004050150841D405064090741402480A1B50
1001
ACAD
1000
AcDbSavedByObjectVersion
1070
     0
  0
ACAD_PROXY_OBJECT
  5
2C
102
{ACAD_REACTORS
330
2A
102
}
330
2A
100
AcDbProxyObject
 90
      499
 91
      501
 93
      476
310
43519B185D15DA5D1A115919D95CD0140901404333333333333E3BF0000000000000F9010740901411070040501600405405064090741402480A1B50
1001
ACAD
1000
AcDbSavedByObjectVersion
1070
     0
  0
ACAD_PROXY_OBJECT
  5
2D
102
{ACAD_REACTORS
330
2A
102
}
330
2A
100
AcDbProxyObject
 90
      499
 91
      501
 93
      412
310
41D1DBDD5C985D5910240902404333333333333E3BF0000000000000F9010740A411070040501641D405064090741402480A1B50
1001
ACAD
1000
AcDbSavedByObjectVersion
1070
     0
  0
ACAD_PROXY_OBJECT
  5
2E
102
{ACAD_REACTORS
330
2A
102
}
330
2A
100
AcDbProxyObject
 90
      499
 91
      501
 93
      500
310
4411DBDD5C985D5915DA5D1A115919D95CD0340902404333333333333E3BF0000000000000F9010740901411070040501600405405064090741402480A1B50
1001
ACAD
1000
AcDbSavedByObjectVersion
1070
     0
  0
ACAD_PROXY_OBJECT
  5
38
102
{ACAD_REACTORS
330
2A
102
}
330
2A
100
AcDbProxyObject
 90
      499
 91
      501
 93
      444
310
42D31A5B995C185D1D195C9B90E409028333333333333E3BF0000000000000FB010790141107004050750841D405064090741402483A0350
1001
ACAD
1000
AcDbSavedByObjectVersion
1070
     0
  0
ACAD_PROXY_OBJECT
  5
33
102
{ACAD_REACTORS
330
2A
102
}
330
2A
100
AcDbProxyObject
 90
      499
 91
      501
 93
      420
310
425499585B1A5CDD1A58D08409028333333333333E3BF0000000000000FB01079019070040501508421405064090741402480A1B40
1001
ACAD
1000
AcDbSavedByObjectVersion
1070
     0
  0
ACAD_PROXY_OBJECT
  5
37
102
{ACAD_REACTORS
330
2A
102
}
330
2A
100
AcDbProxyObject
 90
      499
 91
      501
 93
      412
310
41D51A1A58DAD95B90D409028333333333333E3BF0000000000000FB010790141107004050150C41D405064090741402480A0350
1001
ACAD
1000
AcDbSavedByObjectVersion
1070
     0
  0
XRECORD
  5
69E
102
{ACAD_REACTORS
330
695
102
}
330
695
100
AcDbXrecord
 90
        0
  0
XRECORD
  5
6B4
102
{ACAD_REACTORS
330
695
102
}
330
695
100
AcDbXrecord
1000
DSTYLE
1002
{
1070
   340
340
11
1002
}
  0
XRECORD
  5
69F
102
{ACAD_REACTORS
330
695
102
}
330
695
100
AcDbXrecord
  1
{62F75040-FC14-47D4-916C-2E976FDBE831}
  0
XRECORD
  5
698
102
{ACAD_REACTORS
330
695
102
}
330
695
100
AcDbXrecord
  1

  0
XRECORD
  5
69D
102
{ACAD_REACTORS
330
695
102
}
330
695
100
AcDbXrecord
 90
        1
  0
XRECORD
  5
69A
102
{ACAD_REACTORS
330
695
102
}
330
695
100
AcDbXrecord
340
1A
  0
XRECORD
  5
69C
102
{ACAD_REACTORS
330
695
102
}
330
695
100
AcDbXrecord
 90
    10269
  0
XRECORD
  5
69B
102
{ACAD_REACTORS
330
695
102
}
330
695
100
AcDbXrecord
340
19
  0
XRECORD
  5
6A1
102
{ACAD_REACTORS
330
695
102
}
330
695
100
AcDbXrecord
 40
0.0
  0
XRECORD
  5
6A4
102
{ACAD_REACTORS
330
695
102
}
330
695
100
AcDbXrecord
340
0
  0
XRECORD
  5
6AA
102
{ACAD_REACTORS
330
695
102
}
330
695
100
AcDbXrecord
 10
0.0
 20
0.0
 30
0.0
  0
XRECORD
  5
6A6
102
{ACAD_REACTORS
330
695
102
}
330
695
100
AcDbXrecord
 10
0.0
 20
0.0
 30
0.0
  0
XRECORD
  5
6A9
102
{ACAD_REACTORS
330
695
102
}
330
695
100
AcDbXrecord
 10
0.0
 20
0.0
 30
0.0
  0
XRECORD
  5
6A7
102
{ACAD_REACTORS
330
695
102
}
330
695
100
AcDbXrecord
 10
0.0
 20
0.0
 30
0.0
  0
XRECORD
  5
6A8
102
{ACAD_REACTORS
330
695
102
}
330
695
100
AcDbXrecord
 10
0.0
 20
0.0
 30
0.0
  0
XRECORD
  5
6A5
102
{ACAD_REACTORS
330
695
102
}
330
695
100
AcDbXrecord
 10
0.0
 20
0.0
 30
0.0
  0
XRECORD
  5
6A2
102
{ACAD_REACTORS
330
695
102
}
330
695
100
AcDbXrecord
340
0
  0
XRECORD
  5
6A3
102
{ACAD_REACTORS
330
695
102
}
330
695
100
AcDbXrecord
 70
     0
  0
XRECORD
  5
699
102
{ACAD_REACTORS
330
695
102
}
330
695
100
AcDbXrecord
  1

  0
XRECORD
  5
696
102
{ACAD_REACTORS
330
695
102
}
330
695
100
AcDbXrecord
 90
        1
  0
XRECORD
  5
697
102
{ACAD_REACTORS
330
695
102
}
330
695
100
AcDbXrecord
 90
       70
  0
XRECORD
  5
6AD
102
{ACAD_REACTORS
330
695
102
}
330
695
100
AcDbXrecord
340
0
  0
XRECORD
  5
6B3
102
{ACAD_REACTORS
330
695
102
}
330
695
100
AcDbXrecord
 10
0.0
 20
0.0
 30
0.0
  0
XRECORD
  5
6AF
102
{ACAD_REACTORS
330
695
102
}
330
695
100
AcDbXrecord
 10
0.0
 20
0.0
 30
0.0
  0
XRECORD
  5
6B2
102
{ACAD_REACTORS
330
695
102
}
330
695
100
AcDbXrecord
 10
0.0
 20
0.0
 30
0.0
  0
XRECORD
  5
6B0
102
{ACAD_REACTORS
330
695
102
}
330
695
100
AcDbXrecord
 10
0.0
 20
0.0
 30
0.0
  0
XRECORD
  5
6B1
102
{ACAD_REACTORS
330
695
102
}
330
695
100
AcDbXrecord
 10
0.0
 20
0.0
 30
0.0
  0
XRECORD
  5
6AE
102
{ACAD_REACTORS
330
695
102
}
330
695
100
AcDbXrecord
 10
0.0
 20
0.0
 30
0.0
  0
XRECORD
  5
6AB
102
{ACAD_REACTORS
330
695
102
}
330
695
100
AcDbXrecord
340
0
  0
XRECORD
  5
6AC
102
{ACAD_REACTORS
330
695
102
}
330
695
100
AcDbXrecord
 70
     0
  0
XRECORD
  5
6A0
102
{ACAD_REACTORS
330
695
102
}
330
695
100
AcDbXrecord
  1
{FAEB1C32-E019-11D5-929B-00C0DF256EC4}
  0
DICTIONARYVAR
  5
6B8
102
{ACAD_REACTORS
330
6B5
102
}
330
6B5
100
DictionaryVariables
280
     0
  1
2
  0
DICTIONARYVAR
  5
6B9
102
{ACAD_REACTORS
330
6B5
102
}
330
6B5
100
DictionaryVariables
280
     0
  1
1
  0
DICTIONARY
  5
6BC
330
3D
100
AcDbDictionary
280
     1
  3
ACAD_XREC_ROUNDTRIP
360
6BD
  0
DICTIONARY
  5
6BA
330
3C
100
AcDbDictionary
280
     1
  3
ACAD_XREC_ROUNDTRIP
360
6BB
  0
DICTIONARY
  5
6BE
330
3E
100
AcDbDictionary
280
     1
  3
ACAD_XREC_ROUNDTRIP
360
6BF
  0
XRECORD
  5
6BD
102
{ACAD_REACTORS
330
6BC
102
}
330
6BC
100
AcDbXrecord
102
MATERIAL
148
0.0
149
0.0
149
0.0
 93
        0
 94
      127
282
     0
 72
     1
 77
     1
171
     1
175
     1
179
     1
273
     0
  0
XRECORD
  5
6BB
102
{ACAD_REACTORS
330
6BA
102
}
330
6BA
100
AcDbXrecord
102
MATERIAL
148
0.0
149
0.0
149
0.0
 93
        0
 94
      127
282
     0
 72
     1
 77
     1
171
     1
175
     1
179
     1
273
     0
  0
XRECORD
  5
6BF
102
{ACAD_REACTORS
330
6BE
102
}
330
6BE
100
AcDbXrecord
102
MATERIAL
148
0.0
149
0.0
149
0.0
 93
        0
 94
      127
282
     0
 72
     1
 77
     1
171
     1
175
     1
179
     1
273
     0
  0
ENDSEC
  0
EOF
