  0
SECTION
  2
HEADER
  9
$ACADVER
  1
AC1015
  9
$ACADMAINTVER
 70
     6
  9
$DWGCODEPAGE
  3
ANSI_1252
  9
$INSBASE
 10
0.0
 20
0.0
 30
0.0
  9
$EXTMIN
 10
0.0
 20
0.0
 30
0.0
  9
$EXTMAX
 10
2970.0
 20
2100.0
 30
0.0
  9
$LIMMIN
 10
0.0
 20
0.0
  9
$LIMMAX
 10
2970.0
 20
2100.0
  9
$ORTHOMODE
 70
     0
  9
$REGENMODE
 70
     1
  9
$FILLMODE
 70
     1
  9
$QTEXTMODE
 70
     0
  9
$MIRRTEXT
 70
     1
  9
$LTSCALE
 40
10.0
  9
$ATTMODE
 70
     1
  9
$TEXTSIZE
 40
35.0
  9
$TRACEWID
 40
1.0
  9
$TEXTSTYLE
  7
Standard
  9
$CLAYER
  8
0
  9
$CELTYPE
  6
ByLayer
  9
$CECOLOR
 62
   256
  9
$CELTSCALE
 40
1.0
  9
$DISPSILH
 70
     0
  9
$DIMSCALE
 40
1.0
  9
$DIMASZ
 40
25.0
  9
$DIMEXO
 40
0.0
  9
$DIMDLI
 40
3.75
  9
$DIMRND
 40
0.0
  9
$DIMDLE
 40
0.0
  9
$DIMEXE
 40
10.0
  9
$DIMTP
 40
0.0
  9
$DIMTM
 40
0.0
  9
$DIMTXT
 40
30.0
  9
$DIMCEN
 40
2.5
  9
$DIMTSZ
 40
0.0
  9
$DIMTOL
 70
     0
  9
$DIMLIM
 70
     0
  9
$DIMTIH
 70
     1
  9
$DIMTOH
 70
     1
  9
$DIMSE1
 70
     0
  9
$DIMSE2
 70
     0
  9
$DIMTAD
 70
     1
  9
$DIMZIN
 70
     0
  9
$DIMBLK
  1

  9
$DIMASO
 70
     1
  9
$DIMSHO
 70
     1
  9
$DIMPOST
  1

  9
$DIMAPOST
  1

  9
$DIMALT
 70
     0
  9
$DIMALTD
 70
     3
  9
$DIMALTF
 40
0.0393700787
  9
$DIMLFAC
 40
1.0
  9
$DIMTOFL
 70
     1
  9
$DIMTVP
 40
0.0
  9
$DIMTIX
 70
     0
  9
$DIMSOXD
 70
     0
  9
$DIMSAH
 70
     0
  9
$DIMBLK1
  1

  9
$DIMBLK2
  1

  9
$DIMSTYLE
  2
ISO-25
  9
$DIMCLRD
 70
     0
  9
$DIMCLRE
 70
     0
  9
$DIMCLRT
 70
     0
  9
$DIMTFAC
 40
1.0
  9
$DIMGAP
 40
15.0
  9
$DIMJUST
 70
     0
  9
$DIMSD1
 70
     0
  9
$DIMSD2
 70
     0
  9
$DIMTOLJ
 70
     0
  9
$DIMTZIN
 70
     0
  9
$DIMALTZ
 70
     0
  9
$DIMALTTZ
 70
     0
  9
$DIMUPT
 70
     0
  9
$DIMDEC
 70
     1
  9
$DIMTDEC
 70
     1
  9
$DIMALTU
 70
     2
  9
$DIMALTTD
 70
     3
  9
$DIMTXSTY
  7
Standard
  9
$DIMAUNIT
 70
     0
  9
$DIMADEC
 70
     2
  9
$DIMALTRND
 40
0.0
  9
$DIMAZIN
 70
     0
  9
$DIMDSEP
 70
    44
  9
$DIMATFIT
 70
     3
  9
$DIMFRAC
 70
     0
  9
$DIMLDRBLK
  1

  9
$DIMLUNIT
 70
     2
  9
$DIMLWD
 70
    -2
  9
$DIMLWE
 70
    -2
  9
$DIMTMOVE
 70
     0
  9
$LUNITS
 70
     2
  9
$LUPREC
 70
     2
  9
$SKETCHINC
 40
1.0
  9
$FILLETRAD
 40
10.0
  9
$AUNITS
 70
     0
  9
$AUPREC
 70
     2
  9
$MENU
  1
.
  9
$ELEVATION
 40
0.0
  9
$PELEVATION
 40
0.0
  9
$THICKNESS
 40
0.0
  9
$LIMCHECK
 70
     0
  9
$CHAMFERA
 40
0.0
  9
$CHAMFERB
 40
0.0
  9
$CHAMFERC
 40
0.0
  9
$CHAMFERD
 40
0.0
  9
$SKPOLY
 70
     0
  9
$TDCREATE
 40
2457577.408721875
  9
$TDUCREATE
 40
2457577.325388541
  9
$TDUPDATE
 40
2457577.408722419
  9
$TDUUPDATE
 40
2457577.325389086
  9
$TDINDWG
 40
0.0000000116
  9
$TDUSRTIMER
 40
0.0000000116
  9
$USRTIMER
 70
     1
  9
$ANGBASE
 50
0.0
  9
$ANGDIR
 70
     0
  9
$PDMODE
 70
     0
  9
$PDSIZE
 40
-1.0
  9
$PLINEWID
 40
0.0
  9
$SPLFRAME
 70
     0
  9
$SPLINETYPE
 70
     6
  9
$SPLINESEGS
 70
     8
  9
$HANDSEED
  5
18D
  9
$SURFTAB1
 70
     6
  9
$SURFTAB2
 70
     6
  9
$SURFTYPE
 70
     6
  9
$SURFU
 70
     6
  9
$SURFV
 70
     6
  9
$UCSBASE
  2

  9
$UCSNAME
  2

  9
$UCSORG
 10
0.0
 20
0.0
 30
0.0
  9
$UCSXDIR
 10
1.0
 20
0.0
 30
0.0
  9
$UCSYDIR
 10
0.0
 20
1.0
 30
0.0
  9
$UCSORTHOREF
  2

  9
$UCSORTHOVIEW
 70
     0
  9
$UCSORGTOP
 10
0.0
 20
0.0
 30
0.0
  9
$UCSORGBOTTOM
 10
0.0
 20
0.0
 30
0.0
  9
$UCSORGLEFT
 10
0.0
 20
0.0
 30
0.0
  9
$UCSORGRIGHT
 10
0.0
 20
0.0
 30
0.0
  9
$UCSORGFRONT
 10
0.0
 20
0.0
 30
0.0
  9
$UCSORGBACK
 10
0.0
 20
0.0
 30
0.0
  9
$PUCSBASE
  2

  9
$PUCSNAME
  2

  9
$PUCSORG
 10
0.0
 20
0.0
 30
0.0
  9
$PUCSXDIR
 10
1.0
 20
0.0
 30
0.0
  9
$PUCSYDIR
 10
0.0
 20
1.0
 30
0.0
  9
$PUCSORTHOREF
  2

  9
$PUCSORTHOVIEW
 70
     0
  9
$PUCSORGTOP
 10
0.0
 20
0.0
 30
0.0
  9
$PUCSORGBOTTOM
 10
0.0
 20
0.0
 30
0.0
  9
$PUCSORGLEFT
 10
0.0
 20
0.0
 30
0.0
  9
$PUCSORGRIGHT
 10
0.0
 20
0.0
 30
0.0
  9
$PUCSORGFRONT
 10
0.0
 20
0.0
 30
0.0
  9
$PUCSORGBACK
 10
0.0
 20
0.0
 30
0.0
  9
$USERI1
 70
     0
  9
$USERI2
 70
     0
  9
$USERI3
 70
     0
  9
$USERI4
 70
     0
  9
$USERI5
 70
     0
  9
$USERR1
 40
0.0
  9
$USERR2
 40
0.0
  9
$USERR3
 40
0.0
  9
$USERR4
 40
0.0
  9
$USERR5
 40
0.0
  9
$WORLDVIEW
 70
     1
  9
$SHADEDGE
 70
     3
  9
$SHADEDIF
 70
    70
  9
$TILEMODE
 70
     1
  9
$MAXACTVP
 70
    64
  9
$PINSBASE
 10
0.0
 20
0.0
 30
0.0
  9
$PLIMCHECK
 70
     0
  9
$PEXTMIN
 10
1.0000000000E+20
 20
1.0000000000E+20
 30
1.0000000000E+20
  9
$PEXTMAX
 10
-1.0000000000E+20
 20
-1.0000000000E+20
 30
-1.0000000000E+20
  9
$PLIMMIN
 10
0.0
 20
0.0
  9
$PLIMMAX
 10
420.0
 20
297.0
  9
$UNITMODE
 70
     0
  9
$VISRETAIN
 70
     1
  9
$PLINEGEN
 70
     0
  9
$PSLTSCALE
 70
     1
  9
$TREEDEPTH
 70
  3020
  9
$CMLSTYLE
  2
Standard
  9
$CMLJUST
 70
     0
  9
$CMLSCALE
 40
20.0
  9
$PROXYGRAPHICS
 70
     1
  9
$MEASUREMENT
 70
     1
  9
$CELWEIGHT
370
    -1
  9
$ENDCAPS
280
     0
  9
$JOINSTYLE
280
     0
  9
$LWDISPLAY
290
     1
  9
$INSUNITS
 70
     4
  9
$HYPERLINKBASE
  1

  9
$STYLESHEET
  1

  9
$XEDIT
290
     1
  9
$CEPSNTYPE
380
     0
  9
$PSTYLEMODE
290
     1
  9
$FINGERPRINTGUID
  2
{B8EC1ADC-3ADD-4540-8F90-B561B2148ADC}
  9
$VERSIONGUID
  2
{FAEB1C32-E019-11D5-929B-00C0DF256EC4}
  9
$EXTNAMES
290
     1
  9
$PSVPSCALE
 40
0.0
  9
$OLESTARTUP
290
     0
  0
ENDSEC
  0
SECTION
  2
CLASSES
  0
CLASS
  1
ACDBDICTIONARYWDFLT
  2
AcDbDictionaryWithDefault
  3
ObjectDBX Classes
 90
        0
280
     0
281
     0
  0
CLASS
  1
VISUALSTYLE
  2
AcDbVisualStyle
  3
ObjectDBX Classes
 90
     4095
280
     0
281
     0
  0
CLASS
  1
MATERIAL
  2
AcDbMaterial
  3
ObjectDBX Classes
 90
     1153
280
     0
281
     0
  0
CLASS
  1
SCALE
  2
AcDbScale
  3
ObjectDBX Classes
 90
     1153
280
     0
281
     0
  0
CLASS
  1
TABLESTYLE
  2
AcDbTableStyle
  3
ObjectDBX Classes
 90
     4095
280
     0
281
     0
  0
CLASS
  1
MLEADERSTYLE
  2
AcDbMLeaderStyle
  3
ACDB_MLEADERSTYLE_CLASS
 90
     4095
280
     0
281
     0
  0
CLASS
  1
SUN
  2
AcDbSun
  3
SCENEOE
 90
     1153
280
     0
281
     0
  0
CLASS
  1
ACDBPLACEHOLDER
  2
AcDbPlaceHolder
  3
ObjectDBX Classes
 90
        0
280
     0
281
     0
  0
CLASS
  1
LAYOUT
  2
AcDbLayout
  3
ObjectDBX Classes
 90
        0
280
     0
281
     0
  0
ENDSEC
  0
SECTION
  2
TABLES
  0
TABLE
  2
VPORT
  5
8
330
0
100
AcDbSymbolTable
 70
     1
  0
VPORT
  5
29
330
8
100
AcDbSymbolTableRecord
100
AcDbViewportTableRecord
  2
*Active
 70
     0
 10
0.0
 20
0.0
 11
1.0
 21
1.0
 12
1485.0
 22
1050.0
 13
0.0
 23
0.0
 14
10.0
 24
10.0
 15
10.0
 25
10.0
 16
0.0
 26
0.0
 36
1.0
 17
0.0
 27
0.0
 37
0.0
 40
2100.0
 41
1.4142857143
 42
50.0
 43
0.0
 44
0.0
 50
0.0
 51
0.0
 71
     0
 72
  2000
 73
     1
 74
     3
 75
     0
 76
     0
 77
     0
 78
     0
281
     0
 65
     1
110
0.0
120
0.0
130
0.0
111
1.0
121
0.0
131
0.0
112
0.0
122
1.0
132
0.0
 79
     0
146
0.0
  0
ENDTAB
  0
TABLE
  2
LTYPE
  5
5
330
0
100
AcDbSymbolTable
 70
     6
  0
LTYPE
  5
14
330
5
100
AcDbSymbolTableRecord
100
AcDbLinetypeTableRecord
  2
ByBlock
 70
     0
  3

 72
    65
 73
     0
 40
0.0
  0
LTYPE
  5
15
330
5
100
AcDbSymbolTableRecord
100
AcDbLinetypeTableRecord
  2
ByLayer
 70
     0
  3

 72
    65
 73
     0
 40
0.0
  0
LTYPE
  5
16
330
5
100
AcDbSymbolTableRecord
100
AcDbLinetypeTableRecord
  2
Continuous
 70
     0
  3
Solid line
 72
    65
 73
     0
 40
0.0
  0
LTYPE
  5
6E
330
5
100
AcDbSymbolTableRecord
100
AcDbLinetypeTableRecord
  2
HIDDEN
 70
     0
  3
Hidden __ __ __ __ __ __ __ __ __ __ __ __ __ __
 72
    65
 73
     2
 40
1.905
 49
1.27
 74
     0
 49
-0.635
 74
     0
  0
LTYPE
  5
6F
330
5
100
AcDbSymbolTableRecord
100
AcDbLinetypeTableRecord
  2
PHANTOM
 70
     0
  3
Phantom ______  __  __  ______  __  __  ______
 72
    65
 73
     6
 40
12.7
 49
6.35
 74
     0
 49
-1.27
 74
     0
 49
1.27
 74
     0
 49
-1.27
 74
     0
 49
1.27
 74
     0
 49
-1.27
 74
     0
  0
LTYPE
  5
70
330
5
100
AcDbSymbolTableRecord
100
AcDbLinetypeTableRecord
  2
CENTER
 70
     0
  3
Center ____ _ ____ _ ____ _ ____ _ ____ _ ____
 72
    65
 73
     4
 40
10.16
 49
6.35
 74
     0
 49
-1.27
 74
     0
 49
1.27
 74
     0
 49
-1.27
 74
     0
  0
LTYPE
  5
71
330
5
100
AcDbSymbolTableRecord
100
AcDbLinetypeTableRecord
  2
CENTERX2
 70
     0
  3
Center (2x) ________  __  ________  __  _____
 72
    65
 73
     4
 40
20.32
 49
12.7
 74
     0
 49
-2.54
 74
     0
 49
2.54
 74
     0
 49
-2.54
 74
     0
  0
LTYPE
  5
72
330
5
100
AcDbSymbolTableRecord
100
AcDbLinetypeTableRecord
  2
DOT2
 70
     0
  3
Dot (.5x) ........................................
 72
    65
 73
     2
 40
0.635
 49
0.0
 74
     0
 49
-0.635
 74
     0
  0
ENDTAB
  0
TABLE
  2
LAYER
  5
2
330
0
100
AcDbSymbolTable
 70
     2
  0
LAYER
  5
10
330
2
100
AcDbSymbolTableRecord
100
AcDbLayerTableRecord
  2
0
 70
     0
 62
     7
  6
Continuous
370
    -3
390
F
  0
LAYER
  5
73
330
2
100
AcDbSymbolTableRecord
100
AcDbLayerTableRecord
  2
FORMAT
 70
     0
 62
     7
  6
Continuous
370
    -3
390
F
  0
ENDTAB
  0
TABLE
  2
STYLE
  5
3
330
0
100
AcDbSymbolTable
 70
     2
  0
STYLE
  5
11
330
3
100
AcDbSymbolTableRecord
100
AcDbTextStyleTableRecord
  2
Standard
 70
     0
 40
0.0
 41
1.0
 50
0.0
 71
     0
 42
35.0
  3
txt
  4

  0
STYLE
  5
E7
330
3
100
AcDbSymbolTableRecord
100
AcDbTextStyleTableRecord
  2
SLDTEXTSTYLE0
 70
     0
 40
0.0
 41
0.605
 50
0.0
 71
     0
 42
35.0
  3
TXT
  4

  0
ENDTAB
  0
TABLE
  2
VIEW
  5
6
330
0
100
AcDbSymbolTable
 70
     0
  0
ENDTAB
  0
TABLE
  2
UCS
  5
7
330
0
100
AcDbSymbolTable
 70
     0
  0
ENDTAB
  0
TABLE
  2
APPID
  5
9
330
0
100
AcDbSymbolTable
 70
     1
  0
APPID
  5
12
330
9
100
AcDbSymbolTableRecord
100
AcDbRegAppTableRecord
  2
ACAD
 70
     0
  0
ENDTAB
  0
TABLE
  2
DIMSTYLE
  5
A
330
0
100
AcDbSymbolTable
 70
     1
100
AcDbDimStyleTable
  0
DIMSTYLE
105
27
330
A
100
AcDbSymbolTableRecord
100
AcDbDimStyleTableRecord
  2
ISO-25
 70
     0
 41
2.5
 42
0.625
 43
3.75
 44
1.25
 73
     0
 74
     0
 77
     1
 78
     8
140
2.5
141
2.5
143
0.0393700787
147
0.625
171
     3
172
     1
178
     0
271
     2
272
     2
274
     3
278
    44
283
     0
284
     8
340
11
  0
ENDTAB
  0
TABLE
  2
BLOCK_RECORD
  5
1
330
0
100
AcDbSymbolTable
 70
     3
  0
BLOCK_RECORD
  5
1F
330
1
100
AcDbSymbolTableRecord
100
AcDbBlockTableRecord
  2
*Model_Space
340
22
  0
BLOCK_RECORD
  5
1B
330
1
100
AcDbSymbolTableRecord
100
AcDbBlockTableRecord
  2
*Paper_Space
340
1E
  0
BLOCK_RECORD
  5
23
330
1
100
AcDbSymbolTableRecord
100
AcDbBlockTableRecord
  2
*Paper_Space0
340
26
  0
BLOCK_RECORD
  5
EB
330
1
100
AcDbSymbolTableRecord
100
AcDbBlockTableRecord
  2
SW_NOTE_0
340
0
102
{BLKREFS
331
F0
102
}
  0
BLOCK_RECORD
  5
F3
330
1
100
AcDbSymbolTableRecord
100
AcDbBlockTableRecord
  2
SW_NOTE_1
340
0
102
{BLKREFS
331
F8
102
}
  0
ENDTAB
  0
ENDSEC
  0
SECTION
  2
BLOCKS
  0
BLOCK
  5
20
330
1F
100
AcDbEntity
  8
0
100
AcDbBlockBegin
  2
*Model_Space
 70
     0
 10
0.0
 20
0.0
 30
0.0
  3
*Model_Space
  1

  0
ENDBLK
  5
21
330
1F
100
AcDbEntity
  8
0
100
AcDbBlockEnd
  0
BLOCK
  5
1C
330
1B
100
AcDbEntity
 67
     1
  8
0
100
AcDbBlockBegin
  2
*Paper_Space
 70
     0
 10
0.0
 20
0.0
 30
0.0
  3
*Paper_Space
  1

  0
ENDBLK
  5
1D
330
1B
100
AcDbEntity
 67
     1
  8
0
100
AcDbBlockEnd
  0
BLOCK
  5
24
330
23
100
AcDbEntity
  8
0
100
AcDbBlockBegin
  2
*Paper_Space0
 70
     0
 10
0.0
 20
0.0
 30
0.0
  3
*Paper_Space0
  1

  0
ENDBLK
  5
25
330
23
100
AcDbEntity
  8
0
100
AcDbBlockEnd
  0
BLOCK
  5
EC
330
EB
100
AcDbEntity
  8
0
100
AcDbBlockBegin
  2
SW_NOTE_0
 70
     0
 10
0.0
 20
0.0
 30
0.0
  3
SW_NOTE_0
  1

  0
MTEXT
  5
EE
330
EB
100
AcDbEntity
  8
0
  6
Continuous
 62
     0
370
     0
100
AcDbMText
 10
0.0
 20
23.2032193159
 30
0.0
 40
18.0
 41
0.0
 71
     1
 72
     1
  1
Questo disegno e posto sotto la tutela delle vigenti Leggi e non puo essere utilizzato da terze persone se non previa autorizzazione scritta della PEDRALI
  7
SLDTEXTSTYLE0
 73
     1
 44
1.0
  0
MTEXT
  5
EF
330
EB
100
AcDbEntity
  8
0
  6
Continuous
 62
     0
370
     0
100
AcDbMText
 10
1355.5219376087
 20
23.2032193159
 30
0.0
 40
18.0
 41
0.0
 71
     1
 72
     1
  1
S.p.A.
  7
SLDTEXTSTYLE0
 73
     1
 44
1.0
  0
ENDBLK
  5
ED
330
EB
100
AcDbEntity
  8
0
100
AcDbBlockEnd
  0
BLOCK
  5
F4
330
F3
100
AcDbEntity
  8
0
100
AcDbBlockBegin
  2
SW_NOTE_1
 70
     0
 10
0.0
 20
0.0
 30
0.0
  3
SW_NOTE_1
  1

  0
MTEXT
  5
F6
330
F3
100
AcDbEntity
  8
0
  6
Continuous
 62
     0
370
     0
100
AcDbMText
 10
33.1875
 20
23.2032193159
 30
0.0
 40
18.0
 41
0.0
 71
     2
 72
     1
  1
SCALA
  7
SLDTEXTSTYLE0
 73
     1
 44
1.0
  0
MTEXT
  5
F7
330
F3
100
AcDbEntity
  8
0
  6
Continuous
 62
     0
370
     0
100
AcDbMText
 10
35.6098540438
 20
-1.6396707646
 30
0.0
 40
37.0416666667
 41
0.0
 71
     2
 72
     1
  1
1:1
  7
SLDTEXTSTYLE0
 73
     1
 44
1.0
  0
ENDBLK
  5
F5
330
F3
100
AcDbEntity
  8
0
100
AcDbBlockEnd
  0
ENDSEC
  0
SECTION
  2
ENTITIES
  0
HATCH
  5
74
330
1F
100
AcDbEntity
  8
0
  6
Continuous
 62
     7
100
AcDbHatch
 10
0.0
 20
0.0
 30
0.0
210
0.0
220
0.0
230
1.0
  2
SOLID
 70
     1
 71
     0
 91
        2
 92
        0
 93
        6
 72
     1
 10
2340.243226420216
 20
319.3144821747094
 11
2356.647910872445
 21
319.3144821747094
 72
     3
 10
2351.078765157099
 20
331.9559440369547
 11
27.08884684798352
 21
0.0
 40
0.4768529109443384
 50
293.7756995582609
 51
426.2243004403791
 73
     1
 72
     1
 10
2356.647910872789
 20
344.5974058991662
 11
2323.989918311282
 21
344.5974058991662
 72
     1
 10
2323.989918311282
 20
344.5974058991662
 11
2323.989918311282
 21
304.8670971915081
 72
     1
 10
2323.989918311282
 20
304.8670971915081
 11
2340.243226420216
 21
304.8670971915081
 72
     1
 10
2340.243226420216
 20
304.8670971915081
 11
2340.243226420216
 21
319.3144821747094
 97
        0
 92
        0
 93
        6
 72
     3
 10
2350.175803596967
 20
331.9559440369547
 11
9.932577177641511
 21
0.0
 40
0.5895245510672578
 50
316.3365658560252
 51
403.663434144226
 73
     0
 72
     2
 10
2352.923880980421
 20
333.7618671600596
 40
7.223692492544108
 50
69.99121011132742
 51
90.0
 73
     0
 72
     1
 10
2352.923880980421
 20
326.5381746675155
 11
2340.243226419814
 21
326.5381746675155
 72
     1
 10
2340.243226419814
 20
326.5381746675155
 11
2340.243226419814
 21
337.37371340629
 72
     1
 10
2340.243226419814
 20
337.37371340629
 11
2352.923880981012
 21
337.37371340629
 72
     2
 10
2352.923880981012
 20
330.150020915474
 40
7.223692490816113
 50
270.0000000000008
 51
290.0087898889545
 73
     0
 97
        0
 75
     0
 76
     1
 98
        1
 10
0.0
 20
0.0
  0
HATCH
  5
75
330
1F
100
AcDbEntity
  8
0
  6
Continuous
 62
     7
100
AcDbHatch
 10
0.0
 20
0.0
 30
0.0
210
0.0
220
0.0
230
1.0
  2
SOLID
 70
     1
 71
     0
 91
        1
 92
        0
 93
       12
 72
     1
 10
2435.957151948124
 20
344.59740589754
 11
2381.779458253796
 21
344.59740589754
 72
     1
 10
2381.779458253796
 20
344.59740589754
 11
2381.779458253796
 21
304.867097189882
 72
     1
 10
2381.779458253796
 20
304.867097189882
 11
2435.957151948124
 21
304.867097189882
 72
     1
 10
2435.957151948124
 20
304.867097189882
 11
2435.957151948124
 21
312.09078967967
 72
     1
 10
2435.957151948124
 20
312.09078967967
 11
2399.838689485178
 21
312.09078967967
 72
     1
 10
2399.838689485178
 20
312.09078967967
 11
2399.838689485178
 21
321.1204052953607
 72
     1
 10
2399.838689485178
 20
321.1204052953607
 11
2432.345305703229
 21
321.1204052953607
 72
     1
 10
2432.345305703229
 20
321.1204052953607
 11
2432.345305703229
 21
328.344097788605
 72
     1
 10
2432.345305703229
 20
328.344097788605
 11
2399.838689485178
 21
328.344097788605
 72
     1
 10
2399.838689485178
 20
328.344097788605
 11
2399.838689485178
 21
337.3737134042958
 72
     1
 10
2399.838689485178
 20
337.3737134042958
 11
2435.957151948124
 21
337.3737134042958
 72
     1
 10
2435.957151948124
 20
337.3737134042958
 11
2435.957151948124
 21
344.59740589754
 97
        0
 75
     0
 76
     1
 98
        1
 10
0.0
 20
0.0
  0
HATCH
  5
76
330
1F
100
AcDbEntity
  8
0
  6
Continuous
 62
     7
100
AcDbHatch
 10
0.0
 20
0.0
 30
0.0
210
0.0
220
0.0
230
1.0
  2
SOLID
 70
     1
 71
     0
 91
        1
 92
        0
 93
        6
 72
     1
 10
2645.444234240045
 20
344.597405899586
 11
2627.385003008663
 21
344.597405899586
 72
     1
 10
2627.385003008663
 20
344.597405899586
 11
2627.385003008663
 21
304.8670971919279
 72
     1
 10
2627.385003008663
 20
304.8670971919279
 11
2676.14492733565
 21
304.8670971919279
 72
     1
 10
2676.14492733565
 20
304.8670971919279
 11
2676.14492733565
 21
313.8967128076189
 72
     1
 10
2676.14492733565
 20
313.8967128076189
 11
2645.444234240045
 21
313.8967128076189
 72
     1
 10
2645.444234240045
 20
313.8967128076189
 11
2645.444234240045
 21
344.597405899586
 97
        0
 75
     0
 76
     1
 98
        1
 10
0.0
 20
0.0
  0
HATCH
  5
77
330
1F
100
AcDbEntity
  8
0
  6
Continuous
 62
     7
100
AcDbHatch
 10
0.0
 20
0.0
 30
0.0
210
0.0
220
0.0
230
1.0
  2
SOLID
 70
     1
 71
     0
 91
        1
 92
        0
 93
        4
 72
     1
 10
2677.950850457337
 20
344.5974058991659
 11
2677.950850457337
 21
304.8670971915079
 72
     1
 10
2677.950850457337
 20
304.8670971915079
 11
2696.010081688719
 21
304.8670971915079
 72
     1
 10
2696.010081688719
 20
304.8670971915079
 11
2696.010081688719
 21
344.5974058991659
 72
     1
 10
2696.010081688719
 20
344.5974058991659
 11
2677.950850457337
 21
344.5974058991659
 97
        0
 75
     0
 76
     1
 98
        1
 10
0.0
 20
0.0
  0
HATCH
  5
78
330
1F
100
AcDbEntity
  8
0
  6
Continuous
 62
     7
100
AcDbHatch
 10
0.0
 20
0.0
 30
0.0
210
0.0
220
0.0
230
1.0
  2
SOLID
 70
     1
 71
     0
 91
        2
 92
        0
 93
        4
 72
     3
 10
2468.463768165085
 20
324.7322515426197
 11
28.89476997115586
 21
0.0
 40
0.6929224243374513
 50
280.2934314618138
 51
439.7065685387129
 73
     1
 72
     1
 10
2472.071526001564
 20
344.5974058975816
 11
2439.568998196665
 21
344.5974058975813
 72
     1
 10
2439.568998196665
 20
344.5974058975813
 11
2439.568998196665
 21
304.8670971876741
 72
     1
 10
2439.568998196665
 20
304.8670971876741
 11
2472.071526001749
 21
304.8670971876741
 97
        0
 92
        0
 93
        6
 72
     2
 10
2472.947172767998
 20
324.7322515421808
 40
10.83553873998016
 50
56.16906508602374
 51
90.0
 73
     0
 72
     1
 10
2472.947172767998
 20
313.8967128022008
 11
2455.82230630316
 21
313.8967128022008
 72
     1
 10
2455.82230630316
 20
313.8967128022008
 11
2455.82230630316
 21
335.5677902826995
 72
     1
 10
2455.82230630316
 20
335.5677902826995
 11
2472.947172767998
 21
335.5677902826995
 72
     2
 10
2472.947172767998
 20
324.7322515421808
 40
10.83553874051871
 50
270.0000000000008
 51
303.8314447476077
 73
     0
 72
     3
 10
2462.14303723761
 20
324.7322515426197
 11
22.57403904004612
 21
0.0
 40
0.5985848325441405
 50
331.8713554011807
 51
388.1288999924611
 73
     0
 97
        0
 75
     0
 76
     1
 98
        1
 10
0.0
 20
0.0
  0
HATCH
  5
79
330
1F
100
AcDbEntity
  8
0
  6
Continuous
 62
     7
100
AcDbHatch
 10
0.0
 20
0.0
 30
0.0
210
0.0
220
0.0
230
1.0
  2
SOLID
 70
     1
 71
     0
 91
        3
 92
        0
 93
       19
 72
     1
 10
2558.870202192612
 20
314.7709579586855
 11
2560.355534650718
 21
308.9676544182703
 72
     2
 10
2565.453566637579
 20
310.114383967383
 40
5.225410873593411
 50
192.6768785101394
 51
204.7368873206736
 73
     1
 72
     1
 10
2560.707644877863
 20
307.927800914186
 11
2584.042848052473
 21
344.597405899586
 72
     1
 10
2584.042848052473
 20
344.597405899586
 11
2602.102079283856
 21
344.597405899586
 72
     1
 10
2602.102079283856
 20
344.597405899586
 11
2627.385003008663
 21
304.8670971919279
 72
     1
 10
2627.385003008663
 20
304.8670971919279
 11
2609.325771777099
 21
304.8670971919279
 72
     1
 10
2609.325771777099
 20
304.8670971919279
 11
2605.262444749956
 21
312.090789681716
 72
     1
 10
2605.262444749956
 20
312.090789681716
 11
2580.882482586372
 21
312.090789681716
 72
     1
 10
2580.882482586372
 20
312.090789681716
 11
2576.819155559229
 21
304.8670971919279
 72
     1
 10
2576.819155559229
 20
304.8670971919279
 11
2546.118462463106
 21
304.8670971919279
 72
     1
 10
2546.118462463106
 20
304.8670971919279
 11
2546.118462463106
 21
312.0907896826544
 72
     2
 10
2538.894769969861
 20
312.0907896826544
 40
7.223692493244227
 50
0.0
 51
90.0
 73
     1
 72
     1
 10
2538.894769969861
 20
319.3144821758984
 11
2520.835538738298
 21
319.3144821758984
 72
     1
 10
2520.835538738298
 20
319.3144821758984
 11
2520.835538738298
 21
304.8670971928664
 72
     1
 10
2520.835538738298
 20
304.8670971928664
 11
2504.582230629363
 21
304.8670971928664
 72
     1
 10
2504.582230629363
 20
304.8670971928664
 11
2504.582230629363
 21
344.5974059005244
 72
     1
 10
2504.582230629363
 20
344.5974059005244
 11
2542.019258305786
 21
344.5974059005244
 72
     3
 10
2538.029947706919
 20
332.9364020822968
 11
24.32666622535162
 21
0.0
 40
0.4859291160023137
 50
288.8861745463018
 51
398.6942257036357
 73
     0
 72
     2
 10
2549.037584929584
 20
312.9627960708336
 40
9.997490267756193
 50
279.2678272406082
 51
349.5800515720779
 73
     0
 97
        0
 92
        0
 93
        3
 72
     1
 10
2593.072463667404
 20
333.7618671594018
 11
2584.945809612937
 21
319.3144821729139
 72
     1
 10
2584.945809612937
 20
319.3144821729139
 11
2601.199117721872
 21
319.3144821729139
 72
     1
 10
2601.199117721872
 20
319.3144821729139
 11
2593.072463667404
 21
333.7618671594018
 97
        0
 92
        0
 93
        6
 72
     2
 10
2538.478172418671
 20
331.9559440374287
 40
5.417769370214362
 50
270.0000000000008
 51
305.5869104965606
 73
     1
 72
     3
 10
2532.574039041056
 20
331.9559440369547
 11
11.73850030081747
 21
0.0
 40
0.5900077182209745
 50
334.058541690378
 51
385.9414583083995
 73
     1
 72
     2
 10
2538.478172418671
 20
331.9559440374287
 40
5.417769369443226
 50
54.41308949502037
 51
90.0
 73
     1
 72
     1
 10
2538.478172418671
 20
337.3737134068722
 11
2520.835538737718
 21
337.3737134068722
 72
     1
 10
2520.835538737718
 20
337.3737134068722
 11
2520.835538737718
 21
326.538174667214
 72
     1
 10
2520.835538737718
 20
326.538174667214
 11
2538.478172418671
 21
326.5381746672143
 97
        0
 75
     0
 76
     1
 98
        1
 10
0.0
 20
0.0
  0
LINE
  5
7A
330
1F
100
AcDbEntity
  8
0
  6
Continuous
 62
     7
370
    15
100
AcDbLine
 10
2870.0
 20
100.0
 30
0.0
 11
2870.0
 21
2000.0
 31
0.0
  0
LINE
  5
7B
330
1F
100
AcDbEntity
  8
0
  6
Continuous
 62
   179
370
     0
100
AcDbLine
 10
2323.9899183113
 20
344.5974058992
 30
0.0
 11
2323.9899183113
 21
304.8670971915
 31
0.0
  0
LINE
  5
7C
330
1F
100
AcDbEntity
  8
0
  6
Continuous
 62
   179
370
     0
100
AcDbLine
 10
2323.9899183113
 20
344.5974058992
 30
0.0
 11
2356.6479108728
 21
344.5974058992
 31
0.0
  0
LINE
  5
7D
330
1F
100
AcDbEntity
  8
0
  6
Continuous
 62
   179
370
     0
100
AcDbLine
 10
2323.9899183113
 20
304.8670971915
 30
0.0
 11
2340.2432264202
 21
304.8670971915
 31
0.0
  0
LINE
  5
7E
330
1F
100
AcDbEntity
  8
0
  6
Continuous
 62
   179
370
     0
100
AcDbLine
 10
2340.2432264202
 20
304.8670971915
 30
0.0
 11
2340.2432264202
 21
319.3144821747
 31
0.0
  0
LINE
  5
7F
330
1F
100
AcDbEntity
  8
0
  6
Continuous
 62
   179
370
     0
100
AcDbLine
 10
2356.6479108724
 20
319.3144821747
 30
0.0
 11
2340.2432264202
 21
319.3144821747
 31
0.0
  0
LINE
  5
80
330
1F
100
AcDbEntity
  8
0
  6
Continuous
 62
   179
370
     0
100
AcDbLine
 10
2340.2432264198
 20
326.5381746675
 30
0.0
 11
2340.2432264198
 21
337.3737134063
 31
0.0
  0
LINE
  5
81
330
1F
100
AcDbEntity
  8
0
  6
Continuous
 62
   179
370
     0
100
AcDbLine
 10
2340.2432264198
 20
337.3737134063
 30
0.0
 11
2352.923880981
 21
337.3737134063
 31
0.0
  0
LINE
  5
82
330
1F
100
AcDbEntity
  8
0
  6
Continuous
 62
   179
370
     0
100
AcDbLine
 10
2340.2432264198
 20
326.5381746675
 30
0.0
 11
2352.9238809804
 21
326.5381746675
 31
0.0
  0
LINE
  5
83
330
1F
100
AcDbEntity
  8
0
  6
Continuous
 62
   179
370
     0
100
AcDbLine
 10
2381.7794582538
 20
344.5974058975
 30
0.0
 11
2435.9571519481
 21
344.5974058975
 31
0.0
  0
LINE
  5
84
330
1F
100
AcDbEntity
  8
0
  6
Continuous
 62
   179
370
     0
100
AcDbLine
 10
2435.9571519481
 20
344.5974058975
 30
0.0
 11
2435.9571519481
 21
337.3737134043
 31
0.0
  0
LINE
  5
85
330
1F
100
AcDbEntity
  8
0
  6
Continuous
 62
   179
370
     0
100
AcDbLine
 10
2435.9571519481
 20
337.3737134043
 30
0.0
 11
2399.8386894852
 21
337.3737134043
 31
0.0
  0
LINE
  5
86
330
1F
100
AcDbEntity
  8
0
  6
Continuous
 62
   179
370
     0
100
AcDbLine
 10
2399.8386894852
 20
337.3737134043
 30
0.0
 11
2399.8386894852
 21
328.3440977886
 31
0.0
  0
LINE
  5
87
330
1F
100
AcDbEntity
  8
0
  6
Continuous
 62
   179
370
     0
100
AcDbLine
 10
2399.8386894852
 20
328.3440977886
 30
0.0
 11
2432.3453057032
 21
328.3440977886
 31
0.0
  0
LINE
  5
88
330
1F
100
AcDbEntity
  8
0
  6
Continuous
 62
   179
370
     0
100
AcDbLine
 10
2432.3453057032
 20
328.3440977886
 30
0.0
 11
2432.3453057032
 21
321.1204052954
 31
0.0
  0
LINE
  5
89
330
1F
100
AcDbEntity
  8
0
  6
Continuous
 62
   179
370
     0
100
AcDbLine
 10
2432.3453057032
 20
321.1204052954
 30
0.0
 11
2399.8386894852
 21
321.1204052954
 31
0.0
  0
LINE
  5
8A
330
1F
100
AcDbEntity
  8
0
  6
Continuous
 62
   179
370
     0
100
AcDbLine
 10
2399.8386894852
 20
321.1204052954
 30
0.0
 11
2399.8386894852
 21
312.0907896797
 31
0.0
  0
LINE
  5
8B
330
1F
100
AcDbEntity
  8
0
  6
Continuous
 62
   179
370
     0
100
AcDbLine
 10
2399.8386894852
 20
312.0907896797
 30
0.0
 11
2435.9571519481
 21
312.0907896797
 31
0.0
  0
LINE
  5
8C
330
1F
100
AcDbEntity
  8
0
  6
Continuous
 62
   179
370
     0
100
AcDbLine
 10
2435.9571519481
 20
312.0907896797
 30
0.0
 11
2435.9571519481
 21
304.8670971899
 31
0.0
  0
LINE
  5
8D
330
1F
100
AcDbEntity
  8
0
  6
Continuous
 62
   179
370
     0
100
AcDbLine
 10
2435.9571519481
 20
304.8670971899
 30
0.0
 11
2381.7794582538
 21
304.8670971899
 31
0.0
  0
LINE
  5
8E
330
1F
100
AcDbEntity
  8
0
  6
Continuous
 62
   179
370
     0
100
AcDbLine
 10
2439.5689981967
 20
344.5974058976
 30
0.0
 11
2439.5689981967
 21
304.8670971877
 31
0.0
  0
LINE
  5
8F
330
1F
100
AcDbEntity
  8
0
  6
Continuous
 62
   179
370
     0
100
AcDbLine
 10
2439.5689981967
 20
344.5974058976
 30
0.0
 11
2472.0715260016
 21
344.5974058976
 31
0.0
  0
LINE
  5
90
330
1F
100
AcDbEntity
  8
0
  6
Continuous
 62
   179
370
     0
100
AcDbLine
 10
2472.0715260017
 20
304.8670971877
 30
0.0
 11
2439.5689981967
 21
304.8670971877
 31
0.0
  0
LINE
  5
91
330
1F
100
AcDbEntity
  8
0
  6
Continuous
 62
   179
370
     0
100
AcDbLine
 10
2455.8223063032
 20
324.7322515403
 30
0.0
 11
2455.8223063032
 21
313.8967128022
 31
0.0
  0
LINE
  5
92
330
1F
100
AcDbEntity
  8
0
  6
Continuous
 62
   179
370
     0
100
AcDbLine
 10
2455.8223063032
 20
313.8967128022
 30
0.0
 11
2472.947172768
 21
313.8967128022
 31
0.0
  0
LINE
  5
93
330
1F
100
AcDbEntity
  8
0
  6
Continuous
 62
   179
370
     0
100
AcDbLine
 10
2455.8223063032
 20
324.7322515403
 30
0.0
 11
2455.8223063032
 21
335.5677902827
 31
0.0
  0
LINE
  5
94
330
1F
100
AcDbEntity
  8
0
  6
Continuous
 62
   179
370
     0
100
AcDbLine
 10
2455.8223063032
 20
335.5677902827
 30
0.0
 11
2472.947172768
 21
335.5677902827
 31
0.0
  0
LINE
  5
95
330
1F
100
AcDbEntity
  8
0
  6
Continuous
 62
   179
370
     0
100
AcDbLine
 10
2504.5822306294
 20
344.5974059005
 30
0.0
 11
2504.5822306294
 21
304.8670971929
 31
0.0
  0
LINE
  5
96
330
1F
100
AcDbEntity
  8
0
  6
Continuous
 62
     7
370
     0
100
AcDbLine
 10
2728.7989947508
 20
280.0000000004
 30
0.0
 11
2728.7989947508
 21
190.0000000002
 31
0.0
  0
LINE
  5
97
330
1F
100
AcDbEntity
  8
0
  6
Continuous
 62
   179
370
     0
100
AcDbLine
 10
2504.5822306294
 20
304.8670971929
 30
0.0
 11
2520.8355387383
 21
304.8670971929
 31
0.0
  0
LINE
  5
98
330
1F
100
AcDbEntity
  8
0
  6
Continuous
 62
   179
370
     0
100
AcDbLine
 10
2520.8355387383
 20
304.8670971929
 30
0.0
 11
2520.8355387383
 21
319.3144821759
 31
0.0
  0
LINE
  5
99
330
1F
100
AcDbEntity
  8
0
  6
Continuous
 62
   179
370
     0
100
AcDbLine
 10
2520.8355387383
 20
319.3144821759
 30
0.0
 11
2538.8947699699
 21
319.3144821759
 31
0.0
  0
LINE
  5
9A
330
1F
100
AcDbEntity
  8
0
  6
Continuous
 62
   179
370
     0
100
AcDbLine
 10
2546.1184624631
 20
312.0907896827
 30
0.0
 11
2546.1184624631
 21
304.8670971919
 31
0.0
  0
LINE
  5
9B
330
1F
100
AcDbEntity
  8
0
  6
Continuous
 62
   179
370
     0
100
AcDbLine
 10
2520.8355387377
 20
326.5381746672
 30
0.0
 11
2520.8355387377
 21
337.3737134069
 31
0.0
  0
LINE
  5
9C
330
1F
100
AcDbEntity
  8
0
  6
Continuous
 62
   179
370
     0
100
AcDbLine
 10
2520.8355387377
 20
337.3737134069
 30
0.0
 11
2538.4781724187
 21
337.3737134069
 31
0.0
  0
LINE
  5
9D
330
1F
100
AcDbEntity
  8
0
  6
Continuous
 62
   179
370
     0
100
AcDbLine
 10
2520.8355387377
 20
326.5381746672
 30
0.0
 11
2538.4781724187
 21
326.5381746672
 31
0.0
  0
LINE
  5
9E
330
1F
100
AcDbEntity
  8
0
  6
Continuous
 62
   179
370
     0
100
AcDbLine
 10
2558.8702021926
 20
314.7709579587
 30
0.0
 11
2560.3555346507
 21
308.9676544183
 31
0.0
  0
LINE
  5
9F
330
1F
100
AcDbEntity
  8
0
  6
Continuous
 62
     7
370
    15
100
AcDbLine
 10
2870.0
 20
2000.0
 30
0.0
 11
100.0
 21
2000.0
 31
0.0
  0
LINE
  5
A0
330
1F
100
AcDbEntity
  8
0
  6
Continuous
 62
     7
370
     0
100
AcDbLine
 10
2728.7989947508
 20
190.0000000002
 30
0.0
 11
2728.7989947508
 21
100.0
 31
0.0
  0
LINE
  5
A1
330
1F
100
AcDbEntity
  8
0
  6
Continuous
 62
     7
370
    15
100
AcDbLine
 10
100.0
 20
2000.0
 30
0.0
 11
100.0
 21
100.0
 31
0.0
  0
LINE
  5
A2
330
1F
100
AcDbEntity
  8
0
  6
Continuous
 62
     7
370
    15
100
AcDbLine
 10
2150.0
 20
370.0000000006
 30
0.0
 11
2870.0
 21
370.0000000006
 31
0.0
  0
LINE
  5
A3
330
1F
100
AcDbEntity
  8
0
  6
Continuous
 62
    19
370
     0
100
AcDbLine
 10
2795.2884126839
 20
160.2788043096
 30
0.0
 11
2763.4182663121
 21
154.0818314039
 31
0.0
  0
LINE
  5
A4
330
1F
100
AcDbEntity
  8
0
  6
Continuous
 62
    19
370
     0
100
AcDbLine
 10
2821.3505851521
 20
165.4881573907
 30
0.0
 11
2821.3505851521
 21
124.881030118
 31
0.0
  0
LINE
  5
A5
330
1F
100
AcDbEntity
  8
0
  6
Continuous
 62
    19
370
     0
100
AcDbLine
 10
2795.2884126839
 20
160.2788043096
 30
0.0
 11
2795.2884126839
 21
130.0903831992
 31
0.0
  0
LINE
  5
A6
330
1F
100
AcDbEntity
  8
0
  6
Continuous
 62
     7
370
    15
100
AcDbLine
 10
100.0
 20
100.0
 30
0.0
 11
2870.0
 21
100.0
 31
0.0
  0
LINE
  5
A7
330
1F
100
AcDbEntity
  8
0
  6
Continuous
 62
    19
370
     0
100
AcDbLine
 10
2763.4182663121
 20
154.0818314039
 30
0.0
 11
2763.4182663121
 21
136.2873561048
 31
0.0
  0
LINE
  5
A8
330
1F
100
AcDbEntity
  8
0
  6
Continuous
 62
   179
370
     0
100
AcDbLine
 10
2546.1184624631
 20
304.8670971919
 30
0.0
 11
2576.8191555592
 21
304.8670971919
 31
0.0
  0
LINE
  5
A9
330
1F
100
AcDbEntity
  8
0
  6
Continuous
 62
    19
370
     0
100
AcDbLine
 10
2795.2884126839
 20
130.0903831992
 30
0.0
 11
2763.4182663121
 21
136.2873561048
 31
0.0
  0
LINE
  5
AA
330
1F
100
AcDbEntity
  8
0
  6
CENTERX2
 62
    19
370
     0
100
AcDbLine
 10
2838.9207124248
 20
145.1845937544
 30
0.0
 11
2759.4518690643
 21
145.1845937544
 31
0.0
  0
LINE
  5
AB
330
1F
100
AcDbEntity
  8
0
  6
Continuous
 62
   179
370
     0
100
AcDbLine
 10
2504.5822306294
 20
344.5974059005
 30
0.0
 11
2542.0192583058
 21
344.5974059005
 31
0.0
  0
LINE
  5
AC
330
1F
100
AcDbEntity
  8
0
  6
Continuous
 62
   179
370
     0
100
AcDbLine
 10
2381.7794582538
 20
344.5974058975
 30
0.0
 11
2381.7794582538
 21
304.8670971899
 31
0.0
  0
LINE
  5
AD
330
1F
100
AcDbEntity
  8
0
  6
Continuous
 62
   179
370
     0
100
AcDbLine
 10
2584.0428480525
 20
344.5974058996
 30
0.0
 11
2602.1020792839
 21
344.5974058996
 31
0.0
  0
LINE
  5
AE
330
1F
100
AcDbEntity
  8
0
  6
Continuous
 62
   179
370
     0
100
AcDbLine
 10
2584.0428480525
 20
344.5974058996
 30
0.0
 11
2560.7076448779
 21
307.9278009142
 31
0.0
  0
LINE
  5
AF
330
1F
100
AcDbEntity
  8
0
  6
Continuous
 62
   179
370
     0
100
AcDbLine
 10
2576.8191555592
 20
304.8670971919
 30
0.0
 11
2580.8824825864
 21
312.0907896817
 31
0.0
  0
LINE
  5
B0
330
1F
100
AcDbEntity
  8
0
  6
Continuous
 62
   179
370
     0
100
AcDbLine
 10
2593.0724636674
 20
333.7618671594
 30
0.0
 11
2601.1991177219
 21
319.3144821729
 31
0.0
  0
LINE
  5
B1
330
1F
100
AcDbEntity
  8
0
  6
Continuous
 62
   179
370
     0
100
AcDbLine
 10
2584.9458096129
 20
319.3144821729
 30
0.0
 11
2593.0724636674
 21
333.7618671594
 31
0.0
  0
LINE
  5
B2
330
1F
100
AcDbEntity
  8
0
  6
Continuous
 62
   179
370
     0
100
AcDbLine
 10
2584.9458096129
 20
319.3144821729
 30
0.0
 11
2601.1991177219
 21
319.3144821729
 31
0.0
  0
LINE
  5
B3
330
1F
100
AcDbEntity
  8
0
  6
Continuous
 62
   179
370
     0
100
AcDbLine
 10
2580.8824825864
 20
312.0907896817
 30
0.0
 11
2605.26244475
 21
312.0907896817
 31
0.0
  0
LINE
  5
B4
330
1F
100
AcDbEntity
  8
0
  6
Continuous
 62
   179
370
     0
100
AcDbLine
 10
2605.26244475
 20
312.0907896817
 30
0.0
 11
2609.3257717771
 21
304.8670971919
 31
0.0
  0
LINE
  5
B5
330
1F
100
AcDbEntity
  8
0
  6
Continuous
 62
   179
370
     0
100
AcDbLine
 10
2627.3850030087
 20
344.5974058996
 30
0.0
 11
2627.3850030087
 21
304.8670971919
 31
0.0
  0
LINE
  5
B6
330
1F
100
AcDbEntity
  8
0
  6
Continuous
 62
   179
370
     0
100
AcDbLine
 10
2602.1020792839
 20
344.5974058996
 30
0.0
 11
2627.3850030087
 21
304.8670971919
 31
0.0
  0
LINE
  5
B7
330
1F
100
AcDbEntity
  8
0
  6
Continuous
 62
   179
370
     0
100
AcDbLine
 10
2609.3257717771
 20
304.8670971919
 30
0.0
 11
2627.3850030087
 21
304.8670971919
 31
0.0
  0
LINE
  5
B8
330
1F
100
AcDbEntity
  8
0
  6
Continuous
 62
   179
370
     0
100
AcDbLine
 10
2627.3850030087
 20
304.8670971919
 30
0.0
 11
2676.1449273357
 21
304.8670971919
 31
0.0
  0
LINE
  5
B9
330
1F
100
AcDbEntity
  8
0
  6
Continuous
 62
   179
370
     0
100
AcDbLine
 10
2676.1449273357
 20
304.8670971919
 30
0.0
 11
2676.1449273357
 21
313.8967128076
 31
0.0
  0
LINE
  5
BA
330
1F
100
AcDbEntity
  8
0
  6
Continuous
 62
   179
370
     0
100
AcDbLine
 10
2676.1449273357
 20
313.8967128076
 30
0.0
 11
2645.44423424
 21
313.8967128076
 31
0.0
  0
LINE
  5
BB
330
1F
100
AcDbEntity
  8
0
  6
Continuous
 62
   179
370
     0
100
AcDbLine
 10
2645.44423424
 20
313.8967128076
 30
0.0
 11
2645.44423424
 21
344.5974058996
 31
0.0
  0
LINE
  5
BC
330
1F
100
AcDbEntity
  8
0
  6
Continuous
 62
   179
370
     0
100
AcDbLine
 10
2627.3850030087
 20
344.5974058996
 30
0.0
 11
2645.44423424
 21
344.5974058996
 31
0.0
  0
LINE
  5
BD
330
1F
100
AcDbEntity
  8
0
  6
Continuous
 62
   179
370
     0
100
AcDbLine
 10
2677.9508504573
 20
344.5974058992
 30
0.0
 11
2677.9508504573
 21
304.8670971915
 31
0.0
  0
LINE
  5
BE
330
1F
100
AcDbEntity
  8
0
  6
Continuous
 62
   179
370
     0
100
AcDbLine
 10
2696.0100816887
 20
344.5974058992
 30
0.0
 11
2696.0100816887
 21
304.8670971915
 31
0.0
  0
LINE
  5
BF
330
1F
100
AcDbEntity
  8
0
  6
Continuous
 62
   179
370
     0
100
AcDbLine
 10
2677.9508504573
 20
344.5974058992
 30
0.0
 11
2696.0100816887
 21
344.5974058992
 31
0.0
  0
LINE
  5
C0
330
1F
100
AcDbEntity
  8
0
  6
Continuous
 62
   179
370
     0
100
AcDbLine
 10
2677.9508504573
 20
304.8670971915
 30
0.0
 11
2696.0100816887
 21
304.8670971915
 31
0.0
  0
LINE
  5
C1
330
1F
100
AcDbEntity
  8
0
  6
Continuous
 62
   179
370
     0
100
AcDbLine
 10
2704.1151644241
 20
341.2930554229
 30
0.0
 11
2708.2866879839
 21
341.2930554229
 31
0.0
  0
LINE
  5
C2
330
1F
100
AcDbEntity
  8
0
  6
Continuous
 62
   179
370
     0
100
AcDbLine
 10
2708.2866879839
 20
338.5841707372
 30
0.0
 11
2704.1151644241
 21
338.5841707372
 31
0.0
  0
LINE
  5
C3
330
1F
100
AcDbEntity
  8
0
  6
Continuous
 62
   179
370
     0
100
AcDbLine
 10
2704.1151644241
 20
338.5841707372
 30
0.0
 11
2704.1151644241
 21
341.2930554229
 31
0.0
  0
LINE
  5
C4
330
1F
100
AcDbEntity
  8
0
  6
Continuous
 62
   179
370
     0
100
AcDbLine
 10
2704.1151644241
 20
338.5841707372
 30
0.0
 11
2706.8240491077
 21
338.5841707372
 31
0.0
  0
LINE
  5
C5
330
1F
100
AcDbEntity
  8
0
  6
Continuous
 62
   179
370
     0
100
AcDbLine
 10
2704.1151644241
 20
338.5841707372
 30
0.0
 11
2704.1151644241
 21
334.5208437117
 31
0.0
  0
LINE
  5
C6
330
1F
100
AcDbEntity
  8
0
  6
Continuous
 62
   179
370
     0
100
AcDbLine
 10
2709.5329337914
 20
334.5208437117
 30
0.0
 11
2706.8240491077
 21
338.5841707372
 31
0.0
  0
LINE
  5
C7
330
1F
100
AcDbEntity
  8
0
  6
Continuous
 62
     7
370
     0
100
AcDbLine
 10
2150.0
 20
190.0000000002
 30
0.0
 11
2870.0
 21
190.0000000002
 31
0.0
  0
LINE
  5
C8
330
1F
100
AcDbEntity
  8
0
  6
Continuous
 62
     7
370
     0
100
AcDbLine
 10
2870.0
 20
280.0000000004
 30
0.0
 11
2150.0
 21
280.0000000004
 31
0.0
  0
LINE
  5
C9
330
1F
100
AcDbEntity
  8
0
  6
Continuous
 62
     7
370
     0
100
AcDbLine
 10
100.0
 20
550.0
 30
0.0
 11
100.0
 21
650.0
 31
0.0
  0
LINE
  5
CA
330
1F
100
AcDbEntity
  8
0
  6
Continuous
 62
     7
370
     0
100
AcDbLine
 10
100.0
 20
650.0
 30
0.0
 11
100.0
 21
750.0
 31
0.0
  0
LINE
  5
CB
330
1F
100
AcDbEntity
  8
0
  6
Continuous
 62
     7
370
     0
100
AcDbLine
 10
100.0
 20
750.0
 30
0.0
 11
100.0
 21
850.0
 31
0.0
  0
LINE
  5
CC
330
1F
100
AcDbEntity
  8
0
  6
Continuous
 62
     7
370
     0
100
AcDbLine
 10
100.0
 20
850.0
 30
0.0
 11
100.0
 21
950.0
 31
0.0
  0
LINE
  5
CD
330
1F
100
AcDbEntity
  8
0
  6
Continuous
 62
     7
370
     0
100
AcDbLine
 10
100.0
 20
950.0
 30
0.0
 11
100.0
 21
1050.0
 31
0.0
  0
LINE
  5
CE
330
1F
100
AcDbEntity
  8
0
  6
Continuous
 62
     7
370
     0
100
AcDbLine
 10
100.0
 20
1050.0
 30
0.0
 11
100.0
 21
1150.0
 31
0.0
  0
LINE
  5
CF
330
1F
100
AcDbEntity
  8
0
  6
Continuous
 62
     7
370
     0
100
AcDbLine
 10
100.0
 20
1150.0
 30
0.0
 11
100.0
 21
1250.0
 31
0.0
  0
LINE
  5
D0
330
1F
100
AcDbEntity
  8
0
  6
Continuous
 62
     7
370
     0
100
AcDbLine
 10
100.0
 20
1250.0
 30
0.0
 11
100.0
 21
1350.0
 31
0.0
  0
LINE
  5
D1
330
1F
100
AcDbEntity
  8
0
  6
Continuous
 62
     7
370
     0
100
AcDbLine
 10
100.0
 20
1350.0
 30
0.0
 11
100.0
 21
1450.0
 31
0.0
  0
LINE
  5
D2
330
1F
100
AcDbEntity
  8
0
  6
Continuous
 62
     7
370
     0
100
AcDbLine
 10
100.0
 20
1450.0
 30
0.0
 11
100.0
 21
1550.0
 31
0.0
  0
LINE
  5
D3
330
1F
100
AcDbEntity
  8
0
  6
Continuous
 62
     7
370
    15
100
AcDbLine
 10
2150.0
 20
370.0000000006
 30
0.0
 11
2150.0
 21
100.0
 31
0.0
  0
ARC
  5
D4
330
1F
100
AcDbEntity
  8
0
  6
Continuous
 62
   179
370
     0
100
AcDbCircle
 10
2352.923880981
 20
330.1500209155
 30
0.0
 40
7.223692490816169
100
AcDbArc
 50
69.991210111
 51
90.0
  0
ARC
  5
D5
330
1F
100
AcDbEntity
  8
0
  6
Continuous
 62
   179
370
     0
100
AcDbCircle
 10
2352.9238809804
 20
333.7618671601
 30
0.0
 40
7.223692492544103
100
AcDbArc
 50
270.0
 51
290.0087898887
  0
ARC
  5
D6
330
1F
100
AcDbEntity
  8
0
  6
Continuous
 62
   179
370
     0
100
AcDbCircle
 10
2472.947172768
 20
324.7322515422
 30
0.0
 40
10.8355387405187
100
AcDbArc
 50
56.1685552524
 51
90.0
  0
ARC
  5
D7
330
1F
100
AcDbEntity
  8
0
  6
Continuous
 62
   179
370
     0
100
AcDbCircle
 10
2472.947172768
 20
324.7322515422
 30
0.0
 40
10.83553873998012
100
AcDbArc
 50
270.0
 51
303.830934914
  0
ARC
  5
D8
330
1F
100
AcDbEntity
  8
0
  6
Continuous
 62
   179
370
     0
100
AcDbCircle
 10
2538.8947699699
 20
312.0907896827
 30
0.0
 40
7.223692493244471
100
AcDbArc
 50
0.0
 51
90.0
  0
ARC
  5
D9
330
1F
100
AcDbEntity
  8
0
  6
Continuous
 62
   179
370
     0
100
AcDbCircle
 10
2538.4781724187
 20
331.9559440374
 30
0.0
 40
5.417769369443558
100
AcDbArc
 50
54.413089495
 51
90.0
  0
ARC
  5
DA
330
1F
100
AcDbEntity
  8
0
  6
Continuous
 62
   179
370
     0
100
AcDbCircle
 10
2538.4781724187
 20
331.9559440374
 30
0.0
 40
5.417769370214614
100
AcDbArc
 50
270.0
 51
305.5869104966
  0
ARC
  5
DB
330
1F
100
AcDbEntity
  8
0
  6
Continuous
 62
   179
370
     0
100
AcDbCircle
 10
2549.0375849296
 20
312.9627960708
 30
0.0
 40
9.997490267756625
100
AcDbArc
 50
10.4199484279
 51
80.7321727594
  0
ARC
  5
DC
330
1F
100
AcDbEntity
  8
0
  6
Continuous
 62
   179
370
     0
100
AcDbCircle
 10
2565.4535666376
 20
310.1143839674
 30
0.0
 40
5.225410873593643
100
AcDbArc
 50
192.6768785101
 51
204.7368873207
  0
CIRCLE
  5
DD
330
1F
100
AcDbEntity
  8
0
  6
Continuous
 62
   179
370
     0
100
AcDbCircle
 10
2706.2864208618
 20
337.8675697335
 30
0.0
 40
5.930102145230649
  0
CIRCLE
  5
DE
330
1F
100
AcDbEntity
  8
0
  6
Continuous
 62
    19
370
     0
100
AcDbCircle
 10
2821.3505851521
 20
145.1845937544
 30
0.0
 40
8.587078762764193
  0
CIRCLE
  5
DF
330
1F
100
AcDbEntity
  8
0
  6
Continuous
 62
    19
370
     0
100
AcDbCircle
 10
2821.3505851521
 20
145.1845937544
 30
0.0
 40
16.77593581663705
  0
ELLIPSE
  5
E0
330
1F
100
AcDbEntity
  8
0
  6
Continuous
 62
   179
370
     0
100
AcDbEllipse
 10
2350.175803597
 20
331.955944037
 30
0.0
 11
9.932577177642086
 21
0.0
 31
0.0
210
0.0
220
0.0
230
1.0
 40
0.5895245511
 41
5.265715075739357
 42
7.300655538615938
  0
ELLIPSE
  5
E1
330
1F
100
AcDbEntity
  8
0
  6
Continuous
 62
   179
370
     0
100
AcDbEllipse
 10
2462.1430372376
 20
324.7322515426
 30
0.0
 11
22.57403904004605
 21
0.0
 31
0.0
210
0.0
220
0.0
230
1.0
 40
0.5985848325
 41
5.554193105221712
 42
7.012172182744729
  0
ELLIPSE
  5
E2
330
1F
100
AcDbEntity
  8
0
  6
Continuous
 62
   179
370
     0
100
AcDbEllipse
 10
2532.5740390411
 20
331.955944037
 30
0.0
 11
11.73850030081758
 21
0.0
 31
0.0
210
0.0
220
0.0
230
1.0
 40
0.5900077182
 41
5.593675727225931
 42
6.97269488710657
  0
ELLIPSE
  5
E3
330
1F
100
AcDbEntity
  8
0
  6
Continuous
 62
   179
370
     0
100
AcDbEllipse
 10
2538.0299477069
 20
332.9364020823
 30
0.0
 11
24.3266662253518
 21
0.0
 31
0.0
210
0.0
220
0.0
230
1.0
 40
0.485929116
 41
5.257694056962849
 42
7.689248379254996
  0
ELLIPSE
  5
E4
330
1F
100
AcDbEntity
  8
0
  6
Continuous
 62
   179
370
     0
100
AcDbEllipse
 10
2468.4637681651
 20
324.7322515426
 30
0.0
 11
28.89476997115571
 21
0.0
 31
0.0
210
0.0
220
0.0
230
1.0
 40
0.6929224243
 41
4.837574201223028
 42
7.72879641314261
  0
ELLIPSE
  5
E5
330
1F
100
AcDbEntity
  8
0
  6
Continuous
 62
   179
370
     0
100
AcDbEllipse
 10
2351.0787651571
 20
331.955944037
 30
0.0
 11
27.0888468479834
 21
0.0
 31
0.0
210
0.0
220
0.0
230
1.0
 40
0.4768529109
 41
4.919453630382234
 42
7.646916983963972
  0
ELLIPSE
  5
E6
330
1F
100
AcDbEntity
  8
0
  6
Continuous
 62
   179
370
     0
100
AcDbEllipse
 10
2708.0427484413
 20
339.93861308
 30
0.0
 11
1.490185355941776
 21
0.0
 31
0.0
210
0.0
220
0.0
230
1.0
 40
0.9213369296
 41
4.876826485633947
 42
7.68954412872528
  0
MTEXT
  5
E8
330
1F
100
AcDbEntity
  8
0
  6
Continuous
 62
     7
370
     0
100
AcDbMText
 10
2231.444945447
 20
165.6379924371
 30
0.0
 40
37.0416666667
 41
0.0
 71
     1
 72
     1
  1
4843
  7
SLDTEXTSTYLE0
 73
     1
 44
1.0
  0
MTEXT
  5
E9
330
1F
100
AcDbEntity
  8
0
  6
Continuous
 62
     7
370
     0
100
AcDbMText
 10
2158.8845987823
 20
146.3871334973
 30
0.0
 40
18.0
 41
0.0
 71
     1
 72
     1
  1
COD.
  7
SLDTEXTSTYLE0
 73
     1
 44
1.0
  0
MTEXT
  5
EA
330
1F
100
AcDbEntity
  8
0
  6
Continuous
 62
     7
370
     0
100
AcDbMText
 10
107.0855178468
 20
74.7215172182
 30
0.0
 40
18.0
 41
0.0
 71
     1
 72
     1
  1
This document is the property of PEDRALI S.p.A. who willsafeguard its rights according to the civil and penal prevision of the Law.
  7
SLDTEXTSTYLE0
 73
     1
 44
1.0
  0
INSERT
  5
F0
330
1F
100
AcDbEntity
  8
0
  6
Continuous
 62
     7
370
     0
100
AcDbBlockReference
  2
SW_NOTE_0
 10
1440.8605986612
 20
53.5813398756
 30
0.0
  0
MTEXT
  5
F1
330
1F
100
AcDbEntity
  8
0
  6
Continuous
 62
     7
370
     0
100
AcDbMText
 10
2158.8845987823
 20
234.3102099637
 30
0.0
 40
18.0
 41
0.0
 71
     1
 72
     1
  1
SERIE:
  7
SLDTEXTSTYLE0
 73
     1
 44
1.0
  0
MTEXT
  5
F2
330
1F
100
AcDbEntity
  8
0
  6
Continuous
 62
     7
370
     0
100
AcDbMText
 10
2231.444945447
 20
253.5610689035
 30
0.0
 40
37.0416666667
 41
0.0
 71
     1
 72
     1
  1
DREAM
  7
SLDTEXTSTYLE0
 73
     1
 44
1.0
  0
INSERT
  5
F8
330
1F
100
AcDbEntity
  8
0
  6
Continuous
 62
     7
370
     0
100
AcDbBlockReference
  2
SW_NOTE_1
 10
2766.9883061954
 20
242.6632128381
 30
0.0
  0
LINE
  5
F9
330
1F
100
AcDbEntity
  8
0
  6
Continuous
 62
     7
370
    15
100
AcDbLine
 10
1423.7021612843
 20
1235.4959734087
 30
0.0
 11
1423.7021612843
 21
1228.9959734087
 31
0.0
  0
LINE
  5
FA
330
1F
100
AcDbEntity
  8
0
  6
Continuous
 62
     7
370
    15
100
AcDbLine
 10
1485.2021612843
 20
1228.9959734087
 30
0.0
 11
1485.2021612843
 21
1235.4959734087
 31
0.0
  0
SPLINE
  5
FB
330
1F
100
AcDbEntity
  8
0
  6
Continuous
 62
     7
370
    15
100
AcDbSpline
210
0.0
220
0.0
230
1.0
 70
     8
 71
     3
 72
    55
 73
    51
 74
     0
 42
0.000000001
 43
0.00000001
 40
0.0
 40
0.0
 40
0.0
 40
0.0
 40
0.0320691654310433
 40
0.0638224864831381
 40
0.09524751016585
 40
0.126332206765422
 40
0.1570650100683951
 40
0.1874348616364938
 40
0.2174312595896832
 40
0.2445914816661101
 40
0.2714224566122089
 40
0.2979175730793065
 40
0.3240707809301193
 40
0.3498766418432892
 40
0.3753303846912878
 40
0.4004279661001049
 40
0.4251661366065412
 40
0.4495425128254197
 40
0.4735556560203061
 40
0.4972051574318302
 40
0.5204917306506394
 40
0.5421170187570101
 40
0.5634240874792061
 40
0.5844167737033983
 40
0.6051001386294352
 40
0.6254805614509612
 40
0.6437519851441195
 40
0.6617864138183065
 40
0.6795918835236933
 40
0.6971775888562922
 40
0.7145539430761142
 40
0.7317326350944638
 40
0.7487266816545501
 40
0.7641547449702896
 40
0.7794518610778518
 40
0.794631166667079
 40
0.8097068203589335
 40
0.8246940029970583
 40
0.8396089078951776
 40
0.854468720109147
 40
0.8692915840444778
 40
0.8840965590250693
 40
0.8989035628273082
 40
0.9137333036085642
 40
0.9286072011061363
 40
0.9426915069409375
 40
0.9568535672516546
 40
0.9711126308374249
 40
0.9854882096893997
 40
0.9999999999999999
 40
0.9999999999999999
 40
0.9999999999999999
 40
0.9999999999999999
 10
1736.952161284275
 20
1106.995973408674
 30
0.0
 10
1733.759753934752
 20
1107.087270263057
 30
0.0
 10
1727.40638077474
 20
1107.268964802858
 30
0.0
 10
1717.93037630092
 20
1107.700653535894
 30
0.0
 10
1708.558831508473
 20
1108.249542856703
 30
0.0
 10
1699.297577034145
 20
1108.928095559166
 30
0.0
 10
1690.152095716368
 20
1109.734762861618
 30
0.0
 10
1681.127964763824
 20
1110.671691348005
 30
0.0
 10
1672.473260017407
 20
1111.710930711896
 30
0.0
 10
1664.18555767572
 20
1112.840977174074
 30
0.0
 10
1656.261521333601
 20
1114.049901057192
 30
0.0
 10
1648.457354500406
 20
1115.372591428952
 30
0.0
 10
1640.777331890159
 20
1116.810110384797
 30
0.0
 10
1633.225729904089
 20
1118.363521220012
 30
0.0
 10
1625.80682354076
 20
1120.033888177982
 30
0.0
 10
1618.524887241324
 20
1121.822276747245
 30
0.0
 10
1611.384194581158
 20
1123.729753892932
 30
0.0
 10
1604.389018841744
 20
1125.7573881816
 30
0.0
 10
1597.543631432227
 20
1127.906250557112
 30
0.0
 10
1590.852308125193
 20
1130.177412843984
 30
0.0
 10
1584.440901883302
 20
1132.527386526569
 30
0.0
 10
1578.306084120109
 20
1134.948199857588
 30
0.0
 10
1572.443595262824
 20
1137.431554062606
 30
0.0
 10
1566.732847718695
 20
1140.027353743724
 30
0.0
 10
1561.177430114265
 20
1142.736506729667
 30
0.0
 10
1555.94098094
 20
1145.476187088471
 30
0.0
 10
1551.014278353294
 20
1148.233683939688
 30
0.0
 10
1546.386687824149
 20
1150.996321638783
 30
0.0
 10
1541.898827930981
 20
1153.855505493572
 30
0.0
 10
1537.553398251674
 20
1156.811926860688
 30
0.0
 10
1533.353104257553
 20
1159.866277194584
 30
0.0
 10
1529.300660657349
 20
1163.019242970682
 30
0.0
 10
1525.50555219942
 20
1166.182522514819
 30
0.0
 10
1521.958040798221
 20
1169.345810498901
 30
0.0
 10
1518.647201805274
 20
1172.499308084112
 30
0.0
 10
1515.469365399983
 20
1175.737855454838
 30
0.0
 10
1512.426627148709
 20
1179.061981573107
 30
0.0
 10
1509.521090120744
 20
1182.472209123523
 30
0.0
 10
1506.754858330506
 20
1185.969058884818
 30
0.0
 10
1504.13003812122
 20
1189.553047860401
 30
0.0
 10
1501.648736466031
 20
1193.224689158183
 30
0.0
 10
1499.313062866448
 20
1196.984491506534
 30
0.0
 10
1497.125119171208
 20
1200.832959189339
 30
0.0
 10
1495.08703353095
 20
1204.770591594948
 30
0.0
 10
1493.23698643794
 20
1208.720684406257
 30
0.0
 10
1491.567108861973
 20
1212.677966083262
 30
0.0
 10
1490.067994446178
 20
1216.637753659196
 30
0.0
 10
1488.71220862213
 20
1220.679166533314
 30
0.0
 10
1487.487675647373
 20
1224.79936404305
 30
0.0
 10
1486.798416084675
 20
1227.592713164266
 30
0.0
 10
1486.452161284275
 20
1228.995973408674
 30
0.0
  0
SPLINE
  5
FC
330
1F
100
AcDbEntity
  8
0
  6
Continuous
 62
     7
370
    15
100
AcDbSpline
210
0.0
220
0.0
230
1.0
 70
     8
 71
     3
 72
    55
 73
    51
 74
     0
 42
0.000000001
 43
0.00000001
 40
0.0
 40
0.0
 40
0.0
 40
0.0
 40
0.0139642353499629
 40
0.0278016999062588
 40
0.0415299409833676
 40
0.0551663532111936
 40
0.0687281134077514
 40
0.0822321160203213
 40
0.0980955543786778
 40
0.1139281025353228
 40
0.1297552162997063
 40
0.1456013321842244
 40
0.1618145779844589
 40
0.1780953832127112
 40
0.1944658787602409
 40
0.210946784604846
 40
0.227557381790827
 40
0.2443155024933851
 40
0.2612375363477275
 40
0.2783384509416813
 40
0.2956318242381977
 40
0.3131298866883298
 40
0.3308435708889123
 40
0.3487825668041872
 40
0.3669553807809826
 40
0.3853693968204631
 40
0.4059108015886614
 40
0.4267587265215061
 40
0.4479188348089897
 40
0.4693955221765852
 40
0.491192008398317
 40
0.5146612477101834
 40
0.5384939212656696
 40
0.5626901653221441
 40
0.5872490412102574
 40
0.6121686241281006
 40
0.637446085024901
 40
0.6616036686084983
 40
0.6860724641033872
 40
0.7108482322803072
 40
0.7359262242060466
 40
0.7613012211830819
 40
0.7899652379803987
 40
0.8189837206758067
 40
0.8483476604519162
 40
0.8780475303921699
 40
0.9080733295502672
 40
0.9384146230579706
 40
0.9690605786561803
 40
0.9999999999999999
 40
0.9999999999999999
 40
0.9999999999999999
 40
0.9999999999999999
 10
1422.452161284275
 20
1228.995973408674
 30
0.0
 10
1422.119512933295
 20
1227.645540445152
 30
0.0
 10
1421.457236095611
 20
1224.956934083655
 30
0.0
 10
1420.287298893203
 20
1220.988636487353
 30
0.0
 10
1418.995772434852
 20
1217.093282833934
 30
0.0
 10
1417.571409345902
 20
1213.273525013352
 30
0.0
 10
1416.01915632674
 20
1209.528188097219
 30
0.0
 10
1414.240221858677
 20
1205.639707162104
 30
0.0
 10
1412.208042115687
 20
1201.621684516281
 30
0.0
 10
1409.895431183726
 20
1197.490943425178
 30
0.0
 10
1407.413619898507
 20
1193.461640478239
 30
0.0
 10
1404.747106743201
 20
1189.506356701018
 30
0.0
 10
1401.894502104378
 20
1185.626850246171
 30
0.0
 10
1398.854772348794
 20
1181.825120706652
 30
0.0
 10
1395.649718394792
 20
1178.126414847174
 30
0.0
 10
1392.282078792498
 20
1174.530056211109
 30
0.0
 10
1388.754586652618
 20
1171.035360991633
 30
0.0
 10
1385.06997099604
 20
1167.641642493908
 30
0.0
 10
1381.230956062551
 20
1164.34821128131
 30
0.0
 10
1377.240261477672
 20
1161.154376408105
 30
0.0
 10
1373.100602393186
 20
1158.059446198812
 30
0.0
 10
1368.81468993619
 20
1155.062729053766
 30
0.0
 10
1364.385231221288
 20
1152.163533787034
 30
0.0
 10
1359.814931339793
 20
1149.361170971807
 30
0.0
 10
1355.106488019821
 20
1146.654949818575
 30
0.0
 10
1350.09779816085
 20
1143.955358653086
 30
0.0
 10
1344.778515068392
 20
1141.275013533103
 30
0.0
 10
1339.139670616454
 20
1138.626532767689
 30
0.0
 10
1333.347411368342
 20
1136.090918950514
 30
0.0
 10
1327.405325174741
 20
1133.667265562499
 30
0.0
 10
1321.19123183008
 20
1131.306897573513
 30
0.0
 10
1314.701045935487
 20
1129.018050343575
 30
0.0
 10
1307.931586338976
 20
1126.808626451998
 30
0.0
 10
1301.010214655376
 20
1124.72096182738
 30
0.0
 10
1293.941206278441
 20
1122.753985579289
 30
0.0
 10
1286.728834583624
 20
1120.906628451968
 30
0.0
 10
1279.520278080922
 20
1119.2114281247
 30
0.0
 10
1272.325699666562
 20
1117.658759217359
 30
0.0
 10
1265.15451141907
 20
1116.239786065458
 30
0.0
 10
1257.870630208629
 20
1114.923474766664
 30
0.0
 10
1250.477636912268
 20
1113.708933606848
 30
0.0
 10
1242.683825942101
 20
1112.55141880153
 30
0.0
 10
1234.483679733646
 20
1111.465042535041
 30
0.0
 10
1225.872684620226
 20
1110.463706407695
 30
0.0
 10
1217.144704013612
 20
1109.584397536419
 30
0.0
 10
1208.304722705906
 20
1108.826070193855
 30
0.0
 10
1199.357743964883
 20
1108.186770724017
 30
0.0
 10
1190.30868795734
 20
1107.66799027312
 30
0.0
 10
1181.162797545243
 20
1107.258166240939
 30
0.0
 10
1175.03211132364
 20
1107.083648223006
 30
0.0
 10
1171.952161284275
 20
1106.995973408674
 30
0.0
  0
LINE
  5
FD
330
1F
100
AcDbEntity
  8
0
  6
Continuous
 62
     7
370
    15
100
AcDbLine
 10
1736.9521612843
 20
1096.9959734087
 30
0.0
 11
1736.9521612843
 21
1106.9959734087
 31
0.0
  0
LINE
  5
FE
330
1F
100
AcDbEntity
  8
0
  6
Continuous
 62
     7
370
    15
100
AcDbLine
 10
1171.9521612843
 20
1106.9959734087
 30
0.0
 11
1171.9521612843
 21
1096.9959734087
 31
0.0
  0
LINE
  5
FF
330
1F
100
AcDbEntity
  8
0
  6
Continuous
 62
     7
370
    15
100
AcDbLine
 10
1424.4521612843
 20
1796.4959734087
 30
0.0
 11
1424.4521612843
 21
1235.4959734087
 31
0.0
  0
LINE
  5
100
330
1F
100
AcDbEntity
  8
0
  6
Continuous
 62
     7
370
    15
100
AcDbLine
 10
1484.4521612843
 20
1235.4959734087
 30
0.0
 11
1484.4521612843
 21
1796.4959734087
 31
0.0
  0
LINE
  5
101
330
1F
100
AcDbEntity
  8
0
  6
Continuous
 62
     7
370
    15
100
AcDbLine
 10
1291.7756012269
 20
1820.4959734087
 30
0.0
 11
1293.0404687392
 21
1811.4959734087
 31
0.0
  0
LINE
  5
102
330
1F
100
AcDbEntity
  8
0
  6
Continuous
 62
     7
370
    15
100
AcDbLine
 10
1615.8638538293
 20
1811.4959734087
 30
0.0
 11
1617.1287213416
 21
1820.4959734087
 31
0.0
  0
ARC
  5
103
330
1F
100
AcDbEntity
  8
0
  6
Continuous
 62
     7
370
    15
100
AcDbCircle
 10
1400.9127524893
 20
1801.4959734087
 30
0.0
 40
5.000000000000009
100
AcDbArc
 50
239.7738575575
 51
270.0
  0
ARC
  5
104
330
1F
100
AcDbEntity
  8
0
  6
Continuous
 62
     7
370
    15
100
AcDbCircle
 10
1507.9915700792
 20
1801.4959734087
 30
0.0
 40
5.000000000000009
100
AcDbArc
 50
270.0
 51
300.2261424425
  0
LINE
  5
105
330
1F
100
AcDbEntity
  8
0
  6
Continuous
 62
     7
370
    15
100
AcDbLine
 10
1333.4521612843
 20
1091.9959734087
 30
0.0
 11
1333.4521612843
 21
1096.9959734087
 31
0.0
  0
LINE
  5
106
330
1F
100
AcDbEntity
  8
0
  6
Continuous
 62
     7
370
    15
100
AcDbLine
 10
1315.4521612843
 20
1096.9959734087
 30
0.0
 11
1315.4521612843
 21
1091.9959734087
 31
0.0
  0
LINE
  5
107
330
1F
100
AcDbEntity
  8
0
  6
Continuous
 62
     7
370
    15
100
AcDbLine
 10
1593.4521612843
 20
1091.9959734087
 30
0.0
 11
1593.4521612843
 21
1096.9959734087
 31
0.0
  0
LINE
  5
108
330
1F
100
AcDbEntity
  8
0
  6
Continuous
 62
     7
370
    15
100
AcDbLine
 10
1575.4521612843
 20
1096.9959734087
 30
0.0
 11
1575.4521612843
 21
1091.9959734087
 31
0.0
  0
LINE
  5
109
330
1F
100
AcDbEntity
  8
0
  6
Continuous
 62
     7
370
    15
100
AcDbLine
 10
1203.4521612843
 20
1091.9959734087
 30
0.0
 11
1203.4521612843
 21
1096.9959734087
 31
0.0
  0
LINE
  5
10A
330
1F
100
AcDbEntity
  8
0
  6
Continuous
 62
     7
370
    15
100
AcDbLine
 10
1185.4521612843
 20
1096.9959734087
 30
0.0
 11
1185.4521612843
 21
1091.9959734087
 31
0.0
  0
LINE
  5
10B
330
1F
100
AcDbEntity
  8
0
  6
Continuous
 62
     7
370
    15
100
AcDbLine
 10
1723.4521612843
 20
1091.9959734087
 30
0.0
 11
1723.4521612843
 21
1096.9959734087
 31
0.0
  0
LINE
  5
10C
330
1F
100
AcDbEntity
  8
0
  6
Continuous
 62
     7
370
    15
100
AcDbLine
 10
1705.4521612843
 20
1096.9959734087
 30
0.0
 11
1705.4521612843
 21
1091.9959734087
 31
0.0
  0
LINE
  5
10D
330
1F
100
AcDbEntity
  8
0
  6
Continuous
 62
     7
370
    15
100
AcDbLine
 10
1423.7021612843
 20
1235.4959734087
 30
0.0
 11
1485.2021612843
 21
1235.4959734087
 31
0.0
  0
LINE
  5
10E
330
1F
100
AcDbEntity
  8
0
  6
Continuous
 62
     7
370
    15
100
AcDbLine
 10
1736.9521612843
 20
1106.9959734087
 30
0.0
 11
1171.9521612843
 21
1106.9959734087
 31
0.0
  0
LINE
  5
10F
330
1F
100
AcDbEntity
  8
0
  6
Continuous
 62
     7
370
    15
100
AcDbLine
 10
1422.4521612856
 20
1228.9959734087
 30
0.0
 11
1486.4521612843
 21
1228.9959734087
 31
0.0
  0
LINE
  5
110
330
1F
100
AcDbEntity
  8
0
  6
Continuous
 62
     7
370
    15
100
AcDbLine
 10
1736.9521612843
 20
1096.9959734087
 30
0.0
 11
1171.9521612843
 21
1096.9959734087
 31
0.0
  0
LINE
  5
111
330
1F
100
AcDbEntity
  8
0
  6
Continuous
 62
     7
370
    15
100
AcDbLine
 10
1321.8244656828
 20
1811.4959734087
 30
0.0
 11
1293.0404687392
 21
1811.4959734087
 31
0.0
  0
LINE
  5
112
330
1F
100
AcDbEntity
  8
0
  6
Continuous
 62
     7
370
    15
100
AcDbLine
 10
1322.7031164878
 20
1820.4959734087
 30
0.0
 11
1291.7756012269
 21
1820.4959734087
 31
0.0
  0
LINE
  5
113
330
1F
100
AcDbEntity
  8
0
  6
Continuous
 62
     7
370
    15
100
AcDbLine
 10
1615.8638538293
 20
1811.4959734087
 30
0.0
 11
1587.0798568857
 21
1811.4959734087
 31
0.0
  0
LINE
  5
114
330
1F
100
AcDbEntity
  8
0
  6
Continuous
 62
     7
370
    15
100
AcDbLine
 10
1617.1287213416
 20
1820.4959734087
 30
0.0
 11
1586.2012060808
 21
1820.4959734087
 31
0.0
  0
LINE
  5
115
330
1F
100
AcDbEntity
  8
0
  6
Continuous
 62
     7
370
    15
100
AcDbLine
 10
1421.0332139378
 20
1811.4959734087
 30
0.0
 11
1321.8244656828
 21
1811.4959734087
 31
0.0
  0
LINE
  5
116
330
1F
100
AcDbEntity
  8
0
  6
Continuous
 62
     7
370
    15
100
AcDbLine
 10
1421.3160916063
 20
1820.4959734087
 30
0.0
 11
1322.7031164878
 21
1820.4959734087
 31
0.0
  0
LINE
  5
117
330
1F
100
AcDbEntity
  8
0
  6
Continuous
 62
     7
370
    15
100
AcDbLine
 10
1587.0798568857
 20
1811.4959734087
 30
0.0
 11
1487.8711086307
 21
1811.4959734087
 31
0.0
  0
LINE
  5
118
330
1F
100
AcDbEntity
  8
0
  6
Continuous
 62
     7
370
    15
100
AcDbLine
 10
1586.2012060808
 20
1820.4959734087
 30
0.0
 11
1487.5882309623
 21
1820.4959734087
 31
0.0
  0
LINE
  5
119
330
1F
100
AcDbEntity
  8
0
  6
Continuous
 62
     7
370
    15
100
AcDbLine
 10
1410.9549368032
 20
1796.53031723
 30
0.0
 11
1411.816122315
 21
1811.4959734087
 31
0.0
  0
ELLIPSE
  5
11A
330
1F
100
AcDbEntity
  8
0
  6
Continuous
 62
     7
370
    15
100
AcDbEllipse
 10
1422.7577427591
 20
1896.4959734087
 30
0.0
 11
19.62423826829741
 21
99.05441950419458
 31
0.0
210
0.0
220
0.0
230
1.0
 40
0.6991049172
 41
3.226860859574688
 42
3.253011659553146
  0
LINE
  5
11B
330
1F
100
AcDbEntity
  8
0
  6
Continuous
 62
     7
370
    15
100
AcDbLine
 10
1409.1024240631
 20
1796.6330199332
 30
0.0
 11
1329.0118506095
 21
1802.5643457984
 31
0.0
  0
ELLIPSE
  5
11C
330
1F
100
AcDbEntity
  8
0
  6
Continuous
 62
     7
370
    15
100
AcDbEllipse
 10
1330.1042761052
 20
1810.5533820764
 30
0.0
 11
1.569939061463629
 21
7.924353560335931
 31
0.0
210
0.0
220
0.0
230
1.0
 40
0.6991049172
 41
1.848050750499108
 42
3.226860859574608
  0
LINE
  5
11D
330
1F
100
AcDbEntity
  8
0
  6
Continuous
 62
     7
370
    15
100
AcDbLine
 10
1324.3461718923
 20
1809.4399972687
 30
0.0
 11
1324.344513546
 21
1811.4959734087
 31
0.0
  0
ELLIPSE
  5
11E
330
1F
100
AcDbEntity
  8
0
  6
Continuous
 62
     7
370
    15
100
AcDbEllipse
 10
1486.1465798094
 20
1896.4959734087
 30
0.0
 11
-19.62423826829786
 21
99.05441950419434
 31
0.0
210
0.0
220
0.0
230
1.0
 40
0.6991049172
 41
3.030173647626475
 42
3.056324447604918
  0
LINE
  5
11F
330
1F
100
AcDbEntity
  8
0
  6
Continuous
 62
     7
370
    15
100
AcDbLine
 10
1497.9493857654
 20
1796.53031723
 30
0.0
 11
1497.0882002536
 21
1811.4959734087
 31
0.0
  0
LINE
  5
120
330
1F
100
AcDbEntity
  8
0
  6
Continuous
 62
     7
370
    15
100
AcDbLine
 10
1584.5581506762
 20
1809.4399972687
 30
0.0
 11
1584.5598090226
 21
1811.4959734087
 31
0.0
  0
ELLIPSE
  5
121
330
1F
100
AcDbEntity
  8
0
  6
Continuous
 62
     7
370
    15
100
AcDbEllipse
 10
1578.8000464633
 20
1810.5533820764
 30
0.0
 11
-1.569939061463856
 21
7.9243535603357
 31
0.0
210
0.0
220
0.0
230
1.0
 40
0.6991049172
 41
3.056324447604874
 42
4.435134556680446
  0
LINE
  5
122
330
1F
100
AcDbEntity
  8
0
  6
Continuous
 62
     7
370
    15
100
AcDbLine
 10
1579.892471959
 20
1802.5643457984
 30
0.0
 11
1499.8018985054
 21
1796.6330199332
 31
0.0
  0
LINE
  5
123
330
1F
100
AcDbEntity
  8
0
  6
Continuous
 62
     7
370
    15
100
AcDbLine
 10
1319.8017427642
 20
1809.4399972687
 30
0.0
 11
1319.3947660776
 21
1811.4959734087
 31
0.0
  0
LINE
  5
124
330
1F
100
AcDbEntity
  8
0
  6
Continuous
 62
     7
370
    15
100
AcDbLine
 10
1589.1025798043
 20
1809.4399972687
 30
0.0
 11
1589.5095564909
 21
1811.4959734087
 31
0.0
  0
ELLIPSE
  5
125
330
1F
100
AcDbEntity
  8
0
  6
Continuous
 62
     7
370
    15
100
AcDbEllipse
 10
1325.2472428169
 20
1810.5533820764
 30
0.0
 11
-1.523563619372681
 21
7.930989607302309
 31
0.0
210
0.0
220
0.0
230
1.0
 40
0.6882053315
 41
1.578978915725663
 42
2.957789024801182
  0
ELLIPSE
  5
126
330
1F
100
AcDbEntity
  8
0
  6
Continuous
 62
     7
370
    15
100
AcDbEllipse
 10
1583.6570797516
 20
1810.5533820764
 30
0.0
 11
1.523563619372453
 21
7.930989607302081
 31
0.0
210
0.0
220
0.0
230
1.0
 40
0.6882053315
 41
3.325396282378435
 42
4.704206391453917
  0
LINE
  5
127
330
1F
100
AcDbEntity
  8
0
  6
Continuous
 62
     7
370
    15
100
AcDbLine
 10
1325.7475545597
 20
1802.5643457984
 30
0.0
 11
1405.7126368907
 21
1796.6330199332
 31
0.0
  0
LINE
  5
128
330
1F
100
AcDbEntity
  8
0
  6
Continuous
 62
     7
370
    15
100
AcDbLine
 10
1503.1916856779
 20
1796.6330199332
 30
0.0
 11
1583.1567680089
 21
1802.5643457984
 31
0.0
  0
LINE
  5
129
330
1F
100
AcDbEntity
  8
0
  6
Continuous
 62
     7
370
    15
100
AcDbLine
 10
1442.7170287966
 20
1811.4959734087
 30
0.0
 11
1441.4521612843
 21
1820.4959734087
 31
0.0
  0
LINE
  5
12A
330
1F
100
AcDbEntity
  8
0
  6
Continuous
 62
     7
370
    15
100
AcDbLine
 10
1466.187293772
 20
1811.4959734087
 30
0.0
 11
1467.4521612843
 21
1820.4959734087
 31
0.0
  0
LINE
  5
12B
330
1F
100
AcDbEntity
  8
0
  6
Continuous
 62
     7
370
    15
100
AcDbLine
 10
1466.187293772
 20
1811.4959734087
 30
0.0
 11
1442.7170287966
 21
1811.4959734087
 31
0.0
  0
LINE
  5
12C
330
1F
100
AcDbEntity
  8
0
  6
Continuous
 62
     7
370
    15
100
AcDbLine
 10
1467.4521612843
 20
1820.4959734087
 30
0.0
 11
1441.4521612843
 21
1820.4959734087
 31
0.0
  0
SPLINE
  5
12D
330
1F
100
AcDbEntity
  8
0
  6
Continuous
 62
     7
370
    15
100
AcDbSpline
210
0.0
220
0.0
230
1.0
 70
    24
 71
     3
 72
    18
 73
    14
 74
     0
 42
0.000000001
 43
0.00000001
 40
0.0
 40
0.0
 40
0.0
 40
0.0
 40
0.0868747316252966
 40
0.1740223341902423
 40
0.2608918456944042
 40
0.3477954579418969
 40
0.4349787683514231
 40
0.521880566076138
 40
0.6082485677602787
 40
0.6948927597036728
 40
0.781263198196926
 40
0.8906296585013248
 40
1.0
 40
1.0
 40
1.0
 40
1.0
 10
1471.95126666487
 20
1811.495973408674
 30
0.0
 10
1471.668059534019
 20
1811.495973408674
 30
0.0
 10
1471.100755727172
 20
1811.495973408674
 30
0.0
 10
1470.295194718959
 20
1811.495973408674
 30
0.0
 10
1469.534890687851
 20
1811.495973408674
 30
0.0
 10
1468.83437010046
 20
1811.495973408674
 30
0.0
 10
1468.199997388285
 20
1811.495973408674
 30
0.0
 10
1467.640961423016
 20
1811.495973408674
 30
0.0
 10
1467.167153762909
 20
1811.495973408674
 30
0.0
 10
1466.780089518311
 20
1811.495973408674
 30
0.0
 10
1466.460155198787
 20
1811.495973408674
 30
0.0
 10
1466.233426639198
 20
1811.495973408674
 30
0.0
 10
1466.202671576271
 20
1811.495973408674
 30
0.0
 10
1466.187293771953
 20
1811.495973408674
 30
0.0
  0
SPLINE
  5
12E
330
1F
100
AcDbEntity
  8
0
  6
Continuous
 62
     7
370
    15
100
AcDbSpline
210
0.0
220
0.0
230
1.0
 70
    24
 71
     3
 72
    18
 73
    14
 74
     0
 42
0.000000001
 43
0.00000001
 40
0.0
 40
0.0
 40
0.0
 40
0.0
 40
0.0877489097456885
 40
0.1757735284430447
 40
0.2635172721047456
 40
0.3512945678269533
 40
0.4393543169360674
 40
0.5271298767015982
 40
0.6143816132945296
 40
0.7019122899264381
 40
0.7891665371711889
 40
0.8945816550196589
 40
1.0
 40
1.0
 40
1.0
 40
1.0
 10
1467.452161284275
 20
1820.495973408674
 30
0.0
 10
1467.461964166719
 20
1820.495973408674
 30
0.0
 10
1467.481600732474
 20
1820.495973408674
 30
0.0
 10
1467.636495135923
 20
1820.495973408674
 30
0.0
 10
1467.880816282162
 20
1820.495973408674
 30
0.0
 10
1468.224606662156
 20
1820.495973408674
 30
0.0
 10
1468.657715352987
 20
1820.495973408674
 30
0.0
 10
1469.174554171104
 20
1820.495973408674
 30
0.0
 10
1469.770712500506
 20
1820.495973408674
 30
0.0
 10
1470.434947011953
 20
1820.495973408674
 30
0.0
 10
1471.211437228653
 20
1820.495973408674
 30
0.0
 10
1472.102308134468
 20
1820.495973408674
 30
0.0
 10
1472.778656803398
 20
1820.495973408674
 30
0.0
 10
1473.116836314144
 20
1820.495973408674
 30
0.0
  0
SPLINE
  5
12F
330
1F
100
AcDbEntity
  8
0
  6
Continuous
 62
     7
370
    15
100
AcDbSpline
210
0.0
220
0.0
230
1.0
 70
    24
 71
     3
 72
    18
 73
    14
 74
     0
 42
0.000000001
 43
0.00000001
 40
0.0
 40
0.0
 40
0.0
 40
0.0
 40
0.0868748773529417
 40
0.1740226316001015
 40
0.2608922971523749
 40
0.347796034258436
 40
0.4349794667200604
 40
0.5218813858507291
 40
0.6082497655603061
 40
0.6948943409402655
 40
0.7812651554480815
 40
0.8906306337956047
 40
1.0
 40
1.0
 40
1.0
 40
1.0
 10
1442.717028796596
 20
1811.495973408674
 30
0.0
 10
1442.707226579165
 20
1811.495973408674
 30
0.0
 10
1442.687591355209
 20
1811.495973408674
 30
0.0
 10
1442.532699502387
 20
1811.495973408674
 30
0.0
 10
1442.28837079717
 20
1811.495973408674
 30
0.0
 10
1441.944553434496
 20
1811.495973408674
 30
0.0
 10
1441.511392393486
 20
1811.495973408674
 30
0.0
 10
1440.994501927092
 20
1811.495973408674
 30
0.0
 10
1440.398308960253
 20
1811.495973408674
 30
0.0
 10
1439.734058950788
 20
1811.495973408674
 30
0.0
 10
1438.943545790234
 20
1811.495973408674
 30
0.0
 10
1438.0204280179
 20
1811.495973408674
 30
0.0
 10
1437.308850824347
 20
1811.495973408674
 30
0.0
 10
1436.953055903679
 20
1811.495973408674
 30
0.0
  0
SPLINE
  5
130
330
1F
100
AcDbEntity
  8
0
  6
Continuous
 62
     7
370
    15
100
AcDbSpline
210
0.0
220
0.0
230
1.0
 70
    24
 71
     3
 72
    18
 73
    14
 74
     0
 42
0.000000001
 43
0.00000001
 40
0.0
 40
0.0
 40
0.0
 40
0.0
 40
0.0877487707989376
 40
0.1757732449704306
 40
0.2635168418566904
 40
0.3512940176689399
 40
0.4393536494659556
 40
0.5271290926818549
 40
0.6143804849479969
 40
0.7019108121319377
 40
0.7891647167377537
 40
0.8945807474850136
 40
1.0
 40
1.0
 40
1.0
 40
1.0
 10
1435.787486254405
 20
1820.495973408674
 30
0.0
 10
1436.069456486834
 20
1820.495973408674
 30
0.0
 10
1436.634282891668
 20
1820.495973408674
 30
0.0
 10
1437.434596234241
 20
1820.495973408674
 30
0.0
 10
1438.188610392485
 20
1820.495973408674
 30
0.0
 10
1438.881723843243
 20
1820.495973408674
 30
0.0
 10
1439.507742855828
 20
1820.495973408674
 30
0.0
 10
1440.057631321387
 20
1820.495973408674
 30
0.0
 10
1440.521594137404
 20
1820.495973408674
 30
0.0
 10
1440.898249139371
 20
1820.495973408674
 30
0.0
 10
1441.200899611373
 20
1820.495973408674
 30
0.0
 10
1441.410199108016
 20
1820.495973408674
 30
0.0
 10
1441.438173749695
 20
1820.495973408674
 30
0.0
 10
1441.452161284275
 20
1820.495973408674
 30
0.0
  0
LINE
  5
131
330
1F
100
AcDbEntity
  8
0
  6
Continuous
 62
     7
370
    15
100
AcDbLine
 10
1458.3064139551
 20
1799.785872692
 30
0.0
 11
1459.9521612843
 21
1811.4959734087
 31
0.0
  0
LINE
  5
132
330
1F
100
AcDbEntity
  8
0
  6
Continuous
 62
     7
370
    15
100
AcDbLine
 10
1450.5979086134
 20
1799.785872692
 30
0.0
 11
1448.9521612843
 21
1811.4959734087
 31
0.0
  0
SPLINE
  5
133
330
1F
100
AcDbEntity
  8
0
  6
Continuous
 62
     7
370
    15
100
AcDbSpline
210
0.0
220
0.0
230
1.0
 70
    24
 71
     3
 72
    17
 73
    13
 74
     0
 42
0.000000001
 43
0.00000001
 40
0.0
 40
0.0
 40
0.0
 40
0.0
 40
0.0964634785121529
 40
0.1932308469885743
 40
0.2896895521248368
 40
0.3861772419559124
 40
0.4829749231427024
 40
0.5794616118715036
 40
0.6755103903456489
 40
0.771865505321419
 40
0.8679174887583897
 40
1.0
 40
1.0
 40
1.0
 40
1.0
 10
1429.601268496246
 20
1811.495973408674
 30
0.0
 10
1429.323758533553
 20
1811.495973408674
 30
0.0
 10
1428.767864365458
 20
1811.495973408674
 30
0.0
 10
1427.896257520895
 20
1811.495973408674
 30
0.0
 10
1427.010132517827
 20
1811.495973408674
 30
0.0
 10
1426.11691063182
 20
1811.495973408674
 30
0.0
 10
1425.229178799528
 20
1811.495973408674
 30
0.0
 10
1424.359009269411
 20
1811.495973408674
 30
0.0
 10
1423.518059522573
 20
1811.495973408674
 30
0.0
 10
1422.717525997241
 20
1811.495973408674
 30
0.0
 10
1421.864186438236
 20
1811.495973408674
 30
0.0
 10
1421.33791064238
 20
1811.495973408674
 30
0.0
 10
1421.033213937832
 20
1811.495973408674
 30
0.0
  0
SPLINE
  5
134
330
1F
100
AcDbEntity
  8
0
  6
Continuous
 62
     7
370
    15
100
AcDbSpline
210
0.0
220
0.0
230
1.0
 70
    24
 71
     3
 72
    17
 73
    13
 74
     0
 42
0.000000001
 43
0.00000001
 40
0.0
 40
0.0
 40
0.0
 40
0.0
 40
0.0974072788469171
 40
0.1951214989575333
 40
0.2925240480514225
 40
0.3899551208347013
 40
0.4876991684340839
 40
0.5851293093110417
 40
0.682130016190611
 40
0.7794400333243077
 40
0.876444015708062
 40
1.0
 40
1.0
 40
1.0
 40
1.0
 10
1421.316091606289
 20
1820.495973408674
 30
0.0
 10
1421.536412840835
 20
1820.495973408674
 30
0.0
 10
1421.977749566854
 20
1820.495973408674
 30
0.0
 10
1422.718505388557
 20
1820.495973408674
 30
0.0
 10
1423.505683396548
 20
1820.495973408674
 30
0.0
 10
1424.337409839022
 20
1820.495973408674
 30
0.0
 10
1425.199847304141
 20
1820.495973408674
 30
0.0
 10
1426.081553855274
 20
1820.495973408674
 30
0.0
 10
1426.971602575849
 20
1820.495973408674
 30
0.0
 10
1427.857446514279
 20
1820.495973408674
 30
0.0
 10
1428.813110296843
 20
1820.495973408674
 30
0.0
 10
1429.446182429115
 20
1820.495973408674
 30
0.0
 10
1429.800824532165
 20
1820.495973408674
 30
0.0
  0
SPLINE
  5
135
330
1F
100
AcDbEntity
  8
0
  6
Continuous
 62
     7
370
    15
100
AcDbSpline
210
0.0
220
0.0
230
1.0
 70
    24
 71
     3
 72
    17
 73
    13
 74
     0
 42
0.000000001
 43
0.00000001
 40
0.0
 40
0.0
 40
0.0
 40
0.0
 40
0.096469350430892
 40
0.1932426495069171
 40
0.2897072308299062
 40
0.3862007879277086
 40
0.4830043912978478
 40
0.5794969444961338
 40
0.6755458556172452
 40
0.7719011063348662
 40
0.8679532234481481
 40
1.0
 40
1.0
 40
1.0
 40
1.0
 10
1487.871108630719
 20
1811.495973408674
 30
0.0
 10
1487.650760113002
 20
1811.495973408674
 30
0.0
 10
1487.20936881941
 20
1811.495973408674
 30
0.0
 10
1486.468523557859
 20
1811.495973408674
 30
0.0
 10
1485.68124556083
 20
1811.495973408674
 30
0.0
 10
1484.849406828178
 20
1811.495973408674
 30
0.0
 10
1483.986846890852
 20
1811.495973408674
 30
0.0
 10
1483.105073243192
 20
1811.495973408674
 30
0.0
 10
1482.215009287517
 20
1811.495973408674
 30
0.0
 10
1481.329252518456
 20
1811.495973408674
 30
0.0
 10
1480.344080182416
 20
1811.495973408674
 30
0.0
 10
1479.684744464594
 20
1811.495973408674
 30
0.0
 10
1479.303054072304
 20
1811.495973408674
 30
0.0
  0
SPLINE
  5
136
330
1F
100
AcDbEntity
  8
0
  6
Continuous
 62
     7
370
    15
100
AcDbSpline
210
0.0
220
0.0
230
1.0
 70
    24
 71
     3
 72
    17
 73
    13
 74
     0
 42
0.000000001
 43
0.00000001
 40
0.0
 40
0.0
 40
0.0
 40
0.0
 40
0.0974071833227061
 40
0.195121304525942
 40
0.2925237530833973
 40
0.3899547384090021
 40
0.4876986999162863
 40
0.5851287561823915
 40
0.6821293269767984
 40
0.7794392046801302
 40
0.8764430502093461
 40
1.0
 40
1.0
 40
1.0
 40
1.0
 10
1479.103498036386
 20
1820.495973408674
 30
0.0
 10
1479.382175810259
 20
1820.495973408674
 30
0.0
 10
1479.940409494118
 20
1820.495973408674
 30
0.0
 10
1480.814155259999
 20
1820.495973408674
 30
0.0
 10
1481.701380049098
 20
1820.495973408674
 30
0.0
 10
1482.594504916981
 20
1820.495973408674
 30
0.0
 10
1483.481011635429
 20
1820.495973408674
 30
0.0
 10
1484.348885449167
 20
1820.495973408674
 30
0.0
 10
1485.186455704141
 20
1820.495973408674
 30
0.0
 10
1485.98266105584
 20
1820.495973408674
 30
0.0
 10
1486.804458515345
 20
1820.495973408674
 30
0.0
 10
1487.306814109318
 20
1820.495973408674
 30
0.0
 10
1487.588230962262
 20
1820.495973408674
 30
0.0
  0
LINE
  5
137
330
1F
100
AcDbEntity
  8
0
  6
Continuous
 62
     7
370
    15
100
AcDbLine
 10
1479.3030540723
 20
1811.4959734087
 30
0.0
 11
1471.9512666649
 21
1811.4959734087
 31
0.0
  0
LINE
  5
138
330
1F
100
AcDbEntity
  8
0
  6
Continuous
 62
     7
370
    15
100
AcDbLine
 10
1479.1034980364
 20
1820.4959734087
 30
0.0
 11
1473.1168363141
 21
1820.4959734087
 31
0.0
  0
LINE
  5
139
330
1F
100
AcDbEntity
  8
0
  6
Continuous
 62
     7
370
    15
100
AcDbLine
 10
1436.9530559037
 20
1811.4959734087
 30
0.0
 11
1429.6012684962
 21
1811.4959734087
 31
0.0
  0
LINE
  5
13A
330
1F
100
AcDbEntity
  8
0
  6
Continuous
 62
     7
370
    15
100
AcDbLine
 10
1435.7874862544
 20
1820.4959734087
 30
0.0
 11
1429.8008245322
 21
1820.4959734087
 31
0.0
  0
SPLINE
  5
13B
330
1F
100
AcDbEntity
  8
0
  6
Continuous
 62
     7
370
    15
100
AcDbSpline
210
0.0
220
0.0
230
1.0
 70
    24
 71
     3
 72
    15
 73
    11
 74
     0
 42
0.000000001
 43
0.00000001
 40
0.0
 40
0.0
 40
0.0
 40
0.0
 40
0.1344926318563928
 40
0.2728754310305413
 40
0.4073722749002631
 40
0.5457808473606814
 40
0.6801202933417199
 40
0.818320205921262
 40
0.9085992956716097
 40
0.9999999999999999
 40
0.9999999999999999
 40
0.9999999999999999
 40
0.9999999999999999
 10
1451.060273804811
 20
1796.495973408674
 30
0.0
 10
1451.058441612529
 20
1796.509010134158
 30
0.0
 10
1451.054724232242
 20
1796.535460669302
 30
0.0
 10
1451.024738402517
 20
1796.748820934229
 30
0.0
 10
1450.977223975098
 20
1797.086903652459
 30
0.0
 10
1450.912636276431
 20
1797.546469007992
 30
0.0
 10
1450.832224281503
 20
1798.118630082019
 30
0.0
 10
1450.749514177789
 20
1798.707143049728
 30
0.0
 10
1450.670163371683
 20
1799.271753372938
 30
0.0
 10
1450.622092456053
 20
1799.613795710535
 30
0.0
 10
1450.597908613439
 20
1799.785872692046
 30
0.0
  0
SPLINE
  5
13C
330
1F
100
AcDbEntity
  8
0
  6
Continuous
 62
     7
370
    15
100
AcDbSpline
210
0.0
220
0.0
230
1.0
 70
    24
 71
     3
 72
    15
 73
    11
 74
     0
 42
0.000000001
 43
0.00000001
 40
0.0
 40
0.0
 40
0.0
 40
0.0
 40
0.1355031336738687
 40
0.2749092596134809
 40
0.4104214705779982
 40
0.5499098581195451
 40
0.6846135858477633
 40
0.8232484961646978
 40
0.9110978847418384
 40
0.9999999999999999
 40
0.9999999999999999
 40
0.9999999999999999
 40
0.9999999999999999
 10
1458.306413955111
 20
1799.785872692046
 30
0.0
 10
1458.270740658265
 20
1799.532043995773
 30
0.0
 10
1458.198366541461
 20
1799.017075396382
 30
0.0
 10
1458.101504541494
 20
1798.327866454568
 30
0.0
 10
1458.015700241151
 20
1797.717337133854
 30
0.0
 10
1457.945763868211
 20
1797.219713983343
 30
0.0
 10
1457.892125273912
 20
1796.838055553514
 30
0.0
 10
1457.861549165343
 20
1796.620495236375
 30
0.0
 10
1457.846435410338
 20
1796.512955281627
 30
0.0
 10
1457.84484746519
 20
1796.501656464797
 30
0.0
 10
1457.844048763739
 20
1796.495973408674
 30
0.0
  0
LINE
  5
13D
330
1F
100
AcDbEntity
  8
0
  6
Continuous
 62
     7
370
    15
100
AcDbLine
 10
1457.8440487637
 20
1796.4959734087
 30
0.0
 11
1451.0602738048
 21
1796.4959734087
 31
0.0
  0
LINE
  5
13E
330
1F
100
AcDbEntity
  8
0
  6
Continuous
 62
     7
370
    15
100
AcDbLine
 10
1478.9205623304
 20
1796.4959734087
 30
0.0
 11
1479.4321532779
 21
1811.4959734087
 31
0.0
  0
LINE
  5
13F
330
1F
100
AcDbEntity
  8
0
  6
Continuous
 62
     7
370
    15
100
AcDbLine
 10
1478.9205623304
 20
1796.4959734087
 30
0.0
 11
1457.8440487637
 21
1796.4959734087
 31
0.0
  0
LINE
  5
140
330
1F
100
AcDbEntity
  8
0
  6
Continuous
 62
     7
370
    15
100
AcDbLine
 10
1429.9837602382
 20
1796.4959734087
 30
0.0
 11
1429.4721692907
 21
1811.4959734087
 31
0.0
  0
LINE
  5
141
330
1F
100
AcDbEntity
  8
0
  6
Continuous
 62
     7
370
    15
100
AcDbLine
 10
1451.0602738048
 20
1796.4959734087
 30
0.0
 11
1429.9837602382
 21
1796.4959734087
 31
0.0
  0
ELLIPSE
  5
142
330
1F
100
AcDbEntity
  8
0
  6
Continuous
 62
     7
370
    15
100
AcDbEllipse
 10
1480.1940300375
 20
1896.4959734087
 30
0.0
 11
141.4962048075674
 21
-19.1438576976941
 31
0.0
210
0.0
220
0.0
230
1.0
 40
0.6936614286
 41
4.905016603419322
 42
4.931225681000711
  0
LINE
  5
143
330
1F
100
AcDbEntity
  8
0
  6
Continuous
 62
     7
370
    15
100
AcDbLine
 10
1494.2481135077
 20
1796.4959734087
 30
0.0
 11
1478.9205623304
 21
1796.4959734087
 31
0.0
  0
ELLIPSE
  5
144
330
1F
100
AcDbEntity
  8
0
  6
Continuous
 62
     7
370
    15
100
AcDbEllipse
 10
1428.7102925311
 20
1896.4959734087
 30
0.0
 11
141.4962048075618
 21
19.14385769769547
 31
0.0
210
0.0
220
0.0
230
1.0
 40
0.6936614286
 41
4.493552279768697
 42
4.519761357350068
  0
LINE
  5
145
330
1F
100
AcDbEntity
  8
0
  6
Continuous
 62
     7
370
    15
100
AcDbLine
 10
1429.9837602382
 20
1796.4959734087
 30
0.0
 11
1414.6562090608
 21
1796.4959734087
 31
0.0
  0
LINE
  5
146
330
1F
100
AcDbEntity
  8
0
  6
Continuous
 62
     7
370
    15
100
AcDbLine
 10
1407.5602738048
 20
1796.4959734087
 30
0.0
 11
1407.5554470955
 21
1796.53031723
 31
0.0
  0
LINE
  5
147
330
1F
100
AcDbEntity
  8
0
  6
Continuous
 62
     7
370
    15
100
AcDbLine
 10
1414.6562090608
 20
1796.4959734087
 30
0.0
 11
1407.5602738048
 21
1796.4959734087
 31
0.0
  0
ELLIPSE
  5
148
330
1F
100
AcDbEntity
  8
0
  6
Continuous
 62
     7
370
    15
100
AcDbEllipse
 10
1399.4587401065
 20
1896.4959734087
 30
0.0
 11
-19.0445452421568
 21
99.13737009127567
 31
0.0
210
0.0
220
0.0
230
1.0
 40
0.6882053315
 41
2.957789024801202
 42
2.983939824779587
  0
LINE
  5
149
330
1F
100
AcDbEntity
  8
0
  6
Continuous
 62
     7
370
    15
100
AcDbLine
 10
1501.3488754731
 20
1796.53031723
 30
0.0
 11
1501.3440487637
 21
1796.4959734087
 31
0.0
  0
LINE
  5
14A
330
1F
100
AcDbEntity
  8
0
  6
Continuous
 62
     7
370
    15
100
AcDbLine
 10
1501.3440487637
 20
1796.4959734087
 30
0.0
 11
1494.2481135077
 21
1796.4959734087
 31
0.0
  0
ELLIPSE
  5
14B
330
1F
100
AcDbEntity
  8
0
  6
Continuous
 62
     7
370
    15
100
AcDbEllipse
 10
1509.445582462
 20
1896.4959734087
 30
0.0
 11
19.0445452421568
 21
99.13737009127567
 31
0.0
210
0.0
220
0.0
230
1.0
 40
0.6882053315
 41
3.299245482399964
 42
3.325396282378403
  0
LINE
  5
14C
330
1F
100
AcDbEntity
  8
0
  6
Continuous
 62
     7
370
    15
100
AcDbLine
 10
1401.6691445036
 20
1796.4959734087
 30
0.0
 11
1401.6120441513
 21
1796.9371770862
 31
0.0
  0
LINE
  5
14D
330
1F
100
AcDbEntity
  8
0
  6
Continuous
 62
     7
370
    15
100
AcDbLine
 10
1407.5602738048
 20
1796.4959734087
 30
0.0
 11
1401.6691445036
 21
1796.4959734087
 31
0.0
  0
LINE
  5
14E
330
1F
100
AcDbEntity
  8
0
  6
Continuous
 62
     7
370
    15
100
AcDbLine
 10
1507.2922784172
 20
1796.9371770862
 30
0.0
 11
1507.2351780649
 21
1796.4959734087
 31
0.0
  0
LINE
  5
14F
330
1F
100
AcDbEntity
  8
0
  6
Continuous
 62
     7
370
    15
100
AcDbLine
 10
1507.2351780649
 20
1796.4959734087
 30
0.0
 11
1501.3440487637
 21
1796.4959734087
 31
0.0
  0
SPLINE
  5
150
330
1F
100
AcDbEntity
  8
0
  6
Continuous
 62
     7
370
    15
100
AcDbSpline
210
0.0
220
0.0
230
1.0
 70
     8
 71
     3
 72
    11
 73
     7
 74
     0
 42
0.000000001
 43
0.00000001
 40
0.0
 40
0.0
 40
0.0
 40
0.0
 40
0.320534057509535
 40
0.6410594855199614
 40
0.9616228938459659
 40
1.0
 40
1.0
 40
1.0
 40
1.0
 10
1507.884018761255
 20
1796.495973408674
 30
0.0
 10
1508.162673319822
 20
1796.509040503623
 30
0.0
 10
1508.719974934948
 20
1796.535174341726
 30
0.0
 10
1509.525816756925
 20
1796.758365270907
 30
0.0
 10
1510.081355115857
 20
1796.973013865521
 30
0.0
 10
1510.338751985699
 20
1797.146625215071
 30
0.0
 10
1510.36627227555
 20
1797.16518734702
 30
0.0
  0
LINE
  5
151
330
1F
100
AcDbEntity
  8
0
  6
Continuous
 62
     7
370
    15
100
AcDbLine
 10
1507.8840187613
 20
1796.4959734087
 30
0.0
 11
1507.2351780649
 21
1796.4959734087
 31
0.0
  0
SPLINE
  5
152
330
1F
100
AcDbEntity
  8
0
  6
Continuous
 62
     7
370
    15
100
AcDbSpline
210
0.0
220
0.0
230
1.0
 70
     8
 71
     3
 72
    11
 73
     7
 74
     0
 42
0.000000001
 43
0.00000001
 40
0.0
 40
0.0
 40
0.0
 40
0.0
 40
0.2619851510539273
 40
0.5837942972911405
 40
0.7918962114222905
 40
1.0
 40
1.0
 40
1.0
 40
1.0
 10
1398.544739204928
 20
1797.164691204013
 30
0.0
 10
1398.743714057139
 20
1797.056145152016
 30
0.0
 10
1399.18709943054
 20
1796.814266687167
 30
0.0
 10
1399.849360587035
 20
1796.620704982282
 30
0.0
 10
1400.47969832426
 20
1796.512716905442
 30
0.0
 10
1400.840101438573
 20
1796.50155459102
 30
0.0
 10
1401.020303807295
 20
1796.495973408674
 30
0.0
  0
LINE
  5
153
330
1F
100
AcDbEntity
  8
0
  6
Continuous
 62
     7
370
    15
100
AcDbLine
 10
1401.6691445036
 20
1796.4959734087
 30
0.0
 11
1401.0203038073
 21
1796.4959734087
 31
0.0
  0
LINE
  5
154
330
1F
100
AcDbEntity
  8
0
  6
Continuous
 62
     7
370
    15
100
AcDbLine
 10
1401.0203038073
 20
1796.4959734087
 30
0.0
 11
1400.9127524893
 21
1796.4959734087
 31
0.0
  0
LINE
  5
155
330
1F
100
AcDbEntity
  8
0
  6
Continuous
 62
     7
370
    15
100
AcDbLine
 10
1507.9915700792
 20
1796.4959734087
 30
0.0
 11
1507.8840187613
 21
1796.4959734087
 31
0.0
  0
LINE
  5
156
330
1F
100
AcDbEntity
  8
0
  6
Continuous
 62
     7
370
    15
100
AcDbLine
 10
1319.9521612843
 20
1091.9959734087
 30
0.0
 11
1315.4521612843
 21
1091.9959734087
 31
0.0
  0
LINE
  5
157
330
1F
100
AcDbEntity
  8
0
  6
Continuous
 62
     7
370
    15
100
AcDbLine
 10
1333.4521612843
 20
1091.9959734087
 30
0.0
 11
1319.9521612843
 21
1091.9959734087
 31
0.0
  0
LINE
  5
158
330
1F
100
AcDbEntity
  8
0
  6
Continuous
 62
     7
370
    15
100
AcDbLine
 10
1588.9521612843
 20
1091.9959734087
 30
0.0
 11
1575.4521612843
 21
1091.9959734087
 31
0.0
  0
LINE
  5
159
330
1F
100
AcDbEntity
  8
0
  6
Continuous
 62
     7
370
    15
100
AcDbLine
 10
1593.4521612843
 20
1091.9959734087
 30
0.0
 11
1588.9521612843
 21
1091.9959734087
 31
0.0
  0
LINE
  5
15A
330
1F
100
AcDbEntity
  8
0
  6
Continuous
 62
     7
370
    15
100
AcDbLine
 10
1203.4521612843
 20
1091.9959734087
 30
0.0
 11
1185.4521612843
 21
1091.9959734087
 31
0.0
  0
LINE
  5
15B
330
1F
100
AcDbEntity
  8
0
  6
Continuous
 62
     7
370
    15
100
AcDbLine
 10
1723.4521612843
 20
1091.9959734087
 30
0.0
 11
1705.4521612843
 21
1091.9959734087
 31
0.0
  0
CIRCLE
  5
15C
330
1F
100
AcDbEntity
  8
0
  6
Continuous
 62
     7
370
    15
100
AcDbCircle
 10
1454.4521612843
 20
589.76325894
 30
0.0
 40
282.5
  0
SPLINE
  5
15D
330
1F
100
AcDbEntity
  8
0
  6
Continuous
 62
     7
370
    15
100
AcDbSpline
210
0.0
220
0.0
230
1.0
 70
     8
 71
     3
 72
    17
 73
    13
 74
     0
 42
0.000000001
 43
0.00000001
 40
0.0
 40
0.0
 40
0.0
 40
0.0
 40
0.0974072788469155
 40
0.1951214989575283
 40
0.2925240480514159
 40
0.3899551208346942
 40
0.4876991684340759
 40
0.5851293093110311
 40
0.6821300161906011
 40
0.7794400333242992
 40
0.8764440157080542
 40
1.0
 40
1.0
 40
1.0
 40
1.0
 10
1487.588230962261
 20
652.0883272313243
 30
0.0
 10
1487.367909727715
 20
651.8892036542711
 30
0.0
 10
1486.926573001696
 20
651.4903290394338
 30
0.0
 10
1486.185817179993
 20
650.9903839206999
 30
0.0
 10
1485.398639172003
 20
650.5698147082991
 30
0.0
 10
1484.566912729528
 20
650.244285035302
 30
0.0
 10
1483.704475264409
 20
650.0129329158314
 30
0.0
 10
1482.822768713276
 20
649.8795070603868
 30
0.0
 10
1481.932719992701
 20
649.848115822024
 30
0.0
 10
1481.046876054271
 20
649.9172017342842
 30
0.0
 10
1480.091212271707
 20
650.0914122391822
 30
0.0
 10
1479.458140139435
 20
650.3195635536198
 30
0.0
 10
1479.103498036385
 20
650.4473721521053
 30
0.0
  0
LINE
  5
15E
330
1F
100
AcDbEntity
  8
0
  6
Continuous
 62
     7
370
    15
100
AcDbLine
 10
1487.5882309623
 20
652.0883272313
 30
0.0
 11
1586.2012060808
 21
747.3177703536
 31
0.0
  0
ARC
  5
15F
330
1F
100
AcDbEntity
  8
0
  6
Continuous
 62
     7
370
    15
100
AcDbCircle
 10
1598.8787213416
 20
734.1898189974
 30
0.0
 40
18.25000000000014
100
AcDbArc
 50
316.0
 51
134.0
  0
LINE
  5
160
330
1F
100
AcDbEntity
  8
0
  6
Continuous
 62
     7
370
    15
100
AcDbLine
 10
1612.0066726978
 20
721.5123037365
 30
0.0
 11
1516.7772295756
 21
622.899328618
 31
0.0
  0
SPLINE
  5
161
330
1F
100
AcDbEntity
  8
0
  6
Continuous
 62
     7
370
    15
100
AcDbSpline
210
0.0
220
0.0
230
1.0
 70
     8
 71
     3
 72
    17
 73
    13
 74
     0
 42
0.000000001
 43
0.00000001
 40
0.0
 40
0.0
 40
0.0
 40
0.0
 40
0.097407183322706
 40
0.1951213045259433
 40
0.2925237530833985
 40
0.3899547384090046
 40
0.4876986999162895
 40
0.5851287561823963
 40
0.682129326976803
 40
0.779439204680134
 40
0.8764430502093479
 40
1.0
 40
1.0
 40
1.0
 40
1.0
 10
1515.136274496335
 20
614.4145956921558
 30
0.0
 10
1515.033657884916
 20
614.6932734660293
 30
0.0
 10
1514.828101308871
 20
615.2515071498883
 30
0.0
 10
1514.640402053225
 20
616.1252529157688
 30
0.0
 10
1514.543663669135
 20
617.0124777048683
 30
0.0
 10
1514.551721865799
 20
617.9056025727517
 30
0.0
 10
1514.658617220204
 20
618.7921092911992
 30
0.0
 10
1514.863561744572
 20
619.6599831049372
 30
0.0
 10
1515.166292999575
 20
620.4975533599111
 30
0.0
 10
1515.560687616121
 20
621.2937587116102
 30
0.0
 10
1516.078660189488
 20
622.1155561711154
 30
0.0
 10
1516.526405246423
 20
622.6179117650884
 30
0.0
 10
1516.777229575554
 20
622.8993286180315
 30
0.0
  0
ARC
  5
162
330
1F
100
AcDbEntity
  8
0
  6
Continuous
 62
     7
370
    15
100
AcDbCircle
 10
1454.4521612843
 20
589.76325894
 30
0.0
 40
65.50000000000044
100
AcDbArc
 50
16.5562705581
 51
22.108164441
  0
SPLINE
  5
163
330
1F
100
AcDbEntity
  8
0
  6
Continuous
 62
     7
370
    15
100
AcDbSpline
210
0.0
220
0.0
230
1.0
 70
     8
 71
     3
 72
    18
 73
    14
 74
     0
 42
0.000000001
 43
0.00000001
 40
0.0
 40
0.0
 40
0.0
 40
0.0
 40
0.0877489097456885
 40
0.1757735284430446
 40
0.2635172721047456
 40
0.3512945678269542
 40
0.4393543169360666
 40
0.5271298767015969
 40
0.6143816132945312
 40
0.70191228992644
 40
0.7891665371711913
 40
0.8945816550196606
 40
1.0
 40
1.0
 40
1.0
 40
1.0
 10
1524.83024862503
 20
602.7632589400457
 30
0.0
 10
1524.533167703092
 20
602.7730618224901
 30
0.0
 10
1523.938072424603
 20
602.7926983882453
 30
0.0
 10
1523.057095022755
 20
602.9475927916947
 30
0.0
 10
1522.197834593589
 20
603.1919139379326
 30
0.0
 10
1521.372538426984
 20
603.5357043179276
 30
0.0
 10
1520.59068593847
 20
603.9688130087582
 30
0.0
 10
1519.863364896055
 20
604.4856518268749
 30
0.0
 10
1519.202105899287
 20
605.0818101562771
 30
0.0
 10
1518.611693933694
 20
605.7460446677239
 30
0.0
 10
1518.0651186574
 20
606.5225348844239
 30
0.0
 10
1517.581930484012
 20
607.4134057902392
 30
0.0
 10
1517.351680336813
 20
608.0897544591693
 30
0.0
 10
1517.236553501047
 20
608.427933969915
 30
0.0
  0
LINE
  5
164
330
1F
100
AcDbEntity
  8
0
  6
Continuous
 62
     7
370
    15
100
AcDbLine
 10
1524.830248625
 20
602.76325894
 30
0.0
 11
1526.9521612843
 21
602.76325894
 31
0.0
  0
ARC
  5
165
330
1F
100
AcDbEntity
  8
0
  6
Continuous
 62
     7
370
    15
100
AcDbCircle
 10
1526.9521612843
 20
589.76325894
 30
0.0
 40
13.00000000000011
100
AcDbArc
 50
270.0
 51
90.0
  0
LINE
  5
166
330
1F
100
AcDbEntity
  8
0
  6
Continuous
 62
     7
370
    15
100
AcDbLine
 10
1526.9521612843
 20
576.76325894
 30
0.0
 11
1524.830248625
 21
576.76325894
 31
0.0
  0
SPLINE
  5
167
330
1F
100
AcDbEntity
  8
0
  6
Continuous
 62
     7
370
    15
100
AcDbSpline
210
0.0
220
0.0
230
1.0
 70
     8
 71
     3
 72
    18
 73
    14
 74
     0
 42
0.000000001
 43
0.00000001
 40
0.0
 40
0.0
 40
0.0
 40
0.0
 40
0.0877487707989379
 40
0.1757732449704306
 40
0.2635168418566886
 40
0.3512940176689398
 40
0.4393536494659561
 40
0.5271290926818569
 40
0.614380484947998
 40
0.701910812131937
 40
0.7891647167377538
 40
0.8945807474850125
 40
1.0
 40
1.0
 40
1.0
 40
1.0
 10
1517.236553501046
 20
571.0985839101763
 30
0.0
 10
1517.330604953613
 20
571.3805541426046
 30
0.0
 10
1517.519003364911
 20
571.945380547439
 30
0.0
 10
1517.918514756119
 20
572.7456938900118
 30
0.0
 10
1518.397557037616
 20
573.499708048256
 30
0.0
 10
1518.962266729906
 20
574.1928214990144
 30
0.0
 10
1519.600212273047
 20
574.8188405115992
 30
0.0
 10
1520.302876797087
 20
575.3687289771578
 30
0.0
 10
1521.06274637205
 20
575.8326917931754
 30
0.0
 10
1521.867680212342
 20
576.2093467951422
 30
0.0
 10
1522.767727759436
 20
576.5119972671439
 30
0.0
 10
1523.759355646663
 20
576.7212967637869
 30
0.0
 10
1524.473280662419
 20
576.7492714054662
 30
0.0
 10
1524.83024862503
 20
576.7632589400456
 30
0.0
  0
ARC
  5
168
330
1F
100
AcDbEntity
  8
0
  6
Continuous
 62
     7
370
    15
100
AcDbCircle
 10
1454.4521612843
 20
589.76325894
 30
0.0
 40
65.50000000000031
100
AcDbArc
 50
337.891835559
 51
343.4437294419
  0
SPLINE
  5
169
330
1F
100
AcDbEntity
  8
0
  6
Continuous
 62
     7
370
    15
100
AcDbSpline
210
0.0
220
0.0
230
1.0
 70
     8
 71
     3
 72
    17
 73
    13
 74
     0
 42
0.000000001
 43
0.00000001
 40
0.0
 40
0.0
 40
0.0
 40
0.0
 40
0.0974072788469192
 40
0.1951214989575331
 40
0.2925240480514263
 40
0.3899551208347046
 40
0.4876991684340861
 40
0.5851293093110426
 40
0.6821300161906092
 40
0.7794400333243041
 40
0.8764440157080574
 40
1.0
 40
1.0
 40
1.0
 40
1.0
 10
1516.777229575554
 20
556.62718926206
 30
0.0
 10
1516.578105998501
 20
556.8475104966059
 30
0.0
 10
1516.179231383664
 20
557.2888472226252
 30
0.0
 10
1515.679286264929
 20
558.0296030443282
 30
0.0
 10
1515.258717052528
 20
558.8167810523187
 30
0.0
 10
1514.933187379531
 20
559.6485074947933
 30
0.0
 10
1514.701835260061
 20
560.5109449599119
 30
0.0
 10
1514.568409404616
 20
561.3926515110451
 30
0.0
 10
1514.537018166254
 20
562.2827002316204
 30
0.0
 10
1514.606104078514
 20
563.1685441700497
 30
0.0
 10
1514.780314583412
 20
564.1242079526146
 30
0.0
 10
1515.008465897849
 20
564.7572800848858
 30
0.0
 10
1515.136274496335
 20
565.111922187936
 30
0.0
  0
LINE
  5
16A
330
1F
100
AcDbEntity
  8
0
  6
Continuous
 62
     7
370
    15
100
AcDbLine
 10
1516.7772295756
 20
556.6271892621
 30
0.0
 11
1612.0066726978
 21
458.0142141436
 31
0.0
  0
ARC
  5
16B
330
1F
100
AcDbEntity
  8
0
  6
Continuous
 62
     7
370
    15
100
AcDbCircle
 10
1598.8787213416
 20
445.3366988827
 30
0.0
 40
18.25000000000006
100
AcDbArc
 50
226.0
 51
44.0
  0
LINE
  5
16C
330
1F
100
AcDbEntity
  8
0
  6
Continuous
 62
     7
370
    15
100
AcDbLine
 10
1586.2012060808
 20
432.2087475265
 30
0.0
 11
1487.5882309623
 21
527.4381906488
 31
0.0
  0
SPLINE
  5
16D
330
1F
100
AcDbEntity
  8
0
  6
Continuous
 62
     7
370
    15
100
AcDbSpline
210
0.0
220
0.0
230
1.0
 70
     8
 71
     3
 72
    17
 73
    13
 74
     0
 42
0.000000001
 43
0.00000001
 40
0.0
 40
0.0
 40
0.0
 40
0.0
 40
0.097407183322706
 40
0.1951213045259432
 40
0.2925237530833971
 40
0.3899547384090021
 40
0.4876986999162866
 40
0.5851287561823916
 40
0.6821293269767985
 40
0.7794392046801303
 40
0.8764430502093461
 40
1.0
 40
1.0
 40
1.0
 40
1.0
 10
1479.103498036386
 20
529.0791457279861
 30
0.0
 10
1479.382175810259
 20
529.1817623394047
 30
0.0
 10
1479.940409494118
 20
529.38731891545
 30
0.0
 10
1480.814155259999
 20
529.5750181710957
 30
0.0
 10
1481.701380049098
 20
529.671756555186
 30
0.0
 10
1482.594504916981
 20
529.663698358522
 30
0.0
 10
1483.481011635429
 20
529.5568030041162
 30
0.0
 10
1484.348885449167
 20
529.3518584797492
 30
0.0
 10
1485.186455704141
 20
529.0491272247457
 30
0.0
 10
1485.98266105584
 20
528.6547326082004
 30
0.0
 10
1486.804458515345
 20
528.1367600348328
 30
0.0
 10
1487.306814109318
 20
527.6890149778981
 30
0.0
 10
1487.588230962262
 20
527.4381906487671
 30
0.0
  0
ARC
  5
16E
330
1F
100
AcDbEntity
  8
0
  6
Continuous
 62
     7
370
    15
100
AcDbCircle
 10
1454.4521612843
 20
589.76325894
 30
0.0
 40
65.50000000000031
100
AcDbArc
 50
286.5562705581
 51
292.108164441
  0
SPLINE
  5
16F
330
1F
100
AcDbEntity
  8
0
  6
Continuous
 62
     7
370
    15
100
AcDbSpline
210
0.0
220
0.0
230
1.0
 70
     8
 71
     3
 72
    18
 73
    14
 74
     0
 42
0.000000001
 43
0.00000001
 40
0.0
 40
0.0
 40
0.0
 40
0.0
 40
0.0877489097456885
 40
0.1757735284430447
 40
0.2635172721047456
 40
0.3512945678269533
 40
0.4393543169360674
 40
0.5271298767015982
 40
0.6143816132945296
 40
0.7019122899264381
 40
0.7891665371711889
 40
0.8945816550196589
 40
1.0
 40
1.0
 40
1.0
 40
1.0
 10
1467.452161284275
 20
519.3851715992906
 30
0.0
 10
1467.461964166719
 20
519.6822525212287
 30
0.0
 10
1467.481600732474
 20
520.2773477997171
 30
0.0
 10
1467.636495135923
 20
521.1583252015662
 30
0.0
 10
1467.880816282162
 20
522.0175856307319
 30
0.0
 10
1468.224606662156
 20
522.842881797337
 30
0.0
 10
1468.657715352987
 20
523.6247342858509
 30
0.0
 10
1469.174554171104
 20
524.3520553282659
 30
0.0
 10
1469.770712500506
 20
525.0133143250338
 30
0.0
 10
1470.434947011953
 20
525.6037262906265
 30
0.0
 10
1471.211437228653
 20
526.1503015669207
 30
0.0
 10
1472.102308134468
 20
526.6334897403082
 30
0.0
 10
1472.778656803398
 20
526.8637398875074
 30
0.0
 10
1473.116836314144
 20
526.9788667232741
 30
0.0
  0
LINE
  5
170
330
1F
100
AcDbEntity
  8
0
  6
Continuous
 62
     7
370
    15
100
AcDbLine
 10
1467.4521612843
 20
519.3851715993
 30
0.0
 11
1467.4521612843
 21
517.26325894
 31
0.0
  0
ARC
  5
171
330
1F
100
AcDbEntity
  8
0
  6
Continuous
 62
     7
370
    15
100
AcDbCircle
 10
1454.4521612843
 20
517.26325894
 30
0.0
 40
13.00000000000023
100
AcDbArc
 50
180.0
 51
0.0
  0
LINE
  5
172
330
1F
100
AcDbEntity
  8
0
  6
Continuous
 62
     7
370
    15
100
AcDbLine
 10
1441.4521612843
 20
517.26325894
 30
0.0
 11
1441.4521612843
 21
519.3851715993
 31
0.0
  0
SPLINE
  5
173
330
1F
100
AcDbEntity
  8
0
  6
Continuous
 62
     7
370
    15
100
AcDbSpline
210
0.0
220
0.0
230
1.0
 70
     8
 71
     3
 72
    18
 73
    14
 74
     0
 42
0.000000001
 43
0.00000001
 40
0.0
 40
0.0
 40
0.0
 40
0.0
 40
0.0877487707989379
 40
0.1757732449704309
 40
0.2635168418566907
 40
0.3512940176689403
 40
0.4393536494659561
 40
0.5271290926818554
 40
0.6143804849479971
 40
0.7019108121319376
 40
0.7891647167377536
 40
0.8945807474850136
 40
1.0
 40
1.0
 40
1.0
 40
1.0
 10
1435.787486254405
 20
526.9788667232742
 30
0.0
 10
1436.069456486834
 20
526.8848152707073
 30
0.0
 10
1436.634282891668
 20
526.6964168594095
 30
0.0
 10
1437.434596234241
 20
526.2969054682017
 30
0.0
 10
1438.188610392485
 20
525.8178631867049
 30
0.0
 10
1438.881723843243
 20
525.2531534944146
 30
0.0
 10
1439.507742855828
 20
524.6152079512734
 30
0.0
 10
1440.057631321387
 20
523.9125434272331
 30
0.0
 10
1440.521594137404
 20
523.1526738522705
 30
0.0
 10
1440.898249139371
 20
522.3477400119788
 30
0.0
 10
1441.200899611373
 20
521.4476924648848
 30
0.0
 10
1441.410199108016
 20
520.4560645776577
 30
0.0
 10
1441.438173749695
 20
519.742139561902
 30
0.0
 10
1441.452161284275
 20
519.3851715992906
 30
0.0
  0
ARC
  5
174
330
1F
100
AcDbEntity
  8
0
  6
Continuous
 62
     7
370
    15
100
AcDbCircle
 10
1454.4521612843
 20
589.76325894
 30
0.0
 40
65.50000000000021
100
AcDbArc
 50
247.891835559
 51
253.4437294419
  0
SPLINE
  5
175
330
1F
100
AcDbEntity
  8
0
  6
Continuous
 62
     7
370
    15
100
AcDbSpline
210
0.0
220
0.0
230
1.0
 70
     8
 71
     3
 72
    17
 73
    13
 74
     0
 42
0.000000001
 43
0.00000001
 40
0.0
 40
0.0
 40
0.0
 40
0.0
 40
0.0974072788469171
 40
0.1951214989575308
 40
0.292524048051421
 40
0.3899551208347012
 40
0.4876991684340842
 40
0.585129309311042
 40
0.6821300161906113
 40
0.7794400333243066
 40
0.8764440157080616
 40
1.0
 40
1.0
 40
1.0
 40
1.0
 10
1421.316091606289
 20
527.4381906487666
 30
0.0
 10
1421.536412840835
 20
527.6373142258199
 30
0.0
 10
1421.977749566854
 20
528.036188840657
 30
0.0
 10
1422.718505388557
 20
528.5361339593912
 30
0.0
 10
1423.505683396548
 20
528.956703171792
 30
0.0
 10
1424.337409839022
 20
529.2822328447891
 30
0.0
 10
1425.199847304141
 20
529.5135849642596
 30
0.0
 10
1426.081553855274
 20
529.6470108197043
 30
0.0
 10
1426.971602575849
 20
529.678402058067
 30
0.0
 10
1427.857446514279
 20
529.6093161458069
 30
0.0
 10
1428.813110296843
 20
529.4351056409088
 30
0.0
 10
1429.446182429115
 20
529.2069543264712
 30
0.0
 10
1429.800824532165
 20
529.0791457279857
 30
0.0
  0
LINE
  5
176
330
1F
100
AcDbEntity
  8
0
  6
Continuous
 62
     7
370
    15
100
AcDbLine
 10
1421.3160916063
 20
527.4381906488
 30
0.0
 11
1322.7031164878
 21
432.2087475265
 31
0.0
  0
ARC
  5
177
330
1F
100
AcDbEntity
  8
0
  6
Continuous
 62
     7
370
    15
100
AcDbCircle
 10
1310.0256012269
 20
445.3366988827
 30
0.0
 40
18.25000000000026
100
AcDbArc
 50
136.0
 51
314.0
  0
LINE
  5
178
330
1F
100
AcDbEntity
  8
0
  6
Continuous
 62
     7
370
    15
100
AcDbLine
 10
1296.8976498707
 20
458.0142141436
 30
0.0
 11
1392.127092993
 21
556.6271892621
 31
0.0
  0
SPLINE
  5
179
330
1F
100
AcDbEntity
  8
0
  6
Continuous
 62
     7
370
    15
100
AcDbSpline
210
0.0
220
0.0
230
1.0
 70
     8
 71
     3
 72
    17
 73
    13
 74
     0
 42
0.000000001
 43
0.00000001
 40
0.0
 40
0.0
 40
0.0
 40
0.0
 40
0.0974071833227063
 40
0.1951213045259428
 40
0.2925237530833987
 40
0.3899547384090021
 40
0.4876986999162857
 40
0.5851287561823908
 40
0.682129326976798
 40
0.77943920468013
 40
0.8764430502093447
 40
1.0
 40
1.0
 40
1.0
 40
1.0
 10
1393.768048072215
 20
565.1119221879351
 30
0.0
 10
1393.870664683634
 20
564.8332444140616
 30
0.0
 10
1394.076221259679
 20
564.2750107302026
 30
0.0
 10
1394.263920515325
 20
563.4012649643221
 30
0.0
 10
1394.360658899415
 20
562.5140401752226
 30
0.0
 10
1394.352600702751
 20
561.6209153073391
 30
0.0
 10
1394.245705348345
 20
560.7344085888918
 30
0.0
 10
1394.040760823978
 20
559.8665347751537
 30
0.0
 10
1393.738029568975
 20
559.0289645201798
 30
0.0
 10
1393.34363495243
 20
558.2327591684807
 30
0.0
 10
1392.825662379062
 20
557.4109617089754
 30
0.0
 10
1392.377917322127
 20
556.9086061150024
 30
0.0
 10
1392.127092992996
 20
556.6271892620591
 30
0.0
  0
ARC
  5
17A
330
1F
100
AcDbEntity
  8
0
  6
Continuous
 62
     7
370
    15
100
AcDbCircle
 10
1454.4521612843
 20
589.76325894
 30
0.0
 40
65.5000000000001
100
AcDbArc
 50
196.5562705581
 51
202.108164441
  0
SPLINE
  5
17B
330
1F
100
AcDbEntity
  8
0
  6
Continuous
 62
     7
370
    15
100
AcDbSpline
210
0.0
220
0.0
230
1.0
 70
     8
 71
     3
 72
    18
 73
    14
 74
     0
 42
0.000000001
 43
0.00000001
 40
0.0
 40
0.0
 40
0.0
 40
0.0
 40
0.0877489097456907
 40
0.1757735284430477
 40
0.2635172721047498
 40
0.3512945678269556
 40
0.4393543169360685
 40
0.527129876701597
 40
0.6143816132945294
 40
0.7019122899264384
 40
0.7891665371711886
 40
0.8945816550196585
 40
1.0
 40
1.0
 40
1.0
 40
1.0
 10
1384.07407394352
 20
576.7632589400461
 30
0.0
 10
1384.371154865458
 20
576.7534560576016
 30
0.0
 10
1384.966250143946
 20
576.7338194918465
 30
0.0
 10
1385.847227545795
 20
576.5789250883971
 30
0.0
 10
1386.706487974961
 20
576.3346039421593
 30
0.0
 10
1387.531784141566
 20
575.990813562164
 30
0.0
 10
1388.31363663008
 20
575.5577048713336
 30
0.0
 10
1389.040957672495
 20
575.0408660532169
 30
0.0
 10
1389.702216669263
 20
574.4447077238146
 30
0.0
 10
1390.292628634856
 20
573.7804732123677
 30
0.0
 10
1390.83920391115
 20
573.0039829956679
 30
0.0
 10
1391.322392084537
 20
572.1131120898525
 30
0.0
 10
1391.552642231736
 20
571.4367634209224
 30
0.0
 10
1391.667769067503
 20
571.0985839101767
 30
0.0
  0
LINE
  5
17C
330
1F
100
AcDbEntity
  8
0
  6
Continuous
 62
     7
370
    15
100
AcDbLine
 10
1384.0740739435
 20
576.76325894
 30
0.0
 11
1381.9521612843
 21
576.76325894
 31
0.0
  0
ARC
  5
17D
330
1F
100
AcDbEntity
  8
0
  6
Continuous
 62
     7
370
    15
100
AcDbCircle
 10
1381.9521612843
 20
589.76325894
 30
0.0
 40
13.0
100
AcDbArc
 50
90.0
 51
270.0
  0
LINE
  5
17E
330
1F
100
AcDbEntity
  8
0
  6
Continuous
 62
     7
370
    15
100
AcDbLine
 10
1381.9521612843
 20
602.76325894
 30
0.0
 11
1384.0740739435
 21
602.76325894
 31
0.0
  0
SPLINE
  5
17F
330
1F
100
AcDbEntity
  8
0
  6
Continuous
 62
     7
370
    15
100
AcDbSpline
210
0.0
220
0.0
230
1.0
 70
     8
 71
     3
 72
    18
 73
    14
 74
     0
 42
0.000000001
 43
0.00000001
 40
0.0
 40
0.0
 40
0.0
 40
0.0
 40
0.0877487707989386
 40
0.1757732449704323
 40
0.2635168418566918
 40
0.3512940176689415
 40
0.4393536494659552
 40
0.5271290926818537
 40
0.6143804849479947
 40
0.701910812131935
 40
0.7891647167377506
 40
0.8945807474850114
 40
0.9999999999999999
 40
0.9999999999999999
 40
0.9999999999999999
 40
0.9999999999999999
 10
1391.667769067504
 20
608.4279339699154
 30
0.0
 10
1391.573717614937
 20
608.1459637374871
 30
0.0
 10
1391.385319203639
 20
607.5811373326527
 30
0.0
 10
1390.985807812431
 20
606.78082399008
 30
0.0
 10
1390.506765530934
 20
606.0268098318357
 30
0.0
 10
1389.942055838644
 20
605.3336963810774
 30
0.0
 10
1389.304110295503
 20
604.7076773684926
 30
0.0
 10
1388.601445771462
 20
604.1577889029339
 30
0.0
 10
1387.8415761965
 20
603.6938260869164
 30
0.0
 10
1387.036642356208
 20
603.3171710849496
 30
0.0
 10
1386.136594809114
 20
603.0145206129479
 30
0.0
 10
1385.144966921887
 20
602.8052211163049
 30
0.0
 10
1384.431041906131
 20
602.7772464746256
 30
0.0
 10
1384.07407394352
 20
602.7632589400462
 30
0.0
  0
ARC
  5
180
330
1F
100
AcDbEntity
  8
0
  6
Continuous
 62
     7
370
    15
100
AcDbCircle
 10
1454.4521612843
 20
589.76325894
 30
0.0
 40
65.50000000000009
100
AcDbArc
 50
157.891835559
 51
163.4437294419
  0
SPLINE
  5
181
330
1F
100
AcDbEntity
  8
0
  6
Continuous
 62
     7
370
    15
100
AcDbSpline
210
0.0
220
0.0
230
1.0
 70
     8
 71
     3
 72
    17
 73
    13
 74
     0
 42
0.000000001
 43
0.00000001
 40
0.0
 40
0.0
 40
0.0
 40
0.0
 40
0.0974072788469161
 40
0.1951214989575323
 40
0.2925240480514222
 40
0.3899551208347021
 40
0.4876991684340848
 40
0.5851293093110425
 40
0.6821300161906086
 40
0.7794400333243034
 40
0.8764440157080556
 40
1.0
 40
1.0
 40
1.0
 40
1.0
 10
1392.127092992996
 20
622.8993286180316
 30
0.0
 10
1392.326216570049
 20
622.6790073834859
 30
0.0
 10
1392.725091184886
 20
622.2376706574665
 30
0.0
 10
1393.225036303621
 20
621.4969148357635
 30
0.0
 10
1393.645605516022
 20
620.7097368277731
 30
0.0
 10
1393.971135189018
 20
619.8780103852985
 30
0.0
 10
1394.202487308489
 20
619.0155729201799
 30
0.0
 10
1394.335913163934
 20
618.1338663690466
 30
0.0
 10
1394.367304402296
 20
617.2438176484713
 30
0.0
 10
1394.298218490036
 20
616.3579737100421
 30
0.0
 10
1394.124007985138
 20
615.4023099274772
 30
0.0
 10
1393.895856670701
 20
614.769237795206
 30
0.0
 10
1393.768048072215
 20
614.4145956921558
 30
0.0
  0
LINE
  5
182
330
1F
100
AcDbEntity
  8
0
  6
Continuous
 62
     7
370
    15
100
AcDbLine
 10
1392.127092993
 20
622.899328618
 30
0.0
 11
1296.8976498707
 21
721.5123037365
 31
0.0
  0
ARC
  5
183
330
1F
100
AcDbEntity
  8
0
  6
Continuous
 62
     7
370
    15
100
AcDbCircle
 10
1310.0256012269
 20
734.1898189974
 30
0.0
 40
18.25000000000005
100
AcDbArc
 50
46.0
 51
224.0
  0
LINE
  5
184
330
1F
100
AcDbEntity
  8
0
  6
Continuous
 62
     7
370
    15
100
AcDbLine
 10
1322.7031164878
 20
747.3177703536
 30
0.0
 11
1421.3160916063
 21
652.0883272313
 31
0.0
  0
SPLINE
  5
185
330
1F
100
AcDbEntity
  8
0
  6
Continuous
 62
     7
370
    15
100
AcDbSpline
210
0.0
220
0.0
230
1.0
 70
     8
 71
     3
 72
    17
 73
    13
 74
     0
 42
0.000000001
 43
0.00000001
 40
0.0
 40
0.0
 40
0.0
 40
0.0
 40
0.0974071833227068
 40
0.1951213045259445
 40
0.2925237530834007
 40
0.3899547384090039
 40
0.4876986999162872
 40
0.5851287561823916
 40
0.6821293269767958
 40
0.7794392046801255
 40
0.8764430502093399
 40
1.0
 40
1.0
 40
1.0
 40
1.0
 10
1429.800824532164
 20
650.4473721521053
 30
0.0
 10
1429.522146758291
 20
650.3447555406867
 30
0.0
 10
1428.963913074432
 20
650.1391989646414
 30
0.0
 10
1428.090167308551
 20
649.9514997089957
 30
0.0
 10
1427.202942519452
 20
649.8547613249054
 30
0.0
 10
1426.309817651569
 20
649.8628195215696
 30
0.0
 10
1425.423310933121
 20
649.9697148759752
 30
0.0
 10
1424.555437119383
 20
650.1746594003423
 30
0.0
 10
1423.717866864409
 20
650.4773906553459
 30
0.0
 10
1422.92166151271
 20
650.8717852718911
 30
0.0
 10
1422.099864053205
 20
651.3897578452586
 30
0.0
 10
1421.597508459232
 20
651.8375029021934
 30
0.0
 10
1421.316091606289
 20
652.0883272313243
 30
0.0
  0
ARC
  5
186
330
1F
100
AcDbEntity
  8
0
  6
Continuous
 62
     7
370
    15
100
AcDbCircle
 10
1454.4521612843
 20
589.76325894
 30
0.0
 40
65.50000000000016
100
AcDbArc
 50
106.5562705581
 51
112.108164441
  0
SPLINE
  5
187
330
1F
100
AcDbEntity
  8
0
  6
Continuous
 62
     7
370
    15
100
AcDbSpline
210
0.0
220
0.0
230
1.0
 70
     8
 71
     3
 72
    18
 73
    14
 74
     0
 42
0.000000001
 43
0.00000001
 40
0.0
 40
0.0
 40
0.0
 40
0.0
 40
0.0877489097456908
 40
0.1757735284430465
 40
0.2635172721047487
 40
0.3512945678269561
 40
0.4393543169360689
 40
0.5271298767015977
 40
0.6143816132945297
 40
0.7019122899264385
 40
0.7891665371711879
 40
0.8945816550196586
 40
1.0
 40
1.0
 40
1.0
 40
1.0
 10
1441.452161284276
 20
660.1413462808009
 30
0.0
 10
1441.442358401831
 20
659.8442653588628
 30
0.0
 10
1441.422721836076
 20
659.2491700803745
 30
0.0
 10
1441.267827432627
 20
658.3681926785254
 30
0.0
 10
1441.023506286389
 20
657.5089322493596
 30
0.0
 10
1440.679715906394
 20
656.6836360827546
 30
0.0
 10
1440.246607215563
 20
655.9017835942408
 30
0.0
 10
1439.729768397446
 20
655.1744625518256
 30
0.0
 10
1439.133610068044
 20
654.5132035550577
 30
0.0
 10
1438.469375556597
 20
653.922791589465
 30
0.0
 10
1437.692885339897
 20
653.3762163131709
 30
0.0
 10
1436.802014434082
 20
652.8930281397834
 30
0.0
 10
1436.125665765152
 20
652.6627779925841
 30
0.0
 10
1435.787486254406
 20
652.5476511568173
 30
0.0
  0
LINE
  5
188
330
1F
100
AcDbEntity
  8
0
  6
Continuous
 62
     7
370
    15
100
AcDbLine
 10
1441.4521612843
 20
660.1413462808
 30
0.0
 11
1441.4521612843
 21
662.26325894
 31
0.0
  0
ARC
  5
189
330
1F
100
AcDbEntity
  8
0
  6
Continuous
 62
     7
370
    15
100
AcDbCircle
 10
1454.4521612843
 20
662.26325894
 30
0.0
 40
13.0
100
AcDbArc
 50
0.0
 51
180.0
  0
LINE
  5
18A
330
1F
100
AcDbEntity
  8
0
  6
Continuous
 62
     7
370
    15
100
AcDbLine
 10
1467.4521612843
 20
662.26325894
 30
0.0
 11
1467.4521612843
 21
660.1413462808
 31
0.0
  0
SPLINE
  5
18B
330
1F
100
AcDbEntity
  8
0
  6
Continuous
 62
     7
370
    15
100
AcDbSpline
210
0.0
220
0.0
230
1.0
 70
     8
 71
     3
 72
    18
 73
    14
 74
     0
 42
0.000000001
 43
0.00000001
 40
0.0
 40
0.0
 40
0.0
 40
0.0
 40
0.0877487707989385
 40
0.1757732449704314
 40
0.2635168418566923
 40
0.3512940176689414
 40
0.4393536494659545
 40
0.5271290926818542
 40
0.6143804849479972
 40
0.7019108121319374
 40
0.7891647167377543
 40
0.8945807474850138
 40
1.0
 40
1.0
 40
1.0
 40
1.0
 10
1473.116836314145
 20
652.5476511568171
 30
0.0
 10
1472.834866081716
 20
652.641702609384
 30
0.0
 10
1472.270039676882
 20
652.8301010206818
 30
0.0
 10
1471.469726334309
 20
653.2296124118897
 30
0.0
 10
1470.715712176065
 20
653.7086546933864
 30
0.0
 10
1470.022598725307
 20
654.2733643856767
 30
0.0
 10
1469.396579712722
 20
654.9113099288179
 30
0.0
 10
1468.846691247163
 20
655.6139744528582
 30
0.0
 10
1468.382728431146
 20
656.3738440278208
 30
0.0
 10
1468.006073429179
 20
657.1787778681124
 30
0.0
 10
1467.703422957177
 20
658.0788254152066
 30
0.0
 10
1467.494123460534
 20
659.0704533024336
 30
0.0
 10
1467.466148818855
 20
659.7843783181892
 30
0.0
 10
1467.452161284276
 20
660.1413462808006
 30
0.0
  0
ARC
  5
18C
330
1F
100
AcDbEntity
  8
0
  6
Continuous
 62
     7
370
    15
100
AcDbCircle
 10
1454.4521612843
 20
589.76325894
 30
0.0
 40
65.5000000000003
100
AcDbArc
 50
67.891835559
 51
73.4437294419
  0
ENDSEC
  0
SECTION
  2
OBJECTS
  0
DICTIONARY
  5
C
330
0
100
AcDbDictionary
281
     1
  3
ACAD_GROUP
350
D
  3
ACAD_LAYOUT
350
1A
  3
ACAD_MLINESTYLE
350
17
  3
ACAD_PLOTSETTINGS
350
19
  3
ACAD_PLOTSTYLENAME
350
E
  3
ACAD_SCALELIST
350
47
  0
DICTIONARY
  5
D
102
{ACAD_REACTORS
330
C
102
}
330
C
100
AcDbDictionary
281
     1
  0
DICTIONARY
  5
1A
102
{ACAD_REACTORS
330
C
102
}
330
C
100
AcDbDictionary
281
     1
  3
Layout1
350
1E
  3
Layout2
350
26
  3
Model
350
22
  0
DICTIONARY
  5
17
102
{ACAD_REACTORS
330
C
102
}
330
C
100
AcDbDictionary
281
     1
  3
Standard
350
18
  0
DICTIONARY
  5
19
102
{ACAD_REACTORS
330
C
102
}
330
C
100
AcDbDictionary
281
     1
  0
ACDBDICTIONARYWDFLT
  5
E
102
{ACAD_REACTORS
330
C
102
}
330
C
100
AcDbDictionary
281
     1
  3
Normal
350
F
100
AcDbDictionaryWithDefault
340
F
  0
DICTIONARY
  5
47
102
{ACAD_REACTORS
330
C
102
}
330
C
100
AcDbDictionary
281
     1
  3
A0
350
48
  3
A1
350
49
  3
A2
350
4A
  3
A3
350
4B
  3
A4
350
4C
  3
A5
350
4D
  3
A6
350
4E
  3
A7
350
4F
  3
A8
350
50
  3
A9
350
51
  3
B0
350
52
  3
B1
350
53
  3
B2
350
54
  3
B3
350
55
  3
B4
350
56
  3
B5
350
57
  3
B6
350
58
  3
B7
350
59
  3
B8
350
5A
  3
B9
350
5B
  3
C0
350
5C
  3
C1
350
5D
  3
C2
350
5E
  3
C3
350
5F
  3
C4
350
60
  3
C5
350
61
  3
C6
350
62
  3
C7
350
63
  3
C8
350
64
  3
C9
350
65
  3
D0
350
66
  3
D1
350
67
  3
D2
350
68
  0
LAYOUT
  5
1E
102
{ACAD_REACTORS
330
1A
102
}
330
1A
100
AcDbPlotSettings
  1

  2
none_device
  4

  6

 40
0.0
 41
0.0
 42
0.0
 43
0.0
 44
0.0
 45
0.0
 46
0.0
 47
0.0
 48
0.0
 49
0.0
140
0.0
141
0.0
142
1.0
143
1.0
 70
   688
 72
     1
 73
     0
 74
     5
  7

 75
    16
147
1.0
148
0.0
149
0.0
100
AcDbLayout
  1
Layout1
 70
     1
 71
     1
 10
0.0
 20
0.0
 11
420.0
 21
297.0
 12
0.0
 22
0.0
 32
0.0
 14
1.0000000000E+20
 24
1.0000000000E+20
 34
1.0000000000E+20
 15
-1.0000000000E+20
 25
-1.0000000000E+20
 35
-1.0000000000E+20
146
0.0
 13
0.0
 23
0.0
 33
0.0
 16
1.0
 26
0.0
 36
0.0
 17
0.0
 27
1.0
 37
0.0
 76
     0
330
1B
  0
LAYOUT
  5
26
102
{ACAD_REACTORS
330
1A
102
}
330
1A
100
AcDbPlotSettings
  1

  2
none_device
  4

  6

 40
0.0
 41
0.0
 42
0.0
 43
0.0
 44
0.0
 45
0.0
 46
0.0
 47
0.0
 48
0.0
 49
0.0
140
0.0
141
0.0
142
1.0
143
1.0
 70
   688
 72
     1
 73
     0
 74
     5
  7

 75
    16
147
1.0
148
0.0
149
0.0
100
AcDbLayout
  1
Layout2
 70
     1
 71
     2
 10
0.0
 20
0.0
 11
0.0
 21
0.0
 12
0.0
 22
0.0
 32
0.0
 14
0.0
 24
0.0
 34
0.0
 15
0.0
 25
0.0
 35
0.0
146
0.0
 13
0.0
 23
0.0
 33
0.0
 16
1.0
 26
0.0
 36
0.0
 17
0.0
 27
1.0
 37
0.0
 76
     0
330
23
  0
LAYOUT
  5
22
102
{ACAD_REACTORS
330
1A
102
}
330
1A
100
AcDbPlotSettings
  1

  2
none_device
  4
Letter_(8.50_x_11.00_Inches)
  6

 40
6.35
 41
6.35
 42
6.35000508
 43
6.35000508
 44
215.9
 45
279.4
 46
0.0
 47
0.0
 48
0.0
 49
0.0
140
0.0
141
0.0
142
1.0
143
1.0
 70
  1712
 72
     1
 73
     0
 74
     0
  7

 75
     0
147
1.0
148
0.0
149
0.0
100
AcDbLayout
  1
Model
 70
     1
 71
     0
 10
0.0
 20
0.0
 11
2970.0
 21
2100.0
 12
0.0
 22
0.0
 32
0.0
 14
0.0
 24
0.0
 34
0.0
 15
2970.0
 25
2100.0
 35
0.0
146
0.0
 13
0.0
 23
0.0
 33
0.0
 16
1.0
 26
0.0
 36
0.0
 17
0.0
 27
1.0
 37
0.0
 76
     0
330
1F
331
29
  0
MLINESTYLE
  5
18
102
{ACAD_REACTORS
330
17
102
}
330
17
100
AcDbMlineStyle
  2
Standard
 70
     0
  3

 62
   256
 51
90.0
 52
90.0
 71
     2
 49
0.5
 62
   256
  6
BYLAYER
 49
-0.5
 62
   256
  6
BYLAYER
  0
ACDBPLACEHOLDER
  5
F
102
{ACAD_REACTORS
330
E
102
}
330
E
  0
SCALE
  5
48
102
{ACAD_REACTORS
330
47
102
}
330
47
100
AcDbScale
 70
     0
300
1:1
140
1.0
141
1.0
290
     1
  0
SCALE
  5
49
102
{ACAD_REACTORS
330
47
102
}
330
47
100
AcDbScale
 70
     0
300
1:2
140
1.0
141
2.0
290
     0
  0
SCALE
  5
4A
102
{ACAD_REACTORS
330
47
102
}
330
47
100
AcDbScale
 70
     0
300
1:4
140
1.0
141
4.0
290
     0
  0
SCALE
  5
4B
102
{ACAD_REACTORS
330
47
102
}
330
47
100
AcDbScale
 70
     0
300
1:5
140
1.0
141
5.0
290
     0
  0
SCALE
  5
4C
102
{ACAD_REACTORS
330
47
102
}
330
47
100
AcDbScale
 70
     0
300
1:8
140
1.0
141
8.0
290
     0
  0
SCALE
  5
4D
102
{ACAD_REACTORS
330
47
102
}
330
47
100
AcDbScale
 70
     0
300
1:10
140
1.0
141
10.0
290
     0
  0
SCALE
  5
4E
102
{ACAD_REACTORS
330
47
102
}
330
47
100
AcDbScale
 70
     0
300
1:16
140
1.0
141
16.0
290
     0
  0
SCALE
  5
4F
102
{ACAD_REACTORS
330
47
102
}
330
47
100
AcDbScale
 70
     0
300
1:20
140
1.0
141
20.0
290
     0
  0
SCALE
  5
50
102
{ACAD_REACTORS
330
47
102
}
330
47
100
AcDbScale
 70
     0
300
1:30
140
1.0
141
30.0
290
     0
  0
SCALE
  5
51
102
{ACAD_REACTORS
330
47
102
}
330
47
100
AcDbScale
 70
     0
300
1:40
140
1.0
141
40.0
290
     0
  0
SCALE
  5
52
102
{ACAD_REACTORS
330
47
102
}
330
47
100
AcDbScale
 70
     0
300
1:50
140
1.0
141
50.0
290
     0
  0
SCALE
  5
53
102
{ACAD_REACTORS
330
47
102
}
330
47
100
AcDbScale
 70
     0
300
1:100
140
1.0
141
100.0
290
     0
  0
SCALE
  5
54
102
{ACAD_REACTORS
330
47
102
}
330
47
100
AcDbScale
 70
     0
300
2:1
140
2.0
141
1.0
290
     0
  0
SCALE
  5
55
102
{ACAD_REACTORS
330
47
102
}
330
47
100
AcDbScale
 70
     0
300
4:1
140
4.0
141
1.0
290
     0
  0
SCALE
  5
56
102
{ACAD_REACTORS
330
47
102
}
330
47
100
AcDbScale
 70
     0
300
8:1
140
8.0
141
1.0
290
     0
  0
SCALE
  5
57
102
{ACAD_REACTORS
330
47
102
}
330
47
100
AcDbScale
 70
     0
300
10:1
140
10.0
141
1.0
290
     0
  0
SCALE
  5
58
102
{ACAD_REACTORS
330
47
102
}
330
47
100
AcDbScale
 70
     0
300
100:1
140
100.0
141
1.0
290
     0
  0
SCALE
  5
59
102
{ACAD_REACTORS
330
47
102
}
330
47
100
AcDbScale
 70
     0
300
1/128" = 1'-0"
140
0.0078125
141
12.0
290
     0
  0
SCALE
  5
5A
102
{ACAD_REACTORS
330
47
102
}
330
47
100
AcDbScale
 70
     0
300
1/64" = 1'-0"
140
0.015625
141
12.0
290
     0
  0
SCALE
  5
5B
102
{ACAD_REACTORS
330
47
102
}
330
47
100
AcDbScale
 70
     0
300
1/32" = 1'-0"
140
0.03125
141
12.0
290
     0
  0
SCALE
  5
5C
102
{ACAD_REACTORS
330
47
102
}
330
47
100
AcDbScale
 70
     0
300
1/16" = 1'-0"
140
0.0625
141
12.0
290
     0
  0
SCALE
  5
5D
102
{ACAD_REACTORS
330
47
102
}
330
47
100
AcDbScale
 70
     0
300
3/32" = 1'-0"
140
0.09375
141
12.0
290
     0
  0
SCALE
  5
5E
102
{ACAD_REACTORS
330
47
102
}
330
47
100
AcDbScale
 70
     0
300
1/8" = 1'-0"
140
0.125
141
12.0
290
     0
  0
SCALE
  5
5F
102
{ACAD_REACTORS
330
47
102
}
330
47
100
AcDbScale
 70
     0
300
3/16" = 1'-0"
140
0.1875
141
12.0
290
     0
  0
SCALE
  5
60
102
{ACAD_REACTORS
330
47
102
}
330
47
100
AcDbScale
 70
     0
300
1/4" = 1'-0"
140
0.25
141
12.0
290
     0
  0
SCALE
  5
61
102
{ACAD_REACTORS
330
47
102
}
330
47
100
AcDbScale
 70
     0
300
3/8" = 1'-0"
140
0.375
141
12.0
290
     0
  0
SCALE
  5
62
102
{ACAD_REACTORS
330
47
102
}
330
47
100
AcDbScale
 70
     0
300
1/2" = 1'-0"
140
0.5
141
12.0
290
     0
  0
SCALE
  5
63
102
{ACAD_REACTORS
330
47
102
}
330
47
100
AcDbScale
 70
     0
300
3/4" = 1'-0"
140
0.75
141
12.0
290
     0
  0
SCALE
  5
64
102
{ACAD_REACTORS
330
47
102
}
330
47
100
AcDbScale
 70
     0
300
1" = 1'-0"
140
1.0
141
12.0
290
     0
  0
SCALE
  5
65
102
{ACAD_REACTORS
330
47
102
}
330
47
100
AcDbScale
 70
     0
300
1-1/2" = 1'-0"
140
1.5
141
12.0
290
     0
  0
SCALE
  5
66
102
{ACAD_REACTORS
330
47
102
}
330
47
100
AcDbScale
 70
     0
300
3" = 1'-0"
140
3.0
141
12.0
290
     0
  0
SCALE
  5
67
102
{ACAD_REACTORS
330
47
102
}
330
47
100
AcDbScale
 70
     0
300
6" = 1'-0"
140
6.0
141
12.0
290
     0
  0
SCALE
  5
68
102
{ACAD_REACTORS
330
47
102
}
330
47
100
AcDbScale
 70
     0
300
1'-0" = 1'-0"
140
12.0
141
12.0
290
     0
  0
ENDSEC
  0
EOF
