  0
SECTION
  2
HEADER
  9
$ACADVER
  1
AC1015
  9
$ACADMAINTVER
 70
     6
  9
$DWGCODEPAGE
  3
ANSI_1252
  9
$INSBASE
 10
0.0
 20
0.0
 30
0.0
  9
$EXTMIN
 10
0.0
 20
0.0
 30
0.0
  9
$EXTMAX
 10
2970.0
 20
2100.0
 30
0.0
  9
$LIMMIN
 10
0.0
 20
0.0
  9
$LIMMAX
 10
2970.0
 20
2100.0
  9
$ORTHOMODE
 70
     0
  9
$REGENMODE
 70
     1
  9
$FILLMODE
 70
     1
  9
$QTEXTMODE
 70
     0
  9
$MIRRTEXT
 70
     1
  9
$LTSCALE
 40
10.0
  9
$ATTMODE
 70
     1
  9
$TEXTSIZE
 40
35.0
  9
$TRACEWID
 40
1.0
  9
$TEXTSTYLE
  7
Standard
  9
$CLAYER
  8
0
  9
$CELTYPE
  6
ByLayer
  9
$CECOLOR
 62
   256
  9
$CELTSCALE
 40
1.0
  9
$DISPSILH
 70
     0
  9
$DIMSCALE
 40
1.0
  9
$DIMASZ
 40
25.0
  9
$DIMEXO
 40
0.0
  9
$DIMDLI
 40
3.75
  9
$DIMRND
 40
0.0
  9
$DIMDLE
 40
0.0
  9
$DIMEXE
 40
10.0
  9
$DIMTP
 40
0.0
  9
$DIMTM
 40
0.0
  9
$DIMTXT
 40
30.0
  9
$DIMCEN
 40
2.5
  9
$DIMTSZ
 40
0.0
  9
$DIMTOL
 70
     0
  9
$DIMLIM
 70
     0
  9
$DIMTIH
 70
     1
  9
$DIMTOH
 70
     1
  9
$DIMSE1
 70
     0
  9
$DIMSE2
 70
     0
  9
$DIMTAD
 70
     1
  9
$DIMZIN
 70
     0
  9
$DIMBLK
  1

  9
$DIMASO
 70
     1
  9
$DIMSHO
 70
     1
  9
$DIMPOST
  1

  9
$DIMAPOST
  1

  9
$DIMALT
 70
     0
  9
$DIMALTD
 70
     3
  9
$DIMALTF
 40
0.0393700787
  9
$DIMLFAC
 40
1.0
  9
$DIMTOFL
 70
     1
  9
$DIMTVP
 40
0.0
  9
$DIMTIX
 70
     0
  9
$DIMSOXD
 70
     0
  9
$DIMSAH
 70
     0
  9
$DIMBLK1
  1

  9
$DIMBLK2
  1

  9
$DIMSTYLE
  2
ISO-25
  9
$DIMCLRD
 70
     0
  9
$DIMCLRE
 70
     0
  9
$DIMCLRT
 70
     0
  9
$DIMTFAC
 40
1.0
  9
$DIMGAP
 40
15.0
  9
$DIMJUST
 70
     0
  9
$DIMSD1
 70
     0
  9
$DIMSD2
 70
     0
  9
$DIMTOLJ
 70
     0
  9
$DIMTZIN
 70
     0
  9
$DIMALTZ
 70
     0
  9
$DIMALTTZ
 70
     0
  9
$DIMUPT
 70
     0
  9
$DIMDEC
 70
     1
  9
$DIMTDEC
 70
     1
  9
$DIMALTU
 70
     2
  9
$DIMALTTD
 70
     3
  9
$DIMTXSTY
  7
Standard
  9
$DIMAUNIT
 70
     0
  9
$DIMADEC
 70
     2
  9
$DIMALTRND
 40
0.0
  9
$DIMAZIN
 70
     0
  9
$DIMDSEP
 70
    44
  9
$DIMATFIT
 70
     3
  9
$DIMFRAC
 70
     0
  9
$DIMLDRBLK
  1

  9
$DIMLUNIT
 70
     2
  9
$DIMLWD
 70
    -2
  9
$DIMLWE
 70
    -2
  9
$DIMTMOVE
 70
     0
  9
$LUNITS
 70
     2
  9
$LUPREC
 70
     2
  9
$SKETCHINC
 40
1.0
  9
$FILLETRAD
 40
10.0
  9
$AUNITS
 70
     0
  9
$AUPREC
 70
     2
  9
$MENU
  1
.
  9
$ELEVATION
 40
0.0
  9
$PELEVATION
 40
0.0
  9
$THICKNESS
 40
0.0
  9
$LIMCHECK
 70
     0
  9
$CHAMFERA
 40
0.0
  9
$CHAMFERB
 40
0.0
  9
$CHAMFERC
 40
0.0
  9
$CHAMFERD
 40
0.0
  9
$SKPOLY
 70
     0
  9
$TDCREATE
 40
2457577.502454444
  9
$TDUCREATE
 40
2457577.419121111
  9
$TDUPDATE
 40
2457577.502455
  9
$TDUUPDATE
 40
2457577.419121667
  9
$TDINDWG
 40
0.0000000116
  9
$TDUSRTIMER
 40
0.0000000116
  9
$USRTIMER
 70
     1
  9
$ANGBASE
 50
0.0
  9
$ANGDIR
 70
     0
  9
$PDMODE
 70
     0
  9
$PDSIZE
 40
-1.0
  9
$PLINEWID
 40
0.0
  9
$SPLFRAME
 70
     0
  9
$SPLINETYPE
 70
     6
  9
$SPLINESEGS
 70
     8
  9
$HANDSEED
  5
189
  9
$SURFTAB1
 70
     6
  9
$SURFTAB2
 70
     6
  9
$SURFTYPE
 70
     6
  9
$SURFU
 70
     6
  9
$SURFV
 70
     6
  9
$UCSBASE
  2

  9
$UCSNAME
  2

  9
$UCSORG
 10
0.0
 20
0.0
 30
0.0
  9
$UCSXDIR
 10
1.0
 20
0.0
 30
0.0
  9
$UCSYDIR
 10
0.0
 20
1.0
 30
0.0
  9
$UCSORTHOREF
  2

  9
$UCSORTHOVIEW
 70
     0
  9
$UCSORGTOP
 10
0.0
 20
0.0
 30
0.0
  9
$UCSORGBOTTOM
 10
0.0
 20
0.0
 30
0.0
  9
$UCSORGLEFT
 10
0.0
 20
0.0
 30
0.0
  9
$UCSORGRIGHT
 10
0.0
 20
0.0
 30
0.0
  9
$UCSORGFRONT
 10
0.0
 20
0.0
 30
0.0
  9
$UCSORGBACK
 10
0.0
 20
0.0
 30
0.0
  9
$PUCSBASE
  2

  9
$PUCSNAME
  2

  9
$PUCSORG
 10
0.0
 20
0.0
 30
0.0
  9
$PUCSXDIR
 10
1.0
 20
0.0
 30
0.0
  9
$PUCSYDIR
 10
0.0
 20
1.0
 30
0.0
  9
$PUCSORTHOREF
  2

  9
$PUCSORTHOVIEW
 70
     0
  9
$PUCSORGTOP
 10
0.0
 20
0.0
 30
0.0
  9
$PUCSORGBOTTOM
 10
0.0
 20
0.0
 30
0.0
  9
$PUCSORGLEFT
 10
0.0
 20
0.0
 30
0.0
  9
$PUCSORGRIGHT
 10
0.0
 20
0.0
 30
0.0
  9
$PUCSORGFRONT
 10
0.0
 20
0.0
 30
0.0
  9
$PUCSORGBACK
 10
0.0
 20
0.0
 30
0.0
  9
$USERI1
 70
     0
  9
$USERI2
 70
     0
  9
$USERI3
 70
     0
  9
$USERI4
 70
     0
  9
$USERI5
 70
     0
  9
$USERR1
 40
0.0
  9
$USERR2
 40
0.0
  9
$USERR3
 40
0.0
  9
$USERR4
 40
0.0
  9
$USERR5
 40
0.0
  9
$WORLDVIEW
 70
     1
  9
$SHADEDGE
 70
     3
  9
$SHADEDIF
 70
    70
  9
$TILEMODE
 70
     1
  9
$MAXACTVP
 70
    64
  9
$PINSBASE
 10
0.0
 20
0.0
 30
0.0
  9
$PLIMCHECK
 70
     0
  9
$PEXTMIN
 10
1.0000000000E+20
 20
1.0000000000E+20
 30
1.0000000000E+20
  9
$PEXTMAX
 10
-1.0000000000E+20
 20
-1.0000000000E+20
 30
-1.0000000000E+20
  9
$PLIMMIN
 10
0.0
 20
0.0
  9
$PLIMMAX
 10
420.0
 20
297.0
  9
$UNITMODE
 70
     0
  9
$VISRETAIN
 70
     1
  9
$PLINEGEN
 70
     0
  9
$PSLTSCALE
 70
     1
  9
$TREEDEPTH
 70
  3020
  9
$CMLSTYLE
  2
Standard
  9
$CMLJUST
 70
     0
  9
$CMLSCALE
 40
20.0
  9
$PROXYGRAPHICS
 70
     1
  9
$MEASUREMENT
 70
     1
  9
$CELWEIGHT
370
    -1
  9
$ENDCAPS
280
     0
  9
$JOINSTYLE
280
     0
  9
$LWDISPLAY
290
     1
  9
$INSUNITS
 70
     4
  9
$HYPERLINKBASE
  1

  9
$STYLESHEET
  1

  9
$XEDIT
290
     1
  9
$CEPSNTYPE
380
     0
  9
$PSTYLEMODE
290
     1
  9
$FINGERPRINTGUID
  2
{96B15C42-F1C4-452D-A73A-B97EDFD2129E}
  9
$VERSIONGUID
  2
{FAEB1C32-E019-11D5-929B-00C0DF256EC4}
  9
$EXTNAMES
290
     1
  9
$PSVPSCALE
 40
0.0
  9
$OLESTARTUP
290
     0
  0
ENDSEC
  0
SECTION
  2
CLASSES
  0
CLASS
  1
ACDBDICTIONARYWDFLT
  2
AcDbDictionaryWithDefault
  3
ObjectDBX Classes
 90
        0
280
     0
281
     0
  0
CLASS
  1
VISUALSTYLE
  2
AcDbVisualStyle
  3
ObjectDBX Classes
 90
     4095
280
     0
281
     0
  0
CLASS
  1
MATERIAL
  2
AcDbMaterial
  3
ObjectDBX Classes
 90
     1153
280
     0
281
     0
  0
CLASS
  1
SCALE
  2
AcDbScale
  3
ObjectDBX Classes
 90
     1153
280
     0
281
     0
  0
CLASS
  1
TABLESTYLE
  2
AcDbTableStyle
  3
ObjectDBX Classes
 90
     4095
280
     0
281
     0
  0
CLASS
  1
MLEADERSTYLE
  2
AcDbMLeaderStyle
  3
ACDB_MLEADERSTYLE_CLASS
 90
     4095
280
     0
281
     0
  0
CLASS
  1
SUN
  2
AcDbSun
  3
SCENEOE
 90
     1153
280
     0
281
     0
  0
CLASS
  1
ACDBPLACEHOLDER
  2
AcDbPlaceHolder
  3
ObjectDBX Classes
 90
        0
280
     0
281
     0
  0
CLASS
  1
LAYOUT
  2
AcDbLayout
  3
ObjectDBX Classes
 90
        0
280
     0
281
     0
  0
ENDSEC
  0
SECTION
  2
TABLES
  0
TABLE
  2
VPORT
  5
8
330
0
100
AcDbSymbolTable
 70
     1
  0
VPORT
  5
29
330
8
100
AcDbSymbolTableRecord
100
AcDbViewportTableRecord
  2
*Active
 70
     0
 10
0.0
 20
0.0
 11
1.0
 21
1.0
 12
1485.0
 22
1050.0
 13
0.0
 23
0.0
 14
10.0
 24
10.0
 15
10.0
 25
10.0
 16
0.0
 26
0.0
 36
1.0
 17
0.0
 27
0.0
 37
0.0
 40
2100.0
 41
1.4142857143
 42
50.0
 43
0.0
 44
0.0
 50
0.0
 51
0.0
 71
     0
 72
  2000
 73
     1
 74
     3
 75
     0
 76
     0
 77
     0
 78
     0
281
     0
 65
     1
110
0.0
120
0.0
130
0.0
111
1.0
121
0.0
131
0.0
112
0.0
122
1.0
132
0.0
 79
     0
146
0.0
  0
ENDTAB
  0
TABLE
  2
LTYPE
  5
5
330
0
100
AcDbSymbolTable
 70
     6
  0
LTYPE
  5
14
330
5
100
AcDbSymbolTableRecord
100
AcDbLinetypeTableRecord
  2
ByBlock
 70
     0
  3

 72
    65
 73
     0
 40
0.0
  0
LTYPE
  5
15
330
5
100
AcDbSymbolTableRecord
100
AcDbLinetypeTableRecord
  2
ByLayer
 70
     0
  3

 72
    65
 73
     0
 40
0.0
  0
LTYPE
  5
16
330
5
100
AcDbSymbolTableRecord
100
AcDbLinetypeTableRecord
  2
Continuous
 70
     0
  3
Solid line
 72
    65
 73
     0
 40
0.0
  0
LTYPE
  5
6E
330
5
100
AcDbSymbolTableRecord
100
AcDbLinetypeTableRecord
  2
HIDDEN
 70
     0
  3
Hidden __ __ __ __ __ __ __ __ __ __ __ __ __ __
 72
    65
 73
     2
 40
1.905
 49
1.27
 74
     0
 49
-0.635
 74
     0
  0
LTYPE
  5
6F
330
5
100
AcDbSymbolTableRecord
100
AcDbLinetypeTableRecord
  2
PHANTOM
 70
     0
  3
Phantom ______  __  __  ______  __  __  ______
 72
    65
 73
     6
 40
12.7
 49
6.35
 74
     0
 49
-1.27
 74
     0
 49
1.27
 74
     0
 49
-1.27
 74
     0
 49
1.27
 74
     0
 49
-1.27
 74
     0
  0
LTYPE
  5
70
330
5
100
AcDbSymbolTableRecord
100
AcDbLinetypeTableRecord
  2
CENTER
 70
     0
  3
Center ____ _ ____ _ ____ _ ____ _ ____ _ ____
 72
    65
 73
     4
 40
10.16
 49
6.35
 74
     0
 49
-1.27
 74
     0
 49
1.27
 74
     0
 49
-1.27
 74
     0
  0
LTYPE
  5
71
330
5
100
AcDbSymbolTableRecord
100
AcDbLinetypeTableRecord
  2
CENTERX2
 70
     0
  3
Center (2x) ________  __  ________  __  _____
 72
    65
 73
     4
 40
20.32
 49
12.7
 74
     0
 49
-2.54
 74
     0
 49
2.54
 74
     0
 49
-2.54
 74
     0
  0
LTYPE
  5
72
330
5
100
AcDbSymbolTableRecord
100
AcDbLinetypeTableRecord
  2
DOT2
 70
     0
  3
Dot (.5x) ........................................
 72
    65
 73
     2
 40
0.635
 49
0.0
 74
     0
 49
-0.635
 74
     0
  0
ENDTAB
  0
TABLE
  2
LAYER
  5
2
330
0
100
AcDbSymbolTable
 70
     2
  0
LAYER
  5
10
330
2
100
AcDbSymbolTableRecord
100
AcDbLayerTableRecord
  2
0
 70
     0
 62
     7
  6
Continuous
370
    -3
390
F
  0
LAYER
  5
73
330
2
100
AcDbSymbolTableRecord
100
AcDbLayerTableRecord
  2
FORMAT
 70
     0
 62
     7
  6
Continuous
370
    -3
390
F
  0
ENDTAB
  0
TABLE
  2
STYLE
  5
3
330
0
100
AcDbSymbolTable
 70
     2
  0
STYLE
  5
11
330
3
100
AcDbSymbolTableRecord
100
AcDbTextStyleTableRecord
  2
Standard
 70
     0
 40
0.0
 41
1.0
 50
0.0
 71
     0
 42
35.0
  3
txt
  4

  0
STYLE
  5
E7
330
3
100
AcDbSymbolTableRecord
100
AcDbTextStyleTableRecord
  2
SLDTEXTSTYLE0
 70
     0
 40
0.0
 41
0.605
 50
0.0
 71
     0
 42
35.0
  3
TXT
  4

  0
ENDTAB
  0
TABLE
  2
VIEW
  5
6
330
0
100
AcDbSymbolTable
 70
     0
  0
ENDTAB
  0
TABLE
  2
UCS
  5
7
330
0
100
AcDbSymbolTable
 70
     0
  0
ENDTAB
  0
TABLE
  2
APPID
  5
9
330
0
100
AcDbSymbolTable
 70
     1
  0
APPID
  5
12
330
9
100
AcDbSymbolTableRecord
100
AcDbRegAppTableRecord
  2
ACAD
 70
     0
  0
ENDTAB
  0
TABLE
  2
DIMSTYLE
  5
A
330
0
100
AcDbSymbolTable
 70
     1
100
AcDbDimStyleTable
  0
DIMSTYLE
105
27
330
A
100
AcDbSymbolTableRecord
100
AcDbDimStyleTableRecord
  2
ISO-25
 70
     0
 41
2.5
 42
0.625
 43
3.75
 44
1.25
 73
     0
 74
     0
 77
     1
 78
     8
140
2.5
141
2.5
143
0.0393700787
147
0.625
171
     3
172
     1
178
     0
271
     2
272
     2
274
     3
278
    44
283
     0
284
     8
340
11
  0
ENDTAB
  0
TABLE
  2
BLOCK_RECORD
  5
1
330
0
100
AcDbSymbolTable
 70
     3
  0
BLOCK_RECORD
  5
1F
330
1
100
AcDbSymbolTableRecord
100
AcDbBlockTableRecord
  2
*Model_Space
340
22
  0
BLOCK_RECORD
  5
1B
330
1
100
AcDbSymbolTableRecord
100
AcDbBlockTableRecord
  2
*Paper_Space
340
1E
  0
BLOCK_RECORD
  5
23
330
1
100
AcDbSymbolTableRecord
100
AcDbBlockTableRecord
  2
*Paper_Space0
340
26
  0
BLOCK_RECORD
  5
EB
330
1
100
AcDbSymbolTableRecord
100
AcDbBlockTableRecord
  2
SW_NOTE_0
340
0
102
{BLKREFS
331
F0
102
}
  0
BLOCK_RECORD
  5
F3
330
1
100
AcDbSymbolTableRecord
100
AcDbBlockTableRecord
  2
SW_NOTE_1
340
0
102
{BLKREFS
331
F8
102
}
  0
ENDTAB
  0
ENDSEC
  0
SECTION
  2
BLOCKS
  0
BLOCK
  5
20
330
1F
100
AcDbEntity
  8
0
100
AcDbBlockBegin
  2
*Model_Space
 70
     0
 10
0.0
 20
0.0
 30
0.0
  3
*Model_Space
  1

  0
ENDBLK
  5
21
330
1F
100
AcDbEntity
  8
0
100
AcDbBlockEnd
  0
BLOCK
  5
1C
330
1B
100
AcDbEntity
 67
     1
  8
0
100
AcDbBlockBegin
  2
*Paper_Space
 70
     0
 10
0.0
 20
0.0
 30
0.0
  3
*Paper_Space
  1

  0
ENDBLK
  5
1D
330
1B
100
AcDbEntity
 67
     1
  8
0
100
AcDbBlockEnd
  0
BLOCK
  5
24
330
23
100
AcDbEntity
  8
0
100
AcDbBlockBegin
  2
*Paper_Space0
 70
     0
 10
0.0
 20
0.0
 30
0.0
  3
*Paper_Space0
  1

  0
ENDBLK
  5
25
330
23
100
AcDbEntity
  8
0
100
AcDbBlockEnd
  0
BLOCK
  5
EC
330
EB
100
AcDbEntity
  8
0
100
AcDbBlockBegin
  2
SW_NOTE_0
 70
     0
 10
0.0
 20
0.0
 30
0.0
  3
SW_NOTE_0
  1

  0
MTEXT
  5
EE
330
EB
100
AcDbEntity
  8
0
  6
Continuous
 62
     0
370
     0
100
AcDbMText
 10
0.0
 20
23.2032193159
 30
0.0
 40
18.0
 41
0.0
 71
     1
 72
     1
  1
Questo disegno e posto sotto la tutela delle vigenti Leggi e non puo essere utilizzato da terze persone se non previa autorizzazione scritta della PEDRALI
  7
SLDTEXTSTYLE0
 73
     1
 44
1.0
  0
MTEXT
  5
EF
330
EB
100
AcDbEntity
  8
0
  6
Continuous
 62
     0
370
     0
100
AcDbMText
 10
1355.5219376087
 20
23.2032193159
 30
0.0
 40
18.0
 41
0.0
 71
     1
 72
     1
  1
S.p.A.
  7
SLDTEXTSTYLE0
 73
     1
 44
1.0
  0
ENDBLK
  5
ED
330
EB
100
AcDbEntity
  8
0
100
AcDbBlockEnd
  0
BLOCK
  5
F4
330
F3
100
AcDbEntity
  8
0
100
AcDbBlockBegin
  2
SW_NOTE_1
 70
     0
 10
0.0
 20
0.0
 30
0.0
  3
SW_NOTE_1
  1

  0
MTEXT
  5
F6
330
F3
100
AcDbEntity
  8
0
  6
Continuous
 62
     0
370
     0
100
AcDbMText
 10
33.1875
 20
23.2032193159
 30
0.0
 40
18.0
 41
0.0
 71
     2
 72
     1
  1
SCALA
  7
SLDTEXTSTYLE0
 73
     1
 44
1.0
  0
MTEXT
  5
F7
330
F3
100
AcDbEntity
  8
0
  6
Continuous
 62
     0
370
     0
100
AcDbMText
 10
35.6098540438
 20
-1.6396707646
 30
0.0
 40
37.0416666667
 41
0.0
 71
     2
 72
     1
  1
1:1
  7
SLDTEXTSTYLE0
 73
     1
 44
1.0
  0
ENDBLK
  5
F5
330
F3
100
AcDbEntity
  8
0
100
AcDbBlockEnd
  0
ENDSEC
  0
SECTION
  2
ENTITIES
  0
HATCH
  5
74
330
1F
100
AcDbEntity
  8
0
  6
Continuous
 62
     7
100
AcDbHatch
 10
0.0
 20
0.0
 30
0.0
210
0.0
220
0.0
230
1.0
  2
SOLID
 70
     1
 71
     0
 91
        2
 92
        0
 93
        6
 72
     1
 10
2340.243226420216
 20
319.3144821747094
 11
2356.647910872445
 21
319.3144821747094
 72
     3
 10
2351.078765157099
 20
331.9559440369547
 11
27.08884684798352
 21
0.0
 40
0.4768529109443384
 50
293.7756995582609
 51
426.2243004403791
 73
     1
 72
     1
 10
2356.647910872789
 20
344.5974058991662
 11
2323.989918311282
 21
344.5974058991662
 72
     1
 10
2323.989918311282
 20
344.5974058991662
 11
2323.989918311282
 21
304.8670971915081
 72
     1
 10
2323.989918311282
 20
304.8670971915081
 11
2340.243226420216
 21
304.8670971915081
 72
     1
 10
2340.243226420216
 20
304.8670971915081
 11
2340.243226420216
 21
319.3144821747094
 97
        0
 92
        0
 93
        6
 72
     3
 10
2350.175803596967
 20
331.9559440369547
 11
9.932577177641511
 21
0.0
 40
0.5895245510672578
 50
316.3365658560252
 51
403.663434144226
 73
     0
 72
     2
 10
2352.923880980421
 20
333.7618671600596
 40
7.223692492544108
 50
69.99121011132742
 51
90.0
 73
     0
 72
     1
 10
2352.923880980421
 20
326.5381746675155
 11
2340.243226419814
 21
326.5381746675155
 72
     1
 10
2340.243226419814
 20
326.5381746675155
 11
2340.243226419814
 21
337.37371340629
 72
     1
 10
2340.243226419814
 20
337.37371340629
 11
2352.923880981012
 21
337.37371340629
 72
     2
 10
2352.923880981012
 20
330.150020915474
 40
7.223692490816113
 50
270.0000000000008
 51
290.0087898889545
 73
     0
 97
        0
 75
     0
 76
     1
 98
        1
 10
0.0
 20
0.0
  0
HATCH
  5
75
330
1F
100
AcDbEntity
  8
0
  6
Continuous
 62
     7
100
AcDbHatch
 10
0.0
 20
0.0
 30
0.0
210
0.0
220
0.0
230
1.0
  2
SOLID
 70
     1
 71
     0
 91
        1
 92
        0
 93
       12
 72
     1
 10
2435.957151948124
 20
344.59740589754
 11
2381.779458253796
 21
344.59740589754
 72
     1
 10
2381.779458253796
 20
344.59740589754
 11
2381.779458253796
 21
304.867097189882
 72
     1
 10
2381.779458253796
 20
304.867097189882
 11
2435.957151948124
 21
304.867097189882
 72
     1
 10
2435.957151948124
 20
304.867097189882
 11
2435.957151948124
 21
312.09078967967
 72
     1
 10
2435.957151948124
 20
312.09078967967
 11
2399.838689485178
 21
312.09078967967
 72
     1
 10
2399.838689485178
 20
312.09078967967
 11
2399.838689485178
 21
321.1204052953607
 72
     1
 10
2399.838689485178
 20
321.1204052953607
 11
2432.345305703229
 21
321.1204052953607
 72
     1
 10
2432.345305703229
 20
321.1204052953607
 11
2432.345305703229
 21
328.344097788605
 72
     1
 10
2432.345305703229
 20
328.344097788605
 11
2399.838689485178
 21
328.344097788605
 72
     1
 10
2399.838689485178
 20
328.344097788605
 11
2399.838689485178
 21
337.3737134042958
 72
     1
 10
2399.838689485178
 20
337.3737134042958
 11
2435.957151948124
 21
337.3737134042958
 72
     1
 10
2435.957151948124
 20
337.3737134042958
 11
2435.957151948124
 21
344.59740589754
 97
        0
 75
     0
 76
     1
 98
        1
 10
0.0
 20
0.0
  0
HATCH
  5
76
330
1F
100
AcDbEntity
  8
0
  6
Continuous
 62
     7
100
AcDbHatch
 10
0.0
 20
0.0
 30
0.0
210
0.0
220
0.0
230
1.0
  2
SOLID
 70
     1
 71
     0
 91
        1
 92
        0
 93
        6
 72
     1
 10
2645.444234240045
 20
344.597405899586
 11
2627.385003008663
 21
344.597405899586
 72
     1
 10
2627.385003008663
 20
344.597405899586
 11
2627.385003008663
 21
304.8670971919279
 72
     1
 10
2627.385003008663
 20
304.8670971919279
 11
2676.14492733565
 21
304.8670971919279
 72
     1
 10
2676.14492733565
 20
304.8670971919279
 11
2676.14492733565
 21
313.8967128076189
 72
     1
 10
2676.14492733565
 20
313.8967128076189
 11
2645.444234240045
 21
313.8967128076189
 72
     1
 10
2645.444234240045
 20
313.8967128076189
 11
2645.444234240045
 21
344.597405899586
 97
        0
 75
     0
 76
     1
 98
        1
 10
0.0
 20
0.0
  0
HATCH
  5
77
330
1F
100
AcDbEntity
  8
0
  6
Continuous
 62
     7
100
AcDbHatch
 10
0.0
 20
0.0
 30
0.0
210
0.0
220
0.0
230
1.0
  2
SOLID
 70
     1
 71
     0
 91
        1
 92
        0
 93
        4
 72
     1
 10
2677.950850457337
 20
344.5974058991659
 11
2677.950850457337
 21
304.8670971915079
 72
     1
 10
2677.950850457337
 20
304.8670971915079
 11
2696.010081688719
 21
304.8670971915079
 72
     1
 10
2696.010081688719
 20
304.8670971915079
 11
2696.010081688719
 21
344.5974058991659
 72
     1
 10
2696.010081688719
 20
344.5974058991659
 11
2677.950850457337
 21
344.5974058991659
 97
        0
 75
     0
 76
     1
 98
        1
 10
0.0
 20
0.0
  0
HATCH
  5
78
330
1F
100
AcDbEntity
  8
0
  6
Continuous
 62
     7
100
AcDbHatch
 10
0.0
 20
0.0
 30
0.0
210
0.0
220
0.0
230
1.0
  2
SOLID
 70
     1
 71
     0
 91
        2
 92
        0
 93
        4
 72
     3
 10
2468.463768165085
 20
324.7322515426197
 11
28.89476997115586
 21
0.0
 40
0.6929224243374513
 50
280.2934314618138
 51
439.7065685387129
 73
     1
 72
     1
 10
2472.071526001564
 20
344.5974058975816
 11
2439.568998196665
 21
344.5974058975813
 72
     1
 10
2439.568998196665
 20
344.5974058975813
 11
2439.568998196665
 21
304.8670971876741
 72
     1
 10
2439.568998196665
 20
304.8670971876741
 11
2472.071526001749
 21
304.8670971876741
 97
        0
 92
        0
 93
        6
 72
     2
 10
2472.947172767998
 20
324.7322515421808
 40
10.83553873998016
 50
56.16906508602374
 51
90.0
 73
     0
 72
     1
 10
2472.947172767998
 20
313.8967128022008
 11
2455.82230630316
 21
313.8967128022008
 72
     1
 10
2455.82230630316
 20
313.8967128022008
 11
2455.82230630316
 21
335.5677902826995
 72
     1
 10
2455.82230630316
 20
335.5677902826995
 11
2472.947172767998
 21
335.5677902826995
 72
     2
 10
2472.947172767998
 20
324.7322515421808
 40
10.83553874051871
 50
270.0000000000008
 51
303.8314447476077
 73
     0
 72
     3
 10
2462.14303723761
 20
324.7322515426197
 11
22.57403904004612
 21
0.0
 40
0.5985848325441405
 50
331.8713554011807
 51
388.1288999924611
 73
     0
 97
        0
 75
     0
 76
     1
 98
        1
 10
0.0
 20
0.0
  0
HATCH
  5
79
330
1F
100
AcDbEntity
  8
0
  6
Continuous
 62
     7
100
AcDbHatch
 10
0.0
 20
0.0
 30
0.0
210
0.0
220
0.0
230
1.0
  2
SOLID
 70
     1
 71
     0
 91
        3
 92
        0
 93
       19
 72
     1
 10
2558.870202192612
 20
314.7709579586855
 11
2560.355534650718
 21
308.9676544182703
 72
     2
 10
2565.453566637579
 20
310.114383967383
 40
5.225410873593411
 50
192.6768785101394
 51
204.7368873206736
 73
     1
 72
     1
 10
2560.707644877863
 20
307.927800914186
 11
2584.042848052473
 21
344.597405899586
 72
     1
 10
2584.042848052473
 20
344.597405899586
 11
2602.102079283856
 21
344.597405899586
 72
     1
 10
2602.102079283856
 20
344.597405899586
 11
2627.385003008663
 21
304.8670971919279
 72
     1
 10
2627.385003008663
 20
304.8670971919279
 11
2609.325771777099
 21
304.8670971919279
 72
     1
 10
2609.325771777099
 20
304.8670971919279
 11
2605.262444749956
 21
312.090789681716
 72
     1
 10
2605.262444749956
 20
312.090789681716
 11
2580.882482586372
 21
312.090789681716
 72
     1
 10
2580.882482586372
 20
312.090789681716
 11
2576.819155559229
 21
304.8670971919279
 72
     1
 10
2576.819155559229
 20
304.8670971919279
 11
2546.118462463106
 21
304.8670971919279
 72
     1
 10
2546.118462463106
 20
304.8670971919279
 11
2546.118462463106
 21
312.0907896826544
 72
     2
 10
2538.894769969861
 20
312.0907896826544
 40
7.223692493244227
 50
0.0
 51
90.0
 73
     1
 72
     1
 10
2538.894769969861
 20
319.3144821758984
 11
2520.835538738298
 21
319.3144821758984
 72
     1
 10
2520.835538738298
 20
319.3144821758984
 11
2520.835538738298
 21
304.8670971928664
 72
     1
 10
2520.835538738298
 20
304.8670971928664
 11
2504.582230629363
 21
304.8670971928664
 72
     1
 10
2504.582230629363
 20
304.8670971928664
 11
2504.582230629363
 21
344.5974059005244
 72
     1
 10
2504.582230629363
 20
344.5974059005244
 11
2542.019258305786
 21
344.5974059005244
 72
     3
 10
2538.029947706919
 20
332.9364020822968
 11
24.32666622535162
 21
0.0
 40
0.4859291160023137
 50
288.8861745463018
 51
398.6942257036357
 73
     0
 72
     2
 10
2549.037584929584
 20
312.9627960708336
 40
9.997490267756193
 50
279.2678272406082
 51
349.5800515720779
 73
     0
 97
        0
 92
        0
 93
        3
 72
     1
 10
2593.072463667404
 20
333.7618671594018
 11
2584.945809612937
 21
319.3144821729139
 72
     1
 10
2584.945809612937
 20
319.3144821729139
 11
2601.199117721872
 21
319.3144821729139
 72
     1
 10
2601.199117721872
 20
319.3144821729139
 11
2593.072463667404
 21
333.7618671594018
 97
        0
 92
        0
 93
        6
 72
     2
 10
2538.478172418671
 20
331.9559440374287
 40
5.417769370214362
 50
270.0000000000008
 51
305.5869104965606
 73
     1
 72
     3
 10
2532.574039041056
 20
331.9559440369547
 11
11.73850030081747
 21
0.0
 40
0.5900077182209745
 50
334.058541690378
 51
385.9414583083995
 73
     1
 72
     2
 10
2538.478172418671
 20
331.9559440374287
 40
5.417769369443226
 50
54.41308949502037
 51
90.0
 73
     1
 72
     1
 10
2538.478172418671
 20
337.3737134068722
 11
2520.835538737718
 21
337.3737134068722
 72
     1
 10
2520.835538737718
 20
337.3737134068722
 11
2520.835538737718
 21
326.538174667214
 72
     1
 10
2520.835538737718
 20
326.538174667214
 11
2538.478172418671
 21
326.5381746672143
 97
        0
 75
     0
 76
     1
 98
        1
 10
0.0
 20
0.0
  0
LINE
  5
7A
330
1F
100
AcDbEntity
  8
0
  6
Continuous
 62
     7
370
    15
100
AcDbLine
 10
2870.0
 20
100.0
 30
0.0
 11
2870.0
 21
2000.0
 31
0.0
  0
LINE
  5
7B
330
1F
100
AcDbEntity
  8
0
  6
Continuous
 62
   179
370
     0
100
AcDbLine
 10
2323.9899183113
 20
344.5974058992
 30
0.0
 11
2323.9899183113
 21
304.8670971915
 31
0.0
  0
LINE
  5
7C
330
1F
100
AcDbEntity
  8
0
  6
Continuous
 62
   179
370
     0
100
AcDbLine
 10
2323.9899183113
 20
344.5974058992
 30
0.0
 11
2356.6479108728
 21
344.5974058992
 31
0.0
  0
LINE
  5
7D
330
1F
100
AcDbEntity
  8
0
  6
Continuous
 62
   179
370
     0
100
AcDbLine
 10
2323.9899183113
 20
304.8670971915
 30
0.0
 11
2340.2432264202
 21
304.8670971915
 31
0.0
  0
LINE
  5
7E
330
1F
100
AcDbEntity
  8
0
  6
Continuous
 62
   179
370
     0
100
AcDbLine
 10
2340.2432264202
 20
304.8670971915
 30
0.0
 11
2340.2432264202
 21
319.3144821747
 31
0.0
  0
LINE
  5
7F
330
1F
100
AcDbEntity
  8
0
  6
Continuous
 62
   179
370
     0
100
AcDbLine
 10
2356.6479108724
 20
319.3144821747
 30
0.0
 11
2340.2432264202
 21
319.3144821747
 31
0.0
  0
LINE
  5
80
330
1F
100
AcDbEntity
  8
0
  6
Continuous
 62
   179
370
     0
100
AcDbLine
 10
2340.2432264198
 20
326.5381746675
 30
0.0
 11
2340.2432264198
 21
337.3737134063
 31
0.0
  0
LINE
  5
81
330
1F
100
AcDbEntity
  8
0
  6
Continuous
 62
   179
370
     0
100
AcDbLine
 10
2340.2432264198
 20
337.3737134063
 30
0.0
 11
2352.923880981
 21
337.3737134063
 31
0.0
  0
LINE
  5
82
330
1F
100
AcDbEntity
  8
0
  6
Continuous
 62
   179
370
     0
100
AcDbLine
 10
2340.2432264198
 20
326.5381746675
 30
0.0
 11
2352.9238809804
 21
326.5381746675
 31
0.0
  0
LINE
  5
83
330
1F
100
AcDbEntity
  8
0
  6
Continuous
 62
   179
370
     0
100
AcDbLine
 10
2381.7794582538
 20
344.5974058975
 30
0.0
 11
2435.9571519481
 21
344.5974058975
 31
0.0
  0
LINE
  5
84
330
1F
100
AcDbEntity
  8
0
  6
Continuous
 62
   179
370
     0
100
AcDbLine
 10
2435.9571519481
 20
344.5974058975
 30
0.0
 11
2435.9571519481
 21
337.3737134043
 31
0.0
  0
LINE
  5
85
330
1F
100
AcDbEntity
  8
0
  6
Continuous
 62
   179
370
     0
100
AcDbLine
 10
2435.9571519481
 20
337.3737134043
 30
0.0
 11
2399.8386894852
 21
337.3737134043
 31
0.0
  0
LINE
  5
86
330
1F
100
AcDbEntity
  8
0
  6
Continuous
 62
   179
370
     0
100
AcDbLine
 10
2399.8386894852
 20
337.3737134043
 30
0.0
 11
2399.8386894852
 21
328.3440977886
 31
0.0
  0
LINE
  5
87
330
1F
100
AcDbEntity
  8
0
  6
Continuous
 62
   179
370
     0
100
AcDbLine
 10
2399.8386894852
 20
328.3440977886
 30
0.0
 11
2432.3453057032
 21
328.3440977886
 31
0.0
  0
LINE
  5
88
330
1F
100
AcDbEntity
  8
0
  6
Continuous
 62
   179
370
     0
100
AcDbLine
 10
2432.3453057032
 20
328.3440977886
 30
0.0
 11
2432.3453057032
 21
321.1204052954
 31
0.0
  0
LINE
  5
89
330
1F
100
AcDbEntity
  8
0
  6
Continuous
 62
   179
370
     0
100
AcDbLine
 10
2432.3453057032
 20
321.1204052954
 30
0.0
 11
2399.8386894852
 21
321.1204052954
 31
0.0
  0
LINE
  5
8A
330
1F
100
AcDbEntity
  8
0
  6
Continuous
 62
   179
370
     0
100
AcDbLine
 10
2399.8386894852
 20
321.1204052954
 30
0.0
 11
2399.8386894852
 21
312.0907896797
 31
0.0
  0
LINE
  5
8B
330
1F
100
AcDbEntity
  8
0
  6
Continuous
 62
   179
370
     0
100
AcDbLine
 10
2399.8386894852
 20
312.0907896797
 30
0.0
 11
2435.9571519481
 21
312.0907896797
 31
0.0
  0
LINE
  5
8C
330
1F
100
AcDbEntity
  8
0
  6
Continuous
 62
   179
370
     0
100
AcDbLine
 10
2435.9571519481
 20
312.0907896797
 30
0.0
 11
2435.9571519481
 21
304.8670971899
 31
0.0
  0
LINE
  5
8D
330
1F
100
AcDbEntity
  8
0
  6
Continuous
 62
   179
370
     0
100
AcDbLine
 10
2435.9571519481
 20
304.8670971899
 30
0.0
 11
2381.7794582538
 21
304.8670971899
 31
0.0
  0
LINE
  5
8E
330
1F
100
AcDbEntity
  8
0
  6
Continuous
 62
   179
370
     0
100
AcDbLine
 10
2439.5689981967
 20
344.5974058976
 30
0.0
 11
2439.5689981967
 21
304.8670971877
 31
0.0
  0
LINE
  5
8F
330
1F
100
AcDbEntity
  8
0
  6
Continuous
 62
   179
370
     0
100
AcDbLine
 10
2439.5689981967
 20
344.5974058976
 30
0.0
 11
2472.0715260016
 21
344.5974058976
 31
0.0
  0
LINE
  5
90
330
1F
100
AcDbEntity
  8
0
  6
Continuous
 62
   179
370
     0
100
AcDbLine
 10
2472.0715260017
 20
304.8670971877
 30
0.0
 11
2439.5689981967
 21
304.8670971877
 31
0.0
  0
LINE
  5
91
330
1F
100
AcDbEntity
  8
0
  6
Continuous
 62
   179
370
     0
100
AcDbLine
 10
2455.8223063032
 20
324.7322515403
 30
0.0
 11
2455.8223063032
 21
313.8967128022
 31
0.0
  0
LINE
  5
92
330
1F
100
AcDbEntity
  8
0
  6
Continuous
 62
   179
370
     0
100
AcDbLine
 10
2455.8223063032
 20
313.8967128022
 30
0.0
 11
2472.947172768
 21
313.8967128022
 31
0.0
  0
LINE
  5
93
330
1F
100
AcDbEntity
  8
0
  6
Continuous
 62
   179
370
     0
100
AcDbLine
 10
2455.8223063032
 20
324.7322515403
 30
0.0
 11
2455.8223063032
 21
335.5677902827
 31
0.0
  0
LINE
  5
94
330
1F
100
AcDbEntity
  8
0
  6
Continuous
 62
   179
370
     0
100
AcDbLine
 10
2455.8223063032
 20
335.5677902827
 30
0.0
 11
2472.947172768
 21
335.5677902827
 31
0.0
  0
LINE
  5
95
330
1F
100
AcDbEntity
  8
0
  6
Continuous
 62
   179
370
     0
100
AcDbLine
 10
2504.5822306294
 20
344.5974059005
 30
0.0
 11
2504.5822306294
 21
304.8670971929
 31
0.0
  0
LINE
  5
96
330
1F
100
AcDbEntity
  8
0
  6
Continuous
 62
     7
370
     0
100
AcDbLine
 10
2728.7989947508
 20
280.0000000004
 30
0.0
 11
2728.7989947508
 21
190.0000000002
 31
0.0
  0
LINE
  5
97
330
1F
100
AcDbEntity
  8
0
  6
Continuous
 62
   179
370
     0
100
AcDbLine
 10
2504.5822306294
 20
304.8670971929
 30
0.0
 11
2520.8355387383
 21
304.8670971929
 31
0.0
  0
LINE
  5
98
330
1F
100
AcDbEntity
  8
0
  6
Continuous
 62
   179
370
     0
100
AcDbLine
 10
2520.8355387383
 20
304.8670971929
 30
0.0
 11
2520.8355387383
 21
319.3144821759
 31
0.0
  0
LINE
  5
99
330
1F
100
AcDbEntity
  8
0
  6
Continuous
 62
   179
370
     0
100
AcDbLine
 10
2520.8355387383
 20
319.3144821759
 30
0.0
 11
2538.8947699699
 21
319.3144821759
 31
0.0
  0
LINE
  5
9A
330
1F
100
AcDbEntity
  8
0
  6
Continuous
 62
   179
370
     0
100
AcDbLine
 10
2546.1184624631
 20
312.0907896827
 30
0.0
 11
2546.1184624631
 21
304.8670971919
 31
0.0
  0
LINE
  5
9B
330
1F
100
AcDbEntity
  8
0
  6
Continuous
 62
   179
370
     0
100
AcDbLine
 10
2520.8355387377
 20
326.5381746672
 30
0.0
 11
2520.8355387377
 21
337.3737134069
 31
0.0
  0
LINE
  5
9C
330
1F
100
AcDbEntity
  8
0
  6
Continuous
 62
   179
370
     0
100
AcDbLine
 10
2520.8355387377
 20
337.3737134069
 30
0.0
 11
2538.4781724187
 21
337.3737134069
 31
0.0
  0
LINE
  5
9D
330
1F
100
AcDbEntity
  8
0
  6
Continuous
 62
   179
370
     0
100
AcDbLine
 10
2520.8355387377
 20
326.5381746672
 30
0.0
 11
2538.4781724187
 21
326.5381746672
 31
0.0
  0
LINE
  5
9E
330
1F
100
AcDbEntity
  8
0
  6
Continuous
 62
   179
370
     0
100
AcDbLine
 10
2558.8702021926
 20
314.7709579587
 30
0.0
 11
2560.3555346507
 21
308.9676544183
 31
0.0
  0
LINE
  5
9F
330
1F
100
AcDbEntity
  8
0
  6
Continuous
 62
     7
370
    15
100
AcDbLine
 10
2870.0
 20
2000.0
 30
0.0
 11
100.0
 21
2000.0
 31
0.0
  0
LINE
  5
A0
330
1F
100
AcDbEntity
  8
0
  6
Continuous
 62
     7
370
     0
100
AcDbLine
 10
2728.7989947508
 20
190.0000000002
 30
0.0
 11
2728.7989947508
 21
100.0
 31
0.0
  0
LINE
  5
A1
330
1F
100
AcDbEntity
  8
0
  6
Continuous
 62
     7
370
    15
100
AcDbLine
 10
100.0
 20
2000.0
 30
0.0
 11
100.0
 21
100.0
 31
0.0
  0
LINE
  5
A2
330
1F
100
AcDbEntity
  8
0
  6
Continuous
 62
     7
370
    15
100
AcDbLine
 10
2150.0
 20
370.0000000006
 30
0.0
 11
2870.0
 21
370.0000000006
 31
0.0
  0
LINE
  5
A3
330
1F
100
AcDbEntity
  8
0
  6
Continuous
 62
    19
370
     0
100
AcDbLine
 10
2795.2884126839
 20
160.2788043096
 30
0.0
 11
2763.4182663121
 21
154.0818314039
 31
0.0
  0
LINE
  5
A4
330
1F
100
AcDbEntity
  8
0
  6
Continuous
 62
    19
370
     0
100
AcDbLine
 10
2821.3505851521
 20
165.4881573907
 30
0.0
 11
2821.3505851521
 21
124.881030118
 31
0.0
  0
LINE
  5
A5
330
1F
100
AcDbEntity
  8
0
  6
Continuous
 62
    19
370
     0
100
AcDbLine
 10
2795.2884126839
 20
160.2788043096
 30
0.0
 11
2795.2884126839
 21
130.0903831992
 31
0.0
  0
LINE
  5
A6
330
1F
100
AcDbEntity
  8
0
  6
Continuous
 62
     7
370
    15
100
AcDbLine
 10
100.0
 20
100.0
 30
0.0
 11
2870.0
 21
100.0
 31
0.0
  0
LINE
  5
A7
330
1F
100
AcDbEntity
  8
0
  6
Continuous
 62
    19
370
     0
100
AcDbLine
 10
2763.4182663121
 20
154.0818314039
 30
0.0
 11
2763.4182663121
 21
136.2873561048
 31
0.0
  0
LINE
  5
A8
330
1F
100
AcDbEntity
  8
0
  6
Continuous
 62
   179
370
     0
100
AcDbLine
 10
2546.1184624631
 20
304.8670971919
 30
0.0
 11
2576.8191555592
 21
304.8670971919
 31
0.0
  0
LINE
  5
A9
330
1F
100
AcDbEntity
  8
0
  6
Continuous
 62
    19
370
     0
100
AcDbLine
 10
2795.2884126839
 20
130.0903831992
 30
0.0
 11
2763.4182663121
 21
136.2873561048
 31
0.0
  0
LINE
  5
AA
330
1F
100
AcDbEntity
  8
0
  6
CENTERX2
 62
    19
370
     0
100
AcDbLine
 10
2838.9207124248
 20
145.1845937544
 30
0.0
 11
2759.4518690643
 21
145.1845937544
 31
0.0
  0
LINE
  5
AB
330
1F
100
AcDbEntity
  8
0
  6
Continuous
 62
   179
370
     0
100
AcDbLine
 10
2504.5822306294
 20
344.5974059005
 30
0.0
 11
2542.0192583058
 21
344.5974059005
 31
0.0
  0
LINE
  5
AC
330
1F
100
AcDbEntity
  8
0
  6
Continuous
 62
   179
370
     0
100
AcDbLine
 10
2381.7794582538
 20
344.5974058975
 30
0.0
 11
2381.7794582538
 21
304.8670971899
 31
0.0
  0
LINE
  5
AD
330
1F
100
AcDbEntity
  8
0
  6
Continuous
 62
   179
370
     0
100
AcDbLine
 10
2584.0428480525
 20
344.5974058996
 30
0.0
 11
2602.1020792839
 21
344.5974058996
 31
0.0
  0
LINE
  5
AE
330
1F
100
AcDbEntity
  8
0
  6
Continuous
 62
   179
370
     0
100
AcDbLine
 10
2584.0428480525
 20
344.5974058996
 30
0.0
 11
2560.7076448779
 21
307.9278009142
 31
0.0
  0
LINE
  5
AF
330
1F
100
AcDbEntity
  8
0
  6
Continuous
 62
   179
370
     0
100
AcDbLine
 10
2576.8191555592
 20
304.8670971919
 30
0.0
 11
2580.8824825864
 21
312.0907896817
 31
0.0
  0
LINE
  5
B0
330
1F
100
AcDbEntity
  8
0
  6
Continuous
 62
   179
370
     0
100
AcDbLine
 10
2593.0724636674
 20
333.7618671594
 30
0.0
 11
2601.1991177219
 21
319.3144821729
 31
0.0
  0
LINE
  5
B1
330
1F
100
AcDbEntity
  8
0
  6
Continuous
 62
   179
370
     0
100
AcDbLine
 10
2584.9458096129
 20
319.3144821729
 30
0.0
 11
2593.0724636674
 21
333.7618671594
 31
0.0
  0
LINE
  5
B2
330
1F
100
AcDbEntity
  8
0
  6
Continuous
 62
   179
370
     0
100
AcDbLine
 10
2584.9458096129
 20
319.3144821729
 30
0.0
 11
2601.1991177219
 21
319.3144821729
 31
0.0
  0
LINE
  5
B3
330
1F
100
AcDbEntity
  8
0
  6
Continuous
 62
   179
370
     0
100
AcDbLine
 10
2580.8824825864
 20
312.0907896817
 30
0.0
 11
2605.26244475
 21
312.0907896817
 31
0.0
  0
LINE
  5
B4
330
1F
100
AcDbEntity
  8
0
  6
Continuous
 62
   179
370
     0
100
AcDbLine
 10
2605.26244475
 20
312.0907896817
 30
0.0
 11
2609.3257717771
 21
304.8670971919
 31
0.0
  0
LINE
  5
B5
330
1F
100
AcDbEntity
  8
0
  6
Continuous
 62
   179
370
     0
100
AcDbLine
 10
2627.3850030087
 20
344.5974058996
 30
0.0
 11
2627.3850030087
 21
304.8670971919
 31
0.0
  0
LINE
  5
B6
330
1F
100
AcDbEntity
  8
0
  6
Continuous
 62
   179
370
     0
100
AcDbLine
 10
2602.1020792839
 20
344.5974058996
 30
0.0
 11
2627.3850030087
 21
304.8670971919
 31
0.0
  0
LINE
  5
B7
330
1F
100
AcDbEntity
  8
0
  6
Continuous
 62
   179
370
     0
100
AcDbLine
 10
2609.3257717771
 20
304.8670971919
 30
0.0
 11
2627.3850030087
 21
304.8670971919
 31
0.0
  0
LINE
  5
B8
330
1F
100
AcDbEntity
  8
0
  6
Continuous
 62
   179
370
     0
100
AcDbLine
 10
2627.3850030087
 20
304.8670971919
 30
0.0
 11
2676.1449273357
 21
304.8670971919
 31
0.0
  0
LINE
  5
B9
330
1F
100
AcDbEntity
  8
0
  6
Continuous
 62
   179
370
     0
100
AcDbLine
 10
2676.1449273357
 20
304.8670971919
 30
0.0
 11
2676.1449273357
 21
313.8967128076
 31
0.0
  0
LINE
  5
BA
330
1F
100
AcDbEntity
  8
0
  6
Continuous
 62
   179
370
     0
100
AcDbLine
 10
2676.1449273357
 20
313.8967128076
 30
0.0
 11
2645.44423424
 21
313.8967128076
 31
0.0
  0
LINE
  5
BB
330
1F
100
AcDbEntity
  8
0
  6
Continuous
 62
   179
370
     0
100
AcDbLine
 10
2645.44423424
 20
313.8967128076
 30
0.0
 11
2645.44423424
 21
344.5974058996
 31
0.0
  0
LINE
  5
BC
330
1F
100
AcDbEntity
  8
0
  6
Continuous
 62
   179
370
     0
100
AcDbLine
 10
2627.3850030087
 20
344.5974058996
 30
0.0
 11
2645.44423424
 21
344.5974058996
 31
0.0
  0
LINE
  5
BD
330
1F
100
AcDbEntity
  8
0
  6
Continuous
 62
   179
370
     0
100
AcDbLine
 10
2677.9508504573
 20
344.5974058992
 30
0.0
 11
2677.9508504573
 21
304.8670971915
 31
0.0
  0
LINE
  5
BE
330
1F
100
AcDbEntity
  8
0
  6
Continuous
 62
   179
370
     0
100
AcDbLine
 10
2696.0100816887
 20
344.5974058992
 30
0.0
 11
2696.0100816887
 21
304.8670971915
 31
0.0
  0
LINE
  5
BF
330
1F
100
AcDbEntity
  8
0
  6
Continuous
 62
   179
370
     0
100
AcDbLine
 10
2677.9508504573
 20
344.5974058992
 30
0.0
 11
2696.0100816887
 21
344.5974058992
 31
0.0
  0
LINE
  5
C0
330
1F
100
AcDbEntity
  8
0
  6
Continuous
 62
   179
370
     0
100
AcDbLine
 10
2677.9508504573
 20
304.8670971915
 30
0.0
 11
2696.0100816887
 21
304.8670971915
 31
0.0
  0
LINE
  5
C1
330
1F
100
AcDbEntity
  8
0
  6
Continuous
 62
   179
370
     0
100
AcDbLine
 10
2704.1151644241
 20
341.2930554229
 30
0.0
 11
2708.2866879839
 21
341.2930554229
 31
0.0
  0
LINE
  5
C2
330
1F
100
AcDbEntity
  8
0
  6
Continuous
 62
   179
370
     0
100
AcDbLine
 10
2708.2866879839
 20
338.5841707372
 30
0.0
 11
2704.1151644241
 21
338.5841707372
 31
0.0
  0
LINE
  5
C3
330
1F
100
AcDbEntity
  8
0
  6
Continuous
 62
   179
370
     0
100
AcDbLine
 10
2704.1151644241
 20
338.5841707372
 30
0.0
 11
2704.1151644241
 21
341.2930554229
 31
0.0
  0
LINE
  5
C4
330
1F
100
AcDbEntity
  8
0
  6
Continuous
 62
   179
370
     0
100
AcDbLine
 10
2704.1151644241
 20
338.5841707372
 30
0.0
 11
2706.8240491077
 21
338.5841707372
 31
0.0
  0
LINE
  5
C5
330
1F
100
AcDbEntity
  8
0
  6
Continuous
 62
   179
370
     0
100
AcDbLine
 10
2704.1151644241
 20
338.5841707372
 30
0.0
 11
2704.1151644241
 21
334.5208437117
 31
0.0
  0
LINE
  5
C6
330
1F
100
AcDbEntity
  8
0
  6
Continuous
 62
   179
370
     0
100
AcDbLine
 10
2709.5329337914
 20
334.5208437117
 30
0.0
 11
2706.8240491077
 21
338.5841707372
 31
0.0
  0
LINE
  5
C7
330
1F
100
AcDbEntity
  8
0
  6
Continuous
 62
     7
370
     0
100
AcDbLine
 10
2150.0
 20
190.0000000002
 30
0.0
 11
2870.0
 21
190.0000000002
 31
0.0
  0
LINE
  5
C8
330
1F
100
AcDbEntity
  8
0
  6
Continuous
 62
     7
370
     0
100
AcDbLine
 10
2870.0
 20
280.0000000004
 30
0.0
 11
2150.0
 21
280.0000000004
 31
0.0
  0
LINE
  5
C9
330
1F
100
AcDbEntity
  8
0
  6
Continuous
 62
     7
370
     0
100
AcDbLine
 10
100.0
 20
550.0
 30
0.0
 11
100.0
 21
650.0
 31
0.0
  0
LINE
  5
CA
330
1F
100
AcDbEntity
  8
0
  6
Continuous
 62
     7
370
     0
100
AcDbLine
 10
100.0
 20
650.0
 30
0.0
 11
100.0
 21
750.0
 31
0.0
  0
LINE
  5
CB
330
1F
100
AcDbEntity
  8
0
  6
Continuous
 62
     7
370
     0
100
AcDbLine
 10
100.0
 20
750.0
 30
0.0
 11
100.0
 21
850.0
 31
0.0
  0
LINE
  5
CC
330
1F
100
AcDbEntity
  8
0
  6
Continuous
 62
     7
370
     0
100
AcDbLine
 10
100.0
 20
850.0
 30
0.0
 11
100.0
 21
950.0
 31
0.0
  0
LINE
  5
CD
330
1F
100
AcDbEntity
  8
0
  6
Continuous
 62
     7
370
     0
100
AcDbLine
 10
100.0
 20
950.0
 30
0.0
 11
100.0
 21
1050.0
 31
0.0
  0
LINE
  5
CE
330
1F
100
AcDbEntity
  8
0
  6
Continuous
 62
     7
370
     0
100
AcDbLine
 10
100.0
 20
1050.0
 30
0.0
 11
100.0
 21
1150.0
 31
0.0
  0
LINE
  5
CF
330
1F
100
AcDbEntity
  8
0
  6
Continuous
 62
     7
370
     0
100
AcDbLine
 10
100.0
 20
1150.0
 30
0.0
 11
100.0
 21
1250.0
 31
0.0
  0
LINE
  5
D0
330
1F
100
AcDbEntity
  8
0
  6
Continuous
 62
     7
370
     0
100
AcDbLine
 10
100.0
 20
1250.0
 30
0.0
 11
100.0
 21
1350.0
 31
0.0
  0
LINE
  5
D1
330
1F
100
AcDbEntity
  8
0
  6
Continuous
 62
     7
370
     0
100
AcDbLine
 10
100.0
 20
1350.0
 30
0.0
 11
100.0
 21
1450.0
 31
0.0
  0
LINE
  5
D2
330
1F
100
AcDbEntity
  8
0
  6
Continuous
 62
     7
370
     0
100
AcDbLine
 10
100.0
 20
1450.0
 30
0.0
 11
100.0
 21
1550.0
 31
0.0
  0
LINE
  5
D3
330
1F
100
AcDbEntity
  8
0
  6
Continuous
 62
     7
370
    15
100
AcDbLine
 10
2150.0
 20
370.0000000006
 30
0.0
 11
2150.0
 21
100.0
 31
0.0
  0
ARC
  5
D4
330
1F
100
AcDbEntity
  8
0
  6
Continuous
 62
   179
370
     0
100
AcDbCircle
 10
2352.923880981
 20
330.1500209155
 30
0.0
 40
7.223692490816169
100
AcDbArc
 50
69.991210111
 51
90.0
  0
ARC
  5
D5
330
1F
100
AcDbEntity
  8
0
  6
Continuous
 62
   179
370
     0
100
AcDbCircle
 10
2352.9238809804
 20
333.7618671601
 30
0.0
 40
7.223692492544103
100
AcDbArc
 50
270.0
 51
290.0087898887
  0
ARC
  5
D6
330
1F
100
AcDbEntity
  8
0
  6
Continuous
 62
   179
370
     0
100
AcDbCircle
 10
2472.947172768
 20
324.7322515422
 30
0.0
 40
10.8355387405187
100
AcDbArc
 50
56.1685552524
 51
90.0
  0
ARC
  5
D7
330
1F
100
AcDbEntity
  8
0
  6
Continuous
 62
   179
370
     0
100
AcDbCircle
 10
2472.947172768
 20
324.7322515422
 30
0.0
 40
10.83553873998012
100
AcDbArc
 50
270.0
 51
303.830934914
  0
ARC
  5
D8
330
1F
100
AcDbEntity
  8
0
  6
Continuous
 62
   179
370
     0
100
AcDbCircle
 10
2538.8947699699
 20
312.0907896827
 30
0.0
 40
7.223692493244471
100
AcDbArc
 50
0.0
 51
90.0
  0
ARC
  5
D9
330
1F
100
AcDbEntity
  8
0
  6
Continuous
 62
   179
370
     0
100
AcDbCircle
 10
2538.4781724187
 20
331.9559440374
 30
0.0
 40
5.417769369443558
100
AcDbArc
 50
54.413089495
 51
90.0
  0
ARC
  5
DA
330
1F
100
AcDbEntity
  8
0
  6
Continuous
 62
   179
370
     0
100
AcDbCircle
 10
2538.4781724187
 20
331.9559440374
 30
0.0
 40
5.417769370214614
100
AcDbArc
 50
270.0
 51
305.5869104966
  0
ARC
  5
DB
330
1F
100
AcDbEntity
  8
0
  6
Continuous
 62
   179
370
     0
100
AcDbCircle
 10
2549.0375849296
 20
312.9627960708
 30
0.0
 40
9.997490267756625
100
AcDbArc
 50
10.4199484279
 51
80.7321727594
  0
ARC
  5
DC
330
1F
100
AcDbEntity
  8
0
  6
Continuous
 62
   179
370
     0
100
AcDbCircle
 10
2565.4535666376
 20
310.1143839674
 30
0.0
 40
5.225410873593643
100
AcDbArc
 50
192.6768785101
 51
204.7368873207
  0
CIRCLE
  5
DD
330
1F
100
AcDbEntity
  8
0
  6
Continuous
 62
   179
370
     0
100
AcDbCircle
 10
2706.2864208618
 20
337.8675697335
 30
0.0
 40
5.930102145230649
  0
CIRCLE
  5
DE
330
1F
100
AcDbEntity
  8
0
  6
Continuous
 62
    19
370
     0
100
AcDbCircle
 10
2821.3505851521
 20
145.1845937544
 30
0.0
 40
8.587078762764193
  0
CIRCLE
  5
DF
330
1F
100
AcDbEntity
  8
0
  6
Continuous
 62
    19
370
     0
100
AcDbCircle
 10
2821.3505851521
 20
145.1845937544
 30
0.0
 40
16.77593581663705
  0
ELLIPSE
  5
E0
330
1F
100
AcDbEntity
  8
0
  6
Continuous
 62
   179
370
     0
100
AcDbEllipse
 10
2350.175803597
 20
331.955944037
 30
0.0
 11
9.932577177642086
 21
0.0
 31
0.0
210
0.0
220
0.0
230
1.0
 40
0.5895245511
 41
5.265715075739357
 42
7.300655538615938
  0
ELLIPSE
  5
E1
330
1F
100
AcDbEntity
  8
0
  6
Continuous
 62
   179
370
     0
100
AcDbEllipse
 10
2462.1430372376
 20
324.7322515426
 30
0.0
 11
22.57403904004605
 21
0.0
 31
0.0
210
0.0
220
0.0
230
1.0
 40
0.5985848325
 41
5.554193105221712
 42
7.012172182744729
  0
ELLIPSE
  5
E2
330
1F
100
AcDbEntity
  8
0
  6
Continuous
 62
   179
370
     0
100
AcDbEllipse
 10
2532.5740390411
 20
331.955944037
 30
0.0
 11
11.73850030081758
 21
0.0
 31
0.0
210
0.0
220
0.0
230
1.0
 40
0.5900077182
 41
5.593675727225931
 42
6.97269488710657
  0
ELLIPSE
  5
E3
330
1F
100
AcDbEntity
  8
0
  6
Continuous
 62
   179
370
     0
100
AcDbEllipse
 10
2538.0299477069
 20
332.9364020823
 30
0.0
 11
24.3266662253518
 21
0.0
 31
0.0
210
0.0
220
0.0
230
1.0
 40
0.485929116
 41
5.257694056962849
 42
7.689248379254996
  0
ELLIPSE
  5
E4
330
1F
100
AcDbEntity
  8
0
  6
Continuous
 62
   179
370
     0
100
AcDbEllipse
 10
2468.4637681651
 20
324.7322515426
 30
0.0
 11
28.89476997115571
 21
0.0
 31
0.0
210
0.0
220
0.0
230
1.0
 40
0.6929224243
 41
4.837574201223028
 42
7.72879641314261
  0
ELLIPSE
  5
E5
330
1F
100
AcDbEntity
  8
0
  6
Continuous
 62
   179
370
     0
100
AcDbEllipse
 10
2351.0787651571
 20
331.955944037
 30
0.0
 11
27.0888468479834
 21
0.0
 31
0.0
210
0.0
220
0.0
230
1.0
 40
0.4768529109
 41
4.919453630382234
 42
7.646916983963972
  0
ELLIPSE
  5
E6
330
1F
100
AcDbEntity
  8
0
  6
Continuous
 62
   179
370
     0
100
AcDbEllipse
 10
2708.0427484413
 20
339.93861308
 30
0.0
 11
1.490185355941776
 21
0.0
 31
0.0
210
0.0
220
0.0
230
1.0
 40
0.9213369296
 41
4.876826485633947
 42
7.68954412872528
  0
MTEXT
  5
E8
330
1F
100
AcDbEntity
  8
0
  6
Continuous
 62
     7
370
     0
100
AcDbMText
 10
2231.444945447
 20
165.6379924371
 30
0.0
 40
37.0416666667
 41
0.0
 71
     1
 72
     1
  1
4844
  7
SLDTEXTSTYLE0
 73
     1
 44
1.0
  0
MTEXT
  5
E9
330
1F
100
AcDbEntity
  8
0
  6
Continuous
 62
     7
370
     0
100
AcDbMText
 10
2158.8845987823
 20
146.3871334973
 30
0.0
 40
18.0
 41
0.0
 71
     1
 72
     1
  1
COD.
  7
SLDTEXTSTYLE0
 73
     1
 44
1.0
  0
MTEXT
  5
EA
330
1F
100
AcDbEntity
  8
0
  6
Continuous
 62
     7
370
     0
100
AcDbMText
 10
107.0855178468
 20
74.7215172182
 30
0.0
 40
18.0
 41
0.0
 71
     1
 72
     1
  1
This document is the property of PEDRALI S.p.A. who willsafeguard its rights according to the civil and penal prevision of the Law.
  7
SLDTEXTSTYLE0
 73
     1
 44
1.0
  0
INSERT
  5
F0
330
1F
100
AcDbEntity
  8
0
  6
Continuous
 62
     7
370
     0
100
AcDbBlockReference
  2
SW_NOTE_0
 10
1440.8605986612
 20
53.5813398756
 30
0.0
  0
MTEXT
  5
F1
330
1F
100
AcDbEntity
  8
0
  6
Continuous
 62
     7
370
     0
100
AcDbMText
 10
2158.8845987823
 20
234.3102099637
 30
0.0
 40
18.0
 41
0.0
 71
     1
 72
     1
  1
SERIE:
  7
SLDTEXTSTYLE0
 73
     1
 44
1.0
  0
MTEXT
  5
F2
330
1F
100
AcDbEntity
  8
0
  6
Continuous
 62
     7
370
     0
100
AcDbMText
 10
2231.444945447
 20
253.5610689035
 30
0.0
 40
37.0416666667
 41
0.0
 71
     1
 72
     1
  1
DREAM
  7
SLDTEXTSTYLE0
 73
     1
 44
1.0
  0
INSERT
  5
F8
330
1F
100
AcDbEntity
  8
0
  6
Continuous
 62
     7
370
     0
100
AcDbBlockReference
  2
SW_NOTE_1
 10
2766.9883061954
 20
242.6632128381
 30
0.0
  0
LINE
  5
F9
330
1F
100
AcDbEntity
  8
0
  6
Continuous
 62
     7
370
    15
100
AcDbLine
 10
1432.4679334917
 20
1915.7749406176
 30
0.0
 11
1432.4679334917
 21
984.7749406176
 31
0.0
  0
LINE
  5
FA
330
1F
100
AcDbEntity
  8
0
  6
Continuous
 62
     7
370
    15
100
AcDbLine
 10
1492.4679334917
 20
984.7749406176
 30
0.0
 11
1492.4679334917
 21
1915.7749406176
 31
0.0
  0
LINE
  5
FB
330
1F
100
AcDbEntity
  8
0
  6
Continuous
 62
     7
370
    15
100
AcDbLine
 10
1431.7179334917
 20
984.7749406176
 30
0.0
 11
1431.7179334917
 21
978.2749406176
 31
0.0
  0
LINE
  5
FC
330
1F
100
AcDbEntity
  8
0
  6
Continuous
 62
     7
370
    15
100
AcDbLine
 10
1493.2179334917
 20
978.2749406176
 30
0.0
 11
1493.2179334917
 21
984.7749406176
 31
0.0
  0
LINE
  5
FD
330
1F
100
AcDbEntity
  8
0
  6
Continuous
 62
     7
370
    15
100
AcDbLine
 10
1744.9679334917
 20
846.2749406176
 30
0.0
 11
1744.9679334917
 21
856.2749406176
 31
0.0
  0
LINE
  5
FE
330
1F
100
AcDbEntity
  8
0
  6
Continuous
 62
     7
370
    15
100
AcDbLine
 10
1179.9679334917
 20
856.2749406176
 30
0.0
 11
1179.9679334917
 21
846.2749406176
 31
0.0
  0
SPLINE
  5
FF
330
1F
100
AcDbEntity
  8
0
  6
Continuous
 62
     7
370
    15
100
AcDbSpline
210
0.0
220
0.0
230
1.0
 70
     8
 71
     3
 72
    49
 73
    45
 74
     0
 42
0.000000001
 43
0.00000001
 40
0.0
 40
0.0
 40
0.0
 40
0.0
 40
0.0373839394891416
 40
0.0743351220019288
 40
0.1108339367598346
 40
0.1468615815498151
 40
0.1824001532569589
 40
0.2174327491837472
 40
0.2499859084160009
 40
0.2820629977165313
 40
0.3136528780124938
 40
0.3447456153519364
 40
0.3753326127154784
 40
0.4004304480493839
 40
0.4251688688445642
 40
0.4495454916917287
 40
0.4735588778398864
 40
0.4972086185255317
 40
0.5204954273465316
 40
0.5421209342470206
 40
0.5634282185437463
 40
0.5844211171616992
 40
0.605104691351935
 40
0.6254853203726393
 40
0.6467787102558852
 40
0.6677512637917578
 40
0.6884161961124449
 40
0.708788906157288
 40
0.72888710399932
 40
0.7487309281923874
 40
0.7672283144114352
 40
0.7855408329490632
 40
0.8036917137416382
 40
0.8217063073469889
 40
0.8396120732998902
 40
0.8574385367905939
 40
0.8752172109381574
 40
0.8929814832196111
 40
0.9107664662338056
 40
0.9286088148198298
 40
0.9462251956034782
 40
0.9639705628400004
 40
0.9818827158360608
 40
1.0
 40
1.0
 40
1.0
 40
1.0
 10
1744.967933491686
 20
856.274940617578
 30
0.0
 10
1741.246537339946
 20
856.3836721499671
 30
0.0
 10
1733.846823967378
 20
856.5998765370933
 30
0.0
 10
1722.821909904158
 20
857.1410240989277
 30
0.0
 10
1711.941661813693
 20
857.8423411383887
 30
0.0
 10
1701.215266823863
 20
858.721021376859
 30
0.0
 10
1690.651447578493
 20
859.7753020943741
 30
0.0
 10
1680.452640966613
 20
860.985433173352
 30
0.0
 10
1670.620095447763
 20
862.3412258205035
 30
0.0
 10
1661.154018859459
 20
863.8321843194036
 30
0.0
 10
1651.862944794665
 20
865.487545238339
 30
0.0
 10
1642.754265657735
 20
867.3091509887071
 30
0.0
 10
1634.319038083677
 20
869.1909350758814
 30
0.0
 10
1626.540662291291
 20
871.1012427321209
 30
0.0
 10
1619.399966043301
 20
873.0087214227681
 30
0.0
 10
1612.40479124505
 20
875.0363553060986
 30
0.0
 10
1605.559403586034
 20
877.1852177892853
 30
0.0
 10
1598.868080355016
 20
879.4563800425522
 30
0.0
 10
1592.456674055392
 20
881.8063537531186
 30
0.0
 10
1586.321856437825
 20
884.2271670106644
 30
0.0
 10
1580.459367069682
 20
886.710521474451
 30
0.0
 10
1574.748621387543
 20
889.3063202121306
 30
0.0
 10
1569.193196987387
 20
892.0154766414187
 30
0.0
 10
1563.69009766085
 20
894.8946672573591
 30
0.0
 10
1558.251896530668
 20
897.9542272887434
 30
0.0
 10
1552.892697038695
 20
901.2052641234898
 30
0.0
 10
1547.724831440388
 20
904.5880981427586
 30
0.0
 10
1542.75259837604
 20
908.1038374665851
 30
0.0
 10
1537.98030815821
 20
911.7535880107644
 30
0.0
 10
1533.497758354885
 20
915.467637454112
 30
0.0
 10
1529.297639296924
 20
919.2367312726396
 30
0.0
 10
1525.371126353785
 20
923.0519557775926
 30
0.0
 10
1521.637325901596
 20
926.9900908619766
 30
0.0
 10
1518.099880290389
 20
931.0520548886922
 30
0.0
 10
1514.76244391948
 20
935.2387535494321
 30
0.0
 10
1511.628678185836
 20
939.5510842766636
 30
0.0
 10
1508.702238639319
 20
943.9899297269354
 30
0.0
 10
1505.986818912585
 20
948.5561692506026
 30
0.0
 10
1503.485972329382
 20
953.2506323108225
 30
0.0
 10
1501.217455446753
 20
958.0453354033548
 30
0.0
 10
1499.178740960119
 20
962.9380497106218
 30
0.0
 10
1497.374231920044
 20
967.9286828815656
 30
0.0
 10
1495.773706897606
 20
973.0421878733409
 30
0.0
 10
1494.904840238213
 20
976.5240817269757
 30
0.0
 10
1494.467933491686
 20
978.2749406175778
 30
0.0
  0
SPLINE
  5
100
330
1F
100
AcDbEntity
  8
0
  6
Continuous
 62
     7
370
    15
100
AcDbSpline
210
0.0
220
0.0
230
1.0
 70
     8
 71
     3
 72
    51
 73
    47
 74
     0
 42
0.000000001
 43
0.00000001
 40
0.0
 40
0.0
 40
0.0
 40
0.0
 40
0.0167410020973895
 40
0.0333045123748508
 40
0.0497207812493085
 40
0.0660196885385556
 40
0.0822305819541157
 40
0.0980941004275135
 40
0.1139267285431951
 40
0.12975392223917
 40
0.1456001181512458
 40
0.1618134458331522
 40
0.1780943332842716
 40
0.1944649115076308
 40
0.21094590058567
 40
0.2275565816600648
 40
0.2443147869960737
 40
0.2612369063116768
 40
0.2812061028001838
 40
0.3014401261357756
 40
0.321957877692318
 40
0.342775887921114
 40
0.3639084393403343
 40
0.385367697123344
 40
0.4059092056316933
 40
0.4267572358527062
 40
0.447917451004976
 40
0.4693942468361754
 40
0.4911908431365896
 40
0.5146602009750347
 40
0.5384929948925498
 40
0.5626893611471914
 40
0.5872483610648696
 40
0.6121680698339542
 40
0.6374456583893855
 40
0.6676913578569056
 40
0.6984217275697171
 40
0.7296281089992157
 40
0.7613006483954092
 40
0.7940887205198244
 40
0.827338122726829
 40
0.8610352377516198
 40
0.895165586390093
 40
0.9297139106128295
 40
0.9646642482237706
 40
1.0
 40
1.0
 40
1.0
 40
1.0
 10
1430.467933491686
 20
978.2749406175778
 30
0.0
 10
1430.065847901754
 20
976.6567180983851
 30
0.0
 10
1429.265939722558
 20
973.4374298143154
 30
0.0
 10
1427.812324591854
 20
968.701687259102
 30
0.0
 10
1426.184348471205
 20
964.070830398649
 30
0.0
 10
1424.366350684617
 20
959.5485630083614
 30
0.0
 10
1422.377734422744
 20
955.1592482379745
 30
0.0
 10
1420.223802949762
 20
950.9006639361497
 30
0.0
 10
1417.911206434549
 20
946.769907366345
 30
0.0
 10
1415.429391290465
 20
942.7406085633778
 30
0.0
 10
1412.762879173446
 20
938.78532366792
 30
0.0
 10
1409.910274256567
 20
934.9058175249332
 30
0.0
 10
1406.870544551118
 20
931.1040878813242
 30
0.0
 10
1403.665490678866
 20
927.4053821232072
 30
0.0
 10
1400.297850695156
 20
923.8090231835444
 30
0.0
 10
1396.770360015613
 20
920.3143290893731
 30
0.0
 10
1393.08573883014
 20
916.9206063411287
 30
0.0
 10
1389.029913448265
 20
913.4411748422345
 30
0.0
 10
1384.576959248222
 20
909.8983442137087
 30
0.0
 10
1379.703424830436
 20
906.3162424774534
 30
0.0
 10
1374.632110215954
 20
902.8675860094274
 30
0.0
 10
1369.367330343502
 20
899.551277713668
 30
0.0
 10
1363.913377663824
 20
896.3662089211505
 30
0.0
 10
1358.384404124604
 20
893.3707973290478
 30
0.0
 10
1352.794292466571
 20
890.5539832355084
 30
0.0
 10
1347.155441401672
 20
887.9054992934151
 30
0.0
 10
1341.363183965585
 20
885.3698863466639
 30
0.0
 10
1335.421097274655
 20
882.9462327198368
 30
0.0
 10
1329.207004072484
 20
880.5858647989434
 30
0.0
 10
1322.716818118538
 20
878.2970175419322
 30
0.0
 10
1315.947358608267
 20
876.0875936862253
 30
0.0
 10
1309.025986635097
 20
873.9999289437113
 30
0.0
 10
1301.956979352347
 20
872.0329531403135
 30
0.0
 10
1294.744603486756
 20
870.1855943181466
 30
0.0
 10
1286.945846030275
 20
868.3516022600904
 30
0.0
 10
1278.54470052346
 20
866.55845930448
 30
0.0
 10
1269.527413926768
 20
864.833690141209
 30
0.0
 10
1260.336914691515
 20
863.2686030797864
 30
0.0
 10
1250.915180849013
 20
861.8516751828804
 30
0.0
 10
1241.266816220286
 20
860.5852151166101
 30
0.0
 10
1231.396773589263
 20
859.471182047579
 30
0.0
 10
1221.375828542233
 20
858.5162910163347
 30
0.0
 10
1211.211443977458
 20
857.7177684260662
 30
0.0
 10
1200.910972846158
 20
857.0773071046215
 30
0.0
 10
1190.482188200791
 20
856.579634509749
 30
0.0
 10
1183.485473902085
 20
856.3768758577033
 30
0.0
 10
1179.967933491686
 20
856.274940617578
 30
0.0
  0
LINE
  5
101
330
1F
100
AcDbEntity
  8
0
  6
Continuous
 62
     7
370
    15
100
AcDbLine
 10
1696.6345384756
 20
841.2749406176
 30
0.0
 11
1696.6345384756
 21
846.2749406176
 31
0.0
  0
LINE
  5
102
330
1F
100
AcDbEntity
  8
0
  6
Continuous
 62
     7
370
    15
100
AcDbLine
 10
1678.6345384756
 20
846.2749406176
 30
0.0
 11
1678.6345384756
 21
841.2749406176
 31
0.0
  0
LINE
  5
103
330
1F
100
AcDbEntity
  8
0
  6
Continuous
 62
     7
370
    15
100
AcDbLine
 10
1246.3013285077
 20
841.2749406176
 30
0.0
 11
1246.3013285077
 21
846.2749406176
 31
0.0
  0
LINE
  5
104
330
1F
100
AcDbEntity
  8
0
  6
Continuous
 62
     7
370
    15
100
AcDbLine
 10
1228.3013285077
 20
846.2749406176
 30
0.0
 11
1228.3013285077
 21
841.2749406176
 31
0.0
  0
LINE
  5
105
330
1F
100
AcDbEntity
  8
0
  6
Continuous
 62
     7
370
    15
100
AcDbLine
 10
1471.4679334917
 20
841.2749406176
 30
0.0
 11
1471.4679334917
 21
846.2749406176
 31
0.0
  0
LINE
  5
106
330
1F
100
AcDbEntity
  8
0
  6
Continuous
 62
     7
370
    15
100
AcDbLine
 10
1453.4679334917
 20
846.2749406176
 30
0.0
 11
1453.4679334917
 21
841.2749406176
 31
0.0
  0
LINE
  5
107
330
1F
100
AcDbEntity
  8
0
  6
Continuous
 62
     7
370
    15
100
AcDbLine
 10
1299.7913734343
 20
1939.7749406176
 30
0.0
 11
1301.0562409467
 21
1930.7749406176
 31
0.0
  0
LINE
  5
108
330
1F
100
AcDbEntity
  8
0
  6
Continuous
 62
     7
370
    15
100
AcDbLine
 10
1623.8796260367
 20
1930.7749406176
 30
0.0
 11
1625.144493549
 21
1939.7749406176
 31
0.0
  0
ARC
  5
109
330
1F
100
AcDbEntity
  8
0
  6
Continuous
 62
     7
370
    15
100
AcDbCircle
 10
1408.9285246967
 20
1920.7749406176
 30
0.0
 40
5.000000000000205
100
AcDbArc
 50
239.7738575575
 51
270.0
  0
ARC
  5
10A
330
1F
100
AcDbEntity
  8
0
  6
Continuous
 62
     7
370
    15
100
AcDbCircle
 10
1516.0073422866
 20
1920.7749406176
 30
0.0
 40
5.0
100
AcDbArc
 50
270.0
 51
300.2261424425
  0
LINE
  5
10B
330
1F
100
AcDbEntity
  8
0
  6
Continuous
 62
     7
370
    15
100
AcDbLine
 10
1431.7179334917
 20
984.7749406176
 30
0.0
 11
1493.2179334917
 21
984.7749406176
 31
0.0
  0
LINE
  5
10C
330
1F
100
AcDbEntity
  8
0
  6
Continuous
 62
     7
370
    15
100
AcDbLine
 10
1744.9679334917
 20
846.2749406176
 30
0.0
 11
1179.9679334917
 21
846.2749406176
 31
0.0
  0
LINE
  5
10D
330
1F
100
AcDbEntity
  8
0
  6
Continuous
 62
     7
370
    15
100
AcDbLine
 10
1744.9679334917
 20
856.2749406176
 30
0.0
 11
1179.9679334917
 21
856.2749406176
 31
0.0
  0
LINE
  5
10E
330
1F
100
AcDbEntity
  8
0
  6
Continuous
 62
     7
370
    15
100
AcDbLine
 10
1494.4679334888
 20
978.2749406176
 30
0.0
 11
1430.4679334919
 21
978.2749406176
 31
0.0
  0
LINE
  5
10F
330
1F
100
AcDbEntity
  8
0
  6
Continuous
 62
     7
370
    15
100
AcDbLine
 10
1696.6345384756
 20
841.2749406176
 30
0.0
 11
1678.6345384756
 21
841.2749406176
 31
0.0
  0
LINE
  5
110
330
1F
100
AcDbEntity
  8
0
  6
Continuous
 62
     7
370
    15
100
AcDbLine
 10
1241.8013285077
 20
841.2749406176
 30
0.0
 11
1228.3013285077
 21
841.2749406176
 31
0.0
  0
LINE
  5
111
330
1F
100
AcDbEntity
  8
0
  6
Continuous
 62
     7
370
    15
100
AcDbLine
 10
1246.3013285077
 20
841.2749406176
 30
0.0
 11
1241.8013285077
 21
841.2749406176
 31
0.0
  0
LINE
  5
112
330
1F
100
AcDbEntity
  8
0
  6
Continuous
 62
     7
370
    15
100
AcDbLine
 10
1471.4679334917
 20
841.2749406176
 30
0.0
 11
1453.4679334917
 21
841.2749406176
 31
0.0
  0
LINE
  5
113
330
1F
100
AcDbEntity
  8
0
  6
Continuous
 62
     7
370
    15
100
AcDbLine
 10
1329.8402378903
 20
1930.7749406176
 30
0.0
 11
1301.0562409467
 21
1930.7749406176
 31
0.0
  0
LINE
  5
114
330
1F
100
AcDbEntity
  8
0
  6
Continuous
 62
     7
370
    15
100
AcDbLine
 10
1330.7188886952
 20
1939.7749406176
 30
0.0
 11
1299.7913734343
 21
1939.7749406176
 31
0.0
  0
LINE
  5
115
330
1F
100
AcDbEntity
  8
0
  6
Continuous
 62
     7
370
    15
100
AcDbLine
 10
1623.8796260367
 20
1930.7749406176
 30
0.0
 11
1595.0956290931
 21
1930.7749406176
 31
0.0
  0
LINE
  5
116
330
1F
100
AcDbEntity
  8
0
  6
Continuous
 62
     7
370
    15
100
AcDbLine
 10
1625.144493549
 20
1939.7749406176
 30
0.0
 11
1594.2169782882
 21
1939.7749406176
 31
0.0
  0
LINE
  5
117
330
1F
100
AcDbEntity
  8
0
  6
Continuous
 62
     7
370
    15
100
AcDbLine
 10
1429.0489861452
 20
1930.7749406176
 30
0.0
 11
1329.8402378903
 21
1930.7749406176
 31
0.0
  0
LINE
  5
118
330
1F
100
AcDbEntity
  8
0
  6
Continuous
 62
     7
370
    15
100
AcDbLine
 10
1429.3318638137
 20
1939.7749406176
 30
0.0
 11
1330.7188886952
 21
1939.7749406176
 31
0.0
  0
LINE
  5
119
330
1F
100
AcDbEntity
  8
0
  6
Continuous
 62
     7
370
    15
100
AcDbLine
 10
1595.0956290931
 20
1930.7749406176
 30
0.0
 11
1495.8868808381
 21
1930.7749406176
 31
0.0
  0
LINE
  5
11A
330
1F
100
AcDbEntity
  8
0
  6
Continuous
 62
     7
370
    15
100
AcDbLine
 10
1594.2169782882
 20
1939.7749406176
 30
0.0
 11
1495.6040031697
 21
1939.7749406176
 31
0.0
  0
LINE
  5
11B
330
1F
100
AcDbEntity
  8
0
  6
Continuous
 62
     7
370
    15
100
AcDbLine
 10
1418.9707090106
 20
1915.809284439
 30
0.0
 11
1419.8318945224
 21
1930.7749406176
 31
0.0
  0
ELLIPSE
  5
11C
330
1F
100
AcDbEntity
  8
0
  6
Continuous
 62
     7
370
    15
100
AcDbEllipse
 10
1430.7735149665
 20
2015.7749406176
 30
0.0
 11
19.62423826829809
 21
99.05441950419436
 31
0.0
210
0.0
220
0.0
230
1.0
 40
0.6991049172
 41
3.226860859574701
 42
3.25301165955316
  0
LINE
  5
11D
330
1F
100
AcDbEntity
  8
0
  6
Continuous
 62
     7
370
    15
100
AcDbLine
 10
1417.1181962705
 20
1915.9119871421
 30
0.0
 11
1337.027622817
 21
1921.8433130073
 31
0.0
  0
ELLIPSE
  5
11E
330
1F
100
AcDbEntity
  8
0
  6
Continuous
 62
     7
370
    15
100
AcDbEllipse
 10
1338.1200483126
 20
1929.8323492853
 30
0.0
 11
1.569939061464083
 21
7.924353560335476
 31
0.0
210
0.0
220
0.0
230
1.0
 40
0.6991049172
 41
1.848050750499197
 42
3.226860859574742
  0
LINE
  5
11F
330
1F
100
AcDbEntity
  8
0
  6
Continuous
 62
     7
370
    15
100
AcDbLine
 10
1332.3619440997
 20
1928.7189644776
 30
0.0
 11
1332.3602857534
 21
1930.7749406176
 31
0.0
  0
ELLIPSE
  5
120
330
1F
100
AcDbEntity
  8
0
  6
Continuous
 62
     7
370
    15
100
AcDbEllipse
 10
1494.1623520168
 20
2015.7749406176
 30
0.0
 11
-19.62423826829786
 21
99.05441950419434
 31
0.0
210
0.0
220
0.0
230
1.0
 40
0.6991049172
 41
3.030173647626474
 42
3.056324447604915
  0
LINE
  5
121
330
1F
100
AcDbEntity
  8
0
  6
Continuous
 62
     7
370
    15
100
AcDbLine
 10
1505.9651579728
 20
1915.809284439
 30
0.0
 11
1505.103972461
 21
1930.7749406176
 31
0.0
  0
LINE
  5
122
330
1F
100
AcDbEntity
  8
0
  6
Continuous
 62
     7
370
    15
100
AcDbLine
 10
1592.5739228836
 20
1928.7189644776
 30
0.0
 11
1592.57558123
 21
1930.7749406176
 31
0.0
  0
ELLIPSE
  5
123
330
1F
100
AcDbEntity
  8
0
  6
Continuous
 62
     7
370
    15
100
AcDbEllipse
 10
1586.8158186707
 20
1929.8323492853
 30
0.0
 11
-1.569939061463629
 21
7.924353560335478
 31
0.0
210
0.0
220
0.0
230
1.0
 40
0.6991049172
 41
3.056324447604941
 42
4.435134556680452
  0
LINE
  5
124
330
1F
100
AcDbEntity
  8
0
  6
Continuous
 62
     7
370
    15
100
AcDbLine
 10
1587.9082441664
 20
1921.8433130073
 30
0.0
 11
1507.8176707128
 21
1915.9119871421
 31
0.0
  0
LINE
  5
125
330
1F
100
AcDbEntity
  8
0
  6
Continuous
 62
     7
370
    15
100
AcDbLine
 10
1327.8175149716
 20
1928.7189644776
 30
0.0
 11
1327.4105382851
 21
1930.7749406176
 31
0.0
  0
LINE
  5
126
330
1F
100
AcDbEntity
  8
0
  6
Continuous
 62
     7
370
    15
100
AcDbLine
 10
1597.1183520117
 20
1928.7189644776
 30
0.0
 11
1597.5253286983
 21
1930.7749406176
 31
0.0
  0
ELLIPSE
  5
127
330
1F
100
AcDbEntity
  8
0
  6
Continuous
 62
     7
370
    15
100
AcDbEllipse
 10
1333.2630150243
 20
1929.8323492853
 30
0.0
 11
-1.523563619372453
 21
7.930989607301851
 31
0.0
210
0.0
220
0.0
230
1.0
 40
0.6882053315
 41
1.578978915725708
 42
2.957789024801255
  0
ELLIPSE
  5
128
330
1F
100
AcDbEntity
  8
0
  6
Continuous
 62
     7
370
    15
100
AcDbEllipse
 10
1591.672851959
 20
1929.8323492853
 30
0.0
 11
1.52356361937268
 21
7.930989607301854
 31
0.0
210
0.0
220
0.0
230
1.0
 40
0.6882053315
 41
3.32539628237847
 42
4.704206391453907
  0
LINE
  5
129
330
1F
100
AcDbEntity
  8
0
  6
Continuous
 62
     7
370
    15
100
AcDbLine
 10
1333.7633267671
 20
1921.8433130073
 30
0.0
 11
1413.7284090981
 21
1915.9119871421
 31
0.0
  0
LINE
  5
12A
330
1F
100
AcDbEntity
  8
0
  6
Continuous
 62
     7
370
    15
100
AcDbLine
 10
1511.2074578853
 20
1915.9119871421
 30
0.0
 11
1591.1725402163
 21
1921.8433130073
 31
0.0
  0
LINE
  5
12B
330
1F
100
AcDbEntity
  8
0
  6
Continuous
 62
     7
370
    15
100
AcDbLine
 10
1450.732801004
 20
1930.7749406176
 30
0.0
 11
1449.4679334917
 21
1939.7749406176
 31
0.0
  0
LINE
  5
12C
330
1F
100
AcDbEntity
  8
0
  6
Continuous
 62
     7
370
    15
100
AcDbLine
 10
1474.2030659794
 20
1930.7749406176
 30
0.0
 11
1475.4679334917
 21
1939.7749406176
 31
0.0
  0
LINE
  5
12D
330
1F
100
AcDbEntity
  8
0
  6
Continuous
 62
     7
370
    15
100
AcDbLine
 10
1474.2030659794
 20
1930.7749406176
 30
0.0
 11
1450.732801004
 21
1930.7749406176
 31
0.0
  0
LINE
  5
12E
330
1F
100
AcDbEntity
  8
0
  6
Continuous
 62
     7
370
    15
100
AcDbLine
 10
1475.4679334917
 20
1939.7749406176
 30
0.0
 11
1449.4679334917
 21
1939.7749406176
 31
0.0
  0
SPLINE
  5
12F
330
1F
100
AcDbEntity
  8
0
  6
Continuous
 62
     7
370
    15
100
AcDbSpline
210
0.0
220
0.0
230
1.0
 70
    24
 71
     3
 72
    15
 73
    11
 74
     0
 42
0.000000001
 43
0.00000001
 40
0.0
 40
0.0
 40
0.0
 40
0.0
 40
0.1304315614050399
 40
0.2608555714497174
 40
0.3913315654033754
 40
0.5218049345113157
 40
0.6514761240667724
 40
0.7811508386733447
 40
0.8905734777426988
 40
1.0
 40
1.0
 40
1.0
 40
1.0
 10
1479.96703887228
 20
1930.774940617578
 30
0.0
 10
1479.543820736941
 20
1930.774940617578
 30
0.0
 10
1478.697408968558
 20
1930.774940617578
 30
0.0
 10
1477.539130408348
 20
1930.774940617578
 30
0.0
 10
1476.509450933865
 20
1930.774940617578
 30
0.0
 10
1475.640076257852
 20
1930.774940617578
 30
0.0
 10
1474.959506659815
 20
1930.774940617578
 30
0.0
 10
1474.507592330739
 20
1930.774940617578
 30
0.0
 10
1474.249306891257
 20
1930.774940617578
 30
0.0
 10
1474.21847979899
 20
1930.774940617578
 30
0.0
 10
1474.203065979364
 20
1930.774940617578
 30
0.0
  0
SPLINE
  5
130
330
1F
100
AcDbEntity
  8
0
  6
Continuous
 62
     7
370
    15
100
AcDbSpline
210
0.0
220
0.0
230
1.0
 70
    24
 71
     3
 72
    15
 73
    11
 74
     0
 42
0.000000001
 43
0.00000001
 40
0.0
 40
0.0
 40
0.0
 40
0.0
 40
0.1317447122811155
 40
0.2634819513336662
 40
0.3952703362031023
 40
0.5270562098654961
 40
0.6580548703881035
 40
0.7890571628006043
 40
0.8945269669972961
 40
1.0
 40
1.0
 40
1.0
 40
1.0
 10
1475.467933491685
 20
1939.774940617578
 30
0.0
 10
1475.489965872486
 20
1939.774940617578
 30
0.0
 10
1475.534029384299
 20
1939.774940617577
 30
0.0
 10
1475.879426390965
 20
1939.774940617578
 30
0.0
 10
1476.427289669706
 20
1939.774940617577
 30
0.0
 10
1477.173318223849
 20
1939.774940617578
 30
0.0
 10
1478.096737196149
 20
1939.774940617578
 30
0.0
 10
1479.096713453835
 20
1939.774940617578
 30
0.0
 10
1480.118069599854
 20
1939.774940617577
 30
0.0
 10
1480.794425430098
 20
1939.774940617577
 30
0.0
 10
1481.132608521555
 20
1939.774940617578
 30
0.0
  0
SPLINE
  5
131
330
1F
100
AcDbEntity
  8
0
  6
Continuous
 62
     7
370
    15
100
AcDbSpline
210
0.0
220
0.0
230
1.0
 70
    24
 71
     3
 72
    15
 73
    11
 74
     0
 42
0.000000001
 43
0.00000001
 40
0.0
 40
0.0
 40
0.0
 40
0.0
 40
0.1304317812509331
 40
0.2608560231777622
 40
0.3913322047812701
 40
0.5218057565445647
 40
0.6514775151873147
 40
0.7811527959722645
 40
0.8905744530591416
 40
1.0
 40
1.0
 40
1.0
 40
1.0
 10
1450.732801004007
 20
1930.774940617578
 30
0.0
 10
1450.710770075433
 20
1930.774940617578
 30
0.0
 10
1450.666709491735
 20
1930.774940617578
 30
0.0
 10
1450.321308881473
 20
1930.774940617577
 30
0.0
 10
1449.773396625618
 20
1930.774940617578
 30
0.0
 10
1449.027306260929
 20
1930.774940617578
 30
0.0
 10
1448.103811863684
 20
1930.774940617578
 30
0.0
 10
1447.090079320039
 20
1930.774940617578
 30
0.0
 10
1446.036213648254
 20
1930.774940617578
 30
0.0
 10
1445.324627506125
 20
1930.774940617578
 30
0.0
 10
1444.96882811109
 20
1930.774940617578
 30
0.0
  0
SPLINE
  5
132
330
1F
100
AcDbEntity
  8
0
  6
Continuous
 62
     7
370
    15
100
AcDbSpline
210
0.0
220
0.0
230
1.0
 70
    24
 71
     3
 72
    15
 73
    11
 74
     0
 42
0.000000001
 43
0.00000001
 40
0.0
 40
0.0
 40
0.0
 40
0.0
 40
0.1317445026771832
 40
0.2634815208008817
 40
0.3952697254402329
 40
0.5270554237335539
 40
0.6580535658467999
 40
0.7890553422915917
 40
0.8945260594262575
 40
1.0
 40
1.0
 40
1.0
 40
1.0
 10
1443.803258461816
 20
1939.774940617578
 30
0.0
 10
1444.224527714948
 20
1939.774940617578
 30
0.0
 10
1445.067042288431
 20
1939.774940617577
 30
0.0
 10
1446.216101498112
 20
1939.774940617578
 30
0.0
 10
1447.234316208887
 20
1939.774940617577
 30
0.0
 10
1448.090242668401
 20
1939.774940617578
 30
0.0
 10
1448.755748352247
 20
1939.774940617577
 30
0.0
 10
1449.186436586988
 20
1939.774940617578
 30
0.0
 10
1449.425872733932
 20
1939.774940617577
 30
0.0
 10
1449.453913096273
 20
1939.774940617578
 30
0.0
 10
1449.467933491685
 20
1939.774940617578
 30
0.0
  0
LINE
  5
133
330
1F
100
AcDbEntity
  8
0
  6
Continuous
 62
     7
370
    15
100
AcDbLine
 10
1466.3221861625
 20
1919.0648399009
 30
0.0
 11
1467.9679334917
 21
1930.7749406176
 31
0.0
  0
LINE
  5
134
330
1F
100
AcDbEntity
  8
0
  6
Continuous
 62
     7
370
    15
100
AcDbLine
 10
1458.6136808208
 20
1919.0648399009
 30
0.0
 11
1456.9679334917
 21
1930.7749406176
 31
0.0
  0
SPLINE
  5
135
330
1F
100
AcDbEntity
  8
0
  6
Continuous
 62
     7
370
    15
100
AcDbSpline
210
0.0
220
0.0
230
1.0
 70
    24
 71
     3
 72
    14
 73
    10
 74
     0
 42
0.000000001
 43
0.00000001
 40
0.0
 40
0.0
 40
0.0
 40
0.0
 40
0.1448360695201708
 40
0.2896652335533915
 40
0.4345385631496647
 40
0.5794104444920253
 40
0.7236240297893457
 40
0.8678422516031784
 40
1.0
 40
1.0
 40
1.0
 40
1.0
 10
1437.617040703657
 20
1930.774940617578
 30
0.0
 10
1437.197555624907
 20
1930.774940617578
 30
0.0
 10
1436.358605467594
 20
1930.774940617578
 30
0.0
 10
1435.025939673252
 20
1930.774940617578
 30
0.0
 10
1433.685676724827
 20
1930.774940617578
 30
0.0
 10
1432.368958540501
 20
1930.774940617578
 30
0.0
 10
1431.120901166393
 20
1930.774940617578
 30
0.0
 10
1429.991790792512
 20
1930.774940617578
 30
0.0
 10
1429.35397673399
 20
1930.774940617578
 30
0.0
 10
1429.048986145242
 20
1930.774940617578
 30
0.0
  0
SPLINE
  5
136
330
1F
100
AcDbEntity
  8
0
  6
Continuous
 62
     7
370
    15
100
AcDbSpline
210
0.0
220
0.0
230
1.0
 70
    24
 71
     3
 72
    14
 73
    10
 74
     0
 42
0.000000001
 43
0.00000001
 40
0.0
 40
0.0
 40
0.0
 40
0.0
 40
0.1462539632316597
 40
0.2925010840467136
 40
0.4387916661288389
 40
0.5850809000524315
 40
0.7307245576854992
 40
0.8763729539116315
 40
1.0
 40
1.0
 40
1.0
 40
1.0
 10
1429.3318638137
 20
1939.774940617578
 30
0.0
 10
1429.667739757493
 20
1939.774940617578
 30
0.0
 10
1430.339475931296
 20
1939.774940617578
 30
0.0
 10
1431.514687849118
 20
1939.774940617578
 30
0.0
 10
1432.775273401371
 20
1939.774940617577
 30
0.0
 10
1434.095112706796
 20
1939.774940617578
 30
0.0
 10
1435.432001052157
 20
1939.774940617577
 30
0.0
 10
1436.689157323218
 20
1939.774940617578
 30
0.0
 10
1437.461847129171
 20
1939.774940617578
 30
0.0
 10
1437.816596739576
 20
1939.774940617578
 30
0.0
  0
SPLINE
  5
137
330
1F
100
AcDbEntity
  8
0
  6
Continuous
 62
     7
370
    15
100
AcDbSpline
210
0.0
220
0.0
230
1.0
 70
    24
 71
     3
 72
    14
 73
    10
 74
     0
 42
0.000000001
 43
0.00000001
 40
0.0
 40
0.0
 40
0.0
 40
0.0
 40
0.144844903731317
 40
0.289682908149899
 40
0.4345650647459766
 40
0.5794457690414543
 40
0.7236595641638098
 40
0.8678779972921132
 40
1.0
 40
1.0
 40
1.0
 40
1.0
 10
1495.88688083813
 20
1930.774940617578
 30
0.0
 10
1495.550963757344
 20
1930.774940617578
 30
0.0
 10
1494.879145596315
 20
1930.774940617578
 30
0.0
 10
1493.703785604419
 20
1930.774940617578
 30
0.0
 10
1492.443032396044
 20
1930.774940617578
 30
0.0
 10
1491.123071314932
 20
1930.774940617578
 30
0.0
 10
1489.786235774533
 20
1930.774940617578
 30
0.0
 10
1488.499243040992
 20
1930.774940617578
 30
0.0
 10
1487.700646030597
 20
1930.774940617578
 30
0.0
 10
1487.318826279715
 20
1930.774940617578
 30
0.0
  0
SPLINE
  5
138
330
1F
100
AcDbEntity
  8
0
  6
Continuous
 62
     7
370
    15
100
AcDbSpline
210
0.0
220
0.0
230
1.0
 70
    24
 71
     3
 72
    14
 73
    10
 74
     0
 42
0.000000001
 43
0.00000001
 40
0.0
 40
0.0
 40
0.0
 40
0.0
 40
0.1462538192088305
 40
0.2925007887500083
 40
0.4387912392874115
 40
0.5850803457846918
 40
0.7307237982288319
 40
0.8763719881530049
 40
1.0
 40
1.0
 40
1.0
 40
1.0
 10
1487.119270243796
 20
1939.774940617578
 30
0.0
 10
1487.54043202921
 20
1939.774940617578
 30
0.0
 10
1488.382735875299
 20
1939.774940617578
 30
0.0
 10
1489.717326945217
 20
1939.774940617578
 30
0.0
 10
1491.057054540269
 20
1939.774940617577
 30
0.0
 10
1492.370714777837
 20
1939.774940617578
 30
0.0
 10
1493.613371869745
 20
1939.774940617578
 30
0.0
 10
1494.708818483556
 20
1939.774940617578
 30
0.0
 10
1495.322331710969
 20
1939.774940617578
 30
0.0
 10
1495.604003169672
 20
1939.774940617578
 30
0.0
  0
LINE
  5
139
330
1F
100
AcDbEntity
  8
0
  6
Continuous
 62
     7
370
    15
100
AcDbLine
 10
1487.3188262797
 20
1930.7749406176
 30
0.0
 11
1479.9670388723
 21
1930.7749406176
 31
0.0
  0
LINE
  5
13A
330
1F
100
AcDbEntity
  8
0
  6
Continuous
 62
     7
370
    15
100
AcDbLine
 10
1487.1192702438
 20
1939.7749406176
 30
0.0
 11
1481.1326085216
 21
1939.7749406176
 31
0.0
  0
LINE
  5
13B
330
1F
100
AcDbEntity
  8
0
  6
Continuous
 62
     7
370
    15
100
AcDbLine
 10
1444.9688281111
 20
1930.7749406176
 30
0.0
 11
1437.6170407037
 21
1930.7749406176
 31
0.0
  0
LINE
  5
13C
330
1F
100
AcDbEntity
  8
0
  6
Continuous
 62
     7
370
    15
100
AcDbLine
 10
1443.8032584618
 20
1939.7749406176
 30
0.0
 11
1437.8165967396
 21
1939.7749406176
 31
0.0
  0
SPLINE
  5
13D
330
1F
100
AcDbEntity
  8
0
  6
Continuous
 62
     7
370
    15
100
AcDbSpline
210
0.0
220
0.0
230
1.0
 70
    24
 71
     3
 72
    14
 73
    10
 74
     0
 42
0.000000001
 43
0.00000001
 40
0.0
 40
0.0
 40
0.0
 40
0.0
 40
0.1345302244091715
 40
0.2729517034917396
 40
0.4074861410915613
 40
0.5459334006643647
 40
0.6803103963806065
 40
0.8185489377492485
 40
1.0
 40
1.0
 40
1.0
 40
1.0
 10
1459.076046012221
 20
1915.774940617578
 30
0.0
 10
1459.07421363792
 20
1915.787978638202
 30
0.0
 10
1459.070495888328
 20
1915.814431801089
 30
0.0
 10
1459.040512863099
 20
1916.027772110988
 30
0.0
 10
1458.992987905075
 20
1916.365929758364
 30
0.0
 10
1458.928440019644
 20
1916.825211828009
 30
0.0
 10
1458.847881359727
 20
1917.398416477657
 30
0.0
 10
1458.745016527216
 20
1918.130337792402
 30
0.0
 10
1458.661234342355
 20
1918.726479013838
 30
0.0
 10
1458.61368082085
 20
1919.064839900949
 30
0.0
  0
SPLINE
  5
13E
330
1F
100
AcDbEntity
  8
0
  6
Continuous
 62
     7
370
    15
100
AcDbSpline
210
0.0
220
0.0
230
1.0
 70
    24
 71
     3
 72
    14
 73
    10
 74
     0
 42
0.000000001
 43
0.00000001
 40
0.0
 40
0.0
 40
0.0
 40
0.0
 40
0.1355387003144559
 40
0.2749814173457177
 40
0.4105291973334063
 40
0.5500541975584851
 40
0.6847932821005309
 40
0.8234645810816804
 40
1.0
 40
1.0
 40
1.0
 40
1.0
 10
1466.322186162522
 20
1919.064839900949
 30
0.0
 10
1466.286513358244
 20
1918.811014709479
 30
0.0
 10
1466.214140240764
 20
1918.296053220646
 30
0.0
 10
1466.117270652255
 20
1917.60679028355
 30
0.0
 10
1466.03149485204
 20
1916.996463751791
 30
0.0
 10
1465.961450877892
 20
1916.498074978901
 30
0.0
 10
1465.908206822594
 20
1916.119223839935
 30
0.0
 10
1465.868486176536
 20
1915.836596757622
 30
0.0
 10
1465.862931779739
 20
1915.797075170826
 30
0.0
 10
1465.85982097115
 20
1915.774940617578
 30
0.0
  0
LINE
  5
13F
330
1F
100
AcDbEntity
  8
0
  6
Continuous
 62
     7
370
    15
100
AcDbLine
 10
1465.8598209711
 20
1915.7749406176
 30
0.0
 11
1459.0760460122
 21
1915.7749406176
 31
0.0
  0
LINE
  5
140
330
1F
100
AcDbEntity
  8
0
  6
Continuous
 62
     7
370
    15
100
AcDbLine
 10
1486.9363345378
 20
1915.7749406176
 30
0.0
 11
1487.4479254853
 21
1930.7749406176
 31
0.0
  0
LINE
  5
141
330
1F
100
AcDbEntity
  8
0
  6
Continuous
 62
     7
370
    15
100
AcDbLine
 10
1486.9363345378
 20
1915.7749406176
 30
0.0
 11
1465.8598209711
 21
1915.7749406176
 31
0.0
  0
LINE
  5
142
330
1F
100
AcDbEntity
  8
0
  6
Continuous
 62
     7
370
    15
100
AcDbLine
 10
1437.9995324456
 20
1915.7749406176
 30
0.0
 11
1437.4879414981
 21
1930.7749406176
 31
0.0
  0
LINE
  5
143
330
1F
100
AcDbEntity
  8
0
  6
Continuous
 62
     7
370
    15
100
AcDbLine
 10
1459.0760460122
 20
1915.7749406176
 30
0.0
 11
1437.9995324456
 21
1915.7749406176
 31
0.0
  0
ELLIPSE
  5
144
330
1F
100
AcDbEntity
  8
0
  6
Continuous
 62
     7
370
    15
100
AcDbEllipse
 10
1488.2098022449
 20
2015.7749406176
 30
0.0
 11
141.4962048075675
 21
-19.14385769769433
 31
0.0
210
0.0
220
0.0
230
1.0
 40
0.6936614286
 41
4.905016603419322
 42
4.931225681000711
  0
LINE
  5
145
330
1F
100
AcDbEntity
  8
0
  6
Continuous
 62
     7
370
    15
100
AcDbLine
 10
1502.2638857151
 20
1915.7749406176
 30
0.0
 11
1486.9363345378
 21
1915.7749406176
 31
0.0
  0
ELLIPSE
  5
146
330
1F
100
AcDbEntity
  8
0
  6
Continuous
 62
     7
370
    15
100
AcDbEllipse
 10
1436.7260647385
 20
2015.7749406176
 30
0.0
 11
141.4962048075615
 21
19.14385769769547
 31
0.0
210
0.0
220
0.0
230
1.0
 40
0.6936614286
 41
4.493552279768696
 42
4.519761357350065
  0
LINE
  5
147
330
1F
100
AcDbEntity
  8
0
  6
Continuous
 62
     7
370
    15
100
AcDbLine
 10
1437.9995324456
 20
1915.7749406176
 30
0.0
 11
1422.6719812682
 21
1915.7749406176
 31
0.0
  0
LINE
  5
148
330
1F
100
AcDbEntity
  8
0
  6
Continuous
 62
     7
370
    15
100
AcDbLine
 10
1415.5760460122
 20
1915.7749406176
 30
0.0
 11
1415.5712193029
 21
1915.809284439
 31
0.0
  0
LINE
  5
149
330
1F
100
AcDbEntity
  8
0
  6
Continuous
 62
     7
370
    15
100
AcDbLine
 10
1422.6719812682
 20
1915.7749406176
 30
0.0
 11
1415.5760460122
 21
1915.7749406176
 31
0.0
  0
ELLIPSE
  5
14A
330
1F
100
AcDbEntity
  8
0
  6
Continuous
 62
     7
370
    15
100
AcDbEllipse
 10
1407.4745123139
 20
2015.7749406176
 30
0.0
 11
-19.0445452421568
 21
99.13737009127543
 31
0.0
210
0.0
220
0.0
230
1.0
 40
0.6882053315
 41
2.957789024801202
 42
2.983939824779583
  0
LINE
  5
14B
330
1F
100
AcDbEntity
  8
0
  6
Continuous
 62
     7
370
    15
100
AcDbLine
 10
1509.3646476805
 20
1915.809284439
 30
0.0
 11
1509.3598209712
 21
1915.7749406176
 31
0.0
  0
LINE
  5
14C
330
1F
100
AcDbEntity
  8
0
  6
Continuous
 62
     7
370
    15
100
AcDbLine
 10
1509.3598209712
 20
1915.7749406176
 30
0.0
 11
1502.2638857151
 21
1915.7749406176
 31
0.0
  0
ELLIPSE
  5
14D
330
1F
100
AcDbEntity
  8
0
  6
Continuous
 62
     7
370
    15
100
AcDbEllipse
 10
1517.4613546694
 20
2015.7749406176
 30
0.0
 11
19.0445452421568
 21
99.13737009127543
 31
0.0
210
0.0
220
0.0
230
1.0
 40
0.6882053315
 41
3.299245482399961
 42
3.325396282378404
  0
LINE
  5
14E
330
1F
100
AcDbEntity
  8
0
  6
Continuous
 62
     7
370
    15
100
AcDbLine
 10
1409.684916711
 20
1915.7749406176
 30
0.0
 11
1409.6278163587
 21
1916.2161442951
 31
0.0
  0
LINE
  5
14F
330
1F
100
AcDbEntity
  8
0
  6
Continuous
 62
     7
370
    15
100
AcDbLine
 10
1415.5760460122
 20
1915.7749406176
 30
0.0
 11
1409.684916711
 21
1915.7749406176
 31
0.0
  0
LINE
  5
150
330
1F
100
AcDbEntity
  8
0
  6
Continuous
 62
     7
370
    15
100
AcDbLine
 10
1515.3080506246
 20
1916.2161442951
 30
0.0
 11
1515.2509502723
 21
1915.7749406176
 31
0.0
  0
LINE
  5
151
330
1F
100
AcDbEntity
  8
0
  6
Continuous
 62
     7
370
    15
100
AcDbLine
 10
1515.2509502723
 20
1915.7749406176
 30
0.0
 11
1509.3598209712
 21
1915.7749406176
 31
0.0
  0
SPLINE
  5
152
330
1F
100
AcDbEntity
  8
0
  6
Continuous
 62
     7
370
    15
100
AcDbSpline
210
0.0
220
0.0
230
1.0
 70
     8
 71
     3
 72
    11
 73
     7
 74
     0
 42
0.000000001
 43
0.00000001
 40
0.0
 40
0.0
 40
0.0
 40
0.0
 40
0.3205340575095683
 40
0.6410594855200104
 40
0.9616228938460312
 40
1.0
 40
1.0
 40
1.0
 40
1.0
 10
1515.899790968666
 20
1915.774940617578
 30
0.0
 10
1516.178445527233
 20
1915.788007712527
 30
0.0
 10
1516.735747142359
 20
1915.814141550629
 30
0.0
 10
1517.541588964336
 20
1916.03733247981
 30
0.0
 10
1518.097127323268
 20
1916.251981074424
 30
0.0
 10
1518.35452419311
 20
1916.425592423975
 30
0.0
 10
1518.382044482961
 20
1916.444154555923
 30
0.0
  0
LINE
  5
153
330
1F
100
AcDbEntity
  8
0
  6
Continuous
 62
     7
370
    15
100
AcDbLine
 10
1515.8997909687
 20
1915.7749406176
 30
0.0
 11
1515.2509502723
 21
1915.7749406176
 31
0.0
  0
SPLINE
  5
154
330
1F
100
AcDbEntity
  8
0
  6
Continuous
 62
     7
370
    15
100
AcDbSpline
210
0.0
220
0.0
230
1.0
 70
     8
 71
     3
 72
    10
 73
     6
 74
     0
 42
0.000000001
 43
0.00000001
 40
0.0
 40
0.0
 40
0.0
 40
0.0
 40
0.2621461601456553
 40
0.584153081707497
 40
1.0
 40
1.0
 40
1.0
 40
1.0
 10
1406.560511412338
 20
1916.443658412917
 30
0.0
 10
1406.759536774066
 20
1916.335664094022
 30
0.0
 10
1407.203034700287
 20
1916.095015082974
 30
0.0
 10
1408.037723594846
 20
1915.838771897533
 30
0.0
 10
1408.676223796323
 20
1915.797948352359
 30
0.0
 10
1409.036076014705
 20
1915.774940617578
 30
0.0
  0
LINE
  5
155
330
1F
100
AcDbEntity
  8
0
  6
Continuous
 62
     7
370
    15
100
AcDbLine
 10
1409.684916711
 20
1915.7749406176
 30
0.0
 11
1409.0360760147
 21
1915.7749406176
 31
0.0
  0
LINE
  5
156
330
1F
100
AcDbEntity
  8
0
  6
Continuous
 62
     7
370
    15
100
AcDbLine
 10
1409.0360760147
 20
1915.7749406176
 30
0.0
 11
1408.9285246967
 21
1915.7749406176
 31
0.0
  0
LINE
  5
157
330
1F
100
AcDbEntity
  8
0
  6
Continuous
 62
     7
370
    15
100
AcDbLine
 10
1516.0073422866
 20
1915.7749406176
 30
0.0
 11
1515.8997909687
 21
1915.7749406176
 31
0.0
  0
CIRCLE
  5
158
330
1F
100
AcDbEntity
  8
0
  6
Continuous
 62
     7
370
    15
100
AcDbCircle
 10
1462.4679334917
 20
443.2695961995
 30
0.0
 40
282.5
  0
SPLINE
  5
159
330
1F
100
AcDbEntity
  8
0
  6
Continuous
 62
     7
370
    15
100
AcDbSpline
210
0.0
220
0.0
230
1.0
 70
     8
 71
     3
 72
    14
 73
    10
 74
     0
 42
0.000000001
 43
0.00000001
 40
0.0
 40
0.0
 40
0.0
 40
0.0
 40
0.1462539632316598
 40
0.2925010840467124
 40
0.4387916661288386
 40
0.5850809000524291
 40
0.7307245576854948
 40
0.8763729539116272
 40
1.0
 40
1.0
 40
1.0
 40
1.0
 10
1495.604003169672
 20
505.5946644908055
 30
0.0
 10
1495.268127225878
 20
505.3009675852228
 30
0.0
 10
1494.596391052075
 20
504.7135875145166
 30
0.0
 10
1493.421179134254
 20
504.0588412020527
 30
0.0
 10
1492.160593582001
 20
503.6027803255844
 30
0.0
 10
1490.840754276576
 20
503.3640906549248
 30
0.0
 10
1489.503865931215
 20
503.3582602631152
 30
0.0
 10
1488.246709660153
 20
503.5488372739273
 30
0.0
 10
1487.474019854201
 20
503.8263161068871
 30
0.0
 10
1487.119270243796
 20
503.9537094115865
 30
0.0
  0
LINE
  5
15A
330
1F
100
AcDbEntity
  8
0
  6
Continuous
 62
     7
370
    15
100
AcDbLine
 10
1495.6040031697
 20
505.5946644908
 30
0.0
 11
1594.2169782882
 21
600.8241076131
 31
0.0
  0
ARC
  5
15B
330
1F
100
AcDbEntity
  8
0
  6
Continuous
 62
     7
370
    15
100
AcDbCircle
 10
1606.894493549
 20
587.6961562569
 30
0.0
 40
18.24999999999998
100
AcDbArc
 50
316.0
 51
134.0
  0
LINE
  5
15C
330
1F
100
AcDbEntity
  8
0
  6
Continuous
 62
     7
370
    15
100
AcDbLine
 10
1620.0224449052
 20
575.018640996
 30
0.0
 11
1524.793001783
 21
476.4056658775
 31
0.0
  0
SPLINE
  5
15D
330
1F
100
AcDbEntity
  8
0
  6
Continuous
 62
     7
370
    15
100
AcDbSpline
210
0.0
220
0.0
230
1.0
 70
     8
 71
     3
 72
    14
 73
    10
 74
     0
 42
0.000000001
 43
0.00000001
 40
0.0
 40
0.0
 40
0.0
 40
0.0
 40
0.1462538192088303
 40
0.29250078875001
 40
0.4387912392874118
 40
0.5850803457846875
 40
0.730723798228825
 40
0.876371988152999
 40
1.0
 40
1.0
 40
1.0
 40
1.0
 10
1523.152046703745
 20
467.9209329516369
 30
0.0
 10
1523.00476169113
 20
468.3420947370505
 30
0.0
 10
1522.710198563861
 20
469.1843985831396
 30
0.0
 10
1522.54084992609
 20
470.5189896530575
 30
0.0
 10
1522.587692173871
 20
471.8587172481099
 30
0.0
 10
1522.858323762132
 20
473.1723774856775
 30
0.0
 10
1523.351378742909
 20
474.4150345775854
 30
0.0
 10
1523.996950173044
 20
475.5104811913967
 30
0.0
 10
1524.542522723563
 20
476.1239944188097
 30
0.0
 10
1524.793001782964
 20
476.4056658775127
 30
0.0
  0
ARC
  5
15E
330
1F
100
AcDbEntity
  8
0
  6
Continuous
 62
     7
370
    15
100
AcDbCircle
 10
1462.4679334917
 20
443.2695961995
 30
0.0
 40
65.50000000000018
100
AcDbArc
 50
16.5562705581
 51
22.108164441
  0
SPLINE
  5
15F
330
1F
100
AcDbEntity
  8
0
  6
Continuous
 62
     7
370
    15
100
AcDbSpline
210
0.0
220
0.0
230
1.0
 70
     8
 71
     3
 72
    15
 73
    11
 74
     0
 42
0.000000001
 43
0.00000001
 40
0.0
 40
0.0
 40
0.0
 40
0.0
 40
0.1317447122811151
 40
0.2634819513336666
 40
0.3952703362031028
 40
0.5270562098654968
 40
0.6580548703881036
 40
0.7890571628006062
 40
0.8945269669972957
 40
1.0
 40
1.0
 40
1.0
 40
1.0
 10
1532.846020832441
 20
456.2695961995269
 30
0.0
 10
1532.399980002021
 20
456.2916285803274
 30
0.0
 10
1531.507923642882
 20
456.3356920921401
 30
0.0
 10
1530.206483108931
 20
456.6810890988065
 30
0.0
 10
1528.981356393348
 20
457.2289523775476
 30
0.0
 10
1527.866625486846
 20
457.9749809316908
 30
0.0
 10
1526.897817272275
 20
458.8983999039899
 30
0.0
 10
1526.151227671749
 20
459.8983761616764
 30
0.0
 10
1525.597808727188
 20
460.9197323076959
 30
0.0
 10
1525.36748788984
 20
461.5960881379392
 30
0.0
 10
1525.252325708457
 20
461.9342712293962
 30
0.0
  0
LINE
  5
160
330
1F
100
AcDbEntity
  8
0
  6
Continuous
 62
     7
370
    15
100
AcDbLine
 10
1532.8460208324
 20
456.2695961995
 30
0.0
 11
1534.9679334917
 21
456.2695961995
 31
0.0
  0
ARC
  5
161
330
1F
100
AcDbEntity
  8
0
  6
Continuous
 62
     7
370
    15
100
AcDbCircle
 10
1534.9679334917
 20
443.2695961995
 30
0.0
 40
13.0
100
AcDbArc
 50
270.0
 51
90.0
  0
LINE
  5
162
330
1F
100
AcDbEntity
  8
0
  6
Continuous
 62
     7
370
    15
100
AcDbLine
 10
1534.9679334917
 20
430.2695961995
 30
0.0
 11
1532.8460208324
 21
430.2695961995
 31
0.0
  0
SPLINE
  5
163
330
1F
100
AcDbEntity
  8
0
  6
Continuous
 62
     7
370
    15
100
AcDbSpline
210
0.0
220
0.0
230
1.0
 70
     8
 71
     3
 72
    15
 73
    11
 74
     0
 42
0.000000001
 43
0.00000001
 40
0.0
 40
0.0
 40
0.0
 40
0.0
 40
0.1317445026771825
 40
0.2634815208008798
 40
0.3952697254402314
 40
0.5270554237335523
 40
0.6580535658468
 40
0.7890553422915951
 40
0.8945260594262591
 40
1.0
 40
1.0
 40
1.0
 40
1.0
 10
1525.252325708457
 20
424.6049211696576
 30
0.0
 10
1525.400546555071
 20
425.0261904227893
 30
0.0
 10
1525.696979827705
 20
425.8687049962725
 30
0.0
 10
1526.398908520695
 20
427.017764205953
 30
0.0
 10
1527.273164460585
 20
428.0359789167289
 30
0.0
 10
1528.305911036471
 20
428.8919053762426
 30
0.0
 10
1529.467109951507
 20
429.5574110600881
 30
0.0
 10
1530.638371997006
 20
429.9880992948292
 30
0.0
 10
1531.775087341626
 20
430.2275354417735
 30
0.0
 10
1532.489039365542
 20
430.2555758041145
 30
0.0
 10
1532.846020832441
 20
430.2695961995269
 30
0.0
  0
ARC
  5
164
330
1F
100
AcDbEntity
  8
0
  6
Continuous
 62
     7
370
    15
100
AcDbCircle
 10
1462.4679334917
 20
443.2695961995
 30
0.0
 40
65.49999999999996
100
AcDbArc
 50
337.891835559
 51
343.4437294419
  0
SPLINE
  5
165
330
1F
100
AcDbEntity
  8
0
  6
Continuous
 62
     7
370
    15
100
AcDbSpline
210
0.0
220
0.0
230
1.0
 70
     8
 71
     3
 72
    14
 73
    10
 74
     0
 42
0.000000001
 43
0.00000001
 40
0.0
 40
0.0
 40
0.0
 40
0.0
 40
0.1462539632316581
 40
0.2925010840467121
 40
0.4387916661288374
 40
0.5850809000524274
 40
0.7307245576854947
 40
0.8763729539116276
 40
1.0
 40
1.0
 40
1.0
 40
1.0
 10
1524.793001782965
 20
410.1335265215414
 30
0.0
 10
1524.499304877382
 20
410.4694024653348
 30
0.0
 10
1523.911924806676
 20
411.1411386391379
 30
0.0
 10
1523.257178494212
 20
412.3163505569592
 30
0.0
 10
1522.801117617744
 20
413.5769361092125
 30
0.0
 10
1522.562427947084
 20
414.8967754146368
 30
0.0
 10
1522.556597555274
 20
416.2336637599984
 30
0.0
 10
1522.747174566086
 20
417.4908200310597
 30
0.0
 10
1523.024653399046
 20
418.2635098370127
 30
0.0
 10
1523.152046703745
 20
418.6182594474172
 30
0.0
  0
LINE
  5
166
330
1F
100
AcDbEntity
  8
0
  6
Continuous
 62
     7
370
    15
100
AcDbLine
 10
1524.793001783
 20
410.1335265215
 30
0.0
 11
1620.0224449052
 21
311.5205514031
 31
0.0
  0
ARC
  5
167
330
1F
100
AcDbEntity
  8
0
  6
Continuous
 62
     7
370
    15
100
AcDbCircle
 10
1606.894493549
 20
298.8430361422
 30
0.0
 40
18.25000000000018
100
AcDbArc
 50
226.0
 51
44.0
  0
LINE
  5
168
330
1F
100
AcDbEntity
  8
0
  6
Continuous
 62
     7
370
    15
100
AcDbLine
 10
1594.2169782882
 20
285.715084786
 30
0.0
 11
1495.6040031697
 21
380.9445279082
 31
0.0
  0
SPLINE
  5
169
330
1F
100
AcDbEntity
  8
0
  6
Continuous
 62
     7
370
    15
100
AcDbSpline
210
0.0
220
0.0
230
1.0
 70
     8
 71
     3
 72
    14
 73
    10
 74
     0
 42
0.000000001
 43
0.00000001
 40
0.0
 40
0.0
 40
0.0
 40
0.0
 40
0.1462538192088308
 40
0.2925007887500081
 40
0.4387912392874123
 40
0.5850803457846925
 40
0.7307237982288317
 40
0.8763719881530053
 40
1.0
 40
1.0
 40
1.0
 40
1.0
 10
1487.119270243796
 20
382.5854829874675
 30
0.0
 10
1487.54043202921
 20
382.7327680000832
 30
0.0
 10
1488.382735875299
 20
383.0273311273522
 30
0.0
 10
1489.717326945217
 20
383.1966797651235
 30
0.0
 10
1491.057054540269
 20
383.1498375173418
 30
0.0
 10
1492.370714777837
 20
382.8792059290805
 30
0.0
 10
1493.613371869745
 20
382.3861509483041
 30
0.0
 10
1494.708818483556
 20
381.7405795181687
 30
0.0
 10
1495.322331710969
 20
381.1950069676502
 30
0.0
 10
1495.604003169672
 20
380.9445279082485
 30
0.0
  0
ARC
  5
16A
330
1F
100
AcDbEntity
  8
0
  6
Continuous
 62
     7
370
    15
100
AcDbCircle
 10
1462.4679334917
 20
443.2695961995
 30
0.0
 40
65.50000000000003
100
AcDbArc
 50
286.5562705581
 51
292.108164441
  0
SPLINE
  5
16B
330
1F
100
AcDbEntity
  8
0
  6
Continuous
 62
     7
370
    15
100
AcDbSpline
210
0.0
220
0.0
230
1.0
 70
     8
 71
     3
 72
    15
 73
    11
 74
     0
 42
0.000000001
 43
0.00000001
 40
0.0
 40
0.0
 40
0.0
 40
0.0
 40
0.1317447122811143
 40
0.2634819513336661
 40
0.3952703362031021
 40
0.5270562098654964
 40
0.6580548703881031
 40
0.7890571628006043
 40
0.894526966997295
 40
0.9999999999999999
 40
0.9999999999999999
 40
0.9999999999999999
 40
0.9999999999999999
 10
1475.467933491685
 20
372.8915088587719
 30
0.0
 10
1475.489965872486
 20
373.3375496891912
 30
0.0
 10
1475.534029384299
 20
374.2296060483308
 30
0.0
 10
1475.879426390965
 20
375.5310465822811
 30
0.0
 10
1476.427289669706
 20
376.7561732978647
 30
0.0
 10
1477.173318223849
 20
377.870904204366
 30
0.0
 10
1478.096737196149
 20
378.8397124189377
 30
0.0
 10
1479.096713453835
 20
379.586302019463
 30
0.0
 10
1480.118069599854
 20
380.1397209640242
 30
0.0
 10
1480.794425430098
 20
380.3700418013729
 30
0.0
 10
1481.132608521555
 20
380.4852039827554
 30
0.0
  0
LINE
  5
16C
330
1F
100
AcDbEntity
  8
0
  6
Continuous
 62
     7
370
    15
100
AcDbLine
 10
1475.4679334917
 20
372.8915088588
 30
0.0
 11
1475.4679334917
 21
370.7695961995
 31
0.0
  0
ARC
  5
16D
330
1F
100
AcDbEntity
  8
0
  6
Continuous
 62
     7
370
    15
100
AcDbCircle
 10
1462.4679334917
 20
370.7695961995
 30
0.0
 40
13.0
100
AcDbArc
 50
180.0
 51
0.0
  0
LINE
  5
16E
330
1F
100
AcDbEntity
  8
0
  6
Continuous
 62
     7
370
    15
100
AcDbLine
 10
1449.4679334917
 20
370.7695961995
 30
0.0
 11
1449.4679334917
 21
372.8915088588
 31
0.0
  0
SPLINE
  5
16F
330
1F
100
AcDbEntity
  8
0
  6
Continuous
 62
     7
370
    15
100
AcDbSpline
210
0.0
220
0.0
230
1.0
 70
     8
 71
     3
 72
    15
 73
    11
 74
     0
 42
0.000000001
 43
0.00000001
 40
0.0
 40
0.0
 40
0.0
 40
0.0
 40
0.1317445026771834
 40
0.2634815208008819
 40
0.3952697254402327
 40
0.5270554237335532
 40
0.6580535658467989
 40
0.7890553422915906
 40
0.8945260594262563
 40
1.0
 40
1.0
 40
1.0
 40
1.0
 10
1443.803258461816
 20
380.4852039827556
 30
0.0
 10
1444.224527714948
 20
380.3369831361418
 30
0.0
 10
1445.067042288431
 20
380.0405498635072
 30
0.0
 10
1446.216101498112
 20
379.3386211705173
 30
0.0
 10
1447.234316208887
 20
378.464365230628
 30
0.0
 10
1448.090242668401
 20
377.4316186547412
 30
0.0
 10
1448.755748352247
 20
376.2704197397059
 30
0.0
 10
1449.186436586988
 20
375.0991576942068
 30
0.0
 10
1449.425872733932
 20
373.9624423495865
 30
0.0
 10
1449.453913096273
 20
373.2484903256701
 30
0.0
 10
1449.467933491685
 20
372.891508858772
 30
0.0
  0
ARC
  5
170
330
1F
100
AcDbEntity
  8
0
  6
Continuous
 62
     7
370
    15
100
AcDbCircle
 10
1462.4679334917
 20
443.2695961995
 30
0.0
 40
65.5
100
AcDbArc
 50
247.891835559
 51
253.4437294419
  0
SPLINE
  5
171
330
1F
100
AcDbEntity
  8
0
  6
Continuous
 62
     7
370
    15
100
AcDbSpline
210
0.0
220
0.0
230
1.0
 70
     8
 71
     3
 72
    14
 73
    10
 74
     0
 42
0.000000001
 43
0.00000001
 40
0.0
 40
0.0
 40
0.0
 40
0.0
 40
0.146253963231658
 40
0.2925010840467126
 40
0.4387916661288382
 40
0.5850809000524316
 40
0.7307245576854986
 40
0.8763729539116313
 40
1.0
 40
1.0
 40
1.0
 40
1.0
 10
1429.3318638137
 20
380.944527908248
 30
0.0
 10
1429.667739757493
 20
381.2382248138307
 30
0.0
 10
1430.339475931296
 20
381.825604884537
 30
0.0
 10
1431.514687849118
 20
382.4803511970008
 30
0.0
 10
1432.775273401371
 20
382.9364120734691
 30
0.0
 10
1434.095112706796
 20
383.1751017441287
 30
0.0
 10
1435.432001052157
 20
383.1809321359383
 30
0.0
 10
1436.689157323218
 20
382.9903551251263
 30
0.0
 10
1437.461847129171
 20
382.7128762921666
 30
0.0
 10
1437.816596739576
 20
382.5854829874671
 30
0.0
  0
LINE
  5
172
330
1F
100
AcDbEntity
  8
0
  6
Continuous
 62
     7
370
    15
100
AcDbLine
 10
1429.3318638137
 20
380.9445279082
 30
0.0
 11
1330.7188886952
 21
285.715084786
 31
0.0
  0
ARC
  5
173
330
1F
100
AcDbEntity
  8
0
  6
Continuous
 62
     7
370
    15
100
AcDbCircle
 10
1318.0413734343
 20
298.8430361422
 30
0.0
 40
18.25000000000017
100
AcDbArc
 50
136.0
 51
314.0
  0
LINE
  5
174
330
1F
100
AcDbEntity
  8
0
  6
Continuous
 62
     7
370
    15
100
AcDbLine
 10
1304.9134220782
 20
311.5205514031
 30
0.0
 11
1400.1428652004
 21
410.1335265215
 31
0.0
  0
SPLINE
  5
175
330
1F
100
AcDbEntity
  8
0
  6
Continuous
 62
     7
370
    15
100
AcDbSpline
210
0.0
220
0.0
230
1.0
 70
     8
 71
     3
 72
    14
 73
    10
 74
     0
 42
0.000000001
 43
0.00000001
 40
0.0
 40
0.0
 40
0.0
 40
0.0
 40
0.1462538192088307
 40
0.2925007887500091
 40
0.4387912392874118
 40
0.585080345784691
 40
0.7307237982288315
 40
0.8763719881530048
 40
1.0
 40
1.0
 40
1.0
 40
1.0
 10
1401.783820279626
 20
418.6182594474164
 30
0.0
 10
1401.931105292242
 20
418.1970976620029
 30
0.0
 10
1402.225668419511
 20
417.3547938159138
 30
0.0
 10
1402.395017057282
 20
416.0202027459958
 30
0.0
 10
1402.348174809501
 20
414.6804751509434
 30
0.0
 10
1402.077543221239
 20
413.3668149133758
 30
0.0
 10
1401.584488240463
 20
412.1241578214679
 30
0.0
 10
1400.938916810327
 20
411.0287112076566
 30
0.0
 10
1400.393344259809
 20
410.4151979802436
 30
0.0
 10
1400.142865200407
 20
410.1335265215405
 30
0.0
  0
ARC
  5
176
330
1F
100
AcDbEntity
  8
0
  6
Continuous
 62
     7
370
    15
100
AcDbCircle
 10
1462.4679334917
 20
443.2695961995
 30
0.0
 40
65.50000000000006
100
AcDbArc
 50
196.5562705581
 51
202.108164441
  0
SPLINE
  5
177
330
1F
100
AcDbEntity
  8
0
  6
Continuous
 62
     7
370
    15
100
AcDbSpline
210
0.0
220
0.0
230
1.0
 70
     8
 71
     3
 72
    15
 73
    11
 74
     0
 42
0.000000001
 43
0.00000001
 40
0.0
 40
0.0
 40
0.0
 40
0.0
 40
0.1317447122811141
 40
0.2634819513336645
 40
0.3952703362030997
 40
0.5270562098654943
 40
0.6580548703881022
 40
0.7890571628006053
 40
0.8945269669972954
 40
1.0
 40
1.0
 40
1.0
 40
1.0
 10
1392.089846150931
 20
430.2695961995274
 30
0.0
 10
1392.53588698135
 20
430.2475638187267
 30
0.0
 10
1393.427943340489
 20
430.2035003069141
 30
0.0
 10
1394.72938387444
 20
429.8581033002477
 30
0.0
 10
1395.954510590023
 20
429.3102400215067
 30
0.0
 10
1397.069241496525
 20
428.5642114673634
 30
0.0
 10
1398.038049711096
 20
427.6407924950644
 30
0.0
 10
1398.784639311622
 20
426.6408162373777
 30
0.0
 10
1399.338058256183
 20
425.6194600913583
 30
0.0
 10
1399.568379093532
 20
424.943104261115
 30
0.0
 10
1399.683541274914
 20
424.6049211696579
 30
0.0
  0
LINE
  5
178
330
1F
100
AcDbEntity
  8
0
  6
Continuous
 62
     7
370
    15
100
AcDbLine
 10
1392.0898461509
 20
430.2695961995
 30
0.0
 11
1389.9679334917
 21
430.2695961995
 31
0.0
  0
ARC
  5
179
330
1F
100
AcDbEntity
  8
0
  6
Continuous
 62
     7
370
    15
100
AcDbCircle
 10
1389.9679334917
 20
443.2695961995
 30
0.0
 40
13.00000000000006
100
AcDbArc
 50
90.0
 51
270.0
  0
LINE
  5
17A
330
1F
100
AcDbEntity
  8
0
  6
Continuous
 62
     7
370
    15
100
AcDbLine
 10
1389.9679334917
 20
456.2695961995
 30
0.0
 11
1392.0898461509
 21
456.2695961995
 31
0.0
  0
SPLINE
  5
17B
330
1F
100
AcDbEntity
  8
0
  6
Continuous
 62
     7
370
    15
100
AcDbSpline
210
0.0
220
0.0
230
1.0
 70
     8
 71
     3
 72
    15
 73
    11
 74
     0
 42
0.000000001
 43
0.00000001
 40
0.0
 40
0.0
 40
0.0
 40
0.0
 40
0.1317445026771814
 40
0.2634815208008785
 40
0.3952697254402293
 40
0.5270554237335495
 40
0.6580535658467965
 40
0.7890553422915936
 40
0.8945260594262591
 40
1.0
 40
1.0
 40
1.0
 40
1.0
 10
1399.683541274914
 20
461.9342712293967
 30
0.0
 10
1399.535320428301
 20
461.5130019762648
 30
0.0
 10
1399.238887155666
 20
460.6704874027817
 30
0.0
 10
1398.536958462676
 20
459.5214281931012
 30
0.0
 10
1397.662702522787
 20
458.5032134823252
 30
0.0
 10
1396.6299559469
 20
457.6472870228117
 30
0.0
 10
1395.468757031865
 20
456.9817813389661
 30
0.0
 10
1394.297494986366
 20
456.551093104225
 30
0.0
 10
1393.160779641745
 20
456.3116569572807
 30
0.0
 10
1392.446827617829
 20
456.2836165949398
 30
0.0
 10
1392.089846150931
 20
456.2695961995274
 30
0.0
  0
ARC
  5
17C
330
1F
100
AcDbEntity
  8
0
  6
Continuous
 62
     7
370
    15
100
AcDbCircle
 10
1462.4679334917
 20
443.2695961995
 30
0.0
 40
65.50000000000026
100
AcDbArc
 50
157.891835559
 51
163.4437294419
  0
SPLINE
  5
17D
330
1F
100
AcDbEntity
  8
0
  6
Continuous
 62
     7
370
    15
100
AcDbSpline
210
0.0
220
0.0
230
1.0
 70
     8
 71
     3
 72
    14
 73
    10
 74
     0
 42
0.000000001
 43
0.00000001
 40
0.0
 40
0.0
 40
0.0
 40
0.0
 40
0.1462539632316599
 40
0.2925010840467145
 40
0.4387916661288363
 40
0.5850809000524255
 40
0.7307245576854947
 40
0.8763729539116288
 40
1.0
 40
1.0
 40
1.0
 40
1.0
 10
1400.142865200407
 20
476.4056658775129
 30
0.0
 10
1400.436562105989
 20
476.0697899337195
 30
0.0
 10
1401.023942176696
 20
475.3980537599164
 30
0.0
 10
1401.67868848916
 20
474.222841842095
 30
0.0
 10
1402.134749365628
 20
472.9622562898417
 30
0.0
 10
1402.373439036287
 20
471.6424169844174
 30
0.0
 10
1402.379269428097
 20
470.3055286390559
 30
0.0
 10
1402.188692417285
 20
469.0483723679944
 30
0.0
 10
1401.911213584325
 20
468.2756825620415
 30
0.0
 10
1401.783820279626
 20
467.920932951637
 30
0.0
  0
LINE
  5
17E
330
1F
100
AcDbEntity
  8
0
  6
Continuous
 62
     7
370
    15
100
AcDbLine
 10
1400.1428652004
 20
476.4056658775
 30
0.0
 11
1304.9134220782
 21
575.018640996
 31
0.0
  0
ARC
  5
17F
330
1F
100
AcDbEntity
  8
0
  6
Continuous
 62
     7
370
    15
100
AcDbCircle
 10
1318.0413734343
 20
587.6961562569
 30
0.0
 40
18.24999999999998
100
AcDbArc
 50
46.0
 51
224.0
  0
LINE
  5
180
330
1F
100
AcDbEntity
  8
0
  6
Continuous
 62
     7
370
    15
100
AcDbLine
 10
1330.7188886952
 20
600.8241076131
 30
0.0
 11
1429.3318638137
 21
505.5946644908
 31
0.0
  0
SPLINE
  5
181
330
1F
100
AcDbEntity
  8
0
  6
Continuous
 62
     7
370
    15
100
AcDbSpline
210
0.0
220
0.0
230
1.0
 70
     8
 71
     3
 72
    14
 73
    10
 74
     0
 42
0.000000001
 43
0.00000001
 40
0.0
 40
0.0
 40
0.0
 40
0.0
 40
0.1462538192088298
 40
0.2925007887500076
 40
0.4387912392874103
 40
0.5850803457846904
 40
0.7307237982288282
 40
0.8763719881529992
 40
1.0
 40
1.0
 40
1.0
 40
1.0
 10
1437.816596739575
 20
503.9537094115865
 30
0.0
 10
1437.395434954162
 20
503.8064243989706
 30
0.0
 10
1436.553131108073
 20
503.5118612717017
 30
0.0
 10
1435.218540038155
 20
503.3425126339305
 30
0.0
 10
1433.878812443102
 20
503.3893548817121
 30
0.0
 10
1432.565152205535
 20
503.6599864699735
 30
0.0
 10
1431.322495113627
 20
504.1530414507499
 30
0.0
 10
1430.227048499816
 20
504.7986128808853
 30
0.0
 10
1429.613535272403
 20
505.3441854314038
 30
0.0
 10
1429.3318638137
 20
505.5946644908055
 30
0.0
  0
ARC
  5
182
330
1F
100
AcDbEntity
  8
0
  6
Continuous
 62
     7
370
    15
100
AcDbCircle
 10
1462.4679334917
 20
443.2695961995
 30
0.0
 40
65.50000000000016
100
AcDbArc
 50
106.5562705581
 51
112.108164441
  0
SPLINE
  5
183
330
1F
100
AcDbEntity
  8
0
  6
Continuous
 62
     7
370
    15
100
AcDbSpline
210
0.0
220
0.0
230
1.0
 70
     8
 71
     3
 72
    21
 73
    17
 74
     0
 42
0.000000001
 43
0.00000001
 40
0.0
 40
0.0
 40
0.0
 40
0.0
 40
0.0647278678310265
 40
0.1298995482339187
 40
0.1964781430831669
 40
0.2635461735311905
 40
0.3282753225226588
 40
0.3934580448746259
 40
0.4600752197163566
 40
0.5271894259848393
 40
0.5915449730758284
 40
0.7224428810389093
 40
0.7891390035014054
 40
0.8412730321197323
 40
0.946668423106782
 40
1.0
 40
1.0
 40
1.0
 40
1.0
 10
1449.467933491686
 20
513.647683540282
 30
0.0
 10
1449.462734026483
 20
513.428550539711
 30
0.0
 10
1449.452299445465
 20
512.9887820330205
 30
0.0
 10
1449.367050710062
 20
512.328126732612
 30
0.0
 10
1449.228889633134
 20
511.6689111575842
 30
0.0
 10
1449.034238264894
 20
511.0254042883745
 30
0.0
 10
1448.787965502972
 20
510.4050841685257
 30
0.0
 10
1448.491380212328
 20
509.8088321242823
 30
0.0
 10
1448.141134261967
 20
509.2329397940741
 30
0.0
 10
1447.74419886991
 20
508.6915440149558
 30
0.0
 10
1447.160010432099
 20
508.0217699198097
 30
0.0
 10
1446.494192544883
 20
507.4288775019972
 30
0.0
 10
1445.796227327888
 20
506.9505822752142
 30
0.0
 10
1445.138786916476
 20
506.5709382166473
 30
0.0
 10
1444.48707966324
 20
506.2725384175737
 30
0.0
 10
1443.975235794887
 20
506.1089525593868
 30
0.0
 10
1443.803258461817
 20
506.0539884162985
 30
0.0
  0
LINE
  5
184
330
1F
100
AcDbEntity
  8
0
  6
Continuous
 62
     7
370
    15
100
AcDbLine
 10
1449.4679334917
 20
513.6476835403
 30
0.0
 11
1449.4679334917
 21
515.7695961995
 31
0.0
  0
ARC
  5
185
330
1F
100
AcDbEntity
  8
0
  6
Continuous
 62
     7
370
    15
100
AcDbCircle
 10
1462.4679334917
 20
515.7695961995
 30
0.0
 40
13.0
100
AcDbArc
 50
360.0
 51
180.0
  0
LINE
  5
186
330
1F
100
AcDbEntity
  8
0
  6
Continuous
 62
     7
370
    15
100
AcDbLine
 10
1475.4679334917
 20
515.7695961995
 30
0.0
 11
1475.4679334917
 21
513.6476835403
 31
0.0
  0
SPLINE
  5
187
330
1F
100
AcDbEntity
  8
0
  6
Continuous
 62
     7
370
    15
100
AcDbSpline
210
0.0
220
0.0
230
1.0
 70
     8
 71
     3
 72
    21
 73
    17
 74
     0
 42
0.000000001
 43
0.00000001
 40
0.0
 40
0.0
 40
0.0
 40
0.0
 40
0.0647277715625898
 40
0.1298993480446517
 40
0.1964778273214096
 40
0.2635457432476311
 40
0.3282747977230846
 40
0.3934574289047412
 40
0.4600745196212409
 40
0.5271886420405366
 40
0.5915439531621826
 40
0.7224413458380682
 40
0.7891371824044991
 40
0.8412716512545138
 40
0.9466679497021678
 40
1.0
 40
1.0
 40
1.0
 40
1.0
 10
1481.132608521556
 20
506.053988416298
 30
0.0
 10
1480.924042614166
 20
506.1214155983996
 30
0.0
 10
1480.505480770614
 20
506.2567322759868
 30
0.0
 10
1479.896508905038
 20
506.5267037509729
 30
0.0
 10
1479.303994754079
 20
506.8469835078732
 30
0.0
 10
1478.74263527491
 20
507.2169352759368
 30
0.0
 10
1478.218211102825
 20
507.6297612273916
 30
0.0
 10
1477.731194073399
 20
508.0839556128377
 30
0.0
 10
1477.278983670142
 20
508.5837843587368
 30
0.0
 10
1476.873144348569
 20
509.1185363578477
 30
0.0
 10
1476.397608768236
 20
509.8693588013116
 30
0.0
 10
1476.019027452894
 20
510.6765171530652
 30
0.0
 10
1475.759450527077
 20
511.4818366500178
 30
0.0
 10
1475.582885675516
 20
512.2202049953571
 30
0.0
 10
1475.482563374419
 20
512.9299297294368
 30
0.0
 10
1475.471612828542
 20
513.4671723155828
 30
0.0
 10
1475.467933491686
 20
513.6476835402816
 30
0.0
  0
ARC
  5
188
330
1F
100
AcDbEntity
  8
0
  6
Continuous
 62
     7
370
    15
100
AcDbCircle
 10
1462.4679334917
 20
443.2695961995
 30
0.0
 40
65.50000000000016
100
AcDbArc
 50
67.891835559
 51
73.4437294419
  0
ENDSEC
  0
SECTION
  2
OBJECTS
  0
DICTIONARY
  5
C
330
0
100
AcDbDictionary
281
     1
  3
ACAD_GROUP
350
D
  3
ACAD_LAYOUT
350
1A
  3
ACAD_MLINESTYLE
350
17
  3
ACAD_PLOTSETTINGS
350
19
  3
ACAD_PLOTSTYLENAME
350
E
  3
ACAD_SCALELIST
350
47
  0
DICTIONARY
  5
D
102
{ACAD_REACTORS
330
C
102
}
330
C
100
AcDbDictionary
281
     1
  0
DICTIONARY
  5
1A
102
{ACAD_REACTORS
330
C
102
}
330
C
100
AcDbDictionary
281
     1
  3
Layout1
350
1E
  3
Layout2
350
26
  3
Model
350
22
  0
DICTIONARY
  5
17
102
{ACAD_REACTORS
330
C
102
}
330
C
100
AcDbDictionary
281
     1
  3
Standard
350
18
  0
DICTIONARY
  5
19
102
{ACAD_REACTORS
330
C
102
}
330
C
100
AcDbDictionary
281
     1
  0
ACDBDICTIONARYWDFLT
  5
E
102
{ACAD_REACTORS
330
C
102
}
330
C
100
AcDbDictionary
281
     1
  3
Normal
350
F
100
AcDbDictionaryWithDefault
340
F
  0
DICTIONARY
  5
47
102
{ACAD_REACTORS
330
C
102
}
330
C
100
AcDbDictionary
281
     1
  3
A0
350
48
  3
A1
350
49
  3
A2
350
4A
  3
A3
350
4B
  3
A4
350
4C
  3
A5
350
4D
  3
A6
350
4E
  3
A7
350
4F
  3
A8
350
50
  3
A9
350
51
  3
B0
350
52
  3
B1
350
53
  3
B2
350
54
  3
B3
350
55
  3
B4
350
56
  3
B5
350
57
  3
B6
350
58
  3
B7
350
59
  3
B8
350
5A
  3
B9
350
5B
  3
C0
350
5C
  3
C1
350
5D
  3
C2
350
5E
  3
C3
350
5F
  3
C4
350
60
  3
C5
350
61
  3
C6
350
62
  3
C7
350
63
  3
C8
350
64
  3
C9
350
65
  3
D0
350
66
  3
D1
350
67
  3
D2
350
68
  0
LAYOUT
  5
1E
102
{ACAD_REACTORS
330
1A
102
}
330
1A
100
AcDbPlotSettings
  1

  2
none_device
  4

  6

 40
0.0
 41
0.0
 42
0.0
 43
0.0
 44
0.0
 45
0.0
 46
0.0
 47
0.0
 48
0.0
 49
0.0
140
0.0
141
0.0
142
1.0
143
1.0
 70
   688
 72
     1
 73
     0
 74
     5
  7

 75
    16
147
1.0
148
0.0
149
0.0
100
AcDbLayout
  1
Layout1
 70
     1
 71
     1
 10
0.0
 20
0.0
 11
420.0
 21
297.0
 12
0.0
 22
0.0
 32
0.0
 14
1.0000000000E+20
 24
1.0000000000E+20
 34
1.0000000000E+20
 15
-1.0000000000E+20
 25
-1.0000000000E+20
 35
-1.0000000000E+20
146
0.0
 13
0.0
 23
0.0
 33
0.0
 16
1.0
 26
0.0
 36
0.0
 17
0.0
 27
1.0
 37
0.0
 76
     0
330
1B
  0
LAYOUT
  5
26
102
{ACAD_REACTORS
330
1A
102
}
330
1A
100
AcDbPlotSettings
  1

  2
none_device
  4

  6

 40
0.0
 41
0.0
 42
0.0
 43
0.0
 44
0.0
 45
0.0
 46
0.0
 47
0.0
 48
0.0
 49
0.0
140
0.0
141
0.0
142
1.0
143
1.0
 70
   688
 72
     1
 73
     0
 74
     5
  7

 75
    16
147
1.0
148
0.0
149
0.0
100
AcDbLayout
  1
Layout2
 70
     1
 71
     2
 10
0.0
 20
0.0
 11
0.0
 21
0.0
 12
0.0
 22
0.0
 32
0.0
 14
0.0
 24
0.0
 34
0.0
 15
0.0
 25
0.0
 35
0.0
146
0.0
 13
0.0
 23
0.0
 33
0.0
 16
1.0
 26
0.0
 36
0.0
 17
0.0
 27
1.0
 37
0.0
 76
     0
330
23
  0
LAYOUT
  5
22
102
{ACAD_REACTORS
330
1A
102
}
330
1A
100
AcDbPlotSettings
  1

  2
none_device
  4
Letter_(8.50_x_11.00_Inches)
  6

 40
6.35
 41
6.35
 42
6.35000508
 43
6.35000508
 44
215.9
 45
279.4
 46
0.0
 47
0.0
 48
0.0
 49
0.0
140
0.0
141
0.0
142
1.0
143
1.0
 70
  1712
 72
     1
 73
     0
 74
     0
  7

 75
     0
147
1.0
148
0.0
149
0.0
100
AcDbLayout
  1
Model
 70
     1
 71
     0
 10
0.0
 20
0.0
 11
2970.0
 21
2100.0
 12
0.0
 22
0.0
 32
0.0
 14
0.0
 24
0.0
 34
0.0
 15
2970.0
 25
2100.0
 35
0.0
146
0.0
 13
0.0
 23
0.0
 33
0.0
 16
1.0
 26
0.0
 36
0.0
 17
0.0
 27
1.0
 37
0.0
 76
     0
330
1F
331
29
  0
MLINESTYLE
  5
18
102
{ACAD_REACTORS
330
17
102
}
330
17
100
AcDbMlineStyle
  2
Standard
 70
     0
  3

 62
   256
 51
90.0
 52
90.0
 71
     2
 49
0.5
 62
   256
  6
BYLAYER
 49
-0.5
 62
   256
  6
BYLAYER
  0
ACDBPLACEHOLDER
  5
F
102
{ACAD_REACTORS
330
E
102
}
330
E
  0
SCALE
  5
48
102
{ACAD_REACTORS
330
47
102
}
330
47
100
AcDbScale
 70
     0
300
1:1
140
1.0
141
1.0
290
     1
  0
SCALE
  5
49
102
{ACAD_REACTORS
330
47
102
}
330
47
100
AcDbScale
 70
     0
300
1:2
140
1.0
141
2.0
290
     0
  0
SCALE
  5
4A
102
{ACAD_REACTORS
330
47
102
}
330
47
100
AcDbScale
 70
     0
300
1:4
140
1.0
141
4.0
290
     0
  0
SCALE
  5
4B
102
{ACAD_REACTORS
330
47
102
}
330
47
100
AcDbScale
 70
     0
300
1:5
140
1.0
141
5.0
290
     0
  0
SCALE
  5
4C
102
{ACAD_REACTORS
330
47
102
}
330
47
100
AcDbScale
 70
     0
300
1:8
140
1.0
141
8.0
290
     0
  0
SCALE
  5
4D
102
{ACAD_REACTORS
330
47
102
}
330
47
100
AcDbScale
 70
     0
300
1:10
140
1.0
141
10.0
290
     0
  0
SCALE
  5
4E
102
{ACAD_REACTORS
330
47
102
}
330
47
100
AcDbScale
 70
     0
300
1:16
140
1.0
141
16.0
290
     0
  0
SCALE
  5
4F
102
{ACAD_REACTORS
330
47
102
}
330
47
100
AcDbScale
 70
     0
300
1:20
140
1.0
141
20.0
290
     0
  0
SCALE
  5
50
102
{ACAD_REACTORS
330
47
102
}
330
47
100
AcDbScale
 70
     0
300
1:30
140
1.0
141
30.0
290
     0
  0
SCALE
  5
51
102
{ACAD_REACTORS
330
47
102
}
330
47
100
AcDbScale
 70
     0
300
1:40
140
1.0
141
40.0
290
     0
  0
SCALE
  5
52
102
{ACAD_REACTORS
330
47
102
}
330
47
100
AcDbScale
 70
     0
300
1:50
140
1.0
141
50.0
290
     0
  0
SCALE
  5
53
102
{ACAD_REACTORS
330
47
102
}
330
47
100
AcDbScale
 70
     0
300
1:100
140
1.0
141
100.0
290
     0
  0
SCALE
  5
54
102
{ACAD_REACTORS
330
47
102
}
330
47
100
AcDbScale
 70
     0
300
2:1
140
2.0
141
1.0
290
     0
  0
SCALE
  5
55
102
{ACAD_REACTORS
330
47
102
}
330
47
100
AcDbScale
 70
     0
300
4:1
140
4.0
141
1.0
290
     0
  0
SCALE
  5
56
102
{ACAD_REACTORS
330
47
102
}
330
47
100
AcDbScale
 70
     0
300
8:1
140
8.0
141
1.0
290
     0
  0
SCALE
  5
57
102
{ACAD_REACTORS
330
47
102
}
330
47
100
AcDbScale
 70
     0
300
10:1
140
10.0
141
1.0
290
     0
  0
SCALE
  5
58
102
{ACAD_REACTORS
330
47
102
}
330
47
100
AcDbScale
 70
     0
300
100:1
140
100.0
141
1.0
290
     0
  0
SCALE
  5
59
102
{ACAD_REACTORS
330
47
102
}
330
47
100
AcDbScale
 70
     0
300
1/128" = 1'-0"
140
0.0078125
141
12.0
290
     0
  0
SCALE
  5
5A
102
{ACAD_REACTORS
330
47
102
}
330
47
100
AcDbScale
 70
     0
300
1/64" = 1'-0"
140
0.015625
141
12.0
290
     0
  0
SCALE
  5
5B
102
{ACAD_REACTORS
330
47
102
}
330
47
100
AcDbScale
 70
     0
300
1/32" = 1'-0"
140
0.03125
141
12.0
290
     0
  0
SCALE
  5
5C
102
{ACAD_REACTORS
330
47
102
}
330
47
100
AcDbScale
 70
     0
300
1/16" = 1'-0"
140
0.0625
141
12.0
290
     0
  0
SCALE
  5
5D
102
{ACAD_REACTORS
330
47
102
}
330
47
100
AcDbScale
 70
     0
300
3/32" = 1'-0"
140
0.09375
141
12.0
290
     0
  0
SCALE
  5
5E
102
{ACAD_REACTORS
330
47
102
}
330
47
100
AcDbScale
 70
     0
300
1/8" = 1'-0"
140
0.125
141
12.0
290
     0
  0
SCALE
  5
5F
102
{ACAD_REACTORS
330
47
102
}
330
47
100
AcDbScale
 70
     0
300
3/16" = 1'-0"
140
0.1875
141
12.0
290
     0
  0
SCALE
  5
60
102
{ACAD_REACTORS
330
47
102
}
330
47
100
AcDbScale
 70
     0
300
1/4" = 1'-0"
140
0.25
141
12.0
290
     0
  0
SCALE
  5
61
102
{ACAD_REACTORS
330
47
102
}
330
47
100
AcDbScale
 70
     0
300
3/8" = 1'-0"
140
0.375
141
12.0
290
     0
  0
SCALE
  5
62
102
{ACAD_REACTORS
330
47
102
}
330
47
100
AcDbScale
 70
     0
300
1/2" = 1'-0"
140
0.5
141
12.0
290
     0
  0
SCALE
  5
63
102
{ACAD_REACTORS
330
47
102
}
330
47
100
AcDbScale
 70
     0
300
3/4" = 1'-0"
140
0.75
141
12.0
290
     0
  0
SCALE
  5
64
102
{ACAD_REACTORS
330
47
102
}
330
47
100
AcDbScale
 70
     0
300
1" = 1'-0"
140
1.0
141
12.0
290
     0
  0
SCALE
  5
65
102
{ACAD_REACTORS
330
47
102
}
330
47
100
AcDbScale
 70
     0
300
1-1/2" = 1'-0"
140
1.5
141
12.0
290
     0
  0
SCALE
  5
66
102
{ACAD_REACTORS
330
47
102
}
330
47
100
AcDbScale
 70
     0
300
3" = 1'-0"
140
3.0
141
12.0
290
     0
  0
SCALE
  5
67
102
{ACAD_REACTORS
330
47
102
}
330
47
100
AcDbScale
 70
     0
300
6" = 1'-0"
140
6.0
141
12.0
290
     0
  0
SCALE
  5
68
102
{ACAD_REACTORS
330
47
102
}
330
47
100
AcDbScale
 70
     0
300
1'-0" = 1'-0"
140
12.0
141
12.0
290
     0
  0
ENDSEC
  0
EOF
