  0
SECTION
  2
HEADER
  9
$ACADVER
  1
AC1014
  9
$ACADMAINTVER
 70
     9
  9
$DWGCODEPAGE
  3
ANSI_1252
  9
$INSBASE
 10
0.0
 20
0.0
 30
0.0
  9
$EXTMIN
 10
1.000000000000000E+20
 20
1.000000000000000E+20
 30
1.000000000000000E+20
  9
$EXTMAX
 10
-1.000000000000000E+20
 20
-1.000000000000000E+20
 30
-1.000000000000000E+20
  9
$LIMMIN
 10
0.0
 20
0.0
  9
$LIMMAX
 10
12.0
 20
9.0
  9
$ORTHOMODE
 70
     0
  9
$REGENMODE
 70
     1
  9
$FILLMODE
 70
     1
  9
$QTEXTMODE
 70
     0
  9
$MIRRTEXT
 70
     1
  9
$DRAGMODE
 70
     2
  9
$LTSCALE
 40
1.0
  9
$OSMODE
 70
    37
  9
$ATTMODE
 70
     1
  9
$TEXTSIZE
 40
0.2
  9
$TRACEWID
 40
0.05
  9
$TEXTSTYLE
  7
STANDARD
  9
$CLAYER
  8
0
  9
$CELTYPE
  6
BYLAYER
  9
$CECOLOR
 62
   256
  9
$CELTSCALE
 40
1.0
  9
$DELOBJ
 70
     1
  9
$DISPSILH
 70
     0
  9
$DIMSCALE
 40
1.0
  9
$DIMASZ
 40
0.18
  9
$DIMEXO
 40
0.0625
  9
$DIMDLI
 40
0.38
  9
$DIMRND
 40
0.0
  9
$DIMDLE
 40
0.0
  9
$DIMEXE
 40
0.18
  9
$DIMTP
 40
0.0
  9
$DIMTM
 40
0.0
  9
$DIMTXT
 40
0.18
  9
$DIMCEN
 40
0.09
  9
$DIMTSZ
 40
0.0
  9
$DIMTOL
 70
     0
  9
$DIMLIM
 70
     0
  9
$DIMTIH
 70
     1
  9
$DIMTOH
 70
     1
  9
$DIMSE1
 70
     0
  9
$DIMSE2
 70
     0
  9
$DIMTAD
 70
     0
  9
$DIMZIN
 70
     0
  9
$DIMBLK
  1

  9
$DIMASO
 70
     1
  9
$DIMSHO
 70
     1
  9
$DIMPOST
  1

  9
$DIMAPOST
  1

  9
$DIMALT
 70
     0
  9
$DIMALTD
 70
     2
  9
$DIMALTF
 40
25.4
  9
$DIMLFAC
 40
1.0
  9
$DIMTOFL
 70
     0
  9
$DIMTVP
 40
0.0
  9
$DIMTIX
 70
     0
  9
$DIMSOXD
 70
     0
  9
$DIMSAH
 70
     0
  9
$DIMBLK1
  1

  9
$DIMBLK2
  1

  9
$DIMSTYLE
  2
STANDARD
  9
$DIMCLRD
 70
     0
  9
$DIMCLRE
 70
     0
  9
$DIMCLRT
 70
     0
  9
$DIMTFAC
 40
1.0
  9
$DIMGAP
 40
0.09
  9
$DIMJUST
 70
     0
  9
$DIMSD1
 70
     0
  9
$DIMSD2
 70
     0
  9
$DIMTOLJ
 70
     1
  9
$DIMTZIN
 70
     0
  9
$DIMALTZ
 70
     0
  9
$DIMALTTZ
 70
     0
  9
$DIMFIT
 70
     3
  9
$DIMUPT
 70
     0
  9
$DIMUNIT
 70
     2
  9
$DIMDEC
 70
     4
  9
$DIMTDEC
 70
     4
  9
$DIMALTU
 70
     2
  9
$DIMALTTD
 70
     2
  9
$DIMTXSTY
  7
STANDARD
  9
$DIMAUNIT
 70
     0
  9
$LUNITS
 70
     2
  9
$LUPREC
 70
     4
  9
$SKETCHINC
 40
0.1
  9
$FILLETRAD
 40
0.5
  9
$AUNITS
 70
     0
  9
$AUPREC
 70
     0
  9
$MENU
  1
.
  9
$ELEVATION
 40
0.0
  9
$PELEVATION
 40
0.0
  9
$THICKNESS
 40
0.0
  9
$LIMCHECK
 70
     0
  9
$CHAMFERA
 40
0.5
  9
$CHAMFERB
 40
0.5
  9
$CHAMFERC
 40
1.0
  9
$CHAMFERD
 40
0.0
  9
$SKPOLY
 70
     0
  9
$TDCREATE
 40
2460493.439582477
  9
$TDUPDATE
 40
2460493.439582627
  9
$TDINDWG
 40
0.0000000116
  9
$TDUSRTIMER
 40
0.0000000116
  9
$USRTIMER
 70
     1
  9
$ANGBASE
 50
0.0
  9
$ANGDIR
 70
     0
  9
$PDMODE
 70
     0
  9
$PDSIZE
 40
0.0
  9
$PLINEWID
 40
0.0
  9
$COORDS
 70
     1
  9
$SPLFRAME
 70
     0
  9
$SPLINETYPE
 70
     6
  9
$SPLINESEGS
 70
     8
  9
$ATTDIA
 70
     0
  9
$ATTREQ
 70
     1
  9
$HANDLING
 70
     1
  9
$HANDSEED
  5
594
  9
$SURFTAB1
 70
     6
  9
$SURFTAB2
 70
     6
  9
$SURFTYPE
 70
     6
  9
$SURFU
 70
     6
  9
$SURFV
 70
     6
  9
$UCSNAME
  2

  9
$UCSORG
 10
0.0
 20
0.0
 30
0.0
  9
$UCSXDIR
 10
1.0
 20
0.0
 30
0.0
  9
$UCSYDIR
 10
0.0
 20
1.0
 30
0.0
  9
$PUCSNAME
  2

  9
$PUCSORG
 10
0.0
 20
0.0
 30
0.0
  9
$PUCSXDIR
 10
1.0
 20
0.0
 30
0.0
  9
$PUCSYDIR
 10
0.0
 20
1.0
 30
0.0
  9
$USERI1
 70
     0
  9
$USERI2
 70
     0
  9
$USERI3
 70
     0
  9
$USERI4
 70
     0
  9
$USERI5
 70
     0
  9
$USERR1
 40
0.0
  9
$USERR2
 40
0.0
  9
$USERR3
 40
0.0
  9
$USERR4
 40
0.0
  9
$USERR5
 40
0.0
  9
$WORLDVIEW
 70
     1
  9
$SHADEDGE
 70
     3
  9
$SHADEDIF
 70
    70
  9
$TILEMODE
 70
     1
  9
$MAXACTVP
 70
    64
  9
$PINSBASE
 10
0.0
 20
0.0
 30
0.0
  9
$PLIMCHECK
 70
     0
  9
$PEXTMIN
 10
1.000000000000000E+20
 20
1.000000000000000E+20
 30
1.000000000000000E+20
  9
$PEXTMAX
 10
-1.000000000000000E+20
 20
-1.000000000000000E+20
 30
-1.000000000000000E+20
  9
$PLIMMIN
 10
0.0
 20
0.0
  9
$PLIMMAX
 10
12.0
 20
9.0
  9
$UNITMODE
 70
     0
  9
$VISRETAIN
 70
     1
  9
$PLINEGEN
 70
     0
  9
$PSLTSCALE
 70
     1
  9
$TREEDEPTH
 70
  3020
  9
$PICKSTYLE
 70
     1
  9
$CMLSTYLE
  2
STANDARD
  9
$CMLJUST
 70
     0
  9
$CMLSCALE
 40
1.0
  9
$PROXYGRAPHICS
 70
     1
  9
$MEASUREMENT
 70
     0
  0
ENDSEC
  0
SECTION
  2
CLASSES
  0
CLASS
  1
ACDBDICTIONARYWDFLT
  2
AcDbDictionaryWithDefault
  3
ObjectDBX Classes
 90
        0
280
     0
281
     0
  0
CLASS
  1
VISUALSTYLE
  2
AcDbVisualStyle
  3
ObjectDBX Classes
 90
     4095
280
     0
281
     0
  0
CLASS
  1
MATERIAL
  2
AcDbMaterial
  3
ObjectDBX Classes
 90
     1153
280
     0
281
     0
  0
CLASS
  1
SUN
  2
AcDbSun
  3
SCENEOE
 90
     1024
280
     0
281
     0
  0
CLASS
  1
DICTIONARYVAR
  2
AcDbDictionaryVar
  3
ObjectDBX Classes
 90
        0
280
     0
281
     0
  0
CLASS
  1
XRECORD
  2
AcDbXrecord
  3
AutoCAD 2000
 90
        0
280
     0
281
     0
  0
CLASS
  1
LWPOLYLINE
  2
AcDbPolyline
  3
AutoCAD 2000
 90
        0
280
     0
281
     1
  0
CLASS
  1
HATCH
  2
AcDbHatch
  3
AutoCAD 2000
 90
        0
280
     0
281
     1
  0
CLASS
  1
ACDBPLACEHOLDER
  2
AcDbPlaceHolder
  3
ObjectDBX Classes
 90
        0
280
     0
281
     0
  0
CLASS
  1
LAYOUT
  2
AcDbLayout
  3
ObjectDBX Classes
 90
        0
280
     0
281
     0
  0
ENDSEC
  0
SECTION
  2
TABLES
  0
TABLE
  2
VPORT
  5
8
330
0
100
AcDbSymbolTable
 70
     1
  0
VPORT
  5
29
330
8
100
AcDbSymbolTableRecord
100
AcDbViewportTableRecord
  2
*ACTIVE
 70
     0
 10
0.0
 20
0.0
 11
1.0
 21
1.0
 12
0.0
 22
0.0
 13
0.0
 23
0.0
 14
0.5
 24
0.5
 15
0.5
 25
0.5
 16
0.0
 26
0.0
 36
1.0
 17
74.99999786197358
 27
39.74999886684608
 37
0.0
 40
39.99999998999989
 41
1.000000000000008
 42
50.0
 43
0.0
 44
0.0
 50
0.0
 51
0.0
 71
     0
 72
   100
 73
     1
 74
     3
 75
     0
 76
     0
 77
     0
 78
     0
  0
ENDTAB
  0
TABLE
  2
LTYPE
  5
5
330
0
100
AcDbSymbolTable
 70
     1
  0
LTYPE
  5
14
330
5
100
AcDbSymbolTableRecord
100
AcDbLinetypeTableRecord
  2
BYBLOCK
 70
     0
  3

 72
    65
 73
     0
 40
0.0
  0
LTYPE
  5
15
330
5
100
AcDbSymbolTableRecord
100
AcDbLinetypeTableRecord
  2
BYLAYER
 70
     0
  3

 72
    65
 73
     0
 40
0.0
  0
LTYPE
  5
16
330
5
100
AcDbSymbolTableRecord
100
AcDbLinetypeTableRecord
  2
CONTINUOUS
 70
     0
  3
Solid line
 72
    65
 73
     0
 40
0.0
  0
ENDTAB
  0
TABLE
  2
LAYER
  5
2
330
0
100
AcDbSymbolTable
 70
     6
  0
LAYER
  5
10
330
2
100
AcDbSymbolTableRecord
100
AcDbLayerTableRecord
  2
0
 70
     0
 62
     7
  6
CONTINUOUS
  0
LAYER
  5
40
330
2
100
AcDbSymbolTableRecord
100
AcDbLayerTableRecord
  2
REFERENCIAS
 70
     0
 62
     7
  6
CONTINUOUS
  0
LAYER
  5
42
330
2
100
AcDbSymbolTableRecord
100
AcDbLayerTableRecord
  2
M_U_00C1RGENES
 70
     0
 62
     7
  6
CONTINUOUS
  0
LAYER
  5
51
330
2
100
AcDbSymbolTableRecord
100
AcDbLayerTableRecord
  2
DIBUJOS
 70
     0
 62
     7
  6
CONTINUOUS
  0
LAYER
  5
553
330
2
100
AcDbSymbolTableRecord
100
AcDbLayerTableRecord
  2
COTAS_LINEA
 70
     0
 62
     7
  6
CONTINUOUS
  0
LAYER
  5
564
330
2
100
AcDbSymbolTableRecord
100
AcDbLayerTableRecord
  2
COTAS_N_U_00DAMERO
 70
     0
 62
     7
  6
CONTINUOUS
  0
ENDTAB
  0
TABLE
  2
STYLE
  5
3
330
0
100
AcDbSymbolTable
 70
     1
  0
STYLE
  5
11
330
3
100
AcDbSymbolTableRecord
100
AcDbTextStyleTableRecord
  2
STANDARD
 70
     0
 40
0.0
 41
1.0
 50
0.0
 71
     0
 42
0.2
  3
txt
  4

  0
ENDTAB
  0
TABLE
  2
VIEW
  5
6
330
0
100
AcDbSymbolTable
 70
     0
  0
ENDTAB
  0
TABLE
  2
UCS
  5
7
330
0
100
AcDbSymbolTable
 70
     0
  0
ENDTAB
  0
TABLE
  2
APPID
  5
9
330
0
100
AcDbSymbolTable
 70
     1
  0
APPID
  5
12
330
9
100
AcDbSymbolTableRecord
100
AcDbRegAppTableRecord
  2
ACAD
 70
     0
  0
ENDTAB
  0
TABLE
  2
DIMSTYLE
  5
A
330
0
100
AcDbSymbolTable
 70
     1
  0
DIMSTYLE
105
27
330
A
100
AcDbSymbolTableRecord
100
AcDbDimStyleTableRecord
  2
STANDARD
 70
     0
  3

  4

  5

  6

  7

 40
1.0
 41
0.18
 42
0.0625
 43
0.38
 44
0.18
 45
0.0
 46
0.0
 47
0.0
 48
0.0
140
0.18
141
0.09
142
0.0
143
25.4
144
1.0
145
0.0
146
1.0
147
0.09
 71
     0
 72
     0
 73
     1
 74
     1
 75
     0
 76
     0
 77
     0
 78
     0
170
     0
171
     2
172
     0
173
     0
174
     0
175
     0
176
     0
177
     0
178
     0
270
     2
271
     4
272
     4
273
     2
274
     2
340
11
275
     0
280
     0
281
     0
282
     0
283
     1
284
     0
285
     0
286
     0
287
     3
288
     0
  0
ENDTAB
  0
TABLE
  2
BLOCK_RECORD
  5
1
330
0
100
AcDbSymbolTable
 70
     3
  0
BLOCK_RECORD
  5
1F
330
1
100
AcDbSymbolTableRecord
100
AcDbBlockTableRecord
  2
*MODEL_SPACE
  0
BLOCK_RECORD
  5
1B
330
1
100
AcDbSymbolTableRecord
100
AcDbBlockTableRecord
  2
*PAPER_SPACE
  0
BLOCK_RECORD
  5
246
330
1
100
AcDbSymbolTableRecord
100
AcDbBlockTableRecord
  2
BLOCK_2
  0
BLOCK_RECORD
  5
437
330
1
100
AcDbSymbolTableRecord
100
AcDbBlockTableRecord
  2
BLOCK_3
  0
ENDTAB
  0
ENDSEC
  0
SECTION
  2
BLOCKS
  0
BLOCK
  5
20
330
1F
100
AcDbEntity
  8
0
100
AcDbBlockBegin
  2
*MODEL_SPACE
 70
     0
 10
0.0
 20
0.0
 30
0.0
  3
*MODEL_SPACE
  1

  0
ENDBLK
  5
21
330
1F
100
AcDbEntity
  8
0
100
AcDbBlockEnd
  0
BLOCK
  5
1C
330
1B
100
AcDbEntity
 67
     1
  8
0
100
AcDbBlockBegin
  2
*PAPER_SPACE
 70
     0
 10
0.0
 20
0.0
 30
0.0
  3
*PAPER_SPACE
  1

  0
ENDBLK
  5
1D
330
1B
100
AcDbEntity
 67
     1
  8
0
100
AcDbBlockEnd
  0
BLOCK
  5
248
330
246
100
AcDbEntity
  8
0
100
AcDbBlockBegin
  2
BLOCK_2
 70
     0
 10
0.0
 20
0.0
 30
0.0
  3
BLOCK_2
  1

  0
POLYLINE
  5
24A
330
246
100
AcDbEntity
  8
DIBUJOS
 62
     7
100
AcDb2dPolyline
 66
     1
 10
0.0
 20
0.0
 30
0.0
  0
VERTEX
  5
24B
330
24A
100
AcDbEntity
  8
DIBUJOS
 62
     7
100
AcDbVertex
100
AcDb2dVertex
 10
83.0521470413031
 20
48.61835809323885
 30
0.0
  0
VERTEX
  5
24C
330
24A
100
AcDbEntity
  8
DIBUJOS
 62
     7
100
AcDbVertex
100
AcDb2dVertex
 10
81.98228253100999
 20
48.61835809323885
 30
0.0
  0
SEQEND
  5
24D
330
24A
100
AcDbEntity
  8
DIBUJOS
 62
     7
  0
POLYLINE
  5
24E
330
246
100
AcDbEntity
  8
DIBUJOS
 62
     7
100
AcDb2dPolyline
 66
     1
 10
0.0
 20
0.0
 30
0.0
  0
VERTEX
  5
24F
330
24E
100
AcDbEntity
  8
DIBUJOS
 62
     7
100
AcDbVertex
100
AcDb2dVertex
 10
83.0581891389981
 20
48.61835809323885
 30
0.0
  0
VERTEX
  5
250
330
24E
100
AcDbEntity
  8
DIBUJOS
 62
     7
100
AcDbVertex
100
AcDb2dVertex
 10
83.0521470413031
 20
48.61835809323885
 30
0.0
  0
SEQEND
  5
251
330
24E
100
AcDbEntity
  8
DIBUJOS
 62
     7
  0
POLYLINE
  5
252
330
246
100
AcDbEntity
  8
DIBUJOS
 62
     7
100
AcDb2dPolyline
 66
     1
 10
0.0
 20
0.0
 30
0.0
  0
VERTEX
  5
253
330
252
100
AcDbEntity
  8
DIBUJOS
 62
     7
100
AcDbVertex
100
AcDb2dVertex
 10
83.06423449038058
 20
48.61835809323885
 30
0.0
  0
VERTEX
  5
254
330
252
100
AcDbEntity
  8
DIBUJOS
 62
     7
100
AcDbVertex
100
AcDb2dVertex
 10
83.0581891389981
 20
48.61835809323885
 30
0.0
  0
SEQEND
  5
255
330
252
100
AcDbEntity
  8
DIBUJOS
 62
     7
  0
POLYLINE
  5
256
330
246
100
AcDbEntity
  8
DIBUJOS
 62
     7
100
AcDb2dPolyline
 66
     1
 10
0.0
 20
0.0
 30
0.0
  0
VERTEX
  5
257
330
256
100
AcDbEntity
  8
DIBUJOS
 62
     7
100
AcDbVertex
100
AcDb2dVertex
 10
83.26974390050385
 20
48.61835809323885
 30
0.0
  0
VERTEX
  5
258
330
256
100
AcDbEntity
  8
DIBUJOS
 62
     7
100
AcDbVertex
100
AcDb2dVertex
 10
83.06423449038058
 20
48.61835809323885
 30
0.0
  0
SEQEND
  5
259
330
256
100
AcDbEntity
  8
DIBUJOS
 62
     7
  0
POLYLINE
  5
25A
330
246
100
AcDbEntity
  8
DIBUJOS
 62
     7
100
AcDb2dPolyline
 66
     1
 10
0.0
 20
0.0
 30
0.0
  0
VERTEX
  5
25B
330
25A
100
AcDbEntity
  8
DIBUJOS
 62
     7
100
AcDbVertex
100
AcDb2dVertex
 10
83.27578925188635
 20
48.61835809323885
 30
0.0
  0
VERTEX
  5
25C
330
25A
100
AcDbEntity
  8
DIBUJOS
 62
     7
100
AcDbVertex
100
AcDb2dVertex
 10
83.26974390050385
 20
48.61835809323885
 30
0.0
  0
SEQEND
  5
25D
330
25A
100
AcDbEntity
  8
DIBUJOS
 62
     7
  0
POLYLINE
  5
25E
330
246
100
AcDbEntity
  8
DIBUJOS
 62
     7
100
AcDb2dPolyline
 66
     1
 10
0.0
 20
0.0
 30
0.0
  0
VERTEX
  5
25F
330
25E
100
AcDbEntity
  8
DIBUJOS
 62
     7
100
AcDbVertex
100
AcDb2dVertex
 10
83.28183460326883
 20
48.61835809323885
 30
0.0
  0
VERTEX
  5
260
330
25E
100
AcDbEntity
  8
DIBUJOS
 62
     7
100
AcDbVertex
100
AcDb2dVertex
 10
83.27578925188635
 20
48.61835809323885
 30
0.0
  0
SEQEND
  5
261
330
25E
100
AcDbEntity
  8
DIBUJOS
 62
     7
  0
POLYLINE
  5
262
330
246
100
AcDbEntity
  8
DIBUJOS
 62
     7
100
AcDb2dPolyline
 66
     1
 10
0.0
 20
0.0
 30
0.0
  0
VERTEX
  5
263
330
262
100
AcDbEntity
  8
DIBUJOS
 62
     7
100
AcDbVertex
100
AcDb2dVertex
 10
84.44236311585927
 20
48.61835809323885
 30
0.0
  0
VERTEX
  5
264
330
262
100
AcDbEntity
  8
DIBUJOS
 62
     7
100
AcDbVertex
100
AcDb2dVertex
 10
83.28183460326883
 20
48.61835809323885
 30
0.0
  0
SEQEND
  5
265
330
262
100
AcDbEntity
  8
DIBUJOS
 62
     7
  0
POLYLINE
  5
266
330
246
100
AcDbEntity
  8
DIBUJOS
 62
     7
100
AcDb2dPolyline
 66
     1
 10
0.0
 20
0.0
 30
0.0
  0
VERTEX
  5
267
330
266
100
AcDbEntity
  8
DIBUJOS
 62
     7
100
AcDbVertex
100
AcDb2dVertex
 10
83.0581891389981
 20
48.61230883853779
 30
0.0
  0
VERTEX
  5
268
330
266
100
AcDbEntity
  8
DIBUJOS
 62
     7
100
AcDbVertex
100
AcDb2dVertex
 10
83.0581891389981
 20
48.61835809323885
 30
0.0
  0
SEQEND
  5
269
330
266
100
AcDbEntity
  8
DIBUJOS
 62
     7
  0
POLYLINE
  5
26A
330
246
100
AcDbEntity
  8
DIBUJOS
 62
     7
100
AcDb2dPolyline
 66
     1
 10
0.0
 20
0.0
 30
0.0
  0
VERTEX
  5
26B
330
26A
100
AcDbEntity
  8
DIBUJOS
 62
     7
100
AcDbVertex
100
AcDb2dVertex
 10
83.27578925188635
 20
48.61230883853779
 30
0.0
  0
VERTEX
  5
26C
330
26A
100
AcDbEntity
  8
DIBUJOS
 62
     7
100
AcDbVertex
100
AcDb2dVertex
 10
83.27578925188635
 20
48.61835809323885
 30
0.0
  0
SEQEND
  5
26D
330
26A
100
AcDbEntity
  8
DIBUJOS
 62
     7
  0
POLYLINE
  5
26E
330
246
100
AcDbEntity
  8
DIBUJOS
 62
     7
100
AcDb2dPolyline
 66
     1
 10
0.0
 20
0.0
 30
0.0
  0
VERTEX
  5
26F
330
26E
100
AcDbEntity
  8
DIBUJOS
 62
     7
100
AcDbVertex
100
AcDb2dVertex
 10
83.0581891389981
 20
47.08813107069023
 30
0.0
  0
VERTEX
  5
270
330
26E
100
AcDbEntity
  8
DIBUJOS
 62
     7
100
AcDbVertex
100
AcDb2dVertex
 10
83.0581891389981
 20
48.61230883853779
 30
0.0
  0
SEQEND
  5
271
330
26E
100
AcDbEntity
  8
DIBUJOS
 62
     7
  0
POLYLINE
  5
272
330
246
100
AcDbEntity
  8
DIBUJOS
 62
     7
100
AcDb2dPolyline
 66
     1
 10
0.0
 20
0.0
 30
0.0
  0
VERTEX
  5
273
330
272
100
AcDbEntity
  8
DIBUJOS
 62
     7
100
AcDbVertex
100
AcDb2dVertex
 10
83.0581891389981
 20
47.08208181598916
 30
0.0
  0
VERTEX
  5
274
330
272
100
AcDbEntity
  8
DIBUJOS
 62
     7
100
AcDbVertex
100
AcDb2dVertex
 10
83.0521470413031
 20
47.08208181598916
 30
0.0
  0
SEQEND
  5
275
330
272
100
AcDbEntity
  8
DIBUJOS
 62
     7
  0
POLYLINE
  5
276
330
246
100
AcDbEntity
  8
DIBUJOS
 62
     7
100
AcDb2dPolyline
 66
     1
 10
0.0
 20
0.0
 30
0.0
  0
VERTEX
  5
277
330
276
100
AcDbEntity
  8
DIBUJOS
 62
     7
100
AcDbVertex
100
AcDb2dVertex
 10
83.0581891389981
 20
47.08208181598916
 30
0.0
  0
VERTEX
  5
278
330
276
100
AcDbEntity
  8
DIBUJOS
 62
     7
100
AcDbVertex
100
AcDb2dVertex
 10
83.0581891389981
 20
47.08813107069023
 30
0.0
  0
SEQEND
  5
279
330
276
100
AcDbEntity
  8
DIBUJOS
 62
     7
  0
POLYLINE
  5
27A
330
246
100
AcDbEntity
  8
DIBUJOS
 62
     7
100
AcDb2dPolyline
 66
     1
 10
0.0
 20
0.0
 30
0.0
  0
VERTEX
  5
27B
330
27A
100
AcDbEntity
  8
DIBUJOS
 62
     7
100
AcDbVertex
100
AcDb2dVertex
 10
83.06423449038058
 20
47.08208181598916
 30
0.0
  0
VERTEX
  5
27C
330
27A
100
AcDbEntity
  8
DIBUJOS
 62
     7
100
AcDbVertex
100
AcDb2dVertex
 10
83.0581891389981
 20
47.08208181598916
 30
0.0
  0
SEQEND
  5
27D
330
27A
100
AcDbEntity
  8
DIBUJOS
 62
     7
  0
POLYLINE
  5
27E
330
246
100
AcDbEntity
  8
DIBUJOS
 62
     7
100
AcDb2dPolyline
 66
     1
 10
0.0
 20
0.0
 30
0.0
  0
VERTEX
  5
27F
330
27E
100
AcDbEntity
  8
DIBUJOS
 62
     7
100
AcDbVertex
100
AcDb2dVertex
 10
83.27578925188635
 20
47.03974354466015
 30
0.0
  0
VERTEX
  5
280
330
27E
100
AcDbEntity
  8
DIBUJOS
 62
     7
100
AcDbVertex
100
AcDb2dVertex
 10
83.27578925188635
 20
48.61230883853779
 30
0.0
  0
SEQEND
  5
281
330
27E
100
AcDbEntity
  8
DIBUJOS
 62
     7
  0
POLYLINE
  5
282
330
246
100
AcDbEntity
  8
DIBUJOS
 62
     7
100
AcDb2dPolyline
 66
     1
 10
0.0
 20
0.0
 30
0.0
  0
VERTEX
  5
283
330
282
100
AcDbEntity
  8
DIBUJOS
 62
     7
100
AcDbVertex
100
AcDb2dVertex
 10
83.26974390050385
 20
47.03369754574783
 30
0.0
  0
VERTEX
  5
284
330
282
100
AcDbEntity
  8
DIBUJOS
 62
     7
100
AcDbVertex
100
AcDb2dVertex
 10
83.21595068500162
 20
47.04760627345617
 30
0.0
  0
VERTEX
  5
285
330
282
100
AcDbEntity
  8
DIBUJOS
 62
     7
100
AcDbVertex
100
AcDb2dVertex
 10
83.15449178173989
 20
47.06753495377015
 30
0.0
  0
VERTEX
  5
286
330
282
100
AcDbEntity
  8
DIBUJOS
 62
     7
100
AcDbVertex
100
AcDb2dVertex
 10
83.06423449038058
 20
47.08208181598916
 30
0.0
  0
SEQEND
  5
287
330
282
100
AcDbEntity
  8
DIBUJOS
 62
     7
  0
POLYLINE
  5
288
330
246
100
AcDbEntity
  8
DIBUJOS
 62
     7
100
AcDb2dPolyline
 66
     1
 10
0.0
 20
0.0
 30
0.0
  0
VERTEX
  5
289
330
288
100
AcDbEntity
  8
DIBUJOS
 62
     7
100
AcDbVertex
100
AcDb2dVertex
 10
83.27578925188635
 20
47.03369754574783
 30
0.0
  0
VERTEX
  5
28A
330
288
100
AcDbEntity
  8
DIBUJOS
 62
     7
100
AcDbVertex
100
AcDb2dVertex
 10
83.26974390050385
 20
47.03369754574783
 30
0.0
  0
SEQEND
  5
28B
330
288
100
AcDbEntity
  8
DIBUJOS
 62
     7
  0
POLYLINE
  5
28C
330
246
100
AcDbEntity
  8
DIBUJOS
 62
     7
100
AcDb2dPolyline
 66
     1
 10
0.0
 20
0.0
 30
0.0
  0
VERTEX
  5
28D
330
28C
100
AcDbEntity
  8
DIBUJOS
 62
     7
100
AcDbVertex
100
AcDb2dVertex
 10
83.27578925188635
 20
47.03369754574783
 30
0.0
  0
VERTEX
  5
28E
330
28C
100
AcDbEntity
  8
DIBUJOS
 62
     7
100
AcDbVertex
100
AcDb2dVertex
 10
83.27578925188635
 20
47.03974354466015
 30
0.0
  0
SEQEND
  5
28F
330
28C
100
AcDbEntity
  8
DIBUJOS
 62
     7
  0
POLYLINE
  5
290
330
246
100
AcDbEntity
  8
DIBUJOS
 62
     7
100
AcDb2dPolyline
 66
     1
 10
0.0
 20
0.0
 30
0.0
  0
VERTEX
  5
291
330
290
100
AcDbEntity
  8
DIBUJOS
 62
     7
100
AcDbVertex
100
AcDb2dVertex
 10
83.71098622397471
 20
46.27765466073669
 30
0.0
  0
VERTEX
  5
292
330
290
100
AcDbEntity
  8
DIBUJOS
 62
     7
100
AcDbVertex
100
AcDb2dVertex
 10
83.70205810546449
 20
46.4650285344109
 30
0.0
  0
VERTEX
  5
293
330
290
100
AcDbEntity
  8
DIBUJOS
 62
     7
100
AcDbVertex
100
AcDb2dVertex
 10
83.68411727256728
 20
46.69472114468457
 30
0.0
  0
VERTEX
  5
294
330
290
100
AcDbEntity
  8
DIBUJOS
 62
     7
100
AcDbVertex
100
AcDb2dVertex
 10
83.6780719211848
 20
46.75520392432772
 30
0.0
  0
VERTEX
  5
295
330
290
100
AcDbEntity
  8
DIBUJOS
 62
     7
100
AcDbVertex
100
AcDb2dVertex
 10
83.66081761635196
 20
46.8153513577736
 30
0.0
  0
VERTEX
  5
296
330
290
100
AcDbEntity
  8
DIBUJOS
 62
     7
100
AcDbVertex
100
AcDb2dVertex
 10
83.6263643193724
 20
46.90063347705973
 30
0.0
  0
SEQEND
  5
297
330
290
100
AcDbEntity
  8
DIBUJOS
 62
     7
  0
POLYLINE
  5
298
330
246
100
AcDbEntity
  8
DIBUJOS
 62
     7
100
AcDb2dPolyline
 66
     1
 10
0.0
 20
0.0
 30
0.0
  0
VERTEX
  5
299
330
298
100
AcDbEntity
  8
DIBUJOS
 62
     7
100
AcDbVertex
100
AcDb2dVertex
 10
83.7170315753572
 20
42.89059621019694
 30
0.0
  0
VERTEX
  5
29A
330
298
100
AcDbEntity
  8
DIBUJOS
 62
     7
100
AcDbVertex
100
AcDb2dVertex
 10
83.73237271193797
 20
42.93918233931431
 30
0.0
  0
VERTEX
  5
29B
330
298
100
AcDbEntity
  8
DIBUJOS
 62
     7
100
AcDbVertex
100
AcDb2dVertex
 10
83.73795603969508
 20
43.01741079320214
 30
0.0
  0
VERTEX
  5
29C
330
298
100
AcDbEntity
  8
DIBUJOS
 62
     7
100
AcDbVertex
100
AcDb2dVertex
 10
83.71405770497836
 20
46.05382246944139
 30
0.0
  0
VERTEX
  5
29D
330
298
100
AcDbEntity
  8
DIBUJOS
 62
     7
100
AcDbVertex
100
AcDb2dVertex
 10
83.71098622397471
 20
46.25346415350991
 30
0.0
  0
SEQEND
  5
29E
330
298
100
AcDbEntity
  8
DIBUJOS
 62
     7
  0
POLYLINE
  5
29F
330
246
100
AcDbEntity
  8
DIBUJOS
 62
     7
100
AcDb2dPolyline
 66
     1
 10
0.0
 20
0.0
 30
0.0
  0
VERTEX
  5
2A0
330
29F
100
AcDbEntity
  8
DIBUJOS
 62
     7
100
AcDbVertex
100
AcDb2dVertex
 10
83.7170315753572
 20
42.88454858339009
 30
0.0
  0
VERTEX
  5
2A1
330
29F
100
AcDbEntity
  8
DIBUJOS
 62
     7
100
AcDbVertex
100
AcDb2dVertex
 10
83.71098622397471
 20
42.88454858339009
 30
0.0
  0
SEQEND
  5
2A2
330
29F
100
AcDbEntity
  8
DIBUJOS
 62
     7
  0
POLYLINE
  5
2A3
330
246
100
AcDbEntity
  8
DIBUJOS
 62
     7
100
AcDb2dPolyline
 66
     1
 10
0.0
 20
0.0
 30
0.0
  0
VERTEX
  5
2A4
330
2A3
100
AcDbEntity
  8
DIBUJOS
 62
     7
100
AcDbVertex
100
AcDb2dVertex
 10
83.7170315753572
 20
42.88454858339009
 30
0.0
  0
VERTEX
  5
2A5
330
2A3
100
AcDbEntity
  8
DIBUJOS
 62
     7
100
AcDbVertex
100
AcDb2dVertex
 10
83.7170315753572
 20
42.89059621019694
 30
0.0
  0
SEQEND
  5
2A6
330
2A3
100
AcDbEntity
  8
DIBUJOS
 62
     7
  0
POLYLINE
  5
2A7
330
246
100
AcDbEntity
  8
DIBUJOS
 62
     7
100
AcDb2dPolyline
 66
     1
 10
0.0
 20
0.0
 30
0.0
  0
VERTEX
  5
2A8
330
2A7
100
AcDbEntity
  8
DIBUJOS
 62
     7
100
AcDbVertex
100
AcDb2dVertex
 10
83.72307692673968
 20
42.88454858339009
 30
0.0
  0
VERTEX
  5
2A9
330
2A7
100
AcDbEntity
  8
DIBUJOS
 62
     7
100
AcDbVertex
100
AcDb2dVertex
 10
83.7170315753572
 20
42.88454858339009
 30
0.0
  0
SEQEND
  5
2AA
330
2A7
100
AcDbEntity
  8
DIBUJOS
 62
     7
  0
POLYLINE
  5
2AB
330
246
100
AcDbEntity
  8
DIBUJOS
 62
     7
100
AcDb2dPolyline
 66
     1
 10
0.0
 20
0.0
 30
0.0
  0
VERTEX
  5
2AC
330
2AB
100
AcDbEntity
  8
DIBUJOS
 62
     7
100
AcDbVertex
100
AcDb2dVertex
 10
79.999713124239
 20
42.87849932868902
 30
0.0
  0
VERTEX
  5
2AD
330
2AB
100
AcDbEntity
  8
DIBUJOS
 62
     7
100
AcDbVertex
100
AcDb2dVertex
 10
79.99313742179311
 20
42.88241278625122
 30
0.0
  0
VERTEX
  5
2AE
330
2AB
100
AcDbEntity
  8
DIBUJOS
 62
     7
100
AcDbVertex
100
AcDb2dVertex
 10
79.92718192240102
 20
42.90874071851076
 30
0.0
  0
VERTEX
  5
2AF
330
2AB
100
AcDbEntity
  8
DIBUJOS
 62
     7
100
AcDbVertex
100
AcDb2dVertex
 10
79.88970594973087
 20
42.9504750411065
 30
0.0
  0
VERTEX
  5
2B0
330
2AB
100
AcDbEntity
  8
DIBUJOS
 62
     7
100
AcDbVertex
100
AcDb2dVertex
 10
79.86069281825804
 20
43.02365865099051
 30
0.0
  0
VERTEX
  5
2B1
330
2AB
100
AcDbEntity
  8
DIBUJOS
 62
     7
100
AcDbVertex
100
AcDb2dVertex
 10
79.89985094736821
 20
44.10618710517144
 30
0.0
  0
VERTEX
  5
2B2
330
2AB
100
AcDbEntity
  8
DIBUJOS
 62
     7
100
AcDbVertex
100
AcDb2dVertex
 10
79.96664589813622
 20
45.58830659948545
 30
0.0
  0
VERTEX
  5
2B3
330
2AB
100
AcDbEntity
  8
DIBUJOS
 62
     7
100
AcDbVertex
100
AcDb2dVertex
 10
80.00907723687529
 20
46.12064752473408
 30
0.0
  0
VERTEX
  5
2B4
330
2AB
100
AcDbEntity
  8
DIBUJOS
 62
     7
100
AcDbVertex
100
AcDb2dVertex
 10
80.02510164783166
 20
46.28309833880932
 30
0.0
  0
VERTEX
  5
2B5
330
2AB
100
AcDbEntity
  8
DIBUJOS
 62
     7
100
AcDbVertex
100
AcDb2dVertex
 10
80.06992119319878
 20
46.47771634149841
 30
0.0
  0
VERTEX
  5
2B6
330
2AB
100
AcDbEntity
  8
DIBUJOS
 62
     7
100
AcDbVertex
100
AcDb2dVertex
 10
80.10428338692786
 20
46.61575851053004
 30
0.0
  0
VERTEX
  5
2B7
330
2AB
100
AcDbEntity
  8
DIBUJOS
 62
     7
100
AcDbVertex
100
AcDb2dVertex
 10
80.21308344337135
 20
46.93631691706021
 30
0.0
  0
VERTEX
  5
2B8
330
2AB
100
AcDbEntity
  8
DIBUJOS
 62
     7
100
AcDbVertex
100
AcDb2dVertex
 10
80.37446959725436
 20
47.16071235973518
 30
0.0
  0
VERTEX
  5
2B9
330
2AB
100
AcDbEntity
  8
DIBUJOS
 62
     7
100
AcDbVertex
100
AcDb2dVertex
 10
80.3865570463312
 20
47.17280761334857
 30
0.0
  0
VERTEX
  5
2BA
330
2AB
100
AcDbEntity
  8
DIBUJOS
 62
     7
100
AcDbVertex
100
AcDb2dVertex
 10
81.7888605699642
 20
47.17280761334857
 30
0.0
  0
VERTEX
  5
2BB
330
2AB
100
AcDbEntity
  8
DIBUJOS
 62
     7
100
AcDbVertex
100
AcDb2dVertex
 10
82.4294270436136
 20
47.15179801131149
 30
0.0
  0
VERTEX
  5
2BC
330
2AB
100
AcDbEntity
  8
DIBUJOS
 62
     7
100
AcDbVertex
100
AcDb2dVertex
 10
82.67724740603802
 20
47.13969950191
 30
0.0
  0
VERTEX
  5
2BD
330
2AB
100
AcDbEntity
  8
DIBUJOS
 62
     7
100
AcDbVertex
100
AcDb2dVertex
 10
82.79791691449627
 20
47.12188057242788
 30
0.0
  0
VERTEX
  5
2BE
330
2AB
100
AcDbEntity
  8
DIBUJOS
 62
     7
100
AcDbVertex
100
AcDb2dVertex
 10
83.0521470413031
 20
47.08208181598916
 30
0.0
  0
SEQEND
  5
2BF
330
2AB
100
AcDbEntity
  8
DIBUJOS
 62
     7
  0
POLYLINE
  5
2C0
330
246
100
AcDbEntity
  8
DIBUJOS
 62
     7
100
AcDb2dPolyline
 66
     1
 10
0.0
 20
0.0
 30
0.0
  0
VERTEX
  5
2C1
330
2C0
100
AcDbEntity
  8
DIBUJOS
 62
     7
100
AcDbVertex
100
AcDb2dVertex
 10
80.00575847562148
 20
42.87849932868902
 30
0.0
  0
VERTEX
  5
2C2
330
2C0
100
AcDbEntity
  8
DIBUJOS
 62
     7
100
AcDbVertex
100
AcDb2dVertex
 10
79.999713124239
 20
42.87849932868902
 30
0.0
  0
SEQEND
  5
2C3
330
2C0
100
AcDbEntity
  8
DIBUJOS
 62
     7
  0
POLYLINE
  5
2C4
330
246
100
AcDbEntity
  8
DIBUJOS
 62
     7
100
AcDb2dPolyline
 66
     1
 10
0.0
 20
0.0
 30
0.0
  0
VERTEX
  5
2C5
330
2C4
100
AcDbEntity
  8
DIBUJOS
 62
     7
100
AcDbVertex
100
AcDb2dVertex
 10
80.01180382700332
 20
42.87849932868902
 30
0.0
  0
VERTEX
  5
2C6
330
2C4
100
AcDbEntity
  8
DIBUJOS
 62
     7
100
AcDbVertex
100
AcDb2dVertex
 10
80.00575847562148
 20
42.87849932868902
 30
0.0
  0
SEQEND
  5
2C7
330
2C4
100
AcDbEntity
  8
DIBUJOS
 62
     7
  0
POLYLINE
  5
2C8
330
246
100
AcDbEntity
  8
DIBUJOS
 62
     7
100
AcDb2dPolyline
 66
     1
 10
0.0
 20
0.0
 30
0.0
  0
VERTEX
  5
2C9
330
2C8
100
AcDbEntity
  8
DIBUJOS
 62
     7
100
AcDbVertex
100
AcDb2dVertex
 10
80.01180382700332
 20
42.87849932868902
 30
0.0
  0
VERTEX
  5
2CA
330
2C8
100
AcDbEntity
  8
DIBUJOS
 62
     7
100
AcDbVertex
100
AcDb2dVertex
 10
81.86139502548902
 20
42.88152395603955
 30
0.0
  0
VERTEX
  5
2CB
330
2C8
100
AcDbEntity
  8
DIBUJOS
 62
     7
100
AcDbVertex
100
AcDb2dVertex
 10
83.55383311753444
 20
42.88152395603955
 30
0.0
  0
VERTEX
  5
2CC
330
2C8
100
AcDbEntity
  8
DIBUJOS
 62
     7
100
AcDbVertex
100
AcDb2dVertex
 10
83.55987846891757
 20
42.88454858339009
 30
0.0
  0
VERTEX
  5
2CD
330
2C8
100
AcDbEntity
  8
DIBUJOS
 62
     7
100
AcDbVertex
100
AcDb2dVertex
 10
83.70494412628035
 20
42.87849932868902
 30
0.0
  0
VERTEX
  5
2CE
330
2C8
100
AcDbEntity
  8
DIBUJOS
 62
     7
100
AcDbVertex
100
AcDb2dVertex
 10
83.71098622397471
 20
42.88454858339009
 30
0.0
  0
SEQEND
  5
2CF
330
2C8
100
AcDbEntity
  8
DIBUJOS
 62
     7
  0
POLYLINE
  5
2D0
330
246
100
AcDbEntity
  8
DIBUJOS
 62
     7
100
AcDb2dPolyline
 66
     1
 10
0.0
 20
0.0
 30
0.0
  0
VERTEX
  5
2D1
330
2D0
100
AcDbEntity
  8
DIBUJOS
 62
     7
100
AcDbVertex
100
AcDb2dVertex
 10
86.33426526664546
 20
42.87849932868902
 30
0.0
  0
VERTEX
  5
2D2
330
2D0
100
AcDbEntity
  8
DIBUJOS
 62
     7
100
AcDbVertex
100
AcDb2dVertex
 10
86.32882510113872
 20
42.87970885405039
 30
0.0
  0
VERTEX
  5
2D3
330
2D0
100
AcDbEntity
  8
DIBUJOS
 62
     7
100
AcDbVertex
100
AcDb2dVertex
 10
85.23418050681616
 20
42.88454858339009
 30
0.0
  0
VERTEX
  5
2D4
330
2D0
100
AcDbEntity
  8
DIBUJOS
 62
     7
100
AcDbVertex
100
AcDb2dVertex
 10
85.22813515543368
 20
42.87849932868902
 30
0.0
  0
VERTEX
  5
2D5
330
2D0
100
AcDbEntity
  8
DIBUJOS
 62
     7
100
AcDbVertex
100
AcDb2dVertex
 10
85.11933835267705
 20
42.87849932868902
 30
0.0
  0
VERTEX
  5
2D6
330
2D0
100
AcDbEntity
  8
DIBUJOS
 62
     7
100
AcDbVertex
100
AcDb2dVertex
 10
85.1132930012952
 20
42.88454858339009
 30
0.0
  0
VERTEX
  5
2D7
330
2D0
100
AcDbEntity
  8
DIBUJOS
 62
     7
100
AcDbVertex
100
AcDb2dVertex
 10
84.84733658472331
 20
42.88454858339009
 30
0.0
  0
VERTEX
  5
2D8
330
2D0
100
AcDbEntity
  8
DIBUJOS
 62
     7
100
AcDbVertex
100
AcDb2dVertex
 10
84.84129448702832
 20
42.87849932868902
 30
0.0
  0
VERTEX
  5
2D9
330
2D0
100
AcDbEntity
  8
DIBUJOS
 62
     7
100
AcDbVertex
100
AcDb2dVertex
 10
84.8171163351865
 20
42.87849932868902
 30
0.0
  0
VERTEX
  5
2DA
330
2D0
100
AcDbEntity
  8
DIBUJOS
 62
     7
100
AcDbVertex
100
AcDb2dVertex
 10
84.81107098380465
 20
42.88454858339009
 30
0.0
  0
VERTEX
  5
2DB
330
2D0
100
AcDbEntity
  8
DIBUJOS
 62
     7
100
AcDbVertex
100
AcDb2dVertex
 10
84.79898353472781
 20
42.87849932868902
 30
0.0
  0
VERTEX
  5
2DC
330
2D0
100
AcDbEntity
  8
DIBUJOS
 62
     7
100
AcDbVertex
100
AcDb2dVertex
 10
84.38191936309877
 20
42.88454858339009
 30
0.0
  0
VERTEX
  5
2DD
330
2D0
100
AcDbEntity
  8
DIBUJOS
 62
     7
100
AcDbVertex
100
AcDb2dVertex
 10
84.37587401171565
 20
42.87849932868902
 30
0.0
  0
VERTEX
  5
2DE
330
2D0
100
AcDbEntity
  8
DIBUJOS
 62
     7
100
AcDbVertex
100
AcDb2dVertex
 10
84.18849740205171
 20
42.87849932868902
 30
0.0
  0
VERTEX
  5
2DF
330
2D0
100
AcDbEntity
  8
DIBUJOS
 62
     7
100
AcDbVertex
100
AcDb2dVertex
 10
84.18245205066987
 20
42.88454858339009
 30
0.0
  0
VERTEX
  5
2E0
330
2D0
100
AcDbEntity
  8
DIBUJOS
 62
     7
100
AcDbVertex
100
AcDb2dVertex
 10
84.17036460159238
 20
42.87849932868902
 30
0.0
  0
VERTEX
  5
2E1
330
2D0
100
AcDbEntity
  8
DIBUJOS
 62
     7
100
AcDbVertex
100
AcDb2dVertex
 10
84.14014109836872
 20
42.88454858339009
 30
0.0
  0
VERTEX
  5
2E2
330
2D0
100
AcDbEntity
  8
DIBUJOS
 62
     7
100
AcDbVertex
100
AcDb2dVertex
 10
83.72911902443404
 20
42.87849932868902
 30
0.0
  0
VERTEX
  5
2E3
330
2D0
100
AcDbEntity
  8
DIBUJOS
 62
     7
100
AcDbVertex
100
AcDb2dVertex
 10
83.72307692673968
 20
42.88454858339009
 30
0.0
  0
SEQEND
  5
2E4
330
2D0
100
AcDbEntity
  8
DIBUJOS
 62
     7
  0
POLYLINE
  5
2E5
330
246
100
AcDbEntity
  8
DIBUJOS
 62
     7
100
AcDb2dPolyline
 66
     1
 10
0.0
 20
0.0
 30
0.0
  0
VERTEX
  5
2E6
330
2E5
100
AcDbEntity
  8
DIBUJOS
 62
     7
100
AcDbVertex
100
AcDb2dVertex
 10
86.34031061802796
 20
42.87849932868902
 30
0.0
  0
VERTEX
  5
2E7
330
2E5
100
AcDbEntity
  8
DIBUJOS
 62
     7
100
AcDbVertex
100
AcDb2dVertex
 10
86.33426526664546
 20
42.87849932868902
 30
0.0
  0
SEQEND
  5
2E8
330
2E5
100
AcDbEntity
  8
DIBUJOS
 62
     7
  0
POLYLINE
  5
2E9
330
246
100
AcDbEntity
  8
DIBUJOS
 62
     7
100
AcDb2dPolyline
 66
     1
 10
0.0
 20
0.0
 30
0.0
  0
VERTEX
  5
2EA
330
2E9
100
AcDbEntity
  8
DIBUJOS
 62
     7
100
AcDbVertex
100
AcDb2dVertex
 10
86.34635271572294
 20
42.87849932868902
 30
0.0
  0
VERTEX
  5
2EB
330
2E9
100
AcDbEntity
  8
DIBUJOS
 62
     7
100
AcDbVertex
100
AcDb2dVertex
 10
86.34031061802796
 20
42.87849932868902
 30
0.0
  0
SEQEND
  5
2EC
330
2E9
100
AcDbEntity
  8
DIBUJOS
 62
     7
  0
POLYLINE
  5
2ED
330
246
100
AcDbEntity
  8
DIBUJOS
 62
     7
100
AcDb2dPolyline
 66
     1
 10
0.0
 20
0.0
 30
0.0
  0
VERTEX
  5
2EE
330
2ED
100
AcDbEntity
  8
DIBUJOS
 62
     7
100
AcDbVertex
100
AcDb2dVertex
 10
86.34635271572294
 20
42.87849932868902
 30
0.0
  0
VERTEX
  5
2EF
330
2ED
100
AcDbEntity
  8
DIBUJOS
 62
     7
100
AcDbVertex
100
AcDb2dVertex
 10
86.35937397311368
 20
42.8892011049013
 30
0.0
  0
VERTEX
  5
2F0
330
2ED
100
AcDbEntity
  8
DIBUJOS
 62
     7
100
AcDbVertex
100
AcDb2dVertex
 10
86.38926885389985
 20
42.90148356634285
 30
0.0
  0
VERTEX
  5
2F1
330
2ED
100
AcDbEntity
  8
DIBUJOS
 62
     7
100
AcDbVertex
100
AcDb2dVertex
 10
86.39470901940595
 20
42.90269309170422
 30
0.0
  0
VERTEX
  5
2F2
330
2ED
100
AcDbEntity
  8
DIBUJOS
 62
     7
100
AcDbVertex
100
AcDb2dVertex
 10
86.44911067447208
 20
42.95712824454051
 30
0.0
  0
VERTEX
  5
2F3
330
2ED
100
AcDbEntity
  8
DIBUJOS
 62
     7
100
AcDbVertex
100
AcDb2dVertex
 10
86.45092297841182
 20
42.96861954942064
 30
0.0
  0
VERTEX
  5
2F4
330
2ED
100
AcDbEntity
  8
DIBUJOS
 62
     7
100
AcDbVertex
100
AcDb2dVertex
 10
86.46724347493141
 20
43.0055141426767
 30
0.0
  0
VERTEX
  5
2F5
330
2ED
100
AcDbEntity
  8
DIBUJOS
 62
     7
100
AcDbVertex
100
AcDb2dVertex
 10
86.46724347493141
 20
43.20510861781447
 30
0.0
  0
VERTEX
  5
2F6
330
2ED
100
AcDbEntity
  8
DIBUJOS
 62
     7
100
AcDbVertex
100
AcDb2dVertex
 10
86.4099785748625
 20
44.64446658831786
 30
0.0
  0
VERTEX
  5
2F7
330
2ED
100
AcDbEntity
  8
DIBUJOS
 62
     7
100
AcDbVertex
100
AcDb2dVertex
 10
86.36765135412324
 20
45.53962930829498
 30
0.0
  0
VERTEX
  5
2F8
330
2ED
100
AcDbEntity
  8
DIBUJOS
 62
     7
100
AcDbVertex
100
AcDb2dVertex
 10
86.34305998396908
 20
45.87869687143101
 30
0.0
  0
VERTEX
  5
2F9
330
2ED
100
AcDbEntity
  8
DIBUJOS
 62
     7
100
AcDbVertex
100
AcDb2dVertex
 10
86.31008711480365
 20
46.25346415350991
 30
0.0
  0
VERTEX
  5
2FA
330
2ED
100
AcDbEntity
  8
DIBUJOS
 62
     7
100
AcDbVertex
100
AcDb2dVertex
 10
86.31613246618677
 20
46.25951015242256
 30
0.0
  0
VERTEX
  5
2FB
330
2ED
100
AcDbEntity
  8
DIBUJOS
 62
     7
100
AcDbVertex
100
AcDb2dVertex
 10
86.24541356828792
 20
46.48390233930911
 30
0.0
  0
VERTEX
  5
2FC
330
2ED
100
AcDbEntity
  8
DIBUJOS
 62
     7
100
AcDbVertex
100
AcDb2dVertex
 10
86.24178570672156
 20
46.49478969545502
 30
0.0
  0
VERTEX
  5
2FD
330
2ED
100
AcDbEntity
  8
DIBUJOS
 62
     7
100
AcDbVertex
100
AcDb2dVertex
 10
86.18315425790082
 20
46.57402256004008
 30
0.0
  0
VERTEX
  5
2FE
330
2ED
100
AcDbEntity
  8
DIBUJOS
 62
     7
100
AcDbVertex
100
AcDb2dVertex
 10
86.09913753917364
 20
46.65386100125326
 30
0.0
  0
VERTEX
  5
2FF
330
2ED
100
AcDbEntity
  8
DIBUJOS
 62
     7
100
AcDbVertex
100
AcDb2dVertex
 10
86.06166156650347
 20
46.66958645884465
 30
0.0
  0
VERTEX
  5
300
330
2ED
100
AcDbEntity
  8
DIBUJOS
 62
     7
100
AcDbVertex
100
AcDb2dVertex
 10
85.88153742628603
 20
46.73914312053907
 30
0.0
  0
VERTEX
  5
301
330
2ED
100
AcDbEntity
  8
DIBUJOS
 62
     7
100
AcDbVertex
100
AcDb2dVertex
 10
85.76064992076506
 20
46.77543213716734
 30
0.0
  0
VERTEX
  5
302
330
2ED
100
AcDbEntity
  8
DIBUJOS
 62
     7
100
AcDbVertex
100
AcDb2dVertex
 10
85.45741600646078
 20
46.84374508772297
 30
0.0
  0
VERTEX
  5
303
330
2ED
100
AcDbEntity
  8
DIBUJOS
 62
     7
100
AcDbVertex
100
AcDb2dVertex
 10
85.1922795191405
 20
46.88494057735154
 30
0.0
  0
VERTEX
  5
304
330
2ED
100
AcDbEntity
  8
DIBUJOS
 62
     7
100
AcDbVertex
100
AcDb2dVertex
 10
85.07082261830557
 20
46.89778466227855
 30
0.0
  0
VERTEX
  5
305
330
2ED
100
AcDbEntity
  8
DIBUJOS
 62
     7
100
AcDbVertex
100
AcDb2dVertex
 10
84.76892596956631
 20
46.91556777808906
 30
0.0
  0
VERTEX
  5
306
330
2ED
100
AcDbEntity
  8
DIBUJOS
 62
     7
100
AcDbVertex
100
AcDb2dVertex
 10
84.28518072623154
 20
46.92787791373151
 30
0.0
  0
VERTEX
  5
307
330
2ED
100
AcDbEntity
  8
DIBUJOS
 62
     7
100
AcDbVertex
100
AcDb2dVertex
 10
83.58405336707125
 20
46.936922493688
 30
0.0
  0
VERTEX
  5
308
330
2ED
100
AcDbEntity
  8
DIBUJOS
 62
     7
100
AcDbVertex
100
AcDb2dVertex
 10
83.57801126937626
 20
46.93087323898726
 30
0.0
  0
VERTEX
  5
309
330
2ED
100
AcDbEntity
  8
DIBUJOS
 62
     7
100
AcDbVertex
100
AcDb2dVertex
 10
83.42629507475587
 20
46.97744729092206
 30
0.0
  0
VERTEX
  5
30A
330
2ED
100
AcDbEntity
  8
DIBUJOS
 62
     7
100
AcDbVertex
100
AcDb2dVertex
 10
83.28908707271533
 20
47.02401808706876
 30
0.0
  0
VERTEX
  5
30B
330
2ED
100
AcDbEntity
  8
DIBUJOS
 62
     7
100
AcDbVertex
100
AcDb2dVertex
 10
83.27578925188635
 20
47.03369754574783
 30
0.0
  0
SEQEND
  5
30C
330
2ED
100
AcDbEntity
  8
DIBUJOS
 62
     7
  0
POLYLINE
  5
30D
330
246
100
AcDbEntity
  8
DIBUJOS
 62
     7
100
AcDb2dPolyline
 66
     1
 10
0.0
 20
0.0
 30
0.0
  0
VERTEX
  5
30E
330
30D
100
AcDbEntity
  8
DIBUJOS
 62
     7
100
AcDbVertex
100
AcDb2dVertex
 10
80.00575847562148
 20
42.87245170188249
 30
0.0
  0
VERTEX
  5
30F
330
30D
100
AcDbEntity
  8
DIBUJOS
 62
     7
100
AcDbVertex
100
AcDb2dVertex
 10
80.00575847562148
 20
42.87849932868902
 30
0.0
  0
SEQEND
  5
310
330
30D
100
AcDbEntity
  8
DIBUJOS
 62
     7
  0
POLYLINE
  5
311
330
246
100
AcDbEntity
  8
DIBUJOS
 62
     7
100
AcDb2dPolyline
 66
     1
 10
0.0
 20
0.0
 30
0.0
  0
VERTEX
  5
312
330
311
100
AcDbEntity
  8
DIBUJOS
 62
     7
100
AcDbVertex
100
AcDb2dVertex
 10
86.34031061802796
 20
42.87245170188249
 30
0.0
  0
VERTEX
  5
313
330
311
100
AcDbEntity
  8
DIBUJOS
 62
     7
100
AcDbVertex
100
AcDb2dVertex
 10
86.34031061802796
 20
42.87849932868902
 30
0.0
  0
SEQEND
  5
314
330
311
100
AcDbEntity
  8
DIBUJOS
 62
     7
  0
POLYLINE
  5
315
330
246
100
AcDbEntity
  8
DIBUJOS
 62
     7
100
AcDb2dPolyline
 66
     1
 10
0.0
 20
0.0
 30
0.0
  0
VERTEX
  5
316
330
315
100
AcDbEntity
  8
DIBUJOS
 62
     7
100
AcDbVertex
100
AcDb2dVertex
 10
83.25765645142702
 20
42.72124312488058
 30
0.0
  0
VERTEX
  5
317
330
315
100
AcDbEntity
  8
DIBUJOS
 62
     7
100
AcDbVertex
100
AcDb2dVertex
 10
83.13072359452356
 20
42.72124312488058
 30
0.0
  0
SEQEND
  5
318
330
315
100
AcDbEntity
  8
DIBUJOS
 62
     7
  0
POLYLINE
  5
319
330
246
100
AcDbEntity
  8
DIBUJOS
 62
     7
100
AcDb2dPolyline
 66
     1
 10
0.0
 20
0.0
 30
0.0
  0
VERTEX
  5
31A
330
319
100
AcDbEntity
  8
DIBUJOS
 62
     7
100
AcDbVertex
100
AcDb2dVertex
 10
83.08236729083993
 20
42.68495248035779
 30
0.0
  0
VERTEX
  5
31B
330
319
100
AcDbEntity
  8
DIBUJOS
 62
     7
100
AcDbVertex
100
AcDb2dVertex
 10
83.08841264222241
 20
42.69100173505885
 30
0.0
  0
SEQEND
  5
31C
330
319
100
AcDbEntity
  8
DIBUJOS
 62
     7
  0
POLYLINE
  5
31D
330
246
100
AcDbEntity
  8
DIBUJOS
 62
     7
100
AcDb2dPolyline
 66
     1
 10
0.0
 20
0.0
 30
0.0
  0
VERTEX
  5
31E
330
31D
100
AcDbEntity
  8
DIBUJOS
 62
     7
100
AcDbVertex
100
AcDb2dVertex
 10
80.18708973390292
 20
42.67890485355125
 30
0.0
  0
VERTEX
  5
31F
330
31D
100
AcDbEntity
  8
DIBUJOS
 62
     7
100
AcDbVertex
100
AcDb2dVertex
 10
80.07844260077165
 20
42.68176180780316
 30
0.0
  0
VERTEX
  5
320
330
31D
100
AcDbEntity
  8
DIBUJOS
 62
     7
100
AcDbVertex
100
AcDb2dVertex
 10
80.04202407654014
 20
42.69100173505885
 30
0.0
  0
SEQEND
  5
321
330
31D
100
AcDbEntity
  8
DIBUJOS
 62
     7
  0
POLYLINE
  5
322
330
246
100
AcDbEntity
  8
DIBUJOS
 62
     7
100
AcDb2dPolyline
 66
     1
 10
0.0
 20
0.0
 30
0.0
  0
VERTEX
  5
323
330
322
100
AcDbEntity
  8
DIBUJOS
 62
     7
100
AcDbVertex
100
AcDb2dVertex
 10
80.19313508528477
 20
42.67890485355125
 30
0.0
  0
VERTEX
  5
324
330
322
100
AcDbEntity
  8
DIBUJOS
 62
     7
100
AcDbVertex
100
AcDb2dVertex
 10
80.18708973390292
 20
42.67890485355125
 30
0.0
  0
SEQEND
  5
325
330
322
100
AcDbEntity
  8
DIBUJOS
 62
     7
  0
POLYLINE
  5
326
330
246
100
AcDbEntity
  8
DIBUJOS
 62
     7
100
AcDb2dPolyline
 66
     1
 10
0.0
 20
0.0
 30
0.0
  0
VERTEX
  5
327
330
326
100
AcDbEntity
  8
DIBUJOS
 62
     7
100
AcDbVertex
100
AcDb2dVertex
 10
80.1991804366679
 20
42.67890485355125
 30
0.0
  0
VERTEX
  5
328
330
326
100
AcDbEntity
  8
DIBUJOS
 62
     7
100
AcDbVertex
100
AcDb2dVertex
 10
80.19313508528477
 20
42.67890485355125
 30
0.0
  0
SEQEND
  5
329
330
326
100
AcDbEntity
  8
DIBUJOS
 62
     7
  0
POLYLINE
  5
32A
330
246
100
AcDbEntity
  8
DIBUJOS
 62
     7
100
AcDb2dPolyline
 66
     1
 10
0.0
 20
0.0
 30
0.0
  0
VERTEX
  5
32B
330
32A
100
AcDbEntity
  8
DIBUJOS
 62
     7
100
AcDbVertex
100
AcDb2dVertex
 10
83.08236729083993
 20
42.67890485355125
 30
0.0
  0
VERTEX
  5
32C
330
32A
100
AcDbEntity
  8
DIBUJOS
 62
     7
100
AcDbVertex
100
AcDb2dVertex
 10
83.07632193945807
 20
42.67890485355125
 30
0.0
  0
SEQEND
  5
32D
330
32A
100
AcDbEntity
  8
DIBUJOS
 62
     7
  0
POLYLINE
  5
32E
330
246
100
AcDbEntity
  8
DIBUJOS
 62
     7
100
AcDb2dPolyline
 66
     1
 10
0.0
 20
0.0
 30
0.0
  0
VERTEX
  5
32F
330
32E
100
AcDbEntity
  8
DIBUJOS
 62
     7
100
AcDbVertex
100
AcDb2dVertex
 10
83.08236729083993
 20
42.67890485355125
 30
0.0
  0
VERTEX
  5
330
330
32E
100
AcDbEntity
  8
DIBUJOS
 62
     7
100
AcDbVertex
100
AcDb2dVertex
 10
83.08236729083993
 20
42.68495248035779
 30
0.0
  0
SEQEND
  5
331
330
32E
100
AcDbEntity
  8
DIBUJOS
 62
     7
  0
POLYLINE
  5
332
330
246
100
AcDbEntity
  8
DIBUJOS
 62
     7
100
AcDb2dPolyline
 66
     1
 10
0.0
 20
0.0
 30
0.0
  0
VERTEX
  5
333
330
332
100
AcDbEntity
  8
DIBUJOS
 62
     7
100
AcDbVertex
100
AcDb2dVertex
 10
83.30601275511066
 20
42.67890485355125
 30
0.0
  0
VERTEX
  5
334
330
332
100
AcDbEntity
  8
DIBUJOS
 62
     7
100
AcDbVertex
100
AcDb2dVertex
 10
83.2878767009632
 20
42.6970493618657
 30
0.0
  0
SEQEND
  5
335
330
332
100
AcDbEntity
  8
DIBUJOS
 62
     7
  0
POLYLINE
  5
336
330
246
100
AcDbEntity
  8
DIBUJOS
 62
     7
100
AcDb2dPolyline
 66
     1
 10
0.0
 20
0.0
 30
0.0
  0
VERTEX
  5
337
330
336
100
AcDbEntity
  8
DIBUJOS
 62
     7
100
AcDbVertex
100
AcDb2dVertex
 10
83.312054852805
 20
42.67890485355125
 30
0.0
  0
VERTEX
  5
338
330
336
100
AcDbEntity
  8
DIBUJOS
 62
     7
100
AcDbVertex
100
AcDb2dVertex
 10
83.30601275511066
 20
42.67890485355125
 30
0.0
  0
SEQEND
  5
339
330
336
100
AcDbEntity
  8
DIBUJOS
 62
     7
  0
POLYLINE
  5
33A
330
246
100
AcDbEntity
  8
DIBUJOS
 62
     7
100
AcDb2dPolyline
 66
     1
 10
0.0
 20
0.0
 30
0.0
  0
VERTEX
  5
33B
330
33A
100
AcDbEntity
  8
DIBUJOS
 62
     7
100
AcDbVertex
100
AcDb2dVertex
 10
86.14688865698153
 20
42.67890485355125
 30
0.0
  0
VERTEX
  5
33C
330
33A
100
AcDbEntity
  8
DIBUJOS
 62
     7
100
AcDbVertex
100
AcDb2dVertex
 10
83.312054852805
 20
42.67890485355125
 30
0.0
  0
SEQEND
  5
33D
330
33A
100
AcDbEntity
  8
DIBUJOS
 62
     7
  0
POLYLINE
  5
33E
330
246
100
AcDbEntity
  8
DIBUJOS
 62
     7
100
AcDb2dPolyline
 66
     1
 10
0.0
 20
0.0
 30
0.0
  0
VERTEX
  5
33F
330
33E
100
AcDbEntity
  8
DIBUJOS
 62
     7
100
AcDbVertex
100
AcDb2dVertex
 10
86.15293400836401
 20
42.67890485355125
 30
0.0
  0
VERTEX
  5
340
330
33E
100
AcDbEntity
  8
DIBUJOS
 62
     7
100
AcDbVertex
100
AcDb2dVertex
 10
86.14688865698153
 20
42.67890485355125
 30
0.0
  0
SEQEND
  5
341
330
33E
100
AcDbEntity
  8
DIBUJOS
 62
     7
  0
POLYLINE
  5
342
330
246
100
AcDbEntity
  8
DIBUJOS
 62
     7
100
AcDb2dPolyline
 66
     1
 10
0.0
 20
0.0
 30
0.0
  0
VERTEX
  5
343
330
342
100
AcDbEntity
  8
DIBUJOS
 62
     7
100
AcDbVertex
100
AcDb2dVertex
 10
86.15897610605901
 20
42.67890485355125
 30
0.0
  0
VERTEX
  5
344
330
342
100
AcDbEntity
  8
DIBUJOS
 62
     7
100
AcDbVertex
100
AcDb2dVertex
 10
86.15293400836401
 20
42.67890485355125
 30
0.0
  0
SEQEND
  5
345
330
342
100
AcDbEntity
  8
DIBUJOS
 62
     7
  0
POLYLINE
  5
346
330
246
100
AcDbEntity
  8
DIBUJOS
 62
     7
100
AcDb2dPolyline
 66
     1
 10
0.0
 20
0.0
 30
0.0
  0
VERTEX
  5
347
330
346
100
AcDbEntity
  8
DIBUJOS
 62
     7
100
AcDbVertex
100
AcDb2dVertex
 10
86.15897610605901
 20
42.67890485355125
 30
0.0
  0
VERTEX
  5
348
330
346
100
AcDbEntity
  8
DIBUJOS
 62
     7
100
AcDbVertex
100
AcDb2dVertex
 10
86.26157463412031
 20
42.68175204043791
 30
0.0
  0
VERTEX
  5
349
330
346
100
AcDbEntity
  8
DIBUJOS
 62
     7
100
AcDbVertex
100
AcDb2dVertex
 10
86.31008711480365
 20
42.69100173505885
 30
0.0
  0
SEQEND
  5
34A
330
346
100
AcDbEntity
  8
DIBUJOS
 62
     7
  0
POLYLINE
  5
34B
330
246
100
AcDbEntity
  8
DIBUJOS
 62
     7
100
AcDb2dPolyline
 66
     1
 10
0.0
 20
0.0
 30
0.0
  0
VERTEX
  5
34C
330
34B
100
AcDbEntity
  8
DIBUJOS
 62
     7
100
AcDbVertex
100
AcDb2dVertex
 10
80.19313508528477
 20
42.67285722674472
 30
0.0
  0
VERTEX
  5
34D
330
34B
100
AcDbEntity
  8
DIBUJOS
 62
     7
100
AcDbVertex
100
AcDb2dVertex
 10
80.19313508528477
 20
42.67890485355125
 30
0.0
  0
SEQEND
  5
34E
330
34B
100
AcDbEntity
  8
DIBUJOS
 62
     7
  0
POLYLINE
  5
34F
330
246
100
AcDbEntity
  8
DIBUJOS
 62
     7
100
AcDb2dPolyline
 66
     1
 10
0.0
 20
0.0
 30
0.0
  0
VERTEX
  5
350
330
34F
100
AcDbEntity
  8
DIBUJOS
 62
     7
100
AcDbVertex
100
AcDb2dVertex
 10
83.04005633853878
 20
42.67285722674472
 30
0.0
  0
VERTEX
  5
351
330
34F
100
AcDbEntity
  8
DIBUJOS
 62
     7
100
AcDbVertex
100
AcDb2dVertex
 10
83.03401098715628
 20
42.67890485355125
 30
0.0
  0
VERTEX
  5
352
330
34F
100
AcDbEntity
  8
DIBUJOS
 62
     7
100
AcDbVertex
100
AcDb2dVertex
 10
80.1991804366679
 20
42.67890485355125
 30
0.0
  0
SEQEND
  5
353
330
34F
100
AcDbEntity
  8
DIBUJOS
 62
     7
  0
POLYLINE
  5
354
330
246
100
AcDbEntity
  8
DIBUJOS
 62
     7
100
AcDb2dPolyline
 66
     1
 10
0.0
 20
0.0
 30
0.0
  0
VERTEX
  5
355
330
354
100
AcDbEntity
  8
DIBUJOS
 62
     7
100
AcDbVertex
100
AcDb2dVertex
 10
83.04610168992126
 20
42.67285722674472
 30
0.0
  0
VERTEX
  5
356
330
354
100
AcDbEntity
  8
DIBUJOS
 62
     7
100
AcDbVertex
100
AcDb2dVertex
 10
83.04005633853878
 20
42.67285722674472
 30
0.0
  0
SEQEND
  5
357
330
354
100
AcDbEntity
  8
DIBUJOS
 62
     7
  0
POLYLINE
  5
358
330
246
100
AcDbEntity
  8
DIBUJOS
 62
     7
100
AcDb2dPolyline
 66
     1
 10
0.0
 20
0.0
 30
0.0
  0
VERTEX
  5
359
330
358
100
AcDbEntity
  8
DIBUJOS
 62
     7
100
AcDbVertex
100
AcDb2dVertex
 10
83.0521470413031
 20
42.67285722674472
 30
0.0
  0
VERTEX
  5
35A
330
358
100
AcDbEntity
  8
DIBUJOS
 62
     7
100
AcDbVertex
100
AcDb2dVertex
 10
83.04610168992126
 20
42.67285722674472
 30
0.0
  0
SEQEND
  5
35B
330
358
100
AcDbEntity
  8
DIBUJOS
 62
     7
  0
POLYLINE
  5
35C
330
246
100
AcDbEntity
  8
DIBUJOS
 62
     7
100
AcDb2dPolyline
 66
     1
 10
0.0
 20
0.0
 30
0.0
  0
VERTEX
  5
35D
330
35C
100
AcDbEntity
  8
DIBUJOS
 62
     7
100
AcDbVertex
100
AcDb2dVertex
 10
83.0521470413031
 20
42.67285722674472
 30
0.0
  0
VERTEX
  5
35E
330
35C
100
AcDbEntity
  8
DIBUJOS
 62
     7
100
AcDbVertex
100
AcDb2dVertex
 10
83.0581891389981
 20
42.67890485355125
 30
0.0
  0
VERTEX
  5
35F
330
35C
100
AcDbEntity
  8
DIBUJOS
 62
     7
100
AcDbVertex
100
AcDb2dVertex
 10
83.07632193945807
 20
42.67890485355125
 30
0.0
  0
SEQEND
  5
360
330
35C
100
AcDbEntity
  8
DIBUJOS
 62
     7
  0
POLYLINE
  5
361
330
246
100
AcDbEntity
  8
DIBUJOS
 62
     7
100
AcDb2dPolyline
 66
     1
 10
0.0
 20
0.0
 30
0.0
  0
VERTEX
  5
362
330
361
100
AcDbEntity
  8
DIBUJOS
 62
     7
100
AcDbVertex
100
AcDb2dVertex
 10
83.08236729083993
 20
42.67285722674472
 30
0.0
  0
VERTEX
  5
363
330
361
100
AcDbEntity
  8
DIBUJOS
 62
     7
100
AcDbVertex
100
AcDb2dVertex
 10
83.08236729083993
 20
42.67890485355125
 30
0.0
  0
SEQEND
  5
364
330
361
100
AcDbEntity
  8
DIBUJOS
 62
     7
  0
POLYLINE
  5
365
330
246
100
AcDbEntity
  8
DIBUJOS
 62
     7
100
AcDb2dPolyline
 66
     1
 10
0.0
 20
0.0
 30
0.0
  0
VERTEX
  5
366
330
365
100
AcDbEntity
  8
DIBUJOS
 62
     7
100
AcDbVertex
100
AcDb2dVertex
 10
83.30601275511066
 20
42.67285722674472
 30
0.0
  0
VERTEX
  5
367
330
365
100
AcDbEntity
  8
DIBUJOS
 62
     7
100
AcDbVertex
100
AcDb2dVertex
 10
83.30601275511066
 20
42.67890485355125
 30
0.0
  0
SEQEND
  5
368
330
365
100
AcDbEntity
  8
DIBUJOS
 62
     7
  0
POLYLINE
  5
369
330
246
100
AcDbEntity
  8
DIBUJOS
 62
     7
100
AcDb2dPolyline
 66
     1
 10
0.0
 20
0.0
 30
0.0
  0
VERTEX
  5
36A
330
369
100
AcDbEntity
  8
DIBUJOS
 62
     7
100
AcDbVertex
100
AcDb2dVertex
 10
86.15293400836401
 20
42.67285722674472
 30
0.0
  0
VERTEX
  5
36B
330
369
100
AcDbEntity
  8
DIBUJOS
 62
     7
100
AcDbVertex
100
AcDb2dVertex
 10
86.15293400836401
 20
42.67890485355125
 30
0.0
  0
SEQEND
  5
36C
330
369
100
AcDbEntity
  8
DIBUJOS
 62
     7
  0
POLYLINE
  5
36D
330
246
100
AcDbEntity
  8
DIBUJOS
 62
     7
100
AcDb2dPolyline
 66
     1
 10
0.0
 20
0.0
 30
0.0
  0
VERTEX
  5
36E
330
36D
100
AcDbEntity
  8
DIBUJOS
 62
     7
100
AcDbVertex
100
AcDb2dVertex
 10
83.04610168992126
 20
42.66680797204397
 30
0.0
  0
VERTEX
  5
36F
330
36D
100
AcDbEntity
  8
DIBUJOS
 62
     7
100
AcDbVertex
100
AcDb2dVertex
 10
83.04610168992126
 20
42.67285722674472
 30
0.0
  0
SEQEND
  5
370
330
36D
100
AcDbEntity
  8
DIBUJOS
 62
     7
  0
POLYLINE
  5
371
330
246
100
AcDbEntity
  8
DIBUJOS
 62
     7
100
AcDb2dPolyline
 66
     1
 10
0.0
 20
0.0
 30
0.0
  0
VERTEX
  5
372
330
371
100
AcDbEntity
  8
DIBUJOS
 62
     7
100
AcDbVertex
100
AcDb2dVertex
 10
79.97553497239717
 20
42.54584241275705
 30
0.0
  0
VERTEX
  5
373
330
371
100
AcDbEntity
  8
DIBUJOS
 62
     7
100
AcDbVertex
100
AcDb2dVertex
 10
79.98158032377965
 20
42.72124312488058
 30
0.0
  0
VERTEX
  5
374
330
371
100
AcDbEntity
  8
DIBUJOS
 62
     7
100
AcDbVertex
100
AcDb2dVertex
 10
79.97766939140007
 20
42.7459692092858
 30
0.0
  0
VERTEX
  5
375
330
371
100
AcDbEntity
  8
DIBUJOS
 62
     7
100
AcDbVertex
100
AcDb2dVertex
 10
79.97340380708175
 20
42.76304744692472
 30
0.0
  0
VERTEX
  5
376
330
371
100
AcDbEntity
  8
DIBUJOS
 62
     7
100
AcDbVertex
100
AcDb2dVertex
 10
79.96949287470217
 20
42.76962902301612
 30
0.0
  0
VERTEX
  5
377
330
371
100
AcDbEntity
  8
DIBUJOS
 62
     7
100
AcDbVertex
100
AcDb2dVertex
 10
79.96949287470217
 20
42.81196729434546
 30
0.0
  0
VERTEX
  5
378
330
371
100
AcDbEntity
  8
DIBUJOS
 62
     7
100
AcDbVertex
100
AcDb2dVertex
 10
79.98305424421878
 20
42.84707771560102
 30
0.0
  0
VERTEX
  5
379
330
371
100
AcDbEntity
  8
DIBUJOS
 62
     7
100
AcDbVertex
100
AcDb2dVertex
 10
80.00575847562148
 20
42.87245170188249
 30
0.0
  0
SEQEND
  5
37A
330
371
100
AcDbEntity
  8
DIBUJOS
 62
     7
  0
POLYLINE
  5
37B
330
246
100
AcDbEntity
  8
DIBUJOS
 62
     7
100
AcDb2dPolyline
 66
     1
 10
0.0
 20
0.0
 30
0.0
  0
VERTEX
  5
37C
330
37B
100
AcDbEntity
  8
DIBUJOS
 62
     7
100
AcDbVertex
100
AcDb2dVertex
 10
83.08236729083993
 20
42.54584241275705
 30
0.0
  0
VERTEX
  5
37D
330
37B
100
AcDbEntity
  8
DIBUJOS
 62
     7
100
AcDbVertex
100
AcDb2dVertex
 10
83.08236729083993
 20
42.67285722674472
 30
0.0
  0
SEQEND
  5
37E
330
37B
100
AcDbEntity
  8
DIBUJOS
 62
     7
  0
POLYLINE
  5
37F
330
246
100
AcDbEntity
  8
DIBUJOS
 62
     7
100
AcDb2dPolyline
 66
     1
 10
0.0
 20
0.0
 30
0.0
  0
VERTEX
  5
380
330
37F
100
AcDbEntity
  8
DIBUJOS
 62
     7
100
AcDbVertex
100
AcDb2dVertex
 10
83.29996740372817
 20
42.54584241275705
 30
0.0
  0
VERTEX
  5
381
330
37F
100
AcDbEntity
  8
DIBUJOS
 62
     7
100
AcDbVertex
100
AcDb2dVertex
 10
83.30601275511066
 20
42.63656658222224
 30
0.0
  0
VERTEX
  5
382
330
37F
100
AcDbEntity
  8
DIBUJOS
 62
     7
100
AcDbVertex
100
AcDb2dVertex
 10
83.29996740372817
 20
42.64866346372952
 30
0.0
  0
VERTEX
  5
383
330
37F
100
AcDbEntity
  8
DIBUJOS
 62
     7
100
AcDbVertex
100
AcDb2dVertex
 10
83.29996740372817
 20
42.66680797204397
 30
0.0
  0
VERTEX
  5
384
330
37F
100
AcDbEntity
  8
DIBUJOS
 62
     7
100
AcDbVertex
100
AcDb2dVertex
 10
83.30601275511066
 20
42.67285722674472
 30
0.0
  0
SEQEND
  5
385
330
37F
100
AcDbEntity
  8
DIBUJOS
 62
     7
  0
POLYLINE
  5
386
330
246
100
AcDbEntity
  8
DIBUJOS
 62
     7
100
AcDb2dPolyline
 66
     1
 10
0.0
 20
0.0
 30
0.0
  0
VERTEX
  5
387
330
386
100
AcDbEntity
  8
DIBUJOS
 62
     7
100
AcDbVertex
100
AcDb2dVertex
 10
86.37053086756413
 20
42.54584241275705
 30
0.0
  0
VERTEX
  5
388
330
386
100
AcDbEntity
  8
DIBUJOS
 62
     7
100
AcDbVertex
100
AcDb2dVertex
 10
86.37266528656703
 20
42.56345297178694
 30
0.0
  0
VERTEX
  5
389
330
386
100
AcDbEntity
  8
DIBUJOS
 62
     7
100
AcDbVertex
100
AcDb2dVertex
 10
86.37657621894726
 20
42.70914624337266
 30
0.0
  0
VERTEX
  5
38A
330
386
100
AcDbEntity
  8
DIBUJOS
 62
     7
100
AcDbVertex
100
AcDb2dVertex
 10
86.36448551618228
 20
42.72124312488058
 30
0.0
  0
VERTEX
  5
38B
330
386
100
AcDbEntity
  8
DIBUJOS
 62
     7
100
AcDbVertex
100
AcDb2dVertex
 10
86.37444179994435
 20
42.76411534549383
 30
0.0
  0
VERTEX
  5
38C
330
386
100
AcDbEntity
  8
DIBUJOS
 62
     7
100
AcDbVertex
100
AcDb2dVertex
 10
86.3826215703291
 20
42.79987041283754
 30
0.0
  0
VERTEX
  5
38D
330
386
100
AcDbEntity
  8
DIBUJOS
 62
     7
100
AcDbVertex
100
AcDb2dVertex
 10
86.37838852288637
 20
42.80652361627218
 30
0.0
  0
VERTEX
  5
38E
330
386
100
AcDbEntity
  8
DIBUJOS
 62
     7
100
AcDbVertex
100
AcDb2dVertex
 10
86.36645725080986
 20
42.83966102980553
 30
0.0
  0
VERTEX
  5
38F
330
386
100
AcDbEntity
  8
DIBUJOS
 62
     7
100
AcDbVertex
100
AcDb2dVertex
 10
86.34031061802796
 20
42.87245170188249
 30
0.0
  0
SEQEND
  5
390
330
386
100
AcDbEntity
  8
DIBUJOS
 62
     7
  0
POLYLINE
  5
391
330
246
100
AcDbEntity
  8
DIBUJOS
 62
     7
100
AcDb2dPolyline
 66
     1
 10
0.0
 20
0.0
 30
0.0
  0
VERTEX
  5
392
330
391
100
AcDbEntity
  8
DIBUJOS
 62
     7
100
AcDbVertex
100
AcDb2dVertex
 10
79.97553497239717
 20
42.53979315805662
 30
0.0
  0
VERTEX
  5
393
330
391
100
AcDbEntity
  8
DIBUJOS
 62
     7
100
AcDbVertex
100
AcDb2dVertex
 10
79.97553497239717
 20
42.54584241275705
 30
0.0
  0
SEQEND
  5
394
330
391
100
AcDbEntity
  8
DIBUJOS
 62
     7
  0
POLYLINE
  5
395
330
246
100
AcDbEntity
  8
DIBUJOS
 62
     7
100
AcDb2dPolyline
 66
     1
 10
0.0
 20
0.0
 30
0.0
  0
VERTEX
  5
396
330
395
100
AcDbEntity
  8
DIBUJOS
 62
     7
100
AcDbVertex
100
AcDb2dVertex
 10
79.98158032377965
 20
42.53979315805662
 30
0.0
  0
VERTEX
  5
397
330
395
100
AcDbEntity
  8
DIBUJOS
 62
     7
100
AcDbVertex
100
AcDb2dVertex
 10
79.97553497239717
 20
42.53979315805662
 30
0.0
  0
SEQEND
  5
398
330
395
100
AcDbEntity
  8
DIBUJOS
 62
     7
  0
POLYLINE
  5
399
330
246
100
AcDbEntity
  8
DIBUJOS
 62
     7
100
AcDb2dPolyline
 66
     1
 10
0.0
 20
0.0
 30
0.0
  0
VERTEX
  5
39A
330
399
100
AcDbEntity
  8
DIBUJOS
 62
     7
100
AcDbVertex
100
AcDb2dVertex
 10
80.18104763620794
 20
42.53979315805662
 30
0.0
  0
VERTEX
  5
39B
330
399
100
AcDbEntity
  8
DIBUJOS
 62
     7
100
AcDbVertex
100
AcDb2dVertex
 10
79.98158032377965
 20
42.53979315805662
 30
0.0
  0
SEQEND
  5
39C
330
399
100
AcDbEntity
  8
DIBUJOS
 62
     7
  0
POLYLINE
  5
39D
330
246
100
AcDbEntity
  8
DIBUJOS
 62
     7
100
AcDb2dPolyline
 66
     1
 10
0.0
 20
0.0
 30
0.0
  0
VERTEX
  5
39E
330
39D
100
AcDbEntity
  8
DIBUJOS
 62
     7
100
AcDbVertex
100
AcDb2dVertex
 10
80.18708973390292
 20
42.53979315805662
 30
0.0
  0
VERTEX
  5
39F
330
39D
100
AcDbEntity
  8
DIBUJOS
 62
     7
100
AcDbVertex
100
AcDb2dVertex
 10
80.18104763620794
 20
42.53979315805662
 30
0.0
  0
SEQEND
  5
3A0
330
39D
100
AcDbEntity
  8
DIBUJOS
 62
     7
  0
POLYLINE
  5
3A1
330
246
100
AcDbEntity
  8
DIBUJOS
 62
     7
100
AcDb2dPolyline
 66
     1
 10
0.0
 20
0.0
 30
0.0
  0
VERTEX
  5
3A2
330
3A1
100
AcDbEntity
  8
DIBUJOS
 62
     7
100
AcDbVertex
100
AcDb2dVertex
 10
80.18708973390292
 20
42.53979315805662
 30
0.0
  0
VERTEX
  5
3A3
330
3A1
100
AcDbEntity
  8
DIBUJOS
 62
     7
100
AcDbVertex
100
AcDb2dVertex
 10
80.19313508528477
 20
42.54584241275705
 30
0.0
  0
VERTEX
  5
3A4
330
3A1
100
AcDbEntity
  8
DIBUJOS
 62
     7
100
AcDbVertex
100
AcDb2dVertex
 10
80.19313508528477
 20
42.67285722674472
 30
0.0
  0
SEQEND
  5
3A5
330
3A1
100
AcDbEntity
  8
DIBUJOS
 62
     7
  0
POLYLINE
  5
3A6
330
246
100
AcDbEntity
  8
DIBUJOS
 62
     7
100
AcDb2dPolyline
 66
     1
 10
0.0
 20
0.0
 30
0.0
  0
VERTEX
  5
3A7
330
3A6
100
AcDbEntity
  8
DIBUJOS
 62
     7
100
AcDbVertex
100
AcDb2dVertex
 10
83.0521470413031
 20
42.53979315805662
 30
0.0
  0
VERTEX
  5
3A8
330
3A6
100
AcDbEntity
  8
DIBUJOS
 62
     7
100
AcDbVertex
100
AcDb2dVertex
 10
83.04610168992126
 20
42.54584241275705
 30
0.0
  0
VERTEX
  5
3A9
330
3A6
100
AcDbEntity
  8
DIBUJOS
 62
     7
100
AcDbVertex
100
AcDb2dVertex
 10
83.04610168992126
 20
42.66680797204397
 30
0.0
  0
SEQEND
  5
3AA
330
3A6
100
AcDbEntity
  8
DIBUJOS
 62
     7
  0
POLYLINE
  5
3AB
330
246
100
AcDbEntity
  8
DIBUJOS
 62
     7
100
AcDb2dPolyline
 66
     1
 10
0.0
 20
0.0
 30
0.0
  0
VERTEX
  5
3AC
330
3AB
100
AcDbEntity
  8
DIBUJOS
 62
     7
100
AcDbVertex
100
AcDb2dVertex
 10
83.0581891389981
 20
42.53979315805662
 30
0.0
  0
VERTEX
  5
3AD
330
3AB
100
AcDbEntity
  8
DIBUJOS
 62
     7
100
AcDbVertex
100
AcDb2dVertex
 10
83.0521470413031
 20
42.53979315805662
 30
0.0
  0
SEQEND
  5
3AE
330
3AB
100
AcDbEntity
  8
DIBUJOS
 62
     7
  0
POLYLINE
  5
3AF
330
246
100
AcDbEntity
  8
DIBUJOS
 62
     7
100
AcDb2dPolyline
 66
     1
 10
0.0
 20
0.0
 30
0.0
  0
VERTEX
  5
3B0
330
3AF
100
AcDbEntity
  8
DIBUJOS
 62
     7
100
AcDbVertex
100
AcDb2dVertex
 10
83.07632193945807
 20
42.53979315805662
 30
0.0
  0
VERTEX
  5
3B1
330
3AF
100
AcDbEntity
  8
DIBUJOS
 62
     7
100
AcDbVertex
100
AcDb2dVertex
 10
83.0581891389981
 20
42.53979315805662
 30
0.0
  0
SEQEND
  5
3B2
330
3AF
100
AcDbEntity
  8
DIBUJOS
 62
     7
  0
POLYLINE
  5
3B3
330
246
100
AcDbEntity
  8
DIBUJOS
 62
     7
100
AcDb2dPolyline
 66
     1
 10
0.0
 20
0.0
 30
0.0
  0
VERTEX
  5
3B4
330
3B3
100
AcDbEntity
  8
DIBUJOS
 62
     7
100
AcDbVertex
100
AcDb2dVertex
 10
83.08236729083993
 20
42.53979315805662
 30
0.0
  0
VERTEX
  5
3B5
330
3B3
100
AcDbEntity
  8
DIBUJOS
 62
     7
100
AcDbVertex
100
AcDb2dVertex
 10
83.07632193945807
 20
42.53979315805662
 30
0.0
  0
SEQEND
  5
3B6
330
3B3
100
AcDbEntity
  8
DIBUJOS
 62
     7
  0
POLYLINE
  5
3B7
330
246
100
AcDbEntity
  8
DIBUJOS
 62
     7
100
AcDb2dPolyline
 66
     1
 10
0.0
 20
0.0
 30
0.0
  0
VERTEX
  5
3B8
330
3B7
100
AcDbEntity
  8
DIBUJOS
 62
     7
100
AcDbVertex
100
AcDb2dVertex
 10
83.08236729083993
 20
42.53979315805662
 30
0.0
  0
VERTEX
  5
3B9
330
3B7
100
AcDbEntity
  8
DIBUJOS
 62
     7
100
AcDbVertex
100
AcDb2dVertex
 10
83.08236729083993
 20
42.54584241275705
 30
0.0
  0
SEQEND
  5
3BA
330
3B7
100
AcDbEntity
  8
DIBUJOS
 62
     7
  0
POLYLINE
  5
3BB
330
246
100
AcDbEntity
  8
DIBUJOS
 62
     7
100
AcDb2dPolyline
 66
     1
 10
0.0
 20
0.0
 30
0.0
  0
VERTEX
  5
3BC
330
3BB
100
AcDbEntity
  8
DIBUJOS
 62
     7
100
AcDbVertex
100
AcDb2dVertex
 10
83.08841264222241
 20
42.53979315805662
 30
0.0
  0
VERTEX
  5
3BD
330
3BB
100
AcDbEntity
  8
DIBUJOS
 62
     7
100
AcDbVertex
100
AcDb2dVertex
 10
83.08236729083993
 20
42.53979315805662
 30
0.0
  0
SEQEND
  5
3BE
330
3BB
100
AcDbEntity
  8
DIBUJOS
 62
     7
  0
POLYLINE
  5
3BF
330
246
100
AcDbEntity
  8
DIBUJOS
 62
     7
100
AcDb2dPolyline
 66
     1
 10
0.0
 20
0.0
 30
0.0
  0
VERTEX
  5
3C0
330
3BF
100
AcDbEntity
  8
DIBUJOS
 62
     7
100
AcDbVertex
100
AcDb2dVertex
 10
83.29392205234568
 20
42.53979315805662
 30
0.0
  0
VERTEX
  5
3C1
330
3BF
100
AcDbEntity
  8
DIBUJOS
 62
     7
100
AcDbVertex
100
AcDb2dVertex
 10
83.08841264222241
 20
42.53979315805662
 30
0.0
  0
SEQEND
  5
3C2
330
3BF
100
AcDbEntity
  8
DIBUJOS
 62
     7
  0
POLYLINE
  5
3C3
330
246
100
AcDbEntity
  8
DIBUJOS
 62
     7
100
AcDb2dPolyline
 66
     1
 10
0.0
 20
0.0
 30
0.0
  0
VERTEX
  5
3C4
330
3C3
100
AcDbEntity
  8
DIBUJOS
 62
     7
100
AcDbVertex
100
AcDb2dVertex
 10
83.29996740372817
 20
42.53979315805662
 30
0.0
  0
VERTEX
  5
3C5
330
3C3
100
AcDbEntity
  8
DIBUJOS
 62
     7
100
AcDbVertex
100
AcDb2dVertex
 10
83.29392205234568
 20
42.53979315805662
 30
0.0
  0
SEQEND
  5
3C6
330
3C3
100
AcDbEntity
  8
DIBUJOS
 62
     7
  0
POLYLINE
  5
3C7
330
246
100
AcDbEntity
  8
DIBUJOS
 62
     7
100
AcDb2dPolyline
 66
     1
 10
0.0
 20
0.0
 30
0.0
  0
VERTEX
  5
3C8
330
3C7
100
AcDbEntity
  8
DIBUJOS
 62
     7
100
AcDbVertex
100
AcDb2dVertex
 10
83.29996740372817
 20
42.53979315805662
 30
0.0
  0
VERTEX
  5
3C9
330
3C7
100
AcDbEntity
  8
DIBUJOS
 62
     7
100
AcDbVertex
100
AcDb2dVertex
 10
83.29996740372817
 20
42.54584241275705
 30
0.0
  0
SEQEND
  5
3CA
330
3C7
100
AcDbEntity
  8
DIBUJOS
 62
     7
  0
POLYLINE
  5
3CB
330
246
100
AcDbEntity
  8
DIBUJOS
 62
     7
100
AcDb2dPolyline
 66
     1
 10
0.0
 20
0.0
 30
0.0
  0
VERTEX
  5
3CC
330
3CB
100
AcDbEntity
  8
DIBUJOS
 62
     7
100
AcDbVertex
100
AcDb2dVertex
 10
86.15897610605901
 20
42.53979315805662
 30
0.0
  0
VERTEX
  5
3CD
330
3CB
100
AcDbEntity
  8
DIBUJOS
 62
     7
100
AcDbVertex
100
AcDb2dVertex
 10
86.15293400836401
 20
42.54584241275705
 30
0.0
  0
VERTEX
  5
3CE
330
3CB
100
AcDbEntity
  8
DIBUJOS
 62
     7
100
AcDbVertex
100
AcDb2dVertex
 10
86.15293400836401
 20
42.67285722674472
 30
0.0
  0
SEQEND
  5
3CF
330
3CB
100
AcDbEntity
  8
DIBUJOS
 62
     7
  0
POLYLINE
  5
3D0
330
246
100
AcDbEntity
  8
DIBUJOS
 62
     7
100
AcDb2dPolyline
 66
     1
 10
0.0
 20
0.0
 30
0.0
  0
VERTEX
  5
3D1
330
3D0
100
AcDbEntity
  8
DIBUJOS
 62
     7
100
AcDbVertex
100
AcDb2dVertex
 10
86.16502145744086
 20
42.53979315805662
 30
0.0
  0
VERTEX
  5
3D2
330
3D0
100
AcDbEntity
  8
DIBUJOS
 62
     7
100
AcDbVertex
100
AcDb2dVertex
 10
86.15897610605901
 20
42.53979315805662
 30
0.0
  0
SEQEND
  5
3D3
330
3D0
100
AcDbEntity
  8
DIBUJOS
 62
     7
  0
POLYLINE
  5
3D4
330
246
100
AcDbEntity
  8
DIBUJOS
 62
     7
100
AcDb2dPolyline
 66
     1
 10
0.0
 20
0.0
 30
0.0
  0
VERTEX
  5
3D5
330
3D4
100
AcDbEntity
  8
DIBUJOS
 62
     7
100
AcDbVertex
100
AcDb2dVertex
 10
86.36448551618228
 20
42.53979315805662
 30
0.0
  0
VERTEX
  5
3D6
330
3D4
100
AcDbEntity
  8
DIBUJOS
 62
     7
100
AcDbVertex
100
AcDb2dVertex
 10
86.16502145744086
 20
42.53979315805662
 30
0.0
  0
SEQEND
  5
3D7
330
3D4
100
AcDbEntity
  8
DIBUJOS
 62
     7
  0
POLYLINE
  5
3D8
330
246
100
AcDbEntity
  8
DIBUJOS
 62
     7
100
AcDb2dPolyline
 66
     1
 10
0.0
 20
0.0
 30
0.0
  0
VERTEX
  5
3D9
330
3D8
100
AcDbEntity
  8
DIBUJOS
 62
     7
100
AcDbVertex
100
AcDb2dVertex
 10
86.37053086756413
 20
42.53979315805662
 30
0.0
  0
VERTEX
  5
3DA
330
3D8
100
AcDbEntity
  8
DIBUJOS
 62
     7
100
AcDbVertex
100
AcDb2dVertex
 10
86.36448551618228
 20
42.53979315805662
 30
0.0
  0
SEQEND
  5
3DB
330
3D8
100
AcDbEntity
  8
DIBUJOS
 62
     7
  0
POLYLINE
  5
3DC
330
246
100
AcDbEntity
  8
DIBUJOS
 62
     7
100
AcDb2dPolyline
 66
     1
 10
0.0
 20
0.0
 30
0.0
  0
VERTEX
  5
3DD
330
3DC
100
AcDbEntity
  8
DIBUJOS
 62
     7
100
AcDbVertex
100
AcDb2dVertex
 10
86.37053086756413
 20
42.53979315805662
 30
0.0
  0
VERTEX
  5
3DE
330
3DC
100
AcDbEntity
  8
DIBUJOS
 62
     7
100
AcDbVertex
100
AcDb2dVertex
 10
86.37053086756413
 20
42.54584241275705
 30
0.0
  0
SEQEND
  5
3DF
330
3DC
100
AcDbEntity
  8
DIBUJOS
 62
     7
  0
POLYLINE
  5
3E0
330
246
100
AcDbEntity
  8
DIBUJOS
 62
     7
100
AcDb2dPolyline
 66
     1
 10
0.0
 20
0.0
 30
0.0
  0
VERTEX
  5
3E1
330
3E0
100
AcDbEntity
  8
DIBUJOS
 62
     7
100
AcDbVertex
100
AcDb2dVertex
 10
79.97553497239717
 20
42.53374553124976
 30
0.0
  0
VERTEX
  5
3E2
330
3E0
100
AcDbEntity
  8
DIBUJOS
 62
     7
100
AcDbVertex
100
AcDb2dVertex
 10
79.97553497239717
 20
42.53979315805662
 30
0.0
  0
SEQEND
  5
3E3
330
3E0
100
AcDbEntity
  8
DIBUJOS
 62
     7
  0
POLYLINE
  5
3E4
330
246
100
AcDbEntity
  8
DIBUJOS
 62
     7
100
AcDb2dPolyline
 66
     1
 10
0.0
 20
0.0
 30
0.0
  0
VERTEX
  5
3E5
330
3E4
100
AcDbEntity
  8
DIBUJOS
 62
     7
100
AcDbVertex
100
AcDb2dVertex
 10
80.18708973390292
 20
42.53374553124976
 30
0.0
  0
VERTEX
  5
3E6
330
3E4
100
AcDbEntity
  8
DIBUJOS
 62
     7
100
AcDbVertex
100
AcDb2dVertex
 10
80.18708973390292
 20
42.53979315805662
 30
0.0
  0
SEQEND
  5
3E7
330
3E4
100
AcDbEntity
  8
DIBUJOS
 62
     7
  0
POLYLINE
  5
3E8
330
246
100
AcDbEntity
  8
DIBUJOS
 62
     7
100
AcDb2dPolyline
 66
     1
 10
0.0
 20
0.0
 30
0.0
  0
VERTEX
  5
3E9
330
3E8
100
AcDbEntity
  8
DIBUJOS
 62
     7
100
AcDbVertex
100
AcDb2dVertex
 10
83.0521470413031
 20
42.53374553124976
 30
0.0
  0
VERTEX
  5
3EA
330
3E8
100
AcDbEntity
  8
DIBUJOS
 62
     7
100
AcDbVertex
100
AcDb2dVertex
 10
83.0521470413031
 20
42.53979315805662
 30
0.0
  0
SEQEND
  5
3EB
330
3E8
100
AcDbEntity
  8
DIBUJOS
 62
     7
  0
POLYLINE
  5
3EC
330
246
100
AcDbEntity
  8
DIBUJOS
 62
     7
100
AcDb2dPolyline
 66
     1
 10
0.0
 20
0.0
 30
0.0
  0
VERTEX
  5
3ED
330
3EC
100
AcDbEntity
  8
DIBUJOS
 62
     7
100
AcDbVertex
100
AcDb2dVertex
 10
83.08236729083993
 20
42.53374553124976
 30
0.0
  0
VERTEX
  5
3EE
330
3EC
100
AcDbEntity
  8
DIBUJOS
 62
     7
100
AcDbVertex
100
AcDb2dVertex
 10
83.08236729083993
 20
42.53979315805662
 30
0.0
  0
SEQEND
  5
3EF
330
3EC
100
AcDbEntity
  8
DIBUJOS
 62
     7
  0
POLYLINE
  5
3F0
330
246
100
AcDbEntity
  8
DIBUJOS
 62
     7
100
AcDb2dPolyline
 66
     1
 10
0.0
 20
0.0
 30
0.0
  0
VERTEX
  5
3F1
330
3F0
100
AcDbEntity
  8
DIBUJOS
 62
     7
100
AcDbVertex
100
AcDb2dVertex
 10
83.29996740372817
 20
42.53374553124976
 30
0.0
  0
VERTEX
  5
3F2
330
3F0
100
AcDbEntity
  8
DIBUJOS
 62
     7
100
AcDbVertex
100
AcDb2dVertex
 10
83.29996740372817
 20
42.53979315805662
 30
0.0
  0
SEQEND
  5
3F3
330
3F0
100
AcDbEntity
  8
DIBUJOS
 62
     7
  0
POLYLINE
  5
3F4
330
246
100
AcDbEntity
  8
DIBUJOS
 62
     7
100
AcDb2dPolyline
 66
     1
 10
0.0
 20
0.0
 30
0.0
  0
VERTEX
  5
3F5
330
3F4
100
AcDbEntity
  8
DIBUJOS
 62
     7
100
AcDbVertex
100
AcDb2dVertex
 10
86.15897610605901
 20
42.53374553124976
 30
0.0
  0
VERTEX
  5
3F6
330
3F4
100
AcDbEntity
  8
DIBUJOS
 62
     7
100
AcDbVertex
100
AcDb2dVertex
 10
86.15897610605901
 20
42.53979315805662
 30
0.0
  0
SEQEND
  5
3F7
330
3F4
100
AcDbEntity
  8
DIBUJOS
 62
     7
  0
POLYLINE
  5
3F8
330
246
100
AcDbEntity
  8
DIBUJOS
 62
     7
100
AcDb2dPolyline
 66
     1
 10
0.0
 20
0.0
 30
0.0
  0
VERTEX
  5
3F9
330
3F8
100
AcDbEntity
  8
DIBUJOS
 62
     7
100
AcDbVertex
100
AcDb2dVertex
 10
86.37053086756413
 20
42.53374553124976
 30
0.0
  0
VERTEX
  5
3FA
330
3F8
100
AcDbEntity
  8
DIBUJOS
 62
     7
100
AcDbVertex
100
AcDb2dVertex
 10
86.37053086756413
 20
42.53979315805662
 30
0.0
  0
SEQEND
  5
3FB
330
3F8
100
AcDbEntity
  8
DIBUJOS
 62
     7
  0
POLYLINE
  5
3FC
330
246
100
AcDbEntity
  8
DIBUJOS
 62
     7
100
AcDb2dPolyline
 66
     1
 10
0.0
 20
0.0
 30
0.0
  0
VERTEX
  5
3FD
330
3FC
100
AcDbEntity
  8
DIBUJOS
 62
     7
100
AcDbVertex
100
AcDb2dVertex
 10
83.10654544268175
 20
42.45511661539828
 30
0.0
  0
VERTEX
  5
3FE
330
3FC
100
AcDbEntity
  8
DIBUJOS
 62
     7
100
AcDbVertex
100
AcDb2dVertex
 10
83.09585057185669
 20
42.46814465236535
 30
0.0
  0
VERTEX
  5
3FF
330
3FC
100
AcDbEntity
  8
DIBUJOS
 62
     7
100
AcDbVertex
100
AcDb2dVertex
 10
83.08481731753035
 20
42.50391274286241
 30
0.0
  0
VERTEX
  5
400
330
3FC
100
AcDbEntity
  8
DIBUJOS
 62
     7
100
AcDbVertex
100
AcDb2dVertex
 10
83.08236729083993
 20
42.53374553124976
 30
0.0
  0
SEQEND
  5
401
330
3FC
100
AcDbEntity
  8
DIBUJOS
 62
     7
  0
POLYLINE
  5
402
330
246
100
AcDbEntity
  8
DIBUJOS
 62
     7
100
AcDb2dPolyline
 66
     1
 10
0.0
 20
0.0
 30
0.0
  0
VERTEX
  5
403
330
402
100
AcDbEntity
  8
DIBUJOS
 62
     7
100
AcDbVertex
100
AcDb2dVertex
 10
83.10654544268175
 20
42.44906898859175
 30
0.0
  0
VERTEX
  5
404
330
402
100
AcDbEntity
  8
DIBUJOS
 62
     7
100
AcDbVertex
100
AcDb2dVertex
 10
83.10654544268175
 20
42.45511661539828
 30
0.0
  0
SEQEND
  5
405
330
402
100
AcDbEntity
  8
DIBUJOS
 62
     7
  0
POLYLINE
  5
406
330
246
100
AcDbEntity
  8
DIBUJOS
 62
     7
100
AcDb2dPolyline
 66
     1
 10
0.0
 20
0.0
 30
0.0
  0
VERTEX
  5
407
330
406
100
AcDbEntity
  8
DIBUJOS
 62
     7
100
AcDbVertex
100
AcDb2dVertex
 10
83.11259079406359
 20
42.44906898859175
 30
0.0
  0
VERTEX
  5
408
330
406
100
AcDbEntity
  8
DIBUJOS
 62
     7
100
AcDbVertex
100
AcDb2dVertex
 10
83.10654544268175
 20
42.44906898859175
 30
0.0
  0
SEQEND
  5
409
330
406
100
AcDbEntity
  8
DIBUJOS
 62
     7
  0
POLYLINE
  5
40A
330
246
100
AcDbEntity
  8
DIBUJOS
 62
     7
100
AcDb2dPolyline
 66
     1
 10
0.0
 20
0.0
 30
0.0
  0
VERTEX
  5
40B
330
40A
100
AcDbEntity
  8
DIBUJOS
 62
     7
100
AcDbVertex
100
AcDb2dVertex
 10
79.97553497239717
 20
42.53374553124976
 30
0.0
  0
VERTEX
  5
40C
330
40A
100
AcDbEntity
  8
DIBUJOS
 62
     7
100
AcDbVertex
100
AcDb2dVertex
 10
79.98158032377965
 20
42.47326275160663
 30
0.0
  0
VERTEX
  5
40D
330
40A
100
AcDbEntity
  8
DIBUJOS
 62
     7
100
AcDbVertex
100
AcDb2dVertex
 10
80.01119864112758
 20
42.44785946323037
 30
0.0
  0
VERTEX
  5
40E
330
40A
100
AcDbEntity
  8
DIBUJOS
 62
     7
100
AcDbVertex
100
AcDb2dVertex
 10
80.01784592469832
 20
42.44301973389068
 30
0.0
  0
VERTEX
  5
40F
330
40A
100
AcDbEntity
  8
DIBUJOS
 62
     7
100
AcDbVertex
100
AcDb2dVertex
 10
80.14477878160177
 20
42.44301973389068
 30
0.0
  0
VERTEX
  5
410
330
40A
100
AcDbEntity
  8
DIBUJOS
 62
     7
100
AcDbVertex
100
AcDb2dVertex
 10
80.1689569334436
 20
42.45511661539828
 30
0.0
  0
VERTEX
  5
411
330
40A
100
AcDbEntity
  8
DIBUJOS
 62
     7
100
AcDbVertex
100
AcDb2dVertex
 10
80.18225475427194
 20
42.47265717497883
 30
0.0
  0
VERTEX
  5
412
330
40A
100
AcDbEntity
  8
DIBUJOS
 62
     7
100
AcDbVertex
100
AcDb2dVertex
 10
80.19313508528477
 20
42.49745488672729
 30
0.0
  0
VERTEX
  5
413
330
40A
100
AcDbEntity
  8
DIBUJOS
 62
     7
100
AcDbVertex
100
AcDb2dVertex
 10
80.19313508528477
 20
42.5276962765487
 30
0.0
  0
VERTEX
  5
414
330
40A
100
AcDbEntity
  8
DIBUJOS
 62
     7
100
AcDbVertex
100
AcDb2dVertex
 10
80.18708973390292
 20
42.53374553124976
 30
0.0
  0
SEQEND
  5
415
330
40A
100
AcDbEntity
  8
DIBUJOS
 62
     7
  0
POLYLINE
  5
416
330
246
100
AcDbEntity
  8
DIBUJOS
 62
     7
100
AcDb2dPolyline
 66
     1
 10
0.0
 20
0.0
 30
0.0
  0
VERTEX
  5
417
330
416
100
AcDbEntity
  8
DIBUJOS
 62
     7
100
AcDbVertex
100
AcDb2dVertex
 10
83.0521470413031
 20
42.53374553124976
 30
0.0
  0
VERTEX
  5
418
330
416
100
AcDbEntity
  8
DIBUJOS
 62
     7
100
AcDbVertex
100
AcDb2dVertex
 10
83.04610168992126
 20
42.5276962765487
 30
0.0
  0
VERTEX
  5
419
330
416
100
AcDbEntity
  8
DIBUJOS
 62
     7
100
AcDbVertex
100
AcDb2dVertex
 10
83.04610168992126
 20
42.48535800522001
 30
0.0
  0
VERTEX
  5
41A
330
416
100
AcDbEntity
  8
DIBUJOS
 62
     7
100
AcDbVertex
100
AcDb2dVertex
 10
83.0521470413031
 20
42.47326275160663
 30
0.0
  0
VERTEX
  5
41B
330
416
100
AcDbEntity
  8
DIBUJOS
 62
     7
100
AcDbVertex
100
AcDb2dVertex
 10
83.08176210496417
 20
42.44785946323037
 30
0.0
  0
VERTEX
  5
41C
330
416
100
AcDbEntity
  8
DIBUJOS
 62
     7
100
AcDbVertex
100
AcDb2dVertex
 10
83.08841264222241
 20
42.44301973389068
 30
0.0
  0
VERTEX
  5
41D
330
416
100
AcDbEntity
  8
DIBUJOS
 62
     7
100
AcDbVertex
100
AcDb2dVertex
 10
83.10050009129925
 20
42.44301973389068
 30
0.0
  0
VERTEX
  5
41E
330
416
100
AcDbEntity
  8
DIBUJOS
 62
     7
100
AcDbVertex
100
AcDb2dVertex
 10
83.10654544268175
 20
42.44906898859175
 30
0.0
  0
SEQEND
  5
41F
330
416
100
AcDbEntity
  8
DIBUJOS
 62
     7
  0
POLYLINE
  5
420
330
246
100
AcDbEntity
  8
DIBUJOS
 62
     7
100
AcDb2dPolyline
 66
     1
 10
0.0
 20
0.0
 30
0.0
  0
VERTEX
  5
421
330
420
100
AcDbEntity
  8
DIBUJOS
 62
     7
100
AcDbVertex
100
AcDb2dVertex
 10
83.11259079406359
 20
42.44906898859175
 30
0.0
  0
VERTEX
  5
422
330
420
100
AcDbEntity
  8
DIBUJOS
 62
     7
100
AcDbVertex
100
AcDb2dVertex
 10
83.11863289175858
 20
42.44301973389068
 30
0.0
  0
VERTEX
  5
423
330
420
100
AcDbEntity
  8
DIBUJOS
 62
     7
100
AcDbVertex
100
AcDb2dVertex
 10
83.25765645142702
 20
42.44301973389068
 30
0.0
  0
VERTEX
  5
424
330
420
100
AcDbEntity
  8
DIBUJOS
 62
     7
100
AcDbVertex
100
AcDb2dVertex
 10
83.26974390050385
 20
42.44906898859175
 30
0.0
  0
VERTEX
  5
425
330
420
100
AcDbEntity
  8
DIBUJOS
 62
     7
100
AcDbVertex
100
AcDb2dVertex
 10
83.29513242409718
 20
42.47870480178537
 30
0.0
  0
VERTEX
  5
426
330
420
100
AcDbEntity
  8
DIBUJOS
 62
     7
100
AcDbVertex
100
AcDb2dVertex
 10
83.30299007941878
 20
42.5276962765487
 30
0.0
  0
VERTEX
  5
427
330
420
100
AcDbEntity
  8
DIBUJOS
 62
     7
100
AcDbVertex
100
AcDb2dVertex
 10
83.29996740372817
 20
42.53374553124976
 30
0.0
  0
SEQEND
  5
428
330
420
100
AcDbEntity
  8
DIBUJOS
 62
     7
  0
POLYLINE
  5
429
330
246
100
AcDbEntity
  8
DIBUJOS
 62
     7
100
AcDb2dPolyline
 66
     1
 10
0.0
 20
0.0
 30
0.0
  0
VERTEX
  5
42A
330
429
100
AcDbEntity
  8
DIBUJOS
 62
     7
100
AcDbVertex
100
AcDb2dVertex
 10
86.15897610605901
 20
42.53374553124976
 30
0.0
  0
VERTEX
  5
42B
330
429
100
AcDbEntity
  8
DIBUJOS
 62
     7
100
AcDbVertex
100
AcDb2dVertex
 10
86.15293400836401
 20
42.5276962765487
 30
0.0
  0
VERTEX
  5
42C
330
429
100
AcDbEntity
  8
DIBUJOS
 62
     7
100
AcDbVertex
100
AcDb2dVertex
 10
86.1568449407436
 20
42.49692093744241
 30
0.0
  0
VERTEX
  5
42D
330
429
100
AcDbEntity
  8
DIBUJOS
 62
     7
100
AcDbVertex
100
AcDb2dVertex
 10
86.16502145744086
 20
42.46721349690556
 30
0.0
  0
VERTEX
  5
42E
330
429
100
AcDbEntity
  8
DIBUJOS
 62
     7
100
AcDbVertex
100
AcDb2dVertex
 10
86.19463977478942
 20
42.44785946323037
 30
0.0
  0
VERTEX
  5
42F
330
429
100
AcDbEntity
  8
DIBUJOS
 62
     7
100
AcDbVertex
100
AcDb2dVertex
 10
86.20128705836017
 20
42.44301973389068
 30
0.0
  0
VERTEX
  5
430
330
429
100
AcDbEntity
  8
DIBUJOS
 62
     7
100
AcDbVertex
100
AcDb2dVertex
 10
86.32821991526362
 20
42.44301973389068
 30
0.0
  0
VERTEX
  5
431
330
429
100
AcDbEntity
  8
DIBUJOS
 62
     7
100
AcDbVertex
100
AcDb2dVertex
 10
86.34031061802796
 20
42.44906898859175
 30
0.0
  0
VERTEX
  5
432
330
429
100
AcDbEntity
  8
DIBUJOS
 62
     7
100
AcDbVertex
100
AcDb2dVertex
 10
86.36448551618228
 20
42.47326275160663
 30
0.0
  0
VERTEX
  5
433
330
429
100
AcDbEntity
  8
DIBUJOS
 62
     7
100
AcDbVertex
100
AcDb2dVertex
 10
86.36808084087369
 20
42.48576660665407
 30
0.0
  0
VERTEX
  5
434
330
429
100
AcDbEntity
  8
DIBUJOS
 62
     7
100
AcDbVertex
100
AcDb2dVertex
 10
86.37657621894726
 20
42.5276962765487
 30
0.0
  0
VERTEX
  5
435
330
429
100
AcDbEntity
  8
DIBUJOS
 62
     7
100
AcDbVertex
100
AcDb2dVertex
 10
86.37053086756413
 20
42.53374553124976
 30
0.0
  0
SEQEND
  5
436
330
429
100
AcDbEntity
  8
DIBUJOS
 62
     7
  0
ENDBLK
  5
249
330
246
100
AcDbEntity
  8
0
100
AcDbBlockEnd
  0
BLOCK
  5
439
330
437
100
AcDbEntity
  8
0
100
AcDbBlockBegin
  2
BLOCK_3
 70
     0
 10
0.0
 20
0.0
 30
0.0
  3
BLOCK_3
  1

  0
POLYLINE
  5
43B
330
437
100
AcDbEntity
  8
DIBUJOS
 62
     7
100
AcDb2dPolyline
 66
     1
 10
0.0
 20
0.0
 30
0.0
  0
VERTEX
  5
43C
330
43B
100
AcDbEntity
  8
DIBUJOS
 62
     7
100
AcDbVertex
100
AcDb2dVertex
 10
67.18468619777322
 20
30.03968203722364
 30
0.0
  0
VERTEX
  5
43D
330
43B
100
AcDbEntity
  8
DIBUJOS
 62
     7
100
AcDbVertex
100
AcDb2dVertex
 10
67.17078481791256
 20
30.09351324132635
 30
0.0
  0
VERTEX
  5
43E
330
43B
100
AcDbEntity
  8
DIBUJOS
 62
     7
100
AcDbVertex
100
AcDb2dVertex
 10
67.13977229546879
 20
30.27524157805156
 30
0.0
  0
VERTEX
  5
43F
330
43B
100
AcDbEntity
  8
DIBUJOS
 62
     7
100
AcDbVertex
100
AcDb2dVertex
 10
67.13028616955148
 20
30.41467885237884
 30
0.0
  0
VERTEX
  5
440
330
43B
100
AcDbEntity
  8
DIBUJOS
 62
     7
100
AcDbVertex
100
AcDb2dVertex
 10
67.15074372973243
 20
30.60171086827959
 30
0.0
  0
VERTEX
  5
441
330
43B
100
AcDbEntity
  8
DIBUJOS
 62
     7
100
AcDbVertex
100
AcDb2dVertex
 10
67.16283280565301
 20
30.66824290262348
 30
0.0
  0
VERTEX
  5
442
330
43B
100
AcDbEntity
  8
DIBUJOS
 62
     7
100
AcDbVertex
100
AcDb2dVertex
 10
67.19254385309515
 20
30.77697320939864
 30
0.0
  0
VERTEX
  5
443
330
43B
100
AcDbEntity
  8
DIBUJOS
 62
     7
100
AcDbVertex
100
AcDb2dVertex
 10
67.20495341723546
 20
30.81938310807057
 30
0.0
  0
VERTEX
  5
444
330
43B
100
AcDbEntity
  8
DIBUJOS
 62
     7
100
AcDbVertex
100
AcDb2dVertex
 10
67.25842777136236
 20
30.94632629471533
 30
0.0
  0
VERTEX
  5
445
330
43B
100
AcDbEntity
  8
DIBUJOS
 62
     7
100
AcDbVertex
100
AcDb2dVertex
 10
67.33096060004375
 20
31.07334110870268
 30
0.0
  0
VERTEX
  5
446
330
43B
100
AcDbEntity
  8
DIBUJOS
 62
     7
100
AcDbVertex
100
AcDb2dVertex
 10
67.39167115517968
 20
31.15744137682769
 30
0.0
  0
VERTEX
  5
447
330
43B
100
AcDbEntity
  8
DIBUJOS
 62
     7
100
AcDbVertex
100
AcDb2dVertex
 10
67.41289983929887
 20
31.18399558637542
 30
0.0
  0
VERTEX
  5
448
330
43B
100
AcDbEntity
  8
DIBUJOS
 62
     7
100
AcDbVertex
100
AcDb2dVertex
 10
67.43250656019796
 20
31.21305675293057
 30
0.0
  0
VERTEX
  5
449
330
43B
100
AcDbEntity
  8
DIBUJOS
 62
     7
100
AcDbVertex
100
AcDb2dVertex
 10
67.5594394171011
 20
31.34007156691792
 30
0.0
  0
VERTEX
  5
44A
330
43B
100
AcDbEntity
  8
DIBUJOS
 62
     7
100
AcDbVertex
100
AcDb2dVertex
 10
67.66932783201507
 20
31.42329602798525
 30
0.0
  0
VERTEX
  5
44B
330
43B
100
AcDbEntity
  8
DIBUJOS
 62
     7
100
AcDbVertex
100
AcDb2dVertex
 10
67.70450670130795
 20
31.44894187259113
 30
0.0
  0
SEQEND
  5
44C
330
43B
100
AcDbEntity
  8
DIBUJOS
 62
     7
  0
POLYLINE
  5
44D
330
437
100
AcDbEntity
  8
DIBUJOS
 62
     7
100
AcDb2dPolyline
 66
     1
 10
0.0
 20
0.0
 30
0.0
  0
VERTEX
  5
44E
330
44D
100
AcDbEntity
  8
DIBUJOS
 62
     7
100
AcDbVertex
100
AcDb2dVertex
 10
67.1786424732348
 20
30.03363441041743
 30
0.0
  0
VERTEX
  5
44F
330
44D
100
AcDbEntity
  8
DIBUJOS
 62
     7
100
AcDbVertex
100
AcDb2dVertex
 10
67.06984241679068
 20
30.07597268174612
 30
0.0
  0
VERTEX
  5
450
330
44D
100
AcDbEntity
  8
DIBUJOS
 62
     7
100
AcDbVertex
100
AcDb2dVertex
 10
67.05170961633135
 20
30.09411719006025
 30
0.0
  0
VERTEX
  5
451
330
44D
100
AcDbEntity
  8
DIBUJOS
 62
     7
100
AcDbVertex
100
AcDb2dVertex
 10
66.98038553255738
 20
30.28826798712475
 30
0.0
  0
VERTEX
  5
452
330
44D
100
AcDbEntity
  8
DIBUJOS
 62
     7
100
AcDbVertex
100
AcDb2dVertex
 10
66.92477675942757
 20
30.43282336069297
 30
0.0
  0
SEQEND
  5
453
330
44D
100
AcDbEntity
  8
DIBUJOS
 62
     7
  0
POLYLINE
  5
454
330
437
100
AcDbEntity
  8
DIBUJOS
 62
     7
100
AcDb2dPolyline
 66
     1
 10
0.0
 20
0.0
 30
0.0
  0
VERTEX
  5
455
330
454
100
AcDbEntity
  8
DIBUJOS
 62
     7
100
AcDbVertex
100
AcDb2dVertex
 10
67.18468619777322
 20
30.03363441041743
 30
0.0
  0
VERTEX
  5
456
330
454
100
AcDbEntity
  8
DIBUJOS
 62
     7
100
AcDbVertex
100
AcDb2dVertex
 10
67.1786424732348
 20
30.03363441041743
 30
0.0
  0
SEQEND
  5
457
330
454
100
AcDbEntity
  8
DIBUJOS
 62
     7
  0
POLYLINE
  5
458
330
437
100
AcDbEntity
  8
DIBUJOS
 62
     7
100
AcDb2dPolyline
 66
     1
 10
0.0
 20
0.0
 30
0.0
  0
VERTEX
  5
459
330
458
100
AcDbEntity
  8
DIBUJOS
 62
     7
100
AcDbVertex
100
AcDb2dVertex
 10
67.18468619777322
 20
30.03363441041743
 30
0.0
  0
VERTEX
  5
45A
330
458
100
AcDbEntity
  8
DIBUJOS
 62
     7
100
AcDbVertex
100
AcDb2dVertex
 10
67.18468619777322
 20
30.03968203722364
 30
0.0
  0
SEQEND
  5
45B
330
458
100
AcDbEntity
  8
DIBUJOS
 62
     7
  0
POLYLINE
  5
45C
330
437
100
AcDbEntity
  8
DIBUJOS
 62
     7
100
AcDb2dPolyline
 66
     1
 10
0.0
 20
0.0
 30
0.0
  0
VERTEX
  5
45D
330
45C
100
AcDbEntity
  8
DIBUJOS
 62
     7
100
AcDbVertex
100
AcDb2dVertex
 10
61.31555615752252
 20
29.87032895190696
 30
0.0
  0
VERTEX
  5
45E
330
45C
100
AcDbEntity
  8
DIBUJOS
 62
     7
100
AcDbVertex
100
AcDb2dVertex
 10
61.31216418829946
 20
29.87667285545136
 30
0.0
  0
VERTEX
  5
45F
330
45C
100
AcDbEntity
  8
DIBUJOS
 62
     7
100
AcDbVertex
100
AcDb2dVertex
 10
61.26992481712349
 20
30.34234663114068
 30
0.0
  0
VERTEX
  5
460
330
45C
100
AcDbEntity
  8
DIBUJOS
 62
     7
100
AcDbVertex
100
AcDb2dVertex
 10
61.26447489055459
 20
30.40233453095898
 30
0.0
  0
VERTEX
  5
461
330
45C
100
AcDbEntity
  8
DIBUJOS
 62
     7
100
AcDbVertex
100
AcDb2dVertex
 10
61.26115612930046
 20
30.48725851352958
 30
0.0
  0
VERTEX
  5
462
330
45C
100
AcDbEntity
  8
DIBUJOS
 62
     7
100
AcDbVertex
100
AcDb2dVertex
 10
61.31216418829946
 20
31.0252645104577
 30
0.0
  0
VERTEX
  5
463
330
45C
100
AcDbEntity
  8
DIBUJOS
 62
     7
100
AcDbVertex
100
AcDb2dVertex
 10
61.32977802560227
 20
31.0915572443594
 30
0.0
  0
VERTEX
  5
464
330
45C
100
AcDbEntity
  8
DIBUJOS
 62
     7
100
AcDbVertex
100
AcDb2dVertex
 10
61.4325327306639
 20
31.47864931312831
 30
0.0
  0
VERTEX
  5
465
330
45C
100
AcDbEntity
  8
DIBUJOS
 62
     7
100
AcDbVertex
100
AcDb2dVertex
 10
61.47150214589847
 20
31.6068020251338
 30
0.0
  0
VERTEX
  5
466
330
45C
100
AcDbEntity
  8
DIBUJOS
 62
     7
100
AcDbVertex
100
AcDb2dVertex
 10
61.69514435648139
 20
32.08461989126115
 30
0.0
  0
VERTEX
  5
467
330
45C
100
AcDbEntity
  8
DIBUJOS
 62
     7
100
AcDbVertex
100
AcDb2dVertex
 10
61.92459114557131
 20
32.41776191965336
 30
0.0
  0
VERTEX
  5
468
330
45C
100
AcDbEntity
  8
DIBUJOS
 62
     7
100
AcDbVertex
100
AcDb2dVertex
 10
62.02275327072119
 20
32.56183218076102
 30
0.0
  0
VERTEX
  5
469
330
45C
100
AcDbEntity
  8
DIBUJOS
 62
     7
100
AcDbVertex
100
AcDb2dVertex
 10
62.44586116688863
 20
32.9852148940524
 30
0.0
  0
VERTEX
  5
46A
330
45C
100
AcDbEntity
  8
DIBUJOS
 62
     7
100
AcDbVertex
100
AcDb2dVertex
 10
62.73087931170186
 20
33.18341426389453
 30
0.0
  0
VERTEX
  5
46B
330
45C
100
AcDbEntity
  8
DIBUJOS
 62
     7
100
AcDbVertex
100
AcDb2dVertex
 10
62.89407939636805
 20
33.2983321963746
 30
0.0
  0
VERTEX
  5
46C
330
45C
100
AcDbEntity
  8
DIBUJOS
 62
     7
100
AcDbVertex
100
AcDb2dVertex
 10
63.17179626642238
 20
33.43158184499698
 30
0.0
  0
VERTEX
  5
46D
330
45C
100
AcDbEntity
  8
DIBUJOS
 62
     7
100
AcDbVertex
100
AcDb2dVertex
 10
63.27938757795876
 20
33.48238679385526
 30
0.0
  0
VERTEX
  5
46E
330
45C
100
AcDbEntity
  8
DIBUJOS
 62
     7
100
AcDbVertex
100
AcDb2dVertex
 10
63.44976855094593
 20
33.55767038720683
 30
0.0
  0
VERTEX
  5
46F
330
45C
100
AcDbEntity
  8
DIBUJOS
 62
     7
100
AcDbVertex
100
AcDb2dVertex
 10
63.64816702702932
 20
33.61032625172589
 30
0.0
  0
VERTEX
  5
470
330
45C
100
AcDbEntity
  8
DIBUJOS
 62
     7
100
AcDbVertex
100
AcDb2dVertex
 10
63.99348088182207
 20
33.70223878392808
 30
0.0
  0
VERTEX
  5
471
330
45C
100
AcDbEntity
  8
DIBUJOS
 62
     7
100
AcDbVertex
100
AcDb2dVertex
 10
64.54327435464249
 20
33.75335140478273
 30
0.0
  0
VERTEX
  5
472
330
45C
100
AcDbEntity
  8
DIBUJOS
 62
     7
100
AcDbVertex
100
AcDb2dVertex
 10
64.5858342140382
 20
33.75003050069497
 30
0.0
  0
VERTEX
  5
473
330
45C
100
AcDbEntity
  8
DIBUJOS
 62
     7
100
AcDbVertex
100
AcDb2dVertex
 10
65.13538040660846
 20
33.70223878392808
 30
0.0
  0
VERTEX
  5
474
330
45C
100
AcDbEntity
  8
DIBUJOS
 62
     7
100
AcDbVertex
100
AcDb2dVertex
 10
65.243822557427
 20
33.67290901483629
 30
0.0
  0
VERTEX
  5
475
330
45C
100
AcDbEntity
  8
DIBUJOS
 62
     7
100
AcDbVertex
100
AcDb2dVertex
 10
65.60655990880288
 20
33.57581652341517
 30
0.0
  0
VERTEX
  5
476
330
45C
100
AcDbEntity
  8
DIBUJOS
 62
     7
100
AcDbVertex
100
AcDb2dVertex
 10
65.71649712902958
 20
33.54286957349873
 30
0.0
  0
VERTEX
  5
477
330
45C
100
AcDbEntity
  8
DIBUJOS
 62
     7
100
AcDbVertex
100
AcDb2dVertex
 10
66.20609412934064
 20
33.31303370853858
 30
0.0
  0
VERTEX
  5
478
330
45C
100
AcDbEntity
  8
DIBUJOS
 62
     7
100
AcDbVertex
100
AcDb2dVertex
 10
66.5207305915021
 20
33.09548030502095
 30
0.0
  0
VERTEX
  5
479
330
45C
100
AcDbEntity
  8
DIBUJOS
 62
     7
100
AcDbVertex
100
AcDb2dVertex
 10
66.70717664653965
 20
32.96102113103721
 30
0.0
  0
VERTEX
  5
47A
330
45C
100
AcDbEntity
  8
DIBUJOS
 62
     7
100
AcDbVertex
100
AcDb2dVertex
 10
67.10006429317092
 20
32.56788143546209
 30
0.0
  0
VERTEX
  5
47B
330
45C
100
AcDbEntity
  8
DIBUJOS
 62
     7
100
AcDbVertex
100
AcDb2dVertex
 10
67.24977946997691
 20
32.34921129655039
 30
0.0
  0
VERTEX
  5
47C
330
45C
100
AcDbEntity
  8
DIBUJOS
 62
     7
100
AcDbVertex
100
AcDb2dVertex
 10
67.4068788905729
 20
32.1252651526634
 30
0.0
  0
VERTEX
  5
47D
330
45C
100
AcDbEntity
  8
DIBUJOS
 62
     7
100
AcDbVertex
100
AcDb2dVertex
 10
67.50020440924837
 20
31.93946056895966
 30
0.0
  0
VERTEX
  5
47E
330
45C
100
AcDbEntity
  8
DIBUJOS
 62
     7
100
AcDbVertex
100
AcDb2dVertex
 10
67.53042628562861
 20
31.87292853461578
 30
0.0
  0
VERTEX
  5
47F
330
45C
100
AcDbEntity
  8
DIBUJOS
 62
     7
100
AcDbVertex
100
AcDb2dVertex
 10
67.67215040592481
 20
31.56332585578633
 30
0.0
  0
VERTEX
  5
480
330
45C
100
AcDbEntity
  8
DIBUJOS
 62
     7
100
AcDbVertex
100
AcDb2dVertex
 10
67.70450670130795
 20
31.44894187259113
 30
0.0
  0
SEQEND
  5
481
330
45C
100
AcDbEntity
  8
DIBUJOS
 62
     7
  0
POLYLINE
  5
482
330
437
100
AcDbEntity
  8
DIBUJOS
 62
     7
100
AcDb2dPolyline
 66
     1
 10
0.0
 20
0.0
 30
0.0
  0
VERTEX
  5
483
330
482
100
AcDbEntity
  8
DIBUJOS
 62
     7
100
AcDbVertex
100
AcDb2dVertex
 10
62.20408452900264
 20
30.43887098749983
 30
0.0
  0
VERTEX
  5
484
330
482
100
AcDbEntity
  8
DIBUJOS
 62
     7
100
AcDbVertex
100
AcDb2dVertex
 10
62.29115405333425
 20
30.69471966700802
 30
0.0
  0
VERTEX
  5
485
330
482
100
AcDbEntity
  8
DIBUJOS
 62
     7
100
AcDbVertex
100
AcDb2dVertex
 10
62.31934288391497
 20
30.80040871572367
 30
0.0
  0
VERTEX
  5
486
330
482
100
AcDbEntity
  8
DIBUJOS
 62
     7
100
AcDbVertex
100
AcDb2dVertex
 10
62.48111622197698
 20
31.1944707292361
 30
0.0
  0
VERTEX
  5
487
330
482
100
AcDbEntity
  8
DIBUJOS
 62
     7
100
AcDbVertex
100
AcDb2dVertex
 10
62.64708834719409
 20
31.46921687792578
 30
0.0
  0
VERTEX
  5
488
330
482
100
AcDbEntity
  8
DIBUJOS
 62
     7
100
AcDbVertex
100
AcDb2dVertex
 10
62.71809468636144
 20
31.58803331658193
 30
0.0
  0
VERTEX
  5
489
330
482
100
AcDbEntity
  8
DIBUJOS
 62
     7
100
AcDbVertex
100
AcDb2dVertex
 10
63.02415308448325
 20
31.93720201937244
 30
0.0
  0
VERTEX
  5
48A
330
482
100
AcDbEntity
  8
DIBUJOS
 62
     7
100
AcDbVertex
100
AcDb2dVertex
 10
63.23032318347546
 20
32.10065937058025
 30
0.0
  0
VERTEX
  5
48B
330
482
100
AcDbEntity
  8
DIBUJOS
 62
     7
100
AcDbVertex
100
AcDb2dVertex
 10
63.3483752381374
 20
32.19543354097465
 30
0.0
  0
VERTEX
  5
48C
330
482
100
AcDbEntity
  8
DIBUJOS
 62
     7
100
AcDbVertex
100
AcDb2dVertex
 10
63.54926390306248
 20
32.30532609325922
 30
0.0
  0
VERTEX
  5
48D
330
482
100
AcDbEntity
  8
DIBUJOS
 62
     7
100
AcDbVertex
100
AcDb2dVertex
 10
63.62709091777624
 20
32.34722553206784
 30
0.0
  0
VERTEX
  5
48E
330
482
100
AcDbEntity
  8
DIBUJOS
 62
     7
100
AcDbVertex
100
AcDb2dVertex
 10
63.75033732403642
 20
32.40931279686813
 30
0.0
  0
VERTEX
  5
48F
330
482
100
AcDbEntity
  8
DIBUJOS
 62
     7
100
AcDbVertex
100
AcDb2dVertex
 10
63.89385040977617
 20
32.45273870759027
 30
0.0
  0
VERTEX
  5
490
330
482
100
AcDbEntity
  8
DIBUJOS
 62
     7
100
AcDbVertex
100
AcDb2dVertex
 10
64.14363588105779
 20
32.52854005382253
 30
0.0
  0
VERTEX
  5
491
330
482
100
AcDbEntity
  8
DIBUJOS
 62
     7
100
AcDbVertex
100
AcDb2dVertex
 10
64.5413332795547
 20
32.57069323334553
 30
0.0
  0
VERTEX
  5
492
330
482
100
AcDbEntity
  8
DIBUJOS
 62
     7
100
AcDbVertex
100
AcDb2dVertex
 10
64.57211928593472
 20
32.56795444468945
 30
0.0
  0
VERTEX
  5
493
330
482
100
AcDbEntity
  8
DIBUJOS
 62
     7
100
AcDbVertex
100
AcDb2dVertex
 10
64.96963781233336
 20
32.52854005382253
 30
0.0
  0
VERTEX
  5
494
330
482
100
AcDbEntity
  8
DIBUJOS
 62
     7
100
AcDbVertex
100
AcDb2dVertex
 10
65.04808028828081
 20
32.50435144832347
 30
0.0
  0
VERTEX
  5
495
330
482
100
AcDbEntity
  8
DIBUJOS
 62
     7
100
AcDbVertex
100
AcDb2dVertex
 10
65.31046918176831
 20
32.42427812880421
 30
0.0
  0
VERTEX
  5
496
330
482
100
AcDbEntity
  8
DIBUJOS
 62
     7
100
AcDbVertex
100
AcDb2dVertex
 10
65.38999312783807
 20
32.39710639173968
 30
0.0
  0
VERTEX
  5
497
330
482
100
AcDbEntity
  8
DIBUJOS
 62
     7
100
AcDbVertex
100
AcDb2dVertex
 10
65.7441469382438
 20
32.20755805095215
 30
0.0
  0
VERTEX
  5
498
330
482
100
AcDbEntity
  8
DIBUJOS
 62
     7
100
AcDbVertex
100
AcDb2dVertex
 10
65.97174167819566
 20
32.02813920056137
 30
0.0
  0
VERTEX
  5
499
330
482
100
AcDbEntity
  8
DIBUJOS
 62
     7
100
AcDbVertex
100
AcDb2dVertex
 10
66.10660888690946
 20
31.91724913848644
 30
0.0
  0
VERTEX
  5
49A
330
482
100
AcDbEntity
  8
DIBUJOS
 62
     7
100
AcDbVertex
100
AcDb2dVertex
 10
66.39080723172627
 20
31.59302220807469
 30
0.0
  0
VERTEX
  5
49B
330
482
100
AcDbEntity
  8
DIBUJOS
 62
     7
100
AcDbVertex
100
AcDb2dVertex
 10
66.49910487306784
 20
31.41268237287186
 30
0.0
  0
VERTEX
  5
49C
330
482
100
AcDbEntity
  8
DIBUJOS
 62
     7
100
AcDbVertex
100
AcDb2dVertex
 10
66.61274396477201
 20
31.22799135431804
 30
0.0
  0
VERTEX
  5
49D
330
482
100
AcDbEntity
  8
DIBUJOS
 62
     7
100
AcDbVertex
100
AcDb2dVertex
 10
66.68025170690707
 20
31.07475612900641
 30
0.0
  0
VERTEX
  5
49E
330
482
100
AcDbEntity
  8
DIBUJOS
 62
     7
100
AcDbVertex
100
AcDb2dVertex
 10
66.70211293700245
 20
31.01988637784117
 30
0.0
  0
VERTEX
  5
49F
330
482
100
AcDbEntity
  8
DIBUJOS
 62
     7
100
AcDbVertex
100
AcDb2dVertex
 10
66.80463018526432
 20
30.7645534075665
 30
0.0
  0
VERTEX
  5
4A0
330
482
100
AcDbEntity
  8
DIBUJOS
 62
     7
100
AcDbVertex
100
AcDb2dVertex
 10
66.92477675942757
 20
30.43282336069297
 30
0.0
  0
SEQEND
  5
4A1
330
482
100
AcDbEntity
  8
DIBUJOS
 62
     7
  0
POLYLINE
  5
4A2
330
437
100
AcDbEntity
  8
DIBUJOS
 62
     7
100
AcDb2dPolyline
 66
     1
 10
0.0
 20
0.0
 30
0.0
  0
VERTEX
  5
4A3
330
4A2
100
AcDbEntity
  8
DIBUJOS
 62
     7
100
AcDbVertex
100
AcDb2dVertex
 10
61.31555615752252
 20
29.87032895190696
 30
0.0
  0
VERTEX
  5
4A4
330
4A2
100
AcDbEntity
  8
DIBUJOS
 62
     7
100
AcDbVertex
100
AcDb2dVertex
 10
61.58110098262453
 20
29.92116808654298
 30
0.0
  0
VERTEX
  5
4A5
330
4A2
100
AcDbEntity
  8
DIBUJOS
 62
     7
100
AcDbVertex
100
AcDb2dVertex
 10
61.72113643910638
 20
29.95319202047035
 30
0.0
  0
VERTEX
  5
4A6
330
4A2
100
AcDbEntity
  8
DIBUJOS
 62
     7
100
AcDbVertex
100
AcDb2dVertex
 10
61.87224582100792
 20
30.00157791860654
 30
0.0
  0
VERTEX
  5
4A7
330
4A2
100
AcDbEntity
  8
DIBUJOS
 62
     7
100
AcDbVertex
100
AcDb2dVertex
 10
62.06506422302234
 20
30.08202030855233
 30
0.0
  0
VERTEX
  5
4A8
330
4A2
100
AcDbEntity
  8
DIBUJOS
 62
     7
100
AcDbVertex
100
AcDb2dVertex
 10
62.0771516720995
 20
30.09411719006025
 30
0.0
  0
VERTEX
  5
4A9
330
4A2
100
AcDbEntity
  8
DIBUJOS
 62
     7
100
AcDbVertex
100
AcDb2dVertex
 10
62.2022722250632
 20
30.42737968262002
 30
0.0
  0
VERTEX
  5
4AA
330
4A2
100
AcDbEntity
  8
DIBUJOS
 62
     7
100
AcDbVertex
100
AcDb2dVertex
 10
62.20408452900264
 20
30.43887098749983
 30
0.0
  0
SEQEND
  5
4AB
330
4A2
100
AcDbEntity
  8
DIBUJOS
 62
     7
  0
POLYLINE
  5
4AC
330
437
100
AcDbEntity
  8
DIBUJOS
 62
     7
100
AcDb2dPolyline
 66
     1
 10
0.0
 20
0.0
 30
0.0
  0
VERTEX
  5
4AD
330
4AC
100
AcDbEntity
  8
DIBUJOS
 62
     7
100
AcDbVertex
100
AcDb2dVertex
 10
67.68032854946614
 20
29.36831895065862
 30
0.0
  0
VERTEX
  5
4AE
330
4AC
100
AcDbEntity
  8
DIBUJOS
 62
     7
100
AcDbVertex
100
AcDb2dVertex
 10
67.65497093590433
 20
29.39103621367001
 30
0.0
  0
VERTEX
  5
4AF
330
4AC
100
AcDbEntity
  8
DIBUJOS
 62
     7
100
AcDbVertex
100
AcDb2dVertex
 10
67.57152849302233
 20
29.45299549331664
 30
0.0
  0
VERTEX
  5
4B0
330
4AC
100
AcDbEntity
  8
DIBUJOS
 62
     7
100
AcDbVertex
100
AcDb2dVertex
 10
67.4264628356589
 20
29.59815481561877
 30
0.0
  0
VERTEX
  5
4B1
330
4AC
100
AcDbEntity
  8
DIBUJOS
 62
     7
100
AcDbVertex
100
AcDb2dVertex
 10
67.36144927879944
 20
29.68401158154305
 30
0.0
  0
VERTEX
  5
4B2
330
4AC
100
AcDbEntity
  8
DIBUJOS
 62
     7
100
AcDbVertex
100
AcDb2dVertex
 10
67.31905861115438
 20
29.75029292018658
 30
0.0
  0
VERTEX
  5
4B3
330
4AC
100
AcDbEntity
  8
DIBUJOS
 62
     7
100
AcDbVertex
100
AcDb2dVertex
 10
67.25238404682395
 20
29.87093452853507
 30
0.0
  0
VERTEX
  5
4B4
330
4AC
100
AcDbEntity
  8
DIBUJOS
 62
     7
100
AcDbVertex
100
AcDb2dVertex
 10
67.18468619777322
 20
30.03363441041743
 30
0.0
  0
SEQEND
  5
4B5
330
4AC
100
AcDbEntity
  8
DIBUJOS
 62
     7
  0
POLYLINE
  5
4B6
330
437
100
AcDbEntity
  8
DIBUJOS
 62
     7
100
AcDb2dPolyline
 66
     1
 10
0.0
 20
0.0
 30
0.0
  0
VERTEX
  5
4B7
330
4B6
100
AcDbEntity
  8
DIBUJOS
 62
     7
100
AcDbVertex
100
AcDb2dVertex
 10
67.68637227400455
 20
29.36831895065862
 30
0.0
  0
VERTEX
  5
4B8
330
4B6
100
AcDbEntity
  8
DIBUJOS
 62
     7
100
AcDbVertex
100
AcDb2dVertex
 10
67.68032854946614
 20
29.36831895065862
 30
0.0
  0
SEQEND
  5
4B9
330
4B6
100
AcDbEntity
  8
DIBUJOS
 62
     7
  0
POLYLINE
  5
4BA
330
437
100
AcDbEntity
  8
DIBUJOS
 62
     7
100
AcDb2dPolyline
 66
     1
 10
0.0
 20
0.0
 30
0.0
  0
VERTEX
  5
4BB
330
4BA
100
AcDbEntity
  8
DIBUJOS
 62
     7
100
AcDbVertex
100
AcDb2dVertex
 10
67.68032854946614
 20
29.36227132385177
 30
0.0
  0
VERTEX
  5
4BC
330
4BA
100
AcDbEntity
  8
DIBUJOS
 62
     7
100
AcDbVertex
100
AcDb2dVertex
 10
67.68032854946614
 20
29.36831895065862
 30
0.0
  0
SEQEND
  5
4BD
330
4BA
100
AcDbEntity
  8
DIBUJOS
 62
     7
  0
POLYLINE
  5
4BE
330
437
100
AcDbEntity
  8
DIBUJOS
 62
     7
100
AcDb2dPolyline
 66
     1
 10
0.0
 20
0.0
 30
0.0
  0
VERTEX
  5
4BF
330
4BE
100
AcDbEntity
  8
DIBUJOS
 62
     7
100
AcDbVertex
100
AcDb2dVertex
 10
67.68637227400455
 20
29.36831895065862
 30
0.0
  0
VERTEX
  5
4C0
330
4BE
100
AcDbEntity
  8
DIBUJOS
 62
     7
100
AcDbVertex
100
AcDb2dVertex
 10
67.77006525082453
 20
29.3185363193329
 30
0.0
  0
VERTEX
  5
4C1
330
4BE
100
AcDbEntity
  8
DIBUJOS
 62
     7
100
AcDbVertex
100
AcDb2dVertex
 10
67.87435406954424
 20
29.2673113737811
 30
0.0
  0
VERTEX
  5
4C2
330
4BE
100
AcDbEntity
  8
DIBUJOS
 62
     7
100
AcDbVertex
100
AcDb2dVertex
 10
67.96494974440385
 20
29.23134142440865
 30
0.0
  0
VERTEX
  5
4C3
330
4BE
100
AcDbEntity
  8
DIBUJOS
 62
     7
100
AcDbVertex
100
AcDb2dVertex
 10
68.11511881061682
 20
29.1904650020359
 30
0.0
  0
VERTEX
  5
4C4
330
4BE
100
AcDbEntity
  8
DIBUJOS
 62
     7
100
AcDbVertex
100
AcDb2dVertex
 10
68.18155097522833
 20
29.17849509627301
 30
0.0
  0
VERTEX
  5
4C5
330
4BE
100
AcDbEntity
  8
DIBUJOS
 62
     7
100
AcDbVertex
100
AcDb2dVertex
 10
68.32103655852183
 20
29.16267522082011
 30
0.0
  0
VERTEX
  5
4C6
330
4BE
100
AcDbEntity
  8
DIBUJOS
 62
     7
100
AcDbVertex
100
AcDb2dVertex
 10
68.42379126358378
 20
29.16267522082011
 30
0.0
  0
VERTEX
  5
4C7
330
4BE
100
AcDbEntity
  8
DIBUJOS
 62
     7
100
AcDbVertex
100
AcDb2dVertex
 10
68.55026047001746
 20
29.17709836308283
 30
0.0
  0
VERTEX
  5
4C8
330
4BE
100
AcDbEntity
  8
DIBUJOS
 62
     7
100
AcDbVertex
100
AcDb2dVertex
 10
68.70244031510762
 20
29.20924764486102
 30
0.0
  0
VERTEX
  5
4C9
330
4BE
100
AcDbEntity
  8
DIBUJOS
 62
     7
100
AcDbVertex
100
AcDb2dVertex
 10
68.8293731720114
 20
29.25219149281718
 30
0.0
  0
VERTEX
  5
4CA
330
4BE
100
AcDbEntity
  8
DIBUJOS
 62
     7
100
AcDbVertex
100
AcDb2dVertex
 10
68.9729047157161
 20
29.32132815781905
 30
0.0
  0
VERTEX
  5
4CB
330
4BE
100
AcDbEntity
  8
DIBUJOS
 62
     7
100
AcDbVertex
100
AcDb2dVertex
 10
68.99861698121568
 20
29.33686803547584
 30
0.0
  0
VERTEX
  5
4CC
330
4BE
100
AcDbEntity
  8
DIBUJOS
 62
     7
100
AcDbVertex
100
AcDb2dVertex
 10
69.08749796276099
 20
29.39398758578278
 30
0.0
  0
VERTEX
  5
4CD
330
4BE
100
AcDbEntity
  8
DIBUJOS
 62
     7
100
AcDbVertex
100
AcDb2dVertex
 10
69.13812208663445
 20
29.43339890341182
 30
0.0
  0
VERTEX
  5
4CE
330
4BE
100
AcDbEntity
  8
DIBUJOS
 62
     7
100
AcDbVertex
100
AcDb2dVertex
 10
69.17329932908328
 20
29.4590431201235
 30
0.0
  0
VERTEX
  5
4CF
330
4BE
100
AcDbEntity
  8
DIBUJOS
 62
     7
100
AcDbVertex
100
AcDb2dVertex
 10
69.31232126190764
 20
29.59815481561877
 30
0.0
  0
VERTEX
  5
4D0
330
4BE
100
AcDbEntity
  8
DIBUJOS
 62
     7
100
AcDbVertex
100
AcDb2dVertex
 10
69.35318106958213
 20
29.65367902964855
 30
0.0
  0
VERTEX
  5
4D1
330
4BE
100
AcDbEntity
  8
DIBUJOS
 62
     7
100
AcDbVertex
100
AcDb2dVertex
 10
69.40419726279987
 20
29.72456568087222
 30
0.0
  0
VERTEX
  5
4D2
330
4BE
100
AcDbEntity
  8
DIBUJOS
 62
     7
100
AcDbVertex
100
AcDb2dVertex
 10
69.43181456233309
 20
29.76843905639493
 30
0.0
  0
VERTEX
  5
4D3
330
4BE
100
AcDbEntity
  8
DIBUJOS
 62
     7
100
AcDbVertex
100
AcDb2dVertex
 10
69.49788556763184
 20
29.89512829154963
 30
0.0
  0
VERTEX
  5
4D4
330
4BE
100
AcDbEntity
  8
DIBUJOS
 62
     7
100
AcDbVertex
100
AcDb2dVertex
 10
69.52568995419658
 20
29.96044917263858
 30
0.0
  0
VERTEX
  5
4D5
330
4BE
100
AcDbEntity
  8
DIBUJOS
 62
     7
100
AcDbVertex
100
AcDb2dVertex
 10
69.57582602494503
 20
30.12476718131636
 30
0.0
  0
VERTEX
  5
4D6
330
4BE
100
AcDbEntity
  8
DIBUJOS
 62
     7
100
AcDbVertex
100
AcDb2dVertex
 10
69.5807260783259
 20
30.15419136826902
 30
0.0
  0
VERTEX
  5
4D7
330
4BE
100
AcDbEntity
  8
DIBUJOS
 62
     7
100
AcDbVertex
100
AcDb2dVertex
 10
69.59961861481725
 20
30.2636379484746
 30
0.0
  0
VERTEX
  5
4D8
330
4BE
100
AcDbEntity
  8
DIBUJOS
 62
     7
100
AcDbVertex
100
AcDb2dVertex
 10
69.60849792801571
 20
30.36629132634844
 30
0.0
  0
VERTEX
  5
4D9
330
4BE
100
AcDbEntity
  8
DIBUJOS
 62
     7
100
AcDbVertex
100
AcDb2dVertex
 10
69.59894835519162
 20
30.54205668676434
 30
0.0
  0
VERTEX
  5
4DA
330
4BE
100
AcDbEntity
  8
DIBUJOS
 62
     7
100
AcDbVertex
100
AcDb2dVertex
 10
69.56990756737511
 20
30.70453191925175
 30
0.0
  0
VERTEX
  5
4DB
330
4BE
100
AcDbEntity
  8
DIBUJOS
 62
     7
100
AcDbVertex
100
AcDb2dVertex
 10
69.51057820258443
 20
30.87979426037144
 30
0.0
  0
VERTEX
  5
4DC
330
4BE
100
AcDbEntity
  8
DIBUJOS
 62
     7
100
AcDbVertex
100
AcDb2dVertex
 10
69.48277381601967
 20
30.94148656537563
 30
0.0
  0
VERTEX
  5
4DD
330
4BE
100
AcDbEntity
  8
DIBUJOS
 62
     7
100
AcDbVertex
100
AcDb2dVertex
 10
69.42856087482915
 20
31.03858556837358
 30
0.0
  0
VERTEX
  5
4DE
330
4BE
100
AcDbEntity
  8
DIBUJOS
 62
     7
100
AcDbVertex
100
AcDb2dVertex
 10
69.40782349752311
 20
31.07334110870268
 30
0.0
  0
VERTEX
  5
4DF
330
4BE
100
AcDbEntity
  8
DIBUJOS
 62
     7
100
AcDbVertex
100
AcDb2dVertex
 10
69.3471373450434
 20
31.15753253890078
 30
0.0
  0
VERTEX
  5
4E0
330
4BE
100
AcDbEntity
  8
DIBUJOS
 62
     7
100
AcDbVertex
100
AcDb2dVertex
 10
69.33190520699364
 20
31.17785516960191
 30
0.0
  0
VERTEX
  5
4E1
330
4BE
100
AcDbEntity
  8
DIBUJOS
 62
     7
100
AcDbVertex
100
AcDb2dVertex
 10
69.3062775373689
 20
31.21305675293057
 30
0.0
  0
VERTEX
  5
4E2
330
4BE
100
AcDbEntity
  8
DIBUJOS
 62
     7
100
AcDbVertex
100
AcDb2dVertex
 10
69.17934468046545
 20
31.34007156691792
 30
0.0
  0
VERTEX
  5
4E3
330
4BE
100
AcDbEntity
  8
DIBUJOS
 62
     7
100
AcDbVertex
100
AcDb2dVertex
 10
69.1540781701538
 20
31.35676562153557
 30
0.0
  0
VERTEX
  5
4E4
330
4BE
100
AcDbEntity
  8
DIBUJOS
 62
     7
100
AcDbVertex
100
AcDb2dVertex
 10
69.09967976877515
 20
31.39910389286426
 30
0.0
  0
VERTEX
  5
4E5
330
4BE
100
AcDbEntity
  8
DIBUJOS
 62
     7
100
AcDbVertex
100
AcDb2dVertex
 10
69.00917031663509
 20
31.45964202090888
 30
0.0
  0
VERTEX
  5
4E6
330
4BE
100
AcDbEntity
  8
DIBUJOS
 62
     7
100
AcDbVertex
100
AcDb2dVertex
 10
68.97894844025453
 20
31.47778652922365
 30
0.0
  0
VERTEX
  5
4E7
330
4BE
100
AcDbEntity
  8
DIBUJOS
 62
     7
100
AcDbVertex
100
AcDb2dVertex
 10
68.82816442710364
 20
31.55055339820256
 30
0.0
  0
VERTEX
  5
4E8
330
4BE
100
AcDbEntity
  8
DIBUJOS
 62
     7
100
AcDbVertex
100
AcDb2dVertex
 10
68.68309714289711
 20
31.59833534760484
 30
0.0
  0
VERTEX
  5
4E9
330
4BE
100
AcDbEntity
  8
DIBUJOS
 62
     7
100
AcDbVertex
100
AcDb2dVertex
 10
68.5323228908084
 20
31.6276960466853
 30
0.0
  0
VERTEX
  5
4EA
330
4BE
100
AcDbEntity
  8
DIBUJOS
 62
     7
100
AcDbVertex
100
AcDb2dVertex
 10
68.36939286220547
 20
31.6424870930288
 30
0.0
  0
VERTEX
  5
4EB
330
4BE
100
AcDbEntity
  8
DIBUJOS
 62
     7
100
AcDbVertex
100
AcDb2dVertex
 10
68.16341654792494
 20
31.62062121866326
 30
0.0
  0
VERTEX
  5
4EC
330
4BE
100
AcDbEntity
  8
DIBUJOS
 62
     7
100
AcDbVertex
100
AcDb2dVertex
 10
68.1038464102594
 20
31.60979409460113
 30
0.0
  0
VERTEX
  5
4ED
330
4BE
100
AcDbEntity
  8
DIBUJOS
 62
     7
100
AcDbVertex
100
AcDb2dVertex
 10
68.01330442124375
 20
31.58591777094754
 30
0.0
  0
VERTEX
  5
4EE
330
4BE
100
AcDbEntity
  8
DIBUJOS
 62
     7
100
AcDbVertex
100
AcDb2dVertex
 10
67.93358907739697
 20
31.55962565235898
 30
0.0
  0
VERTEX
  5
4EF
330
4BE
100
AcDbEntity
  8
DIBUJOS
 62
     7
100
AcDbVertex
100
AcDb2dVertex
 10
67.79005753369259
 20
31.49593266543199
 30
0.0
  0
VERTEX
  5
4F0
330
4BE
100
AcDbEntity
  8
DIBUJOS
 62
     7
100
AcDbVertex
100
AcDb2dVertex
 10
67.71538540547705
 20
31.45136092331387
 30
0.0
  0
VERTEX
  5
4F1
330
4BE
100
AcDbEntity
  8
DIBUJOS
 62
     7
100
AcDbVertex
100
AcDb2dVertex
 10
67.70450670130795
 20
31.44894187259113
 30
0.0
  0
SEQEND
  5
4F2
330
4BE
100
AcDbEntity
  8
DIBUJOS
 62
     7
  0
POLYLINE
  5
4F3
330
437
100
AcDbEntity
  8
DIBUJOS
 62
     7
100
AcDb2dPolyline
 66
     1
 10
0.0
 20
0.0
 30
0.0
  0
VERTEX
  5
4F4
330
4F3
100
AcDbEntity
  8
DIBUJOS
 62
     7
100
AcDbVertex
100
AcDb2dVertex
 10
65.63127003855152
 20
27.48124287705735
 30
0.0
  0
VERTEX
  5
4F5
330
4F3
100
AcDbEntity
  8
DIBUJOS
 62
     7
100
AcDbVertex
100
AcDb2dVertex
 10
65.6252263140131
 20
27.48124287705735
 30
0.0
  0
SEQEND
  5
4F6
330
4F3
100
AcDbEntity
  8
DIBUJOS
 62
     7
  0
POLYLINE
  5
4F7
330
437
100
AcDbEntity
  8
DIBUJOS
 62
     7
100
AcDb2dPolyline
 66
     1
 10
0.0
 20
0.0
 30
0.0
  0
VERTEX
  5
4F8
330
4F7
100
AcDbEntity
  8
DIBUJOS
 62
     7
100
AcDbVertex
100
AcDb2dVertex
 10
63.52781312625893
 20
27.46914599555007
 30
0.0
  0
VERTEX
  5
4F9
330
4F7
100
AcDbEntity
  8
DIBUJOS
 62
     7
100
AcDbVertex
100
AcDb2dVertex
 10
63.52176777487676
 20
27.47519362235629
 30
0.0
  0
VERTEX
  5
4FA
330
4F7
100
AcDbEntity
  8
DIBUJOS
 62
     7
100
AcDbVertex
100
AcDb2dVertex
 10
63.50363497441742
 20
27.47519362235629
 30
0.0
  0
SEQEND
  5
4FB
330
4F7
100
AcDbEntity
  8
DIBUJOS
 62
     7
  0
POLYLINE
  5
4FC
330
437
100
AcDbEntity
  8
DIBUJOS
 62
     7
100
AcDb2dPolyline
 66
     1
 10
0.0
 20
0.0
 30
0.0
  0
VERTEX
  5
4FD
330
4FC
100
AcDbEntity
  8
DIBUJOS
 62
     7
100
AcDbVertex
100
AcDb2dVertex
 10
65.58291536171195
 20
27.46914599555007
 30
0.0
  0
VERTEX
  5
4FE
330
4FC
100
AcDbEntity
  8
DIBUJOS
 62
     7
100
AcDbVertex
100
AcDb2dVertex
 10
65.6131372380922
 20
27.47519362235629
 30
0.0
  0
SEQEND
  5
4FF
330
4FC
100
AcDbEntity
  8
DIBUJOS
 62
     7
  0
POLYLINE
  5
500
330
437
100
AcDbEntity
  8
DIBUJOS
 62
     7
100
AcDb2dPolyline
 66
     1
 10
0.0
 20
0.0
 30
0.0
  0
VERTEX
  5
501
330
500
100
AcDbEntity
  8
DIBUJOS
 62
     7
100
AcDbVertex
100
AcDb2dVertex
 10
65.5406044094108
 20
27.45704911404279
 30
0.0
  0
VERTEX
  5
502
330
500
100
AcDbEntity
  8
DIBUJOS
 62
     7
100
AcDbVertex
100
AcDb2dVertex
 10
65.57082628579104
 20
27.46309674084901
 30
0.0
  0
SEQEND
  5
503
330
500
100
AcDbEntity
  8
DIBUJOS
 62
     7
  0
POLYLINE
  5
504
330
437
100
AcDbEntity
  8
DIBUJOS
 62
     7
100
AcDb2dPolyline
 66
     1
 10
0.0
 20
0.0
 30
0.0
  0
VERTEX
  5
505
330
504
100
AcDbEntity
  8
DIBUJOS
 62
     7
100
AcDbVertex
100
AcDb2dVertex
 10
63.60638967947906
 20
27.45100148723594
 30
0.0
  0
VERTEX
  5
506
330
504
100
AcDbEntity
  8
DIBUJOS
 62
     7
100
AcDbVertex
100
AcDb2dVertex
 10
63.53990220217983
 20
27.46914599555007
 30
0.0
  0
SEQEND
  5
507
330
504
100
AcDbEntity
  8
DIBUJOS
 62
     7
  0
POLYLINE
  5
508
330
437
100
AcDbEntity
  8
DIBUJOS
 62
     7
100
AcDb2dPolyline
 66
     1
 10
0.0
 20
0.0
 30
0.0
  0
VERTEX
  5
509
330
508
100
AcDbEntity
  8
DIBUJOS
 62
     7
100
AcDbVertex
100
AcDb2dVertex
 10
63.63056783132056
 20
27.44495223253487
 30
0.0
  0
VERTEX
  5
50A
330
508
100
AcDbEntity
  8
DIBUJOS
 62
     7
100
AcDbVertex
100
AcDb2dVertex
 10
63.61847875539997
 20
27.44495223253487
 30
0.0
  0
SEQEND
  5
50B
330
508
100
AcDbEntity
  8
DIBUJOS
 62
     7
  0
POLYLINE
  5
50C
330
437
100
AcDbEntity
  8
DIBUJOS
 62
     7
100
AcDb2dPolyline
 66
     1
 10
0.0
 20
0.0
 30
0.0
  0
VERTEX
  5
50D
330
50C
100
AcDbEntity
  8
DIBUJOS
 62
     7
100
AcDbVertex
100
AcDb2dVertex
 10
65.42576062842794
 20
27.42680772422074
 30
0.0
  0
VERTEX
  5
50E
330
50C
100
AcDbEntity
  8
DIBUJOS
 62
     7
100
AcDbVertex
100
AcDb2dVertex
 10
65.52851533348989
 20
27.45100148723594
 30
0.0
  0
SEQEND
  5
50F
330
50C
100
AcDbEntity
  8
DIBUJOS
 62
     7
  0
POLYLINE
  5
510
330
437
100
AcDbEntity
  8
DIBUJOS
 62
     7
100
AcDb2dPolyline
 66
     1
 10
0.0
 20
0.0
 30
0.0
  0
VERTEX
  5
511
330
510
100
AcDbEntity
  8
DIBUJOS
 62
     7
100
AcDbVertex
100
AcDb2dVertex
 10
63.76354441276276
 20
27.40866321590661
 30
0.0
  0
VERTEX
  5
512
330
510
100
AcDbEntity
  8
DIBUJOS
 62
     7
100
AcDbVertex
100
AcDb2dVertex
 10
63.64265690724147
 20
27.43890460572802
 30
0.0
  0
SEQEND
  5
513
330
510
100
AcDbEntity
  8
DIBUJOS
 62
     7
  0
POLYLINE
  5
514
330
437
100
AcDbEntity
  8
DIBUJOS
 62
     7
100
AcDb2dPolyline
 66
     1
 10
0.0
 20
0.0
 30
0.0
  0
VERTEX
  5
515
330
514
100
AcDbEntity
  8
DIBUJOS
 62
     7
100
AcDbVertex
100
AcDb2dVertex
 10
63.78772256460458
 20
27.40261396120619
 30
0.0
  0
VERTEX
  5
516
330
514
100
AcDbEntity
  8
DIBUJOS
 62
     7
100
AcDbVertex
100
AcDb2dVertex
 10
63.77563348868367
 20
27.40261396120619
 30
0.0
  0
SEQEND
  5
517
330
514
100
AcDbEntity
  8
DIBUJOS
 62
     7
  0
POLYLINE
  5
518
330
437
100
AcDbEntity
  8
DIBUJOS
 62
     7
100
AcDb2dPolyline
 66
     1
 10
0.0
 20
0.0
 30
0.0
  0
VERTEX
  5
519
330
518
100
AcDbEntity
  8
DIBUJOS
 62
     7
100
AcDbVertex
100
AcDb2dVertex
 10
63.83003351690573
 20
27.39051707969827
 30
0.0
  0
VERTEX
  5
51A
330
518
100
AcDbEntity
  8
DIBUJOS
 62
     7
100
AcDbVertex
100
AcDb2dVertex
 10
63.79981164052548
 20
27.39656633439933
 30
0.0
  0
SEQEND
  5
51B
330
518
100
AcDbEntity
  8
DIBUJOS
 62
     7
  0
POLYLINE
  5
51C
330
437
100
AcDbEntity
  8
DIBUJOS
 62
     7
100
AcDb2dPolyline
 66
     1
 10
0.0
 20
0.0
 30
0.0
  0
VERTEX
  5
51D
330
51C
100
AcDbEntity
  8
DIBUJOS
 62
     7
100
AcDbVertex
100
AcDb2dVertex
 10
63.87838982058905
 20
27.37842182608519
 30
0.0
  0
VERTEX
  5
51E
330
51C
100
AcDbEntity
  8
DIBUJOS
 62
     7
100
AcDbVertex
100
AcDb2dVertex
 10
63.84212259282663
 20
27.38446945289141
 30
0.0
  0
SEQEND
  5
51F
330
51C
100
AcDbEntity
  8
DIBUJOS
 62
     7
  0
POLYLINE
  5
520
330
437
100
AcDbEntity
  8
DIBUJOS
 62
     7
100
AcDb2dPolyline
 66
     1
 10
0.0
 20
0.0
 30
0.0
  0
VERTEX
  5
521
330
520
100
AcDbEntity
  8
DIBUJOS
 62
     7
100
AcDbVertex
100
AcDb2dVertex
 10
65.20211679100159
 20
27.36632494457792
 30
0.0
  0
VERTEX
  5
522
330
520
100
AcDbEntity
  8
DIBUJOS
 62
     7
100
AcDbVertex
100
AcDb2dVertex
 10
65.41367155250735
 20
27.42075846951968
 30
0.0
  0
SEQEND
  5
523
330
520
100
AcDbEntity
  8
DIBUJOS
 62
     7
  0
POLYLINE
  5
524
330
437
100
AcDbEntity
  8
DIBUJOS
 62
     7
100
AcDb2dPolyline
 66
     1
 10
0.0
 20
0.0
 30
0.0
  0
VERTEX
  5
525
330
524
100
AcDbEntity
  8
DIBUJOS
 62
     7
100
AcDbVertex
100
AcDb2dVertex
 10
65.13562768685894
 20
27.34817880836958
 30
0.0
  0
VERTEX
  5
526
330
524
100
AcDbEntity
  8
DIBUJOS
 62
     7
100
AcDbVertex
100
AcDb2dVertex
 10
65.19002771508067
 20
27.36027568987685
 30
0.0
  0
SEQEND
  5
527
330
524
100
AcDbEntity
  8
DIBUJOS
 62
     7
  0
POLYLINE
  5
528
330
437
100
AcDbEntity
  8
DIBUJOS
 62
     7
100
AcDb2dPolyline
 66
     1
 10
0.0
 20
0.0
 30
0.0
  0
VERTEX
  5
529
330
528
100
AcDbEntity
  8
DIBUJOS
 62
     7
100
AcDbVertex
100
AcDb2dVertex
 10
64.01136640203092
 20
27.34213118156272
 30
0.0
  0
VERTEX
  5
52A
330
528
100
AcDbEntity
  8
DIBUJOS
 62
     7
100
AcDbVertex
100
AcDb2dVertex
 10
63.89047726966621
 20
27.37237257138477
 30
0.0
  0
SEQEND
  5
52B
330
528
100
AcDbEntity
  8
DIBUJOS
 62
     7
  0
POLYLINE
  5
52C
330
437
100
AcDbEntity
  8
DIBUJOS
 62
     7
100
AcDb2dPolyline
 66
     1
 10
0.0
 20
0.0
 30
0.0
  0
VERTEX
  5
52D
330
52C
100
AcDbEntity
  8
DIBUJOS
 62
     7
100
AcDbVertex
100
AcDb2dVertex
 10
65.1235386109377
 20
27.34213118156272
 30
0.0
  0
VERTEX
  5
52E
330
52C
100
AcDbEntity
  8
DIBUJOS
 62
     7
100
AcDbVertex
100
AcDb2dVertex
 10
65.11145116186087
 20
27.34213118156272
 30
0.0
  0
SEQEND
  5
52F
330
52C
100
AcDbEntity
  8
DIBUJOS
 62
     7
  0
POLYLINE
  5
530
330
437
100
AcDbEntity
  8
DIBUJOS
 62
     7
100
AcDb2dPolyline
 66
     1
 10
0.0
 20
0.0
 30
0.0
  0
VERTEX
  5
531
330
530
100
AcDbEntity
  8
DIBUJOS
 62
     7
100
AcDbVertex
100
AcDb2dVertex
 10
61.31555615752252
 20
29.87032895190696
 30
0.0
  0
VERTEX
  5
532
330
530
100
AcDbEntity
  8
DIBUJOS
 62
     7
100
AcDbVertex
100
AcDb2dVertex
 10
61.31788091724412
 20
29.84660076662247
 30
0.0
  0
VERTEX
  5
533
330
530
100
AcDbEntity
  8
DIBUJOS
 62
     7
100
AcDbVertex
100
AcDb2dVertex
 10
61.4567108825054
 20
29.32651462861417
 30
0.0
  0
VERTEX
  5
534
330
530
100
AcDbEntity
  8
DIBUJOS
 62
     7
100
AcDbVertex
100
AcDb2dVertex
 10
61.67942904583723
 20
28.84876838983005
 30
0.0
  0
VERTEX
  5
535
330
530
100
AcDbEntity
  8
DIBUJOS
 62
     7
100
AcDbVertex
100
AcDb2dVertex
 10
61.69514435648139
 20
28.81126821994556
 30
0.0
  0
VERTEX
  5
536
330
530
100
AcDbEntity
  8
DIBUJOS
 62
     7
100
AcDbVertex
100
AcDb2dVertex
 10
61.9395808839018
 20
28.45611055092643
 30
0.0
  0
VERTEX
  5
537
330
530
100
AcDbEntity
  8
DIBUJOS
 62
     7
100
AcDbVertex
100
AcDb2dVertex
 10
61.97904648648076
 20
28.3996568093301
 30
0.0
  0
VERTEX
  5
538
330
530
100
AcDbEntity
  8
DIBUJOS
 62
     7
100
AcDbVertex
100
AcDb2dVertex
 10
62.02275327072119
 20
28.33405593044633
 30
0.0
  0
VERTEX
  5
539
330
530
100
AcDbEntity
  8
DIBUJOS
 62
     7
100
AcDbVertex
100
AcDb2dVertex
 10
62.45190651827112
 20
27.90462559034809
 30
0.0
  0
VERTEX
  5
53A
330
530
100
AcDbEntity
  8
DIBUJOS
 62
     7
100
AcDbVertex
100
AcDb2dVertex
 10
62.89407939636805
 20
27.59755591483275
 30
0.0
  0
VERTEX
  5
53B
330
530
100
AcDbEntity
  8
DIBUJOS
 62
     7
100
AcDbVertex
100
AcDb2dVertex
 10
62.89826363849807
 20
27.59476407634725
 30
0.0
  0
VERTEX
  5
53C
330
530
100
AcDbEntity
  8
DIBUJOS
 62
     7
100
AcDbVertex
100
AcDb2dVertex
 10
63.3942313589413
 20
27.35906616451548
 30
0.0
  0
VERTEX
  5
53D
330
530
100
AcDbEntity
  8
DIBUJOS
 62
     7
100
AcDbVertex
100
AcDb2dVertex
 10
63.41357290430838
 20
27.34999391035842
 30
0.0
  0
VERTEX
  5
53E
330
530
100
AcDbEntity
  8
DIBUJOS
 62
     7
100
AcDbVertex
100
AcDb2dVertex
 10
63.84869992211562
 20
27.22934741832795
 30
0.0
  0
VERTEX
  5
53F
330
530
100
AcDbEntity
  8
DIBUJOS
 62
     7
100
AcDbVertex
100
AcDb2dVertex
 10
63.88994529175907
 20
27.21902982513757
 30
0.0
  0
VERTEX
  5
540
330
530
100
AcDbEntity
  8
DIBUJOS
 62
     7
100
AcDbVertex
100
AcDb2dVertex
 10
63.98751361893975
 20
27.19352886311172
 30
0.0
  0
VERTEX
  5
541
330
530
100
AcDbEntity
  8
DIBUJOS
 62
     7
100
AcDbVertex
100
AcDb2dVertex
 10
64.52514155418348
 20
27.14253670642463
 30
0.0
  0
VERTEX
  5
542
330
530
100
AcDbEntity
  8
DIBUJOS
 62
     7
100
AcDbVertex
100
AcDb2dVertex
 10
64.60394911921631
 20
27.14583156420569
 30
0.0
  0
VERTEX
  5
543
330
530
100
AcDbEntity
  8
DIBUJOS
 62
     7
100
AcDbVertex
100
AcDb2dVertex
 10
65.14137695267821
 20
27.19357769993604
 30
0.0
  0
VERTEX
  5
544
330
530
100
AcDbEntity
  8
DIBUJOS
 62
     7
100
AcDbVertex
100
AcDb2dVertex
 10
65.23180506263127
 20
27.21725053682002
 30
0.0
  0
VERTEX
  5
545
330
530
100
AcDbEntity
  8
DIBUJOS
 62
     7
100
AcDbVertex
100
AcDb2dVertex
 10
65.59553804238342
 20
27.31580324930351
 30
0.0
  0
VERTEX
  5
546
330
530
100
AcDbEntity
  8
DIBUJOS
 62
     7
100
AcDbVertex
100
AcDb2dVertex
 10
65.70924303273966
 20
27.34938833373095
 30
0.0
  0
VERTEX
  5
547
330
530
100
AcDbEntity
  8
DIBUJOS
 62
     7
100
AcDbVertex
100
AcDb2dVertex
 10
66.19279630851166
 20
27.57378214851171
 30
0.0
  0
VERTEX
  5
548
330
530
100
AcDbEntity
  8
DIBUJOS
 62
     7
100
AcDbVertex
100
AcDb2dVertex
 10
66.44013512518573
 20
27.74277221342959
 30
0.0
  0
VERTEX
  5
549
330
530
100
AcDbEntity
  8
DIBUJOS
 62
     7
100
AcDbVertex
100
AcDb2dVertex
 10
66.46044464258507
 20
27.75801418645592
 30
0.0
  0
VERTEX
  5
54A
330
530
100
AcDbEntity
  8
DIBUJOS
 62
     7
100
AcDbVertex
100
AcDb2dVertex
 10
66.68904384608064
 20
27.9167208439618
 30
0.0
  0
VERTEX
  5
54B
330
530
100
AcDbEntity
  8
DIBUJOS
 62
     7
100
AcDbVertex
100
AcDb2dVertex
 10
67.09402056863217
 20
28.32195904893841
 30
0.0
  0
VERTEX
  5
54C
330
530
100
AcDbEntity
  8
DIBUJOS
 62
     7
100
AcDbVertex
100
AcDb2dVertex
 10
67.24977946997691
 20
28.54667681465761
 30
0.0
  0
VERTEX
  5
54D
330
530
100
AcDbEntity
  8
DIBUJOS
 62
     7
100
AcDbVertex
100
AcDb2dVertex
 10
67.41902327918153
 20
28.7886111890186
 30
0.0
  0
VERTEX
  5
54E
330
530
100
AcDbEntity
  8
DIBUJOS
 62
     7
100
AcDbVertex
100
AcDb2dVertex
 10
67.46756504305263
 20
28.89110666115938
 30
0.0
  0
VERTEX
  5
54F
330
530
100
AcDbEntity
  8
DIBUJOS
 62
     7
100
AcDbVertex
100
AcDb2dVertex
 10
67.47602788425029
 20
28.90804164411151
 30
0.0
  0
VERTEX
  5
550
330
530
100
AcDbEntity
  8
DIBUJOS
 62
     7
100
AcDbVertex
100
AcDb2dVertex
 10
67.67215040592481
 20
29.33256225542102
 30
0.0
  0
VERTEX
  5
551
330
530
100
AcDbEntity
  8
DIBUJOS
 62
     7
100
AcDbVertex
100
AcDb2dVertex
 10
67.68032854946614
 20
29.36227132385177
 30
0.0
  0
SEQEND
  5
552
330
530
100
AcDbEntity
  8
DIBUJOS
 62
     7
  0
ENDBLK
  5
43A
330
437
100
AcDbEntity
  8
0
100
AcDbBlockEnd
  0
ENDSEC
  0
SECTION
  2
ENTITIES
  0
MTEXT
  5
41
330
1F
100
AcDbEntity
  8
REFERENCIAS
 62
   255
100
AcDbMText
 10
61.49112712594395
 20
54.85563098807646
 30
0.0
 40
1.49859999962535
 41
0.0
 71
     7
 72
     1
  1
\fMyriad Pro|b0|i0|c0|p34;\W1;GUMMY_9434__POUF
  0
MTEXT
  5
43
330
1F
100
AcDbEntity
  8
M_U_00C1RGENES
 62
   255
100
AcDbMText
 10
90.14127864703391
 20
23.7555119243149
 30
0.0
 40
1.748366666229575
 41
0.0
 71
     7
 72
     1
  1
\fMyriad Pro|b0|i0|c0|p34;\W1;400
  0
MTEXT
  5
44
330
1F
100
AcDbEntity
  8
M_U_00C1RGENES
 62
   255
100
AcDbMText
 10
84.21176331851954
 20
20.50332059082737
 30
0.0
 40
1.748366666229575
 41
0.0
 71
     7
 72
     1
  1
\fMyriad Pro|b0|i0|c0|p34;\W1;400
  0
POLYLINE
  5
45
330
1F
100
AcDbEntity
  8
M_U_00C1RGENES
 62
   255
100
AcDb2dPolyline
 66
     1
 10
0.0
 20
0.0
 30
0.0
  0
VERTEX
  5
46
330
45
100
AcDbEntity
  8
M_U_00C1RGENES
 62
   255
100
AcDbVertex
100
AcDb2dVertex
 10
84.41666477502157
 20
24.76314475783758
 30
0.0
  0
VERTEX
  5
47
330
45
100
AcDbEntity
  8
M_U_00C1RGENES
 62
   255
100
AcDbVertex
100
AcDb2dVertex
 10
94.99999810570907
 20
19.74726776251925
 30
0.0
  0
SEQEND
  5
48
330
45
100
AcDbEntity
  8
M_U_00C1RGENES
 62
   255
  0
POLYLINE
  5
49
330
1F
100
AcDbEntity
  8
M_U_00C1RGENES
 62
   254
100
AcDb2dPolyline
 66
     1
 10
0.0
 20
0.0
 30
0.0
  0
VERTEX
  5
4A
330
49
100
AcDbEntity
  8
M_U_00C1RGENES
 62
   254
100
AcDbVertex
100
AcDb2dVertex
 10
54.99999767595828
 20
20.88258920325216
 30
0.0
  0
VERTEX
  5
4B
330
49
100
AcDbEntity
  8
M_U_00C1RGENES
 62
   254
100
AcDbVertex
100
AcDb2dVertex
 10
54.99999767595828
 20
19.74726776251925
 30
0.0
  0
SEQEND
  5
4C
330
49
100
AcDbEntity
  8
M_U_00C1RGENES
 62
   254
  0
POLYLINE
  5
4D
330
1F
100
AcDbEntity
  8
M_U_00C1RGENES
 62
   255
100
AcDb2dPolyline
 66
     1
 10
0.0
 20
0.0
 30
0.0
  0
VERTEX
  5
4E
330
4D
100
AcDbEntity
  8
M_U_00C1RGENES
 62
   255
100
AcDbVertex
100
AcDb2dVertex
 10
94.99999797321169
 20
59.74726768656564
 30
0.0
  0
VERTEX
  5
4F
330
4D
100
AcDbEntity
  8
M_U_00C1RGENES
 62
   255
100
AcDbVertex
100
AcDb2dVertex
 10
93.86467653247878
 20
59.74726768651462
 30
0.0
  0
SEQEND
  5
50
330
4D
100
AcDbEntity
  8
M_U_00C1RGENES
 62
   255
  0
POLYLINE
  5
52
330
1F
100
AcDbEntity
  8
DIBUJOS
 62
     7
100
AcDb2dPolyline
 66
     1
 10
0.0
 20
0.0
 30
0.0
  0
VERTEX
  5
53
330
52
100
AcDbEntity
  8
DIBUJOS
 62
     7
100
AcDbVertex
100
AcDb2dVertex
 10
68.16992717662062
 20
48.61835809323885
 30
0.0
  0
VERTEX
  5
54
330
52
100
AcDbEntity
  8
DIBUJOS
 62
     7
100
AcDbVertex
100
AcDb2dVertex
 10
67.13633152093365
 20
48.61835809323885
 30
0.0
  0
SEQEND
  5
55
330
52
100
AcDbEntity
  8
DIBUJOS
 62
     7
  0
POLYLINE
  5
56
330
1F
100
AcDbEntity
  8
DIBUJOS
 62
     7
100
AcDb2dPolyline
 66
     1
 10
0.0
 20
0.0
 30
0.0
  0
VERTEX
  5
57
330
56
100
AcDbEntity
  8
DIBUJOS
 62
     7
100
AcDbVertex
100
AcDb2dVertex
 10
68.17597090115905
 20
48.61835809323885
 30
0.0
  0
VERTEX
  5
58
330
56
100
AcDbEntity
  8
DIBUJOS
 62
     7
100
AcDbVertex
100
AcDb2dVertex
 10
68.16992717662062
 20
48.61835809323885
 30
0.0
  0
SEQEND
  5
59
330
56
100
AcDbEntity
  8
DIBUJOS
 62
     7
  0
POLYLINE
  5
5A
330
1F
100
AcDbEntity
  8
DIBUJOS
 62
     7
100
AcDb2dPolyline
 66
     1
 10
0.0
 20
0.0
 30
0.0
  0
VERTEX
  5
5B
330
5A
100
AcDbEntity
  8
DIBUJOS
 62
     7
100
AcDbVertex
100
AcDb2dVertex
 10
68.18201462569746
 20
48.61835809323885
 30
0.0
  0
VERTEX
  5
5C
330
5A
100
AcDbEntity
  8
DIBUJOS
 62
     7
100
AcDbVertex
100
AcDb2dVertex
 10
68.17597090115905
 20
48.61835809323885
 30
0.0
  0
SEQEND
  5
5D
330
5A
100
AcDbEntity
  8
DIBUJOS
 62
     7
  0
POLYLINE
  5
5E
330
1F
100
AcDbEntity
  8
DIBUJOS
 62
     7
100
AcDb2dPolyline
 66
     1
 10
0.0
 20
0.0
 30
0.0
  0
VERTEX
  5
5F
330
5E
100
AcDbEntity
  8
DIBUJOS
 62
     7
100
AcDbVertex
100
AcDb2dVertex
 10
68.39356938720354
 20
48.61835809323885
 30
0.0
  0
VERTEX
  5
60
330
5E
100
AcDbEntity
  8
DIBUJOS
 62
     7
100
AcDbVertex
100
AcDb2dVertex
 10
68.18201462569746
 20
48.61835809323885
 30
0.0
  0
SEQEND
  5
61
330
5E
100
AcDbEntity
  8
DIBUJOS
 62
     7
  0
POLYLINE
  5
62
330
1F
100
AcDbEntity
  8
DIBUJOS
 62
     7
100
AcDb2dPolyline
 66
     1
 10
0.0
 20
0.0
 30
0.0
  0
VERTEX
  5
63
330
62
100
AcDbEntity
  8
DIBUJOS
 62
     7
100
AcDbVertex
100
AcDb2dVertex
 10
68.39961473858571
 20
48.61835809323885
 30
0.0
  0
VERTEX
  5
64
330
62
100
AcDbEntity
  8
DIBUJOS
 62
     7
100
AcDbVertex
100
AcDb2dVertex
 10
68.39356938720354
 20
48.61835809323885
 30
0.0
  0
SEQEND
  5
65
330
62
100
AcDbEntity
  8
DIBUJOS
 62
     7
  0
POLYLINE
  5
66
330
1F
100
AcDbEntity
  8
DIBUJOS
 62
     7
100
AcDb2dPolyline
 66
     1
 10
0.0
 20
0.0
 30
0.0
  0
VERTEX
  5
67
330
66
100
AcDbEntity
  8
DIBUJOS
 62
     7
100
AcDbVertex
100
AcDb2dVertex
 10
68.40565846312413
 20
48.61835809323885
 30
0.0
  0
VERTEX
  5
68
330
66
100
AcDbEntity
  8
DIBUJOS
 62
     7
100
AcDbVertex
100
AcDb2dVertex
 10
68.39961473858571
 20
48.61835809323885
 30
0.0
  0
SEQEND
  5
69
330
66
100
AcDbEntity
  8
DIBUJOS
 62
     7
  0
POLYLINE
  5
6A
330
1F
100
AcDbEntity
  8
DIBUJOS
 62
     7
100
AcDb2dPolyline
 66
     1
 10
0.0
 20
0.0
 30
0.0
  0
VERTEX
  5
6B
330
6A
100
AcDbEntity
  8
DIBUJOS
 62
     7
100
AcDbVertex
100
AcDb2dVertex
 10
69.60245420347728
 20
48.61835809323885
 30
0.0
  0
VERTEX
  5
6C
330
6A
100
AcDbEntity
  8
DIBUJOS
 62
     7
100
AcDbVertex
100
AcDb2dVertex
 10
68.40565846312413
 20
48.61835809323885
 30
0.0
  0
SEQEND
  5
6D
330
6A
100
AcDbEntity
  8
DIBUJOS
 62
     7
  0
POLYLINE
  5
6E
330
1F
100
AcDbEntity
  8
DIBUJOS
 62
     7
100
AcDb2dPolyline
 66
     1
 10
0.0
 20
0.0
 30
0.0
  0
VERTEX
  5
6F
330
6E
100
AcDbEntity
  8
DIBUJOS
 62
     7
100
AcDbVertex
100
AcDb2dVertex
 10
68.17597090115905
 20
48.61230883853779
 30
0.0
  0
VERTEX
  5
70
330
6E
100
AcDbEntity
  8
DIBUJOS
 62
     7
100
AcDbVertex
100
AcDb2dVertex
 10
68.17597090115905
 20
48.61835809323885
 30
0.0
  0
SEQEND
  5
71
330
6E
100
AcDbEntity
  8
DIBUJOS
 62
     7
  0
POLYLINE
  5
72
330
1F
100
AcDbEntity
  8
DIBUJOS
 62
     7
100
AcDb2dPolyline
 66
     1
 10
0.0
 20
0.0
 30
0.0
  0
VERTEX
  5
73
330
72
100
AcDbEntity
  8
DIBUJOS
 62
     7
100
AcDbVertex
100
AcDb2dVertex
 10
68.39961473858571
 20
48.61230883853779
 30
0.0
  0
VERTEX
  5
74
330
72
100
AcDbEntity
  8
DIBUJOS
 62
     7
100
AcDbVertex
100
AcDb2dVertex
 10
68.39961473858571
 20
48.61835809323885
 30
0.0
  0
SEQEND
  5
75
330
72
100
AcDbEntity
  8
DIBUJOS
 62
     7
  0
POLYLINE
  5
76
330
1F
100
AcDbEntity
  8
DIBUJOS
 62
     7
100
AcDb2dPolyline
 66
     1
 10
0.0
 20
0.0
 30
0.0
  0
VERTEX
  5
77
330
76
100
AcDbEntity
  8
DIBUJOS
 62
     7
100
AcDbVertex
100
AcDb2dVertex
 10
61.80515315783294
 20
46.8824889687456
 30
0.0
  0
VERTEX
  5
78
330
76
100
AcDbEntity
  8
DIBUJOS
 62
     7
100
AcDbVertex
100
AcDb2dVertex
 10
61.82933130967476
 20
46.90668273176048
 30
0.0
  0
VERTEX
  5
79
330
76
100
AcDbEntity
  8
DIBUJOS
 62
     7
100
AcDbVertex
100
AcDb2dVertex
 10
61.84142038559567
 20
46.90668273176048
 30
0.0
  0
SEQEND
  5
7A
330
76
100
AcDbEntity
  8
DIBUJOS
 62
     7
  0
POLYLINE
  5
7B
330
1F
100
AcDbEntity
  8
DIBUJOS
 62
     7
100
AcDb2dPolyline
 66
     1
 10
0.0
 20
0.0
 30
0.0
  0
VERTEX
  5
7C
330
7B
100
AcDbEntity
  8
DIBUJOS
 62
     7
100
AcDbVertex
100
AcDb2dVertex
 10
67.32975185513601
 20
46.87643971404486
 30
0.0
  0
VERTEX
  5
7D
330
7B
100
AcDbEntity
  8
DIBUJOS
 62
     7
100
AcDbVertex
100
AcDb2dVertex
 10
67.28744090283486
 20
46.90668273176048
 30
0.0
  0
SEQEND
  5
7E
330
7B
100
AcDbEntity
  8
DIBUJOS
 62
     7
  0
POLYLINE
  5
7F
330
1F
100
AcDbEntity
  8
DIBUJOS
 62
     7
100
AcDb2dPolyline
 66
     1
 10
0.0
 20
0.0
 30
0.0
  0
VERTEX
  5
80
330
7F
100
AcDbEntity
  8
DIBUJOS
 62
     7
100
AcDbVertex
100
AcDb2dVertex
 10
67.37810815881966
 20
46.84015069741659
 30
0.0
  0
VERTEX
  5
81
330
7F
100
AcDbEntity
  8
DIBUJOS
 62
     7
100
AcDbVertex
100
AcDb2dVertex
 10
67.37206280743716
 20
46.84619995211733
 30
0.0
  0
SEQEND
  5
82
330
7F
100
AcDbEntity
  8
DIBUJOS
 62
     7
  0
POLYLINE
  5
83
330
1F
100
AcDbEntity
  8
DIBUJOS
 62
     7
100
AcDb2dPolyline
 66
     1
 10
0.0
 20
0.0
 30
0.0
  0
VERTEX
  5
84
330
83
100
AcDbEntity
  8
DIBUJOS
 62
     7
100
AcDbVertex
100
AcDb2dVertex
 10
67.4083300351999
 20
46.81595693440139
 30
0.0
  0
VERTEX
  5
85
330
83
100
AcDbEntity
  8
DIBUJOS
 62
     7
100
AcDbVertex
100
AcDb2dVertex
 10
67.40228468381773
 20
46.82200618910246
 30
0.0
  0
SEQEND
  5
86
330
83
100
AcDbEntity
  8
DIBUJOS
 62
     7
  0
POLYLINE
  5
87
330
1F
100
AcDbEntity
  8
DIBUJOS
 62
     7
100
AcDb2dPolyline
 66
     1
 10
0.0
 20
0.0
 30
0.0
  0
VERTEX
  5
88
330
87
100
AcDbEntity
  8
DIBUJOS
 62
     7
100
AcDbVertex
100
AcDb2dVertex
 10
67.4264628356589
 20
46.80386168078832
 30
0.0
  0
VERTEX
  5
89
330
87
100
AcDbEntity
  8
DIBUJOS
 62
     7
100
AcDbVertex
100
AcDb2dVertex
 10
67.42041911112048
 20
46.80990767970065
 30
0.0
  0
SEQEND
  5
8A
330
87
100
AcDbEntity
  8
DIBUJOS
 62
     7
  0
POLYLINE
  5
8B
330
1F
100
AcDbEntity
  8
DIBUJOS
 62
     7
100
AcDb2dPolyline
 66
     1
 10
0.0
 20
0.0
 30
0.0
  0
VERTEX
  5
8C
330
8B
100
AcDbEntity
  8
DIBUJOS
 62
     7
100
AcDbVertex
100
AcDb2dVertex
 10
61.67822030092981
 20
46.78571391668577
 30
0.0
  0
VERTEX
  5
8D
330
8B
100
AcDbEntity
  8
DIBUJOS
 62
     7
100
AcDbVertex
100
AcDb2dVertex
 10
61.78702035737361
 20
46.8703904593438
 30
0.0
  0
SEQEND
  5
8E
330
8B
100
AcDbEntity
  8
DIBUJOS
 62
     7
  0
POLYLINE
  5
8F
330
1F
100
AcDbEntity
  8
DIBUJOS
 62
     7
100
AcDb2dPolyline
 66
     1
 10
0.0
 20
0.0
 30
0.0
  0
VERTEX
  5
90
330
8F
100
AcDbEntity
  8
DIBUJOS
 62
     7
100
AcDbVertex
100
AcDb2dVertex
 10
61.66008750047015
 20
46.77361866307238
 30
0.0
  0
VERTEX
  5
91
330
8F
100
AcDbEntity
  8
DIBUJOS
 62
     7
100
AcDbVertex
100
AcDb2dVertex
 10
61.6661312250089
 20
46.77966791777312
 30
0.0
  0
SEQEND
  5
92
330
8F
100
AcDbEntity
  8
DIBUJOS
 62
     7
  0
POLYLINE
  5
93
330
1F
100
AcDbEntity
  8
DIBUJOS
 62
     7
100
AcDb2dPolyline
 66
     1
 10
0.0
 20
0.0
 30
0.0
  0
VERTEX
  5
94
330
93
100
AcDbEntity
  8
DIBUJOS
 62
     7
100
AcDbVertex
100
AcDb2dVertex
 10
67.46273006342196
 20
46.77361866307238
 30
0.0
  0
VERTEX
  5
95
330
93
100
AcDbEntity
  8
DIBUJOS
 62
     7
100
AcDbVertex
100
AcDb2dVertex
 10
67.44459563611855
 20
46.79176317138652
 30
0.0
  0
SEQEND
  5
96
330
93
100
AcDbEntity
  8
DIBUJOS
 62
     7
  0
POLYLINE
  5
97
330
1F
100
AcDbEntity
  8
DIBUJOS
 62
     7
100
AcDb2dPolyline
 66
     1
 10
0.0
 20
0.0
 30
0.0
  0
VERTEX
  5
98
330
97
100
AcDbEntity
  8
DIBUJOS
 62
     7
100
AcDbVertex
100
AcDb2dVertex
 10
67.8374832827495
 20
42.93293448152563
 30
0.0
  0
VERTEX
  5
99
330
97
100
AcDbEntity
  8
DIBUJOS
 62
     7
100
AcDbVertex
100
AcDb2dVertex
 10
67.83143955821109
 20
42.93293448152563
 30
0.0
  0
SEQEND
  5
9A
330
97
100
AcDbEntity
  8
DIBUJOS
 62
     7
  0
POLYLINE
  5
9B
330
1F
100
AcDbEntity
  8
DIBUJOS
 62
     7
100
AcDb2dPolyline
 66
     1
 10
0.0
 20
0.0
 30
0.0
  0
VERTEX
  5
9C
330
9B
100
AcDbEntity
  8
DIBUJOS
 62
     7
100
AcDbVertex
100
AcDb2dVertex
 10
67.8374832827495
 20
42.93293448152563
 30
0.0
  0
VERTEX
  5
9D
330
9B
100
AcDbEntity
  8
DIBUJOS
 62
     7
100
AcDbVertex
100
AcDb2dVertex
 10
67.8374832827495
 20
42.93898210833248
 30
0.0
  0
SEQEND
  5
9E
330
9B
100
AcDbEntity
  8
DIBUJOS
 62
     7
  0
POLYLINE
  5
9F
330
1F
100
AcDbEntity
  8
DIBUJOS
 62
     7
100
AcDb2dPolyline
 66
     1
 10
0.0
 20
0.0
 30
0.0
  0
VERTEX
  5
A0
330
9F
100
AcDbEntity
  8
DIBUJOS
 62
     7
100
AcDbVertex
100
AcDb2dVertex
 10
67.84352700728857
 20
42.93293448152563
 30
0.0
  0
VERTEX
  5
A1
330
9F
100
AcDbEntity
  8
DIBUJOS
 62
     7
100
AcDbVertex
100
AcDb2dVertex
 10
67.8374832827495
 20
42.93293448152563
 30
0.0
  0
SEQEND
  5
A2
330
9F
100
AcDbEntity
  8
DIBUJOS
 62
     7
  0
POLYLINE
  5
A3
330
1F
100
AcDbEntity
  8
DIBUJOS
 62
     7
100
AcDb2dPolyline
 66
     1
 10
0.0
 20
0.0
 30
0.0
  0
VERTEX
  5
A4
330
A3
100
AcDbEntity
  8
DIBUJOS
 62
     7
100
AcDbVertex
100
AcDb2dVertex
 10
67.84352700728857
 20
42.93293448152563
 30
0.0
  0
VERTEX
  5
A5
330
A3
100
AcDbEntity
  8
DIBUJOS
 62
     7
100
AcDbVertex
100
AcDb2dVertex
 10
67.87435406954424
 20
42.94382183767217
 30
0.0
  0
VERTEX
  5
A6
330
A3
100
AcDbEntity
  8
DIBUJOS
 62
     7
100
AcDbVertex
100
AcDb2dVertex
 10
67.95744186048879
 20
42.98876473965789
 30
0.0
  0
VERTEX
  5
A7
330
A3
100
AcDbEntity
  8
DIBUJOS
 62
     7
100
AcDbVertex
100
AcDb2dVertex
 10
67.97139041881778
 20
42.99806978267998
 30
0.0
  0
VERTEX
  5
A8
330
A3
100
AcDbEntity
  8
DIBUJOS
 62
     7
100
AcDbVertex
100
AcDb2dVertex
 10
68.00068336741569
 20
43.01761102418397
 30
0.0
  0
VERTEX
  5
A9
330
A3
100
AcDbEntity
  8
DIBUJOS
 62
     7
100
AcDbVertex
100
AcDb2dVertex
 10
68.06717084471492
 20
43.08414305852818
 30
0.0
  0
VERTEX
  5
AA
330
A3
100
AcDbEntity
  8
DIBUJOS
 62
     7
100
AcDbVertex
100
AcDb2dVertex
 10
68.11431840349081
 20
43.1573266684125
 30
0.0
  0
VERTEX
  5
AB
330
A3
100
AcDbEntity
  8
DIBUJOS
 62
     7
100
AcDbVertex
100
AcDb2dVertex
 10
68.13245120394983
 20
43.19361568504077
 30
0.0
  0
VERTEX
  5
AC
330
A3
100
AcDbEntity
  8
DIBUJOS
 62
     7
100
AcDbVertex
100
AcDb2dVertex
 10
68.15997089285823
 20
43.26505744817305
 30
0.0
  0
VERTEX
  5
AD
330
A3
100
AcDbEntity
  8
DIBUJOS
 62
     7
100
AcDbVertex
100
AcDb2dVertex
 10
68.17295147915529
 20
43.32607743288949
 30
0.0
  0
VERTEX
  5
AE
330
A3
100
AcDbEntity
  8
DIBUJOS
 62
     7
100
AcDbVertex
100
AcDb2dVertex
 10
68.17597090115905
 20
48.61230883853779
 30
0.0
  0
SEQEND
  5
AF
330
A3
100
AcDbEntity
  8
DIBUJOS
 62
     7
  0
POLYLINE
  5
B0
330
1F
100
AcDbEntity
  8
DIBUJOS
 62
     7
100
AcDb2dPolyline
 66
     1
 10
0.0
 20
0.0
 30
0.0
  0
VERTEX
  5
B1
330
B0
100
AcDbEntity
  8
DIBUJOS
 62
     7
100
AcDbVertex
100
AcDb2dVertex
 10
61.38808898620391
 20
42.87849932868902
 30
0.0
  0
VERTEX
  5
B2
330
B0
100
AcDbEntity
  8
DIBUJOS
 62
     7
100
AcDbVertex
100
AcDb2dVertex
 10
61.38144007578974
 20
42.8833374301345
 30
0.0
  0
VERTEX
  5
B3
330
B0
100
AcDbEntity
  8
DIBUJOS
 62
     7
100
AcDbVertex
100
AcDb2dVertex
 10
61.31555615752252
 20
42.91478997321182
 30
0.0
  0
VERTEX
  5
B4
330
B0
100
AcDbEntity
  8
DIBUJOS
 62
     7
100
AcDbVertex
100
AcDb2dVertex
 10
61.29742173021944
 20
42.93293448152563
 30
0.0
  0
VERTEX
  5
B5
330
B0
100
AcDbEntity
  8
DIBUJOS
 62
     7
100
AcDbVertex
100
AcDb2dVertex
 10
61.27445395012911
 20
42.97587670158854
 30
0.0
  0
VERTEX
  5
B6
330
B0
100
AcDbEntity
  8
DIBUJOS
 62
     7
100
AcDbVertex
100
AcDb2dVertex
 10
61.26115612930046
 20
43.01156176948323
 30
0.0
  0
VERTEX
  5
B7
330
B0
100
AcDbEntity
  8
DIBUJOS
 62
     7
100
AcDbVertex
100
AcDb2dVertex
 10
61.27033315490523
 20
43.39875965137246
 30
0.0
  0
VERTEX
  5
B8
330
B0
100
AcDbEntity
  8
DIBUJOS
 62
     7
100
AcDbVertex
100
AcDb2dVertex
 10
61.28219121901345
 20
43.71910317587356
 30
0.0
  0
VERTEX
  5
B9
330
B0
100
AcDbEntity
  8
DIBUJOS
 62
     7
100
AcDbVertex
100
AcDb2dVertex
 10
61.34261219596147
 20
45.14648961271954
 30
0.0
  0
VERTEX
  5
BA
330
B0
100
AcDbEntity
  8
DIBUJOS
 62
     7
100
AcDbVertex
100
AcDb2dVertex
 10
61.36677407936551
 20
45.64848659081454
 30
0.0
  0
VERTEX
  5
BB
330
B0
100
AcDbEntity
  8
DIBUJOS
 62
     7
100
AcDbVertex
100
AcDb2dVertex
 10
61.40290302540944
 20
46.07781437358022
 30
0.0
  0
VERTEX
  5
BC
330
B0
100
AcDbEntity
  8
DIBUJOS
 62
     7
100
AcDbVertex
100
AcDb2dVertex
 10
61.40347079387868
 20
46.08433897337596
 30
0.0
  0
VERTEX
  5
BD
330
B0
100
AcDbEntity
  8
DIBUJOS
 62
     7
100
AcDbVertex
100
AcDb2dVertex
 10
61.41831086258416
 20
46.25346415350991
 30
0.0
  0
VERTEX
  5
BE
330
B0
100
AcDbEntity
  8
DIBUJOS
 62
     7
100
AcDbVertex
100
AcDb2dVertex
 10
61.41226551120167
 20
46.25951015242256
 30
0.0
  0
VERTEX
  5
BF
330
B0
100
AcDbEntity
  8
DIBUJOS
 62
     7
100
AcDbVertex
100
AcDb2dVertex
 10
61.4524436713443
 20
46.40520342400828
 30
0.0
  0
VERTEX
  5
C0
330
B0
100
AcDbEntity
  8
DIBUJOS
 62
     7
100
AcDbVertex
100
AcDb2dVertex
 10
61.47038613108461
 20
46.47771634149841
 30
0.0
  0
VERTEX
  5
C1
330
B0
100
AcDbEntity
  8
DIBUJOS
 62
     7
100
AcDbVertex
100
AcDb2dVertex
 10
61.49809616071172
 20
46.5855154928141
 30
0.0
  0
VERTEX
  5
C2
330
B0
100
AcDbEntity
  8
DIBUJOS
 62
     7
100
AcDbVertex
100
AcDb2dVertex
 10
61.51985682273836
 20
46.64116017101208
 30
0.0
  0
VERTEX
  5
C3
330
B0
100
AcDbEntity
  8
DIBUJOS
 62
     7
100
AcDbVertex
100
AcDb2dVertex
 10
61.61459118810275
 20
46.87439833476718
 30
0.0
  0
VERTEX
  5
C4
330
B0
100
AcDbEntity
  8
DIBUJOS
 62
     7
100
AcDbVertex
100
AcDb2dVertex
 10
61.68571517009489
 20
46.96002882340359
 30
0.0
  0
VERTEX
  5
C5
330
B0
100
AcDbEntity
  8
DIBUJOS
 62
     7
100
AcDbVertex
100
AcDb2dVertex
 10
61.82933130967476
 20
47.14256459563263
 30
0.0
  0
VERTEX
  5
C6
330
B0
100
AcDbEntity
  8
DIBUJOS
 62
     7
100
AcDbVertex
100
AcDb2dVertex
 10
61.91958860103374
 20
47.15711471364006
 30
0.0
  0
VERTEX
  5
C7
330
B0
100
AcDbEntity
  8
DIBUJOS
 62
     7
100
AcDbVertex
100
AcDb2dVertex
 10
62.14364077624215
 20
47.17280761334857
 30
0.0
  0
VERTEX
  5
C8
330
B0
100
AcDbEntity
  8
DIBUJOS
 62
     7
100
AcDbVertex
100
AcDb2dVertex
 10
66.9791751608059
 20
47.17280761334857
 30
0.0
  0
VERTEX
  5
C9
330
B0
100
AcDbEntity
  8
DIBUJOS
 62
     7
100
AcDbVertex
100
AcDb2dVertex
 10
67.14226787378446
 20
47.16385093967675
 30
0.0
  0
VERTEX
  5
CA
330
B0
100
AcDbEntity
  8
DIBUJOS
 62
     7
100
AcDbVertex
100
AcDb2dVertex
 10
67.26971644015694
 20
47.14501946002667
 30
0.0
  0
VERTEX
  5
CB
330
B0
100
AcDbEntity
  8
DIBUJOS
 62
     7
100
AcDbVertex
100
AcDb2dVertex
 10
67.29952997875577
 20
47.14256459563263
 30
0.0
  0
VERTEX
  5
CC
330
B0
100
AcDbEntity
  8
DIBUJOS
 62
     7
100
AcDbVertex
100
AcDb2dVertex
 10
67.5096108198224
 20
46.88130711758512
 30
0.0
  0
VERTEX
  5
CD
330
B0
100
AcDbEntity
  8
DIBUJOS
 62
     7
100
AcDbVertex
100
AcDb2dVertex
 10
67.52196507127469
 20
46.85164037440187
 30
0.0
  0
VERTEX
  5
CE
330
B0
100
AcDbEntity
  8
DIBUJOS
 62
     7
100
AcDbVertex
100
AcDb2dVertex
 10
67.62411621730465
 20
46.59761074642749
 30
0.0
  0
VERTEX
  5
CF
330
B0
100
AcDbEntity
  8
DIBUJOS
 62
     7
100
AcDbVertex
100
AcDb2dVertex
 10
67.67800378974452
 20
46.3921086433806
 30
0.0
  0
VERTEX
  5
D0
330
B0
100
AcDbEntity
  8
DIBUJOS
 62
     7
100
AcDbVertex
100
AcDb2dVertex
 10
67.70692419112314
 20
46.27886581399195
 30
0.0
  0
VERTEX
  5
D1
330
B0
100
AcDbEntity
  8
DIBUJOS
 62
     7
100
AcDbVertex
100
AcDb2dVertex
 10
67.72593223352115
 20
46.05968614420785
 30
0.0
  0
VERTEX
  5
D2
330
B0
100
AcDbEntity
  8
DIBUJOS
 62
     7
100
AcDbVertex
100
AcDb2dVertex
 10
67.75561237093208
 20
45.71539304081571
 30
0.0
  0
VERTEX
  5
D3
330
B0
100
AcDbEntity
  8
DIBUJOS
 62
     7
100
AcDbVertex
100
AcDb2dVertex
 10
67.8161781369739
 20
44.47539350079728
 30
0.0
  0
VERTEX
  5
D4
330
B0
100
AcDbEntity
  8
DIBUJOS
 62
     7
100
AcDbVertex
100
AcDb2dVertex
 10
67.83458099349617
 20
43.98523131324976
 30
0.0
  0
VERTEX
  5
D5
330
B0
100
AcDbEntity
  8
DIBUJOS
 62
     7
100
AcDbVertex
100
AcDb2dVertex
 10
67.86770515912976
 20
43.01761102418397
 30
0.0
  0
VERTEX
  5
D6
330
B0
100
AcDbEntity
  8
DIBUJOS
 62
     7
100
AcDbVertex
100
AcDb2dVertex
 10
67.8374832827495
 20
42.93898210833248
 30
0.0
  0
SEQEND
  5
D7
330
B0
100
AcDbEntity
  8
DIBUJOS
 62
     7
  0
POLYLINE
  5
D8
330
1F
100
AcDbEntity
  8
DIBUJOS
 62
     7
100
AcDb2dPolyline
 66
     1
 10
0.0
 20
0.0
 30
0.0
  0
VERTEX
  5
D9
330
D8
100
AcDbEntity
  8
DIBUJOS
 62
     7
100
AcDbVertex
100
AcDb2dVertex
 10
61.82933130967476
 20
46.670632574474
 30
0.0
  0
VERTEX
  5
DA
330
D8
100
AcDbEntity
  8
DIBUJOS
 62
     7
100
AcDbVertex
100
AcDb2dVertex
 10
61.91958860103374
 20
46.68518269248143
 30
0.0
  0
VERTEX
  5
DB
330
D8
100
AcDbEntity
  8
DIBUJOS
 62
     7
100
AcDbVertex
100
AcDb2dVertex
 10
62.14364077624215
 20
46.70087559218994
 30
0.0
  0
VERTEX
  5
DC
330
D8
100
AcDbEntity
  8
DIBUJOS
 62
     7
100
AcDbVertex
100
AcDb2dVertex
 10
66.9791751608059
 20
46.70087559218994
 30
0.0
  0
VERTEX
  5
DD
330
D8
100
AcDbEntity
  8
DIBUJOS
 62
     7
100
AcDbVertex
100
AcDb2dVertex
 10
67.14226787378446
 20
46.69191891851812
 30
0.0
  0
VERTEX
  5
DE
330
D8
100
AcDbEntity
  8
DIBUJOS
 62
     7
100
AcDbVertex
100
AcDb2dVertex
 10
67.26971644015694
 20
46.67308743886804
 30
0.0
  0
VERTEX
  5
DF
330
D8
100
AcDbEntity
  8
DIBUJOS
 62
     7
100
AcDbVertex
100
AcDb2dVertex
 10
67.29952997875577
 20
46.670632574474
 30
0.0
  0
SEQEND
  5
E0
330
D8
100
AcDbEntity
  8
DIBUJOS
 62
     7
  0
POLYLINE
  5
E1
330
1F
100
AcDbEntity
  8
DIBUJOS
 62
     7
100
AcDb2dPolyline
 66
     1
 10
0.0
 20
0.0
 30
0.0
  0
VERTEX
  5
E2
330
E1
100
AcDbEntity
  8
DIBUJOS
 62
     7
100
AcDbVertex
100
AcDb2dVertex
 10
61.39413271074233
 20
42.87849932868902
 30
0.0
  0
VERTEX
  5
E3
330
E1
100
AcDbEntity
  8
DIBUJOS
 62
     7
100
AcDbVertex
100
AcDb2dVertex
 10
61.38808898620391
 20
42.87849932868902
 30
0.0
  0
SEQEND
  5
E4
330
E1
100
AcDbEntity
  8
DIBUJOS
 62
     7
  0
POLYLINE
  5
E5
330
1F
100
AcDbEntity
  8
DIBUJOS
 62
     7
100
AcDb2dPolyline
 66
     1
 10
0.0
 20
0.0
 30
0.0
  0
VERTEX
  5
E6
330
E5
100
AcDbEntity
  8
DIBUJOS
 62
     7
100
AcDbVertex
100
AcDb2dVertex
 10
61.40017806212482
 20
42.87849932868902
 30
0.0
  0
VERTEX
  5
E7
330
E5
100
AcDbEntity
  8
DIBUJOS
 62
     7
100
AcDbVertex
100
AcDb2dVertex
 10
61.39413271074233
 20
42.87849932868902
 30
0.0
  0
SEQEND
  5
E8
330
E5
100
AcDbEntity
  8
DIBUJOS
 62
     7
  0
POLYLINE
  5
E9
330
1F
100
AcDbEntity
  8
DIBUJOS
 62
     7
100
AcDb2dPolyline
 66
     1
 10
0.0
 20
0.0
 30
0.0
  0
VERTEX
  5
EA
330
E9
100
AcDbEntity
  8
DIBUJOS
 62
     7
100
AcDbVertex
100
AcDb2dVertex
 10
61.40017806212482
 20
42.87849932868902
 30
0.0
  0
VERTEX
  5
EB
330
E9
100
AcDbEntity
  8
DIBUJOS
 62
     7
100
AcDbVertex
100
AcDb2dVertex
 10
61.4056166007875
 20
42.87970885405039
 30
0.0
  0
VERTEX
  5
EC
330
E9
100
AcDbEntity
  8
DIBUJOS
 62
     7
100
AcDbVertex
100
AcDb2dVertex
 10
61.76888755691428
 20
42.88454858339009
 30
0.0
  0
VERTEX
  5
ED
330
E9
100
AcDbEntity
  8
DIBUJOS
 62
     7
100
AcDbVertex
100
AcDb2dVertex
 10
61.77493128145269
 20
42.87849932868902
 30
0.0
  0
VERTEX
  5
EE
330
E9
100
AcDbEntity
  8
DIBUJOS
 62
     7
100
AcDbVertex
100
AcDb2dVertex
 10
61.78702035737361
 20
42.88454858339009
 30
0.0
  0
VERTEX
  5
EF
330
E9
100
AcDbEntity
  8
DIBUJOS
 62
     7
100
AcDbVertex
100
AcDb2dVertex
 10
61.79306408191203
 20
42.88454858339009
 30
0.0
  0
VERTEX
  5
F0
330
E9
100
AcDbEntity
  8
DIBUJOS
 62
     7
100
AcDbVertex
100
AcDb2dVertex
 10
61.79910943329452
 20
42.87849932868902
 30
0.0
  0
VERTEX
  5
F1
330
E9
100
AcDbEntity
  8
DIBUJOS
 62
     7
100
AcDbVertex
100
AcDb2dVertex
 10
61.87164226197591
 20
42.87849932868902
 30
0.0
  0
VERTEX
  5
F2
330
E9
100
AcDbEntity
  8
DIBUJOS
 62
     7
100
AcDbVertex
100
AcDb2dVertex
 10
61.87768598651433
 20
42.88454858339009
 30
0.0
  0
VERTEX
  5
F3
330
E9
100
AcDbEntity
  8
DIBUJOS
 62
     7
100
AcDbVertex
100
AcDb2dVertex
 10
62.15572985216306
 20
42.87849932868902
 30
0.0
  0
VERTEX
  5
F4
330
E9
100
AcDbEntity
  8
DIBUJOS
 62
     7
100
AcDbVertex
100
AcDb2dVertex
 10
62.1617735767018
 20
42.88454858339009
 30
0.0
  0
VERTEX
  5
F5
330
E9
100
AcDbEntity
  8
DIBUJOS
 62
     7
100
AcDbVertex
100
AcDb2dVertex
 10
62.57279402379241
 20
42.87849932868902
 30
0.0
  0
VERTEX
  5
F6
330
E9
100
AcDbEntity
  8
DIBUJOS
 62
     7
100
AcDbVertex
100
AcDb2dVertex
 10
62.57883937517458
 20
42.88454858339009
 30
0.0
  0
VERTEX
  5
F7
330
E9
100
AcDbEntity
  8
DIBUJOS
 62
     7
100
AcDbVertex
100
AcDb2dVertex
 10
63.04425985048692
 20
42.88152395603955
 30
0.0
  0
VERTEX
  5
F8
330
E9
100
AcDbEntity
  8
DIBUJOS
 62
     7
100
AcDbVertex
100
AcDb2dVertex
 10
63.05030357502567
 20
42.88454858339009
 30
0.0
  0
VERTEX
  5
F9
330
E9
100
AcDbEntity
  8
DIBUJOS
 62
     7
100
AcDbVertex
100
AcDb2dVertex
 10
63.43110214573603
 20
42.88454858339009
 30
0.0
  0
VERTEX
  5
FA
330
E9
100
AcDbEntity
  8
DIBUJOS
 62
     7
100
AcDbVertex
100
AcDb2dVertex
 10
63.43714587027445
 20
42.87849932868902
 30
0.0
  0
VERTEX
  5
FB
330
E9
100
AcDbEntity
  8
DIBUJOS
 62
     7
100
AcDbVertex
100
AcDb2dVertex
 10
63.96905544972977
 20
42.88454858339009
 30
0.0
  0
VERTEX
  5
FC
330
E9
100
AcDbEntity
  8
DIBUJOS
 62
     7
100
AcDbVertex
100
AcDb2dVertex
 10
63.97509917426851
 20
42.87849932868902
 30
0.0
  0
VERTEX
  5
FD
330
E9
100
AcDbEntity
  8
DIBUJOS
 62
     7
100
AcDbVertex
100
AcDb2dVertex
 10
64.09598830663323
 20
42.87849932868902
 30
0.0
  0
VERTEX
  5
FE
330
E9
100
AcDbEntity
  8
DIBUJOS
 62
     7
100
AcDbVertex
100
AcDb2dVertex
 10
64.10203203117197
 20
42.88454858339009
 30
0.0
  0
VERTEX
  5
FF
330
E9
100
AcDbEntity
  8
DIBUJOS
 62
     7
100
AcDbVertex
100
AcDb2dVertex
 10
64.6460306865482
 20
42.87849932868902
 30
0.0
  0
VERTEX
  5
100
330
E9
100
AcDbEntity
  8
DIBUJOS
 62
     7
100
AcDbVertex
100
AcDb2dVertex
 10
64.65207441108662
 20
42.88454858339009
 30
0.0
  0
VERTEX
  5
101
330
E9
100
AcDbEntity
  8
DIBUJOS
 62
     7
100
AcDbVertex
100
AcDb2dVertex
 10
65.00265110541675
 20
42.88454858339009
 30
0.0
  0
VERTEX
  5
102
330
E9
100
AcDbEntity
  8
DIBUJOS
 62
     7
100
AcDbVertex
100
AcDb2dVertex
 10
65.00869482995516
 20
42.87849932868902
 30
0.0
  0
VERTEX
  5
103
330
E9
100
AcDbEntity
  8
DIBUJOS
 62
     7
100
AcDbVertex
100
AcDb2dVertex
 10
65.52851533348989
 20
42.88454858339009
 30
0.0
  0
VERTEX
  5
104
330
E9
100
AcDbEntity
  8
DIBUJOS
 62
     7
100
AcDbVertex
100
AcDb2dVertex
 10
65.55269348533172
 20
42.87849932868902
 30
0.0
  0
VERTEX
  5
105
330
E9
100
AcDbEntity
  8
DIBUJOS
 62
     7
100
AcDbVertex
100
AcDb2dVertex
 10
66.02415768518313
 20
42.88454858339009
 30
0.0
  0
VERTEX
  5
106
330
E9
100
AcDbEntity
  8
DIBUJOS
 62
     7
100
AcDbVertex
100
AcDb2dVertex
 10
66.03020140972154
 20
42.87849932868902
 30
0.0
  0
VERTEX
  5
107
330
E9
100
AcDbEntity
  8
DIBUJOS
 62
     7
100
AcDbVertex
100
AcDb2dVertex
 10
66.38682345543383
 20
42.88152395603955
 30
0.0
  0
VERTEX
  5
108
330
E9
100
AcDbEntity
  8
DIBUJOS
 62
     7
100
AcDbVertex
100
AcDb2dVertex
 10
67.72921683105628
 20
42.88241278625122
 30
0.0
  0
VERTEX
  5
109
330
E9
100
AcDbEntity
  8
DIBUJOS
 62
     7
100
AcDbVertex
100
AcDb2dVertex
 10
67.74628404885821
 20
42.88668275263474
 30
0.0
  0
VERTEX
  5
10A
330
E9
100
AcDbEntity
  8
DIBUJOS
 62
     7
100
AcDbVertex
100
AcDb2dVertex
 10
67.82479064779724
 20
42.92809638008047
 30
0.0
  0
VERTEX
  5
10B
330
E9
100
AcDbEntity
  8
DIBUJOS
 62
     7
100
AcDbVertex
100
AcDb2dVertex
 10
67.83143955821109
 20
42.93293448152563
 30
0.0
  0
SEQEND
  5
10C
330
E9
100
AcDbEntity
  8
DIBUJOS
 62
     7
  0
POLYLINE
  5
10D
330
1F
100
AcDbEntity
  8
DIBUJOS
 62
     7
100
AcDb2dPolyline
 66
     1
 10
0.0
 20
0.0
 30
0.0
  0
VERTEX
  5
10E
330
10D
100
AcDbEntity
  8
DIBUJOS
 62
     7
100
AcDbVertex
100
AcDb2dVertex
 10
61.39413271074233
 20
42.87245170188249
 30
0.0
  0
VERTEX
  5
10F
330
10D
100
AcDbEntity
  8
DIBUJOS
 62
     7
100
AcDbVertex
100
AcDb2dVertex
 10
61.39413271074233
 20
42.87849932868902
 30
0.0
  0
SEQEND
  5
110
330
10D
100
AcDbEntity
  8
DIBUJOS
 62
     7
  0
POLYLINE
  5
111
330
1F
100
AcDbEntity
  8
DIBUJOS
 62
     7
100
AcDb2dPolyline
 66
     1
 10
0.0
 20
0.0
 30
0.0
  0
VERTEX
  5
112
330
111
100
AcDbEntity
  8
DIBUJOS
 62
     7
100
AcDbVertex
100
AcDb2dVertex
 10
67.74681765360879
 20
42.73334000638786
 30
0.0
  0
VERTEX
  5
113
330
111
100
AcDbEntity
  8
DIBUJOS
 62
     7
100
AcDbVertex
100
AcDb2dVertex
 10
67.75677231052711
 20
42.76411534549383
 30
0.0
  0
VERTEX
  5
114
330
111
100
AcDbEntity
  8
DIBUJOS
 62
     7
100
AcDbVertex
100
AcDb2dVertex
 10
67.76495045406844
 20
42.793822786031
 30
0.0
  0
VERTEX
  5
115
330
111
100
AcDbEntity
  8
DIBUJOS
 62
     7
100
AcDbVertex
100
AcDb2dVertex
 10
67.74681765360879
 20
42.84221031206076
 30
0.0
  0
SEQEND
  5
116
330
111
100
AcDbEntity
  8
DIBUJOS
 62
     7
  0
POLYLINE
  5
117
330
1F
100
AcDbEntity
  8
DIBUJOS
 62
     7
100
AcDb2dPolyline
 66
     1
 10
0.0
 20
0.0
 30
0.0
  0
VERTEX
  5
118
330
117
100
AcDbEntity
  8
DIBUJOS
 62
     7
100
AcDbVertex
100
AcDb2dVertex
 10
64.59767438286455
 20
42.72124312488058
 30
0.0
  0
VERTEX
  5
119
330
117
100
AcDbEntity
  8
DIBUJOS
 62
     7
100
AcDbVertex
100
AcDb2dVertex
 10
64.47678687734359
 20
42.72124312488058
 30
0.0
  0
SEQEND
  5
11A
330
117
100
AcDbEntity
  8
DIBUJOS
 62
     7
  0
POLYLINE
  5
11B
330
1F
100
AcDbEntity
  8
DIBUJOS
 62
     7
100
AcDb2dPolyline
 66
     1
 10
0.0
 20
0.0
 30
0.0
  0
VERTEX
  5
11C
330
11B
100
AcDbEntity
  8
DIBUJOS
 62
     7
100
AcDbVertex
100
AcDb2dVertex
 10
67.76495045406844
 20
42.69100173505885
 30
0.0
  0
VERTEX
  5
11D
330
11B
100
AcDbEntity
  8
DIBUJOS
 62
     7
100
AcDbVertex
100
AcDb2dVertex
 10
67.81894214450844
 20
42.69950097047101
 30
0.0
  0
VERTEX
  5
11E
330
11B
100
AcDbEntity
  8
DIBUJOS
 62
     7
100
AcDbVertex
100
AcDb2dVertex
 10
67.90941255239922
 20
42.7230582268691
 30
0.0
  0
VERTEX
  5
11F
330
11B
100
AcDbEntity
  8
DIBUJOS
 62
     7
100
AcDbVertex
100
AcDb2dVertex
 10
67.92754535285856
 20
42.72910585367595
 30
0.0
  0
VERTEX
  5
120
330
11B
100
AcDbEntity
  8
DIBUJOS
 62
     7
100
AcDbVertex
100
AcDb2dVertex
 10
68.03030005792051
 20
42.77688780307856
 30
0.0
  0
VERTEX
  5
121
330
11B
100
AcDbEntity
  8
DIBUJOS
 62
     7
100
AcDbVertex
100
AcDb2dVertex
 10
68.03755415421043
 20
42.78051637916235
 30
0.0
  0
VERTEX
  5
122
330
11B
100
AcDbEntity
  8
DIBUJOS
 62
     7
100
AcDbVertex
100
AcDb2dVertex
 10
68.13970367339631
 20
42.84825793886761
 30
0.0
  0
VERTEX
  5
123
330
11B
100
AcDbEntity
  8
DIBUJOS
 62
     7
100
AcDbVertex
100
AcDb2dVertex
 10
68.23641465391952
 20
42.94503136303355
 30
0.0
  0
VERTEX
  5
124
330
11B
100
AcDbEntity
  8
DIBUJOS
 62
     7
100
AcDbVertex
100
AcDb2dVertex
 10
68.25309793659594
 20
42.97031255934771
 30
0.0
  0
VERTEX
  5
125
330
11B
100
AcDbEntity
  8
DIBUJOS
 62
     7
100
AcDbVertex
100
AcDb2dVertex
 10
68.27123073705559
 20
42.99450632236259
 30
0.0
  0
VERTEX
  5
126
330
11B
100
AcDbEntity
  8
DIBUJOS
 62
     7
100
AcDbVertex
100
AcDb2dVertex
 10
68.30773873769348
 20
43.05450561744003
 30
0.0
  0
VERTEX
  5
127
330
11B
100
AcDbEntity
  8
DIBUJOS
 62
     7
100
AcDbVertex
100
AcDb2dVertex
 10
68.31861906870633
 20
43.07325570238227
 30
0.0
  0
VERTEX
  5
128
330
11B
100
AcDbEntity
  8
DIBUJOS
 62
     7
100
AcDbVertex
100
AcDb2dVertex
 10
68.36516144160647
 20
43.18635853287286
 30
0.0
  0
VERTEX
  5
129
330
11B
100
AcDbEntity
  8
DIBUJOS
 62
     7
100
AcDbVertex
100
AcDb2dVertex
 10
68.37152565436399
 20
43.21062392323097
 30
0.0
  0
VERTEX
  5
12A
330
11B
100
AcDbEntity
  8
DIBUJOS
 62
     7
100
AcDbVertex
100
AcDb2dVertex
 10
68.39084442391861
 20
43.30213110978687
 30
0.0
  0
VERTEX
  5
12B
330
11B
100
AcDbEntity
  8
DIBUJOS
 62
     7
100
AcDbVertex
100
AcDb2dVertex
 10
68.39629435048784
 20
43.36211575381676
 30
0.0
  0
VERTEX
  5
12C
330
11B
100
AcDbEntity
  8
DIBUJOS
 62
     7
100
AcDbVertex
100
AcDb2dVertex
 10
68.39961473858571
 20
48.61230883853779
 30
0.0
  0
SEQEND
  5
12D
330
11B
100
AcDbEntity
  8
DIBUJOS
 62
     7
  0
POLYLINE
  5
12E
330
1F
100
AcDbEntity
  8
DIBUJOS
 62
     7
100
AcDb2dPolyline
 66
     1
 10
0.0
 20
0.0
 30
0.0
  0
VERTEX
  5
12F
330
12E
100
AcDbEntity
  8
DIBUJOS
 62
     7
100
AcDbVertex
100
AcDb2dVertex
 10
67.75890672953001
 20
42.68495248035779
 30
0.0
  0
VERTEX
  5
130
330
12E
100
AcDbEntity
  8
DIBUJOS
 62
     7
100
AcDbVertex
100
AcDb2dVertex
 10
67.75890672953001
 20
42.69100173505885
 30
0.0
  0
VERTEX
  5
131
330
12E
100
AcDbEntity
  8
DIBUJOS
 62
     7
100
AcDbVertex
100
AcDb2dVertex
 10
67.76495045406844
 20
42.69100173505885
 30
0.0
  0
SEQEND
  5
132
330
12E
100
AcDbEntity
  8
DIBUJOS
 62
     7
  0
POLYLINE
  5
133
330
1F
100
AcDbEntity
  8
DIBUJOS
 62
     7
100
AcDb2dPolyline
 66
     1
 10
0.0
 20
0.0
 30
0.0
  0
VERTEX
  5
134
330
133
100
AcDbEntity
  8
DIBUJOS
 62
     7
100
AcDbVertex
100
AcDb2dVertex
 10
64.42843057366026
 20
42.67890485355125
 30
0.0
  0
VERTEX
  5
135
330
133
100
AcDbEntity
  8
DIBUJOS
 62
     7
100
AcDbVertex
100
AcDb2dVertex
 10
64.43447592504212
 20
42.69100173505885
 30
0.0
  0
SEQEND
  5
136
330
133
100
AcDbEntity
  8
DIBUJOS
 62
     7
  0
POLYLINE
  5
137
330
1F
100
AcDbEntity
  8
DIBUJOS
 62
     7
100
AcDb2dPolyline
 66
     1
 10
0.0
 20
0.0
 30
0.0
  0
VERTEX
  5
138
330
137
100
AcDbEntity
  8
DIBUJOS
 62
     7
100
AcDbVertex
100
AcDb2dVertex
 10
64.65207441108662
 20
42.67890485355125
 30
0.0
  0
VERTEX
  5
139
330
137
100
AcDbEntity
  8
DIBUJOS
 62
     7
100
AcDbVertex
100
AcDb2dVertex
 10
64.6460306865482
 20
42.68495248035779
 30
0.0
  0
SEQEND
  5
13A
330
137
100
AcDbEntity
  8
DIBUJOS
 62
     7
  0
POLYLINE
  5
13B
330
1F
100
AcDbEntity
  8
DIBUJOS
 62
     7
100
AcDb2dPolyline
 66
     1
 10
0.0
 20
0.0
 30
0.0
  0
VERTEX
  5
13C
330
13B
100
AcDbEntity
  8
DIBUJOS
 62
     7
100
AcDbVertex
100
AcDb2dVertex
 10
64.65811976246911
 20
42.67890485355125
 30
0.0
  0
VERTEX
  5
13D
330
13B
100
AcDbEntity
  8
DIBUJOS
 62
     7
100
AcDbVertex
100
AcDb2dVertex
 10
64.65207441108662
 20
42.67890485355125
 30
0.0
  0
SEQEND
  5
13E
330
13B
100
AcDbEntity
  8
DIBUJOS
 62
     7
  0
POLYLINE
  5
13F
330
1F
100
AcDbEntity
  8
DIBUJOS
 62
     7
100
AcDb2dPolyline
 66
     1
 10
0.0
 20
0.0
 30
0.0
  0
VERTEX
  5
140
330
13F
100
AcDbEntity
  8
DIBUJOS
 62
     7
100
AcDbVertex
100
AcDb2dVertex
 10
64.68229628746685
 20
42.67890485355125
 30
0.0
  0
VERTEX
  5
141
330
13F
100
AcDbEntity
  8
DIBUJOS
 62
     7
100
AcDbVertex
100
AcDb2dVertex
 10
64.65811976246911
 20
42.67890485355125
 30
0.0
  0
SEQEND
  5
142
330
13F
100
AcDbEntity
  8
DIBUJOS
 62
     7
  0
POLYLINE
  5
143
330
1F
100
AcDbEntity
  8
DIBUJOS
 62
     7
100
AcDb2dPolyline
 66
     1
 10
0.0
 20
0.0
 30
0.0
  0
VERTEX
  5
144
330
143
100
AcDbEntity
  8
DIBUJOS
 62
     7
100
AcDbVertex
100
AcDb2dVertex
 10
64.68834163884935
 20
42.67890485355125
 30
0.0
  0
VERTEX
  5
145
330
143
100
AcDbEntity
  8
DIBUJOS
 62
     7
100
AcDbVertex
100
AcDb2dVertex
 10
64.68229628746685
 20
42.67890485355125
 30
0.0
  0
SEQEND
  5
146
330
143
100
AcDbEntity
  8
DIBUJOS
 62
     7
  0
POLYLINE
  5
147
330
1F
100
AcDbEntity
  8
DIBUJOS
 62
     7
100
AcDb2dPolyline
 66
     1
 10
0.0
 20
0.0
 30
0.0
  0
VERTEX
  5
148
330
147
100
AcDbEntity
  8
DIBUJOS
 62
     7
100
AcDbVertex
100
AcDb2dVertex
 10
64.6943853633881
 20
42.67890485355125
 30
0.0
  0
VERTEX
  5
149
330
147
100
AcDbEntity
  8
DIBUJOS
 62
     7
100
AcDbVertex
100
AcDb2dVertex
 10
64.68834163884935
 20
42.67890485355125
 30
0.0
  0
SEQEND
  5
14A
330
147
100
AcDbEntity
  8
DIBUJOS
 62
     7
  0
POLYLINE
  5
14B
330
1F
100
AcDbEntity
  8
DIBUJOS
 62
     7
100
AcDb2dPolyline
 66
     1
 10
0.0
 20
0.0
 30
0.0
  0
VERTEX
  5
14C
330
14B
100
AcDbEntity
  8
DIBUJOS
 62
     7
100
AcDbVertex
100
AcDb2dVertex
 10
61.57546559586785
 20
42.67285722674472
 30
0.0
  0
VERTEX
  5
14D
330
14B
100
AcDbEntity
  8
DIBUJOS
 62
     7
100
AcDbVertex
100
AcDb2dVertex
 10
61.46682334326781
 20
42.68175204043791
 30
0.0
  0
VERTEX
  5
14E
330
14B
100
AcDbEntity
  8
DIBUJOS
 62
     7
100
AcDbVertex
100
AcDb2dVertex
 10
61.4308082762868
 20
42.68740571685761
 30
0.0
  0
VERTEX
  5
14F
330
14B
100
AcDbEntity
  8
DIBUJOS
 62
     7
100
AcDbVertex
100
AcDb2dVertex
 10
61.42435458712257
 20
42.69100173505885
 30
0.0
  0
SEQEND
  5
150
330
14B
100
AcDbEntity
  8
DIBUJOS
 62
     7
  0
POLYLINE
  5
151
330
1F
100
AcDbEntity
  8
DIBUJOS
 62
     7
100
AcDb2dPolyline
 66
     1
 10
0.0
 20
0.0
 30
0.0
  0
VERTEX
  5
152
330
151
100
AcDbEntity
  8
DIBUJOS
 62
     7
100
AcDbVertex
100
AcDb2dVertex
 10
61.58150932040659
 20
42.67285722674472
 30
0.0
  0
VERTEX
  5
153
330
151
100
AcDbEntity
  8
DIBUJOS
 62
     7
100
AcDbVertex
100
AcDb2dVertex
 10
61.57546559586785
 20
42.67285722674472
 30
0.0
  0
SEQEND
  5
154
330
151
100
AcDbEntity
  8
DIBUJOS
 62
     7
  0
POLYLINE
  5
155
330
1F
100
AcDbEntity
  8
DIBUJOS
 62
     7
100
AcDb2dPolyline
 66
     1
 10
0.0
 20
0.0
 30
0.0
  0
VERTEX
  5
156
330
155
100
AcDbEntity
  8
DIBUJOS
 62
     7
100
AcDbVertex
100
AcDb2dVertex
 10
64.42238684912152
 20
42.67285722674472
 30
0.0
  0
VERTEX
  5
157
330
155
100
AcDbEntity
  8
DIBUJOS
 62
     7
100
AcDbVertex
100
AcDb2dVertex
 10
64.41634149773937
 20
42.67890485355125
 30
0.0
  0
VERTEX
  5
158
330
155
100
AcDbEntity
  8
DIBUJOS
 62
     7
100
AcDbVertex
100
AcDb2dVertex
 10
61.58755467178876
 20
42.67890485355125
 30
0.0
  0
VERTEX
  5
159
330
155
100
AcDbEntity
  8
DIBUJOS
 62
     7
100
AcDbVertex
100
AcDb2dVertex
 10
61.58150932040659
 20
42.67285722674472
 30
0.0
  0
SEQEND
  5
15A
330
155
100
AcDbEntity
  8
DIBUJOS
 62
     7
  0
POLYLINE
  5
15B
330
1F
100
AcDbEntity
  8
DIBUJOS
 62
     7
100
AcDb2dPolyline
 66
     1
 10
0.0
 20
0.0
 30
0.0
  0
VERTEX
  5
15C
330
15B
100
AcDbEntity
  8
DIBUJOS
 62
     7
100
AcDbVertex
100
AcDb2dVertex
 10
64.42843057366026
 20
42.67285722674472
 30
0.0
  0
VERTEX
  5
15D
330
15B
100
AcDbEntity
  8
DIBUJOS
 62
     7
100
AcDbVertex
100
AcDb2dVertex
 10
64.42238684912152
 20
42.67285722674472
 30
0.0
  0
SEQEND
  5
15E
330
15B
100
AcDbEntity
  8
DIBUJOS
 62
     7
  0
POLYLINE
  5
15F
330
1F
100
AcDbEntity
  8
DIBUJOS
 62
     7
100
AcDb2dPolyline
 66
     1
 10
0.0
 20
0.0
 30
0.0
  0
VERTEX
  5
160
330
15F
100
AcDbEntity
  8
DIBUJOS
 62
     7
100
AcDbVertex
100
AcDb2dVertex
 10
64.42843057366026
 20
42.67285722674472
 30
0.0
  0
VERTEX
  5
161
330
15F
100
AcDbEntity
  8
DIBUJOS
 62
     7
100
AcDbVertex
100
AcDb2dVertex
 10
64.42843057366026
 20
42.67890485355125
 30
0.0
  0
SEQEND
  5
162
330
15F
100
AcDbEntity
  8
DIBUJOS
 62
     7
  0
POLYLINE
  5
163
330
1F
100
AcDbEntity
  8
DIBUJOS
 62
     7
100
AcDb2dPolyline
 66
     1
 10
0.0
 20
0.0
 30
0.0
  0
VERTEX
  5
164
330
163
100
AcDbEntity
  8
DIBUJOS
 62
     7
100
AcDbVertex
100
AcDb2dVertex
 10
64.65207441108662
 20
42.67285722674472
 30
0.0
  0
VERTEX
  5
165
330
163
100
AcDbEntity
  8
DIBUJOS
 62
     7
100
AcDbVertex
100
AcDb2dVertex
 10
64.65207441108662
 20
42.67890485355125
 30
0.0
  0
SEQEND
  5
166
330
163
100
AcDbEntity
  8
DIBUJOS
 62
     7
  0
POLYLINE
  5
167
330
1F
100
AcDbEntity
  8
DIBUJOS
 62
     7
100
AcDb2dPolyline
 66
     1
 10
0.0
 20
0.0
 30
0.0
  0
VERTEX
  5
168
330
167
100
AcDbEntity
  8
DIBUJOS
 62
     7
100
AcDbVertex
100
AcDb2dVertex
 10
64.68834163884935
 20
42.67285722674472
 30
0.0
  0
VERTEX
  5
169
330
167
100
AcDbEntity
  8
DIBUJOS
 62
     7
100
AcDbVertex
100
AcDb2dVertex
 10
64.68834163884935
 20
42.67890485355125
 30
0.0
  0
SEQEND
  5
16A
330
167
100
AcDbEntity
  8
DIBUJOS
 62
     7
  0
POLYLINE
  5
16B
330
1F
100
AcDbEntity
  8
DIBUJOS
 62
     7
100
AcDb2dPolyline
 66
     1
 10
0.0
 20
0.0
 30
0.0
  0
VERTEX
  5
16C
330
16B
100
AcDbEntity
  8
DIBUJOS
 62
     7
100
AcDbVertex
100
AcDb2dVertex
 10
67.53526289210302
 20
42.67285722674472
 30
0.0
  0
VERTEX
  5
16D
330
16B
100
AcDbEntity
  8
DIBUJOS
 62
     7
100
AcDbVertex
100
AcDb2dVertex
 10
67.52921754072086
 20
42.67890485355125
 30
0.0
  0
VERTEX
  5
16E
330
16B
100
AcDbEntity
  8
DIBUJOS
 62
     7
100
AcDbVertex
100
AcDb2dVertex
 10
64.6943853633881
 20
42.67890485355125
 30
0.0
  0
SEQEND
  5
16F
330
16B
100
AcDbEntity
  8
DIBUJOS
 62
     7
  0
POLYLINE
  5
170
330
1F
100
AcDbEntity
  8
DIBUJOS
 62
     7
100
AcDb2dPolyline
 66
     1
 10
0.0
 20
0.0
 30
0.0
  0
VERTEX
  5
171
330
170
100
AcDbEntity
  8
DIBUJOS
 62
     7
100
AcDbVertex
100
AcDb2dVertex
 10
67.54130661664209
 20
42.67285722674472
 30
0.0
  0
VERTEX
  5
172
330
170
100
AcDbEntity
  8
DIBUJOS
 62
     7
100
AcDbVertex
100
AcDb2dVertex
 10
67.53526289210302
 20
42.67285722674472
 30
0.0
  0
SEQEND
  5
173
330
170
100
AcDbEntity
  8
DIBUJOS
 62
     7
  0
POLYLINE
  5
174
330
1F
100
AcDbEntity
  8
DIBUJOS
 62
     7
100
AcDb2dPolyline
 66
     1
 10
0.0
 20
0.0
 30
0.0
  0
VERTEX
  5
175
330
174
100
AcDbEntity
  8
DIBUJOS
 62
     7
100
AcDbVertex
100
AcDb2dVertex
 10
67.54130661664209
 20
42.67285722674472
 30
0.0
  0
VERTEX
  5
176
330
174
100
AcDbEntity
  8
DIBUJOS
 62
     7
100
AcDbVertex
100
AcDb2dVertex
 10
67.64994886924181
 20
42.68175204043791
 30
0.0
  0
VERTEX
  5
177
330
174
100
AcDbEntity
  8
DIBUJOS
 62
     7
100
AcDbVertex
100
AcDb2dVertex
 10
67.68596393622282
 20
42.68740571685761
 30
0.0
  0
VERTEX
  5
178
330
174
100
AcDbEntity
  8
DIBUJOS
 62
     7
100
AcDbVertex
100
AcDb2dVertex
 10
67.69241762538672
 20
42.69100173505885
 30
0.0
  0
SEQEND
  5
179
330
174
100
AcDbEntity
  8
DIBUJOS
 62
     7
  0
POLYLINE
  5
17A
330
1F
100
AcDbEntity
  8
DIBUJOS
 62
     7
100
AcDb2dPolyline
 66
     1
 10
0.0
 20
0.0
 30
0.0
  0
VERTEX
  5
17B
330
17A
100
AcDbEntity
  8
DIBUJOS
 62
     7
100
AcDbVertex
100
AcDb2dVertex
 10
61.58150932040659
 20
42.66680797204397
 30
0.0
  0
VERTEX
  5
17C
330
17A
100
AcDbEntity
  8
DIBUJOS
 62
     7
100
AcDbVertex
100
AcDb2dVertex
 10
61.58150932040659
 20
42.67285722674472
 30
0.0
  0
SEQEND
  5
17D
330
17A
100
AcDbEntity
  8
DIBUJOS
 62
     7
  0
POLYLINE
  5
17E
330
1F
100
AcDbEntity
  8
DIBUJOS
 62
     7
100
AcDb2dPolyline
 66
     1
 10
0.0
 20
0.0
 30
0.0
  0
VERTEX
  5
17F
330
17E
100
AcDbEntity
  8
DIBUJOS
 62
     7
100
AcDbVertex
100
AcDb2dVertex
 10
64.42843057366026
 20
42.66680797204397
 30
0.0
  0
VERTEX
  5
180
330
17E
100
AcDbEntity
  8
DIBUJOS
 62
     7
100
AcDbVertex
100
AcDb2dVertex
 10
64.42843057366026
 20
42.67285722674472
 30
0.0
  0
SEQEND
  5
181
330
17E
100
AcDbEntity
  8
DIBUJOS
 62
     7
  0
POLYLINE
  5
182
330
1F
100
AcDbEntity
  8
DIBUJOS
 62
     7
100
AcDb2dPolyline
 66
     1
 10
0.0
 20
0.0
 30
0.0
  0
VERTEX
  5
183
330
182
100
AcDbEntity
  8
DIBUJOS
 62
     7
100
AcDbVertex
100
AcDb2dVertex
 10
67.54130661664209
 20
42.66680797204397
 30
0.0
  0
VERTEX
  5
184
330
182
100
AcDbEntity
  8
DIBUJOS
 62
     7
100
AcDbVertex
100
AcDb2dVertex
 10
67.54130661664209
 20
42.67285722674472
 30
0.0
  0
SEQEND
  5
185
330
182
100
AcDbEntity
  8
DIBUJOS
 62
     7
  0
POLYLINE
  5
186
330
1F
100
AcDbEntity
  8
DIBUJOS
 62
     7
100
AcDb2dPolyline
 66
     1
 10
0.0
 20
0.0
 30
0.0
  0
VERTEX
  5
187
330
186
100
AcDbEntity
  8
DIBUJOS
 62
     7
100
AcDbVertex
100
AcDb2dVertex
 10
61.57546559586785
 20
42.54584241275705
 30
0.0
  0
VERTEX
  5
188
330
186
100
AcDbEntity
  8
DIBUJOS
 62
     7
100
AcDbVertex
100
AcDb2dVertex
 10
61.58150932040659
 20
42.55189003956358
 30
0.0
  0
VERTEX
  5
189
330
186
100
AcDbEntity
  8
DIBUJOS
 62
     7
100
AcDbVertex
100
AcDb2dVertex
 10
61.58150932040659
 20
42.66680797204397
 30
0.0
  0
SEQEND
  5
18A
330
186
100
AcDbEntity
  8
DIBUJOS
 62
     7
  0
POLYLINE
  5
18B
330
1F
100
AcDbEntity
  8
DIBUJOS
 62
     7
100
AcDb2dPolyline
 66
     1
 10
0.0
 20
0.0
 30
0.0
  0
VERTEX
  5
18C
330
18B
100
AcDbEntity
  8
DIBUJOS
 62
     7
100
AcDbVertex
100
AcDb2dVertex
 10
64.65207441108662
 20
42.54584241275705
 30
0.0
  0
VERTEX
  5
18D
330
18B
100
AcDbEntity
  8
DIBUJOS
 62
     7
100
AcDbVertex
100
AcDb2dVertex
 10
64.65207441108662
 20
42.67285722674472
 30
0.0
  0
SEQEND
  5
18E
330
18B
100
AcDbEntity
  8
DIBUJOS
 62
     7
  0
POLYLINE
  5
18F
330
1F
100
AcDbEntity
  8
DIBUJOS
 62
     7
100
AcDb2dPolyline
 66
     1
 10
0.0
 20
0.0
 30
0.0
  0
VERTEX
  5
190
330
18F
100
AcDbEntity
  8
DIBUJOS
 62
     7
100
AcDbVertex
100
AcDb2dVertex
 10
67.54130661664209
 20
42.54584241275705
 30
0.0
  0
VERTEX
  5
191
330
18F
100
AcDbEntity
  8
DIBUJOS
 62
     7
100
AcDbVertex
100
AcDb2dVertex
 10
67.54130661664209
 20
42.66680797204397
 30
0.0
  0
SEQEND
  5
192
330
18F
100
AcDbEntity
  8
DIBUJOS
 62
     7
  0
POLYLINE
  5
193
330
1F
100
AcDbEntity
  8
DIBUJOS
 62
     7
100
AcDb2dPolyline
 66
     1
 10
0.0
 20
0.0
 30
0.0
  0
VERTEX
  5
194
330
193
100
AcDbEntity
  8
DIBUJOS
 62
     7
100
AcDbVertex
100
AcDb2dVertex
 10
61.36391083436209
 20
42.53979315805662
 30
0.0
  0
VERTEX
  5
195
330
193
100
AcDbEntity
  8
DIBUJOS
 62
     7
100
AcDbVertex
100
AcDb2dVertex
 10
61.35786710982367
 20
42.54584241275705
 30
0.0
  0
VERTEX
  5
196
330
193
100
AcDbEntity
  8
DIBUJOS
 62
     7
100
AcDbVertex
100
AcDb2dVertex
 10
61.35786710982367
 20
42.71519549807405
 30
0.0
  0
VERTEX
  5
197
330
193
100
AcDbEntity
  8
DIBUJOS
 62
     7
100
AcDbVertex
100
AcDb2dVertex
 10
61.36995455890084
 20
42.72729075168711
 30
0.0
  0
VERTEX
  5
198
330
193
100
AcDbEntity
  8
DIBUJOS
 62
     7
100
AcDbVertex
100
AcDb2dVertex
 10
61.36995455890084
 20
42.74543688789546
 30
0.0
  0
VERTEX
  5
199
330
193
100
AcDbEntity
  8
DIBUJOS
 62
     7
100
AcDbVertex
100
AcDb2dVertex
 10
61.3620969035786
 20
42.76297581958148
 30
0.0
  0
VERTEX
  5
19A
330
193
100
AcDbEntity
  8
DIBUJOS
 62
     7
100
AcDbVertex
100
AcDb2dVertex
 10
61.35786710982367
 20
42.76962902301612
 30
0.0
  0
VERTEX
  5
19B
330
193
100
AcDbEntity
  8
DIBUJOS
 62
     7
100
AcDbVertex
100
AcDb2dVertex
 10
61.35786710982367
 20
42.81196729434546
 30
0.0
  0
VERTEX
  5
19C
330
193
100
AcDbEntity
  8
DIBUJOS
 62
     7
100
AcDbVertex
100
AcDb2dVertex
 10
61.37274459593532
 20
42.84639725584223
 30
0.0
  0
VERTEX
  5
19D
330
193
100
AcDbEntity
  8
DIBUJOS
 62
     7
100
AcDbVertex
100
AcDb2dVertex
 10
61.39413271074233
 20
42.87245170188249
 30
0.0
  0
SEQEND
  5
19E
330
193
100
AcDbEntity
  8
DIBUJOS
 62
     7
  0
POLYLINE
  5
19F
330
1F
100
AcDbEntity
  8
DIBUJOS
 62
     7
100
AcDb2dPolyline
 66
     1
 10
0.0
 20
0.0
 30
0.0
  0
VERTEX
  5
1A0
330
19F
100
AcDbEntity
  8
DIBUJOS
 62
     7
100
AcDbVertex
100
AcDb2dVertex
 10
61.36995455890084
 20
42.53979315805662
 30
0.0
  0
VERTEX
  5
1A1
330
19F
100
AcDbEntity
  8
DIBUJOS
 62
     7
100
AcDbVertex
100
AcDb2dVertex
 10
61.36391083436209
 20
42.53979315805662
 30
0.0
  0
SEQEND
  5
1A2
330
19F
100
AcDbEntity
  8
DIBUJOS
 62
     7
  0
POLYLINE
  5
1A3
330
1F
100
AcDbEntity
  8
DIBUJOS
 62
     7
100
AcDb2dPolyline
 66
     1
 10
0.0
 20
0.0
 30
0.0
  0
VERTEX
  5
1A4
330
1A3
100
AcDbEntity
  8
DIBUJOS
 62
     7
100
AcDbVertex
100
AcDb2dVertex
 10
61.56942024448568
 20
42.53979315805662
 30
0.0
  0
VERTEX
  5
1A5
330
1A3
100
AcDbEntity
  8
DIBUJOS
 62
     7
100
AcDbVertex
100
AcDb2dVertex
 10
61.36995455890084
 20
42.53979315805662
 30
0.0
  0
SEQEND
  5
1A6
330
1A3
100
AcDbEntity
  8
DIBUJOS
 62
     7
  0
POLYLINE
  5
1A7
330
1F
100
AcDbEntity
  8
DIBUJOS
 62
     7
100
AcDb2dPolyline
 66
     1
 10
0.0
 20
0.0
 30
0.0
  0
VERTEX
  5
1A8
330
1A7
100
AcDbEntity
  8
DIBUJOS
 62
     7
100
AcDbVertex
100
AcDb2dVertex
 10
61.57546559586785
 20
42.53979315805662
 30
0.0
  0
VERTEX
  5
1A9
330
1A7
100
AcDbEntity
  8
DIBUJOS
 62
     7
100
AcDbVertex
100
AcDb2dVertex
 10
61.56942024448568
 20
42.53979315805662
 30
0.0
  0
SEQEND
  5
1AA
330
1A7
100
AcDbEntity
  8
DIBUJOS
 62
     7
  0
POLYLINE
  5
1AB
330
1F
100
AcDbEntity
  8
DIBUJOS
 62
     7
100
AcDb2dPolyline
 66
     1
 10
0.0
 20
0.0
 30
0.0
  0
VERTEX
  5
1AC
330
1AB
100
AcDbEntity
  8
DIBUJOS
 62
     7
100
AcDbVertex
100
AcDb2dVertex
 10
61.57546559586785
 20
42.53979315805662
 30
0.0
  0
VERTEX
  5
1AD
330
1AB
100
AcDbEntity
  8
DIBUJOS
 62
     7
100
AcDbVertex
100
AcDb2dVertex
 10
61.57546559586785
 20
42.54584241275705
 30
0.0
  0
SEQEND
  5
1AE
330
1AB
100
AcDbEntity
  8
DIBUJOS
 62
     7
  0
POLYLINE
  5
1AF
330
1F
100
AcDbEntity
  8
DIBUJOS
 62
     7
100
AcDb2dPolyline
 66
     1
 10
0.0
 20
0.0
 30
0.0
  0
VERTEX
  5
1B0
330
1AF
100
AcDbEntity
  8
DIBUJOS
 62
     7
100
AcDbVertex
100
AcDb2dVertex
 10
64.43447592504212
 20
42.53979315805662
 30
0.0
  0
VERTEX
  5
1B1
330
1AF
100
AcDbEntity
  8
DIBUJOS
 62
     7
100
AcDbVertex
100
AcDb2dVertex
 10
64.42843057366026
 20
42.54584241275705
 30
0.0
  0
VERTEX
  5
1B2
330
1AF
100
AcDbEntity
  8
DIBUJOS
 62
     7
100
AcDbVertex
100
AcDb2dVertex
 10
64.42843057366026
 20
42.66680797204397
 30
0.0
  0
SEQEND
  5
1B3
330
1AF
100
AcDbEntity
  8
DIBUJOS
 62
     7
  0
POLYLINE
  5
1B4
330
1F
100
AcDbEntity
  8
DIBUJOS
 62
     7
100
AcDb2dPolyline
 66
     1
 10
0.0
 20
0.0
 30
0.0
  0
VERTEX
  5
1B5
330
1B4
100
AcDbEntity
  8
DIBUJOS
 62
     7
100
AcDbVertex
100
AcDb2dVertex
 10
64.44051964958118
 20
42.53979315805662
 30
0.0
  0
VERTEX
  5
1B6
330
1B4
100
AcDbEntity
  8
DIBUJOS
 62
     7
100
AcDbVertex
100
AcDb2dVertex
 10
64.43447592504212
 20
42.53979315805662
 30
0.0
  0
SEQEND
  5
1B7
330
1B4
100
AcDbEntity
  8
DIBUJOS
 62
     7
  0
POLYLINE
  5
1B8
330
1F
100
AcDbEntity
  8
DIBUJOS
 62
     7
100
AcDb2dPolyline
 66
     1
 10
0.0
 20
0.0
 30
0.0
  0
VERTEX
  5
1B9
330
1B8
100
AcDbEntity
  8
DIBUJOS
 62
     7
100
AcDbVertex
100
AcDb2dVertex
 10
64.6460306865482
 20
42.53979315805662
 30
0.0
  0
VERTEX
  5
1BA
330
1B8
100
AcDbEntity
  8
DIBUJOS
 62
     7
100
AcDbVertex
100
AcDb2dVertex
 10
64.44051964958118
 20
42.53979315805662
 30
0.0
  0
SEQEND
  5
1BB
330
1B8
100
AcDbEntity
  8
DIBUJOS
 62
     7
  0
POLYLINE
  5
1BC
330
1F
100
AcDbEntity
  8
DIBUJOS
 62
     7
100
AcDb2dPolyline
 66
     1
 10
0.0
 20
0.0
 30
0.0
  0
VERTEX
  5
1BD
330
1BC
100
AcDbEntity
  8
DIBUJOS
 62
     7
100
AcDbVertex
100
AcDb2dVertex
 10
64.65207441108662
 20
42.53979315805662
 30
0.0
  0
VERTEX
  5
1BE
330
1BC
100
AcDbEntity
  8
DIBUJOS
 62
     7
100
AcDbVertex
100
AcDb2dVertex
 10
64.6460306865482
 20
42.53979315805662
 30
0.0
  0
SEQEND
  5
1BF
330
1BC
100
AcDbEntity
  8
DIBUJOS
 62
     7
  0
POLYLINE
  5
1C0
330
1F
100
AcDbEntity
  8
DIBUJOS
 62
     7
100
AcDb2dPolyline
 66
     1
 10
0.0
 20
0.0
 30
0.0
  0
VERTEX
  5
1C1
330
1C0
100
AcDbEntity
  8
DIBUJOS
 62
     7
100
AcDbVertex
100
AcDb2dVertex
 10
64.65207441108662
 20
42.53979315805662
 30
0.0
  0
VERTEX
  5
1C2
330
1C0
100
AcDbEntity
  8
DIBUJOS
 62
     7
100
AcDbVertex
100
AcDb2dVertex
 10
64.65207441108662
 20
42.54584241275705
 30
0.0
  0
SEQEND
  5
1C3
330
1C0
100
AcDbEntity
  8
DIBUJOS
 62
     7
  0
POLYLINE
  5
1C4
330
1F
100
AcDbEntity
  8
DIBUJOS
 62
     7
100
AcDb2dPolyline
 66
     1
 10
0.0
 20
0.0
 30
0.0
  0
VERTEX
  5
1C5
330
1C4
100
AcDbEntity
  8
DIBUJOS
 62
     7
100
AcDbVertex
100
AcDb2dVertex
 10
64.65811976246911
 20
42.53979315805662
 30
0.0
  0
VERTEX
  5
1C6
330
1C4
100
AcDbEntity
  8
DIBUJOS
 62
     7
100
AcDbVertex
100
AcDb2dVertex
 10
64.65207441108662
 20
42.53979315805662
 30
0.0
  0
SEQEND
  5
1C7
330
1C4
100
AcDbEntity
  8
DIBUJOS
 62
     7
  0
POLYLINE
  5
1C8
330
1F
100
AcDbEntity
  8
DIBUJOS
 62
     7
100
AcDb2dPolyline
 66
     1
 10
0.0
 20
0.0
 30
0.0
  0
VERTEX
  5
1C9
330
1C8
100
AcDbEntity
  8
DIBUJOS
 62
     7
100
AcDbVertex
100
AcDb2dVertex
 10
64.67625256292844
 20
42.53979315805662
 30
0.0
  0
VERTEX
  5
1CA
330
1C8
100
AcDbEntity
  8
DIBUJOS
 62
     7
100
AcDbVertex
100
AcDb2dVertex
 10
64.65811976246911
 20
42.53979315805662
 30
0.0
  0
SEQEND
  5
1CB
330
1C8
100
AcDbEntity
  8
DIBUJOS
 62
     7
  0
POLYLINE
  5
1CC
330
1F
100
AcDbEntity
  8
DIBUJOS
 62
     7
100
AcDb2dPolyline
 66
     1
 10
0.0
 20
0.0
 30
0.0
  0
VERTEX
  5
1CD
330
1CC
100
AcDbEntity
  8
DIBUJOS
 62
     7
100
AcDbVertex
100
AcDb2dVertex
 10
64.68229628746685
 20
42.53979315805662
 30
0.0
  0
VERTEX
  5
1CE
330
1CC
100
AcDbEntity
  8
DIBUJOS
 62
     7
100
AcDbVertex
100
AcDb2dVertex
 10
64.67625256292844
 20
42.53979315805662
 30
0.0
  0
SEQEND
  5
1CF
330
1CC
100
AcDbEntity
  8
DIBUJOS
 62
     7
  0
POLYLINE
  5
1D0
330
1F
100
AcDbEntity
  8
DIBUJOS
 62
     7
100
AcDb2dPolyline
 66
     1
 10
0.0
 20
0.0
 30
0.0
  0
VERTEX
  5
1D1
330
1D0
100
AcDbEntity
  8
DIBUJOS
 62
     7
100
AcDbVertex
100
AcDb2dVertex
 10
64.68229628746685
 20
42.53979315805662
 30
0.0
  0
VERTEX
  5
1D2
330
1D0
100
AcDbEntity
  8
DIBUJOS
 62
     7
100
AcDbVertex
100
AcDb2dVertex
 10
64.68834163884935
 20
42.54584241275705
 30
0.0
  0
VERTEX
  5
1D3
330
1D0
100
AcDbEntity
  8
DIBUJOS
 62
     7
100
AcDbVertex
100
AcDb2dVertex
 10
64.68834163884935
 20
42.67285722674472
 30
0.0
  0
SEQEND
  5
1D4
330
1D0
100
AcDbEntity
  8
DIBUJOS
 62
     7
  0
POLYLINE
  5
1D5
330
1F
100
AcDbEntity
  8
DIBUJOS
 62
     7
100
AcDb2dPolyline
 66
     1
 10
0.0
 20
0.0
 30
0.0
  0
VERTEX
  5
1D6
330
1D5
100
AcDbEntity
  8
DIBUJOS
 62
     7
100
AcDbVertex
100
AcDb2dVertex
 10
67.54130661664209
 20
42.53979315805662
 30
0.0
  0
VERTEX
  5
1D7
330
1D5
100
AcDbEntity
  8
DIBUJOS
 62
     7
100
AcDbVertex
100
AcDb2dVertex
 10
67.54130661664209
 20
42.54584241275705
 30
0.0
  0
SEQEND
  5
1D8
330
1D5
100
AcDbEntity
  8
DIBUJOS
 62
     7
  0
POLYLINE
  5
1D9
330
1F
100
AcDbEntity
  8
DIBUJOS
 62
     7
100
AcDb2dPolyline
 66
     1
 10
0.0
 20
0.0
 30
0.0
  0
VERTEX
  5
1DA
330
1D9
100
AcDbEntity
  8
DIBUJOS
 62
     7
100
AcDbVertex
100
AcDb2dVertex
 10
67.54735196802426
 20
42.53979315805662
 30
0.0
  0
VERTEX
  5
1DB
330
1D9
100
AcDbEntity
  8
DIBUJOS
 62
     7
100
AcDbVertex
100
AcDb2dVertex
 10
67.54130661664209
 20
42.53979315805662
 30
0.0
  0
SEQEND
  5
1DC
330
1D9
100
AcDbEntity
  8
DIBUJOS
 62
     7
  0
POLYLINE
  5
1DD
330
1F
100
AcDbEntity
  8
DIBUJOS
 62
     7
100
AcDb2dPolyline
 66
     1
 10
0.0
 20
0.0
 30
0.0
  0
VERTEX
  5
1DE
330
1DD
100
AcDbEntity
  8
DIBUJOS
 62
     7
100
AcDbVertex
100
AcDb2dVertex
 10
67.74681765360879
 20
42.53979315805662
 30
0.0
  0
VERTEX
  5
1DF
330
1DD
100
AcDbEntity
  8
DIBUJOS
 62
     7
100
AcDbVertex
100
AcDb2dVertex
 10
67.54735196802426
 20
42.53979315805662
 30
0.0
  0
SEQEND
  5
1E0
330
1DD
100
AcDbEntity
  8
DIBUJOS
 62
     7
  0
POLYLINE
  5
1E1
330
1F
100
AcDbEntity
  8
DIBUJOS
 62
     7
100
AcDb2dPolyline
 66
     1
 10
0.0
 20
0.0
 30
0.0
  0
VERTEX
  5
1E2
330
1E1
100
AcDbEntity
  8
DIBUJOS
 62
     7
100
AcDbVertex
100
AcDb2dVertex
 10
67.75286137814753
 20
42.53979315805662
 30
0.0
  0
VERTEX
  5
1E3
330
1E1
100
AcDbEntity
  8
DIBUJOS
 62
     7
100
AcDbVertex
100
AcDb2dVertex
 10
67.74681765360879
 20
42.53979315805662
 30
0.0
  0
SEQEND
  5
1E4
330
1E1
100
AcDbEntity
  8
DIBUJOS
 62
     7
  0
POLYLINE
  5
1E5
330
1F
100
AcDbEntity
  8
DIBUJOS
 62
     7
100
AcDb2dPolyline
 66
     1
 10
0.0
 20
0.0
 30
0.0
  0
VERTEX
  5
1E6
330
1E5
100
AcDbEntity
  8
DIBUJOS
 62
     7
100
AcDbVertex
100
AcDb2dVertex
 10
67.75286137814753
 20
42.53979315805662
 30
0.0
  0
VERTEX
  5
1E7
330
1E5
100
AcDbEntity
  8
DIBUJOS
 62
     7
100
AcDbVertex
100
AcDb2dVertex
 10
67.75890672953001
 20
42.54584241275705
 30
0.0
  0
VERTEX
  5
1E8
330
1E5
100
AcDbEntity
  8
DIBUJOS
 62
     7
100
AcDbVertex
100
AcDb2dVertex
 10
67.75890672953001
 20
42.68495248035779
 30
0.0
  0
SEQEND
  5
1E9
330
1E5
100
AcDbEntity
  8
DIBUJOS
 62
     7
  0
POLYLINE
  5
1EA
330
1F
100
AcDbEntity
  8
DIBUJOS
 62
     7
100
AcDb2dPolyline
 66
     1
 10
0.0
 20
0.0
 30
0.0
  0
VERTEX
  5
1EB
330
1EA
100
AcDbEntity
  8
DIBUJOS
 62
     7
100
AcDbVertex
100
AcDb2dVertex
 10
61.36391083436209
 20
42.53374553124976
 30
0.0
  0
VERTEX
  5
1EC
330
1EA
100
AcDbEntity
  8
DIBUJOS
 62
     7
100
AcDbVertex
100
AcDb2dVertex
 10
61.36391083436209
 20
42.53979315805662
 30
0.0
  0
SEQEND
  5
1ED
330
1EA
100
AcDbEntity
  8
DIBUJOS
 62
     7
  0
POLYLINE
  5
1EE
330
1F
100
AcDbEntity
  8
DIBUJOS
 62
     7
100
AcDb2dPolyline
 66
     1
 10
0.0
 20
0.0
 30
0.0
  0
VERTEX
  5
1EF
330
1EE
100
AcDbEntity
  8
DIBUJOS
 62
     7
100
AcDbVertex
100
AcDb2dVertex
 10
61.57546559586785
 20
42.53374553124976
 30
0.0
  0
VERTEX
  5
1F0
330
1EE
100
AcDbEntity
  8
DIBUJOS
 62
     7
100
AcDbVertex
100
AcDb2dVertex
 10
61.57546559586785
 20
42.53979315805662
 30
0.0
  0
SEQEND
  5
1F1
330
1EE
100
AcDbEntity
  8
DIBUJOS
 62
     7
  0
POLYLINE
  5
1F2
330
1F
100
AcDbEntity
  8
DIBUJOS
 62
     7
100
AcDb2dPolyline
 66
     1
 10
0.0
 20
0.0
 30
0.0
  0
VERTEX
  5
1F3
330
1F2
100
AcDbEntity
  8
DIBUJOS
 62
     7
100
AcDbVertex
100
AcDb2dVertex
 10
64.43447592504212
 20
42.53374553124976
 30
0.0
  0
VERTEX
  5
1F4
330
1F2
100
AcDbEntity
  8
DIBUJOS
 62
     7
100
AcDbVertex
100
AcDb2dVertex
 10
64.43447592504212
 20
42.53979315805662
 30
0.0
  0
SEQEND
  5
1F5
330
1F2
100
AcDbEntity
  8
DIBUJOS
 62
     7
  0
POLYLINE
  5
1F6
330
1F
100
AcDbEntity
  8
DIBUJOS
 62
     7
100
AcDb2dPolyline
 66
     1
 10
0.0
 20
0.0
 30
0.0
  0
VERTEX
  5
1F7
330
1F6
100
AcDbEntity
  8
DIBUJOS
 62
     7
100
AcDbVertex
100
AcDb2dVertex
 10
64.65207441108662
 20
42.53374553124976
 30
0.0
  0
VERTEX
  5
1F8
330
1F6
100
AcDbEntity
  8
DIBUJOS
 62
     7
100
AcDbVertex
100
AcDb2dVertex
 10
64.65207441108662
 20
42.53979315805662
 30
0.0
  0
SEQEND
  5
1F9
330
1F6
100
AcDbEntity
  8
DIBUJOS
 62
     7
  0
POLYLINE
  5
1FA
330
1F
100
AcDbEntity
  8
DIBUJOS
 62
     7
100
AcDb2dPolyline
 66
     1
 10
0.0
 20
0.0
 30
0.0
  0
VERTEX
  5
1FB
330
1FA
100
AcDbEntity
  8
DIBUJOS
 62
     7
100
AcDbVertex
100
AcDb2dVertex
 10
64.68229628746685
 20
42.53374553124976
 30
0.0
  0
VERTEX
  5
1FC
330
1FA
100
AcDbEntity
  8
DIBUJOS
 62
     7
100
AcDbVertex
100
AcDb2dVertex
 10
64.68229628746685
 20
42.53979315805662
 30
0.0
  0
SEQEND
  5
1FD
330
1FA
100
AcDbEntity
  8
DIBUJOS
 62
     7
  0
POLYLINE
  5
1FE
330
1F
100
AcDbEntity
  8
DIBUJOS
 62
     7
100
AcDb2dPolyline
 66
     1
 10
0.0
 20
0.0
 30
0.0
  0
VERTEX
  5
1FF
330
1FE
100
AcDbEntity
  8
DIBUJOS
 62
     7
100
AcDbVertex
100
AcDb2dVertex
 10
67.54130661664209
 20
42.53374553124976
 30
0.0
  0
VERTEX
  5
200
330
1FE
100
AcDbEntity
  8
DIBUJOS
 62
     7
100
AcDbVertex
100
AcDb2dVertex
 10
67.54130661664209
 20
42.53979315805662
 30
0.0
  0
SEQEND
  5
201
330
1FE
100
AcDbEntity
  8
DIBUJOS
 62
     7
  0
POLYLINE
  5
202
330
1F
100
AcDbEntity
  8
DIBUJOS
 62
     7
100
AcDb2dPolyline
 66
     1
 10
0.0
 20
0.0
 30
0.0
  0
VERTEX
  5
203
330
202
100
AcDbEntity
  8
DIBUJOS
 62
     7
100
AcDbVertex
100
AcDb2dVertex
 10
67.75286137814753
 20
42.53374553124976
 30
0.0
  0
VERTEX
  5
204
330
202
100
AcDbEntity
  8
DIBUJOS
 62
     7
100
AcDbVertex
100
AcDb2dVertex
 10
67.75286137814753
 20
42.53979315805662
 30
0.0
  0
SEQEND
  5
205
330
202
100
AcDbEntity
  8
DIBUJOS
 62
     7
  0
POLYLINE
  5
206
330
1F
100
AcDbEntity
  8
DIBUJOS
 62
     7
100
AcDb2dPolyline
 66
     1
 10
0.0
 20
0.0
 30
0.0
  0
VERTEX
  5
207
330
206
100
AcDbEntity
  8
DIBUJOS
 62
     7
100
AcDbVertex
100
AcDb2dVertex
 10
64.62789625924479
 20
42.45511661539828
 30
0.0
  0
VERTEX
  5
208
330
206
100
AcDbEntity
  8
DIBUJOS
 62
     7
100
AcDbVertex
100
AcDb2dVertex
 10
64.62934740387179
 20
42.46007680890585
 30
0.0
  0
VERTEX
  5
209
330
206
100
AcDbEntity
  8
DIBUJOS
 62
     7
100
AcDbVertex
100
AcDb2dVertex
 10
64.64974965136533
 20
42.51001734596463
 30
0.0
  0
VERTEX
  5
20A
330
206
100
AcDbEntity
  8
DIBUJOS
 62
     7
100
AcDbVertex
100
AcDb2dVertex
 10
64.65207441108662
 20
42.53374553124976
 30
0.0
  0
SEQEND
  5
20B
330
206
100
AcDbEntity
  8
DIBUJOS
 62
     7
  0
POLYLINE
  5
20C
330
1F
100
AcDbEntity
  8
DIBUJOS
 62
     7
100
AcDb2dPolyline
 66
     1
 10
0.0
 20
0.0
 30
0.0
  0
VERTEX
  5
20D
330
20C
100
AcDbEntity
  8
DIBUJOS
 62
     7
100
AcDbVertex
100
AcDb2dVertex
 10
64.62789625924479
 20
42.44906898859175
 30
0.0
  0
VERTEX
  5
20E
330
20C
100
AcDbEntity
  8
DIBUJOS
 62
     7
100
AcDbVertex
100
AcDb2dVertex
 10
64.62185253470638
 20
42.44906898859175
 30
0.0
  0
SEQEND
  5
20F
330
20C
100
AcDbEntity
  8
DIBUJOS
 62
     7
  0
POLYLINE
  5
210
330
1F
100
AcDbEntity
  8
DIBUJOS
 62
     7
100
AcDb2dPolyline
 66
     1
 10
0.0
 20
0.0
 30
0.0
  0
VERTEX
  5
211
330
210
100
AcDbEntity
  8
DIBUJOS
 62
     7
100
AcDbVertex
100
AcDb2dVertex
 10
64.62789625924479
 20
42.44906898859175
 30
0.0
  0
VERTEX
  5
212
330
210
100
AcDbEntity
  8
DIBUJOS
 62
     7
100
AcDbVertex
100
AcDb2dVertex
 10
64.62789625924479
 20
42.45511661539828
 30
0.0
  0
SEQEND
  5
213
330
210
100
AcDbEntity
  8
DIBUJOS
 62
     7
  0
POLYLINE
  5
214
330
1F
100
AcDbEntity
  8
DIBUJOS
 62
     7
100
AcDb2dPolyline
 66
     1
 10
0.0
 20
0.0
 30
0.0
  0
VERTEX
  5
215
330
214
100
AcDbEntity
  8
DIBUJOS
 62
     7
100
AcDbVertex
100
AcDb2dVertex
 10
64.6339416106276
 20
42.44906898859175
 30
0.0
  0
VERTEX
  5
216
330
214
100
AcDbEntity
  8
DIBUJOS
 62
     7
100
AcDbVertex
100
AcDb2dVertex
 10
64.62789625924479
 20
42.44906898859175
 30
0.0
  0
SEQEND
  5
217
330
214
100
AcDbEntity
  8
DIBUJOS
 62
     7
  0
POLYLINE
  5
218
330
1F
100
AcDbEntity
  8
DIBUJOS
 62
     7
100
AcDb2dPolyline
 66
     1
 10
0.0
 20
0.0
 30
0.0
  0
VERTEX
  5
219
330
218
100
AcDbEntity
  8
DIBUJOS
 62
     7
100
AcDbVertex
100
AcDb2dVertex
 10
61.36391083436209
 20
42.53374553124976
 30
0.0
  0
VERTEX
  5
21A
330
218
100
AcDbEntity
  8
DIBUJOS
 62
     7
100
AcDbVertex
100
AcDb2dVertex
 10
61.35786710982367
 20
42.5276962765487
 30
0.0
  0
VERTEX
  5
21B
330
218
100
AcDbEntity
  8
DIBUJOS
 62
     7
100
AcDbVertex
100
AcDb2dVertex
 10
61.36995455890084
 20
42.46721349690556
 30
0.0
  0
VERTEX
  5
21C
330
218
100
AcDbEntity
  8
DIBUJOS
 62
     7
100
AcDbVertex
100
AcDb2dVertex
 10
61.38748380032816
 20
42.45390709003691
 30
0.0
  0
VERTEX
  5
21D
330
218
100
AcDbEntity
  8
DIBUJOS
 62
     7
100
AcDbVertex
100
AcDb2dVertex
 10
61.40622178666325
 20
42.44301973389068
 30
0.0
  0
VERTEX
  5
21E
330
218
100
AcDbEntity
  8
DIBUJOS
 62
     7
100
AcDbVertex
100
AcDb2dVertex
 10
61.5331546435667
 20
42.44301973389068
 30
0.0
  0
VERTEX
  5
21F
330
218
100
AcDbEntity
  8
DIBUJOS
 62
     7
100
AcDbVertex
100
AcDb2dVertex
 10
61.54524371948761
 20
42.44906898859175
 30
0.0
  0
VERTEX
  5
220
330
218
100
AcDbEntity
  8
DIBUJOS
 62
     7
100
AcDbVertex
100
AcDb2dVertex
 10
61.57546559586785
 20
42.47931037841316
 30
0.0
  0
VERTEX
  5
221
330
218
100
AcDbEntity
  8
DIBUJOS
 62
     7
100
AcDbVertex
100
AcDb2dVertex
 10
61.58150932040659
 20
42.5276962765487
 30
0.0
  0
VERTEX
  5
222
330
218
100
AcDbEntity
  8
DIBUJOS
 62
     7
100
AcDbVertex
100
AcDb2dVertex
 10
61.57546559586785
 20
42.53374553124976
 30
0.0
  0
SEQEND
  5
223
330
218
100
AcDbEntity
  8
DIBUJOS
 62
     7
  0
POLYLINE
  5
224
330
1F
100
AcDbEntity
  8
DIBUJOS
 62
     7
100
AcDb2dPolyline
 66
     1
 10
0.0
 20
0.0
 30
0.0
  0
VERTEX
  5
225
330
224
100
AcDbEntity
  8
DIBUJOS
 62
     7
100
AcDbVertex
100
AcDb2dVertex
 10
64.43447592504212
 20
42.53374553124976
 30
0.0
  0
VERTEX
  5
226
330
224
100
AcDbEntity
  8
DIBUJOS
 62
     7
100
AcDbVertex
100
AcDb2dVertex
 10
64.42843057366026
 20
42.5276962765487
 30
0.0
  0
VERTEX
  5
227
330
224
100
AcDbEntity
  8
DIBUJOS
 62
     7
100
AcDbVertex
100
AcDb2dVertex
 10
64.42843057366026
 20
42.50955176823489
 30
0.0
  0
VERTEX
  5
228
330
224
100
AcDbEntity
  8
DIBUJOS
 62
     7
100
AcDbVertex
100
AcDb2dVertex
 10
64.43810215976568
 20
42.48051990377453
 30
0.0
  0
VERTEX
  5
229
330
224
100
AcDbEntity
  8
DIBUJOS
 62
     7
100
AcDbVertex
100
AcDb2dVertex
 10
64.44656500096335
 20
42.46116587009902
 30
0.0
  0
VERTEX
  5
22A
330
224
100
AcDbEntity
  8
DIBUJOS
 62
     7
100
AcDbVertex
100
AcDb2dVertex
 10
64.45804889100852
 20
42.45390709003691
 30
0.0
  0
VERTEX
  5
22B
330
224
100
AcDbEntity
  8
DIBUJOS
 62
     7
100
AcDbVertex
100
AcDb2dVertex
 10
64.4701379669291
 20
42.44785946323037
 30
0.0
  0
VERTEX
  5
22C
330
224
100
AcDbEntity
  8
DIBUJOS
 62
     7
100
AcDbVertex
100
AcDb2dVertex
 10
64.47678687734359
 20
42.44301973389068
 30
0.0
  0
VERTEX
  5
22D
330
224
100
AcDbEntity
  8
DIBUJOS
 62
     7
100
AcDbVertex
100
AcDb2dVertex
 10
64.61580881016795
 20
42.44301973389068
 30
0.0
  0
VERTEX
  5
22E
330
224
100
AcDbEntity
  8
DIBUJOS
 62
     7
100
AcDbVertex
100
AcDb2dVertex
 10
64.62185253470638
 20
42.44906898859175
 30
0.0
  0
SEQEND
  5
22F
330
224
100
AcDbEntity
  8
DIBUJOS
 62
     7
  0
POLYLINE
  5
230
330
1F
100
AcDbEntity
  8
DIBUJOS
 62
     7
100
AcDb2dPolyline
 66
     1
 10
0.0
 20
0.0
 30
0.0
  0
VERTEX
  5
231
330
230
100
AcDbEntity
  8
DIBUJOS
 62
     7
100
AcDbVertex
100
AcDb2dVertex
 10
64.6339416106276
 20
42.44906898859175
 30
0.0
  0
VERTEX
  5
232
330
230
100
AcDbEntity
  8
DIBUJOS
 62
     7
100
AcDbVertex
100
AcDb2dVertex
 10
64.63998533516603
 20
42.44604436124121
 30
0.0
  0
VERTEX
  5
233
330
230
100
AcDbEntity
  8
DIBUJOS
 62
     7
100
AcDbVertex
100
AcDb2dVertex
 10
64.66416348700785
 20
42.45511661539828
 30
0.0
  0
VERTEX
  5
234
330
230
100
AcDbEntity
  8
DIBUJOS
 62
     7
100
AcDbVertex
100
AcDb2dVertex
 10
64.67746130783618
 20
42.47265717497883
 30
0.0
  0
VERTEX
  5
235
330
230
100
AcDbEntity
  8
DIBUJOS
 62
     7
100
AcDbVertex
100
AcDb2dVertex
 10
64.68411021825068
 20
42.49080168329328
 30
0.0
  0
VERTEX
  5
236
330
230
100
AcDbEntity
  8
DIBUJOS
 62
     7
100
AcDbVertex
100
AcDb2dVertex
 10
64.68834163884935
 20
42.49745488672729
 30
0.0
  0
VERTEX
  5
237
330
230
100
AcDbEntity
  8
DIBUJOS
 62
     7
100
AcDbVertex
100
AcDb2dVertex
 10
64.68834163884935
 20
42.5276962765487
 30
0.0
  0
VERTEX
  5
238
330
230
100
AcDbEntity
  8
DIBUJOS
 62
     7
100
AcDbVertex
100
AcDb2dVertex
 10
64.68229628746685
 20
42.53374553124976
 30
0.0
  0
SEQEND
  5
239
330
230
100
AcDbEntity
  8
DIBUJOS
 62
     7
  0
POLYLINE
  5
23A
330
1F
100
AcDbEntity
  8
DIBUJOS
 62
     7
100
AcDb2dPolyline
 66
     1
 10
0.0
 20
0.0
 30
0.0
  0
VERTEX
  5
23B
330
23A
100
AcDbEntity
  8
DIBUJOS
 62
     7
100
AcDbVertex
100
AcDb2dVertex
 10
67.54130661664209
 20
42.53374553124976
 30
0.0
  0
VERTEX
  5
23C
330
23A
100
AcDbEntity
  8
DIBUJOS
 62
     7
100
AcDbVertex
100
AcDb2dVertex
 10
67.54735196802426
 20
42.47326275160663
 30
0.0
  0
VERTEX
  5
23D
330
23A
100
AcDbEntity
  8
DIBUJOS
 62
     7
100
AcDbVertex
100
AcDb2dVertex
 10
67.57696865852843
 20
42.44785946323037
 30
0.0
  0
VERTEX
  5
23E
330
23A
100
AcDbEntity
  8
DIBUJOS
 62
     7
100
AcDbVertex
100
AcDb2dVertex
 10
67.58361756894293
 20
42.44301973389068
 30
0.0
  0
VERTEX
  5
23F
330
23A
100
AcDbEntity
  8
DIBUJOS
 62
     7
100
AcDbVertex
100
AcDb2dVertex
 10
67.71055042584638
 20
42.44301973389068
 30
0.0
  0
VERTEX
  5
240
330
23A
100
AcDbEntity
  8
DIBUJOS
 62
     7
100
AcDbVertex
100
AcDb2dVertex
 10
67.7347285776882
 20
42.45511661539828
 30
0.0
  0
VERTEX
  5
241
330
23A
100
AcDbEntity
  8
DIBUJOS
 62
     7
100
AcDbVertex
100
AcDb2dVertex
 10
67.74802639851653
 20
42.47265717497883
 30
0.0
  0
VERTEX
  5
242
330
23A
100
AcDbEntity
  8
DIBUJOS
 62
     7
100
AcDbVertex
100
AcDb2dVertex
 10
67.75890672953001
 20
42.49745488672729
 30
0.0
  0
VERTEX
  5
243
330
23A
100
AcDbEntity
  8
DIBUJOS
 62
     7
100
AcDbVertex
100
AcDb2dVertex
 10
67.75890672953001
 20
42.5276962765487
 30
0.0
  0
VERTEX
  5
244
330
23A
100
AcDbEntity
  8
DIBUJOS
 62
     7
100
AcDbVertex
100
AcDb2dVertex
 10
67.75286137814753
 20
42.53374553124976
 30
0.0
  0
SEQEND
  5
245
330
23A
100
AcDbEntity
  8
DIBUJOS
 62
     7
  0
INSERT
  5
247
330
1F
100
AcDbEntity
  8
DIBUJOS
100
AcDbBlockReference
  2
BLOCK_2
 10
0.0
 20
0.0
 30
0.0
  0
INSERT
  5
438
330
1F
100
AcDbEntity
  8
DIBUJOS
100
AcDbBlockReference
  2
BLOCK_3
 10
0.0
 20
0.0
 30
0.0
  0
POLYLINE
  5
554
330
1F
100
AcDbEntity
  8
COTAS_LINEA
 62
     7
100
AcDb2dPolyline
 66
     1
 10
0.0
 20
0.0
 30
0.0
  0
VERTEX
  5
555
330
554
100
AcDbEntity
  8
COTAS_LINEA
 62
     7
100
AcDbVertex
100
AcDb2dVertex
 10
71.75979161337615
 20
48.61835809323885
 30
0.0
  0
VERTEX
  5
556
330
554
100
AcDbEntity
  8
COTAS_LINEA
 62
     7
100
AcDbVertex
100
AcDb2dVertex
 10
71.75979161423956
 20
42.33144090531743
 30
0.0
  0
SEQEND
  5
557
330
554
100
AcDbEntity
  8
COTAS_LINEA
 62
     7
  0
POLYLINE
  5
558
330
1F
100
AcDbEntity
  8
COTAS_LINEA
 62
     7
100
AcDb2dPolyline
 66
     1
 10
0.0
 20
0.0
 30
0.0
  0
VERTEX
  5
559
330
558
100
AcDbEntity
  8
COTAS_LINEA
 62
     7
100
AcDbVertex
100
AcDb2dVertex
 10
88.56763180939002
 20
45.949318484247
 30
0.0
  0
VERTEX
  5
55A
330
558
100
AcDbEntity
  8
COTAS_LINEA
 62
     7
100
AcDbVertex
100
AcDb2dVertex
 10
88.56763181069653
 20
42.33143791450131
 30
0.0
  0
SEQEND
  5
55B
330
558
100
AcDbEntity
  8
COTAS_LINEA
 62
     7
  0
POLYLINE
  5
55C
330
1F
100
AcDbEntity
  8
COTAS_LINEA
 62
     7
100
AcDb2dPolyline
 66
     1
 10
0.0
 20
0.0
 30
0.0
  0
VERTEX
  5
55D
330
55C
100
AcDbEntity
  8
COTAS_LINEA
 62
     7
100
AcDbVertex
100
AcDb2dVertex
 10
79.26793728705994
 20
38.66119575631178
 30
0.0
  0
VERTEX
  5
55E
330
55C
100
AcDbEntity
  8
COTAS_LINEA
 62
     7
100
AcDbVertex
100
AcDb2dVertex
 10
87.25892328953054
 20
38.66119575631178
 30
0.0
  0
SEQEND
  5
55F
330
55C
100
AcDbEntity
  8
COTAS_LINEA
 62
     7
  0
POLYLINE
  5
560
330
1F
100
AcDbEntity
  8
COTAS_LINEA
 62
     7
100
AcDb2dPolyline
 66
     1
 10
0.0
 20
0.0
 30
0.0
  0
VERTEX
  5
561
330
560
100
AcDbEntity
  8
COTAS_LINEA
 62
     7
100
AcDbVertex
100
AcDb2dVertex
 10
61.60456795805398
 20
38.66119575631178
 30
0.0
  0
VERTEX
  5
562
330
560
100
AcDbEntity
  8
COTAS_LINEA
 62
     7
100
AcDbVertex
100
AcDb2dVertex
 10
67.80351820943932
 20
38.66119575631178
 30
0.0
  0
SEQEND
  5
563
330
560
100
AcDbEntity
  8
COTAS_LINEA
 62
     7
  0
MTEXT
  5
565
330
1F
100
AcDbEntity
  8
COTAS_N_U_00DAMERO
 62
     7
100
AcDbMText
 10
72.53509663781783
 20
44.07784893205508
 30
0.0
 40
1.998533025814148
 41
0.0
 71
     7
 72
     1
  1
\fMyriad Pro|b0|i0|c0|p34;\W1;62
  0
MTEXT
  5
566
330
1F
100
AcDbEntity
  8
COTAS_N_U_00DAMERO
 62
     7
100
AcDbMText
 10
89.32618520410888
 20
43.35631136340137
 30
0.0
 40
1.998533025814148
 41
0.0
 71
     7
 72
     1
  1
\fMyriad Pro|b0|i0|c0|p34;\W1;46
  0
MTEXT
  5
567
330
1F
100
AcDbEntity
  8
COTAS_N_U_00DAMERO
 62
     7
100
AcDbMText
 10
81.68668596556738
 20
39.21634011877664
 30
0.0
 40
1.998533025814148
 41
0.0
 71
     7
 72
     1
  1
\fMyriad Pro|b0|i0|c0|p34;\W1;67
  0
MTEXT
  5
568
330
1F
100
AcDbEntity
  8
COTAS_N_U_00DAMERO
 62
     7
100
AcDbMText
 10
63.19841417216156
 20
39.21616786400239
 30
0.0
 40
1.998533025814148
 41
0.0
 71
     7
 72
     1
  1
\fMyriad Pro|b0|i0|c0|p34;\W1;84
  0
ENDSEC
  0
SECTION
  2
OBJECTS
  0
DICTIONARY
  5
C
330
0
100
AcDbDictionary
  3
ACAD_GROUP
350
D
  3
ACAD_LAYOUT
350
1A
  3
ACAD_MATERIAL
350
3B
  3
ACAD_MLEADERSTYLE
350
58B
  3
ACAD_MLINESTYLE
350
17
  3
ACAD_PLOTSETTINGS
350
19
  3
ACAD_VISUALSTYLE
350
2A
  3
ACDBHEADERROUNDTRIPXREC
350
569
  3
ACDBVARIABLEDICTIONARY
350
589
  0
DICTIONARY
  5
D
102
{ACAD_REACTORS
330
C
102
}
330
C
100
AcDbDictionary
  0
DICTIONARY
  5
1A
102
{ACAD_REACTORS
330
C
102
}
330
C
100
AcDbDictionary
  0
DICTIONARY
  5
3B
102
{ACAD_REACTORS
330
C
102
}
330
C
100
AcDbDictionary
  3
BYBLOCK
350
3D
  3
BYLAYER
350
3C
  3
GLOBAL
350
3E
  0
DICTIONARY
  5
58B
102
{ACAD_REACTORS
330
C
102
}
330
C
100
AcDbDictionary
  0
DICTIONARY
  5
17
102
{ACAD_REACTORS
330
C
102
}
330
C
100
AcDbDictionary
  3
STANDARD
350
18
  0
DICTIONARY
  5
19
102
{ACAD_REACTORS
330
C
102
}
330
C
100
AcDbDictionary
  0
DICTIONARY
  5
2A
102
{ACAD_REACTORS
330
C
102
}
330
C
100
AcDbDictionary
  3
2DWIREFRAME
350
2F
  3
3D_HIDDEN
350
31
  3
3DWIREFRAME
350
30
  3
BASIC
350
32
  3
BRIGHTEN
350
36
  3
COLORCHANGE
350
3A
  3
CONCEPTUAL
350
34
  3
DIM
350
35
  3
FACEPATTERN
350
39
  3
FLAT
350
2B
  3
FLATWITHEDGES
350
2C
  3
GOURAUD
350
2D
  3
GOURAUDWITHEDGES
350
2E
  3
LINEPATTERN
350
38
  3
REALISTIC
350
33
  3
THICKEN
350
37
  0
DICTIONARY
  5
569
102
{ACAD_REACTORS
330
C
102
}
330
C
100
AcDbDictionary
  3
CEPSNTYPE
350
572
  3
DIMSTYLEDATA
350
588
  3
FINGERPRINTGUID
350
573
  3
HYPERLINKBASE
350
56C
  3
INSUNITS
350
571
  3
LAYOUTDICT
350
56E
  3
LWETCUNION
350
570
  3
PLOTSETDICT
350
56F
  3
PSVPSCALE
350
575
  3
PUCSBASE
350
578
  3
PUCSORGBACK
350
57E
  3
PUCSORGBOTTOM
350
57A
  3
PUCSORGFRONT
350
57D
  3
PUCSORGLEFT
350
57B
  3
PUCSORGRIGHT
350
57C
  3
PUCSORGTOP
350
579
  3
PUCSORTHOREF
350
576
  3
PUCSORTHOVIEW
350
577
  3
STYLESHEET
350
56D
  3
TSTACKALIGN
350
56A
  3
TSTACKSIZE
350
56B
  3
UCSBASE
350
581
  3
UCSORGBACK
350
587
  3
UCSORGBOTTOM
350
583
  3
UCSORGFRONT
350
586
  3
UCSORGLEFT
350
584
  3
UCSORGRIGHT
350
585
  3
UCSORGTOP
350
582
  3
UCSORTHOREF
350
57F
  3
UCSORTHOVIEW
350
580
  3
VERSIONGUID
350
574
  0
DICTIONARY
  5
589
102
{ACAD_REACTORS
330
C
102
}
330
C
100
AcDbDictionary
  3
DIMASSOC
350
58C
  3
HIDETEXT
350
58D
  0
MATERIAL
  5
3D
102
{ACAD_REACTORS
330
3B
102
}
102
{ACAD_XDICTIONARY
360
590
102
}
330
3B
100
AcDbMaterial
  1
ByBlock
  0
MATERIAL
  5
3C
102
{ACAD_REACTORS
330
3B
102
}
102
{ACAD_XDICTIONARY
360
58E
102
}
330
3B
100
AcDbMaterial
  1
ByLayer
  0
MATERIAL
  5
3E
102
{ACAD_REACTORS
330
3B
102
}
102
{ACAD_XDICTIONARY
360
592
102
}
330
3B
100
AcDbMaterial
  1
Global
  0
MLINESTYLE
  5
18
102
{ACAD_REACTORS
330
17
102
}
330
17
100
AcDbMlineStyle
  2
Standard
 70
     0
  3

 62
   256
 51
90.0
 52
90.0
 71
     2
 49
0.5
 62
   256
  6
BYLAYER
 49
-0.5
 62
   256
  6
BYLAYER
  0
ACAD_PROXY_OBJECT
  5
2F
102
{ACAD_REACTORS
330
2A
102
}
330
2A
100
AcDbProxyObject
 90
      499
 91
      501
 93
      436
310
42CC9915DA5C99599C985B595049028333333333333E3BF0000000000000FB0107901411070040501600405405064090741402480A0340
1001
ACAD
1000
AcDbSavedByObjectVersion
1070
     0
  0
ACAD_PROXY_OBJECT
  5
31
102
{ACAD_REACTORS
330
2A
102
}
330
2A
100
AcDbProxyObject
 90
      499
 91
      501
 93
      500
310
424CD108121A5919195B90640502408333333333333E3BF0000000000000FB01079024090700405020000000000001110200405405064090740C02480A0340
1001
ACAD
1000
AcDbSavedByObjectVersion
1070
     0
  0
ACAD_PROXY_OBJECT
  5
30
102
{ACAD_REACTORS
330
2A
102
}
330
2A
100
AcDbProxyObject
 90
      499
 91
      501
 93
      436
310
42CCD915DA5C99599C985B595059028333333333333E3BF0000000000000FB0107901411070040501600405405064090741402480A0340
1001
ACAD
1000
AcDbSavedByObjectVersion
1070
     0
  0
ACAD_PROXY_OBJECT
  5
32
102
{ACAD_REACTORS
330
2A
102
}
330
2A
100
AcDbProxyObject
 90
      499
 91
      501
 93
      388
310
4150985CDA58D07406404333333333333E3BF0000000000000FB0107A41107004050150841D405064090741402480A0350
1001
ACAD
1000
AcDbSavedByObjectVersion
1070
     0
  0
ACAD_PROXY_OBJECT
  5
36
102
{ACAD_REACTORS
330
2A
102
}
330
2A
100
AcDbProxyObject
 90
      499
 91
      501
 93
      428
310
42109C9A59DA1D195B90C409028333333333333E3BF0000000000000FB010790141107004050150841D405064090741402480A029950
1001
ACAD
1000
AcDbSavedByObjectVersion
1070
     0
  0
ACAD_PROXY_OBJECT
  5
3A
102
{ACAD_REACTORS
330
2A
102
}
330
2A
100
AcDbProxyObject
 90
      499
 91
      501
 93
      452
310
42D0DBDB1BDC90DA185B99D95104090240C333333333333E3BF0000000000000FB0108901411070040501508421405064090741402480A0350
1001
ACAD
1000
AcDbSavedByObjectVersion
1070
     0
  0
ACAD_PROXY_OBJECT
  5
34
102
{ACAD_REACTORS
330
2A
102
}
330
2A
100
AcDbProxyObject
 90
      499
 91
      501
 93
      500
310
4290DBDB98D95C1D1D585B10940D028333333333333E3BF0000000000000FB0107902409070040501000000000000111010841D405064090740C02480A0340
1001
ACAD
1000
AcDbSavedByObjectVersion
1070
     0
  0
ACAD_PROXY_OBJECT
  5
35
102
{ACAD_REACTORS
330
2A
102
}
330
2A
100
AcDbProxyObject
 90
      499
 91
      501
 93
      412
310
40D11A5B50B409028333333333333E3BF0000000000000FB010790141107004050150841D405064090741402480A02677FFFFFD0
1001
ACAD
1000
AcDbSavedByObjectVersion
1070
     0
  0
ACAD_PROXY_OBJECT
  5
39
102
{ACAD_REACTORS
330
2A
102
}
330
2A
100
AcDbProxyObject
 90
      499
 91
      501
 93
      444
310
42D19858D95C185D1D195C9B90F409028333333333333E3BF0000000000000FB010790141107004050150841D405064090741402480A0350
1001
ACAD
1000
AcDbSavedByObjectVersion
1070
     0
  0
ACAD_PROXY_OBJECT
  5
2B
102
{ACAD_REACTORS
330
2A
102
}
330
2A
100
AcDbProxyObject
 90
      499
 91
      501
 93
      388
310
41119B185D240901404333333333333E3BF0000000000000F9010740A41107004050150841D405064090741402480A1B50
1001
ACAD
1000
AcDbSavedByObjectVersion
1070
     0
  0
ACAD_PROXY_OBJECT
  5
2C
102
{ACAD_REACTORS
330
2A
102
}
330
2A
100
AcDbProxyObject
 90
      499
 91
      501
 93
      476
310
43519B185D15DA5D1A115919D95CD0140901404333333333333E3BF0000000000000F9010740901411070040501600405405064090741402480A1B50
1001
ACAD
1000
AcDbSavedByObjectVersion
1070
     0
  0
ACAD_PROXY_OBJECT
  5
2D
102
{ACAD_REACTORS
330
2A
102
}
330
2A
100
AcDbProxyObject
 90
      499
 91
      501
 93
      412
310
41D1DBDD5C985D5910240902404333333333333E3BF0000000000000F9010740A411070040501641D405064090741402480A1B50
1001
ACAD
1000
AcDbSavedByObjectVersion
1070
     0
  0
ACAD_PROXY_OBJECT
  5
2E
102
{ACAD_REACTORS
330
2A
102
}
330
2A
100
AcDbProxyObject
 90
      499
 91
      501
 93
      500
310
4411DBDD5C985D5915DA5D1A115919D95CD0340902404333333333333E3BF0000000000000F9010740901411070040501600405405064090741402480A1B50
1001
ACAD
1000
AcDbSavedByObjectVersion
1070
     0
  0
ACAD_PROXY_OBJECT
  5
38
102
{ACAD_REACTORS
330
2A
102
}
330
2A
100
AcDbProxyObject
 90
      499
 91
      501
 93
      444
310
42D31A5B995C185D1D195C9B90E409028333333333333E3BF0000000000000FB010790141107004050750841D405064090741402483A0350
1001
ACAD
1000
AcDbSavedByObjectVersion
1070
     0
  0
ACAD_PROXY_OBJECT
  5
33
102
{ACAD_REACTORS
330
2A
102
}
330
2A
100
AcDbProxyObject
 90
      499
 91
      501
 93
      420
310
425499585B1A5CDD1A58D08409028333333333333E3BF0000000000000FB01079019070040501508421405064090741402480A1B40
1001
ACAD
1000
AcDbSavedByObjectVersion
1070
     0
  0
ACAD_PROXY_OBJECT
  5
37
102
{ACAD_REACTORS
330
2A
102
}
330
2A
100
AcDbProxyObject
 90
      499
 91
      501
 93
      412
310
41D51A1A58DAD95B90D409028333333333333E3BF0000000000000FB010790141107004050150C41D405064090741402480A0350
1001
ACAD
1000
AcDbSavedByObjectVersion
1070
     0
  0
XRECORD
  5
572
102
{ACAD_REACTORS
330
569
102
}
330
569
100
AcDbXrecord
 90
        0
  0
XRECORD
  5
588
102
{ACAD_REACTORS
330
569
102
}
330
569
100
AcDbXrecord
1000
DSTYLE
1002
{
1070
   340
340
11
1002
}
  0
XRECORD
  5
573
102
{ACAD_REACTORS
330
569
102
}
330
569
100
AcDbXrecord
  1
{14FAB554-B2CB-4CB0-915E-28AF24A1CE0E}
  0
XRECORD
  5
56C
102
{ACAD_REACTORS
330
569
102
}
330
569
100
AcDbXrecord
  1

  0
XRECORD
  5
571
102
{ACAD_REACTORS
330
569
102
}
330
569
100
AcDbXrecord
 90
        1
  0
XRECORD
  5
56E
102
{ACAD_REACTORS
330
569
102
}
330
569
100
AcDbXrecord
340
1A
  0
XRECORD
  5
570
102
{ACAD_REACTORS
330
569
102
}
330
569
100
AcDbXrecord
 90
    10269
  0
XRECORD
  5
56F
102
{ACAD_REACTORS
330
569
102
}
330
569
100
AcDbXrecord
340
19
  0
XRECORD
  5
575
102
{ACAD_REACTORS
330
569
102
}
330
569
100
AcDbXrecord
 40
0.0
  0
XRECORD
  5
578
102
{ACAD_REACTORS
330
569
102
}
330
569
100
AcDbXrecord
340
0
  0
XRECORD
  5
57E
102
{ACAD_REACTORS
330
569
102
}
330
569
100
AcDbXrecord
 10
0.0
 20
0.0
 30
0.0
  0
XRECORD
  5
57A
102
{ACAD_REACTORS
330
569
102
}
330
569
100
AcDbXrecord
 10
0.0
 20
0.0
 30
0.0
  0
XRECORD
  5
57D
102
{ACAD_REACTORS
330
569
102
}
330
569
100
AcDbXrecord
 10
0.0
 20
0.0
 30
0.0
  0
XRECORD
  5
57B
102
{ACAD_REACTORS
330
569
102
}
330
569
100
AcDbXrecord
 10
0.0
 20
0.0
 30
0.0
  0
XRECORD
  5
57C
102
{ACAD_REACTORS
330
569
102
}
330
569
100
AcDbXrecord
 10
0.0
 20
0.0
 30
0.0
  0
XRECORD
  5
579
102
{ACAD_REACTORS
330
569
102
}
330
569
100
AcDbXrecord
 10
0.0
 20
0.0
 30
0.0
  0
XRECORD
  5
576
102
{ACAD_REACTORS
330
569
102
}
330
569
100
AcDbXrecord
340
0
  0
XRECORD
  5
577
102
{ACAD_REACTORS
330
569
102
}
330
569
100
AcDbXrecord
 70
     0
  0
XRECORD
  5
56D
102
{ACAD_REACTORS
330
569
102
}
330
569
100
AcDbXrecord
  1

  0
XRECORD
  5
56A
102
{ACAD_REACTORS
330
569
102
}
330
569
100
AcDbXrecord
 90
        1
  0
XRECORD
  5
56B
102
{ACAD_REACTORS
330
569
102
}
330
569
100
AcDbXrecord
 90
       70
  0
XRECORD
  5
581
102
{ACAD_REACTORS
330
569
102
}
330
569
100
AcDbXrecord
340
0
  0
XRECORD
  5
587
102
{ACAD_REACTORS
330
569
102
}
330
569
100
AcDbXrecord
 10
0.0
 20
0.0
 30
0.0
  0
XRECORD
  5
583
102
{ACAD_REACTORS
330
569
102
}
330
569
100
AcDbXrecord
 10
0.0
 20
0.0
 30
0.0
  0
XRECORD
  5
586
102
{ACAD_REACTORS
330
569
102
}
330
569
100
AcDbXrecord
 10
0.0
 20
0.0
 30
0.0
  0
XRECORD
  5
584
102
{ACAD_REACTORS
330
569
102
}
330
569
100
AcDbXrecord
 10
0.0
 20
0.0
 30
0.0
  0
XRECORD
  5
585
102
{ACAD_REACTORS
330
569
102
}
330
569
100
AcDbXrecord
 10
0.0
 20
0.0
 30
0.0
  0
XRECORD
  5
582
102
{ACAD_REACTORS
330
569
102
}
330
569
100
AcDbXrecord
 10
0.0
 20
0.0
 30
0.0
  0
XRECORD
  5
57F
102
{ACAD_REACTORS
330
569
102
}
330
569
100
AcDbXrecord
340
0
  0
XRECORD
  5
580
102
{ACAD_REACTORS
330
569
102
}
330
569
100
AcDbXrecord
 70
     0
  0
XRECORD
  5
574
102
{ACAD_REACTORS
330
569
102
}
330
569
100
AcDbXrecord
  1
{FAEB1C32-E019-11D5-929B-00C0DF256EC4}
  0
DICTIONARYVAR
  5
58C
102
{ACAD_REACTORS
330
589
102
}
330
589
100
DictionaryVariables
280
     0
  1
2
  0
DICTIONARYVAR
  5
58D
102
{ACAD_REACTORS
330
589
102
}
330
589
100
DictionaryVariables
280
     0
  1
1
  0
DICTIONARY
  5
590
330
3D
100
AcDbDictionary
280
     1
  3
ACAD_XREC_ROUNDTRIP
360
591
  0
DICTIONARY
  5
58E
330
3C
100
AcDbDictionary
280
     1
  3
ACAD_XREC_ROUNDTRIP
360
58F
  0
DICTIONARY
  5
592
330
3E
100
AcDbDictionary
280
     1
  3
ACAD_XREC_ROUNDTRIP
360
593
  0
XRECORD
  5
591
102
{ACAD_REACTORS
330
590
102
}
330
590
100
AcDbXrecord
102
MATERIAL
148
0.0
149
0.0
149
0.0
 93
        0
 94
      127
282
     0
 72
     1
 77
     1
171
     1
175
     1
179
     1
273
     0
  0
XRECORD
  5
58F
102
{ACAD_REACTORS
330
58E
102
}
330
58E
100
AcDbXrecord
102
MATERIAL
148
0.0
149
0.0
149
0.0
 93
        0
 94
      127
282
     0
 72
     1
 77
     1
171
     1
175
     1
179
     1
273
     0
  0
XRECORD
  5
593
102
{ACAD_REACTORS
330
592
102
}
330
592
100
AcDbXrecord
102
MATERIAL
148
0.0
149
0.0
149
0.0
 93
        0
 94
      127
282
     0
 72
     1
 77
     1
171
     1
175
     1
179
     1
273
     0
  0
ENDSEC
  0
EOF
