  0
SECTION
  2
HEADER
  9
$ACADVER
  1
AC1014
  9
$ACADMAINTVER
 70
     9
  9
$DWGCODEPAGE
  3
ANSI_1252
  9
$INSBASE
 10
0.0
 20
0.0
 30
0.0
  9
$EXTMIN
 10
1.000000000000000E+20
 20
1.000000000000000E+20
 30
1.000000000000000E+20
  9
$EXTMAX
 10
-1.000000000000000E+20
 20
-1.000000000000000E+20
 30
-1.000000000000000E+20
  9
$LIMMIN
 10
0.0
 20
0.0
  9
$LIMMAX
 10
12.0
 20
9.0
  9
$ORTHOMODE
 70
     0
  9
$REGENMODE
 70
     1
  9
$FILLMODE
 70
     1
  9
$QTEXTMODE
 70
     0
  9
$MIRRTEXT
 70
     1
  9
$DRAGMODE
 70
     2
  9
$LTSCALE
 40
1.0
  9
$OSMODE
 70
    37
  9
$ATTMODE
 70
     1
  9
$TEXTSIZE
 40
0.2
  9
$TRACEWID
 40
0.05
  9
$TEXTSTYLE
  7
STANDARD
  9
$CLAYER
  8
0
  9
$CELTYPE
  6
BYLAYER
  9
$CECOLOR
 62
   256
  9
$CELTSCALE
 40
1.0
  9
$DELOBJ
 70
     1
  9
$DISPSILH
 70
     0
  9
$DIMSCALE
 40
1.0
  9
$DIMASZ
 40
0.18
  9
$DIMEXO
 40
0.0625
  9
$DIMDLI
 40
0.38
  9
$DIMRND
 40
0.0
  9
$DIMDLE
 40
0.0
  9
$DIMEXE
 40
0.18
  9
$DIMTP
 40
0.0
  9
$DIMTM
 40
0.0
  9
$DIMTXT
 40
0.18
  9
$DIMCEN
 40
0.09
  9
$DIMTSZ
 40
0.0
  9
$DIMTOL
 70
     0
  9
$DIMLIM
 70
     0
  9
$DIMTIH
 70
     1
  9
$DIMTOH
 70
     1
  9
$DIMSE1
 70
     0
  9
$DIMSE2
 70
     0
  9
$DIMTAD
 70
     0
  9
$DIMZIN
 70
     0
  9
$DIMBLK
  1

  9
$DIMASO
 70
     1
  9
$DIMSHO
 70
     1
  9
$DIMPOST
  1

  9
$DIMAPOST
  1

  9
$DIMALT
 70
     0
  9
$DIMALTD
 70
     2
  9
$DIMALTF
 40
25.4
  9
$DIMLFAC
 40
1.0
  9
$DIMTOFL
 70
     0
  9
$DIMTVP
 40
0.0
  9
$DIMTIX
 70
     0
  9
$DIMSOXD
 70
     0
  9
$DIMSAH
 70
     0
  9
$DIMBLK1
  1

  9
$DIMBLK2
  1

  9
$DIMSTYLE
  2
STANDARD
  9
$DIMCLRD
 70
     0
  9
$DIMCLRE
 70
     0
  9
$DIMCLRT
 70
     0
  9
$DIMTFAC
 40
1.0
  9
$DIMGAP
 40
0.09
  9
$DIMJUST
 70
     0
  9
$DIMSD1
 70
     0
  9
$DIMSD2
 70
     0
  9
$DIMTOLJ
 70
     1
  9
$DIMTZIN
 70
     0
  9
$DIMALTZ
 70
     0
  9
$DIMALTTZ
 70
     0
  9
$DIMFIT
 70
     3
  9
$DIMUPT
 70
     0
  9
$DIMUNIT
 70
     2
  9
$DIMDEC
 70
     4
  9
$DIMTDEC
 70
     4
  9
$DIMALTU
 70
     2
  9
$DIMALTTD
 70
     2
  9
$DIMTXSTY
  7
STANDARD
  9
$DIMAUNIT
 70
     0
  9
$LUNITS
 70
     2
  9
$LUPREC
 70
     4
  9
$SKETCHINC
 40
0.1
  9
$FILLETRAD
 40
0.5
  9
$AUNITS
 70
     0
  9
$AUPREC
 70
     0
  9
$MENU
  1
.
  9
$ELEVATION
 40
0.0
  9
$PELEVATION
 40
0.0
  9
$THICKNESS
 40
0.0
  9
$LIMCHECK
 70
     0
  9
$CHAMFERA
 40
0.5
  9
$CHAMFERB
 40
0.5
  9
$CHAMFERC
 40
1.0
  9
$CHAMFERD
 40
0.0
  9
$SKPOLY
 70
     0
  9
$TDCREATE
 40
2459971.555931319
  9
$TDUPDATE
 40
2459971.555931493
  9
$TDINDWG
 40
0.0000000116
  9
$TDUSRTIMER
 40
0.0000000116
  9
$USRTIMER
 70
     1
  9
$ANGBASE
 50
0.0
  9
$ANGDIR
 70
     0
  9
$PDMODE
 70
     0
  9
$PDSIZE
 40
0.0
  9
$PLINEWID
 40
0.0
  9
$COORDS
 70
     1
  9
$SPLFRAME
 70
     0
  9
$SPLINETYPE
 70
     6
  9
$SPLINESEGS
 70
     8
  9
$ATTDIA
 70
     0
  9
$ATTREQ
 70
     1
  9
$HANDLING
 70
     1
  9
$HANDSEED
  5
1B1
  9
$SURFTAB1
 70
     6
  9
$SURFTAB2
 70
     6
  9
$SURFTYPE
 70
     6
  9
$SURFU
 70
     6
  9
$SURFV
 70
     6
  9
$UCSNAME
  2

  9
$UCSORG
 10
0.0
 20
0.0
 30
0.0
  9
$UCSXDIR
 10
1.0
 20
0.0
 30
0.0
  9
$UCSYDIR
 10
0.0
 20
1.0
 30
0.0
  9
$PUCSNAME
  2

  9
$PUCSORG
 10
0.0
 20
0.0
 30
0.0
  9
$PUCSXDIR
 10
1.0
 20
0.0
 30
0.0
  9
$PUCSYDIR
 10
0.0
 20
1.0
 30
0.0
  9
$USERI1
 70
     0
  9
$USERI2
 70
     0
  9
$USERI3
 70
     0
  9
$USERI4
 70
     0
  9
$USERI5
 70
     0
  9
$USERR1
 40
0.0
  9
$USERR2
 40
0.0
  9
$USERR3
 40
0.0
  9
$USERR4
 40
0.0
  9
$USERR5
 40
0.0
  9
$WORLDVIEW
 70
     1
  9
$SHADEDGE
 70
     3
  9
$SHADEDIF
 70
    70
  9
$TILEMODE
 70
     1
  9
$MAXACTVP
 70
    64
  9
$PINSBASE
 10
0.0
 20
0.0
 30
0.0
  9
$PLIMCHECK
 70
     0
  9
$PEXTMIN
 10
1.000000000000000E+20
 20
1.000000000000000E+20
 30
1.000000000000000E+20
  9
$PEXTMAX
 10
-1.000000000000000E+20
 20
-1.000000000000000E+20
 30
-1.000000000000000E+20
  9
$PLIMMIN
 10
0.0
 20
0.0
  9
$PLIMMAX
 10
12.0
 20
9.0
  9
$UNITMODE
 70
     0
  9
$VISRETAIN
 70
     1
  9
$PLINEGEN
 70
     0
  9
$PSLTSCALE
 70
     1
  9
$TREEDEPTH
 70
  3020
  9
$PICKSTYLE
 70
     1
  9
$CMLSTYLE
  2
STANDARD
  9
$CMLJUST
 70
     0
  9
$CMLSCALE
 40
1.0
  9
$PROXYGRAPHICS
 70
     1
  9
$MEASUREMENT
 70
     0
  0
ENDSEC
  0
SECTION
  2
CLASSES
  0
CLASS
  1
ACDBDICTIONARYWDFLT
  2
AcDbDictionaryWithDefault
  3
ObjectDBX Classes
 90
        0
280
     0
281
     0
  0
CLASS
  1
VISUALSTYLE
  2
AcDbVisualStyle
  3
ObjectDBX Classes
 90
     4095
280
     0
281
     0
  0
CLASS
  1
MATERIAL
  2
AcDbMaterial
  3
ObjectDBX Classes
 90
     1153
280
     0
281
     0
  0
CLASS
  1
SUN
  2
AcDbSun
  3
SCENEOE
 90
     1024
280
     0
281
     0
  0
CLASS
  1
DICTIONARYVAR
  2
AcDbDictionaryVar
  3
ObjectDBX Classes
 90
        0
280
     0
281
     0
  0
CLASS
  1
XRECORD
  2
AcDbXrecord
  3
AutoCAD 2000
 90
        0
280
     0
281
     0
  0
CLASS
  1
LWPOLYLINE
  2
AcDbPolyline
  3
AutoCAD 2000
 90
        0
280
     0
281
     1
  0
CLASS
  1
HATCH
  2
AcDbHatch
  3
AutoCAD 2000
 90
        0
280
     0
281
     1
  0
CLASS
  1
ACDBPLACEHOLDER
  2
AcDbPlaceHolder
  3
ObjectDBX Classes
 90
        0
280
     0
281
     0
  0
CLASS
  1
LAYOUT
  2
AcDbLayout
  3
ObjectDBX Classes
 90
        0
280
     0
281
     0
  0
ENDSEC
  0
SECTION
  2
TABLES
  0
TABLE
  2
VPORT
  5
8
330
0
100
AcDbSymbolTable
 70
     1
  0
VPORT
  5
29
330
8
100
AcDbSymbolTableRecord
100
AcDbViewportTableRecord
  2
*ACTIVE
 70
     0
 10
0.0
 20
0.0
 11
1.0
 21
1.0
 12
0.0
 22
0.0
 13
0.0
 23
0.0
 14
0.5
 24
0.5
 15
0.5
 25
0.5
 16
0.0
 26
0.0
 36
1.0
 17
74.99999786197374
 27
39.74999886684608
 37
0.0
 40
39.99999998999989
 41
2.0
 42
50.0
 43
0.0
 44
0.0
 50
0.0
 51
0.0
 71
     0
 72
   100
 73
     1
 74
     3
 75
     0
 76
     0
 77
     0
 78
     0
  0
ENDTAB
  0
TABLE
  2
LTYPE
  5
5
330
0
100
AcDbSymbolTable
 70
     1
  0
LTYPE
  5
14
330
5
100
AcDbSymbolTableRecord
100
AcDbLinetypeTableRecord
  2
BYBLOCK
 70
     0
  3

 72
    65
 73
     0
 40
0.0
  0
LTYPE
  5
15
330
5
100
AcDbSymbolTableRecord
100
AcDbLinetypeTableRecord
  2
BYLAYER
 70
     0
  3

 72
    65
 73
     0
 40
0.0
  0
LTYPE
  5
16
330
5
100
AcDbSymbolTableRecord
100
AcDbLinetypeTableRecord
  2
CONTINUOUS
 70
     0
  3
Solid line
 72
    65
 73
     0
 40
0.0
  0
ENDTAB
  0
TABLE
  2
LAYER
  5
2
330
0
100
AcDbSymbolTable
 70
     6
  0
LAYER
  5
10
330
2
100
AcDbSymbolTableRecord
100
AcDbLayerTableRecord
  2
0
 70
     0
 62
     7
  6
CONTINUOUS
  0
LAYER
  5
40
330
2
100
AcDbSymbolTableRecord
100
AcDbLayerTableRecord
  2
REFERENCIAS
 70
     0
 62
     7
  6
CONTINUOUS
  0
LAYER
  5
42
330
2
100
AcDbSymbolTableRecord
100
AcDbLayerTableRecord
  2
M_U_00C1RGENES
 70
     4
 62
     7
  6
CONTINUOUS
  0
LAYER
  5
56
330
2
100
AcDbSymbolTableRecord
100
AcDbLayerTableRecord
  2
DIBUJOS
 70
     4
 62
     7
  6
CONTINUOUS
  0
LAYER
  5
157
330
2
100
AcDbSymbolTableRecord
100
AcDbLayerTableRecord
  2
COTAS_LINEA
 70
     4
 62
     7
  6
CONTINUOUS
  0
LAYER
  5
17C
330
2
100
AcDbSymbolTableRecord
100
AcDbLayerTableRecord
  2
COTAS_N_U_00DAMERO
 70
     4
 62
     7
  6
CONTINUOUS
  0
ENDTAB
  0
TABLE
  2
STYLE
  5
3
330
0
100
AcDbSymbolTable
 70
     1
  0
STYLE
  5
11
330
3
100
AcDbSymbolTableRecord
100
AcDbTextStyleTableRecord
  2
STANDARD
 70
     0
 40
0.0
 41
1.0
 50
0.0
 71
     0
 42
0.2
  3
txt
  4

  0
ENDTAB
  0
TABLE
  2
VIEW
  5
6
330
0
100
AcDbSymbolTable
 70
     0
  0
ENDTAB
  0
TABLE
  2
UCS
  5
7
330
0
100
AcDbSymbolTable
 70
     0
  0
ENDTAB
  0
TABLE
  2
APPID
  5
9
330
0
100
AcDbSymbolTable
 70
     1
  0
APPID
  5
12
330
9
100
AcDbSymbolTableRecord
100
AcDbRegAppTableRecord
  2
ACAD
 70
     0
  0
ENDTAB
  0
TABLE
  2
DIMSTYLE
  5
A
330
0
100
AcDbSymbolTable
 70
     1
  0
DIMSTYLE
105
27
330
A
100
AcDbSymbolTableRecord
100
AcDbDimStyleTableRecord
  2
STANDARD
 70
     0
  3

  4

  5

  6

  7

 40
1.0
 41
0.18
 42
0.0625
 43
0.38
 44
0.18
 45
0.0
 46
0.0
 47
0.0
 48
0.0
140
0.18
141
0.09
142
0.0
143
25.4
144
1.0
145
0.0
146
1.0
147
0.09
 71
     0
 72
     0
 73
     1
 74
     1
 75
     0
 76
     0
 77
     0
 78
     0
170
     0
171
     2
172
     0
173
     0
174
     0
175
     0
176
     0
177
     0
178
     0
270
     2
271
     4
272
     4
273
     2
274
     2
340
11
275
     0
280
     0
281
     0
282
     0
283
     1
284
     0
285
     0
286
     0
287
     3
288
     0
  0
ENDTAB
  0
TABLE
  2
BLOCK_RECORD
  5
1
330
0
100
AcDbSymbolTable
 70
     7
  0
BLOCK_RECORD
  5
1F
330
1
100
AcDbSymbolTableRecord
100
AcDbBlockTableRecord
  2
*MODEL_SPACE
  0
BLOCK_RECORD
  5
1B
330
1
100
AcDbSymbolTableRecord
100
AcDbBlockTableRecord
  2
*PAPER_SPACE
  0
BLOCK_RECORD
  5
57
330
1
100
AcDbSymbolTableRecord
100
AcDbBlockTableRecord
  2
BLOCK_2
  0
BLOCK_RECORD
  5
9B
330
1
100
AcDbSymbolTableRecord
100
AcDbBlockTableRecord
  2
BLOCK_3
  0
BLOCK_RECORD
  5
E3
330
1
100
AcDbSymbolTableRecord
100
AcDbBlockTableRecord
  2
BLOCK_4
  0
BLOCK_RECORD
  5
127
330
1
100
AcDbSymbolTableRecord
100
AcDbBlockTableRecord
  2
BLOCK_5
  0
BLOCK_RECORD
  5
136
330
1
100
AcDbSymbolTableRecord
100
AcDbBlockTableRecord
  2
BLOCK_6
  0
BLOCK_RECORD
  5
145
330
1
100
AcDbSymbolTableRecord
100
AcDbBlockTableRecord
  2
BLOCK_7
  0
ENDTAB
  0
ENDSEC
  0
SECTION
  2
BLOCKS
  0
BLOCK
  5
20
330
1F
100
AcDbEntity
  8
0
100
AcDbBlockBegin
  2
*MODEL_SPACE
 70
     0
 10
0.0
 20
0.0
 30
0.0
  3
*MODEL_SPACE
  1

  0
ENDBLK
  5
21
330
1F
100
AcDbEntity
  8
0
100
AcDbBlockEnd
  0
BLOCK
  5
1C
330
1B
100
AcDbEntity
 67
     1
  8
0
100
AcDbBlockBegin
  2
*PAPER_SPACE
 70
     0
 10
0.0
 20
0.0
 30
0.0
  3
*PAPER_SPACE
  1

  0
ENDBLK
  5
1D
330
1B
100
AcDbEntity
 67
     1
  8
0
100
AcDbBlockEnd
  0
BLOCK
  5
59
330
57
100
AcDbEntity
  8
0
100
AcDbBlockBegin
  2
BLOCK_2
 70
     0
 10
0.0
 20
0.0
 30
0.0
  3
BLOCK_2
  1

  0
POLYLINE
  5
5B
330
57
100
AcDbEntity
  8
DIBUJOS
 62
     7
100
AcDb2dPolyline
 66
     1
 10
0.0
 20
0.0
 30
0.0
  0
VERTEX
  5
5C
330
5B
100
AcDbEntity
  8
DIBUJOS
 62
     7
100
AcDbVertex
100
AcDb2dVertex
 10
82.05072190163393
 20
48.90300122088409
 30
0.0
  0
VERTEX
  5
5D
330
5B
100
AcDbEntity
  8
DIBUJOS
 62
     7
100
AcDbVertex
100
AcDb2dVertex
 10
82.04509486244326
 20
48.90300122088409
 30
0.0
  0
SEQEND
  5
5E
330
5B
100
AcDbEntity
  8
DIBUJOS
 62
     7
  0
POLYLINE
  5
5F
330
57
100
AcDbEntity
  8
DIBUJOS
 62
     7
100
AcDb2dPolyline
 66
     1
 10
0.0
 20
0.0
 30
0.0
  0
VERTEX
  5
60
330
5F
100
AcDbEntity
  8
DIBUJOS
 62
     7
100
AcDbVertex
100
AcDb2dVertex
 10
82.05634894082588
 20
48.90300122088409
 30
0.0
  0
VERTEX
  5
61
330
5F
100
AcDbEntity
  8
DIBUJOS
 62
     7
100
AcDbVertex
100
AcDb2dVertex
 10
82.05072190163393
 20
48.90300122088409
 30
0.0
  0
SEQEND
  5
62
330
5F
100
AcDbEntity
  8
DIBUJOS
 62
     7
  0
POLYLINE
  5
63
330
57
100
AcDbEntity
  8
DIBUJOS
 62
     7
100
AcDb2dPolyline
 66
     1
 10
0.0
 20
0.0
 30
0.0
  0
VERTEX
  5
64
330
63
100
AcDbEntity
  8
DIBUJOS
 62
     7
100
AcDbVertex
100
AcDb2dVertex
 10
94.18237911113587
 20
48.90300122088409
 30
0.0
  0
VERTEX
  5
65
330
63
100
AcDbEntity
  8
DIBUJOS
 62
     7
100
AcDbVertex
100
AcDb2dVertex
 10
94.19363318951848
 20
48.91425378479023
 30
0.0
  0
VERTEX
  5
66
330
63
100
AcDbEntity
  8
DIBUJOS
 62
     7
100
AcDbVertex
100
AcDb2dVertex
 10
94.19363318951848
 20
49.08868821353403
 30
0.0
  0
VERTEX
  5
67
330
63
100
AcDbEntity
  8
DIBUJOS
 62
     7
100
AcDbVertex
100
AcDb2dVertex
 10
94.1716884181861
 20
49.10163093374157
 30
0.0
  0
VERTEX
  5
68
330
63
100
AcDbEntity
  8
DIBUJOS
 62
     7
100
AcDbVertex
100
AcDb2dVertex
 10
94.16549875079954
 20
49.10556857387003
 30
0.0
  0
VERTEX
  5
69
330
63
100
AcDbEntity
  8
DIBUJOS
 62
     7
100
AcDbVertex
100
AcDb2dVertex
 10
82.05015851620045
 20
49.10106754830777
 30
0.0
  0
VERTEX
  5
6A
330
63
100
AcDbEntity
  8
DIBUJOS
 62
     7
100
AcDbVertex
100
AcDb2dVertex
 10
82.04509486244326
 20
49.09994380639375
 30
0.0
  0
VERTEX
  5
6B
330
63
100
AcDbEntity
  8
DIBUJOS
 62
     7
100
AcDbVertex
100
AcDb2dVertex
 10
82.03946782325131
 20
49.09431600996389
 30
0.0
  0
VERTEX
  5
6C
330
63
100
AcDbEntity
  8
DIBUJOS
 62
     7
100
AcDbVertex
100
AcDb2dVertex
 10
82.03946782325131
 20
48.90862598836004
 30
0.0
  0
VERTEX
  5
6D
330
63
100
AcDbEntity
  8
DIBUJOS
 62
     7
100
AcDbVertex
100
AcDb2dVertex
 10
82.04509486244326
 20
48.90300122088409
 30
0.0
  0
SEQEND
  5
6E
330
63
100
AcDbEntity
  8
DIBUJOS
 62
     7
  0
POLYLINE
  5
6F
330
57
100
AcDbEntity
  8
DIBUJOS
 62
     7
100
AcDb2dPolyline
 66
     1
 10
0.0
 20
0.0
 30
0.0
  0
VERTEX
  5
70
330
6F
100
AcDbEntity
  8
DIBUJOS
 62
     7
100
AcDbVertex
100
AcDb2dVertex
 10
82.05072190163393
 20
48.89737342445422
 30
0.0
  0
VERTEX
  5
71
330
6F
100
AcDbEntity
  8
DIBUJOS
 62
     7
100
AcDbVertex
100
AcDb2dVertex
 10
82.05072190163393
 20
48.90300122088409
 30
0.0
  0
SEQEND
  5
72
330
6F
100
AcDbEntity
  8
DIBUJOS
 62
     7
  0
POLYLINE
  5
73
330
57
100
AcDbEntity
  8
DIBUJOS
 62
     7
100
AcDb2dPolyline
 66
     1
 10
0.0
 20
0.0
 30
0.0
  0
VERTEX
  5
74
330
73
100
AcDbEntity
  8
DIBUJOS
 62
     7
100
AcDbVertex
100
AcDb2dVertex
 10
94.17675131470568
 20
48.89737342445422
 30
0.0
  0
VERTEX
  5
75
330
73
100
AcDbEntity
  8
DIBUJOS
 62
     7
100
AcDbVertex
100
AcDb2dVertex
 10
94.17112503275261
 20
48.90300122088409
 30
0.0
  0
VERTEX
  5
76
330
73
100
AcDbEntity
  8
DIBUJOS
 62
     7
100
AcDbVertex
100
AcDb2dVertex
 10
82.05634894082588
 20
48.90300122088409
 30
0.0
  0
SEQEND
  5
77
330
73
100
AcDbEntity
  8
DIBUJOS
 62
     7
  0
POLYLINE
  5
78
330
57
100
AcDbEntity
  8
DIBUJOS
 62
     7
100
AcDb2dPolyline
 66
     1
 10
0.0
 20
0.0
 30
0.0
  0
VERTEX
  5
79
330
78
100
AcDbEntity
  8
DIBUJOS
 62
     7
100
AcDbVertex
100
AcDb2dVertex
 10
94.18237911113587
 20
48.89737342445422
 30
0.0
  0
VERTEX
  5
7A
330
78
100
AcDbEntity
  8
DIBUJOS
 62
     7
100
AcDbVertex
100
AcDb2dVertex
 10
94.17675131470568
 20
48.89737342445422
 30
0.0
  0
SEQEND
  5
7B
330
78
100
AcDbEntity
  8
DIBUJOS
 62
     7
  0
POLYLINE
  5
7C
330
57
100
AcDbEntity
  8
DIBUJOS
 62
     7
100
AcDb2dPolyline
 66
     1
 10
0.0
 20
0.0
 30
0.0
  0
VERTEX
  5
7D
330
7C
100
AcDbEntity
  8
DIBUJOS
 62
     7
100
AcDbVertex
100
AcDb2dVertex
 10
94.18237911113587
 20
48.89737342445422
 30
0.0
  0
VERTEX
  5
7E
330
7C
100
AcDbEntity
  8
DIBUJOS
 62
     7
100
AcDbVertex
100
AcDb2dVertex
 10
94.18237911113587
 20
48.90300122088409
 30
0.0
  0
SEQEND
  5
7F
330
7C
100
AcDbEntity
  8
DIBUJOS
 62
     7
  0
POLYLINE
  5
80
330
57
100
AcDbEntity
  8
DIBUJOS
 62
     7
100
AcDb2dPolyline
 66
     1
 10
0.0
 20
0.0
 30
0.0
  0
VERTEX
  5
81
330
80
100
AcDbEntity
  8
DIBUJOS
 62
     7
100
AcDbVertex
100
AcDb2dVertex
 10
94.18237911113587
 20
48.89174562802404
 30
0.0
  0
VERTEX
  5
82
330
80
100
AcDbEntity
  8
DIBUJOS
 62
     7
100
AcDbVertex
100
AcDb2dVertex
 10
94.18237911113587
 20
48.89737342445422
 30
0.0
  0
SEQEND
  5
83
330
80
100
AcDbEntity
  8
DIBUJOS
 62
     7
  0
POLYLINE
  5
84
330
57
100
AcDbEntity
  8
DIBUJOS
 62
     7
100
AcDb2dPolyline
 66
     1
 10
0.0
 20
0.0
 30
0.0
  0
VERTEX
  5
85
330
84
100
AcDbEntity
  8
DIBUJOS
 62
     7
100
AcDbVertex
100
AcDb2dVertex
 10
82.25329152633618
 20
44.78409031446649
 30
0.0
  0
VERTEX
  5
86
330
84
100
AcDbEntity
  8
DIBUJOS
 62
     7
100
AcDbVertex
100
AcDb2dVertex
 10
82.24766448714423
 20
44.78971508194245
 30
0.0
  0
SEQEND
  5
87
330
84
100
AcDbEntity
  8
DIBUJOS
 62
     7
  0
POLYLINE
  5
88
330
57
100
AcDbEntity
  8
DIBUJOS
 62
     7
100
AcDb2dPolyline
 66
     1
 10
0.0
 20
0.0
 30
0.0
  0
VERTEX
  5
89
330
88
100
AcDbEntity
  8
DIBUJOS
 62
     7
100
AcDbVertex
100
AcDb2dVertex
 10
82.25329152633618
 20
44.78409031446649
 30
0.0
  0
VERTEX
  5
8A
330
88
100
AcDbEntity
  8
DIBUJOS
 62
     7
100
AcDbVertex
100
AcDb2dVertex
 10
93.97418244724295
 20
44.78409031446649
 30
0.0
  0
VERTEX
  5
8B
330
88
100
AcDbEntity
  8
DIBUJOS
 62
     7
100
AcDbVertex
100
AcDb2dVertex
 10
93.98543652562556
 20
44.79534287837231
 30
0.0
  0
VERTEX
  5
8C
330
88
100
AcDbEntity
  8
DIBUJOS
 62
     7
100
AcDbVertex
100
AcDb2dVertex
 10
93.98543652562556
 20
48.68917827503809
 30
0.0
  0
VERTEX
  5
8D
330
88
100
AcDbEntity
  8
DIBUJOS
 62
     7
100
AcDbVertex
100
AcDb2dVertex
 10
93.97418244724295
 20
48.70043083894456
 30
0.0
  0
VERTEX
  5
8E
330
88
100
AcDbEntity
  8
DIBUJOS
 62
     7
100
AcDbVertex
100
AcDb2dVertex
 10
82.25891780828861
 20
48.70043083894456
 30
0.0
  0
VERTEX
  5
8F
330
88
100
AcDbEntity
  8
DIBUJOS
 62
     7
100
AcDbVertex
100
AcDb2dVertex
 10
82.24766448714423
 20
48.68917827503809
 30
0.0
  0
VERTEX
  5
90
330
88
100
AcDbEntity
  8
DIBUJOS
 62
     7
100
AcDbVertex
100
AcDb2dVertex
 10
82.24766448714423
 20
44.78971508194245
 30
0.0
  0
SEQEND
  5
91
330
88
100
AcDbEntity
  8
DIBUJOS
 62
     7
  0
POLYLINE
  5
92
330
57
100
AcDbEntity
  8
DIBUJOS
 62
     7
100
AcDb2dPolyline
 66
     1
 10
0.0
 20
0.0
 30
0.0
  0
VERTEX
  5
93
330
92
100
AcDbEntity
  8
DIBUJOS
 62
     7
100
AcDbVertex
100
AcDb2dVertex
 10
82.05072190163393
 20
48.89737342445422
 30
0.0
  0
VERTEX
  5
94
330
92
100
AcDbEntity
  8
DIBUJOS
 62
     7
100
AcDbVertex
100
AcDb2dVertex
 10
82.04509486244326
 20
48.89174562802404
 30
0.0
  0
VERTEX
  5
95
330
92
100
AcDbEntity
  8
DIBUJOS
 62
     7
100
AcDbVertex
100
AcDb2dVertex
 10
82.04509486244326
 20
44.59277249643278
 30
0.0
  0
VERTEX
  5
96
330
92
100
AcDbEntity
  8
DIBUJOS
 62
     7
100
AcDbVertex
100
AcDb2dVertex
 10
82.05634894082588
 20
44.58151993252664
 30
0.0
  0
VERTEX
  5
97
330
92
100
AcDbEntity
  8
DIBUJOS
 62
     7
100
AcDbVertex
100
AcDb2dVertex
 10
94.17112503275261
 20
44.58151993252664
 30
0.0
  0
VERTEX
  5
98
330
92
100
AcDbEntity
  8
DIBUJOS
 62
     7
100
AcDbVertex
100
AcDb2dVertex
 10
94.18237911113587
 20
44.59277249643278
 30
0.0
  0
VERTEX
  5
99
330
92
100
AcDbEntity
  8
DIBUJOS
 62
     7
100
AcDbVertex
100
AcDb2dVertex
 10
94.18237911113587
 20
48.89174562802404
 30
0.0
  0
SEQEND
  5
9A
330
92
100
AcDbEntity
  8
DIBUJOS
 62
     7
  0
ENDBLK
  5
5A
330
57
100
AcDbEntity
  8
0
100
AcDbBlockEnd
  0
BLOCK
  5
9D
330
9B
100
AcDbEntity
  8
0
100
AcDbBlockBegin
  2
BLOCK_3
 70
     0
 10
0.0
 20
0.0
 30
0.0
  3
BLOCK_3
  1

  0
POLYLINE
  5
9F
330
9B
100
AcDbEntity
  8
DIBUJOS
 62
     7
100
AcDb2dPolyline
 66
     1
 10
0.0
 20
0.0
 30
0.0
  0
VERTEX
  5
A0
330
9F
100
AcDbEntity
  8
DIBUJOS
 62
     7
100
AcDbVertex
100
AcDb2dVertex
 10
70.35365761877406
 20
48.90300122088409
 30
0.0
  0
VERTEX
  5
A1
330
9F
100
AcDbEntity
  8
DIBUJOS
 62
     7
100
AcDbVertex
100
AcDb2dVertex
 10
70.3592854152036
 20
48.90862598836004
 30
0.0
  0
VERTEX
  5
A2
330
9F
100
AcDbEntity
  8
DIBUJOS
 62
     7
100
AcDbVertex
100
AcDb2dVertex
 10
70.3592854152036
 20
49.09431600996389
 30
0.0
  0
VERTEX
  5
A3
330
9F
100
AcDbEntity
  8
DIBUJOS
 62
     7
100
AcDbVertex
100
AcDb2dVertex
 10
70.34803285129874
 20
49.10556857387003
 30
0.0
  0
VERTEX
  5
A4
330
9F
100
AcDbEntity
  8
DIBUJOS
 62
     7
100
AcDbVertex
100
AcDb2dVertex
 10
58.22200040927245
 20
49.10556857387003
 30
0.0
  0
VERTEX
  5
A5
330
9F
100
AcDbEntity
  8
DIBUJOS
 62
     7
100
AcDbVertex
100
AcDb2dVertex
 10
58.21074784536695
 20
49.09431600996389
 30
0.0
  0
VERTEX
  5
A6
330
9F
100
AcDbEntity
  8
DIBUJOS
 62
     7
100
AcDbVertex
100
AcDb2dVertex
 10
58.21074784536695
 20
48.90862598836004
 30
0.0
  0
VERTEX
  5
A7
330
9F
100
AcDbEntity
  8
DIBUJOS
 62
     7
100
AcDbVertex
100
AcDb2dVertex
 10
58.21637564179681
 20
48.90300122088409
 30
0.0
  0
SEQEND
  5
A8
330
9F
100
AcDbEntity
  8
DIBUJOS
 62
     7
  0
POLYLINE
  5
A9
330
9B
100
AcDbEntity
  8
DIBUJOS
 62
     7
100
AcDb2dPolyline
 66
     1
 10
0.0
 20
0.0
 30
0.0
  0
VERTEX
  5
AA
330
A9
100
AcDbEntity
  8
DIBUJOS
 62
     7
100
AcDbVertex
100
AcDb2dVertex
 10
58.21637564179681
 20
48.89737342445422
 30
0.0
  0
VERTEX
  5
AB
330
A9
100
AcDbEntity
  8
DIBUJOS
 62
     7
100
AcDbVertex
100
AcDb2dVertex
 10
58.21637564179681
 20
48.90300122088409
 30
0.0
  0
SEQEND
  5
AC
330
A9
100
AcDbEntity
  8
DIBUJOS
 62
     7
  0
POLYLINE
  5
AD
330
9B
100
AcDbEntity
  8
DIBUJOS
 62
     7
100
AcDb2dPolyline
 66
     1
 10
0.0
 20
0.0
 30
0.0
  0
VERTEX
  5
AE
330
AD
100
AcDbEntity
  8
DIBUJOS
 62
     7
100
AcDbVertex
100
AcDb2dVertex
 10
58.22200040927245
 20
48.89737342445422
 30
0.0
  0
VERTEX
  5
AF
330
AD
100
AcDbEntity
  8
DIBUJOS
 62
     7
100
AcDbVertex
100
AcDb2dVertex
 10
58.21637564179681
 20
48.89737342445422
 30
0.0
  0
SEQEND
  5
B0
330
AD
100
AcDbEntity
  8
DIBUJOS
 62
     7
  0
POLYLINE
  5
B1
330
9B
100
AcDbEntity
  8
DIBUJOS
 62
     7
100
AcDb2dPolyline
 66
     1
 10
0.0
 20
0.0
 30
0.0
  0
VERTEX
  5
B2
330
B1
100
AcDbEntity
  8
DIBUJOS
 62
     7
100
AcDbVertex
100
AcDb2dVertex
 10
70.34803285129874
 20
48.89737342445422
 30
0.0
  0
VERTEX
  5
B3
330
B1
100
AcDbEntity
  8
DIBUJOS
 62
     7
100
AcDbVertex
100
AcDb2dVertex
 10
70.34240505486792
 20
48.90300122088409
 30
0.0
  0
VERTEX
  5
B4
330
B1
100
AcDbEntity
  8
DIBUJOS
 62
     7
100
AcDbVertex
100
AcDb2dVertex
 10
58.22762820570263
 20
48.90300122088409
 30
0.0
  0
VERTEX
  5
B5
330
B1
100
AcDbEntity
  8
DIBUJOS
 62
     7
100
AcDbVertex
100
AcDb2dVertex
 10
58.22200040927245
 20
48.89737342445422
 30
0.0
  0
SEQEND
  5
B6
330
B1
100
AcDbEntity
  8
DIBUJOS
 62
     7
  0
POLYLINE
  5
B7
330
9B
100
AcDbEntity
  8
DIBUJOS
 62
     7
100
AcDb2dPolyline
 66
     1
 10
0.0
 20
0.0
 30
0.0
  0
VERTEX
  5
B8
330
B7
100
AcDbEntity
  8
DIBUJOS
 62
     7
100
AcDbVertex
100
AcDb2dVertex
 10
70.35365761877406
 20
48.89737342445422
 30
0.0
  0
VERTEX
  5
B9
330
B7
100
AcDbEntity
  8
DIBUJOS
 62
     7
100
AcDbVertex
100
AcDb2dVertex
 10
70.34803285129874
 20
48.89737342445422
 30
0.0
  0
SEQEND
  5
BA
330
B7
100
AcDbEntity
  8
DIBUJOS
 62
     7
  0
POLYLINE
  5
BB
330
9B
100
AcDbEntity
  8
DIBUJOS
 62
     7
100
AcDb2dPolyline
 66
     1
 10
0.0
 20
0.0
 30
0.0
  0
VERTEX
  5
BC
330
BB
100
AcDbEntity
  8
DIBUJOS
 62
     7
100
AcDbVertex
100
AcDb2dVertex
 10
70.35365761877406
 20
48.89737342445422
 30
0.0
  0
VERTEX
  5
BD
330
BB
100
AcDbEntity
  8
DIBUJOS
 62
     7
100
AcDbVertex
100
AcDb2dVertex
 10
70.35365761877406
 20
48.90300122088409
 30
0.0
  0
SEQEND
  5
BE
330
BB
100
AcDbEntity
  8
DIBUJOS
 62
     7
  0
POLYLINE
  5
BF
330
9B
100
AcDbEntity
  8
DIBUJOS
 62
     7
100
AcDb2dPolyline
 66
     1
 10
0.0
 20
0.0
 30
0.0
  0
VERTEX
  5
C0
330
BF
100
AcDbEntity
  8
DIBUJOS
 62
     7
100
AcDbVertex
100
AcDb2dVertex
 10
58.21637564179681
 20
48.89174562802404
 30
0.0
  0
VERTEX
  5
C1
330
BF
100
AcDbEntity
  8
DIBUJOS
 62
     7
100
AcDbVertex
100
AcDb2dVertex
 10
58.21637564179681
 20
48.89737342445422
 30
0.0
  0
SEQEND
  5
C2
330
BF
100
AcDbEntity
  8
DIBUJOS
 62
     7
  0
POLYLINE
  5
C3
330
9B
100
AcDbEntity
  8
DIBUJOS
 62
     7
100
AcDb2dPolyline
 66
     1
 10
0.0
 20
0.0
 30
0.0
  0
VERTEX
  5
C4
330
C3
100
AcDbEntity
  8
DIBUJOS
 62
     7
100
AcDbVertex
100
AcDb2dVertex
 10
70.35365761877406
 20
48.89174562802404
 30
0.0
  0
VERTEX
  5
C5
330
C3
100
AcDbEntity
  8
DIBUJOS
 62
     7
100
AcDbVertex
100
AcDb2dVertex
 10
70.35365761877406
 20
48.89737342445422
 30
0.0
  0
SEQEND
  5
C6
330
C3
100
AcDbEntity
  8
DIBUJOS
 62
     7
  0
POLYLINE
  5
C7
330
9B
100
AcDbEntity
  8
DIBUJOS
 62
     7
100
AcDb2dPolyline
 66
     1
 10
0.0
 20
0.0
 30
0.0
  0
VERTEX
  5
C8
330
C7
100
AcDbEntity
  8
DIBUJOS
 62
     7
100
AcDbVertex
100
AcDb2dVertex
 10
58.41894299478243
 20
48.69480304251437
 30
0.0
  0
VERTEX
  5
C9
330
C7
100
AcDbEntity
  8
DIBUJOS
 62
     7
100
AcDbVertex
100
AcDb2dVertex
 10
58.42457079121262
 20
48.70043083894456
 30
0.0
  0
SEQEND
  5
CA
330
C7
100
AcDbEntity
  8
DIBUJOS
 62
     7
  0
POLYLINE
  5
CB
330
9B
100
AcDbEntity
  8
DIBUJOS
 62
     7
100
AcDb2dPolyline
 66
     1
 10
0.0
 20
0.0
 30
0.0
  0
VERTEX
  5
CC
330
CB
100
AcDbEntity
  8
DIBUJOS
 62
     7
100
AcDbVertex
100
AcDb2dVertex
 10
58.41894299478243
 20
44.78971508194245
 30
0.0
  0
VERTEX
  5
CD
330
CB
100
AcDbEntity
  8
DIBUJOS
 62
     7
100
AcDbVertex
100
AcDb2dVertex
 10
58.41894299478243
 20
48.69480304251437
 30
0.0
  0
SEQEND
  5
CE
330
CB
100
AcDbEntity
  8
DIBUJOS
 62
     7
  0
POLYLINE
  5
CF
330
9B
100
AcDbEntity
  8
DIBUJOS
 62
     7
100
AcDb2dPolyline
 66
     1
 10
0.0
 20
0.0
 30
0.0
  0
VERTEX
  5
D0
330
CF
100
AcDbEntity
  8
DIBUJOS
 62
     7
100
AcDbVertex
100
AcDb2dVertex
 10
58.42457079121262
 20
44.78409031446649
 30
0.0
  0
VERTEX
  5
D1
330
CF
100
AcDbEntity
  8
DIBUJOS
 62
     7
100
AcDbVertex
100
AcDb2dVertex
 10
58.41894299478243
 20
44.78971508194245
 30
0.0
  0
SEQEND
  5
D2
330
CF
100
AcDbEntity
  8
DIBUJOS
 62
     7
  0
POLYLINE
  5
D3
330
9B
100
AcDbEntity
  8
DIBUJOS
 62
     7
100
AcDb2dPolyline
 66
     1
 10
0.0
 20
0.0
 30
0.0
  0
VERTEX
  5
D4
330
D3
100
AcDbEntity
  8
DIBUJOS
 62
     7
100
AcDbVertex
100
AcDb2dVertex
 10
58.42457079121262
 20
44.78409031446649
 30
0.0
  0
VERTEX
  5
D5
330
D3
100
AcDbEntity
  8
DIBUJOS
 62
     7
100
AcDbVertex
100
AcDb2dVertex
 10
70.14546246935825
 20
44.78409031446649
 30
0.0
  0
VERTEX
  5
D6
330
D3
100
AcDbEntity
  8
DIBUJOS
 62
     7
100
AcDbVertex
100
AcDb2dVertex
 10
70.15109026578811
 20
44.78971508194245
 30
0.0
  0
VERTEX
  5
D7
330
D3
100
AcDbEntity
  8
DIBUJOS
 62
     7
100
AcDbVertex
100
AcDb2dVertex
 10
70.15109026578811
 20
48.68917827503809
 30
0.0
  0
VERTEX
  5
D8
330
D3
100
AcDbEntity
  8
DIBUJOS
 62
     7
100
AcDbVertex
100
AcDb2dVertex
 10
70.13983467292807
 20
48.70043083894456
 30
0.0
  0
VERTEX
  5
D9
330
D3
100
AcDbEntity
  8
DIBUJOS
 62
     7
100
AcDbVertex
100
AcDb2dVertex
 10
58.42457079121262
 20
48.70043083894456
 30
0.0
  0
SEQEND
  5
DA
330
D3
100
AcDbEntity
  8
DIBUJOS
 62
     7
  0
POLYLINE
  5
DB
330
9B
100
AcDbEntity
  8
DIBUJOS
 62
     7
100
AcDb2dPolyline
 66
     1
 10
0.0
 20
0.0
 30
0.0
  0
VERTEX
  5
DC
330
DB
100
AcDbEntity
  8
DIBUJOS
 62
     7
100
AcDbVertex
100
AcDb2dVertex
 10
58.21637564179681
 20
48.89174562802404
 30
0.0
  0
VERTEX
  5
DD
330
DB
100
AcDbEntity
  8
DIBUJOS
 62
     7
100
AcDbVertex
100
AcDb2dVertex
 10
58.21637564179681
 20
44.59277249643278
 30
0.0
  0
VERTEX
  5
DE
330
DB
100
AcDbEntity
  8
DIBUJOS
 62
     7
100
AcDbVertex
100
AcDb2dVertex
 10
58.22762820570263
 20
44.58151993252664
 30
0.0
  0
VERTEX
  5
DF
330
DB
100
AcDbEntity
  8
DIBUJOS
 62
     7
100
AcDbVertex
100
AcDb2dVertex
 10
70.34240505486792
 20
44.58151993252664
 30
0.0
  0
VERTEX
  5
E0
330
DB
100
AcDbEntity
  8
DIBUJOS
 62
     7
100
AcDbVertex
100
AcDb2dVertex
 10
70.35365761877406
 20
44.59277249643278
 30
0.0
  0
VERTEX
  5
E1
330
DB
100
AcDbEntity
  8
DIBUJOS
 62
     7
100
AcDbVertex
100
AcDb2dVertex
 10
70.35365761877406
 20
48.89174562802404
 30
0.0
  0
SEQEND
  5
E2
330
DB
100
AcDbEntity
  8
DIBUJOS
 62
     7
  0
ENDBLK
  5
9E
330
9B
100
AcDbEntity
  8
0
100
AcDbBlockEnd
  0
BLOCK
  5
E5
330
E3
100
AcDbEntity
  8
0
100
AcDbBlockBegin
  2
BLOCK_4
 70
     0
 10
0.0
 20
0.0
 30
0.0
  3
BLOCK_4
  1

  0
POLYLINE
  5
E7
330
E3
100
AcDbEntity
  8
DIBUJOS
 62
     7
100
AcDb2dPolyline
 66
     1
 10
0.0
 20
0.0
 30
0.0
  0
VERTEX
  5
E8
330
E7
100
AcDbEntity
  8
DIBUJOS
 62
     7
100
AcDbVertex
100
AcDb2dVertex
 10
47.54451639040042
 20
48.90300122088409
 30
0.0
  0
VERTEX
  5
E9
330
E7
100
AcDbEntity
  8
DIBUJOS
 62
     7
100
AcDbVertex
100
AcDb2dVertex
 10
47.538894651879
 20
48.90300122088409
 30
0.0
  0
SEQEND
  5
EA
330
E7
100
AcDbEntity
  8
DIBUJOS
 62
     7
  0
POLYLINE
  5
EB
330
E3
100
AcDbEntity
  8
DIBUJOS
 62
     7
100
AcDb2dPolyline
 66
     1
 10
0.0
 20
0.0
 30
0.0
  0
VERTEX
  5
EC
330
EB
100
AcDbEntity
  8
DIBUJOS
 62
     7
100
AcDbVertex
100
AcDb2dVertex
 10
47.54451639040042
 20
48.90300122088409
 30
0.0
  0
VERTEX
  5
ED
330
EB
100
AcDbEntity
  8
DIBUJOS
 62
     7
100
AcDbVertex
100
AcDb2dVertex
 10
47.55577198326046
 20
48.91425378479023
 30
0.0
  0
VERTEX
  5
EE
330
EB
100
AcDbEntity
  8
DIBUJOS
 62
     7
100
AcDbVertex
100
AcDb2dVertex
 10
47.55577198326046
 20
49.09431600996389
 30
0.0
  0
VERTEX
  5
EF
330
EB
100
AcDbEntity
  8
DIBUJOS
 62
     7
100
AcDbVertex
100
AcDb2dVertex
 10
47.54507977583422
 20
49.10106754830777
 30
0.0
  0
VERTEX
  5
F0
330
EB
100
AcDbEntity
  8
DIBUJOS
 62
     7
100
AcDbVertex
100
AcDb2dVertex
 10
41.56309564523823
 20
49.10556857387003
 30
0.0
  0
VERTEX
  5
F1
330
EB
100
AcDbEntity
  8
DIBUJOS
 62
     7
100
AcDbVertex
100
AcDb2dVertex
 10
41.55184005237755
 20
49.09431600996389
 30
0.0
  0
VERTEX
  5
F2
330
EB
100
AcDbEntity
  8
DIBUJOS
 62
     7
100
AcDbVertex
100
AcDb2dVertex
 10
41.55184005237755
 20
48.90862598836004
 30
0.0
  0
VERTEX
  5
F3
330
EB
100
AcDbEntity
  8
DIBUJOS
 62
     7
100
AcDbVertex
100
AcDb2dVertex
 10
41.55746784880773
 20
48.90300122088409
 30
0.0
  0
SEQEND
  5
F4
330
EB
100
AcDbEntity
  8
DIBUJOS
 62
     7
  0
POLYLINE
  5
F5
330
E3
100
AcDbEntity
  8
DIBUJOS
 62
     7
100
AcDb2dPolyline
 66
     1
 10
0.0
 20
0.0
 30
0.0
  0
VERTEX
  5
F6
330
F5
100
AcDbEntity
  8
DIBUJOS
 62
     7
100
AcDbVertex
100
AcDb2dVertex
 10
41.55746784880773
 20
48.89737342445422
 30
0.0
  0
VERTEX
  5
F7
330
F5
100
AcDbEntity
  8
DIBUJOS
 62
     7
100
AcDbVertex
100
AcDb2dVertex
 10
41.55746784880773
 20
48.90300122088409
 30
0.0
  0
SEQEND
  5
F8
330
F5
100
AcDbEntity
  8
DIBUJOS
 62
     7
  0
POLYLINE
  5
F9
330
E3
100
AcDbEntity
  8
DIBUJOS
 62
     7
100
AcDb2dPolyline
 66
     1
 10
0.0
 20
0.0
 30
0.0
  0
VERTEX
  5
FA
330
F9
100
AcDbEntity
  8
DIBUJOS
 62
     7
100
AcDbVertex
100
AcDb2dVertex
 10
41.56309564523823
 20
48.89737342445422
 30
0.0
  0
VERTEX
  5
FB
330
F9
100
AcDbEntity
  8
DIBUJOS
 62
     7
100
AcDbVertex
100
AcDb2dVertex
 10
41.55746784880773
 20
48.89737342445422
 30
0.0
  0
SEQEND
  5
FC
330
F9
100
AcDbEntity
  8
DIBUJOS
 62
     7
  0
POLYLINE
  5
FD
330
E3
100
AcDbEntity
  8
DIBUJOS
 62
     7
100
AcDb2dPolyline
 66
     1
 10
0.0
 20
0.0
 30
0.0
  0
VERTEX
  5
FE
330
FD
100
AcDbEntity
  8
DIBUJOS
 62
     7
100
AcDbVertex
100
AcDb2dVertex
 10
41.56309564523823
 20
48.89737342445422
 30
0.0
  0
VERTEX
  5
FF
330
FD
100
AcDbEntity
  8
DIBUJOS
 62
     7
100
AcDbVertex
100
AcDb2dVertex
 10
41.56872344166745
 20
48.90300122088409
 30
0.0
  0
VERTEX
  5
100
330
FD
100
AcDbEntity
  8
DIBUJOS
 62
     7
100
AcDbVertex
100
AcDb2dVertex
 10
47.538894651879
 20
48.90300122088409
 30
0.0
  0
SEQEND
  5
101
330
FD
100
AcDbEntity
  8
DIBUJOS
 62
     7
  0
POLYLINE
  5
102
330
E3
100
AcDbEntity
  8
DIBUJOS
 62
     7
100
AcDb2dPolyline
 66
     1
 10
0.0
 20
0.0
 30
0.0
  0
VERTEX
  5
103
330
102
100
AcDbEntity
  8
DIBUJOS
 62
     7
100
AcDbVertex
100
AcDb2dVertex
 10
47.54451639040042
 20
48.89737342445422
 30
0.0
  0
VERTEX
  5
104
330
102
100
AcDbEntity
  8
DIBUJOS
 62
     7
100
AcDbVertex
100
AcDb2dVertex
 10
47.54451639040042
 20
48.90300122088409
 30
0.0
  0
SEQEND
  5
105
330
102
100
AcDbEntity
  8
DIBUJOS
 62
     7
  0
POLYLINE
  5
106
330
E3
100
AcDbEntity
  8
DIBUJOS
 62
     7
100
AcDb2dPolyline
 66
     1
 10
0.0
 20
0.0
 30
0.0
  0
VERTEX
  5
107
330
106
100
AcDbEntity
  8
DIBUJOS
 62
     7
100
AcDbVertex
100
AcDb2dVertex
 10
41.55746784880773
 20
48.89174562802404
 30
0.0
  0
VERTEX
  5
108
330
106
100
AcDbEntity
  8
DIBUJOS
 62
     7
100
AcDbVertex
100
AcDb2dVertex
 10
41.55746784880773
 20
48.89737342445422
 30
0.0
  0
SEQEND
  5
109
330
106
100
AcDbEntity
  8
DIBUJOS
 62
     7
  0
POLYLINE
  5
10A
330
E3
100
AcDbEntity
  8
DIBUJOS
 62
     7
100
AcDb2dPolyline
 66
     1
 10
0.0
 20
0.0
 30
0.0
  0
VERTEX
  5
10B
330
10A
100
AcDbEntity
  8
DIBUJOS
 62
     7
100
AcDbVertex
100
AcDb2dVertex
 10
41.76003823074758
 20
48.69480304251437
 30
0.0
  0
VERTEX
  5
10C
330
10A
100
AcDbEntity
  8
DIBUJOS
 62
     7
100
AcDbVertex
100
AcDb2dVertex
 10
41.76566602717712
 20
48.70043083894456
 30
0.0
  0
SEQEND
  5
10D
330
10A
100
AcDbEntity
  8
DIBUJOS
 62
     7
  0
POLYLINE
  5
10E
330
E3
100
AcDbEntity
  8
DIBUJOS
 62
     7
100
AcDb2dPolyline
 66
     1
 10
0.0
 20
0.0
 30
0.0
  0
VERTEX
  5
10F
330
10E
100
AcDbEntity
  8
DIBUJOS
 62
     7
100
AcDbVertex
100
AcDb2dVertex
 10
41.76003823074758
 20
44.78971508194245
 30
0.0
  0
VERTEX
  5
110
330
10E
100
AcDbEntity
  8
DIBUJOS
 62
     7
100
AcDbVertex
100
AcDb2dVertex
 10
41.76003823074758
 20
48.69480304251437
 30
0.0
  0
SEQEND
  5
111
330
10E
100
AcDbEntity
  8
DIBUJOS
 62
     7
  0
POLYLINE
  5
112
330
E3
100
AcDbEntity
  8
DIBUJOS
 62
     7
100
AcDb2dPolyline
 66
     1
 10
0.0
 20
0.0
 30
0.0
  0
VERTEX
  5
113
330
112
100
AcDbEntity
  8
DIBUJOS
 62
     7
100
AcDbVertex
100
AcDb2dVertex
 10
41.76566602717712
 20
44.78409031446649
 30
0.0
  0
VERTEX
  5
114
330
112
100
AcDbEntity
  8
DIBUJOS
 62
     7
100
AcDbVertex
100
AcDb2dVertex
 10
41.76003823074758
 20
44.78971508194245
 30
0.0
  0
SEQEND
  5
115
330
112
100
AcDbEntity
  8
DIBUJOS
 62
     7
  0
POLYLINE
  5
116
330
E3
100
AcDbEntity
  8
DIBUJOS
 62
     7
100
AcDb2dPolyline
 66
     1
 10
0.0
 20
0.0
 30
0.0
  0
VERTEX
  5
117
330
116
100
AcDbEntity
  8
DIBUJOS
 62
     7
100
AcDbVertex
100
AcDb2dVertex
 10
41.76566602717712
 20
44.78409031446649
 30
0.0
  0
VERTEX
  5
118
330
116
100
AcDbEntity
  8
DIBUJOS
 62
     7
100
AcDbVertex
100
AcDb2dVertex
 10
47.34195206636805
 20
44.78409031446649
 30
0.0
  0
VERTEX
  5
119
330
116
100
AcDbEntity
  8
DIBUJOS
 62
     7
100
AcDbVertex
100
AcDb2dVertex
 10
47.34757380489107
 20
44.78971508194245
 30
0.0
  0
VERTEX
  5
11A
330
116
100
AcDbEntity
  8
DIBUJOS
 62
     7
100
AcDbVertex
100
AcDb2dVertex
 10
47.34757380489107
 20
48.68917827503809
 30
0.0
  0
VERTEX
  5
11B
330
116
100
AcDbEntity
  8
DIBUJOS
 62
     7
100
AcDbVertex
100
AcDb2dVertex
 10
47.33632426993851
 20
48.70043083894456
 30
0.0
  0
VERTEX
  5
11C
330
116
100
AcDbEntity
  8
DIBUJOS
 62
     7
100
AcDbVertex
100
AcDb2dVertex
 10
41.76566602717712
 20
48.70043083894456
 30
0.0
  0
SEQEND
  5
11D
330
116
100
AcDbEntity
  8
DIBUJOS
 62
     7
  0
POLYLINE
  5
11E
330
E3
100
AcDbEntity
  8
DIBUJOS
 62
     7
100
AcDb2dPolyline
 66
     1
 10
0.0
 20
0.0
 30
0.0
  0
VERTEX
  5
11F
330
11E
100
AcDbEntity
  8
DIBUJOS
 62
     7
100
AcDbVertex
100
AcDb2dVertex
 10
41.55746784880773
 20
48.89174562802404
 30
0.0
  0
VERTEX
  5
120
330
11E
100
AcDbEntity
  8
DIBUJOS
 62
     7
100
AcDbVertex
100
AcDb2dVertex
 10
41.55746784880773
 20
44.59277249643278
 30
0.0
  0
VERTEX
  5
121
330
11E
100
AcDbEntity
  8
DIBUJOS
 62
     7
100
AcDbVertex
100
AcDb2dVertex
 10
41.56872344166745
 20
44.58151993252664
 30
0.0
  0
VERTEX
  5
122
330
11E
100
AcDbEntity
  8
DIBUJOS
 62
     7
100
AcDbVertex
100
AcDb2dVertex
 10
47.53326685544914
 20
44.58151993252664
 30
0.0
  0
VERTEX
  5
123
330
11E
100
AcDbEntity
  8
DIBUJOS
 62
     7
100
AcDbVertex
100
AcDb2dVertex
 10
47.55014418683028
 20
44.59840029286264
 30
0.0
  0
VERTEX
  5
124
330
11E
100
AcDbEntity
  8
DIBUJOS
 62
     7
100
AcDbVertex
100
AcDb2dVertex
 10
47.55014418683028
 20
48.89174562802404
 30
0.0
  0
VERTEX
  5
125
330
11E
100
AcDbEntity
  8
DIBUJOS
 62
     7
100
AcDbVertex
100
AcDb2dVertex
 10
47.54451639040042
 20
48.89737342445422
 30
0.0
  0
SEQEND
  5
126
330
11E
100
AcDbEntity
  8
DIBUJOS
 62
     7
  0
ENDBLK
  5
E6
330
E3
100
AcDbEntity
  8
0
100
AcDbBlockEnd
  0
BLOCK
  5
129
330
127
100
AcDbEntity
  8
0
100
AcDbBlockBegin
  2
BLOCK_5
 70
     0
 10
0.0
 20
0.0
 30
0.0
  3
BLOCK_5
  1

  0
POLYLINE
  5
12B
330
127
100
AcDbEntity
  8
DIBUJOS
 62
     7
100
AcDb2dPolyline
 66
     1
 10
0.0
 20
0.0
 30
0.0
  0
VERTEX
  5
12C
330
12B
100
AcDbEntity
  8
DIBUJOS
 62
     7
100
AcDbVertex
100
AcDb2dVertex
 10
70.35365761877406
 20
31.0210931967162
 30
0.0
  0
VERTEX
  5
12D
330
12B
100
AcDbEntity
  8
DIBUJOS
 62
     7
100
AcDbVertex
100
AcDb2dVertex
 10
70.3592854152036
 20
31.02671947866927
 30
0.0
  0
VERTEX
  5
12E
330
12B
100
AcDbEntity
  8
DIBUJOS
 62
     7
100
AcDbVertex
100
AcDb2dVertex
 10
70.3592854152036
 20
37.03627920598172
 30
0.0
  0
VERTEX
  5
12F
330
12B
100
AcDbEntity
  8
DIBUJOS
 62
     7
100
AcDbVertex
100
AcDb2dVertex
 10
70.35365761877406
 20
37.0419070024119
 30
0.0
  0
VERTEX
  5
130
330
12B
100
AcDbEntity
  8
DIBUJOS
 62
     7
100
AcDbVertex
100
AcDb2dVertex
 10
58.21637564179681
 20
37.0419070024119
 30
0.0
  0
VERTEX
  5
131
330
12B
100
AcDbEntity
  8
DIBUJOS
 62
     7
100
AcDbVertex
100
AcDb2dVertex
 10
58.21074784536695
 20
37.03627920598172
 30
0.0
  0
VERTEX
  5
132
330
12B
100
AcDbEntity
  8
DIBUJOS
 62
     7
100
AcDbVertex
100
AcDb2dVertex
 10
58.21074784536695
 20
31.02671947866927
 30
0.0
  0
VERTEX
  5
133
330
12B
100
AcDbEntity
  8
DIBUJOS
 62
     7
100
AcDbVertex
100
AcDb2dVertex
 10
58.21637564179681
 20
31.0210931967162
 30
0.0
  0
VERTEX
  5
134
330
12B
100
AcDbEntity
  8
DIBUJOS
 62
     7
100
AcDbVertex
100
AcDb2dVertex
 10
70.35365761877406
 20
31.0210931967162
 30
0.0
  0
SEQEND
  5
135
330
12B
100
AcDbEntity
  8
DIBUJOS
 62
     7
  0
ENDBLK
  5
12A
330
127
100
AcDbEntity
  8
0
100
AcDbBlockEnd
  0
BLOCK
  5
138
330
136
100
AcDbEntity
  8
0
100
AcDbBlockBegin
  2
BLOCK_6
 70
     0
 10
0.0
 20
0.0
 30
0.0
  3
BLOCK_6
  1

  0
POLYLINE
  5
13A
330
136
100
AcDbEntity
  8
DIBUJOS
 62
     7
100
AcDb2dPolyline
 66
     1
 10
0.0
 20
0.0
 30
0.0
  0
VERTEX
  5
13B
330
13A
100
AcDbEntity
  8
DIBUJOS
 62
     7
100
AcDbVertex
100
AcDb2dVertex
 10
47.54451639040042
 20
31.0210931967162
 30
0.0
  0
VERTEX
  5
13C
330
13A
100
AcDbEntity
  8
DIBUJOS
 62
     7
100
AcDbVertex
100
AcDb2dVertex
 10
47.55577198326046
 20
31.03234727509945
 30
0.0
  0
VERTEX
  5
13D
330
13A
100
AcDbEntity
  8
DIBUJOS
 62
     7
100
AcDbVertex
100
AcDb2dVertex
 10
47.55577198326046
 20
37.03065292402865
 30
0.0
  0
VERTEX
  5
13E
330
13A
100
AcDbEntity
  8
DIBUJOS
 62
     7
100
AcDbVertex
100
AcDb2dVertex
 10
47.54451639040042
 20
37.0419070024119
 30
0.0
  0
VERTEX
  5
13F
330
13A
100
AcDbEntity
  8
DIBUJOS
 62
     7
100
AcDbVertex
100
AcDb2dVertex
 10
41.56309564523823
 20
37.0419070024119
 30
0.0
  0
VERTEX
  5
140
330
13A
100
AcDbEntity
  8
DIBUJOS
 62
     7
100
AcDbVertex
100
AcDb2dVertex
 10
41.55184005237755
 20
37.03065292402865
 30
0.0
  0
VERTEX
  5
141
330
13A
100
AcDbEntity
  8
DIBUJOS
 62
     7
100
AcDbVertex
100
AcDb2dVertex
 10
41.55184005237755
 20
31.02671947866927
 30
0.0
  0
VERTEX
  5
142
330
13A
100
AcDbEntity
  8
DIBUJOS
 62
     7
100
AcDbVertex
100
AcDb2dVertex
 10
41.55746784880773
 20
31.0210931967162
 30
0.0
  0
VERTEX
  5
143
330
13A
100
AcDbEntity
  8
DIBUJOS
 62
     7
100
AcDbVertex
100
AcDb2dVertex
 10
47.54451639040042
 20
31.0210931967162
 30
0.0
  0
SEQEND
  5
144
330
13A
100
AcDbEntity
  8
DIBUJOS
 62
     7
  0
ENDBLK
  5
139
330
136
100
AcDbEntity
  8
0
100
AcDbBlockEnd
  0
BLOCK
  5
147
330
145
100
AcDbEntity
  8
0
100
AcDbBlockBegin
  2
BLOCK_7
 70
     0
 10
0.0
 20
0.0
 30
0.0
  3
BLOCK_7
  1

  0
POLYLINE
  5
149
330
145
100
AcDbEntity
  8
DIBUJOS
 62
     7
100
AcDb2dPolyline
 66
     1
 10
0.0
 20
0.0
 30
0.0
  0
VERTEX
  5
14A
330
149
100
AcDbEntity
  8
DIBUJOS
 62
     7
100
AcDbVertex
100
AcDb2dVertex
 10
94.18237911113587
 20
24.88211459695344
 30
0.0
  0
VERTEX
  5
14B
330
149
100
AcDbEntity
  8
DIBUJOS
 62
     7
100
AcDbVertex
100
AcDb2dVertex
 10
94.18913064947878
 20
24.89280528990193
 30
0.0
  0
VERTEX
  5
14C
330
149
100
AcDbEntity
  8
DIBUJOS
 62
     7
100
AcDbVertex
100
AcDb2dVertex
 10
94.19363318951848
 20
24.89899495728977
 30
0.0
  0
VERTEX
  5
14D
330
149
100
AcDbEntity
  8
DIBUJOS
 62
     7
100
AcDbVertex
100
AcDb2dVertex
 10
94.19363318951848
 20
25.16908753781122
 30
0.0
  0
VERTEX
  5
14E
330
149
100
AcDbEntity
  8
DIBUJOS
 62
     7
100
AcDbVertex
100
AcDb2dVertex
 10
94.1880053930883
 20
25.17471457700317
 30
0.0
  0
VERTEX
  5
14F
330
149
100
AcDbEntity
  8
DIBUJOS
 62
     7
100
AcDbVertex
100
AcDb2dVertex
 10
94.19363318951848
 20
36.95750217177734
 30
0.0
  0
VERTEX
  5
150
330
149
100
AcDbEntity
  8
DIBUJOS
 62
     7
100
AcDbVertex
100
AcDb2dVertex
 10
94.18237911113587
 20
36.9687562501606
 30
0.0
  0
VERTEX
  5
151
330
149
100
AcDbEntity
  8
DIBUJOS
 62
     7
100
AcDbVertex
100
AcDb2dVertex
 10
82.04509486244326
 20
36.9687562501606
 30
0.0
  0
VERTEX
  5
152
330
149
100
AcDbEntity
  8
DIBUJOS
 62
     7
100
AcDbVertex
100
AcDb2dVertex
 10
82.03946782325131
 20
36.96312996820753
 30
0.0
  0
VERTEX
  5
153
330
149
100
AcDbEntity
  8
DIBUJOS
 62
     7
100
AcDbVertex
100
AcDb2dVertex
 10
82.03946782325131
 20
24.89336791809782
 30
0.0
  0
VERTEX
  5
154
330
149
100
AcDbEntity
  8
DIBUJOS
 62
     7
100
AcDbVertex
100
AcDb2dVertex
 10
82.05072190163393
 20
24.88211459695344
 30
0.0
  0
VERTEX
  5
155
330
149
100
AcDbEntity
  8
DIBUJOS
 62
     7
100
AcDbVertex
100
AcDb2dVertex
 10
94.18237911113587
 20
24.88211459695344
 30
0.0
  0
SEQEND
  5
156
330
149
100
AcDbEntity
  8
DIBUJOS
 62
     7
  0
ENDBLK
  5
148
330
145
100
AcDbEntity
  8
0
100
AcDbBlockEnd
  0
ENDSEC
  0
SECTION
  2
ENTITIES
  0
MTEXT
  5
41
330
1F
100
AcDbEntity
  8
REFERENCIAS
 62
   255
100
AcDbMText
 10
40.93094530141956
 20
54.85563098807646
 30
0.0
 40
1.49859999962535
 41
0.0
 71
     7
 72
     1
  1
\fMyriad Pro|b0|i0|c0|p34;\W1;HAKON_2019-04_2019-05_2019-06__AUXILIARY_ TABLE
  0
MTEXT
  5
43
330
1F
100
AcDbEntity
  8
M_U_00C1RGENES
 62
   255
100
AcDbMText
 10
110.1384430504005
 20
23.7555119243149
 30
0.0
 40
1.748366666229575
 41
0.0
 71
     7
 72
     1
  1
\fMyriad Pro|b0|i0|c0|p34;\W1;400
  0
MTEXT
  5
44
330
1F
100
AcDbEntity
  8
M_U_00C1RGENES
 62
   255
100
AcDbMText
 10
104.2089331048478
 20
20.50332059082737
 30
0.0
 40
1.748366666229575
 41
0.0
 71
     7
 72
     1
  1
\fMyriad Pro|b0|i0|c0|p34;\W1;800
  0
MTEXT
  5
45
330
1F
100
AcDbEntity
  8
M_U_00C1RGENES
 62
   255
100
AcDbMText
 10
70.34154512978061
 20
20.50332059082737
 30
0.0
 40
1.748366666229575
 41
0.0
 71
     7
 72
     1
  1
\fMyriad Pro|b0|i0|c0|p34;\W1;400
  0
POLYLINE
  5
46
330
1F
100
AcDbEntity
  8
M_U_00C1RGENES
 62
   255
100
AcDb2dPolyline
 66
     1
 10
0.0
 20
0.0
 30
0.0
  0
VERTEX
  5
47
330
46
100
AcDbEntity
  8
M_U_00C1RGENES
 62
   255
100
AcDbVertex
100
AcDb2dVertex
 10
74.98114844115133
 20
20.88258920325216
 30
0.0
  0
VERTEX
  5
48
330
46
100
AcDbEntity
  8
M_U_00C1RGENES
 62
   255
100
AcDbVertex
100
AcDb2dVertex
 10
74.98114844115133
 20
19.74726776251925
 30
0.0
  0
SEQEND
  5
49
330
46
100
AcDbEntity
  8
M_U_00C1RGENES
 62
   255
  0
POLYLINE
  5
4A
330
1F
100
AcDbEntity
  8
M_U_00C1RGENES
 62
   255
100
AcDb2dPolyline
 66
     1
 10
0.0
 20
0.0
 30
0.0
  0
VERTEX
  5
4B
330
4A
100
AcDbEntity
  8
M_U_00C1RGENES
 62
   255
100
AcDbVertex
100
AcDb2dVertex
 10
104.4138297671496
 20
24.76314475783758
 30
0.0
  0
VERTEX
  5
4C
330
4A
100
AcDbEntity
  8
M_U_00C1RGENES
 62
   255
100
AcDbVertex
100
AcDb2dVertex
 10
114.9971630978371
 20
19.74726776251925
 30
0.0
  0
SEQEND
  5
4D
330
4A
100
AcDbEntity
  8
M_U_00C1RGENES
 62
   255
  0
POLYLINE
  5
4E
330
1F
100
AcDbEntity
  8
M_U_00C1RGENES
 62
   254
100
AcDb2dPolyline
 66
     1
 10
0.0
 20
0.0
 30
0.0
  0
VERTEX
  5
4F
330
4E
100
AcDbEntity
  8
M_U_00C1RGENES
 62
   254
100
AcDbVertex
100
AcDb2dVertex
 10
34.99999779751944
 20
20.88258920325216
 30
0.0
  0
VERTEX
  5
50
330
4E
100
AcDbEntity
  8
M_U_00C1RGENES
 62
   254
100
AcDbVertex
100
AcDb2dVertex
 10
34.99999779751944
 20
19.74726776251925
 30
0.0
  0
SEQEND
  5
51
330
4E
100
AcDbEntity
  8
M_U_00C1RGENES
 62
   254
  0
POLYLINE
  5
52
330
1F
100
AcDbEntity
  8
M_U_00C1RGENES
 62
   255
100
AcDb2dPolyline
 66
     1
 10
0.0
 20
0.0
 30
0.0
  0
VERTEX
  5
53
330
52
100
AcDbEntity
  8
M_U_00C1RGENES
 62
   255
100
AcDbVertex
100
AcDb2dVertex
 10
114.9999978516528
 20
59.74999886675599
 30
0.0
  0
VERTEX
  5
54
330
52
100
AcDbEntity
  8
M_U_00C1RGENES
 62
   255
100
AcDbVertex
100
AcDb2dVertex
 10
113.8646764109199
 20
59.7499988667053
 30
0.0
  0
SEQEND
  5
55
330
52
100
AcDbEntity
  8
M_U_00C1RGENES
 62
   255
  0
INSERT
  5
58
330
1F
100
AcDbEntity
  8
DIBUJOS
100
AcDbBlockReference
  2
BLOCK_2
 10
0.0
 20
0.0
 30
0.0
  0
INSERT
  5
9C
330
1F
100
AcDbEntity
  8
DIBUJOS
100
AcDbBlockReference
  2
BLOCK_3
 10
0.0
 20
0.0
 30
0.0
  0
INSERT
  5
E4
330
1F
100
AcDbEntity
  8
DIBUJOS
100
AcDbBlockReference
  2
BLOCK_4
 10
0.0
 20
0.0
 30
0.0
  0
INSERT
  5
128
330
1F
100
AcDbEntity
  8
DIBUJOS
100
AcDbBlockReference
  2
BLOCK_5
 10
0.0
 20
0.0
 30
0.0
  0
INSERT
  5
137
330
1F
100
AcDbEntity
  8
DIBUJOS
100
AcDbBlockReference
  2
BLOCK_6
 10
0.0
 20
0.0
 30
0.0
  0
INSERT
  5
146
330
1F
100
AcDbEntity
  8
DIBUJOS
100
AcDbBlockReference
  2
BLOCK_7
 10
0.0
 20
0.0
 30
0.0
  0
POLYLINE
  5
158
330
1F
100
AcDbEntity
  8
COTAS_LINEA
 62
     7
100
AcDb2dPolyline
 66
     1
 10
0.0
 20
0.0
 30
0.0
  0
VERTEX
  5
159
330
158
100
AcDbEntity
  8
COTAS_LINEA
 62
     7
100
AcDbVertex
100
AcDb2dVertex
 10
72.96559123542836
 20
48.9904179005654
 30
0.0
  0
VERTEX
  5
15A
330
158
100
AcDbEntity
  8
COTAS_LINEA
 62
     7
100
AcDbVertex
100
AcDb2dVertex
 10
72.96559123673487
 20
44.80087986844146
 30
0.0
  0
SEQEND
  5
15B
330
158
100
AcDbEntity
  8
COTAS_LINEA
 62
     7
  0
POLYLINE
  5
15C
330
1F
100
AcDbEntity
  8
COTAS_LINEA
 62
     7
100
AcDb2dPolyline
 66
     1
 10
0.0
 20
0.0
 30
0.0
  0
VERTEX
  5
15D
330
15C
100
AcDbEntity
  8
COTAS_LINEA
 62
     7
100
AcDbVertex
100
AcDb2dVertex
 10
59.13012634659179
 20
41.13064020013886
 30
0.0
  0
VERTEX
  5
15E
330
15C
100
AcDbEntity
  8
COTAS_LINEA
 62
     7
100
AcDbVertex
100
AcDb2dVertex
 10
69.84265403618105
 20
41.13064020013886
 30
0.0
  0
SEQEND
  5
15F
330
15C
100
AcDbEntity
  8
COTAS_LINEA
 62
     7
  0
POLYLINE
  5
160
330
1F
100
AcDbEntity
  8
COTAS_LINEA
 62
     7
100
AcDb2dPolyline
 66
     1
 10
0.0
 20
0.0
 30
0.0
  0
VERTEX
  5
161
330
160
100
AcDbEntity
  8
COTAS_LINEA
 62
     7
100
AcDbVertex
100
AcDb2dVertex
 10
50.03503568560545
 20
48.9904179005654
 30
0.0
  0
VERTEX
  5
162
330
160
100
AcDbEntity
  8
COTAS_LINEA
 62
     7
100
AcDbVertex
100
AcDb2dVertex
 10
50.03503568691195
 20
44.80087986844146
 30
0.0
  0
SEQEND
  5
163
330
160
100
AcDbEntity
  8
COTAS_LINEA
 62
     7
  0
POLYLINE
  5
164
330
1F
100
AcDbEntity
  8
COTAS_LINEA
 62
     7
100
AcDb2dPolyline
 66
     1
 10
0.0
 20
0.0
 30
0.0
  0
VERTEX
  5
165
330
164
100
AcDbEntity
  8
COTAS_LINEA
 62
     7
100
AcDbVertex
100
AcDb2dVertex
 10
72.96559524500267
 20
36.93858935763389
 30
0.0
  0
VERTEX
  5
166
330
164
100
AcDbEntity
  8
COTAS_LINEA
 62
     7
100
AcDbVertex
100
AcDb2dVertex
 10
72.96559524630918
 20
31.10135373467348
 30
0.0
  0
SEQEND
  5
167
330
164
100
AcDbEntity
  8
COTAS_LINEA
 62
     7
  0
POLYLINE
  5
168
330
1F
100
AcDbEntity
  8
COTAS_LINEA
 62
     7
100
AcDb2dPolyline
 66
     1
 10
0.0
 20
0.0
 30
0.0
  0
VERTEX
  5
169
330
168
100
AcDbEntity
  8
COTAS_LINEA
 62
     7
100
AcDbVertex
100
AcDb2dVertex
 10
96.60170234063045
 20
48.9904179005654
 30
0.0
  0
VERTEX
  5
16A
330
168
100
AcDbEntity
  8
COTAS_LINEA
 62
     7
100
AcDbVertex
100
AcDb2dVertex
 10
96.60170234193694
 20
44.80087986844146
 30
0.0
  0
SEQEND
  5
16B
330
168
100
AcDbEntity
  8
COTAS_LINEA
 62
     7
  0
POLYLINE
  5
16C
330
1F
100
AcDbEntity
  8
COTAS_LINEA
 62
     7
100
AcDb2dPolyline
 66
     1
 10
0.0
 20
0.0
 30
0.0
  0
VERTEX
  5
16D
330
16C
100
AcDbEntity
  8
COTAS_LINEA
 62
     7
100
AcDbVertex
100
AcDb2dVertex
 10
82.76623745179387
 20
41.13064020013886
 30
0.0
  0
VERTEX
  5
16E
330
16C
100
AcDbEntity
  8
COTAS_LINEA
 62
     7
100
AcDbVertex
100
AcDb2dVertex
 10
93.47876514138312
 20
41.13064020013886
 30
0.0
  0
SEQEND
  5
16F
330
16C
100
AcDbEntity
  8
COTAS_LINEA
 62
     7
  0
POLYLINE
  5
170
330
1F
100
AcDbEntity
  8
COTAS_LINEA
 62
     7
100
AcDb2dPolyline
 66
     1
 10
0.0
 20
0.0
 30
0.0
  0
VERTEX
  5
171
330
170
100
AcDbEntity
  8
COTAS_LINEA
 62
     7
100
AcDbVertex
100
AcDb2dVertex
 10
96.60171591050849
 20
36.63011022784875
 30
0.0
  0
VERTEX
  5
172
330
170
100
AcDbEntity
  8
COTAS_LINEA
 62
     7
100
AcDbVertex
100
AcDb2dVertex
 10
96.60171591181499
 20
25.05986815487369
 30
0.0
  0
SEQEND
  5
173
330
170
100
AcDbEntity
  8
COTAS_LINEA
 62
     7
  0
POLYLINE
  5
174
330
1F
100
AcDbEntity
  8
COTAS_LINEA
 62
     7
100
AcDb2dPolyline
 66
     1
 10
0.0
 20
0.0
 30
0.0
  0
VERTEX
  5
175
330
174
100
AcDbEntity
  8
COTAS_LINEA
 62
     7
100
AcDbVertex
100
AcDb2dVertex
 10
50.03503969517975
 20
36.93858935763389
 30
0.0
  0
VERTEX
  5
176
330
174
100
AcDbEntity
  8
COTAS_LINEA
 62
     7
100
AcDbVertex
100
AcDb2dVertex
 10
50.03503969648626
 20
31.10135373467348
 30
0.0
  0
SEQEND
  5
177
330
174
100
AcDbEntity
  8
COTAS_LINEA
 62
     7
  0
POLYLINE
  5
178
330
1F
100
AcDbEntity
  8
COTAS_LINEA
 62
     7
100
AcDb2dPolyline
 66
     1
 10
0.0
 20
0.0
 30
0.0
  0
VERTEX
  5
179
330
178
100
AcDbEntity
  8
COTAS_LINEA
 62
     7
100
AcDbVertex
100
AcDb2dVertex
 10
41.0039763139257
 20
41.13064020013886
 30
0.0
  0
VERTEX
  5
17A
330
178
100
AcDbEntity
  8
COTAS_LINEA
 62
     7
100
AcDbVertex
100
AcDb2dVertex
 10
47.75213741223399
 20
41.13064020013886
 30
0.0
  0
SEQEND
  5
17B
330
178
100
AcDbEntity
  8
COTAS_LINEA
 62
     7
  0
MTEXT
  5
17D
330
1F
100
AcDbEntity
  8
COTAS_N_U_00DAMERO
 62
     7
100
AcDbMText
 10
73.72414712122419
 20
46.17853358491804
 30
0.0
 40
1.998533025814148
 41
0.0
 71
     7
 72
     1
  1
\fMyriad Pro|b0|i0|c0|p34;\W1;45
  0
MTEXT
  5
17E
330
1F
100
AcDbEntity
  8
COTAS_N_U_00DAMERO
 62
     7
100
AcDbMText
 10
62.5101890619617
 20
41.68561230782947
 30
0.0
 40
1.998533025814148
 41
0.0
 71
     7
 72
     1
  1
\fMyriad Pro|b0|i0|c0|p34;\W1;120
  0
MTEXT
  5
17F
330
1F
100
AcDbEntity
  8
COTAS_N_U_00DAMERO
 62
     7
100
AcDbMText
 10
50.79359291714169
 20
46.17853358491804
 30
0.0
 40
1.998533025814148
 41
0.0
 71
     7
 72
     1
  1
\fMyriad Pro|b0|i0|c0|p34;\W1;45
  0
MTEXT
  5
180
330
1F
100
AcDbEntity
  8
COTAS_N_U_00DAMERO
 62
     7
100
AcDbMText
 10
73.72414712122419
 20
33.12575581040346
 30
0.0
 40
1.998533025814148
 41
0.0
 71
     7
 72
     1
  1
\fMyriad Pro|b0|i0|c0|p34;\W1;60
  0
MTEXT
  5
181
330
1F
100
AcDbEntity
  8
COTAS_N_U_00DAMERO
 62
     7
100
AcDbMText
 10
97.36026091790711
 20
46.17853358491804
 30
0.0
 40
1.998533025814148
 41
0.0
 71
     7
 72
     1
  1
\fMyriad Pro|b0|i0|c0|p34;\W1;41
  0
MTEXT
  5
182
330
1F
100
AcDbEntity
  8
COTAS_N_U_00DAMERO
 62
     7
100
AcDbMText
 10
86.14630285864463
 20
41.68561230782947
 30
0.0
 40
1.998533025814148
 41
0.0
 71
     7
 72
     1
  1
\fMyriad Pro|b0|i0|c0|p34;\W1;120
  0
MTEXT
  5
183
330
1F
100
AcDbEntity
  8
COTAS_N_U_00DAMERO
 62
     7
100
AcDbMText
 10
97.36026091790711
 20
29.95075581119721
 30
0.0
 40
1.998533025814148
 41
0.0
 71
     7
 72
     1
  1
\fMyriad Pro|b0|i0|c0|p34;\W1;120
  0
MTEXT
  5
184
330
1F
100
AcDbEntity
  8
COTAS_N_U_00DAMERO
 62
     7
100
AcDbMText
 10
50.79359291714169
 20
33.12575581040346
 30
0.0
 40
1.998533025814148
 41
0.0
 71
     7
 72
     1
  1
\fMyriad Pro|b0|i0|c0|p34;\W1;60
  0
MTEXT
  5
185
330
1F
100
AcDbEntity
  8
COTAS_N_U_00DAMERO
 62
     7
100
AcDbMText
 10
43.15409367860018
 20
41.68578456260373
 30
0.0
 40
1.998533025814148
 41
0.0
 71
     7
 72
     1
  1
\fMyriad Pro|b0|i0|c0|p34;\W1;60
  0
ENDSEC
  0
SECTION
  2
OBJECTS
  0
DICTIONARY
  5
C
330
0
100
AcDbDictionary
  3
ACAD_GROUP
350
D
  3
ACAD_LAYOUT
350
1A
  3
ACAD_MATERIAL
350
3B
  3
ACAD_MLEADERSTYLE
350
1A8
  3
ACAD_MLINESTYLE
350
17
  3
ACAD_PLOTSETTINGS
350
19
  3
ACAD_VISUALSTYLE
350
2A
  3
ACDBHEADERROUNDTRIPXREC
350
186
  3
ACDBVARIABLEDICTIONARY
350
1A6
  0
DICTIONARY
  5
D
102
{ACAD_REACTORS
330
C
102
}
330
C
100
AcDbDictionary
  0
DICTIONARY
  5
1A
102
{ACAD_REACTORS
330
C
102
}
330
C
100
AcDbDictionary
  0
DICTIONARY
  5
3B
102
{ACAD_REACTORS
330
C
102
}
330
C
100
AcDbDictionary
  3
BYBLOCK
350
3D
  3
BYLAYER
350
3C
  3
GLOBAL
350
3E
  0
DICTIONARY
  5
1A8
102
{ACAD_REACTORS
330
C
102
}
330
C
100
AcDbDictionary
  0
DICTIONARY
  5
17
102
{ACAD_REACTORS
330
C
102
}
330
C
100
AcDbDictionary
  3
STANDARD
350
18
  0
DICTIONARY
  5
19
102
{ACAD_REACTORS
330
C
102
}
330
C
100
AcDbDictionary
  0
DICTIONARY
  5
2A
102
{ACAD_REACTORS
330
C
102
}
330
C
100
AcDbDictionary
  3
2DWIREFRAME
350
2F
  3
3D_HIDDEN
350
31
  3
3DWIREFRAME
350
30
  3
BASIC
350
32
  3
BRIGHTEN
350
36
  3
COLORCHANGE
350
3A
  3
CONCEPTUAL
350
34
  3
DIM
350
35
  3
FACEPATTERN
350
39
  3
FLAT
350
2B
  3
FLATWITHEDGES
350
2C
  3
GOURAUD
350
2D
  3
GOURAUDWITHEDGES
350
2E
  3
LINEPATTERN
350
38
  3
REALISTIC
350
33
  3
THICKEN
350
37
  0
DICTIONARY
  5
186
102
{ACAD_REACTORS
330
C
102
}
330
C
100
AcDbDictionary
  3
CEPSNTYPE
350
18F
  3
DIMSTYLEDATA
350
1A5
  3
FINGERPRINTGUID
350
190
  3
HYPERLINKBASE
350
189
  3
INSUNITS
350
18E
  3
LAYOUTDICT
350
18B
  3
LWETCUNION
350
18D
  3
PLOTSETDICT
350
18C
  3
PSVPSCALE
350
192
  3
PUCSBASE
350
195
  3
PUCSORGBACK
350
19B
  3
PUCSORGBOTTOM
350
197
  3
PUCSORGFRONT
350
19A
  3
PUCSORGLEFT
350
198
  3
PUCSORGRIGHT
350
199
  3
PUCSORGTOP
350
196
  3
PUCSORTHOREF
350
193
  3
PUCSORTHOVIEW
350
194
  3
STYLESHEET
350
18A
  3
TSTACKALIGN
350
187
  3
TSTACKSIZE
350
188
  3
UCSBASE
350
19E
  3
UCSORGBACK
350
1A4
  3
UCSORGBOTTOM
350
1A0
  3
UCSORGFRONT
350
1A3
  3
UCSORGLEFT
350
1A1
  3
UCSORGRIGHT
350
1A2
  3
UCSORGTOP
350
19F
  3
UCSORTHOREF
350
19C
  3
UCSORTHOVIEW
350
19D
  3
VERSIONGUID
350
191
  0
DICTIONARY
  5
1A6
102
{ACAD_REACTORS
330
C
102
}
330
C
100
AcDbDictionary
  3
DIMASSOC
350
1A9
  3
HIDETEXT
350
1AA
  0
MATERIAL
  5
3D
102
{ACAD_REACTORS
330
3B
102
}
102
{ACAD_XDICTIONARY
360
1AD
102
}
330
3B
100
AcDbMaterial
  1
ByBlock
  0
MATERIAL
  5
3C
102
{ACAD_REACTORS
330
3B
102
}
102
{ACAD_XDICTIONARY
360
1AB
102
}
330
3B
100
AcDbMaterial
  1
ByLayer
  0
MATERIAL
  5
3E
102
{ACAD_REACTORS
330
3B
102
}
102
{ACAD_XDICTIONARY
360
1AF
102
}
330
3B
100
AcDbMaterial
  1
Global
  0
MLINESTYLE
  5
18
102
{ACAD_REACTORS
330
17
102
}
330
17
100
AcDbMlineStyle
  2
Standard
 70
     0
  3

 62
   256
 51
90.0
 52
90.0
 71
     2
 49
0.5
 62
   256
  6
BYLAYER
 49
-0.5
 62
   256
  6
BYLAYER
  0
ACAD_PROXY_OBJECT
  5
2F
102
{ACAD_REACTORS
330
2A
102
}
330
2A
100
AcDbProxyObject
 90
      499
 91
      501
 93
      436
310
42CC9915DA5C99599C985B595049028333333333333E3BF0000000000000FB0107901411070040501600405405064090741402480A0340
1001
ACAD
1000
AcDbSavedByObjectVersion
1070
     0
  0
ACAD_PROXY_OBJECT
  5
31
102
{ACAD_REACTORS
330
2A
102
}
330
2A
100
AcDbProxyObject
 90
      499
 91
      501
 93
      500
310
424CD108121A5919195B90640502408333333333333E3BF0000000000000FB01079024090700405020000000000001110200405405064090740C02480A0340
1001
ACAD
1000
AcDbSavedByObjectVersion
1070
     0
  0
ACAD_PROXY_OBJECT
  5
30
102
{ACAD_REACTORS
330
2A
102
}
330
2A
100
AcDbProxyObject
 90
      499
 91
      501
 93
      436
310
42CCD915DA5C99599C985B595059028333333333333E3BF0000000000000FB0107901411070040501600405405064090741402480A0340
1001
ACAD
1000
AcDbSavedByObjectVersion
1070
     0
  0
ACAD_PROXY_OBJECT
  5
32
102
{ACAD_REACTORS
330
2A
102
}
330
2A
100
AcDbProxyObject
 90
      499
 91
      501
 93
      388
310
4150985CDA58D07406404333333333333E3BF0000000000000FB0107A41107004050150841D405064090741402480A0350
1001
ACAD
1000
AcDbSavedByObjectVersion
1070
     0
  0
ACAD_PROXY_OBJECT
  5
36
102
{ACAD_REACTORS
330
2A
102
}
330
2A
100
AcDbProxyObject
 90
      499
 91
      501
 93
      428
310
42109C9A59DA1D195B90C409028333333333333E3BF0000000000000FB010790141107004050150841D405064090741402480A029950
1001
ACAD
1000
AcDbSavedByObjectVersion
1070
     0
  0
ACAD_PROXY_OBJECT
  5
3A
102
{ACAD_REACTORS
330
2A
102
}
330
2A
100
AcDbProxyObject
 90
      499
 91
      501
 93
      452
310
42D0DBDB1BDC90DA185B99D95104090240C333333333333E3BF0000000000000FB0108901411070040501508421405064090741402480A0350
1001
ACAD
1000
AcDbSavedByObjectVersion
1070
     0
  0
ACAD_PROXY_OBJECT
  5
34
102
{ACAD_REACTORS
330
2A
102
}
330
2A
100
AcDbProxyObject
 90
      499
 91
      501
 93
      500
310
4290DBDB98D95C1D1D585B10940D028333333333333E3BF0000000000000FB0107902409070040501000000000000111010841D405064090740C02480A0340
1001
ACAD
1000
AcDbSavedByObjectVersion
1070
     0
  0
ACAD_PROXY_OBJECT
  5
35
102
{ACAD_REACTORS
330
2A
102
}
330
2A
100
AcDbProxyObject
 90
      499
 91
      501
 93
      412
310
40D11A5B50B409028333333333333E3BF0000000000000FB010790141107004050150841D405064090741402480A02677FFFFFD0
1001
ACAD
1000
AcDbSavedByObjectVersion
1070
     0
  0
ACAD_PROXY_OBJECT
  5
39
102
{ACAD_REACTORS
330
2A
102
}
330
2A
100
AcDbProxyObject
 90
      499
 91
      501
 93
      444
310
42D19858D95C185D1D195C9B90F409028333333333333E3BF0000000000000FB010790141107004050150841D405064090741402480A0350
1001
ACAD
1000
AcDbSavedByObjectVersion
1070
     0
  0
ACAD_PROXY_OBJECT
  5
2B
102
{ACAD_REACTORS
330
2A
102
}
330
2A
100
AcDbProxyObject
 90
      499
 91
      501
 93
      388
310
41119B185D240901404333333333333E3BF0000000000000F9010740A41107004050150841D405064090741402480A1B50
1001
ACAD
1000
AcDbSavedByObjectVersion
1070
     0
  0
ACAD_PROXY_OBJECT
  5
2C
102
{ACAD_REACTORS
330
2A
102
}
330
2A
100
AcDbProxyObject
 90
      499
 91
      501
 93
      476
310
43519B185D15DA5D1A115919D95CD0140901404333333333333E3BF0000000000000F9010740901411070040501600405405064090741402480A1B50
1001
ACAD
1000
AcDbSavedByObjectVersion
1070
     0
  0
ACAD_PROXY_OBJECT
  5
2D
102
{ACAD_REACTORS
330
2A
102
}
330
2A
100
AcDbProxyObject
 90
      499
 91
      501
 93
      412
310
41D1DBDD5C985D5910240902404333333333333E3BF0000000000000F9010740A411070040501641D405064090741402480A1B50
1001
ACAD
1000
AcDbSavedByObjectVersion
1070
     0
  0
ACAD_PROXY_OBJECT
  5
2E
102
{ACAD_REACTORS
330
2A
102
}
330
2A
100
AcDbProxyObject
 90
      499
 91
      501
 93
      500
310
4411DBDD5C985D5915DA5D1A115919D95CD0340902404333333333333E3BF0000000000000F9010740901411070040501600405405064090741402480A1B50
1001
ACAD
1000
AcDbSavedByObjectVersion
1070
     0
  0
ACAD_PROXY_OBJECT
  5
38
102
{ACAD_REACTORS
330
2A
102
}
330
2A
100
AcDbProxyObject
 90
      499
 91
      501
 93
      444
310
42D31A5B995C185D1D195C9B90E409028333333333333E3BF0000000000000FB010790141107004050750841D405064090741402483A0350
1001
ACAD
1000
AcDbSavedByObjectVersion
1070
     0
  0
ACAD_PROXY_OBJECT
  5
33
102
{ACAD_REACTORS
330
2A
102
}
330
2A
100
AcDbProxyObject
 90
      499
 91
      501
 93
      420
310
425499585B1A5CDD1A58D08409028333333333333E3BF0000000000000FB01079019070040501508421405064090741402480A1B40
1001
ACAD
1000
AcDbSavedByObjectVersion
1070
     0
  0
ACAD_PROXY_OBJECT
  5
37
102
{ACAD_REACTORS
330
2A
102
}
330
2A
100
AcDbProxyObject
 90
      499
 91
      501
 93
      412
310
41D51A1A58DAD95B90D409028333333333333E3BF0000000000000FB010790141107004050150C41D405064090741402480A0350
1001
ACAD
1000
AcDbSavedByObjectVersion
1070
     0
  0
XRECORD
  5
18F
102
{ACAD_REACTORS
330
186
102
}
330
186
100
AcDbXrecord
 90
        0
  0
XRECORD
  5
1A5
102
{ACAD_REACTORS
330
186
102
}
330
186
100
AcDbXrecord
1000
DSTYLE
1002
{
1070
   340
340
11
1002
}
  0
XRECORD
  5
190
102
{ACAD_REACTORS
330
186
102
}
330
186
100
AcDbXrecord
  1
{41E36B65-A0EB-417B-A1D6-F8FB6AD17D29}
  0
XRECORD
  5
189
102
{ACAD_REACTORS
330
186
102
}
330
186
100
AcDbXrecord
  1

  0
XRECORD
  5
18E
102
{ACAD_REACTORS
330
186
102
}
330
186
100
AcDbXrecord
 90
        1
  0
XRECORD
  5
18B
102
{ACAD_REACTORS
330
186
102
}
330
186
100
AcDbXrecord
340
1A
  0
XRECORD
  5
18D
102
{ACAD_REACTORS
330
186
102
}
330
186
100
AcDbXrecord
 90
    10269
  0
XRECORD
  5
18C
102
{ACAD_REACTORS
330
186
102
}
330
186
100
AcDbXrecord
340
19
  0
XRECORD
  5
192
102
{ACAD_REACTORS
330
186
102
}
330
186
100
AcDbXrecord
 40
0.0
  0
XRECORD
  5
195
102
{ACAD_REACTORS
330
186
102
}
330
186
100
AcDbXrecord
340
0
  0
XRECORD
  5
19B
102
{ACAD_REACTORS
330
186
102
}
330
186
100
AcDbXrecord
 10
0.0
 20
0.0
 30
0.0
  0
XRECORD
  5
197
102
{ACAD_REACTORS
330
186
102
}
330
186
100
AcDbXrecord
 10
0.0
 20
0.0
 30
0.0
  0
XRECORD
  5
19A
102
{ACAD_REACTORS
330
186
102
}
330
186
100
AcDbXrecord
 10
0.0
 20
0.0
 30
0.0
  0
XRECORD
  5
198
102
{ACAD_REACTORS
330
186
102
}
330
186
100
AcDbXrecord
 10
0.0
 20
0.0
 30
0.0
  0
XRECORD
  5
199
102
{ACAD_REACTORS
330
186
102
}
330
186
100
AcDbXrecord
 10
0.0
 20
0.0
 30
0.0
  0
XRECORD
  5
196
102
{ACAD_REACTORS
330
186
102
}
330
186
100
AcDbXrecord
 10
0.0
 20
0.0
 30
0.0
  0
XRECORD
  5
193
102
{ACAD_REACTORS
330
186
102
}
330
186
100
AcDbXrecord
340
0
  0
XRECORD
  5
194
102
{ACAD_REACTORS
330
186
102
}
330
186
100
AcDbXrecord
 70
     0
  0
XRECORD
  5
18A
102
{ACAD_REACTORS
330
186
102
}
330
186
100
AcDbXrecord
  1

  0
XRECORD
  5
187
102
{ACAD_REACTORS
330
186
102
}
330
186
100
AcDbXrecord
 90
        1
  0
XRECORD
  5
188
102
{ACAD_REACTORS
330
186
102
}
330
186
100
AcDbXrecord
 90
       70
  0
XRECORD
  5
19E
102
{ACAD_REACTORS
330
186
102
}
330
186
100
AcDbXrecord
340
0
  0
XRECORD
  5
1A4
102
{ACAD_REACTORS
330
186
102
}
330
186
100
AcDbXrecord
 10
0.0
 20
0.0
 30
0.0
  0
XRECORD
  5
1A0
102
{ACAD_REACTORS
330
186
102
}
330
186
100
AcDbXrecord
 10
0.0
 20
0.0
 30
0.0
  0
XRECORD
  5
1A3
102
{ACAD_REACTORS
330
186
102
}
330
186
100
AcDbXrecord
 10
0.0
 20
0.0
 30
0.0
  0
XRECORD
  5
1A1
102
{ACAD_REACTORS
330
186
102
}
330
186
100
AcDbXrecord
 10
0.0
 20
0.0
 30
0.0
  0
XRECORD
  5
1A2
102
{ACAD_REACTORS
330
186
102
}
330
186
100
AcDbXrecord
 10
0.0
 20
0.0
 30
0.0
  0
XRECORD
  5
19F
102
{ACAD_REACTORS
330
186
102
}
330
186
100
AcDbXrecord
 10
0.0
 20
0.0
 30
0.0
  0
XRECORD
  5
19C
102
{ACAD_REACTORS
330
186
102
}
330
186
100
AcDbXrecord
340
0
  0
XRECORD
  5
19D
102
{ACAD_REACTORS
330
186
102
}
330
186
100
AcDbXrecord
 70
     0
  0
XRECORD
  5
191
102
{ACAD_REACTORS
330
186
102
}
330
186
100
AcDbXrecord
  1
{FAEB1C32-E019-11D5-929B-00C0DF256EC4}
  0
DICTIONARYVAR
  5
1A9
102
{ACAD_REACTORS
330
1A6
102
}
330
1A6
100
DictionaryVariables
280
     0
  1
2
  0
DICTIONARYVAR
  5
1AA
102
{ACAD_REACTORS
330
1A6
102
}
330
1A6
100
DictionaryVariables
280
     0
  1
1
  0
DICTIONARY
  5
1AD
330
3D
100
AcDbDictionary
280
     1
  3
ACAD_XREC_ROUNDTRIP
360
1AE
  0
DICTIONARY
  5
1AB
330
3C
100
AcDbDictionary
280
     1
  3
ACAD_XREC_ROUNDTRIP
360
1AC
  0
DICTIONARY
  5
1AF
330
3E
100
AcDbDictionary
280
     1
  3
ACAD_XREC_ROUNDTRIP
360
1B0
  0
XRECORD
  5
1AE
102
{ACAD_REACTORS
330
1AD
102
}
330
1AD
100
AcDbXrecord
102
MATERIAL
148
0.0
149
0.0
149
0.0
 93
        0
 94
      127
282
     0
 72
     1
 77
     1
171
     1
175
     1
179
     1
273
     0
  0
XRECORD
  5
1AC
102
{ACAD_REACTORS
330
1AB
102
}
330
1AB
100
AcDbXrecord
102
MATERIAL
148
0.0
149
0.0
149
0.0
 93
        0
 94
      127
282
     0
 72
     1
 77
     1
171
     1
175
     1
179
     1
273
     0
  0
XRECORD
  5
1B0
102
{ACAD_REACTORS
330
1AF
102
}
330
1AF
100
AcDbXrecord
102
MATERIAL
148
0.0
149
0.0
149
0.0
 93
        0
 94
      127
282
     0
 72
     1
 77
     1
171
     1
175
     1
179
     1
273
     0
  0
ENDSEC
  0
EOF
