  0
SECTION
  2
HEADER
  9
$ACADVER
  1
AC1014
  9
$ACADMAINTVER
 70
     9
  9
$DWGCODEPAGE
  3
ANSI_1252
  9
$INSBASE
 10
0.0
 20
0.0
 30
0.0
  9
$EXTMIN
 10
1.000000000000000E+20
 20
1.000000000000000E+20
 30
1.000000000000000E+20
  9
$EXTMAX
 10
-1.000000000000000E+20
 20
-1.000000000000000E+20
 30
-1.000000000000000E+20
  9
$LIMMIN
 10
0.0
 20
0.0
  9
$LIMMAX
 10
12.0
 20
9.0
  9
$ORTHOMODE
 70
     0
  9
$REGENMODE
 70
     1
  9
$FILLMODE
 70
     1
  9
$QTEXTMODE
 70
     0
  9
$MIRRTEXT
 70
     1
  9
$DRAGMODE
 70
     2
  9
$LTSCALE
 40
1.0
  9
$OSMODE
 70
    37
  9
$ATTMODE
 70
     1
  9
$TEXTSIZE
 40
0.2
  9
$TRACEWID
 40
0.05
  9
$TEXTSTYLE
  7
STANDARD
  9
$CLAYER
  8
0
  9
$CELTYPE
  6
BYLAYER
  9
$CECOLOR
 62
   256
  9
$CELTSCALE
 40
1.0
  9
$DELOBJ
 70
     1
  9
$DISPSILH
 70
     0
  9
$DIMSCALE
 40
1.0
  9
$DIMASZ
 40
0.18
  9
$DIMEXO
 40
0.0625
  9
$DIMDLI
 40
0.38
  9
$DIMRND
 40
0.0
  9
$DIMDLE
 40
0.0
  9
$DIMEXE
 40
0.18
  9
$DIMTP
 40
0.0
  9
$DIMTM
 40
0.0
  9
$DIMTXT
 40
0.18
  9
$DIMCEN
 40
0.09
  9
$DIMTSZ
 40
0.0
  9
$DIMTOL
 70
     0
  9
$DIMLIM
 70
     0
  9
$DIMTIH
 70
     1
  9
$DIMTOH
 70
     1
  9
$DIMSE1
 70
     0
  9
$DIMSE2
 70
     0
  9
$DIMTAD
 70
     0
  9
$DIMZIN
 70
     0
  9
$DIMBLK
  1

  9
$DIMASO
 70
     1
  9
$DIMSHO
 70
     1
  9
$DIMPOST
  1

  9
$DIMAPOST
  1

  9
$DIMALT
 70
     0
  9
$DIMALTD
 70
     2
  9
$DIMALTF
 40
25.4
  9
$DIMLFAC
 40
1.0
  9
$DIMTOFL
 70
     0
  9
$DIMTVP
 40
0.0
  9
$DIMTIX
 70
     0
  9
$DIMSOXD
 70
     0
  9
$DIMSAH
 70
     0
  9
$DIMBLK1
  1

  9
$DIMBLK2
  1

  9
$DIMSTYLE
  2
STANDARD
  9
$DIMCLRD
 70
     0
  9
$DIMCLRE
 70
     0
  9
$DIMCLRT
 70
     0
  9
$DIMTFAC
 40
1.0
  9
$DIMGAP
 40
0.09
  9
$DIMJUST
 70
     0
  9
$DIMSD1
 70
     0
  9
$DIMSD2
 70
     0
  9
$DIMTOLJ
 70
     1
  9
$DIMTZIN
 70
     0
  9
$DIMALTZ
 70
     0
  9
$DIMALTTZ
 70
     0
  9
$DIMFIT
 70
     3
  9
$DIMUPT
 70
     0
  9
$DIMUNIT
 70
     2
  9
$DIMDEC
 70
     4
  9
$DIMTDEC
 70
     4
  9
$DIMALTU
 70
     2
  9
$DIMALTTD
 70
     2
  9
$DIMTXSTY
  7
STANDARD
  9
$DIMAUNIT
 70
     0
  9
$LUNITS
 70
     2
  9
$LUPREC
 70
     4
  9
$SKETCHINC
 40
0.1
  9
$FILLETRAD
 40
0.5
  9
$AUNITS
 70
     0
  9
$AUPREC
 70
     0
  9
$MENU
  1
.
  9
$ELEVATION
 40
0.0
  9
$PELEVATION
 40
0.0
  9
$THICKNESS
 40
0.0
  9
$LIMCHECK
 70
     0
  9
$CHAMFERA
 40
0.5
  9
$CHAMFERB
 40
0.5
  9
$CHAMFERC
 40
1.0
  9
$CHAMFERD
 40
0.0
  9
$SKPOLY
 70
     0
  9
$TDCREATE
 40
2459839.42959787
  9
$TDUPDATE
 40
2459839.429598056
  9
$TDINDWG
 40
0.0000000116
  9
$TDUSRTIMER
 40
0.0000000116
  9
$USRTIMER
 70
     1
  9
$ANGBASE
 50
0.0
  9
$ANGDIR
 70
     0
  9
$PDMODE
 70
     0
  9
$PDSIZE
 40
0.0
  9
$PLINEWID
 40
0.0
  9
$COORDS
 70
     1
  9
$SPLFRAME
 70
     0
  9
$SPLINETYPE
 70
     6
  9
$SPLINESEGS
 70
     8
  9
$ATTDIA
 70
     0
  9
$ATTREQ
 70
     1
  9
$HANDLING
 70
     1
  9
$HANDSEED
  5
875
  9
$SURFTAB1
 70
     6
  9
$SURFTAB2
 70
     6
  9
$SURFTYPE
 70
     6
  9
$SURFU
 70
     6
  9
$SURFV
 70
     6
  9
$UCSNAME
  2

  9
$UCSORG
 10
0.0
 20
0.0
 30
0.0
  9
$UCSXDIR
 10
1.0
 20
0.0
 30
0.0
  9
$UCSYDIR
 10
0.0
 20
1.0
 30
0.0
  9
$PUCSNAME
  2

  9
$PUCSORG
 10
0.0
 20
0.0
 30
0.0
  9
$PUCSXDIR
 10
1.0
 20
0.0
 30
0.0
  9
$PUCSYDIR
 10
0.0
 20
1.0
 30
0.0
  9
$USERI1
 70
     0
  9
$USERI2
 70
     0
  9
$USERI3
 70
     0
  9
$USERI4
 70
     0
  9
$USERI5
 70
     0
  9
$USERR1
 40
0.0
  9
$USERR2
 40
0.0
  9
$USERR3
 40
0.0
  9
$USERR4
 40
0.0
  9
$USERR5
 40
0.0
  9
$WORLDVIEW
 70
     1
  9
$SHADEDGE
 70
     3
  9
$SHADEDIF
 70
    70
  9
$TILEMODE
 70
     1
  9
$MAXACTVP
 70
    64
  9
$PINSBASE
 10
0.0
 20
0.0
 30
0.0
  9
$PLIMCHECK
 70
     0
  9
$PEXTMIN
 10
1.000000000000000E+20
 20
1.000000000000000E+20
 30
1.000000000000000E+20
  9
$PEXTMAX
 10
-1.000000000000000E+20
 20
-1.000000000000000E+20
 30
-1.000000000000000E+20
  9
$PLIMMIN
 10
0.0
 20
0.0
  9
$PLIMMAX
 10
12.0
 20
9.0
  9
$UNITMODE
 70
     0
  9
$VISRETAIN
 70
     1
  9
$PLINEGEN
 70
     0
  9
$PSLTSCALE
 70
     1
  9
$TREEDEPTH
 70
  3020
  9
$PICKSTYLE
 70
     1
  9
$CMLSTYLE
  2
STANDARD
  9
$CMLJUST
 70
     0
  9
$CMLSCALE
 40
1.0
  9
$PROXYGRAPHICS
 70
     1
  9
$MEASUREMENT
 70
     0
  0
ENDSEC
  0
SECTION
  2
CLASSES
  0
CLASS
  1
ACDBDICTIONARYWDFLT
  2
AcDbDictionaryWithDefault
  3
ObjectDBX Classes
 90
        0
280
     0
281
     0
  0
CLASS
  1
VISUALSTYLE
  2
AcDbVisualStyle
  3
ObjectDBX Classes
 90
     4095
280
     0
281
     0
  0
CLASS
  1
MATERIAL
  2
AcDbMaterial
  3
ObjectDBX Classes
 90
     1153
280
     0
281
     0
  0
CLASS
  1
SUN
  2
AcDbSun
  3
SCENEOE
 90
     1024
280
     0
281
     0
  0
CLASS
  1
DICTIONARYVAR
  2
AcDbDictionaryVar
  3
ObjectDBX Classes
 90
        0
280
     0
281
     0
  0
CLASS
  1
XRECORD
  2
AcDbXrecord
  3
AutoCAD 2000
 90
        0
280
     0
281
     0
  0
CLASS
  1
LWPOLYLINE
  2
AcDbPolyline
  3
AutoCAD 2000
 90
        0
280
     0
281
     1
  0
CLASS
  1
HATCH
  2
AcDbHatch
  3
AutoCAD 2000
 90
        0
280
     0
281
     1
  0
CLASS
  1
ACDBPLACEHOLDER
  2
AcDbPlaceHolder
  3
ObjectDBX Classes
 90
        0
280
     0
281
     0
  0
CLASS
  1
LAYOUT
  2
AcDbLayout
  3
ObjectDBX Classes
 90
        0
280
     0
281
     0
  0
ENDSEC
  0
SECTION
  2
TABLES
  0
TABLE
  2
VPORT
  5
8
330
0
100
AcDbSymbolTable
 70
     1
  0
VPORT
  5
29
330
8
100
AcDbSymbolTableRecord
100
AcDbViewportTableRecord
  2
*ACTIVE
 70
     0
 10
0.0
 20
0.0
 11
1.0
 21
1.0
 12
0.0
 22
0.0
 13
0.0
 23
0.0
 14
0.5
 24
0.5
 15
0.5
 25
0.5
 16
0.0
 26
0.0
 36
1.0
 17
74.99999786197358
 27
39.74999886684608
 37
0.0
 40
39.99999998999989
 41
1.000000000000008
 42
50.0
 43
0.0
 44
0.0
 50
0.0
 51
0.0
 71
     0
 72
   100
 73
     1
 74
     3
 75
     0
 76
     0
 77
     0
 78
     0
  0
ENDTAB
  0
TABLE
  2
LTYPE
  5
5
330
0
100
AcDbSymbolTable
 70
     1
  0
LTYPE
  5
14
330
5
100
AcDbSymbolTableRecord
100
AcDbLinetypeTableRecord
  2
BYBLOCK
 70
     0
  3

 72
    65
 73
     0
 40
0.0
  0
LTYPE
  5
15
330
5
100
AcDbSymbolTableRecord
100
AcDbLinetypeTableRecord
  2
BYLAYER
 70
     0
  3

 72
    65
 73
     0
 40
0.0
  0
LTYPE
  5
16
330
5
100
AcDbSymbolTableRecord
100
AcDbLinetypeTableRecord
  2
CONTINUOUS
 70
     0
  3
Solid line
 72
    65
 73
     0
 40
0.0
  0
ENDTAB
  0
TABLE
  2
LAYER
  5
2
330
0
100
AcDbSymbolTable
 70
     6
  0
LAYER
  5
10
330
2
100
AcDbSymbolTableRecord
100
AcDbLayerTableRecord
  2
0
 70
     0
 62
     7
  6
CONTINUOUS
  0
LAYER
  5
40
330
2
100
AcDbSymbolTableRecord
100
AcDbLayerTableRecord
  2
REFERENCIAS
 70
     0
 62
     7
  6
CONTINUOUS
  0
LAYER
  5
42
330
2
100
AcDbSymbolTableRecord
100
AcDbLayerTableRecord
  2
M_U_00C1RGENES
 70
     4
 62
     7
  6
CONTINUOUS
  0
LAYER
  5
51
330
2
100
AcDbSymbolTableRecord
100
AcDbLayerTableRecord
  2
DIBUJOS
 70
     0
 62
     7
  6
CONTINUOUS
  0
LAYER
  5
82F
330
2
100
AcDbSymbolTableRecord
100
AcDbLayerTableRecord
  2
COTAS_LINEA
 70
     0
 62
     7
  6
CONTINUOUS
  0
LAYER
  5
844
330
2
100
AcDbSymbolTableRecord
100
AcDbLayerTableRecord
  2
COTAS_N_U_00DAMERO
 70
     0
 62
     7
  6
CONTINUOUS
  0
ENDTAB
  0
TABLE
  2
STYLE
  5
3
330
0
100
AcDbSymbolTable
 70
     1
  0
STYLE
  5
11
330
3
100
AcDbSymbolTableRecord
100
AcDbTextStyleTableRecord
  2
STANDARD
 70
     0
 40
0.0
 41
1.0
 50
0.0
 71
     0
 42
0.2
  3
txt
  4

  0
ENDTAB
  0
TABLE
  2
VIEW
  5
6
330
0
100
AcDbSymbolTable
 70
     0
  0
ENDTAB
  0
TABLE
  2
UCS
  5
7
330
0
100
AcDbSymbolTable
 70
     0
  0
ENDTAB
  0
TABLE
  2
APPID
  5
9
330
0
100
AcDbSymbolTable
 70
     1
  0
APPID
  5
12
330
9
100
AcDbSymbolTableRecord
100
AcDbRegAppTableRecord
  2
ACAD
 70
     0
  0
ENDTAB
  0
TABLE
  2
DIMSTYLE
  5
A
330
0
100
AcDbSymbolTable
 70
     1
  0
DIMSTYLE
105
27
330
A
100
AcDbSymbolTableRecord
100
AcDbDimStyleTableRecord
  2
STANDARD
 70
     0
  3

  4

  5

  6

  7

 40
1.0
 41
0.18
 42
0.0625
 43
0.38
 44
0.18
 45
0.0
 46
0.0
 47
0.0
 48
0.0
140
0.18
141
0.09
142
0.0
143
25.4
144
1.0
145
0.0
146
1.0
147
0.09
 71
     0
 72
     0
 73
     1
 74
     1
 75
     0
 76
     0
 77
     0
 78
     0
170
     0
171
     2
172
     0
173
     0
174
     0
175
     0
176
     0
177
     0
178
     0
270
     2
271
     4
272
     4
273
     2
274
     2
340
11
275
     0
280
     0
281
     0
282
     0
283
     1
284
     0
285
     0
286
     0
287
     3
288
     0
  0
ENDTAB
  0
TABLE
  2
BLOCK_RECORD
  5
1
330
0
100
AcDbSymbolTable
 70
     4
  0
BLOCK_RECORD
  5
1F
330
1
100
AcDbSymbolTableRecord
100
AcDbBlockTableRecord
  2
*MODEL_SPACE
  0
BLOCK_RECORD
  5
1B
330
1
100
AcDbSymbolTableRecord
100
AcDbBlockTableRecord
  2
*PAPER_SPACE
  0
BLOCK_RECORD
  5
52
330
1
100
AcDbSymbolTableRecord
100
AcDbBlockTableRecord
  2
BLOCK_2
  0
BLOCK_RECORD
  5
234
330
1
100
AcDbSymbolTableRecord
100
AcDbBlockTableRecord
  2
BLOCK_3
  0
BLOCK_RECORD
  5
374
330
1
100
AcDbSymbolTableRecord
100
AcDbBlockTableRecord
  2
BLOCK_4
  0
ENDTAB
  0
ENDSEC
  0
SECTION
  2
BLOCKS
  0
BLOCK
  5
20
330
1F
100
AcDbEntity
  8
0
100
AcDbBlockBegin
  2
*MODEL_SPACE
 70
     0
 10
0.0
 20
0.0
 30
0.0
  3
*MODEL_SPACE
  1

  0
ENDBLK
  5
21
330
1F
100
AcDbEntity
  8
0
100
AcDbBlockEnd
  0
BLOCK
  5
1C
330
1B
100
AcDbEntity
 67
     1
  8
0
100
AcDbBlockBegin
  2
*PAPER_SPACE
 70
     0
 10
0.0
 20
0.0
 30
0.0
  3
*PAPER_SPACE
  1

  0
ENDBLK
  5
1D
330
1B
100
AcDbEntity
 67
     1
  8
0
100
AcDbBlockEnd
  0
BLOCK
  5
54
330
52
100
AcDbEntity
  8
0
100
AcDbBlockBegin
  2
BLOCK_2
 70
     0
 10
0.0
 20
0.0
 30
0.0
  3
BLOCK_2
  1

  0
POLYLINE
  5
56
330
52
100
AcDbEntity
  8
DIBUJOS
 62
     7
100
AcDb2dPolyline
 66
     1
 10
0.0
 20
0.0
 30
0.0
  0
VERTEX
  5
57
330
56
100
AcDbEntity
  8
DIBUJOS
 62
     7
100
AcDbVertex
100
AcDb2dVertex
 10
62.12972826554375
 20
49.72226713764269
 30
0.0
  0
VERTEX
  5
58
330
56
100
AcDbEntity
  8
DIBUJOS
 62
     7
100
AcDbVertex
100
AcDb2dVertex
 10
62.12411983217642
 20
49.72226713764269
 30
0.0
  0
SEQEND
  5
59
330
56
100
AcDbEntity
  8
DIBUJOS
 62
     7
  0
POLYLINE
  5
5A
330
52
100
AcDbEntity
  8
DIBUJOS
 62
     7
100
AcDb2dPolyline
 66
     1
 10
0.0
 20
0.0
 30
0.0
  0
VERTEX
  5
5B
330
5A
100
AcDbEntity
  8
DIBUJOS
 62
     7
100
AcDbVertex
100
AcDb2dVertex
 10
62.12972826554375
 20
49.72226713764269
 30
0.0
  0
VERTEX
  5
5C
330
5A
100
AcDbEntity
  8
DIBUJOS
 62
     7
100
AcDbVertex
100
AcDb2dVertex
 10
62.12972826554375
 20
49.72786142588248
 30
0.0
  0
SEQEND
  5
5D
330
5A
100
AcDbEntity
  8
DIBUJOS
 62
     7
  0
POLYLINE
  5
5E
330
52
100
AcDbEntity
  8
DIBUJOS
 62
     7
100
AcDb2dPolyline
 66
     1
 10
0.0
 20
0.0
 30
0.0
  0
VERTEX
  5
5F
330
5E
100
AcDbEntity
  8
DIBUJOS
 62
     7
100
AcDbVertex
100
AcDb2dVertex
 10
62.12972826554375
 20
49.71667284940289
 30
0.0
  0
VERTEX
  5
60
330
5E
100
AcDbEntity
  8
DIBUJOS
 62
     7
100
AcDbVertex
100
AcDb2dVertex
 10
62.12972826554375
 20
49.72226713764269
 30
0.0
  0
SEQEND
  5
61
330
5E
100
AcDbEntity
  8
DIBUJOS
 62
     7
  0
POLYLINE
  5
62
330
52
100
AcDbEntity
  8
DIBUJOS
 62
     7
100
AcDb2dPolyline
 66
     1
 10
0.0
 20
0.0
 30
0.0
  0
VERTEX
  5
63
330
62
100
AcDbEntity
  8
DIBUJOS
 62
     7
100
AcDbVertex
100
AcDb2dVertex
 10
67.09870286820977
 20
49.71667284940289
 30
0.0
  0
VERTEX
  5
64
330
62
100
AcDbEntity
  8
DIBUJOS
 62
     7
100
AcDbVertex
100
AcDb2dVertex
 10
66.96858962923929
 20
49.95103679343895
 30
0.0
  0
VERTEX
  5
65
330
62
100
AcDbEntity
  8
DIBUJOS
 62
     7
100
AcDbVertex
100
AcDb2dVertex
 10
66.86483474404594
 20
50.19267210781891
 30
0.0
  0
VERTEX
  5
66
330
62
100
AcDbEntity
  8
DIBUJOS
 62
     7
100
AcDbVertex
100
AcDb2dVertex
 10
66.76388596237285
 20
50.47234436694364
 30
0.0
  0
VERTEX
  5
67
330
62
100
AcDbEntity
  8
DIBUJOS
 62
     7
100
AcDbVertex
100
AcDb2dVertex
 10
66.44140745899766
 20
51.39414035130325
 30
0.0
  0
VERTEX
  5
68
330
62
100
AcDbEntity
  8
DIBUJOS
 62
     7
100
AcDbVertex
100
AcDb2dVertex
 10
66.38756770624644
 20
51.50712811260123
 30
0.0
  0
VERTEX
  5
69
330
62
100
AcDbEntity
  8
DIBUJOS
 62
     7
100
AcDbVertex
100
AcDb2dVertex
 10
66.3079281033777
 20
51.60725021531488
 30
0.0
  0
VERTEX
  5
6A
330
62
100
AcDbEntity
  8
DIBUJOS
 62
     7
100
AcDbVertex
100
AcDb2dVertex
 10
66.26392556237649
 20
51.63650731909727
 30
0.0
  0
VERTEX
  5
6B
330
62
100
AcDbEntity
  8
DIBUJOS
 62
     7
100
AcDbVertex
100
AcDb2dVertex
 10
66.19632397756781
 20
51.67045543529986
 30
0.0
  0
VERTEX
  5
6C
330
62
100
AcDbEntity
  8
DIBUJOS
 62
     7
100
AcDbVertex
100
AcDb2dVertex
 10
66.16828105599683
 20
51.68164401177977
 30
0.0
  0
VERTEX
  5
6D
330
62
100
AcDbEntity
  8
DIBUJOS
 62
     7
100
AcDbVertex
100
AcDb2dVertex
 10
65.94850080926975
 20
51.75070546999272
 30
0.0
  0
VERTEX
  5
6E
330
62
100
AcDbEntity
  8
DIBUJOS
 62
     7
100
AcDbVertex
100
AcDb2dVertex
 10
65.78117764136965
 20
51.78839314808694
 30
0.0
  0
VERTEX
  5
6F
330
62
100
AcDbEntity
  8
DIBUJOS
 62
     7
100
AcDbVertex
100
AcDb2dVertex
 10
65.5001325621626
 20
51.83401459879266
 30
0.0
  0
VERTEX
  5
70
330
62
100
AcDbEntity
  8
DIBUJOS
 62
     7
100
AcDbVertex
100
AcDb2dVertex
 10
65.36032098262247
 20
51.8447425046048
 30
0.0
  0
VERTEX
  5
71
330
62
100
AcDbEntity
  8
DIBUJOS
 62
     7
100
AcDbVertex
100
AcDb2dVertex
 10
65.13010728375318
 20
51.86182947218375
 30
0.0
  0
VERTEX
  5
72
330
62
100
AcDbEntity
  8
DIBUJOS
 62
     7
100
AcDbVertex
100
AcDb2dVertex
 10
64.6535300734465
 20
51.87287954637108
 30
0.0
  0
VERTEX
  5
73
330
62
100
AcDbEntity
  8
DIBUJOS
 62
     7
100
AcDbVertex
100
AcDb2dVertex
 10
64.563684948307
 20
51.87288255729099
 30
0.0
  0
VERTEX
  5
74
330
62
100
AcDbEntity
  8
DIBUJOS
 62
     7
100
AcDbVertex
100
AcDb2dVertex
 10
64.0927184355716
 20
51.86183248310302
 30
0.0
  0
VERTEX
  5
75
330
62
100
AcDbEntity
  8
DIBUJOS
 62
     7
100
AcDbVertex
100
AcDb2dVertex
 10
63.79559750779465
 20
51.83960888703246
 30
0.0
  0
VERTEX
  5
76
330
62
100
AcDbEntity
  8
DIBUJOS
 62
     7
100
AcDbVertex
100
AcDb2dVertex
 10
63.71706887436695
 20
51.83399653327608
 30
0.0
  0
VERTEX
  5
77
330
62
100
AcDbEntity
  8
DIBUJOS
 62
     7
100
AcDbVertex
100
AcDb2dVertex
 10
63.44811615411705
 20
51.78968182158899
 30
0.0
  0
VERTEX
  5
78
330
62
100
AcDbEntity
  8
DIBUJOS
 62
     7
100
AcDbVertex
100
AcDb2dVertex
 10
63.2911464364838
 20
51.75629975823252
 30
0.0
  0
VERTEX
  5
79
330
62
100
AcDbEntity
  8
DIBUJOS
 62
     7
100
AcDbVertex
100
AcDb2dVertex
 10
63.04893245628771
 20
51.6810839807722
 30
0.0
  0
VERTEX
  5
7A
330
62
100
AcDbEntity
  8
DIBUJOS
 62
     7
100
AcDbVertex
100
AcDb2dVertex
 10
63.02089104418538
 20
51.66989841521156
 30
0.0
  0
VERTEX
  5
7B
330
62
100
AcDbEntity
  8
DIBUJOS
 62
     7
100
AcDbVertex
100
AcDb2dVertex
 10
62.96076888000286
 20
51.63947006378351
 30
0.0
  0
VERTEX
  5
7C
330
62
100
AcDbEntity
  8
DIBUJOS
 62
     7
100
AcDbVertex
100
AcDb2dVertex
 10
62.94192617411588
 20
51.62537293916649
 30
0.0
  0
VERTEX
  5
7D
330
62
100
AcDbEntity
  8
DIBUJOS
 62
     7
100
AcDbVertex
100
AcDb2dVertex
 10
62.88124399680481
 20
51.57369050771465
 30
0.0
  0
VERTEX
  5
7E
330
62
100
AcDbEntity
  8
DIBUJOS
 62
     7
100
AcDbVertex
100
AcDb2dVertex
 10
62.83749806559256
 20
51.51160233882523
 30
0.0
  0
VERTEX
  5
7F
330
62
100
AcDbEntity
  8
DIBUJOS
 62
     7
100
AcDbVertex
100
AcDb2dVertex
 10
62.78702442949083
 20
51.41092020510368
 30
0.0
  0
VERTEX
  5
80
330
62
100
AcDbEntity
  8
DIBUJOS
 62
     7
100
AcDbVertex
100
AcDb2dVertex
 10
62.46230209992721
 20
50.48800716964755
 30
0.0
  0
VERTEX
  5
81
330
62
100
AcDbEntity
  8
DIBUJOS
 62
     7
100
AcDbVertex
100
AcDb2dVertex
 10
62.36359563497294
 20
50.21504624985945
 30
0.0
  0
VERTEX
  5
82
330
62
100
AcDbEntity
  8
DIBUJOS
 62
     7
100
AcDbVertex
100
AcDb2dVertex
 10
62.25423307114689
 20
49.95103679343895
 30
0.0
  0
VERTEX
  5
83
330
62
100
AcDbEntity
  8
DIBUJOS
 62
     7
100
AcDbVertex
100
AcDb2dVertex
 10
62.12972826554375
 20
49.72786142588248
 30
0.0
  0
SEQEND
  5
84
330
62
100
AcDbEntity
  8
DIBUJOS
 62
     7
  0
POLYLINE
  5
85
330
52
100
AcDbEntity
  8
DIBUJOS
 62
     7
100
AcDb2dPolyline
 66
     1
 10
0.0
 20
0.0
 30
0.0
  0
VERTEX
  5
86
330
85
100
AcDbEntity
  8
DIBUJOS
 62
     7
100
AcDbVertex
100
AcDb2dVertex
 10
67.10431054684246
 20
49.71667284940289
 30
0.0
  0
VERTEX
  5
87
330
85
100
AcDbEntity
  8
DIBUJOS
 62
     7
100
AcDbVertex
100
AcDb2dVertex
 10
67.09870286820977
 20
49.71667284940289
 30
0.0
  0
SEQEND
  5
88
330
85
100
AcDbEntity
  8
DIBUJOS
 62
     7
  0
POLYLINE
  5
89
330
52
100
AcDbEntity
  8
DIBUJOS
 62
     7
100
AcDb2dPolyline
 66
     1
 10
0.0
 20
0.0
 30
0.0
  0
VERTEX
  5
8A
330
89
100
AcDbEntity
  8
DIBUJOS
 62
     7
100
AcDbVertex
100
AcDb2dVertex
 10
62.1129037201764
 20
49.71107856116278
 30
0.0
  0
VERTEX
  5
8B
330
89
100
AcDbEntity
  8
DIBUJOS
 62
     7
100
AcDbVertex
100
AcDb2dVertex
 10
62.1129037201764
 20
49.71667284940289
 30
0.0
  0
VERTEX
  5
8C
330
89
100
AcDbEntity
  8
DIBUJOS
 62
     7
100
AcDbVertex
100
AcDb2dVertex
 10
62.12411983217642
 20
49.72226713764269
 30
0.0
  0
SEQEND
  5
8D
330
89
100
AcDbEntity
  8
DIBUJOS
 62
     7
  0
POLYLINE
  5
8E
330
52
100
AcDbEntity
  8
DIBUJOS
 62
     7
100
AcDb2dPolyline
 66
     1
 10
0.0
 20
0.0
 30
0.0
  0
VERTEX
  5
8F
330
8E
100
AcDbEntity
  8
DIBUJOS
 62
     7
100
AcDbVertex
100
AcDb2dVertex
 10
67.09870286820977
 20
49.71107856116278
 30
0.0
  0
VERTEX
  5
90
330
8E
100
AcDbEntity
  8
DIBUJOS
 62
     7
100
AcDbVertex
100
AcDb2dVertex
 10
67.09870286820977
 20
49.71667284940289
 30
0.0
  0
SEQEND
  5
91
330
8E
100
AcDbEntity
  8
DIBUJOS
 62
     7
  0
POLYLINE
  5
92
330
52
100
AcDbEntity
  8
DIBUJOS
 62
     7
100
AcDb2dPolyline
 66
     1
 10
0.0
 20
0.0
 30
0.0
  0
VERTEX
  5
93
330
92
100
AcDbEntity
  8
DIBUJOS
 62
     7
100
AcDbVertex
100
AcDb2dVertex
 10
67.10991973494475
 20
49.71107856116278
 30
0.0
  0
VERTEX
  5
94
330
92
100
AcDbEntity
  8
DIBUJOS
 62
     7
100
AcDbVertex
100
AcDb2dVertex
 10
67.10431054684246
 20
49.71667284940289
 30
0.0
  0
SEQEND
  5
95
330
92
100
AcDbEntity
  8
DIBUJOS
 62
     7
  0
POLYLINE
  5
96
330
52
100
AcDbEntity
  8
DIBUJOS
 62
     7
100
AcDb2dPolyline
 66
     1
 10
0.0
 20
0.0
 30
0.0
  0
VERTEX
  5
97
330
96
100
AcDbEntity
  8
DIBUJOS
 62
     7
100
AcDbVertex
100
AcDb2dVertex
 10
62.11851139880876
 20
49.70548728384257
 30
0.0
  0
VERTEX
  5
98
330
96
100
AcDbEntity
  8
DIBUJOS
 62
     7
100
AcDbVertex
100
AcDb2dVertex
 10
62.1129037201764
 20
49.71107856116278
 30
0.0
  0
SEQEND
  5
99
330
96
100
AcDbEntity
  8
DIBUJOS
 62
     7
  0
POLYLINE
  5
9A
330
52
100
AcDbEntity
  8
DIBUJOS
 62
     7
100
AcDb2dPolyline
 66
     1
 10
0.0
 20
0.0
 30
0.0
  0
VERTEX
  5
9B
330
9A
100
AcDbEntity
  8
DIBUJOS
 62
     7
100
AcDbVertex
100
AcDb2dVertex
 10
62.12411983217642
 20
49.70548728384257
 30
0.0
  0
VERTEX
  5
9C
330
9A
100
AcDbEntity
  8
DIBUJOS
 62
     7
100
AcDbVertex
100
AcDb2dVertex
 10
62.11851139880876
 20
49.70548728384257
 30
0.0
  0
SEQEND
  5
9D
330
9A
100
AcDbEntity
  8
DIBUJOS
 62
     7
  0
POLYLINE
  5
9E
330
52
100
AcDbEntity
  8
DIBUJOS
 62
     7
100
AcDb2dPolyline
 66
     1
 10
0.0
 20
0.0
 30
0.0
  0
VERTEX
  5
9F
330
9E
100
AcDbEntity
  8
DIBUJOS
 62
     7
100
AcDbVertex
100
AcDb2dVertex
 10
62.12411983217642
 20
49.70548728384257
 30
0.0
  0
VERTEX
  5
A0
330
9E
100
AcDbEntity
  8
DIBUJOS
 62
     7
100
AcDbVertex
100
AcDb2dVertex
 10
62.12972826554375
 20
49.71667284940289
 30
0.0
  0
SEQEND
  5
A1
330
9E
100
AcDbEntity
  8
DIBUJOS
 62
     7
  0
POLYLINE
  5
A2
330
52
100
AcDbEntity
  8
DIBUJOS
 62
     7
100
AcDb2dPolyline
 66
     1
 10
0.0
 20
0.0
 30
0.0
  0
VERTEX
  5
A3
330
A2
100
AcDbEntity
  8
DIBUJOS
 62
     7
100
AcDbVertex
100
AcDb2dVertex
 10
67.10991973494475
 20
49.70548728384257
 30
0.0
  0
VERTEX
  5
A4
330
A2
100
AcDbEntity
  8
DIBUJOS
 62
     7
100
AcDbVertex
100
AcDb2dVertex
 10
67.10991973494475
 20
49.71107856116278
 30
0.0
  0
SEQEND
  5
A5
330
A2
100
AcDbEntity
  8
DIBUJOS
 62
     7
  0
POLYLINE
  5
A6
330
52
100
AcDbEntity
  8
DIBUJOS
 62
     7
100
AcDb2dPolyline
 66
     1
 10
0.0
 20
0.0
 30
0.0
  0
VERTEX
  5
A7
330
A6
100
AcDbEntity
  8
DIBUJOS
 62
     7
100
AcDbVertex
100
AcDb2dVertex
 10
67.11552741357713
 20
49.70548728384257
 30
0.0
  0
VERTEX
  5
A8
330
A6
100
AcDbEntity
  8
DIBUJOS
 62
     7
100
AcDbVertex
100
AcDb2dVertex
 10
67.10991973494475
 20
49.70548728384257
 30
0.0
  0
SEQEND
  5
A9
330
A6
100
AcDbEntity
  8
DIBUJOS
 62
     7
  0
POLYLINE
  5
AA
330
52
100
AcDbEntity
  8
DIBUJOS
 62
     7
100
AcDb2dPolyline
 66
     1
 10
0.0
 20
0.0
 30
0.0
  0
VERTEX
  5
AB
330
AA
100
AcDbEntity
  8
DIBUJOS
 62
     7
100
AcDbVertex
100
AcDb2dVertex
 10
62.12411983217642
 20
49.69989299560214
 30
0.0
  0
VERTEX
  5
AC
330
AA
100
AcDbEntity
  8
DIBUJOS
 62
     7
100
AcDbVertex
100
AcDb2dVertex
 10
62.12411983217642
 20
49.70548728384257
 30
0.0
  0
SEQEND
  5
AD
330
AA
100
AcDbEntity
  8
DIBUJOS
 62
     7
  0
POLYLINE
  5
AE
330
52
100
AcDbEntity
  8
DIBUJOS
 62
     7
100
AcDb2dPolyline
 66
     1
 10
0.0
 20
0.0
 30
0.0
  0
VERTEX
  5
AF
330
AE
100
AcDbEntity
  8
DIBUJOS
 62
     7
100
AcDbVertex
100
AcDb2dVertex
 10
67.10431054684246
 20
49.69989299560214
 30
0.0
  0
VERTEX
  5
B0
330
AE
100
AcDbEntity
  8
DIBUJOS
 62
     7
100
AcDbVertex
100
AcDb2dVertex
 10
67.09870286820977
 20
49.71107856116278
 30
0.0
  0
SEQEND
  5
B1
330
AE
100
AcDbEntity
  8
DIBUJOS
 62
     7
  0
POLYLINE
  5
B2
330
52
100
AcDbEntity
  8
DIBUJOS
 62
     7
100
AcDb2dPolyline
 66
     1
 10
0.0
 20
0.0
 30
0.0
  0
VERTEX
  5
B3
330
B2
100
AcDbEntity
  8
DIBUJOS
 62
     7
100
AcDbVertex
100
AcDb2dVertex
 10
67.10431054684246
 20
49.69989299560214
 30
0.0
  0
VERTEX
  5
B4
330
B2
100
AcDbEntity
  8
DIBUJOS
 62
     7
100
AcDbVertex
100
AcDb2dVertex
 10
67.10991973494475
 20
49.70548728384257
 30
0.0
  0
SEQEND
  5
B5
330
B2
100
AcDbEntity
  8
DIBUJOS
 62
     7
  0
POLYLINE
  5
B6
330
52
100
AcDbEntity
  8
DIBUJOS
 62
     7
100
AcDb2dPolyline
 66
     1
 10
0.0
 20
0.0
 30
0.0
  0
VERTEX
  5
B7
330
B6
100
AcDbEntity
  8
DIBUJOS
 62
     7
100
AcDbVertex
100
AcDb2dVertex
 10
62.1129037201764
 20
49.66073899976148
 30
0.0
  0
VERTEX
  5
B8
330
B6
100
AcDbEntity
  8
DIBUJOS
 62
     7
100
AcDbVertex
100
AcDb2dVertex
 10
62.12411983217642
 20
49.69989299560214
 30
0.0
  0
SEQEND
  5
B9
330
B6
100
AcDbEntity
  8
DIBUJOS
 62
     7
  0
POLYLINE
  5
BA
330
52
100
AcDbEntity
  8
DIBUJOS
 62
     7
100
AcDb2dPolyline
 66
     1
 10
0.0
 20
0.0
 30
0.0
  0
VERTEX
  5
BB
330
BA
100
AcDbEntity
  8
DIBUJOS
 62
     7
100
AcDbVertex
100
AcDb2dVertex
 10
67.10991973494475
 20
49.66073899976148
 30
0.0
  0
VERTEX
  5
BC
330
BA
100
AcDbEntity
  8
DIBUJOS
 62
     7
100
AcDbVertex
100
AcDb2dVertex
 10
67.10431054684246
 20
49.69989299560214
 30
0.0
  0
SEQEND
  5
BD
330
BA
100
AcDbEntity
  8
DIBUJOS
 62
     7
  0
POLYLINE
  5
BE
330
52
100
AcDbEntity
  8
DIBUJOS
 62
     7
100
AcDb2dPolyline
 66
     1
 10
0.0
 20
0.0
 30
0.0
  0
VERTEX
  5
BF
330
BE
100
AcDbEntity
  8
DIBUJOS
 62
     7
100
AcDbVertex
100
AcDb2dVertex
 10
62.1129037201764
 20
49.65514471152169
 30
0.0
  0
VERTEX
  5
C0
330
BE
100
AcDbEntity
  8
DIBUJOS
 62
     7
100
AcDbVertex
100
AcDb2dVertex
 10
62.10729528680907
 20
49.65514471152169
 30
0.0
  0
SEQEND
  5
C1
330
BE
100
AcDbEntity
  8
DIBUJOS
 62
     7
  0
POLYLINE
  5
C2
330
52
100
AcDbEntity
  8
DIBUJOS
 62
     7
100
AcDb2dPolyline
 66
     1
 10
0.0
 20
0.0
 30
0.0
  0
VERTEX
  5
C3
330
C2
100
AcDbEntity
  8
DIBUJOS
 62
     7
100
AcDbVertex
100
AcDb2dVertex
 10
62.1129037201764
 20
49.65514471152169
 30
0.0
  0
VERTEX
  5
C4
330
C2
100
AcDbEntity
  8
DIBUJOS
 62
     7
100
AcDbVertex
100
AcDb2dVertex
 10
62.1129037201764
 20
49.66073899976148
 30
0.0
  0
SEQEND
  5
C5
330
C2
100
AcDbEntity
  8
DIBUJOS
 62
     7
  0
POLYLINE
  5
C6
330
52
100
AcDbEntity
  8
DIBUJOS
 62
     7
100
AcDb2dPolyline
 66
     1
 10
0.0
 20
0.0
 30
0.0
  0
VERTEX
  5
C7
330
C6
100
AcDbEntity
  8
DIBUJOS
 62
     7
100
AcDbVertex
100
AcDb2dVertex
 10
67.10991973494475
 20
49.65514471152169
 30
0.0
  0
VERTEX
  5
C8
330
C6
100
AcDbEntity
  8
DIBUJOS
 62
     7
100
AcDbVertex
100
AcDb2dVertex
 10
67.10991973494475
 20
49.66073899976148
 30
0.0
  0
SEQEND
  5
C9
330
C6
100
AcDbEntity
  8
DIBUJOS
 62
     7
  0
POLYLINE
  5
CA
330
52
100
AcDbEntity
  8
DIBUJOS
 62
     7
100
AcDb2dPolyline
 66
     1
 10
0.0
 20
0.0
 30
0.0
  0
VERTEX
  5
CB
330
CA
100
AcDbEntity
  8
DIBUJOS
 62
     7
100
AcDbVertex
100
AcDb2dVertex
 10
67.11552741357713
 20
49.65514471152169
 30
0.0
  0
VERTEX
  5
CC
330
CA
100
AcDbEntity
  8
DIBUJOS
 62
     7
100
AcDbVertex
100
AcDb2dVertex
 10
67.10991973494475
 20
49.65514471152169
 30
0.0
  0
SEQEND
  5
CD
330
CA
100
AcDbEntity
  8
DIBUJOS
 62
     7
  0
POLYLINE
  5
CE
330
52
100
AcDbEntity
  8
DIBUJOS
 62
     7
100
AcDb2dPolyline
 66
     1
 10
0.0
 20
0.0
 30
0.0
  0
VERTEX
  5
CF
330
CE
100
AcDbEntity
  8
DIBUJOS
 62
     7
100
AcDbVertex
100
AcDb2dVertex
 10
67.15478569241348
 20
49.64955042328157
 30
0.0
  0
VERTEX
  5
D0
330
CE
100
AcDbEntity
  8
DIBUJOS
 62
     7
100
AcDbVertex
100
AcDb2dVertex
 10
67.11552741357713
 20
49.70548728384257
 30
0.0
  0
SEQEND
  5
D1
330
CE
100
AcDbEntity
  8
DIBUJOS
 62
     7
  0
POLYLINE
  5
D2
330
52
100
AcDbEntity
  8
DIBUJOS
 62
     7
100
AcDb2dPolyline
 66
     1
 10
0.0
 20
0.0
 30
0.0
  0
VERTEX
  5
D3
330
D2
100
AcDbEntity
  8
DIBUJOS
 62
     7
100
AcDbVertex
100
AcDb2dVertex
 10
62.06803700797239
 20
49.64395914596105
 30
0.0
  0
VERTEX
  5
D4
330
D2
100
AcDbEntity
  8
DIBUJOS
 62
     7
100
AcDbVertex
100
AcDb2dVertex
 10
62.09183832067237
 20
49.68761446630043
 30
0.0
  0
VERTEX
  5
D5
330
D2
100
AcDbEntity
  8
DIBUJOS
 62
     7
100
AcDbVertex
100
AcDb2dVertex
 10
62.1129037201764
 20
49.71107856116278
 30
0.0
  0
SEQEND
  5
D6
330
D2
100
AcDbEntity
  8
DIBUJOS
 62
     7
  0
POLYLINE
  5
D7
330
52
100
AcDbEntity
  8
DIBUJOS
 62
     7
100
AcDb2dPolyline
 66
     1
 10
0.0
 20
0.0
 30
0.0
  0
VERTEX
  5
D8
330
D7
100
AcDbEntity
  8
DIBUJOS
 62
     7
100
AcDbVertex
100
AcDb2dVertex
 10
67.15478569241348
 20
49.64395914596105
 30
0.0
  0
VERTEX
  5
D9
330
D7
100
AcDbEntity
  8
DIBUJOS
 62
     7
100
AcDbVertex
100
AcDb2dVertex
 10
67.15478569241348
 20
49.64955042328157
 30
0.0
  0
SEQEND
  5
DA
330
D7
100
AcDbEntity
  8
DIBUJOS
 62
     7
  0
POLYLINE
  5
DB
330
52
100
AcDbEntity
  8
DIBUJOS
 62
     7
100
AcDb2dPolyline
 66
     1
 10
0.0
 20
0.0
 30
0.0
  0
VERTEX
  5
DC
330
DB
100
AcDbEntity
  8
DIBUJOS
 62
     7
100
AcDbVertex
100
AcDb2dVertex
 10
67.1603933710465
 20
49.64395914596105
 30
0.0
  0
VERTEX
  5
DD
330
DB
100
AcDbEntity
  8
DIBUJOS
 62
     7
100
AcDbVertex
100
AcDb2dVertex
 10
67.15478569241348
 20
49.64395914596105
 30
0.0
  0
SEQEND
  5
DE
330
DB
100
AcDbEntity
  8
DIBUJOS
 62
     7
  0
POLYLINE
  5
DF
330
52
100
AcDbEntity
  8
DIBUJOS
 62
     7
100
AcDb2dPolyline
 66
     1
 10
0.0
 20
0.0
 30
0.0
  0
VERTEX
  5
E0
330
DF
100
AcDbEntity
  8
DIBUJOS
 62
     7
100
AcDbVertex
100
AcDb2dVertex
 10
62.06242857460473
 20
49.63836485772125
 30
0.0
  0
VERTEX
  5
E1
330
DF
100
AcDbEntity
  8
DIBUJOS
 62
     7
100
AcDbVertex
100
AcDb2dVertex
 10
62.06803700797239
 20
49.64395914596105
 30
0.0
  0
SEQEND
  5
E2
330
DF
100
AcDbEntity
  8
DIBUJOS
 62
     7
  0
POLYLINE
  5
E3
330
52
100
AcDbEntity
  8
DIBUJOS
 62
     7
100
AcDb2dPolyline
 66
     1
 10
0.0
 20
0.0
 30
0.0
  0
VERTEX
  5
E4
330
E3
100
AcDbEntity
  8
DIBUJOS
 62
     7
100
AcDbVertex
100
AcDb2dVertex
 10
62.07364544133972
 20
49.63836485772125
 30
0.0
  0
VERTEX
  5
E5
330
E3
100
AcDbEntity
  8
DIBUJOS
 62
     7
100
AcDbVertex
100
AcDb2dVertex
 10
62.06803700797239
 20
49.64395914596105
 30
0.0
  0
SEQEND
  5
E6
330
E3
100
AcDbEntity
  8
DIBUJOS
 62
     7
  0
POLYLINE
  5
E7
330
52
100
AcDbEntity
  8
DIBUJOS
 62
     7
100
AcDb2dPolyline
 66
     1
 10
0.0
 20
0.0
 30
0.0
  0
VERTEX
  5
E8
330
E7
100
AcDbEntity
  8
DIBUJOS
 62
     7
100
AcDbVertex
100
AcDb2dVertex
 10
62.07364544133972
 20
49.63836485772125
 30
0.0
  0
VERTEX
  5
E9
330
E7
100
AcDbEntity
  8
DIBUJOS
 62
     7
100
AcDbVertex
100
AcDb2dVertex
 10
62.10729528680907
 20
49.65514471152169
 30
0.0
  0
SEQEND
  5
EA
330
E7
100
AcDbEntity
  8
DIBUJOS
 62
     7
  0
POLYLINE
  5
EB
330
52
100
AcDbEntity
  8
DIBUJOS
 62
     7
100
AcDb2dPolyline
 66
     1
 10
0.0
 20
0.0
 30
0.0
  0
VERTEX
  5
EC
330
EB
100
AcDbEntity
  8
DIBUJOS
 62
     7
100
AcDbVertex
100
AcDb2dVertex
 10
67.14917801378111
 20
49.63836485772125
 30
0.0
  0
VERTEX
  5
ED
330
EB
100
AcDbEntity
  8
DIBUJOS
 62
     7
100
AcDbVertex
100
AcDb2dVertex
 10
67.15478569241348
 20
49.64395914596105
 30
0.0
  0
SEQEND
  5
EE
330
EB
100
AcDbEntity
  8
DIBUJOS
 62
     7
  0
POLYLINE
  5
EF
330
52
100
AcDbEntity
  8
DIBUJOS
 62
     7
100
AcDb2dPolyline
 66
     1
 10
0.0
 20
0.0
 30
0.0
  0
VERTEX
  5
F0
330
EF
100
AcDbEntity
  8
DIBUJOS
 62
     7
100
AcDbVertex
100
AcDb2dVertex
 10
62.06803700797239
 20
49.63277056948146
 30
0.0
  0
VERTEX
  5
F1
330
EF
100
AcDbEntity
  8
DIBUJOS
 62
     7
100
AcDbVertex
100
AcDb2dVertex
 10
62.06242857460473
 20
49.63836485772125
 30
0.0
  0
SEQEND
  5
F2
330
EF
100
AcDbEntity
  8
DIBUJOS
 62
     7
  0
POLYLINE
  5
F3
330
52
100
AcDbEntity
  8
DIBUJOS
 62
     7
100
AcDb2dPolyline
 66
     1
 10
0.0
 20
0.0
 30
0.0
  0
VERTEX
  5
F4
330
F3
100
AcDbEntity
  8
DIBUJOS
 62
     7
100
AcDbVertex
100
AcDb2dVertex
 10
62.06803700797239
 20
49.63277056948146
 30
0.0
  0
VERTEX
  5
F5
330
F3
100
AcDbEntity
  8
DIBUJOS
 62
     7
100
AcDbVertex
100
AcDb2dVertex
 10
62.07364544133972
 20
49.63836485772125
 30
0.0
  0
SEQEND
  5
F6
330
F3
100
AcDbEntity
  8
DIBUJOS
 62
     7
  0
POLYLINE
  5
F7
330
52
100
AcDbEntity
  8
DIBUJOS
 62
     7
100
AcDb2dPolyline
 66
     1
 10
0.0
 20
0.0
 30
0.0
  0
VERTEX
  5
F8
330
F7
100
AcDbEntity
  8
DIBUJOS
 62
     7
100
AcDbVertex
100
AcDb2dVertex
 10
67.14356882567914
 20
49.63277056948146
 30
0.0
  0
VERTEX
  5
F9
330
F7
100
AcDbEntity
  8
DIBUJOS
 62
     7
100
AcDbVertex
100
AcDb2dVertex
 10
67.11552741357713
 20
49.65514471152169
 30
0.0
  0
SEQEND
  5
FA
330
F7
100
AcDbEntity
  8
DIBUJOS
 62
     7
  0
POLYLINE
  5
FB
330
52
100
AcDbEntity
  8
DIBUJOS
 62
     7
100
AcDb2dPolyline
 66
     1
 10
0.0
 20
0.0
 30
0.0
  0
VERTEX
  5
FC
330
FB
100
AcDbEntity
  8
DIBUJOS
 62
     7
100
AcDbVertex
100
AcDb2dVertex
 10
67.14917801378111
 20
49.63277056948146
 30
0.0
  0
VERTEX
  5
FD
330
FB
100
AcDbEntity
  8
DIBUJOS
 62
     7
100
AcDbVertex
100
AcDb2dVertex
 10
67.14356882567914
 20
49.63277056948146
 30
0.0
  0
SEQEND
  5
FE
330
FB
100
AcDbEntity
  8
DIBUJOS
 62
     7
  0
POLYLINE
  5
FF
330
52
100
AcDbEntity
  8
DIBUJOS
 62
     7
100
AcDb2dPolyline
 66
     1
 10
0.0
 20
0.0
 30
0.0
  0
VERTEX
  5
100
330
FF
100
AcDbEntity
  8
DIBUJOS
 62
     7
100
AcDbVertex
100
AcDb2dVertex
 10
67.14917801378111
 20
49.63277056948146
 30
0.0
  0
VERTEX
  5
101
330
FF
100
AcDbEntity
  8
DIBUJOS
 62
     7
100
AcDbVertex
100
AcDb2dVertex
 10
67.14917801378111
 20
49.63836485772125
 30
0.0
  0
SEQEND
  5
102
330
FF
100
AcDbEntity
  8
DIBUJOS
 62
     7
  0
POLYLINE
  5
103
330
52
100
AcDbEntity
  8
DIBUJOS
 62
     7
100
AcDb2dPolyline
 66
     1
 10
0.0
 20
0.0
 30
0.0
  0
VERTEX
  5
104
330
103
100
AcDbEntity
  8
DIBUJOS
 62
     7
100
AcDbVertex
100
AcDb2dVertex
 10
67.16600255914847
 20
49.63277056948146
 30
0.0
  0
VERTEX
  5
105
330
103
100
AcDbEntity
  8
DIBUJOS
 62
     7
100
AcDbVertex
100
AcDb2dVertex
 10
67.1603933710465
 20
49.64395914596105
 30
0.0
  0
SEQEND
  5
106
330
103
100
AcDbEntity
  8
DIBUJOS
 62
     7
  0
POLYLINE
  5
107
330
52
100
AcDbEntity
  8
DIBUJOS
 62
     7
100
AcDb2dPolyline
 66
     1
 10
0.0
 20
0.0
 30
0.0
  0
VERTEX
  5
108
330
107
100
AcDbEntity
  8
DIBUJOS
 62
     7
100
AcDbVertex
100
AcDb2dVertex
 10
62.05121170787039
 20
49.62717929216093
 30
0.0
  0
VERTEX
  5
109
330
107
100
AcDbEntity
  8
DIBUJOS
 62
     7
100
AcDbVertex
100
AcDb2dVertex
 10
62.05121170787039
 20
49.63277056948146
 30
0.0
  0
VERTEX
  5
10A
330
107
100
AcDbEntity
  8
DIBUJOS
 62
     7
100
AcDbVertex
100
AcDb2dVertex
 10
62.06242857460473
 20
49.63836485772125
 30
0.0
  0
SEQEND
  5
10B
330
107
100
AcDbEntity
  8
DIBUJOS
 62
     7
  0
POLYLINE
  5
10C
330
52
100
AcDbEntity
  8
DIBUJOS
 62
     7
100
AcDb2dPolyline
 66
     1
 10
0.0
 20
0.0
 30
0.0
  0
VERTEX
  5
10D
330
10C
100
AcDbEntity
  8
DIBUJOS
 62
     7
100
AcDbVertex
100
AcDb2dVertex
 10
67.1603933710465
 20
49.62717929216093
 30
0.0
  0
VERTEX
  5
10E
330
10C
100
AcDbEntity
  8
DIBUJOS
 62
     7
100
AcDbVertex
100
AcDb2dVertex
 10
67.14917801378111
 20
49.63277056948146
 30
0.0
  0
SEQEND
  5
10F
330
10C
100
AcDbEntity
  8
DIBUJOS
 62
     7
  0
POLYLINE
  5
110
330
52
100
AcDbEntity
  8
DIBUJOS
 62
     7
100
AcDb2dPolyline
 66
     1
 10
0.0
 20
0.0
 30
0.0
  0
VERTEX
  5
111
330
110
100
AcDbEntity
  8
DIBUJOS
 62
     7
100
AcDbVertex
100
AcDb2dVertex
 10
67.16600255914847
 20
49.62717929216093
 30
0.0
  0
VERTEX
  5
112
330
110
100
AcDbEntity
  8
DIBUJOS
 62
     7
100
AcDbVertex
100
AcDb2dVertex
 10
67.1603933710465
 20
49.62717929216093
 30
0.0
  0
SEQEND
  5
113
330
110
100
AcDbEntity
  8
DIBUJOS
 62
     7
  0
POLYLINE
  5
114
330
52
100
AcDbEntity
  8
DIBUJOS
 62
     7
100
AcDb2dPolyline
 66
     1
 10
0.0
 20
0.0
 30
0.0
  0
VERTEX
  5
115
330
114
100
AcDbEntity
  8
DIBUJOS
 62
     7
100
AcDbVertex
100
AcDb2dVertex
 10
67.16600255914847
 20
49.62717929216093
 30
0.0
  0
VERTEX
  5
116
330
114
100
AcDbEntity
  8
DIBUJOS
 62
     7
100
AcDbVertex
100
AcDb2dVertex
 10
67.16600255914847
 20
49.63277056948146
 30
0.0
  0
SEQEND
  5
117
330
114
100
AcDbEntity
  8
DIBUJOS
 62
     7
  0
POLYLINE
  5
118
330
52
100
AcDbEntity
  8
DIBUJOS
 62
     7
100
AcDb2dPolyline
 66
     1
 10
0.0
 20
0.0
 30
0.0
  0
VERTEX
  5
119
330
118
100
AcDbEntity
  8
DIBUJOS
 62
     7
100
AcDbVertex
100
AcDb2dVertex
 10
62.05121170787039
 20
49.62158500392082
 30
0.0
  0
VERTEX
  5
11A
330
118
100
AcDbEntity
  8
DIBUJOS
 62
     7
100
AcDbVertex
100
AcDb2dVertex
 10
62.05121170787039
 20
49.62717929216093
 30
0.0
  0
SEQEND
  5
11B
330
118
100
AcDbEntity
  8
DIBUJOS
 62
     7
  0
POLYLINE
  5
11C
330
52
100
AcDbEntity
  8
DIBUJOS
 62
     7
100
AcDb2dPolyline
 66
     1
 10
0.0
 20
0.0
 30
0.0
  0
VERTEX
  5
11D
330
11C
100
AcDbEntity
  8
DIBUJOS
 62
     7
100
AcDbVertex
100
AcDb2dVertex
 10
62.05682014123772
 20
49.62158500392082
 30
0.0
  0
VERTEX
  5
11E
330
11C
100
AcDbEntity
  8
DIBUJOS
 62
     7
100
AcDbVertex
100
AcDb2dVertex
 10
62.05121170787039
 20
49.62158500392082
 30
0.0
  0
SEQEND
  5
11F
330
11C
100
AcDbEntity
  8
DIBUJOS
 62
     7
  0
POLYLINE
  5
120
330
52
100
AcDbEntity
  8
DIBUJOS
 62
     7
100
AcDb2dPolyline
 66
     1
 10
0.0
 20
0.0
 30
0.0
  0
VERTEX
  5
121
330
120
100
AcDbEntity
  8
DIBUJOS
 62
     7
100
AcDbVertex
100
AcDb2dVertex
 10
62.05682014123772
 20
49.62158500392082
 30
0.0
  0
VERTEX
  5
122
330
120
100
AcDbEntity
  8
DIBUJOS
 62
     7
100
AcDbVertex
100
AcDb2dVertex
 10
62.06242857460473
 20
49.62158500392082
 30
0.0
  0
VERTEX
  5
123
330
120
100
AcDbEntity
  8
DIBUJOS
 62
     7
100
AcDbVertex
100
AcDb2dVertex
 10
62.06803700797239
 20
49.63277056948146
 30
0.0
  0
SEQEND
  5
124
330
120
100
AcDbEntity
  8
DIBUJOS
 62
     7
  0
POLYLINE
  5
125
330
52
100
AcDbEntity
  8
DIBUJOS
 62
     7
100
AcDb2dPolyline
 66
     1
 10
0.0
 20
0.0
 30
0.0
  0
VERTEX
  5
126
330
125
100
AcDbEntity
  8
DIBUJOS
 62
     7
100
AcDbVertex
100
AcDb2dVertex
 10
67.96799268124623
 20
47.80372134145004
 30
0.0
  0
VERTEX
  5
127
330
125
100
AcDbEntity
  8
DIBUJOS
 62
     7
100
AcDbVertex
100
AcDb2dVertex
 10
67.96799268124623
 20
47.82609548349026
 30
0.0
  0
VERTEX
  5
128
330
125
100
AcDbEntity
  8
DIBUJOS
 62
     7
100
AcDbVertex
100
AcDb2dVertex
 10
67.97360035987828
 20
47.83168977173006
 30
0.0
  0
SEQEND
  5
129
330
125
100
AcDbEntity
  8
DIBUJOS
 62
     7
  0
POLYLINE
  5
12A
330
52
100
AcDbEntity
  8
DIBUJOS
 62
     7
100
AcDb2dPolyline
 66
     1
 10
0.0
 20
0.0
 30
0.0
  0
VERTEX
  5
12B
330
12A
100
AcDbEntity
  8
DIBUJOS
 62
     7
100
AcDbVertex
100
AcDb2dVertex
 10
67.96799268124623
 20
47.77016163384917
 30
0.0
  0
VERTEX
  5
12C
330
12A
100
AcDbEntity
  8
DIBUJOS
 62
     7
100
AcDbVertex
100
AcDb2dVertex
 10
67.96799268124623
 20
47.7925357758894
 30
0.0
  0
SEQEND
  5
12D
330
12A
100
AcDbEntity
  8
DIBUJOS
 62
     7
  0
POLYLINE
  5
12E
330
52
100
AcDbEntity
  8
DIBUJOS
 62
     7
100
AcDb2dPolyline
 66
     1
 10
0.0
 20
0.0
 30
0.0
  0
VERTEX
  5
12F
330
12E
100
AcDbEntity
  8
DIBUJOS
 62
     7
100
AcDbVertex
100
AcDb2dVertex
 10
67.96799268124623
 20
47.75338178004874
 30
0.0
  0
VERTEX
  5
130
330
12E
100
AcDbEntity
  8
DIBUJOS
 62
     7
100
AcDbVertex
100
AcDb2dVertex
 10
67.96238349314393
 20
47.75338178004874
 30
0.0
  0
SEQEND
  5
131
330
12E
100
AcDbEntity
  8
DIBUJOS
 62
     7
  0
POLYLINE
  5
132
330
52
100
AcDbEntity
  8
DIBUJOS
 62
     7
100
AcDb2dPolyline
 66
     1
 10
0.0
 20
0.0
 30
0.0
  0
VERTEX
  5
133
330
132
100
AcDbEntity
  8
DIBUJOS
 62
     7
100
AcDbVertex
100
AcDb2dVertex
 10
67.96238349314393
 20
47.73660192624862
 30
0.0
  0
VERTEX
  5
134
330
132
100
AcDbEntity
  8
DIBUJOS
 62
     7
100
AcDbVertex
100
AcDb2dVertex
 10
67.96799268124623
 20
47.74219320356883
 30
0.0
  0
SEQEND
  5
135
330
132
100
AcDbEntity
  8
DIBUJOS
 62
     7
  0
POLYLINE
  5
136
330
52
100
AcDbEntity
  8
DIBUJOS
 62
     7
100
AcDb2dPolyline
 66
     1
 10
0.0
 20
0.0
 30
0.0
  0
VERTEX
  5
137
330
136
100
AcDbEntity
  8
DIBUJOS
 62
     7
100
AcDbVertex
100
AcDb2dVertex
 10
67.96799268124623
 20
47.69744793040733
 30
0.0
  0
VERTEX
  5
138
330
136
100
AcDbEntity
  8
DIBUJOS
 62
     7
100
AcDbVertex
100
AcDb2dVertex
 10
67.96799268124623
 20
47.71422778420808
 30
0.0
  0
SEQEND
  5
139
330
136
100
AcDbEntity
  8
DIBUJOS
 62
     7
  0
POLYLINE
  5
13A
330
52
100
AcDbEntity
  8
DIBUJOS
 62
     7
100
AcDb2dPolyline
 66
     1
 10
0.0
 20
0.0
 30
0.0
  0
VERTEX
  5
13B
330
13A
100
AcDbEntity
  8
DIBUJOS
 62
     7
100
AcDbVertex
100
AcDb2dVertex
 10
67.96238349314393
 20
47.67507378836742
 30
0.0
  0
VERTEX
  5
13C
330
13A
100
AcDbEntity
  8
DIBUJOS
 62
     7
100
AcDbVertex
100
AcDb2dVertex
 10
67.96799268124623
 20
47.68066506568794
 30
0.0
  0
SEQEND
  5
13D
330
13A
100
AcDbEntity
  8
DIBUJOS
 62
     7
  0
POLYLINE
  5
13E
330
52
100
AcDbEntity
  8
DIBUJOS
 62
     7
100
AcDb2dPolyline
 66
     1
 10
0.0
 20
0.0
 30
0.0
  0
VERTEX
  5
13F
330
13E
100
AcDbEntity
  8
DIBUJOS
 62
     7
100
AcDbVertex
100
AcDb2dVertex
 10
61.26043845250761
 20
47.61354565048654
 30
0.0
  0
VERTEX
  5
140
330
13E
100
AcDbEntity
  8
DIBUJOS
 62
     7
100
AcDbVertex
100
AcDb2dVertex
 10
61.25483001914028
 20
47.82609548349026
 30
0.0
  0
SEQEND
  5
141
330
13E
100
AcDbEntity
  8
DIBUJOS
 62
     7
  0
POLYLINE
  5
142
330
52
100
AcDbEntity
  8
DIBUJOS
 62
     7
100
AcDb2dPolyline
 66
     1
 10
0.0
 20
0.0
 30
0.0
  0
VERTEX
  5
143
330
142
100
AcDbEntity
  8
DIBUJOS
 62
     7
100
AcDbVertex
100
AcDb2dVertex
 10
61.26043845250761
 20
47.56879736640543
 30
0.0
  0
VERTEX
  5
144
330
142
100
AcDbEntity
  8
DIBUJOS
 62
     7
100
AcDbVertex
100
AcDb2dVertex
 10
61.25483001914028
 20
47.57439165464587
 30
0.0
  0
VERTEX
  5
145
330
142
100
AcDbEntity
  8
DIBUJOS
 62
     7
100
AcDbVertex
100
AcDb2dVertex
 10
61.2584587834559
 20
47.58607101098755
 30
0.0
  0
VERTEX
  5
146
330
142
100
AcDbEntity
  8
DIBUJOS
 62
     7
100
AcDbVertex
100
AcDb2dVertex
 10
61.26043845250761
 20
47.60235707400663
 30
0.0
  0
SEQEND
  5
147
330
142
100
AcDbEntity
  8
DIBUJOS
 62
     7
  0
POLYLINE
  5
148
330
52
100
AcDbEntity
  8
DIBUJOS
 62
     7
100
AcDb2dPolyline
 66
     1
 10
0.0
 20
0.0
 30
0.0
  0
VERTEX
  5
149
330
148
100
AcDbEntity
  8
DIBUJOS
 62
     7
100
AcDbVertex
100
AcDb2dVertex
 10
62.79711825102947
 20
46.46689420554676
 30
0.0
  0
VERTEX
  5
14A
330
148
100
AcDbEntity
  8
DIBUJOS
 62
     7
100
AcDbVertex
100
AcDb2dVertex
 10
62.72159195213741
 20
47.64134848019989
 30
0.0
  0
VERTEX
  5
14B
330
148
100
AcDbEntity
  8
DIBUJOS
 62
     7
100
AcDbVertex
100
AcDb2dVertex
 10
62.68176007494822
 20
48.18996810355617
 30
0.0
  0
VERTEX
  5
14C
330
148
100
AcDbEntity
  8
DIBUJOS
 62
     7
100
AcDbVertex
100
AcDb2dVertex
 10
62.66010296345922
 20
48.36276175683994
 30
0.0
  0
VERTEX
  5
14D
330
148
100
AcDbEntity
  8
DIBUJOS
 62
     7
100
AcDbVertex
100
AcDb2dVertex
 10
62.62110355861608
 20
48.57518513122914
 30
0.0
  0
VERTEX
  5
14E
330
148
100
AcDbEntity
  8
DIBUJOS
 62
     7
100
AcDbVertex
100
AcDb2dVertex
 10
62.60427901324905
 20
48.66467868847078
 30
0.0
  0
VERTEX
  5
14F
330
148
100
AcDbEntity
  8
DIBUJOS
 62
     7
100
AcDbVertex
100
AcDb2dVertex
 10
62.52033138485692
 20
49.02259570996925
 30
0.0
  0
VERTEX
  5
150
330
148
100
AcDbEntity
  8
DIBUJOS
 62
     7
100
AcDbVertex
100
AcDb2dVertex
 10
62.50911527285722
 20
49.06734098313043
 30
0.0
  0
VERTEX
  5
151
330
148
100
AcDbEntity
  8
DIBUJOS
 62
     7
100
AcDbVertex
100
AcDb2dVertex
 10
62.453328304646
 20
49.23507930274612
 30
0.0
  0
VERTEX
  5
152
330
148
100
AcDbEntity
  8
DIBUJOS
 62
     7
100
AcDbVertex
100
AcDb2dVertex
 10
62.44211219264598
 20
49.26304773302646
 30
0.0
  0
VERTEX
  5
153
330
148
100
AcDbEntity
  8
DIBUJOS
 62
     7
100
AcDbVertex
100
AcDb2dVertex
 10
62.40004931975831
 20
49.35925262960441
 30
0.0
  0
VERTEX
  5
154
330
148
100
AcDbEntity
  8
DIBUJOS
 62
     7
100
AcDbVertex
100
AcDb2dVertex
 10
62.34974700842765
 20
49.43786171322571
 30
0.0
  0
VERTEX
  5
155
330
148
100
AcDbEntity
  8
DIBUJOS
 62
     7
100
AcDbVertex
100
AcDb2dVertex
 10
62.2587199687875
 20
49.54887130047961
 30
0.0
  0
VERTEX
  5
156
330
148
100
AcDbEntity
  8
DIBUJOS
 62
     7
100
AcDbVertex
100
AcDb2dVertex
 10
62.19260747549262
 20
49.60618716212402
 30
0.0
  0
VERTEX
  5
157
330
148
100
AcDbEntity
  8
DIBUJOS
 62
     7
100
AcDbVertex
100
AcDb2dVertex
 10
62.146058459699
 20
49.64198398283656
 30
0.0
  0
VERTEX
  5
158
330
148
100
AcDbEntity
  8
DIBUJOS
 62
     7
100
AcDbVertex
100
AcDb2dVertex
 10
62.1129037201764
 20
49.65514471152169
 30
0.0
  0
SEQEND
  5
159
330
148
100
AcDbEntity
  8
DIBUJOS
 62
     7
  0
POLYLINE
  5
15A
330
52
100
AcDbEntity
  8
DIBUJOS
 62
     7
100
AcDb2dPolyline
 66
     1
 10
0.0
 20
0.0
 30
0.0
  0
VERTEX
  5
15B
330
15A
100
AcDbEntity
  8
DIBUJOS
 62
     7
100
AcDbVertex
100
AcDb2dVertex
 10
66.4257029398871
 20
46.46689420554676
 30
0.0
  0
VERTEX
  5
15C
330
15A
100
AcDbEntity
  8
DIBUJOS
 62
     7
100
AcDbVertex
100
AcDb2dVertex
 10
66.50124131453414
 20
47.64695180119814
 30
0.0
  0
VERTEX
  5
15D
330
15A
100
AcDbEntity
  8
DIBUJOS
 62
     7
100
AcDbVertex
100
AcDb2dVertex
 10
66.54101583188799
 20
48.18994100528177
 30
0.0
  0
VERTEX
  5
15E
330
15A
100
AcDbEntity
  8
DIBUJOS
 62
     7
100
AcDbVertex
100
AcDb2dVertex
 10
66.55711130355964
 20
48.32360776099928
 30
0.0
  0
VERTEX
  5
15F
330
15A
100
AcDbEntity
  8
DIBUJOS
 62
     7
100
AcDbVertex
100
AcDb2dVertex
 10
66.60732682040248
 20
48.60874483882969
 30
0.0
  0
VERTEX
  5
160
330
15A
100
AcDbEntity
  8
DIBUJOS
 62
     7
100
AcDbVertex
100
AcDb2dVertex
 10
66.61865991627745
 20
48.67032416234043
 30
0.0
  0
VERTEX
  5
161
330
15A
100
AcDbEntity
  8
DIBUJOS
 62
     7
100
AcDbVertex
100
AcDb2dVertex
 10
66.70249131552927
 20
49.02818698728976
 30
0.0
  0
VERTEX
  5
162
330
15A
100
AcDbEntity
  8
DIBUJOS
 62
     7
100
AcDbVertex
100
AcDb2dVertex
 10
66.7193158608963
 20
49.08971512517098
 30
0.0
  0
VERTEX
  5
163
330
15A
100
AcDbEntity
  8
DIBUJOS
 62
     7
100
AcDbVertex
100
AcDb2dVertex
 10
66.76668904695455
 20
49.23060507652212
 30
0.0
  0
VERTEX
  5
164
330
15A
100
AcDbEntity
  8
DIBUJOS
 62
     7
100
AcDbVertex
100
AcDb2dVertex
 10
66.78295357919335
 20
49.26975907236278
 30
0.0
  0
VERTEX
  5
165
330
15A
100
AcDbEntity
  8
DIBUJOS
 62
     7
100
AcDbVertex
100
AcDb2dVertex
 10
66.81397166485208
 20
49.34664591008865
 30
0.0
  0
VERTEX
  5
166
330
15A
100
AcDbEntity
  8
DIBUJOS
 62
     7
100
AcDbVertex
100
AcDb2dVertex
 10
66.86763933809692
 20
49.43196633304562
 30
0.0
  0
VERTEX
  5
167
330
15A
100
AcDbEntity
  8
DIBUJOS
 62
     7
100
AcDbVertex
100
AcDb2dVertex
 10
66.94166975286402
 20
49.52649715843906
 30
0.0
  0
VERTEX
  5
168
330
15A
100
AcDbEntity
  8
DIBUJOS
 62
     7
100
AcDbVertex
100
AcDb2dVertex
 10
67.04152416925858
 20
49.61735466216775
 30
0.0
  0
VERTEX
  5
169
330
15A
100
AcDbEntity
  8
DIBUJOS
 62
     7
100
AcDbVertex
100
AcDb2dVertex
 10
67.0767642406872
 20
49.64198398283656
 30
0.0
  0
VERTEX
  5
16A
330
15A
100
AcDbEntity
  8
DIBUJOS
 62
     7
100
AcDbVertex
100
AcDb2dVertex
 10
67.10991973494475
 20
49.65514471152169
 30
0.0
  0
SEQEND
  5
16B
330
15A
100
AcDbEntity
  8
DIBUJOS
 62
     7
  0
POLYLINE
  5
16C
330
52
100
AcDbEntity
  8
DIBUJOS
 62
     7
100
AcDb2dPolyline
 66
     1
 10
0.0
 20
0.0
 30
0.0
  0
VERTEX
  5
16D
330
16C
100
AcDbEntity
  8
DIBUJOS
 62
     7
100
AcDbVertex
100
AcDb2dVertex
 10
62.79711825102947
 20
46.46129991730697
 30
0.0
  0
VERTEX
  5
16E
330
16C
100
AcDbEntity
  8
DIBUJOS
 62
     7
100
AcDbVertex
100
AcDb2dVertex
 10
62.79151057239711
 20
46.46129991730697
 30
0.0
  0
SEQEND
  5
16F
330
16C
100
AcDbEntity
  8
DIBUJOS
 62
     7
  0
POLYLINE
  5
170
330
52
100
AcDbEntity
  8
DIBUJOS
 62
     7
100
AcDb2dPolyline
 66
     1
 10
0.0
 20
0.0
 30
0.0
  0
VERTEX
  5
171
330
170
100
AcDbEntity
  8
DIBUJOS
 62
     7
100
AcDbVertex
100
AcDb2dVertex
 10
62.79711825102947
 20
46.46129991730697
 30
0.0
  0
VERTEX
  5
172
330
170
100
AcDbEntity
  8
DIBUJOS
 62
     7
100
AcDbVertex
100
AcDb2dVertex
 10
62.79711825102947
 20
46.46689420554676
 30
0.0
  0
SEQEND
  5
173
330
170
100
AcDbEntity
  8
DIBUJOS
 62
     7
  0
POLYLINE
  5
174
330
52
100
AcDbEntity
  8
DIBUJOS
 62
     7
100
AcDb2dPolyline
 66
     1
 10
0.0
 20
0.0
 30
0.0
  0
VERTEX
  5
175
330
174
100
AcDbEntity
  8
DIBUJOS
 62
     7
100
AcDbVertex
100
AcDb2dVertex
 10
62.80272743913145
 20
46.46129991730697
 30
0.0
  0
VERTEX
  5
176
330
174
100
AcDbEntity
  8
DIBUJOS
 62
     7
100
AcDbVertex
100
AcDb2dVertex
 10
62.79711825102947
 20
46.46129991730697
 30
0.0
  0
SEQEND
  5
177
330
174
100
AcDbEntity
  8
DIBUJOS
 62
     7
  0
POLYLINE
  5
178
330
52
100
AcDbEntity
  8
DIBUJOS
 62
     7
100
AcDb2dPolyline
 66
     1
 10
0.0
 20
0.0
 30
0.0
  0
VERTEX
  5
179
330
178
100
AcDbEntity
  8
DIBUJOS
 62
     7
100
AcDbVertex
100
AcDb2dVertex
 10
66.42009526125442
 20
46.46129991730697
 30
0.0
  0
VERTEX
  5
17A
330
178
100
AcDbEntity
  8
DIBUJOS
 62
     7
100
AcDbVertex
100
AcDb2dVertex
 10
66.24085936124969
 20
46.47500863332258
 30
0.0
  0
VERTEX
  5
17B
330
178
100
AcDbEntity
  8
DIBUJOS
 62
     7
100
AcDbVertex
100
AcDb2dVertex
 10
65.91522455746431
 20
46.49778924948112
 30
0.0
  0
VERTEX
  5
17C
330
178
100
AcDbEntity
  8
DIBUJOS
 62
     7
100
AcDbVertex
100
AcDb2dVertex
 10
65.79769274552025
 20
46.50311857681413
 30
0.0
  0
VERTEX
  5
17D
330
178
100
AcDbEntity
  8
DIBUJOS
 62
     7
100
AcDbVertex
100
AcDb2dVertex
 10
65.18630029921971
 20
46.5144004917953
 30
0.0
  0
VERTEX
  5
17E
330
178
100
AcDbEntity
  8
DIBUJOS
 62
     7
100
AcDbVertex
100
AcDb2dVertex
 10
63.99165191528924
 20
46.51439748087603
 30
0.0
  0
VERTEX
  5
17F
330
178
100
AcDbEntity
  8
DIBUJOS
 62
     7
100
AcDbVertex
100
AcDb2dVertex
 10
63.60475680743242
 20
46.50888448745977
 30
0.0
  0
VERTEX
  5
180
330
178
100
AcDbEntity
  8
DIBUJOS
 62
     7
100
AcDbVertex
100
AcDb2dVertex
 10
63.30198895481958
 20
46.49778924948112
 30
0.0
  0
VERTEX
  5
181
330
178
100
AcDbEntity
  8
DIBUJOS
 62
     7
100
AcDbVertex
100
AcDb2dVertex
 10
62.9707268493004
 20
46.47497852412826
 30
0.0
  0
VERTEX
  5
182
330
178
100
AcDbEntity
  8
DIBUJOS
 62
     7
100
AcDbVertex
100
AcDb2dVertex
 10
62.80272743913145
 20
46.46129991730697
 30
0.0
  0
SEQEND
  5
183
330
178
100
AcDbEntity
  8
DIBUJOS
 62
     7
  0
POLYLINE
  5
184
330
52
100
AcDbEntity
  8
DIBUJOS
 62
     7
100
AcDb2dPolyline
 66
     1
 10
0.0
 20
0.0
 30
0.0
  0
VERTEX
  5
185
330
184
100
AcDbEntity
  8
DIBUJOS
 62
     7
100
AcDbVertex
100
AcDb2dVertex
 10
66.4257029398871
 20
46.46129991730697
 30
0.0
  0
VERTEX
  5
186
330
184
100
AcDbEntity
  8
DIBUJOS
 62
     7
100
AcDbVertex
100
AcDb2dVertex
 10
66.42009526125442
 20
46.46129991730697
 30
0.0
  0
SEQEND
  5
187
330
184
100
AcDbEntity
  8
DIBUJOS
 62
     7
  0
POLYLINE
  5
188
330
52
100
AcDbEntity
  8
DIBUJOS
 62
     7
100
AcDb2dPolyline
 66
     1
 10
0.0
 20
0.0
 30
0.0
  0
VERTEX
  5
189
330
188
100
AcDbEntity
  8
DIBUJOS
 62
     7
100
AcDbVertex
100
AcDb2dVertex
 10
66.4257029398871
 20
46.46129991730697
 30
0.0
  0
VERTEX
  5
18A
330
188
100
AcDbEntity
  8
DIBUJOS
 62
     7
100
AcDbVertex
100
AcDb2dVertex
 10
66.4257029398871
 20
46.46689420554676
 30
0.0
  0
SEQEND
  5
18B
330
188
100
AcDbEntity
  8
DIBUJOS
 62
     7
  0
POLYLINE
  5
18C
330
52
100
AcDbEntity
  8
DIBUJOS
 62
     7
100
AcDb2dPolyline
 66
     1
 10
0.0
 20
0.0
 30
0.0
  0
VERTEX
  5
18D
330
18C
100
AcDbEntity
  8
DIBUJOS
 62
     7
100
AcDbVertex
100
AcDb2dVertex
 10
62.90367622080485
 20
44.57631382871486
 30
0.0
  0
VERTEX
  5
18E
330
18C
100
AcDbEntity
  8
DIBUJOS
 62
     7
100
AcDbVertex
100
AcDb2dVertex
 10
61.87679327929407
 20
44.59141660041119
 30
0.0
  0
VERTEX
  5
18F
330
18C
100
AcDbEntity
  8
DIBUJOS
 62
     7
100
AcDbVertex
100
AcDb2dVertex
 10
61.85492031368795
 20
44.59868797075541
 30
0.0
  0
VERTEX
  5
190
330
18C
100
AcDbEntity
  8
DIBUJOS
 62
     7
100
AcDbVertex
100
AcDb2dVertex
 10
61.82687890158593
 20
44.62665640103543
 30
0.0
  0
VERTEX
  5
191
330
18C
100
AcDbEntity
  8
DIBUJOS
 62
     7
100
AcDbVertex
100
AcDb2dVertex
 10
61.81260686888848
 20
44.74432915291539
 30
0.0
  0
VERTEX
  5
192
330
18C
100
AcDbEntity
  8
DIBUJOS
 62
     7
100
AcDbVertex
100
AcDb2dVertex
 10
61.80750108881436
 20
44.80543275116137
 30
0.0
  0
VERTEX
  5
193
330
18C
100
AcDbEntity
  8
DIBUJOS
 62
     7
100
AcDbVertex
100
AcDb2dVertex
 10
61.77349953698678
 20
45.49932321359185
 30
0.0
  0
VERTEX
  5
194
330
18C
100
AcDbEntity
  8
DIBUJOS
 62
     7
100
AcDbVertex
100
AcDb2dVertex
 10
61.76789789623159
 20
45.66152746335574
 30
0.0
  0
VERTEX
  5
195
330
18C
100
AcDbEntity
  8
DIBUJOS
 62
     7
100
AcDbVertex
100
AcDb2dVertex
 10
61.75957921064755
 20
45.99704625545884
 30
0.0
  0
VERTEX
  5
196
330
18C
100
AcDbEntity
  8
DIBUJOS
 62
     7
100
AcDbVertex
100
AcDb2dVertex
 10
61.76786468790588
 20
46.12557939360401
 30
0.0
  0
VERTEX
  5
197
330
18C
100
AcDbEntity
  8
DIBUJOS
 62
     7
100
AcDbVertex
100
AcDb2dVertex
 10
61.78369524770682
 20
46.19225620365425
 30
0.0
  0
VERTEX
  5
198
330
18C
100
AcDbEntity
  8
DIBUJOS
 62
     7
100
AcDbVertex
100
AcDb2dVertex
 10
61.78762062274957
 20
46.20400180022246
 30
0.0
  0
VERTEX
  5
199
330
18C
100
AcDbEntity
  8
DIBUJOS
 62
     7
100
AcDbVertex
100
AcDb2dVertex
 10
61.83708593332597
 20
46.2444986661143
 30
0.0
  0
VERTEX
  5
19A
330
18C
100
AcDbEntity
  8
DIBUJOS
 62
     7
100
AcDbVertex
100
AcDb2dVertex
 10
61.85593014868225
 20
46.25859277981237
 30
0.0
  0
VERTEX
  5
19B
330
18C
100
AcDbEntity
  8
DIBUJOS
 62
     7
100
AcDbVertex
100
AcDb2dVertex
 10
61.97325591806087
 20
46.31475244840844
 30
0.0
  0
VERTEX
  5
19C
330
18C
100
AcDbEntity
  8
DIBUJOS
 62
     7
100
AcDbVertex
100
AcDb2dVertex
 10
62.15720890978224
 20
46.37348344216943
 30
0.0
  0
VERTEX
  5
19D
330
18C
100
AcDbEntity
  8
DIBUJOS
 62
     7
100
AcDbVertex
100
AcDb2dVertex
 10
62.27584640802483
 20
46.39736304390791
 30
0.0
  0
VERTEX
  5
19E
330
18C
100
AcDbEntity
  8
DIBUJOS
 62
     7
100
AcDbVertex
100
AcDb2dVertex
 10
62.79151057239711
 20
46.46129991730697
 30
0.0
  0
SEQEND
  5
19F
330
18C
100
AcDbEntity
  8
DIBUJOS
 62
     7
  0
POLYLINE
  5
1A0
330
52
100
AcDbEntity
  8
DIBUJOS
 62
     7
100
AcDb2dPolyline
 66
     1
 10
0.0
 20
0.0
 30
0.0
  0
VERTEX
  5
1A1
330
1A0
100
AcDbEntity
  8
DIBUJOS
 62
     7
100
AcDbVertex
100
AcDb2dVertex
 10
62.90928540890651
 20
44.57631382871486
 30
0.0
  0
VERTEX
  5
1A2
330
1A0
100
AcDbEntity
  8
DIBUJOS
 62
     7
100
AcDbVertex
100
AcDb2dVertex
 10
62.90367622080485
 20
44.57631382871486
 30
0.0
  0
SEQEND
  5
1A3
330
1A0
100
AcDbEntity
  8
DIBUJOS
 62
     7
  0
POLYLINE
  5
1A4
330
52
100
AcDbEntity
  8
DIBUJOS
 62
     7
100
AcDb2dPolyline
 66
     1
 10
0.0
 20
0.0
 30
0.0
  0
VERTEX
  5
1A5
330
1A4
100
AcDbEntity
  8
DIBUJOS
 62
     7
100
AcDbVertex
100
AcDb2dVertex
 10
62.9148930875392
 20
44.57631382871486
 30
0.0
  0
VERTEX
  5
1A6
330
1A4
100
AcDbEntity
  8
DIBUJOS
 62
     7
100
AcDbVertex
100
AcDb2dVertex
 10
62.90928540890651
 20
44.57631382871486
 30
0.0
  0
SEQEND
  5
1A7
330
1A4
100
AcDbEntity
  8
DIBUJOS
 62
     7
  0
POLYLINE
  5
1A8
330
52
100
AcDbEntity
  8
DIBUJOS
 62
     7
100
AcDb2dPolyline
 66
     1
 10
0.0
 20
0.0
 30
0.0
  0
VERTEX
  5
1A9
330
1A8
100
AcDbEntity
  8
DIBUJOS
 62
     7
100
AcDbVertex
100
AcDb2dVertex
 10
66.3079281033777
 20
44.57631382871486
 30
0.0
  0
VERTEX
  5
1AA
330
1A8
100
AcDbEntity
  8
DIBUJOS
 62
     7
100
AcDbVertex
100
AcDb2dVertex
 10
66.30232042474502
 20
44.58190811695498
 30
0.0
  0
VERTEX
  5
1AB
330
1A8
100
AcDbEntity
  8
DIBUJOS
 62
     7
100
AcDbVertex
100
AcDb2dVertex
 10
62.92050227564118
 20
44.58190811695498
 30
0.0
  0
VERTEX
  5
1AC
330
1A8
100
AcDbEntity
  8
DIBUJOS
 62
     7
100
AcDbVertex
100
AcDb2dVertex
 10
62.9148930875392
 20
44.57631382871486
 30
0.0
  0
SEQEND
  5
1AD
330
1A8
100
AcDbEntity
  8
DIBUJOS
 62
     7
  0
POLYLINE
  5
1AE
330
52
100
AcDbEntity
  8
DIBUJOS
 62
     7
100
AcDb2dPolyline
 66
     1
 10
0.0
 20
0.0
 30
0.0
  0
VERTEX
  5
1AF
330
1AE
100
AcDbEntity
  8
DIBUJOS
 62
     7
100
AcDbVertex
100
AcDb2dVertex
 10
66.31353729147968
 20
44.57631382871486
 30
0.0
  0
VERTEX
  5
1B0
330
1AE
100
AcDbEntity
  8
DIBUJOS
 62
     7
100
AcDbVertex
100
AcDb2dVertex
 10
66.3079281033777
 20
44.57631382871486
 30
0.0
  0
SEQEND
  5
1B1
330
1AE
100
AcDbEntity
  8
DIBUJOS
 62
     7
  0
POLYLINE
  5
1B2
330
52
100
AcDbEntity
  8
DIBUJOS
 62
     7
100
AcDb2dPolyline
 66
     1
 10
0.0
 20
0.0
 30
0.0
  0
VERTEX
  5
1B3
330
1B2
100
AcDbEntity
  8
DIBUJOS
 62
     7
100
AcDbVertex
100
AcDb2dVertex
 10
66.31353729147968
 20
44.57631382871486
 30
0.0
  0
VERTEX
  5
1B4
330
1B2
100
AcDbEntity
  8
DIBUJOS
 62
     7
100
AcDbVertex
100
AcDb2dVertex
 10
67.27254392476036
 20
44.58469020647787
 30
0.0
  0
VERTEX
  5
1B5
330
1B2
100
AcDbEntity
  8
DIBUJOS
 62
     7
100
AcDbVertex
100
AcDb2dVertex
 10
67.35058198064982
 20
44.5950688456401
 30
0.0
  0
VERTEX
  5
1B6
330
1B2
100
AcDbEntity
  8
DIBUJOS
 62
     7
100
AcDbVertex
100
AcDb2dVertex
 10
67.3622939533309
 20
44.59868797075541
 30
0.0
  0
VERTEX
  5
1B7
330
1B2
100
AcDbEntity
  8
DIBUJOS
 62
     7
100
AcDbVertex
100
AcDb2dVertex
 10
67.3903353654326
 20
44.62665640103543
 30
0.0
  0
VERTEX
  5
1B8
330
1B2
100
AcDbEntity
  8
DIBUJOS
 62
     7
100
AcDbVertex
100
AcDb2dVertex
 10
67.39426149521033
 20
44.64399628584376
 30
0.0
  0
VERTEX
  5
1B9
330
1B2
100
AcDbEntity
  8
DIBUJOS
 62
     7
100
AcDbVertex
100
AcDb2dVertex
 10
67.4102694176595
 20
44.77233371422827
 30
0.0
  0
VERTEX
  5
1BA
330
1B2
100
AcDbEntity
  8
DIBUJOS
 62
     7
100
AcDbVertex
100
AcDb2dVertex
 10
67.41526727067507
 20
44.82217647392862
 30
0.0
  0
VERTEX
  5
1BB
330
1B2
100
AcDbEntity
  8
DIBUJOS
 62
     7
100
AcDbVertex
100
AcDb2dVertex
 10
67.44932240866444
 20
45.56085135147273
 30
0.0
  0
VERTEX
  5
1BC
330
1B2
100
AcDbEntity
  8
DIBUJOS
 62
     7
100
AcDbVertex
100
AcDb2dVertex
 10
67.45473083734318
 20
45.71728065783284
 30
0.0
  0
VERTEX
  5
1BD
330
1B2
100
AcDbEntity
  8
DIBUJOS
 62
     7
100
AcDbVertex
100
AcDb2dVertex
 10
67.4576350563713
 20
46.11450824298083
 30
0.0
  0
VERTEX
  5
1BE
330
1B2
100
AcDbEntity
  8
DIBUJOS
 62
     7
100
AcDbVertex
100
AcDb2dVertex
 10
67.45400629205568
 20
46.12059331108239
 30
0.0
  0
VERTEX
  5
1BF
330
1B2
100
AcDbEntity
  8
DIBUJOS
 62
     7
100
AcDbVertex
100
AcDb2dVertex
 10
67.42959364426929
 20
46.20400180022246
 30
0.0
  0
VERTEX
  5
1C0
330
1B2
100
AcDbEntity
  8
DIBUJOS
 62
     7
100
AcDbVertex
100
AcDb2dVertex
 10
67.36689179696897
 20
46.25300150249185
 30
0.0
  0
VERTEX
  5
1C1
330
1B2
100
AcDbEntity
  8
DIBUJOS
 62
     7
100
AcDbVertex
100
AcDb2dVertex
 10
67.21703771784806
 20
46.32314086984886
 30
0.0
  0
VERTEX
  5
1C2
330
1B2
100
AcDbEntity
  8
DIBUJOS
 62
     7
100
AcDbVertex
100
AcDb2dVertex
 10
67.03757086903296
 20
46.37907471948996
 30
0.0
  0
VERTEX
  5
1C3
330
1B2
100
AcDbEntity
  8
DIBUJOS
 62
     7
100
AcDbVertex
100
AcDb2dVertex
 10
66.85784590095865
 20
46.4077748031834
 30
0.0
  0
VERTEX
  5
1C4
330
1B2
100
AcDbEntity
  8
DIBUJOS
 62
     7
100
AcDbVertex
100
AcDb2dVertex
 10
66.4257029398871
 20
46.46129991730697
 30
0.0
  0
SEQEND
  5
1C5
330
1B2
100
AcDbEntity
  8
DIBUJOS
 62
     7
  0
POLYLINE
  5
1C6
330
52
100
AcDbEntity
  8
DIBUJOS
 62
     7
100
AcDb2dPolyline
 66
     1
 10
0.0
 20
0.0
 30
0.0
  0
VERTEX
  5
1C7
330
1C6
100
AcDbEntity
  8
DIBUJOS
 62
     7
100
AcDbVertex
100
AcDb2dVertex
 10
62.90928540890651
 20
44.57072255139466
 30
0.0
  0
VERTEX
  5
1C8
330
1C6
100
AcDbEntity
  8
DIBUJOS
 62
     7
100
AcDbVertex
100
AcDb2dVertex
 10
62.90928540890651
 20
44.57631382871486
 30
0.0
  0
SEQEND
  5
1C9
330
1C6
100
AcDbEntity
  8
DIBUJOS
 62
     7
  0
POLYLINE
  5
1CA
330
52
100
AcDbEntity
  8
DIBUJOS
 62
     7
100
AcDb2dPolyline
 66
     1
 10
0.0
 20
0.0
 30
0.0
  0
VERTEX
  5
1CB
330
1CA
100
AcDbEntity
  8
DIBUJOS
 62
     7
100
AcDbVertex
100
AcDb2dVertex
 10
66.31353729147968
 20
44.57072255139466
 30
0.0
  0
VERTEX
  5
1CC
330
1CA
100
AcDbEntity
  8
DIBUJOS
 62
     7
100
AcDbVertex
100
AcDb2dVertex
 10
66.31353729147968
 20
44.57631382871486
 30
0.0
  0
SEQEND
  5
1CD
330
1CA
100
AcDbEntity
  8
DIBUJOS
 62
     7
  0
POLYLINE
  5
1CE
330
52
100
AcDbEntity
  8
DIBUJOS
 62
     7
100
AcDb2dPolyline
 66
     1
 10
0.0
 20
0.0
 30
0.0
  0
VERTEX
  5
1CF
330
1CE
100
AcDbEntity
  8
DIBUJOS
 62
     7
100
AcDbVertex
100
AcDb2dVertex
 10
67.77730896569615
 20
42.56827598074053
 30
0.0
  0
VERTEX
  5
1D0
330
1CE
100
AcDbEntity
  8
DIBUJOS
 62
     7
100
AcDbVertex
100
AcDb2dVertex
 10
67.77928938948219
 20
42.58456204375928
 30
0.0
  0
VERTEX
  5
1D1
330
1CE
100
AcDbEntity
  8
DIBUJOS
 62
     7
100
AcDbVertex
100
AcDb2dVertex
 10
67.96799268124623
 20
47.65269964632719
 30
0.0
  0
SEQEND
  5
1D2
330
1CE
100
AcDbEntity
  8
DIBUJOS
 62
     7
  0
POLYLINE
  5
1D3
330
52
100
AcDbEntity
  8
DIBUJOS
 62
     7
100
AcDb2dPolyline
 66
     1
 10
0.0
 20
0.0
 30
0.0
  0
VERTEX
  5
1D4
330
1D3
100
AcDbEntity
  8
DIBUJOS
 62
     7
100
AcDbVertex
100
AcDb2dVertex
 10
66.19015477633727
 20
42.50674784285965
 30
0.0
  0
VERTEX
  5
1D5
330
1D3
100
AcDbEntity
  8
DIBUJOS
 62
     7
100
AcDbVertex
100
AcDb2dVertex
 10
66.18454558823561
 20
42.64658397242185
 30
0.0
  0
VERTEX
  5
1D6
330
1D3
100
AcDbEntity
  8
DIBUJOS
 62
     7
100
AcDbVertex
100
AcDb2dVertex
 10
66.31034476380586
 20
44.5592328829751
 30
0.0
  0
VERTEX
  5
1D7
330
1D3
100
AcDbEntity
  8
DIBUJOS
 62
     7
100
AcDbVertex
100
AcDb2dVertex
 10
66.31353729147968
 20
44.57072255139466
 30
0.0
  0
SEQEND
  5
1D8
330
1D3
100
AcDbEntity
  8
DIBUJOS
 62
     7
  0
POLYLINE
  5
1D9
330
52
100
AcDbEntity
  8
DIBUJOS
 62
     7
100
AcDb2dPolyline
 66
     1
 10
0.0
 20
0.0
 30
0.0
  0
VERTEX
  5
1DA
330
1D9
100
AcDbEntity
  8
DIBUJOS
 62
     7
100
AcDbVertex
100
AcDb2dVertex
 10
63.01584337868157
 20
42.50115506007916
 30
0.0
  0
VERTEX
  5
1DB
330
1D9
100
AcDbEntity
  8
DIBUJOS
 62
     7
100
AcDbVertex
100
AcDb2dVertex
 10
63.02145105731393
 20
42.50115506007916
 30
0.0
  0
VERTEX
  5
1DC
330
1D9
100
AcDbEntity
  8
DIBUJOS
 62
     7
100
AcDbVertex
100
AcDb2dVertex
 10
63.03827711215057
 20
42.5179349138796
 30
0.0
  0
VERTEX
  5
1DD
330
1D9
100
AcDbEntity
  8
DIBUJOS
 62
     7
100
AcDbVertex
100
AcDb2dVertex
 10
63.03827711215057
 20
42.64098968418174
 30
0.0
  0
VERTEX
  5
1DE
330
1D9
100
AcDbEntity
  8
DIBUJOS
 62
     7
100
AcDbVertex
100
AcDb2dVertex
 10
62.91247793658034
 20
44.55364160565426
 30
0.0
  0
VERTEX
  5
1DF
330
1D9
100
AcDbEntity
  8
DIBUJOS
 62
     7
100
AcDbVertex
100
AcDb2dVertex
 10
62.90928540890651
 20
44.57072255139466
 30
0.0
  0
SEQEND
  5
1E0
330
1D9
100
AcDbEntity
  8
DIBUJOS
 62
     7
  0
POLYLINE
  5
1E1
330
52
100
AcDbEntity
  8
DIBUJOS
 62
     7
100
AcDb2dPolyline
 66
     1
 10
0.0
 20
0.0
 30
0.0
  0
VERTEX
  5
1E2
330
1E1
100
AcDbEntity
  8
DIBUJOS
 62
     7
100
AcDbVertex
100
AcDb2dVertex
 10
66.19576245496995
 20
42.50115506007916
 30
0.0
  0
VERTEX
  5
1E3
330
1E1
100
AcDbEntity
  8
DIBUJOS
 62
     7
100
AcDbVertex
100
AcDb2dVertex
 10
66.19015477633727
 20
42.50674784285965
 30
0.0
  0
SEQEND
  5
1E4
330
1E1
100
AcDbEntity
  8
DIBUJOS
 62
     7
  0
POLYLINE
  5
1E5
330
52
100
AcDbEntity
  8
DIBUJOS
 62
     7
100
AcDb2dPolyline
 66
     1
 10
0.0
 20
0.0
 30
0.0
  0
VERTEX
  5
1E6
330
1E5
100
AcDbEntity
  8
DIBUJOS
 62
     7
100
AcDbVertex
100
AcDb2dVertex
 10
66.20697932170462
 20
42.50115506007916
 30
0.0
  0
VERTEX
  5
1E7
330
1E5
100
AcDbEntity
  8
DIBUJOS
 62
     7
100
AcDbVertex
100
AcDb2dVertex
 10
66.19576245496995
 20
42.50115506007916
 30
0.0
  0
SEQEND
  5
1E8
330
1E5
100
AcDbEntity
  8
DIBUJOS
 62
     7
  0
POLYLINE
  5
1E9
330
52
100
AcDbEntity
  8
DIBUJOS
 62
     7
100
AcDb2dPolyline
 66
     1
 10
0.0
 20
0.0
 30
0.0
  0
VERTEX
  5
1EA
330
1E9
100
AcDbEntity
  8
DIBUJOS
 62
     7
100
AcDbVertex
100
AcDb2dVertex
 10
61.4903796921594
 20
42.48996798905922
 30
0.0
  0
VERTEX
  5
1EB
330
1E9
100
AcDbEntity
  8
DIBUJOS
 62
     7
100
AcDbVertex
100
AcDb2dVertex
 10
61.46794595869007
 20
42.50115506007916
 30
0.0
  0
VERTEX
  5
1EC
330
1E9
100
AcDbEntity
  8
DIBUJOS
 62
     7
100
AcDbVertex
100
AcDb2dVertex
 10
61.45310032763979
 20
42.52961577568092
 30
0.0
  0
VERTEX
  5
1ED
330
1E9
100
AcDbEntity
  8
DIBUJOS
 62
     7
100
AcDbVertex
100
AcDb2dVertex
 10
61.44335594825543
 20
42.5734382020466
 30
0.0
  0
VERTEX
  5
1EE
330
1E9
100
AcDbEntity
  8
DIBUJOS
 62
     7
100
AcDbVertex
100
AcDb2dVertex
 10
61.28567602529328
 20
46.72418931171168
 30
0.0
  0
VERTEX
  5
1EF
330
1E9
100
AcDbEntity
  8
DIBUJOS
 62
     7
100
AcDbVertex
100
AcDb2dVertex
 10
61.26043845250761
 20
47.55201751260564
 30
0.0
  0
SEQEND
  5
1F0
330
1E9
100
AcDbEntity
  8
DIBUJOS
 62
     7
  0
POLYLINE
  5
1F1
330
52
100
AcDbEntity
  8
DIBUJOS
 62
     7
100
AcDb2dPolyline
 66
     1
 10
0.0
 20
0.0
 30
0.0
  0
VERTEX
  5
1F2
330
1F1
100
AcDbEntity
  8
DIBUJOS
 62
     7
100
AcDbVertex
100
AcDb2dVertex
 10
67.73244300822678
 20
42.48996798905922
 30
0.0
  0
VERTEX
  5
1F3
330
1F1
100
AcDbEntity
  8
DIBUJOS
 62
     7
100
AcDbVertex
100
AcDb2dVertex
 10
67.73805068685947
 20
42.48996798905922
 30
0.0
  0
VERTEX
  5
1F4
330
1F1
100
AcDbEntity
  8
DIBUJOS
 62
     7
100
AcDbVertex
100
AcDb2dVertex
 10
67.77730896569615
 20
42.54030905591983
 30
0.0
  0
VERTEX
  5
1F5
330
1F1
100
AcDbEntity
  8
DIBUJOS
 62
     7
100
AcDbVertex
100
AcDb2dVertex
 10
67.77170128706315
 20
42.55149462148015
 30
0.0
  0
SEQEND
  5
1F6
330
1F1
100
AcDbEntity
  8
DIBUJOS
 62
     7
  0
POLYLINE
  5
1F7
330
52
100
AcDbEntity
  8
DIBUJOS
 62
     7
100
AcDb2dPolyline
 66
     1
 10
0.0
 20
0.0
 30
0.0
  0
VERTEX
  5
1F8
330
1F7
100
AcDbEntity
  8
DIBUJOS
 62
     7
100
AcDbVertex
100
AcDb2dVertex
 10
66.25184527917432
 20
42.47878091803894
 30
0.0
  0
VERTEX
  5
1F9
330
1F7
100
AcDbEntity
  8
DIBUJOS
 62
     7
100
AcDbVertex
100
AcDb2dVertex
 10
66.25184527917432
 20
42.48996798905922
 30
0.0
  0
SEQEND
  5
1FA
330
1F7
100
AcDbEntity
  8
DIBUJOS
 62
     7
  0
POLYLINE
  5
1FB
330
52
100
AcDbEntity
  8
DIBUJOS
 62
     7
100
AcDb2dPolyline
 66
     1
 10
0.0
 20
0.0
 30
0.0
  0
VERTEX
  5
1FC
330
1FB
100
AcDbEntity
  8
DIBUJOS
 62
     7
100
AcDbVertex
100
AcDb2dVertex
 10
66.25184527917432
 20
42.47318813525846
 30
0.0
  0
VERTEX
  5
1FD
330
1FB
100
AcDbEntity
  8
DIBUJOS
 62
     7
100
AcDbVertex
100
AcDb2dVertex
 10
66.24623760054098
 20
42.47318813525846
 30
0.0
  0
SEQEND
  5
1FE
330
1FB
100
AcDbEntity
  8
DIBUJOS
 62
     7
  0
POLYLINE
  5
1FF
330
52
100
AcDbEntity
  8
DIBUJOS
 62
     7
100
AcDb2dPolyline
 66
     1
 10
0.0
 20
0.0
 30
0.0
  0
VERTEX
  5
200
330
1FF
100
AcDbEntity
  8
DIBUJOS
 62
     7
100
AcDbVertex
100
AcDb2dVertex
 10
66.25184527917432
 20
42.47318813525846
 30
0.0
  0
VERTEX
  5
201
330
1FF
100
AcDbEntity
  8
DIBUJOS
 62
     7
100
AcDbVertex
100
AcDb2dVertex
 10
66.25184527917432
 20
42.47878091803894
 30
0.0
  0
SEQEND
  5
202
330
1FF
100
AcDbEntity
  8
DIBUJOS
 62
     7
  0
POLYLINE
  5
203
330
52
100
AcDbEntity
  8
DIBUJOS
 62
     7
100
AcDb2dPolyline
 66
     1
 10
0.0
 20
0.0
 30
0.0
  0
VERTEX
  5
204
330
203
100
AcDbEntity
  8
DIBUJOS
 62
     7
100
AcDbVertex
100
AcDb2dVertex
 10
66.25745446727565
 20
42.47318813525846
 30
0.0
  0
VERTEX
  5
205
330
203
100
AcDbEntity
  8
DIBUJOS
 62
     7
100
AcDbVertex
100
AcDb2dVertex
 10
66.25184527917432
 20
42.47318813525846
 30
0.0
  0
SEQEND
  5
206
330
203
100
AcDbEntity
  8
DIBUJOS
 62
     7
  0
POLYLINE
  5
207
330
52
100
AcDbEntity
  8
DIBUJOS
 62
     7
100
AcDb2dPolyline
 66
     1
 10
0.0
 20
0.0
 30
0.0
  0
VERTEX
  5
208
330
207
100
AcDbEntity
  8
DIBUJOS
 62
     7
100
AcDbVertex
100
AcDb2dVertex
 10
66.25745446727565
 20
42.47318813525846
 30
0.0
  0
VERTEX
  5
209
330
207
100
AcDbEntity
  8
DIBUJOS
 62
     7
100
AcDbVertex
100
AcDb2dVertex
 10
67.74925698730846
 20
42.47597323570159
 30
0.0
  0
VERTEX
  5
20A
330
207
100
AcDbEntity
  8
DIBUJOS
 62
     7
100
AcDbVertex
100
AcDb2dVertex
 10
67.79858191723555
 20
42.48726719435985
 30
0.0
  0
VERTEX
  5
20B
330
207
100
AcDbEntity
  8
DIBUJOS
 62
     7
100
AcDbVertex
100
AcDb2dVertex
 10
67.81182298236797
 20
42.49427059287736
 30
0.0
  0
VERTEX
  5
20C
330
207
100
AcDbEntity
  8
DIBUJOS
 62
     7
100
AcDbVertex
100
AcDb2dVertex
 10
67.83451483509556
 20
42.51737488287202
 30
0.0
  0
VERTEX
  5
20D
330
207
100
AcDbEntity
  8
DIBUJOS
 62
     7
100
AcDbVertex
100
AcDb2dVertex
 10
67.84768948357657
 20
42.57969188163474
 30
0.0
  0
VERTEX
  5
20E
330
207
100
AcDbEntity
  8
DIBUJOS
 62
     7
100
AcDbVertex
100
AcDb2dVertex
 10
67.85274620589645
 20
42.63516807152733
 30
0.0
  0
VERTEX
  5
20F
330
207
100
AcDbEntity
  8
DIBUJOS
 62
     7
100
AcDbVertex
100
AcDb2dVertex
 10
68.02678953133987
 20
47.30022937801812
 30
0.0
  0
VERTEX
  5
210
330
207
100
AcDbEntity
  8
DIBUJOS
 62
     7
100
AcDbVertex
100
AcDb2dVertex
 10
68.0409000508173
 20
47.73660192624862
 30
0.0
  0
VERTEX
  5
211
330
207
100
AcDbEntity
  8
DIBUJOS
 62
     7
100
AcDbVertex
100
AcDb2dVertex
 10
68.03225682932262
 20
48.10036916413554
 30
0.0
  0
VERTEX
  5
212
330
207
100
AcDbEntity
  8
DIBUJOS
 62
     7
100
AcDbVertex
100
AcDb2dVertex
 10
68.0159681455745
 20
48.27891367346795
 30
0.0
  0
VERTEX
  5
213
330
207
100
AcDbEntity
  8
DIBUJOS
 62
     7
100
AcDbVertex
100
AcDb2dVertex
 10
67.98254396577299
 20
48.50252261341716
 30
0.0
  0
VERTEX
  5
214
330
207
100
AcDbEntity
  8
DIBUJOS
 62
     7
100
AcDbVertex
100
AcDb2dVertex
 10
67.96406655146819
 20
48.5705814354707
 30
0.0
  0
VERTEX
  5
215
330
207
100
AcDbEntity
  8
DIBUJOS
 62
     7
100
AcDbVertex
100
AcDb2dVertex
 10
67.90500705370778
 20
48.72577626487789
 30
0.0
  0
VERTEX
  5
216
330
207
100
AcDbEntity
  8
DIBUJOS
 62
     7
100
AcDbVertex
100
AcDb2dVertex
 10
67.87394519343796
 20
48.77783807217396
 30
0.0
  0
VERTEX
  5
217
330
207
100
AcDbEntity
  8
DIBUJOS
 62
     7
100
AcDbVertex
100
AcDb2dVertex
 10
67.76474716177086
 20
48.94377285107102
 30
0.0
  0
VERTEX
  5
218
330
207
100
AcDbEntity
  8
DIBUJOS
 62
     7
100
AcDbVertex
100
AcDb2dVertex
 10
67.6552940297844
 20
49.08570759145297
 30
0.0
  0
VERTEX
  5
219
330
207
100
AcDbEntity
  8
DIBUJOS
 62
     7
100
AcDbVertex
100
AcDb2dVertex
 10
67.4394142518561
 20
49.33505387040938
 30
0.0
  0
VERTEX
  5
21A
330
207
100
AcDbEntity
  8
DIBUJOS
 62
     7
100
AcDbVertex
100
AcDb2dVertex
 10
67.16600255914847
 20
49.62717929216093
 30
0.0
  0
SEQEND
  5
21B
330
207
100
AcDbEntity
  8
DIBUJOS
 62
     7
  0
POLYLINE
  5
21C
330
52
100
AcDbEntity
  8
DIBUJOS
 62
     7
100
AcDb2dPolyline
 66
     1
 10
0.0
 20
0.0
 30
0.0
  0
VERTEX
  5
21D
330
21C
100
AcDbEntity
  8
DIBUJOS
 62
     7
100
AcDbVertex
100
AcDb2dVertex
 10
62.05121170787039
 20
49.62158500392082
 30
0.0
  0
VERTEX
  5
21E
330
21C
100
AcDbEntity
  8
DIBUJOS
 62
     7
100
AcDbVertex
100
AcDb2dVertex
 10
61.96287831628408
 20
49.5307756749024
 30
0.0
  0
VERTEX
  5
21F
330
21C
100
AcDbEntity
  8
DIBUJOS
 62
     7
100
AcDbVertex
100
AcDb2dVertex
 10
61.66002140498012
 20
49.20084213828128
 30
0.0
  0
VERTEX
  5
220
330
21C
100
AcDbEntity
  8
DIBUJOS
 62
     7
100
AcDbVertex
100
AcDb2dVertex
 10
61.45246710524768
 20
48.9381815737505
 30
0.0
  0
VERTEX
  5
221
330
21C
100
AcDbEntity
  8
DIBUJOS
 62
     7
100
AcDbVertex
100
AcDb2dVertex
 10
61.3851153376168
 20
48.84323825239987
 30
0.0
  0
VERTEX
  5
222
330
21C
100
AcDbEntity
  8
DIBUJOS
 62
     7
100
AcDbVertex
100
AcDb2dVertex
 10
61.29857519561724
 20
48.68244913475256
 30
0.0
  0
VERTEX
  5
223
330
21C
100
AcDbEntity
  8
DIBUJOS
 62
     7
100
AcDbVertex
100
AcDb2dVertex
 10
61.25875539418303
 20
48.57617271279122
 30
0.0
  0
VERTEX
  5
224
330
21C
100
AcDbEntity
  8
DIBUJOS
 62
     7
100
AcDbVertex
100
AcDb2dVertex
 10
61.22345343451087
 20
48.41302604525625
 30
0.0
  0
VERTEX
  5
225
330
21C
100
AcDbEntity
  8
DIBUJOS
 62
     7
100
AcDbVertex
100
AcDb2dVertex
 10
61.21321621338402
 20
48.34662021795199
 30
0.0
  0
VERTEX
  5
226
330
21C
100
AcDbEntity
  8
DIBUJOS
 62
     7
100
AcDbVertex
100
AcDb2dVertex
 10
61.19023076886756
 20
48.10007710495402
 30
0.0
  0
VERTEX
  5
227
330
21C
100
AcDbEntity
  8
DIBUJOS
 62
     7
100
AcDbVertex
100
AcDb2dVertex
 10
61.18482988753592
 20
47.94924810867289
 30
0.0
  0
VERTEX
  5
228
330
21C
100
AcDbEntity
  8
DIBUJOS
 62
     7
100
AcDbVertex
100
AcDb2dVertex
 10
61.18192189483425
 20
47.70303920772817
 30
0.0
  0
VERTEX
  5
229
330
21C
100
AcDbEntity
  8
DIBUJOS
 62
     7
100
AcDbVertex
100
AcDb2dVertex
 10
61.36434730357455
 20
42.73034624459108
 30
0.0
  0
VERTEX
  5
22A
330
21C
100
AcDbEntity
  8
DIBUJOS
 62
     7
100
AcDbVertex
100
AcDb2dVertex
 10
61.36964554099015
 20
42.62994262091368
 30
0.0
  0
VERTEX
  5
22B
330
21C
100
AcDbEntity
  8
DIBUJOS
 62
     7
100
AcDbVertex
100
AcDb2dVertex
 10
61.38056881593658
 20
42.53505048519258
 30
0.0
  0
VERTEX
  5
22C
330
21C
100
AcDbEntity
  8
DIBUJOS
 62
     7
100
AcDbVertex
100
AcDb2dVertex
 10
61.38213866406041
 20
42.52856195389165
 30
0.0
  0
VERTEX
  5
22D
330
21C
100
AcDbEntity
  8
DIBUJOS
 62
     7
100
AcDbVertex
100
AcDb2dVertex
 10
61.3838209676497
 20
42.5179349138796
 30
0.0
  0
VERTEX
  5
22E
330
21C
100
AcDbEntity
  8
DIBUJOS
 62
     7
100
AcDbVertex
100
AcDb2dVertex
 10
61.41186313448572
 20
42.48996798905922
 30
0.0
  0
VERTEX
  5
22F
330
21C
100
AcDbEntity
  8
DIBUJOS
 62
     7
100
AcDbVertex
100
AcDb2dVertex
 10
61.44028342339482
 20
42.48104814034494
 30
0.0
  0
VERTEX
  5
230
330
21C
100
AcDbEntity
  8
DIBUJOS
 62
     7
100
AcDbVertex
100
AcDb2dVertex
 10
61.46756708188331
 20
42.47651369573262
 30
0.0
  0
VERTEX
  5
231
330
21C
100
AcDbEntity
  8
DIBUJOS
 62
     7
100
AcDbVertex
100
AcDb2dVertex
 10
65.22552235079176
 20
42.47039099113888
 30
0.0
  0
VERTEX
  5
232
330
21C
100
AcDbEntity
  8
DIBUJOS
 62
     7
100
AcDbVertex
100
AcDb2dVertex
 10
66.24623760054098
 20
42.47318813525846
 30
0.0
  0
SEQEND
  5
233
330
21C
100
AcDbEntity
  8
DIBUJOS
 62
     7
  0
ENDBLK
  5
55
330
52
100
AcDbEntity
  8
0
100
AcDbBlockEnd
  0
BLOCK
  5
236
330
234
100
AcDbEntity
  8
0
100
AcDbBlockBegin
  2
BLOCK_3
 70
     0
 10
0.0
 20
0.0
 30
0.0
  3
BLOCK_3
  1

  0
POLYLINE
  5
238
330
234
100
AcDbEntity
  8
DIBUJOS
 62
     7
100
AcDb2dPolyline
 66
     1
 10
0.0
 20
0.0
 30
0.0
  0
VERTEX
  5
239
330
238
100
AcDbEntity
  8
DIBUJOS
 62
     7
100
AcDbVertex
100
AcDb2dVertex
 10
80.64964755042222
 20
49.67751885356191
 30
0.0
  0
VERTEX
  5
23A
330
238
100
AcDbEntity
  8
DIBUJOS
 62
     7
100
AcDbVertex
100
AcDb2dVertex
 10
80.52065433770886
 20
49.76701542172314
 30
0.0
  0
SEQEND
  5
23B
330
238
100
AcDbEntity
  8
DIBUJOS
 62
     7
  0
POLYLINE
  5
23C
330
234
100
AcDbEntity
  8
DIBUJOS
 62
     7
100
AcDb2dPolyline
 66
     1
 10
0.0
 20
0.0
 30
0.0
  0
VERTEX
  5
23D
330
23C
100
AcDbEntity
  8
DIBUJOS
 62
     7
100
AcDbVertex
100
AcDb2dVertex
 10
80.65525371958562
 20
49.67192456532212
 30
0.0
  0
VERTEX
  5
23E
330
23C
100
AcDbEntity
  8
DIBUJOS
 62
     7
100
AcDbVertex
100
AcDb2dVertex
 10
80.64964755042222
 20
49.67751885356191
 30
0.0
  0
SEQEND
  5
23F
330
23C
100
AcDbEntity
  8
DIBUJOS
 62
     7
  0
POLYLINE
  5
240
330
234
100
AcDbEntity
  8
DIBUJOS
 62
     7
100
AcDb2dPolyline
 66
     1
 10
0.0
 20
0.0
 30
0.0
  0
VERTEX
  5
241
330
240
100
AcDbEntity
  8
DIBUJOS
 62
     7
100
AcDbVertex
100
AcDb2dVertex
 10
80.65525371958562
 20
49.67192456532212
 30
0.0
  0
VERTEX
  5
242
330
240
100
AcDbEntity
  8
DIBUJOS
 62
     7
100
AcDbVertex
100
AcDb2dVertex
 10
80.66086290768759
 20
49.67751885356191
 30
0.0
  0
VERTEX
  5
243
330
240
100
AcDbEntity
  8
DIBUJOS
 62
     7
100
AcDbVertex
100
AcDb2dVertex
 10
80.65525371958562
 20
49.68311314180171
 30
0.0
  0
VERTEX
  5
244
330
240
100
AcDbEntity
  8
DIBUJOS
 62
     7
100
AcDbVertex
100
AcDb2dVertex
 10
80.64964755042222
 20
49.67751885356191
 30
0.0
  0
SEQEND
  5
245
330
240
100
AcDbEntity
  8
DIBUJOS
 62
     7
  0
POLYLINE
  5
246
330
234
100
AcDbEntity
  8
DIBUJOS
 62
     7
100
AcDb2dPolyline
 66
     1
 10
0.0
 20
0.0
 30
0.0
  0
VERTEX
  5
247
330
246
100
AcDbEntity
  8
DIBUJOS
 62
     7
100
AcDbVertex
100
AcDb2dVertex
 10
80.6945119984223
 20
49.63836485772125
 30
0.0
  0
VERTEX
  5
248
330
246
100
AcDbEntity
  8
DIBUJOS
 62
     7
100
AcDbVertex
100
AcDb2dVertex
 10
80.6899141547839
 20
49.63970772777243
 30
0.0
  0
VERTEX
  5
249
330
246
100
AcDbEntity
  8
DIBUJOS
 62
     7
100
AcDbVertex
100
AcDb2dVertex
 10
80.65525371958562
 20
49.6663332880016
 30
0.0
  0
VERTEX
  5
24A
330
246
100
AcDbEntity
  8
DIBUJOS
 62
     7
100
AcDbVertex
100
AcDb2dVertex
 10
80.65525371958562
 20
49.67192456532212
 30
0.0
  0
SEQEND
  5
24B
330
246
100
AcDbEntity
  8
DIBUJOS
 62
     7
  0
POLYLINE
  5
24C
330
234
100
AcDbEntity
  8
DIBUJOS
 62
     7
100
AcDb2dPolyline
 66
     1
 10
0.0
 20
0.0
 30
0.0
  0
VERTEX
  5
24D
330
24C
100
AcDbEntity
  8
DIBUJOS
 62
     7
100
AcDbVertex
100
AcDb2dVertex
 10
80.70012118652427
 20
49.63836485772125
 30
0.0
  0
VERTEX
  5
24E
330
24C
100
AcDbEntity
  8
DIBUJOS
 62
     7
100
AcDbVertex
100
AcDb2dVertex
 10
80.6945119984223
 20
49.63836485772125
 30
0.0
  0
SEQEND
  5
24F
330
24C
100
AcDbEntity
  8
DIBUJOS
 62
     7
  0
POLYLINE
  5
250
330
234
100
AcDbEntity
  8
DIBUJOS
 62
     7
100
AcDb2dPolyline
 66
     1
 10
0.0
 20
0.0
 30
0.0
  0
VERTEX
  5
251
330
250
100
AcDbEntity
  8
DIBUJOS
 62
     7
100
AcDbVertex
100
AcDb2dVertex
 10
80.70012118652427
 20
49.63836485772125
 30
0.0
  0
VERTEX
  5
252
330
250
100
AcDbEntity
  8
DIBUJOS
 62
     7
100
AcDbVertex
100
AcDb2dVertex
 10
80.70012118652427
 20
49.64395914596105
 30
0.0
  0
SEQEND
  5
253
330
250
100
AcDbEntity
  8
DIBUJOS
 62
     7
  0
POLYLINE
  5
254
330
234
100
AcDbEntity
  8
DIBUJOS
 62
     7
100
AcDb2dPolyline
 66
     1
 10
0.0
 20
0.0
 30
0.0
  0
VERTEX
  5
255
330
254
100
AcDbEntity
  8
DIBUJOS
 62
     7
100
AcDbVertex
100
AcDb2dVertex
 10
80.70012118652427
 20
49.63277056948146
 30
0.0
  0
VERTEX
  5
256
330
254
100
AcDbEntity
  8
DIBUJOS
 62
     7
100
AcDbVertex
100
AcDb2dVertex
 10
80.70012118652427
 20
49.63836485772125
 30
0.0
  0
SEQEND
  5
257
330
254
100
AcDbEntity
  8
DIBUJOS
 62
     7
  0
POLYLINE
  5
258
330
234
100
AcDbEntity
  8
DIBUJOS
 62
     7
100
AcDb2dPolyline
 66
     1
 10
0.0
 20
0.0
 30
0.0
  0
VERTEX
  5
259
330
258
100
AcDbEntity
  8
DIBUJOS
 62
     7
100
AcDbVertex
100
AcDb2dVertex
 10
80.83472056840102
 20
49.62717929216093
 30
0.0
  0
VERTEX
  5
25A
330
258
100
AcDbEntity
  8
DIBUJOS
 62
     7
100
AcDbVertex
100
AcDb2dVertex
 10
80.82406371479492
 20
49.62885637426503
 30
0.0
  0
VERTEX
  5
25B
330
258
100
AcDbEntity
  8
DIBUJOS
 62
     7
100
AcDbVertex
100
AcDb2dVertex
 10
80.74498865346229
 20
49.64955042328157
 30
0.0
  0
VERTEX
  5
25C
330
258
100
AcDbEntity
  8
DIBUJOS
 62
     7
100
AcDbVertex
100
AcDb2dVertex
 10
80.70573037462626
 20
49.64955042328157
 30
0.0
  0
VERTEX
  5
25D
330
258
100
AcDbEntity
  8
DIBUJOS
 62
     7
100
AcDbVertex
100
AcDb2dVertex
 10
80.70012118652427
 20
49.64395914596105
 30
0.0
  0
SEQEND
  5
25E
330
258
100
AcDbEntity
  8
DIBUJOS
 62
     7
  0
POLYLINE
  5
25F
330
234
100
AcDbEntity
  8
DIBUJOS
 62
     7
100
AcDb2dPolyline
 66
     1
 10
0.0
 20
0.0
 30
0.0
  0
VERTEX
  5
260
330
25F
100
AcDbEntity
  8
DIBUJOS
 62
     7
100
AcDbVertex
100
AcDb2dVertex
 10
81.12635306562386
 20
49.51530858195915
 30
0.0
  0
VERTEX
  5
261
330
25F
100
AcDbEntity
  8
DIBUJOS
 62
     7
100
AcDbVertex
100
AcDb2dVertex
 10
81.13196225372585
 20
49.52090287019927
 30
0.0
  0
SEQEND
  5
262
330
25F
100
AcDbEntity
  8
DIBUJOS
 62
     7
  0
POLYLINE
  5
263
330
234
100
AcDbEntity
  8
DIBUJOS
 62
     7
100
AcDb2dPolyline
 66
     1
 10
0.0
 20
0.0
 30
0.0
  0
VERTEX
  5
264
330
263
100
AcDbEntity
  8
DIBUJOS
 62
     7
100
AcDbVertex
100
AcDb2dVertex
 10
81.13757144182782
 20
49.51530858195915
 30
0.0
  0
VERTEX
  5
265
330
263
100
AcDbEntity
  8
DIBUJOS
 62
     7
100
AcDbVertex
100
AcDb2dVertex
 10
81.13196225372585
 20
49.52090287019927
 30
0.0
  0
SEQEND
  5
266
330
263
100
AcDbEntity
  8
DIBUJOS
 62
     7
  0
POLYLINE
  5
267
330
234
100
AcDbEntity
  8
DIBUJOS
 62
     7
100
AcDb2dPolyline
 66
     1
 10
0.0
 20
0.0
 30
0.0
  0
VERTEX
  5
268
330
267
100
AcDbEntity
  8
DIBUJOS
 62
     7
100
AcDbVertex
100
AcDb2dVertex
 10
81.04222731984852
 20
49.54887130047961
 30
0.0
  0
VERTEX
  5
269
330
267
100
AcDbEntity
  8
DIBUJOS
 62
     7
100
AcDbVertex
100
AcDb2dVertex
 10
81.04697309148267
 20
49.54757961605797
 30
0.0
  0
VERTEX
  5
26A
330
267
100
AcDbEntity
  8
DIBUJOS
 62
     7
100
AcDbVertex
100
AcDb2dVertex
 10
81.12074387752189
 20
49.51251444875885
 30
0.0
  0
VERTEX
  5
26B
330
267
100
AcDbEntity
  8
DIBUJOS
 62
     7
100
AcDbVertex
100
AcDb2dVertex
 10
81.12635306562386
 20
49.51530858195915
 30
0.0
  0
SEQEND
  5
26C
330
267
100
AcDbEntity
  8
DIBUJOS
 62
     7
  0
POLYLINE
  5
26D
330
234
100
AcDbEntity
  8
DIBUJOS
 62
     7
100
AcDb2dPolyline
 66
     1
 10
0.0
 20
0.0
 30
0.0
  0
VERTEX
  5
26E
330
26D
100
AcDbEntity
  8
DIBUJOS
 62
     7
100
AcDbVertex
100
AcDb2dVertex
 10
81.13196225372585
 20
49.50971730463863
 30
0.0
  0
VERTEX
  5
26F
330
26D
100
AcDbEntity
  8
DIBUJOS
 62
     7
100
AcDbVertex
100
AcDb2dVertex
 10
81.12635306562386
 20
49.51530858195915
 30
0.0
  0
SEQEND
  5
270
330
26D
100
AcDbEntity
  8
DIBUJOS
 62
     7
  0
POLYLINE
  5
271
330
234
100
AcDbEntity
  8
DIBUJOS
 62
     7
100
AcDb2dPolyline
 66
     1
 10
0.0
 20
0.0
 30
0.0
  0
VERTEX
  5
272
330
271
100
AcDbEntity
  8
DIBUJOS
 62
     7
100
AcDbVertex
100
AcDb2dVertex
 10
81.13196225372585
 20
49.50971730463863
 30
0.0
  0
VERTEX
  5
273
330
271
100
AcDbEntity
  8
DIBUJOS
 62
     7
100
AcDbVertex
100
AcDb2dVertex
 10
81.13757144182782
 20
49.51530858195915
 30
0.0
  0
SEQEND
  5
274
330
271
100
AcDbEntity
  8
DIBUJOS
 62
     7
  0
POLYLINE
  5
275
330
234
100
AcDbEntity
  8
DIBUJOS
 62
     7
100
AcDb2dPolyline
 66
     1
 10
0.0
 20
0.0
 30
0.0
  0
VERTEX
  5
276
330
275
100
AcDbEntity
  8
DIBUJOS
 62
     7
100
AcDbVertex
100
AcDb2dVertex
 10
81.13196225372585
 20
49.50412301639884
 30
0.0
  0
VERTEX
  5
277
330
275
100
AcDbEntity
  8
DIBUJOS
 62
     7
100
AcDbVertex
100
AcDb2dVertex
 10
81.13196225372585
 20
49.50971730463863
 30
0.0
  0
SEQEND
  5
278
330
275
100
AcDbEntity
  8
DIBUJOS
 62
     7
  0
POLYLINE
  5
279
330
234
100
AcDbEntity
  8
DIBUJOS
 62
     7
100
AcDb2dPolyline
 66
     1
 10
0.0
 20
0.0
 30
0.0
  0
VERTEX
  5
27A
330
279
100
AcDbEntity
  8
DIBUJOS
 62
     7
100
AcDbVertex
100
AcDb2dVertex
 10
81.14878679909319
 20
49.50412301639884
 30
0.0
  0
VERTEX
  5
27B
330
279
100
AcDbEntity
  8
DIBUJOS
 62
     7
100
AcDbVertex
100
AcDb2dVertex
 10
81.14878679909319
 20
49.50971730463863
 30
0.0
  0
VERTEX
  5
27C
330
279
100
AcDbEntity
  8
DIBUJOS
 62
     7
100
AcDbVertex
100
AcDb2dVertex
 10
81.13757144182782
 20
49.51530858195915
 30
0.0
  0
SEQEND
  5
27D
330
279
100
AcDbEntity
  8
DIBUJOS
 62
     7
  0
POLYLINE
  5
27E
330
234
100
AcDbEntity
  8
DIBUJOS
 62
     7
100
AcDb2dPolyline
 66
     1
 10
0.0
 20
0.0
 30
0.0
  0
VERTEX
  5
27F
330
27E
100
AcDbEntity
  8
DIBUJOS
 62
     7
100
AcDbVertex
100
AcDb2dVertex
 10
81.13757144182782
 20
49.49852872815904
 30
0.0
  0
VERTEX
  5
280
330
27E
100
AcDbEntity
  8
DIBUJOS
 62
     7
100
AcDbVertex
100
AcDb2dVertex
 10
81.13196225372585
 20
49.50412301639884
 30
0.0
  0
SEQEND
  5
281
330
27E
100
AcDbEntity
  8
DIBUJOS
 62
     7
  0
POLYLINE
  5
282
330
234
100
AcDbEntity
  8
DIBUJOS
 62
     7
100
AcDb2dPolyline
 66
     1
 10
0.0
 20
0.0
 30
0.0
  0
VERTEX
  5
283
330
282
100
AcDbEntity
  8
DIBUJOS
 62
     7
100
AcDbVertex
100
AcDb2dVertex
 10
81.14317761099122
 20
49.49852872815904
 30
0.0
  0
VERTEX
  5
284
330
282
100
AcDbEntity
  8
DIBUJOS
 62
     7
100
AcDbVertex
100
AcDb2dVertex
 10
81.13757144182782
 20
49.49852872815904
 30
0.0
  0
SEQEND
  5
285
330
282
100
AcDbEntity
  8
DIBUJOS
 62
     7
  0
POLYLINE
  5
286
330
234
100
AcDbEntity
  8
DIBUJOS
 62
     7
100
AcDb2dPolyline
 66
     1
 10
0.0
 20
0.0
 30
0.0
  0
VERTEX
  5
287
330
286
100
AcDbEntity
  8
DIBUJOS
 62
     7
100
AcDbVertex
100
AcDb2dVertex
 10
81.14878679909319
 20
49.49852872815904
 30
0.0
  0
VERTEX
  5
288
330
286
100
AcDbEntity
  8
DIBUJOS
 62
     7
100
AcDbVertex
100
AcDb2dVertex
 10
81.14317761099122
 20
49.49852872815904
 30
0.0
  0
SEQEND
  5
289
330
286
100
AcDbEntity
  8
DIBUJOS
 62
     7
  0
POLYLINE
  5
28A
330
234
100
AcDbEntity
  8
DIBUJOS
 62
     7
100
AcDb2dPolyline
 66
     1
 10
0.0
 20
0.0
 30
0.0
  0
VERTEX
  5
28B
330
28A
100
AcDbEntity
  8
DIBUJOS
 62
     7
100
AcDbVertex
100
AcDb2dVertex
 10
81.14878679909319
 20
49.49852872815904
 30
0.0
  0
VERTEX
  5
28C
330
28A
100
AcDbEntity
  8
DIBUJOS
 62
     7
100
AcDbVertex
100
AcDb2dVertex
 10
81.14878679909319
 20
49.50412301639884
 30
0.0
  0
SEQEND
  5
28D
330
28A
100
AcDbEntity
  8
DIBUJOS
 62
     7
  0
POLYLINE
  5
28E
330
234
100
AcDbEntity
  8
DIBUJOS
 62
     7
100
AcDb2dPolyline
 66
     1
 10
0.0
 20
0.0
 30
0.0
  0
VERTEX
  5
28F
330
28E
100
AcDbEntity
  8
DIBUJOS
 62
     7
100
AcDbVertex
100
AcDb2dVertex
 10
81.15439598719517
 20
49.49852872815904
 30
0.0
  0
VERTEX
  5
290
330
28E
100
AcDbEntity
  8
DIBUJOS
 62
     7
100
AcDbVertex
100
AcDb2dVertex
 10
81.14878679909319
 20
49.49852872815904
 30
0.0
  0
SEQEND
  5
291
330
28E
100
AcDbEntity
  8
DIBUJOS
 62
     7
  0
POLYLINE
  5
292
330
234
100
AcDbEntity
  8
DIBUJOS
 62
     7
100
AcDb2dPolyline
 66
     1
 10
0.0
 20
0.0
 30
0.0
  0
VERTEX
  5
293
330
292
100
AcDbEntity
  8
DIBUJOS
 62
     7
100
AcDbVertex
100
AcDb2dVertex
 10
81.03662115068576
 20
49.42581502471752
 30
0.0
  0
VERTEX
  5
294
330
292
100
AcDbEntity
  8
DIBUJOS
 62
     7
100
AcDbVertex
100
AcDb2dVertex
 10
80.71795405741663
 20
49.6173335857322
 30
0.0
  0
VERTEX
  5
295
330
292
100
AcDbEntity
  8
DIBUJOS
 62
     7
100
AcDbVertex
100
AcDb2dVertex
 10
80.70012118652427
 20
49.63277056948146
 30
0.0
  0
SEQEND
  5
296
330
292
100
AcDbEntity
  8
DIBUJOS
 62
     7
  0
POLYLINE
  5
297
330
234
100
AcDbEntity
  8
DIBUJOS
 62
     7
100
AcDb2dPolyline
 66
     1
 10
0.0
 20
0.0
 30
0.0
  0
VERTEX
  5
298
330
297
100
AcDbEntity
  8
DIBUJOS
 62
     7
100
AcDbVertex
100
AcDb2dVertex
 10
81.10391933215453
 20
49.39225531711666
 30
0.0
  0
VERTEX
  5
299
330
297
100
AcDbEntity
  8
DIBUJOS
 62
     7
100
AcDbVertex
100
AcDb2dVertex
 10
81.04783650795049
 20
49.4202207364774
 30
0.0
  0
SEQEND
  5
29A
330
297
100
AcDbEntity
  8
DIBUJOS
 62
     7
  0
POLYLINE
  5
29B
330
234
100
AcDbEntity
  8
DIBUJOS
 62
     7
100
AcDb2dPolyline
 66
     1
 10
0.0
 20
0.0
 30
0.0
  0
VERTEX
  5
29C
330
29B
100
AcDbEntity
  8
DIBUJOS
 62
     7
100
AcDbVertex
100
AcDb2dVertex
 10
81.23291254486789
 20
49.33072717923609
 30
0.0
  0
VERTEX
  5
29D
330
29B
100
AcDbEntity
  8
DIBUJOS
 62
     7
100
AcDbVertex
100
AcDb2dVertex
 10
81.21047881139856
 20
49.3419127447964
 30
0.0
  0
SEQEND
  5
29E
330
29B
100
AcDbEntity
  8
DIBUJOS
 62
     7
  0
POLYLINE
  5
29F
330
234
100
AcDbEntity
  8
DIBUJOS
 62
     7
100
AcDb2dPolyline
 66
     1
 10
0.0
 20
0.0
 30
0.0
  0
VERTEX
  5
2A0
330
29F
100
AcDbEntity
  8
DIBUJOS
 62
     7
100
AcDbVertex
100
AcDb2dVertex
 10
81.26656163560259
 20
49.31394732543566
 30
0.0
  0
VERTEX
  5
2A1
330
29F
100
AcDbEntity
  8
DIBUJOS
 62
     7
100
AcDbVertex
100
AcDb2dVertex
 10
81.24412790213326
 20
49.32513289099597
 30
0.0
  0
SEQEND
  5
2A2
330
29F
100
AcDbEntity
  8
DIBUJOS
 62
     7
  0
POLYLINE
  5
2A3
330
234
100
AcDbEntity
  8
DIBUJOS
 62
     7
100
AcDb2dPolyline
 66
     1
 10
0.0
 20
0.0
 30
0.0
  0
VERTEX
  5
2A4
330
2A3
100
AcDbEntity
  8
DIBUJOS
 62
     7
100
AcDbVertex
100
AcDb2dVertex
 10
81.3002107263373
 20
49.2971674716349
 30
0.0
  0
VERTEX
  5
2A5
330
2A3
100
AcDbEntity
  8
DIBUJOS
 62
     7
100
AcDbVertex
100
AcDb2dVertex
 10
81.27777699286797
 20
49.30835303719554
 30
0.0
  0
SEQEND
  5
2A6
330
2A3
100
AcDbEntity
  8
DIBUJOS
 62
     7
  0
POLYLINE
  5
2A7
330
234
100
AcDbEntity
  8
DIBUJOS
 62
     7
100
AcDb2dPolyline
 66
     1
 10
0.0
 20
0.0
 30
0.0
  0
VERTEX
  5
2A8
330
2A7
100
AcDbEntity
  8
DIBUJOS
 62
     7
100
AcDbVertex
100
AcDb2dVertex
 10
86.86927713302092
 20
46.06975995890005
 30
0.0
  0
VERTEX
  5
2A9
330
2A7
100
AcDbEntity
  8
DIBUJOS
 62
     7
100
AcDbVertex
100
AcDb2dVertex
 10
86.86927713302092
 20
46.0977253782608
 30
0.0
  0
SEQEND
  5
2AA
330
2A7
100
AcDbEntity
  8
DIBUJOS
 62
     7
  0
POLYLINE
  5
2AB
330
234
100
AcDbEntity
  8
DIBUJOS
 62
     7
100
AcDb2dPolyline
 66
     1
 10
0.0
 20
0.0
 30
0.0
  0
VERTEX
  5
2AC
330
2AB
100
AcDbEntity
  8
DIBUJOS
 62
     7
100
AcDbVertex
100
AcDb2dVertex
 10
86.86927713302092
 20
45.9690778251785
 30
0.0
  0
VERTEX
  5
2AD
330
2AB
100
AcDbEntity
  8
DIBUJOS
 62
     7
100
AcDbVertex
100
AcDb2dVertex
 10
86.86700387218033
 20
46.03098232798403
 30
0.0
  0
VERTEX
  5
2AE
330
2AB
100
AcDbEntity
  8
DIBUJOS
 62
     7
100
AcDbVertex
100
AcDb2dVertex
 10
86.86927713302092
 20
46.05857439333973
 30
0.0
  0
SEQEND
  5
2AF
330
2AB
100
AcDbEntity
  8
DIBUJOS
 62
     7
  0
POLYLINE
  5
2B0
330
234
100
AcDbEntity
  8
DIBUJOS
 62
     7
100
AcDb2dPolyline
 66
     1
 10
0.0
 20
0.0
 30
0.0
  0
VERTEX
  5
2B1
330
2B0
100
AcDbEntity
  8
DIBUJOS
 62
     7
100
AcDbVertex
100
AcDb2dVertex
 10
86.86366794491829
 20
45.93551811757796
 30
0.0
  0
VERTEX
  5
2B2
330
2B0
100
AcDbEntity
  8
DIBUJOS
 62
     7
100
AcDbVertex
100
AcDb2dVertex
 10
86.86927713302092
 20
45.95229797137839
 30
0.0
  0
SEQEND
  5
2B3
330
2B0
100
AcDbEntity
  8
DIBUJOS
 62
     7
  0
POLYLINE
  5
2B4
330
234
100
AcDbEntity
  8
DIBUJOS
 62
     7
100
AcDb2dPolyline
 66
     1
 10
0.0
 20
0.0
 30
0.0
  0
VERTEX
  5
2B5
330
2B4
100
AcDbEntity
  8
DIBUJOS
 62
     7
100
AcDbVertex
100
AcDb2dVertex
 10
86.86927713302092
 20
45.79008769977563
 30
0.0
  0
VERTEX
  5
2B6
330
2B4
100
AcDbEntity
  8
DIBUJOS
 62
     7
100
AcDbVertex
100
AcDb2dVertex
 10
86.86366794491829
 20
45.92432954109805
 30
0.0
  0
SEQEND
  5
2B7
330
2B4
100
AcDbEntity
  8
DIBUJOS
 62
     7
  0
POLYLINE
  5
2B8
330
234
100
AcDbEntity
  8
DIBUJOS
 62
     7
100
AcDb2dPolyline
 66
     1
 10
0.0
 20
0.0
 30
0.0
  0
VERTEX
  5
2B9
330
2B8
100
AcDbEntity
  8
DIBUJOS
 62
     7
100
AcDbVertex
100
AcDb2dVertex
 10
86.86927713302092
 20
45.76212228041489
 30
0.0
  0
VERTEX
  5
2BA
330
2B8
100
AcDbEntity
  8
DIBUJOS
 62
     7
100
AcDbVertex
100
AcDb2dVertex
 10
86.86927713302092
 20
45.7733078459752
 30
0.0
  0
SEQEND
  5
2BB
330
2B8
100
AcDbEntity
  8
DIBUJOS
 62
     7
  0
POLYLINE
  5
2BC
330
234
100
AcDbEntity
  8
DIBUJOS
 62
     7
100
AcDb2dPolyline
 66
     1
 10
0.0
 20
0.0
 30
0.0
  0
VERTEX
  5
2BD
330
2BC
100
AcDbEntity
  8
DIBUJOS
 62
     7
100
AcDbVertex
100
AcDb2dVertex
 10
86.86366794491829
 20
45.63906600465311
 30
0.0
  0
VERTEX
  5
2BE
330
2BC
100
AcDbEntity
  8
DIBUJOS
 62
     7
100
AcDbVertex
100
AcDb2dVertex
 10
86.86927713302092
 20
45.64466029289291
 30
0.0
  0
VERTEX
  5
2BF
330
2BC
100
AcDbEntity
  8
DIBUJOS
 62
     7
100
AcDbVertex
100
AcDb2dVertex
 10
86.86927713302092
 20
45.74534242661446
 30
0.0
  0
SEQEND
  5
2C0
330
2BC
100
AcDbEntity
  8
DIBUJOS
 62
     7
  0
POLYLINE
  5
2C1
330
234
100
AcDbEntity
  8
DIBUJOS
 62
     7
100
AcDb2dPolyline
 66
     1
 10
0.0
 20
0.0
 30
0.0
  0
VERTEX
  5
2C2
330
2C1
100
AcDbEntity
  8
DIBUJOS
 62
     7
100
AcDbVertex
100
AcDb2dVertex
 10
86.86366794491829
 20
45.58872644325182
 30
0.0
  0
VERTEX
  5
2C3
330
2C1
100
AcDbEntity
  8
DIBUJOS
 62
     7
100
AcDbVertex
100
AcDb2dVertex
 10
86.8664725389696
 20
45.59431772057233
 30
0.0
  0
VERTEX
  5
2C4
330
2C1
100
AcDbEntity
  8
DIBUJOS
 62
     7
100
AcDbVertex
100
AcDb2dVertex
 10
86.86927713302092
 20
45.62228615085236
 30
0.0
  0
VERTEX
  5
2C5
330
2C1
100
AcDbEntity
  8
DIBUJOS
 62
     7
100
AcDbVertex
100
AcDb2dVertex
 10
86.86366794491829
 20
45.62788043909247
 30
0.0
  0
SEQEND
  5
2C6
330
2C1
100
AcDbEntity
  8
DIBUJOS
 62
     7
  0
POLYLINE
  5
2C7
330
234
100
AcDbEntity
  8
DIBUJOS
 62
     7
100
AcDb2dPolyline
 66
     1
 10
0.0
 20
0.0
 30
0.0
  0
VERTEX
  5
2C8
330
2C7
100
AcDbEntity
  8
DIBUJOS
 62
     7
100
AcDbVertex
100
AcDb2dVertex
 10
86.86927713302092
 20
45.4377017372097
 30
0.0
  0
VERTEX
  5
2C9
330
2C7
100
AcDbEntity
  8
DIBUJOS
 62
     7
100
AcDbVertex
100
AcDb2dVertex
 10
86.86815408782458
 20
45.56691233221981
 30
0.0
  0
VERTEX
  5
2CA
330
2C7
100
AcDbEntity
  8
DIBUJOS
 62
     7
100
AcDbVertex
100
AcDb2dVertex
 10
86.86927713302092
 20
45.57194658945203
 30
0.0
  0
SEQEND
  5
2CB
330
2C7
100
AcDbEntity
  8
DIBUJOS
 62
     7
  0
POLYLINE
  5
2CC
330
234
100
AcDbEntity
  8
DIBUJOS
 62
     7
100
AcDb2dPolyline
 66
     1
 10
0.0
 20
0.0
 30
0.0
  0
VERTEX
  5
2CD
330
2CC
100
AcDbEntity
  8
DIBUJOS
 62
     7
100
AcDbVertex
100
AcDb2dVertex
 10
86.86927713302092
 20
45.24752604624619
 30
0.0
  0
VERTEX
  5
2CE
330
2CC
100
AcDbEntity
  8
DIBUJOS
 62
     7
100
AcDbVertex
100
AcDb2dVertex
 10
86.86366794491829
 20
45.42092188340926
 30
0.0
  0
VERTEX
  5
2CF
330
2CC
100
AcDbEntity
  8
DIBUJOS
 62
     7
100
AcDbVertex
100
AcDb2dVertex
 10
86.86927713302092
 20
45.42651617164938
 30
0.0
  0
SEQEND
  5
2D0
330
2CC
100
AcDbEntity
  8
DIBUJOS
 62
     7
  0
POLYLINE
  5
2D1
330
234
100
AcDbEntity
  8
DIBUJOS
 62
     7
100
AcDb2dPolyline
 66
     1
 10
0.0
 20
0.0
 30
0.0
  0
VERTEX
  5
2D2
330
2D1
100
AcDbEntity
  8
DIBUJOS
 62
     7
100
AcDbVertex
100
AcDb2dVertex
 10
86.86927713302092
 20
45.20837205040586
 30
0.0
  0
VERTEX
  5
2D3
330
2D1
100
AcDbEntity
  8
DIBUJOS
 62
     7
100
AcDbVertex
100
AcDb2dVertex
 10
86.86366794491829
 20
45.21396633864565
 30
0.0
  0
VERTEX
  5
2D4
330
2D1
100
AcDbEntity
  8
DIBUJOS
 62
     7
100
AcDbVertex
100
AcDb2dVertex
 10
86.86815408782458
 20
45.22571193521387
 30
0.0
  0
VERTEX
  5
2D5
330
2D1
100
AcDbEntity
  8
DIBUJOS
 62
     7
100
AcDbVertex
100
AcDb2dVertex
 10
86.86927713302092
 20
45.23074619244576
 30
0.0
  0
SEQEND
  5
2D6
330
2D1
100
AcDbEntity
  8
DIBUJOS
 62
     7
  0
POLYLINE
  5
2D7
330
234
100
AcDbEntity
  8
DIBUJOS
 62
     7
100
AcDb2dPolyline
 66
     1
 10
0.0
 20
0.0
 30
0.0
  0
VERTEX
  5
2D8
330
2D7
100
AcDbEntity
  8
DIBUJOS
 62
     7
100
AcDbVertex
100
AcDb2dVertex
 10
86.86927713302092
 20
45.09650435112335
 30
0.0
  0
VERTEX
  5
2D9
330
2D7
100
AcDbEntity
  8
DIBUJOS
 62
     7
100
AcDbVertex
100
AcDb2dVertex
 10
86.86927713302092
 20
45.1915921966051
 30
0.0
  0
VERTEX
  5
2DA
330
2D7
100
AcDbEntity
  8
DIBUJOS
 62
     7
100
AcDbVertex
100
AcDb2dVertex
 10
86.86366794491829
 20
45.19718648484522
 30
0.0
  0
SEQEND
  5
2DB
330
2D7
100
AcDbEntity
  8
DIBUJOS
 62
     7
  0
POLYLINE
  5
2DC
330
234
100
AcDbEntity
  8
DIBUJOS
 62
     7
100
AcDb2dPolyline
 66
     1
 10
0.0
 20
0.0
 30
0.0
  0
VERTEX
  5
2DD
330
2DC
100
AcDbEntity
  8
DIBUJOS
 62
     7
100
AcDbVertex
100
AcDb2dVertex
 10
86.86927713302092
 20
45.06853592084332
 30
0.0
  0
VERTEX
  5
2DE
330
2DC
100
AcDbEntity
  8
DIBUJOS
 62
     7
100
AcDbVertex
100
AcDb2dVertex
 10
86.86927713302092
 20
45.07972449732323
 30
0.0
  0
SEQEND
  5
2DF
330
2DC
100
AcDbEntity
  8
DIBUJOS
 62
     7
  0
POLYLINE
  5
2E0
330
234
100
AcDbEntity
  8
DIBUJOS
 62
     7
100
AcDb2dPolyline
 66
     1
 10
0.0
 20
0.0
 30
0.0
  0
VERTEX
  5
2E1
330
2E0
100
AcDbEntity
  8
DIBUJOS
 62
     7
100
AcDbVertex
100
AcDb2dVertex
 10
86.86927713302092
 20
45.04057050148258
 30
0.0
  0
VERTEX
  5
2E2
330
2E0
100
AcDbEntity
  8
DIBUJOS
 62
     7
100
AcDbVertex
100
AcDb2dVertex
 10
86.86366794491829
 20
45.04057050148258
 30
0.0
  0
SEQEND
  5
2E3
330
2E0
100
AcDbEntity
  8
DIBUJOS
 62
     7
  0
POLYLINE
  5
2E4
330
234
100
AcDbEntity
  8
DIBUJOS
 62
     7
100
AcDb2dPolyline
 66
     1
 10
0.0
 20
0.0
 30
0.0
  0
VERTEX
  5
2E5
330
2E4
100
AcDbEntity
  8
DIBUJOS
 62
     7
100
AcDbVertex
100
AcDb2dVertex
 10
86.86927713302092
 20
44.99022792916201
 30
0.0
  0
VERTEX
  5
2E6
330
2E4
100
AcDbEntity
  8
DIBUJOS
 62
     7
100
AcDbVertex
100
AcDb2dVertex
 10
86.86927713302092
 20
45.02379064768215
 30
0.0
  0
SEQEND
  5
2E7
330
2E4
100
AcDbEntity
  8
DIBUJOS
 62
     7
  0
POLYLINE
  5
2E8
330
234
100
AcDbEntity
  8
DIBUJOS
 62
     7
100
AcDb2dPolyline
 66
     1
 10
0.0
 20
0.0
 30
0.0
  0
VERTEX
  5
2E9
330
2E8
100
AcDbEntity
  8
DIBUJOS
 62
     7
100
AcDbVertex
100
AcDb2dVertex
 10
86.86927713302092
 20
44.94548265600083
 30
0.0
  0
VERTEX
  5
2EA
330
2E8
100
AcDbEntity
  8
DIBUJOS
 62
     7
100
AcDbVertex
100
AcDb2dVertex
 10
86.86366794491829
 20
44.96226250980094
 30
0.0
  0
VERTEX
  5
2EB
330
2E8
100
AcDbEntity
  8
DIBUJOS
 62
     7
100
AcDbVertex
100
AcDb2dVertex
 10
86.86927713302092
 20
44.96785378712178
 30
0.0
  0
SEQEND
  5
2EC
330
2E8
100
AcDbEntity
  8
DIBUJOS
 62
     7
  0
POLYLINE
  5
2ED
330
234
100
AcDbEntity
  8
DIBUJOS
 62
     7
100
AcDb2dPolyline
 66
     1
 10
0.0
 20
0.0
 30
0.0
  0
VERTEX
  5
2EE
330
2ED
100
AcDbEntity
  8
DIBUJOS
 62
     7
100
AcDbVertex
100
AcDb2dVertex
 10
86.86927713302092
 20
44.74971267679753
 30
0.0
  0
VERTEX
  5
2EF
330
2ED
100
AcDbEntity
  8
DIBUJOS
 62
     7
100
AcDbVertex
100
AcDb2dVertex
 10
86.86366794491829
 20
44.75530395411773
 30
0.0
  0
VERTEX
  5
2F0
330
2ED
100
AcDbEntity
  8
DIBUJOS
 62
     7
100
AcDbVertex
100
AcDb2dVertex
 10
86.86927713302092
 20
44.92869979128112
 30
0.0
  0
SEQEND
  5
2F1
330
2ED
100
AcDbEntity
  8
DIBUJOS
 62
     7
  0
POLYLINE
  5
2F2
330
234
100
AcDbEntity
  8
DIBUJOS
 62
     7
100
AcDb2dPolyline
 66
     1
 10
0.0
 20
0.0
 30
0.0
  0
VERTEX
  5
2F3
330
2F2
100
AcDbEntity
  8
DIBUJOS
 62
     7
100
AcDbVertex
100
AcDb2dVertex
 10
86.86366794491829
 20
44.73292981207782
 30
0.0
  0
VERTEX
  5
2F4
330
2F2
100
AcDbEntity
  8
DIBUJOS
 62
     7
100
AcDbVertex
100
AcDb2dVertex
 10
86.86927713302092
 20
44.73852410031762
 30
0.0
  0
SEQEND
  5
2F5
330
2F2
100
AcDbEntity
  8
DIBUJOS
 62
     7
  0
POLYLINE
  5
2F6
330
234
100
AcDbEntity
  8
DIBUJOS
 62
     7
100
AcDb2dPolyline
 66
     1
 10
0.0
 20
0.0
 30
0.0
  0
VERTEX
  5
2F7
330
2F6
100
AcDbEntity
  8
DIBUJOS
 62
     7
100
AcDbVertex
100
AcDb2dVertex
 10
86.86927713302092
 20
44.70496439271707
 30
0.0
  0
VERTEX
  5
2F8
330
2F6
100
AcDbEntity
  8
DIBUJOS
 62
     7
100
AcDbVertex
100
AcDb2dVertex
 10
86.86366794491829
 20
44.70496439271707
 30
0.0
  0
SEQEND
  5
2F9
330
2F6
100
AcDbEntity
  8
DIBUJOS
 62
     7
  0
POLYLINE
  5
2FA
330
234
100
AcDbEntity
  8
DIBUJOS
 62
     7
100
AcDb2dPolyline
 66
     1
 10
0.0
 20
0.0
 30
0.0
  0
VERTEX
  5
2FB
330
2FA
100
AcDbEntity
  8
DIBUJOS
 62
     7
100
AcDbVertex
100
AcDb2dVertex
 10
86.86927713302092
 20
44.64343625483619
 30
0.0
  0
VERTEX
  5
2FC
330
2FA
100
AcDbEntity
  8
DIBUJOS
 62
     7
100
AcDbVertex
100
AcDb2dVertex
 10
86.86366794491829
 20
44.67699596243641
 30
0.0
  0
VERTEX
  5
2FD
330
2FA
100
AcDbEntity
  8
DIBUJOS
 62
     7
100
AcDbVertex
100
AcDb2dVertex
 10
86.86927713302092
 20
44.68259025067685
 30
0.0
  0
SEQEND
  5
2FE
330
2FA
100
AcDbEntity
  8
DIBUJOS
 62
     7
  0
POLYLINE
  5
2FF
330
234
100
AcDbEntity
  8
DIBUJOS
 62
     7
100
AcDb2dPolyline
 66
     1
 10
0.0
 20
0.0
 30
0.0
  0
VERTEX
  5
300
330
2FF
100
AcDbEntity
  8
DIBUJOS
 62
     7
100
AcDbVertex
100
AcDb2dVertex
 10
86.87488330218366
 20
44.58750240519477
 30
0.0
  0
VERTEX
  5
301
330
2FF
100
AcDbEntity
  8
DIBUJOS
 62
     7
100
AcDbVertex
100
AcDb2dVertex
 10
86.8799309676878
 20
44.5886194562913
 30
0.0
  0
VERTEX
  5
302
330
2FF
100
AcDbEntity
  8
DIBUJOS
 62
     7
100
AcDbVertex
100
AcDb2dVertex
 10
86.91975076912233
 20
44.62106211279563
 30
0.0
  0
VERTEX
  5
303
330
2FF
100
AcDbEntity
  8
DIBUJOS
 62
     7
100
AcDbVertex
100
AcDb2dVertex
 10
86.92087381431867
 20
44.62609637002753
 30
0.0
  0
VERTEX
  5
304
330
2FF
100
AcDbEntity
  8
DIBUJOS
 62
     7
100
AcDbVertex
100
AcDb2dVertex
 10
86.93657531448967
 20
44.68259025067685
 30
0.0
  0
VERTEX
  5
305
330
2FF
100
AcDbEntity
  8
DIBUJOS
 62
     7
100
AcDbVertex
100
AcDb2dVertex
 10
86.93657531448967
 20
45.91873826377753
 30
0.0
  0
VERTEX
  5
306
330
2FF
100
AcDbEntity
  8
DIBUJOS
 62
     7
100
AcDbVertex
100
AcDb2dVertex
 10
86.92300518503937
 20
46.10857974268779
 30
0.0
  0
VERTEX
  5
307
330
2FF
100
AcDbEntity
  8
DIBUJOS
 62
     7
100
AcDbVertex
100
AcDb2dVertex
 10
86.87206059450085
 20
46.20961415397885
 30
0.0
  0
VERTEX
  5
308
330
2FF
100
AcDbEntity
  8
DIBUJOS
 62
     7
100
AcDbVertex
100
AcDb2dVertex
 10
86.86649065260175
 20
47.04299750116048
 30
0.0
  0
VERTEX
  5
309
330
2FF
100
AcDbEntity
  8
DIBUJOS
 62
     7
100
AcDbVertex
100
AcDb2dVertex
 10
86.83199625903201
 20
47.27283904426227
 30
0.0
  0
VERTEX
  5
30A
330
2FF
100
AcDbEntity
  8
DIBUJOS
 62
     7
100
AcDbVertex
100
AcDb2dVertex
 10
86.82803843039787
 20
47.28863432741958
 30
0.0
  0
VERTEX
  5
30B
330
2FF
100
AcDbEntity
  8
DIBUJOS
 62
     7
100
AcDbVertex
100
AcDb2dVertex
 10
86.74459798370748
 20
47.56793624345853
 30
0.0
  0
VERTEX
  5
30C
330
2FF
100
AcDbEntity
  8
DIBUJOS
 62
     7
100
AcDbVertex
100
AcDb2dVertex
 10
86.58885999306345
 20
47.8428753372907
 30
0.0
  0
VERTEX
  5
30D
330
2FF
100
AcDbEntity
  8
DIBUJOS
 62
     7
100
AcDbVertex
100
AcDb2dVertex
 10
86.33749410020167
 20
48.02879961006527
 30
0.0
  0
VERTEX
  5
30E
330
2FF
100
AcDbEntity
  8
DIBUJOS
 62
     7
100
AcDbVertex
100
AcDb2dVertex
 10
86.29621917031497
 20
48.05967658848304
 30
0.0
  0
VERTEX
  5
30F
330
2FF
100
AcDbEntity
  8
DIBUJOS
 62
     7
100
AcDbVertex
100
AcDb2dVertex
 10
86.02185802138665
 20
48.17736138404041
 30
0.0
  0
VERTEX
  5
310
330
2FF
100
AcDbEntity
  8
DIBUJOS
 62
     7
100
AcDbVertex
100
AcDb2dVertex
 10
86.00054733311302
 20
48.18575281640042
 30
0.0
  0
VERTEX
  5
311
330
2FF
100
AcDbEntity
  8
DIBUJOS
 62
     7
100
AcDbVertex
100
AcDb2dVertex
 10
85.8536759654266
 20
48.23244013257249
 30
0.0
  0
VERTEX
  5
312
330
2FF
100
AcDbEntity
  8
DIBUJOS
 62
     7
100
AcDbVertex
100
AcDb2dVertex
 10
85.74256392662488
 20
48.26406080808142
 30
0.0
  0
VERTEX
  5
313
330
2FF
100
AcDbEntity
  8
DIBUJOS
 62
     7
100
AcDbVertex
100
AcDb2dVertex
 10
85.33863596663036
 20
48.34284151410856
 30
0.0
  0
VERTEX
  5
314
330
2FF
100
AcDbEntity
  8
DIBUJOS
 62
     7
100
AcDbVertex
100
AcDb2dVertex
 10
85.1927668865918
 20
48.37092435932571
 30
0.0
  0
VERTEX
  5
315
330
2FF
100
AcDbEntity
  8
DIBUJOS
 62
     7
100
AcDbVertex
100
AcDb2dVertex
 10
83.38133121290664
 20
48.72878718427504
 30
0.0
  0
VERTEX
  5
316
330
2FF
100
AcDbEntity
  8
DIBUJOS
 62
     7
100
AcDbVertex
100
AcDb2dVertex
 10
82.90468607647925
 20
48.83488596199231
 30
0.0
  0
VERTEX
  5
317
330
2FF
100
AcDbEntity
  8
DIBUJOS
 62
     7
100
AcDbVertex
100
AcDb2dVertex
 10
82.49983130230407
 20
48.93751013872507
 30
0.0
  0
VERTEX
  5
318
330
2FF
100
AcDbEntity
  8
DIBUJOS
 62
     7
100
AcDbVertex
100
AcDb2dVertex
 10
82.14096402132466
 20
49.04348847966635
 30
0.0
  0
VERTEX
  5
319
330
2FF
100
AcDbEntity
  8
DIBUJOS
 62
     7
100
AcDbVertex
100
AcDb2dVertex
 10
81.91208016495212
 20
49.11985442833646
 30
0.0
  0
VERTEX
  5
31A
330
2FF
100
AcDbEntity
  8
DIBUJOS
 62
     7
100
AcDbVertex
100
AcDb2dVertex
 10
81.69896422540201
 20
49.19816242001745
 30
0.0
  0
VERTEX
  5
31B
330
2FF
100
AcDbEntity
  8
DIBUJOS
 62
     7
100
AcDbVertex
100
AcDb2dVertex
 10
81.34594160974378
 20
49.38235842505839
 30
0.0
  0
VERTEX
  5
31C
330
2FF
100
AcDbEntity
  8
DIBUJOS
 62
     7
100
AcDbVertex
100
AcDb2dVertex
 10
81.15439598719517
 20
49.49852872815904
 30
0.0
  0
SEQEND
  5
31D
330
2FF
100
AcDbEntity
  8
DIBUJOS
 62
     7
  0
POLYLINE
  5
31E
330
234
100
AcDbEntity
  8
DIBUJOS
 62
     7
100
AcDb2dPolyline
 66
     1
 10
0.0
 20
0.0
 30
0.0
  0
VERTEX
  5
31F
330
31E
100
AcDbEntity
  8
DIBUJOS
 62
     7
100
AcDbVertex
100
AcDb2dVertex
 10
86.86927713302092
 20
44.58190811695498
 30
0.0
  0
VERTEX
  5
320
330
31E
100
AcDbEntity
  8
DIBUJOS
 62
     7
100
AcDbVertex
100
AcDb2dVertex
 10
86.87488330218366
 20
44.58750240519477
 30
0.0
  0
SEQEND
  5
321
330
31E
100
AcDbEntity
  8
DIBUJOS
 62
     7
  0
POLYLINE
  5
322
330
234
100
AcDbEntity
  8
DIBUJOS
 62
     7
100
AcDb2dPolyline
 66
     1
 10
0.0
 20
0.0
 30
0.0
  0
VERTEX
  5
323
330
322
100
AcDbEntity
  8
DIBUJOS
 62
     7
100
AcDbVertex
100
AcDb2dVertex
 10
86.79076057534755
 20
42.48996798905922
 30
0.0
  0
VERTEX
  5
324
330
322
100
AcDbEntity
  8
DIBUJOS
 62
     7
100
AcDbVertex
100
AcDb2dVertex
 10
86.79210702200747
 20
42.49455361930107
 30
0.0
  0
VERTEX
  5
325
330
322
100
AcDbEntity
  8
DIBUJOS
 62
     7
100
AcDbVertex
100
AcDb2dVertex
 10
86.81627362628963
 20
42.53494359755396
 30
0.0
  0
VERTEX
  5
326
330
322
100
AcDbEntity
  8
DIBUJOS
 62
     7
100
AcDbVertex
100
AcDb2dVertex
 10
86.82440966608226
 20
42.5962429055606
 30
0.0
  0
VERTEX
  5
327
330
322
100
AcDbEntity
  8
DIBUJOS
 62
     7
100
AcDbVertex
100
AcDb2dVertex
 10
86.82115525016457
 20
47.04335278964926
 30
0.0
  0
VERTEX
  5
328
330
322
100
AcDbEntity
  8
DIBUJOS
 62
     7
100
AcDbVertex
100
AcDb2dVertex
 10
86.79956078165375
 20
47.21051602366069
 30
0.0
  0
VERTEX
  5
329
330
322
100
AcDbEntity
  8
DIBUJOS
 62
     7
100
AcDbVertex
100
AcDb2dVertex
 10
86.76664529302326
 20
47.33890764859402
 30
0.0
  0
VERTEX
  5
32A
330
322
100
AcDbEntity
  8
DIBUJOS
 62
     7
100
AcDbVertex
100
AcDb2dVertex
 10
86.71953475463178
 20
47.50223497129297
 30
0.0
  0
VERTEX
  5
32B
330
322
100
AcDbEntity
  8
DIBUJOS
 62
     7
100
AcDbVertex
100
AcDb2dVertex
 10
86.6997335357074
 20
47.5511563896581
 30
0.0
  0
VERTEX
  5
32C
330
322
100
AcDbEntity
  8
DIBUJOS
 62
     7
100
AcDbVertex
100
AcDb2dVertex
 10
86.6686716754376
 20
47.60321819695417
 30
0.0
  0
VERTEX
  5
32D
330
322
100
AcDbEntity
  8
DIBUJOS
 62
     7
100
AcDbVertex
100
AcDb2dVertex
 10
86.54960171422613
 20
47.80931562968983
 30
0.0
  0
VERTEX
  5
32E
330
322
100
AcDbEntity
  8
DIBUJOS
 62
     7
100
AcDbVertex
100
AcDb2dVertex
 10
86.45512402765388
 20
47.88332101755268
 30
0.0
  0
VERTEX
  5
32F
330
322
100
AcDbEntity
  8
DIBUJOS
 62
     7
100
AcDbVertex
100
AcDb2dVertex
 10
86.24619233714007
 20
48.03137394614978
 30
0.0
  0
VERTEX
  5
330
330
322
100
AcDbEntity
  8
DIBUJOS
 62
     7
100
AcDbVertex
100
AcDb2dVertex
 10
85.98372278774566
 20
48.14044450131207
 30
0.0
  0
VERTEX
  5
331
330
322
100
AcDbEntity
  8
DIBUJOS
 62
     7
100
AcDbVertex
100
AcDb2dVertex
 10
85.79759012228399
 20
48.19888042497163
 30
0.0
  0
VERTEX
  5
332
330
322
100
AcDbEntity
  8
DIBUJOS
 62
     7
100
AcDbVertex
100
AcDb2dVertex
 10
85.73583471226578
 20
48.21595835979276
 30
0.0
  0
VERTEX
  5
333
330
322
100
AcDbEntity
  8
DIBUJOS
 62
     7
100
AcDbVertex
100
AcDb2dVertex
 10
85.3545970955299
 20
48.29379062620931
 30
0.0
  0
VERTEX
  5
334
330
322
100
AcDbEntity
  8
DIBUJOS
 62
     7
100
AcDbVertex
100
AcDb2dVertex
 10
85.27128344426453
 20
48.30939622144481
 30
0.0
  0
VERTEX
  5
335
330
322
100
AcDbEntity
  8
DIBUJOS
 62
     7
100
AcDbVertex
100
AcDb2dVertex
 10
83.47574550176668
 20
48.66313408682007
 30
0.0
  0
VERTEX
  5
336
330
322
100
AcDbEntity
  8
DIBUJOS
 62
     7
100
AcDbVertex
100
AcDb2dVertex
 10
83.25708377182742
 20
48.70770472665613
 30
0.0
  0
VERTEX
  5
337
330
322
100
AcDbEntity
  8
DIBUJOS
 62
     7
100
AcDbVertex
100
AcDb2dVertex
 10
82.67375537966892
 20
48.84212421222293
 30
0.0
  0
VERTEX
  5
338
330
322
100
AcDbEntity
  8
DIBUJOS
 62
     7
100
AcDbVertex
100
AcDb2dVertex
 10
82.4886159450387
 20
48.8871675664045
 30
0.0
  0
VERTEX
  5
339
330
322
100
AcDbEntity
  8
DIBUJOS
 62
     7
100
AcDbVertex
100
AcDb2dVertex
 10
81.9176893530541
 20
49.05273501313505
 30
0.0
  0
VERTEX
  5
33A
330
322
100
AcDbEntity
  8
DIBUJOS
 62
     7
100
AcDbVertex
100
AcDb2dVertex
 10
81.76626240687142
 20
49.10866886277582
 30
0.0
  0
VERTEX
  5
33B
330
322
100
AcDbEntity
  8
DIBUJOS
 62
     7
100
AcDbVertex
100
AcDb2dVertex
 10
81.43929927005891
 20
49.22780793240222
 30
0.0
  0
VERTEX
  5
33C
330
322
100
AcDbEntity
  8
DIBUJOS
 62
     7
100
AcDbVertex
100
AcDb2dVertex
 10
81.31142910254125
 20
49.29157318339511
 30
0.0
  0
SEQEND
  5
33D
330
322
100
AcDbEntity
  8
DIBUJOS
 62
     7
  0
POLYLINE
  5
33E
330
234
100
AcDbEntity
  8
DIBUJOS
 62
     7
100
AcDb2dPolyline
 66
     1
 10
0.0
 20
0.0
 30
0.0
  0
VERTEX
  5
33F
330
33E
100
AcDbEntity
  8
DIBUJOS
 62
     7
100
AcDbVertex
100
AcDb2dVertex
 10
86.79076057534755
 20
42.4843737008191
 30
0.0
  0
VERTEX
  5
340
330
33E
100
AcDbEntity
  8
DIBUJOS
 62
     7
100
AcDbVertex
100
AcDb2dVertex
 10
86.78515138724558
 20
42.4843737008191
 30
0.0
  0
SEQEND
  5
341
330
33E
100
AcDbEntity
  8
DIBUJOS
 62
     7
  0
POLYLINE
  5
342
330
234
100
AcDbEntity
  8
DIBUJOS
 62
     7
100
AcDb2dPolyline
 66
     1
 10
0.0
 20
0.0
 30
0.0
  0
VERTEX
  5
343
330
342
100
AcDbEntity
  8
DIBUJOS
 62
     7
100
AcDbVertex
100
AcDb2dVertex
 10
86.79076057534755
 20
42.4843737008191
 30
0.0
  0
VERTEX
  5
344
330
342
100
AcDbEntity
  8
DIBUJOS
 62
     7
100
AcDbVertex
100
AcDb2dVertex
 10
86.79076057534755
 20
42.48996798905922
 30
0.0
  0
SEQEND
  5
345
330
342
100
AcDbEntity
  8
DIBUJOS
 62
     7
  0
POLYLINE
  5
346
330
234
100
AcDbEntity
  8
DIBUJOS
 62
     7
100
AcDb2dPolyline
 66
     1
 10
0.0
 20
0.0
 30
0.0
  0
VERTEX
  5
347
330
346
100
AcDbEntity
  8
DIBUJOS
 62
     7
100
AcDbVertex
100
AcDb2dVertex
 10
86.79636674451095
 20
42.4843737008191
 30
0.0
  0
VERTEX
  5
348
330
346
100
AcDbEntity
  8
DIBUJOS
 62
     7
100
AcDbVertex
100
AcDb2dVertex
 10
86.79076057534755
 20
42.4843737008191
 30
0.0
  0
SEQEND
  5
349
330
346
100
AcDbEntity
  8
DIBUJOS
 62
     7
  0
POLYLINE
  5
34A
330
234
100
AcDbEntity
  8
DIBUJOS
 62
     7
100
AcDb2dPolyline
 66
     1
 10
0.0
 20
0.0
 30
0.0
  0
VERTEX
  5
34B
330
34A
100
AcDbEntity
  8
DIBUJOS
 62
     7
100
AcDbVertex
100
AcDb2dVertex
 10
86.79636674451095
 20
42.4843737008191
 30
0.0
  0
VERTEX
  5
34C
330
34A
100
AcDbEntity
  8
DIBUJOS
 62
     7
100
AcDbVertex
100
AcDb2dVertex
 10
86.82440966608226
 20
42.4843737008191
 30
0.0
  0
VERTEX
  5
34D
330
34A
100
AcDbEntity
  8
DIBUJOS
 62
     7
100
AcDbVertex
100
AcDb2dVertex
 10
86.85245258765356
 20
42.51234213109912
 30
0.0
  0
VERTEX
  5
34E
330
34A
100
AcDbEntity
  8
DIBUJOS
 62
     7
100
AcDbVertex
100
AcDb2dVertex
 10
86.86647857684677
 20
42.59625043285942
 30
0.0
  0
VERTEX
  5
34F
330
34A
100
AcDbEntity
  8
DIBUJOS
 62
     7
100
AcDbVertex
100
AcDb2dVertex
 10
86.86927713302092
 20
44.58190811695498
 30
0.0
  0
SEQEND
  5
350
330
34A
100
AcDbEntity
  8
DIBUJOS
 62
     7
  0
POLYLINE
  5
351
330
234
100
AcDbEntity
  8
DIBUJOS
 62
     7
100
AcDb2dPolyline
 66
     1
 10
0.0
 20
0.0
 30
0.0
  0
VERTEX
  5
352
330
351
100
AcDbEntity
  8
DIBUJOS
 62
     7
100
AcDbVertex
100
AcDb2dVertex
 10
81.13196225372585
 20
49.52090287019927
 30
0.0
  0
VERTEX
  5
353
330
351
100
AcDbEntity
  8
DIBUJOS
 62
     7
100
AcDbVertex
100
AcDb2dVertex
 10
81.13196225372585
 20
49.53209144667918
 30
0.0
  0
VERTEX
  5
354
330
351
100
AcDbEntity
  8
DIBUJOS
 62
     7
100
AcDbVertex
100
AcDb2dVertex
 10
81.00296904101248
 20
49.64395914596105
 30
0.0
  0
VERTEX
  5
355
330
351
100
AcDbEntity
  8
DIBUJOS
 62
     7
100
AcDbVertex
100
AcDb2dVertex
 10
80.8122868349317
 20
49.83413483692455
 30
0.0
  0
VERTEX
  5
356
330
351
100
AcDbEntity
  8
DIBUJOS
 62
     7
100
AcDbVertex
100
AcDb2dVertex
 10
80.75749913542973
 20
49.91889823979353
 30
0.0
  0
VERTEX
  5
357
330
351
100
AcDbEntity
  8
DIBUJOS
 62
     7
100
AcDbVertex
100
AcDb2dVertex
 10
80.71824085659304
 20
49.98042336675483
 30
0.0
  0
VERTEX
  5
358
330
351
100
AcDbEntity
  8
DIBUJOS
 62
     7
100
AcDbVertex
100
AcDb2dVertex
 10
80.49373446133325
 20
50.46675007870353
 30
0.0
  0
VERTEX
  5
359
330
351
100
AcDbEntity
  8
DIBUJOS
 62
     7
100
AcDbVertex
100
AcDb2dVertex
 10
80.42082709176252
 20
50.62336606206617
 30
0.0
  0
VERTEX
  5
35A
330
351
100
AcDbEntity
  8
DIBUJOS
 62
     7
100
AcDbVertex
100
AcDb2dVertex
 10
80.10995187927456
 20
51.27637727184162
 30
0.0
  0
VERTEX
  5
35B
330
351
100
AcDbEntity
  8
DIBUJOS
 62
     7
100
AcDbVertex
100
AcDb2dVertex
 10
80.10132375247409
 20
51.28928508329735
 30
0.0
  0
VERTEX
  5
35C
330
351
100
AcDbEntity
  8
DIBUJOS
 62
     7
100
AcDbVertex
100
AcDb2dVertex
 10
80.03138399964398
 20
51.41047458903291
 30
0.0
  0
VERTEX
  5
35D
330
351
100
AcDbEntity
  8
DIBUJOS
 62
     7
100
AcDbVertex
100
AcDb2dVertex
 10
80.01725234759583
 20
51.42926874790995
 30
0.0
  0
VERTEX
  5
35E
330
351
100
AcDbEntity
  8
DIBUJOS
 62
     7
100
AcDbVertex
100
AcDb2dVertex
 10
79.94860470052856
 20
51.50656808159333
 30
0.0
  0
VERTEX
  5
35F
330
351
100
AcDbEntity
  8
DIBUJOS
 62
     7
100
AcDbVertex
100
AcDb2dVertex
 10
79.7587859109156
 20
51.63650731909727
 30
0.0
  0
VERTEX
  5
360
330
351
100
AcDbEntity
  8
DIBUJOS
 62
     7
100
AcDbVertex
100
AcDb2dVertex
 10
79.51059594156511
 20
51.77393471314163
 30
0.0
  0
VERTEX
  5
361
330
351
100
AcDbEntity
  8
DIBUJOS
 62
     7
100
AcDbVertex
100
AcDb2dVertex
 10
79.44441778635347
 20
51.80469727662228
 30
0.0
  0
VERTEX
  5
362
330
351
100
AcDbEntity
  8
DIBUJOS
 62
     7
100
AcDbVertex
100
AcDb2dVertex
 10
79.28091206643758
 20
51.86773087420206
 30
0.0
  0
VERTEX
  5
363
330
351
100
AcDbEntity
  8
DIBUJOS
 62
     7
100
AcDbVertex
100
AcDb2dVertex
 10
79.21391577883814
 20
51.8757338979597
 30
0.0
  0
VERTEX
  5
364
330
351
100
AcDbEntity
  8
DIBUJOS
 62
     7
100
AcDbVertex
100
AcDb2dVertex
 10
79.164000646396
 20
51.82930853177515
 30
0.0
  0
VERTEX
  5
365
330
351
100
AcDbEntity
  8
DIBUJOS
 62
     7
100
AcDbVertex
100
AcDb2dVertex
 10
79.1466145784308
 20
51.81980004831861
 30
0.0
  0
VERTEX
  5
366
330
351
100
AcDbEntity
  8
DIBUJOS
 62
     7
100
AcDbVertex
100
AcDb2dVertex
 10
79.12418084496147
 20
51.7582719104374
 30
0.0
  0
VERTEX
  5
367
330
351
100
AcDbEntity
  8
DIBUJOS
 62
     7
100
AcDbVertex
100
AcDb2dVertex
 10
79.12418084496147
 20
51.62403006911563
 30
0.0
  0
VERTEX
  5
368
330
351
100
AcDbEntity
  8
DIBUJOS
 62
     7
100
AcDbVertex
100
AcDb2dVertex
 10
79.27249828428494
 20
50.16999085200017
 30
0.0
  0
VERTEX
  5
369
330
351
100
AcDbEntity
  8
DIBUJOS
 62
     7
100
AcDbVertex
100
AcDb2dVertex
 10
80.0078815618754
 20
42.91476806858666
 30
0.0
  0
VERTEX
  5
36A
330
351
100
AcDbEntity
  8
DIBUJOS
 62
     7
100
AcDbVertex
100
AcDb2dVertex
 10
80.02397552407712
 20
42.77550401370976
 30
0.0
  0
VERTEX
  5
36B
330
351
100
AcDbEntity
  8
DIBUJOS
 62
     7
100
AcDbVertex
100
AcDb2dVertex
 10
80.05879294408821
 20
42.54540804791895
 30
0.0
  0
VERTEX
  5
36C
330
351
100
AcDbEntity
  8
DIBUJOS
 62
     7
100
AcDbVertex
100
AcDb2dVertex
 10
80.06525951078085
 20
42.5229691711115
 30
0.0
  0
VERTEX
  5
36D
330
351
100
AcDbEntity
  8
DIBUJOS
 62
     7
100
AcDbVertex
100
AcDb2dVertex
 10
80.09442245860863
 20
42.48996798905922
 30
0.0
  0
VERTEX
  5
36E
330
351
100
AcDbEntity
  8
DIBUJOS
 62
     7
100
AcDbVertex
100
AcDb2dVertex
 10
80.10606952410824
 20
42.48652500272897
 30
0.0
  0
VERTEX
  5
36F
330
351
100
AcDbEntity
  8
DIBUJOS
 62
     7
100
AcDbVertex
100
AcDb2dVertex
 10
80.2402371977514
 20
42.47039099113888
 30
0.0
  0
VERTEX
  5
370
330
351
100
AcDbEntity
  8
DIBUJOS
 62
     7
100
AcDbVertex
100
AcDb2dVertex
 10
80.32997213162808
 20
42.47318813525846
 30
0.0
  0
VERTEX
  5
371
330
351
100
AcDbEntity
  8
DIBUJOS
 62
     7
100
AcDbVertex
100
AcDb2dVertex
 10
86.70102262253165
 20
42.4759822684594
 30
0.0
  0
VERTEX
  5
372
330
351
100
AcDbEntity
  8
DIBUJOS
 62
     7
100
AcDbVertex
100
AcDb2dVertex
 10
86.78515138724558
 20
42.4843737008191
 30
0.0
  0
SEQEND
  5
373
330
351
100
AcDbEntity
  8
DIBUJOS
 62
     7
  0
ENDBLK
  5
237
330
234
100
AcDbEntity
  8
0
100
AcDbBlockEnd
  0
BLOCK
  5
376
330
374
100
AcDbEntity
  8
0
100
AcDbBlockBegin
  2
BLOCK_4
 70
     0
 10
0.0
 20
0.0
 30
0.0
  3
BLOCK_4
  1

  0
POLYLINE
  5
378
330
374
100
AcDbEntity
  8
DIBUJOS
 62
     7
100
AcDb2dPolyline
 66
     1
 10
0.0
 20
0.0
 30
0.0
  0
VERTEX
  5
379
330
378
100
AcDbEntity
  8
DIBUJOS
 62
     7
100
AcDbVertex
100
AcDb2dVertex
 10
64.95632358703794
 20
34.23407216583811
 30
0.0
  0
VERTEX
  5
37A
330
378
100
AcDbEntity
  8
DIBUJOS
 62
     7
100
AcDbVertex
100
AcDb2dVertex
 10
64.74299481230993
 20
34.24830628728807
 30
0.0
  0
VERTEX
  5
37B
330
378
100
AcDbEntity
  8
DIBUJOS
 62
     7
100
AcDbVertex
100
AcDb2dVertex
 10
64.56374079867274
 20
34.25364916375876
 30
0.0
  0
VERTEX
  5
37C
330
378
100
AcDbEntity
  8
DIBUJOS
 62
     7
100
AcDbVertex
100
AcDb2dVertex
 10
64.46279050753068
 20
34.24525923685838
 30
0.0
  0
SEQEND
  5
37D
330
378
100
AcDbEntity
  8
DIBUJOS
 62
     7
  0
POLYLINE
  5
37E
330
374
100
AcDbEntity
  8
DIBUJOS
 62
     7
100
AcDb2dPolyline
 66
     1
 10
0.0
 20
0.0
 30
0.0
  0
VERTEX
  5
37F
330
37E
100
AcDbEntity
  8
DIBUJOS
 62
     7
100
AcDbVertex
100
AcDb2dVertex
 10
64.13750741010386
 20
34.22847787759832
 30
0.0
  0
VERTEX
  5
380
330
37E
100
AcDbEntity
  8
DIBUJOS
 62
     7
100
AcDbVertex
100
AcDb2dVertex
 10
64.45157364079603
 20
34.24525923685838
 30
0.0
  0
SEQEND
  5
381
330
37E
100
AcDbEntity
  8
DIBUJOS
 62
     7
  0
POLYLINE
  5
382
330
374
100
AcDbEntity
  8
DIBUJOS
 62
     7
100
AcDb2dPolyline
 66
     1
 10
0.0
 20
0.0
 30
0.0
  0
VERTEX
  5
383
330
382
100
AcDbEntity
  8
DIBUJOS
 62
     7
100
AcDbVertex
100
AcDb2dVertex
 10
64.0646000405328
 20
34.22288509481783
 30
0.0
  0
VERTEX
  5
384
330
382
100
AcDbEntity
  8
DIBUJOS
 62
     7
100
AcDbVertex
100
AcDb2dVertex
 10
64.1262920528388
 20
34.22847787759832
 30
0.0
  0
SEQEND
  5
385
330
382
100
AcDbEntity
  8
DIBUJOS
 62
     7
  0
POLYLINE
  5
386
330
374
100
AcDbEntity
  8
DIBUJOS
 62
     7
100
AcDb2dPolyline
 66
     1
 10
0.0
 20
0.0
 30
0.0
  0
VERTEX
  5
387
330
386
100
AcDbEntity
  8
DIBUJOS
 62
     7
100
AcDbVertex
100
AcDb2dVertex
 10
65.1582226598534
 20
34.217292312038
 30
0.0
  0
VERTEX
  5
388
330
386
100
AcDbEntity
  8
DIBUJOS
 62
     7
100
AcDbVertex
100
AcDb2dVertex
 10
64.96753894430331
 20
34.23966494861859
 30
0.0
  0
SEQEND
  5
389
330
386
100
AcDbEntity
  8
DIBUJOS
 62
     7
  0
POLYLINE
  5
38A
330
374
100
AcDbEntity
  8
DIBUJOS
 62
     7
100
AcDb2dPolyline
 66
     1
 10
0.0
 20
0.0
 30
0.0
  0
VERTEX
  5
38B
330
38A
100
AcDbEntity
  8
DIBUJOS
 62
     7
100
AcDbVertex
100
AcDb2dVertex
 10
64.00290802822711
 20
34.21169802379756
 30
0.0
  0
VERTEX
  5
38C
330
38A
100
AcDbEntity
  8
DIBUJOS
 62
     7
100
AcDbVertex
100
AcDb2dVertex
 10
64.05338317379812
 20
34.217292312038
 30
0.0
  0
SEQEND
  5
38D
330
38A
100
AcDbEntity
  8
DIBUJOS
 62
     7
  0
POLYLINE
  5
38E
330
374
100
AcDbEntity
  8
DIBUJOS
 62
     7
100
AcDb2dPolyline
 66
     1
 10
0.0
 20
0.0
 30
0.0
  0
VERTEX
  5
38F
330
38E
100
AcDbEntity
  8
DIBUJOS
 62
     7
100
AcDbVertex
100
AcDb2dVertex
 10
63.93000065865636
 20
34.19491816999745
 30
0.0
  0
VERTEX
  5
390
330
38E
100
AcDbEntity
  8
DIBUJOS
 62
     7
100
AcDbVertex
100
AcDb2dVertex
 10
63.98047429475778
 20
34.20610524101772
 30
0.0
  0
SEQEND
  5
391
330
38E
100
AcDbEntity
  8
DIBUJOS
 62
     7
  0
POLYLINE
  5
392
330
374
100
AcDbEntity
  8
DIBUJOS
 62
     7
100
AcDb2dPolyline
 66
     1
 10
0.0
 20
0.0
 30
0.0
  0
VERTEX
  5
393
330
392
100
AcDbEntity
  8
DIBUJOS
 62
     7
100
AcDbVertex
100
AcDb2dVertex
 10
65.28721436309746
 20
34.19491816999745
 30
0.0
  0
VERTEX
  5
394
330
392
100
AcDbEntity
  8
DIBUJOS
 62
     7
100
AcDbVertex
100
AcDb2dVertex
 10
65.16943952658806
 20
34.217292312038
 30
0.0
  0
SEQEND
  5
395
330
392
100
AcDbEntity
  8
DIBUJOS
 62
     7
  0
POLYLINE
  5
396
330
374
100
AcDbEntity
  8
DIBUJOS
 62
     7
100
AcDb2dPolyline
 66
     1
 10
0.0
 20
0.0
 30
0.0
  0
VERTEX
  5
397
330
396
100
AcDbEntity
  8
DIBUJOS
 62
     7
100
AcDbVertex
100
AcDb2dVertex
 10
66.34157870358138
 20
33.79219114057058
 30
0.0
  0
VERTEX
  5
398
330
396
100
AcDbEntity
  8
DIBUJOS
 62
     7
100
AcDbVertex
100
AcDb2dVertex
 10
66.29727275924088
 20
33.82127662194744
 30
0.0
  0
VERTEX
  5
399
330
396
100
AcDbEntity
  8
DIBUJOS
 62
     7
100
AcDbVertex
100
AcDb2dVertex
 10
66.04938468376069
 20
33.95272282460959
 30
0.0
  0
VERTEX
  5
39A
330
396
100
AcDbEntity
  8
DIBUJOS
 62
     7
100
AcDbVertex
100
AcDb2dVertex
 10
65.99442339528339
 20
33.97845263631766
 30
0.0
  0
VERTEX
  5
39B
330
396
100
AcDbEntity
  8
DIBUJOS
 62
     7
100
AcDbVertex
100
AcDb2dVertex
 10
65.83066106557821
 20
34.05340495833082
 30
0.0
  0
VERTEX
  5
39C
330
396
100
AcDbEntity
  8
DIBUJOS
 62
     7
100
AcDbVertex
100
AcDb2dVertex
 10
65.69718170995857
 20
34.10094888107186
 30
0.0
  0
VERTEX
  5
39D
330
396
100
AcDbEntity
  8
DIBUJOS
 62
     7
100
AcDbVertex
100
AcDb2dVertex
 10
65.51758655624852
 20
34.15791547606634
 30
0.0
  0
VERTEX
  5
39E
330
396
100
AcDbEntity
  8
DIBUJOS
 62
     7
100
AcDbVertex
100
AcDb2dVertex
 10
65.30403890846449
 20
34.19491816999745
 30
0.0
  0
SEQEND
  5
39F
330
396
100
AcDbEntity
  8
DIBUJOS
 62
     7
  0
POLYLINE
  5
3A0
330
374
100
AcDbEntity
  8
DIBUJOS
 62
     7
100
AcDb2dPolyline
 66
     1
 10
0.0
 20
0.0
 30
0.0
  0
VERTEX
  5
3A1
330
3A0
100
AcDbEntity
  8
DIBUJOS
 62
     7
100
AcDbVertex
100
AcDb2dVertex
 10
62.83637652986615
 20
33.76422421575019
 30
0.0
  0
VERTEX
  5
3A2
330
3A0
100
AcDbEntity
  8
DIBUJOS
 62
     7
100
AcDbVertex
100
AcDb2dVertex
 10
62.89907837716646
 20
33.80762962977978
 30
0.0
  0
VERTEX
  5
3A3
330
3A0
100
AcDbEntity
  8
DIBUJOS
 62
     7
100
AcDbVertex
100
AcDb2dVertex
 10
63.12857054968684
 20
33.93090871357727
 30
0.0
  0
VERTEX
  5
3A4
330
3A0
100
AcDbEntity
  8
DIBUJOS
 62
     7
100
AcDbVertex
100
AcDb2dVertex
 10
63.16222114989083
 20
33.94768856737738
 30
0.0
  0
VERTEX
  5
3A5
330
3A0
100
AcDbEntity
  8
DIBUJOS
 62
     7
100
AcDbVertex
100
AcDb2dVertex
 10
63.39664777771394
 20
34.0562005969914
 30
0.0
  0
VERTEX
  5
3A6
330
3A0
100
AcDbEntity
  8
DIBUJOS
 62
     7
100
AcDbVertex
100
AcDb2dVertex
 10
63.49871960458304
 20
34.09255895417212
 30
0.0
  0
VERTEX
  5
3A7
330
3A0
100
AcDbEntity
  8
DIBUJOS
 62
     7
100
AcDbVertex
100
AcDb2dVertex
 10
63.70528746609553
 20
34.15803139646311
 30
0.0
  0
VERTEX
  5
3A8
330
3A0
100
AcDbEntity
  8
DIBUJOS
 62
     7
100
AcDbVertex
100
AcDb2dVertex
 10
63.91878379192138
 20
34.19491816999745
 30
0.0
  0
SEQEND
  5
3A9
330
3A0
100
AcDbEntity
  8
DIBUJOS
 62
     7
  0
POLYLINE
  5
3AA
330
374
100
AcDbEntity
  8
DIBUJOS
 62
     7
100
AcDb2dPolyline
 66
     1
 10
0.0
 20
0.0
 30
0.0
  0
VERTEX
  5
3AB
330
3AA
100
AcDbEntity
  8
DIBUJOS
 62
     7
100
AcDbVertex
100
AcDb2dVertex
 10
66.38083698241806
 20
33.76422421575019
 30
0.0
  0
VERTEX
  5
3AC
330
3AA
100
AcDbEntity
  8
DIBUJOS
 62
     7
100
AcDbVertex
100
AcDb2dVertex
 10
66.35279557031605
 20
33.78659835779074
 30
0.0
  0
SEQEND
  5
3AD
330
3AA
100
AcDbEntity
  8
DIBUJOS
 62
     7
  0
POLYLINE
  5
3AE
330
374
100
AcDbEntity
  8
DIBUJOS
 62
     7
100
AcDb2dPolyline
 66
     1
 10
0.0
 20
0.0
 30
0.0
  0
VERTEX
  5
3AF
330
3AE
100
AcDbEntity
  8
DIBUJOS
 62
     7
100
AcDbVertex
100
AcDb2dVertex
 10
62.0960784200744
 20
32.76859446593294
 30
0.0
  0
VERTEX
  5
3B0
330
3AE
100
AcDbEntity
  8
DIBUJOS
 62
     7
100
AcDbVertex
100
AcDb2dVertex
 10
62.11738986308236
 20
32.81390127556166
 30
0.0
  0
VERTEX
  5
3B1
330
3AE
100
AcDbEntity
  8
DIBUJOS
 62
     7
100
AcDbVertex
100
AcDb2dVertex
 10
62.22636373855092
 20
33.01943867728942
 30
0.0
  0
VERTEX
  5
3B2
330
3AE
100
AcDbEntity
  8
DIBUJOS
 62
     7
100
AcDbVertex
100
AcDb2dVertex
 10
62.26432840215515
 20
33.08182643265886
 30
0.0
  0
SEQEND
  5
3B3
330
3AE
100
AcDbEntity
  8
DIBUJOS
 62
     7
  0
POLYLINE
  5
3B4
330
374
100
AcDbEntity
  8
DIBUJOS
 62
     7
100
AcDb2dPolyline
 66
     1
 10
0.0
 20
0.0
 30
0.0
  0
VERTEX
  5
3B5
330
3B4
100
AcDbEntity
  8
DIBUJOS
 62
     7
100
AcDbVertex
100
AcDb2dVertex
 10
67.12674428031178
 20
32.76859446593294
 30
0.0
  0
VERTEX
  5
3B6
330
3B4
100
AcDbEntity
  8
DIBUJOS
 62
     7
100
AcDbVertex
100
AcDb2dVertex
 10
67.11664894930385
 20
32.79152713352175
 30
0.0
  0
VERTEX
  5
3B7
330
3B4
100
AcDbEntity
  8
DIBUJOS
 62
     7
100
AcDbVertex
100
AcDb2dVertex
 10
66.97402522836595
 20
33.05859267313008
 30
0.0
  0
VERTEX
  5
3B8
330
3B4
100
AcDbEntity
  8
DIBUJOS
 62
     7
100
AcDbVertex
100
AcDb2dVertex
 10
66.95288661959867
 20
33.0874192154387
 30
0.0
  0
SEQEND
  5
3B9
330
3B4
100
AcDbEntity
  8
DIBUJOS
 62
     7
  0
POLYLINE
  5
3BA
330
374
100
AcDbEntity
  8
DIBUJOS
 62
     7
100
AcDb2dPolyline
 66
     1
 10
0.0
 20
0.0
 30
0.0
  0
VERTEX
  5
3BB
330
3BA
100
AcDbEntity
  8
DIBUJOS
 62
     7
100
AcDbVertex
100
AcDb2dVertex
 10
67.13235195894447
 20
32.74622032389303
 30
0.0
  0
VERTEX
  5
3BC
330
3BA
100
AcDbEntity
  8
DIBUJOS
 62
     7
100
AcDbVertex
100
AcDb2dVertex
 10
67.13235195894447
 20
32.75181461213283
 30
0.0
  0
SEQEND
  5
3BD
330
3BA
100
AcDbEntity
  8
DIBUJOS
 62
     7
  0
POLYLINE
  5
3BE
330
374
100
AcDbEntity
  8
DIBUJOS
 62
     7
100
AcDb2dPolyline
 66
     1
 10
0.0
 20
0.0
 30
0.0
  0
VERTEX
  5
3BF
330
3BE
100
AcDbEntity
  8
DIBUJOS
 62
     7
100
AcDbVertex
100
AcDb2dVertex
 10
62.0287787291357
 20
32.65113247841096
 30
0.0
  0
VERTEX
  5
3C0
330
3BE
100
AcDbEntity
  8
DIBUJOS
 62
     7
100
AcDbVertex
100
AcDb2dVertex
 10
62.07364544133972
 20
32.72384768731244
 30
0.0
  0
SEQEND
  5
3C1
330
3BE
100
AcDbEntity
  8
DIBUJOS
 62
     7
  0
POLYLINE
  5
3C2
330
374
100
AcDbEntity
  8
DIBUJOS
 62
     7
100
AcDb2dPolyline
 66
     1
 10
0.0
 20
0.0
 30
0.0
  0
VERTEX
  5
3C3
330
3C2
100
AcDbEntity
  8
DIBUJOS
 62
     7
100
AcDbVertex
100
AcDb2dVertex
 10
67.19404397125048
 20
32.65113247841096
 30
0.0
  0
VERTEX
  5
3C4
330
3C2
100
AcDbEntity
  8
DIBUJOS
 62
     7
100
AcDbVertex
100
AcDb2dVertex
 10
67.14917801378111
 20
32.72384768731244
 30
0.0
  0
SEQEND
  5
3C5
330
3C2
100
AcDbEntity
  8
DIBUJOS
 62
     7
  0
POLYLINE
  5
3C6
330
374
100
AcDbEntity
  8
DIBUJOS
 62
     7
100
AcDb2dPolyline
 66
     1
 10
0.0
 20
0.0
 30
0.0
  0
VERTEX
  5
3C7
330
3C6
100
AcDbEntity
  8
DIBUJOS
 62
     7
100
AcDbVertex
100
AcDb2dVertex
 10
61.92782843799365
 20
32.48332942402805
 30
0.0
  0
VERTEX
  5
3C8
330
3C6
100
AcDbEntity
  8
DIBUJOS
 62
     7
100
AcDbVertex
100
AcDb2dVertex
 10
61.92222000462633
 20
32.48892371226849
 30
0.0
  0
SEQEND
  5
3C9
330
3C6
100
AcDbEntity
  8
DIBUJOS
 62
     7
  0
POLYLINE
  5
3CA
330
374
100
AcDbEntity
  8
DIBUJOS
 62
     7
100
AcDb2dPolyline
 66
     1
 10
0.0
 20
0.0
 30
0.0
  0
VERTEX
  5
3CB
330
3CA
100
AcDbEntity
  8
DIBUJOS
 62
     7
100
AcDbVertex
100
AcDb2dVertex
 10
61.92782843799365
 20
32.48332942402805
 30
0.0
  0
VERTEX
  5
3CC
330
3CA
100
AcDbEntity
  8
DIBUJOS
 62
     7
100
AcDbVertex
100
AcDb2dVertex
 10
62.01756186240136
 20
32.62875833637106
 30
0.0
  0
SEQEND
  5
3CD
330
3CA
100
AcDbEntity
  8
DIBUJOS
 62
     7
  0
POLYLINE
  5
3CE
330
374
100
AcDbEntity
  8
DIBUJOS
 62
     7
100
AcDb2dPolyline
 66
     1
 10
0.0
 20
0.0
 30
0.0
  0
VERTEX
  5
3CF
330
3CE
100
AcDbEntity
  8
DIBUJOS
 62
     7
100
AcDbVertex
100
AcDb2dVertex
 10
66.93045288612902
 20
32.36027465372624
 30
0.0
  0
VERTEX
  5
3D0
330
3CE
100
AcDbEntity
  8
DIBUJOS
 62
     7
100
AcDbVertex
100
AcDb2dVertex
 10
66.93174650136147
 20
32.36500781901848
 30
0.0
  0
VERTEX
  5
3D1
330
3CE
100
AcDbEntity
  8
DIBUJOS
 62
     7
100
AcDbVertex
100
AcDb2dVertex
 10
67.10823667662018
 20
32.74678035490061
 30
0.0
  0
VERTEX
  5
3D2
330
3CE
100
AcDbEntity
  8
DIBUJOS
 62
     7
100
AcDbVertex
100
AcDb2dVertex
 10
67.10991973494475
 20
32.75740739491331
 30
0.0
  0
SEQEND
  5
3D3
330
3CE
100
AcDbEntity
  8
DIBUJOS
 62
     7
  0
POLYLINE
  5
3D4
330
374
100
AcDbEntity
  8
DIBUJOS
 62
     7
100
AcDb2dPolyline
 66
     1
 10
0.0
 20
0.0
 30
0.0
  0
VERTEX
  5
3D5
330
3D4
100
AcDbEntity
  8
DIBUJOS
 62
     7
100
AcDbVertex
100
AcDb2dVertex
 10
62.29236981425684
 20
32.35468036548644
 30
0.0
  0
VERTEX
  5
3D6
330
3D4
100
AcDbEntity
  8
DIBUJOS
 62
     7
100
AcDbVertex
100
AcDb2dVertex
 10
62.1129037201764
 20
32.75740739491331
 30
0.0
  0
SEQEND
  5
3D7
330
3D4
100
AcDbEntity
  8
DIBUJOS
 62
     7
  0
POLYLINE
  5
3D8
330
374
100
AcDbEntity
  8
DIBUJOS
 62
     7
100
AcDb2dPolyline
 66
     1
 10
0.0
 20
0.0
 30
0.0
  0
VERTEX
  5
3D9
330
3D8
100
AcDbEntity
  8
DIBUJOS
 62
     7
100
AcDbVertex
100
AcDb2dVertex
 10
62.48866120843961
 20
32.16450467452294
 30
0.0
  0
VERTEX
  5
3DA
330
3D8
100
AcDbEntity
  8
DIBUJOS
 62
     7
100
AcDbVertex
100
AcDb2dVertex
 10
62.42136151750091
 20
32.17569174554321
 30
0.0
  0
SEQEND
  5
3DB
330
3D8
100
AcDbEntity
  8
DIBUJOS
 62
     7
  0
POLYLINE
  5
3DC
330
374
100
AcDbEntity
  8
DIBUJOS
 62
     7
100
AcDb2dPolyline
 66
     1
 10
0.0
 20
0.0
 30
0.0
  0
VERTEX
  5
3DD
330
3DC
100
AcDbEntity
  8
DIBUJOS
 62
     7
100
AcDbVertex
100
AcDb2dVertex
 10
62.49987732043898
 20
32.15891038628314
 30
0.0
  0
VERTEX
  5
3DE
330
3DC
100
AcDbEntity
  8
DIBUJOS
 62
     7
100
AcDbVertex
100
AcDb2dVertex
 10
62.50548575380664
 20
32.16450467452294
 30
0.0
  0
SEQEND
  5
3DF
330
3DC
100
AcDbEntity
  8
DIBUJOS
 62
     7
  0
POLYLINE
  5
3E0
330
374
100
AcDbEntity
  8
DIBUJOS
 62
     7
100
AcDb2dPolyline
 66
     1
 10
0.0
 20
0.0
 30
0.0
  0
VERTEX
  5
3E1
330
3E0
100
AcDbEntity
  8
DIBUJOS
 62
     7
100
AcDbVertex
100
AcDb2dVertex
 10
66.71733694657955
 20
32.15891038628314
 30
0.0
  0
VERTEX
  5
3E2
330
3E0
100
AcDbEntity
  8
DIBUJOS
 62
     7
100
AcDbVertex
100
AcDb2dVertex
 10
66.80146118288528
 20
32.17569174554321
 30
0.0
  0
SEQEND
  5
3E3
330
3E0
100
AcDbEntity
  8
DIBUJOS
 62
     7
  0
POLYLINE
  5
3E4
330
374
100
AcDbEntity
  8
DIBUJOS
 62
     7
100
AcDb2dPolyline
 66
     1
 10
0.0
 20
0.0
 30
0.0
  0
VERTEX
  5
3E5
330
3E4
100
AcDbEntity
  8
DIBUJOS
 62
     7
100
AcDbVertex
100
AcDb2dVertex
 10
62.75225229356042
 20
31.94076777049925
 30
0.0
  0
VERTEX
  5
3E6
330
3E4
100
AcDbEntity
  8
DIBUJOS
 62
     7
100
AcDbVertex
100
AcDb2dVertex
 10
62.75785997219344
 20
31.94636055327909
 30
0.0
  0
SEQEND
  5
3E7
330
3E4
100
AcDbEntity
  8
DIBUJOS
 62
     7
  0
POLYLINE
  5
3E8
330
374
100
AcDbEntity
  8
DIBUJOS
 62
     7
100
AcDb2dPolyline
 66
     1
 10
0.0
 20
0.0
 30
0.0
  0
VERTEX
  5
3E9
330
3E8
100
AcDbEntity
  8
DIBUJOS
 62
     7
100
AcDbVertex
100
AcDb2dVertex
 10
62.76346916029509
 20
31.94076777049925
 30
0.0
  0
VERTEX
  5
3EA
330
3E8
100
AcDbEntity
  8
DIBUJOS
 62
     7
100
AcDbVertex
100
AcDb2dVertex
 10
62.75785997219344
 20
31.94636055327909
 30
0.0
  0
SEQEND
  5
3EB
330
3E8
100
AcDbEntity
  8
DIBUJOS
 62
     7
  0
POLYLINE
  5
3EC
330
374
100
AcDbEntity
  8
DIBUJOS
 62
     7
100
AcDb2dPolyline
 66
     1
 10
0.0
 20
0.0
 30
0.0
  0
VERTEX
  5
3ED
330
3EC
100
AcDbEntity
  8
DIBUJOS
 62
     7
100
AcDbVertex
100
AcDb2dVertex
 10
62.75785997219344
 20
31.93517348225881
 30
0.0
  0
VERTEX
  5
3EE
330
3EC
100
AcDbEntity
  8
DIBUJOS
 62
     7
100
AcDbVertex
100
AcDb2dVertex
 10
62.75225229356042
 20
31.94076777049925
 30
0.0
  0
SEQEND
  5
3EF
330
3EC
100
AcDbEntity
  8
DIBUJOS
 62
     7
  0
POLYLINE
  5
3F0
330
374
100
AcDbEntity
  8
DIBUJOS
 62
     7
100
AcDb2dPolyline
 66
     1
 10
0.0
 20
0.0
 30
0.0
  0
VERTEX
  5
3F1
330
3F0
100
AcDbEntity
  8
DIBUJOS
 62
     7
100
AcDbVertex
100
AcDb2dVertex
 10
62.75785997219344
 20
31.93517348225881
 30
0.0
  0
VERTEX
  5
3F2
330
3F0
100
AcDbEntity
  8
DIBUJOS
 62
     7
100
AcDbVertex
100
AcDb2dVertex
 10
62.76346916029509
 20
31.94076777049925
 30
0.0
  0
SEQEND
  5
3F3
330
3F0
100
AcDbEntity
  8
DIBUJOS
 62
     7
  0
POLYLINE
  5
3F4
330
374
100
AcDbEntity
  8
DIBUJOS
 62
     7
100
AcDb2dPolyline
 66
     1
 10
0.0
 20
0.0
 30
0.0
  0
VERTEX
  5
3F5
330
3F4
100
AcDbEntity
  8
DIBUJOS
 62
     7
100
AcDbVertex
100
AcDb2dVertex
 10
62.73542774819339
 20
31.92958069947898
 30
0.0
  0
VERTEX
  5
3F6
330
3F4
100
AcDbEntity
  8
DIBUJOS
 62
     7
100
AcDbVertex
100
AcDb2dVertex
 10
62.75225229356042
 20
31.94076777049925
 30
0.0
  0
SEQEND
  5
3F7
330
3F4
100
AcDbEntity
  8
DIBUJOS
 62
     7
  0
POLYLINE
  5
3F8
330
374
100
AcDbEntity
  8
DIBUJOS
 62
     7
100
AcDb2dPolyline
 66
     1
 10
0.0
 20
0.0
 30
0.0
  0
VERTEX
  5
3F9
330
3F8
100
AcDbEntity
  8
DIBUJOS
 62
     7
100
AcDbVertex
100
AcDb2dVertex
 10
62.73542774819339
 20
31.92398791669914
 30
0.0
  0
VERTEX
  5
3FA
330
3F8
100
AcDbEntity
  8
DIBUJOS
 62
     7
100
AcDbVertex
100
AcDb2dVertex
 10
62.73542774819339
 20
31.92958069947898
 30
0.0
  0
SEQEND
  5
3FB
330
3F8
100
AcDbEntity
  8
DIBUJOS
 62
     7
  0
POLYLINE
  5
3FC
330
374
100
AcDbEntity
  8
DIBUJOS
 62
     7
100
AcDb2dPolyline
 66
     1
 10
0.0
 20
0.0
 30
0.0
  0
VERTEX
  5
3FD
330
3FC
100
AcDbEntity
  8
DIBUJOS
 62
     7
100
AcDbVertex
100
AcDb2dVertex
 10
62.74103542682576
 20
31.92398791669914
 30
0.0
  0
VERTEX
  5
3FE
330
3FC
100
AcDbEntity
  8
DIBUJOS
 62
     7
100
AcDbVertex
100
AcDb2dVertex
 10
62.73542774819339
 20
31.92398791669914
 30
0.0
  0
SEQEND
  5
3FF
330
3FC
100
AcDbEntity
  8
DIBUJOS
 62
     7
  0
POLYLINE
  5
400
330
374
100
AcDbEntity
  8
DIBUJOS
 62
     7
100
AcDb2dPolyline
 66
     1
 10
0.0
 20
0.0
 30
0.0
  0
VERTEX
  5
401
330
400
100
AcDbEntity
  8
DIBUJOS
 62
     7
100
AcDbVertex
100
AcDb2dVertex
 10
62.73542774819339
 20
31.9183936284587
 30
0.0
  0
VERTEX
  5
402
330
400
100
AcDbEntity
  8
DIBUJOS
 62
     7
100
AcDbVertex
100
AcDb2dVertex
 10
62.73542774819339
 20
31.92398791669914
 30
0.0
  0
SEQEND
  5
403
330
400
100
AcDbEntity
  8
DIBUJOS
 62
     7
  0
POLYLINE
  5
404
330
374
100
AcDbEntity
  8
DIBUJOS
 62
     7
100
AcDb2dPolyline
 66
     1
 10
0.0
 20
0.0
 30
0.0
  0
VERTEX
  5
405
330
404
100
AcDbEntity
  8
DIBUJOS
 62
     7
100
AcDbVertex
100
AcDb2dVertex
 10
62.74664310545845
 20
31.9183936284587
 30
0.0
  0
VERTEX
  5
406
330
404
100
AcDbEntity
  8
DIBUJOS
 62
     7
100
AcDbVertex
100
AcDb2dVertex
 10
62.74103542682576
 20
31.92398791669914
 30
0.0
  0
SEQEND
  5
407
330
404
100
AcDbEntity
  8
DIBUJOS
 62
     7
  0
POLYLINE
  5
408
330
374
100
AcDbEntity
  8
DIBUJOS
 62
     7
100
AcDb2dPolyline
 66
     1
 10
0.0
 20
0.0
 30
0.0
  0
VERTEX
  5
409
330
408
100
AcDbEntity
  8
DIBUJOS
 62
     7
100
AcDbVertex
100
AcDb2dVertex
 10
62.74664310545845
 20
31.9183936284587
 30
0.0
  0
VERTEX
  5
40A
330
408
100
AcDbEntity
  8
DIBUJOS
 62
     7
100
AcDbVertex
100
AcDb2dVertex
 10
62.75225229356042
 20
31.9183936284587
 30
0.0
  0
VERTEX
  5
40B
330
408
100
AcDbEntity
  8
DIBUJOS
 62
     7
100
AcDbVertex
100
AcDb2dVertex
 10
62.76346916029509
 20
31.92958069947898
 30
0.0
  0
VERTEX
  5
40C
330
408
100
AcDbEntity
  8
DIBUJOS
 62
     7
100
AcDbVertex
100
AcDb2dVertex
 10
62.75785997219344
 20
31.93517348225881
 30
0.0
  0
SEQEND
  5
40D
330
408
100
AcDbEntity
  8
DIBUJOS
 62
     7
  0
POLYLINE
  5
40E
330
374
100
AcDbEntity
  8
DIBUJOS
 62
     7
100
AcDb2dPolyline
 66
     1
 10
0.0
 20
0.0
 30
0.0
  0
VERTEX
  5
40F
330
40E
100
AcDbEntity
  8
DIBUJOS
 62
     7
100
AcDbVertex
100
AcDb2dVertex
 10
62.7298185600911
 20
31.91280084567886
 30
0.0
  0
VERTEX
  5
410
330
40E
100
AcDbEntity
  8
DIBUJOS
 62
     7
100
AcDbVertex
100
AcDb2dVertex
 10
62.73542774819339
 20
31.9183936284587
 30
0.0
  0
SEQEND
  5
411
330
40E
100
AcDbEntity
  8
DIBUJOS
 62
     7
  0
POLYLINE
  5
412
330
374
100
AcDbEntity
  8
DIBUJOS
 62
     7
100
AcDb2dPolyline
 66
     1
 10
0.0
 20
0.0
 30
0.0
  0
VERTEX
  5
413
330
412
100
AcDbEntity
  8
DIBUJOS
 62
     7
100
AcDbVertex
100
AcDb2dVertex
 10
62.74103542682576
 20
31.91280084567886
 30
0.0
  0
VERTEX
  5
414
330
412
100
AcDbEntity
  8
DIBUJOS
 62
     7
100
AcDbVertex
100
AcDb2dVertex
 10
62.73542774819339
 20
31.9183936284587
 30
0.0
  0
SEQEND
  5
415
330
412
100
AcDbEntity
  8
DIBUJOS
 62
     7
  0
POLYLINE
  5
416
330
374
100
AcDbEntity
  8
DIBUJOS
 62
     7
100
AcDb2dPolyline
 66
     1
 10
0.0
 20
0.0
 30
0.0
  0
VERTEX
  5
417
330
416
100
AcDbEntity
  8
DIBUJOS
 62
     7
100
AcDbVertex
100
AcDb2dVertex
 10
62.74103542682576
 20
31.91280084567886
 30
0.0
  0
VERTEX
  5
418
330
416
100
AcDbEntity
  8
DIBUJOS
 62
     7
100
AcDbVertex
100
AcDb2dVertex
 10
62.74664310545845
 20
31.9183936284587
 30
0.0
  0
SEQEND
  5
419
330
416
100
AcDbEntity
  8
DIBUJOS
 62
     7
  0
POLYLINE
  5
41A
330
374
100
AcDbEntity
  8
DIBUJOS
 62
     7
100
AcDb2dPolyline
 66
     1
 10
0.0
 20
0.0
 30
0.0
  0
VERTEX
  5
41B
330
41A
100
AcDbEntity
  8
DIBUJOS
 62
     7
100
AcDbVertex
100
AcDb2dVertex
 10
62.71860169335675
 20
31.90720655743843
 30
0.0
  0
VERTEX
  5
41C
330
41A
100
AcDbEntity
  8
DIBUJOS
 62
     7
100
AcDbVertex
100
AcDb2dVertex
 10
62.7298185600911
 20
31.91280084567886
 30
0.0
  0
SEQEND
  5
41D
330
41A
100
AcDbEntity
  8
DIBUJOS
 62
     7
  0
POLYLINE
  5
41E
330
374
100
AcDbEntity
  8
DIBUJOS
 62
     7
100
AcDb2dPolyline
 66
     1
 10
0.0
 20
0.0
 30
0.0
  0
VERTEX
  5
41F
330
41E
100
AcDbEntity
  8
DIBUJOS
 62
     7
100
AcDbVertex
100
AcDb2dVertex
 10
62.73542774819339
 20
31.90720655743843
 30
0.0
  0
VERTEX
  5
420
330
41E
100
AcDbEntity
  8
DIBUJOS
 62
     7
100
AcDbVertex
100
AcDb2dVertex
 10
62.7298185600911
 20
31.91280084567886
 30
0.0
  0
SEQEND
  5
421
330
41E
100
AcDbEntity
  8
DIBUJOS
 62
     7
  0
POLYLINE
  5
422
330
374
100
AcDbEntity
  8
DIBUJOS
 62
     7
100
AcDb2dPolyline
 66
     1
 10
0.0
 20
0.0
 30
0.0
  0
VERTEX
  5
423
330
422
100
AcDbEntity
  8
DIBUJOS
 62
     7
100
AcDbVertex
100
AcDb2dVertex
 10
62.73542774819339
 20
31.90720655743843
 30
0.0
  0
VERTEX
  5
424
330
422
100
AcDbEntity
  8
DIBUJOS
 62
     7
100
AcDbVertex
100
AcDb2dVertex
 10
62.74103542682576
 20
31.91280084567886
 30
0.0
  0
SEQEND
  5
425
330
422
100
AcDbEntity
  8
DIBUJOS
 62
     7
  0
POLYLINE
  5
426
330
374
100
AcDbEntity
  8
DIBUJOS
 62
     7
100
AcDb2dPolyline
 66
     1
 10
0.0
 20
0.0
 30
0.0
  0
VERTEX
  5
427
330
426
100
AcDbEntity
  8
DIBUJOS
 62
     7
100
AcDbVertex
100
AcDb2dVertex
 10
62.71860169335675
 20
31.90161377465859
 30
0.0
  0
VERTEX
  5
428
330
426
100
AcDbEntity
  8
DIBUJOS
 62
     7
100
AcDbVertex
100
AcDb2dVertex
 10
62.71860169335675
 20
31.90720655743843
 30
0.0
  0
SEQEND
  5
429
330
426
100
AcDbEntity
  8
DIBUJOS
 62
     7
  0
POLYLINE
  5
42A
330
374
100
AcDbEntity
  8
DIBUJOS
 62
     7
100
AcDb2dPolyline
 66
     1
 10
0.0
 20
0.0
 30
0.0
  0
VERTEX
  5
42B
330
42A
100
AcDbEntity
  8
DIBUJOS
 62
     7
100
AcDbVertex
100
AcDb2dVertex
 10
62.72421088145873
 20
31.90161377465859
 30
0.0
  0
VERTEX
  5
42C
330
42A
100
AcDbEntity
  8
DIBUJOS
 62
     7
100
AcDbVertex
100
AcDb2dVertex
 10
62.71860169335675
 20
31.90161377465859
 30
0.0
  0
SEQEND
  5
42D
330
42A
100
AcDbEntity
  8
DIBUJOS
 62
     7
  0
POLYLINE
  5
42E
330
374
100
AcDbEntity
  8
DIBUJOS
 62
     7
100
AcDb2dPolyline
 66
     1
 10
0.0
 20
0.0
 30
0.0
  0
VERTEX
  5
42F
330
42E
100
AcDbEntity
  8
DIBUJOS
 62
     7
100
AcDbVertex
100
AcDb2dVertex
 10
62.71860169335675
 20
31.89601948641815
 30
0.0
  0
VERTEX
  5
430
330
42E
100
AcDbEntity
  8
DIBUJOS
 62
     7
100
AcDbVertex
100
AcDb2dVertex
 10
62.71860169335675
 20
31.90161377465859
 30
0.0
  0
SEQEND
  5
431
330
42E
100
AcDbEntity
  8
DIBUJOS
 62
     7
  0
POLYLINE
  5
432
330
374
100
AcDbEntity
  8
DIBUJOS
 62
     7
100
AcDb2dPolyline
 66
     1
 10
0.0
 20
0.0
 30
0.0
  0
VERTEX
  5
433
330
432
100
AcDbEntity
  8
DIBUJOS
 62
     7
100
AcDbVertex
100
AcDb2dVertex
 10
62.7298185600911
 20
31.89601948641815
 30
0.0
  0
VERTEX
  5
434
330
432
100
AcDbEntity
  8
DIBUJOS
 62
     7
100
AcDbVertex
100
AcDb2dVertex
 10
62.72421088145873
 20
31.90161377465859
 30
0.0
  0
SEQEND
  5
435
330
432
100
AcDbEntity
  8
DIBUJOS
 62
     7
  0
POLYLINE
  5
436
330
374
100
AcDbEntity
  8
DIBUJOS
 62
     7
100
AcDb2dPolyline
 66
     1
 10
0.0
 20
0.0
 30
0.0
  0
VERTEX
  5
437
330
436
100
AcDbEntity
  8
DIBUJOS
 62
     7
100
AcDbVertex
100
AcDb2dVertex
 10
62.7298185600911
 20
31.89601948641815
 30
0.0
  0
VERTEX
  5
438
330
436
100
AcDbEntity
  8
DIBUJOS
 62
     7
100
AcDbVertex
100
AcDb2dVertex
 10
62.73542774819339
 20
31.90720655743843
 30
0.0
  0
SEQEND
  5
439
330
436
100
AcDbEntity
  8
DIBUJOS
 62
     7
  0
POLYLINE
  5
43A
330
374
100
AcDbEntity
  8
DIBUJOS
 62
     7
100
AcDb2dPolyline
 66
     1
 10
0.0
 20
0.0
 30
0.0
  0
VERTEX
  5
43B
330
43A
100
AcDbEntity
  8
DIBUJOS
 62
     7
100
AcDbVertex
100
AcDb2dVertex
 10
62.71299401472375
 20
31.89042670363832
 30
0.0
  0
VERTEX
  5
43C
330
43A
100
AcDbEntity
  8
DIBUJOS
 62
     7
100
AcDbVertex
100
AcDb2dVertex
 10
62.71860169335675
 20
31.89601948641815
 30
0.0
  0
SEQEND
  5
43D
330
43A
100
AcDbEntity
  8
DIBUJOS
 62
     7
  0
POLYLINE
  5
43E
330
374
100
AcDbEntity
  8
DIBUJOS
 62
     7
100
AcDb2dPolyline
 66
     1
 10
0.0
 20
0.0
 30
0.0
  0
VERTEX
  5
43F
330
43E
100
AcDbEntity
  8
DIBUJOS
 62
     7
100
AcDbVertex
100
AcDb2dVertex
 10
62.72421088145873
 20
31.89042670363832
 30
0.0
  0
VERTEX
  5
440
330
43E
100
AcDbEntity
  8
DIBUJOS
 62
     7
100
AcDbVertex
100
AcDb2dVertex
 10
62.71860169335675
 20
31.89601948641815
 30
0.0
  0
SEQEND
  5
441
330
43E
100
AcDbEntity
  8
DIBUJOS
 62
     7
  0
POLYLINE
  5
442
330
374
100
AcDbEntity
  8
DIBUJOS
 62
     7
100
AcDb2dPolyline
 66
     1
 10
0.0
 20
0.0
 30
0.0
  0
VERTEX
  5
443
330
442
100
AcDbEntity
  8
DIBUJOS
 62
     7
100
AcDbVertex
100
AcDb2dVertex
 10
62.72421088145873
 20
31.89042670363832
 30
0.0
  0
VERTEX
  5
444
330
442
100
AcDbEntity
  8
DIBUJOS
 62
     7
100
AcDbVertex
100
AcDb2dVertex
 10
62.7298185600911
 20
31.89601948641815
 30
0.0
  0
SEQEND
  5
445
330
442
100
AcDbEntity
  8
DIBUJOS
 62
     7
  0
POLYLINE
  5
446
330
374
100
AcDbEntity
  8
DIBUJOS
 62
     7
100
AcDb2dPolyline
 66
     1
 10
0.0
 20
0.0
 30
0.0
  0
VERTEX
  5
447
330
446
100
AcDbEntity
  8
DIBUJOS
 62
     7
100
AcDbVertex
100
AcDb2dVertex
 10
66.50421949756014
 20
31.89042670363832
 30
0.0
  0
VERTEX
  5
448
330
446
100
AcDbEntity
  8
DIBUJOS
 62
     7
100
AcDbVertex
100
AcDb2dVertex
 10
66.50646407848258
 20
31.89434240431405
 30
0.0
  0
VERTEX
  5
449
330
446
100
AcDbEntity
  8
DIBUJOS
 62
     7
100
AcDbVertex
100
AcDb2dVertex
 10
66.47483314826815
 20
31.9397606179603
 30
0.0
  0
VERTEX
  5
44A
330
446
100
AcDbEntity
  8
DIBUJOS
 62
     7
100
AcDbVertex
100
AcDb2dVertex
 10
66.4606999867507
 20
31.95855477683767
 30
0.0
  0
VERTEX
  5
44B
330
446
100
AcDbEntity
  8
DIBUJOS
 62
     7
100
AcDbVertex
100
AcDb2dVertex
 10
66.41869447369838
 20
32.01215215302695
 30
0.0
  0
VERTEX
  5
44C
330
446
100
AcDbEntity
  8
DIBUJOS
 62
     7
100
AcDbVertex
100
AcDb2dVertex
 10
66.30932889093374
 20
32.12668150505605
 30
0.0
  0
VERTEX
  5
44D
330
446
100
AcDbEntity
  8
DIBUJOS
 62
     7
100
AcDbVertex
100
AcDb2dVertex
 10
66.1159764335741
 20
32.30854103664421
 30
0.0
  0
VERTEX
  5
44E
330
446
100
AcDbEntity
  8
DIBUJOS
 62
     7
100
AcDbVertex
100
AcDb2dVertex
 10
65.91448340801396
 20
32.4540723202463
 30
0.0
  0
VERTEX
  5
44F
330
446
100
AcDbEntity
  8
DIBUJOS
 62
     7
100
AcDbVertex
100
AcDb2dVertex
 10
65.79701046537421
 20
32.52136486331287
 30
0.0
  0
VERTEX
  5
450
330
446
100
AcDbEntity
  8
DIBUJOS
 62
     7
100
AcDbVertex
100
AcDb2dVertex
 10
65.66353261922387
 20
32.58513011430576
 30
0.0
  0
VERTEX
  5
451
330
446
100
AcDbEntity
  8
DIBUJOS
 62
     7
100
AcDbVertex
100
AcDb2dVertex
 10
65.56146079235509
 20
32.62763977981458
 30
0.0
  0
VERTEX
  5
452
330
446
100
AcDbEntity
  8
DIBUJOS
 62
     7
100
AcDbVertex
100
AcDb2dVertex
 10
65.28691246922749
 20
32.69906330429473
 30
0.0
  0
VERTEX
  5
453
330
446
100
AcDbEntity
  8
DIBUJOS
 62
     7
100
AcDbVertex
100
AcDb2dVertex
 10
65.24825797813075
 20
32.70388228078974
 30
0.0
  0
VERTEX
  5
454
330
446
100
AcDbEntity
  8
DIBUJOS
 62
     7
100
AcDbVertex
100
AcDb2dVertex
 10
64.97861693985797
 20
32.73798545934123
 30
0.0
  0
VERTEX
  5
455
330
446
100
AcDbEntity
  8
DIBUJOS
 62
     7
100
AcDbVertex
100
AcDb2dVertex
 10
64.87794590054523
 20
32.74326962288388
 30
0.0
  0
VERTEX
  5
456
330
446
100
AcDbEntity
  8
DIBUJOS
 62
     7
100
AcDbVertex
100
AcDb2dVertex
 10
64.74320613801886
 20
32.75181461213283
 30
0.0
  0
VERTEX
  5
457
330
446
100
AcDbEntity
  8
DIBUJOS
 62
     7
100
AcDbVertex
100
AcDb2dVertex
 10
64.47400737426535
 20
32.75181461213283
 30
0.0
  0
VERTEX
  5
458
330
446
100
AcDbEntity
  8
DIBUJOS
 62
     7
100
AcDbVertex
100
AcDb2dVertex
 10
64.33390597661021
 20
32.74354060562921
 30
0.0
  0
VERTEX
  5
459
330
446
100
AcDbEntity
  8
DIBUJOS
 62
     7
100
AcDbVertex
100
AcDb2dVertex
 10
64.05308127992815
 20
32.71506935181002
 30
0.0
  0
VERTEX
  5
45A
330
446
100
AcDbEntity
  8
DIBUJOS
 62
     7
100
AcDbVertex
100
AcDb2dVertex
 10
63.96956083136238
 20
32.70465759253453
 30
0.0
  0
VERTEX
  5
45B
330
446
100
AcDbEntity
  8
DIBUJOS
 62
     7
100
AcDbVertex
100
AcDb2dVertex
 10
63.72298750368537
 20
32.64915882074612
 30
0.0
  0
VERTEX
  5
45C
330
446
100
AcDbEntity
  8
DIBUJOS
 62
     7
100
AcDbVertex
100
AcDb2dVertex
 10
63.5929391718967
 20
32.60190996810651
 30
0.0
  0
VERTEX
  5
45D
330
446
100
AcDbEntity
  8
DIBUJOS
 62
     7
100
AcDbVertex
100
AcDb2dVertex
 10
63.43733099561661
 20
32.53238031192762
 30
0.0
  0
VERTEX
  5
45E
330
446
100
AcDbEntity
  8
DIBUJOS
 62
     7
100
AcDbVertex
100
AcDb2dVertex
 10
63.31813122004122
 20
32.46207534400394
 30
0.0
  0
VERTEX
  5
45F
330
446
100
AcDbEntity
  8
DIBUJOS
 62
     7
100
AcDbVertex
100
AcDb2dVertex
 10
63.14584491692057
 20
32.34215192987462
 30
0.0
  0
VERTEX
  5
460
330
446
100
AcDbEntity
  8
DIBUJOS
 62
     7
100
AcDbVertex
100
AcDb2dVertex
 10
63.12700070156366
 20
32.32805631071692
 30
0.0
  0
VERTEX
  5
461
330
446
100
AcDbEntity
  8
DIBUJOS
 62
     7
100
AcDbVertex
100
AcDb2dVertex
 10
63.03402795593247
 20
32.24700838238378
 30
0.0
  0
VERTEX
  5
462
330
446
100
AcDbEntity
  8
DIBUJOS
 62
     7
100
AcDbVertex
100
AcDb2dVertex
 10
62.84623336471694
 20
32.06522111286134
 30
0.0
  0
VERTEX
  5
463
330
446
100
AcDbEntity
  8
DIBUJOS
 62
     7
100
AcDbVertex
100
AcDb2dVertex
 10
62.78729462450439
 20
32.00106143142722
 30
0.0
  0
VERTEX
  5
464
330
446
100
AcDbEntity
  8
DIBUJOS
 62
     7
100
AcDbVertex
100
AcDb2dVertex
 10
62.75785997219344
 20
31.94636055327909
 30
0.0
  0
SEQEND
  5
465
330
446
100
AcDbEntity
  8
DIBUJOS
 62
     7
  0
POLYLINE
  5
466
330
374
100
AcDbEntity
  8
DIBUJOS
 62
     7
100
AcDb2dPolyline
 66
     1
 10
0.0
 20
0.0
 30
0.0
  0
VERTEX
  5
467
330
466
100
AcDbEntity
  8
DIBUJOS
 62
     7
100
AcDbVertex
100
AcDb2dVertex
 10
62.70738482662209
 20
31.88483392085784
 30
0.0
  0
VERTEX
  5
468
330
466
100
AcDbEntity
  8
DIBUJOS
 62
     7
100
AcDbVertex
100
AcDb2dVertex
 10
62.71299401472375
 20
31.89042670363832
 30
0.0
  0
SEQEND
  5
469
330
466
100
AcDbEntity
  8
DIBUJOS
 62
     7
  0
POLYLINE
  5
46A
330
374
100
AcDbEntity
  8
DIBUJOS
 62
     7
100
AcDb2dPolyline
 66
     1
 10
0.0
 20
0.0
 30
0.0
  0
VERTEX
  5
46B
330
46A
100
AcDbEntity
  8
DIBUJOS
 62
     7
100
AcDbVertex
100
AcDb2dVertex
 10
62.71860169335675
 20
31.88483392085784
 30
0.0
  0
VERTEX
  5
46C
330
46A
100
AcDbEntity
  8
DIBUJOS
 62
     7
100
AcDbVertex
100
AcDb2dVertex
 10
62.71299401472375
 20
31.89042670363832
 30
0.0
  0
SEQEND
  5
46D
330
46A
100
AcDbEntity
  8
DIBUJOS
 62
     7
  0
POLYLINE
  5
46E
330
374
100
AcDbEntity
  8
DIBUJOS
 62
     7
100
AcDb2dPolyline
 66
     1
 10
0.0
 20
0.0
 30
0.0
  0
VERTEX
  5
46F
330
46E
100
AcDbEntity
  8
DIBUJOS
 62
     7
100
AcDbVertex
100
AcDb2dVertex
 10
62.71860169335675
 20
31.88483392085784
 30
0.0
  0
VERTEX
  5
470
330
46E
100
AcDbEntity
  8
DIBUJOS
 62
     7
100
AcDbVertex
100
AcDb2dVertex
 10
62.72421088145873
 20
31.89042670363832
 30
0.0
  0
SEQEND
  5
471
330
46E
100
AcDbEntity
  8
DIBUJOS
 62
     7
  0
POLYLINE
  5
472
330
374
100
AcDbEntity
  8
DIBUJOS
 62
     7
100
AcDb2dPolyline
 66
     1
 10
0.0
 20
0.0
 30
0.0
  0
VERTEX
  5
473
330
472
100
AcDbEntity
  8
DIBUJOS
 62
     7
100
AcDbVertex
100
AcDb2dVertex
 10
66.49861181892746
 20
31.88483392085784
 30
0.0
  0
VERTEX
  5
474
330
472
100
AcDbEntity
  8
DIBUJOS
 62
     7
100
AcDbVertex
100
AcDb2dVertex
 10
66.49300414029541
 20
31.88483392085784
 30
0.0
  0
VERTEX
  5
475
330
472
100
AcDbEntity
  8
DIBUJOS
 62
     7
100
AcDbVertex
100
AcDb2dVertex
 10
66.44113424504488
 20
31.94510951627018
 30
0.0
  0
VERTEX
  5
476
330
472
100
AcDbEntity
  8
DIBUJOS
 62
     7
100
AcDbVertex
100
AcDb2dVertex
 10
66.39344859883127
 20
31.99795416260953
 30
0.0
  0
VERTEX
  5
477
330
472
100
AcDbEntity
  8
DIBUJOS
 62
     7
100
AcDbVertex
100
AcDb2dVertex
 10
66.20697932170462
 20
32.19806588758311
 30
0.0
  0
VERTEX
  5
478
330
472
100
AcDbEntity
  8
DIBUJOS
 62
     7
100
AcDbVertex
100
AcDb2dVertex
 10
66.07689325318205
 20
32.30856964037825
 30
0.0
  0
VERTEX
  5
479
330
472
100
AcDbEntity
  8
DIBUJOS
 62
     7
100
AcDbVertex
100
AcDb2dVertex
 10
65.90356843514927
 20
32.42627701783144
 30
0.0
  0
VERTEX
  5
47A
330
472
100
AcDbEntity
  8
DIBUJOS
 62
     7
100
AcDbVertex
100
AcDb2dVertex
 10
65.78549170476957
 20
32.49322631608696
 30
0.0
  0
VERTEX
  5
47B
330
472
100
AcDbEntity
  8
DIBUJOS
 62
     7
100
AcDbVertex
100
AcDb2dVertex
 10
65.62315280466078
 20
32.56611314739332
 30
0.0
  0
VERTEX
  5
47C
330
472
100
AcDbEntity
  8
DIBUJOS
 62
     7
100
AcDbVertex
100
AcDb2dVertex
 10
65.61866666175483
 20
32.56835026050565
 30
0.0
  0
VERTEX
  5
47D
330
472
100
AcDbEntity
  8
DIBUJOS
 62
     7
100
AcDbVertex
100
AcDb2dVertex
 10
65.51111546114801
 20
32.60982718066139
 30
0.0
  0
VERTEX
  5
47E
330
472
100
AcDbEntity
  8
DIBUJOS
 62
     7
100
AcDbVertex
100
AcDb2dVertex
 10
65.48954514414682
 20
32.61412978447986
 30
0.0
  0
VERTEX
  5
47F
330
472
100
AcDbEntity
  8
DIBUJOS
 62
     7
100
AcDbVertex
100
AcDb2dVertex
 10
65.24207368220665
 20
32.67105121568336
 30
0.0
  0
VERTEX
  5
480
330
472
100
AcDbEntity
  8
DIBUJOS
 62
     7
100
AcDbVertex
100
AcDb2dVertex
 10
65.113693314049
 20
32.68704220860164
 30
0.0
  0
VERTEX
  5
481
330
472
100
AcDbEntity
  8
DIBUJOS
 62
     7
100
AcDbVertex
100
AcDb2dVertex
 10
64.97302586538846
 20
32.70440316984551
 30
0.0
  0
VERTEX
  5
482
330
472
100
AcDbEntity
  8
DIBUJOS
 62
     7
100
AcDbVertex
100
AcDb2dVertex
 10
64.85549405344376
 20
32.70973099171856
 30
0.0
  0
VERTEX
  5
483
330
472
100
AcDbEntity
  8
DIBUJOS
 62
     7
100
AcDbVertex
100
AcDb2dVertex
 10
64.50204878636737
 20
32.71825339907265
 30
0.0
  0
VERTEX
  5
484
330
472
100
AcDbEntity
  8
DIBUJOS
 62
     7
100
AcDbVertex
100
AcDb2dVertex
 10
64.24418764689607
 20
32.70440316984551
 30
0.0
  0
VERTEX
  5
485
330
472
100
AcDbEntity
  8
DIBUJOS
 62
     7
100
AcDbVertex
100
AcDb2dVertex
 10
63.9014641406076
 20
32.65870042431624
 30
0.0
  0
VERTEX
  5
486
330
472
100
AcDbEntity
  8
DIBUJOS
 62
     7
100
AcDbVertex
100
AcDb2dVertex
 10
63.6557527199288
 20
32.59408007221435
 30
0.0
  0
VERTEX
  5
487
330
472
100
AcDbEntity
  8
DIBUJOS
 62
     7
100
AcDbVertex
100
AcDb2dVertex
 10
63.53237020478671
 20
32.54317897434584
 30
0.0
  0
VERTEX
  5
488
330
472
100
AcDbEntity
  8
DIBUJOS
 62
     7
100
AcDbVertex
100
AcDb2dVertex
 10
63.42020304690968
 20
32.487805155712
 30
0.0
  0
VERTEX
  5
489
330
472
100
AcDbEntity
  8
DIBUJOS
 62
     7
100
AcDbVertex
100
AcDb2dVertex
 10
63.29569899604117
 20
32.41732705992349
 30
0.0
  0
VERTEX
  5
48A
330
472
100
AcDbEntity
  8
DIBUJOS
 62
     7
100
AcDbVertex
100
AcDb2dVertex
 10
63.09910570798876
 20
32.27766405822644
 30
0.0
  0
VERTEX
  5
48B
330
472
100
AcDbEntity
  8
DIBUJOS
 62
     7
100
AcDbVertex
100
AcDb2dVertex
 10
62.96407008946989
 20
32.1547116591837
 30
0.0
  0
VERTEX
  5
48C
330
472
100
AcDbEntity
  8
DIBUJOS
 62
     7
100
AcDbVertex
100
AcDb2dVertex
 10
62.78590289376442
 20
31.9631419125398
 30
0.0
  0
VERTEX
  5
48D
330
472
100
AcDbEntity
  8
DIBUJOS
 62
     7
100
AcDbVertex
100
AcDb2dVertex
 10
62.78590289376442
 20
31.95754762429936
 30
0.0
  0
VERTEX
  5
48E
330
472
100
AcDbEntity
  8
DIBUJOS
 62
     7
100
AcDbVertex
100
AcDb2dVertex
 10
62.76346916029509
 20
31.94076777049925
 30
0.0
  0
SEQEND
  5
48F
330
472
100
AcDbEntity
  8
DIBUJOS
 62
     7
  0
POLYLINE
  5
490
330
374
100
AcDbEntity
  8
DIBUJOS
 62
     7
100
AcDb2dPolyline
 66
     1
 10
0.0
 20
0.0
 30
0.0
  0
VERTEX
  5
491
330
490
100
AcDbEntity
  8
DIBUJOS
 62
     7
100
AcDbVertex
100
AcDb2dVertex
 10
66.49861181892746
 20
31.88483392085784
 30
0.0
  0
VERTEX
  5
492
330
490
100
AcDbEntity
  8
DIBUJOS
 62
     7
100
AcDbVertex
100
AcDb2dVertex
 10
66.50421949756014
 20
31.89042670363832
 30
0.0
  0
SEQEND
  5
493
330
490
100
AcDbEntity
  8
DIBUJOS
 62
     7
  0
POLYLINE
  5
494
330
374
100
AcDbEntity
  8
DIBUJOS
 62
     7
100
AcDb2dPolyline
 66
     1
 10
0.0
 20
0.0
 30
0.0
  0
VERTEX
  5
495
330
494
100
AcDbEntity
  8
DIBUJOS
 62
     7
100
AcDbVertex
100
AcDb2dVertex
 10
66.50982868566213
 20
31.88483392085784
 30
0.0
  0
VERTEX
  5
496
330
494
100
AcDbEntity
  8
DIBUJOS
 62
     7
100
AcDbVertex
100
AcDb2dVertex
 10
66.50421949756014
 20
31.89042670363832
 30
0.0
  0
SEQEND
  5
497
330
494
100
AcDbEntity
  8
DIBUJOS
 62
     7
  0
POLYLINE
  5
498
330
374
100
AcDbEntity
  8
DIBUJOS
 62
     7
100
AcDb2dPolyline
 66
     1
 10
0.0
 20
0.0
 30
0.0
  0
VERTEX
  5
499
330
498
100
AcDbEntity
  8
DIBUJOS
 62
     7
100
AcDbVertex
100
AcDb2dVertex
 10
62.7017771479894
 20
31.87923963261804
 30
0.0
  0
VERTEX
  5
49A
330
498
100
AcDbEntity
  8
DIBUJOS
 62
     7
100
AcDbVertex
100
AcDb2dVertex
 10
62.70738482662209
 20
31.88483392085784
 30
0.0
  0
SEQEND
  5
49B
330
498
100
AcDbEntity
  8
DIBUJOS
 62
     7
  0
POLYLINE
  5
49C
330
374
100
AcDbEntity
  8
DIBUJOS
 62
     7
100
AcDb2dPolyline
 66
     1
 10
0.0
 20
0.0
 30
0.0
  0
VERTEX
  5
49D
330
49C
100
AcDbEntity
  8
DIBUJOS
 62
     7
100
AcDbVertex
100
AcDb2dVertex
 10
62.71299401472375
 20
31.87923963261804
 30
0.0
  0
VERTEX
  5
49E
330
49C
100
AcDbEntity
  8
DIBUJOS
 62
     7
100
AcDbVertex
100
AcDb2dVertex
 10
62.70738482662209
 20
31.88483392085784
 30
0.0
  0
SEQEND
  5
49F
330
49C
100
AcDbEntity
  8
DIBUJOS
 62
     7
  0
POLYLINE
  5
4A0
330
374
100
AcDbEntity
  8
DIBUJOS
 62
     7
100
AcDb2dPolyline
 66
     1
 10
0.0
 20
0.0
 30
0.0
  0
VERTEX
  5
4A1
330
4A0
100
AcDbEntity
  8
DIBUJOS
 62
     7
100
AcDbVertex
100
AcDb2dVertex
 10
62.71299401472375
 20
31.87923963261804
 30
0.0
  0
VERTEX
  5
4A2
330
4A0
100
AcDbEntity
  8
DIBUJOS
 62
     7
100
AcDbVertex
100
AcDb2dVertex
 10
62.71860169335675
 20
31.88483392085784
 30
0.0
  0
SEQEND
  5
4A3
330
4A0
100
AcDbEntity
  8
DIBUJOS
 62
     7
  0
POLYLINE
  5
4A4
330
374
100
AcDbEntity
  8
DIBUJOS
 62
     7
100
AcDb2dPolyline
 66
     1
 10
0.0
 20
0.0
 30
0.0
  0
VERTEX
  5
4A5
330
4A4
100
AcDbEntity
  8
DIBUJOS
 62
     7
100
AcDbVertex
100
AcDb2dVertex
 10
66.50421949756014
 20
31.87923963261804
 30
0.0
  0
VERTEX
  5
4A6
330
4A4
100
AcDbEntity
  8
DIBUJOS
 62
     7
100
AcDbVertex
100
AcDb2dVertex
 10
66.49861181892746
 20
31.88483392085784
 30
0.0
  0
SEQEND
  5
4A7
330
4A4
100
AcDbEntity
  8
DIBUJOS
 62
     7
  0
POLYLINE
  5
4A8
330
374
100
AcDbEntity
  8
DIBUJOS
 62
     7
100
AcDb2dPolyline
 66
     1
 10
0.0
 20
0.0
 30
0.0
  0
VERTEX
  5
4A9
330
4A8
100
AcDbEntity
  8
DIBUJOS
 62
     7
100
AcDbVertex
100
AcDb2dVertex
 10
66.50421949756014
 20
31.87923963261804
 30
0.0
  0
VERTEX
  5
4AA
330
4A8
100
AcDbEntity
  8
DIBUJOS
 62
     7
100
AcDbVertex
100
AcDb2dVertex
 10
66.50982868566213
 20
31.88483392085784
 30
0.0
  0
SEQEND
  5
4AB
330
4A8
100
AcDbEntity
  8
DIBUJOS
 62
     7
  0
POLYLINE
  5
4AC
330
374
100
AcDbEntity
  8
DIBUJOS
 62
     7
100
AcDb2dPolyline
 66
     1
 10
0.0
 20
0.0
 30
0.0
  0
VERTEX
  5
4AD
330
4AC
100
AcDbEntity
  8
DIBUJOS
 62
     7
100
AcDbVertex
100
AcDb2dVertex
 10
62.7017771479894
 20
31.87364684983821
 30
0.0
  0
VERTEX
  5
4AE
330
4AC
100
AcDbEntity
  8
DIBUJOS
 62
     7
100
AcDbVertex
100
AcDb2dVertex
 10
62.69616946935672
 20
31.87364684983821
 30
0.0
  0
SEQEND
  5
4AF
330
4AC
100
AcDbEntity
  8
DIBUJOS
 62
     7
  0
POLYLINE
  5
4B0
330
374
100
AcDbEntity
  8
DIBUJOS
 62
     7
100
AcDb2dPolyline
 66
     1
 10
0.0
 20
0.0
 30
0.0
  0
VERTEX
  5
4B1
330
4B0
100
AcDbEntity
  8
DIBUJOS
 62
     7
100
AcDbVertex
100
AcDb2dVertex
 10
62.7017771479894
 20
31.87364684983821
 30
0.0
  0
VERTEX
  5
4B2
330
4B0
100
AcDbEntity
  8
DIBUJOS
 62
     7
100
AcDbVertex
100
AcDb2dVertex
 10
62.7017771479894
 20
31.87923963261804
 30
0.0
  0
SEQEND
  5
4B3
330
4B0
100
AcDbEntity
  8
DIBUJOS
 62
     7
  0
POLYLINE
  5
4B4
330
374
100
AcDbEntity
  8
DIBUJOS
 62
     7
100
AcDb2dPolyline
 66
     1
 10
0.0
 20
0.0
 30
0.0
  0
VERTEX
  5
4B5
330
4B4
100
AcDbEntity
  8
DIBUJOS
 62
     7
100
AcDbVertex
100
AcDb2dVertex
 10
62.70738482662209
 20
31.86805256159777
 30
0.0
  0
VERTEX
  5
4B6
330
4B4
100
AcDbEntity
  8
DIBUJOS
 62
     7
100
AcDbVertex
100
AcDb2dVertex
 10
62.7017771479894
 20
31.87364684983821
 30
0.0
  0
SEQEND
  5
4B7
330
4B4
100
AcDbEntity
  8
DIBUJOS
 62
     7
  0
POLYLINE
  5
4B8
330
374
100
AcDbEntity
  8
DIBUJOS
 62
     7
100
AcDb2dPolyline
 66
     1
 10
0.0
 20
0.0
 30
0.0
  0
VERTEX
  5
4B9
330
4B8
100
AcDbEntity
  8
DIBUJOS
 62
     7
100
AcDbVertex
100
AcDb2dVertex
 10
62.70738482662209
 20
31.86805256159777
 30
0.0
  0
VERTEX
  5
4BA
330
4B8
100
AcDbEntity
  8
DIBUJOS
 62
     7
100
AcDbVertex
100
AcDb2dVertex
 10
62.71299401472375
 20
31.87923963261804
 30
0.0
  0
SEQEND
  5
4BB
330
4B8
100
AcDbEntity
  8
DIBUJOS
 62
     7
  0
POLYLINE
  5
4BC
330
374
100
AcDbEntity
  8
DIBUJOS
 62
     7
100
AcDb2dPolyline
 66
     1
 10
0.0
 20
0.0
 30
0.0
  0
VERTEX
  5
4BD
330
4BC
100
AcDbEntity
  8
DIBUJOS
 62
     7
100
AcDbVertex
100
AcDb2dVertex
 10
62.69056103598938
 20
31.86245977881793
 30
0.0
  0
VERTEX
  5
4BE
330
4BC
100
AcDbEntity
  8
DIBUJOS
 62
     7
100
AcDbVertex
100
AcDb2dVertex
 10
62.69616946935672
 20
31.87364684983821
 30
0.0
  0
SEQEND
  5
4BF
330
4BC
100
AcDbEntity
  8
DIBUJOS
 62
     7
  0
POLYLINE
  5
4C0
330
374
100
AcDbEntity
  8
DIBUJOS
 62
     7
100
AcDb2dPolyline
 66
     1
 10
0.0
 20
0.0
 30
0.0
  0
VERTEX
  5
4C1
330
4C0
100
AcDbEntity
  8
DIBUJOS
 62
     7
100
AcDbVertex
100
AcDb2dVertex
 10
62.69056103598938
 20
31.85686699603745
 30
0.0
  0
VERTEX
  5
4C2
330
4C0
100
AcDbEntity
  8
DIBUJOS
 62
     7
100
AcDbVertex
100
AcDb2dVertex
 10
62.68495260262205
 20
31.85686699603745
 30
0.0
  0
SEQEND
  5
4C3
330
4C0
100
AcDbEntity
  8
DIBUJOS
 62
     7
  0
POLYLINE
  5
4C4
330
374
100
AcDbEntity
  8
DIBUJOS
 62
     7
100
AcDb2dPolyline
 66
     1
 10
0.0
 20
0.0
 30
0.0
  0
VERTEX
  5
4C5
330
4C4
100
AcDbEntity
  8
DIBUJOS
 62
     7
100
AcDbVertex
100
AcDb2dVertex
 10
62.69056103598938
 20
31.85686699603745
 30
0.0
  0
VERTEX
  5
4C6
330
4C4
100
AcDbEntity
  8
DIBUJOS
 62
     7
100
AcDbVertex
100
AcDb2dVertex
 10
62.69056103598938
 20
31.86245977881793
 30
0.0
  0
SEQEND
  5
4C7
330
4C4
100
AcDbEntity
  8
DIBUJOS
 62
     7
  0
POLYLINE
  5
4C8
330
374
100
AcDbEntity
  8
DIBUJOS
 62
     7
100
AcDb2dPolyline
 66
     1
 10
0.0
 20
0.0
 30
0.0
  0
VERTEX
  5
4C9
330
4C8
100
AcDbEntity
  8
DIBUJOS
 62
     7
100
AcDbVertex
100
AcDb2dVertex
 10
62.69616946935672
 20
31.85686699603745
 30
0.0
  0
VERTEX
  5
4CA
330
4C8
100
AcDbEntity
  8
DIBUJOS
 62
     7
100
AcDbVertex
100
AcDb2dVertex
 10
62.69056103598938
 20
31.85686699603745
 30
0.0
  0
SEQEND
  5
4CB
330
4C8
100
AcDbEntity
  8
DIBUJOS
 62
     7
  0
POLYLINE
  5
4CC
330
374
100
AcDbEntity
  8
DIBUJOS
 62
     7
100
AcDb2dPolyline
 66
     1
 10
0.0
 20
0.0
 30
0.0
  0
VERTEX
  5
4CD
330
4CC
100
AcDbEntity
  8
DIBUJOS
 62
     7
100
AcDbVertex
100
AcDb2dVertex
 10
62.69616946935672
 20
31.85686699603745
 30
0.0
  0
VERTEX
  5
4CE
330
4CC
100
AcDbEntity
  8
DIBUJOS
 62
     7
100
AcDbVertex
100
AcDb2dVertex
 10
62.70738482662209
 20
31.86805256159777
 30
0.0
  0
SEQEND
  5
4CF
330
4CC
100
AcDbEntity
  8
DIBUJOS
 62
     7
  0
POLYLINE
  5
4D0
330
374
100
AcDbEntity
  8
DIBUJOS
 62
     7
100
AcDb2dPolyline
 66
     1
 10
0.0
 20
0.0
 30
0.0
  0
VERTEX
  5
4D1
330
4D0
100
AcDbEntity
  8
DIBUJOS
 62
     7
100
AcDbVertex
100
AcDb2dVertex
 10
62.69056103598938
 20
31.85127270779766
 30
0.0
  0
VERTEX
  5
4D2
330
4D0
100
AcDbEntity
  8
DIBUJOS
 62
     7
100
AcDbVertex
100
AcDb2dVertex
 10
62.69056103598938
 20
31.85686699603745
 30
0.0
  0
SEQEND
  5
4D3
330
4D0
100
AcDbEntity
  8
DIBUJOS
 62
     7
  0
POLYLINE
  5
4D4
330
374
100
AcDbEntity
  8
DIBUJOS
 62
     7
100
AcDb2dPolyline
 66
     1
 10
0.0
 20
0.0
 30
0.0
  0
VERTEX
  5
4D5
330
4D4
100
AcDbEntity
  8
DIBUJOS
 62
     7
100
AcDbVertex
100
AcDb2dVertex
 10
62.67373573588738
 20
31.84567992501718
 30
0.0
  0
VERTEX
  5
4D6
330
4D4
100
AcDbEntity
  8
DIBUJOS
 62
     7
100
AcDbVertex
100
AcDb2dVertex
 10
62.68495260262205
 20
31.85686699603745
 30
0.0
  0
SEQEND
  5
4D7
330
4D4
100
AcDbEntity
  8
DIBUJOS
 62
     7
  0
POLYLINE
  5
4D8
330
374
100
AcDbEntity
  8
DIBUJOS
 62
     7
100
AcDb2dPolyline
 66
     1
 10
0.0
 20
0.0
 30
0.0
  0
VERTEX
  5
4D9
330
4D8
100
AcDbEntity
  8
DIBUJOS
 62
     7
100
AcDbVertex
100
AcDb2dVertex
 10
66.5490869644988
 20
31.84567992501718
 30
0.0
  0
VERTEX
  5
4DA
330
4D8
100
AcDbEntity
  8
DIBUJOS
 62
     7
100
AcDbVertex
100
AcDb2dVertex
 10
66.51543636429481
 20
31.88483392085784
 30
0.0
  0
VERTEX
  5
4DB
330
4D8
100
AcDbEntity
  8
DIBUJOS
 62
     7
100
AcDbVertex
100
AcDb2dVertex
 10
66.50982868566213
 20
31.88483392085784
 30
0.0
  0
SEQEND
  5
4DC
330
4D8
100
AcDbEntity
  8
DIBUJOS
 62
     7
  0
POLYLINE
  5
4DD
330
374
100
AcDbEntity
  8
DIBUJOS
 62
     7
100
AcDb2dPolyline
 66
     1
 10
0.0
 20
0.0
 30
0.0
  0
VERTEX
  5
4DE
330
4DD
100
AcDbEntity
  8
DIBUJOS
 62
     7
100
AcDbVertex
100
AcDb2dVertex
 10
62.67373573588738
 20
31.84008563677738
 30
0.0
  0
VERTEX
  5
4DF
330
4DD
100
AcDbEntity
  8
DIBUJOS
 62
     7
100
AcDbVertex
100
AcDb2dVertex
 10
62.67373573588738
 20
31.84567992501718
 30
0.0
  0
SEQEND
  5
4E0
330
4DD
100
AcDbEntity
  8
DIBUJOS
 62
     7
  0
POLYLINE
  5
4E1
330
374
100
AcDbEntity
  8
DIBUJOS
 62
     7
100
AcDb2dPolyline
 66
     1
 10
0.0
 20
0.0
 30
0.0
  0
VERTEX
  5
4E2
330
4E1
100
AcDbEntity
  8
DIBUJOS
 62
     7
100
AcDbVertex
100
AcDb2dVertex
 10
62.67934416925472
 20
31.84008563677738
 30
0.0
  0
VERTEX
  5
4E3
330
4E1
100
AcDbEntity
  8
DIBUJOS
 62
     7
100
AcDbVertex
100
AcDb2dVertex
 10
62.67373573588738
 20
31.84008563677738
 30
0.0
  0
SEQEND
  5
4E4
330
4E1
100
AcDbEntity
  8
DIBUJOS
 62
     7
  0
POLYLINE
  5
4E5
330
374
100
AcDbEntity
  8
DIBUJOS
 62
     7
100
AcDb2dPolyline
 66
     1
 10
0.0
 20
0.0
 30
0.0
  0
VERTEX
  5
4E6
330
4E5
100
AcDbEntity
  8
DIBUJOS
 62
     7
100
AcDbVertex
100
AcDb2dVertex
 10
62.67934416925472
 20
31.84008563677738
 30
0.0
  0
VERTEX
  5
4E7
330
4E5
100
AcDbEntity
  8
DIBUJOS
 62
     7
100
AcDbVertex
100
AcDb2dVertex
 10
62.68495260262205
 20
31.84008563677738
 30
0.0
  0
VERTEX
  5
4E8
330
4E5
100
AcDbEntity
  8
DIBUJOS
 62
     7
100
AcDbVertex
100
AcDb2dVertex
 10
62.69056103598938
 20
31.85127270779766
 30
0.0
  0
SEQEND
  5
4E9
330
4E5
100
AcDbEntity
  8
DIBUJOS
 62
     7
  0
POLYLINE
  5
4EA
330
374
100
AcDbEntity
  8
DIBUJOS
 62
     7
100
AcDb2dPolyline
 66
     1
 10
0.0
 20
0.0
 30
0.0
  0
VERTEX
  5
4EB
330
4EA
100
AcDbEntity
  8
DIBUJOS
 62
     7
100
AcDbVertex
100
AcDb2dVertex
 10
66.5490869644988
 20
31.84008563677738
 30
0.0
  0
VERTEX
  5
4EC
330
4EA
100
AcDbEntity
  8
DIBUJOS
 62
     7
100
AcDbVertex
100
AcDb2dVertex
 10
66.5434777763965
 20
31.84008563677738
 30
0.0
  0
SEQEND
  5
4ED
330
4EA
100
AcDbEntity
  8
DIBUJOS
 62
     7
  0
POLYLINE
  5
4EE
330
374
100
AcDbEntity
  8
DIBUJOS
 62
     7
100
AcDb2dPolyline
 66
     1
 10
0.0
 20
0.0
 30
0.0
  0
VERTEX
  5
4EF
330
4EE
100
AcDbEntity
  8
DIBUJOS
 62
     7
100
AcDbVertex
100
AcDb2dVertex
 10
66.5490869644988
 20
31.84008563677738
 30
0.0
  0
VERTEX
  5
4F0
330
4EE
100
AcDbEntity
  8
DIBUJOS
 62
     7
100
AcDbVertex
100
AcDb2dVertex
 10
66.5490869644988
 20
31.84567992501718
 30
0.0
  0
SEQEND
  5
4F1
330
4EE
100
AcDbEntity
  8
DIBUJOS
 62
     7
  0
POLYLINE
  5
4F2
330
374
100
AcDbEntity
  8
DIBUJOS
 62
     7
100
AcDb2dPolyline
 66
     1
 10
0.0
 20
0.0
 30
0.0
  0
VERTEX
  5
4F3
330
4F2
100
AcDbEntity
  8
DIBUJOS
 62
     7
100
AcDbVertex
100
AcDb2dVertex
 10
66.53787009776381
 20
31.83449285399755
 30
0.0
  0
VERTEX
  5
4F4
330
4F2
100
AcDbEntity
  8
DIBUJOS
 62
     7
100
AcDbVertex
100
AcDb2dVertex
 10
66.53226241913146
 20
31.83449285399755
 30
0.0
  0
VERTEX
  5
4F5
330
4F2
100
AcDbEntity
  8
DIBUJOS
 62
     7
100
AcDbVertex
100
AcDb2dVertex
 10
66.50421949756014
 20
31.87923963261804
 30
0.0
  0
SEQEND
  5
4F6
330
4F2
100
AcDbEntity
  8
DIBUJOS
 62
     7
  0
POLYLINE
  5
4F7
330
374
100
AcDbEntity
  8
DIBUJOS
 62
     7
100
AcDb2dPolyline
 66
     1
 10
0.0
 20
0.0
 30
0.0
  0
VERTEX
  5
4F8
330
4F7
100
AcDbEntity
  8
DIBUJOS
 62
     7
100
AcDbVertex
100
AcDb2dVertex
 10
66.53787009776381
 20
31.83449285399755
 30
0.0
  0
VERTEX
  5
4F9
330
4F7
100
AcDbEntity
  8
DIBUJOS
 62
     7
100
AcDbVertex
100
AcDb2dVertex
 10
66.5434777763965
 20
31.84008563677738
 30
0.0
  0
SEQEND
  5
4FA
330
4F7
100
AcDbEntity
  8
DIBUJOS
 62
     7
  0
POLYLINE
  5
4FB
330
374
100
AcDbEntity
  8
DIBUJOS
 62
     7
100
AcDb2dPolyline
 66
     1
 10
0.0
 20
0.0
 30
0.0
  0
VERTEX
  5
4FC
330
4FB
100
AcDbEntity
  8
DIBUJOS
 62
     7
100
AcDbVertex
100
AcDb2dVertex
 10
66.5490869644988
 20
31.83449285399755
 30
0.0
  0
VERTEX
  5
4FD
330
4FB
100
AcDbEntity
  8
DIBUJOS
 62
     7
100
AcDbVertex
100
AcDb2dVertex
 10
66.5490869644988
 20
31.84008563677738
 30
0.0
  0
SEQEND
  5
4FE
330
4FB
100
AcDbEntity
  8
DIBUJOS
 62
     7
  0
POLYLINE
  5
4FF
330
374
100
AcDbEntity
  8
DIBUJOS
 62
     7
100
AcDb2dPolyline
 66
     1
 10
0.0
 20
0.0
 30
0.0
  0
VERTEX
  5
500
330
4FF
100
AcDbEntity
  8
DIBUJOS
 62
     7
100
AcDbVertex
100
AcDb2dVertex
 10
66.5434777763965
 20
31.82889856575711
 30
0.0
  0
VERTEX
  5
501
330
4FF
100
AcDbEntity
  8
DIBUJOS
 62
     7
100
AcDbVertex
100
AcDb2dVertex
 10
66.53787009776381
 20
31.83449285399755
 30
0.0
  0
SEQEND
  5
502
330
4FF
100
AcDbEntity
  8
DIBUJOS
 62
     7
  0
POLYLINE
  5
503
330
374
100
AcDbEntity
  8
DIBUJOS
 62
     7
100
AcDb2dPolyline
 66
     1
 10
0.0
 20
0.0
 30
0.0
  0
VERTEX
  5
504
330
503
100
AcDbEntity
  8
DIBUJOS
 62
     7
100
AcDbVertex
100
AcDb2dVertex
 10
66.5434777763965
 20
31.82889856575711
 30
0.0
  0
VERTEX
  5
505
330
503
100
AcDbEntity
  8
DIBUJOS
 62
     7
100
AcDbVertex
100
AcDb2dVertex
 10
66.5490869644988
 20
31.83449285399755
 30
0.0
  0
SEQEND
  5
506
330
503
100
AcDbEntity
  8
DIBUJOS
 62
     7
  0
POLYLINE
  5
507
330
374
100
AcDbEntity
  8
DIBUJOS
 62
     7
100
AcDb2dPolyline
 66
     1
 10
0.0
 20
0.0
 30
0.0
  0
VERTEX
  5
508
330
507
100
AcDbEntity
  8
DIBUJOS
 62
     7
100
AcDbVertex
100
AcDb2dVertex
 10
66.55469464313117
 20
31.82889856575711
 30
0.0
  0
VERTEX
  5
509
330
507
100
AcDbEntity
  8
DIBUJOS
 62
     7
100
AcDbVertex
100
AcDb2dVertex
 10
66.5490869644988
 20
31.83449285399755
 30
0.0
  0
SEQEND
  5
50A
330
507
100
AcDbEntity
  8
DIBUJOS
 62
     7
  0
POLYLINE
  5
50B
330
374
100
AcDbEntity
  8
DIBUJOS
 62
     7
100
AcDb2dPolyline
 66
     1
 10
0.0
 20
0.0
 30
0.0
  0
VERTEX
  5
50C
330
50B
100
AcDbEntity
  8
DIBUJOS
 62
     7
100
AcDbVertex
100
AcDb2dVertex
 10
66.5490869644988
 20
31.82330578297727
 30
0.0
  0
VERTEX
  5
50D
330
50B
100
AcDbEntity
  8
DIBUJOS
 62
     7
100
AcDbVertex
100
AcDb2dVertex
 10
66.5434777763965
 20
31.82889856575711
 30
0.0
  0
SEQEND
  5
50E
330
50B
100
AcDbEntity
  8
DIBUJOS
 62
     7
  0
POLYLINE
  5
50F
330
374
100
AcDbEntity
  8
DIBUJOS
 62
     7
100
AcDb2dPolyline
 66
     1
 10
0.0
 20
0.0
 30
0.0
  0
VERTEX
  5
510
330
50F
100
AcDbEntity
  8
DIBUJOS
 62
     7
100
AcDbVertex
100
AcDb2dVertex
 10
66.5490869644988
 20
31.82330578297727
 30
0.0
  0
VERTEX
  5
511
330
50F
100
AcDbEntity
  8
DIBUJOS
 62
     7
100
AcDbVertex
100
AcDb2dVertex
 10
66.55469464313117
 20
31.82889856575711
 30
0.0
  0
SEQEND
  5
512
330
50F
100
AcDbEntity
  8
DIBUJOS
 62
     7
  0
POLYLINE
  5
513
330
374
100
AcDbEntity
  8
DIBUJOS
 62
     7
100
AcDb2dPolyline
 66
     1
 10
0.0
 20
0.0
 30
0.0
  0
VERTEX
  5
514
330
513
100
AcDbEntity
  8
DIBUJOS
 62
     7
100
AcDbVertex
100
AcDb2dVertex
 10
66.56030383123347
 20
31.82330578297727
 30
0.0
  0
VERTEX
  5
515
330
513
100
AcDbEntity
  8
DIBUJOS
 62
     7
100
AcDbVertex
100
AcDb2dVertex
 10
66.55469464313117
 20
31.82889856575711
 30
0.0
  0
SEQEND
  5
516
330
513
100
AcDbEntity
  8
DIBUJOS
 62
     7
  0
POLYLINE
  5
517
330
374
100
AcDbEntity
  8
DIBUJOS
 62
     7
100
AcDb2dPolyline
 66
     1
 10
0.0
 20
0.0
 30
0.0
  0
VERTEX
  5
518
330
517
100
AcDbEntity
  8
DIBUJOS
 62
     7
100
AcDbVertex
100
AcDb2dVertex
 10
66.55469464313117
 20
31.81771300019679
 30
0.0
  0
VERTEX
  5
519
330
517
100
AcDbEntity
  8
DIBUJOS
 62
     7
100
AcDbVertex
100
AcDb2dVertex
 10
66.5490869644988
 20
31.82330578297727
 30
0.0
  0
SEQEND
  5
51A
330
517
100
AcDbEntity
  8
DIBUJOS
 62
     7
  0
POLYLINE
  5
51B
330
374
100
AcDbEntity
  8
DIBUJOS
 62
     7
100
AcDb2dPolyline
 66
     1
 10
0.0
 20
0.0
 30
0.0
  0
VERTEX
  5
51C
330
51B
100
AcDbEntity
  8
DIBUJOS
 62
     7
100
AcDbVertex
100
AcDb2dVertex
 10
66.55469464313117
 20
31.81771300019679
 30
0.0
  0
VERTEX
  5
51D
330
51B
100
AcDbEntity
  8
DIBUJOS
 62
     7
100
AcDbVertex
100
AcDb2dVertex
 10
66.56030383123347
 20
31.82330578297727
 30
0.0
  0
SEQEND
  5
51E
330
51B
100
AcDbEntity
  8
DIBUJOS
 62
     7
  0
POLYLINE
  5
51F
330
374
100
AcDbEntity
  8
DIBUJOS
 62
     7
100
AcDb2dPolyline
 66
     1
 10
0.0
 20
0.0
 30
0.0
  0
VERTEX
  5
520
330
51F
100
AcDbEntity
  8
DIBUJOS
 62
     7
100
AcDbVertex
100
AcDb2dVertex
 10
66.56591150986583
 20
31.812118711957
 30
0.0
  0
VERTEX
  5
521
330
51F
100
AcDbEntity
  8
DIBUJOS
 62
     7
100
AcDbVertex
100
AcDb2dVertex
 10
66.57152069796781
 20
31.81771300019679
 30
0.0
  0
VERTEX
  5
522
330
51F
100
AcDbEntity
  8
DIBUJOS
 62
     7
100
AcDbVertex
100
AcDb2dVertex
 10
66.56030383123347
 20
31.82330578297727
 30
0.0
  0
SEQEND
  5
523
330
51F
100
AcDbEntity
  8
DIBUJOS
 62
     7
  0
POLYLINE
  5
524
330
374
100
AcDbEntity
  8
DIBUJOS
 62
     7
100
AcDb2dPolyline
 66
     1
 10
0.0
 20
0.0
 30
0.0
  0
VERTEX
  5
525
330
524
100
AcDbEntity
  8
DIBUJOS
 62
     7
100
AcDbVertex
100
AcDb2dVertex
 10
66.56030383123347
 20
31.80652592917652
 30
0.0
  0
VERTEX
  5
526
330
524
100
AcDbEntity
  8
DIBUJOS
 62
     7
100
AcDbVertex
100
AcDb2dVertex
 10
66.55469464313117
 20
31.81771300019679
 30
0.0
  0
SEQEND
  5
527
330
524
100
AcDbEntity
  8
DIBUJOS
 62
     7
  0
POLYLINE
  5
528
330
374
100
AcDbEntity
  8
DIBUJOS
 62
     7
100
AcDb2dPolyline
 66
     1
 10
0.0
 20
0.0
 30
0.0
  0
VERTEX
  5
529
330
528
100
AcDbEntity
  8
DIBUJOS
 62
     7
100
AcDbVertex
100
AcDb2dVertex
 10
66.56030383123347
 20
31.80652592917652
 30
0.0
  0
VERTEX
  5
52A
330
528
100
AcDbEntity
  8
DIBUJOS
 62
     7
100
AcDbVertex
100
AcDb2dVertex
 10
66.56591150986583
 20
31.812118711957
 30
0.0
  0
SEQEND
  5
52B
330
528
100
AcDbEntity
  8
DIBUJOS
 62
     7
  0
POLYLINE
  5
52C
330
374
100
AcDbEntity
  8
DIBUJOS
 62
     7
100
AcDb2dPolyline
 66
     1
 10
0.0
 20
0.0
 30
0.0
  0
VERTEX
  5
52D
330
52C
100
AcDbEntity
  8
DIBUJOS
 62
     7
100
AcDbVertex
100
AcDb2dVertex
 10
66.57152069796781
 20
31.80652592917652
 30
0.0
  0
VERTEX
  5
52E
330
52C
100
AcDbEntity
  8
DIBUJOS
 62
     7
100
AcDbVertex
100
AcDb2dVertex
 10
66.56591150986583
 20
31.812118711957
 30
0.0
  0
SEQEND
  5
52F
330
52C
100
AcDbEntity
  8
DIBUJOS
 62
     7
  0
POLYLINE
  5
530
330
374
100
AcDbEntity
  8
DIBUJOS
 62
     7
100
AcDb2dPolyline
 66
     1
 10
0.0
 20
0.0
 30
0.0
  0
VERTEX
  5
531
330
530
100
AcDbEntity
  8
DIBUJOS
 62
     7
100
AcDbVertex
100
AcDb2dVertex
 10
66.56591150986583
 20
31.80093164093672
 30
0.0
  0
VERTEX
  5
532
330
530
100
AcDbEntity
  8
DIBUJOS
 62
     7
100
AcDbVertex
100
AcDb2dVertex
 10
66.56030383123347
 20
31.80652592917652
 30
0.0
  0
SEQEND
  5
533
330
530
100
AcDbEntity
  8
DIBUJOS
 62
     7
  0
POLYLINE
  5
534
330
374
100
AcDbEntity
  8
DIBUJOS
 62
     7
100
AcDb2dPolyline
 66
     1
 10
0.0
 20
0.0
 30
0.0
  0
VERTEX
  5
535
330
534
100
AcDbEntity
  8
DIBUJOS
 62
     7
100
AcDbVertex
100
AcDb2dVertex
 10
66.56591150986583
 20
31.80093164093672
 30
0.0
  0
VERTEX
  5
536
330
534
100
AcDbEntity
  8
DIBUJOS
 62
     7
100
AcDbVertex
100
AcDb2dVertex
 10
66.57152069796781
 20
31.80652592917652
 30
0.0
  0
SEQEND
  5
537
330
534
100
AcDbEntity
  8
DIBUJOS
 62
     7
  0
POLYLINE
  5
538
330
374
100
AcDbEntity
  8
DIBUJOS
 62
     7
100
AcDb2dPolyline
 66
     1
 10
0.0
 20
0.0
 30
0.0
  0
VERTEX
  5
539
330
538
100
AcDbEntity
  8
DIBUJOS
 62
     7
100
AcDbVertex
100
AcDb2dVertex
 10
66.58273605523318
 20
31.79533885815624
 30
0.0
  0
VERTEX
  5
53A
330
538
100
AcDbEntity
  8
DIBUJOS
 62
     7
100
AcDbVertex
100
AcDb2dVertex
 10
66.58273605523318
 20
31.80093164093672
 30
0.0
  0
VERTEX
  5
53B
330
538
100
AcDbEntity
  8
DIBUJOS
 62
     7
100
AcDbVertex
100
AcDb2dVertex
 10
66.57152069796781
 20
31.80652592917652
 30
0.0
  0
SEQEND
  5
53C
330
538
100
AcDbEntity
  8
DIBUJOS
 62
     7
  0
POLYLINE
  5
53D
330
374
100
AcDbEntity
  8
DIBUJOS
 62
     7
100
AcDb2dPolyline
 66
     1
 10
0.0
 20
0.0
 30
0.0
  0
VERTEX
  5
53E
330
53D
100
AcDbEntity
  8
DIBUJOS
 62
     7
100
AcDbVertex
100
AcDb2dVertex
 10
66.57712837660083
 20
31.78974456991645
 30
0.0
  0
VERTEX
  5
53F
330
53D
100
AcDbEntity
  8
DIBUJOS
 62
     7
100
AcDbVertex
100
AcDb2dVertex
 10
66.57152069796781
 20
31.78974456991645
 30
0.0
  0
VERTEX
  5
540
330
53D
100
AcDbEntity
  8
DIBUJOS
 62
     7
100
AcDbVertex
100
AcDb2dVertex
 10
66.56591150986583
 20
31.80093164093672
 30
0.0
  0
SEQEND
  5
541
330
53D
100
AcDbEntity
  8
DIBUJOS
 62
     7
  0
POLYLINE
  5
542
330
374
100
AcDbEntity
  8
DIBUJOS
 62
     7
100
AcDb2dPolyline
 66
     1
 10
0.0
 20
0.0
 30
0.0
  0
VERTEX
  5
543
330
542
100
AcDbEntity
  8
DIBUJOS
 62
     7
100
AcDbVertex
100
AcDb2dVertex
 10
66.58273605523318
 20
31.78974456991645
 30
0.0
  0
VERTEX
  5
544
330
542
100
AcDbEntity
  8
DIBUJOS
 62
     7
100
AcDbVertex
100
AcDb2dVertex
 10
66.57712837660083
 20
31.78974456991645
 30
0.0
  0
SEQEND
  5
545
330
542
100
AcDbEntity
  8
DIBUJOS
 62
     7
  0
POLYLINE
  5
546
330
374
100
AcDbEntity
  8
DIBUJOS
 62
     7
100
AcDb2dPolyline
 66
     1
 10
0.0
 20
0.0
 30
0.0
  0
VERTEX
  5
547
330
546
100
AcDbEntity
  8
DIBUJOS
 62
     7
100
AcDbVertex
100
AcDb2dVertex
 10
66.58273605523318
 20
31.78974456991645
 30
0.0
  0
VERTEX
  5
548
330
546
100
AcDbEntity
  8
DIBUJOS
 62
     7
100
AcDbVertex
100
AcDb2dVertex
 10
66.58273605523318
 20
31.79533885815624
 30
0.0
  0
SEQEND
  5
549
330
546
100
AcDbEntity
  8
DIBUJOS
 62
     7
  0
POLYLINE
  5
54A
330
374
100
AcDbEntity
  8
DIBUJOS
 62
     7
100
AcDb2dPolyline
 66
     1
 10
0.0
 20
0.0
 30
0.0
  0
VERTEX
  5
54B
330
54A
100
AcDbEntity
  8
DIBUJOS
 62
     7
100
AcDbVertex
100
AcDb2dVertex
 10
67.67636018402308
 20
31.43176582457067
 30
0.0
  0
VERTEX
  5
54C
330
54A
100
AcDbEntity
  8
DIBUJOS
 62
     7
100
AcDbVertex
100
AcDb2dVertex
 10
67.67437976023672
 20
31.44805188758975
 30
0.0
  0
VERTEX
  5
54D
330
54A
100
AcDbEntity
  8
DIBUJOS
 62
     7
100
AcDbVertex
100
AcDb2dVertex
 10
67.53446855571977
 20
31.94020773949103
 30
0.0
  0
VERTEX
  5
54E
330
54A
100
AcDbEntity
  8
DIBUJOS
 62
     7
100
AcDbVertex
100
AcDb2dVertex
 10
67.37463235579199
 20
32.31608640065335
 30
0.0
  0
VERTEX
  5
54F
330
54A
100
AcDbEntity
  8
DIBUJOS
 62
     7
100
AcDbVertex
100
AcDb2dVertex
 10
67.35219862232297
 20
32.36642746751429
 30
0.0
  0
VERTEX
  5
550
330
54A
100
AcDbEntity
  8
DIBUJOS
 62
     7
100
AcDbVertex
100
AcDb2dVertex
 10
67.22639944675241
 20
32.58874472304281
 30
0.0
  0
VERTEX
  5
551
330
54A
100
AcDbEntity
  8
DIBUJOS
 62
     7
100
AcDbVertex
100
AcDb2dVertex
 10
67.19965164988285
 20
32.63994540739069
 30
0.0
  0
SEQEND
  5
552
330
54A
100
AcDbEntity
  8
DIBUJOS
 62
     7
  0
POLYLINE
  5
553
330
374
100
AcDbEntity
  8
DIBUJOS
 62
     7
100
AcDb2dPolyline
 66
     1
 10
0.0
 20
0.0
 30
0.0
  0
VERTEX
  5
554
330
553
100
AcDbEntity
  8
DIBUJOS
 62
     7
100
AcDbVertex
100
AcDb2dVertex
 10
61.53524640436309
 20
31.40379889974965
 30
0.0
  0
VERTEX
  5
555
330
553
100
AcDbEntity
  8
DIBUJOS
 62
     7
100
AcDbVertex
100
AcDb2dVertex
 10
61.69443655140913
 20
31.96271135106538
 30
0.0
  0
VERTEX
  5
556
330
553
100
AcDbEntity
  8
DIBUJOS
 62
     7
100
AcDbVertex
100
AcDb2dVertex
 10
61.76070074637428
 20
32.11919786489422
 30
0.0
  0
VERTEX
  5
557
330
553
100
AcDbEntity
  8
DIBUJOS
 62
     7
100
AcDbVertex
100
AcDb2dVertex
 10
61.92782843799365
 20
32.48332942402805
 30
0.0
  0
SEQEND
  5
558
330
553
100
AcDbEntity
  8
DIBUJOS
 62
     7
  0
POLYLINE
  5
559
330
374
100
AcDbEntity
  8
DIBUJOS
 62
     7
100
AcDb2dPolyline
 66
     1
 10
0.0
 20
0.0
 30
0.0
  0
VERTEX
  5
55A
330
559
100
AcDbEntity
  8
DIBUJOS
 62
     7
100
AcDbVertex
100
AcDb2dVertex
 10
67.77170128706315
 20
30.97869772828287
 30
0.0
  0
VERTEX
  5
55B
330
559
100
AcDbEntity
  8
DIBUJOS
 62
     7
100
AcDbVertex
100
AcDb2dVertex
 10
67.68196786265577
 20
31.4205787535504
 30
0.0
  0
SEQEND
  5
55C
330
559
100
AcDbEntity
  8
DIBUJOS
 62
     7
  0
POLYLINE
  5
55D
330
374
100
AcDbEntity
  8
DIBUJOS
 62
     7
100
AcDb2dPolyline
 66
     1
 10
0.0
 20
0.0
 30
0.0
  0
VERTEX
  5
55E
330
55D
100
AcDbEntity
  8
DIBUJOS
 62
     7
100
AcDbVertex
100
AcDb2dVertex
 10
61.43990454658805
 20
30.93395094966173
 30
0.0
  0
VERTEX
  5
55F
330
55D
100
AcDbEntity
  8
DIBUJOS
 62
     7
100
AcDbVertex
100
AcDb2dVertex
 10
61.45224294904913
 20
30.97254641995413
 30
0.0
  0
VERTEX
  5
560
330
55D
100
AcDbEntity
  8
DIBUJOS
 62
     7
100
AcDbVertex
100
AcDb2dVertex
 10
61.52161363193493
 20
31.31460492898803
 30
0.0
  0
VERTEX
  5
561
330
55D
100
AcDbEntity
  8
DIBUJOS
 62
     7
100
AcDbVertex
100
AcDb2dVertex
 10
61.53524640436309
 20
31.39261182873001
 30
0.0
  0
SEQEND
  5
562
330
55D
100
AcDbEntity
  8
DIBUJOS
 62
     7
  0
POLYLINE
  5
563
330
374
100
AcDbEntity
  8
DIBUJOS
 62
     7
100
AcDb2dPolyline
 66
     1
 10
0.0
 20
0.0
 30
0.0
  0
VERTEX
  5
564
330
563
100
AcDbEntity
  8
DIBUJOS
 62
     7
100
AcDbVertex
100
AcDb2dVertex
 10
67.78291815379781
 20
30.91717109586162
 30
0.0
  0
VERTEX
  5
565
330
563
100
AcDbEntity
  8
DIBUJOS
 62
     7
100
AcDbVertex
100
AcDb2dVertex
 10
67.7660920989615
 20
30.96751216272255
 30
0.0
  0
SEQEND
  5
566
330
563
100
AcDbEntity
  8
DIBUJOS
 62
     7
  0
POLYLINE
  5
567
330
374
100
AcDbEntity
  8
DIBUJOS
 62
     7
100
AcDb2dPolyline
 66
     1
 10
0.0
 20
0.0
 30
0.0
  0
VERTEX
  5
568
330
567
100
AcDbEntity
  8
DIBUJOS
 62
     7
100
AcDbVertex
100
AcDb2dVertex
 10
61.43990454658805
 20
30.90039124206151
 30
0.0
  0
VERTEX
  5
569
330
567
100
AcDbEntity
  8
DIBUJOS
 62
     7
100
AcDbVertex
100
AcDb2dVertex
 10
61.43990454658805
 20
30.92276387864145
 30
0.0
  0
SEQEND
  5
56A
330
567
100
AcDbEntity
  8
DIBUJOS
 62
     7
  0
POLYLINE
  5
56B
330
374
100
AcDbEntity
  8
DIBUJOS
 62
     7
100
AcDb2dPolyline
 66
     1
 10
0.0
 20
0.0
 30
0.0
  0
VERTEX
  5
56C
330
56B
100
AcDbEntity
  8
DIBUJOS
 62
     7
100
AcDbVertex
100
AcDb2dVertex
 10
67.78291815379781
 20
30.88920417104123
 30
0.0
  0
VERTEX
  5
56D
330
56B
100
AcDbEntity
  8
DIBUJOS
 62
     7
100
AcDbVertex
100
AcDb2dVertex
 10
67.78291815379781
 20
30.89479695382107
 30
0.0
  0
SEQEND
  5
56E
330
56B
100
AcDbEntity
  8
DIBUJOS
 62
     7
  0
POLYLINE
  5
56F
330
374
100
AcDbEntity
  8
DIBUJOS
 62
     7
100
AcDb2dPolyline
 66
     1
 10
0.0
 20
0.0
 30
0.0
  0
VERTEX
  5
570
330
56F
100
AcDbEntity
  8
DIBUJOS
 62
     7
100
AcDbVertex
100
AcDb2dVertex
 10
61.43429611322073
 20
30.86683002900068
 30
0.0
  0
VERTEX
  5
571
330
56F
100
AcDbEntity
  8
DIBUJOS
 62
     7
100
AcDbVertex
100
AcDb2dVertex
 10
61.43429611322073
 20
30.87242281178052
 30
0.0
  0
SEQEND
  5
572
330
56F
100
AcDbEntity
  8
DIBUJOS
 62
     7
  0
POLYLINE
  5
573
330
374
100
AcDbEntity
  8
DIBUJOS
 62
     7
100
AcDb2dPolyline
 66
     1
 10
0.0
 20
0.0
 30
0.0
  0
VERTEX
  5
574
330
573
100
AcDbEntity
  8
DIBUJOS
 62
     7
100
AcDbVertex
100
AcDb2dVertex
 10
67.7885258324305
 20
30.84445588696013
 30
0.0
  0
VERTEX
  5
575
330
573
100
AcDbEntity
  8
DIBUJOS
 62
     7
100
AcDbVertex
100
AcDb2dVertex
 10
67.7885258324305
 20
30.86123574076089
 30
0.0
  0
SEQEND
  5
576
330
573
100
AcDbEntity
  8
DIBUJOS
 62
     7
  0
POLYLINE
  5
577
330
374
100
AcDbEntity
  8
DIBUJOS
 62
     7
100
AcDb2dPolyline
 66
     1
 10
0.0
 20
0.0
 30
0.0
  0
VERTEX
  5
578
330
577
100
AcDbEntity
  8
DIBUJOS
 62
     7
100
AcDbVertex
100
AcDb2dVertex
 10
61.42868767985339
 20
30.82208325037955
 30
0.0
  0
VERTEX
  5
579
330
577
100
AcDbEntity
  8
DIBUJOS
 62
     7
100
AcDbVertex
100
AcDb2dVertex
 10
61.42868767985339
 20
30.82767603316002
 30
0.0
  0
SEQEND
  5
57A
330
577
100
AcDbEntity
  8
DIBUJOS
 62
     7
  0
POLYLINE
  5
57B
330
374
100
AcDbEntity
  8
DIBUJOS
 62
     7
100
AcDb2dPolyline
 66
     1
 10
0.0
 20
0.0
 30
0.0
  0
VERTEX
  5
57C
330
57B
100
AcDbEntity
  8
DIBUJOS
 62
     7
100
AcDbVertex
100
AcDb2dVertex
 10
67.79413502053248
 20
30.80530189111948
 30
0.0
  0
VERTEX
  5
57D
330
57B
100
AcDbEntity
  8
DIBUJOS
 62
     7
100
AcDbVertex
100
AcDb2dVertex
 10
67.79413502053248
 20
30.81089617935991
 30
0.0
  0
SEQEND
  5
57E
330
57B
100
AcDbEntity
  8
DIBUJOS
 62
     7
  0
POLYLINE
  5
57F
330
374
100
AcDbEntity
  8
DIBUJOS
 62
     7
100
AcDb2dPolyline
 66
     1
 10
0.0
 20
0.0
 30
0.0
  0
VERTEX
  5
580
330
57F
100
AcDbEntity
  8
DIBUJOS
 62
     7
100
AcDbVertex
100
AcDb2dVertex
 10
67.79974269916517
 20
30.77174218351925
 30
0.0
  0
VERTEX
  5
581
330
57F
100
AcDbEntity
  8
DIBUJOS
 62
     7
100
AcDbVertex
100
AcDb2dVertex
 10
67.79974269916517
 20
30.77733496629909
 30
0.0
  0
SEQEND
  5
582
330
57F
100
AcDbEntity
  8
DIBUJOS
 62
     7
  0
POLYLINE
  5
583
330
374
100
AcDbEntity
  8
DIBUJOS
 62
     7
100
AcDb2dPolyline
 66
     1
 10
0.0
 20
0.0
 30
0.0
  0
VERTEX
  5
584
330
583
100
AcDbEntity
  8
DIBUJOS
 62
     7
100
AcDbVertex
100
AcDb2dVertex
 10
61.41747156785338
 20
30.74377525869822
 30
0.0
  0
VERTEX
  5
585
330
583
100
AcDbEntity
  8
DIBUJOS
 62
     7
100
AcDbVertex
100
AcDb2dVertex
 10
61.41747156785338
 20
30.75496082425918
 30
0.0
  0
SEQEND
  5
586
330
583
100
AcDbEntity
  8
DIBUJOS
 62
     7
  0
POLYLINE
  5
587
330
374
100
AcDbEntity
  8
DIBUJOS
 62
     7
100
AcDb2dPolyline
 66
     1
 10
0.0
 20
0.0
 30
0.0
  0
VERTEX
  5
588
330
587
100
AcDbEntity
  8
DIBUJOS
 62
     7
100
AcDbVertex
100
AcDb2dVertex
 10
67.80535037779818
 20
30.72699389943816
 30
0.0
  0
VERTEX
  5
589
330
587
100
AcDbEntity
  8
DIBUJOS
 62
     7
100
AcDbVertex
100
AcDb2dVertex
 10
67.80535037779818
 20
30.73818097045843
 30
0.0
  0
SEQEND
  5
58A
330
587
100
AcDbEntity
  8
DIBUJOS
 62
     7
  0
POLYLINE
  5
58B
330
374
100
AcDbEntity
  8
DIBUJOS
 62
     7
100
AcDb2dPolyline
 66
     1
 10
0.0
 20
0.0
 30
0.0
  0
VERTEX
  5
58C
330
58B
100
AcDbEntity
  8
DIBUJOS
 62
     7
100
AcDbVertex
100
AcDb2dVertex
 10
67.81095956589982
 20
30.71580682841853
 30
0.0
  0
VERTEX
  5
58D
330
58B
100
AcDbEntity
  8
DIBUJOS
 62
     7
100
AcDbVertex
100
AcDb2dVertex
 10
67.80535037779818
 20
30.71580682841853
 30
0.0
  0
SEQEND
  5
58E
330
58B
100
AcDbEntity
  8
DIBUJOS
 62
     7
  0
POLYLINE
  5
58F
330
374
100
AcDbEntity
  8
DIBUJOS
 62
     7
100
AcDb2dPolyline
 66
     1
 10
0.0
 20
0.0
 30
0.0
  0
VERTEX
  5
590
330
58F
100
AcDbEntity
  8
DIBUJOS
 62
     7
100
AcDbVertex
100
AcDb2dVertex
 10
67.83900097800152
 20
30.50885128365427
 30
0.0
  0
VERTEX
  5
591
330
58F
100
AcDbEntity
  8
DIBUJOS
 62
     7
100
AcDbVertex
100
AcDb2dVertex
 10
67.81095956589982
 20
30.70462126285756
 30
0.0
  0
SEQEND
  5
592
330
58F
100
AcDbEntity
  8
DIBUJOS
 62
     7
  0
POLYLINE
  5
593
330
374
100
AcDbEntity
  8
DIBUJOS
 62
     7
100
AcDb2dPolyline
 66
     1
 10
0.0
 20
0.0
 30
0.0
  0
VERTEX
  5
594
330
593
100
AcDbEntity
  8
DIBUJOS
 62
     7
100
AcDbVertex
100
AcDb2dVertex
 10
67.83900097800152
 20
30.47529007059408
 30
0.0
  0
VERTEX
  5
595
330
593
100
AcDbEntity
  8
DIBUJOS
 62
     7
100
AcDbVertex
100
AcDb2dVertex
 10
67.83339329936884
 20
30.49766421263463
 30
0.0
  0
SEQEND
  5
596
330
593
100
AcDbEntity
  8
DIBUJOS
 62
     7
  0
POLYLINE
  5
597
330
374
100
AcDbEntity
  8
DIBUJOS
 62
     7
100
AcDb2dPolyline
 66
     1
 10
0.0
 20
0.0
 30
0.0
  0
VERTEX
  5
598
330
597
100
AcDbEntity
  8
DIBUJOS
 62
     7
100
AcDbVertex
100
AcDb2dVertex
 10
67.84460865663453
 20
30.4473231457737
 30
0.0
  0
VERTEX
  5
599
330
597
100
AcDbEntity
  8
DIBUJOS
 62
     7
100
AcDbVertex
100
AcDb2dVertex
 10
67.84460865663453
 20
30.45851021679398
 30
0.0
  0
SEQEND
  5
59A
330
597
100
AcDbEntity
  8
DIBUJOS
 62
     7
  0
POLYLINE
  5
59B
330
374
100
AcDbEntity
  8
DIBUJOS
 62
     7
100
AcDb2dPolyline
 66
     1
 10
0.0
 20
0.0
 30
0.0
  0
VERTEX
  5
59C
330
59B
100
AcDbEntity
  8
DIBUJOS
 62
     7
100
AcDbVertex
100
AcDb2dVertex
 10
61.37260485564968
 20
30.41376193271352
 30
0.0
  0
VERTEX
  5
59D
330
59B
100
AcDbEntity
  8
DIBUJOS
 62
     7
100
AcDbVertex
100
AcDb2dVertex
 10
61.41747156785338
 20
30.71580682841853
 30
0.0
  0
SEQEND
  5
59E
330
59B
100
AcDbEntity
  8
DIBUJOS
 62
     7
  0
POLYLINE
  5
59F
330
374
100
AcDbEntity
  8
DIBUJOS
 62
     7
100
AcDb2dPolyline
 66
     1
 10
0.0
 20
0.0
 30
0.0
  0
VERTEX
  5
5A0
330
59F
100
AcDbEntity
  8
DIBUJOS
 62
     7
100
AcDbVertex
100
AcDb2dVertex
 10
67.85582552336888
 20
30.39698207891277
 30
0.0
  0
VERTEX
  5
5A1
330
59F
100
AcDbEntity
  8
DIBUJOS
 62
     7
100
AcDbVertex
100
AcDb2dVertex
 10
67.85021784473619
 20
30.40257636715256
 30
0.0
  0
VERTEX
  5
5A2
330
59F
100
AcDbEntity
  8
DIBUJOS
 62
     7
100
AcDbVertex
100
AcDb2dVertex
 10
67.85021784473619
 20
30.42494900373315
 30
0.0
  0
SEQEND
  5
5A3
330
59F
100
AcDbEntity
  8
DIBUJOS
 62
     7
  0
POLYLINE
  5
5A4
330
374
100
AcDbEntity
  8
DIBUJOS
 62
     7
100
AcDb2dPolyline
 66
     1
 10
0.0
 20
0.0
 30
0.0
  0
VERTEX
  5
5A5
330
5A4
100
AcDbEntity
  8
DIBUJOS
 62
     7
100
AcDbVertex
100
AcDb2dVertex
 10
61.36699642228235
 20
30.38020222511265
 30
0.0
  0
VERTEX
  5
5A6
330
5A4
100
AcDbEntity
  8
DIBUJOS
 62
     7
100
AcDbVertex
100
AcDb2dVertex
 10
61.37260485564968
 20
30.40257636715256
 30
0.0
  0
SEQEND
  5
5A7
330
5A4
100
AcDbEntity
  8
DIBUJOS
 62
     7
  0
POLYLINE
  5
5A8
330
374
100
AcDbEntity
  8
DIBUJOS
 62
     7
100
AcDb2dPolyline
 66
     1
 10
0.0
 20
0.0
 30
0.0
  0
VERTEX
  5
5A9
330
5A8
100
AcDbEntity
  8
DIBUJOS
 62
     7
100
AcDbVertex
100
AcDb2dVertex
 10
61.36138798891501
 20
30.35782808307211
 30
0.0
  0
VERTEX
  5
5AA
330
5A8
100
AcDbEntity
  8
DIBUJOS
 62
     7
100
AcDbVertex
100
AcDb2dVertex
 10
61.36699642228235
 20
30.36901515409238
 30
0.0
  0
SEQEND
  5
5AB
330
5A8
100
AcDbEntity
  8
DIBUJOS
 62
     7
  0
POLYLINE
  5
5AC
330
374
100
AcDbEntity
  8
DIBUJOS
 62
     7
100
AcDb2dPolyline
 66
     1
 10
0.0
 20
0.0
 30
0.0
  0
VERTEX
  5
5AD
330
5AC
100
AcDbEntity
  8
DIBUJOS
 62
     7
100
AcDbVertex
100
AcDb2dVertex
 10
67.85582552336888
 20
30.35223530029227
 30
0.0
  0
VERTEX
  5
5AE
330
5AC
100
AcDbEntity
  8
DIBUJOS
 62
     7
100
AcDbVertex
100
AcDb2dVertex
 10
67.85582552336888
 20
30.37460793687222
 30
0.0
  0
SEQEND
  5
5AF
330
5AC
100
AcDbEntity
  8
DIBUJOS
 62
     7
  0
POLYLINE
  5
5B0
330
374
100
AcDbEntity
  8
DIBUJOS
 62
     7
100
AcDb2dPolyline
 66
     1
 10
0.0
 20
0.0
 30
0.0
  0
VERTEX
  5
5B1
330
5B0
100
AcDbEntity
  8
DIBUJOS
 62
     7
100
AcDbVertex
100
AcDb2dVertex
 10
61.36138798891501
 20
30.31867408723145
 30
0.0
  0
VERTEX
  5
5B2
330
5B0
100
AcDbEntity
  8
DIBUJOS
 62
     7
100
AcDbVertex
100
AcDb2dVertex
 10
61.36699642228235
 20
30.33545394103156
 30
0.0
  0
SEQEND
  5
5B3
330
5B0
100
AcDbEntity
  8
DIBUJOS
 62
     7
  0
POLYLINE
  5
5B4
330
374
100
AcDbEntity
  8
DIBUJOS
 62
     7
100
AcDb2dPolyline
 66
     1
 10
0.0
 20
0.0
 30
0.0
  0
VERTEX
  5
5B5
330
5B4
100
AcDbEntity
  8
DIBUJOS
 62
     7
100
AcDbVertex
100
AcDb2dVertex
 10
67.86143471147085
 20
30.29070716241106
 30
0.0
  0
VERTEX
  5
5B6
330
5B4
100
AcDbEntity
  8
DIBUJOS
 62
     7
100
AcDbVertex
100
AcDb2dVertex
 10
67.86143471147085
 20
30.30189423343133
 30
0.0
  0
SEQEND
  5
5B7
330
5B4
100
AcDbEntity
  8
DIBUJOS
 62
     7
  0
POLYLINE
  5
5B8
330
374
100
AcDbEntity
  8
DIBUJOS
 62
     7
100
AcDb2dPolyline
 66
     1
 10
0.0
 20
0.0
 30
0.0
  0
VERTEX
  5
5B9
330
5B8
100
AcDbEntity
  8
DIBUJOS
 62
     7
100
AcDbVertex
100
AcDb2dVertex
 10
61.35577955554768
 20
30.23477331277029
 30
0.0
  0
VERTEX
  5
5BA
330
5B8
100
AcDbEntity
  8
DIBUJOS
 62
     7
100
AcDbVertex
100
AcDb2dVertex
 10
61.35577955554768
 20
30.26274023759067
 30
0.0
  0
SEQEND
  5
5BB
330
5B8
100
AcDbEntity
  8
DIBUJOS
 62
     7
  0
POLYLINE
  5
5BC
330
374
100
AcDbEntity
  8
DIBUJOS
 62
     7
100
AcDb2dPolyline
 66
     1
 10
0.0
 20
0.0
 30
0.0
  0
VERTEX
  5
5BD
330
5BC
100
AcDbEntity
  8
DIBUJOS
 62
     7
100
AcDbVertex
100
AcDb2dVertex
 10
67.86704239010353
 20
30.21239917072974
 30
0.0
  0
VERTEX
  5
5BE
330
5BC
100
AcDbEntity
  8
DIBUJOS
 62
     7
100
AcDbVertex
100
AcDb2dVertex
 10
67.86704239010353
 20
30.22917902452985
 30
0.0
  0
SEQEND
  5
5BF
330
5BC
100
AcDbEntity
  8
DIBUJOS
 62
     7
  0
POLYLINE
  5
5C0
330
374
100
AcDbEntity
  8
DIBUJOS
 62
     7
100
AcDb2dPolyline
 66
     1
 10
0.0
 20
0.0
 30
0.0
  0
VERTEX
  5
5C1
330
5C0
100
AcDbEntity
  8
DIBUJOS
 62
     7
100
AcDbVertex
100
AcDb2dVertex
 10
61.35577955554768
 20
30.19002502868919
 30
0.0
  0
VERTEX
  5
5C2
330
5C0
100
AcDbEntity
  8
DIBUJOS
 62
     7
100
AcDbVertex
100
AcDb2dVertex
 10
61.350171876915
 20
30.19002502868919
 30
0.0
  0
SEQEND
  5
5C3
330
5C0
100
AcDbEntity
  8
DIBUJOS
 62
     7
  0
POLYLINE
  5
5C4
330
374
100
AcDbEntity
  8
DIBUJOS
 62
     7
100
AcDb2dPolyline
 66
     1
 10
0.0
 20
0.0
 30
0.0
  0
VERTEX
  5
5C5
330
5C4
100
AcDbEntity
  8
DIBUJOS
 62
     7
100
AcDbVertex
100
AcDb2dVertex
 10
61.350171876915
 20
30.17324517488908
 30
0.0
  0
VERTEX
  5
5C6
330
5C4
100
AcDbEntity
  8
DIBUJOS
 62
     7
100
AcDbVertex
100
AcDb2dVertex
 10
61.350171876915
 20
30.17883946312888
 30
0.0
  0
SEQEND
  5
5C7
330
5C4
100
AcDbEntity
  8
DIBUJOS
 62
     7
  0
POLYLINE
  5
5C8
330
374
100
AcDbEntity
  8
DIBUJOS
 62
     7
100
AcDb2dPolyline
 66
     1
 10
0.0
 20
0.0
 30
0.0
  0
VERTEX
  5
5C9
330
5C8
100
AcDbEntity
  8
DIBUJOS
 62
     7
100
AcDbVertex
100
AcDb2dVertex
 10
67.87265157820583
 20
30.15087103284853
 30
0.0
  0
VERTEX
  5
5CA
330
5C8
100
AcDbEntity
  8
DIBUJOS
 62
     7
100
AcDbVertex
100
AcDb2dVertex
 10
67.86704239010353
 20
30.16205810386881
 30
0.0
  0
SEQEND
  5
5CB
330
5C8
100
AcDbEntity
  8
DIBUJOS
 62
     7
  0
POLYLINE
  5
5CC
330
374
100
AcDbEntity
  8
DIBUJOS
 62
     7
100
AcDb2dPolyline
 66
     1
 10
0.0
 20
0.0
 30
0.0
  0
VERTEX
  5
5CD
330
5CC
100
AcDbEntity
  8
DIBUJOS
 62
     7
100
AcDbVertex
100
AcDb2dVertex
 10
61.34456344354766
 20
30.10612425422804
 30
0.0
  0
VERTEX
  5
5CE
330
5CC
100
AcDbEntity
  8
DIBUJOS
 62
     7
100
AcDbVertex
100
AcDb2dVertex
 10
61.34456344354766
 20
30.12290410802815
 30
0.0
  0
SEQEND
  5
5CF
330
5CC
100
AcDbEntity
  8
DIBUJOS
 62
     7
  0
POLYLINE
  5
5D0
330
374
100
AcDbEntity
  8
DIBUJOS
 62
     7
100
AcDb2dPolyline
 66
     1
 10
0.0
 20
0.0
 30
0.0
  0
VERTEX
  5
5D1
330
5D0
100
AcDbEntity
  8
DIBUJOS
 62
     7
100
AcDbVertex
100
AcDb2dVertex
 10
61.33895501018065
 20
30.07256304116721
 30
0.0
  0
VERTEX
  5
5D2
330
5D0
100
AcDbEntity
  8
DIBUJOS
 62
     7
100
AcDbVertex
100
AcDb2dVertex
 10
61.34456344354766
 20
30.08375011218749
 30
0.0
  0
SEQEND
  5
5D3
330
5D0
100
AcDbEntity
  8
DIBUJOS
 62
     7
  0
POLYLINE
  5
5D4
330
374
100
AcDbEntity
  8
DIBUJOS
 62
     7
100
AcDb2dPolyline
 66
     1
 10
0.0
 20
0.0
 30
0.0
  0
VERTEX
  5
5D5
330
5D4
100
AcDbEntity
  8
DIBUJOS
 62
     7
100
AcDbVertex
100
AcDb2dVertex
 10
61.33334657681332
 20
29.93832119984448
 30
0.0
  0
VERTEX
  5
5D6
330
5D4
100
AcDbEntity
  8
DIBUJOS
 62
     7
100
AcDbVertex
100
AcDb2dVertex
 10
61.34456344354766
 20
30.0557831873671
 30
0.0
  0
SEQEND
  5
5D7
330
5D4
100
AcDbEntity
  8
DIBUJOS
 62
     7
  0
POLYLINE
  5
5D8
330
374
100
AcDbEntity
  8
DIBUJOS
 62
     7
100
AcDb2dPolyline
 66
     1
 10
0.0
 20
0.0
 30
0.0
  0
VERTEX
  5
5D9
330
5D8
100
AcDbEntity
  8
DIBUJOS
 62
     7
100
AcDbVertex
100
AcDb2dVertex
 10
67.90069299030817
 20
29.83763981885291
 30
0.0
  0
VERTEX
  5
5DA
330
5D8
100
AcDbEntity
  8
DIBUJOS
 62
     7
100
AcDbVertex
100
AcDb2dVertex
 10
67.8782592568382
 20
30.08934440042728
 30
0.0
  0
SEQEND
  5
5DB
330
5D8
100
AcDbEntity
  8
DIBUJOS
 62
     7
  0
POLYLINE
  5
5DC
330
374
100
AcDbEntity
  8
DIBUJOS
 62
     7
100
AcDb2dPolyline
 66
     1
 10
0.0
 20
0.0
 30
0.0
  0
VERTEX
  5
5DD
330
5DC
100
AcDbEntity
  8
DIBUJOS
 62
     7
100
AcDbVertex
100
AcDb2dVertex
 10
61.31652127671132
 20
29.77051889819187
 30
0.0
  0
VERTEX
  5
5DE
330
5DC
100
AcDbEntity
  8
DIBUJOS
 62
     7
100
AcDbVertex
100
AcDb2dVertex
 10
61.32773814344599
 20
29.91035427502409
 30
0.0
  0
SEQEND
  5
5DF
330
5DC
100
AcDbEntity
  8
DIBUJOS
 62
     7
  0
POLYLINE
  5
5E0
330
374
100
AcDbEntity
  8
DIBUJOS
 62
     7
100
AcDb2dPolyline
 66
     1
 10
0.0
 20
0.0
 30
0.0
  0
VERTEX
  5
5E1
330
5E0
100
AcDbEntity
  8
DIBUJOS
 62
     7
100
AcDbVertex
100
AcDb2dVertex
 10
67.9063006689399
 20
29.75933182717159
 30
0.0
  0
VERTEX
  5
5E2
330
5E0
100
AcDbEntity
  8
DIBUJOS
 62
     7
100
AcDbVertex
100
AcDb2dVertex
 10
67.90069299030817
 20
29.8208592123225
 30
0.0
  0
SEQEND
  5
5E3
330
5E0
100
AcDbEntity
  8
DIBUJOS
 62
     7
  0
POLYLINE
  5
5E4
330
374
100
AcDbEntity
  8
DIBUJOS
 62
     7
100
AcDb2dPolyline
 66
     1
 10
0.0
 20
0.0
 30
0.0
  0
VERTEX
  5
5E5
330
5E4
100
AcDbEntity
  8
DIBUJOS
 62
     7
100
AcDbVertex
100
AcDb2dVertex
 10
61.31091284334399
 20
29.73695843786134
 30
0.0
  0
VERTEX
  5
5E6
330
5E4
100
AcDbEntity
  8
DIBUJOS
 62
     7
100
AcDbVertex
100
AcDb2dVertex
 10
61.31652127671132
 20
29.75933182717159
 30
0.0
  0
SEQEND
  5
5E7
330
5E4
100
AcDbEntity
  8
DIBUJOS
 62
     7
  0
POLYLINE
  5
5E8
330
374
100
AcDbEntity
  8
DIBUJOS
 62
     7
100
AcDb2dPolyline
 66
     1
 10
0.0
 20
0.0
 30
0.0
  0
VERTEX
  5
5E9
330
5E8
100
AcDbEntity
  8
DIBUJOS
 62
     7
100
AcDbVertex
100
AcDb2dVertex
 10
61.31652127671132
 20
29.7145842958208
 30
0.0
  0
VERTEX
  5
5EA
330
5E8
100
AcDbEntity
  8
DIBUJOS
 62
     7
100
AcDbVertex
100
AcDb2dVertex
 10
61.31652127671132
 20
29.72017783133093
 30
0.0
  0
SEQEND
  5
5EB
330
5E8
100
AcDbEntity
  8
DIBUJOS
 62
     7
  0
POLYLINE
  5
5EC
330
374
100
AcDbEntity
  8
DIBUJOS
 62
     7
100
AcDb2dPolyline
 66
     1
 10
0.0
 20
0.0
 30
0.0
  0
VERTEX
  5
5ED
330
5EC
100
AcDbEntity
  8
DIBUJOS
 62
     7
100
AcDbVertex
100
AcDb2dVertex
 10
67.9063006689399
 20
29.69780368929103
 30
0.0
  0
VERTEX
  5
5EE
330
5EC
100
AcDbEntity
  8
DIBUJOS
 62
     7
100
AcDbVertex
100
AcDb2dVertex
 10
67.9063006689399
 20
29.73695843786134
 30
0.0
  0
SEQEND
  5
5EF
330
5EC
100
AcDbEntity
  8
DIBUJOS
 62
     7
  0
POLYLINE
  5
5F0
330
374
100
AcDbEntity
  8
DIBUJOS
 62
     7
100
AcDb2dPolyline
 66
     1
 10
0.0
 20
0.0
 30
0.0
  0
VERTEX
  5
5F1
330
5F0
100
AcDbEntity
  8
DIBUJOS
 62
     7
100
AcDbVertex
100
AcDb2dVertex
 10
67.9063006689399
 20
29.67543029998078
 30
0.0
  0
VERTEX
  5
5F2
330
5F0
100
AcDbEntity
  8
DIBUJOS
 62
     7
100
AcDbVertex
100
AcDb2dVertex
 10
67.9063006689399
 20
29.68102383549027
 30
0.0
  0
SEQEND
  5
5F3
330
5F0
100
AcDbEntity
  8
DIBUJOS
 62
     7
  0
POLYLINE
  5
5F4
330
374
100
AcDbEntity
  8
DIBUJOS
 62
     7
100
AcDb2dPolyline
 66
     1
 10
0.0
 20
0.0
 30
0.0
  0
VERTEX
  5
5F5
330
5F4
100
AcDbEntity
  8
DIBUJOS
 62
     7
100
AcDbVertex
100
AcDb2dVertex
 10
61.31091284334399
 20
29.6642432289605
 30
0.0
  0
VERTEX
  5
5F6
330
5F4
100
AcDbEntity
  8
DIBUJOS
 62
     7
100
AcDbVertex
100
AcDb2dVertex
 10
61.31091284334399
 20
29.66983676447064
 30
0.0
  0
SEQEND
  5
5F7
330
5F4
100
AcDbEntity
  8
DIBUJOS
 62
     7
  0
POLYLINE
  5
5F8
330
374
100
AcDbEntity
  8
DIBUJOS
 62
     7
100
AcDb2dPolyline
 66
     1
 10
0.0
 20
0.0
 30
0.0
  0
VERTEX
  5
5F9
330
5F8
100
AcDbEntity
  8
DIBUJOS
 62
     7
100
AcDbVertex
100
AcDb2dVertex
 10
67.9119098570422
 20
29.61390291482923
 30
0.0
  0
VERTEX
  5
5FA
330
5F8
100
AcDbEntity
  8
DIBUJOS
 62
     7
100
AcDbVertex
100
AcDb2dVertex
 10
67.9119098570422
 20
29.63627630414012
 30
0.0
  0
SEQEND
  5
5FB
330
5F8
100
AcDbEntity
  8
DIBUJOS
 62
     7
  0
POLYLINE
  5
5FC
330
374
100
AcDbEntity
  8
DIBUJOS
 62
     7
100
AcDb2dPolyline
 66
     1
 10
0.0
 20
0.0
 30
0.0
  0
VERTEX
  5
5FD
330
5FC
100
AcDbEntity
  8
DIBUJOS
 62
     7
100
AcDbVertex
100
AcDb2dVertex
 10
61.31091284334399
 20
29.60830937931909
 30
0.0
  0
VERTEX
  5
5FE
330
5FC
100
AcDbEntity
  8
DIBUJOS
 62
     7
100
AcDbVertex
100
AcDb2dVertex
 10
61.31091284334399
 20
29.64746337515975
 30
0.0
  0
SEQEND
  5
5FF
330
5FC
100
AcDbEntity
  8
DIBUJOS
 62
     7
  0
POLYLINE
  5
600
330
374
100
AcDbEntity
  8
DIBUJOS
 62
     7
100
AcDb2dPolyline
 66
     1
 10
0.0
 20
0.0
 30
0.0
  0
VERTEX
  5
601
330
600
100
AcDbEntity
  8
DIBUJOS
 62
     7
100
AcDbVertex
100
AcDb2dVertex
 10
61.30530516471163
 20
29.5579683124588
 30
0.0
  0
VERTEX
  5
602
330
600
100
AcDbEntity
  8
DIBUJOS
 62
     7
100
AcDbVertex
100
AcDb2dVertex
 10
61.31091284334399
 20
29.56356184796894
 30
0.0
  0
VERTEX
  5
603
330
600
100
AcDbEntity
  8
DIBUJOS
 62
     7
100
AcDbVertex
100
AcDb2dVertex
 10
61.30530516471163
 20
29.56915538347907
 30
0.0
  0
SEQEND
  5
604
330
600
100
AcDbEntity
  8
DIBUJOS
 62
     7
  0
POLYLINE
  5
605
330
374
100
AcDbEntity
  8
DIBUJOS
 62
     7
100
AcDb2dPolyline
 66
     1
 10
0.0
 20
0.0
 30
0.0
  0
VERTEX
  5
606
330
605
100
AcDbEntity
  8
DIBUJOS
 62
     7
100
AcDbVertex
100
AcDb2dVertex
 10
67.9119098570422
 20
29.52440785212828
 30
0.0
  0
VERTEX
  5
607
330
605
100
AcDbEntity
  8
DIBUJOS
 62
     7
100
AcDbVertex
100
AcDb2dVertex
 10
67.9130313927686
 20
29.52944210935985
 30
0.0
  0
VERTEX
  5
608
330
605
100
AcDbEntity
  8
DIBUJOS
 62
     7
100
AcDbVertex
100
AcDb2dVertex
 10
67.9063006689399
 20
29.60271584380959
 30
0.0
  0
SEQEND
  5
609
330
605
100
AcDbEntity
  8
DIBUJOS
 62
     7
  0
POLYLINE
  5
60A
330
374
100
AcDbEntity
  8
DIBUJOS
 62
     7
100
AcDb2dPolyline
 66
     1
 10
0.0
 20
0.0
 30
0.0
  0
VERTEX
  5
60B
330
60A
100
AcDbEntity
  8
DIBUJOS
 62
     7
100
AcDbVertex
100
AcDb2dVertex
 10
61.30530516471163
 20
29.513220781108
 30
0.0
  0
VERTEX
  5
60C
330
60A
100
AcDbEntity
  8
DIBUJOS
 62
     7
100
AcDbVertex
100
AcDb2dVertex
 10
61.31091284334399
 20
29.52440785212828
 30
0.0
  0
SEQEND
  5
60D
330
60A
100
AcDbEntity
  8
DIBUJOS
 62
     7
  0
POLYLINE
  5
60E
330
374
100
AcDbEntity
  8
DIBUJOS
 62
     7
100
AcDb2dPolyline
 66
     1
 10
0.0
 20
0.0
 30
0.0
  0
VERTEX
  5
60F
330
60E
100
AcDbEntity
  8
DIBUJOS
 62
     7
100
AcDbVertex
100
AcDb2dVertex
 10
61.30530516471163
 20
29.49084739179775
 30
0.0
  0
VERTEX
  5
610
330
60E
100
AcDbEntity
  8
DIBUJOS
 62
     7
100
AcDbVertex
100
AcDb2dVertex
 10
61.30530516471163
 20
29.50203446281738
 30
0.0
  0
SEQEND
  5
611
330
60E
100
AcDbEntity
  8
DIBUJOS
 62
     7
  0
POLYLINE
  5
612
330
374
100
AcDbEntity
  8
DIBUJOS
 62
     7
100
AcDb2dPolyline
 66
     1
 10
0.0
 20
0.0
 30
0.0
  0
VERTEX
  5
613
330
612
100
AcDbEntity
  8
DIBUJOS
 62
     7
100
AcDbVertex
100
AcDb2dVertex
 10
61.30530516471163
 20
29.45169339595645
 30
0.0
  0
VERTEX
  5
614
330
612
100
AcDbEntity
  8
DIBUJOS
 62
     7
100
AcDbVertex
100
AcDb2dVertex
 10
61.30530516471163
 20
29.47966032077748
 30
0.0
  0
SEQEND
  5
615
330
612
100
AcDbEntity
  8
DIBUJOS
 62
     7
  0
POLYLINE
  5
616
330
374
100
AcDbEntity
  8
DIBUJOS
 62
     7
100
AcDb2dPolyline
 66
     1
 10
0.0
 20
0.0
 30
0.0
  0
VERTEX
  5
617
330
616
100
AcDbEntity
  8
DIBUJOS
 62
     7
100
AcDbVertex
100
AcDb2dVertex
 10
61.30530516471163
 20
29.4293200066462
 30
0.0
  0
VERTEX
  5
618
330
616
100
AcDbEntity
  8
DIBUJOS
 62
     7
100
AcDbVertex
100
AcDb2dVertex
 10
61.30530516471163
 20
29.44050632493682
 30
0.0
  0
SEQEND
  5
619
330
616
100
AcDbEntity
  8
DIBUJOS
 62
     7
  0
POLYLINE
  5
61A
330
374
100
AcDbEntity
  8
DIBUJOS
 62
     7
100
AcDb2dPolyline
 66
     1
 10
0.0
 20
0.0
 30
0.0
  0
VERTEX
  5
61B
330
61A
100
AcDbEntity
  8
DIBUJOS
 62
     7
100
AcDbVertex
100
AcDb2dVertex
 10
67.91751753567456
 20
29.4293200066462
 30
0.0
  0
VERTEX
  5
61C
330
61A
100
AcDbEntity
  8
DIBUJOS
 62
     7
100
AcDbVertex
100
AcDb2dVertex
 10
67.9119098570422
 20
29.45169339595645
 30
0.0
  0
SEQEND
  5
61D
330
61A
100
AcDbEntity
  8
DIBUJOS
 62
     7
  0
POLYLINE
  5
61E
330
374
100
AcDbEntity
  8
DIBUJOS
 62
     7
100
AcDb2dPolyline
 66
     1
 10
0.0
 20
0.0
 30
0.0
  0
VERTEX
  5
61F
330
61E
100
AcDbEntity
  8
DIBUJOS
 62
     7
100
AcDbVertex
100
AcDb2dVertex
 10
67.91751753567456
 20
29.39016525807589
 30
0.0
  0
VERTEX
  5
620
330
61E
100
AcDbEntity
  8
DIBUJOS
 62
     7
100
AcDbVertex
100
AcDb2dVertex
 10
67.91751753567456
 20
29.41813293562593
 30
0.0
  0
SEQEND
  5
621
330
61E
100
AcDbEntity
  8
DIBUJOS
 62
     7
  0
POLYLINE
  5
622
330
374
100
AcDbEntity
  8
DIBUJOS
 62
     7
100
AcDb2dPolyline
 66
     1
 10
0.0
 20
0.0
 30
0.0
  0
VERTEX
  5
623
330
622
100
AcDbEntity
  8
DIBUJOS
 62
     7
100
AcDbVertex
100
AcDb2dVertex
 10
67.91751753567456
 20
29.367791868765
 30
0.0
  0
VERTEX
  5
624
330
622
100
AcDbEntity
  8
DIBUJOS
 62
     7
100
AcDbVertex
100
AcDb2dVertex
 10
67.91751753567456
 20
29.37897893978527
 30
0.0
  0
SEQEND
  5
625
330
622
100
AcDbEntity
  8
DIBUJOS
 62
     7
  0
POLYLINE
  5
626
330
374
100
AcDbEntity
  8
DIBUJOS
 62
     7
100
AcDb2dPolyline
 66
     1
 10
0.0
 20
0.0
 30
0.0
  0
VERTEX
  5
627
330
626
100
AcDbEntity
  8
DIBUJOS
 62
     7
100
AcDbVertex
100
AcDb2dVertex
 10
67.92873440240955
 20
29.2167694209125
 30
0.0
  0
VERTEX
  5
628
330
626
100
AcDbEntity
  8
DIBUJOS
 62
     7
100
AcDbVertex
100
AcDb2dVertex
 10
67.91751753567456
 20
29.33423140843447
 30
0.0
  0
SEQEND
  5
629
330
626
100
AcDbEntity
  8
DIBUJOS
 62
     7
  0
POLYLINE
  5
62A
330
374
100
AcDbEntity
  8
DIBUJOS
 62
     7
100
AcDb2dPolyline
 66
     1
 10
0.0
 20
0.0
 30
0.0
  0
VERTEX
  5
62B
330
62A
100
AcDbEntity
  8
DIBUJOS
 62
     7
100
AcDbVertex
100
AcDb2dVertex
 10
67.92873440240955
 20
29.02099944170919
 30
0.0
  0
VERTEX
  5
62C
330
62A
100
AcDbEntity
  8
DIBUJOS
 62
     7
100
AcDbVertex
100
AcDb2dVertex
 10
67.93434208104192
 20
29.02659297721933
 30
0.0
  0
VERTEX
  5
62D
330
62A
100
AcDbEntity
  8
DIBUJOS
 62
     7
100
AcDbVertex
100
AcDb2dVertex
 10
67.93142578625945
 20
29.06025656153923
 30
0.0
  0
VERTEX
  5
62E
330
62A
100
AcDbEntity
  8
DIBUJOS
 62
     7
100
AcDbVertex
100
AcDb2dVertex
 10
67.92873440240955
 20
29.19998956711238
 30
0.0
  0
SEQEND
  5
62F
330
62A
100
AcDbEntity
  8
DIBUJOS
 62
     7
  0
POLYLINE
  5
630
330
374
100
AcDbEntity
  8
DIBUJOS
 62
     7
100
AcDb2dPolyline
 66
     1
 10
0.0
 20
0.0
 30
0.0
  0
VERTEX
  5
631
330
630
100
AcDbEntity
  8
DIBUJOS
 62
     7
100
AcDbVertex
100
AcDb2dVertex
 10
67.93434208104192
 20
28.98743898137867
 30
0.0
  0
VERTEX
  5
632
330
630
100
AcDbEntity
  8
DIBUJOS
 62
     7
100
AcDbVertex
100
AcDb2dVertex
 10
67.92873440240955
 20
29.00981237068892
 30
0.0
  0
SEQEND
  5
633
330
630
100
AcDbEntity
  8
DIBUJOS
 62
     7
  0
POLYLINE
  5
634
330
374
100
AcDbEntity
  8
DIBUJOS
 62
     7
100
AcDb2dPolyline
 66
     1
 10
0.0
 20
0.0
 30
0.0
  0
VERTEX
  5
635
330
634
100
AcDbEntity
  8
DIBUJOS
 62
     7
100
AcDbVertex
100
AcDb2dVertex
 10
61.28847986460963
 20
28.93709791451774
 30
0.0
  0
VERTEX
  5
636
330
634
100
AcDbEntity
  8
DIBUJOS
 62
     7
100
AcDbVertex
100
AcDb2dVertex
 10
61.28287143124229
 20
28.94269145002788
 30
0.0
  0
VERTEX
  5
637
330
634
100
AcDbEntity
  8
DIBUJOS
 62
     7
100
AcDbVertex
100
AcDb2dVertex
 10
61.30530516471163
 20
29.34541847945475
 30
0.0
  0
SEQEND
  5
638
330
634
100
AcDbEntity
  8
DIBUJOS
 62
     7
  0
POLYLINE
  5
639
330
374
100
AcDbEntity
  8
DIBUJOS
 62
     7
100
AcDb2dPolyline
 66
     1
 10
0.0
 20
0.0
 30
0.0
  0
VERTEX
  5
63A
330
639
100
AcDbEntity
  8
DIBUJOS
 62
     7
100
AcDbVertex
100
AcDb2dVertex
 10
61.28287143124229
 20
28.90913098969735
 30
0.0
  0
VERTEX
  5
63B
330
639
100
AcDbEntity
  8
DIBUJOS
 62
     7
100
AcDbVertex
100
AcDb2dVertex
 10
61.28847986460963
 20
28.91472452520749
 30
0.0
  0
VERTEX
  5
63C
330
639
100
AcDbEntity
  8
DIBUJOS
 62
     7
100
AcDbVertex
100
AcDb2dVertex
 10
61.28287143124229
 20
28.92591159622712
 30
0.0
  0
SEQEND
  5
63D
330
639
100
AcDbEntity
  8
DIBUJOS
 62
     7
  0
POLYLINE
  5
63E
330
374
100
AcDbEntity
  8
DIBUJOS
 62
     7
100
AcDb2dPolyline
 66
     1
 10
0.0
 20
0.0
 30
0.0
  0
VERTEX
  5
63F
330
63E
100
AcDbEntity
  8
DIBUJOS
 62
     7
100
AcDbVertex
100
AcDb2dVertex
 10
61.28287143124229
 20
28.8923511358966
 30
0.0
  0
VERTEX
  5
640
330
63E
100
AcDbEntity
  8
DIBUJOS
 62
     7
100
AcDbVertex
100
AcDb2dVertex
 10
61.28287143124229
 20
28.89794391867708
 30
0.0
  0
SEQEND
  5
641
330
63E
100
AcDbEntity
  8
DIBUJOS
 62
     7
  0
POLYLINE
  5
642
330
374
100
AcDbEntity
  8
DIBUJOS
 62
     7
100
AcDb2dPolyline
 66
     1
 10
0.0
 20
0.0
 30
0.0
  0
VERTEX
  5
643
330
642
100
AcDbEntity
  8
DIBUJOS
 62
     7
100
AcDbVertex
100
AcDb2dVertex
 10
67.93434208104192
 20
28.8923511358966
 30
0.0
  0
VERTEX
  5
644
330
642
100
AcDbEntity
  8
DIBUJOS
 62
     7
100
AcDbVertex
100
AcDb2dVertex
 10
67.93434208104192
 20
28.97065912757792
 30
0.0
  0
VERTEX
  5
645
330
642
100
AcDbEntity
  8
DIBUJOS
 62
     7
100
AcDbVertex
100
AcDb2dVertex
 10
67.92873440240955
 20
28.97625266308805
 30
0.0
  0
SEQEND
  5
646
330
642
100
AcDbEntity
  8
DIBUJOS
 62
     7
  0
POLYLINE
  5
647
330
374
100
AcDbEntity
  8
DIBUJOS
 62
     7
100
AcDb2dPolyline
 66
     1
 10
0.0
 20
0.0
 30
0.0
  0
VERTEX
  5
648
330
647
100
AcDbEntity
  8
DIBUJOS
 62
     7
100
AcDbVertex
100
AcDb2dVertex
 10
61.28287143124229
 20
28.87557052936683
 30
0.0
  0
VERTEX
  5
649
330
647
100
AcDbEntity
  8
DIBUJOS
 62
     7
100
AcDbVertex
100
AcDb2dVertex
 10
61.28847986460963
 20
28.88116406487697
 30
0.0
  0
SEQEND
  5
64A
330
647
100
AcDbEntity
  8
DIBUJOS
 62
     7
  0
POLYLINE
  5
64B
330
374
100
AcDbEntity
  8
DIBUJOS
 62
     7
100
AcDb2dPolyline
 66
     1
 10
0.0
 20
0.0
 30
0.0
  0
VERTEX
  5
64C
330
64B
100
AcDbEntity
  8
DIBUJOS
 62
     7
100
AcDbVertex
100
AcDb2dVertex
 10
67.93434208104192
 20
28.83641653352617
 30
0.0
  0
VERTEX
  5
64D
330
64B
100
AcDbEntity
  8
DIBUJOS
 62
     7
100
AcDbVertex
100
AcDb2dVertex
 10
67.93995126914422
 20
28.86997699385669
 30
0.0
  0
VERTEX
  5
64E
330
64B
100
AcDbEntity
  8
DIBUJOS
 62
     7
100
AcDbVertex
100
AcDb2dVertex
 10
67.93434208104192
 20
28.87557052936683
 30
0.0
  0
SEQEND
  5
64F
330
64B
100
AcDbEntity
  8
DIBUJOS
 62
     7
  0
POLYLINE
  5
650
330
374
100
AcDbEntity
  8
DIBUJOS
 62
     7
100
AcDb2dPolyline
 66
     1
 10
0.0
 20
0.0
 30
0.0
  0
VERTEX
  5
651
330
650
100
AcDbEntity
  8
DIBUJOS
 62
     7
100
AcDbVertex
100
AcDb2dVertex
 10
67.93434208104192
 20
28.79166900217538
 30
0.0
  0
VERTEX
  5
652
330
650
100
AcDbEntity
  8
DIBUJOS
 62
     7
100
AcDbVertex
100
AcDb2dVertex
 10
67.93995126914422
 20
28.81963667972542
 30
0.0
  0
VERTEX
  5
653
330
650
100
AcDbEntity
  8
DIBUJOS
 62
     7
100
AcDbVertex
100
AcDb2dVertex
 10
67.93434208104192
 20
28.8252294625059
 30
0.0
  0
SEQEND
  5
654
330
650
100
AcDbEntity
  8
DIBUJOS
 62
     7
  0
POLYLINE
  5
655
330
374
100
AcDbEntity
  8
DIBUJOS
 62
     7
100
AcDb2dPolyline
 66
     1
 10
0.0
 20
0.0
 30
0.0
  0
VERTEX
  5
656
330
655
100
AcDbEntity
  8
DIBUJOS
 62
     7
100
AcDbVertex
100
AcDb2dVertex
 10
61.28287143124229
 20
28.74132793531444
 30
0.0
  0
VERTEX
  5
657
330
655
100
AcDbEntity
  8
DIBUJOS
 62
     7
100
AcDbVertex
100
AcDb2dVertex
 10
61.28287143124229
 20
28.86438345834656
 30
0.0
  0
SEQEND
  5
658
330
655
100
AcDbEntity
  8
DIBUJOS
 62
     7
  0
POLYLINE
  5
659
330
374
100
AcDbEntity
  8
DIBUJOS
 62
     7
100
AcDb2dPolyline
 66
     1
 10
0.0
 20
0.0
 30
0.0
  0
VERTEX
  5
65A
330
659
100
AcDbEntity
  8
DIBUJOS
 62
     7
100
AcDbVertex
100
AcDb2dVertex
 10
61.28287143124229
 20
28.71336101049405
 30
0.0
  0
VERTEX
  5
65B
330
659
100
AcDbEntity
  8
DIBUJOS
 62
     7
100
AcDbVertex
100
AcDb2dVertex
 10
61.28287143124229
 20
28.73014161702447
 30
0.0
  0
SEQEND
  5
65C
330
659
100
AcDbEntity
  8
DIBUJOS
 62
     7
  0
POLYLINE
  5
65D
330
374
100
AcDbEntity
  8
DIBUJOS
 62
     7
100
AcDb2dPolyline
 66
     1
 10
0.0
 20
0.0
 30
0.0
  0
VERTEX
  5
65E
330
65D
100
AcDbEntity
  8
DIBUJOS
 62
     7
100
AcDbVertex
100
AcDb2dVertex
 10
61.28287143124229
 20
28.6909876211838
 30
0.0
  0
VERTEX
  5
65F
330
65D
100
AcDbEntity
  8
DIBUJOS
 62
     7
100
AcDbVertex
100
AcDb2dVertex
 10
61.27726299787464
 20
28.69658115669394
 30
0.0
  0
VERTEX
  5
660
330
65D
100
AcDbEntity
  8
DIBUJOS
 62
     7
100
AcDbVertex
100
AcDb2dVertex
 10
61.28287143124229
 20
28.70217469220408
 30
0.0
  0
SEQEND
  5
661
330
65D
100
AcDbEntity
  8
DIBUJOS
 62
     7
  0
POLYLINE
  5
662
330
374
100
AcDbEntity
  8
DIBUJOS
 62
     7
100
AcDb2dPolyline
 66
     1
 10
0.0
 20
0.0
 30
0.0
  0
VERTEX
  5
663
330
662
100
AcDbEntity
  8
DIBUJOS
 62
     7
100
AcDbVertex
100
AcDb2dVertex
 10
61.28287143124229
 20
28.66861347914326
 30
0.0
  0
VERTEX
  5
664
330
662
100
AcDbEntity
  8
DIBUJOS
 62
     7
100
AcDbVertex
100
AcDb2dVertex
 10
61.27726299787464
 20
28.66861347914326
 30
0.0
  0
SEQEND
  5
665
330
662
100
AcDbEntity
  8
DIBUJOS
 62
     7
  0
POLYLINE
  5
666
330
374
100
AcDbEntity
  8
DIBUJOS
 62
     7
100
AcDb2dPolyline
 66
     1
 10
0.0
 20
0.0
 30
0.0
  0
VERTEX
  5
667
330
666
100
AcDbEntity
  8
DIBUJOS
 62
     7
100
AcDbVertex
100
AcDb2dVertex
 10
67.93995126914422
 20
28.64064655432287
 30
0.0
  0
VERTEX
  5
668
330
666
100
AcDbEntity
  8
DIBUJOS
 62
     7
100
AcDbVertex
100
AcDb2dVertex
 10
67.93995126914422
 20
28.74692147082458
 30
0.0
  0
SEQEND
  5
669
330
666
100
AcDbEntity
  8
DIBUJOS
 62
     7
  0
POLYLINE
  5
66A
330
374
100
AcDbEntity
  8
DIBUJOS
 62
     7
100
AcDb2dPolyline
 66
     1
 10
0.0
 20
0.0
 30
0.0
  0
VERTEX
  5
66B
330
66A
100
AcDbEntity
  8
DIBUJOS
 62
     7
100
AcDbVertex
100
AcDb2dVertex
 10
61.28287143124229
 20
28.63505301881273
 30
0.0
  0
VERTEX
  5
66C
330
66A
100
AcDbEntity
  8
DIBUJOS
 62
     7
100
AcDbVertex
100
AcDb2dVertex
 10
61.27726299787464
 20
28.65742716085328
 30
0.0
  0
SEQEND
  5
66D
330
66A
100
AcDbEntity
  8
DIBUJOS
 62
     7
  0
POLYLINE
  5
66E
330
374
100
AcDbEntity
  8
DIBUJOS
 62
     7
100
AcDb2dPolyline
 66
     1
 10
0.0
 20
0.0
 30
0.0
  0
VERTEX
  5
66F
330
66E
100
AcDbEntity
  8
DIBUJOS
 62
     7
100
AcDbVertex
100
AcDb2dVertex
 10
67.94555894777658
 20
28.6294594833026
 30
0.0
  0
VERTEX
  5
670
330
66E
100
AcDbEntity
  8
DIBUJOS
 62
     7
100
AcDbVertex
100
AcDb2dVertex
 10
67.93995126914422
 20
28.6294594833026
 30
0.0
  0
SEQEND
  5
671
330
66E
100
AcDbEntity
  8
DIBUJOS
 62
     7
  0
POLYLINE
  5
672
330
374
100
AcDbEntity
  8
DIBUJOS
 62
     7
100
AcDb2dPolyline
 66
     1
 10
0.0
 20
0.0
 30
0.0
  0
VERTEX
  5
673
330
672
100
AcDbEntity
  8
DIBUJOS
 62
     7
100
AcDbVertex
100
AcDb2dVertex
 10
67.94555894777658
 20
28.3050411982867
 30
0.0
  0
VERTEX
  5
674
330
672
100
AcDbEntity
  8
DIBUJOS
 62
     7
100
AcDbVertex
100
AcDb2dVertex
 10
67.95116813587887
 20
28.31063473379684
 30
0.0
  0
VERTEX
  5
675
330
672
100
AcDbEntity
  8
DIBUJOS
 62
     7
100
AcDbVertex
100
AcDb2dVertex
 10
67.94255661324094
 20
28.52895123017587
 30
0.0
  0
VERTEX
  5
676
330
672
100
AcDbEntity
  8
DIBUJOS
 62
     7
100
AcDbVertex
100
AcDb2dVertex
 10
67.93995126914422
 20
28.60708609399235
 30
0.0
  0
SEQEND
  5
677
330
672
100
AcDbEntity
  8
DIBUJOS
 62
     7
  0
POLYLINE
  5
678
330
374
100
AcDbEntity
  8
DIBUJOS
 62
     7
100
AcDb2dPolyline
 66
     1
 10
0.0
 20
0.0
 30
0.0
  0
VERTEX
  5
679
330
678
100
AcDbEntity
  8
DIBUJOS
 62
     7
100
AcDbVertex
100
AcDb2dVertex
 10
67.94555894777658
 20
28.28826059175693
 30
0.0
  0
VERTEX
  5
67A
330
678
100
AcDbEntity
  8
DIBUJOS
 62
     7
100
AcDbVertex
100
AcDb2dVertex
 10
67.95116813587887
 20
28.29385412726707
 30
0.0
  0
SEQEND
  5
67B
330
678
100
AcDbEntity
  8
DIBUJOS
 62
     7
  0
POLYLINE
  5
67C
330
374
100
AcDbEntity
  8
DIBUJOS
 62
     7
100
AcDb2dPolyline
 66
     1
 10
0.0
 20
0.0
 30
0.0
  0
VERTEX
  5
67D
330
67C
100
AcDbEntity
  8
DIBUJOS
 62
     7
100
AcDbVertex
100
AcDb2dVertex
 10
61.27165456450731
 20
28.17079935696461
 30
0.0
  0
VERTEX
  5
67E
330
67C
100
AcDbEntity
  8
DIBUJOS
 62
     7
100
AcDbVertex
100
AcDb2dVertex
 10
61.26604688587494
 20
28.17639213974445
 30
0.0
  0
VERTEX
  5
67F
330
67C
100
AcDbEntity
  8
DIBUJOS
 62
     7
100
AcDbVertex
100
AcDb2dVertex
 10
61.26899789845272
 20
28.18771169121844
 30
0.0
  0
VERTEX
  5
680
330
67C
100
AcDbEntity
  8
DIBUJOS
 62
     7
100
AcDbVertex
100
AcDb2dVertex
 10
61.2745753876986
 20
28.46735760479843
 30
0.0
  0
VERTEX
  5
681
330
67C
100
AcDbEntity
  8
DIBUJOS
 62
     7
100
AcDbVertex
100
AcDb2dVertex
 10
61.28287143124229
 20
28.60708609399235
 30
0.0
  0
SEQEND
  5
682
330
67C
100
AcDbEntity
  8
DIBUJOS
 62
     7
  0
POLYLINE
  5
683
330
374
100
AcDbEntity
  8
DIBUJOS
 62
     7
100
AcDb2dPolyline
 66
     1
 10
0.0
 20
0.0
 30
0.0
  0
VERTEX
  5
684
330
683
100
AcDbEntity
  8
DIBUJOS
 62
     7
100
AcDbVertex
100
AcDb2dVertex
 10
61.27165456450731
 20
28.12605182561381
 30
0.0
  0
VERTEX
  5
685
330
683
100
AcDbEntity
  8
DIBUJOS
 62
     7
100
AcDbVertex
100
AcDb2dVertex
 10
61.26604688587494
 20
28.13723814390379
 30
0.0
  0
VERTEX
  5
686
330
683
100
AcDbEntity
  8
DIBUJOS
 62
     7
100
AcDbVertex
100
AcDb2dVertex
 10
61.2705330287809
 20
28.14898449320263
 30
0.0
  0
VERTEX
  5
687
330
683
100
AcDbEntity
  8
DIBUJOS
 62
     7
100
AcDbVertex
100
AcDb2dVertex
 10
61.27165456450731
 20
28.1540187504342
 30
0.0
  0
SEQEND
  5
688
330
683
100
AcDbEntity
  8
DIBUJOS
 62
     7
  0
POLYLINE
  5
689
330
374
100
AcDbEntity
  8
DIBUJOS
 62
     7
100
AcDb2dPolyline
 66
     1
 10
0.0
 20
0.0
 30
0.0
  0
VERTEX
  5
68A
330
689
100
AcDbEntity
  8
DIBUJOS
 62
     7
100
AcDbVertex
100
AcDb2dVertex
 10
61.27165456450731
 20
28.09249061255364
 30
0.0
  0
VERTEX
  5
68B
330
689
100
AcDbEntity
  8
DIBUJOS
 62
     7
100
AcDbVertex
100
AcDb2dVertex
 10
61.26604688587494
 20
28.09808414806313
 30
0.0
  0
VERTEX
  5
68C
330
689
100
AcDbEntity
  8
DIBUJOS
 62
     7
100
AcDbVertex
100
AcDb2dVertex
 10
61.2705330287809
 20
28.10983049736197
 30
0.0
  0
VERTEX
  5
68D
330
689
100
AcDbEntity
  8
DIBUJOS
 62
     7
100
AcDbVertex
100
AcDb2dVertex
 10
61.27165456450731
 20
28.11486475459354
 30
0.0
  0
SEQEND
  5
68E
330
689
100
AcDbEntity
  8
DIBUJOS
 62
     7
  0
POLYLINE
  5
68F
330
374
100
AcDbEntity
  8
DIBUJOS
 62
     7
100
AcDb2dPolyline
 66
     1
 10
0.0
 20
0.0
 30
0.0
  0
VERTEX
  5
690
330
68F
100
AcDbEntity
  8
DIBUJOS
 62
     7
100
AcDbVertex
100
AcDb2dVertex
 10
67.95677581451157
 20
28.08130429426302
 30
0.0
  0
VERTEX
  5
691
330
68F
100
AcDbEntity
  8
DIBUJOS
 62
     7
100
AcDbVertex
100
AcDb2dVertex
 10
67.94555894777658
 20
28.27148073795618
 30
0.0
  0
SEQEND
  5
692
330
68F
100
AcDbEntity
  8
DIBUJOS
 62
     7
  0
POLYLINE
  5
693
330
374
100
AcDbEntity
  8
DIBUJOS
 62
     7
100
AcDb2dPolyline
 66
     1
 10
0.0
 20
0.0
 30
0.0
  0
VERTEX
  5
694
330
693
100
AcDbEntity
  8
DIBUJOS
 62
     7
100
AcDbVertex
100
AcDb2dVertex
 10
67.95677581451157
 20
28.05893090495277
 30
0.0
  0
VERTEX
  5
695
330
693
100
AcDbEntity
  8
DIBUJOS
 62
     7
100
AcDbVertex
100
AcDb2dVertex
 10
67.95116813587887
 20
28.06452368773261
 30
0.0
  0
SEQEND
  5
696
330
693
100
AcDbEntity
  8
DIBUJOS
 62
     7
  0
POLYLINE
  5
697
330
374
100
AcDbEntity
  8
DIBUJOS
 62
     7
100
AcDb2dPolyline
 66
     1
 10
0.0
 20
0.0
 30
0.0
  0
VERTEX
  5
698
330
697
100
AcDbEntity
  8
DIBUJOS
 62
     7
100
AcDbVertex
100
AcDb2dVertex
 10
67.95677581451157
 20
28.00858983809184
 30
0.0
  0
VERTEX
  5
699
330
697
100
AcDbEntity
  8
DIBUJOS
 62
     7
100
AcDbVertex
100
AcDb2dVertex
 10
67.95116813587887
 20
28.01977615638245
 30
0.0
  0
VERTEX
  5
69A
330
697
100
AcDbEntity
  8
DIBUJOS
 62
     7
100
AcDbVertex
100
AcDb2dVertex
 10
67.95565427878483
 20
28.03152250568064
 30
0.0
  0
VERTEX
  5
69B
330
697
100
AcDbEntity
  8
DIBUJOS
 62
     7
100
AcDbVertex
100
AcDb2dVertex
 10
67.95677581451157
 20
28.03655676291222
 30
0.0
  0
SEQEND
  5
69C
330
697
100
AcDbEntity
  8
DIBUJOS
 62
     7
  0
POLYLINE
  5
69D
330
374
100
AcDbEntity
  8
DIBUJOS
 62
     7
100
AcDb2dPolyline
 66
     1
 10
0.0
 20
0.0
 30
0.0
  0
VERTEX
  5
69E
330
69D
100
AcDbEntity
  8
DIBUJOS
 62
     7
100
AcDbVertex
100
AcDb2dVertex
 10
67.95677581451157
 20
27.96943584225118
 30
0.0
  0
VERTEX
  5
69F
330
69D
100
AcDbEntity
  8
DIBUJOS
 62
     7
100
AcDbVertex
100
AcDb2dVertex
 10
67.95116813587887
 20
27.98621569605193
 30
0.0
  0
VERTEX
  5
6A0
330
69D
100
AcDbEntity
  8
DIBUJOS
 62
     7
100
AcDbVertex
100
AcDb2dVertex
 10
67.95677581451157
 20
27.99180923156143
 30
0.0
  0
SEQEND
  5
6A1
330
69D
100
AcDbEntity
  8
DIBUJOS
 62
     7
  0
POLYLINE
  5
6A2
330
374
100
AcDbEntity
  8
DIBUJOS
 62
     7
100
AcDb2dPolyline
 66
     1
 10
0.0
 20
0.0
 30
0.0
  0
VERTEX
  5
6A3
330
6A2
100
AcDbEntity
  8
DIBUJOS
 62
     7
100
AcDbVertex
100
AcDb2dVertex
 10
67.96238349314393
 20
27.78485293406815
 30
0.0
  0
VERTEX
  5
6A4
330
6A2
100
AcDbEntity
  8
DIBUJOS
 62
     7
100
AcDbVertex
100
AcDb2dVertex
 10
67.95116813587887
 20
27.9582487712309
 30
0.0
  0
SEQEND
  5
6A5
330
6A2
100
AcDbEntity
  8
DIBUJOS
 62
     7
  0
POLYLINE
  5
6A6
330
374
100
AcDbEntity
  8
DIBUJOS
 62
     7
100
AcDb2dPolyline
 66
     1
 10
0.0
 20
0.0
 30
0.0
  0
VERTEX
  5
6A7
330
6A6
100
AcDbEntity
  8
DIBUJOS
 62
     7
100
AcDbVertex
100
AcDb2dVertex
 10
67.96238349314393
 20
27.67857801756644
 30
0.0
  0
VERTEX
  5
6A8
330
6A6
100
AcDbEntity
  8
DIBUJOS
 62
     7
100
AcDbVertex
100
AcDb2dVertex
 10
67.95677581451157
 20
27.77366586304788
 30
0.0
  0
SEQEND
  5
6A9
330
6A6
100
AcDbEntity
  8
DIBUJOS
 62
     7
  0
POLYLINE
  5
6AA
330
374
100
AcDbEntity
  8
DIBUJOS
 62
     7
100
AcDb2dPolyline
 66
     1
 10
0.0
 20
0.0
 30
0.0
  0
VERTEX
  5
6AB
330
6AA
100
AcDbEntity
  8
DIBUJOS
 62
     7
100
AcDbVertex
100
AcDb2dVertex
 10
61.26043845250761
 20
27.64501680450562
 30
0.0
  0
VERTEX
  5
6AC
330
6AA
100
AcDbEntity
  8
DIBUJOS
 62
     7
100
AcDbVertex
100
AcDb2dVertex
 10
61.27165456450731
 20
28.07011722324274
 30
0.0
  0
VERTEX
  5
6AD
330
6AA
100
AcDbEntity
  8
DIBUJOS
 62
     7
100
AcDbVertex
100
AcDb2dVertex
 10
61.26604688587494
 20
28.07571075875288
 30
0.0
  0
SEQEND
  5
6AE
330
6AA
100
AcDbEntity
  8
DIBUJOS
 62
     7
  0
POLYLINE
  5
6AF
330
374
100
AcDbEntity
  8
DIBUJOS
 62
     7
100
AcDb2dPolyline
 66
     1
 10
0.0
 20
0.0
 30
0.0
  0
VERTEX
  5
6B0
330
6AF
100
AcDbEntity
  8
DIBUJOS
 62
     7
100
AcDbVertex
100
AcDb2dVertex
 10
67.96799268124623
 20
27.49399435665312
 30
0.0
  0
VERTEX
  5
6B1
330
6AF
100
AcDbEntity
  8
DIBUJOS
 62
     7
100
AcDbVertex
100
AcDb2dVertex
 10
67.96238349314393
 20
27.66739094654617
 30
0.0
  0
SEQEND
  5
6B2
330
6AF
100
AcDbEntity
  8
DIBUJOS
 62
     7
  0
POLYLINE
  5
6B3
330
374
100
AcDbEntity
  8
DIBUJOS
 62
     7
100
AcDb2dPolyline
 66
     1
 10
0.0
 20
0.0
 30
0.0
  0
VERTEX
  5
6B4
330
6B3
100
AcDbEntity
  8
DIBUJOS
 62
     7
100
AcDbVertex
100
AcDb2dVertex
 10
67.96799268124623
 20
27.43246697150221
 30
0.0
  0
VERTEX
  5
6B5
330
6B3
100
AcDbEntity
  8
DIBUJOS
 62
     7
100
AcDbVertex
100
AcDb2dVertex
 10
67.96238349314393
 20
27.43806050701235
 30
0.0
  0
VERTEX
  5
6B6
330
6B3
100
AcDbEntity
  8
DIBUJOS
 62
     7
100
AcDbVertex
100
AcDb2dVertex
 10
67.96799268124623
 20
27.47721450285301
 30
0.0
  0
SEQEND
  5
6B7
330
6B3
100
AcDbEntity
  8
DIBUJOS
 62
     7
  0
POLYLINE
  5
6B8
330
374
100
AcDbEntity
  8
DIBUJOS
 62
     7
100
AcDb2dPolyline
 66
     1
 10
0.0
 20
0.0
 30
0.0
  0
VERTEX
  5
6B9
330
6B8
100
AcDbEntity
  8
DIBUJOS
 62
     7
100
AcDbVertex
100
AcDb2dVertex
 10
67.96799268124623
 20
27.35975251533103
 30
0.0
  0
VERTEX
  5
6BA
330
6B8
100
AcDbEntity
  8
DIBUJOS
 62
     7
100
AcDbVertex
100
AcDb2dVertex
 10
67.96238349314393
 20
27.36534605084117
 30
0.0
  0
VERTEX
  5
6BB
330
6B8
100
AcDbEntity
  8
DIBUJOS
 62
     7
100
AcDbVertex
100
AcDb2dVertex
 10
67.9655307367377
 20
27.37680561006609
 30
0.0
  0
VERTEX
  5
6BC
330
6B8
100
AcDbEntity
  8
DIBUJOS
 62
     7
100
AcDbVertex
100
AcDb2dVertex
 10
67.96799268124623
 20
27.42127990048194
 30
0.0
  0
SEQEND
  5
6BD
330
6B8
100
AcDbEntity
  8
DIBUJOS
 62
     7
  0
POLYLINE
  5
6BE
330
374
100
AcDbEntity
  8
DIBUJOS
 62
     7
100
AcDb2dPolyline
 66
     1
 10
0.0
 20
0.0
 30
0.0
  0
VERTEX
  5
6BF
330
6BE
100
AcDbEntity
  8
DIBUJOS
 62
     7
100
AcDbVertex
100
AcDb2dVertex
 10
67.96238349314393
 20
27.34297190880062
 30
0.0
  0
VERTEX
  5
6C0
330
6BE
100
AcDbEntity
  8
DIBUJOS
 62
     7
100
AcDbVertex
100
AcDb2dVertex
 10
67.96799268124623
 20
27.34856544431076
 30
0.0
  0
SEQEND
  5
6C1
330
6BE
100
AcDbEntity
  8
DIBUJOS
 62
     7
  0
POLYLINE
  5
6C2
330
374
100
AcDbEntity
  8
DIBUJOS
 62
     7
100
AcDb2dPolyline
 66
     1
 10
0.0
 20
0.0
 30
0.0
  0
VERTEX
  5
6C3
330
6C2
100
AcDbEntity
  8
DIBUJOS
 62
     7
100
AcDbVertex
100
AcDb2dVertex
 10
67.44081051100395
 20
27.22550992127864
 30
0.0
  0
VERTEX
  5
6C4
330
6C2
100
AcDbEntity
  8
DIBUJOS
 62
     7
100
AcDbVertex
100
AcDb2dVertex
 10
67.43817950592765
 20
27.31485067436068
 30
0.0
  0
VERTEX
  5
6C5
330
6C2
100
AcDbEntity
  8
DIBUJOS
 62
     7
100
AcDbVertex
100
AcDb2dVertex
 10
67.29801169162174
 20
29.36760744995209
 30
0.0
  0
VERTEX
  5
6C6
330
6C2
100
AcDbEntity
  8
DIBUJOS
 62
     7
100
AcDbVertex
100
AcDb2dVertex
 10
67.26453618986237
 20
29.68631627906108
 30
0.0
  0
VERTEX
  5
6C7
330
6C2
100
AcDbEntity
  8
DIBUJOS
 62
     7
100
AcDbVertex
100
AcDb2dVertex
 10
67.21962343884334
 20
30.06110348194165
 30
0.0
  0
VERTEX
  5
6C8
330
6C2
100
AcDbEntity
  8
DIBUJOS
 62
     7
100
AcDbVertex
100
AcDb2dVertex
 10
67.16945320608087
 20
30.31824352575767
 30
0.0
  0
VERTEX
  5
6C9
330
6C2
100
AcDbEntity
  8
DIBUJOS
 62
     7
100
AcDbVertex
100
AcDb2dVertex
 10
67.12458724861183
 20
30.54198042978136
 30
0.0
  0
VERTEX
  5
6CA
330
6C2
100
AcDbEntity
  8
DIBUJOS
 62
     7
100
AcDbVertex
100
AcDb2dVertex
 10
67.00504331402466
 20
30.95129083447006
 30
0.0
  0
VERTEX
  5
6CB
330
6C2
100
AcDbEntity
  8
DIBUJOS
 62
     7
100
AcDbVertex
100
AcDb2dVertex
 10
66.99382644729032
 20
30.99044483031072
 30
0.0
  0
VERTEX
  5
6CC
330
6C2
100
AcDbEntity
  8
DIBUJOS
 62
     7
100
AcDbVertex
100
AcDb2dVertex
 10
66.90914068838643
 20
31.20858744609461
 30
0.0
  0
VERTEX
  5
6CD
330
6C2
100
AcDbEntity
  8
DIBUJOS
 62
     7
100
AcDbVertex
100
AcDb2dVertex
 10
66.89848534425025
 20
31.23096158813452
 30
0.0
  0
VERTEX
  5
6CE
330
6C2
100
AcDbEntity
  8
DIBUJOS
 62
     7
100
AcDbVertex
100
AcDb2dVertex
 10
66.79455837955052
 20
31.47005869746314
 30
0.0
  0
VERTEX
  5
6CF
330
6C2
100
AcDbEntity
  8
DIBUJOS
 62
     7
100
AcDbVertex
100
AcDb2dVertex
 10
66.78593025275038
 20
31.4829665089192
 30
0.0
  0
VERTEX
  5
6D0
330
6C2
100
AcDbEntity
  8
DIBUJOS
 62
     7
100
AcDbVertex
100
AcDb2dVertex
 10
66.59821566341023
 20
31.77195756357803
 30
0.0
  0
VERTEX
  5
6D1
330
6C2
100
AcDbEntity
  8
DIBUJOS
 62
     7
100
AcDbVertex
100
AcDb2dVertex
 10
66.58273605523318
 20
31.78974456991645
 30
0.0
  0
SEQEND
  5
6D2
330
6C2
100
AcDbEntity
  8
DIBUJOS
 62
     7
  0
POLYLINE
  5
6D3
330
374
100
AcDbEntity
  8
DIBUJOS
 62
     7
100
AcDb2dPolyline
 66
     1
 10
0.0
 20
0.0
 30
0.0
  0
VERTEX
  5
6D4
330
6D3
100
AcDbEntity
  8
DIBUJOS
 62
     7
100
AcDbVertex
100
AcDb2dVertex
 10
67.44081051100395
 20
27.2199163857685
 30
0.0
  0
VERTEX
  5
6D5
330
6D3
100
AcDbEntity
  8
DIBUJOS
 62
     7
100
AcDbVertex
100
AcDb2dVertex
 10
67.43520132290197
 20
27.2199163857685
 30
0.0
  0
SEQEND
  5
6D6
330
6D3
100
AcDbEntity
  8
DIBUJOS
 62
     7
  0
POLYLINE
  5
6D7
330
374
100
AcDbEntity
  8
DIBUJOS
 62
     7
100
AcDb2dPolyline
 66
     1
 10
0.0
 20
0.0
 30
0.0
  0
VERTEX
  5
6D8
330
6D7
100
AcDbEntity
  8
DIBUJOS
 62
     7
100
AcDbVertex
100
AcDb2dVertex
 10
67.44081051100395
 20
27.2199163857685
 30
0.0
  0
VERTEX
  5
6D9
330
6D7
100
AcDbEntity
  8
DIBUJOS
 62
     7
100
AcDbVertex
100
AcDb2dVertex
 10
67.44081051100395
 20
27.22550992127864
 30
0.0
  0
SEQEND
  5
6DA
330
6D7
100
AcDbEntity
  8
DIBUJOS
 62
     7
  0
POLYLINE
  5
6DB
330
374
100
AcDbEntity
  8
DIBUJOS
 62
     7
100
AcDb2dPolyline
 66
     1
 10
0.0
 20
0.0
 30
0.0
  0
VERTEX
  5
6DC
330
6DB
100
AcDbEntity
  8
DIBUJOS
 62
     7
100
AcDbVertex
100
AcDb2dVertex
 10
67.44081051100395
 20
27.21432360298802
 30
0.0
  0
VERTEX
  5
6DD
330
6DB
100
AcDbEntity
  8
DIBUJOS
 62
     7
100
AcDbVertex
100
AcDb2dVertex
 10
67.44081051100395
 20
27.2199163857685
 30
0.0
  0
SEQEND
  5
6DE
330
6DB
100
AcDbEntity
  8
DIBUJOS
 62
     7
  0
POLYLINE
  5
6DF
330
374
100
AcDbEntity
  8
DIBUJOS
 62
     7
100
AcDb2dPolyline
 66
     1
 10
0.0
 20
0.0
 30
0.0
  0
VERTEX
  5
6E0
330
6DF
100
AcDbEntity
  8
DIBUJOS
 62
     7
100
AcDbVertex
100
AcDb2dVertex
 10
61.78201218938224
 20
27.19194946094812
 30
0.0
  0
VERTEX
  5
6E1
330
6DF
100
AcDbEntity
  8
DIBUJOS
 62
     7
100
AcDbVertex
100
AcDb2dVertex
 10
61.77640375601491
 20
27.23110345678878
 30
0.0
  0
VERTEX
  5
6E2
330
6DF
100
AcDbEntity
  8
DIBUJOS
 62
     7
100
AcDbVertex
100
AcDb2dVertex
 10
61.91403868075301
 20
29.2337472426632
 30
0.0
  0
VERTEX
  5
6E3
330
6DF
100
AcDbEntity
  8
DIBUJOS
 62
     7
100
AcDbVertex
100
AcDb2dVertex
 10
61.91918521649962
 20
29.30047373288365
 30
0.0
  0
VERTEX
  5
6E4
330
6DF
100
AcDbEntity
  8
DIBUJOS
 62
     7
100
AcDbVertex
100
AcDb2dVertex
 10
61.95267807715649
 20
29.64716228322042
 30
0.0
  0
VERTEX
  5
6E5
330
6DF
100
AcDbEntity
  8
DIBUJOS
 62
     7
100
AcDbVertex
100
AcDb2dVertex
 10
61.99754478936018
 20
30.02192163509661
 30
0.0
  0
VERTEX
  5
6E6
330
6DF
100
AcDbEntity
  8
DIBUJOS
 62
     7
100
AcDbVertex
100
AcDb2dVertex
 10
62.05336873957067
 20
30.32383781399747
 30
0.0
  0
VERTEX
  5
6E7
330
6DF
100
AcDbEntity
  8
DIBUJOS
 62
     7
100
AcDbVertex
100
AcDb2dVertex
 10
62.09823545177436
 20
30.54757471802115
 30
0.0
  0
VERTEX
  5
6E8
330
6DF
100
AcDbEntity
  8
DIBUJOS
 62
     7
100
AcDbVertex
100
AcDb2dVertex
 10
62.22114399354107
 20
30.96695213171433
 30
0.0
  0
VERTEX
  5
6E9
330
6DF
100
AcDbEntity
  8
DIBUJOS
 62
     7
100
AcDbVertex
100
AcDb2dVertex
 10
62.23265747100287
 20
31.00617236778153
 30
0.0
  0
VERTEX
  5
6EA
330
6DF
100
AcDbEntity
  8
DIBUJOS
 62
     7
100
AcDbVertex
100
AcDb2dVertex
 10
62.3305065573668
 20
31.24774294739522
 30
0.0
  0
VERTEX
  5
6EB
330
6DF
100
AcDbEntity
  8
DIBUJOS
 62
     7
100
AcDbVertex
100
AcDb2dVertex
 10
62.34172266936649
 20
31.27570987221561
 30
0.0
  0
VERTEX
  5
6EC
330
6DF
100
AcDbEntity
  8
DIBUJOS
 62
     7
100
AcDbVertex
100
AcDb2dVertex
 10
62.43387199946802
 20
31.48124576848342
 30
0.0
  0
VERTEX
  5
6ED
330
6DF
100
AcDbEntity
  8
DIBUJOS
 62
     7
100
AcDbVertex
100
AcDb2dVertex
 10
62.45949750587621
 20
31.52181941281989
 30
0.0
  0
VERTEX
  5
6EE
330
6DF
100
AcDbEntity
  8
DIBUJOS
 62
     7
100
AcDbVertex
100
AcDb2dVertex
 10
62.62464024530135
 20
31.77741184406561
 30
0.0
  0
VERTEX
  5
6EF
330
6DF
100
AcDbEntity
  8
DIBUJOS
 62
     7
100
AcDbVertex
100
AcDb2dVertex
 10
62.67373573588738
 20
31.84008563677738
 30
0.0
  0
SEQEND
  5
6F0
330
6DF
100
AcDbEntity
  8
DIBUJOS
 62
     7
  0
POLYLINE
  5
6F1
330
374
100
AcDbEntity
  8
DIBUJOS
 62
     7
100
AcDb2dPolyline
 66
     1
 10
0.0
 20
0.0
 30
0.0
  0
VERTEX
  5
6F2
330
6F1
100
AcDbEntity
  8
DIBUJOS
 62
     7
100
AcDbVertex
100
AcDb2dVertex
 10
67.96799268124623
 20
27.19194946094812
 30
0.0
  0
VERTEX
  5
6F3
330
6F1
100
AcDbEntity
  8
DIBUJOS
 62
     7
100
AcDbVertex
100
AcDb2dVertex
 10
67.96238349314393
 20
27.32619205499986
 30
0.0
  0
VERTEX
  5
6F4
330
6F1
100
AcDbEntity
  8
DIBUJOS
 62
     7
100
AcDbVertex
100
AcDb2dVertex
 10
67.96799268124623
 20
27.33178483778035
 30
0.0
  0
SEQEND
  5
6F5
330
6F1
100
AcDbEntity
  8
DIBUJOS
 62
     7
  0
POLYLINE
  5
6F6
330
374
100
AcDbEntity
  8
DIBUJOS
 62
     7
100
AcDb2dPolyline
 66
     1
 10
0.0
 20
0.0
 30
0.0
  0
VERTEX
  5
6F7
330
6F6
100
AcDbEntity
  8
DIBUJOS
 62
     7
100
AcDbVertex
100
AcDb2dVertex
 10
61.25483001914028
 20
27.18635592543798
 30
0.0
  0
VERTEX
  5
6F8
330
6F6
100
AcDbEntity
  8
DIBUJOS
 62
     7
100
AcDbVertex
100
AcDb2dVertex
 10
61.26043845250761
 20
27.62823695070551
 30
0.0
  0
VERTEX
  5
6F9
330
6F6
100
AcDbEntity
  8
DIBUJOS
 62
     7
100
AcDbVertex
100
AcDb2dVertex
 10
61.25483001914028
 20
27.63383048621565
 30
0.0
  0
SEQEND
  5
6FA
330
6F6
100
AcDbEntity
  8
DIBUJOS
 62
     7
  0
POLYLINE
  5
6FB
330
374
100
AcDbEntity
  8
DIBUJOS
 62
     7
100
AcDb2dPolyline
 66
     1
 10
0.0
 20
0.0
 30
0.0
  0
VERTEX
  5
6FC
330
6FB
100
AcDbEntity
  8
DIBUJOS
 62
     7
100
AcDbVertex
100
AcDb2dVertex
 10
67.96799268124623
 20
27.1583890006176
 30
0.0
  0
VERTEX
  5
6FD
330
6FB
100
AcDbEntity
  8
DIBUJOS
 62
     7
100
AcDbVertex
100
AcDb2dVertex
 10
67.96799268124623
 20
27.18076238992784
 30
0.0
  0
SEQEND
  5
6FE
330
6FB
100
AcDbEntity
  8
DIBUJOS
 62
     7
  0
POLYLINE
  5
6FF
330
374
100
AcDbEntity
  8
DIBUJOS
 62
     7
100
AcDb2dPolyline
 66
     1
 10
0.0
 20
0.0
 30
0.0
  0
VERTEX
  5
700
330
6FF
100
AcDbEntity
  8
DIBUJOS
 62
     7
100
AcDbVertex
100
AcDb2dVertex
 10
67.96799268124623
 20
27.11923500477694
 30
0.0
  0
VERTEX
  5
701
330
6FF
100
AcDbEntity
  8
DIBUJOS
 62
     7
100
AcDbVertex
100
AcDb2dVertex
 10
67.96799268124623
 20
27.1360156113067
 30
0.0
  0
SEQEND
  5
702
330
6FF
100
AcDbEntity
  8
DIBUJOS
 62
     7
  0
POLYLINE
  5
703
330
374
100
AcDbEntity
  8
DIBUJOS
 62
     7
100
AcDb2dPolyline
 66
     1
 10
0.0
 20
0.0
 30
0.0
  0
VERTEX
  5
704
330
703
100
AcDbEntity
  8
DIBUJOS
 62
     7
100
AcDbVertex
100
AcDb2dVertex
 10
67.96799268124623
 20
27.08567454444641
 30
0.0
  0
VERTEX
  5
705
330
703
100
AcDbEntity
  8
DIBUJOS
 62
     7
100
AcDbVertex
100
AcDb2dVertex
 10
67.96799268124623
 20
27.09686161546604
 30
0.0
  0
SEQEND
  5
706
330
703
100
AcDbEntity
  8
DIBUJOS
 62
     7
  0
POLYLINE
  5
707
330
374
100
AcDbEntity
  8
DIBUJOS
 62
     7
100
AcDb2dPolyline
 66
     1
 10
0.0
 20
0.0
 30
0.0
  0
VERTEX
  5
708
330
707
100
AcDbEntity
  8
DIBUJOS
 62
     7
100
AcDbVertex
100
AcDb2dVertex
 10
61.25483001914028
 20
27.0241464065652
 30
0.0
  0
VERTEX
  5
709
330
707
100
AcDbEntity
  8
DIBUJOS
 62
     7
100
AcDbVertex
100
AcDb2dVertex
 10
61.24922158577294
 20
27.0241464065652
 30
0.0
  0
SEQEND
  5
70A
330
707
100
AcDbEntity
  8
DIBUJOS
 62
     7
  0
POLYLINE
  5
70B
330
374
100
AcDbEntity
  8
DIBUJOS
 62
     7
100
AcDb2dPolyline
 66
     1
 10
0.0
 20
0.0
 30
0.0
  0
VERTEX
  5
70C
330
70B
100
AcDbEntity
  8
DIBUJOS
 62
     7
100
AcDbVertex
100
AcDb2dVertex
 10
61.24922158577294
 20
26.99058594623468
 30
0.0
  0
VERTEX
  5
70D
330
70B
100
AcDbEntity
  8
DIBUJOS
 62
     7
100
AcDbVertex
100
AcDb2dVertex
 10
61.25483001914028
 20
27.00177301725495
 30
0.0
  0
SEQEND
  5
70E
330
70B
100
AcDbEntity
  8
DIBUJOS
 62
     7
  0
POLYLINE
  5
70F
330
374
100
AcDbEntity
  8
DIBUJOS
 62
     7
100
AcDb2dPolyline
 66
     1
 10
0.0
 20
0.0
 30
0.0
  0
VERTEX
  5
710
330
70F
100
AcDbEntity
  8
DIBUJOS
 62
     7
100
AcDbVertex
100
AcDb2dVertex
 10
67.34546789849426
 20
26.94024563210405
 30
0.0
  0
VERTEX
  5
711
330
70F
100
AcDbEntity
  8
DIBUJOS
 62
     7
100
AcDbVertex
100
AcDb2dVertex
 10
67.35797988993068
 20
26.9617586511964
 30
0.0
  0
VERTEX
  5
712
330
70F
100
AcDbEntity
  8
DIBUJOS
 62
     7
100
AcDbVertex
100
AcDb2dVertex
 10
67.43865347930432
 20
27.14203895556096
 30
0.0
  0
VERTEX
  5
713
330
70F
100
AcDbEntity
  8
DIBUJOS
 62
     7
100
AcDbVertex
100
AcDb2dVertex
 10
67.44296754270391
 20
27.16355197465332
 30
0.0
  0
VERTEX
  5
714
330
70F
100
AcDbEntity
  8
DIBUJOS
 62
     7
100
AcDbVertex
100
AcDb2dVertex
 10
67.44641818963632
 20
27.20873006747789
 30
0.0
  0
VERTEX
  5
715
330
70F
100
AcDbEntity
  8
DIBUJOS
 62
     7
100
AcDbVertex
100
AcDb2dVertex
 10
67.44081051100395
 20
27.21432360298802
 30
0.0
  0
SEQEND
  5
716
330
70F
100
AcDbEntity
  8
DIBUJOS
 62
     7
  0
POLYLINE
  5
717
330
374
100
AcDbEntity
  8
DIBUJOS
 62
     7
100
AcDb2dPolyline
 66
     1
 10
0.0
 20
0.0
 30
0.0
  0
VERTEX
  5
718
330
717
100
AcDbEntity
  8
DIBUJOS
 62
     7
100
AcDbVertex
100
AcDb2dVertex
 10
61.87174561378994
 20
26.93465209659391
 30
0.0
  0
VERTEX
  5
719
330
717
100
AcDbEntity
  8
DIBUJOS
 62
     7
100
AcDbVertex
100
AcDb2dVertex
 10
61.85626676034754
 20
26.9636261739526
 30
0.0
  0
VERTEX
  5
71A
330
717
100
AcDbEntity
  8
DIBUJOS
 62
     7
100
AcDbVertex
100
AcDb2dVertex
 10
61.77640375601491
 20
27.14160914681684
 30
0.0
  0
VERTEX
  5
71B
330
717
100
AcDbEntity
  8
DIBUJOS
 62
     7
100
AcDbVertex
100
AcDb2dVertex
 10
61.77640375601491
 20
27.18635592543798
 30
0.0
  0
VERTEX
  5
71C
330
717
100
AcDbEntity
  8
DIBUJOS
 62
     7
100
AcDbVertex
100
AcDb2dVertex
 10
61.78201218938224
 20
27.19194946094812
 30
0.0
  0
SEQEND
  5
71D
330
717
100
AcDbEntity
  8
DIBUJOS
 62
     7
  0
POLYLINE
  5
71E
330
374
100
AcDbEntity
  8
DIBUJOS
 62
     7
100
AcDb2dPolyline
 66
     1
 10
0.0
 20
0.0
 30
0.0
  0
VERTEX
  5
71F
330
71E
100
AcDbEntity
  8
DIBUJOS
 62
     7
100
AcDbVertex
100
AcDb2dVertex
 10
67.34546789849426
 20
26.93465209659391
 30
0.0
  0
VERTEX
  5
720
330
71E
100
AcDbEntity
  8
DIBUJOS
 62
     7
100
AcDbVertex
100
AcDb2dVertex
 10
67.33986021986158
 20
26.93465209659391
 30
0.0
  0
SEQEND
  5
721
330
71E
100
AcDbEntity
  8
DIBUJOS
 62
     7
  0
POLYLINE
  5
722
330
374
100
AcDbEntity
  8
DIBUJOS
 62
     7
100
AcDb2dPolyline
 66
     1
 10
0.0
 20
0.0
 30
0.0
  0
VERTEX
  5
723
330
722
100
AcDbEntity
  8
DIBUJOS
 62
     7
100
AcDbVertex
100
AcDb2dVertex
 10
67.34546789849426
 20
26.93465209659391
 30
0.0
  0
VERTEX
  5
724
330
722
100
AcDbEntity
  8
DIBUJOS
 62
     7
100
AcDbVertex
100
AcDb2dVertex
 10
67.34546789849426
 20
26.94024563210405
 30
0.0
  0
SEQEND
  5
725
330
722
100
AcDbEntity
  8
DIBUJOS
 62
     7
  0
POLYLINE
  5
726
330
374
100
AcDbEntity
  8
DIBUJOS
 62
     7
100
AcDb2dPolyline
 66
     1
 10
0.0
 20
0.0
 30
0.0
  0
VERTEX
  5
727
330
726
100
AcDbEntity
  8
DIBUJOS
 62
     7
100
AcDbVertex
100
AcDb2dVertex
 10
61.87174561378994
 20
26.92905856108377
 30
0.0
  0
VERTEX
  5
728
330
726
100
AcDbEntity
  8
DIBUJOS
 62
     7
100
AcDbVertex
100
AcDb2dVertex
 10
61.87174561378994
 20
26.93465209659391
 30
0.0
  0
SEQEND
  5
729
330
726
100
AcDbEntity
  8
DIBUJOS
 62
     7
  0
POLYLINE
  5
72A
330
374
100
AcDbEntity
  8
DIBUJOS
 62
     7
100
AcDb2dPolyline
 66
     1
 10
0.0
 20
0.0
 30
0.0
  0
VERTEX
  5
72B
330
72A
100
AcDbEntity
  8
DIBUJOS
 62
     7
100
AcDbVertex
100
AcDb2dVertex
 10
61.87735404715728
 20
26.92905856108377
 30
0.0
  0
VERTEX
  5
72C
330
72A
100
AcDbEntity
  8
DIBUJOS
 62
     7
100
AcDbVertex
100
AcDb2dVertex
 10
61.87174561378994
 20
26.92905856108377
 30
0.0
  0
SEQEND
  5
72D
330
72A
100
AcDbEntity
  8
DIBUJOS
 62
     7
  0
POLYLINE
  5
72E
330
374
100
AcDbEntity
  8
DIBUJOS
 62
     7
100
AcDb2dPolyline
 66
     1
 10
0.0
 20
0.0
 30
0.0
  0
VERTEX
  5
72F
330
72E
100
AcDbEntity
  8
DIBUJOS
 62
     7
100
AcDbVertex
100
AcDb2dVertex
 10
67.34546789849426
 20
26.92905856108377
 30
0.0
  0
VERTEX
  5
730
330
72E
100
AcDbEntity
  8
DIBUJOS
 62
     7
100
AcDbVertex
100
AcDb2dVertex
 10
67.34546789849426
 20
26.93465209659391
 30
0.0
  0
SEQEND
  5
731
330
72E
100
AcDbEntity
  8
DIBUJOS
 62
     7
  0
POLYLINE
  5
732
330
374
100
AcDbEntity
  8
DIBUJOS
 62
     7
100
AcDb2dPolyline
 66
     1
 10
0.0
 20
0.0
 30
0.0
  0
VERTEX
  5
733
330
732
100
AcDbEntity
  8
DIBUJOS
 62
     7
100
AcDbVertex
100
AcDb2dVertex
 10
67.96799268124623
 20
26.92905856108377
 30
0.0
  0
VERTEX
  5
734
330
732
100
AcDbEntity
  8
DIBUJOS
 62
     7
100
AcDbVertex
100
AcDb2dVertex
 10
67.96799268124623
 20
27.06330040240586
 30
0.0
  0
SEQEND
  5
735
330
732
100
AcDbEntity
  8
DIBUJOS
 62
     7
  0
POLYLINE
  5
736
330
374
100
AcDbEntity
  8
DIBUJOS
 62
     7
100
AcDb2dPolyline
 66
     1
 10
0.0
 20
0.0
 30
0.0
  0
VERTEX
  5
737
330
736
100
AcDbEntity
  8
DIBUJOS
 62
     7
100
AcDbVertex
100
AcDb2dVertex
 10
61.87174561378994
 20
26.92346502557364
 30
0.0
  0
VERTEX
  5
738
330
736
100
AcDbEntity
  8
DIBUJOS
 62
     7
100
AcDbVertex
100
AcDb2dVertex
 10
61.87174561378994
 20
26.92905856108377
 30
0.0
  0
SEQEND
  5
739
330
736
100
AcDbEntity
  8
DIBUJOS
 62
     7
  0
POLYLINE
  5
73A
330
374
100
AcDbEntity
  8
DIBUJOS
 62
     7
100
AcDb2dPolyline
 66
     1
 10
0.0
 20
0.0
 30
0.0
  0
VERTEX
  5
73B
330
73A
100
AcDbEntity
  8
DIBUJOS
 62
     7
100
AcDbVertex
100
AcDb2dVertex
 10
67.97360035987828
 20
26.91227795455336
 30
0.0
  0
VERTEX
  5
73C
330
73A
100
AcDbEntity
  8
DIBUJOS
 62
     7
100
AcDbVertex
100
AcDb2dVertex
 10
67.96799268124623
 20
26.91227795455336
 30
0.0
  0
SEQEND
  5
73D
330
73A
100
AcDbEntity
  8
DIBUJOS
 62
     7
  0
POLYLINE
  5
73E
330
374
100
AcDbEntity
  8
DIBUJOS
 62
     7
100
AcDb2dPolyline
 66
     1
 10
0.0
 20
0.0
 30
0.0
  0
VERTEX
  5
73F
330
73E
100
AcDbEntity
  8
DIBUJOS
 62
     7
100
AcDbVertex
100
AcDb2dVertex
 10
61.25483001914028
 20
26.90668517177352
 30
0.0
  0
VERTEX
  5
740
330
73E
100
AcDbEntity
  8
DIBUJOS
 62
     7
100
AcDbVertex
100
AcDb2dVertex
 10
61.24922158577294
 20
26.91227795455336
 30
0.0
  0
SEQEND
  5
741
330
73E
100
AcDbEntity
  8
DIBUJOS
 62
     7
  0
POLYLINE
  5
742
330
374
100
AcDbEntity
  8
DIBUJOS
 62
     7
100
AcDb2dPolyline
 66
     1
 10
0.0
 20
0.0
 30
0.0
  0
VERTEX
  5
743
330
742
100
AcDbEntity
  8
DIBUJOS
 62
     7
100
AcDbVertex
100
AcDb2dVertex
 10
67.34546789849426
 20
26.92905856108377
 30
0.0
  0
VERTEX
  5
744
330
742
100
AcDbEntity
  8
DIBUJOS
 62
     7
100
AcDbVertex
100
AcDb2dVertex
 10
67.37743544037369
 20
26.86137836214417
 30
0.0
  0
VERTEX
  5
745
330
742
100
AcDbEntity
  8
DIBUJOS
 62
     7
100
AcDbVertex
100
AcDb2dVertex
 10
67.4084550355017
 20
26.78449001895866
 30
0.0
  0
VERTEX
  5
746
330
742
100
AcDbEntity
  8
DIBUJOS
 62
     7
100
AcDbVertex
100
AcDb2dVertex
 10
67.47311466454802
 20
26.69312818623117
 30
0.0
  0
VERTEX
  5
747
330
742
100
AcDbEntity
  8
DIBUJOS
 62
     7
100
AcDbVertex
100
AcDb2dVertex
 10
67.50754867934448
 20
26.65945556915281
 30
0.0
  0
VERTEX
  5
748
330
742
100
AcDbEntity
  8
DIBUJOS
 62
     7
100
AcDbVertex
100
AcDb2dVertex
 10
67.59335597397478
 20
26.61247092469034
 30
0.0
  0
VERTEX
  5
749
330
742
100
AcDbEntity
  8
DIBUJOS
 62
     7
100
AcDbVertex
100
AcDb2dVertex
 10
67.64314129205299
 20
26.6011980424673
 30
0.0
  0
VERTEX
  5
74A
330
742
100
AcDbEntity
  8
DIBUJOS
 62
     7
100
AcDbVertex
100
AcDb2dVertex
 10
67.85021784473619
 20
26.58785966953747
 30
0.0
  0
VERTEX
  5
74B
330
742
100
AcDbEntity
  8
DIBUJOS
 62
     7
100
AcDbVertex
100
AcDb2dVertex
 10
67.92873440240955
 20
26.60464027606788
 30
0.0
  0
VERTEX
  5
74C
330
742
100
AcDbEntity
  8
DIBUJOS
 62
     7
100
AcDbVertex
100
AcDb2dVertex
 10
67.95677581451157
 20
26.6382007363984
 30
0.0
  0
VERTEX
  5
74D
330
742
100
AcDbEntity
  8
DIBUJOS
 62
     7
100
AcDbVertex
100
AcDb2dVertex
 10
67.97360035987828
 20
26.6382007363984
 30
0.0
  0
VERTEX
  5
74E
330
742
100
AcDbEntity
  8
DIBUJOS
 62
     7
100
AcDbVertex
100
AcDb2dVertex
 10
67.99996022312533
 20
26.67232047500685
 30
0.0
  0
VERTEX
  5
74F
330
742
100
AcDbEntity
  8
DIBUJOS
 62
     7
100
AcDbVertex
100
AcDb2dVertex
 10
68.0201493756719
 20
26.73832283911205
 30
0.0
  0
VERTEX
  5
750
330
742
100
AcDbEntity
  8
DIBUJOS
 62
     7
100
AcDbVertex
100
AcDb2dVertex
 10
68.0409000508173
 20
27.06330040240586
 30
0.0
  0
VERTEX
  5
751
330
742
100
AcDbEntity
  8
DIBUJOS
 62
     7
100
AcDbVertex
100
AcDb2dVertex
 10
68.0325270243365
 20
27.73447423071472
 30
0.0
  0
VERTEX
  5
752
330
742
100
AcDbEntity
  8
DIBUJOS
 62
     7
100
AcDbVertex
100
AcDb2dVertex
 10
67.99312987431948
 20
29.33432474693638
 30
0.0
  0
VERTEX
  5
753
330
742
100
AcDbEntity
  8
DIBUJOS
 62
     7
100
AcDbVertex
100
AcDb2dVertex
 10
67.98212131435515
 20
29.64177047930981
 30
0.0
  0
VERTEX
  5
754
330
742
100
AcDbEntity
  8
DIBUJOS
 62
     7
100
AcDbVertex
100
AcDb2dVertex
 10
67.93737762390359
 20
30.25135595134946
 30
0.0
  0
VERTEX
  5
755
330
742
100
AcDbEntity
  8
DIBUJOS
 62
     7
100
AcDbVertex
100
AcDb2dVertex
 10
67.9317699452709
 20
30.32406965479163
 30
0.0
  0
VERTEX
  5
756
330
742
100
AcDbEntity
  8
DIBUJOS
 62
     7
100
AcDbVertex
100
AcDb2dVertex
 10
67.84794458389625
 20
30.92238600825782
 30
0.0
  0
VERTEX
  5
757
330
742
100
AcDbEntity
  8
DIBUJOS
 62
     7
100
AcDbVertex
100
AcDb2dVertex
 10
67.7415028432615
 20
31.44811662235697
 30
0.0
  0
VERTEX
  5
758
330
742
100
AcDbEntity
  8
DIBUJOS
 62
     7
100
AcDbVertex
100
AcDb2dVertex
 10
67.59586320256368
 20
31.95146105073784
 30
0.0
  0
VERTEX
  5
759
330
742
100
AcDbEntity
  8
DIBUJOS
 62
     7
100
AcDbVertex
100
AcDb2dVertex
 10
67.58299799529975
 20
31.99160262814058
 30
0.0
  0
VERTEX
  5
75A
330
742
100
AcDbEntity
  8
DIBUJOS
 62
     7
100
AcDbVertex
100
AcDb2dVertex
 10
67.50362254956676
 20
32.17625027109083
 30
0.0
  0
VERTEX
  5
75B
330
742
100
AcDbEntity
  8
DIBUJOS
 62
     7
100
AcDbVertex
100
AcDb2dVertex
 10
67.48960259825071
 20
32.20869292759581
 30
0.0
  0
VERTEX
  5
75C
330
742
100
AcDbEntity
  8
DIBUJOS
 62
     7
100
AcDbVertex
100
AcDb2dVertex
 10
67.34995555086984
 20
32.49955075228054
 30
0.0
  0
VERTEX
  5
75D
330
742
100
AcDbEntity
  8
DIBUJOS
 62
     7
100
AcDbVertex
100
AcDb2dVertex
 10
67.23442378581358
 20
32.70762635905995
 30
0.0
  0
VERTEX
  5
75E
330
742
100
AcDbEntity
  8
DIBUJOS
 62
     7
100
AcDbVertex
100
AcDb2dVertex
 10
66.95978791346349
 20
33.18336818386832
 30
0.0
  0
VERTEX
  5
75F
330
742
100
AcDbEntity
  8
DIBUJOS
 62
     7
100
AcDbVertex
100
AcDb2dVertex
 10
66.91228189410239
 20
33.24862233450347
 30
0.0
  0
VERTEX
  5
760
330
742
100
AcDbEntity
  8
DIBUJOS
 62
     7
100
AcDbVertex
100
AcDb2dVertex
 10
66.60938875553381
 20
33.60080204909065
 30
0.0
  0
VERTEX
  5
761
330
742
100
AcDbEntity
  8
DIBUJOS
 62
     7
100
AcDbVertex
100
AcDb2dVertex
 10
66.57290940976952
 20
33.64238134050547
 30
0.0
  0
VERTEX
  5
762
330
742
100
AcDbEntity
  8
DIBUJOS
 62
     7
100
AcDbVertex
100
AcDb2dVertex
 10
66.40327071588739
 20
33.8257523536314
 30
0.0
  0
VERTEX
  5
763
330
742
100
AcDbEntity
  8
DIBUJOS
 62
     7
100
AcDbVertex
100
AcDb2dVertex
 10
66.2734155961755
 20
33.91955002015146
 30
0.0
  0
VERTEX
  5
764
330
742
100
AcDbEntity
  8
DIBUJOS
 62
     7
100
AcDbVertex
100
AcDb2dVertex
 10
66.20223355007047
 20
33.96128437391486
 30
0.0
  0
VERTEX
  5
765
330
742
100
AcDbEntity
  8
DIBUJOS
 62
     7
100
AcDbVertex
100
AcDb2dVertex
 10
65.97647731418962
 20
34.07018481213157
 30
0.0
  0
VERTEX
  5
766
330
742
100
AcDbEntity
  8
DIBUJOS
 62
     7
100
AcDbVertex
100
AcDb2dVertex
 10
65.90468997087568
 20
34.10094888107186
 30
0.0
  0
VERTEX
  5
767
330
742
100
AcDbEntity
  8
DIBUJOS
 62
     7
100
AcDbVertex
100
AcDb2dVertex
 10
65.78586001529098
 20
34.14819622825215
 30
0.0
  0
VERTEX
  5
768
330
742
100
AcDbEntity
  8
DIBUJOS
 62
     7
100
AcDbVertex
100
AcDb2dVertex
 10
65.56146079235509
 20
34.21561372447394
 30
0.0
  0
VERTEX
  5
769
330
742
100
AcDbEntity
  8
DIBUJOS
 62
     7
100
AcDbVertex
100
AcDb2dVertex
 10
65.37095972259642
 20
34.24858479733254
 30
0.0
  0
VERTEX
  5
76A
330
742
100
AcDbEntity
  8
DIBUJOS
 62
     7
100
AcDbVertex
100
AcDb2dVertex
 10
65.2370758291911
 20
34.26998189602814
 30
0.0
  0
VERTEX
  5
76B
330
742
100
AcDbEntity
  8
DIBUJOS
 62
     7
100
AcDbVertex
100
AcDb2dVertex
 10
65.07395804289804
 20
34.29295822194799
 30
0.0
  0
VERTEX
  5
76C
330
742
100
AcDbEntity
  8
DIBUJOS
 62
     7
100
AcDbVertex
100
AcDb2dVertex
 10
64.64786503497847
 20
34.31797294029926
 30
0.0
  0
VERTEX
  5
76D
330
742
100
AcDbEntity
  8
DIBUJOS
 62
     7
100
AcDbVertex
100
AcDb2dVertex
 10
64.45704244824837
 20
34.30942945651027
 30
0.0
  0
VERTEX
  5
76E
330
742
100
AcDbEntity
  8
DIBUJOS
 62
     7
100
AcDbVertex
100
AcDb2dVertex
 10
64.14887069536532
 20
34.29296574924649
 30
0.0
  0
VERTEX
  5
76F
330
742
100
AcDbEntity
  8
DIBUJOS
 62
     7
100
AcDbVertex
100
AcDb2dVertex
 10
63.91916266872814
 20
34.25977186835282
 30
0.0
  0
VERTEX
  5
770
330
742
100
AcDbEntity
  8
DIBUJOS
 62
     7
100
AcDbVertex
100
AcDb2dVertex
 10
63.84621152454601
 20
34.24850350250901
 30
0.0
  0
VERTEX
  5
771
330
742
100
AcDbEntity
  8
DIBUJOS
 62
     7
100
AcDbVertex
100
AcDb2dVertex
 10
63.6490235055697
 20
34.21337661136226
 30
0.0
  0
VERTEX
  5
772
330
742
100
AcDbEntity
  8
DIBUJOS
 62
     7
100
AcDbVertex
100
AcDb2dVertex
 10
63.44712292328528
 20
34.15184847348105
 30
0.0
  0
VERTEX
  5
773
330
742
100
AcDbEntity
  8
DIBUJOS
 62
     7
100
AcDbVertex
100
AcDb2dVertex
 10
63.2900898079392
 20
34.08976181005158
 30
0.0
  0
VERTEX
  5
774
330
742
100
AcDbEntity
  8
DIBUJOS
 62
     7
100
AcDbVertex
100
AcDb2dVertex
 10
63.23961617183747
 20
34.06738766801168
 30
0.0
  0
VERTEX
  5
775
330
742
100
AcDbEntity
  8
DIBUJOS
 62
     7
100
AcDbVertex
100
AcDb2dVertex
 10
63.01109760704742
 20
33.95870401599213
 30
0.0
  0
VERTEX
  5
776
330
742
100
AcDbEntity
  8
DIBUJOS
 62
     7
100
AcDbVertex
100
AcDb2dVertex
 10
62.94207259264267
 20
33.91653759529436
 30
0.0
  0
VERTEX
  5
777
330
742
100
AcDbEntity
  8
DIBUJOS
 62
     7
100
AcDbVertex
100
AcDb2dVertex
 10
62.84198571796814
 20
33.84812499021199
 30
0.0
  0
VERTEX
  5
778
330
742
100
AcDbEntity
  8
DIBUJOS
 62
     7
100
AcDbVertex
100
AcDb2dVertex
 10
62.71299401472375
 20
33.71947743712969
 30
0.0
  0
VERTEX
  5
779
330
742
100
AcDbEntity
  8
DIBUJOS
 62
     7
100
AcDbVertex
100
AcDb2dVertex
 10
62.6022170781177
 20
33.58961497807038
 30
0.0
  0
VERTEX
  5
77A
330
742
100
AcDbEntity
  8
DIBUJOS
 62
     7
100
AcDbVertex
100
AcDb2dVertex
 10
62.3190655344339
 20
33.26182220513976
 30
0.0
  0
VERTEX
  5
77B
330
742
100
AcDbEntity
  8
DIBUJOS
 62
     7
100
AcDbVertex
100
AcDb2dVertex
 10
62.25742559882072
 20
33.17777540108784
 30
0.0
  0
VERTEX
  5
77C
330
742
100
AcDbEntity
  8
DIBUJOS
 62
     7
100
AcDbVertex
100
AcDb2dVertex
 10
61.98839815983829
 20
32.70762635905995
 30
0.0
  0
VERTEX
  5
77D
330
742
100
AcDbEntity
  8
DIBUJOS
 62
     7
100
AcDbVertex
100
AcDb2dVertex
 10
61.87303998375704
 20
32.50484244312105
 30
0.0
  0
VERTEX
  5
77E
330
742
100
AcDbEntity
  8
DIBUJOS
 62
     7
100
AcDbVertex
100
AcDb2dVertex
 10
61.69900873406827
 20
32.13597771869433
 30
0.0
  0
VERTEX
  5
77F
330
742
100
AcDbEntity
  8
DIBUJOS
 62
     7
100
AcDbVertex
100
AcDb2dVertex
 10
61.6575073837791
 20
32.04200842976874
 30
0.0
  0
VERTEX
  5
780
330
742
100
AcDbEntity
  8
DIBUJOS
 62
     7
100
AcDbVertex
100
AcDb2dVertex
 10
61.58374188088273
 20
31.8070197199582
 30
0.0
  0
VERTEX
  5
781
330
742
100
AcDbEntity
  8
DIBUJOS
 62
     7
100
AcDbVertex
100
AcDb2dVertex
 10
61.5447802127735
 20
31.67843539618253
 30
0.0
  0
VERTEX
  5
782
330
742
100
AcDbEntity
  8
DIBUJOS
 62
     7
100
AcDbVertex
100
AcDb2dVertex
 10
61.48131985712502
 20
31.44811662235697
 30
0.0
  0
VERTEX
  5
783
330
742
100
AcDbEntity
  8
DIBUJOS
 62
     7
100
AcDbVertex
100
AcDb2dVertex
 10
61.44335594825543
 20
31.26439333166153
 30
0.0
  0
VERTEX
  5
784
330
742
100
AcDbEntity
  8
DIBUJOS
 62
     7
100
AcDbVertex
100
AcDb2dVertex
 10
61.36374351583491
 20
30.85530724046786
 30
0.0
  0
VERTEX
  5
785
330
742
100
AcDbEntity
  8
DIBUJOS
 62
     7
100
AcDbVertex
100
AcDb2dVertex
 10
61.32538261652641
 20
30.58749499284878
 30
0.0
  0
VERTEX
  5
786
330
742
100
AcDbEntity
  8
DIBUJOS
 62
     7
100
AcDbVertex
100
AcDb2dVertex
 10
61.28592735194005
 20
30.26854529018845
 30
0.0
  0
VERTEX
  5
787
330
742
100
AcDbEntity
  8
DIBUJOS
 62
     7
100
AcDbVertex
100
AcDb2dVertex
 10
61.27469010736898
 20
30.12310132324845
 30
0.0
  0
VERTEX
  5
788
330
742
100
AcDbEntity
  8
DIBUJOS
 62
     7
100
AcDbVertex
100
AcDb2dVertex
 10
61.24070591443859
 20
29.66414763226963
 30
0.0
  0
VERTEX
  5
789
330
742
100
AcDbEntity
  8
DIBUJOS
 62
     7
100
AcDbVertex
100
AcDb2dVertex
 10
61.22409194004583
 20
29.20568246296233
 30
0.0
  0
VERTEX
  5
78A
330
742
100
AcDbEntity
  8
DIBUJOS
 62
     7
100
AcDbVertex
100
AcDb2dVertex
 10
61.18192189483425
 20
27.39890651117169
 30
0.0
  0
VERTEX
  5
78B
330
742
100
AcDbEntity
  8
DIBUJOS
 62
     7
100
AcDbVertex
100
AcDb2dVertex
 10
61.1905477574311
 20
26.86734600438965
 30
0.0
  0
VERTEX
  5
78C
330
742
100
AcDbEntity
  8
DIBUJOS
 62
     7
100
AcDbVertex
100
AcDb2dVertex
 10
61.1957290109724
 20
26.79500113857459
 30
0.0
  0
VERTEX
  5
78D
330
742
100
AcDbEntity
  8
DIBUJOS
 62
     7
100
AcDbVertex
100
AcDb2dVertex
 10
61.2135920712522
 20
26.69923433076827
 30
0.0
  0
VERTEX
  5
78E
330
742
100
AcDbEntity
  8
DIBUJOS
 62
     7
100
AcDbVertex
100
AcDb2dVertex
 10
61.22118017367125
 20
26.66616766121879
 30
0.0
  0
VERTEX
  5
78F
330
742
100
AcDbEntity
  8
DIBUJOS
 62
     7
100
AcDbVertex
100
AcDb2dVertex
 10
61.24922158577294
 20
26.6382007363984
 30
0.0
  0
VERTEX
  5
790
330
742
100
AcDbEntity
  8
DIBUJOS
 62
     7
100
AcDbVertex
100
AcDb2dVertex
 10
61.26604688587494
 20
26.6382007363984
 30
0.0
  0
VERTEX
  5
791
330
742
100
AcDbEntity
  8
DIBUJOS
 62
     7
100
AcDbVertex
100
AcDb2dVertex
 10
61.27726299787464
 20
26.62142012986799
 30
0.0
  0
VERTEX
  5
792
330
742
100
AcDbEntity
  8
DIBUJOS
 62
     7
100
AcDbVertex
100
AcDb2dVertex
 10
61.29969673134397
 20
26.59904674055774
 30
0.0
  0
VERTEX
  5
793
330
742
100
AcDbEntity
  8
DIBUJOS
 62
     7
100
AcDbVertex
100
AcDb2dVertex
 10
61.36699642228235
 20
26.58785966953747
 30
0.0
  0
VERTEX
  5
794
330
742
100
AcDbEntity
  8
DIBUJOS
 62
     7
100
AcDbVertex
100
AcDb2dVertex
 10
61.54630779575489
 20
26.59607571584271
 30
0.0
  0
VERTEX
  5
795
330
742
100
AcDbEntity
  8
DIBUJOS
 62
     7
100
AcDbVertex
100
AcDb2dVertex
 10
61.63563517290761
 20
26.61694515091433
 30
0.0
  0
VERTEX
  5
796
330
742
100
AcDbEntity
  8
DIBUJOS
 62
     7
100
AcDbVertex
100
AcDb2dVertex
 10
61.7040563995724
 20
26.65386203364267
 30
0.0
  0
VERTEX
  5
797
330
742
100
AcDbEntity
  8
DIBUJOS
 62
     7
100
AcDbVertex
100
AcDb2dVertex
 10
61.74836234391289
 20
26.68854105052968
 30
0.0
  0
VERTEX
  5
798
330
742
100
AcDbEntity
  8
DIBUJOS
 62
     7
100
AcDbVertex
100
AcDb2dVertex
 10
61.81431634292663
 20
26.78463604854942
 30
0.0
  0
VERTEX
  5
799
330
742
100
AcDbEntity
  8
DIBUJOS
 62
     7
100
AcDbVertex
100
AcDb2dVertex
 10
61.84202114336367
 20
26.85130984767973
 30
0.0
  0
VERTEX
  5
79A
330
742
100
AcDbEntity
  8
DIBUJOS
 62
     7
100
AcDbVertex
100
AcDb2dVertex
 10
61.87174561378994
 20
26.92346502557364
 30
0.0
  0
SEQEND
  5
79B
330
742
100
AcDbEntity
  8
DIBUJOS
 62
     7
  0
POLYLINE
  5
79C
330
374
100
AcDbEntity
  8
DIBUJOS
 62
     7
100
AcDb2dPolyline
 66
     1
 10
0.0
 20
0.0
 30
0.0
  0
VERTEX
  5
79D
330
79C
100
AcDbEntity
  8
DIBUJOS
 62
     7
100
AcDbVertex
100
AcDb2dVertex
 10
66.06116307309321
 20
26.57107906300706
 30
0.0
  0
VERTEX
  5
79E
330
79C
100
AcDbEntity
  8
DIBUJOS
 62
     7
100
AcDbVertex
100
AcDb2dVertex
 10
66.05555388499123
 20
26.57107906300706
 30
0.0
  0
SEQEND
  5
79F
330
79C
100
AcDbEntity
  8
DIBUJOS
 62
     7
  0
POLYLINE
  5
7A0
330
374
100
AcDbEntity
  8
DIBUJOS
 62
     7
100
AcDb2dPolyline
 66
     1
 10
0.0
 20
0.0
 30
0.0
  0
VERTEX
  5
7A1
330
7A0
100
AcDbEntity
  8
DIBUJOS
 62
     7
100
AcDbVertex
100
AcDb2dVertex
 10
63.1224013484563
 20
26.56548628022722
 30
0.0
  0
VERTEX
  5
7A2
330
7A0
100
AcDbEntity
  8
DIBUJOS
 62
     7
100
AcDbVertex
100
AcDb2dVertex
 10
62.95976055447753
 20
26.57107906300706
 30
0.0
  0
VERTEX
  5
7A3
330
7A0
100
AcDbEntity
  8
DIBUJOS
 62
     7
100
AcDbVertex
100
AcDb2dVertex
 10
62.73567681063558
 20
26.58475842255897
 30
0.0
  0
VERTEX
  5
7A4
330
7A0
100
AcDbEntity
  8
DIBUJOS
 62
     7
100
AcDbVertex
100
AcDb2dVertex
 10
62.60616207626222
 20
26.59659058305993
 30
0.0
  0
VERTEX
  5
7A5
330
7A0
100
AcDbEntity
  8
DIBUJOS
 62
     7
100
AcDbVertex
100
AcDb2dVertex
 10
62.41057560426584
 20
26.63475850279782
 30
0.0
  0
VERTEX
  5
7A6
330
7A0
100
AcDbEntity
  8
DIBUJOS
 62
     7
100
AcDbVertex
100
AcDb2dVertex
 10
62.25815920092461
 20
26.68686321569528
 30
0.0
  0
VERTEX
  5
7A7
330
7A0
100
AcDbEntity
  8
DIBUJOS
 62
     7
100
AcDbVertex
100
AcDb2dVertex
 10
62.11234219757855
 20
26.75454341463488
 30
0.0
  0
VERTEX
  5
7A8
330
7A0
100
AcDbEntity
  8
DIBUJOS
 62
     7
100
AcDbVertex
100
AcDb2dVertex
 10
62.04459419424308
 20
26.79906738521968
 30
0.0
  0
VERTEX
  5
7A9
330
7A0
100
AcDbEntity
  8
DIBUJOS
 62
     7
100
AcDbVertex
100
AcDb2dVertex
 10
61.94465373809565
 20
26.88431102973298
 30
0.0
  0
VERTEX
  5
7AA
330
7A0
100
AcDbEntity
  8
DIBUJOS
 62
     7
100
AcDbVertex
100
AcDb2dVertex
 10
61.89281101329397
 20
26.95593402762304
 30
0.0
  0
VERTEX
  5
7AB
330
7A0
100
AcDbEntity
  8
DIBUJOS
 62
     7
100
AcDbVertex
100
AcDb2dVertex
 10
61.8566033720122
 20
27.01911290206329
 30
0.0
  0
VERTEX
  5
7AC
330
7A0
100
AcDbEntity
  8
DIBUJOS
 62
     7
100
AcDbVertex
100
AcDb2dVertex
 10
61.78201218938224
 20
27.19194946094812
 30
0.0
  0
SEQEND
  5
7AD
330
7A0
100
AcDbEntity
  8
DIBUJOS
 62
     7
  0
POLYLINE
  5
7AE
330
374
100
AcDbEntity
  8
DIBUJOS
 62
     7
100
AcDb2dPolyline
 66
     1
 10
0.0
 20
0.0
 30
0.0
  0
VERTEX
  5
7AF
330
7AE
100
AcDbEntity
  8
DIBUJOS
 62
     7
100
AcDbVertex
100
AcDb2dVertex
 10
63.29625900916942
 20
26.56548628022722
 30
0.0
  0
VERTEX
  5
7B0
330
7AE
100
AcDbEntity
  8
DIBUJOS
 62
     7
100
AcDbVertex
100
AcDb2dVertex
 10
63.18983387269752
 20
26.5681358892964
 30
0.0
  0
VERTEX
  5
7B1
330
7AE
100
AcDbEntity
  8
DIBUJOS
 62
     7
100
AcDbVertex
100
AcDb2dVertex
 10
63.13922589382366
 20
26.56548628022722
 30
0.0
  0
SEQEND
  5
7B2
330
7AE
100
AcDbEntity
  8
DIBUJOS
 62
     7
  0
POLYLINE
  5
7B3
330
374
100
AcDbEntity
  8
DIBUJOS
 62
     7
100
AcDb2dPolyline
 66
     1
 10
0.0
 20
0.0
 30
0.0
  0
VERTEX
  5
7B4
330
7B3
100
AcDbEntity
  8
DIBUJOS
 62
     7
100
AcDbVertex
100
AcDb2dVertex
 10
63.32430042127175
 20
26.56548628022722
 30
0.0
  0
VERTEX
  5
7B5
330
7B3
100
AcDbEntity
  8
DIBUJOS
 62
     7
100
AcDbVertex
100
AcDb2dVertex
 10
63.31869274263907
 20
26.56548628022722
 30
0.0
  0
SEQEND
  5
7B6
330
7B3
100
AcDbEntity
  8
DIBUJOS
 62
     7
  0
POLYLINE
  5
7B7
330
374
100
AcDbEntity
  8
DIBUJOS
 62
     7
100
AcDb2dPolyline
 66
     1
 10
0.0
 20
0.0
 30
0.0
  0
VERTEX
  5
7B8
330
7B7
100
AcDbEntity
  8
DIBUJOS
 62
     7
100
AcDbVertex
100
AcDb2dVertex
 10
65.90412995774713
 20
26.56548628022722
 30
0.0
  0
VERTEX
  5
7B9
330
7B7
100
AcDbEntity
  8
DIBUJOS
 62
     7
100
AcDbVertex
100
AcDb2dVertex
 10
65.89852076964515
 20
26.56548628022722
 30
0.0
  0
SEQEND
  5
7BA
330
7B7
100
AcDbEntity
  8
DIBUJOS
 62
     7
  0
POLYLINE
  5
7BB
330
374
100
AcDbEntity
  8
DIBUJOS
 62
     7
100
AcDb2dPolyline
 66
     1
 10
0.0
 20
0.0
 30
0.0
  0
VERTEX
  5
7BC
330
7BB
100
AcDbEntity
  8
DIBUJOS
 62
     7
100
AcDbVertex
100
AcDb2dVertex
 10
66.03872933962387
 20
26.56548628022722
 30
0.0
  0
VERTEX
  5
7BD
330
7BB
100
AcDbEntity
  8
DIBUJOS
 62
     7
100
AcDbVertex
100
AcDb2dVertex
 10
65.92095450311447
 20
26.56548628022722
 30
0.0
  0
SEQEND
  5
7BE
330
7BB
100
AcDbEntity
  8
DIBUJOS
 62
     7
  0
POLYLINE
  5
7BF
330
374
100
AcDbEntity
  8
DIBUJOS
 62
     7
100
AcDb2dPolyline
 66
     1
 10
0.0
 20
0.0
 30
0.0
  0
VERTEX
  5
7C0
330
7BF
100
AcDbEntity
  8
DIBUJOS
 62
     7
100
AcDbVertex
100
AcDb2dVertex
 10
66.0892044851949
 20
26.56548628022722
 30
0.0
  0
VERTEX
  5
7C1
330
7BF
100
AcDbEntity
  8
DIBUJOS
 62
     7
100
AcDbVertex
100
AcDb2dVertex
 10
66.07237993982787
 20
26.57107906300706
 30
0.0
  0
SEQEND
  5
7C2
330
7BF
100
AcDbEntity
  8
DIBUJOS
 62
     7
  0
POLYLINE
  5
7C3
330
374
100
AcDbEntity
  8
DIBUJOS
 62
     7
100
AcDb2dPolyline
 66
     1
 10
0.0
 20
0.0
 30
0.0
  0
VERTEX
  5
7C4
330
7C3
100
AcDbEntity
  8
DIBUJOS
 62
     7
100
AcDbVertex
100
AcDb2dVertex
 10
66.10042135192988
 20
26.56548628022722
 30
0.0
  0
VERTEX
  5
7C5
330
7C3
100
AcDbEntity
  8
DIBUJOS
 62
     7
100
AcDbVertex
100
AcDb2dVertex
 10
66.63882038890618
 20
26.59904674055774
 30
0.0
  0
VERTEX
  5
7C6
330
7C3
100
AcDbEntity
  8
DIBUJOS
 62
     7
100
AcDbVertex
100
AcDb2dVertex
 10
66.83006411758483
 20
26.64211568434448
 30
0.0
  0
VERTEX
  5
7C7
330
7C3
100
AcDbEntity
  8
DIBUJOS
 62
     7
100
AcDbVertex
100
AcDb2dVertex
 10
66.9590558208292
 20
26.68686321569528
 30
0.0
  0
VERTEX
  5
7C8
330
7C3
100
AcDbEntity
  8
DIBUJOS
 62
     7
100
AcDbVertex
100
AcDb2dVertex
 10
67.13695131205215
 20
26.773785447772
 30
0.0
  0
VERTEX
  5
7C9
330
7C3
100
AcDbEntity
  8
DIBUJOS
 62
     7
100
AcDbVertex
100
AcDb2dVertex
 10
67.23439661536503
 20
26.84938662291541
 30
0.0
  0
VERTEX
  5
7CA
330
7C3
100
AcDbEntity
  8
DIBUJOS
 62
     7
100
AcDbVertex
100
AcDb2dVertex
 10
67.26832042952117
 20
26.88321957145122
 30
0.0
  0
VERTEX
  5
7CB
330
7C3
100
AcDbEntity
  8
DIBUJOS
 62
     7
100
AcDbVertex
100
AcDb2dVertex
 10
67.33851377320198
 20
26.97481249224258
 30
0.0
  0
VERTEX
  5
7CC
330
7C3
100
AcDbEntity
  8
DIBUJOS
 62
     7
100
AcDbVertex
100
AcDb2dVertex
 10
67.3892138297062
 20
27.08623382272433
 30
0.0
  0
VERTEX
  5
7CD
330
7C3
100
AcDbEntity
  8
DIBUJOS
 62
     7
100
AcDbVertex
100
AcDb2dVertex
 10
67.43520132290197
 20
27.2199163857685
 30
0.0
  0
SEQEND
  5
7CE
330
7C3
100
AcDbEntity
  8
DIBUJOS
 62
     7
  0
POLYLINE
  5
7CF
330
374
100
AcDbEntity
  8
DIBUJOS
 62
     7
100
AcDb2dPolyline
 66
     1
 10
0.0
 20
0.0
 30
0.0
  0
VERTEX
  5
7D0
330
7CF
100
AcDbEntity
  8
DIBUJOS
 62
     7
100
AcDbVertex
100
AcDb2dVertex
 10
63.35795102147542
 20
26.55989274471708
 30
0.0
  0
VERTEX
  5
7D1
330
7CF
100
AcDbEntity
  8
DIBUJOS
 62
     7
100
AcDbVertex
100
AcDb2dVertex
 10
63.35234334284306
 20
26.56548628022722
 30
0.0
  0
VERTEX
  5
7D2
330
7CF
100
AcDbEntity
  8
DIBUJOS
 62
     7
100
AcDbVertex
100
AcDb2dVertex
 10
63.34673415474076
 20
26.55989274471708
 30
0.0
  0
SEQEND
  5
7D3
330
7CF
100
AcDbEntity
  8
DIBUJOS
 62
     7
  0
POLYLINE
  5
7D4
330
374
100
AcDbEntity
  8
DIBUJOS
 62
     7
100
AcDb2dPolyline
 66
     1
 10
0.0
 20
0.0
 30
0.0
  0
VERTEX
  5
7D5
330
7D4
100
AcDbEntity
  8
DIBUJOS
 62
     7
100
AcDbVertex
100
AcDb2dVertex
 10
63.37477556684278
 20
26.56548628022722
 30
0.0
  0
VERTEX
  5
7D6
330
7D4
100
AcDbEntity
  8
DIBUJOS
 62
     7
100
AcDbVertex
100
AcDb2dVertex
 10
63.40281697894447
 20
26.56548628022722
 30
0.0
  0
SEQEND
  5
7D7
330
7D4
100
AcDbEntity
  8
DIBUJOS
 62
     7
  0
POLYLINE
  5
7D8
330
374
100
AcDbEntity
  8
DIBUJOS
 62
     7
100
AcDb2dPolyline
 66
     1
 10
0.0
 20
0.0
 30
0.0
  0
VERTEX
  5
7D9
330
7D8
100
AcDbEntity
  8
DIBUJOS
 62
     7
100
AcDbVertex
100
AcDb2dVertex
 10
63.41964303378111
 20
26.55989274471708
 30
0.0
  0
VERTEX
  5
7DA
330
7D8
100
AcDbEntity
  8
DIBUJOS
 62
     7
100
AcDbVertex
100
AcDb2dVertex
 10
63.41403384567914
 20
26.55989274471708
 30
0.0
  0
SEQEND
  5
7DB
330
7D8
100
AcDbEntity
  8
DIBUJOS
 62
     7
  0
POLYLINE
  5
7DC
330
374
100
AcDbEntity
  8
DIBUJOS
 62
     7
100
AcDb2dPolyline
 66
     1
 10
0.0
 20
0.0
 30
0.0
  0
VERTEX
  5
7DD
330
7DC
100
AcDbEntity
  8
DIBUJOS
 62
     7
100
AcDbVertex
100
AcDb2dVertex
 10
63.43646757914847
 20
26.55989274471708
 30
0.0
  0
VERTEX
  5
7DE
330
7DC
100
AcDbEntity
  8
DIBUJOS
 62
     7
100
AcDbVertex
100
AcDb2dVertex
 10
63.43646757914847
 20
26.56548628022722
 30
0.0
  0
SEQEND
  5
7DF
330
7DC
100
AcDbEntity
  8
DIBUJOS
 62
     7
  0
POLYLINE
  5
7E0
330
374
100
AcDbEntity
  8
DIBUJOS
 62
     7
100
AcDb2dPolyline
 66
     1
 10
0.0
 20
0.0
 30
0.0
  0
VERTEX
  5
7E1
330
7E0
100
AcDbEntity
  8
DIBUJOS
 62
     7
100
AcDbVertex
100
AcDb2dVertex
 10
63.4589013126178
 20
26.55989274471708
 30
0.0
  0
VERTEX
  5
7E2
330
7E0
100
AcDbEntity
  8
DIBUJOS
 62
     7
100
AcDbVertex
100
AcDb2dVertex
 10
63.45329212451582
 20
26.56548628022722
 30
0.0
  0
VERTEX
  5
7E3
330
7E0
100
AcDbEntity
  8
DIBUJOS
 62
     7
100
AcDbVertex
100
AcDb2dVertex
 10
63.44768444588313
 20
26.55989274471708
 30
0.0
  0
SEQEND
  5
7E4
330
7E0
100
AcDbEntity
  8
DIBUJOS
 62
     7
  0
POLYLINE
  5
7E5
330
374
100
AcDbEntity
  8
DIBUJOS
 62
     7
100
AcDb2dPolyline
 66
     1
 10
0.0
 20
0.0
 30
0.0
  0
VERTEX
  5
7E6
330
7E5
100
AcDbEntity
  8
DIBUJOS
 62
     7
100
AcDbVertex
100
AcDb2dVertex
 10
63.47572585798515
 20
26.55989274471708
 30
0.0
  0
VERTEX
  5
7E7
330
7E5
100
AcDbEntity
  8
DIBUJOS
 62
     7
100
AcDbVertex
100
AcDb2dVertex
 10
63.47011817935246
 20
26.55989274471708
 30
0.0
  0
SEQEND
  5
7E8
330
7E5
100
AcDbEntity
  8
DIBUJOS
 62
     7
  0
POLYLINE
  5
7E9
330
374
100
AcDbEntity
  8
DIBUJOS
 62
     7
100
AcDb2dPolyline
 66
     1
 10
0.0
 20
0.0
 30
0.0
  0
VERTEX
  5
7EA
330
7E9
100
AcDbEntity
  8
DIBUJOS
 62
     7
100
AcDbVertex
100
AcDb2dVertex
 10
63.50376727008684
 20
26.55989274471708
 30
0.0
  0
VERTEX
  5
7EB
330
7E9
100
AcDbEntity
  8
DIBUJOS
 62
     7
100
AcDbVertex
100
AcDb2dVertex
 10
63.48694272471949
 20
26.55989274471708
 30
0.0
  0
SEQEND
  5
7EC
330
7E9
100
AcDbEntity
  8
DIBUJOS
 62
     7
  0
POLYLINE
  5
7ED
330
374
100
AcDbEntity
  8
DIBUJOS
 62
     7
100
AcDb2dPolyline
 66
     1
 10
0.0
 20
0.0
 30
0.0
  0
VERTEX
  5
7EE
330
7ED
100
AcDbEntity
  8
DIBUJOS
 62
     7
100
AcDbVertex
100
AcDb2dVertex
 10
63.5486347370255
 20
26.55989274471708
 30
0.0
  0
VERTEX
  5
7EF
330
7ED
100
AcDbEntity
  8
DIBUJOS
 62
     7
100
AcDbVertex
100
AcDb2dVertex
 10
63.51498413682151
 20
26.55989274471708
 30
0.0
  0
SEQEND
  5
7F0
330
7ED
100
AcDbEntity
  8
DIBUJOS
 62
     7
  0
POLYLINE
  5
7F1
330
374
100
AcDbEntity
  8
DIBUJOS
 62
     7
100
AcDb2dPolyline
 66
     1
 10
0.0
 20
0.0
 30
0.0
  0
VERTEX
  5
7F2
330
7F1
100
AcDbEntity
  8
DIBUJOS
 62
     7
100
AcDbVertex
100
AcDb2dVertex
 10
63.58228382775989
 20
26.55989274471708
 30
0.0
  0
VERTEX
  5
7F3
330
7F1
100
AcDbEntity
  8
DIBUJOS
 62
     7
100
AcDbVertex
100
AcDb2dVertex
 10
63.55985009429087
 20
26.55989274471708
 30
0.0
  0
SEQEND
  5
7F4
330
7F1
100
AcDbEntity
  8
DIBUJOS
 62
     7
  0
POLYLINE
  5
7F5
330
374
100
AcDbEntity
  8
DIBUJOS
 62
     7
100
AcDb2dPolyline
 66
     1
 10
0.0
 20
0.0
 30
0.0
  0
VERTEX
  5
7F6
330
7F5
100
AcDbEntity
  8
DIBUJOS
 62
     7
100
AcDbVertex
100
AcDb2dVertex
 10
63.60471756122922
 20
26.55989274471708
 30
0.0
  0
VERTEX
  5
7F7
330
7F5
100
AcDbEntity
  8
DIBUJOS
 62
     7
100
AcDbVertex
100
AcDb2dVertex
 10
63.59350069449455
 20
26.55989274471708
 30
0.0
  0
SEQEND
  5
7F8
330
7F5
100
AcDbEntity
  8
DIBUJOS
 62
     7
  0
POLYLINE
  5
7F9
330
374
100
AcDbEntity
  8
DIBUJOS
 62
     7
100
AcDb2dPolyline
 66
     1
 10
0.0
 20
0.0
 30
0.0
  0
VERTEX
  5
7FA
330
7F9
100
AcDbEntity
  8
DIBUJOS
 62
     7
100
AcDbVertex
100
AcDb2dVertex
 10
63.62154210659656
 20
26.55989274471708
 30
0.0
  0
VERTEX
  5
7FB
330
7F9
100
AcDbEntity
  8
DIBUJOS
 62
     7
100
AcDbVertex
100
AcDb2dVertex
 10
63.61593442796388
 20
26.55989274471708
 30
0.0
  0
SEQEND
  5
7FC
330
7F9
100
AcDbEntity
  8
DIBUJOS
 62
     7
  0
POLYLINE
  5
7FD
330
374
100
AcDbEntity
  8
DIBUJOS
 62
     7
100
AcDb2dPolyline
 66
     1
 10
0.0
 20
0.0
 30
0.0
  0
VERTEX
  5
7FE
330
7FD
100
AcDbEntity
  8
DIBUJOS
 62
     7
100
AcDbVertex
100
AcDb2dVertex
 10
65.7583137091357
 20
26.55989274471708
 30
0.0
  0
VERTEX
  5
7FF
330
7FD
100
AcDbEntity
  8
DIBUJOS
 62
     7
100
AcDbVertex
100
AcDb2dVertex
 10
65.6124974605243
 20
26.55989274471708
 30
0.0
  0
SEQEND
  5
800
330
7FD
100
AcDbEntity
  8
DIBUJOS
 62
     7
  0
POLYLINE
  5
801
330
374
100
AcDbEntity
  8
DIBUJOS
 62
     7
100
AcDb2dPolyline
 66
     1
 10
0.0
 20
0.0
 30
0.0
  0
VERTEX
  5
802
330
801
100
AcDbEntity
  8
DIBUJOS
 62
     7
100
AcDbVertex
100
AcDb2dVertex
 10
65.81439653333942
 20
26.56548628022722
 30
0.0
  0
VERTEX
  5
803
330
801
100
AcDbEntity
  8
DIBUJOS
 62
     7
100
AcDbVertex
100
AcDb2dVertex
 10
65.83683026680875
 20
26.56548628022722
 30
0.0
  0
SEQEND
  5
804
330
801
100
AcDbEntity
  8
DIBUJOS
 62
     7
  0
POLYLINE
  5
805
330
374
100
AcDbEntity
  8
DIBUJOS
 62
     7
100
AcDb2dPolyline
 66
     1
 10
0.0
 20
0.0
 30
0.0
  0
VERTEX
  5
806
330
805
100
AcDbEntity
  8
DIBUJOS
 62
     7
100
AcDbVertex
100
AcDb2dVertex
 10
65.85365481217578
 20
26.55989274471708
 30
0.0
  0
VERTEX
  5
807
330
805
100
AcDbEntity
  8
DIBUJOS
 62
     7
100
AcDbVertex
100
AcDb2dVertex
 10
65.84804713354342
 20
26.55989274471708
 30
0.0
  0
SEQEND
  5
808
330
805
100
AcDbEntity
  8
DIBUJOS
 62
     7
  0
POLYLINE
  5
809
330
374
100
AcDbEntity
  8
DIBUJOS
 62
     7
100
AcDb2dPolyline
 66
     1
 10
0.0
 20
0.0
 30
0.0
  0
VERTEX
  5
80A
330
809
100
AcDbEntity
  8
DIBUJOS
 62
     7
100
AcDbVertex
100
AcDb2dVertex
 10
65.88730390291047
 20
26.55989274471708
 30
0.0
  0
VERTEX
  5
80B
330
809
100
AcDbEntity
  8
DIBUJOS
 62
     7
100
AcDbVertex
100
AcDb2dVertex
 10
65.86487167891045
 20
26.56548628022722
 30
0.0
  0
SEQEND
  5
80C
330
809
100
AcDbEntity
  8
DIBUJOS
 62
     7
  0
POLYLINE
  5
80D
330
374
100
AcDbEntity
  8
DIBUJOS
 62
     7
100
AcDb2dPolyline
 66
     1
 10
0.0
 20
0.0
 30
0.0
  0
VERTEX
  5
80E
330
80D
100
AcDbEntity
  8
DIBUJOS
 62
     7
100
AcDbVertex
100
AcDb2dVertex
 10
64.28332365871528
 20
26.55429920920695
 30
0.0
  0
VERTEX
  5
80F
330
80D
100
AcDbEntity
  8
DIBUJOS
 62
     7
100
AcDbVertex
100
AcDb2dVertex
 10
64.27771598008259
 20
26.55429920920695
 30
0.0
  0
SEQEND
  5
810
330
80D
100
AcDbEntity
  8
DIBUJOS
 62
     7
  0
POLYLINE
  5
811
330
374
100
AcDbEntity
  8
DIBUJOS
 62
     7
100
AcDb2dPolyline
 66
     1
 10
0.0
 20
0.0
 30
0.0
  0
VERTEX
  5
812
330
811
100
AcDbEntity
  8
DIBUJOS
 62
     7
100
AcDbVertex
100
AcDb2dVertex
 10
64.99558186587463
 20
26.55429920920695
 30
0.0
  0
VERTEX
  5
813
330
811
100
AcDbEntity
  8
DIBUJOS
 62
     7
100
AcDbVertex
100
AcDb2dVertex
 10
64.98997267777297
 20
26.55429920920695
 30
0.0
  0
SEQEND
  5
814
330
811
100
AcDbEntity
  8
DIBUJOS
 62
     7
  0
POLYLINE
  5
815
330
374
100
AcDbEntity
  8
DIBUJOS
 62
     7
100
AcDb2dPolyline
 66
     1
 10
0.0
 20
0.0
 30
0.0
  0
VERTEX
  5
816
330
815
100
AcDbEntity
  8
DIBUJOS
 62
     7
100
AcDbVertex
100
AcDb2dVertex
 10
61.87735404715728
 20
26.92905856108377
 30
0.0
  0
VERTEX
  5
817
330
815
100
AcDbEntity
  8
DIBUJOS
 62
     7
100
AcDbVertex
100
AcDb2dVertex
 10
61.93769961280336
 20
26.85533695237364
 30
0.0
  0
VERTEX
  5
818
330
815
100
AcDbEntity
  8
DIBUJOS
 62
     7
100
AcDbVertex
100
AcDb2dVertex
 10
61.99613796392665
 20
26.80734590810252
 30
0.0
  0
VERTEX
  5
819
330
815
100
AcDbEntity
  8
DIBUJOS
 62
     7
100
AcDbVertex
100
AcDb2dVertex
 10
62.046613109498
 20
26.76819191226186
 30
0.0
  0
VERTEX
  5
81A
330
815
100
AcDbEntity
  8
DIBUJOS
 62
     7
100
AcDbVertex
100
AcDb2dVertex
 10
62.1134644880396
 20
26.72881360292618
 30
0.0
  0
VERTEX
  5
81B
330
815
100
AcDbEntity
  8
DIBUJOS
 62
     7
100
AcDbVertex
100
AcDb2dVertex
 10
62.19616529474894
 20
26.68725011883801
 30
0.0
  0
VERTEX
  5
81C
330
815
100
AcDbEntity
  8
DIBUJOS
 62
     7
100
AcDbVertex
100
AcDb2dVertex
 10
62.32545889186299
 20
26.63652214883498
 30
0.0
  0
VERTEX
  5
81D
330
815
100
AcDbEntity
  8
DIBUJOS
 62
     7
100
AcDbVertex
100
AcDb2dVertex
 10
62.48816610249285
 20
26.5914787946531
 30
0.0
  0
VERTEX
  5
81E
330
815
100
AcDbEntity
  8
DIBUJOS
 62
     7
100
AcDbVertex
100
AcDb2dVertex
 10
62.61737894299689
 20
26.5686236582389
 30
0.0
  0
VERTEX
  5
81F
330
815
100
AcDbEntity
  8
DIBUJOS
 62
     7
100
AcDbVertex
100
AcDb2dVertex
 10
62.73517717628128
 20
26.55740045618608
 30
0.0
  0
VERTEX
  5
820
330
815
100
AcDbEntity
  8
DIBUJOS
 62
     7
100
AcDbVertex
100
AcDb2dVertex
 10
63.21764282651957
 20
26.53482909892524
 30
0.0
  0
VERTEX
  5
821
330
815
100
AcDbEntity
  8
DIBUJOS
 62
     7
100
AcDbVertex
100
AcDb2dVertex
 10
64.08700509408462
 20
26.52356299127105
 30
0.0
  0
VERTEX
  5
822
330
815
100
AcDbEntity
  8
DIBUJOS
 62
     7
100
AcDbVertex
100
AcDb2dVertex
 10
65.1302084181996
 20
26.52356299127105
 30
0.0
  0
VERTEX
  5
823
330
815
100
AcDbEntity
  8
DIBUJOS
 62
     7
100
AcDbVertex
100
AcDb2dVertex
 10
65.99381055072736
 20
26.53466801473748
 30
0.0
  0
VERTEX
  5
824
330
815
100
AcDbEntity
  8
DIBUJOS
 62
     7
100
AcDbVertex
100
AcDb2dVertex
 10
66.47640903426881
 20
26.55737109972175
 30
0.0
  0
VERTEX
  5
825
330
815
100
AcDbEntity
  8
DIBUJOS
 62
     7
100
AcDbVertex
100
AcDb2dVertex
 10
66.59372348262679
 20
26.56800792522256
 30
0.0
  0
VERTEX
  5
826
330
815
100
AcDbEntity
  8
DIBUJOS
 62
     7
100
AcDbVertex
100
AcDb2dVertex
 10
66.6944715048763
 20
26.58441743593689
 30
0.0
  0
VERTEX
  5
827
330
815
100
AcDbEntity
  8
DIBUJOS
 62
     7
100
AcDbVertex
100
AcDb2dVertex
 10
66.85137480585846
 20
26.62309796470239
 30
0.0
  0
VERTEX
  5
828
330
815
100
AcDbEntity
  8
DIBUJOS
 62
     7
100
AcDbVertex
100
AcDb2dVertex
 10
67.03196319039995
 20
26.69301602948333
 30
0.0
  0
VERTEX
  5
829
330
815
100
AcDbEntity
  8
DIBUJOS
 62
     7
100
AcDbVertex
100
AcDb2dVertex
 10
67.11047974807332
 20
26.732170025324
 30
0.0
  0
VERTEX
  5
82A
330
815
100
AcDbEntity
  8
DIBUJOS
 62
     7
100
AcDbVertex
100
AcDb2dVertex
 10
67.17831379116132
 20
26.77667216674423
 30
0.0
  0
VERTEX
  5
82B
330
815
100
AcDbEntity
  8
DIBUJOS
 62
     7
100
AcDbVertex
100
AcDb2dVertex
 10
67.2230952183468
 20
26.81025445623995
 30
0.0
  0
VERTEX
  5
82C
330
815
100
AcDbEntity
  8
DIBUJOS
 62
     7
100
AcDbVertex
100
AcDb2dVertex
 10
67.2851449748882
 20
26.86643971765111
 30
0.0
  0
VERTEX
  5
82D
330
815
100
AcDbEntity
  8
DIBUJOS
 62
     7
100
AcDbVertex
100
AcDb2dVertex
 10
67.33986021986158
 20
26.93465209659391
 30
0.0
  0
SEQEND
  5
82E
330
815
100
AcDbEntity
  8
DIBUJOS
 62
     7
  0
ENDBLK
  5
377
330
374
100
AcDbEntity
  8
0
100
AcDbBlockEnd
  0
ENDSEC
  0
SECTION
  2
ENTITIES
  0
MTEXT
  5
41
330
1F
100
AcDbEntity
  8
REFERENCIAS
 62
   255
100
AcDbMText
 10
61.49112712594395
 20
54.85563098807646
 30
0.0
 40
1.49859999962535
 41
0.0
 71
     7
 72
     1
  1
\fMyriad Pro|b0|i0|c0|p34;\W1;HEBE_9399__LOUNGE_CHAIR
  0
MTEXT
  5
43
330
1F
100
AcDbEntity
  8
M_U_00C1RGENES
 62
   255
100
AcDbMText
 10
90.14127864703391
 20
23.7555119243149
 30
0.0
 40
1.748366666229575
 41
0.0
 71
     7
 72
     1
  1
\fMyriad Pro|b0|i0|c0|p34;\W1;400
  0
MTEXT
  5
44
330
1F
100
AcDbEntity
  8
M_U_00C1RGENES
 62
   255
100
AcDbMText
 10
84.21176331851954
 20
20.50332059082737
 30
0.0
 40
1.748366666229575
 41
0.0
 71
     7
 72
     1
  1
\fMyriad Pro|b0|i0|c0|p34;\W1;400
  0
POLYLINE
  5
45
330
1F
100
AcDbEntity
  8
M_U_00C1RGENES
 62
   255
100
AcDb2dPolyline
 66
     1
 10
0.0
 20
0.0
 30
0.0
  0
VERTEX
  5
46
330
45
100
AcDbEntity
  8
M_U_00C1RGENES
 62
   255
100
AcDbVertex
100
AcDb2dVertex
 10
84.41666477502157
 20
24.76314475783758
 30
0.0
  0
VERTEX
  5
47
330
45
100
AcDbEntity
  8
M_U_00C1RGENES
 62
   255
100
AcDbVertex
100
AcDb2dVertex
 10
94.99999810570907
 20
19.74726776251925
 30
0.0
  0
SEQEND
  5
48
330
45
100
AcDbEntity
  8
M_U_00C1RGENES
 62
   255
  0
POLYLINE
  5
49
330
1F
100
AcDbEntity
  8
M_U_00C1RGENES
 62
   254
100
AcDb2dPolyline
 66
     1
 10
0.0
 20
0.0
 30
0.0
  0
VERTEX
  5
4A
330
49
100
AcDbEntity
  8
M_U_00C1RGENES
 62
   254
100
AcDbVertex
100
AcDb2dVertex
 10
54.99999767595828
 20
20.88258920325216
 30
0.0
  0
VERTEX
  5
4B
330
49
100
AcDbEntity
  8
M_U_00C1RGENES
 62
   254
100
AcDbVertex
100
AcDb2dVertex
 10
54.99999767595828
 20
19.74726776251925
 30
0.0
  0
SEQEND
  5
4C
330
49
100
AcDbEntity
  8
M_U_00C1RGENES
 62
   254
  0
POLYLINE
  5
4D
330
1F
100
AcDbEntity
  8
M_U_00C1RGENES
 62
   255
100
AcDb2dPolyline
 66
     1
 10
0.0
 20
0.0
 30
0.0
  0
VERTEX
  5
4E
330
4D
100
AcDbEntity
  8
M_U_00C1RGENES
 62
   255
100
AcDbVertex
100
AcDb2dVertex
 10
94.99999797321169
 20
59.74726768656564
 30
0.0
  0
VERTEX
  5
4F
330
4D
100
AcDbEntity
  8
M_U_00C1RGENES
 62
   255
100
AcDbVertex
100
AcDb2dVertex
 10
93.86467653247878
 20
59.74726768651462
 30
0.0
  0
SEQEND
  5
50
330
4D
100
AcDbEntity
  8
M_U_00C1RGENES
 62
   255
  0
INSERT
  5
53
330
1F
100
AcDbEntity
  8
DIBUJOS
100
AcDbBlockReference
  2
BLOCK_2
 10
0.0
 20
0.0
 30
0.0
  0
INSERT
  5
235
330
1F
100
AcDbEntity
  8
DIBUJOS
100
AcDbBlockReference
  2
BLOCK_3
 10
0.0
 20
0.0
 30
0.0
  0
INSERT
  5
375
330
1F
100
AcDbEntity
  8
DIBUJOS
100
AcDbBlockReference
  2
BLOCK_4
 10
0.0
 20
0.0
 30
0.0
  0
POLYLINE
  5
830
330
1F
100
AcDbEntity
  8
COTAS_LINEA
 62
     7
100
AcDb2dPolyline
 66
     1
 10
0.0
 20
0.0
 30
0.0
  0
VERTEX
  5
831
330
830
100
AcDbEntity
  8
COTAS_LINEA
 62
     7
100
AcDbVertex
100
AcDb2dVertex
 10
69.74651264195104
 20
49.65180245447647
 30
0.0
  0
VERTEX
  5
832
330
830
100
AcDbEntity
  8
COTAS_LINEA
 62
     7
100
AcDbVertex
100
AcDb2dVertex
 10
69.74651264281445
 20
42.33143640888927
 30
0.0
  0
SEQEND
  5
833
330
830
100
AcDbEntity
  8
COTAS_LINEA
 62
     7
  0
POLYLINE
  5
834
330
1F
100
AcDbEntity
  8
COTAS_LINEA
 62
     7
100
AcDb2dPolyline
 66
     1
 10
0.0
 20
0.0
 30
0.0
  0
VERTEX
  5
835
330
834
100
AcDbEntity
  8
COTAS_LINEA
 62
     7
100
AcDbVertex
100
AcDb2dVertex
 10
74.68540572689959
 20
51.87289006326776
 30
0.0
  0
VERTEX
  5
836
330
834
100
AcDbEntity
  8
COTAS_LINEA
 62
     7
100
AcDbVertex
100
AcDb2dVertex
 10
74.68540572776364
 20
42.33144381418538
 30
0.0
  0
SEQEND
  5
837
330
834
100
AcDbEntity
  8
COTAS_LINEA
 62
     7
  0
POLYLINE
  5
838
330
1F
100
AcDbEntity
  8
COTAS_LINEA
 62
     7
100
AcDb2dPolyline
 66
     1
 10
0.0
 20
0.0
 30
0.0
  0
VERTEX
  5
839
330
838
100
AcDbEntity
  8
COTAS_LINEA
 62
     7
100
AcDbVertex
100
AcDb2dVertex
 10
89.27318736476919
 20
45.949318484247
 30
0.0
  0
VERTEX
  5
83A
330
838
100
AcDbEntity
  8
COTAS_LINEA
 62
     7
100
AcDbVertex
100
AcDb2dVertex
 10
89.27318736607569
 20
42.33143791450131
 30
0.0
  0
SEQEND
  5
83B
330
838
100
AcDbEntity
  8
COTAS_LINEA
 62
     7
  0
POLYLINE
  5
83C
330
1F
100
AcDbEntity
  8
COTAS_LINEA
 62
     7
100
AcDb2dPolyline
 66
     1
 10
0.0
 20
0.0
 30
0.0
  0
VERTEX
  5
83D
330
83C
100
AcDbEntity
  8
COTAS_LINEA
 62
     7
100
AcDbVertex
100
AcDb2dVertex
 10
79.62071506474952
 20
38.66119575631178
 30
0.0
  0
VERTEX
  5
83E
330
83C
100
AcDbEntity
  8
COTAS_LINEA
 62
     7
100
AcDbVertex
100
AcDb2dVertex
 10
87.61170106722012
 20
38.66119575631178
 30
0.0
  0
SEQEND
  5
83F
330
83C
100
AcDbEntity
  8
COTAS_LINEA
 62
     7
  0
POLYLINE
  5
840
330
1F
100
AcDbEntity
  8
COTAS_LINEA
 62
     7
100
AcDb2dPolyline
 66
     1
 10
0.0
 20
0.0
 30
0.0
  0
VERTEX
  5
841
330
840
100
AcDbEntity
  8
COTAS_LINEA
 62
     7
100
AcDbVertex
100
AcDb2dVertex
 10
61.60456795805398
 20
38.66119575631178
 30
0.0
  0
VERTEX
  5
842
330
840
100
AcDbEntity
  8
COTAS_LINEA
 62
     7
100
AcDbVertex
100
AcDb2dVertex
 10
67.80351820943932
 20
38.66119575631178
 30
0.0
  0
SEQEND
  5
843
330
840
100
AcDbEntity
  8
COTAS_LINEA
 62
     7
  0
MTEXT
  5
845
330
1F
100
AcDbEntity
  8
COTAS_N_U_00DAMERO
 62
     7
100
AcDbMText
 10
70.5218205169697
 20
44.07784893205508
 30
0.0
 40
1.998533025814148
 41
0.0
 71
     7
 72
     1
  1
\fMyriad Pro|b0|i0|c0|p34;\W1;62
  0
MTEXT
  5
846
330
1F
100
AcDbEntity
  8
COTAS_N_U_00DAMERO
 62
     7
100
AcDbMText
 10
75.46070940462387
 20
44.07784893205508
 30
0.0
 40
1.998533025814148
 41
0.0
 71
     7
 72
     1
  1
\fMyriad Pro|b0|i0|c0|p34;\W1;95
  0
MTEXT
  5
847
330
1F
100
AcDbEntity
  8
COTAS_N_U_00DAMERO
 62
     7
100
AcDbMText
 10
90.03174075948806
 20
43.35631136340137
 30
0.0
 40
1.998533025814148
 41
0.0
 71
     7
 72
     1
  1
\fMyriad Pro|b0|i0|c0|p34;\W1;40
  0
MTEXT
  5
848
330
1F
100
AcDbEntity
  8
COTAS_N_U_00DAMERO
 62
     7
100
AcDbMText
 10
82.03946374325696
 20
39.21634011877664
 30
0.0
 40
1.998533025814148
 41
0.0
 71
     7
 72
     1
  1
\fMyriad Pro|b0|i0|c0|p34;\W1;79
  0
MTEXT
  5
849
330
1F
100
AcDbEntity
  8
COTAS_N_U_00DAMERO
 62
     7
100
AcDbMText
 10
63.19841417216156
 20
39.21616786400239
 30
0.0
 40
1.998533025814148
 41
0.0
 71
     7
 72
     1
  1
\fMyriad Pro|b0|i0|c0|p34;\W1;69
  0
ENDSEC
  0
SECTION
  2
OBJECTS
  0
DICTIONARY
  5
C
330
0
100
AcDbDictionary
  3
ACAD_GROUP
350
D
  3
ACAD_LAYOUT
350
1A
  3
ACAD_MATERIAL
350
3B
  3
ACAD_MLEADERSTYLE
350
86C
  3
ACAD_MLINESTYLE
350
17
  3
ACAD_PLOTSETTINGS
350
19
  3
ACAD_VISUALSTYLE
350
2A
  3
ACDBHEADERROUNDTRIPXREC
350
84A
  3
ACDBVARIABLEDICTIONARY
350
86A
  0
DICTIONARY
  5
D
102
{ACAD_REACTORS
330
C
102
}
330
C
100
AcDbDictionary
  0
DICTIONARY
  5
1A
102
{ACAD_REACTORS
330
C
102
}
330
C
100
AcDbDictionary
  0
DICTIONARY
  5
3B
102
{ACAD_REACTORS
330
C
102
}
330
C
100
AcDbDictionary
  3
BYBLOCK
350
3D
  3
BYLAYER
350
3C
  3
GLOBAL
350
3E
  0
DICTIONARY
  5
86C
102
{ACAD_REACTORS
330
C
102
}
330
C
100
AcDbDictionary
  0
DICTIONARY
  5
17
102
{ACAD_REACTORS
330
C
102
}
330
C
100
AcDbDictionary
  3
STANDARD
350
18
  0
DICTIONARY
  5
19
102
{ACAD_REACTORS
330
C
102
}
330
C
100
AcDbDictionary
  0
DICTIONARY
  5
2A
102
{ACAD_REACTORS
330
C
102
}
330
C
100
AcDbDictionary
  3
2DWIREFRAME
350
2F
  3
3D_HIDDEN
350
31
  3
3DWIREFRAME
350
30
  3
BASIC
350
32
  3
BRIGHTEN
350
36
  3
COLORCHANGE
350
3A
  3
CONCEPTUAL
350
34
  3
DIM
350
35
  3
FACEPATTERN
350
39
  3
FLAT
350
2B
  3
FLATWITHEDGES
350
2C
  3
GOURAUD
350
2D
  3
GOURAUDWITHEDGES
350
2E
  3
LINEPATTERN
350
38
  3
REALISTIC
350
33
  3
THICKEN
350
37
  0
DICTIONARY
  5
84A
102
{ACAD_REACTORS
330
C
102
}
330
C
100
AcDbDictionary
  3
CEPSNTYPE
350
853
  3
DIMSTYLEDATA
350
869
  3
FINGERPRINTGUID
350
854
  3
HYPERLINKBASE
350
84D
  3
INSUNITS
350
852
  3
LAYOUTDICT
350
84F
  3
LWETCUNION
350
851
  3
PLOTSETDICT
350
850
  3
PSVPSCALE
350
856
  3
PUCSBASE
350
859
  3
PUCSORGBACK
350
85F
  3
PUCSORGBOTTOM
350
85B
  3
PUCSORGFRONT
350
85E
  3
PUCSORGLEFT
350
85C
  3
PUCSORGRIGHT
350
85D
  3
PUCSORGTOP
350
85A
  3
PUCSORTHOREF
350
857
  3
PUCSORTHOVIEW
350
858
  3
STYLESHEET
350
84E
  3
TSTACKALIGN
350
84B
  3
TSTACKSIZE
350
84C
  3
UCSBASE
350
862
  3
UCSORGBACK
350
868
  3
UCSORGBOTTOM
350
864
  3
UCSORGFRONT
350
867
  3
UCSORGLEFT
350
865
  3
UCSORGRIGHT
350
866
  3
UCSORGTOP
350
863
  3
UCSORTHOREF
350
860
  3
UCSORTHOVIEW
350
861
  3
VERSIONGUID
350
855
  0
DICTIONARY
  5
86A
102
{ACAD_REACTORS
330
C
102
}
330
C
100
AcDbDictionary
  3
DIMASSOC
350
86D
  3
HIDETEXT
350
86E
  0
MATERIAL
  5
3D
102
{ACAD_REACTORS
330
3B
102
}
102
{ACAD_XDICTIONARY
360
871
102
}
330
3B
100
AcDbMaterial
  1
ByBlock
  0
MATERIAL
  5
3C
102
{ACAD_REACTORS
330
3B
102
}
102
{ACAD_XDICTIONARY
360
86F
102
}
330
3B
100
AcDbMaterial
  1
ByLayer
  0
MATERIAL
  5
3E
102
{ACAD_REACTORS
330
3B
102
}
102
{ACAD_XDICTIONARY
360
873
102
}
330
3B
100
AcDbMaterial
  1
Global
  0
MLINESTYLE
  5
18
102
{ACAD_REACTORS
330
17
102
}
330
17
100
AcDbMlineStyle
  2
Standard
 70
     0
  3

 62
   256
 51
90.0
 52
90.0
 71
     2
 49
0.5
 62
   256
  6
BYLAYER
 49
-0.5
 62
   256
  6
BYLAYER
  0
ACAD_PROXY_OBJECT
  5
2F
102
{ACAD_REACTORS
330
2A
102
}
330
2A
100
AcDbProxyObject
 90
      499
 91
      501
 93
      436
310
42CC9915DA5C99599C985B595049028333333333333E3BF0000000000000FB0107901411070040501600405405064090741402480A0340
1001
ACAD
1000
AcDbSavedByObjectVersion
1070
     0
  0
ACAD_PROXY_OBJECT
  5
31
102
{ACAD_REACTORS
330
2A
102
}
330
2A
100
AcDbProxyObject
 90
      499
 91
      501
 93
      500
310
424CD108121A5919195B90640502408333333333333E3BF0000000000000FB01079024090700405020000000000001110200405405064090740C02480A0340
1001
ACAD
1000
AcDbSavedByObjectVersion
1070
     0
  0
ACAD_PROXY_OBJECT
  5
30
102
{ACAD_REACTORS
330
2A
102
}
330
2A
100
AcDbProxyObject
 90
      499
 91
      501
 93
      436
310
42CCD915DA5C99599C985B595059028333333333333E3BF0000000000000FB0107901411070040501600405405064090741402480A0340
1001
ACAD
1000
AcDbSavedByObjectVersion
1070
     0
  0
ACAD_PROXY_OBJECT
  5
32
102
{ACAD_REACTORS
330
2A
102
}
330
2A
100
AcDbProxyObject
 90
      499
 91
      501
 93
      388
310
4150985CDA58D07406404333333333333E3BF0000000000000FB0107A41107004050150841D405064090741402480A0350
1001
ACAD
1000
AcDbSavedByObjectVersion
1070
     0
  0
ACAD_PROXY_OBJECT
  5
36
102
{ACAD_REACTORS
330
2A
102
}
330
2A
100
AcDbProxyObject
 90
      499
 91
      501
 93
      428
310
42109C9A59DA1D195B90C409028333333333333E3BF0000000000000FB010790141107004050150841D405064090741402480A029950
1001
ACAD
1000
AcDbSavedByObjectVersion
1070
     0
  0
ACAD_PROXY_OBJECT
  5
3A
102
{ACAD_REACTORS
330
2A
102
}
330
2A
100
AcDbProxyObject
 90
      499
 91
      501
 93
      452
310
42D0DBDB1BDC90DA185B99D95104090240C333333333333E3BF0000000000000FB0108901411070040501508421405064090741402480A0350
1001
ACAD
1000
AcDbSavedByObjectVersion
1070
     0
  0
ACAD_PROXY_OBJECT
  5
34
102
{ACAD_REACTORS
330
2A
102
}
330
2A
100
AcDbProxyObject
 90
      499
 91
      501
 93
      500
310
4290DBDB98D95C1D1D585B10940D028333333333333E3BF0000000000000FB0107902409070040501000000000000111010841D405064090740C02480A0340
1001
ACAD
1000
AcDbSavedByObjectVersion
1070
     0
  0
ACAD_PROXY_OBJECT
  5
35
102
{ACAD_REACTORS
330
2A
102
}
330
2A
100
AcDbProxyObject
 90
      499
 91
      501
 93
      412
310
40D11A5B50B409028333333333333E3BF0000000000000FB010790141107004050150841D405064090741402480A02677FFFFFD0
1001
ACAD
1000
AcDbSavedByObjectVersion
1070
     0
  0
ACAD_PROXY_OBJECT
  5
39
102
{ACAD_REACTORS
330
2A
102
}
330
2A
100
AcDbProxyObject
 90
      499
 91
      501
 93
      444
310
42D19858D95C185D1D195C9B90F409028333333333333E3BF0000000000000FB010790141107004050150841D405064090741402480A0350
1001
ACAD
1000
AcDbSavedByObjectVersion
1070
     0
  0
ACAD_PROXY_OBJECT
  5
2B
102
{ACAD_REACTORS
330
2A
102
}
330
2A
100
AcDbProxyObject
 90
      499
 91
      501
 93
      388
310
41119B185D240901404333333333333E3BF0000000000000F9010740A41107004050150841D405064090741402480A1B50
1001
ACAD
1000
AcDbSavedByObjectVersion
1070
     0
  0
ACAD_PROXY_OBJECT
  5
2C
102
{ACAD_REACTORS
330
2A
102
}
330
2A
100
AcDbProxyObject
 90
      499
 91
      501
 93
      476
310
43519B185D15DA5D1A115919D95CD0140901404333333333333E3BF0000000000000F9010740901411070040501600405405064090741402480A1B50
1001
ACAD
1000
AcDbSavedByObjectVersion
1070
     0
  0
ACAD_PROXY_OBJECT
  5
2D
102
{ACAD_REACTORS
330
2A
102
}
330
2A
100
AcDbProxyObject
 90
      499
 91
      501
 93
      412
310
41D1DBDD5C985D5910240902404333333333333E3BF0000000000000F9010740A411070040501641D405064090741402480A1B50
1001
ACAD
1000
AcDbSavedByObjectVersion
1070
     0
  0
ACAD_PROXY_OBJECT
  5
2E
102
{ACAD_REACTORS
330
2A
102
}
330
2A
100
AcDbProxyObject
 90
      499
 91
      501
 93
      500
310
4411DBDD5C985D5915DA5D1A115919D95CD0340902404333333333333E3BF0000000000000F9010740901411070040501600405405064090741402480A1B50
1001
ACAD
1000
AcDbSavedByObjectVersion
1070
     0
  0
ACAD_PROXY_OBJECT
  5
38
102
{ACAD_REACTORS
330
2A
102
}
330
2A
100
AcDbProxyObject
 90
      499
 91
      501
 93
      444
310
42D31A5B995C185D1D195C9B90E409028333333333333E3BF0000000000000FB010790141107004050750841D405064090741402483A0350
1001
ACAD
1000
AcDbSavedByObjectVersion
1070
     0
  0
ACAD_PROXY_OBJECT
  5
33
102
{ACAD_REACTORS
330
2A
102
}
330
2A
100
AcDbProxyObject
 90
      499
 91
      501
 93
      420
310
425499585B1A5CDD1A58D08409028333333333333E3BF0000000000000FB01079019070040501508421405064090741402480A1B40
1001
ACAD
1000
AcDbSavedByObjectVersion
1070
     0
  0
ACAD_PROXY_OBJECT
  5
37
102
{ACAD_REACTORS
330
2A
102
}
330
2A
100
AcDbProxyObject
 90
      499
 91
      501
 93
      412
310
41D51A1A58DAD95B90D409028333333333333E3BF0000000000000FB010790141107004050150C41D405064090741402480A0350
1001
ACAD
1000
AcDbSavedByObjectVersion
1070
     0
  0
XRECORD
  5
853
102
{ACAD_REACTORS
330
84A
102
}
330
84A
100
AcDbXrecord
 90
        0
  0
XRECORD
  5
869
102
{ACAD_REACTORS
330
84A
102
}
330
84A
100
AcDbXrecord
1000
DSTYLE
1002
{
1070
   340
340
11
1002
}
  0
XRECORD
  5
854
102
{ACAD_REACTORS
330
84A
102
}
330
84A
100
AcDbXrecord
  1
{72134404-F8CE-4782-99ED-E576F73EDD53}
  0
XRECORD
  5
84D
102
{ACAD_REACTORS
330
84A
102
}
330
84A
100
AcDbXrecord
  1

  0
XRECORD
  5
852
102
{ACAD_REACTORS
330
84A
102
}
330
84A
100
AcDbXrecord
 90
        1
  0
XRECORD
  5
84F
102
{ACAD_REACTORS
330
84A
102
}
330
84A
100
AcDbXrecord
340
1A
  0
XRECORD
  5
851
102
{ACAD_REACTORS
330
84A
102
}
330
84A
100
AcDbXrecord
 90
    10269
  0
XRECORD
  5
850
102
{ACAD_REACTORS
330
84A
102
}
330
84A
100
AcDbXrecord
340
19
  0
XRECORD
  5
856
102
{ACAD_REACTORS
330
84A
102
}
330
84A
100
AcDbXrecord
 40
0.0
  0
XRECORD
  5
859
102
{ACAD_REACTORS
330
84A
102
}
330
84A
100
AcDbXrecord
340
0
  0
XRECORD
  5
85F
102
{ACAD_REACTORS
330
84A
102
}
330
84A
100
AcDbXrecord
 10
0.0
 20
0.0
 30
0.0
  0
XRECORD
  5
85B
102
{ACAD_REACTORS
330
84A
102
}
330
84A
100
AcDbXrecord
 10
0.0
 20
0.0
 30
0.0
  0
XRECORD
  5
85E
102
{ACAD_REACTORS
330
84A
102
}
330
84A
100
AcDbXrecord
 10
0.0
 20
0.0
 30
0.0
  0
XRECORD
  5
85C
102
{ACAD_REACTORS
330
84A
102
}
330
84A
100
AcDbXrecord
 10
0.0
 20
0.0
 30
0.0
  0
XRECORD
  5
85D
102
{ACAD_REACTORS
330
84A
102
}
330
84A
100
AcDbXrecord
 10
0.0
 20
0.0
 30
0.0
  0
XRECORD
  5
85A
102
{ACAD_REACTORS
330
84A
102
}
330
84A
100
AcDbXrecord
 10
0.0
 20
0.0
 30
0.0
  0
XRECORD
  5
857
102
{ACAD_REACTORS
330
84A
102
}
330
84A
100
AcDbXrecord
340
0
  0
XRECORD
  5
858
102
{ACAD_REACTORS
330
84A
102
}
330
84A
100
AcDbXrecord
 70
     0
  0
XRECORD
  5
84E
102
{ACAD_REACTORS
330
84A
102
}
330
84A
100
AcDbXrecord
  1

  0
XRECORD
  5
84B
102
{ACAD_REACTORS
330
84A
102
}
330
84A
100
AcDbXrecord
 90
        1
  0
XRECORD
  5
84C
102
{ACAD_REACTORS
330
84A
102
}
330
84A
100
AcDbXrecord
 90
       70
  0
XRECORD
  5
862
102
{ACAD_REACTORS
330
84A
102
}
330
84A
100
AcDbXrecord
340
0
  0
XRECORD
  5
868
102
{ACAD_REACTORS
330
84A
102
}
330
84A
100
AcDbXrecord
 10
0.0
 20
0.0
 30
0.0
  0
XRECORD
  5
864
102
{ACAD_REACTORS
330
84A
102
}
330
84A
100
AcDbXrecord
 10
0.0
 20
0.0
 30
0.0
  0
XRECORD
  5
867
102
{ACAD_REACTORS
330
84A
102
}
330
84A
100
AcDbXrecord
 10
0.0
 20
0.0
 30
0.0
  0
XRECORD
  5
865
102
{ACAD_REACTORS
330
84A
102
}
330
84A
100
AcDbXrecord
 10
0.0
 20
0.0
 30
0.0
  0
XRECORD
  5
866
102
{ACAD_REACTORS
330
84A
102
}
330
84A
100
AcDbXrecord
 10
0.0
 20
0.0
 30
0.0
  0
XRECORD
  5
863
102
{ACAD_REACTORS
330
84A
102
}
330
84A
100
AcDbXrecord
 10
0.0
 20
0.0
 30
0.0
  0
XRECORD
  5
860
102
{ACAD_REACTORS
330
84A
102
}
330
84A
100
AcDbXrecord
340
0
  0
XRECORD
  5
861
102
{ACAD_REACTORS
330
84A
102
}
330
84A
100
AcDbXrecord
 70
     0
  0
XRECORD
  5
855
102
{ACAD_REACTORS
330
84A
102
}
330
84A
100
AcDbXrecord
  1
{FAEB1C32-E019-11D5-929B-00C0DF256EC4}
  0
DICTIONARYVAR
  5
86D
102
{ACAD_REACTORS
330
86A
102
}
330
86A
100
DictionaryVariables
280
     0
  1
2
  0
DICTIONARYVAR
  5
86E
102
{ACAD_REACTORS
330
86A
102
}
330
86A
100
DictionaryVariables
280
     0
  1
1
  0
DICTIONARY
  5
871
330
3D
100
AcDbDictionary
280
     1
  3
ACAD_XREC_ROUNDTRIP
360
872
  0
DICTIONARY
  5
86F
330
3C
100
AcDbDictionary
280
     1
  3
ACAD_XREC_ROUNDTRIP
360
870
  0
DICTIONARY
  5
873
330
3E
100
AcDbDictionary
280
     1
  3
ACAD_XREC_ROUNDTRIP
360
874
  0
XRECORD
  5
872
102
{ACAD_REACTORS
330
871
102
}
330
871
100
AcDbXrecord
102
MATERIAL
148
0.0
149
0.0
149
0.0
 93
        0
 94
      127
282
     0
 72
     1
 77
     1
171
     1
175
     1
179
     1
273
     0
  0
XRECORD
  5
870
102
{ACAD_REACTORS
330
86F
102
}
330
86F
100
AcDbXrecord
102
MATERIAL
148
0.0
149
0.0
149
0.0
 93
        0
 94
      127
282
     0
 72
     1
 77
     1
171
     1
175
     1
179
     1
273
     0
  0
XRECORD
  5
874
102
{ACAD_REACTORS
330
873
102
}
330
873
100
AcDbXrecord
102
MATERIAL
148
0.0
149
0.0
149
0.0
 93
        0
 94
      127
282
     0
 72
     1
 77
     1
171
     1
175
     1
179
     1
273
     0
  0
ENDSEC
  0
EOF
