  0
SECTION
  2
HEADER
  9
$ACADVER
  1
AC1014
  9
$ACADMAINTVER
 70
     9
  9
$DWGCODEPAGE
  3
ANSI_1252
  9
$INSBASE
 10
0.0
 20
0.0
 30
0.0
  9
$EXTMIN
 10
1.000000000000000E+20
 20
1.000000000000000E+20
 30
1.000000000000000E+20
  9
$EXTMAX
 10
-1.000000000000000E+20
 20
-1.000000000000000E+20
 30
-1.000000000000000E+20
  9
$LIMMIN
 10
0.0
 20
0.0
  9
$LIMMAX
 10
12.0
 20
9.0
  9
$ORTHOMODE
 70
     0
  9
$REGENMODE
 70
     1
  9
$FILLMODE
 70
     1
  9
$QTEXTMODE
 70
     0
  9
$MIRRTEXT
 70
     1
  9
$DRAGMODE
 70
     2
  9
$LTSCALE
 40
1.0
  9
$OSMODE
 70
    37
  9
$ATTMODE
 70
     1
  9
$TEXTSIZE
 40
0.2
  9
$TRACEWID
 40
0.05
  9
$TEXTSTYLE
  7
STANDARD
  9
$CLAYER
  8
0
  9
$CELTYPE
  6
BYLAYER
  9
$CECOLOR
 62
   256
  9
$CELTSCALE
 40
1.0
  9
$DELOBJ
 70
     1
  9
$DISPSILH
 70
     0
  9
$DIMSCALE
 40
1.0
  9
$DIMASZ
 40
0.18
  9
$DIMEXO
 40
0.0625
  9
$DIMDLI
 40
0.38
  9
$DIMRND
 40
0.0
  9
$DIMDLE
 40
0.0
  9
$DIMEXE
 40
0.18
  9
$DIMTP
 40
0.0
  9
$DIMTM
 40
0.0
  9
$DIMTXT
 40
0.18
  9
$DIMCEN
 40
0.09
  9
$DIMTSZ
 40
0.0
  9
$DIMTOL
 70
     0
  9
$DIMLIM
 70
     0
  9
$DIMTIH
 70
     1
  9
$DIMTOH
 70
     1
  9
$DIMSE1
 70
     0
  9
$DIMSE2
 70
     0
  9
$DIMTAD
 70
     0
  9
$DIMZIN
 70
     0
  9
$DIMBLK
  1

  9
$DIMASO
 70
     1
  9
$DIMSHO
 70
     1
  9
$DIMPOST
  1

  9
$DIMAPOST
  1

  9
$DIMALT
 70
     0
  9
$DIMALTD
 70
     2
  9
$DIMALTF
 40
25.4
  9
$DIMLFAC
 40
1.0
  9
$DIMTOFL
 70
     0
  9
$DIMTVP
 40
0.0
  9
$DIMTIX
 70
     0
  9
$DIMSOXD
 70
     0
  9
$DIMSAH
 70
     0
  9
$DIMBLK1
  1

  9
$DIMBLK2
  1

  9
$DIMSTYLE
  2
STANDARD
  9
$DIMCLRD
 70
     0
  9
$DIMCLRE
 70
     0
  9
$DIMCLRT
 70
     0
  9
$DIMTFAC
 40
1.0
  9
$DIMGAP
 40
0.09
  9
$DIMJUST
 70
     0
  9
$DIMSD1
 70
     0
  9
$DIMSD2
 70
     0
  9
$DIMTOLJ
 70
     1
  9
$DIMTZIN
 70
     0
  9
$DIMALTZ
 70
     0
  9
$DIMALTTZ
 70
     0
  9
$DIMFIT
 70
     3
  9
$DIMUPT
 70
     0
  9
$DIMUNIT
 70
     2
  9
$DIMDEC
 70
     4
  9
$DIMTDEC
 70
     4
  9
$DIMALTU
 70
     2
  9
$DIMALTTD
 70
     2
  9
$DIMTXSTY
  7
STANDARD
  9
$DIMAUNIT
 70
     0
  9
$LUNITS
 70
     2
  9
$LUPREC
 70
     4
  9
$SKETCHINC
 40
0.1
  9
$FILLETRAD
 40
0.5
  9
$AUNITS
 70
     0
  9
$AUPREC
 70
     0
  9
$MENU
  1
.
  9
$ELEVATION
 40
0.0
  9
$PELEVATION
 40
0.0
  9
$THICKNESS
 40
0.0
  9
$LIMCHECK
 70
     0
  9
$CHAMFERA
 40
0.5
  9
$CHAMFERB
 40
0.5
  9
$CHAMFERC
 40
1.0
  9
$CHAMFERD
 40
0.0
  9
$SKPOLY
 70
     0
  9
$TDCREATE
 40
2459971.555847789
  9
$TDUPDATE
 40
2459971.555847951
  9
$TDINDWG
 40
0.0000000116
  9
$TDUSRTIMER
 40
0.0000000116
  9
$USRTIMER
 70
     1
  9
$ANGBASE
 50
0.0
  9
$ANGDIR
 70
     0
  9
$PDMODE
 70
     0
  9
$PDSIZE
 40
0.0
  9
$PLINEWID
 40
0.0
  9
$COORDS
 70
     1
  9
$SPLFRAME
 70
     0
  9
$SPLINETYPE
 70
     6
  9
$SPLINESEGS
 70
     8
  9
$ATTDIA
 70
     0
  9
$ATTREQ
 70
     1
  9
$HANDLING
 70
     1
  9
$HANDSEED
  5
497
  9
$SURFTAB1
 70
     6
  9
$SURFTAB2
 70
     6
  9
$SURFTYPE
 70
     6
  9
$SURFU
 70
     6
  9
$SURFV
 70
     6
  9
$UCSNAME
  2

  9
$UCSORG
 10
0.0
 20
0.0
 30
0.0
  9
$UCSXDIR
 10
1.0
 20
0.0
 30
0.0
  9
$UCSYDIR
 10
0.0
 20
1.0
 30
0.0
  9
$PUCSNAME
  2

  9
$PUCSORG
 10
0.0
 20
0.0
 30
0.0
  9
$PUCSXDIR
 10
1.0
 20
0.0
 30
0.0
  9
$PUCSYDIR
 10
0.0
 20
1.0
 30
0.0
  9
$USERI1
 70
     0
  9
$USERI2
 70
     0
  9
$USERI3
 70
     0
  9
$USERI4
 70
     0
  9
$USERI5
 70
     0
  9
$USERR1
 40
0.0
  9
$USERR2
 40
0.0
  9
$USERR3
 40
0.0
  9
$USERR4
 40
0.0
  9
$USERR5
 40
0.0
  9
$WORLDVIEW
 70
     1
  9
$SHADEDGE
 70
     3
  9
$SHADEDIF
 70
    70
  9
$TILEMODE
 70
     1
  9
$MAXACTVP
 70
    64
  9
$PINSBASE
 10
0.0
 20
0.0
 30
0.0
  9
$PLIMCHECK
 70
     0
  9
$PEXTMIN
 10
1.000000000000000E+20
 20
1.000000000000000E+20
 30
1.000000000000000E+20
  9
$PEXTMAX
 10
-1.000000000000000E+20
 20
-1.000000000000000E+20
 30
-1.000000000000000E+20
  9
$PLIMMIN
 10
0.0
 20
0.0
  9
$PLIMMAX
 10
12.0
 20
9.0
  9
$UNITMODE
 70
     0
  9
$VISRETAIN
 70
     1
  9
$PLINEGEN
 70
     0
  9
$PSLTSCALE
 70
     1
  9
$TREEDEPTH
 70
  3020
  9
$PICKSTYLE
 70
     1
  9
$CMLSTYLE
  2
STANDARD
  9
$CMLJUST
 70
     0
  9
$CMLSCALE
 40
1.0
  9
$PROXYGRAPHICS
 70
     1
  9
$MEASUREMENT
 70
     0
  0
ENDSEC
  0
SECTION
  2
CLASSES
  0
CLASS
  1
ACDBDICTIONARYWDFLT
  2
AcDbDictionaryWithDefault
  3
ObjectDBX Classes
 90
        0
280
     0
281
     0
  0
CLASS
  1
VISUALSTYLE
  2
AcDbVisualStyle
  3
ObjectDBX Classes
 90
     4095
280
     0
281
     0
  0
CLASS
  1
MATERIAL
  2
AcDbMaterial
  3
ObjectDBX Classes
 90
     1153
280
     0
281
     0
  0
CLASS
  1
SUN
  2
AcDbSun
  3
SCENEOE
 90
     1024
280
     0
281
     0
  0
CLASS
  1
DICTIONARYVAR
  2
AcDbDictionaryVar
  3
ObjectDBX Classes
 90
        0
280
     0
281
     0
  0
CLASS
  1
XRECORD
  2
AcDbXrecord
  3
AutoCAD 2000
 90
        0
280
     0
281
     0
  0
CLASS
  1
LWPOLYLINE
  2
AcDbPolyline
  3
AutoCAD 2000
 90
        0
280
     0
281
     1
  0
CLASS
  1
HATCH
  2
AcDbHatch
  3
AutoCAD 2000
 90
        0
280
     0
281
     1
  0
CLASS
  1
ACDBPLACEHOLDER
  2
AcDbPlaceHolder
  3
ObjectDBX Classes
 90
        0
280
     0
281
     0
  0
CLASS
  1
LAYOUT
  2
AcDbLayout
  3
ObjectDBX Classes
 90
        0
280
     0
281
     0
  0
ENDSEC
  0
SECTION
  2
TABLES
  0
TABLE
  2
VPORT
  5
8
330
0
100
AcDbSymbolTable
 70
     1
  0
VPORT
  5
29
330
8
100
AcDbSymbolTableRecord
100
AcDbViewportTableRecord
  2
*ACTIVE
 70
     0
 10
0.0
 20
0.0
 11
1.0
 21
1.0
 12
0.0
 22
0.0
 13
0.0
 23
0.0
 14
0.5
 24
0.5
 15
0.5
 25
0.5
 16
0.0
 26
0.0
 36
1.0
 17
74.99999786197358
 27
39.74999886684608
 37
0.0
 40
39.99999998999989
 41
1.000000000000008
 42
50.0
 43
0.0
 44
0.0
 50
0.0
 51
0.0
 71
     0
 72
   100
 73
     1
 74
     3
 75
     0
 76
     0
 77
     0
 78
     0
  0
ENDTAB
  0
TABLE
  2
LTYPE
  5
5
330
0
100
AcDbSymbolTable
 70
     1
  0
LTYPE
  5
14
330
5
100
AcDbSymbolTableRecord
100
AcDbLinetypeTableRecord
  2
BYBLOCK
 70
     0
  3

 72
    65
 73
     0
 40
0.0
  0
LTYPE
  5
15
330
5
100
AcDbSymbolTableRecord
100
AcDbLinetypeTableRecord
  2
BYLAYER
 70
     0
  3

 72
    65
 73
     0
 40
0.0
  0
LTYPE
  5
16
330
5
100
AcDbSymbolTableRecord
100
AcDbLinetypeTableRecord
  2
CONTINUOUS
 70
     0
  3
Solid line
 72
    65
 73
     0
 40
0.0
  0
ENDTAB
  0
TABLE
  2
LAYER
  5
2
330
0
100
AcDbSymbolTable
 70
     6
  0
LAYER
  5
10
330
2
100
AcDbSymbolTableRecord
100
AcDbLayerTableRecord
  2
0
 70
     0
 62
     7
  6
CONTINUOUS
  0
LAYER
  5
40
330
2
100
AcDbSymbolTableRecord
100
AcDbLayerTableRecord
  2
REFERENCIAS
 70
     0
 62
     7
  6
CONTINUOUS
  0
LAYER
  5
43
330
2
100
AcDbSymbolTableRecord
100
AcDbLayerTableRecord
  2
M_U_00C1RGENES
 70
     4
 62
     7
  6
CONTINUOUS
  0
LAYER
  5
52
330
2
100
AcDbSymbolTableRecord
100
AcDbLayerTableRecord
  2
DIBUJOS
 70
     4
 62
     7
  6
CONTINUOUS
  0
LAYER
  5
456
330
2
100
AcDbSymbolTableRecord
100
AcDbLayerTableRecord
  2
COTAS_LINEA
 70
     4
 62
     7
  6
CONTINUOUS
  0
LAYER
  5
467
330
2
100
AcDbSymbolTableRecord
100
AcDbLayerTableRecord
  2
COTAS_N_U_00DAMERO
 70
     4
 62
     7
  6
CONTINUOUS
  0
ENDTAB
  0
TABLE
  2
STYLE
  5
3
330
0
100
AcDbSymbolTable
 70
     1
  0
STYLE
  5
11
330
3
100
AcDbSymbolTableRecord
100
AcDbTextStyleTableRecord
  2
STANDARD
 70
     0
 40
0.0
 41
1.0
 50
0.0
 71
     0
 42
0.2
  3
txt
  4

  0
ENDTAB
  0
TABLE
  2
VIEW
  5
6
330
0
100
AcDbSymbolTable
 70
     0
  0
ENDTAB
  0
TABLE
  2
UCS
  5
7
330
0
100
AcDbSymbolTable
 70
     0
  0
ENDTAB
  0
TABLE
  2
APPID
  5
9
330
0
100
AcDbSymbolTable
 70
     1
  0
APPID
  5
12
330
9
100
AcDbSymbolTableRecord
100
AcDbRegAppTableRecord
  2
ACAD
 70
     0
  0
ENDTAB
  0
TABLE
  2
DIMSTYLE
  5
A
330
0
100
AcDbSymbolTable
 70
     1
  0
DIMSTYLE
105
27
330
A
100
AcDbSymbolTableRecord
100
AcDbDimStyleTableRecord
  2
STANDARD
 70
     0
  3

  4

  5

  6

  7

 40
1.0
 41
0.18
 42
0.0625
 43
0.38
 44
0.18
 45
0.0
 46
0.0
 47
0.0
 48
0.0
140
0.18
141
0.09
142
0.0
143
25.4
144
1.0
145
0.0
146
1.0
147
0.09
 71
     0
 72
     0
 73
     1
 74
     1
 75
     0
 76
     0
 77
     0
 78
     0
170
     0
171
     2
172
     0
173
     0
174
     0
175
     0
176
     0
177
     0
178
     0
270
     2
271
     4
272
     4
273
     2
274
     2
340
11
275
     0
280
     0
281
     0
282
     0
283
     1
284
     0
285
     0
286
     0
287
     3
288
     0
  0
ENDTAB
  0
TABLE
  2
BLOCK_RECORD
  5
1
330
0
100
AcDbSymbolTable
 70
     5
  0
BLOCK_RECORD
  5
1F
330
1
100
AcDbSymbolTableRecord
100
AcDbBlockTableRecord
  2
*MODEL_SPACE
  0
BLOCK_RECORD
  5
1B
330
1
100
AcDbSymbolTableRecord
100
AcDbBlockTableRecord
  2
*PAPER_SPACE
  0
BLOCK_RECORD
  5
53
330
1
100
AcDbSymbolTableRecord
100
AcDbBlockTableRecord
  2
BLOCK_2
  0
BLOCK_RECORD
  5
BA
330
1
100
AcDbSymbolTableRecord
100
AcDbBlockTableRecord
  2
BLOCK_3
  0
BLOCK_RECORD
  5
1E1
330
1
100
AcDbSymbolTableRecord
100
AcDbBlockTableRecord
  2
BLOCK_4
  0
BLOCK_RECORD
  5
28E
330
1
100
AcDbSymbolTableRecord
100
AcDbBlockTableRecord
  2
BLOCK_5
  0
ENDTAB
  0
ENDSEC
  0
SECTION
  2
BLOCKS
  0
BLOCK
  5
20
330
1F
100
AcDbEntity
  8
0
100
AcDbBlockBegin
  2
*MODEL_SPACE
 70
     0
 10
0.0
 20
0.0
 30
0.0
  3
*MODEL_SPACE
  1

  0
ENDBLK
  5
21
330
1F
100
AcDbEntity
  8
0
100
AcDbBlockEnd
  0
BLOCK
  5
1C
330
1B
100
AcDbEntity
 67
     1
  8
0
100
AcDbBlockBegin
  2
*PAPER_SPACE
 70
     0
 10
0.0
 20
0.0
 30
0.0
  3
*PAPER_SPACE
  1

  0
ENDBLK
  5
1D
330
1B
100
AcDbEntity
 67
     1
  8
0
100
AcDbBlockEnd
  0
BLOCK
  5
55
330
53
100
AcDbEntity
  8
0
100
AcDbBlockBegin
  2
BLOCK_2
 70
     0
 10
0.0
 20
0.0
 30
0.0
  3
BLOCK_2
  1

  0
POLYLINE
  5
57
330
53
100
AcDbEntity
  8
DIBUJOS
 62
     7
100
AcDb2dPolyline
 66
     1
 10
0.0
 20
0.0
 30
0.0
  0
VERTEX
  5
58
330
57
100
AcDbEntity
  8
DIBUJOS
 62
     7
100
AcDbVertex
100
AcDb2dVertex
 10
65.75804121415857
 20
48.36614278377088
 30
0.0
  0
VERTEX
  5
59
330
57
100
AcDbEntity
  8
DIBUJOS
 62
     7
100
AcDbVertex
100
AcDb2dVertex
 10
65.78052131244655
 20
48.38300210119241
 30
0.0
  0
VERTEX
  5
5A
330
57
100
AcDbEntity
  8
DIBUJOS
 62
     7
100
AcDbVertex
100
AcDb2dVertex
 10
65.7822063366354
 20
48.39368097980353
 30
0.0
  0
VERTEX
  5
5B
330
57
100
AcDbEntity
  8
DIBUJOS
 62
     7
100
AcDbVertex
100
AcDb2dVertex
 10
65.7861405807241
 20
48.72019752516015
 30
0.0
  0
VERTEX
  5
5C
330
57
100
AcDbEntity
  8
DIBUJOS
 62
     7
100
AcDbVertex
100
AcDb2dVertex
 10
65.76366048243611
 20
48.74829537913709
 30
0.0
  0
VERTEX
  5
5D
330
57
100
AcDbEntity
  8
DIBUJOS
 62
     7
100
AcDbVertex
100
AcDb2dVertex
 10
61.20029128526127
 20
48.74829537913709
 30
0.0
  0
VERTEX
  5
5E
330
57
100
AcDbEntity
  8
DIBUJOS
 62
     7
100
AcDbVertex
100
AcDb2dVertex
 10
61.18905123611759
 20
48.74267762344846
 30
0.0
  0
VERTEX
  5
5F
330
57
100
AcDbEntity
  8
DIBUJOS
 62
     7
100
AcDbVertex
100
AcDb2dVertex
 10
61.1778111869736
 20
48.72581830602692
 30
0.0
  0
VERTEX
  5
60
330
57
100
AcDbEntity
  8
DIBUJOS
 62
     7
100
AcDbVertex
100
AcDb2dVertex
 10
61.1778111869736
 20
48.39424366292564
 30
0.0
  0
VERTEX
  5
61
330
57
100
AcDbEntity
  8
DIBUJOS
 62
     7
100
AcDbVertex
100
AcDb2dVertex
 10
61.18343121154543
 20
48.37738132032596
 30
0.0
  0
VERTEX
  5
62
330
57
100
AcDbEntity
  8
DIBUJOS
 62
     7
100
AcDbVertex
100
AcDb2dVertex
 10
61.20029431043973
 20
48.36895014902611
 30
0.0
  0
VERTEX
  5
63
330
57
100
AcDbEntity
  8
DIBUJOS
 62
     7
100
AcDbVertex
100
AcDb2dVertex
 10
65.75804121415857
 20
48.36614278377088
 30
0.0
  0
SEQEND
  5
64
330
57
100
AcDbEntity
  8
DIBUJOS
 62
     7
  0
POLYLINE
  5
65
330
53
100
AcDbEntity
  8
DIBUJOS
 62
     7
100
AcDb2dPolyline
 66
     1
 10
0.0
 20
0.0
 30
0.0
  0
VERTEX
  5
66
330
65
100
AcDbEntity
  8
DIBUJOS
 62
     7
100
AcDbVertex
100
AcDb2dVertex
 10
65.52762398817637
 20
43.67913455860003
 30
0.0
  0
VERTEX
  5
67
330
65
100
AcDbEntity
  8
DIBUJOS
 62
     7
100
AcDbVertex
100
AcDb2dVertex
 10
65.52762398817637
 20
43.69599387602221
 30
0.0
  0
SEQEND
  5
68
330
65
100
AcDbEntity
  8
DIBUJOS
 62
     7
  0
POLYLINE
  5
69
330
53
100
AcDbEntity
  8
DIBUJOS
 62
     7
100
AcDb2dPolyline
 66
     1
 10
0.0
 20
0.0
 30
0.0
  0
VERTEX
  5
6A
330
69
100
AcDbEntity
  8
DIBUJOS
 62
     7
100
AcDbVertex
100
AcDb2dVertex
 10
61.41946770580517
 20
43.67351377773358
 30
0.0
  0
VERTEX
  5
6B
330
69
100
AcDbEntity
  8
DIBUJOS
 62
     7
100
AcDbVertex
100
AcDb2dVertex
 10
61.41384768123301
 20
43.69599387602221
 30
0.0
  0
SEQEND
  5
6C
330
69
100
AcDbEntity
  8
DIBUJOS
 62
     7
  0
POLYLINE
  5
6D
330
53
100
AcDbEntity
  8
DIBUJOS
 62
     7
100
AcDb2dPolyline
 66
     1
 10
0.0
 20
0.0
 30
0.0
  0
VERTEX
  5
6E
330
6D
100
AcDbEntity
  8
DIBUJOS
 62
     7
100
AcDbVertex
100
AcDb2dVertex
 10
65.58944350217453
 20
43.6285566063351
 30
0.0
  0
VERTEX
  5
6F
330
6D
100
AcDbEntity
  8
DIBUJOS
 62
     7
100
AcDbVertex
100
AcDb2dVertex
 10
65.64088816795856
 20
43.64973890322845
 30
0.0
  0
VERTEX
  5
70
330
6D
100
AcDbEntity
  8
DIBUJOS
 62
     7
100
AcDbVertex
100
AcDb2dVertex
 10
65.69622170016008
 20
43.6847553394668
 30
0.0
  0
VERTEX
  5
71
330
6D
100
AcDbEntity
  8
DIBUJOS
 62
     7
100
AcDbVertex
100
AcDb2dVertex
 10
65.7524219458807
 20
43.74095407259851
 30
0.0
  0
VERTEX
  5
72
330
6D
100
AcDbEntity
  8
DIBUJOS
 62
     7
100
AcDbVertex
100
AcDb2dVertex
 10
65.77917208302442
 20
43.78130389778597
 30
0.0
  0
VERTEX
  5
73
330
6D
100
AcDbEntity
  8
DIBUJOS
 62
     7
100
AcDbVertex
100
AcDb2dVertex
 10
65.81873687450108
 20
43.8651527585388
 30
0.0
  0
VERTEX
  5
74
330
6D
100
AcDbEntity
  8
DIBUJOS
 62
     7
100
AcDbVertex
100
AcDb2dVertex
 10
65.83308378153025
 20
43.91467492365555
 30
0.0
  0
VERTEX
  5
75
330
6D
100
AcDbEntity
  8
DIBUJOS
 62
     7
100
AcDbVertex
100
AcDb2dVertex
 10
65.84522382115198
 20
43.98829868250905
 30
0.0
  0
VERTEX
  5
76
330
6D
100
AcDbEntity
  8
DIBUJOS
 62
     7
100
AcDbVertex
100
AcDb2dVertex
 10
65.85069636829255
 20
44.2017159202887
 30
0.0
  0
VERTEX
  5
77
330
6D
100
AcDbEntity
  8
DIBUJOS
 62
     7
100
AcDbVertex
100
AcDb2dVertex
 10
65.84480634657761
 20
47.97302391787652
 30
0.0
  0
VERTEX
  5
78
330
6D
100
AcDbEntity
  8
DIBUJOS
 62
     7
100
AcDbVertex
100
AcDb2dVertex
 10
65.83987228113432
 20
48.01743353204328
 30
0.0
  0
VERTEX
  5
79
330
6D
100
AcDbEntity
  8
DIBUJOS
 62
     7
100
AcDbVertex
100
AcDb2dVertex
 10
65.81817419137866
 20
48.10144575241241
 30
0.0
  0
VERTEX
  5
7A
330
6D
100
AcDbEntity
  8
DIBUJOS
 62
     7
100
AcDbVertex
100
AcDb2dVertex
 10
65.80693414223434
 20
48.12954360638903
 30
0.0
  0
VERTEX
  5
7B
330
6D
100
AcDbEntity
  8
DIBUJOS
 62
     7
100
AcDbVertex
100
AcDb2dVertex
 10
65.76236419362975
 20
48.2079199200013
 30
0.0
  0
VERTEX
  5
7C
330
6D
100
AcDbEntity
  8
DIBUJOS
 62
     7
100
AcDbVertex
100
AcDb2dVertex
 10
65.75371823468674
 20
48.22088885841578
 30
0.0
  0
VERTEX
  5
7D
330
6D
100
AcDbEntity
  8
DIBUJOS
 62
     7
100
AcDbVertex
100
AcDb2dVertex
 10
65.69060243188254
 20
48.28746395235117
 30
0.0
  0
VERTEX
  5
7E
330
6D
100
AcDbEntity
  8
DIBUJOS
 62
     7
100
AcDbVertex
100
AcDb2dVertex
 10
65.62765906422906
 20
48.3189348798833
 30
0.0
  0
VERTEX
  5
7F
330
6D
100
AcDbEntity
  8
DIBUJOS
 62
     7
100
AcDbVertex
100
AcDb2dVertex
 10
65.60124472185173
 20
48.32848839224987
 30
0.0
  0
VERTEX
  5
80
330
6D
100
AcDbEntity
  8
DIBUJOS
 62
     7
100
AcDbVertex
100
AcDb2dVertex
 10
65.56134413560868
 20
48.33804190461611
 30
0.0
  0
VERTEX
  5
81
330
6D
100
AcDbEntity
  8
DIBUJOS
 62
     7
100
AcDbVertex
100
AcDb2dVertex
 10
63.87537004094813
 20
48.33804190461611
 30
0.0
  0
VERTEX
  5
82
330
6D
100
AcDbEntity
  8
DIBUJOS
 62
     7
100
AcDbVertex
100
AcDb2dVertex
 10
63.86412999180381
 20
48.33242414892748
 30
0.0
  0
VERTEX
  5
83
330
6D
100
AcDbEntity
  8
DIBUJOS
 62
     7
100
AcDbVertex
100
AcDb2dVertex
 10
63.84164989351583
 20
48.30994405063917
 30
0.0
  0
VERTEX
  5
84
330
6D
100
AcDbEntity
  8
DIBUJOS
 62
     7
100
AcDbVertex
100
AcDb2dVertex
 10
63.83603062523829
 20
48.28746395235117
 30
0.0
  0
VERTEX
  5
85
330
6D
100
AcDbEntity
  8
DIBUJOS
 62
     7
100
AcDbVertex
100
AcDb2dVertex
 10
63.83966688928629
 20
48.28134704227987
 30
0.0
  0
VERTEX
  5
86
330
6D
100
AcDbEntity
  8
DIBUJOS
 62
     7
100
AcDbVertex
100
AcDb2dVertex
 10
63.84164989351583
 20
48.26498385406254
 30
0.0
  0
VERTEX
  5
87
330
6D
100
AcDbEntity
  8
DIBUJOS
 62
     7
100
AcDbVertex
100
AcDb2dVertex
 10
63.86412999180381
 20
48.24250375577456
 30
0.0
  0
VERTEX
  5
88
330
6D
100
AcDbEntity
  8
DIBUJOS
 62
     7
100
AcDbVertex
100
AcDb2dVertex
 10
63.88661916562656
 20
48.23968428980705
 30
0.0
  0
VERTEX
  5
89
330
6D
100
AcDbEntity
  8
DIBUJOS
 62
     7
100
AcDbVertex
100
AcDb2dVertex
 10
65.56133506007457
 20
48.23408468518665
 30
0.0
  0
VERTEX
  5
8A
330
6D
100
AcDbEntity
  8
DIBUJOS
 62
     7
100
AcDbVertex
100
AcDb2dVertex
 10
65.58332810469214
 20
48.22928070240103
 30
0.0
  0
VERTEX
  5
8B
330
6D
100
AcDbEntity
  8
DIBUJOS
 62
     7
100
AcDbVertex
100
AcDb2dVertex
 10
65.62964811881425
 20
48.20446214145935
 30
0.0
  0
VERTEX
  5
8C
330
6D
100
AcDbEntity
  8
DIBUJOS
 62
     7
100
AcDbVertex
100
AcDb2dVertex
 10
65.67503940326674
 20
48.15906934441794
 30
0.0
  0
VERTEX
  5
8D
330
6D
100
AcDbEntity
  8
DIBUJOS
 62
     7
100
AcDbVertex
100
AcDb2dVertex
 10
65.7142063838265
 20
48.09132955692341
 30
0.0
  0
VERTEX
  5
8E
330
6D
100
AcDbEntity
  8
DIBUJOS
 62
     7
100
AcDbVertex
100
AcDb2dVertex
 10
65.73919737991827
 20
48.01721269404384
 30
0.0
  0
VERTEX
  5
8F
330
6D
100
AcDbEntity
  8
DIBUJOS
 62
     7
100
AcDbVertex
100
AcDb2dVertex
 10
65.7431649009656
 20
48.0013426098529
 30
0.0
  0
VERTEX
  5
90
330
6D
100
AcDbEntity
  8
DIBUJOS
 62
     7
100
AcDbVertex
100
AcDb2dVertex
 10
65.7524219458807
 20
47.93902999182771
 30
0.0
  0
VERTEX
  5
91
330
6D
100
AcDbEntity
  8
DIBUJOS
 62
     7
100
AcDbVertex
100
AcDb2dVertex
 10
65.7524219458807
 20
44.01070920170164
 30
0.0
  0
VERTEX
  5
92
330
6D
100
AcDbEntity
  8
DIBUJOS
 62
     7
100
AcDbVertex
100
AcDb2dVertex
 10
65.72544492038125
 20
43.89774905231579
 30
0.0
  0
VERTEX
  5
93
330
6D
100
AcDbEntity
  8
DIBUJOS
 62
     7
100
AcDbVertex
100
AcDb2dVertex
 10
65.71139599339311
 20
43.8651527585388
 30
0.0
  0
VERTEX
  5
94
330
6D
100
AcDbEntity
  8
DIBUJOS
 62
     7
100
AcDbVertex
100
AcDb2dVertex
 10
65.66812233359424
 20
43.79715280573054
 30
0.0
  0
VERTEX
  5
95
330
6D
100
AcDbEntity
  8
DIBUJOS
 62
     7
100
AcDbVertex
100
AcDb2dVertex
 10
65.64564223530624
 20
43.77467270744127
 30
0.0
  0
VERTEX
  5
96
330
6D
100
AcDbEntity
  8
DIBUJOS
 62
     7
100
AcDbVertex
100
AcDb2dVertex
 10
65.5833916334319
 20
43.73749629405688
 30
0.0
  0
VERTEX
  5
97
330
6D
100
AcDbEntity
  8
DIBUJOS
 62
     7
100
AcDbVertex
100
AcDb2dVertex
 10
65.56177673607345
 20
43.73317331458506
 30
0.0
  0
VERTEX
  5
98
330
6D
100
AcDbEntity
  8
DIBUJOS
 62
     7
100
AcDbVertex
100
AcDb2dVertex
 10
61.38012829009499
 20
43.72971251086528
 30
0.0
  0
VERTEX
  5
99
330
6D
100
AcDbEntity
  8
DIBUJOS
 62
     7
100
AcDbVertex
100
AcDb2dVertex
 10
61.31774684926934
 20
43.7566880237755
 30
0.0
  0
VERTEX
  5
9A
330
6D
100
AcDbEntity
  8
DIBUJOS
 62
     7
100
AcDbVertex
100
AcDb2dVertex
 10
61.26638083811515
 20
43.80738093280769
 30
0.0
  0
VERTEX
  5
9B
330
6D
100
AcDbEntity
  8
DIBUJOS
 62
     7
100
AcDbVertex
100
AcDb2dVertex
 10
61.23288606644967
 20
43.85840963660594
 30
0.0
  0
VERTEX
  5
9C
330
6D
100
AcDbEntity
  8
DIBUJOS
 62
     7
100
AcDbVertex
100
AcDb2dVertex
 10
61.20392754930992
 20
43.93715502194355
 30
0.0
  0
VERTEX
  5
9D
330
6D
100
AcDbEntity
  8
DIBUJOS
 62
     7
100
AcDbVertex
100
AcDb2dVertex
 10
61.18905123611759
 20
44.00508842083487
 30
0.0
  0
VERTEX
  5
9E
330
6D
100
AcDbEntity
  8
DIBUJOS
 62
     7
100
AcDbVertex
100
AcDb2dVertex
 10
61.18905123611759
 20
47.94464774751666
 30
0.0
  0
VERTEX
  5
9F
330
6D
100
AcDbEntity
  8
DIBUJOS
 62
     7
100
AcDbVertex
100
AcDb2dVertex
 10
61.21351433863511
 20
48.06217289062014
 30
0.0
  0
VERTEX
  5
A0
330
6D
100
AcDbEntity
  8
DIBUJOS
 62
     7
100
AcDbVertex
100
AcDb2dVertex
 10
61.22108484677215
 20
48.0800879951905
 30
0.0
  0
VERTEX
  5
A1
330
6D
100
AcDbEntity
  8
DIBUJOS
 62
     7
100
AcDbVertex
100
AcDb2dVertex
 10
61.25221922324359
 20
48.14033441658862
 30
0.0
  0
VERTEX
  5
A2
330
6D
100
AcDbEntity
  8
DIBUJOS
 62
     7
100
AcDbVertex
100
AcDb2dVertex
 10
61.31830877609715
 20
48.21440590179761
 30
0.0
  0
VERTEX
  5
A3
330
6D
100
AcDbEntity
  8
DIBUJOS
 62
     7
100
AcDbVertex
100
AcDb2dVertex
 10
61.35246076770026
 20
48.22910221689465
 30
0.0
  0
VERTEX
  5
A4
330
6D
100
AcDbEntity
  8
DIBUJOS
 62
     7
100
AcDbVertex
100
AcDb2dVertex
 10
63.06610162846125
 20
48.24250375577456
 30
0.0
  0
VERTEX
  5
A5
330
6D
100
AcDbEntity
  8
DIBUJOS
 62
     7
100
AcDbVertex
100
AcDb2dVertex
 10
63.09420250761602
 20
48.27060463492932
 30
0.0
  0
VERTEX
  5
A6
330
6D
100
AcDbEntity
  8
DIBUJOS
 62
     7
100
AcDbVertex
100
AcDb2dVertex
 10
63.09982177589356
 20
48.29308473321763
 30
0.0
  0
VERTEX
  5
A7
330
6D
100
AcDbEntity
  8
DIBUJOS
 62
     7
100
AcDbVertex
100
AcDb2dVertex
 10
63.09420250761602
 20
48.30994405063917
 30
0.0
  0
VERTEX
  5
A8
330
6D
100
AcDbEntity
  8
DIBUJOS
 62
     7
100
AcDbVertex
100
AcDb2dVertex
 10
63.06610162846125
 20
48.33804190461611
 30
0.0
  0
VERTEX
  5
A9
330
6D
100
AcDbEntity
  8
DIBUJOS
 62
     7
100
AcDbVertex
100
AcDb2dVertex
 10
61.37450826552316
 20
48.33804190461611
 30
0.0
  0
VERTEX
  5
AA
330
6D
100
AcDbEntity
  8
DIBUJOS
 62
     7
100
AcDbVertex
100
AcDb2dVertex
 10
61.34684074312778
 20
48.33026114660234
 30
0.0
  0
VERTEX
  5
AB
330
6D
100
AcDbEntity
  8
DIBUJOS
 62
     7
100
AcDbVertex
100
AcDb2dVertex
 10
61.2907713363588
 20
48.30881868439462
 30
0.0
  0
VERTEX
  5
AC
330
6D
100
AcDbEntity
  8
DIBUJOS
 62
     7
100
AcDbVertex
100
AcDb2dVertex
 10
61.27278816528195
 20
48.29982785515049
 30
0.0
  0
VERTEX
  5
AD
330
6D
100
AcDbEntity
  8
DIBUJOS
 62
     7
100
AcDbVertex
100
AcDb2dVertex
 10
61.20029128526127
 20
48.24250375577456
 30
0.0
  0
VERTEX
  5
AE
330
6D
100
AcDbEntity
  8
DIBUJOS
 62
     7
100
AcDbVertex
100
AcDb2dVertex
 10
61.18478044096789
 20
48.21901324800863
 30
0.0
  0
VERTEX
  5
AF
330
6D
100
AcDbEntity
  8
DIBUJOS
 62
     7
100
AcDbVertex
100
AcDb2dVertex
 10
61.12891825889718
 20
48.11830506983394
 30
0.0
  0
VERTEX
  5
B0
330
6D
100
AcDbEntity
  8
DIBUJOS
 62
     7
100
AcDbVertex
100
AcDb2dVertex
 10
61.10159938827538
 20
48.02305431290974
 30
0.0
  0
VERTEX
  5
B1
330
6D
100
AcDbEntity
  8
DIBUJOS
 62
     7
100
AcDbVertex
100
AcDb2dVertex
 10
61.08789306270452
 20
44.4209626762223
 30
0.0
  0
VERTEX
  5
B2
330
6D
100
AcDbEntity
  8
DIBUJOS
 62
     7
100
AcDbVertex
100
AcDb2dVertex
 10
61.08789306270452
 20
44.04442783654471
 30
0.0
  0
VERTEX
  5
B3
330
6D
100
AcDbEntity
  8
DIBUJOS
 62
     7
100
AcDbVertex
100
AcDb2dVertex
 10
61.1140086687459
 20
43.89219482536692
 30
0.0
  0
VERTEX
  5
B4
330
6D
100
AcDbEntity
  8
DIBUJOS
 62
     7
100
AcDbVertex
100
AcDb2dVertex
 10
61.15083567406306
 20
43.79771548885233
 30
0.0
  0
VERTEX
  5
B5
330
6D
100
AcDbEntity
  8
DIBUJOS
 62
     7
100
AcDbVertex
100
AcDb2dVertex
 10
61.2102902550998
 20
43.71707936721685
 30
0.0
  0
VERTEX
  5
B6
330
6D
100
AcDbEntity
  8
DIBUJOS
 62
     7
100
AcDbVertex
100
AcDb2dVertex
 10
61.25773034140478
 20
43.67490838482725
 30
0.0
  0
VERTEX
  5
B7
330
6D
100
AcDbEntity
  8
DIBUJOS
 62
     7
100
AcDbVertex
100
AcDb2dVertex
 10
61.34029274518062
 20
43.63219287038343
 30
0.0
  0
VERTEX
  5
B8
330
6D
100
AcDbEntity
  8
DIBUJOS
 62
     7
100
AcDbVertex
100
AcDb2dVertex
 10
65.58944350217453
 20
43.6285566063351
 30
0.0
  0
SEQEND
  5
B9
330
6D
100
AcDbEntity
  8
DIBUJOS
 62
     7
  0
ENDBLK
  5
56
330
53
100
AcDbEntity
  8
0
100
AcDbBlockEnd
  0
BLOCK
  5
BC
330
BA
100
AcDbEntity
  8
0
100
AcDbBlockBegin
  2
BLOCK_3
 70
     0
 10
0.0
 20
0.0
 30
0.0
  3
BLOCK_3
  1

  0
POLYLINE
  5
BE
330
BA
100
AcDbEntity
  8
DIBUJOS
 62
     7
100
AcDb2dPolyline
 66
     1
 10
0.0
 20
0.0
 30
0.0
  0
VERTEX
  5
BF
330
BE
100
AcDbEntity
  8
DIBUJOS
 62
     7
100
AcDbVertex
100
AcDb2dVertex
 10
79.03227757547124
 20
48.35490424721579
 30
0.0
  0
VERTEX
  5
C0
330
BE
100
AcDbEntity
  8
DIBUJOS
 62
     7
100
AcDbVertex
100
AcDb2dVertex
 10
79.0384580142823
 20
48.35939966183769
 30
0.0
  0
VERTEX
  5
C1
330
BE
100
AcDbEntity
  8
DIBUJOS
 62
     7
100
AcDbVertex
100
AcDb2dVertex
 10
80.31417863442122
 20
48.3706381983931
 30
0.0
  0
VERTEX
  5
C2
330
BE
100
AcDbEntity
  8
DIBUJOS
 62
     7
100
AcDbVertex
100
AcDb2dVertex
 10
80.31923673216589
 20
48.37176356463765
 30
0.0
  0
VERTEX
  5
C3
330
BE
100
AcDbEntity
  8
DIBUJOS
 62
     7
100
AcDbVertex
100
AcDb2dVertex
 10
80.33609604958775
 20
48.39986141861394
 30
0.0
  0
VERTEX
  5
C4
330
BE
100
AcDbEntity
  8
DIBUJOS
 62
     7
100
AcDbVertex
100
AcDb2dVertex
 10
80.33609604958775
 20
48.72019752516015
 30
0.0
  0
VERTEX
  5
C5
330
BE
100
AcDbEntity
  8
DIBUJOS
 62
     7
100
AcDbVertex
100
AcDb2dVertex
 10
80.31361897647758
 20
48.74829537913709
 30
0.0
  0
VERTEX
  5
C6
330
BE
100
AcDbEntity
  8
DIBUJOS
 62
     7
100
AcDbVertex
100
AcDb2dVertex
 10
78.41365588538052
 20
48.74483760059514
 30
0.0
  0
VERTEX
  5
C7
330
BE
100
AcDbEntity
  8
DIBUJOS
 62
     7
100
AcDbVertex
100
AcDb2dVertex
 10
78.36350750840253
 20
48.72581830602692
 30
0.0
  0
VERTEX
  5
C8
330
BE
100
AcDbEntity
  8
DIBUJOS
 62
     7
100
AcDbVertex
100
AcDb2dVertex
 10
78.32866350731459
 20
48.67580001170596
 30
0.0
  0
VERTEX
  5
C9
330
BE
100
AcDbEntity
  8
DIBUJOS
 62
     7
100
AcDbVertex
100
AcDb2dVertex
 10
78.31854731182591
 20
48.63027713200722
 30
0.0
  0
VERTEX
  5
CA
330
BE
100
AcDbEntity
  8
DIBUJOS
 62
     7
100
AcDbVertex
100
AcDb2dVertex
 10
78.31854731182591
 20
48.37176356463765
 30
0.0
  0
VERTEX
  5
CB
330
BE
100
AcDbEntity
  8
DIBUJOS
 62
     7
100
AcDbVertex
100
AcDb2dVertex
 10
78.37980414270163
 20
48.35939966183769
 30
0.0
  0
VERTEX
  5
CC
330
BE
100
AcDbEntity
  8
DIBUJOS
 62
     7
100
AcDbVertex
100
AcDb2dVertex
 10
78.38598760669052
 20
48.35490424721579
 30
0.0
  0
SEQEND
  5
CD
330
BE
100
AcDbEntity
  8
DIBUJOS
 62
     7
  0
POLYLINE
  5
CE
330
BA
100
AcDbEntity
  8
DIBUJOS
 62
     7
100
AcDb2dPolyline
 66
     1
 10
0.0
 20
0.0
 30
0.0
  0
VERTEX
  5
CF
330
CE
100
AcDbEntity
  8
DIBUJOS
 62
     7
100
AcDbVertex
100
AcDb2dVertex
 10
77.65539802562334
 20
48.34928346634901
 30
0.0
  0
VERTEX
  5
D0
330
CE
100
AcDbEntity
  8
DIBUJOS
 62
     7
100
AcDbVertex
100
AcDb2dVertex
 10
77.64978026993504
 20
48.34928346634901
 30
0.0
  0
SEQEND
  5
D1
330
CE
100
AcDbEntity
  8
DIBUJOS
 62
     7
  0
POLYLINE
  5
D2
330
BA
100
AcDbEntity
  8
DIBUJOS
 62
     7
100
AcDb2dPolyline
 66
     1
 10
0.0
 20
0.0
 30
0.0
  0
VERTEX
  5
D3
330
D2
100
AcDbEntity
  8
DIBUJOS
 62
     7
100
AcDbVertex
100
AcDb2dVertex
 10
77.66101880649012
 20
48.34928346634901
 30
0.0
  0
VERTEX
  5
D4
330
D2
100
AcDbEntity
  8
DIBUJOS
 62
     7
100
AcDbVertex
100
AcDb2dVertex
 10
77.65539802562334
 20
48.34928346634901
 30
0.0
  0
SEQEND
  5
D5
330
D2
100
AcDbEntity
  8
DIBUJOS
 62
     7
  0
POLYLINE
  5
D6
330
BA
100
AcDbEntity
  8
DIBUJOS
 62
     7
100
AcDb2dPolyline
 66
     1
 10
0.0
 20
0.0
 30
0.0
  0
VERTEX
  5
D7
330
D6
100
AcDbEntity
  8
DIBUJOS
 62
     7
100
AcDbVertex
100
AcDb2dVertex
 10
77.66101880649012
 20
48.34928346634901
 30
0.0
  0
VERTEX
  5
D8
330
D6
100
AcDbEntity
  8
DIBUJOS
 62
     7
100
AcDbVertex
100
AcDb2dVertex
 10
77.66719924530118
 20
48.35377888097124
 30
0.0
  0
VERTEX
  5
D9
330
D6
100
AcDbEntity
  8
DIBUJOS
 62
     7
100
AcDbVertex
100
AcDb2dVertex
 10
77.73407685704368
 20
48.3605220029041
 30
0.0
  0
VERTEX
  5
DA
330
D6
100
AcDbEntity
  8
DIBUJOS
 62
     7
100
AcDbVertex
100
AcDb2dVertex
 10
77.74531841877659
 20
48.37176356463765
 30
0.0
  0
VERTEX
  5
DB
330
D6
100
AcDbEntity
  8
DIBUJOS
 62
     7
100
AcDbVertex
100
AcDb2dVertex
 10
77.73969763790981
 20
48.41110298034749
 30
0.0
  0
VERTEX
  5
DC
330
D6
100
AcDbEntity
  8
DIBUJOS
 62
     7
100
AcDbVertex
100
AcDb2dVertex
 10
77.74531841877659
 20
48.60780005889706
 30
0.0
  0
VERTEX
  5
DD
330
D6
100
AcDbEntity
  8
DIBUJOS
 62
     7
100
AcDbVertex
100
AcDb2dVertex
 10
77.7273337351105
 20
48.68029542632787
 30
0.0
  0
VERTEX
  5
DE
330
D6
100
AcDbEntity
  8
DIBUJOS
 62
     7
100
AcDbVertex
100
AcDb2dVertex
 10
77.71159675875505
 20
48.70895596342692
 30
0.0
  0
VERTEX
  5
DF
330
D6
100
AcDbEntity
  8
DIBUJOS
 62
     7
100
AcDbVertex
100
AcDb2dVertex
 10
77.67282002616732
 20
48.73256142795978
 30
0.0
  0
VERTEX
  5
E0
330
D6
100
AcDbEntity
  8
DIBUJOS
 62
     7
100
AcDbVertex
100
AcDb2dVertex
 10
77.61077664899189
 20
48.74503726234853
 30
0.0
  0
VERTEX
  5
E1
330
D6
100
AcDbEntity
  8
DIBUJOS
 62
     7
100
AcDbVertex
100
AcDb2dVertex
 10
75.97504471182957
 20
48.74829537913709
 30
0.0
  0
VERTEX
  5
E2
330
D6
100
AcDbEntity
  8
DIBUJOS
 62
     7
100
AcDbVertex
100
AcDb2dVertex
 10
75.84578490296711
 20
48.74829537913709
 30
0.0
  0
VERTEX
  5
E3
330
D6
100
AcDbEntity
  8
DIBUJOS
 62
     7
100
AcDbVertex
100
AcDb2dVertex
 10
75.74462899843661
 20
48.74267762344846
 30
0.0
  0
VERTEX
  5
E4
330
D6
100
AcDbEntity
  8
DIBUJOS
 62
     7
100
AcDbVertex
100
AcDb2dVertex
 10
75.73226509563729
 20
48.72637796397122
 30
0.0
  0
VERTEX
  5
E5
330
D6
100
AcDbEntity
  8
DIBUJOS
 62
     7
100
AcDbVertex
100
AcDb2dVertex
 10
75.72776665583693
 20
48.72019752516015
 30
0.0
  0
VERTEX
  5
E6
330
D6
100
AcDbEntity
  8
DIBUJOS
 62
     7
100
AcDbVertex
100
AcDb2dVertex
 10
75.72776665583693
 20
48.38300210119241
 30
0.0
  0
VERTEX
  5
E7
330
D6
100
AcDbEntity
  8
DIBUJOS
 62
     7
100
AcDbVertex
100
AcDb2dVertex
 10
75.73226509563729
 20
48.37682166238167
 30
0.0
  0
VERTEX
  5
E8
330
D6
100
AcDbEntity
  8
DIBUJOS
 62
     7
100
AcDbVertex
100
AcDb2dVertex
 10
75.7440663153145
 20
48.36501741752632
 30
0.0
  0
VERTEX
  5
E9
330
D6
100
AcDbEntity
  8
DIBUJOS
 62
     7
100
AcDbVertex
100
AcDb2dVertex
 10
75.7502588548375
 20
48.36332029262523
 30
0.0
  0
VERTEX
  5
EA
330
D6
100
AcDbEntity
  8
DIBUJOS
 62
     7
100
AcDbVertex
100
AcDb2dVertex
 10
77.0816064494519
 20
48.35377888097124
 30
0.0
  0
VERTEX
  5
EB
330
D6
100
AcDbEntity
  8
DIBUJOS
 62
     7
100
AcDbVertex
100
AcDb2dVertex
 10
77.08778688826297
 20
48.34928346634901
 30
0.0
  0
SEQEND
  5
EC
330
D6
100
AcDbEntity
  8
DIBUJOS
 62
     7
  0
POLYLINE
  5
ED
330
BA
100
AcDbEntity
  8
DIBUJOS
 62
     7
100
AcDb2dPolyline
 66
     1
 10
0.0
 20
0.0
 30
0.0
  0
VERTEX
  5
EE
330
ED
100
AcDbEntity
  8
DIBUJOS
 62
     7
100
AcDbVertex
100
AcDb2dVertex
 10
78.38598760669052
 20
48.34928346634901
 30
0.0
  0
VERTEX
  5
EF
330
ED
100
AcDbEntity
  8
DIBUJOS
 62
     7
100
AcDbVertex
100
AcDb2dVertex
 10
78.38598760669052
 20
48.35490424721579
 30
0.0
  0
SEQEND
  5
F0
330
ED
100
AcDbEntity
  8
DIBUJOS
 62
     7
  0
POLYLINE
  5
F1
330
BA
100
AcDbEntity
  8
DIBUJOS
 62
     7
100
AcDb2dPolyline
 66
     1
 10
0.0
 20
0.0
 30
0.0
  0
VERTEX
  5
F2
330
F1
100
AcDbEntity
  8
DIBUJOS
 62
     7
100
AcDbVertex
100
AcDb2dVertex
 10
78.3916083875573
 20
48.34928346634901
 30
0.0
  0
VERTEX
  5
F3
330
F1
100
AcDbEntity
  8
DIBUJOS
 62
     7
100
AcDbVertex
100
AcDb2dVertex
 10
78.38598760669052
 20
48.34928346634901
 30
0.0
  0
SEQEND
  5
F4
330
F1
100
AcDbEntity
  8
DIBUJOS
 62
     7
  0
POLYLINE
  5
F5
330
BA
100
AcDbEntity
  8
DIBUJOS
 62
     7
100
AcDb2dPolyline
 66
     1
 10
0.0
 20
0.0
 30
0.0
  0
VERTEX
  5
F6
330
F5
100
AcDbEntity
  8
DIBUJOS
 62
     7
100
AcDbVertex
100
AcDb2dVertex
 10
78.3972261432456
 20
48.34928346634901
 30
0.0
  0
VERTEX
  5
F7
330
F5
100
AcDbEntity
  8
DIBUJOS
 62
     7
100
AcDbVertex
100
AcDb2dVertex
 10
78.3916083875573
 20
48.34928346634901
 30
0.0
  0
SEQEND
  5
F8
330
F5
100
AcDbEntity
  8
DIBUJOS
 62
     7
  0
POLYLINE
  5
F9
330
BA
100
AcDbEntity
  8
DIBUJOS
 62
     7
100
AcDb2dPolyline
 66
     1
 10
0.0
 20
0.0
 30
0.0
  0
VERTEX
  5
FA
330
F9
100
AcDbEntity
  8
DIBUJOS
 62
     7
100
AcDbVertex
100
AcDb2dVertex
 10
78.40284692411238
 20
48.34928346634901
 30
0.0
  0
VERTEX
  5
FB
330
F9
100
AcDbEntity
  8
DIBUJOS
 62
     7
100
AcDbVertex
100
AcDb2dVertex
 10
78.3972261432456
 20
48.34928346634901
 30
0.0
  0
SEQEND
  5
FC
330
F9
100
AcDbEntity
  8
DIBUJOS
 62
     7
  0
POLYLINE
  5
FD
330
BA
100
AcDbEntity
  8
DIBUJOS
 62
     7
100
AcDb2dPolyline
 66
     1
 10
0.0
 20
0.0
 30
0.0
  0
VERTEX
  5
FE
330
FD
100
AcDbEntity
  8
DIBUJOS
 62
     7
100
AcDbVertex
100
AcDb2dVertex
 10
78.40846770497916
 20
48.34928346634901
 30
0.0
  0
VERTEX
  5
FF
330
FD
100
AcDbEntity
  8
DIBUJOS
 62
     7
100
AcDbVertex
100
AcDb2dVertex
 10
78.40284692411238
 20
48.34928346634901
 30
0.0
  0
SEQEND
  5
100
330
FD
100
AcDbEntity
  8
DIBUJOS
 62
     7
  0
POLYLINE
  5
101
330
BA
100
AcDbEntity
  8
DIBUJOS
 62
     7
100
AcDb2dPolyline
 66
     1
 10
0.0
 20
0.0
 30
0.0
  0
VERTEX
  5
102
330
101
100
AcDbEntity
  8
DIBUJOS
 62
     7
100
AcDbVertex
100
AcDb2dVertex
 10
78.40846770497916
 20
48.34928346634901
 30
0.0
  0
VERTEX
  5
103
330
101
100
AcDbEntity
  8
DIBUJOS
 62
     7
100
AcDbVertex
100
AcDb2dVertex
 10
79.01023007764802
 20
48.35274124489097
 30
0.0
  0
VERTEX
  5
104
330
101
100
AcDbEntity
  8
DIBUJOS
 62
     7
100
AcDbVertex
100
AcDb2dVertex
 10
79.03227757547124
 20
48.35490424721579
 30
0.0
  0
SEQEND
  5
105
330
101
100
AcDbEntity
  8
DIBUJOS
 62
     7
  0
POLYLINE
  5
106
330
BA
100
AcDbEntity
  8
DIBUJOS
 62
     7
100
AcDb2dPolyline
 66
     1
 10
0.0
 20
0.0
 30
0.0
  0
VERTEX
  5
107
330
106
100
AcDbEntity
  8
DIBUJOS
 62
     7
100
AcDbVertex
100
AcDb2dVertex
 10
77.62167939078027
 20
48.34366268548256
 30
0.0
  0
VERTEX
  5
108
330
106
100
AcDbEntity
  8
DIBUJOS
 62
     7
100
AcDbVertex
100
AcDb2dVertex
 10
77.61605860991413
 20
48.34928346634901
 30
0.0
  0
VERTEX
  5
109
330
106
100
AcDbEntity
  8
DIBUJOS
 62
     7
100
AcDbVertex
100
AcDb2dVertex
 10
77.08778688826297
 20
48.34928346634901
 30
0.0
  0
SEQEND
  5
10A
330
106
100
AcDbEntity
  8
DIBUJOS
 62
     7
  0
POLYLINE
  5
10B
330
BA
100
AcDbEntity
  8
DIBUJOS
 62
     7
100
AcDb2dPolyline
 66
     1
 10
0.0
 20
0.0
 30
0.0
  0
VERTEX
  5
10C
330
10B
100
AcDbEntity
  8
DIBUJOS
 62
     7
100
AcDbVertex
100
AcDb2dVertex
 10
77.62730017164704
 20
48.34366268548256
 30
0.0
  0
VERTEX
  5
10D
330
10B
100
AcDbEntity
  8
DIBUJOS
 62
     7
100
AcDbVertex
100
AcDb2dVertex
 10
77.62167939078027
 20
48.34366268548256
 30
0.0
  0
SEQEND
  5
10E
330
10B
100
AcDbEntity
  8
DIBUJOS
 62
     7
  0
POLYLINE
  5
10F
330
BA
100
AcDbEntity
  8
DIBUJOS
 62
     7
100
AcDb2dPolyline
 66
     1
 10
0.0
 20
0.0
 30
0.0
  0
VERTEX
  5
110
330
10F
100
AcDbEntity
  8
DIBUJOS
 62
     7
100
AcDbVertex
100
AcDb2dVertex
 10
77.63291792733536
 20
48.34366268548256
 30
0.0
  0
VERTEX
  5
111
330
10F
100
AcDbEntity
  8
DIBUJOS
 62
     7
100
AcDbVertex
100
AcDb2dVertex
 10
77.62730017164704
 20
48.34366268548256
 30
0.0
  0
SEQEND
  5
112
330
10F
100
AcDbEntity
  8
DIBUJOS
 62
     7
  0
POLYLINE
  5
113
330
BA
100
AcDbEntity
  8
DIBUJOS
 62
     7
100
AcDb2dPolyline
 66
     1
 10
0.0
 20
0.0
 30
0.0
  0
VERTEX
  5
114
330
113
100
AcDbEntity
  8
DIBUJOS
 62
     7
100
AcDbVertex
100
AcDb2dVertex
 10
77.63291792733536
 20
48.34366268548256
 30
0.0
  0
VERTEX
  5
115
330
113
100
AcDbEntity
  8
DIBUJOS
 62
     7
100
AcDbVertex
100
AcDb2dVertex
 10
77.64978026993504
 20
48.34928346634901
 30
0.0
  0
SEQEND
  5
116
330
113
100
AcDbEntity
  8
DIBUJOS
 62
     7
  0
POLYLINE
  5
117
330
BA
100
AcDbEntity
  8
DIBUJOS
 62
     7
100
AcDb2dPolyline
 66
     1
 10
0.0
 20
0.0
 30
0.0
  0
VERTEX
  5
118
330
117
100
AcDbEntity
  8
DIBUJOS
 62
     7
100
AcDbVertex
100
AcDb2dVertex
 10
77.65539802562334
 20
48.34366268548256
 30
0.0
  0
VERTEX
  5
119
330
117
100
AcDbEntity
  8
DIBUJOS
 62
     7
100
AcDbVertex
100
AcDb2dVertex
 10
77.65539802562334
 20
48.34928346634901
 30
0.0
  0
SEQEND
  5
11A
330
117
100
AcDbEntity
  8
DIBUJOS
 62
     7
  0
POLYLINE
  5
11B
330
BA
100
AcDbEntity
  8
DIBUJOS
 62
     7
100
AcDb2dPolyline
 66
     1
 10
0.0
 20
0.0
 30
0.0
  0
VERTEX
  5
11C
330
11B
100
AcDbEntity
  8
DIBUJOS
 62
     7
100
AcDbVertex
100
AcDb2dVertex
 10
78.38598760669052
 20
48.34366268548256
 30
0.0
  0
VERTEX
  5
11D
330
11B
100
AcDbEntity
  8
DIBUJOS
 62
     7
100
AcDbVertex
100
AcDb2dVertex
 10
78.38598760669052
 20
48.34928346634901
 30
0.0
  0
SEQEND
  5
11E
330
11B
100
AcDbEntity
  8
DIBUJOS
 62
     7
  0
POLYLINE
  5
11F
330
BA
100
AcDbEntity
  8
DIBUJOS
 62
     7
100
AcDb2dPolyline
 66
     1
 10
0.0
 20
0.0
 30
0.0
  0
VERTEX
  5
120
330
11F
100
AcDbEntity
  8
DIBUJOS
 62
     7
100
AcDbVertex
100
AcDb2dVertex
 10
78.40284692411238
 20
48.34366268548256
 30
0.0
  0
VERTEX
  5
121
330
11F
100
AcDbEntity
  8
DIBUJOS
 62
     7
100
AcDbVertex
100
AcDb2dVertex
 10
78.40284692411238
 20
48.34928346634901
 30
0.0
  0
SEQEND
  5
122
330
11F
100
AcDbEntity
  8
DIBUJOS
 62
     7
  0
POLYLINE
  5
123
330
BA
100
AcDbEntity
  8
DIBUJOS
 62
     7
100
AcDb2dPolyline
 66
     1
 10
0.0
 20
0.0
 30
0.0
  0
VERTEX
  5
124
330
123
100
AcDbEntity
  8
DIBUJOS
 62
     7
100
AcDbVertex
100
AcDb2dVertex
 10
77.62730017164704
 20
48.33804190461611
 30
0.0
  0
VERTEX
  5
125
330
123
100
AcDbEntity
  8
DIBUJOS
 62
     7
100
AcDbVertex
100
AcDb2dVertex
 10
77.62730017164704
 20
48.34366268548256
 30
0.0
  0
SEQEND
  5
126
330
123
100
AcDbEntity
  8
DIBUJOS
 62
     7
  0
POLYLINE
  5
127
330
BA
100
AcDbEntity
  8
DIBUJOS
 62
     7
100
AcDb2dPolyline
 66
     1
 10
0.0
 20
0.0
 30
0.0
  0
VERTEX
  5
128
330
127
100
AcDbEntity
  8
DIBUJOS
 62
     7
100
AcDbVertex
100
AcDb2dVertex
 10
78.3803668258244
 20
48.31556483150562
 30
0.0
  0
VERTEX
  5
129
330
127
100
AcDbEntity
  8
DIBUJOS
 62
     7
100
AcDbVertex
100
AcDb2dVertex
 10
78.37474604495762
 20
48.32118258719425
 30
0.0
  0
VERTEX
  5
12A
330
127
100
AcDbEntity
  8
DIBUJOS
 62
     7
100
AcDbVertex
100
AcDb2dVertex
 10
78.38598760669052
 20
48.34366268548256
 30
0.0
  0
SEQEND
  5
12B
330
127
100
AcDbEntity
  8
DIBUJOS
 62
     7
  0
POLYLINE
  5
12C
330
BA
100
AcDbEntity
  8
DIBUJOS
 62
     7
100
AcDb2dPolyline
 66
     1
 10
0.0
 20
0.0
 30
0.0
  0
VERTEX
  5
12D
330
12C
100
AcDbEntity
  8
DIBUJOS
 62
     7
100
AcDbVertex
100
AcDb2dVertex
 10
78.3803668258244
 20
48.30994405063917
 30
0.0
  0
VERTEX
  5
12E
330
12C
100
AcDbEntity
  8
DIBUJOS
 62
     7
100
AcDbVertex
100
AcDb2dVertex
 10
78.3803668258244
 20
48.31556483150562
 30
0.0
  0
SEQEND
  5
12F
330
12C
100
AcDbEntity
  8
DIBUJOS
 62
     7
  0
POLYLINE
  5
130
330
BA
100
AcDbEntity
  8
DIBUJOS
 62
     7
100
AcDb2dPolyline
 66
     1
 10
0.0
 20
0.0
 30
0.0
  0
VERTEX
  5
131
330
130
100
AcDbEntity
  8
DIBUJOS
 62
     7
100
AcDbVertex
100
AcDb2dVertex
 10
78.38598760669052
 20
48.30994405063917
 30
0.0
  0
VERTEX
  5
132
330
130
100
AcDbEntity
  8
DIBUJOS
 62
     7
100
AcDbVertex
100
AcDb2dVertex
 10
78.3803668258244
 20
48.30994405063917
 30
0.0
  0
SEQEND
  5
133
330
130
100
AcDbEntity
  8
DIBUJOS
 62
     7
  0
POLYLINE
  5
134
330
BA
100
AcDbEntity
  8
DIBUJOS
 62
     7
100
AcDb2dPolyline
 66
     1
 10
0.0
 20
0.0
 30
0.0
  0
VERTEX
  5
135
330
134
100
AcDbEntity
  8
DIBUJOS
 62
     7
100
AcDbVertex
100
AcDb2dVertex
 10
78.38598760669052
 20
48.30994405063917
 30
0.0
  0
VERTEX
  5
136
330
134
100
AcDbEntity
  8
DIBUJOS
 62
     7
100
AcDbVertex
100
AcDb2dVertex
 10
78.40284692411238
 20
48.32680336806102
 30
0.0
  0
VERTEX
  5
137
330
134
100
AcDbEntity
  8
DIBUJOS
 62
     7
100
AcDbVertex
100
AcDb2dVertex
 10
78.40284692411238
 20
48.34366268548256
 30
0.0
  0
SEQEND
  5
138
330
134
100
AcDbEntity
  8
DIBUJOS
 62
     7
  0
POLYLINE
  5
139
330
BA
100
AcDbEntity
  8
DIBUJOS
 62
     7
100
AcDb2dPolyline
 66
     1
 10
0.0
 20
0.0
 30
0.0
  0
VERTEX
  5
13A
330
139
100
AcDbEntity
  8
DIBUJOS
 62
     7
100
AcDbVertex
100
AcDb2dVertex
 10
77.66101880649012
 20
48.30432326977272
 30
0.0
  0
VERTEX
  5
13B
330
139
100
AcDbEntity
  8
DIBUJOS
 62
     7
100
AcDbVertex
100
AcDb2dVertex
 10
77.66663958735688
 20
48.30994405063917
 30
0.0
  0
VERTEX
  5
13C
330
139
100
AcDbEntity
  8
DIBUJOS
 62
     7
100
AcDbVertex
100
AcDb2dVertex
 10
77.66663958735688
 20
48.33242414892748
 30
0.0
  0
VERTEX
  5
13D
330
139
100
AcDbEntity
  8
DIBUJOS
 62
     7
100
AcDbVertex
100
AcDb2dVertex
 10
77.65539802562334
 20
48.34366268548256
 30
0.0
  0
SEQEND
  5
13E
330
139
100
AcDbEntity
  8
DIBUJOS
 62
     7
  0
POLYLINE
  5
13F
330
BA
100
AcDbEntity
  8
DIBUJOS
 62
     7
100
AcDb2dPolyline
 66
     1
 10
0.0
 20
0.0
 30
0.0
  0
VERTEX
  5
140
330
13F
100
AcDbEntity
  8
DIBUJOS
 62
     7
100
AcDbVertex
100
AcDb2dVertex
 10
78.3803668258244
 20
48.30432326977272
 30
0.0
  0
VERTEX
  5
141
330
13F
100
AcDbEntity
  8
DIBUJOS
 62
     7
100
AcDbVertex
100
AcDb2dVertex
 10
78.3803668258244
 20
48.30994405063917
 30
0.0
  0
SEQEND
  5
142
330
13F
100
AcDbEntity
  8
DIBUJOS
 62
     7
  0
POLYLINE
  5
143
330
BA
100
AcDbEntity
  8
DIBUJOS
 62
     7
100
AcDb2dPolyline
 66
     1
 10
0.0
 20
0.0
 30
0.0
  0
VERTEX
  5
144
330
143
100
AcDbEntity
  8
DIBUJOS
 62
     7
100
AcDbVertex
100
AcDb2dVertex
 10
77.65539802562334
 20
48.29870248890594
 30
0.0
  0
VERTEX
  5
145
330
143
100
AcDbEntity
  8
DIBUJOS
 62
     7
100
AcDbVertex
100
AcDb2dVertex
 10
77.64978026993504
 20
48.29870248890594
 30
0.0
  0
VERTEX
  5
146
330
143
100
AcDbEntity
  8
DIBUJOS
 62
     7
100
AcDbVertex
100
AcDb2dVertex
 10
77.62730017164704
 20
48.33804190461611
 30
0.0
  0
SEQEND
  5
147
330
143
100
AcDbEntity
  8
DIBUJOS
 62
     7
  0
POLYLINE
  5
148
330
BA
100
AcDbEntity
  8
DIBUJOS
 62
     7
100
AcDb2dPolyline
 66
     1
 10
0.0
 20
0.0
 30
0.0
  0
VERTEX
  5
149
330
148
100
AcDbEntity
  8
DIBUJOS
 62
     7
100
AcDbVertex
100
AcDb2dVertex
 10
77.66101880649012
 20
48.29870248890594
 30
0.0
  0
VERTEX
  5
14A
330
148
100
AcDbEntity
  8
DIBUJOS
 62
     7
100
AcDbVertex
100
AcDb2dVertex
 10
77.65539802562334
 20
48.29870248890594
 30
0.0
  0
SEQEND
  5
14B
330
148
100
AcDbEntity
  8
DIBUJOS
 62
     7
  0
POLYLINE
  5
14C
330
BA
100
AcDbEntity
  8
DIBUJOS
 62
     7
100
AcDb2dPolyline
 66
     1
 10
0.0
 20
0.0
 30
0.0
  0
VERTEX
  5
14D
330
14C
100
AcDbEntity
  8
DIBUJOS
 62
     7
100
AcDbVertex
100
AcDb2dVertex
 10
77.66101880649012
 20
48.29870248890594
 30
0.0
  0
VERTEX
  5
14E
330
14C
100
AcDbEntity
  8
DIBUJOS
 62
     7
100
AcDbVertex
100
AcDb2dVertex
 10
77.66101880649012
 20
48.30432326977272
 30
0.0
  0
SEQEND
  5
14F
330
14C
100
AcDbEntity
  8
DIBUJOS
 62
     7
  0
POLYLINE
  5
150
330
BA
100
AcDbEntity
  8
DIBUJOS
 62
     7
100
AcDb2dPolyline
 66
     1
 10
0.0
 20
0.0
 30
0.0
  0
VERTEX
  5
151
330
150
100
AcDbEntity
  8
DIBUJOS
 62
     7
100
AcDbVertex
100
AcDb2dVertex
 10
77.66101880649012
 20
48.29308473321763
 30
0.0
  0
VERTEX
  5
152
330
150
100
AcDbEntity
  8
DIBUJOS
 62
     7
100
AcDbVertex
100
AcDb2dVertex
 10
77.66101880649012
 20
48.29870248890594
 30
0.0
  0
SEQEND
  5
153
330
150
100
AcDbEntity
  8
DIBUJOS
 62
     7
  0
POLYLINE
  5
154
330
BA
100
AcDbEntity
  8
DIBUJOS
 62
     7
100
AcDb2dPolyline
 66
     1
 10
0.0
 20
0.0
 30
0.0
  0
VERTEX
  5
155
330
154
100
AcDbEntity
  8
DIBUJOS
 62
     7
100
AcDbVertex
100
AcDb2dVertex
 10
77.66101880649012
 20
48.28746395235117
 30
0.0
  0
VERTEX
  5
156
330
154
100
AcDbEntity
  8
DIBUJOS
 62
     7
100
AcDbVertex
100
AcDb2dVertex
 10
77.66101880649012
 20
48.29308473321763
 30
0.0
  0
SEQEND
  5
157
330
154
100
AcDbEntity
  8
DIBUJOS
 62
     7
  0
POLYLINE
  5
158
330
BA
100
AcDbEntity
  8
DIBUJOS
 62
     7
100
AcDb2dPolyline
 66
     1
 10
0.0
 20
0.0
 30
0.0
  0
VERTEX
  5
159
330
158
100
AcDbEntity
  8
DIBUJOS
 62
     7
100
AcDbVertex
100
AcDb2dVertex
 10
77.66101880649012
 20
48.2818431714844
 30
0.0
  0
VERTEX
  5
15A
330
158
100
AcDbEntity
  8
DIBUJOS
 62
     7
100
AcDbVertex
100
AcDb2dVertex
 10
77.65539802562334
 20
48.2818431714844
 30
0.0
  0
SEQEND
  5
15B
330
158
100
AcDbEntity
  8
DIBUJOS
 62
     7
  0
POLYLINE
  5
15C
330
BA
100
AcDbEntity
  8
DIBUJOS
 62
     7
100
AcDb2dPolyline
 66
     1
 10
0.0
 20
0.0
 30
0.0
  0
VERTEX
  5
15D
330
15C
100
AcDbEntity
  8
DIBUJOS
 62
     7
100
AcDbVertex
100
AcDb2dVertex
 10
77.66101880649012
 20
48.2818431714844
 30
0.0
  0
VERTEX
  5
15E
330
15C
100
AcDbEntity
  8
DIBUJOS
 62
     7
100
AcDbVertex
100
AcDb2dVertex
 10
77.66101880649012
 20
48.28746395235117
 30
0.0
  0
SEQEND
  5
15F
330
15C
100
AcDbEntity
  8
DIBUJOS
 62
     7
  0
POLYLINE
  5
160
330
BA
100
AcDbEntity
  8
DIBUJOS
 62
     7
100
AcDb2dPolyline
 66
     1
 10
0.0
 20
0.0
 30
0.0
  0
VERTEX
  5
161
330
160
100
AcDbEntity
  8
DIBUJOS
 62
     7
100
AcDbVertex
100
AcDb2dVertex
 10
77.66101880649012
 20
48.27622239061763
 30
0.0
  0
VERTEX
  5
162
330
160
100
AcDbEntity
  8
DIBUJOS
 62
     7
100
AcDbVertex
100
AcDb2dVertex
 10
77.66101880649012
 20
48.2818431714844
 30
0.0
  0
SEQEND
  5
163
330
160
100
AcDbEntity
  8
DIBUJOS
 62
     7
  0
POLYLINE
  5
164
330
BA
100
AcDbEntity
  8
DIBUJOS
 62
     7
100
AcDb2dPolyline
 66
     1
 10
0.0
 20
0.0
 30
0.0
  0
VERTEX
  5
165
330
164
100
AcDbEntity
  8
DIBUJOS
 62
     7
100
AcDbVertex
100
AcDb2dVertex
 10
78.3803668258244
 20
48.27622239061763
 30
0.0
  0
VERTEX
  5
166
330
164
100
AcDbEntity
  8
DIBUJOS
 62
     7
100
AcDbVertex
100
AcDb2dVertex
 10
78.3803668258244
 20
48.30432326977272
 30
0.0
  0
SEQEND
  5
167
330
164
100
AcDbEntity
  8
DIBUJOS
 62
     7
  0
POLYLINE
  5
168
330
BA
100
AcDbEntity
  8
DIBUJOS
 62
     7
100
AcDb2dPolyline
 66
     1
 10
0.0
 20
0.0
 30
0.0
  0
VERTEX
  5
169
330
168
100
AcDbEntity
  8
DIBUJOS
 62
     7
100
AcDbVertex
100
AcDb2dVertex
 10
78.3803668258244
 20
48.27060463492932
 30
0.0
  0
VERTEX
  5
16A
330
168
100
AcDbEntity
  8
DIBUJOS
 62
     7
100
AcDbVertex
100
AcDb2dVertex
 10
78.3803668258244
 20
48.27622239061763
 30
0.0
  0
SEQEND
  5
16B
330
168
100
AcDbEntity
  8
DIBUJOS
 62
     7
  0
POLYLINE
  5
16C
330
BA
100
AcDbEntity
  8
DIBUJOS
 62
     7
100
AcDb2dPolyline
 66
     1
 10
0.0
 20
0.0
 30
0.0
  0
VERTEX
  5
16D
330
16C
100
AcDbEntity
  8
DIBUJOS
 62
     7
100
AcDbVertex
100
AcDb2dVertex
 10
78.38598760669052
 20
48.27060463492932
 30
0.0
  0
VERTEX
  5
16E
330
16C
100
AcDbEntity
  8
DIBUJOS
 62
     7
100
AcDbVertex
100
AcDb2dVertex
 10
78.3803668258244
 20
48.27060463492932
 30
0.0
  0
SEQEND
  5
16F
330
16C
100
AcDbEntity
  8
DIBUJOS
 62
     7
  0
POLYLINE
  5
170
330
BA
100
AcDbEntity
  8
DIBUJOS
 62
     7
100
AcDb2dPolyline
 66
     1
 10
0.0
 20
0.0
 30
0.0
  0
VERTEX
  5
171
330
170
100
AcDbEntity
  8
DIBUJOS
 62
     7
100
AcDbVertex
100
AcDb2dVertex
 10
78.3803668258244
 20
48.26498385406254
 30
0.0
  0
VERTEX
  5
172
330
170
100
AcDbEntity
  8
DIBUJOS
 62
     7
100
AcDbVertex
100
AcDb2dVertex
 10
78.3803668258244
 20
48.27060463492932
 30
0.0
  0
SEQEND
  5
173
330
170
100
AcDbEntity
  8
DIBUJOS
 62
     7
  0
POLYLINE
  5
174
330
BA
100
AcDbEntity
  8
DIBUJOS
 62
     7
100
AcDb2dPolyline
 66
     1
 10
0.0
 20
0.0
 30
0.0
  0
VERTEX
  5
175
330
174
100
AcDbEntity
  8
DIBUJOS
 62
     7
100
AcDbVertex
100
AcDb2dVertex
 10
77.66101880649012
 20
48.27622239061763
 30
0.0
  0
VERTEX
  5
176
330
174
100
AcDbEntity
  8
DIBUJOS
 62
     7
100
AcDbVertex
100
AcDb2dVertex
 10
77.66943182672205
 20
47.24779495236142
 30
0.0
  0
VERTEX
  5
177
330
174
100
AcDbEntity
  8
DIBUJOS
 62
     7
100
AcDbVertex
100
AcDb2dVertex
 10
77.68479368099524
 20
47.15872463424796
 30
0.0
  0
VERTEX
  5
178
330
174
100
AcDbEntity
  8
DIBUJOS
 62
     7
100
AcDbVertex
100
AcDb2dVertex
 10
77.69586280757805
 20
47.14156279901867
 30
0.0
  0
VERTEX
  5
179
330
174
100
AcDbEntity
  8
DIBUJOS
 62
     7
100
AcDbVertex
100
AcDb2dVertex
 10
77.73407685704368
 20
47.09604294449776
 30
0.0
  0
VERTEX
  5
17A
330
174
100
AcDbEntity
  8
DIBUJOS
 62
     7
100
AcDbVertex
100
AcDb2dVertex
 10
77.75180137539508
 20
47.08609918415949
 30
0.0
  0
VERTEX
  5
17B
330
174
100
AcDbEntity
  8
DIBUJOS
 62
     7
100
AcDbVertex
100
AcDb2dVertex
 10
77.801852946675
 20
47.07030170424306
 30
0.0
  0
VERTEX
  5
17C
330
174
100
AcDbEntity
  8
DIBUJOS
 62
     7
100
AcDbVertex
100
AcDb2dVertex
 10
77.84085656761815
 20
47.06232128447654
 30
0.0
  0
VERTEX
  5
17D
330
174
100
AcDbEntity
  8
DIBUJOS
 62
     7
100
AcDbVertex
100
AcDb2dVertex
 10
78.20648866550702
 20
47.06558242644325
 30
0.0
  0
VERTEX
  5
17E
330
174
100
AcDbEntity
  8
DIBUJOS
 62
     7
100
AcDbVertex
100
AcDb2dVertex
 10
78.24592186173776
 20
47.07139984388463
 30
0.0
  0
VERTEX
  5
17F
330
174
100
AcDbEntity
  8
DIBUJOS
 62
     7
100
AcDbVertex
100
AcDb2dVertex
 10
78.28958425691943
 20
47.08609918415949
 30
0.0
  0
VERTEX
  5
180
330
174
100
AcDbEntity
  8
DIBUJOS
 62
     7
100
AcDbVertex
100
AcDb2dVertex
 10
78.3410274101139
 20
47.12976157934115
 30
0.0
  0
VERTEX
  5
181
330
174
100
AcDbEntity
  8
DIBUJOS
 62
     7
100
AcDbVertex
100
AcDb2dVertex
 10
78.35676438646935
 20
47.15842211643989
 30
0.0
  0
VERTEX
  5
182
330
174
100
AcDbEntity
  8
DIBUJOS
 62
     7
100
AcDbVertex
100
AcDb2dVertex
 10
78.36549202522066
 20
47.18546418326833
 30
0.0
  0
VERTEX
  5
183
330
174
100
AcDbEntity
  8
DIBUJOS
 62
     7
100
AcDbVertex
100
AcDb2dVertex
 10
78.37195380559245
 20
47.23093563493956
 30
0.0
  0
VERTEX
  5
184
330
174
100
AcDbEntity
  8
DIBUJOS
 62
     7
100
AcDbVertex
100
AcDb2dVertex
 10
78.3803668258244
 20
48.26498385406254
 30
0.0
  0
SEQEND
  5
185
330
174
100
AcDbEntity
  8
DIBUJOS
 62
     7
  0
POLYLINE
  5
186
330
BA
100
AcDbEntity
  8
DIBUJOS
 62
     7
100
AcDb2dPolyline
 66
     1
 10
0.0
 20
0.0
 30
0.0
  0
VERTEX
  5
187
330
186
100
AcDbEntity
  8
DIBUJOS
 62
     7
100
AcDbVertex
100
AcDb2dVertex
 10
77.65539802562334
 20
48.2818431714844
 30
0.0
  0
VERTEX
  5
188
330
186
100
AcDbEntity
  8
DIBUJOS
 62
     7
100
AcDbVertex
100
AcDb2dVertex
 10
77.61328754679566
 20
48.24646371387701
 30
0.0
  0
VERTEX
  5
189
330
186
100
AcDbEntity
  8
DIBUJOS
 62
     7
100
AcDbVertex
100
AcDb2dVertex
 10
77.59356943609139
 20
48.23968428980705
 30
0.0
  0
VERTEX
  5
18A
330
186
100
AcDbEntity
  8
DIBUJOS
 62
     7
100
AcDbVertex
100
AcDb2dVertex
 10
75.92447583509875
 20
48.23408468518665
 30
0.0
  0
VERTEX
  5
18B
330
186
100
AcDbEntity
  8
DIBUJOS
 62
     7
100
AcDbVertex
100
AcDb2dVertex
 10
75.88006924611012
 20
48.21890131641952
 30
0.0
  0
VERTEX
  5
18C
330
186
100
AcDbEntity
  8
DIBUJOS
 62
     7
100
AcDbVertex
100
AcDb2dVertex
 10
75.87332309899912
 20
48.21552824286402
 30
0.0
  0
VERTEX
  5
18D
330
186
100
AcDbEntity
  8
DIBUJOS
 62
     7
100
AcDbVertex
100
AcDb2dVertex
 10
75.8120662681234
 20
48.15820716866623
 30
0.0
  0
VERTEX
  5
18E
330
186
100
AcDbEntity
  8
DIBUJOS
 62
     7
100
AcDbVertex
100
AcDb2dVertex
 10
75.7850907552135
 20
48.11268428896749
 30
0.0
  0
VERTEX
  5
18F
330
186
100
AcDbEntity
  8
DIBUJOS
 62
     7
100
AcDbVertex
100
AcDb2dVertex
 10
75.77946997434672
 20
48.10144575241241
 30
0.0
  0
VERTEX
  5
190
330
186
100
AcDbEntity
  8
DIBUJOS
 62
     7
100
AcDbVertex
100
AcDb2dVertex
 10
75.75223127094368
 20
48.02283347490997
 30
0.0
  0
VERTEX
  5
191
330
186
100
AcDbEntity
  8
DIBUJOS
 62
     7
100
AcDbVertex
100
AcDb2dVertex
 10
75.74826526248526
 20
48.00696339071936
 30
0.0
  0
VERTEX
  5
192
330
186
100
AcDbEntity
  8
DIBUJOS
 62
     7
100
AcDbVertex
100
AcDb2dVertex
 10
75.73900821757047
 20
47.95588930924957
 30
0.0
  0
VERTEX
  5
193
330
186
100
AcDbEntity
  8
DIBUJOS
 62
     7
100
AcDbVertex
100
AcDb2dVertex
 10
75.73900821757047
 20
43.99947066514623
 30
0.0
  0
VERTEX
  5
194
330
186
100
AcDbEntity
  8
DIBUJOS
 62
     7
100
AcDbVertex
100
AcDb2dVertex
 10
75.76317334004698
 20
43.89887441856034
 30
0.0
  0
VERTEX
  5
195
330
186
100
AcDbEntity
  8
DIBUJOS
 62
     7
100
AcDbVertex
100
AcDb2dVertex
 10
75.76598373048037
 20
43.89212827144934
 30
0.0
  0
VERTEX
  5
196
330
186
100
AcDbEntity
  8
DIBUJOS
 62
     7
100
AcDbVertex
100
AcDb2dVertex
 10
75.8120662681234
 20
43.80839134228498
 30
0.0
  0
VERTEX
  5
197
330
186
100
AcDbEntity
  8
DIBUJOS
 62
     7
100
AcDbVertex
100
AcDb2dVertex
 10
75.8682650012551
 20
43.7521926091536
 30
0.0
  0
VERTEX
  5
198
330
186
100
AcDbEntity
  8
DIBUJOS
 62
     7
100
AcDbVertex
100
AcDb2dVertex
 10
75.93008451525358
 20
43.72971251086528
 30
0.0
  0
VERTEX
  5
199
330
186
100
AcDbEntity
  8
DIBUJOS
 62
     7
100
AcDbVertex
100
AcDb2dVertex
 10
80.1056803361948
 20
43.72971251086528
 30
0.0
  0
VERTEX
  5
19A
330
186
100
AcDbEntity
  8
DIBUJOS
 62
     7
100
AcDbVertex
100
AcDb2dVertex
 10
80.15569863051543
 20
43.74769719453169
 30
0.0
  0
VERTEX
  5
19B
330
186
100
AcDbEntity
  8
DIBUJOS
 62
     7
100
AcDbVertex
100
AcDb2dVertex
 10
80.19675029701678
 20
43.77891098192728
 30
0.0
  0
VERTEX
  5
19C
330
186
100
AcDbEntity
  8
DIBUJOS
 62
     7
100
AcDbVertex
100
AcDb2dVertex
 10
80.23359091563543
 20
43.82064331349614
 30
0.0
  0
VERTEX
  5
19D
330
186
100
AcDbEntity
  8
DIBUJOS
 62
     7
100
AcDbVertex
100
AcDb2dVertex
 10
80.24747648300729
 20
43.84124780137665
 30
0.0
  0
VERTEX
  5
19E
330
186
100
AcDbEntity
  8
DIBUJOS
 62
     7
100
AcDbVertex
100
AcDb2dVertex
 10
80.28188183327417
 20
43.920295704522
 30
0.0
  0
VERTEX
  5
19F
330
186
100
AcDbEntity
  8
DIBUJOS
 62
     7
100
AcDbVertex
100
AcDb2dVertex
 10
80.28750261414093
 20
43.94277580281
 30
0.0
  0
VERTEX
  5
1A0
330
186
100
AcDbEntity
  8
DIBUJOS
 62
     7
100
AcDbVertex
100
AcDb2dVertex
 10
80.30237741474403
 20
44.0163299825681
 30
0.0
  0
VERTEX
  5
1A1
330
186
100
AcDbEntity
  8
DIBUJOS
 62
     7
100
AcDbVertex
100
AcDb2dVertex
 10
80.30237741474403
 20
47.93902999182771
 30
0.0
  0
VERTEX
  5
1A2
330
186
100
AcDbEntity
  8
DIBUJOS
 62
     7
100
AcDbVertex
100
AcDb2dVertex
 10
80.29425481160823
 20
47.99497763517949
 30
0.0
  0
VERTEX
  5
1A3
330
186
100
AcDbEntity
  8
DIBUJOS
 62
     7
100
AcDbVertex
100
AcDb2dVertex
 10
80.27315419452286
 20
48.07334487325732
 30
0.0
  0
VERTEX
  5
1A4
330
186
100
AcDbEntity
  8
DIBUJOS
 62
     7
100
AcDbVertex
100
AcDb2dVertex
 10
80.26978112096737
 20
48.0800879951905
 30
0.0
  0
VERTEX
  5
1A5
330
186
100
AcDbEntity
  8
DIBUJOS
 62
     7
100
AcDbVertex
100
AcDb2dVertex
 10
80.23359091563543
 20
48.14595519745507
 30
0.0
  0
VERTEX
  5
1A6
330
186
100
AcDbEntity
  8
DIBUJOS
 62
     7
100
AcDbVertex
100
AcDb2dVertex
 10
80.21942703188002
 20
48.16483835901029
 30
0.0
  0
VERTEX
  5
1A7
330
186
100
AcDbEntity
  8
DIBUJOS
 62
     7
100
AcDbVertex
100
AcDb2dVertex
 10
80.18537260227025
 20
48.19889278862006
 30
0.0
  0
VERTEX
  5
1A8
330
186
100
AcDbEntity
  8
DIBUJOS
 62
     7
100
AcDbVertex
100
AcDb2dVertex
 10
80.15120321589353
 20
48.22114902373079
 30
0.0
  0
VERTEX
  5
1A9
330
186
100
AcDbEntity
  8
DIBUJOS
 62
     7
100
AcDbVertex
100
AcDb2dVertex
 10
80.11129204152681
 20
48.23408468518665
 30
0.0
  0
VERTEX
  5
1AA
330
186
100
AcDbEntity
  8
DIBUJOS
 62
     7
100
AcDbVertex
100
AcDb2dVertex
 10
78.43657463449021
 20
48.23968428980705
 30
0.0
  0
VERTEX
  5
1AB
330
186
100
AcDbEntity
  8
DIBUJOS
 62
     7
100
AcDbVertex
100
AcDb2dVertex
 10
78.41645417510132
 20
48.24629430390475
 30
0.0
  0
VERTEX
  5
1AC
330
186
100
AcDbEntity
  8
DIBUJOS
 62
     7
100
AcDbVertex
100
AcDb2dVertex
 10
78.38598760669052
 20
48.27060463492932
 30
0.0
  0
SEQEND
  5
1AD
330
186
100
AcDbEntity
  8
DIBUJOS
 62
     7
  0
POLYLINE
  5
1AE
330
BA
100
AcDbEntity
  8
DIBUJOS
 62
     7
100
AcDb2dPolyline
 66
     1
 10
0.0
 20
0.0
 30
0.0
  0
VERTEX
  5
1AF
330
1AE
100
AcDbEntity
  8
DIBUJOS
 62
     7
100
AcDbVertex
100
AcDb2dVertex
 10
75.96380315009665
 20
43.67913455860003
 30
0.0
  0
VERTEX
  5
1B0
330
1AE
100
AcDbEntity
  8
DIBUJOS
 62
     7
100
AcDbVertex
100
AcDb2dVertex
 10
75.96380315009665
 20
43.69599387602221
 30
0.0
  0
SEQEND
  5
1B1
330
1AE
100
AcDbEntity
  8
DIBUJOS
 62
     7
  0
POLYLINE
  5
1B2
330
BA
100
AcDbEntity
  8
DIBUJOS
 62
     7
100
AcDb2dPolyline
 66
     1
 10
0.0
 20
0.0
 30
0.0
  0
VERTEX
  5
1B3
330
1B2
100
AcDbEntity
  8
DIBUJOS
 62
     7
100
AcDbVertex
100
AcDb2dVertex
 10
80.07758248221785
 20
43.67913455860003
 30
0.0
  0
VERTEX
  5
1B4
330
1B2
100
AcDbEntity
  8
DIBUJOS
 62
     7
100
AcDbVertex
100
AcDb2dVertex
 10
80.07758248221785
 20
43.69599387602221
 30
0.0
  0
SEQEND
  5
1B5
330
1B2
100
AcDbEntity
  8
DIBUJOS
 62
     7
  0
POLYLINE
  5
1B6
330
BA
100
AcDbEntity
  8
DIBUJOS
 62
     7
100
AcDb2dPolyline
 66
     1
 10
0.0
 20
0.0
 30
0.0
  0
VERTEX
  5
1B7
330
1B6
100
AcDbEntity
  8
DIBUJOS
 62
     7
100
AcDbVertex
100
AcDb2dVertex
 10
77.08778688826297
 20
48.34928346634901
 30
0.0
  0
VERTEX
  5
1B8
330
1B6
100
AcDbEntity
  8
DIBUJOS
 62
     7
100
AcDbVertex
100
AcDb2dVertex
 10
77.0816064494519
 20
48.34478805172711
 30
0.0
  0
VERTEX
  5
1B9
330
1B6
100
AcDbEntity
  8
DIBUJOS
 62
     7
100
AcDbVertex
100
AcDb2dVertex
 10
75.91846480626059
 20
48.33470210801924
 30
0.0
  0
VERTEX
  5
1BA
330
1B6
100
AcDbEntity
  8
DIBUJOS
 62
     7
100
AcDbVertex
100
AcDb2dVertex
 10
75.89112627198101
 20
48.33014618983572
 30
0.0
  0
VERTEX
  5
1BB
330
1B6
100
AcDbEntity
  8
DIBUJOS
 62
     7
100
AcDbVertex
100
AcDb2dVertex
 10
75.82948826866736
 20
48.30320092870599
 30
0.0
  0
VERTEX
  5
1BC
330
1B6
100
AcDbEntity
  8
DIBUJOS
 62
     7
100
AcDbVertex
100
AcDb2dVertex
 10
75.76710909672524
 20
48.25936307319609
 30
0.0
  0
VERTEX
  5
1BD
330
1B6
100
AcDbEntity
  8
DIBUJOS
 62
     7
100
AcDbVertex
100
AcDb2dVertex
 10
75.70416421648189
 20
48.17562614403205
 30
0.0
  0
VERTEX
  5
1BE
330
1B6
100
AcDbEntity
  8
DIBUJOS
 62
     7
100
AcDbVertex
100
AcDb2dVertex
 10
75.68730489906068
 20
48.13628672832188
 30
0.0
  0
VERTEX
  5
1BF
330
1B6
100
AcDbEntity
  8
DIBUJOS
 62
     7
100
AcDbVertex
100
AcDb2dVertex
 10
75.6623139029689
 20
48.06779064630845
 30
0.0
  0
VERTEX
  5
1C0
330
1B6
100
AcDbEntity
  8
DIBUJOS
 62
     7
100
AcDbVertex
100
AcDb2dVertex
 10
75.65834486933201
 20
48.05192358729597
 30
0.0
  0
VERTEX
  5
1C1
330
1B6
100
AcDbEntity
  8
DIBUJOS
 62
     7
100
AcDbVertex
100
AcDb2dVertex
 10
75.64613827579238
 20
47.97824235005869
 30
0.0
  0
VERTEX
  5
1C2
330
1B6
100
AcDbEntity
  8
DIBUJOS
 62
     7
100
AcDbVertex
100
AcDb2dVertex
 10
75.64079883648634
 20
47.86609597357617
 30
0.0
  0
VERTEX
  5
1C3
330
1B6
100
AcDbEntity
  8
DIBUJOS
 62
     7
100
AcDbVertex
100
AcDb2dVertex
 10
75.63784928786214
 20
47.43885612415381
 30
0.0
  0
VERTEX
  5
1C4
330
1B6
100
AcDbEntity
  8
DIBUJOS
 62
     7
100
AcDbVertex
100
AcDb2dVertex
 10
75.63784928786214
 20
46.84314713281649
 30
0.0
  0
VERTEX
  5
1C5
330
1B6
100
AcDbEntity
  8
DIBUJOS
 62
     7
100
AcDbVertex
100
AcDb2dVertex
 10
75.64091076807546
 20
44.03297451234616
 30
0.0
  0
VERTEX
  5
1C6
330
1B6
100
AcDbEntity
  8
DIBUJOS
 62
     7
100
AcDbVertex
100
AcDb2dVertex
 10
75.64602634420326
 20
43.97158457363494
 30
0.0
  0
VERTEX
  5
1C7
330
1B6
100
AcDbEntity
  8
DIBUJOS
 62
     7
100
AcDbVertex
100
AcDb2dVertex
 10
75.65669312210213
 20
43.91566718206462
 30
0.0
  0
VERTEX
  5
1C8
330
1B6
100
AcDbEntity
  8
DIBUJOS
 62
     7
100
AcDbVertex
100
AcDb2dVertex
 10
75.65864436196162
 20
43.90898758887087
 30
0.0
  0
VERTEX
  5
1C9
330
1B6
100
AcDbEntity
  8
DIBUJOS
 62
     7
100
AcDbVertex
100
AcDb2dVertex
 10
75.70079114292703
 20
43.79771548885233
 30
0.0
  0
VERTEX
  5
1CA
330
1B6
100
AcDbEntity
  8
DIBUJOS
 62
     7
100
AcDbVertex
100
AcDb2dVertex
 10
75.74333119704166
 20
43.73446809080188
 30
0.0
  0
VERTEX
  5
1CB
330
1B6
100
AcDbEntity
  8
DIBUJOS
 62
     7
100
AcDbVertex
100
AcDb2dVertex
 10
75.81150358500128
 20
43.67239143666718
 30
0.0
  0
VERTEX
  5
1CC
330
1B6
100
AcDbEntity
  8
DIBUJOS
 62
     7
100
AcDbVertex
100
AcDb2dVertex
 10
75.82274514673419
 20
43.66677065580072
 30
0.0
  0
VERTEX
  5
1CD
330
1B6
100
AcDbEntity
  8
DIBUJOS
 62
     7
100
AcDbVertex
100
AcDb2dVertex
 10
75.89636588040986
 20
43.6285566063351
 30
0.0
  0
VERTEX
  5
1CE
330
1B6
100
AcDbEntity
  8
DIBUJOS
 62
     7
100
AcDbVertex
100
AcDb2dVertex
 10
80.14551588110885
 20
43.63219287038343
 30
0.0
  0
VERTEX
  5
1CF
330
1B6
100
AcDbEntity
  8
DIBUJOS
 62
     7
100
AcDbVertex
100
AcDb2dVertex
 10
80.19458729469228
 20
43.65238290886772
 30
0.0
  0
VERTEX
  5
1D0
330
1B6
100
AcDbEntity
  8
DIBUJOS
 62
     7
100
AcDbVertex
100
AcDb2dVertex
 10
80.22830895471319
 20
43.67486300715571
 30
0.0
  0
VERTEX
  5
1D1
330
1B6
100
AcDbEntity
  8
DIBUJOS
 62
     7
100
AcDbVertex
100
AcDb2dVertex
 10
80.30237741474403
 20
43.74095407259851
 30
0.0
  0
VERTEX
  5
1D2
330
1B6
100
AcDbEntity
  8
DIBUJOS
 62
     7
100
AcDbVertex
100
AcDb2dVertex
 10
80.32355971163771
 20
43.77553790837177
 30
0.0
  0
VERTEX
  5
1D3
330
1B6
100
AcDbEntity
  8
DIBUJOS
 62
     7
100
AcDbVertex
100
AcDb2dVertex
 10
80.3681296602423
 20
43.8651527585388
 30
0.0
  0
VERTEX
  5
1D4
330
1B6
100
AcDbEntity
  8
DIBUJOS
 62
     7
100
AcDbVertex
100
AcDb2dVertex
 10
80.37150273379781
 20
43.8752689540278
 30
0.0
  0
VERTEX
  5
1D5
330
1B6
100
AcDbEntity
  8
DIBUJOS
 62
     7
100
AcDbVertex
100
AcDb2dVertex
 10
80.39791556358558
 20
43.99947066514623
 30
0.0
  0
VERTEX
  5
1D6
330
1B6
100
AcDbEntity
  8
DIBUJOS
 62
     7
100
AcDbVertex
100
AcDb2dVertex
 10
80.39791556358558
 20
47.96151009011634
 30
0.0
  0
VERTEX
  5
1D7
330
1B6
100
AcDbEntity
  8
DIBUJOS
 62
     7
100
AcDbVertex
100
AcDb2dVertex
 10
80.38979296044978
 20
48.01745773346812
 30
0.0
  0
VERTEX
  5
1D8
330
1B6
100
AcDbEntity
  8
DIBUJOS
 62
     7
100
AcDbVertex
100
AcDb2dVertex
 10
80.3597015141206
 20
48.11942741090035
 30
0.0
  0
VERTEX
  5
1D9
330
1B6
100
AcDbEntity
  8
DIBUJOS
 62
     7
100
AcDbVertex
100
AcDb2dVertex
 10
80.31226974705513
 20
48.20777471145355
 30
0.0
  0
VERTEX
  5
1DA
330
1B6
100
AcDbEntity
  8
DIBUJOS
 62
     7
100
AcDbVertex
100
AcDb2dVertex
 10
80.29810586329971
 20
48.22665787300845
 30
0.0
  0
VERTEX
  5
1DB
330
1B6
100
AcDbEntity
  8
DIBUJOS
 62
     7
100
AcDbVertex
100
AcDb2dVertex
 10
80.24718909109026
 20
48.2775716200404
 30
0.0
  0
VERTEX
  5
1DC
330
1B6
100
AcDbEntity
  8
DIBUJOS
 62
     7
100
AcDbVertex
100
AcDb2dVertex
 10
80.22426126644645
 20
48.29420707428403
 30
0.0
  0
VERTEX
  5
1DD
330
1B6
100
AcDbEntity
  8
DIBUJOS
 62
     7
100
AcDbVertex
100
AcDb2dVertex
 10
80.14464160464519
 20
48.33014618983572
 30
0.0
  0
VERTEX
  5
1DE
330
1B6
100
AcDbEntity
  8
DIBUJOS
 62
     7
100
AcDbVertex
100
AcDb2dVertex
 10
79.0443813129565
 20
48.34496048687752
 30
0.0
  0
VERTEX
  5
1DF
330
1B6
100
AcDbEntity
  8
DIBUJOS
 62
     7
100
AcDbVertex
100
AcDb2dVertex
 10
79.03227757547124
 20
48.35490424721579
 30
0.0
  0
SEQEND
  5
1E0
330
1B6
100
AcDbEntity
  8
DIBUJOS
 62
     7
  0
ENDBLK
  5
BD
330
BA
100
AcDbEntity
  8
0
100
AcDbBlockEnd
  0
BLOCK
  5
1E3
330
1E1
100
AcDbEntity
  8
0
100
AcDbBlockBegin
  2
BLOCK_4
 70
     0
 10
0.0
 20
0.0
 30
0.0
  3
BLOCK_4
  1

  0
POLYLINE
  5
1E5
330
1E1
100
AcDbEntity
  8
DIBUJOS
 62
     7
100
AcDb2dPolyline
 66
     1
 10
0.0
 20
0.0
 30
0.0
  0
VERTEX
  5
1E6
330
1E5
100
AcDbEntity
  8
DIBUJOS
 62
     7
100
AcDbVertex
100
AcDb2dVertex
 10
65.61754286874039
 20
35.62631033845332
 30
0.0
  0
VERTEX
  5
1E7
330
1E5
100
AcDbEntity
  8
DIBUJOS
 62
     7
100
AcDbVertex
100
AcDb2dVertex
 10
65.61192360046284
 20
35.62631033845332
 30
0.0
  0
SEQEND
  5
1E8
330
1E5
100
AcDbEntity
  8
DIBUJOS
 62
     7
  0
POLYLINE
  5
1E9
330
1E1
100
AcDbEntity
  8
DIBUJOS
 62
     7
100
AcDb2dPolyline
 66
     1
 10
0.0
 20
0.0
 30
0.0
  0
VERTEX
  5
1EA
330
1E9
100
AcDbEntity
  8
DIBUJOS
 62
     7
100
AcDbVertex
100
AcDb2dVertex
 10
65.61754286874039
 20
35.62631033845332
 30
0.0
  0
VERTEX
  5
1EB
330
1E9
100
AcDbEntity
  8
DIBUJOS
 62
     7
100
AcDbVertex
100
AcDb2dVertex
 10
65.61754286874039
 20
35.63193111932009
 30
0.0
  0
SEQEND
  5
1EC
330
1E9
100
AcDbEntity
  8
DIBUJOS
 62
     7
  0
POLYLINE
  5
1ED
330
1E1
100
AcDbEntity
  8
DIBUJOS
 62
     7
100
AcDb2dPolyline
 66
     1
 10
0.0
 20
0.0
 30
0.0
  0
VERTEX
  5
1EE
330
1ED
100
AcDbEntity
  8
DIBUJOS
 62
     7
100
AcDbVertex
100
AcDb2dVertex
 10
61.33516884981331
 20
35.615070289309
 30
0.0
  0
VERTEX
  5
1EF
330
1ED
100
AcDbEntity
  8
DIBUJOS
 62
     7
100
AcDbVertex
100
AcDb2dVertex
 10
61.35259085035728
 20
35.62518648479767
 30
0.0
  0
VERTEX
  5
1F0
330
1ED
100
AcDbEntity
  8
DIBUJOS
 62
     7
100
AcDbVertex
100
AcDb2dVertex
 10
61.45936904834283
 20
35.66958399825219
 30
0.0
  0
VERTEX
  5
1F1
330
1ED
100
AcDbEntity
  8
DIBUJOS
 62
     7
100
AcDbVertex
100
AcDb2dVertex
 10
61.49203038344849
 20
35.6788743201256
 30
0.0
  0
VERTEX
  5
1F2
330
1ED
100
AcDbEntity
  8
DIBUJOS
 62
     7
100
AcDbVertex
100
AcDb2dVertex
 10
61.56558531950088
 20
35.69374912072934
 30
0.0
  0
VERTEX
  5
1F3
330
1ED
100
AcDbEntity
  8
DIBUJOS
 62
     7
100
AcDbVertex
100
AcDb2dVertex
 10
65.39274642362466
 20
35.69374912072934
 30
0.0
  0
VERTEX
  5
1F4
330
1ED
100
AcDbEntity
  8
DIBUJOS
 62
     7
100
AcDbVertex
100
AcDb2dVertex
 10
65.46537338630203
 20
35.68034909443834
 30
0.0
  0
VERTEX
  5
1F5
330
1ED
100
AcDbEntity
  8
DIBUJOS
 62
     7
100
AcDbVertex
100
AcDb2dVertex
 10
65.57764228249734
 20
35.64204580221953
 30
0.0
  0
VERTEX
  5
1F6
330
1ED
100
AcDbEntity
  8
DIBUJOS
 62
     7
100
AcDbVertex
100
AcDb2dVertex
 10
65.61192360046284
 20
35.62631033845332
 30
0.0
  0
SEQEND
  5
1F7
330
1ED
100
AcDbEntity
  8
DIBUJOS
 62
     7
  0
POLYLINE
  5
1F8
330
1E1
100
AcDbEntity
  8
DIBUJOS
 62
     7
100
AcDb2dPolyline
 66
     1
 10
0.0
 20
0.0
 30
0.0
  0
VERTEX
  5
1F9
330
1F8
100
AcDbEntity
  8
DIBUJOS
 62
     7
100
AcDbVertex
100
AcDb2dVertex
 10
65.69060243188254
 20
35.55887155617793
 30
0.0
  0
VERTEX
  5
1FA
330
1F8
100
AcDbEntity
  8
DIBUJOS
 62
     7
100
AcDbVertex
100
AcDb2dVertex
 10
65.61754286874039
 20
35.62631033845332
 30
0.0
  0
SEQEND
  5
1FB
330
1F8
100
AcDbEntity
  8
DIBUJOS
 62
     7
  0
POLYLINE
  5
1FC
330
1E1
100
AcDbEntity
  8
DIBUJOS
 62
     7
100
AcDb2dPolyline
 66
     1
 10
0.0
 20
0.0
 30
0.0
  0
VERTEX
  5
1FD
330
1FC
100
AcDbEntity
  8
DIBUJOS
 62
     7
100
AcDbVertex
100
AcDb2dVertex
 10
65.69060243188254
 20
35.55887155617793
 30
0.0
  0
VERTEX
  5
1FE
330
1FC
100
AcDbEntity
  8
DIBUJOS
 62
     7
100
AcDbVertex
100
AcDb2dVertex
 10
65.838016334384
 20
35.70974474981024
 30
0.0
  0
VERTEX
  5
1FF
330
1FC
100
AcDbEntity
  8
DIBUJOS
 62
     7
100
AcDbVertex
100
AcDb2dVertex
 10
65.84796009472258
 20
35.7218499998841
 30
0.0
  0
VERTEX
  5
200
330
1FC
100
AcDbEntity
  8
DIBUJOS
 62
     7
100
AcDbVertex
100
AcDb2dVertex
 10
65.8423393138558
 20
35.77242795214903
 30
0.0
  0
VERTEX
  5
201
330
1FC
100
AcDbEntity
  8
DIBUJOS
 62
     7
100
AcDbVertex
100
AcDb2dVertex
 10
65.81986072815705
 20
35.78928878216012
 30
0.0
  0
VERTEX
  5
202
330
1FC
100
AcDbEntity
  8
DIBUJOS
 62
     7
100
AcDbVertex
100
AcDb2dVertex
 10
65.7861405807241
 20
35.78928878216012
 30
0.0
  0
VERTEX
  5
203
330
1FC
100
AcDbEntity
  8
DIBUJOS
 62
     7
100
AcDbVertex
100
AcDb2dVertex
 10
65.76501273703639
 20
35.77664505038803
 30
0.0
  0
VERTEX
  5
204
330
1FC
100
AcDbEntity
  8
DIBUJOS
 62
     7
100
AcDbVertex
100
AcDb2dVertex
 10
65.61754286874039
 20
35.63193111932009
 30
0.0
  0
SEQEND
  5
205
330
1FC
100
AcDbEntity
  8
DIBUJOS
 62
     7
  0
POLYLINE
  5
206
330
1E1
100
AcDbEntity
  8
DIBUJOS
 62
     7
100
AcDb2dPolyline
 66
     1
 10
0.0
 20
0.0
 30
0.0
  0
VERTEX
  5
207
330
206
100
AcDbEntity
  8
DIBUJOS
 62
     7
100
AcDbVertex
100
AcDb2dVertex
 10
61.26211004296577
 20
35.54763150703361
 30
0.0
  0
VERTEX
  5
208
330
206
100
AcDbEntity
  8
DIBUJOS
 62
     7
100
AcDbVertex
100
AcDb2dVertex
 10
61.10053679447566
 20
35.71196674310712
 30
0.0
  0
VERTEX
  5
209
330
206
100
AcDbEntity
  8
DIBUJOS
 62
     7
100
AcDbVertex
100
AcDb2dVertex
 10
61.08789306270452
 20
35.7443285855835
 30
0.0
  0
VERTEX
  5
20A
330
206
100
AcDbEntity
  8
DIBUJOS
 62
     7
100
AcDbVertex
100
AcDb2dVertex
 10
61.08789306270452
 20
35.74994936645027
 30
0.0
  0
VERTEX
  5
20B
330
206
100
AcDbEntity
  8
DIBUJOS
 62
     7
100
AcDbVertex
100
AcDb2dVertex
 10
61.1103724046979
 20
35.78366800129335
 30
0.0
  0
VERTEX
  5
20C
330
206
100
AcDbEntity
  8
DIBUJOS
 62
     7
100
AcDbVertex
100
AcDb2dVertex
 10
61.12161245384189
 20
35.78928878216012
 30
0.0
  0
VERTEX
  5
20D
330
206
100
AcDbEntity
  8
DIBUJOS
 62
     7
100
AcDbVertex
100
AcDb2dVertex
 10
61.16151379637956
 20
35.78479185494898
 30
0.0
  0
VERTEX
  5
20E
330
206
100
AcDbEntity
  8
DIBUJOS
 62
     7
100
AcDbVertex
100
AcDb2dVertex
 10
61.33516884981331
 20
35.615070289309
 30
0.0
  0
SEQEND
  5
20F
330
206
100
AcDbEntity
  8
DIBUJOS
 62
     7
  0
POLYLINE
  5
210
330
1E1
100
AcDbEntity
  8
DIBUJOS
 62
     7
100
AcDb2dPolyline
 66
     1
 10
0.0
 20
0.0
 30
0.0
  0
VERTEX
  5
211
330
210
100
AcDbEntity
  8
DIBUJOS
 62
     7
100
AcDbVertex
100
AcDb2dVertex
 10
61.26211004296577
 20
35.54763150703361
 30
0.0
  0
VERTEX
  5
212
330
210
100
AcDbEntity
  8
DIBUJOS
 62
     7
100
AcDbVertex
100
AcDb2dVertex
 10
61.28321897929032
 20
35.57120823237426
 30
0.0
  0
VERTEX
  5
213
330
210
100
AcDbEntity
  8
DIBUJOS
 62
     7
100
AcDbVertex
100
AcDb2dVertex
 10
61.33516884981331
 20
35.615070289309
 30
0.0
  0
SEQEND
  5
214
330
210
100
AcDbEntity
  8
DIBUJOS
 62
     7
  0
POLYLINE
  5
215
330
1E1
100
AcDbEntity
  8
DIBUJOS
 62
     7
100
AcDb2dPolyline
 66
     1
 10
0.0
 20
0.0
 30
0.0
  0
VERTEX
  5
216
330
215
100
AcDbEntity
  8
DIBUJOS
 62
     7
100
AcDbVertex
100
AcDb2dVertex
 10
65.43208583933482
 20
31.24277738981855
 30
0.0
  0
VERTEX
  5
217
330
215
100
AcDbEntity
  8
DIBUJOS
 62
     7
100
AcDbVertex
100
AcDb2dVertex
 10
65.53237956811297
 20
31.27217455777904
 30
0.0
  0
VERTEX
  5
218
330
215
100
AcDbEntity
  8
DIBUJOS
 62
     7
100
AcDbVertex
100
AcDb2dVertex
 10
65.572584184753
 20
31.30459690381639
 30
0.0
  0
VERTEX
  5
219
330
215
100
AcDbEntity
  8
DIBUJOS
 62
     7
100
AcDbVertex
100
AcDb2dVertex
 10
65.58252643250172
 20
31.32232142216843
 30
0.0
  0
VERTEX
  5
21A
330
215
100
AcDbEntity
  8
DIBUJOS
 62
     7
100
AcDbVertex
100
AcDb2dVertex
 10
65.60414132986017
 20
31.38370833570149
 30
0.0
  0
VERTEX
  5
21B
330
215
100
AcDbEntity
  8
DIBUJOS
 62
     7
100
AcDbVertex
100
AcDb2dVertex
 10
65.60846430933198
 20
31.40532323305994
 30
0.0
  0
VERTEX
  5
21C
330
215
100
AcDbEntity
  8
DIBUJOS
 62
     7
100
AcDbVertex
100
AcDb2dVertex
 10
65.61473399089591
 20
32.87255275134739
 30
0.0
  0
VERTEX
  5
21D
330
215
100
AcDbEntity
  8
DIBUJOS
 62
     7
100
AcDbVertex
100
AcDb2dVertex
 10
65.61473399089591
 20
34.26067235033896
 30
0.0
  0
VERTEX
  5
21E
330
215
100
AcDbEntity
  8
DIBUJOS
 62
     7
100
AcDbVertex
100
AcDb2dVertex
 10
65.60917068841326
 20
35.35087997527841
 30
0.0
  0
VERTEX
  5
21F
330
215
100
AcDbEntity
  8
DIBUJOS
 62
     7
100
AcDbVertex
100
AcDb2dVertex
 10
65.60402486050431
 20
35.384274916068
 30
0.0
  0
VERTEX
  5
220
330
215
100
AcDbEntity
  8
DIBUJOS
 62
     7
100
AcDbVertex
100
AcDb2dVertex
 10
65.57820345303023
 20
35.45209335819206
 30
0.0
  0
VERTEX
  5
221
330
215
100
AcDbEntity
  8
DIBUJOS
 62
     7
100
AcDbVertex
100
AcDb2dVertex
 10
65.54448481818683
 20
35.48581350562437
 30
0.0
  0
VERTEX
  5
222
330
215
100
AcDbEntity
  8
DIBUJOS
 62
     7
100
AcDbVertex
100
AcDb2dVertex
 10
65.47104559519599
 20
35.51163491309846
 30
0.0
  0
VERTEX
  5
223
330
215
100
AcDbEntity
  8
DIBUJOS
 62
     7
100
AcDbVertex
100
AcDb2dVertex
 10
65.44370554832781
 20
35.51619083128198
 30
0.0
  0
VERTEX
  5
224
330
215
100
AcDbEntity
  8
DIBUJOS
 62
     7
100
AcDbVertex
100
AcDb2dVertex
 10
61.52062587921856
 20
35.51953214046808
 30
0.0
  0
VERTEX
  5
225
330
215
100
AcDbEntity
  8
DIBUJOS
 62
     7
100
AcDbVertex
100
AcDb2dVertex
 10
61.43688970634913
 20
35.49536701799094
 30
0.0
  0
VERTEX
  5
226
330
215
100
AcDbEntity
  8
DIBUJOS
 62
     7
100
AcDbVertex
100
AcDb2dVertex
 10
61.42508773037732
 20
35.49143277390191
 30
0.0
  0
VERTEX
  5
227
330
215
100
AcDbEntity
  8
DIBUJOS
 62
     7
100
AcDbVertex
100
AcDb2dVertex
 10
61.38125214375063
 20
35.44029213851486
 30
0.0
  0
VERTEX
  5
228
330
215
100
AcDbEntity
  8
DIBUJOS
 62
     7
100
AcDbVertex
100
AcDb2dVertex
 10
61.37338441186752
 20
35.42455516215941
 30
0.0
  0
VERTEX
  5
229
330
215
100
AcDbEntity
  8
DIBUJOS
 62
     7
100
AcDbVertex
100
AcDb2dVertex
 10
61.35202892352947
 20
35.33969589192865
 30
0.0
  0
VERTEX
  5
22A
330
215
100
AcDbEntity
  8
DIBUJOS
 62
     7
100
AcDbVertex
100
AcDb2dVertex
 10
61.35202892352947
 20
31.4282359318127
 30
0.0
  0
VERTEX
  5
22B
330
215
100
AcDbEntity
  8
DIBUJOS
 62
     7
100
AcDbVertex
100
AcDb2dVertex
 10
61.36000858700137
 20
31.38923231086956
 30
0.0
  0
VERTEX
  5
22C
330
215
100
AcDbEntity
  8
DIBUJOS
 62
     7
100
AcDbVertex
100
AcDb2dVertex
 10
61.36128521214963
 20
31.38277960603187
 30
0.0
  0
VERTEX
  5
22D
330
215
100
AcDbEntity
  8
DIBUJOS
 62
     7
100
AcDbVertex
100
AcDb2dVertex
 10
61.38574831466715
 20
31.31021768468316
 30
0.0
  0
VERTEX
  5
22E
330
215
100
AcDbEntity
  8
DIBUJOS
 62
     7
100
AcDbVertex
100
AcDb2dVertex
 10
61.42452580354951
 20
31.27537368359522
 30
0.0
  0
VERTEX
  5
22F
330
215
100
AcDbEntity
  8
DIBUJOS
 62
     7
100
AcDbVertex
100
AcDb2dVertex
 10
61.4929061725017
 20
31.25067612977676
 30
0.0
  0
VERTEX
  5
230
330
215
100
AcDbEntity
  8
DIBUJOS
 62
     7
100
AcDbVertex
100
AcDb2dVertex
 10
61.5202462193702
 20
31.24612021159324
 30
0.0
  0
VERTEX
  5
231
330
215
100
AcDbEntity
  8
DIBUJOS
 62
     7
100
AcDbVertex
100
AcDb2dVertex
 10
65.43208583933482
 20
31.24277738981855
 30
0.0
  0
SEQEND
  5
232
330
215
100
AcDbEntity
  8
DIBUJOS
 62
     7
  0
POLYLINE
  5
233
330
1E1
100
AcDbEntity
  8
DIBUJOS
 62
     7
100
AcDb2dPolyline
 66
     1
 10
0.0
 20
0.0
 30
0.0
  0
VERTEX
  5
234
330
233
100
AcDbEntity
  8
DIBUJOS
 62
     7
100
AcDbVertex
100
AcDb2dVertex
 10
61.25649001839329
 20
31.23153885326282
 30
0.0
  0
VERTEX
  5
235
330
233
100
AcDbEntity
  8
DIBUJOS
 62
     7
100
AcDbVertex
100
AcDb2dVertex
 10
61.23850609102151
 20
31.26469631757301
 30
0.0
  0
VERTEX
  5
236
330
233
100
AcDbEntity
  8
DIBUJOS
 62
     7
100
AcDbVertex
100
AcDb2dVertex
 10
61.19665426491896
 20
31.37253181529661
 30
0.0
  0
VERTEX
  5
237
330
233
100
AcDbEntity
  8
DIBUJOS
 62
     7
100
AcDbVertex
100
AcDb2dVertex
 10
61.1778111869736
 20
31.46195456665642
 30
0.0
  0
VERTEX
  5
238
330
233
100
AcDbEntity
  8
DIBUJOS
 62
     7
100
AcDbVertex
100
AcDb2dVertex
 10
61.18107081635107
 20
35.31193232012918
 30
0.0
  0
VERTEX
  5
239
330
233
100
AcDbEntity
  8
DIBUJOS
 62
     7
100
AcDbVertex
100
AcDb2dVertex
 10
61.20227428949112
 20
35.41225781327736
 30
0.0
  0
VERTEX
  5
23A
330
233
100
AcDbEntity
  8
DIBUJOS
 62
     7
100
AcDbVertex
100
AcDb2dVertex
 10
61.24075455462707
 20
35.50773092079088
 30
0.0
  0
VERTEX
  5
23B
330
233
100
AcDbEntity
  8
DIBUJOS
 62
     7
100
AcDbVertex
100
AcDb2dVertex
 10
61.26211004296577
 20
35.54763150703361
 30
0.0
  0
SEQEND
  5
23C
330
233
100
AcDbEntity
  8
DIBUJOS
 62
     7
  0
POLYLINE
  5
23D
330
1E1
100
AcDbEntity
  8
DIBUJOS
 62
     7
100
AcDb2dPolyline
 66
     1
 10
0.0
 20
0.0
 30
0.0
  0
VERTEX
  5
23E
330
23D
100
AcDbEntity
  8
DIBUJOS
 62
     7
100
AcDbVertex
100
AcDb2dVertex
 10
61.25649001839329
 20
31.22591807239669
 30
0.0
  0
VERTEX
  5
23F
330
23D
100
AcDbEntity
  8
DIBUJOS
 62
     7
100
AcDbVertex
100
AcDb2dVertex
 10
61.25086999382145
 20
31.22591807239669
 30
0.0
  0
SEQEND
  5
240
330
23D
100
AcDbEntity
  8
DIBUJOS
 62
     7
  0
POLYLINE
  5
241
330
1E1
100
AcDbEntity
  8
DIBUJOS
 62
     7
100
AcDb2dPolyline
 66
     1
 10
0.0
 20
0.0
 30
0.0
  0
VERTEX
  5
242
330
241
100
AcDbEntity
  8
DIBUJOS
 62
     7
100
AcDbVertex
100
AcDb2dVertex
 10
61.25649001839329
 20
31.22591807239669
 30
0.0
  0
VERTEX
  5
243
330
241
100
AcDbEntity
  8
DIBUJOS
 62
     7
100
AcDbVertex
100
AcDb2dVertex
 10
61.25649001839329
 20
31.23153885326282
 30
0.0
  0
SEQEND
  5
244
330
241
100
AcDbEntity
  8
DIBUJOS
 62
     7
  0
POLYLINE
  5
245
330
1E1
100
AcDbEntity
  8
DIBUJOS
 62
     7
100
AcDb2dPolyline
 66
     1
 10
0.0
 20
0.0
 30
0.0
  0
VERTEX
  5
246
330
245
100
AcDbEntity
  8
DIBUJOS
 62
     7
100
AcDbVertex
100
AcDb2dVertex
 10
65.70184248102686
 20
31.22591807239669
 30
0.0
  0
VERTEX
  5
247
330
245
100
AcDbEntity
  8
DIBUJOS
 62
     7
100
AcDbVertex
100
AcDb2dVertex
 10
65.72561886812089
 20
31.27001306804312
 30
0.0
  0
VERTEX
  5
248
330
245
100
AcDbEntity
  8
DIBUJOS
 62
     7
100
AcDbVertex
100
AcDb2dVertex
 10
65.76167747820658
 20
31.36129176615294
 30
0.0
  0
VERTEX
  5
249
330
245
100
AcDbEntity
  8
DIBUJOS
 62
     7
100
AcDbVertex
100
AcDb2dVertex
 10
65.7861405807241
 20
31.47881388407763
 30
0.0
  0
VERTEX
  5
24A
330
245
100
AcDbEntity
  8
DIBUJOS
 62
     7
100
AcDbVertex
100
AcDb2dVertex
 10
65.78294145490824
 20
35.30065899402688
 30
0.0
  0
VERTEX
  5
24B
330
245
100
AcDbEntity
  8
DIBUJOS
 62
     7
100
AcDbVertex
100
AcDb2dVertex
 10
65.77809965739597
 20
35.33939186153263
 30
0.0
  0
VERTEX
  5
24C
330
245
100
AcDbEntity
  8
DIBUJOS
 62
     7
100
AcDbVertex
100
AcDb2dVertex
 10
65.76197545824695
 20
35.40657199108256
 30
0.0
  0
VERTEX
  5
24D
330
245
100
AcDbEntity
  8
DIBUJOS
 62
     7
100
AcDbVertex
100
AcDb2dVertex
 10
65.71757794479308
 20
35.51335018906779
 30
0.0
  0
VERTEX
  5
24E
330
245
100
AcDbEntity
  8
DIBUJOS
 62
     7
100
AcDbVertex
100
AcDb2dVertex
 10
65.69060243188254
 20
35.55887155617793
 30
0.0
  0
SEQEND
  5
24F
330
245
100
AcDbEntity
  8
DIBUJOS
 62
     7
  0
POLYLINE
  5
250
330
1E1
100
AcDbEntity
  8
DIBUJOS
 62
     7
100
AcDb2dPolyline
 66
     1
 10
0.0
 20
0.0
 30
0.0
  0
VERTEX
  5
251
330
250
100
AcDbEntity
  8
DIBUJOS
 62
     7
100
AcDbVertex
100
AcDb2dVertex
 10
65.70184248102686
 20
31.22029880411915
 30
0.0
  0
VERTEX
  5
252
330
250
100
AcDbEntity
  8
DIBUJOS
 62
     7
100
AcDbVertex
100
AcDb2dVertex
 10
65.69622170016008
 20
31.22029880411915
 30
0.0
  0
SEQEND
  5
253
330
250
100
AcDbEntity
  8
DIBUJOS
 62
     7
  0
POLYLINE
  5
254
330
1E1
100
AcDbEntity
  8
DIBUJOS
 62
     7
100
AcDb2dPolyline
 66
     1
 10
0.0
 20
0.0
 30
0.0
  0
VERTEX
  5
255
330
254
100
AcDbEntity
  8
DIBUJOS
 62
     7
100
AcDbVertex
100
AcDb2dVertex
 10
65.70184248102686
 20
31.22029880411915
 30
0.0
  0
VERTEX
  5
256
330
254
100
AcDbEntity
  8
DIBUJOS
 62
     7
100
AcDbVertex
100
AcDb2dVertex
 10
65.70184248102686
 20
31.22591807239669
 30
0.0
  0
SEQEND
  5
257
330
254
100
AcDbEntity
  8
DIBUJOS
 62
     7
  0
POLYLINE
  5
258
330
1E1
100
AcDbEntity
  8
DIBUJOS
 62
     7
100
AcDb2dPolyline
 66
     1
 10
0.0
 20
0.0
 30
0.0
  0
VERTEX
  5
259
330
258
100
AcDbEntity
  8
DIBUJOS
 62
     7
100
AcDbVertex
100
AcDb2dVertex
 10
65.70184248102686
 20
31.21467802325237
 30
0.0
  0
VERTEX
  5
25A
330
258
100
AcDbEntity
  8
DIBUJOS
 62
     7
100
AcDbVertex
100
AcDb2dVertex
 10
65.70184248102686
 20
31.22029880411915
 30
0.0
  0
SEQEND
  5
25B
330
258
100
AcDbEntity
  8
DIBUJOS
 62
     7
  0
POLYLINE
  5
25C
330
1E1
100
AcDbEntity
  8
DIBUJOS
 62
     7
100
AcDb2dPolyline
 66
     1
 10
0.0
 20
0.0
 30
0.0
  0
VERTEX
  5
25D
330
25C
100
AcDbEntity
  8
DIBUJOS
 62
     7
100
AcDbVertex
100
AcDb2dVertex
 10
61.32392880066963
 20
31.15847929012066
 30
0.0
  0
VERTEX
  5
25E
330
25C
100
AcDbEntity
  8
DIBUJOS
 62
     7
100
AcDbVertex
100
AcDb2dVertex
 10
61.30605756118062
 20
31.1739908907093
 30
0.0
  0
VERTEX
  5
25F
330
25C
100
AcDbEntity
  8
DIBUJOS
 62
     7
100
AcDbVertex
100
AcDb2dVertex
 10
61.25649001839329
 20
31.22591807239669
 30
0.0
  0
SEQEND
  5
260
330
25C
100
AcDbEntity
  8
DIBUJOS
 62
     7
  0
POLYLINE
  5
261
330
1E1
100
AcDbEntity
  8
DIBUJOS
 62
     7
100
AcDb2dPolyline
 66
     1
 10
0.0
 20
0.0
 30
0.0
  0
VERTEX
  5
262
330
261
100
AcDbEntity
  8
DIBUJOS
 62
     7
100
AcDbVertex
100
AcDb2dVertex
 10
65.6287829178847
 20
31.15286002184313
 30
0.0
  0
VERTEX
  5
263
330
261
100
AcDbEntity
  8
DIBUJOS
 62
     7
100
AcDbVertex
100
AcDb2dVertex
 10
65.64665415737277
 20
31.16837010984252
 30
0.0
  0
VERTEX
  5
264
330
261
100
AcDbEntity
  8
DIBUJOS
 62
     7
100
AcDbVertex
100
AcDb2dVertex
 10
65.69622170016008
 20
31.22029880411915
 30
0.0
  0
SEQEND
  5
265
330
261
100
AcDbEntity
  8
DIBUJOS
 62
     7
  0
POLYLINE
  5
266
330
1E1
100
AcDbEntity
  8
DIBUJOS
 62
     7
100
AcDb2dPolyline
 66
     1
 10
0.0
 20
0.0
 30
0.0
  0
VERTEX
  5
267
330
266
100
AcDbEntity
  8
DIBUJOS
 62
     7
100
AcDbVertex
100
AcDb2dVertex
 10
65.6287829178847
 20
31.14723924097635
 30
0.0
  0
VERTEX
  5
268
330
266
100
AcDbEntity
  8
DIBUJOS
 62
     7
100
AcDbVertex
100
AcDb2dVertex
 10
65.62316364960684
 20
31.14723924097635
 30
0.0
  0
SEQEND
  5
269
330
266
100
AcDbEntity
  8
DIBUJOS
 62
     7
  0
POLYLINE
  5
26A
330
1E1
100
AcDbEntity
  8
DIBUJOS
 62
     7
100
AcDb2dPolyline
 66
     1
 10
0.0
 20
0.0
 30
0.0
  0
VERTEX
  5
26B
330
26A
100
AcDbEntity
  8
DIBUJOS
 62
     7
100
AcDbVertex
100
AcDb2dVertex
 10
65.6287829178847
 20
31.14723924097635
 30
0.0
  0
VERTEX
  5
26C
330
26A
100
AcDbEntity
  8
DIBUJOS
 62
     7
100
AcDbVertex
100
AcDb2dVertex
 10
65.6287829178847
 20
31.15286002184313
 30
0.0
  0
SEQEND
  5
26D
330
26A
100
AcDbEntity
  8
DIBUJOS
 62
     7
  0
POLYLINE
  5
26E
330
1E1
100
AcDbEntity
  8
DIBUJOS
 62
     7
100
AcDb2dPolyline
 66
     1
 10
0.0
 20
0.0
 30
0.0
  0
VERTEX
  5
26F
330
26E
100
AcDbEntity
  8
DIBUJOS
 62
     7
100
AcDbVertex
100
AcDb2dVertex
 10
61.32392880066963
 20
31.15847929012066
 30
0.0
  0
VERTEX
  5
270
330
26E
100
AcDbEntity
  8
DIBUJOS
 62
     7
100
AcDbVertex
100
AcDb2dVertex
 10
61.37394633869534
 20
31.1292560698995
 30
0.0
  0
VERTEX
  5
271
330
26E
100
AcDbEntity
  8
DIBUJOS
 62
     7
100
AcDbVertex
100
AcDb2dVertex
 10
61.48641035887633
 20
31.08905750361575
 30
0.0
  0
VERTEX
  5
272
330
26E
100
AcDbEntity
  8
DIBUJOS
 62
     7
100
AcDbVertex
100
AcDb2dVertex
 10
61.54323908534204
 20
31.0768433471306
 30
0.0
  0
VERTEX
  5
273
330
26E
100
AcDbEntity
  8
DIBUJOS
 62
     7
100
AcDbVertex
100
AcDb2dVertex
 10
61.64975106765757
 20
31.07151752112702
 30
0.0
  0
VERTEX
  5
274
330
26E
100
AcDbEntity
  8
DIBUJOS
 62
     7
100
AcDbVertex
100
AcDb2dVertex
 10
65.31983509420807
 20
31.07153415960665
 30
0.0
  0
VERTEX
  5
275
330
26E
100
AcDbEntity
  8
DIBUJOS
 62
     7
100
AcDbVertex
100
AcDb2dVertex
 10
65.41507980077631
 20
31.07682670865161
 30
0.0
  0
VERTEX
  5
276
330
26E
100
AcDbEntity
  8
DIBUJOS
 62
     7
100
AcDbVertex
100
AcDb2dVertex
 10
65.47092912583982
 20
31.08740424379727
 30
0.0
  0
VERTEX
  5
277
330
26E
100
AcDbEntity
  8
DIBUJOS
 62
     7
100
AcDbVertex
100
AcDb2dVertex
 10
65.47760720644465
 20
31.08935397106753
 30
0.0
  0
VERTEX
  5
278
330
26E
100
AcDbEntity
  8
DIBUJOS
 62
     7
100
AcDbVertex
100
AcDb2dVertex
 10
65.58888233164133
 20
31.13150377721013
 30
0.0
  0
VERTEX
  5
279
330
26E
100
AcDbEntity
  8
DIBUJOS
 62
     7
100
AcDbVertex
100
AcDb2dVertex
 10
65.62316364960684
 20
31.14723924097635
 30
0.0
  0
SEQEND
  5
27A
330
26E
100
AcDbEntity
  8
DIBUJOS
 62
     7
  0
POLYLINE
  5
27B
330
1E1
100
AcDbEntity
  8
DIBUJOS
 62
     7
100
AcDb2dPolyline
 66
     1
 10
0.0
 20
0.0
 30
0.0
  0
VERTEX
  5
27C
330
27B
100
AcDbEntity
  8
DIBUJOS
 62
     7
100
AcDbVertex
100
AcDb2dVertex
 10
61.25086999382145
 20
31.22591807239669
 30
0.0
  0
VERTEX
  5
27D
330
27B
100
AcDbEntity
  8
DIBUJOS
 62
     7
100
AcDbVertex
100
AcDb2dVertex
 10
61.10053679447566
 20
31.07282742323455
 30
0.0
  0
VERTEX
  5
27E
330
27B
100
AcDbEntity
  8
DIBUJOS
 62
     7
100
AcDbVertex
100
AcDb2dVertex
 10
61.08789306270452
 20
31.05170109213543
 30
0.0
  0
VERTEX
  5
27F
330
27B
100
AcDbEntity
  8
DIBUJOS
 62
     7
100
AcDbVertex
100
AcDb2dVertex
 10
61.08789306270452
 20
31.03484177471358
 30
0.0
  0
VERTEX
  5
280
330
27B
100
AcDbEntity
  8
DIBUJOS
 62
     7
100
AcDbVertex
100
AcDb2dVertex
 10
61.1103724046979
 20
31.00112162728127
 30
0.0
  0
VERTEX
  5
281
330
27B
100
AcDbEntity
  8
DIBUJOS
 62
     7
100
AcDbVertex
100
AcDb2dVertex
 10
61.12161245384189
 20
30.99550235900373
 30
0.0
  0
VERTEX
  5
282
330
27B
100
AcDbEntity
  8
DIBUJOS
 62
     7
100
AcDbVertex
100
AcDb2dVertex
 10
61.1553318449799
 20
30.99550235900373
 30
0.0
  0
VERTEX
  5
283
330
27B
100
AcDbEntity
  8
DIBUJOS
 62
     7
100
AcDbVertex
100
AcDb2dVertex
 10
61.32392880066963
 20
31.15847929012066
 30
0.0
  0
SEQEND
  5
284
330
27B
100
AcDbEntity
  8
DIBUJOS
 62
     7
  0
POLYLINE
  5
285
330
1E1
100
AcDbEntity
  8
DIBUJOS
 62
     7
100
AcDb2dPolyline
 66
     1
 10
0.0
 20
0.0
 30
0.0
  0
VERTEX
  5
286
330
285
100
AcDbEntity
  8
DIBUJOS
 62
     7
100
AcDbVertex
100
AcDb2dVertex
 10
65.6287829178847
 20
31.14723924097635
 30
0.0
  0
VERTEX
  5
287
330
285
100
AcDbEntity
  8
DIBUJOS
 62
     7
100
AcDbVertex
100
AcDb2dVertex
 10
65.7861405807241
 20
30.99550235900373
 30
0.0
  0
VERTEX
  5
288
330
285
100
AcDbEntity
  8
DIBUJOS
 62
     7
100
AcDbVertex
100
AcDb2dVertex
 10
65.81423994728964
 20
30.99550235900373
 30
0.0
  0
VERTEX
  5
289
330
285
100
AcDbEntity
  8
DIBUJOS
 62
     7
100
AcDbVertex
100
AcDb2dVertex
 10
65.84796009472258
 20
31.02360172556926
 30
0.0
  0
VERTEX
  5
28A
330
285
100
AcDbEntity
  8
DIBUJOS
 62
     7
100
AcDbVertex
100
AcDb2dVertex
 10
65.84796009472258
 20
31.06294114127911
 30
0.0
  0
VERTEX
  5
28B
330
285
100
AcDbEntity
  8
DIBUJOS
 62
     7
100
AcDbVertex
100
AcDb2dVertex
 10
65.84093563122802
 20
31.07283044841238
 30
0.0
  0
VERTEX
  5
28C
330
285
100
AcDbEntity
  8
DIBUJOS
 62
     7
100
AcDbVertex
100
AcDb2dVertex
 10
65.70184248102686
 20
31.21467802325237
 30
0.0
  0
SEQEND
  5
28D
330
285
100
AcDbEntity
  8
DIBUJOS
 62
     7
  0
ENDBLK
  5
1E4
330
1E1
100
AcDbEntity
  8
0
100
AcDbBlockEnd
  0
BLOCK
  5
290
330
28E
100
AcDbEntity
  8
0
100
AcDbBlockBegin
  2
BLOCK_5
 70
     0
 10
0.0
 20
0.0
 30
0.0
  3
BLOCK_5
  1

  0
POLYLINE
  5
292
330
28E
100
AcDbEntity
  8
DIBUJOS
 62
     7
100
AcDb2dPolyline
 66
     1
 10
0.0
 20
0.0
 30
0.0
  0
VERTEX
  5
293
330
292
100
AcDbEntity
  8
DIBUJOS
 62
     7
100
AcDbVertex
100
AcDb2dVertex
 10
80.16749985019263
 20
35.60945102103209
 30
0.0
  0
VERTEX
  5
294
330
292
100
AcDbEntity
  8
DIBUJOS
 62
     7
100
AcDbVertex
100
AcDb2dVertex
 10
80.16187906932585
 20
35.60945102103209
 30
0.0
  0
SEQEND
  5
295
330
292
100
AcDbEntity
  8
DIBUJOS
 62
     7
  0
POLYLINE
  5
296
330
28E
100
AcDbEntity
  8
DIBUJOS
 62
     7
100
AcDb2dPolyline
 66
     1
 10
0.0
 20
0.0
 30
0.0
  0
VERTEX
  5
297
330
296
100
AcDbEntity
  8
DIBUJOS
 62
     7
100
AcDbVertex
100
AcDb2dVertex
 10
80.16749985019263
 20
35.60945102103209
 30
0.0
  0
VERTEX
  5
298
330
296
100
AcDbEntity
  8
DIBUJOS
 62
     7
100
AcDbVertex
100
AcDb2dVertex
 10
80.16749985019263
 20
35.615070289309
 30
0.0
  0
SEQEND
  5
299
330
296
100
AcDbEntity
  8
DIBUJOS
 62
     7
  0
POLYLINE
  5
29A
330
28E
100
AcDbEntity
  8
DIBUJOS
 62
     7
100
AcDb2dPolyline
 66
     1
 10
0.0
 20
0.0
 30
0.0
  0
VERTEX
  5
29B
330
29A
100
AcDbEntity
  8
DIBUJOS
 62
     7
100
AcDbVertex
100
AcDb2dVertex
 10
80.16749985019263
 20
35.60383175275455
 30
0.0
  0
VERTEX
  5
29C
330
29A
100
AcDbEntity
  8
DIBUJOS
 62
     7
100
AcDbVertex
100
AcDb2dVertex
 10
80.16749985019263
 20
35.60945102103209
 30
0.0
  0
SEQEND
  5
29D
330
29A
100
AcDbEntity
  8
DIBUJOS
 62
     7
  0
POLYLINE
  5
29E
330
28E
100
AcDbEntity
  8
DIBUJOS
 62
     7
100
AcDb2dPolyline
 66
     1
 10
0.0
 20
0.0
 30
0.0
  0
VERTEX
  5
29F
330
29E
100
AcDbEntity
  8
DIBUJOS
 62
     7
100
AcDbVertex
100
AcDb2dVertex
 10
77.74531841877659
 20
35.58697092274346
 30
0.0
  0
VERTEX
  5
2A0
330
29E
100
AcDbEntity
  8
DIBUJOS
 62
     7
100
AcDbVertex
100
AcDb2dVertex
 10
77.73969763790981
 20
35.69374912072934
 30
0.0
  0
VERTEX
  5
2A1
330
29E
100
AcDbEntity
  8
DIBUJOS
 62
     7
100
AcDbVertex
100
AcDb2dVertex
 10
77.7284560761769
 20
35.70498916987365
 30
0.0
  0
VERTEX
  5
2A2
330
29E
100
AcDbEntity
  8
DIBUJOS
 62
     7
100
AcDbVertex
100
AcDb2dVertex
 10
77.30696406510084
 20
35.71060995073978
 30
0.0
  0
VERTEX
  5
2A3
330
29E
100
AcDbEntity
  8
DIBUJOS
 62
     7
100
AcDbVertex
100
AcDb2dVertex
 10
77.267624649391
 20
35.71060995073978
 30
0.0
  0
VERTEX
  5
2A4
330
29E
100
AcDbEntity
  8
DIBUJOS
 62
     7
100
AcDbVertex
100
AcDb2dVertex
 10
76.23907317883341
 20
35.70768309095087
 30
0.0
  0
VERTEX
  5
2A5
330
29E
100
AcDbEntity
  8
DIBUJOS
 62
     7
100
AcDbVertex
100
AcDb2dVertex
 10
76.10441040192484
 20
35.70229676138503
 30
0.0
  0
VERTEX
  5
2A6
330
29E
100
AcDbEntity
  8
DIBUJOS
 62
     7
100
AcDbVertex
100
AcDb2dVertex
 10
76.04297811072121
 20
35.6917661164998
 30
0.0
  0
VERTEX
  5
2A7
330
29E
100
AcDbEntity
  8
DIBUJOS
 62
     7
100
AcDbVertex
100
AcDb2dVertex
 10
76.03630154270593
 20
35.68981638922954
 30
0.0
  0
VERTEX
  5
2A8
330
29E
100
AcDbEntity
  8
DIBUJOS
 62
     7
100
AcDbVertex
100
AcDb2dVertex
 10
75.91971117962804
 20
35.64749414793558
 30
0.0
  0
VERTEX
  5
2A9
330
29E
100
AcDbEntity
  8
DIBUJOS
 62
     7
100
AcDbVertex
100
AcDb2dVertex
 10
75.8682650012551
 20
35.615070289309
 30
0.0
  0
SEQEND
  5
2AA
330
29E
100
AcDbEntity
  8
DIBUJOS
 62
     7
  0
POLYLINE
  5
2AB
330
28E
100
AcDbEntity
  8
DIBUJOS
 62
     7
100
AcDb2dPolyline
 66
     1
 10
0.0
 20
0.0
 30
0.0
  0
VERTEX
  5
2AC
330
2AB
100
AcDbEntity
  8
DIBUJOS
 62
     7
100
AcDbVertex
100
AcDb2dVertex
 10
78.31854731182591
 20
35.58697092274346
 30
0.0
  0
VERTEX
  5
2AD
330
2AB
100
AcDbEntity
  8
DIBUJOS
 62
     7
100
AcDbVertex
100
AcDb2dVertex
 10
78.31854731182591
 20
35.6656497541638
 30
0.0
  0
VERTEX
  5
2AE
330
2AB
100
AcDbEntity
  8
DIBUJOS
 62
     7
100
AcDbVertex
100
AcDb2dVertex
 10
78.32978887355947
 20
35.67688980330747
 30
0.0
  0
VERTEX
  5
2AF
330
2AB
100
AcDbEntity
  8
DIBUJOS
 62
     7
100
AcDbVertex
100
AcDb2dVertex
 10
79.95427924898823
 20
35.67363017392968
 30
0.0
  0
VERTEX
  5
2B0
330
2AB
100
AcDbEntity
  8
DIBUJOS
 62
     7
100
AcDbVertex
100
AcDb2dVertex
 10
79.99371547039615
 20
35.66781124389971
 30
0.0
  0
VERTEX
  5
2B1
330
2AB
100
AcDbEntity
  8
DIBUJOS
 62
     7
100
AcDbVertex
100
AcDb2dVertex
 10
80.12310233673813
 20
35.62743419210895
 30
0.0
  0
VERTEX
  5
2B2
330
2AB
100
AcDbEntity
  8
DIBUJOS
 62
     7
100
AcDbVertex
100
AcDb2dVertex
 10
80.16187906932585
 20
35.60945102103209
 30
0.0
  0
SEQEND
  5
2B3
330
2AB
100
AcDbEntity
  8
DIBUJOS
 62
     7
  0
POLYLINE
  5
2B4
330
28E
100
AcDbEntity
  8
DIBUJOS
 62
     7
100
AcDb2dPolyline
 66
     1
 10
0.0
 20
0.0
 30
0.0
  0
VERTEX
  5
2B5
330
2B4
100
AcDbEntity
  8
DIBUJOS
 62
     7
100
AcDbVertex
100
AcDb2dVertex
 10
77.74531841877659
 20
35.58135165446592
 30
0.0
  0
VERTEX
  5
2B6
330
2B4
100
AcDbEntity
  8
DIBUJOS
 62
     7
100
AcDbVertex
100
AcDb2dVertex
 10
77.74531841877659
 20
35.58697092274346
 30
0.0
  0
SEQEND
  5
2B7
330
2B4
100
AcDbEntity
  8
DIBUJOS
 62
     7
  0
POLYLINE
  5
2B8
330
28E
100
AcDbEntity
  8
DIBUJOS
 62
     7
100
AcDb2dPolyline
 66
     1
 10
0.0
 20
0.0
 30
0.0
  0
VERTEX
  5
2B9
330
2B8
100
AcDbEntity
  8
DIBUJOS
 62
     7
100
AcDbVertex
100
AcDb2dVertex
 10
77.75093617446554
 20
35.58135165446592
 30
0.0
  0
VERTEX
  5
2BA
330
2B8
100
AcDbEntity
  8
DIBUJOS
 62
     7
100
AcDbVertex
100
AcDb2dVertex
 10
77.74531841877659
 20
35.58135165446592
 30
0.0
  0
SEQEND
  5
2BB
330
2B8
100
AcDbEntity
  8
DIBUJOS
 62
     7
  0
POLYLINE
  5
2BC
330
28E
100
AcDbEntity
  8
DIBUJOS
 62
     7
100
AcDb2dPolyline
 66
     1
 10
0.0
 20
0.0
 30
0.0
  0
VERTEX
  5
2BD
330
2BC
100
AcDbEntity
  8
DIBUJOS
 62
     7
100
AcDbVertex
100
AcDb2dVertex
 10
78.3129295561376
 20
35.58135165446592
 30
0.0
  0
VERTEX
  5
2BE
330
2BC
100
AcDbEntity
  8
DIBUJOS
 62
     7
100
AcDbVertex
100
AcDb2dVertex
 10
77.75093617446554
 20
35.58135165446592
 30
0.0
  0
SEQEND
  5
2BF
330
2BC
100
AcDbEntity
  8
DIBUJOS
 62
     7
  0
POLYLINE
  5
2C0
330
28E
100
AcDbEntity
  8
DIBUJOS
 62
     7
100
AcDb2dPolyline
 66
     1
 10
0.0
 20
0.0
 30
0.0
  0
VERTEX
  5
2C1
330
2C0
100
AcDbEntity
  8
DIBUJOS
 62
     7
100
AcDbVertex
100
AcDb2dVertex
 10
78.31854731182591
 20
35.58135165446592
 30
0.0
  0
VERTEX
  5
2C2
330
2C0
100
AcDbEntity
  8
DIBUJOS
 62
     7
100
AcDbVertex
100
AcDb2dVertex
 10
78.3129295561376
 20
35.58135165446592
 30
0.0
  0
SEQEND
  5
2C3
330
2C0
100
AcDbEntity
  8
DIBUJOS
 62
     7
  0
POLYLINE
  5
2C4
330
28E
100
AcDbEntity
  8
DIBUJOS
 62
     7
100
AcDb2dPolyline
 66
     1
 10
0.0
 20
0.0
 30
0.0
  0
VERTEX
  5
2C5
330
2C4
100
AcDbEntity
  8
DIBUJOS
 62
     7
100
AcDbVertex
100
AcDb2dVertex
 10
78.31854731182591
 20
35.58135165446592
 30
0.0
  0
VERTEX
  5
2C6
330
2C4
100
AcDbEntity
  8
DIBUJOS
 62
     7
100
AcDbVertex
100
AcDb2dVertex
 10
78.31854731182591
 20
35.58697092274346
 30
0.0
  0
SEQEND
  5
2C7
330
2C4
100
AcDbEntity
  8
DIBUJOS
 62
     7
  0
POLYLINE
  5
2C8
330
28E
100
AcDbEntity
  8
DIBUJOS
 62
     7
100
AcDb2dPolyline
 66
     1
 10
0.0
 20
0.0
 30
0.0
  0
VERTEX
  5
2C9
330
2C8
100
AcDbEntity
  8
DIBUJOS
 62
     7
100
AcDbVertex
100
AcDb2dVertex
 10
77.74531841877659
 20
35.57573087359979
 30
0.0
  0
VERTEX
  5
2CA
330
2C8
100
AcDbEntity
  8
DIBUJOS
 62
     7
100
AcDbVertex
100
AcDb2dVertex
 10
77.74531841877659
 20
35.58135165446592
 30
0.0
  0
SEQEND
  5
2CB
330
2C8
100
AcDbEntity
  8
DIBUJOS
 62
     7
  0
POLYLINE
  5
2CC
330
28E
100
AcDbEntity
  8
DIBUJOS
 62
     7
100
AcDb2dPolyline
 66
     1
 10
0.0
 20
0.0
 30
0.0
  0
VERTEX
  5
2CD
330
2CC
100
AcDbEntity
  8
DIBUJOS
 62
     7
100
AcDbVertex
100
AcDb2dVertex
 10
78.31854731182591
 20
35.57573087359979
 30
0.0
  0
VERTEX
  5
2CE
330
2CC
100
AcDbEntity
  8
DIBUJOS
 62
     7
100
AcDbVertex
100
AcDb2dVertex
 10
78.31854731182591
 20
35.58135165446592
 30
0.0
  0
SEQEND
  5
2CF
330
2CC
100
AcDbEntity
  8
DIBUJOS
 62
     7
  0
POLYLINE
  5
2D0
330
28E
100
AcDbEntity
  8
DIBUJOS
 62
     7
100
AcDb2dPolyline
 66
     1
 10
0.0
 20
0.0
 30
0.0
  0
VERTEX
  5
2D1
330
2D0
100
AcDbEntity
  8
DIBUJOS
 62
     7
100
AcDbVertex
100
AcDb2dVertex
 10
75.80082773156832
 20
35.54201223875607
 30
0.0
  0
VERTEX
  5
2D2
330
2D0
100
AcDbEntity
  8
DIBUJOS
 62
     7
100
AcDbVertex
100
AcDb2dVertex
 10
75.65049453222284
 20
35.69510288791885
 30
0.0
  0
VERTEX
  5
2D3
330
2D0
100
AcDbEntity
  8
DIBUJOS
 62
     7
100
AcDbVertex
100
AcDb2dVertex
 10
75.63784928786214
 20
35.71622921901732
 30
0.0
  0
VERTEX
  5
2D4
330
2D0
100
AcDbEntity
  8
DIBUJOS
 62
     7
100
AcDbVertex
100
AcDb2dVertex
 10
75.63784928786214
 20
35.73870931730595
 30
0.0
  0
VERTEX
  5
2D5
330
2D0
100
AcDbEntity
  8
DIBUJOS
 62
     7
100
AcDbVertex
100
AcDb2dVertex
 10
75.66538748389415
 20
35.76793253752712
 30
0.0
  0
VERTEX
  5
2D6
330
2D0
100
AcDbEntity
  8
DIBUJOS
 62
     7
100
AcDbVertex
100
AcDb2dVertex
 10
75.70528958272676
 20
35.77242795214903
 30
0.0
  0
VERTEX
  5
2D7
330
2D0
100
AcDbEntity
  8
DIBUJOS
 62
     7
100
AcDbVertex
100
AcDb2dVertex
 10
75.71517283950374
 20
35.76540500124435
 30
0.0
  0
VERTEX
  5
2D8
330
2D0
100
AcDbEntity
  8
DIBUJOS
 62
     7
100
AcDbVertex
100
AcDb2dVertex
 10
75.8682650012551
 20
35.615070289309
 30
0.0
  0
SEQEND
  5
2D9
330
2D0
100
AcDbEntity
  8
DIBUJOS
 62
     7
  0
POLYLINE
  5
2DA
330
28E
100
AcDbEntity
  8
DIBUJOS
 62
     7
100
AcDb2dPolyline
 66
     1
 10
0.0
 20
0.0
 30
0.0
  0
VERTEX
  5
2DB
330
2DA
100
AcDbEntity
  8
DIBUJOS
 62
     7
100
AcDbVertex
100
AcDb2dVertex
 10
75.80082773156832
 20
35.54201223875607
 30
0.0
  0
VERTEX
  5
2DC
330
2DA
100
AcDbEntity
  8
DIBUJOS
 62
     7
100
AcDbVertex
100
AcDb2dVertex
 10
75.80781891810359
 20
35.55215566084709
 30
0.0
  0
VERTEX
  5
2DD
330
2DA
100
AcDbEntity
  8
DIBUJOS
 62
     7
100
AcDbVertex
100
AcDb2dVertex
 10
75.85140568383325
 20
35.60383175275455
 30
0.0
  0
VERTEX
  5
2DE
330
2DA
100
AcDbEntity
  8
DIBUJOS
 62
     7
100
AcDbVertex
100
AcDb2dVertex
 10
75.8682650012551
 20
35.615070289309
 30
0.0
  0
SEQEND
  5
2DF
330
2DA
100
AcDbEntity
  8
DIBUJOS
 62
     7
  0
POLYLINE
  5
2E0
330
28E
100
AcDbEntity
  8
DIBUJOS
 62
     7
100
AcDb2dPolyline
 66
     1
 10
0.0
 20
0.0
 30
0.0
  0
VERTEX
  5
2E1
330
2E0
100
AcDbEntity
  8
DIBUJOS
 62
     7
100
AcDbVertex
100
AcDb2dVertex
 10
80.2405579007462
 20
35.54201223875607
 30
0.0
  0
VERTEX
  5
2E2
330
2E0
100
AcDbEntity
  8
DIBUJOS
 62
     7
100
AcDbVertex
100
AcDb2dVertex
 10
80.16749985019263
 20
35.60383175275455
 30
0.0
  0
SEQEND
  5
2E3
330
2E0
100
AcDbEntity
  8
DIBUJOS
 62
     7
  0
POLYLINE
  5
2E4
330
28E
100
AcDbEntity
  8
DIBUJOS
 62
     7
100
AcDb2dPolyline
 66
     1
 10
0.0
 20
0.0
 30
0.0
  0
VERTEX
  5
2E5
330
2E4
100
AcDbEntity
  8
DIBUJOS
 62
     7
100
AcDbVertex
100
AcDb2dVertex
 10
80.2405579007462
 20
35.54201223875607
 30
0.0
  0
VERTEX
  5
2E6
330
2E4
100
AcDbEntity
  8
DIBUJOS
 62
     7
100
AcDbVertex
100
AcDb2dVertex
 10
80.37678469472006
 20
35.68149866210773
 30
0.0
  0
VERTEX
  5
2E7
330
2E4
100
AcDbEntity
  8
DIBUJOS
 62
     7
100
AcDbVertex
100
AcDb2dVertex
 10
80.39791556358558
 20
35.71060995073978
 30
0.0
  0
VERTEX
  5
2E8
330
2E4
100
AcDbEntity
  8
DIBUJOS
 62
     7
100
AcDbVertex
100
AcDb2dVertex
 10
80.39791556358558
 20
35.7443285855835
 30
0.0
  0
VERTEX
  5
2E9
330
2E4
100
AcDbEntity
  8
DIBUJOS
 62
     7
100
AcDbVertex
100
AcDb2dVertex
 10
80.3698177096093
 20
35.77242795214903
 30
0.0
  0
VERTEX
  5
2EA
330
2E4
100
AcDbEntity
  8
DIBUJOS
 62
     7
100
AcDbVertex
100
AcDb2dVertex
 10
80.33047829389879
 20
35.77242795214903
 30
0.0
  0
VERTEX
  5
2EB
330
2E4
100
AcDbEntity
  8
DIBUJOS
 62
     7
100
AcDbVertex
100
AcDb2dVertex
 10
80.16749985019263
 20
35.615070289309
 30
0.0
  0
SEQEND
  5
2EC
330
2E4
100
AcDbEntity
  8
DIBUJOS
 62
     7
  0
POLYLINE
  5
2ED
330
28E
100
AcDbEntity
  8
DIBUJOS
 62
     7
100
AcDb2dPolyline
 66
     1
 10
0.0
 20
0.0
 30
0.0
  0
VERTEX
  5
2EE
330
2ED
100
AcDbEntity
  8
DIBUJOS
 62
     7
100
AcDbVertex
100
AcDb2dVertex
 10
78.31854731182591
 20
35.50829209132377
 30
0.0
  0
VERTEX
  5
2EF
330
2ED
100
AcDbEntity
  8
DIBUJOS
 62
     7
100
AcDbVertex
100
AcDb2dVertex
 10
78.31854731182591
 20
35.57573087359979
 30
0.0
  0
SEQEND
  5
2F0
330
2ED
100
AcDbEntity
  8
DIBUJOS
 62
     7
  0
POLYLINE
  5
2F1
330
28E
100
AcDbEntity
  8
DIBUJOS
 62
     7
100
AcDb2dPolyline
 66
     1
 10
0.0
 20
0.0
 30
0.0
  0
VERTEX
  5
2F2
330
2F1
100
AcDbEntity
  8
DIBUJOS
 62
     7
100
AcDbVertex
100
AcDb2dVertex
 10
78.31854731182591
 20
35.50267282304623
 30
0.0
  0
VERTEX
  5
2F3
330
2F1
100
AcDbEntity
  8
DIBUJOS
 62
     7
100
AcDbVertex
100
AcDb2dVertex
 10
78.31854731182591
 20
35.50829209132377
 30
0.0
  0
SEQEND
  5
2F4
330
2F1
100
AcDbEntity
  8
DIBUJOS
 62
     7
  0
POLYLINE
  5
2F5
330
28E
100
AcDbEntity
  8
DIBUJOS
 62
     7
100
AcDb2dPolyline
 66
     1
 10
0.0
 20
0.0
 30
0.0
  0
VERTEX
  5
2F6
330
2F5
100
AcDbEntity
  8
DIBUJOS
 62
     7
100
AcDbVertex
100
AcDb2dVertex
 10
78.32416809269269
 20
35.50267282304623
 30
0.0
  0
VERTEX
  5
2F7
330
2F5
100
AcDbEntity
  8
DIBUJOS
 62
     7
100
AcDbVertex
100
AcDb2dVertex
 10
78.31854731182591
 20
35.50267282304623
 30
0.0
  0
SEQEND
  5
2F8
330
2F5
100
AcDbEntity
  8
DIBUJOS
 62
     7
  0
POLYLINE
  5
2F9
330
28E
100
AcDbEntity
  8
DIBUJOS
 62
     7
100
AcDb2dPolyline
 66
     1
 10
0.0
 20
0.0
 30
0.0
  0
VERTEX
  5
2FA
330
2F9
100
AcDbEntity
  8
DIBUJOS
 62
     7
100
AcDbVertex
100
AcDb2dVertex
 10
78.31854731182591
 20
35.49705204217945
 30
0.0
  0
VERTEX
  5
2FB
330
2F9
100
AcDbEntity
  8
DIBUJOS
 62
     7
100
AcDbVertex
100
AcDb2dVertex
 10
78.31854731182591
 20
35.50267282304623
 30
0.0
  0
SEQEND
  5
2FC
330
2F9
100
AcDbEntity
  8
DIBUJOS
 62
     7
  0
POLYLINE
  5
2FD
330
28E
100
AcDbEntity
  8
DIBUJOS
 62
     7
100
AcDb2dPolyline
 66
     1
 10
0.0
 20
0.0
 30
0.0
  0
VERTEX
  5
2FE
330
2FD
100
AcDbEntity
  8
DIBUJOS
 62
     7
100
AcDbVertex
100
AcDb2dVertex
 10
77.74531841877659
 20
35.48581350562437
 30
0.0
  0
VERTEX
  5
2FF
330
2FD
100
AcDbEntity
  8
DIBUJOS
 62
     7
100
AcDbVertex
100
AcDb2dVertex
 10
77.74531841877659
 20
35.57573087359979
 30
0.0
  0
SEQEND
  5
300
330
2FD
100
AcDbEntity
  8
DIBUJOS
 62
     7
  0
POLYLINE
  5
301
330
28E
100
AcDbEntity
  8
DIBUJOS
 62
     7
100
AcDb2dPolyline
 66
     1
 10
0.0
 20
0.0
 30
0.0
  0
VERTEX
  5
302
330
301
100
AcDbEntity
  8
DIBUJOS
 62
     7
100
AcDbVertex
100
AcDb2dVertex
 10
78.31854731182591
 20
35.48581350562437
 30
0.0
  0
VERTEX
  5
303
330
301
100
AcDbEntity
  8
DIBUJOS
 62
     7
100
AcDbVertex
100
AcDb2dVertex
 10
78.31854731182591
 20
35.49705204217945
 30
0.0
  0
SEQEND
  5
304
330
301
100
AcDbEntity
  8
DIBUJOS
 62
     7
  0
POLYLINE
  5
305
330
28E
100
AcDbEntity
  8
DIBUJOS
 62
     7
100
AcDb2dPolyline
 66
     1
 10
0.0
 20
0.0
 30
0.0
  0
VERTEX
  5
306
330
305
100
AcDbEntity
  8
DIBUJOS
 62
     7
100
AcDbVertex
100
AcDb2dVertex
 10
77.74531841877659
 20
35.48019272475759
 30
0.0
  0
VERTEX
  5
307
330
305
100
AcDbEntity
  8
DIBUJOS
 62
     7
100
AcDbVertex
100
AcDb2dVertex
 10
77.74531841877659
 20
35.48581350562437
 30
0.0
  0
SEQEND
  5
308
330
305
100
AcDbEntity
  8
DIBUJOS
 62
     7
  0
POLYLINE
  5
309
330
28E
100
AcDbEntity
  8
DIBUJOS
 62
     7
100
AcDb2dPolyline
 66
     1
 10
0.0
 20
0.0
 30
0.0
  0
VERTEX
  5
30A
330
309
100
AcDbEntity
  8
DIBUJOS
 62
     7
100
AcDbVertex
100
AcDb2dVertex
 10
77.75093617446554
 20
35.48019272475759
 30
0.0
  0
VERTEX
  5
30B
330
309
100
AcDbEntity
  8
DIBUJOS
 62
     7
100
AcDbVertex
100
AcDb2dVertex
 10
77.74531841877659
 20
35.48019272475759
 30
0.0
  0
SEQEND
  5
30C
330
309
100
AcDbEntity
  8
DIBUJOS
 62
     7
  0
POLYLINE
  5
30D
330
28E
100
AcDbEntity
  8
DIBUJOS
 62
     7
100
AcDb2dPolyline
 66
     1
 10
0.0
 20
0.0
 30
0.0
  0
VERTEX
  5
30E
330
30D
100
AcDbEntity
  8
DIBUJOS
 62
     7
100
AcDbVertex
100
AcDb2dVertex
 10
78.3129295561376
 20
35.48019272475759
 30
0.0
  0
VERTEX
  5
30F
330
30D
100
AcDbEntity
  8
DIBUJOS
 62
     7
100
AcDbVertex
100
AcDb2dVertex
 10
77.75093617446554
 20
35.48019272475759
 30
0.0
  0
SEQEND
  5
310
330
30D
100
AcDbEntity
  8
DIBUJOS
 62
     7
  0
POLYLINE
  5
311
330
28E
100
AcDbEntity
  8
DIBUJOS
 62
     7
100
AcDb2dPolyline
 66
     1
 10
0.0
 20
0.0
 30
0.0
  0
VERTEX
  5
312
330
311
100
AcDbEntity
  8
DIBUJOS
 62
     7
100
AcDbVertex
100
AcDb2dVertex
 10
78.31854731182591
 20
35.48019272475759
 30
0.0
  0
VERTEX
  5
313
330
311
100
AcDbEntity
  8
DIBUJOS
 62
     7
100
AcDbVertex
100
AcDb2dVertex
 10
78.3129295561376
 20
35.48019272475759
 30
0.0
  0
SEQEND
  5
314
330
311
100
AcDbEntity
  8
DIBUJOS
 62
     7
  0
POLYLINE
  5
315
330
28E
100
AcDbEntity
  8
DIBUJOS
 62
     7
100
AcDb2dPolyline
 66
     1
 10
0.0
 20
0.0
 30
0.0
  0
VERTEX
  5
316
330
315
100
AcDbEntity
  8
DIBUJOS
 62
     7
100
AcDbVertex
100
AcDb2dVertex
 10
78.31854731182591
 20
35.48019272475759
 30
0.0
  0
VERTEX
  5
317
330
315
100
AcDbEntity
  8
DIBUJOS
 62
     7
100
AcDbVertex
100
AcDb2dVertex
 10
78.31854731182591
 20
35.48581350562437
 30
0.0
  0
SEQEND
  5
318
330
315
100
AcDbEntity
  8
DIBUJOS
 62
     7
  0
POLYLINE
  5
319
330
28E
100
AcDbEntity
  8
DIBUJOS
 62
     7
100
AcDb2dPolyline
 66
     1
 10
0.0
 20
0.0
 30
0.0
  0
VERTEX
  5
31A
330
319
100
AcDbEntity
  8
DIBUJOS
 62
     7
100
AcDbVertex
100
AcDb2dVertex
 10
77.74531841877659
 20
35.47457345648069
 30
0.0
  0
VERTEX
  5
31B
330
319
100
AcDbEntity
  8
DIBUJOS
 62
     7
100
AcDbVertex
100
AcDb2dVertex
 10
77.74531841877659
 20
35.48019272475759
 30
0.0
  0
SEQEND
  5
31C
330
319
100
AcDbEntity
  8
DIBUJOS
 62
     7
  0
POLYLINE
  5
31D
330
28E
100
AcDbEntity
  8
DIBUJOS
 62
     7
100
AcDb2dPolyline
 66
     1
 10
0.0
 20
0.0
 30
0.0
  0
VERTEX
  5
31E
330
31D
100
AcDbEntity
  8
DIBUJOS
 62
     7
100
AcDbVertex
100
AcDb2dVertex
 10
78.31854731182591
 20
35.47457345648069
 30
0.0
  0
VERTEX
  5
31F
330
31D
100
AcDbEntity
  8
DIBUJOS
 62
     7
100
AcDbVertex
100
AcDb2dVertex
 10
78.31854731182591
 20
35.48019272475759
 30
0.0
  0
SEQEND
  5
320
330
31D
100
AcDbEntity
  8
DIBUJOS
 62
     7
  0
POLYLINE
  5
321
330
28E
100
AcDbEntity
  8
DIBUJOS
 62
     7
100
AcDb2dPolyline
 66
     1
 10
0.0
 20
0.0
 30
0.0
  0
VERTEX
  5
322
330
321
100
AcDbEntity
  8
DIBUJOS
 62
     7
100
AcDbVertex
100
AcDb2dVertex
 10
77.74531841877659
 20
34.48546879545502
 30
0.0
  0
VERTEX
  5
323
330
321
100
AcDbEntity
  8
DIBUJOS
 62
     7
100
AcDbVertex
100
AcDb2dVertex
 10
77.74531841877659
 20
35.47457345648069
 30
0.0
  0
SEQEND
  5
324
330
321
100
AcDbEntity
  8
DIBUJOS
 62
     7
  0
POLYLINE
  5
325
330
28E
100
AcDbEntity
  8
DIBUJOS
 62
     7
100
AcDb2dPolyline
 66
     1
 10
0.0
 20
0.0
 30
0.0
  0
VERTEX
  5
326
330
325
100
AcDbEntity
  8
DIBUJOS
 62
     7
100
AcDbVertex
100
AcDb2dVertex
 10
77.74531841877659
 20
34.47984801458824
 30
0.0
  0
VERTEX
  5
327
330
325
100
AcDbEntity
  8
DIBUJOS
 62
     7
100
AcDbVertex
100
AcDb2dVertex
 10
77.74531841877659
 20
34.48546879545502
 30
0.0
  0
SEQEND
  5
328
330
325
100
AcDbEntity
  8
DIBUJOS
 62
     7
  0
POLYLINE
  5
329
330
28E
100
AcDbEntity
  8
DIBUJOS
 62
     7
100
AcDb2dPolyline
 66
     1
 10
0.0
 20
0.0
 30
0.0
  0
VERTEX
  5
32A
330
329
100
AcDbEntity
  8
DIBUJOS
 62
     7
100
AcDbVertex
100
AcDb2dVertex
 10
77.75093617446554
 20
34.47984801458824
 30
0.0
  0
VERTEX
  5
32B
330
329
100
AcDbEntity
  8
DIBUJOS
 62
     7
100
AcDbVertex
100
AcDb2dVertex
 10
77.74531841877659
 20
34.47984801458824
 30
0.0
  0
SEQEND
  5
32C
330
329
100
AcDbEntity
  8
DIBUJOS
 62
     7
  0
POLYLINE
  5
32D
330
28E
100
AcDbEntity
  8
DIBUJOS
 62
     7
100
AcDb2dPolyline
 66
     1
 10
0.0
 20
0.0
 30
0.0
  0
VERTEX
  5
32E
330
32D
100
AcDbEntity
  8
DIBUJOS
 62
     7
100
AcDbVertex
100
AcDb2dVertex
 10
78.31854731182591
 20
34.47984801458824
 30
0.0
  0
VERTEX
  5
32F
330
32D
100
AcDbEntity
  8
DIBUJOS
 62
     7
100
AcDbVertex
100
AcDb2dVertex
 10
78.31854731182591
 20
35.47457345648069
 30
0.0
  0
SEQEND
  5
330
330
32D
100
AcDbEntity
  8
DIBUJOS
 62
     7
  0
POLYLINE
  5
331
330
28E
100
AcDbEntity
  8
DIBUJOS
 62
     7
100
AcDb2dPolyline
 66
     1
 10
0.0
 20
0.0
 30
0.0
  0
VERTEX
  5
332
330
331
100
AcDbEntity
  8
DIBUJOS
 62
     7
100
AcDbVertex
100
AcDb2dVertex
 10
77.74531841877659
 20
34.4742287463107
 30
0.0
  0
VERTEX
  5
333
330
331
100
AcDbEntity
  8
DIBUJOS
 62
     7
100
AcDbVertex
100
AcDb2dVertex
 10
77.74531841877659
 20
34.47984801458824
 30
0.0
  0
SEQEND
  5
334
330
331
100
AcDbEntity
  8
DIBUJOS
 62
     7
  0
POLYLINE
  5
335
330
28E
100
AcDbEntity
  8
DIBUJOS
 62
     7
100
AcDb2dPolyline
 66
     1
 10
0.0
 20
0.0
 30
0.0
  0
VERTEX
  5
336
330
335
100
AcDbEntity
  8
DIBUJOS
 62
     7
100
AcDbVertex
100
AcDb2dVertex
 10
78.3129295561376
 20
34.4742287463107
 30
0.0
  0
VERTEX
  5
337
330
335
100
AcDbEntity
  8
DIBUJOS
 62
     7
100
AcDbVertex
100
AcDb2dVertex
 10
77.75655695533167
 20
34.4742287463107
 30
0.0
  0
VERTEX
  5
338
330
335
100
AcDbEntity
  8
DIBUJOS
 62
     7
100
AcDbVertex
100
AcDb2dVertex
 10
77.75093617446554
 20
34.47984801458824
 30
0.0
  0
SEQEND
  5
339
330
335
100
AcDbEntity
  8
DIBUJOS
 62
     7
  0
POLYLINE
  5
33A
330
28E
100
AcDbEntity
  8
DIBUJOS
 62
     7
100
AcDb2dPolyline
 66
     1
 10
0.0
 20
0.0
 30
0.0
  0
VERTEX
  5
33B
330
33A
100
AcDbEntity
  8
DIBUJOS
 62
     7
100
AcDbVertex
100
AcDb2dVertex
 10
78.31854731182591
 20
34.4742287463107
 30
0.0
  0
VERTEX
  5
33C
330
33A
100
AcDbEntity
  8
DIBUJOS
 62
     7
100
AcDbVertex
100
AcDb2dVertex
 10
78.3129295561376
 20
34.4742287463107
 30
0.0
  0
SEQEND
  5
33D
330
33A
100
AcDbEntity
  8
DIBUJOS
 62
     7
  0
POLYLINE
  5
33E
330
28E
100
AcDbEntity
  8
DIBUJOS
 62
     7
100
AcDb2dPolyline
 66
     1
 10
0.0
 20
0.0
 30
0.0
  0
VERTEX
  5
33F
330
33E
100
AcDbEntity
  8
DIBUJOS
 62
     7
100
AcDbVertex
100
AcDb2dVertex
 10
78.31854731182591
 20
34.4742287463107
 30
0.0
  0
VERTEX
  5
340
330
33E
100
AcDbEntity
  8
DIBUJOS
 62
     7
100
AcDbVertex
100
AcDb2dVertex
 10
78.31854731182591
 20
34.47984801458824
 30
0.0
  0
SEQEND
  5
341
330
33E
100
AcDbEntity
  8
DIBUJOS
 62
     7
  0
POLYLINE
  5
342
330
28E
100
AcDbEntity
  8
DIBUJOS
 62
     7
100
AcDb2dPolyline
 66
     1
 10
0.0
 20
0.0
 30
0.0
  0
VERTEX
  5
343
330
342
100
AcDbEntity
  8
DIBUJOS
 62
     7
100
AcDbVertex
100
AcDb2dVertex
 10
78.31854731182591
 20
34.46860796544393
 30
0.0
  0
VERTEX
  5
344
330
342
100
AcDbEntity
  8
DIBUJOS
 62
     7
100
AcDbVertex
100
AcDb2dVertex
 10
78.31854731182591
 20
34.4742287463107
 30
0.0
  0
SEQEND
  5
345
330
342
100
AcDbEntity
  8
DIBUJOS
 62
     7
  0
POLYLINE
  5
346
330
28E
100
AcDbEntity
  8
DIBUJOS
 62
     7
100
AcDb2dPolyline
 66
     1
 10
0.0
 20
0.0
 30
0.0
  0
VERTEX
  5
347
330
346
100
AcDbEntity
  8
DIBUJOS
 62
     7
100
AcDbVertex
100
AcDb2dVertex
 10
77.74531841877659
 20
32.30494161398701
 30
0.0
  0
VERTEX
  5
348
330
346
100
AcDbEntity
  8
DIBUJOS
 62
     7
100
AcDbVertex
100
AcDb2dVertex
 10
77.74531841877659
 20
34.4742287463107
 30
0.0
  0
SEQEND
  5
349
330
346
100
AcDbEntity
  8
DIBUJOS
 62
     7
  0
POLYLINE
  5
34A
330
28E
100
AcDbEntity
  8
DIBUJOS
 62
     7
100
AcDb2dPolyline
 66
     1
 10
0.0
 20
0.0
 30
0.0
  0
VERTEX
  5
34B
330
34A
100
AcDbEntity
  8
DIBUJOS
 62
     7
100
AcDbVertex
100
AcDb2dVertex
 10
78.31854731182591
 20
32.30494161398701
 30
0.0
  0
VERTEX
  5
34C
330
34A
100
AcDbEntity
  8
DIBUJOS
 62
     7
100
AcDbVertex
100
AcDb2dVertex
 10
78.31854731182591
 20
34.46860796544393
 30
0.0
  0
SEQEND
  5
34D
330
34A
100
AcDbEntity
  8
DIBUJOS
 62
     7
  0
POLYLINE
  5
34E
330
28E
100
AcDbEntity
  8
DIBUJOS
 62
     7
100
AcDb2dPolyline
 66
     1
 10
0.0
 20
0.0
 30
0.0
  0
VERTEX
  5
34F
330
34E
100
AcDbEntity
  8
DIBUJOS
 62
     7
100
AcDbVertex
100
AcDb2dVertex
 10
77.74531841877659
 20
32.29932234570883
 30
0.0
  0
VERTEX
  5
350
330
34E
100
AcDbEntity
  8
DIBUJOS
 62
     7
100
AcDbVertex
100
AcDb2dVertex
 10
77.74531841877659
 20
32.30494161398701
 30
0.0
  0
SEQEND
  5
351
330
34E
100
AcDbEntity
  8
DIBUJOS
 62
     7
  0
POLYLINE
  5
352
330
28E
100
AcDbEntity
  8
DIBUJOS
 62
     7
100
AcDb2dPolyline
 66
     1
 10
0.0
 20
0.0
 30
0.0
  0
VERTEX
  5
353
330
352
100
AcDbEntity
  8
DIBUJOS
 62
     7
100
AcDbVertex
100
AcDb2dVertex
 10
77.75093617446554
 20
32.29932234570883
 30
0.0
  0
VERTEX
  5
354
330
352
100
AcDbEntity
  8
DIBUJOS
 62
     7
100
AcDbVertex
100
AcDb2dVertex
 10
77.74531841877659
 20
32.29932234570883
 30
0.0
  0
SEQEND
  5
355
330
352
100
AcDbEntity
  8
DIBUJOS
 62
     7
  0
POLYLINE
  5
356
330
28E
100
AcDbEntity
  8
DIBUJOS
 62
     7
100
AcDb2dPolyline
 66
     1
 10
0.0
 20
0.0
 30
0.0
  0
VERTEX
  5
357
330
356
100
AcDbEntity
  8
DIBUJOS
 62
     7
100
AcDbVertex
100
AcDb2dVertex
 10
78.31854731182591
 20
32.29932234570883
 30
0.0
  0
VERTEX
  5
358
330
356
100
AcDbEntity
  8
DIBUJOS
 62
     7
100
AcDbVertex
100
AcDb2dVertex
 10
78.3129295561376
 20
32.29932234570883
 30
0.0
  0
SEQEND
  5
359
330
356
100
AcDbEntity
  8
DIBUJOS
 62
     7
  0
POLYLINE
  5
35A
330
28E
100
AcDbEntity
  8
DIBUJOS
 62
     7
100
AcDb2dPolyline
 66
     1
 10
0.0
 20
0.0
 30
0.0
  0
VERTEX
  5
35B
330
35A
100
AcDbEntity
  8
DIBUJOS
 62
     7
100
AcDbVertex
100
AcDb2dVertex
 10
78.31854731182591
 20
32.29932234570883
 30
0.0
  0
VERTEX
  5
35C
330
35A
100
AcDbEntity
  8
DIBUJOS
 62
     7
100
AcDbVertex
100
AcDb2dVertex
 10
78.31854731182591
 20
32.30494161398701
 30
0.0
  0
SEQEND
  5
35D
330
35A
100
AcDbEntity
  8
DIBUJOS
 62
     7
  0
POLYLINE
  5
35E
330
28E
100
AcDbEntity
  8
DIBUJOS
 62
     7
100
AcDb2dPolyline
 66
     1
 10
0.0
 20
0.0
 30
0.0
  0
VERTEX
  5
35F
330
35E
100
AcDbEntity
  8
DIBUJOS
 62
     7
100
AcDbVertex
100
AcDb2dVertex
 10
77.74531841877659
 20
32.2937015648427
 30
0.0
  0
VERTEX
  5
360
330
35E
100
AcDbEntity
  8
DIBUJOS
 62
     7
100
AcDbVertex
100
AcDb2dVertex
 10
77.74531841877659
 20
32.29932234570883
 30
0.0
  0
SEQEND
  5
361
330
35E
100
AcDbEntity
  8
DIBUJOS
 62
     7
  0
POLYLINE
  5
362
330
28E
100
AcDbEntity
  8
DIBUJOS
 62
     7
100
AcDb2dPolyline
 66
     1
 10
0.0
 20
0.0
 30
0.0
  0
VERTEX
  5
363
330
362
100
AcDbEntity
  8
DIBUJOS
 62
     7
100
AcDbVertex
100
AcDb2dVertex
 10
77.75093617446554
 20
32.29932234570883
 30
0.0
  0
VERTEX
  5
364
330
362
100
AcDbEntity
  8
DIBUJOS
 62
     7
100
AcDbVertex
100
AcDb2dVertex
 10
77.75599427220955
 20
32.2981984920532
 30
0.0
  0
VERTEX
  5
365
330
362
100
AcDbEntity
  8
DIBUJOS
 62
     7
100
AcDbVertex
100
AcDb2dVertex
 10
78.30225067752616
 20
32.29763580893108
 30
0.0
  0
VERTEX
  5
366
330
362
100
AcDbEntity
  8
DIBUJOS
 62
     7
100
AcDbVertex
100
AcDb2dVertex
 10
78.3129295561376
 20
32.29932234570883
 30
0.0
  0
SEQEND
  5
367
330
362
100
AcDbEntity
  8
DIBUJOS
 62
     7
  0
POLYLINE
  5
368
330
28E
100
AcDbEntity
  8
DIBUJOS
 62
     7
100
AcDb2dPolyline
 66
     1
 10
0.0
 20
0.0
 30
0.0
  0
VERTEX
  5
369
330
368
100
AcDbEntity
  8
DIBUJOS
 62
     7
100
AcDbVertex
100
AcDb2dVertex
 10
78.31854731182591
 20
32.2937015648427
 30
0.0
  0
VERTEX
  5
36A
330
368
100
AcDbEntity
  8
DIBUJOS
 62
     7
100
AcDbVertex
100
AcDb2dVertex
 10
78.31854731182591
 20
32.29932234570883
 30
0.0
  0
SEQEND
  5
36B
330
368
100
AcDbEntity
  8
DIBUJOS
 62
     7
  0
POLYLINE
  5
36C
330
28E
100
AcDbEntity
  8
DIBUJOS
 62
     7
100
AcDb2dPolyline
 66
     1
 10
0.0
 20
0.0
 30
0.0
  0
VERTEX
  5
36D
330
36C
100
AcDbEntity
  8
DIBUJOS
 62
     7
100
AcDbVertex
100
AcDb2dVertex
 10
77.75093617446554
 20
31.26525748810653
 30
0.0
  0
VERTEX
  5
36E
330
36C
100
AcDbEntity
  8
DIBUJOS
 62
     7
100
AcDbVertex
100
AcDb2dVertex
 10
77.74531841877659
 20
31.27087826897331
 30
0.0
  0
VERTEX
  5
36F
330
36C
100
AcDbEntity
  8
DIBUJOS
 62
     7
100
AcDbVertex
100
AcDb2dVertex
 10
77.74531841877659
 20
32.2937015648427
 30
0.0
  0
SEQEND
  5
370
330
36C
100
AcDbEntity
  8
DIBUJOS
 62
     7
  0
POLYLINE
  5
371
330
28E
100
AcDbEntity
  8
DIBUJOS
 62
     7
100
AcDb2dPolyline
 66
     1
 10
0.0
 20
0.0
 30
0.0
  0
VERTEX
  5
372
330
371
100
AcDbEntity
  8
DIBUJOS
 62
     7
100
AcDbVertex
100
AcDb2dVertex
 10
78.31854731182591
 20
31.26525748810653
 30
0.0
  0
VERTEX
  5
373
330
371
100
AcDbEntity
  8
DIBUJOS
 62
     7
100
AcDbVertex
100
AcDb2dVertex
 10
78.31854731182591
 20
32.2937015648427
 30
0.0
  0
SEQEND
  5
374
330
371
100
AcDbEntity
  8
DIBUJOS
 62
     7
  0
POLYLINE
  5
375
330
28E
100
AcDbEntity
  8
DIBUJOS
 62
     7
100
AcDb2dPolyline
 66
     1
 10
0.0
 20
0.0
 30
0.0
  0
VERTEX
  5
376
330
375
100
AcDbEntity
  8
DIBUJOS
 62
     7
100
AcDbVertex
100
AcDb2dVertex
 10
77.74531841877659
 20
31.25963821982899
 30
0.0
  0
VERTEX
  5
377
330
375
100
AcDbEntity
  8
DIBUJOS
 62
     7
100
AcDbVertex
100
AcDb2dVertex
 10
77.73969763790981
 20
31.25963821982899
 30
0.0
  0
SEQEND
  5
378
330
375
100
AcDbEntity
  8
DIBUJOS
 62
     7
  0
POLYLINE
  5
379
330
28E
100
AcDbEntity
  8
DIBUJOS
 62
     7
100
AcDb2dPolyline
 66
     1
 10
0.0
 20
0.0
 30
0.0
  0
VERTEX
  5
37A
330
379
100
AcDbEntity
  8
DIBUJOS
 62
     7
100
AcDbVertex
100
AcDb2dVertex
 10
77.74531841877659
 20
31.25963821982899
 30
0.0
  0
VERTEX
  5
37B
330
379
100
AcDbEntity
  8
DIBUJOS
 62
     7
100
AcDbVertex
100
AcDb2dVertex
 10
77.75093617446554
 20
31.26525748810653
 30
0.0
  0
SEQEND
  5
37C
330
379
100
AcDbEntity
  8
DIBUJOS
 62
     7
  0
POLYLINE
  5
37D
330
28E
100
AcDbEntity
  8
DIBUJOS
 62
     7
100
AcDb2dPolyline
 66
     1
 10
0.0
 20
0.0
 30
0.0
  0
VERTEX
  5
37E
330
37D
100
AcDbEntity
  8
DIBUJOS
 62
     7
100
AcDbVertex
100
AcDb2dVertex
 10
78.3129295561376
 20
31.25963821982899
 30
0.0
  0
VERTEX
  5
37F
330
37D
100
AcDbEntity
  8
DIBUJOS
 62
     7
100
AcDbVertex
100
AcDb2dVertex
 10
77.75655695533167
 20
31.25963821982899
 30
0.0
  0
VERTEX
  5
380
330
37D
100
AcDbEntity
  8
DIBUJOS
 62
     7
100
AcDbVertex
100
AcDb2dVertex
 10
77.75093617446554
 20
31.26525748810653
 30
0.0
  0
SEQEND
  5
381
330
37D
100
AcDbEntity
  8
DIBUJOS
 62
     7
  0
POLYLINE
  5
382
330
28E
100
AcDbEntity
  8
DIBUJOS
 62
     7
100
AcDb2dPolyline
 66
     1
 10
0.0
 20
0.0
 30
0.0
  0
VERTEX
  5
383
330
382
100
AcDbEntity
  8
DIBUJOS
 62
     7
100
AcDbVertex
100
AcDb2dVertex
 10
78.31854731182591
 20
31.25963821982899
 30
0.0
  0
VERTEX
  5
384
330
382
100
AcDbEntity
  8
DIBUJOS
 62
     7
100
AcDbVertex
100
AcDb2dVertex
 10
78.3129295561376
 20
31.25963821982899
 30
0.0
  0
SEQEND
  5
385
330
382
100
AcDbEntity
  8
DIBUJOS
 62
     7
  0
POLYLINE
  5
386
330
28E
100
AcDbEntity
  8
DIBUJOS
 62
     7
100
AcDb2dPolyline
 66
     1
 10
0.0
 20
0.0
 30
0.0
  0
VERTEX
  5
387
330
386
100
AcDbEntity
  8
DIBUJOS
 62
     7
100
AcDbVertex
100
AcDb2dVertex
 10
78.31854731182591
 20
31.25963821982899
 30
0.0
  0
VERTEX
  5
388
330
386
100
AcDbEntity
  8
DIBUJOS
 62
     7
100
AcDbVertex
100
AcDb2dVertex
 10
78.31854731182591
 20
31.26525748810653
 30
0.0
  0
SEQEND
  5
389
330
386
100
AcDbEntity
  8
DIBUJOS
 62
     7
  0
POLYLINE
  5
38A
330
28E
100
AcDbEntity
  8
DIBUJOS
 62
     7
100
AcDb2dPolyline
 66
     1
 10
0.0
 20
0.0
 30
0.0
  0
VERTEX
  5
38B
330
38A
100
AcDbEntity
  8
DIBUJOS
 62
     7
100
AcDbVertex
100
AcDb2dVertex
 10
77.7284560761769
 20
35.5307721896124
 30
0.0
  0
VERTEX
  5
38C
330
38A
100
AcDbEntity
  8
DIBUJOS
 62
     7
100
AcDbVertex
100
AcDb2dVertex
 10
77.68911666046705
 20
35.53639297047853
 30
0.0
  0
VERTEX
  5
38D
330
38A
100
AcDbEntity
  8
DIBUJOS
 62
     7
100
AcDbVertex
100
AcDb2dVertex
 10
76.1772355137667
 20
35.53344190926445
 30
0.0
  0
VERTEX
  5
38E
330
38A
100
AcDbEntity
  8
DIBUJOS
 62
     7
100
AcDbVertex
100
AcDb2dVertex
 10
76.03729682629282
 20
35.52299143159895
 30
0.0
  0
VERTEX
  5
38F
330
38A
100
AcDbEntity
  8
DIBUJOS
 62
     7
100
AcDbVertex
100
AcDb2dVertex
 10
75.97560739495232
 20
35.50154896939059
 30
0.0
  0
VERTEX
  5
390
330
38A
100
AcDbEntity
  8
DIBUJOS
 62
     7
100
AcDbVertex
100
AcDb2dVertex
 10
75.94132607698648
 20
35.47457345648069
 30
0.0
  0
VERTEX
  5
391
330
38A
100
AcDbEntity
  8
DIBUJOS
 62
     7
100
AcDbVertex
100
AcDb2dVertex
 10
75.92558910063103
 20
35.4459114067924
 30
0.0
  0
VERTEX
  5
392
330
38A
100
AcDbEntity
  8
DIBUJOS
 62
     7
100
AcDbVertex
100
AcDb2dVertex
 10
75.91686146187973
 20
35.41886933996396
 30
0.0
  0
VERTEX
  5
393
330
38A
100
AcDbEntity
  8
DIBUJOS
 62
     7
100
AcDbVertex
100
AcDb2dVertex
 10
75.90198666127664
 20
35.3565552093505
 30
0.0
  0
VERTEX
  5
394
330
38A
100
AcDbEntity
  8
DIBUJOS
 62
     7
100
AcDbVertex
100
AcDb2dVertex
 10
75.90198666127664
 20
31.43385520009025
 30
0.0
  0
VERTEX
  5
395
330
38A
100
AcDbEntity
  8
DIBUJOS
 62
     7
100
AcDbVertex
100
AcDb2dVertex
 10
75.93570529611972
 20
31.32145622123824
 30
0.0
  0
VERTEX
  5
396
330
38A
100
AcDbEntity
  8
DIBUJOS
 62
     7
100
AcDbVertex
100
AcDb2dVertex
 10
75.98122515063999
 20
31.28324065918403
 30
0.0
  0
VERTEX
  5
397
330
38A
100
AcDbEntity
  8
DIBUJOS
 62
     7
100
AcDbVertex
100
AcDb2dVertex
 10
76.00258290786222
 20
31.2748110004731
 30
0.0
  0
VERTEX
  5
398
330
38A
100
AcDbEntity
  8
DIBUJOS
 62
     7
100
AcDbVertex
100
AcDb2dVertex
 10
76.08182139722621
 20
31.25401743896286
 30
0.0
  0
VERTEX
  5
399
330
38A
100
AcDbEntity
  8
DIBUJOS
 62
     7
100
AcDbVertex
100
AcDb2dVertex
 10
77.7284560761769
 20
31.25401743896286
 30
0.0
  0
VERTEX
  5
39A
330
38A
100
AcDbEntity
  8
DIBUJOS
 62
     7
100
AcDbVertex
100
AcDb2dVertex
 10
77.73969763790981
 20
31.25963821982899
 30
0.0
  0
SEQEND
  5
39B
330
38A
100
AcDbEntity
  8
DIBUJOS
 62
     7
  0
POLYLINE
  5
39C
330
28E
100
AcDbEntity
  8
DIBUJOS
 62
     7
100
AcDb2dPolyline
 66
     1
 10
0.0
 20
0.0
 30
0.0
  0
VERTEX
  5
39D
330
39C
100
AcDbEntity
  8
DIBUJOS
 62
     7
100
AcDbVertex
100
AcDb2dVertex
 10
77.74531841877659
 20
31.25401743896286
 30
0.0
  0
VERTEX
  5
39E
330
39C
100
AcDbEntity
  8
DIBUJOS
 62
     7
100
AcDbVertex
100
AcDb2dVertex
 10
77.74531841877659
 20
31.25963821982899
 30
0.0
  0
SEQEND
  5
39F
330
39C
100
AcDbEntity
  8
DIBUJOS
 62
     7
  0
POLYLINE
  5
3A0
330
28E
100
AcDbEntity
  8
DIBUJOS
 62
     7
100
AcDb2dPolyline
 66
     1
 10
0.0
 20
0.0
 30
0.0
  0
VERTEX
  5
3A1
330
3A0
100
AcDbEntity
  8
DIBUJOS
 62
     7
100
AcDbVertex
100
AcDb2dVertex
 10
78.31854731182591
 20
31.25401743896286
 30
0.0
  0
VERTEX
  5
3A2
330
3A0
100
AcDbEntity
  8
DIBUJOS
 62
     7
100
AcDbVertex
100
AcDb2dVertex
 10
78.31854731182591
 20
31.25963821982899
 30
0.0
  0
SEQEND
  5
3A3
330
3A0
100
AcDbEntity
  8
DIBUJOS
 62
     7
  0
POLYLINE
  5
3A4
330
28E
100
AcDbEntity
  8
DIBUJOS
 62
     7
100
AcDb2dPolyline
 66
     1
 10
0.0
 20
0.0
 30
0.0
  0
VERTEX
  5
3A5
330
3A4
100
AcDbEntity
  8
DIBUJOS
 62
     7
100
AcDbVertex
100
AcDb2dVertex
 10
78.31854731182591
 20
31.23153885326282
 30
0.0
  0
VERTEX
  5
3A6
330
3A4
100
AcDbEntity
  8
DIBUJOS
 62
     7
100
AcDbVertex
100
AcDb2dVertex
 10
78.31854731182591
 20
31.25401743896286
 30
0.0
  0
SEQEND
  5
3A7
330
3A4
100
AcDbEntity
  8
DIBUJOS
 62
     7
  0
POLYLINE
  5
3A8
330
28E
100
AcDbEntity
  8
DIBUJOS
 62
     7
100
AcDb2dPolyline
 66
     1
 10
0.0
 20
0.0
 30
0.0
  0
VERTEX
  5
3A9
330
3A8
100
AcDbEntity
  8
DIBUJOS
 62
     7
100
AcDbVertex
100
AcDb2dVertex
 10
75.81768704899017
 20
31.22591807239669
 30
0.0
  0
VERTEX
  5
3AA
330
3A8
100
AcDbEntity
  8
DIBUJOS
 62
     7
100
AcDbVertex
100
AcDb2dVertex
 10
75.79970236532408
 20
31.25345626842934
 30
0.0
  0
VERTEX
  5
3AB
330
3A8
100
AcDbEntity
  8
DIBUJOS
 62
     7
100
AcDbVertex
100
AcDb2dVertex
 10
75.75418251080254
 20
31.36023446641521
 30
0.0
  0
VERTEX
  5
3AC
330
3A8
100
AcDbEntity
  8
DIBUJOS
 62
     7
100
AcDbVertex
100
AcDb2dVertex
 10
75.74264448161848
 20
31.39963892345373
 30
0.0
  0
VERTEX
  5
3AD
330
3A8
100
AcDbEntity
  8
DIBUJOS
 62
     7
100
AcDbVertex
100
AcDb2dVertex
 10
75.72776665583693
 20
31.46757383493396
 30
0.0
  0
VERTEX
  5
3AE
330
3A8
100
AcDbEntity
  8
DIBUJOS
 62
     7
100
AcDbVertex
100
AcDb2dVertex
 10
75.72776665583693
 20
35.3228350619182
 30
0.0
  0
VERTEX
  5
3AF
330
3A8
100
AcDbEntity
  8
DIBUJOS
 62
     7
100
AcDbVertex
100
AcDb2dVertex
 10
75.74116819471651
 20
35.38984275631804
 30
0.0
  0
VERTEX
  5
3B0
330
3A8
100
AcDbEntity
  8
DIBUJOS
 62
     7
100
AcDbVertex
100
AcDb2dVertex
 10
75.74294094906962
 20
35.39645579559388
 30
0.0
  0
VERTEX
  5
3B1
330
3A8
100
AcDbEntity
  8
DIBUJOS
 62
     7
100
AcDbVertex
100
AcDb2dVertex
 10
75.78059534059095
 20
35.50154896939059
 30
0.0
  0
VERTEX
  5
3B2
330
3A8
100
AcDbEntity
  8
DIBUJOS
 62
     7
100
AcDbVertex
100
AcDb2dVertex
 10
75.80082773156832
 20
35.54201223875607
 30
0.0
  0
SEQEND
  5
3B3
330
3A8
100
AcDbEntity
  8
DIBUJOS
 62
     7
  0
POLYLINE
  5
3B4
330
28E
100
AcDbEntity
  8
DIBUJOS
 62
     7
100
AcDb2dPolyline
 66
     1
 10
0.0
 20
0.0
 30
0.0
  0
VERTEX
  5
3B5
330
3B4
100
AcDbEntity
  8
DIBUJOS
 62
     7
100
AcDbVertex
100
AcDb2dVertex
 10
78.31854731182591
 20
31.22591807239669
 30
0.0
  0
VERTEX
  5
3B6
330
3B4
100
AcDbEntity
  8
DIBUJOS
 62
     7
100
AcDbVertex
100
AcDb2dVertex
 10
78.31854731182591
 20
31.23153885326282
 30
0.0
  0
SEQEND
  5
3B7
330
3B4
100
AcDbEntity
  8
DIBUJOS
 62
     7
  0
POLYLINE
  5
3B8
330
28E
100
AcDbEntity
  8
DIBUJOS
 62
     7
100
AcDb2dPolyline
 66
     1
 10
0.0
 20
0.0
 30
0.0
  0
VERTEX
  5
3B9
330
3B8
100
AcDbEntity
  8
DIBUJOS
 62
     7
100
AcDbVertex
100
AcDb2dVertex
 10
78.32416809269269
 20
31.22591807239669
 30
0.0
  0
VERTEX
  5
3BA
330
3B8
100
AcDbEntity
  8
DIBUJOS
 62
     7
100
AcDbVertex
100
AcDb2dVertex
 10
78.31854731182591
 20
31.22591807239669
 30
0.0
  0
SEQEND
  5
3BB
330
3B8
100
AcDbEntity
  8
DIBUJOS
 62
     7
  0
POLYLINE
  5
3BC
330
28E
100
AcDbEntity
  8
DIBUJOS
 62
     7
100
AcDb2dPolyline
 66
     1
 10
0.0
 20
0.0
 30
0.0
  0
VERTEX
  5
3BD
330
3BC
100
AcDbEntity
  8
DIBUJOS
 62
     7
100
AcDbVertex
100
AcDb2dVertex
 10
78.32416809269269
 20
31.22591807239669
 30
0.0
  0
VERTEX
  5
3BE
330
3BC
100
AcDbEntity
  8
DIBUJOS
 62
     7
100
AcDbVertex
100
AcDb2dVertex
 10
79.98804326150251
 20
31.22925938158215
 30
0.0
  0
VERTEX
  5
3BF
330
3BC
100
AcDbEntity
  8
DIBUJOS
 62
     7
100
AcDbVertex
100
AcDb2dVertex
 10
80.06577823736218
 20
31.24952202434032
 30
0.0
  0
VERTEX
  5
3C0
330
3BC
100
AcDbEntity
  8
DIBUJOS
 62
     7
100
AcDbVertex
100
AcDb2dVertex
 10
80.0770197990951
 20
31.25514129261786
 30
0.0
  0
VERTEX
  5
3C1
330
3BC
100
AcDbEntity
  8
DIBUJOS
 62
     7
100
AcDbVertex
100
AcDb2dVertex
 10
80.12253965361666
 20
31.28773758639453
 30
0.0
  0
VERTEX
  5
3C2
330
3BC
100
AcDbEntity
  8
DIBUJOS
 62
     7
100
AcDbVertex
100
AcDb2dVertex
 10
80.15262504958953
 20
31.36592028861001
 30
0.0
  0
VERTEX
  5
3C3
330
3BC
100
AcDbEntity
  8
DIBUJOS
 62
     7
100
AcDbVertex
100
AcDb2dVertex
 10
80.16187906932585
 20
31.40013505265794
 30
0.0
  0
VERTEX
  5
3C4
330
3BC
100
AcDbEntity
  8
DIBUJOS
 62
     7
100
AcDbVertex
100
AcDb2dVertex
 10
80.16187906932585
 20
35.33407511106187
 30
0.0
  0
VERTEX
  5
3C5
330
3BC
100
AcDbEntity
  8
DIBUJOS
 62
     7
100
AcDbVertex
100
AcDb2dVertex
 10
80.1326558491047
 20
35.42343130850441
 30
0.0
  0
VERTEX
  5
3C6
330
3BC
100
AcDbEntity
  8
DIBUJOS
 62
     7
100
AcDbVertex
100
AcDb2dVertex
 10
80.12928580072766
 20
35.43017594302619
 30
0.0
  0
VERTEX
  5
3C7
330
3BC
100
AcDbEntity
  8
DIBUJOS
 62
     7
100
AcDbVertex
100
AcDb2dVertex
 10
80.08938370189504
 20
35.47007652926892
 30
0.0
  0
VERTEX
  5
3C8
330
3BC
100
AcDbEntity
  8
DIBUJOS
 62
     7
100
AcDbVertex
100
AcDb2dVertex
 10
80.07814214016214
 20
35.47569731013569
 30
0.0
  0
VERTEX
  5
3C9
330
3BC
100
AcDbEntity
  8
DIBUJOS
 62
     7
100
AcDbVertex
100
AcDb2dVertex
 10
80.02095114862138
 20
35.49489055244354
 30
0.0
  0
VERTEX
  5
3CA
330
3BC
100
AcDbEntity
  8
DIBUJOS
 62
     7
100
AcDbVertex
100
AcDb2dVertex
 10
79.99933625126293
 20
35.49921353191536
 30
0.0
  0
VERTEX
  5
3CB
330
3BC
100
AcDbEntity
  8
DIBUJOS
 62
     7
100
AcDbVertex
100
AcDb2dVertex
 10
78.32416809269269
 20
35.50267282304623
 30
0.0
  0
SEQEND
  5
3CC
330
3BC
100
AcDbEntity
  8
DIBUJOS
 62
     7
  0
POLYLINE
  5
3CD
330
28E
100
AcDbEntity
  8
DIBUJOS
 62
     7
100
AcDb2dPolyline
 66
     1
 10
0.0
 20
0.0
 30
0.0
  0
VERTEX
  5
3CE
330
3CD
100
AcDbEntity
  8
DIBUJOS
 62
     7
100
AcDbVertex
100
AcDb2dVertex
 10
75.81768704899017
 20
31.22029880411915
 30
0.0
  0
VERTEX
  5
3CF
330
3CD
100
AcDbEntity
  8
DIBUJOS
 62
     7
100
AcDbVertex
100
AcDb2dVertex
 10
75.8120662681234
 20
31.22029880411915
 30
0.0
  0
SEQEND
  5
3D0
330
3CD
100
AcDbEntity
  8
DIBUJOS
 62
     7
  0
POLYLINE
  5
3D1
330
28E
100
AcDbEntity
  8
DIBUJOS
 62
     7
100
AcDb2dPolyline
 66
     1
 10
0.0
 20
0.0
 30
0.0
  0
VERTEX
  5
3D2
330
3D1
100
AcDbEntity
  8
DIBUJOS
 62
     7
100
AcDbVertex
100
AcDb2dVertex
 10
75.81768704899017
 20
31.22029880411915
 30
0.0
  0
VERTEX
  5
3D3
330
3D1
100
AcDbEntity
  8
DIBUJOS
 62
     7
100
AcDbVertex
100
AcDb2dVertex
 10
75.81768704899017
 20
31.22591807239669
 30
0.0
  0
SEQEND
  5
3D4
330
3D1
100
AcDbEntity
  8
DIBUJOS
 62
     7
  0
POLYLINE
  5
3D5
330
28E
100
AcDbEntity
  8
DIBUJOS
 62
     7
100
AcDb2dPolyline
 66
     1
 10
0.0
 20
0.0
 30
0.0
  0
VERTEX
  5
3D6
330
3D5
100
AcDbEntity
  8
DIBUJOS
 62
     7
100
AcDbVertex
100
AcDb2dVertex
 10
75.82330782985694
 20
31.22029880411915
 30
0.0
  0
VERTEX
  5
3D7
330
3D5
100
AcDbEntity
  8
DIBUJOS
 62
     7
100
AcDbVertex
100
AcDb2dVertex
 10
75.81768704899017
 20
31.22029880411915
 30
0.0
  0
SEQEND
  5
3D8
330
3D5
100
AcDbEntity
  8
DIBUJOS
 62
     7
  0
POLYLINE
  5
3D9
330
28E
100
AcDbEntity
  8
DIBUJOS
 62
     7
100
AcDb2dPolyline
 66
     1
 10
0.0
 20
0.0
 30
0.0
  0
VERTEX
  5
3DA
330
3D9
100
AcDbEntity
  8
DIBUJOS
 62
     7
100
AcDbVertex
100
AcDb2dVertex
 10
78.31854731182591
 20
31.22029880411915
 30
0.0
  0
VERTEX
  5
3DB
330
3D9
100
AcDbEntity
  8
DIBUJOS
 62
     7
100
AcDbVertex
100
AcDb2dVertex
 10
78.31854731182591
 20
31.22591807239669
 30
0.0
  0
SEQEND
  5
3DC
330
3D9
100
AcDbEntity
  8
DIBUJOS
 62
     7
  0
POLYLINE
  5
3DD
330
28E
100
AcDbEntity
  8
DIBUJOS
 62
     7
100
AcDb2dPolyline
 66
     1
 10
0.0
 20
0.0
 30
0.0
  0
VERTEX
  5
3DE
330
3DD
100
AcDbEntity
  8
DIBUJOS
 62
     7
100
AcDbVertex
100
AcDb2dVertex
 10
80.2517994624791
 20
31.20905875497483
 30
0.0
  0
VERTEX
  5
3DF
330
3DD
100
AcDbEntity
  8
DIBUJOS
 62
     7
100
AcDbVertex
100
AcDb2dVertex
 10
80.27540190183414
 20
31.25345626842934
 30
0.0
  0
VERTEX
  5
3E0
330
3DD
100
AcDbEntity
  8
DIBUJOS
 62
     7
100
AcDbVertex
100
AcDb2dVertex
 10
80.31163445965946
 20
31.34443244873108
 30
0.0
  0
VERTEX
  5
3E1
330
3DD
100
AcDbEntity
  8
DIBUJOS
 62
     7
100
AcDbVertex
100
AcDb2dVertex
 10
80.33609604958775
 20
31.47319461580074
 30
0.0
  0
VERTEX
  5
3E2
330
3DD
100
AcDbEntity
  8
DIBUJOS
 62
     7
100
AcDbVertex
100
AcDb2dVertex
 10
80.33298011616847
 20
35.26688741856707
 30
0.0
  0
VERTEX
  5
3E3
330
3DD
100
AcDbEntity
  8
DIBUJOS
 62
     7
100
AcDbVertex
100
AcDb2dVertex
 10
80.32797344645131
 20
35.31696470386073
 30
0.0
  0
VERTEX
  5
3E4
330
3DD
100
AcDbEntity
  8
DIBUJOS
 62
     7
100
AcDbVertex
100
AcDb2dVertex
 10
80.31163445965946
 20
35.38977771498937
 30
0.0
  0
VERTEX
  5
3E5
330
3DD
100
AcDbEntity
  8
DIBUJOS
 62
     7
100
AcDbVertex
100
AcDb2dVertex
 10
80.26753341365674
 20
35.49649087164657
 30
0.0
  0
VERTEX
  5
3E6
330
3DD
100
AcDbEntity
  8
DIBUJOS
 62
     7
100
AcDbVertex
100
AcDb2dVertex
 10
80.2405579007462
 20
35.54201223875607
 30
0.0
  0
SEQEND
  5
3E7
330
3DD
100
AcDbEntity
  8
DIBUJOS
 62
     7
  0
POLYLINE
  5
3E8
330
28E
100
AcDbEntity
  8
DIBUJOS
 62
     7
100
AcDb2dPolyline
 66
     1
 10
0.0
 20
0.0
 30
0.0
  0
VERTEX
  5
3E9
330
3E8
100
AcDbEntity
  8
DIBUJOS
 62
     7
100
AcDbVertex
100
AcDb2dVertex
 10
80.2517994624791
 20
31.20343797410806
 30
0.0
  0
VERTEX
  5
3EA
330
3E8
100
AcDbEntity
  8
DIBUJOS
 62
     7
100
AcDbVertex
100
AcDb2dVertex
 10
80.24617868161232
 20
31.20343797410806
 30
0.0
  0
SEQEND
  5
3EB
330
3E8
100
AcDbEntity
  8
DIBUJOS
 62
     7
  0
POLYLINE
  5
3EC
330
28E
100
AcDbEntity
  8
DIBUJOS
 62
     7
100
AcDb2dPolyline
 66
     1
 10
0.0
 20
0.0
 30
0.0
  0
VERTEX
  5
3ED
330
3EC
100
AcDbEntity
  8
DIBUJOS
 62
     7
100
AcDbVertex
100
AcDb2dVertex
 10
80.2517994624791
 20
31.20343797410806
 30
0.0
  0
VERTEX
  5
3EE
330
3EC
100
AcDbEntity
  8
DIBUJOS
 62
     7
100
AcDbVertex
100
AcDb2dVertex
 10
80.2517994624791
 20
31.20905875497483
 30
0.0
  0
SEQEND
  5
3EF
330
3EC
100
AcDbEntity
  8
DIBUJOS
 62
     7
  0
POLYLINE
  5
3F0
330
28E
100
AcDbEntity
  8
DIBUJOS
 62
     7
100
AcDb2dPolyline
 66
     1
 10
0.0
 20
0.0
 30
0.0
  0
VERTEX
  5
3F1
330
3F0
100
AcDbEntity
  8
DIBUJOS
 62
     7
100
AcDbVertex
100
AcDb2dVertex
 10
80.2517994624791
 20
31.19781870583115
 30
0.0
  0
VERTEX
  5
3F2
330
3F0
100
AcDbEntity
  8
DIBUJOS
 62
     7
100
AcDbVertex
100
AcDb2dVertex
 10
80.2517994624791
 20
31.20343797410806
 30
0.0
  0
SEQEND
  5
3F3
330
3F0
100
AcDbEntity
  8
DIBUJOS
 62
     7
  0
POLYLINE
  5
3F4
330
28E
100
AcDbEntity
  8
DIBUJOS
 62
     7
100
AcDb2dPolyline
 66
     1
 10
0.0
 20
0.0
 30
0.0
  0
VERTEX
  5
3F5
330
3F4
100
AcDbEntity
  8
DIBUJOS
 62
     7
100
AcDbVertex
100
AcDb2dVertex
 10
77.74531841877659
 20
31.16971933926498
 30
0.0
  0
VERTEX
  5
3F6
330
3F4
100
AcDbEntity
  8
DIBUJOS
 62
     7
100
AcDbVertex
100
AcDb2dVertex
 10
77.74531841877659
 20
31.25401743896286
 30
0.0
  0
SEQEND
  5
3F7
330
3F4
100
AcDbEntity
  8
DIBUJOS
 62
     7
  0
POLYLINE
  5
3F8
330
28E
100
AcDbEntity
  8
DIBUJOS
 62
     7
100
AcDb2dPolyline
 66
     1
 10
0.0
 20
0.0
 30
0.0
  0
VERTEX
  5
3F9
330
3F8
100
AcDbEntity
  8
DIBUJOS
 62
     7
100
AcDbVertex
100
AcDb2dVertex
 10
78.31854731182591
 20
31.16971933926498
 30
0.0
  0
VERTEX
  5
3FA
330
3F8
100
AcDbEntity
  8
DIBUJOS
 62
     7
100
AcDbVertex
100
AcDb2dVertex
 10
78.31854731182591
 20
31.22029880411915
 30
0.0
  0
SEQEND
  5
3FB
330
3F8
100
AcDbEntity
  8
DIBUJOS
 62
     7
  0
POLYLINE
  5
3FC
330
28E
100
AcDbEntity
  8
DIBUJOS
 62
     7
100
AcDb2dPolyline
 66
     1
 10
0.0
 20
0.0
 30
0.0
  0
VERTEX
  5
3FD
330
3FC
100
AcDbEntity
  8
DIBUJOS
 62
     7
100
AcDbVertex
100
AcDb2dVertex
 10
77.74531841877659
 20
31.16409855839885
 30
0.0
  0
VERTEX
  5
3FE
330
3FC
100
AcDbEntity
  8
DIBUJOS
 62
     7
100
AcDbVertex
100
AcDb2dVertex
 10
77.74531841877659
 20
31.16971933926498
 30
0.0
  0
SEQEND
  5
3FF
330
3FC
100
AcDbEntity
  8
DIBUJOS
 62
     7
  0
POLYLINE
  5
400
330
28E
100
AcDbEntity
  8
DIBUJOS
 62
     7
100
AcDb2dPolyline
 66
     1
 10
0.0
 20
0.0
 30
0.0
  0
VERTEX
  5
401
330
400
100
AcDbEntity
  8
DIBUJOS
 62
     7
100
AcDbVertex
100
AcDb2dVertex
 10
77.75093617446554
 20
31.16409855839885
 30
0.0
  0
VERTEX
  5
402
330
400
100
AcDbEntity
  8
DIBUJOS
 62
     7
100
AcDbVertex
100
AcDb2dVertex
 10
77.74531841877659
 20
31.16409855839885
 30
0.0
  0
SEQEND
  5
403
330
400
100
AcDbEntity
  8
DIBUJOS
 62
     7
  0
POLYLINE
  5
404
330
28E
100
AcDbEntity
  8
DIBUJOS
 62
     7
100
AcDb2dPolyline
 66
     1
 10
0.0
 20
0.0
 30
0.0
  0
VERTEX
  5
405
330
404
100
AcDbEntity
  8
DIBUJOS
 62
     7
100
AcDbVertex
100
AcDb2dVertex
 10
78.31854731182591
 20
31.16409855839885
 30
0.0
  0
VERTEX
  5
406
330
404
100
AcDbEntity
  8
DIBUJOS
 62
     7
100
AcDbVertex
100
AcDb2dVertex
 10
78.3129295561376
 20
31.16409855839885
 30
0.0
  0
SEQEND
  5
407
330
404
100
AcDbEntity
  8
DIBUJOS
 62
     7
  0
POLYLINE
  5
408
330
28E
100
AcDbEntity
  8
DIBUJOS
 62
     7
100
AcDb2dPolyline
 66
     1
 10
0.0
 20
0.0
 30
0.0
  0
VERTEX
  5
409
330
408
100
AcDbEntity
  8
DIBUJOS
 62
     7
100
AcDbVertex
100
AcDb2dVertex
 10
78.31854731182591
 20
31.16409855839885
 30
0.0
  0
VERTEX
  5
40A
330
408
100
AcDbEntity
  8
DIBUJOS
 62
     7
100
AcDbVertex
100
AcDb2dVertex
 10
78.31854731182591
 20
31.16971933926498
 30
0.0
  0
SEQEND
  5
40B
330
408
100
AcDbEntity
  8
DIBUJOS
 62
     7
  0
POLYLINE
  5
40C
330
28E
100
AcDbEntity
  8
DIBUJOS
 62
     7
100
AcDb2dPolyline
 66
     1
 10
0.0
 20
0.0
 30
0.0
  0
VERTEX
  5
40D
330
40C
100
AcDbEntity
  8
DIBUJOS
 62
     7
100
AcDbVertex
100
AcDb2dVertex
 10
75.8907450995431
 20
31.15847929012066
 30
0.0
  0
VERTEX
  5
40E
330
40C
100
AcDbEntity
  8
DIBUJOS
 62
     7
100
AcDbVertex
100
AcDb2dVertex
 10
75.87864136205846
 20
31.16842153787002
 30
0.0
  0
VERTEX
  5
40F
330
40C
100
AcDbEntity
  8
DIBUJOS
 62
     7
100
AcDbVertex
100
AcDb2dVertex
 10
75.83324856501643
 20
31.20819355404464
 30
0.0
  0
VERTEX
  5
410
330
40C
100
AcDbEntity
  8
DIBUJOS
 62
     7
100
AcDbVertex
100
AcDb2dVertex
 10
75.82330782985694
 20
31.22029880411915
 30
0.0
  0
SEQEND
  5
411
330
40C
100
AcDbEntity
  8
DIBUJOS
 62
     7
  0
POLYLINE
  5
412
330
28E
100
AcDbEntity
  8
DIBUJOS
 62
     7
100
AcDb2dPolyline
 66
     1
 10
0.0
 20
0.0
 30
0.0
  0
VERTEX
  5
413
330
412
100
AcDbEntity
  8
DIBUJOS
 62
     7
100
AcDbVertex
100
AcDb2dVertex
 10
77.74531841877659
 20
31.15847929012066
 30
0.0
  0
VERTEX
  5
414
330
412
100
AcDbEntity
  8
DIBUJOS
 62
     7
100
AcDbVertex
100
AcDb2dVertex
 10
77.74531841877659
 20
31.16409855839885
 30
0.0
  0
SEQEND
  5
415
330
412
100
AcDbEntity
  8
DIBUJOS
 62
     7
  0
POLYLINE
  5
416
330
28E
100
AcDbEntity
  8
DIBUJOS
 62
     7
100
AcDb2dPolyline
 66
     1
 10
0.0
 20
0.0
 30
0.0
  0
VERTEX
  5
417
330
416
100
AcDbEntity
  8
DIBUJOS
 62
     7
100
AcDbVertex
100
AcDb2dVertex
 10
77.75093617446554
 20
31.16409855839885
 30
0.0
  0
VERTEX
  5
418
330
416
100
AcDbEntity
  8
DIBUJOS
 62
     7
100
AcDbVertex
100
AcDb2dVertex
 10
77.7729836722881
 20
31.16193706866294
 30
0.0
  0
VERTEX
  5
419
330
416
100
AcDbEntity
  8
DIBUJOS
 62
     7
100
AcDbVertex
100
AcDb2dVertex
 10
78.3129295561376
 20
31.16409855839885
 30
0.0
  0
SEQEND
  5
41A
330
416
100
AcDbEntity
  8
DIBUJOS
 62
     7
  0
POLYLINE
  5
41B
330
28E
100
AcDbEntity
  8
DIBUJOS
 62
     7
100
AcDb2dPolyline
 66
     1
 10
0.0
 20
0.0
 30
0.0
  0
VERTEX
  5
41C
330
41B
100
AcDbEntity
  8
DIBUJOS
 62
     7
100
AcDbVertex
100
AcDb2dVertex
 10
78.31854731182591
 20
31.15847929012066
 30
0.0
  0
VERTEX
  5
41D
330
41B
100
AcDbEntity
  8
DIBUJOS
 62
     7
100
AcDbVertex
100
AcDb2dVertex
 10
78.31854731182591
 20
31.16409855839885
 30
0.0
  0
SEQEND
  5
41E
330
41B
100
AcDbEntity
  8
DIBUJOS
 62
     7
  0
POLYLINE
  5
41F
330
28E
100
AcDbEntity
  8
DIBUJOS
 62
     7
100
AcDb2dPolyline
 66
     1
 10
0.0
 20
0.0
 30
0.0
  0
VERTEX
  5
420
330
41F
100
AcDbEntity
  8
DIBUJOS
 62
     7
100
AcDbVertex
100
AcDb2dVertex
 10
80.17873838674771
 20
31.13599919183267
 30
0.0
  0
VERTEX
  5
421
330
41F
100
AcDbEntity
  8
DIBUJOS
 62
     7
100
AcDbVertex
100
AcDb2dVertex
 10
80.19661113882533
 20
31.15151079242131
 30
0.0
  0
VERTEX
  5
422
330
41F
100
AcDbEntity
  8
DIBUJOS
 62
     7
100
AcDbVertex
100
AcDb2dVertex
 10
80.24617868161232
 20
31.20343797410806
 30
0.0
  0
SEQEND
  5
423
330
41F
100
AcDbEntity
  8
DIBUJOS
 62
     7
  0
POLYLINE
  5
424
330
28E
100
AcDbEntity
  8
DIBUJOS
 62
     7
100
AcDb2dPolyline
 66
     1
 10
0.0
 20
0.0
 30
0.0
  0
VERTEX
  5
425
330
424
100
AcDbEntity
  8
DIBUJOS
 62
     7
100
AcDbVertex
100
AcDb2dVertex
 10
80.17873838674771
 20
31.13037992355513
 30
0.0
  0
VERTEX
  5
426
330
424
100
AcDbEntity
  8
DIBUJOS
 62
     7
100
AcDbVertex
100
AcDb2dVertex
 10
80.1731206310594
 20
31.13037992355513
 30
0.0
  0
SEQEND
  5
427
330
424
100
AcDbEntity
  8
DIBUJOS
 62
     7
  0
POLYLINE
  5
428
330
28E
100
AcDbEntity
  8
DIBUJOS
 62
     7
100
AcDb2dPolyline
 66
     1
 10
0.0
 20
0.0
 30
0.0
  0
VERTEX
  5
429
330
428
100
AcDbEntity
  8
DIBUJOS
 62
     7
100
AcDbVertex
100
AcDb2dVertex
 10
80.17873838674771
 20
31.13037992355513
 30
0.0
  0
VERTEX
  5
42A
330
428
100
AcDbEntity
  8
DIBUJOS
 62
     7
100
AcDbVertex
100
AcDb2dVertex
 10
80.17873838674771
 20
31.13599919183267
 30
0.0
  0
SEQEND
  5
42B
330
428
100
AcDbEntity
  8
DIBUJOS
 62
     7
  0
POLYLINE
  5
42C
330
28E
100
AcDbEntity
  8
DIBUJOS
 62
     7
100
AcDb2dPolyline
 66
     1
 10
0.0
 20
0.0
 30
0.0
  0
VERTEX
  5
42D
330
42C
100
AcDbEntity
  8
DIBUJOS
 62
     7
100
AcDbVertex
100
AcDb2dVertex
 10
75.8907450995431
 20
31.15847929012066
 30
0.0
  0
VERTEX
  5
42E
330
42C
100
AcDbEntity
  8
DIBUJOS
 62
     7
100
AcDbVertex
100
AcDb2dVertex
 10
75.93626797924183
 20
31.13712304548831
 30
0.0
  0
VERTEX
  5
42F
330
42C
100
AcDbEntity
  8
DIBUJOS
 62
     7
100
AcDbVertex
100
AcDb2dVertex
 10
76.02618534721725
 20
31.10396558117812
 30
0.0
  0
VERTEX
  5
430
330
42C
100
AcDbEntity
  8
DIBUJOS
 62
     7
100
AcDbVertex
100
AcDb2dVertex
 10
76.03630154270593
 20
31.10059402021185
 30
0.0
  0
VERTEX
  5
431
330
42C
100
AcDbEntity
  8
DIBUJOS
 62
     7
100
AcDbVertex
100
AcDb2dVertex
 10
76.10441040192484
 20
31.08811364805572
 30
0.0
  0
VERTEX
  5
432
330
42C
100
AcDbEntity
  8
DIBUJOS
 62
     7
100
AcDbVertex
100
AcDb2dVertex
 10
76.23907317883341
 20
31.08272731849053
 30
0.0
  0
VERTEX
  5
433
330
42C
100
AcDbEntity
  8
DIBUJOS
 62
     7
100
AcDbVertex
100
AcDb2dVertex
 10
76.91356990800172
 20
31.07980045870097
 30
0.0
  0
VERTEX
  5
434
330
42C
100
AcDbEntity
  8
DIBUJOS
 62
     7
100
AcDbVertex
100
AcDb2dVertex
 10
76.94728854284479
 20
31.08541972697851
 30
0.0
  0
VERTEX
  5
435
330
42C
100
AcDbEntity
  8
DIBUJOS
 62
     7
100
AcDbVertex
100
AcDb2dVertex
 10
76.95290932371157
 20
31.07980045870097
 30
0.0
  0
VERTEX
  5
436
330
42C
100
AcDbEntity
  8
DIBUJOS
 62
     7
100
AcDbVertex
100
AcDb2dVertex
 10
77.73407685704368
 20
31.08541972697851
 30
0.0
  0
VERTEX
  5
437
330
42C
100
AcDbEntity
  8
DIBUJOS
 62
     7
100
AcDbVertex
100
AcDb2dVertex
 10
77.74284987346618
 20
31.11379438474913
 30
0.0
  0
VERTEX
  5
438
330
42C
100
AcDbEntity
  8
DIBUJOS
 62
     7
100
AcDbVertex
100
AcDb2dVertex
 10
77.74531841877659
 20
31.15847929012066
 30
0.0
  0
SEQEND
  5
439
330
42C
100
AcDbEntity
  8
DIBUJOS
 62
     7
  0
POLYLINE
  5
43A
330
28E
100
AcDbEntity
  8
DIBUJOS
 62
     7
100
AcDb2dPolyline
 66
     1
 10
0.0
 20
0.0
 30
0.0
  0
VERTEX
  5
43B
330
43A
100
AcDbEntity
  8
DIBUJOS
 62
     7
100
AcDbVertex
100
AcDb2dVertex
 10
78.31854731182591
 20
31.15847929012066
 30
0.0
  0
VERTEX
  5
43C
330
43A
100
AcDbEntity
  8
DIBUJOS
 62
     7
100
AcDbVertex
100
AcDb2dVertex
 10
78.31854731182591
 20
31.06294114127911
 30
0.0
  0
VERTEX
  5
43D
330
43A
100
AcDbEntity
  8
DIBUJOS
 62
     7
100
AcDbVertex
100
AcDb2dVertex
 10
78.32416809269269
 20
31.05732036041234
 30
0.0
  0
VERTEX
  5
43E
330
43A
100
AcDbEntity
  8
DIBUJOS
 62
     7
100
AcDbVertex
100
AcDb2dVertex
 10
78.39704160738295
 20
31.05472475762306
 30
0.0
  0
VERTEX
  5
43F
330
43A
100
AcDbEntity
  8
DIBUJOS
 62
     7
100
AcDbVertex
100
AcDb2dVertex
 10
79.852917632349
 20
31.05465820370516
 30
0.0
  0
VERTEX
  5
440
330
43A
100
AcDbEntity
  8
DIBUJOS
 62
     7
100
AcDbVertex
100
AcDb2dVertex
 10
79.99933625126293
 20
31.06639891982074
 30
0.0
  0
VERTEX
  5
441
330
43A
100
AcDbEntity
  8
DIBUJOS
 62
     7
100
AcDbVertex
100
AcDb2dVertex
 10
80.11635921480558
 20
31.10396558117812
 30
0.0
  0
VERTEX
  5
442
330
43A
100
AcDbEntity
  8
DIBUJOS
 62
     7
100
AcDbVertex
100
AcDb2dVertex
 10
80.1731206310594
 20
31.13037992355513
 30
0.0
  0
SEQEND
  5
443
330
43A
100
AcDbEntity
  8
DIBUJOS
 62
     7
  0
POLYLINE
  5
444
330
28E
100
AcDbEntity
  8
DIBUJOS
 62
     7
100
AcDb2dPolyline
 66
     1
 10
0.0
 20
0.0
 30
0.0
  0
VERTEX
  5
445
330
444
100
AcDbEntity
  8
DIBUJOS
 62
     7
100
AcDbVertex
100
AcDb2dVertex
 10
75.8120662681234
 20
31.22029880411915
 30
0.0
  0
VERTEX
  5
446
330
444
100
AcDbEntity
  8
DIBUJOS
 62
     7
100
AcDbVertex
100
AcDb2dVertex
 10
75.66459791241662
 20
31.07558487305121
 30
0.0
  0
VERTEX
  5
447
330
444
100
AcDbEntity
  8
DIBUJOS
 62
     7
100
AcDbVertex
100
AcDb2dVertex
 10
75.63784928786214
 20
31.04046104299112
 30
0.0
  0
VERTEX
  5
448
330
444
100
AcDbEntity
  8
DIBUJOS
 62
     7
100
AcDbVertex
100
AcDb2dVertex
 10
75.64909084959505
 20
30.99550235900373
 30
0.0
  0
VERTEX
  5
449
330
444
100
AcDbEntity
  8
DIBUJOS
 62
     7
100
AcDbVertex
100
AcDb2dVertex
 10
75.67156792270522
 20
30.97864152899264
 30
0.0
  0
VERTEX
  5
44A
330
444
100
AcDbEntity
  8
DIBUJOS
 62
     7
100
AcDbVertex
100
AcDb2dVertex
 10
75.70528958272676
 20
30.97864152899264
 30
0.0
  0
VERTEX
  5
44B
330
444
100
AcDbEntity
  8
DIBUJOS
 62
     7
100
AcDbVertex
100
AcDb2dVertex
 10
75.8907450995431
 20
31.15847929012066
 30
0.0
  0
SEQEND
  5
44C
330
444
100
AcDbEntity
  8
DIBUJOS
 62
     7
  0
POLYLINE
  5
44D
330
28E
100
AcDbEntity
  8
DIBUJOS
 62
     7
100
AcDb2dPolyline
 66
     1
 10
0.0
 20
0.0
 30
0.0
  0
VERTEX
  5
44E
330
44D
100
AcDbEntity
  8
DIBUJOS
 62
     7
100
AcDbVertex
100
AcDb2dVertex
 10
80.17873838674771
 20
31.13037992355513
 30
0.0
  0
VERTEX
  5
44F
330
44D
100
AcDbEntity
  8
DIBUJOS
 62
     7
100
AcDbVertex
100
AcDb2dVertex
 10
80.29535597642794
 20
31.01102152253724
 30
0.0
  0
VERTEX
  5
450
330
44D
100
AcDbEntity
  8
DIBUJOS
 62
     7
100
AcDbVertex
100
AcDb2dVertex
 10
80.33609604958775
 20
30.97864152899264
 30
0.0
  0
VERTEX
  5
451
330
44D
100
AcDbEntity
  8
DIBUJOS
 62
     7
100
AcDbVertex
100
AcDb2dVertex
 10
80.3703803927314
 20
30.98313845620378
 30
0.0
  0
VERTEX
  5
452
330
44D
100
AcDbEntity
  8
DIBUJOS
 62
     7
100
AcDbVertex
100
AcDb2dVertex
 10
80.39791556358558
 20
31.00674089555881
 30
0.0
  0
VERTEX
  5
453
330
44D
100
AcDbEntity
  8
DIBUJOS
 62
     7
100
AcDbVertex
100
AcDb2dVertex
 10
80.39342014896368
 20
31.05226226266832
 30
0.0
  0
VERTEX
  5
454
330
44D
100
AcDbEntity
  8
DIBUJOS
 62
     7
100
AcDbVertex
100
AcDb2dVertex
 10
80.2517994624791
 20
31.19781870583115
 30
0.0
  0
SEQEND
  5
455
330
44D
100
AcDbEntity
  8
DIBUJOS
 62
     7
  0
ENDBLK
  5
291
330
28E
100
AcDbEntity
  8
0
100
AcDbBlockEnd
  0
ENDSEC
  0
SECTION
  2
ENTITIES
  0
MTEXT
  5
41
330
1F
100
AcDbEntity
  8
REFERENCIAS
 62
   255
100
AcDbMText
 10
59.30367989646965
 20
54.85563098807646
 30
0.0
 40
1.49859999962535
 41
0.0
 71
     7
 72
     1
  1
\fMyriad Pro|b0|i0|c0|p34;\W1;HERMES_1152_1152-R__AUXILIA-
  0
MTEXT
  5
42
330
1F
100
AcDbEntity
  8
REFERENCIAS
 62
   255
100
AcDbMText
 10
59.30367989646965
 20
52.31556208680176
 30
0.0
 40
1.49859999962535
 41
0.0
 71
     7
 72
     1
  1
\fMyriad Pro|b0|i0|c0|p34;\W1;RY_TABLE
  0
MTEXT
  5
44
330
1F
100
AcDbEntity
  8
M_U_00C1RGENES
 62
   255
100
AcDbMText
 10
90.14127864703391
 20
23.7555119243149
 30
0.0
 40
1.748366666229575
 41
0.0
 71
     7
 72
     1
  1
\fMyriad Pro|b0|i0|c0|p34;\W1;400
  0
MTEXT
  5
45
330
1F
100
AcDbEntity
  8
M_U_00C1RGENES
 62
   255
100
AcDbMText
 10
84.21176331851954
 20
20.50332059082737
 30
0.0
 40
1.748366666229575
 41
0.0
 71
     7
 72
     1
  1
\fMyriad Pro|b0|i0|c0|p34;\W1;400
  0
POLYLINE
  5
46
330
1F
100
AcDbEntity
  8
M_U_00C1RGENES
 62
   255
100
AcDb2dPolyline
 66
     1
 10
0.0
 20
0.0
 30
0.0
  0
VERTEX
  5
47
330
46
100
AcDbEntity
  8
M_U_00C1RGENES
 62
   255
100
AcDbVertex
100
AcDb2dVertex
 10
84.41666477502157
 20
24.76314475783758
 30
0.0
  0
VERTEX
  5
48
330
46
100
AcDbEntity
  8
M_U_00C1RGENES
 62
   255
100
AcDbVertex
100
AcDb2dVertex
 10
94.99999810570907
 20
19.74726776251925
 30
0.0
  0
SEQEND
  5
49
330
46
100
AcDbEntity
  8
M_U_00C1RGENES
 62
   255
  0
POLYLINE
  5
4A
330
1F
100
AcDbEntity
  8
M_U_00C1RGENES
 62
   254
100
AcDb2dPolyline
 66
     1
 10
0.0
 20
0.0
 30
0.0
  0
VERTEX
  5
4B
330
4A
100
AcDbEntity
  8
M_U_00C1RGENES
 62
   254
100
AcDbVertex
100
AcDb2dVertex
 10
54.99999767595828
 20
20.88258920325216
 30
0.0
  0
VERTEX
  5
4C
330
4A
100
AcDbEntity
  8
M_U_00C1RGENES
 62
   254
100
AcDbVertex
100
AcDb2dVertex
 10
54.99999767595828
 20
19.74726776251925
 30
0.0
  0
SEQEND
  5
4D
330
4A
100
AcDbEntity
  8
M_U_00C1RGENES
 62
   254
  0
POLYLINE
  5
4E
330
1F
100
AcDbEntity
  8
M_U_00C1RGENES
 62
   255
100
AcDb2dPolyline
 66
     1
 10
0.0
 20
0.0
 30
0.0
  0
VERTEX
  5
4F
330
4E
100
AcDbEntity
  8
M_U_00C1RGENES
 62
   255
100
AcDbVertex
100
AcDb2dVertex
 10
94.99999797321169
 20
59.74726768656564
 30
0.0
  0
VERTEX
  5
50
330
4E
100
AcDbEntity
  8
M_U_00C1RGENES
 62
   255
100
AcDbVertex
100
AcDb2dVertex
 10
93.86467653247878
 20
59.74726768651462
 30
0.0
  0
SEQEND
  5
51
330
4E
100
AcDbEntity
  8
M_U_00C1RGENES
 62
   255
  0
INSERT
  5
54
330
1F
100
AcDbEntity
  8
DIBUJOS
100
AcDbBlockReference
  2
BLOCK_2
 10
0.0
 20
0.0
 30
0.0
  0
INSERT
  5
BB
330
1F
100
AcDbEntity
  8
DIBUJOS
100
AcDbBlockReference
  2
BLOCK_3
 10
0.0
 20
0.0
 30
0.0
  0
INSERT
  5
1E2
330
1F
100
AcDbEntity
  8
DIBUJOS
100
AcDbBlockReference
  2
BLOCK_4
 10
0.0
 20
0.0
 30
0.0
  0
INSERT
  5
28F
330
1F
100
AcDbEntity
  8
DIBUJOS
100
AcDbBlockReference
  2
BLOCK_5
 10
0.0
 20
0.0
 30
0.0
  0
POLYLINE
  5
457
330
1F
100
AcDbEntity
  8
COTAS_LINEA
 62
     7
100
AcDb2dPolyline
 66
     1
 10
0.0
 20
0.0
 30
0.0
  0
VERTEX
  5
458
330
457
100
AcDbEntity
  8
COTAS_LINEA
 62
     7
100
AcDbVertex
100
AcDb2dVertex
 10
67.7033397852046
 20
48.73840767701921
 30
0.0
  0
VERTEX
  5
459
330
457
100
AcDbEntity
  8
COTAS_LINEA
 62
     7
100
AcDbVertex
100
AcDb2dVertex
 10
67.70333978606834
 20
43.73226650822431
 30
0.0
  0
SEQEND
  5
45A
330
457
100
AcDbEntity
  8
COTAS_LINEA
 62
     7
  0
POLYLINE
  5
45B
330
1F
100
AcDbEntity
  8
COTAS_LINEA
 62
     7
100
AcDb2dPolyline
 66
     1
 10
0.0
 20
0.0
 30
0.0
  0
VERTEX
  5
45C
330
45B
100
AcDbEntity
  8
COTAS_LINEA
 62
     7
100
AcDbVertex
100
AcDb2dVertex
 10
60.87866218107848
 20
40.07230686707011
 30
0.0
  0
VERTEX
  5
45D
330
45B
100
AcDbEntity
  8
COTAS_LINEA
 62
     7
100
AcDbVertex
100
AcDb2dVertex
 10
65.70720176489816
 20
40.07230686707011
 30
0.0
  0
SEQEND
  5
45E
330
45B
100
AcDbEntity
  8
COTAS_LINEA
 62
     7
  0
POLYLINE
  5
45F
330
1F
100
AcDbEntity
  8
COTAS_LINEA
 62
     7
100
AcDb2dPolyline
 66
     1
 10
0.0
 20
0.0
 30
0.0
  0
VERTEX
  5
460
330
45F
100
AcDbEntity
  8
COTAS_LINEA
 62
     7
100
AcDbVertex
100
AcDb2dVertex
 10
82.52000644816744
 20
48.73840767701921
 30
0.0
  0
VERTEX
  5
461
330
45F
100
AcDbEntity
  8
COTAS_LINEA
 62
     7
100
AcDbVertex
100
AcDb2dVertex
 10
82.52000644903116
 20
43.73226650822431
 30
0.0
  0
SEQEND
  5
462
330
45F
100
AcDbEntity
  8
COTAS_LINEA
 62
     7
  0
POLYLINE
  5
463
330
1F
100
AcDbEntity
  8
COTAS_LINEA
 62
     7
100
AcDb2dPolyline
 66
     1
 10
0.0
 20
0.0
 30
0.0
  0
VERTEX
  5
464
330
463
100
AcDbEntity
  8
COTAS_LINEA
 62
     7
100
AcDbVertex
100
AcDb2dVertex
 10
75.69532884404097
 20
40.07230686707011
 30
0.0
  0
VERTEX
  5
465
330
463
100
AcDbEntity
  8
COTAS_LINEA
 62
     7
100
AcDbVertex
100
AcDb2dVertex
 10
80.52386842786065
 20
40.07230686707011
 30
0.0
  0
SEQEND
  5
466
330
463
100
AcDbEntity
  8
COTAS_LINEA
 62
     7
  0
MTEXT
  5
468
330
1F
100
AcDbEntity
  8
COTAS_N_U_00DAMERO
 62
     7
100
AcDbMText
 10
68.47847517208938
 20
45.13618226512384
 30
0.0
 40
1.998533025814148
 41
0.0
 71
     7
 72
     1
  1
\fMyriad Pro|b0|i0|c0|p34;\W1;50
  0
MTEXT
  5
469
330
1F
100
AcDbEntity
  8
COTAS_N_U_00DAMERO
 62
     7
100
AcDbMText
 10
61.78730306140322
 20
40.62727897476071
 30
0.0
 40
1.998533025814148
 41
0.0
 71
     7
 72
     1
  1
\fMyriad Pro|b0|i0|c0|p34;\W1;49
  0
MTEXT
  5
46A
330
1F
100
AcDbEntity
  8
COTAS_N_U_00DAMERO
 62
     7
100
AcDbMText
 10
83.29514183505187
 20
45.13618226512384
 30
0.0
 40
1.998533025814148
 41
0.0
 71
     7
 72
     1
  1
\fMyriad Pro|b0|i0|c0|p34;\W1;50
  0
MTEXT
  5
46B
330
1F
100
AcDbEntity
  8
COTAS_N_U_00DAMERO
 62
     7
100
AcDbMText
 10
76.60396972436573
 20
40.62727897476071
 30
0.0
 40
1.998533025814148
 41
0.0
 71
     7
 72
     1
  1
\fMyriad Pro|b0|i0|c0|p34;\W1;49
  0
ENDSEC
  0
SECTION
  2
OBJECTS
  0
DICTIONARY
  5
C
330
0
100
AcDbDictionary
  3
ACAD_GROUP
350
D
  3
ACAD_LAYOUT
350
1A
  3
ACAD_MATERIAL
350
3B
  3
ACAD_MLEADERSTYLE
350
48E
  3
ACAD_MLINESTYLE
350
17
  3
ACAD_PLOTSETTINGS
350
19
  3
ACAD_VISUALSTYLE
350
2A
  3
ACDBHEADERROUNDTRIPXREC
350
46C
  3
ACDBVARIABLEDICTIONARY
350
48C
  0
DICTIONARY
  5
D
102
{ACAD_REACTORS
330
C
102
}
330
C
100
AcDbDictionary
  0
DICTIONARY
  5
1A
102
{ACAD_REACTORS
330
C
102
}
330
C
100
AcDbDictionary
  0
DICTIONARY
  5
3B
102
{ACAD_REACTORS
330
C
102
}
330
C
100
AcDbDictionary
  3
BYBLOCK
350
3D
  3
BYLAYER
350
3C
  3
GLOBAL
350
3E
  0
DICTIONARY
  5
48E
102
{ACAD_REACTORS
330
C
102
}
330
C
100
AcDbDictionary
  0
DICTIONARY
  5
17
102
{ACAD_REACTORS
330
C
102
}
330
C
100
AcDbDictionary
  3
STANDARD
350
18
  0
DICTIONARY
  5
19
102
{ACAD_REACTORS
330
C
102
}
330
C
100
AcDbDictionary
  0
DICTIONARY
  5
2A
102
{ACAD_REACTORS
330
C
102
}
330
C
100
AcDbDictionary
  3
2DWIREFRAME
350
2F
  3
3D_HIDDEN
350
31
  3
3DWIREFRAME
350
30
  3
BASIC
350
32
  3
BRIGHTEN
350
36
  3
COLORCHANGE
350
3A
  3
CONCEPTUAL
350
34
  3
DIM
350
35
  3
FACEPATTERN
350
39
  3
FLAT
350
2B
  3
FLATWITHEDGES
350
2C
  3
GOURAUD
350
2D
  3
GOURAUDWITHEDGES
350
2E
  3
LINEPATTERN
350
38
  3
REALISTIC
350
33
  3
THICKEN
350
37
  0
DICTIONARY
  5
46C
102
{ACAD_REACTORS
330
C
102
}
330
C
100
AcDbDictionary
  3
CEPSNTYPE
350
475
  3
DIMSTYLEDATA
350
48B
  3
FINGERPRINTGUID
350
476
  3
HYPERLINKBASE
350
46F
  3
INSUNITS
350
474
  3
LAYOUTDICT
350
471
  3
LWETCUNION
350
473
  3
PLOTSETDICT
350
472
  3
PSVPSCALE
350
478
  3
PUCSBASE
350
47B
  3
PUCSORGBACK
350
481
  3
PUCSORGBOTTOM
350
47D
  3
PUCSORGFRONT
350
480
  3
PUCSORGLEFT
350
47E
  3
PUCSORGRIGHT
350
47F
  3
PUCSORGTOP
350
47C
  3
PUCSORTHOREF
350
479
  3
PUCSORTHOVIEW
350
47A
  3
STYLESHEET
350
470
  3
TSTACKALIGN
350
46D
  3
TSTACKSIZE
350
46E
  3
UCSBASE
350
484
  3
UCSORGBACK
350
48A
  3
UCSORGBOTTOM
350
486
  3
UCSORGFRONT
350
489
  3
UCSORGLEFT
350
487
  3
UCSORGRIGHT
350
488
  3
UCSORGTOP
350
485
  3
UCSORTHOREF
350
482
  3
UCSORTHOVIEW
350
483
  3
VERSIONGUID
350
477
  0
DICTIONARY
  5
48C
102
{ACAD_REACTORS
330
C
102
}
330
C
100
AcDbDictionary
  3
DIMASSOC
350
48F
  3
HIDETEXT
350
490
  0
MATERIAL
  5
3D
102
{ACAD_REACTORS
330
3B
102
}
102
{ACAD_XDICTIONARY
360
493
102
}
330
3B
100
AcDbMaterial
  1
ByBlock
  0
MATERIAL
  5
3C
102
{ACAD_REACTORS
330
3B
102
}
102
{ACAD_XDICTIONARY
360
491
102
}
330
3B
100
AcDbMaterial
  1
ByLayer
  0
MATERIAL
  5
3E
102
{ACAD_REACTORS
330
3B
102
}
102
{ACAD_XDICTIONARY
360
495
102
}
330
3B
100
AcDbMaterial
  1
Global
  0
MLINESTYLE
  5
18
102
{ACAD_REACTORS
330
17
102
}
330
17
100
AcDbMlineStyle
  2
Standard
 70
     0
  3

 62
   256
 51
90.0
 52
90.0
 71
     2
 49
0.5
 62
   256
  6
BYLAYER
 49
-0.5
 62
   256
  6
BYLAYER
  0
ACAD_PROXY_OBJECT
  5
2F
102
{ACAD_REACTORS
330
2A
102
}
330
2A
100
AcDbProxyObject
 90
      499
 91
      501
 93
      436
310
42CC9915DA5C99599C985B595049028333333333333E3BF0000000000000FB0107901411070040501600405405064090741402480A0340
1001
ACAD
1000
AcDbSavedByObjectVersion
1070
     0
  0
ACAD_PROXY_OBJECT
  5
31
102
{ACAD_REACTORS
330
2A
102
}
330
2A
100
AcDbProxyObject
 90
      499
 91
      501
 93
      500
310
424CD108121A5919195B90640502408333333333333E3BF0000000000000FB01079024090700405020000000000001110200405405064090740C02480A0340
1001
ACAD
1000
AcDbSavedByObjectVersion
1070
     0
  0
ACAD_PROXY_OBJECT
  5
30
102
{ACAD_REACTORS
330
2A
102
}
330
2A
100
AcDbProxyObject
 90
      499
 91
      501
 93
      436
310
42CCD915DA5C99599C985B595059028333333333333E3BF0000000000000FB0107901411070040501600405405064090741402480A0340
1001
ACAD
1000
AcDbSavedByObjectVersion
1070
     0
  0
ACAD_PROXY_OBJECT
  5
32
102
{ACAD_REACTORS
330
2A
102
}
330
2A
100
AcDbProxyObject
 90
      499
 91
      501
 93
      388
310
4150985CDA58D07406404333333333333E3BF0000000000000FB0107A41107004050150841D405064090741402480A0350
1001
ACAD
1000
AcDbSavedByObjectVersion
1070
     0
  0
ACAD_PROXY_OBJECT
  5
36
102
{ACAD_REACTORS
330
2A
102
}
330
2A
100
AcDbProxyObject
 90
      499
 91
      501
 93
      428
310
42109C9A59DA1D195B90C409028333333333333E3BF0000000000000FB010790141107004050150841D405064090741402480A029950
1001
ACAD
1000
AcDbSavedByObjectVersion
1070
     0
  0
ACAD_PROXY_OBJECT
  5
3A
102
{ACAD_REACTORS
330
2A
102
}
330
2A
100
AcDbProxyObject
 90
      499
 91
      501
 93
      452
310
42D0DBDB1BDC90DA185B99D95104090240C333333333333E3BF0000000000000FB0108901411070040501508421405064090741402480A0350
1001
ACAD
1000
AcDbSavedByObjectVersion
1070
     0
  0
ACAD_PROXY_OBJECT
  5
34
102
{ACAD_REACTORS
330
2A
102
}
330
2A
100
AcDbProxyObject
 90
      499
 91
      501
 93
      500
310
4290DBDB98D95C1D1D585B10940D028333333333333E3BF0000000000000FB0107902409070040501000000000000111010841D405064090740C02480A0340
1001
ACAD
1000
AcDbSavedByObjectVersion
1070
     0
  0
ACAD_PROXY_OBJECT
  5
35
102
{ACAD_REACTORS
330
2A
102
}
330
2A
100
AcDbProxyObject
 90
      499
 91
      501
 93
      412
310
40D11A5B50B409028333333333333E3BF0000000000000FB010790141107004050150841D405064090741402480A02677FFFFFD0
1001
ACAD
1000
AcDbSavedByObjectVersion
1070
     0
  0
ACAD_PROXY_OBJECT
  5
39
102
{ACAD_REACTORS
330
2A
102
}
330
2A
100
AcDbProxyObject
 90
      499
 91
      501
 93
      444
310
42D19858D95C185D1D195C9B90F409028333333333333E3BF0000000000000FB010790141107004050150841D405064090741402480A0350
1001
ACAD
1000
AcDbSavedByObjectVersion
1070
     0
  0
ACAD_PROXY_OBJECT
  5
2B
102
{ACAD_REACTORS
330
2A
102
}
330
2A
100
AcDbProxyObject
 90
      499
 91
      501
 93
      388
310
41119B185D240901404333333333333E3BF0000000000000F9010740A41107004050150841D405064090741402480A1B50
1001
ACAD
1000
AcDbSavedByObjectVersion
1070
     0
  0
ACAD_PROXY_OBJECT
  5
2C
102
{ACAD_REACTORS
330
2A
102
}
330
2A
100
AcDbProxyObject
 90
      499
 91
      501
 93
      476
310
43519B185D15DA5D1A115919D95CD0140901404333333333333E3BF0000000000000F9010740901411070040501600405405064090741402480A1B50
1001
ACAD
1000
AcDbSavedByObjectVersion
1070
     0
  0
ACAD_PROXY_OBJECT
  5
2D
102
{ACAD_REACTORS
330
2A
102
}
330
2A
100
AcDbProxyObject
 90
      499
 91
      501
 93
      412
310
41D1DBDD5C985D5910240902404333333333333E3BF0000000000000F9010740A411070040501641D405064090741402480A1B50
1001
ACAD
1000
AcDbSavedByObjectVersion
1070
     0
  0
ACAD_PROXY_OBJECT
  5
2E
102
{ACAD_REACTORS
330
2A
102
}
330
2A
100
AcDbProxyObject
 90
      499
 91
      501
 93
      500
310
4411DBDD5C985D5915DA5D1A115919D95CD0340902404333333333333E3BF0000000000000F9010740901411070040501600405405064090741402480A1B50
1001
ACAD
1000
AcDbSavedByObjectVersion
1070
     0
  0
ACAD_PROXY_OBJECT
  5
38
102
{ACAD_REACTORS
330
2A
102
}
330
2A
100
AcDbProxyObject
 90
      499
 91
      501
 93
      444
310
42D31A5B995C185D1D195C9B90E409028333333333333E3BF0000000000000FB010790141107004050750841D405064090741402483A0350
1001
ACAD
1000
AcDbSavedByObjectVersion
1070
     0
  0
ACAD_PROXY_OBJECT
  5
33
102
{ACAD_REACTORS
330
2A
102
}
330
2A
100
AcDbProxyObject
 90
      499
 91
      501
 93
      420
310
425499585B1A5CDD1A58D08409028333333333333E3BF0000000000000FB01079019070040501508421405064090741402480A1B40
1001
ACAD
1000
AcDbSavedByObjectVersion
1070
     0
  0
ACAD_PROXY_OBJECT
  5
37
102
{ACAD_REACTORS
330
2A
102
}
330
2A
100
AcDbProxyObject
 90
      499
 91
      501
 93
      412
310
41D51A1A58DAD95B90D409028333333333333E3BF0000000000000FB010790141107004050150C41D405064090741402480A0350
1001
ACAD
1000
AcDbSavedByObjectVersion
1070
     0
  0
XRECORD
  5
475
102
{ACAD_REACTORS
330
46C
102
}
330
46C
100
AcDbXrecord
 90
        0
  0
XRECORD
  5
48B
102
{ACAD_REACTORS
330
46C
102
}
330
46C
100
AcDbXrecord
1000
DSTYLE
1002
{
1070
   340
340
11
1002
}
  0
XRECORD
  5
476
102
{ACAD_REACTORS
330
46C
102
}
330
46C
100
AcDbXrecord
  1
{3E773998-3861-4D76-ADA0-6366BC49A06A}
  0
XRECORD
  5
46F
102
{ACAD_REACTORS
330
46C
102
}
330
46C
100
AcDbXrecord
  1

  0
XRECORD
  5
474
102
{ACAD_REACTORS
330
46C
102
}
330
46C
100
AcDbXrecord
 90
        1
  0
XRECORD
  5
471
102
{ACAD_REACTORS
330
46C
102
}
330
46C
100
AcDbXrecord
340
1A
  0
XRECORD
  5
473
102
{ACAD_REACTORS
330
46C
102
}
330
46C
100
AcDbXrecord
 90
    10269
  0
XRECORD
  5
472
102
{ACAD_REACTORS
330
46C
102
}
330
46C
100
AcDbXrecord
340
19
  0
XRECORD
  5
478
102
{ACAD_REACTORS
330
46C
102
}
330
46C
100
AcDbXrecord
 40
0.0
  0
XRECORD
  5
47B
102
{ACAD_REACTORS
330
46C
102
}
330
46C
100
AcDbXrecord
340
0
  0
XRECORD
  5
481
102
{ACAD_REACTORS
330
46C
102
}
330
46C
100
AcDbXrecord
 10
0.0
 20
0.0
 30
0.0
  0
XRECORD
  5
47D
102
{ACAD_REACTORS
330
46C
102
}
330
46C
100
AcDbXrecord
 10
0.0
 20
0.0
 30
0.0
  0
XRECORD
  5
480
102
{ACAD_REACTORS
330
46C
102
}
330
46C
100
AcDbXrecord
 10
0.0
 20
0.0
 30
0.0
  0
XRECORD
  5
47E
102
{ACAD_REACTORS
330
46C
102
}
330
46C
100
AcDbXrecord
 10
0.0
 20
0.0
 30
0.0
  0
XRECORD
  5
47F
102
{ACAD_REACTORS
330
46C
102
}
330
46C
100
AcDbXrecord
 10
0.0
 20
0.0
 30
0.0
  0
XRECORD
  5
47C
102
{ACAD_REACTORS
330
46C
102
}
330
46C
100
AcDbXrecord
 10
0.0
 20
0.0
 30
0.0
  0
XRECORD
  5
479
102
{ACAD_REACTORS
330
46C
102
}
330
46C
100
AcDbXrecord
340
0
  0
XRECORD
  5
47A
102
{ACAD_REACTORS
330
46C
102
}
330
46C
100
AcDbXrecord
 70
     0
  0
XRECORD
  5
470
102
{ACAD_REACTORS
330
46C
102
}
330
46C
100
AcDbXrecord
  1

  0
XRECORD
  5
46D
102
{ACAD_REACTORS
330
46C
102
}
330
46C
100
AcDbXrecord
 90
        1
  0
XRECORD
  5
46E
102
{ACAD_REACTORS
330
46C
102
}
330
46C
100
AcDbXrecord
 90
       70
  0
XRECORD
  5
484
102
{ACAD_REACTORS
330
46C
102
}
330
46C
100
AcDbXrecord
340
0
  0
XRECORD
  5
48A
102
{ACAD_REACTORS
330
46C
102
}
330
46C
100
AcDbXrecord
 10
0.0
 20
0.0
 30
0.0
  0
XRECORD
  5
486
102
{ACAD_REACTORS
330
46C
102
}
330
46C
100
AcDbXrecord
 10
0.0
 20
0.0
 30
0.0
  0
XRECORD
  5
489
102
{ACAD_REACTORS
330
46C
102
}
330
46C
100
AcDbXrecord
 10
0.0
 20
0.0
 30
0.0
  0
XRECORD
  5
487
102
{ACAD_REACTORS
330
46C
102
}
330
46C
100
AcDbXrecord
 10
0.0
 20
0.0
 30
0.0
  0
XRECORD
  5
488
102
{ACAD_REACTORS
330
46C
102
}
330
46C
100
AcDbXrecord
 10
0.0
 20
0.0
 30
0.0
  0
XRECORD
  5
485
102
{ACAD_REACTORS
330
46C
102
}
330
46C
100
AcDbXrecord
 10
0.0
 20
0.0
 30
0.0
  0
XRECORD
  5
482
102
{ACAD_REACTORS
330
46C
102
}
330
46C
100
AcDbXrecord
340
0
  0
XRECORD
  5
483
102
{ACAD_REACTORS
330
46C
102
}
330
46C
100
AcDbXrecord
 70
     0
  0
XRECORD
  5
477
102
{ACAD_REACTORS
330
46C
102
}
330
46C
100
AcDbXrecord
  1
{FAEB1C32-E019-11D5-929B-00C0DF256EC4}
  0
DICTIONARYVAR
  5
48F
102
{ACAD_REACTORS
330
48C
102
}
330
48C
100
DictionaryVariables
280
     0
  1
2
  0
DICTIONARYVAR
  5
490
102
{ACAD_REACTORS
330
48C
102
}
330
48C
100
DictionaryVariables
280
     0
  1
1
  0
DICTIONARY
  5
493
330
3D
100
AcDbDictionary
280
     1
  3
ACAD_XREC_ROUNDTRIP
360
494
  0
DICTIONARY
  5
491
330
3C
100
AcDbDictionary
280
     1
  3
ACAD_XREC_ROUNDTRIP
360
492
  0
DICTIONARY
  5
495
330
3E
100
AcDbDictionary
280
     1
  3
ACAD_XREC_ROUNDTRIP
360
496
  0
XRECORD
  5
494
102
{ACAD_REACTORS
330
493
102
}
330
493
100
AcDbXrecord
102
MATERIAL
148
0.0
149
0.0
149
0.0
 93
        0
 94
      127
282
     0
 72
     1
 77
     1
171
     1
175
     1
179
     1
273
     0
  0
XRECORD
  5
492
102
{ACAD_REACTORS
330
491
102
}
330
491
100
AcDbXrecord
102
MATERIAL
148
0.0
149
0.0
149
0.0
 93
        0
 94
      127
282
     0
 72
     1
 77
     1
171
     1
175
     1
179
     1
273
     0
  0
XRECORD
  5
496
102
{ACAD_REACTORS
330
495
102
}
330
495
100
AcDbXrecord
102
MATERIAL
148
0.0
149
0.0
149
0.0
 93
        0
 94
      127
282
     0
 72
     1
 77
     1
171
     1
175
     1
179
     1
273
     0
  0
ENDSEC
  0
EOF
