  0
SECTION
  2
HEADER
  9
$ACADVER
  1
AC1018
  9
$ACADMAINTVER
 70
     0
  9
$DWGCODEPAGE
  3
ANSI_1252
  9
$INSBASE
 10
0.0
 20
0.0
 30
0.0
  9
$EXTMIN
 10
0.0
 20
0.0
 30
0.0
  9
$EXTMAX
 10
4455.0
 20
3150.0
 30
0.0
  9
$LIMMIN
 10
0.0
 20
0.0
  9
$LIMMAX
 10
4455.0
 20
3150.0
  9
$ORTHOMODE
 70
     0
  9
$REGENMODE
 70
     1
  9
$FILLMODE
 70
     1
  9
$QTEXTMODE
 70
     0
  9
$MIRRTEXT
 70
     1
  9
$LTSCALE
 40
15.0
  9
$ATTMODE
 70
     1
  9
$TEXTSIZE
 40
52.5
  9
$TRACEWID
 40
1.0
  9
$TEXTSTYLE
  7
Standard
  9
$CLAYER
  8
0
  9
$CELTYPE
  6
ByLayer
  9
$CECOLOR
 62
   256
  9
$CELTSCALE
 40
1.0
  9
$DISPSILH
 70
     0
  9
$DIMSCALE
 40
1.0
  9
$DIMASZ
 40
37.5
  9
$DIMEXO
 40
0.0
  9
$DIMDLI
 40
3.75
  9
$DIMRND
 40
0.0
  9
$DIMDLE
 40
0.0
  9
$DIMEXE
 40
15.0
  9
$DIMTP
 40
0.0
  9
$DIMTM
 40
0.0
  9
$DIMTXT
 40
45.0
  9
$DIMCEN
 40
2.5
  9
$DIMTSZ
 40
0.0
  9
$DIMTOL
 70
     0
  9
$DIMLIM
 70
     0
  9
$DIMTIH
 70
     1
  9
$DIMTOH
 70
     1
  9
$DIMSE1
 70
     0
  9
$DIMSE2
 70
     0
  9
$DIMTAD
 70
     1
  9
$DIMZIN
 70
     0
  9
$DIMBLK
  1

  9
$DIMASO
 70
     1
  9
$DIMSHO
 70
     1
  9
$DIMPOST
  1

  9
$DIMAPOST
  1

  9
$DIMALT
 70
     0
  9
$DIMALTD
 70
     3
  9
$DIMALTF
 40
0.0393700787
  9
$DIMLFAC
 40
1.0
  9
$DIMTOFL
 70
     1
  9
$DIMTVP
 40
0.0
  9
$DIMTIX
 70
     0
  9
$DIMSOXD
 70
     0
  9
$DIMSAH
 70
     0
  9
$DIMBLK1
  1

  9
$DIMBLK2
  1

  9
$DIMSTYLE
  2
ISO-25
  9
$DIMCLRD
 70
     0
  9
$DIMCLRE
 70
     0
  9
$DIMCLRT
 70
     0
  9
$DIMTFAC
 40
1.0
  9
$DIMGAP
 40
22.5
  9
$DIMJUST
 70
     0
  9
$DIMSD1
 70
     0
  9
$DIMSD2
 70
     0
  9
$DIMTOLJ
 70
     0
  9
$DIMTZIN
 70
     0
  9
$DIMALTZ
 70
     0
  9
$DIMALTTZ
 70
     0
  9
$DIMUPT
 70
     0
  9
$DIMDEC
 70
     1
  9
$DIMTDEC
 70
     1
  9
$DIMALTU
 70
     2
  9
$DIMALTTD
 70
     3
  9
$DIMTXSTY
  7
Standard
  9
$DIMAUNIT
 70
     0
  9
$DIMADEC
 70
     2
  9
$DIMALTRND
 40
0.0
  9
$DIMAZIN
 70
     0
  9
$DIMDSEP
 70
    44
  9
$DIMATFIT
 70
     3
  9
$DIMFRAC
 70
     0
  9
$DIMLDRBLK
  1

  9
$DIMLUNIT
 70
     2
  9
$DIMLWD
 70
    -2
  9
$DIMLWE
 70
    -2
  9
$DIMTMOVE
 70
     0
  9
$LUNITS
 70
     2
  9
$LUPREC
 70
     2
  9
$SKETCHINC
 40
1.0
  9
$FILLETRAD
 40
10.0
  9
$AUNITS
 70
     0
  9
$AUPREC
 70
     2
  9
$MENU
  1
.
  9
$ELEVATION
 40
0.0
  9
$PELEVATION
 40
0.0
  9
$THICKNESS
 40
0.0
  9
$LIMCHECK
 70
     0
  9
$CHAMFERA
 40
0.0
  9
$CHAMFERB
 40
0.0
  9
$CHAMFERC
 40
0.0
  9
$CHAMFERD
 40
0.0
  9
$SKPOLY
 70
     0
  9
$TDCREATE
 40
2457126.347101493
  9
$TDUCREATE
 40
2457126.26376816
  9
$TDUPDATE
 40
2457126.347102037
  9
$TDUUPDATE
 40
2457126.263768704
  9
$TDINDWG
 40
0.0000000116
  9
$TDUSRTIMER
 40
0.0000000116
  9
$USRTIMER
 70
     1
  9
$ANGBASE
 50
0.0
  9
$ANGDIR
 70
     0
  9
$PDMODE
 70
     0
  9
$PDSIZE
 40
-1.0
  9
$PLINEWID
 40
0.0
  9
$SPLFRAME
 70
     0
  9
$SPLINETYPE
 70
     6
  9
$SPLINESEGS
 70
     8
  9
$HANDSEED
  5
191
  9
$SURFTAB1
 70
     6
  9
$SURFTAB2
 70
     6
  9
$SURFTYPE
 70
     6
  9
$SURFU
 70
     6
  9
$SURFV
 70
     6
  9
$UCSBASE
  2

  9
$UCSNAME
  2

  9
$UCSORG
 10
0.0
 20
0.0
 30
0.0
  9
$UCSXDIR
 10
1.0
 20
0.0
 30
0.0
  9
$UCSYDIR
 10
0.0
 20
1.0
 30
0.0
  9
$UCSORTHOREF
  2

  9
$UCSORTHOVIEW
 70
     0
  9
$UCSORGTOP
 10
0.0
 20
0.0
 30
0.0
  9
$UCSORGBOTTOM
 10
0.0
 20
0.0
 30
0.0
  9
$UCSORGLEFT
 10
0.0
 20
0.0
 30
0.0
  9
$UCSORGRIGHT
 10
0.0
 20
0.0
 30
0.0
  9
$UCSORGFRONT
 10
0.0
 20
0.0
 30
0.0
  9
$UCSORGBACK
 10
0.0
 20
0.0
 30
0.0
  9
$PUCSBASE
  2

  9
$PUCSNAME
  2

  9
$PUCSORG
 10
0.0
 20
0.0
 30
0.0
  9
$PUCSXDIR
 10
1.0
 20
0.0
 30
0.0
  9
$PUCSYDIR
 10
0.0
 20
1.0
 30
0.0
  9
$PUCSORTHOREF
  2

  9
$PUCSORTHOVIEW
 70
     0
  9
$PUCSORGTOP
 10
0.0
 20
0.0
 30
0.0
  9
$PUCSORGBOTTOM
 10
0.0
 20
0.0
 30
0.0
  9
$PUCSORGLEFT
 10
0.0
 20
0.0
 30
0.0
  9
$PUCSORGRIGHT
 10
0.0
 20
0.0
 30
0.0
  9
$PUCSORGFRONT
 10
0.0
 20
0.0
 30
0.0
  9
$PUCSORGBACK
 10
0.0
 20
0.0
 30
0.0
  9
$USERI1
 70
     0
  9
$USERI2
 70
     0
  9
$USERI3
 70
     0
  9
$USERI4
 70
     0
  9
$USERI5
 70
     0
  9
$USERR1
 40
0.0
  9
$USERR2
 40
0.0
  9
$USERR3
 40
0.0
  9
$USERR4
 40
0.0
  9
$USERR5
 40
0.0
  9
$WORLDVIEW
 70
     1
  9
$SHADEDGE
 70
     3
  9
$SHADEDIF
 70
    70
  9
$TILEMODE
 70
     1
  9
$MAXACTVP
 70
    64
  9
$PINSBASE
 10
0.0
 20
0.0
 30
0.0
  9
$PLIMCHECK
 70
     0
  9
$PEXTMIN
 10
1.0000000000E+20
 20
1.0000000000E+20
 30
1.0000000000E+20
  9
$PEXTMAX
 10
-1.0000000000E+20
 20
-1.0000000000E+20
 30
-1.0000000000E+20
  9
$PLIMMIN
 10
0.0
 20
0.0
  9
$PLIMMAX
 10
420.0
 20
297.0
  9
$UNITMODE
 70
     0
  9
$VISRETAIN
 70
     1
  9
$PLINEGEN
 70
     0
  9
$PSLTSCALE
 70
     1
  9
$TREEDEPTH
 70
  3020
  9
$CMLSTYLE
  2
Standard
  9
$CMLJUST
 70
     0
  9
$CMLSCALE
 40
20.0
  9
$PROXYGRAPHICS
 70
     1
  9
$MEASUREMENT
 70
     1
  9
$CELWEIGHT
370
    -1
  9
$ENDCAPS
280
     0
  9
$JOINSTYLE
280
     0
  9
$LWDISPLAY
290
     1
  9
$INSUNITS
 70
     4
  9
$HYPERLINKBASE
  1

  9
$STYLESHEET
  1

  9
$XEDIT
290
     1
  9
$CEPSNTYPE
380
     0
  9
$PSTYLEMODE
290
     1
  9
$FINGERPRINTGUID
  2
{22FD7B39-5B87-4692-B3D9-D1CCDA748401}
  9
$VERSIONGUID
  2
{FAEB1C32-E019-11D5-929B-00C0DF256EC4}
  9
$EXTNAMES
290
     1
  9
$PSVPSCALE
 40
0.0
  9
$OLESTARTUP
290
     0
  9
$SORTENTS
280
   127
  9
$INDEXCTL
280
     0
  9
$HIDETEXT
280
     1
  9
$XCLIPFRAME
290
     0
  9
$HALOGAP
280
     0
  9
$OBSCOLOR
 70
   257
  9
$OBSLTYPE
280
     0
  9
$INTERSECTIONDISPLAY
280
     0
  9
$INTERSECTIONCOLOR
 70
   257
  9
$DIMASSOC
280
     2
  9
$PROJECTNAME
  1

  0
ENDSEC
  0
SECTION
  2
CLASSES
  0
CLASS
  1
ACDBDICTIONARYWDFLT
  2
AcDbDictionaryWithDefault
  3
ObjectDBX Classes
 90
        0
 91
        4
280
     0
281
     0
  0
CLASS
  1
VISUALSTYLE
  2
AcDbVisualStyle
  3
ObjectDBX Classes
 90
     4095
 91
        4
280
     0
281
     0
  0
CLASS
  1
MATERIAL
  2
AcDbMaterial
  3
ObjectDBX Classes
 90
     1153
 91
        4
280
     0
281
     0
  0
CLASS
  1
SCALE
  2
AcDbScale
  3
ObjectDBX Classes
 90
     1153
 91
        4
280
     0
281
     0
  0
CLASS
  1
SUN
  2
AcDbSun
  3
SCENEOE
 90
     1153
 91
        4
280
     0
281
     0
  0
CLASS
  1
DICTIONARYVAR
  2
AcDbDictionaryVar
  3
ObjectDBX Classes
 90
        0
 91
        4
280
     0
281
     0
  0
ENDSEC
  0
SECTION
  2
TABLES
  0
TABLE
  2
VPORT
  5
8
330
0
100
AcDbSymbolTable
 70
     1
  0
VPORT
  5
29
330
8
100
AcDbSymbolTableRecord
100
AcDbViewportTableRecord
  2
*Active
 70
     0
 10
0.0
 20
0.0
 11
1.0
 21
1.0
 12
2227.5
 22
1575.0
 13
0.0
 23
0.0
 14
10.0
 24
10.0
 15
10.0
 25
10.0
 16
0.0
 26
0.0
 36
1.0
 17
0.0
 27
0.0
 37
0.0
 40
3150.0
 41
1.4142857143
 42
50.0
 43
0.0
 44
0.0
 50
0.0
 51
0.0
 71
     0
 72
  2000
 73
     1
 74
     3
 75
     0
 76
     0
 77
     0
 78
     0
281
     0
 65
     1
110
0.0
120
0.0
130
0.0
111
1.0
121
0.0
131
0.0
112
0.0
122
1.0
132
0.0
 79
     0
146
0.0
  0
ENDTAB
  0
TABLE
  2
LTYPE
  5
5
330
0
100
AcDbSymbolTable
 70
     6
  0
LTYPE
  5
14
330
5
100
AcDbSymbolTableRecord
100
AcDbLinetypeTableRecord
  2
ByBlock
 70
     0
  3

 72
    65
 73
     0
 40
0.0
  0
LTYPE
  5
15
330
5
100
AcDbSymbolTableRecord
100
AcDbLinetypeTableRecord
  2
ByLayer
 70
     0
  3

 72
    65
 73
     0
 40
0.0
  0
LTYPE
  5
16
330
5
100
AcDbSymbolTableRecord
100
AcDbLinetypeTableRecord
  2
Continuous
 70
     0
  3
Solid line
 72
    65
 73
     0
 40
0.0
  0
LTYPE
  5
6A
330
5
100
AcDbSymbolTableRecord
100
AcDbLinetypeTableRecord
  2
HIDDEN
 70
     0
  3
Hidden __ __ __ __ __ __ __ __ __ __ __ __ __ __
 72
    65
 73
     2
 40
1.905
 49
1.27
 74
     0
 49
-0.635
 74
     0
  0
LTYPE
  5
6B
330
5
100
AcDbSymbolTableRecord
100
AcDbLinetypeTableRecord
  2
PHANTOM
 70
     0
  3
Phantom ______  __  __  ______  __  __  ______
 72
    65
 73
     6
 40
12.7
 49
6.35
 74
     0
 49
-1.27
 74
     0
 49
1.27
 74
     0
 49
-1.27
 74
     0
 49
1.27
 74
     0
 49
-1.27
 74
     0
  0
LTYPE
  5
6C
330
5
100
AcDbSymbolTableRecord
100
AcDbLinetypeTableRecord
  2
CENTER
 70
     0
  3
Center ____ _ ____ _ ____ _ ____ _ ____ _ ____
 72
    65
 73
     4
 40
10.16
 49
6.35
 74
     0
 49
-1.27
 74
     0
 49
1.27
 74
     0
 49
-1.27
 74
     0
  0
LTYPE
  5
6D
330
5
100
AcDbSymbolTableRecord
100
AcDbLinetypeTableRecord
  2
CENTERX2
 70
     0
  3
Center (2x) ________  __  ________  __  _____
 72
    65
 73
     4
 40
20.32
 49
12.7
 74
     0
 49
-2.54
 74
     0
 49
2.54
 74
     0
 49
-2.54
 74
     0
  0
LTYPE
  5
6E
330
5
100
AcDbSymbolTableRecord
100
AcDbLinetypeTableRecord
  2
DOT2
 70
     0
  3
Dot (.5x) ........................................
 72
    65
 73
     2
 40
0.635
 49
0.0
 74
     0
 49
-0.635
 74
     0
  0
ENDTAB
  0
TABLE
  2
LAYER
  5
2
330
0
100
AcDbSymbolTable
 70
     2
  0
LAYER
  5
10
330
2
100
AcDbSymbolTableRecord
100
AcDbLayerTableRecord
  2
0
 70
     0
 62
     7
  6
Continuous
370
    -3
390
F
  0
LAYER
  5
6F
330
2
100
AcDbSymbolTableRecord
100
AcDbLayerTableRecord
  2
FORMAT
 70
     0
 62
     7
  6
Continuous
370
    -3
390
F
  0
ENDTAB
  0
TABLE
  2
STYLE
  5
3
330
0
100
AcDbSymbolTable
 70
     2
  0
STYLE
  5
11
330
3
100
AcDbSymbolTableRecord
100
AcDbTextStyleTableRecord
  2
Standard
 70
     0
 40
0.0
 41
1.0
 50
0.0
 71
     0
 42
52.5
  3
txt
  4

  0
STYLE
  5
E3
330
3
100
AcDbSymbolTableRecord
100
AcDbTextStyleTableRecord
  2
SLDTEXTSTYLE0
 70
     0
 40
0.0
 41
0.605
 50
0.0
 71
     0
 42
52.5
  3
TXT
  4

  0
ENDTAB
  0
TABLE
  2
VIEW
  5
6
330
0
100
AcDbSymbolTable
 70
     0
  0
ENDTAB
  0
TABLE
  2
UCS
  5
7
330
0
100
AcDbSymbolTable
 70
     0
  0
ENDTAB
  0
TABLE
  2
APPID
  5
9
330
0
100
AcDbSymbolTable
 70
     1
  0
APPID
  5
12
330
9
100
AcDbSymbolTableRecord
100
AcDbRegAppTableRecord
  2
ACAD
 70
     0
  0
ENDTAB
  0
TABLE
  2
DIMSTYLE
  5
A
330
0
100
AcDbSymbolTable
 70
     1
100
AcDbDimStyleTable
  0
DIMSTYLE
105
27
330
A
100
AcDbSymbolTableRecord
100
AcDbDimStyleTableRecord
  2
ISO-25
 70
     0
 41
2.5
 42
0.625
 43
3.75
 44
1.25
 73
     0
 74
     0
 77
     1
 78
     8
140
2.5
141
2.5
143
0.0393700787
147
0.625
171
     3
172
     1
178
     0
271
     2
272
     2
274
     3
278
    44
283
     0
284
     8
340
11
  0
ENDTAB
  0
TABLE
  2
BLOCK_RECORD
  5
1
330
0
100
AcDbSymbolTable
 70
     3
  0
BLOCK_RECORD
  5
1F
330
1
100
AcDbSymbolTableRecord
100
AcDbBlockTableRecord
  2
*Model_Space
340
22
  0
BLOCK_RECORD
  5
1B
330
1
100
AcDbSymbolTableRecord
100
AcDbBlockTableRecord
  2
*Paper_Space
340
1E
  0
BLOCK_RECORD
  5
23
330
1
100
AcDbSymbolTableRecord
100
AcDbBlockTableRecord
  2
*Paper_Space0
340
26
  0
BLOCK_RECORD
  5
E7
330
1
100
AcDbSymbolTableRecord
100
AcDbBlockTableRecord
  2
SW_NOTE_0
340
0
102
{BLKREFS
331
EC
102
}
  0
BLOCK_RECORD
  5
EF
330
1
100
AcDbSymbolTableRecord
100
AcDbBlockTableRecord
  2
SW_NOTE_1
340
0
102
{BLKREFS
331
F4
102
}
  0
ENDTAB
  0
ENDSEC
  0
SECTION
  2
BLOCKS
  0
BLOCK
  5
20
330
1F
100
AcDbEntity
  8
0
100
AcDbBlockBegin
  2
*Model_Space
 70
     0
 10
0.0
 20
0.0
 30
0.0
  3
*Model_Space
  1
*Model_Space
  0
ENDBLK
  5
21
330
1F
100
AcDbEntity
  8
0
100
AcDbBlockEnd
  0
BLOCK
  5
1C
330
1B
100
AcDbEntity
 67
     1
  8
0
100
AcDbBlockBegin
  2
*Paper_Space
 70
     0
 10
0.0
 20
0.0
 30
0.0
  3
*Paper_Space
  1
*Paper_Space
  0
ENDBLK
  5
1D
330
1B
100
AcDbEntity
 67
     1
  8
0
100
AcDbBlockEnd
  0
BLOCK
  5
24
330
23
100
AcDbEntity
  8
0
100
AcDbBlockBegin
  2
*Paper_Space0
 70
     0
 10
0.0
 20
0.0
 30
0.0
  3
*Paper_Space0
  1
*Paper_Space0
  0
ENDBLK
  5
25
330
23
100
AcDbEntity
  8
0
100
AcDbBlockEnd
  0
BLOCK
  5
E8
330
E7
100
AcDbEntity
  8
0
100
AcDbBlockBegin
  2
SW_NOTE_0
 70
     0
 10
0.0
 20
0.0
 30
0.0
  3
SW_NOTE_0
  1
SW_NOTE_0
  0
MTEXT
  5
EA
330
E7
100
AcDbEntity
  8
0
  6
Continuous
 62
     0
370
     0
100
AcDbMText
 10
0.0
 20
34.8048289738
 30
0.0
 40
27.0
 41
0.0
 71
     1
 72
     1
  1
Questo disegno e posto sotto la tutela delle vigenti Leggi e non puo essere utilizzato da terze persone se non previa autorizzazione scritta della PEDRALI
  7
SLDTEXTSTYLE0
 73
     1
 44
1.0
  0
MTEXT
  5
EB
330
E7
100
AcDbEntity
  8
0
  6
Continuous
 62
     0
370
     0
100
AcDbMText
 10
2033.2829064131
 20
34.8048289738
 30
0.0
 40
27.0
 41
0.0
 71
     1
 72
     1
  1
S.p.A.
  7
SLDTEXTSTYLE0
 73
     1
 44
1.0
  0
ENDBLK
  5
E9
330
E7
100
AcDbEntity
  8
0
100
AcDbBlockEnd
  0
BLOCK
  5
F0
330
EF
100
AcDbEntity
  8
0
100
AcDbBlockBegin
  2
SW_NOTE_1
 70
     0
 10
0.0
 20
0.0
 30
0.0
  3
SW_NOTE_1
  1
SW_NOTE_1
  0
MTEXT
  5
F2
330
EF
100
AcDbEntity
  8
0
  6
Continuous
 62
     0
370
     0
100
AcDbMText
 10
49.359375
 20
34.8048289738
 30
0.0
 40
27.0
 41
0.0
 71
     2
 72
     1
  1
SCALA
  7
SLDTEXTSTYLE0
 73
     1
 44
1.0
  0
MTEXT
  5
F3
330
EF
100
AcDbEntity
  8
0
  6
Continuous
 62
     0
370
     0
100
AcDbMText
 10
53.4147810657
 20
-2.4595061469
 30
0.0
 40
55.5625
 41
0.0
 71
     2
 72
     1
  1
1:1
  7
SLDTEXTSTYLE0
 73
     1
 44
1.0
  0
ENDBLK
  5
F1
330
EF
100
AcDbEntity
  8
0
100
AcDbBlockEnd
  0
ENDSEC
  0
SECTION
  2
ENTITIES
  0
HATCH
  5
70
330
1F
100
AcDbEntity
  8
0
  6
Continuous
 62
     7
100
AcDbHatch
 10
0.0
 20
0.0
 30
0.0
210
0.0
220
0.0
230
1.0
  2
SOLID
 70
     1
 71
     0
 91
        2
 92
        0
 93
        6
 72
     1
 10
3510.364839630325
 20
478.9717232620642
 11
3534.971866308667
 21
478.9717232620642
 72
     3
 10
3526.618147735648
 20
497.9339160554321
 11
40.63327027197528
 21
0.0
 40
0.4768529109443385
 50
293.775699558261
 51
426.2243004403767
 73
     1
 72
     1
 10
3534.971866309184
 20
516.8961088487492
 11
3485.984877466922
 21
516.8961088487492
 72
     1
 10
3485.984877466922
 20
516.8961088487492
 11
3485.984877466922
 21
457.3006457872621
 72
     1
 10
3485.984877466922
 20
457.3006457872621
 11
3510.364839630325
 21
457.3006457872621
 72
     1
 10
3510.364839630325
 20
457.3006457872621
 11
3510.364839630325
 21
478.9717232620642
 97
        0
 92
        0
 93
        6
 72
     3
 10
3525.263705395451
 20
497.9339160554321
 11
14.89886576646227
 21
0.0
 40
0.5895245510672578
 50
316.3365658560249
 51
403.6634341442267
 73
     0
 72
     2
 10
3529.385821470631
 20
500.6428007400895
 40
10.83553873881616
 50
69.99121011132848
 51
90.0
 73
     0
 72
     1
 10
3529.385821470631
 20
489.8072620012733
 11
3510.364839629721
 21
489.8072620012733
 72
     1
 10
3510.364839629721
 20
489.8072620012733
 11
3510.364839629721
 21
506.060570109435
 72
     1
 10
3510.364839629721
 20
506.060570109435
 11
3529.385821471518
 21
506.060570109435
 72
     2
 10
3529.385821471518
 20
495.2250313732109
 40
10.83553873622417
 50
270.0000000000008
 51
290.0087898889544
 73
     0
 97
        0
 75
     0
 76
     1
 98
        1
 10
0.0
 20
0.0
  0
HATCH
  5
71
330
1F
100
AcDbEntity
  8
0
  6
Continuous
 62
     7
100
AcDbHatch
 10
0.0
 20
0.0
 30
0.0
210
0.0
220
0.0
230
1.0
  2
SOLID
 70
     1
 71
     0
 91
        1
 92
        0
 93
       12
 72
     1
 10
3653.935727922185
 20
516.89610884631
 11
3572.669187380694
 21
516.89610884631
 72
     1
 10
3572.669187380694
 20
516.89610884631
 11
3572.669187380694
 21
457.300645784823
 72
     1
 10
3572.669187380694
 20
457.300645784823
 11
3653.935727922185
 21
457.300645784823
 72
     1
 10
3653.935727922185
 20
457.300645784823
 11
3653.935727922185
 21
468.136184519505
 72
     1
 10
3653.935727922185
 20
468.136184519505
 11
3599.758034227767
 21
468.136184519505
 72
     1
 10
3599.758034227767
 20
468.136184519505
 11
3599.758034227767
 21
481.6806079430411
 72
     1
 10
3599.758034227767
 20
481.6806079430411
 11
3648.517958554844
 21
481.6806079430411
 72
     1
 10
3648.517958554844
 20
481.6806079430411
 11
3648.517958554844
 21
492.5161466829075
 72
     1
 10
3648.517958554844
 20
492.5161466829075
 11
3599.758034227767
 21
492.5161466829075
 72
     1
 10
3599.758034227767
 20
492.5161466829075
 11
3599.758034227767
 21
506.0605701064436
 72
     1
 10
3599.758034227767
 20
506.0605701064436
 11
3653.935727922185
 21
506.0605701064436
 72
     1
 10
3653.935727922185
 20
506.0605701064436
 11
3653.935727922185
 21
516.89610884631
 97
        0
 75
     0
 76
     1
 98
        1
 10
0.0
 20
0.0
  0
HATCH
  5
72
330
1F
100
AcDbEntity
  8
0
  6
Continuous
 62
     7
100
AcDbHatch
 10
0.0
 20
0.0
 30
0.0
210
0.0
220
0.0
230
1.0
  2
SOLID
 70
     1
 71
     0
 91
        1
 92
        0
 93
        6
 72
     1
 10
3968.166351360068
 20
516.896108849379
 11
3941.077504512995
 21
516.896108849379
 72
     1
 10
3941.077504512995
 20
516.896108849379
 11
3941.077504512995
 21
457.3006457878918
 72
     1
 10
3941.077504512995
 20
457.3006457878918
 11
4014.217391003474
 21
457.3006457878918
 72
     1
 10
4014.217391003474
 20
457.3006457878918
 11
4014.217391003474
 21
470.8450692114284
 72
     1
 10
4014.217391003474
 20
470.8450692114284
 11
3968.166351360068
 21
470.8450692114284
 72
     1
 10
3968.166351360068
 20
470.8450692114284
 11
3968.166351360068
 21
516.896108849379
 97
        0
 75
     0
 76
     1
 98
        1
 10
0.0
 20
0.0
  0
HATCH
  5
73
330
1F
100
AcDbEntity
  8
0
  6
Continuous
 62
     7
100
AcDbHatch
 10
0.0
 20
0.0
 30
0.0
210
0.0
220
0.0
230
1.0
  2
SOLID
 70
     1
 71
     0
 91
        1
 92
        0
 93
        4
 72
     1
 10
4016.926275686005
 20
516.8961088487489
 11
4016.926275686005
 21
457.3006457872619
 72
     1
 10
4016.926275686005
 20
457.3006457872619
 11
4044.015122533078
 21
457.3006457872619
 72
     1
 10
4044.015122533078
 20
457.3006457872619
 11
4044.015122533078
 21
516.8961088487489
 72
     1
 10
4044.015122533078
 20
516.8961088487489
 11
4016.926275686005
 21
516.8961088487489
 97
        0
 75
     0
 76
     1
 98
        1
 10
0.0
 20
0.0
  0
HATCH
  5
74
330
1F
100
AcDbEntity
  8
0
  6
Continuous
 62
     7
100
AcDbHatch
 10
0.0
 20
0.0
 30
0.0
210
0.0
220
0.0
230
1.0
  2
SOLID
 70
     1
 71
     0
 91
        2
 92
        0
 93
        4
 72
     3
 10
3702.695652247627
 20
487.0983773139296
 11
43.3421549567338
 21
0.0
 40
0.6929224243374511
 50
280.2934314618138
 51
439.7065685387132
 73
     1
 72
     1
 10
3708.107289002345
 20
516.8961088463723
 11
3659.353497294997
 21
516.896108846372
 72
     1
 10
3659.353497294997
 20
516.896108846372
 11
3659.353497294997
 21
457.3006457815111
 72
     1
 10
3659.353497294997
 20
457.3006457815111
 11
3708.107289002623
 21
457.3006457815111
 97
        0
 92
        0
 93
        6
 72
     2
 10
3709.420759151997
 20
487.0983773132712
 40
16.25330810997023
 50
56.16906508602241
 51
90.0
 73
     0
 72
     1
 10
3709.420759151997
 20
470.8450692033011
 11
3683.73345945474
 21
470.8450692033011
 72
     1
 10
3683.73345945474
 20
470.8450692033011
 11
3683.73345945474
 21
503.3516854240493
 72
     1
 10
3683.73345945474
 20
503.3516854240493
 11
3709.420759151997
 21
503.3516854240493
 72
     2
 10
3709.420759151997
 20
487.0983773132712
 40
16.25330811077806
 50
270.0000000000008
 51
303.8314447476084
 73
     0
 72
     3
 10
3693.214555856416
 20
487.0983773139296
 11
33.86105856006918
 21
0.0
 40
0.5985848325441406
 50
331.8713554011804
 51
388.1288999924611
 73
     0
 97
        0
 75
     0
 76
     1
 98
        1
 10
0.0
 20
0.0
  0
HATCH
  5
75
330
1F
100
AcDbEntity
  8
0
  6
Continuous
 62
     7
100
AcDbHatch
 10
0.0
 20
0.0
 30
0.0
210
0.0
220
0.0
230
1.0
  2
SOLID
 70
     1
 71
     0
 91
        3
 92
        0
 93
       19
 72
     1
 10
3838.305303288919
 20
472.1564369380282
 11
3840.533301976077
 21
463.4514816274054
 72
     2
 10
3848.180349956368
 20
465.1715759510745
 40
7.838116310390116
 50
192.676878510139
 51
204.7368873206727
 73
     1
 72
     1
 10
3841.061467316795
 20
461.891701371279
 11
3876.06427207871
 21
516.896108849379
 72
     1
 10
3876.06427207871
 20
516.896108849379
 11
3903.153118925783
 21
516.896108849379
 72
     1
 10
3903.153118925783
 20
516.896108849379
 11
3941.077504512995
 21
457.3006457878918
 72
     1
 10
3941.077504512995
 20
457.3006457878918
 11
3913.988657665649
 21
457.3006457878918
 72
     1
 10
3913.988657665649
 20
457.3006457878918
 11
3907.893667124934
 21
468.136184522574
 72
     1
 10
3907.893667124934
 20
468.136184522574
 11
3871.323723879558
 21
468.136184522574
 72
     1
 10
3871.323723879558
 20
468.136184522574
 11
3865.228733338844
 21
457.3006457878918
 72
     1
 10
3865.228733338844
 20
457.3006457878918
 11
3819.177693694659
 21
457.3006457878918
 72
     1
 10
3819.177693694659
 20
457.3006457878918
 11
3819.177693694659
 21
468.1361845239816
 72
     2
 10
3808.342154954792
 20
468.1361845239816
 40
10.83553873986634
 50
0.0
 51
90.0
 73
     1
 72
     1
 10
3808.342154954792
 20
478.9717232638475
 11
3781.253308107446
 21
478.9717232638475
 72
     1
 10
3781.253308107446
 20
478.9717232638475
 11
3781.253308107446
 21
457.3006457892997
 72
     1
 10
3781.253308107446
 20
457.3006457892997
 11
3756.873345944045
 21
457.3006457892997
 72
     1
 10
3756.873345944045
 20
457.3006457892997
 11
3756.873345944045
 21
516.8961088507866
 72
     1
 10
3756.873345944045
 20
516.8961088507866
 11
3813.02888745868
 21
516.8961088507866
 72
     3
 10
3807.044921560378
 20
499.4046031234453
 11
36.48999933802743
 21
0.0
 40
0.4859291160023138
 50
288.8861745463018
 51
398.6942257036358
 73
     0
 72
     2
 10
3823.556377394376
 20
469.4441941062505
 40
14.99623540163429
 50
279.2678272406091
 51
349.5800515720783
 73
     0
 97
        0
 92
        0
 93
        3
 72
     1
 10
3889.608695501106
 20
500.6428007391028
 11
3877.418714419404
 21
478.9717232593709
 72
     1
 10
3877.418714419404
 20
478.9717232593709
 11
3901.798676582808
 21
478.9717232593709
 72
     1
 10
3901.798676582808
 20
478.9717232593709
 11
3889.608695501106
 21
500.6428007391028
 97
        0
 92
        0
 93
        6
 72
     2
 10
3807.717258628007
 20
497.933916056143
 40
8.126654055321543
 50
270.0000000000008
 51
305.5869104965617
 73
     1
 72
     3
 10
3798.861058561583
 20
497.9339160554321
 11
17.6077504512262
 21
0.0
 40
0.5900077182209744
 50
334.0585416903787
 51
385.9414583083991
 73
     1
 72
     2
 10
3807.717258628007
 20
497.933916056143
 40
8.126654054164838
 50
54.41308949502037
 51
90.0
 73
     1
 72
     1
 10
3807.717258628007
 20
506.0605701103083
 11
3781.253308106577
 21
506.0605701103083
 72
     1
 10
3781.253308106577
 20
506.0605701103083
 11
3781.253308106577
 21
489.807262000821
 72
     1
 10
3781.253308106577
 20
489.807262000821
 11
3807.717258628007
 21
489.8072620008215
 97
        0
 75
     0
 76
     1
 98
        1
 10
0.0
 20
0.0
  0
LINE
  5
76
330
1F
100
AcDbEntity
  8
0
  6
Continuous
 62
     7
370
    15
100
AcDbLine
 10
4305.0
 20
150.0
 30
0.0
 11
4305.0
 21
3000.0
 31
0.0
  0
LINE
  5
77
330
1F
100
AcDbEntity
  8
0
  6
Continuous
 62
   250
420
  1644836
370
     0
100
AcDbLine
 10
3485.9848774669
 20
516.8961088487
 30
0.0
 11
3485.9848774669
 21
457.3006457873
 31
0.0
  0
LINE
  5
78
330
1F
100
AcDbEntity
  8
0
  6
Continuous
 62
   250
420
  1644836
370
     0
100
AcDbLine
 10
3485.9848774669
 20
516.8961088487
 30
0.0
 11
3534.9718663092
 21
516.8961088487
 31
0.0
  0
LINE
  5
79
330
1F
100
AcDbEntity
  8
0
  6
Continuous
 62
   250
420
  1644836
370
     0
100
AcDbLine
 10
3485.9848774669
 20
457.3006457873
 30
0.0
 11
3510.3648396303
 21
457.3006457873
 31
0.0
  0
LINE
  5
7A
330
1F
100
AcDbEntity
  8
0
  6
Continuous
 62
   250
420
  1644836
370
     0
100
AcDbLine
 10
3510.3648396303
 20
457.3006457873
 30
0.0
 11
3510.3648396303
 21
478.9717232621
 31
0.0
  0
LINE
  5
7B
330
1F
100
AcDbEntity
  8
0
  6
Continuous
 62
   250
420
  1644836
370
     0
100
AcDbLine
 10
3534.9718663087
 20
478.9717232621
 30
0.0
 11
3510.3648396303
 21
478.9717232621
 31
0.0
  0
LINE
  5
7C
330
1F
100
AcDbEntity
  8
0
  6
Continuous
 62
   250
420
  1644836
370
     0
100
AcDbLine
 10
3510.3648396297
 20
489.8072620013
 30
0.0
 11
3510.3648396297
 21
506.0605701094
 31
0.0
  0
LINE
  5
7D
330
1F
100
AcDbEntity
  8
0
  6
Continuous
 62
   250
420
  1644836
370
     0
100
AcDbLine
 10
3510.3648396297
 20
506.0605701094
 30
0.0
 11
3529.3858214715
 21
506.0605701094
 31
0.0
  0
LINE
  5
7E
330
1F
100
AcDbEntity
  8
0
  6
Continuous
 62
   250
420
  1644836
370
     0
100
AcDbLine
 10
3510.3648396297
 20
489.8072620013
 30
0.0
 11
3529.3858214706
 21
489.8072620013
 31
0.0
  0
LINE
  5
7F
330
1F
100
AcDbEntity
  8
0
  6
Continuous
 62
   250
420
  1644836
370
     0
100
AcDbLine
 10
3572.6691873807
 20
516.8961088463
 30
0.0
 11
3653.9357279222
 21
516.8961088463
 31
0.0
  0
LINE
  5
80
330
1F
100
AcDbEntity
  8
0
  6
Continuous
 62
   250
420
  1644836
370
     0
100
AcDbLine
 10
3653.9357279222
 20
516.8961088463
 30
0.0
 11
3653.9357279222
 21
506.0605701064
 31
0.0
  0
LINE
  5
81
330
1F
100
AcDbEntity
  8
0
  6
Continuous
 62
   250
420
  1644836
370
     0
100
AcDbLine
 10
3653.9357279222
 20
506.0605701064
 30
0.0
 11
3599.7580342278
 21
506.0605701064
 31
0.0
  0
LINE
  5
82
330
1F
100
AcDbEntity
  8
0
  6
Continuous
 62
   250
420
  1644836
370
     0
100
AcDbLine
 10
3599.7580342278
 20
506.0605701064
 30
0.0
 11
3599.7580342278
 21
492.5161466829
 31
0.0
  0
LINE
  5
83
330
1F
100
AcDbEntity
  8
0
  6
Continuous
 62
   250
420
  1644836
370
     0
100
AcDbLine
 10
3599.7580342278
 20
492.5161466829
 30
0.0
 11
3648.5179585548
 21
492.5161466829
 31
0.0
  0
LINE
  5
84
330
1F
100
AcDbEntity
  8
0
  6
Continuous
 62
   250
420
  1644836
370
     0
100
AcDbLine
 10
3648.5179585548
 20
492.5161466829
 30
0.0
 11
3648.5179585548
 21
481.680607943
 31
0.0
  0
LINE
  5
85
330
1F
100
AcDbEntity
  8
0
  6
Continuous
 62
   250
420
  1644836
370
     0
100
AcDbLine
 10
3648.5179585548
 20
481.680607943
 30
0.0
 11
3599.7580342278
 21
481.680607943
 31
0.0
  0
LINE
  5
86
330
1F
100
AcDbEntity
  8
0
  6
Continuous
 62
   250
420
  1644836
370
     0
100
AcDbLine
 10
3599.7580342278
 20
481.680607943
 30
0.0
 11
3599.7580342278
 21
468.1361845195
 31
0.0
  0
LINE
  5
87
330
1F
100
AcDbEntity
  8
0
  6
Continuous
 62
   250
420
  1644836
370
     0
100
AcDbLine
 10
3599.7580342278
 20
468.1361845195
 30
0.0
 11
3653.9357279222
 21
468.1361845195
 31
0.0
  0
LINE
  5
88
330
1F
100
AcDbEntity
  8
0
  6
Continuous
 62
   250
420
  1644836
370
     0
100
AcDbLine
 10
3653.9357279222
 20
468.1361845195
 30
0.0
 11
3653.9357279222
 21
457.3006457848
 31
0.0
  0
LINE
  5
89
330
1F
100
AcDbEntity
  8
0
  6
Continuous
 62
   250
420
  1644836
370
     0
100
AcDbLine
 10
3653.9357279222
 20
457.3006457848
 30
0.0
 11
3572.6691873807
 21
457.3006457848
 31
0.0
  0
LINE
  5
8A
330
1F
100
AcDbEntity
  8
0
  6
Continuous
 62
   250
420
  1644836
370
     0
100
AcDbLine
 10
3659.353497295
 20
516.8961088464
 30
0.0
 11
3659.353497295
 21
457.3006457815
 31
0.0
  0
LINE
  5
8B
330
1F
100
AcDbEntity
  8
0
  6
Continuous
 62
   250
420
  1644836
370
     0
100
AcDbLine
 10
3659.353497295
 20
516.8961088464
 30
0.0
 11
3708.1072890023
 21
516.8961088464
 31
0.0
  0
LINE
  5
8C
330
1F
100
AcDbEntity
  8
0
  6
Continuous
 62
   250
420
  1644836
370
     0
100
AcDbLine
 10
3708.1072890026
 20
457.3006457815
 30
0.0
 11
3659.353497295
 21
457.3006457815
 31
0.0
  0
LINE
  5
8D
330
1F
100
AcDbEntity
  8
0
  6
Continuous
 62
   250
420
  1644836
370
     0
100
AcDbLine
 10
3683.7334594547
 20
487.0983773105
 30
0.0
 11
3683.7334594547
 21
470.8450692033
 31
0.0
  0
LINE
  5
8E
330
1F
100
AcDbEntity
  8
0
  6
Continuous
 62
   250
420
  1644836
370
     0
100
AcDbLine
 10
3683.7334594547
 20
470.8450692033
 30
0.0
 11
3709.420759152
 21
470.8450692033
 31
0.0
  0
LINE
  5
8F
330
1F
100
AcDbEntity
  8
0
  6
Continuous
 62
   250
420
  1644836
370
     0
100
AcDbLine
 10
3683.7334594547
 20
487.0983773105
 30
0.0
 11
3683.7334594547
 21
503.351685424
 31
0.0
  0
LINE
  5
90
330
1F
100
AcDbEntity
  8
0
  6
Continuous
 62
   250
420
  1644836
370
     0
100
AcDbLine
 10
3683.7334594547
 20
503.351685424
 30
0.0
 11
3709.420759152
 21
503.351685424
 31
0.0
  0
LINE
  5
91
330
1F
100
AcDbEntity
  8
0
  6
Continuous
 62
   250
420
  1644836
370
     0
100
AcDbLine
 10
3756.873345944
 20
516.8961088508
 30
0.0
 11
3756.873345944
 21
457.3006457893
 31
0.0
  0
LINE
  5
92
330
1F
100
AcDbEntity
  8
0
  6
Continuous
 62
     7
370
     0
100
AcDbLine
 10
4093.1984921262
 20
420.0000000006
 30
0.0
 11
4093.1984921262
 21
285.0000000003
 31
0.0
  0
LINE
  5
93
330
1F
100
AcDbEntity
  8
0
  6
Continuous
 62
   250
420
  1644836
370
     0
100
AcDbLine
 10
3756.873345944
 20
457.3006457893
 30
0.0
 11
3781.2533081074
 21
457.3006457893
 31
0.0
  0
LINE
  5
94
330
1F
100
AcDbEntity
  8
0
  6
Continuous
 62
   250
420
  1644836
370
     0
100
AcDbLine
 10
3781.2533081074
 20
457.3006457893
 30
0.0
 11
3781.2533081074
 21
478.9717232638
 31
0.0
  0
LINE
  5
95
330
1F
100
AcDbEntity
  8
0
  6
Continuous
 62
   250
420
  1644836
370
     0
100
AcDbLine
 10
3781.2533081074
 20
478.9717232638
 30
0.0
 11
3808.3421549548
 21
478.9717232638
 31
0.0
  0
LINE
  5
96
330
1F
100
AcDbEntity
  8
0
  6
Continuous
 62
   250
420
  1644836
370
     0
100
AcDbLine
 10
3819.1776936947
 20
468.136184524
 30
0.0
 11
3819.1776936947
 21
457.3006457879
 31
0.0
  0
LINE
  5
97
330
1F
100
AcDbEntity
  8
0
  6
Continuous
 62
   250
420
  1644836
370
     0
100
AcDbLine
 10
3781.2533081066
 20
489.8072620008
 30
0.0
 11
3781.2533081066
 21
506.0605701103
 31
0.0
  0
LINE
  5
98
330
1F
100
AcDbEntity
  8
0
  6
Continuous
 62
   250
420
  1644836
370
     0
100
AcDbLine
 10
3781.2533081066
 20
506.0605701103
 30
0.0
 11
3807.717258628
 21
506.0605701103
 31
0.0
  0
LINE
  5
99
330
1F
100
AcDbEntity
  8
0
  6
Continuous
 62
   250
420
  1644836
370
     0
100
AcDbLine
 10
3781.2533081066
 20
489.8072620008
 30
0.0
 11
3807.717258628
 21
489.8072620008
 31
0.0
  0
LINE
  5
9A
330
1F
100
AcDbEntity
  8
0
  6
Continuous
 62
   250
420
  1644836
370
     0
100
AcDbLine
 10
3838.3053032889
 20
472.156436938
 30
0.0
 11
3840.5333019761
 21
463.4514816274
 31
0.0
  0
LINE
  5
9B
330
1F
100
AcDbEntity
  8
0
  6
Continuous
 62
     7
370
    15
100
AcDbLine
 10
4305.0
 20
3000.0
 30
0.0
 11
150.0
 21
3000.0
 31
0.0
  0
LINE
  5
9C
330
1F
100
AcDbEntity
  8
0
  6
Continuous
 62
     7
370
     0
100
AcDbLine
 10
4093.1984921262
 20
285.0000000003
 30
0.0
 11
4093.1984921262
 21
150.0
 31
0.0
  0
LINE
  5
9D
330
1F
100
AcDbEntity
  8
0
  6
Continuous
 62
     7
370
    15
100
AcDbLine
 10
150.0
 20
3000.0
 30
0.0
 11
150.0
 21
150.0
 31
0.0
  0
LINE
  5
9E
330
1F
100
AcDbEntity
  8
0
  6
Continuous
 62
     7
370
    15
100
AcDbLine
 10
3225.0
 20
555.0000000009
 30
0.0
 11
4305.0
 21
555.0000000009
 31
0.0
  0
LINE
  5
9F
330
1F
100
AcDbEntity
  8
0
  6
Continuous
 62
   250
420
  1973790
370
     0
100
AcDbLine
 10
4192.9326190259
 20
240.4182064643
 30
0.0
 11
4145.1273994681
 21
231.1227471059
 31
0.0
  0
LINE
  5
A0
330
1F
100
AcDbEntity
  8
0
  6
Continuous
 62
   250
420
  1973790
370
     0
100
AcDbLine
 10
4232.0258777281
 20
248.2322360861
 30
0.0
 11
4232.0258777281
 21
187.321545177
 31
0.0
  0
LINE
  5
A1
330
1F
100
AcDbEntity
  8
0
  6
Continuous
 62
   250
420
  1973790
370
     0
100
AcDbLine
 10
4192.9326190259
 20
240.4182064643
 30
0.0
 11
4192.9326190259
 21
195.1355747988
 31
0.0
  0
LINE
  5
A2
330
1F
100
AcDbEntity
  8
0
  6
Continuous
 62
     7
370
    15
100
AcDbLine
 10
150.0
 20
150.0
 30
0.0
 11
4305.0
 21
150.0
 31
0.0
  0
LINE
  5
A3
330
1F
100
AcDbEntity
  8
0
  6
Continuous
 62
   250
420
  1973790
370
     0
100
AcDbLine
 10
4145.1273994681
 20
231.1227471059
 30
0.0
 11
4145.1273994681
 21
204.4310341572
 31
0.0
  0
LINE
  5
A4
330
1F
100
AcDbEntity
  8
0
  6
Continuous
 62
   250
420
  1644836
370
     0
100
AcDbLine
 10
3819.1776936947
 20
457.3006457879
 30
0.0
 11
3865.2287333388
 21
457.3006457879
 31
0.0
  0
LINE
  5
A5
330
1F
100
AcDbEntity
  8
0
  6
Continuous
 62
   250
420
  1973790
370
     0
100
AcDbLine
 10
4192.9326190259
 20
195.1355747988
 30
0.0
 11
4145.1273994681
 21
204.4310341572
 31
0.0
  0
LINE
  5
A6
330
1F
100
AcDbEntity
  8
0
  6
CENTERX2
 62
   250
420
  1973790
370
     0
100
AcDbLine
 10
4258.3810686372
 20
217.7768906315
 30
0.0
 11
4139.1778035964
 21
217.7768906315
 31
0.0
  0
LINE
  5
A7
330
1F
100
AcDbEntity
  8
0
  6
Continuous
 62
   250
420
  1644836
370
     0
100
AcDbLine
 10
3756.873345944
 20
516.8961088508
 30
0.0
 11
3813.0288874587
 21
516.8961088508
 31
0.0
  0
LINE
  5
A8
330
1F
100
AcDbEntity
  8
0
  6
Continuous
 62
   250
420
  1644836
370
     0
100
AcDbLine
 10
3572.6691873807
 20
516.8961088463
 30
0.0
 11
3572.6691873807
 21
457.3006457848
 31
0.0
  0
LINE
  5
A9
330
1F
100
AcDbEntity
  8
0
  6
Continuous
 62
   250
420
  1644836
370
     0
100
AcDbLine
 10
3876.0642720787
 20
516.8961088494
 30
0.0
 11
3903.1531189258
 21
516.8961088494
 31
0.0
  0
LINE
  5
AA
330
1F
100
AcDbEntity
  8
0
  6
Continuous
 62
   250
420
  1644836
370
     0
100
AcDbLine
 10
3876.0642720787
 20
516.8961088494
 30
0.0
 11
3841.0614673168
 21
461.8917013713
 31
0.0
  0
LINE
  5
AB
330
1F
100
AcDbEntity
  8
0
  6
Continuous
 62
   250
420
  1644836
370
     0
100
AcDbLine
 10
3865.2287333388
 20
457.3006457879
 30
0.0
 11
3871.3237238796
 21
468.1361845226
 31
0.0
  0
LINE
  5
AC
330
1F
100
AcDbEntity
  8
0
  6
Continuous
 62
   250
420
  1644836
370
     0
100
AcDbLine
 10
3889.6086955011
 20
500.6428007391
 30
0.0
 11
3901.7986765828
 21
478.9717232594
 31
0.0
  0
LINE
  5
AD
330
1F
100
AcDbEntity
  8
0
  6
Continuous
 62
   250
420
  1644836
370
     0
100
AcDbLine
 10
3877.4187144194
 20
478.9717232594
 30
0.0
 11
3889.6086955011
 21
500.6428007391
 31
0.0
  0
LINE
  5
AE
330
1F
100
AcDbEntity
  8
0
  6
Continuous
 62
   250
420
  1644836
370
     0
100
AcDbLine
 10
3877.4187144194
 20
478.9717232594
 30
0.0
 11
3901.7986765828
 21
478.9717232594
 31
0.0
  0
LINE
  5
AF
330
1F
100
AcDbEntity
  8
0
  6
Continuous
 62
   250
420
  1644836
370
     0
100
AcDbLine
 10
3871.3237238796
 20
468.1361845226
 30
0.0
 11
3907.8936671249
 21
468.1361845226
 31
0.0
  0
LINE
  5
B0
330
1F
100
AcDbEntity
  8
0
  6
Continuous
 62
   250
420
  1644836
370
     0
100
AcDbLine
 10
3907.8936671249
 20
468.1361845226
 30
0.0
 11
3913.9886576656
 21
457.3006457879
 31
0.0
  0
LINE
  5
B1
330
1F
100
AcDbEntity
  8
0
  6
Continuous
 62
   250
420
  1644836
370
     0
100
AcDbLine
 10
3941.077504513
 20
516.8961088494
 30
0.0
 11
3941.077504513
 21
457.3006457879
 31
0.0
  0
LINE
  5
B2
330
1F
100
AcDbEntity
  8
0
  6
Continuous
 62
   250
420
  1644836
370
     0
100
AcDbLine
 10
3903.1531189258
 20
516.8961088494
 30
0.0
 11
3941.077504513
 21
457.3006457879
 31
0.0
  0
LINE
  5
B3
330
1F
100
AcDbEntity
  8
0
  6
Continuous
 62
   250
420
  1644836
370
     0
100
AcDbLine
 10
3913.9886576656
 20
457.3006457879
 30
0.0
 11
3941.077504513
 21
457.3006457879
 31
0.0
  0
LINE
  5
B4
330
1F
100
AcDbEntity
  8
0
  6
Continuous
 62
   250
420
  1644836
370
     0
100
AcDbLine
 10
3941.077504513
 20
457.3006457879
 30
0.0
 11
4014.2173910035
 21
457.3006457879
 31
0.0
  0
LINE
  5
B5
330
1F
100
AcDbEntity
  8
0
  6
Continuous
 62
   250
420
  1644836
370
     0
100
AcDbLine
 10
4014.2173910035
 20
457.3006457879
 30
0.0
 11
4014.2173910035
 21
470.8450692114
 31
0.0
  0
LINE
  5
B6
330
1F
100
AcDbEntity
  8
0
  6
Continuous
 62
   250
420
  1644836
370
     0
100
AcDbLine
 10
4014.2173910035
 20
470.8450692114
 30
0.0
 11
3968.1663513601
 21
470.8450692114
 31
0.0
  0
LINE
  5
B7
330
1F
100
AcDbEntity
  8
0
  6
Continuous
 62
   250
420
  1644836
370
     0
100
AcDbLine
 10
3968.1663513601
 20
470.8450692114
 30
0.0
 11
3968.1663513601
 21
516.8961088494
 31
0.0
  0
LINE
  5
B8
330
1F
100
AcDbEntity
  8
0
  6
Continuous
 62
   250
420
  1644836
370
     0
100
AcDbLine
 10
3941.077504513
 20
516.8961088494
 30
0.0
 11
3968.1663513601
 21
516.8961088494
 31
0.0
  0
LINE
  5
B9
330
1F
100
AcDbEntity
  8
0
  6
Continuous
 62
   250
420
  1644836
370
     0
100
AcDbLine
 10
4016.926275686
 20
516.8961088487
 30
0.0
 11
4016.926275686
 21
457.3006457873
 31
0.0
  0
LINE
  5
BA
330
1F
100
AcDbEntity
  8
0
  6
Continuous
 62
   250
420
  1644836
370
     0
100
AcDbLine
 10
4044.0151225331
 20
516.8961088487
 30
0.0
 11
4044.0151225331
 21
457.3006457873
 31
0.0
  0
LINE
  5
BB
330
1F
100
AcDbEntity
  8
0
  6
Continuous
 62
   250
420
  1644836
370
     0
100
AcDbLine
 10
4016.926275686
 20
516.8961088487
 30
0.0
 11
4044.0151225331
 21
516.8961088487
 31
0.0
  0
LINE
  5
BC
330
1F
100
AcDbEntity
  8
0
  6
Continuous
 62
   250
420
  1644836
370
     0
100
AcDbLine
 10
4016.926275686
 20
457.3006457873
 30
0.0
 11
4044.0151225331
 21
457.3006457873
 31
0.0
  0
LINE
  5
BD
330
1F
100
AcDbEntity
  8
0
  6
Continuous
 62
   250
420
  1644836
370
     0
100
AcDbLine
 10
4056.1727466361
 20
511.9395831343
 30
0.0
 11
4062.4300319759
 21
511.9395831343
 31
0.0
  0
LINE
  5
BE
330
1F
100
AcDbEntity
  8
0
  6
Continuous
 62
   250
420
  1644836
370
     0
100
AcDbLine
 10
4062.4300319759
 20
507.8762561058
 30
0.0
 11
4056.1727466361
 21
507.8762561058
 31
0.0
  0
LINE
  5
BF
330
1F
100
AcDbEntity
  8
0
  6
Continuous
 62
   250
420
  1644836
370
     0
100
AcDbLine
 10
4056.1727466361
 20
507.8762561058
 30
0.0
 11
4056.1727466361
 21
511.9395831343
 31
0.0
  0
LINE
  5
C0
330
1F
100
AcDbEntity
  8
0
  6
Continuous
 62
   250
420
  1644836
370
     0
100
AcDbLine
 10
4056.1727466361
 20
507.8762561058
 30
0.0
 11
4060.2360736616
 21
507.8762561058
 31
0.0
  0
LINE
  5
C1
330
1F
100
AcDbEntity
  8
0
  6
Continuous
 62
   250
420
  1644836
370
     0
100
AcDbLine
 10
4056.1727466361
 20
507.8762561058
 30
0.0
 11
4056.1727466361
 21
501.7812655676
 31
0.0
  0
LINE
  5
C2
330
1F
100
AcDbEntity
  8
0
  6
Continuous
 62
   250
420
  1644836
370
     0
100
AcDbLine
 10
4064.2994006871
 20
501.7812655676
 30
0.0
 11
4060.2360736616
 21
507.8762561058
 31
0.0
  0
LINE
  5
C3
330
1F
100
AcDbEntity
  8
0
  6
Continuous
 62
     7
370
     0
100
AcDbLine
 10
3225.0
 20
285.0000000003
 30
0.0
 11
4305.0
 21
285.0000000003
 31
0.0
  0
LINE
  5
C4
330
1F
100
AcDbEntity
  8
0
  6
Continuous
 62
     7
370
     0
100
AcDbLine
 10
4305.0
 20
420.0000000006
 30
0.0
 11
3225.0
 21
420.0000000006
 31
0.0
  0
LINE
  5
C5
330
1F
100
AcDbEntity
  8
0
  6
Continuous
 62
     7
370
     0
100
AcDbLine
 10
150.0
 20
825.0
 30
0.0
 11
150.0
 21
975.0
 31
0.0
  0
LINE
  5
C6
330
1F
100
AcDbEntity
  8
0
  6
Continuous
 62
     7
370
     0
100
AcDbLine
 10
150.0
 20
975.0
 30
0.0
 11
150.0
 21
1125.0
 31
0.0
  0
LINE
  5
C7
330
1F
100
AcDbEntity
  8
0
  6
Continuous
 62
     7
370
     0
100
AcDbLine
 10
150.0
 20
1125.0
 30
0.0
 11
150.0
 21
1275.0
 31
0.0
  0
LINE
  5
C8
330
1F
100
AcDbEntity
  8
0
  6
Continuous
 62
     7
370
     0
100
AcDbLine
 10
150.0
 20
1275.0
 30
0.0
 11
150.0
 21
1425.0
 31
0.0
  0
LINE
  5
C9
330
1F
100
AcDbEntity
  8
0
  6
Continuous
 62
     7
370
     0
100
AcDbLine
 10
150.0
 20
1425.0
 30
0.0
 11
150.0
 21
1575.0
 31
0.0
  0
LINE
  5
CA
330
1F
100
AcDbEntity
  8
0
  6
Continuous
 62
     7
370
     0
100
AcDbLine
 10
150.0
 20
1575.0
 30
0.0
 11
150.0
 21
1725.0
 31
0.0
  0
LINE
  5
CB
330
1F
100
AcDbEntity
  8
0
  6
Continuous
 62
     7
370
     0
100
AcDbLine
 10
150.0
 20
1725.0
 30
0.0
 11
150.0
 21
1875.0
 31
0.0
  0
LINE
  5
CC
330
1F
100
AcDbEntity
  8
0
  6
Continuous
 62
     7
370
     0
100
AcDbLine
 10
150.0
 20
1875.0
 30
0.0
 11
150.0
 21
2025.0
 31
0.0
  0
LINE
  5
CD
330
1F
100
AcDbEntity
  8
0
  6
Continuous
 62
     7
370
     0
100
AcDbLine
 10
150.0
 20
2025.0
 30
0.0
 11
150.0
 21
2175.0
 31
0.0
  0
LINE
  5
CE
330
1F
100
AcDbEntity
  8
0
  6
Continuous
 62
     7
370
     0
100
AcDbLine
 10
150.0
 20
2175.0
 30
0.0
 11
150.0
 21
2325.0
 31
0.0
  0
LINE
  5
CF
330
1F
100
AcDbEntity
  8
0
  6
Continuous
 62
     7
370
    15
100
AcDbLine
 10
3225.0
 20
555.0000000009
 30
0.0
 11
3225.0
 21
150.0
 31
0.0
  0
ARC
  5
D0
330
1F
100
AcDbEntity
  8
0
  6
Continuous
 62
   250
420
  1644836
370
     0
100
AcDbCircle
 10
3529.3858214715
 20
495.2250313732
 30
0.0
 40
10.83553873622431
100
AcDbArc
 50
69.991210111
 51
90.0
  0
ARC
  5
D1
330
1F
100
AcDbEntity
  8
0
  6
Continuous
 62
   250
420
  1644836
370
     0
100
AcDbCircle
 10
3529.3858214706
 20
500.6428007401
 30
0.0
 40
10.83553873881613
100
AcDbArc
 50
270.0
 51
290.0087898887
  0
ARC
  5
D2
330
1F
100
AcDbEntity
  8
0
  6
Continuous
 62
   250
420
  1644836
370
     0
100
AcDbCircle
 10
3709.420759152
 20
487.0983773133
 30
0.0
 40
16.25330811077811
100
AcDbArc
 50
56.1685552524
 51
90.0
  0
ARC
  5
D3
330
1F
100
AcDbEntity
  8
0
  6
Continuous
 62
   250
420
  1644836
370
     0
100
AcDbCircle
 10
3709.420759152
 20
487.0983773133
 30
0.0
 40
16.2533081099705
100
AcDbArc
 50
270.0
 51
303.830934914
  0
ARC
  5
D4
330
1F
100
AcDbEntity
  8
0
  6
Continuous
 62
   250
420
  1644836
370
     0
100
AcDbCircle
 10
3808.3421549548
 20
468.136184524
 30
0.0
 40
10.83553873986693
100
AcDbArc
 50
0.0
 51
90.0
  0
ARC
  5
D5
330
1F
100
AcDbEntity
  8
0
  6
Continuous
 62
   250
420
  1644836
370
     0
100
AcDbCircle
 10
3807.717258628
 20
497.9339160561
 30
0.0
 40
8.126654054165272
100
AcDbArc
 50
54.413089495
 51
90.0
  0
ARC
  5
D6
330
1F
100
AcDbEntity
  8
0
  6
Continuous
 62
   250
420
  1644836
370
     0
100
AcDbCircle
 10
3807.717258628
 20
497.9339160561
 30
0.0
 40
8.126654055322035
100
AcDbArc
 50
270.0
 51
305.5869104966
  0
ARC
  5
D7
330
1F
100
AcDbEntity
  8
0
  6
Continuous
 62
   250
420
  1644836
370
     0
100
AcDbCircle
 10
3823.5563773944
 20
469.4441941063
 30
0.0
 40
14.99623540163448
100
AcDbArc
 50
10.4199484279
 51
80.7321727594
  0
ARC
  5
D8
330
1F
100
AcDbEntity
  8
0
  6
Continuous
 62
   250
420
  1644836
370
     0
100
AcDbCircle
 10
3848.1803499564
 20
465.1715759511
 30
0.0
 40
7.838116310390694
100
AcDbArc
 50
192.6768785101
 51
204.7368873207
  0
CIRCLE
  5
D9
330
1F
100
AcDbEntity
  8
0
  6
Continuous
 62
   250
420
  1644836
370
     0
100
AcDbCircle
 10
4059.4296312926
 20
506.8013546003
 30
0.0
 40
8.8951532178462
  0
CIRCLE
  5
DA
330
1F
100
AcDbEntity
  8
0
  6
Continuous
 62
   250
420
  1973790
370
     0
100
AcDbCircle
 10
4232.0258777281
 20
217.7768906315
 30
0.0
 40
12.88061814414652
  0
CIRCLE
  5
DB
330
1F
100
AcDbEntity
  8
0
  6
Continuous
 62
   250
420
  1973790
370
     0
100
AcDbCircle
 10
4232.0258777281
 20
217.7768906315
 30
0.0
 40
25.16390372495578
  0
ELLIPSE
  5
DC
330
1F
100
AcDbEntity
  8
0
  6
Continuous
 62
   250
420
  1644836
370
     0
100
AcDbEllipse
 10
3525.2637053955
 20
497.9339160554
 30
0.0
 11
14.89886576646222
 21
0.0
 31
0.0
210
0.0
220
0.0
230
1.0
 40
0.5895245511
 41
5.265715075739372
 42
7.300655538615912
  0
ELLIPSE
  5
DD
330
1F
100
AcDbEntity
  8
0
  6
Continuous
 62
   250
420
  1644836
370
     0
100
AcDbEllipse
 10
3693.2145558564
 20
487.0983773139
 30
0.0
 11
33.86105856006907
 21
0.0
 31
0.0
210
0.0
220
0.0
230
1.0
 40
0.5985848325
 41
5.554193105221739
 42
7.01217218274472
  0
ELLIPSE
  5
DE
330
1F
100
AcDbEntity
  8
0
  6
Continuous
 62
   250
420
  1644836
370
     0
100
AcDbEllipse
 10
3798.8610585616
 20
497.9339160554
 30
0.0
 11
17.60775045122637
 21
0.0
 31
0.0
210
0.0
220
0.0
230
1.0
 40
0.5900077182
 41
5.593675727225946
 42
6.972694887106603
  0
ELLIPSE
  5
DF
330
1F
100
AcDbEntity
  8
0
  6
Continuous
 62
   250
420
  1644836
370
     0
100
AcDbEllipse
 10
3807.0449215604
 20
499.4046031234
 30
0.0
 11
36.4899993380277
 21
0.0
 31
0.0
210
0.0
220
0.0
230
1.0
 40
0.485929116
 41
5.257694056962845
 42
7.689248379254997
  0
ELLIPSE
  5
E0
330
1F
100
AcDbEntity
  8
0
  6
Continuous
 62
   250
420
  1644836
370
     0
100
AcDbEllipse
 10
3702.6956522476
 20
487.0983773139
 30
0.0
 11
43.34215495673379
 21
0.0
 31
0.0
210
0.0
220
0.0
230
1.0
 40
0.6929224243
 41
4.837574201223028
 42
7.728796413142616
  0
ELLIPSE
  5
E1
330
1F
100
AcDbEntity
  8
0
  6
Continuous
 62
   250
420
  1644836
370
     0
100
AcDbEllipse
 10
3526.6181477356
 20
497.9339160554
 30
0.0
 11
40.63327027197511
 21
0.0
 31
0.0
210
0.0
220
0.0
230
1.0
 40
0.4768529109
 41
4.919453630382234
 42
7.646916983963976
  0
ELLIPSE
  5
E2
330
1F
100
AcDbEntity
  8
0
  6
Continuous
 62
   250
420
  1644836
370
     0
100
AcDbEllipse
 10
4062.064122662
 20
509.90791962
 30
0.0
 11
2.235278033911982
 21
0.0
 31
0.0
210
0.0
220
0.0
230
1.0
 40
0.9213369296
 41
4.876826485633795
 42
7.689544128725418
  0
MTEXT
  5
E4
330
1F
100
AcDbEntity
  8
0
  6
Continuous
 62
     7
370
     0
100
AcDbMText
 10
3347.1674181705
 20
248.4569886556
 30
0.0
 40
55.5625
 41
0.0
 71
     1
 72
     1
  1
200
  7
SLDTEXTSTYLE0
 73
     1
 44
1.0
  0
MTEXT
  5
E5
330
1F
100
AcDbEntity
  8
0
  6
Continuous
 62
     7
370
     0
100
AcDbMText
 10
3238.3268981734
 20
219.580700246
 30
0.0
 40
27.0
 41
0.0
 71
     1
 72
     1
  1
COD.
  7
SLDTEXTSTYLE0
 73
     1
 44
1.0
  0
MTEXT
  5
E6
330
1F
100
AcDbEntity
  8
0
  6
Continuous
 62
     7
370
     0
100
AcDbMText
 10
160.6282767702
 20
112.0822758273
 30
0.0
 40
27.0
 41
0.0
 71
     1
 72
     1
  1
This document is the property of PEDRALI S.p.A. who willsafeguard its rights according to the civil and penal prevision of the Law.
  7
SLDTEXTSTYLE0
 73
     1
 44
1.0
  0
INSERT
  5
EC
330
1F
100
AcDbEntity
  8
0
  6
Continuous
 62
     7
370
     0
100
AcDbBlockReference
  2
SW_NOTE_0
 10
2161.2908979918
 20
80.3720098134
 30
0.0
  0
MTEXT
  5
ED
330
1F
100
AcDbEntity
  8
0
  6
Continuous
 62
     7
370
     0
100
AcDbMText
 10
3238.3268981734
 20
351.4653149456
 30
0.0
 40
27.0
 41
0.0
 71
     1
 72
     1
  1
SERIE:
  7
SLDTEXTSTYLE0
 73
     1
 44
1.0
  0
MTEXT
  5
EE
330
1F
100
AcDbEntity
  8
0
  6
Continuous
 62
     7
370
     0
100
AcDbMText
 10
3347.1674181705
 20
380.3416033552
 30
0.0
 40
55.5625
 41
0.0
 71
     1
 72
     1
  1
HOST
  7
SLDTEXTSTYLE0
 73
     1
 44
1.0
  0
INSERT
  5
F4
330
1F
100
AcDbEntity
  8
0
  6
Continuous
 62
     7
370
     0
100
AcDbBlockReference
  2
SW_NOTE_1
 10
4150.4824592931
 20
363.9948192571
 30
0.0
  0
LINE
  5
F5
330
1F
100
AcDbEntity
  8
0
  6
Continuous
 62
     7
370
    15
100
AcDbLine
 10
2410.6280306438
 20
2410.9028318466
 30
0.0
 11
1830.6280473331
 21
2410.9028318466
 31
0.0
  0
LINE
  5
F6
330
1F
100
AcDbEntity
  8
0
  6
Continuous
 62
     7
370
    15
100
AcDbLine
 10
2410.6280306438
 20
2080.9028485359
 30
0.0
 11
1830.6280473331
 21
2080.9028485359
 31
0.0
  0
LINE
  5
F7
330
1F
100
AcDbEntity
  8
0
  6
Continuous
 62
     7
370
    15
100
AcDbLine
 10
1540.6280556778
 20
1814.9028608144
 30
0.0
 11
1540.6280556778
 21
1668.9028592349
 31
0.0
  0
LINE
  5
F8
330
1F
100
AcDbEntity
  8
0
  6
Continuous
 62
     7
370
    15
100
AcDbLine
 10
1556.6280284981
 20
1668.9028592349
 30
0.0
 11
1556.6280284981
 21
1814.9028608144
 31
0.0
  0
ARC
  5
F9
330
1F
100
AcDbEntity
  8
0
  6
Continuous
 62
     7
370
    15
100
AcDbCircle
 10
1578.6280379886
 20
1814.9028604568
 30
0.0
 40
22.0
100
AcDbArc
 50
90.0
 51
180.0
  0
ARC
  5
FA
330
1F
100
AcDbEntity
  8
0
  6
Continuous
 62
     7
370
    15
100
AcDbCircle
 10
1578.6280379886
 20
1814.9028604568
 30
0.0
 40
38.0
100
AcDbArc
 50
136.8264488928
 51
180.0
  0
LINE
  5
FB
330
1F
100
AcDbEntity
  8
0
  6
Continuous
 62
     7
370
    15
100
AcDbLine
 10
1556.6280284981
 20
1638.9028608368
 30
0.0
 11
1556.6280284981
 21
1668.9028592349
 31
0.0
  0
LINE
  5
FC
330
1F
100
AcDbEntity
  8
0
  6
Continuous
 62
     7
370
    15
100
AcDbLine
 10
1540.6280556778
 20
1668.9028592349
 30
0.0
 11
1540.6280556778
 21
1638.9028608368
 31
0.0
  0
LINE
  5
FD
330
1F
100
AcDbEntity
  8
0
  6
Continuous
 62
     7
370
    15
100
AcDbLine
 10
1578.62804328
 20
1836.9028606952
 30
0.0
 11
1820.6280270676
 21
1836.9028606952
 31
0.0
  0
ARC
  5
FE
330
1F
100
AcDbEntity
  8
0
  6
Continuous
 62
     7
370
    15
100
AcDbCircle
 10
2662.6280399884
 20
1814.9028604568
 30
0.0
 40
22.0
100
AcDbArc
 50
0.0
 51
90.0
  0
ARC
  5
FF
330
1F
100
AcDbEntity
  8
0
  6
Continuous
 62
     7
370
    15
100
AcDbCircle
 10
2662.6280399884
 20
1814.9028604568
 30
0.0
 40
38.00000000000002
100
AcDbArc
 50
0.0
 51
43.1735511072
  0
LINE
  5
100
330
1F
100
AcDbEntity
  8
0
  6
Continuous
 62
     7
370
    15
100
AcDbLine
 10
2420.6280509094
 20
1836.9028606952
 30
0.0
 11
2662.628034697
 21
1836.9028606952
 31
0.0
  0
LINE
  5
101
330
1F
100
AcDbEntity
  8
0
  6
Continuous
 62
     7
370
    15
100
AcDbLine
 10
2700.6280222992
 20
1668.9028592349
 30
0.0
 11
2700.6280222992
 21
1814.9028608144
 31
0.0
  0
LINE
  5
102
330
1F
100
AcDbEntity
  8
0
  6
Continuous
 62
     7
370
    15
100
AcDbLine
 10
2684.6280494789
 20
1814.9028608144
 30
0.0
 11
2684.6280494789
 21
1668.9028592349
 31
0.0
  0
LINE
  5
103
330
1F
100
AcDbEntity
  8
0
  6
Continuous
 62
     7
370
    15
100
AcDbLine
 10
2684.6280494789
 20
1668.9028592349
 30
0.0
 11
2684.6280494789
 21
1638.9028608368
 31
0.0
  0
LINE
  5
104
330
1F
100
AcDbEntity
  8
0
  6
Continuous
 62
     7
370
    15
100
AcDbLine
 10
2700.6280222992
 20
1638.9028608368
 30
0.0
 11
2700.6280222992
 21
1668.9028592349
 31
0.0
  0
LINE
  5
105
330
1F
100
AcDbEntity
  8
0
  6
Continuous
 62
     7
370
    15
100
AcDbLine
 10
2410.6280306438
 20
1840.9028539003
 30
0.0
 11
2710.6280127625
 21
1840.9028539003
 31
0.0
  0
LINE
  5
106
330
1F
100
AcDbEntity
  8
0
  6
Continuous
 62
     7
370
    15
100
AcDbLine
 10
1530.6280652145
 20
1840.9028539003
 30
0.0
 11
1830.6280473331
 21
1840.9028539003
 31
0.0
  0
LINE
  5
107
330
1F
100
AcDbEntity
  8
0
  6
Continuous
 62
     7
370
    15
100
AcDbLine
 10
1830.6280473331
 20
2080.9028485359
 30
0.0
 11
1530.6280652145
 21
2080.9028485359
 31
0.0
  0
LINE
  5
108
330
1F
100
AcDbEntity
  8
0
  6
Continuous
 62
     7
370
    15
100
AcDbLine
 10
2720.6280628304
 20
1840.9028539003
 30
0.0
 11
2720.6280628304
 21
2060.9028676093
 31
0.0
  0
LINE
  5
109
330
1F
100
AcDbEntity
  8
0
  6
Continuous
 62
     7
370
    15
100
AcDbLine
 10
2710.6280127625
 20
1840.9028539003
 30
0.0
 11
2720.6280628304
 21
1840.9028539003
 31
0.0
  0
LINE
  5
10A
330
1F
100
AcDbEntity
  8
0
  6
Continuous
 62
     7
370
    15
100
AcDbLine
 10
1520.6280151466
 20
1840.9028539003
 30
0.0
 11
1530.6280652145
 21
1840.9028539003
 31
0.0
  0
LINE
  5
10B
330
1F
100
AcDbEntity
  8
0
  6
Continuous
 62
     7
370
    15
100
AcDbLine
 10
1520.6280151466
 20
2060.9028676093
 30
0.0
 11
1520.6280151466
 21
1840.9028539003
 31
0.0
  0
LINE
  5
10C
330
1F
100
AcDbEntity
  8
0
  6
Continuous
 62
     7
370
    15
100
AcDbLine
 10
2410.6280306438
 20
2080.9028485359
 30
0.0
 11
2710.6280127625
 21
2080.9028485359
 31
0.0
  0
SPLINE
  5
10D
330
1F
100
AcDbEntity
  8
0
  6
Continuous
 62
     7
370
    15
100
AcDbSpline
210
0.0
220
0.0
230
1.0
 70
    24
 71
     3
 72
    29
 73
    25
 74
     0
 42
0.000000001
 43
0.00000001
 40
0.0
 40
0.0
 40
0.0
 40
0.0
 40
0.196349540849362
 40
0.196349540849362
 40
0.196349540849362
 40
0.392699081698724
 40
0.392699081698724
 40
0.392699081698724
 40
0.589048622548086
 40
0.589048622548086
 40
0.589048622548086
 40
0.785398163397448
 40
0.785398163397448
 40
0.785398163397448
 40
0.98174770424681
 40
0.98174770424681
 40
0.98174770424681
 40
1.17809724509617
 40
1.17809724509617
 40
1.17809724509617
 40
1.37444678594553
 40
1.37444678594553
 40
1.37444678594553
 40
1.5707963267949
 40
1.5707963267949
 40
1.5707963267949
 40
1.5707963267949
 10
1520.628038988455
 20
2060.902860456792
 30
0.0
 10
1520.628038988455
 20
2061.557358925792
 30
0.0
 10
1520.628038988455
 20
2062.211841211792
 30
0.0
 10
1520.628038988455
 20
2062.853763676792
 30
0.0
 10
1520.628038988455
 20
2063.495686141792
 30
0.0
 10
1520.628038988455
 20
2064.125017040792
 30
0.0
 10
1520.628038988455
 20
2064.729694780792
 30
0.0
 10
1520.628038988455
 20
2065.334372520792
 30
0.0
 10
1520.628038988455
 20
2065.914367198792
 30
0.0
 10
1520.628038988455
 20
2066.458562786792
 30
0.0
 10
1520.628038988455
 20
2067.002758375792
 30
0.0
 10
1520.628038988455
 20
2067.511127962793
 30
0.0
 10
1520.628038988455
 20
2067.973928268792
 30
0.0
 10
1520.628038988455
 20
2068.436728574793
 30
0.0
 10
1520.628038988455
 20
2068.853936712792
 30
0.0
 10
1520.628038988455
 20
2069.217556579792
 30
0.0
 10
1520.628038988455
 20
2069.581176446792
 30
0.0
 10
1520.628038988455
 20
2069.891190060792
 30
0.0
 10
1520.628038988455
 20
2070.141655781792
 30
0.0
 10
1520.628038988455
 20
2070.392121502792
 30
0.0
 10
1520.628038988455
 20
2070.583026943792
 30
0.0
 10
1520.628038988455
 20
2070.710713260793
 30
0.0
 10
1520.628038988455
 20
2070.838399577793
 30
0.0
 10
1520.628038988455
 20
2070.902860456792
 30
0.0
 10
1520.628038988455
 20
2070.902860456792
 30
0.0
  0
SPLINE
  5
10E
330
1F
100
AcDbEntity
  8
0
  6
Continuous
 62
     7
370
    15
100
AcDbSpline
210
0.0
220
0.0
230
1.0
 70
     8
 71
     3
 72
    14
 73
    10
 74
     0
 42
0.000000001
 43
0.00000001
 40
0.0
 40
0.0
 40
0.0
 40
0.0
 40
0.25
 40
0.25
 40
0.5
 40
0.5
 40
0.75
 40
0.75
 40
1.0
 40
1.0
 40
1.0
 40
1.0
 10
1530.628038988455
 20
2080.902860456792
 30
0.0
 10
1529.319042049459
 20
2080.902860456792
 30
0.0
 10
1528.010560144862
 20
2080.642587223475
 30
0.0
 10
1525.591849184746
 20
2079.640724340335
 30
0.0
 10
1524.482571788706
 20
2078.899528880774
 30
0.0
 10
1522.631370564474
 20
2077.048327656541
 30
0.0
 10
1521.890175104912
 20
2075.939050260501
 30
0.0
 10
1520.888312221772
 20
2073.520339300385
 30
0.0
 10
1520.628038988455
 20
2072.211857395788
 30
0.0
 10
1520.628038988455
 20
2070.902860456792
 30
0.0
  0
SPLINE
  5
10F
330
1F
100
AcDbEntity
  8
0
  6
Continuous
 62
     7
370
    15
100
AcDbSpline
210
0.0
220
0.0
230
1.0
 70
     8
 71
     3
 72
    14
 73
    10
 74
     0
 42
0.000000001
 43
0.00000001
 40
0.0
 40
0.0
 40
0.0
 40
0.0
 40
0.25
 40
0.25
 40
0.5
 40
0.5
 40
0.75
 40
0.75
 40
1.0
 40
1.0
 40
1.0
 40
1.0
 10
2720.628038988543
 20
2070.902860456792
 30
0.0
 10
2720.628038988543
 20
2072.211857395788
 30
0.0
 10
2720.367765755226
 20
2073.520339300385
 30
0.0
 10
2719.365902872085
 20
2075.939050260501
 30
0.0
 10
2718.624707412524
 20
2077.048327656541
 30
0.0
 10
2716.773506188292
 20
2078.899528880774
 30
0.0
 10
2715.664228792252
 20
2079.640724340335
 30
0.0
 10
2713.245517832136
 20
2080.642587223475
 30
0.0
 10
2711.937035927539
 20
2080.902860456792
 30
0.0
 10
2710.628038988543
 20
2080.902860456792
 30
0.0
  0
SPLINE
  5
110
330
1F
100
AcDbEntity
  8
0
  6
Continuous
 62
     7
370
    15
100
AcDbSpline
210
0.0
220
0.0
230
1.0
 70
    24
 71
     3
 72
    29
 73
    25
 74
     0
 42
0.000000001
 43
0.00000001
 40
0.0
 40
0.0
 40
0.0
 40
0.0
 40
0.1963495408493698
 40
0.1963495408493698
 40
0.1963495408493698
 40
0.3926990816987299
 40
0.3926990816987299
 40
0.3926990816987299
 40
0.5890486225480899
 40
0.5890486225480899
 40
0.5890486225480899
 40
0.7853981633974519
 40
0.7853981633974519
 40
0.7853981633974519
 40
0.9817477042468139
 40
0.9817477042468139
 40
0.9817477042468139
 40
1.178097245096176
 40
1.178097245096176
 40
1.178097245096176
 40
1.374446785945538
 40
1.374446785945538
 40
1.374446785945538
 40
1.5707963267949
 40
1.5707963267949
 40
1.5707963267949
 40
1.5707963267949
 10
2720.628038988543
 20
2070.902860456792
 30
0.0
 10
2720.628038988543
 20
2070.902860456792
 30
0.0
 10
2720.628038988543
 20
2070.838399577793
 30
0.0
 10
2720.628038988543
 20
2070.710713260793
 30
0.0
 10
2720.628038988543
 20
2070.583026943792
 30
0.0
 10
2720.628038988543
 20
2070.392121502792
 30
0.0
 10
2720.628038988543
 20
2070.141655781792
 30
0.0
 10
2720.628038988543
 20
2069.891190060792
 30
0.0
 10
2720.628038988543
 20
2069.581176446792
 30
0.0
 10
2720.628038988543
 20
2069.217556579792
 30
0.0
 10
2720.628038988543
 20
2068.853936712792
 30
0.0
 10
2720.628038988543
 20
2068.436728574793
 30
0.0
 10
2720.628038988543
 20
2067.973928268792
 30
0.0
 10
2720.628038988543
 20
2067.511127962793
 30
0.0
 10
2720.628038988543
 20
2067.002758375792
 30
0.0
 10
2720.628038988543
 20
2066.458562786792
 30
0.0
 10
2720.628038988543
 20
2065.914367198792
 30
0.0
 10
2720.628038988543
 20
2065.334372520792
 30
0.0
 10
2720.628038988543
 20
2064.729694780792
 30
0.0
 10
2720.628038988543
 20
2064.125017040792
 30
0.0
 10
2720.628038988543
 20
2063.495686141792
 30
0.0
 10
2720.628038988543
 20
2062.853763676792
 30
0.0
 10
2720.628038988543
 20
2062.211841211792
 30
0.0
 10
2720.628038988543
 20
2061.557358925792
 30
0.0
 10
2720.628038988543
 20
2060.902860456792
 30
0.0
  0
LINE
  5
111
330
1F
100
AcDbEntity
  8
0
  6
Continuous
 62
     7
370
    15
100
AcDbLine
 10
1830.6280473331
 20
1840.9028539003
 30
0.0
 11
2410.6280306438
 21
1840.9028539003
 31
0.0
  0
SPLINE
  5
112
330
1F
100
AcDbEntity
  8
0
  6
Continuous
 62
     7
370
    15
100
AcDbSpline
210
0.0
220
0.0
230
1.0
 70
    24
 71
     3
 72
    17
 73
    13
 74
     0
 42
0.000000001
 43
0.00000001
 40
5.49778714378214
 40
5.49778714378214
 40
5.49778714378214
 40
5.49778714378214
 40
5.694136684631511
 40
5.694136684631511
 40
5.694136684631511
 40
5.890486225480871
 40
5.890486225480871
 40
5.890486225480871
 40
6.086835766330231
 40
6.086835766330231
 40
6.086835766330231
 40
6.283185307179591
 40
6.283185307179591
 40
6.283185307179591
 40
6.283185307179591
 10
2720.628038988543
 20
2101.777318078793
 30
0.0
 10
2720.628038988543
 20
2101.122819608792
 30
0.0
 10
2720.628038988543
 20
2100.468337322793
 30
0.0
 10
2720.628038988543
 20
2099.826414857792
 30
0.0
 10
2720.628038988543
 20
2099.184492392792
 30
0.0
 10
2720.628038988543
 20
2098.555161494792
 30
0.0
 10
2720.628038988543
 20
2097.950483754792
 30
0.0
 10
2720.628038988543
 20
2097.345806014792
 30
0.0
 10
2720.628038988543
 20
2096.765811336792
 30
0.0
 10
2720.628038988543
 20
2096.221615747792
 30
0.0
 10
2720.628038988543
 20
2095.677420159792
 30
0.0
 10
2720.628038988543
 20
2095.169050572792
 30
0.0
 10
2720.628038988543
 20
2094.706250266793
 30
0.0
  0
SPLINE
  5
113
330
1F
100
AcDbEntity
  8
0
  6
Continuous
 62
     7
370
    15
100
AcDbSpline
210
0.0
220
0.0
230
1.0
 70
    24
 71
     3
 72
    17
 73
    13
 74
     0
 42
0.000000001
 43
0.00000001
 40
5.49778714378214
 40
5.49778714378214
 40
5.49778714378214
 40
5.49778714378214
 40
5.694136684631499
 40
5.694136684631499
 40
5.694136684631499
 40
5.89048622548086
 40
5.89048622548086
 40
5.89048622548086
 40
6.086835766330219
 40
6.086835766330219
 40
6.086835766330219
 40
6.283185307179591
 40
6.283185307179591
 40
6.283185307179591
 40
6.283185307179591
 10
1520.628038988455
 20
2094.706250266793
 30
0.0
 10
1520.628038988455
 20
2095.169050572792
 30
0.0
 10
1520.628038988455
 20
2095.677420159792
 30
0.0
 10
1520.628038988455
 20
2096.221615747792
 30
0.0
 10
1520.628038988455
 20
2096.765811336792
 30
0.0
 10
1520.628038988455
 20
2097.345806014792
 30
0.0
 10
1520.628038988455
 20
2097.950483754792
 30
0.0
 10
1520.628038988455
 20
2098.555161494792
 30
0.0
 10
1520.628038988455
 20
2099.184492392792
 30
0.0
 10
1520.628038988455
 20
2099.826414857792
 30
0.0
 10
1520.628038988455
 20
2100.468337322793
 30
0.0
 10
1520.628038988455
 20
2101.122819608792
 30
0.0
 10
1520.628038988455
 20
2101.777318078793
 30
0.0
  0
SPLINE
  5
114
330
1F
100
AcDbEntity
  8
0
  6
Continuous
 62
     7
370
    15
100
AcDbSpline
210
0.0
220
0.0
230
1.0
 70
    24
 71
     3
 72
     8
 73
     4
 74
     0
 42
0.000000001
 43
0.00000001
 40
0.0
 40
0.0
 40
0.0
 40
0.0
 40
0.179853499792478
 40
0.179853499792478
 40
0.179853499792478
 40
0.179853499792478
 10
2720.628038988543
 20
2103.566172460793
 30
0.0
 10
2720.628038988543
 20
2102.976330971792
 30
0.0
 10
2720.628038988543
 20
2102.376829744792
 30
0.0
 10
2720.628038988543
 20
2101.777318078793
 30
0.0
  0
SPLINE
  5
115
330
1F
100
AcDbEntity
  8
0
  6
Continuous
 62
     7
370
    15
100
AcDbSpline
210
0.0
220
0.0
230
1.0
 70
    24
 71
     3
 72
     8
 73
     4
 74
     0
 42
0.000000001
 43
0.00000001
 40
0.0
 40
0.0
 40
0.0
 40
0.0
 40
0.179853499792478
 40
0.179853499792478
 40
0.179853499792478
 40
0.179853499792478
 10
1520.628038988455
 20
2101.777318078793
 30
0.0
 10
1520.628038988455
 20
2102.376829744792
 30
0.0
 10
1520.628038988455
 20
2102.976330971792
 30
0.0
 10
1520.628038988455
 20
2103.566172460793
 30
0.0
  0
LINE
  5
116
330
1F
100
AcDbEntity
  8
0
  6
Continuous
 62
     7
370
    15
100
AcDbLine
 10
1520.6280151466
 20
2392.691705519
 30
0.0
 11
1520.6280151466
 21
2103.5661736072
 31
0.0
  0
LINE
  5
117
330
1F
100
AcDbEntity
  8
0
  6
Continuous
 62
     7
370
    15
100
AcDbLine
 10
2720.6280628304
 20
2103.5661736072
 30
0.0
 11
2720.6280628304
 21
2392.691705519
 31
0.0
  0
SPLINE
  5
118
330
1F
100
AcDbEntity
  8
0
  6
Continuous
 62
     7
370
    15
100
AcDbSpline
210
0.0
220
0.0
230
1.0
 70
    24
 71
     3
 72
    10
 73
     6
 74
     0
 42
0.000000001
 43
0.00000001
 40
0.0
 40
0.0
 40
0.0
 40
0.0
 40
0.3897922547793598
 40
0.7790258077061596
 40
1.0
 40
1.0
 40
1.0
 40
1.0
 10
1520.628015146641
 20
2073.831800514547
 30
0.0
 10
1520.628015146641
 20
2073.483806887889
 30
0.0
 10
1520.628015146641
 20
2072.788318425101
 30
0.0
 10
1520.628015146641
 20
2071.828957182795
 30
0.0
 10
1520.628015146641
 20
2071.203458233578
 30
0.0
 10
1520.628015146641
 20
2070.976946646063
 30
0.0
  0
SPLINE
  5
119
330
1F
100
AcDbEntity
  8
0
  6
Continuous
 62
     7
370
    15
100
AcDbSpline
210
0.0
220
0.0
230
1.0
 70
    24
 71
     3
 72
    10
 73
     6
 74
     0
 42
0.000000001
 43
0.00000001
 40
0.0
 40
0.0
 40
0.0
 40
0.0
 40
0.220929294728137
 40
0.6101424988174785
 40
1.0
 40
1.0
 40
1.0
 40
1.0
 10
2720.628062830357
 20
2070.976946646063
 30
0.0
 10
2720.628062830357
 20
2071.203419257991
 30
0.0
 10
2720.628062830357
 20
2071.828870787748
 30
0.0
 10
2720.628062830357
 20
2072.788215717339
 30
0.0
 10
2720.628062830357
 20
2073.483747178966
 30
0.0
 10
2720.628062830357
 20
2073.831800514547
 30
0.0
  0
LINE
  5
11A
330
1F
100
AcDbEntity
  8
0
  6
Continuous
 62
     7
370
    15
100
AcDbLine
 10
1520.6280151466
 20
2094.7062411846
 30
0.0
 11
1520.6280151466
 21
2073.8318005145
 31
0.0
  0
LINE
  5
11B
330
1F
100
AcDbEntity
  8
0
  6
Continuous
 62
     7
370
    15
100
AcDbLine
 10
2720.6280628304
 20
2073.8318005145
 30
0.0
 11
2720.6280628304
 21
2094.7062411846
 31
0.0
  0
LINE
  5
11C
330
1F
100
AcDbEntity
  8
0
  6
Continuous
 62
     7
370
    15
100
AcDbLine
 10
2410.6280306438
 20
2410.9028318466
 30
0.0
 11
2710.6280127625
 21
2410.9028318466
 31
0.0
  0
LINE
  5
11D
330
1F
100
AcDbEntity
  8
0
  6
Continuous
 62
     7
370
    15
100
AcDbLine
 10
1830.6280473331
 20
2410.9028318466
 30
0.0
 11
1530.6280652145
 21
2410.9028318466
 31
0.0
  0
SPLINE
  5
11E
330
1F
100
AcDbEntity
  8
0
  6
Continuous
 62
     7
370
    15
100
AcDbSpline
210
0.0
220
0.0
230
1.0
 70
     8
 71
     3
 72
    14
 73
    10
 74
     0
 42
0.000000001
 43
0.00000001
 40
0.0
 40
0.0
 40
0.0
 40
0.0
 40
0.25
 40
0.25
 40
0.5
 40
0.5
 40
0.75
 40
0.75
 40
1.0
 40
1.0
 40
1.0
 40
1.0
 10
1530.628038988455
 20
2410.902860456792
 30
0.0
 10
1529.319042049459
 20
2410.902860456792
 30
0.0
 10
1528.010560144862
 20
2410.642587223475
 30
0.0
 10
1525.591849184746
 20
2409.640724340335
 30
0.0
 10
1524.482571788706
 20
2408.899528880774
 30
0.0
 10
1522.631370564473
 20
2407.048327656541
 30
0.0
 10
1521.890175104912
 20
2405.939050260502
 30
0.0
 10
1520.888312221772
 20
2403.520339300385
 30
0.0
 10
1520.628038988455
 20
2402.211857395788
 30
0.0
 10
1520.628038988455
 20
2400.902860456792
 30
0.0
  0
SPLINE
  5
11F
330
1F
100
AcDbEntity
  8
0
  6
Continuous
 62
     7
370
    15
100
AcDbSpline
210
0.0
220
0.0
230
1.0
 70
    24
 71
     3
 72
    29
 73
    25
 74
     0
 42
0.000000001
 43
0.00000001
 40
0.179853499792478
 40
0.179853499792478
 40
0.179853499792478
 40
0.179853499792478
 40
0.35372135316778
 40
0.35372135316778
 40
0.35372135316778
 40
0.5275892065430821
 40
0.5275892065430821
 40
0.5275892065430821
 40
0.701457059918385
 40
0.701457059918385
 40
0.701457059918385
 40
0.875324913293687
 40
0.875324913293687
 40
0.875324913293687
 40
1.04919276666899
 40
1.04919276666899
 40
1.04919276666899
 40
1.22306062004429
 40
1.22306062004429
 40
1.22306062004429
 40
1.39692847341959
 40
1.39692847341959
 40
1.39692847341959
 40
1.5707963267949
 40
1.5707963267949
 40
1.5707963267949
 40
1.5707963267949
 10
1520.628038988455
 20
2392.691714838792
 30
0.0
 10
1520.628038988455
 20
2393.261926002792
 30
0.0
 10
1520.628038988455
 20
2393.823093004793
 30
0.0
 10
1520.628038988455
 20
2394.366772083793
 30
0.0
 10
1520.628038988455
 20
2394.910451162792
 30
0.0
 10
1520.628038988455
 20
2395.436625781792
 30
0.0
 10
1520.628038988455
 20
2395.937378701793
 30
0.0
 10
1520.628038988455
 20
2396.438131622792
 30
0.0
 10
1520.628038988455
 20
2396.913447613792
 30
0.0
 10
1520.628038988455
 20
2397.356174695793
 30
0.0
 10
1520.628038988455
 20
2397.798901777792
 30
0.0
 10
1520.628038988455
 20
2398.209026484793
 30
0.0
 10
1520.628038988455
 20
2398.580377757792
 30
0.0
 10
1520.628038988455
 20
2398.951729030793
 30
0.0
 10
1520.628038988455
 20
2399.284295572792
 30
0.0
 10
1520.628038988455
 20
2399.573073327792
 30
0.0
 10
1520.628038988455
 20
2399.861851081792
 30
0.0
 10
1520.628038988455
 20
2400.106831263793
 30
0.0
 10
1520.628038988455
 20
2400.304327709792
 30
0.0
 10
1520.628038988455
 20
2400.501824154792
 30
0.0
 10
1520.628038988455
 20
2400.651830855792
 30
0.0
 10
1520.628038988455
 20
2400.752090693792
 30
0.0
 10
1520.628038988455
 20
2400.852350531792
 30
0.0
 10
1520.628038988455
 20
2400.902860456792
 30
0.0
 10
1520.628038988455
 20
2400.902860456792
 30
0.0
  0
SPLINE
  5
120
330
1F
100
AcDbEntity
  8
0
  6
Continuous
 62
     7
370
    15
100
AcDbSpline
210
0.0
220
0.0
230
1.0
 70
     8
 71
     3
 72
    14
 73
    10
 74
     0
 42
0.000000001
 43
0.00000001
 40
0.0
 40
0.0
 40
0.0
 40
0.0
 40
0.25
 40
0.25
 40
0.5
 40
0.5
 40
0.75
 40
0.75
 40
1.0
 40
1.0
 40
1.0
 40
1.0
 10
2720.628038988543
 20
2400.902860456792
 30
0.0
 10
2720.628038988543
 20
2402.211857395788
 30
0.0
 10
2720.367765755226
 20
2403.520339300385
 30
0.0
 10
2719.365902872085
 20
2405.939050260501
 30
0.0
 10
2718.624707412525
 20
2407.048327656541
 30
0.0
 10
2716.773506188292
 20
2408.899528880774
 30
0.0
 10
2715.664228792252
 20
2409.640724340335
 30
0.0
 10
2713.245517832136
 20
2410.642587223475
 30
0.0
 10
2711.937035927539
 20
2410.902860456792
 30
0.0
 10
2710.628038988543
 20
2410.902860456792
 30
0.0
  0
SPLINE
  5
121
330
1F
100
AcDbEntity
  8
0
  6
Continuous
 62
     7
370
    15
100
AcDbSpline
210
0.0
220
0.0
230
1.0
 70
    24
 71
     3
 72
    29
 73
    25
 74
     0
 42
0.000000001
 43
0.00000001
 40
0.179853499792478
 40
0.179853499792478
 40
0.179853499792478
 40
0.179853499792478
 40
0.353721353167788
 40
0.353721353167788
 40
0.353721353167788
 40
0.5275892065430879
 40
0.5275892065430879
 40
0.5275892065430879
 40
0.7014570599183879
 40
0.7014570599183879
 40
0.7014570599183879
 40
0.8753249132936909
 40
0.8753249132936909
 40
0.8753249132936909
 40
1.049192766668993
 40
1.049192766668993
 40
1.049192766668993
 40
1.223060620044296
 40
1.223060620044296
 40
1.223060620044296
 40
1.396928473419598
 40
1.396928473419598
 40
1.396928473419598
 40
1.5707963267949
 40
1.5707963267949
 40
1.5707963267949
 40
1.5707963267949
 10
2720.628038988543
 20
2400.902860456792
 30
0.0
 10
2720.628038988543
 20
2400.902860456792
 30
0.0
 10
2720.628038988543
 20
2400.852350531792
 30
0.0
 10
2720.628038988543
 20
2400.752090693792
 30
0.0
 10
2720.628038988543
 20
2400.651830855792
 30
0.0
 10
2720.628038988543
 20
2400.501824154792
 30
0.0
 10
2720.628038988543
 20
2400.304327709792
 30
0.0
 10
2720.628038988543
 20
2400.106831263793
 30
0.0
 10
2720.628038988543
 20
2399.861851081792
 30
0.0
 10
2720.628038988543
 20
2399.573073327792
 30
0.0
 10
2720.628038988543
 20
2399.284295572792
 30
0.0
 10
2720.628038988543
 20
2398.951729030793
 30
0.0
 10
2720.628038988543
 20
2398.580377757792
 30
0.0
 10
2720.628038988543
 20
2398.209026484793
 30
0.0
 10
2720.628038988543
 20
2397.798901777792
 30
0.0
 10
2720.628038988543
 20
2397.356174695793
 30
0.0
 10
2720.628038988543
 20
2396.913447613792
 30
0.0
 10
2720.628038988543
 20
2396.438131622792
 30
0.0
 10
2720.628038988543
 20
2395.937378701793
 30
0.0
 10
2720.628038988543
 20
2395.436625781792
 30
0.0
 10
2720.628038988543
 20
2394.910451162792
 30
0.0
 10
2720.628038988543
 20
2394.366772083793
 30
0.0
 10
2720.628038988543
 20
2393.823093004793
 30
0.0
 10
2720.628038988543
 20
2393.261926002792
 30
0.0
 10
2720.628038988543
 20
2392.691714838792
 30
0.0
  0
ARC
  5
122
330
1F
100
AcDbEntity
  8
0
  6
Continuous
 62
     7
370
    15
100
AcDbCircle
 10
1548.6280379886
 20
1638.9028604568
 30
0.0
 40
8.000000000000227
100
AcDbArc
 50
180.0
 51
0.0
  0
LINE
  5
123
330
1F
100
AcDbEntity
  8
0
  6
Continuous
 62
     7
370
    15
100
AcDbLine
 10
1820.6280270676
 20
1836.9028606952
 30
0.0
 11
1820.6280270676
 21
1840.9028539003
 31
0.0
  0
LINE
  5
124
330
1F
100
AcDbEntity
  8
0
  6
Continuous
 62
     7
370
    15
100
AcDbLine
 10
2420.6280509094
 20
1836.9028606952
 30
0.0
 11
2420.6280509094
 21
1840.9028539003
 31
0.0
  0
ARC
  5
125
330
1F
100
AcDbEntity
  8
0
  6
Continuous
 62
     7
370
    15
100
AcDbCircle
 10
2692.6280399884
 20
1638.9028604568
 30
0.0
 40
8.0
100
AcDbArc
 50
180.0
 51
0.0
  0
LINE
  5
126
330
1F
100
AcDbEntity
  8
0
  6
Continuous
 62
     7
370
    15
100
AcDbLine
 10
1830.6280473331
 20
1062.7441808545
 30
0.0
 11
2410.6280306438
 21
1062.7441808545
 31
0.0
  0
LINE
  5
127
330
1F
100
AcDbEntity
  8
0
  6
Continuous
 62
     7
370
    15
100
AcDbLine
 10
1530.626813517
 20
1062.744136151
 30
0.0
 11
1830.6280473331
 21
1062.744136151
 31
0.0
  0
LINE
  5
128
330
1F
100
AcDbEntity
  8
0
  6
Continuous
 62
     7
370
    15
100
AcDbLine
 10
2410.6280306438
 20
1062.744136151
 30
0.0
 11
2710.62926446
 21
1062.744136151
 31
0.0
  0
LINE
  5
129
330
1F
100
AcDbEntity
  8
0
  6
Continuous
 62
     7
370
    15
100
AcDbLine
 10
2410.6280306438
 20
1238.6208876931
 30
0.0
 11
2710.6280127625
 21
1238.6208876931
 31
0.0
  0
LINE
  5
12A
330
1F
100
AcDbEntity
  8
0
  6
Continuous
 62
     7
370
    15
100
AcDbLine
 10
2720.6280628304
 20
1135.312418636
 30
0.0
 11
2720.6280628304
 21
1218.6208769642
 31
0.0
  0
LINE
  5
12B
330
1F
100
AcDbEntity
  8
0
  6
Continuous
 62
     7
370
    15
100
AcDbLine
 10
1830.6280473331
 20
1238.6208876931
 30
0.0
 11
1530.6280652145
 21
1238.6208876931
 31
0.0
  0
LINE
  5
12C
330
1F
100
AcDbEntity
  8
0
  6
Continuous
 62
     7
370
    15
100
AcDbLine
 10
1520.6280151466
 20
1218.6208769642
 30
0.0
 11
1520.6280151466
 21
1135.312418636
 31
0.0
  0
SPLINE
  5
12D
330
1F
100
AcDbEntity
  8
0
  6
Continuous
 62
     7
370
    15
100
AcDbSpline
210
0.0
220
0.0
230
1.0
 70
    24
 71
     3
 72
    29
 73
    25
 74
     0
 42
0.000000001
 43
0.00000001
 40
0.179853499792478
 40
0.179853499792478
 40
0.179853499792478
 40
0.179853499792478
 40
0.35372135316778
 40
0.35372135316778
 40
0.35372135316778
 40
0.5275892065430821
 40
0.5275892065430821
 40
0.5275892065430821
 40
0.701457059918385
 40
0.701457059918385
 40
0.701457059918385
 40
0.875324913293687
 40
0.875324913293687
 40
0.875324913293687
 40
1.04919276666899
 40
1.04919276666899
 40
1.04919276666899
 40
1.22306062004429
 40
1.22306062004429
 40
1.22306062004429
 40
1.39692847341959
 40
1.39692847341959
 40
1.39692847341959
 40
1.5707963267949
 40
1.5707963267949
 40
1.5707963267949
 40
1.5707963267949
 10
1520.628038988455
 20
1125.473713275887
 30
0.0
 10
1520.628038988455
 20
1125.577388032887
 30
0.0
 10
1520.628038988455
 20
1125.730756408887
 30
0.0
 10
1520.628038988455
 20
1125.931510701887
 30
0.0
 10
1520.628038988455
 20
1126.132264994887
 30
0.0
 10
1520.628038988455
 20
1126.380399098887
 30
0.0
 10
1520.628038988455
 20
1126.672179391887
 30
0.0
 10
1520.628038988455
 20
1126.963959684887
 30
0.0
 10
1520.628038988455
 20
1127.299377292887
 30
0.0
 10
1520.628038988455
 20
1127.673385257887
 30
0.0
 10
1520.628038988455
 20
1128.047393221887
 30
0.0
 10
1520.628038988455
 20
1128.459980166887
 30
0.0
 10
1520.628038988455
 20
1128.904937984887
 30
0.0
 10
1520.628038988455
 20
1129.349895801887
 30
0.0
 10
1520.628038988455
 20
1129.827210956887
 30
0.0
 10
1520.628038988455
 20
1130.329701390887
 30
0.0
 10
1520.628038988455
 20
1130.832191823887
 30
0.0
 10
1520.628038988455
 20
1131.359842250887
 30
0.0
 10
1520.628038988455
 20
1131.904713227887
 30
0.0
 10
1520.628038988455
 20
1132.449584203887
 30
0.0
 10
1520.628038988455
 20
1133.011659156887
 30
0.0
 10
1520.628038988455
 20
1133.582480662887
 30
0.0
 10
1520.628038988455
 20
1134.153302168887
 30
0.0
 10
1520.628038988455
 20
1134.732852865887
 30
0.0
 10
1520.628038988455
 20
1135.312412376887
 30
0.0
  0
SPLINE
  5
12E
330
1F
100
AcDbEntity
  8
0
  6
Continuous
 62
     7
370
    15
100
AcDbSpline
210
0.0
220
0.0
230
1.0
 70
    24
 71
     3
 72
    29
 73
    25
 74
     0
 42
0.000000001
 43
0.00000001
 40
0.179853499792478
 40
0.179853499792478
 40
0.179853499792478
 40
0.179853499792478
 40
0.353721353167788
 40
0.353721353167788
 40
0.353721353167788
 40
0.5275892065430879
 40
0.5275892065430879
 40
0.5275892065430879
 40
0.7014570599183879
 40
0.7014570599183879
 40
0.7014570599183879
 40
0.8753249132936909
 40
0.8753249132936909
 40
0.8753249132936909
 40
1.049192766668993
 40
1.049192766668993
 40
1.049192766668993
 40
1.223060620044296
 40
1.223060620044296
 40
1.223060620044296
 40
1.396928473419598
 40
1.396928473419598
 40
1.396928473419598
 40
1.5707963267949
 40
1.5707963267949
 40
1.5707963267949
 40
1.5707963267949
 10
2720.628038988543
 20
1135.312412376887
 30
0.0
 10
2720.628038988543
 20
1134.732852865887
 30
0.0
 10
2720.628038988543
 20
1134.153302168887
 30
0.0
 10
2720.628038988543
 20
1133.582480662887
 30
0.0
 10
2720.628038988543
 20
1133.011659156887
 30
0.0
 10
2720.628038988543
 20
1132.449584203887
 30
0.0
 10
2720.628038988543
 20
1131.904713227887
 30
0.0
 10
2720.628038988543
 20
1131.359842250887
 30
0.0
 10
2720.628038988543
 20
1130.832191823887
 30
0.0
 10
2720.628038988543
 20
1130.329701390887
 30
0.0
 10
2720.628038988543
 20
1129.827210956887
 30
0.0
 10
2720.628038988543
 20
1129.349895801887
 30
0.0
 10
2720.628038988543
 20
1128.904937984887
 30
0.0
 10
2720.628038988543
 20
1128.459980166887
 30
0.0
 10
2720.628038988543
 20
1128.047393221887
 30
0.0
 10
2720.628038988543
 20
1127.673385257887
 30
0.0
 10
2720.628038988543
 20
1127.299377292887
 30
0.0
 10
2720.628038988543
 20
1126.963959684887
 30
0.0
 10
2720.628038988543
 20
1126.672179391887
 30
0.0
 10
2720.628038988543
 20
1126.380399098887
 30
0.0
 10
2720.628038988543
 20
1126.132264994887
 30
0.0
 10
2720.628038988543
 20
1125.931510701887
 30
0.0
 10
2720.628038988543
 20
1125.730756408887
 30
0.0
 10
2720.628038988543
 20
1125.577388032887
 30
0.0
 10
2720.628038988543
 20
1125.473713275887
 30
0.0
  0
SPLINE
  5
12F
330
1F
100
AcDbEntity
  8
0
  6
Continuous
 62
     7
370
    15
100
AcDbSpline
210
0.0
220
0.0
230
1.0
 70
    24
 71
     3
 72
    29
 73
    25
 74
     0
 42
0.000000001
 43
0.00000001
 40
1.5707963267949
 40
1.5707963267949
 40
1.5707963267949
 40
1.5707963267949
 40
1.76714586764426
 40
1.76714586764426
 40
1.76714586764426
 40
1.96349540849362
 40
1.96349540849362
 40
1.96349540849362
 40
2.15984494934298
 40
2.15984494934298
 40
2.15984494934298
 40
2.35619449019234
 40
2.35619449019234
 40
2.35619449019234
 40
2.55254403104171
 40
2.55254403104171
 40
2.55254403104171
 40
2.74889357189107
 40
2.74889357189107
 40
2.74889357189107
 40
2.94524311274043
 40
2.94524311274043
 40
2.94524311274043
 40
3.14159265358979
 40
3.14159265358979
 40
3.14159265358979
 40
3.14159265358979
 10
1520.628038988455
 20
1218.620885308887
 30
0.0
 10
1520.628038988455
 20
1219.275383777887
 30
0.0
 10
1520.628038988455
 20
1219.929866063887
 30
0.0
 10
1520.628038988455
 20
1220.571788528887
 30
0.0
 10
1520.628038988455
 20
1221.213710993887
 30
0.0
 10
1520.628038988455
 20
1221.843041892887
 30
0.0
 10
1520.628038988455
 20
1222.447719632887
 30
0.0
 10
1520.628038988455
 20
1223.052397372887
 30
0.0
 10
1520.628038988455
 20
1223.632392050887
 30
0.0
 10
1520.628038988455
 20
1224.176587638887
 30
0.0
 10
1520.628038988455
 20
1224.720783227887
 30
0.0
 10
1520.628038988455
 20
1225.229152814887
 30
0.0
 10
1520.628038988455
 20
1225.691953120887
 30
0.0
 10
1520.628038988455
 20
1226.154753426887
 30
0.0
 10
1520.628038988455
 20
1226.571961564887
 30
0.0
 10
1520.628038988455
 20
1226.935581431887
 30
0.0
 10
1520.628038988455
 20
1227.299201298887
 30
0.0
 10
1520.628038988455
 20
1227.609214912887
 30
0.0
 10
1520.628038988455
 20
1227.859680633887
 30
0.0
 10
1520.628038988455
 20
1228.110146354887
 30
0.0
 10
1520.628038988455
 20
1228.301051795887
 30
0.0
 10
1520.628038988455
 20
1228.428738112887
 30
0.0
 10
1520.628038988455
 20
1228.556424429887
 30
0.0
 10
1520.628038988455
 20
1228.620885308887
 30
0.0
 10
1520.628038988455
 20
1228.620885308887
 30
0.0
  0
SPLINE
  5
130
330
1F
100
AcDbEntity
  8
0
  6
Continuous
 62
     7
370
    15
100
AcDbSpline
210
0.0
220
0.0
230
1.0
 70
     8
 71
     3
 72
    14
 73
    10
 74
     0
 42
0.000000001
 43
0.00000001
 40
0.0
 40
0.0
 40
0.0
 40
0.0
 40
0.25
 40
0.25
 40
0.5
 40
0.5
 40
0.75
 40
0.75
 40
1.0
 40
1.0
 40
1.0
 40
1.0
 10
1530.628038988455
 20
1238.620885308887
 30
0.0
 10
1529.319042049459
 20
1238.620885308887
 30
0.0
 10
1528.010560144862
 20
1238.360612075571
 30
0.0
 10
1525.591849184746
 20
1237.35874919243
 30
0.0
 10
1524.482571788705
 20
1236.617553732869
 30
0.0
 10
1522.631370564473
 20
1234.766352508637
 30
0.0
 10
1521.890175104912
 20
1233.657075112596
 30
0.0
 10
1520.888312221771
 20
1231.23836415248
 30
0.0
 10
1520.628038988455
 20
1229.929882247883
 30
0.0
 10
1520.628038988455
 20
1228.620885308887
 30
0.0
  0
SPLINE
  5
131
330
1F
100
AcDbEntity
  8
0
  6
Continuous
 62
     7
370
    15
100
AcDbSpline
210
0.0
220
0.0
230
1.0
 70
     8
 71
     3
 72
    14
 73
    10
 74
     0
 42
0.000000001
 43
0.00000001
 40
0.0
 40
0.0
 40
0.0
 40
0.0
 40
0.25
 40
0.25
 40
0.5
 40
0.5
 40
0.75
 40
0.75
 40
1.0
 40
1.0
 40
1.0
 40
1.0
 10
2720.628038988543
 20
1228.620885308887
 30
0.0
 10
2720.628038988543
 20
1229.929882247883
 30
0.0
 10
2720.367765755226
 20
1231.23836415248
 30
0.0
 10
2719.365902872086
 20
1233.657075112596
 30
0.0
 10
2718.624707412525
 20
1234.766352508637
 30
0.0
 10
2716.773506188292
 20
1236.617553732869
 30
0.0
 10
2715.664228792252
 20
1237.35874919243
 30
0.0
 10
2713.245517832136
 20
1238.360612075571
 30
0.0
 10
2711.937035927539
 20
1238.620885308887
 30
0.0
 10
2710.628038988543
 20
1238.620885308887
 30
0.0
  0
SPLINE
  5
132
330
1F
100
AcDbEntity
  8
0
  6
Continuous
 62
     7
370
    15
100
AcDbSpline
210
0.0
220
0.0
230
1.0
 70
    24
 71
     3
 72
    29
 73
    25
 74
     0
 42
0.000000001
 43
0.00000001
 40
1.5707963267949
 40
1.5707963267949
 40
1.5707963267949
 40
1.5707963267949
 40
1.76714586764426
 40
1.76714586764426
 40
1.76714586764426
 40
1.96349540849362
 40
1.96349540849362
 40
1.96349540849362
 40
2.15984494934298
 40
2.15984494934298
 40
2.15984494934298
 40
2.35619449019235
 40
2.35619449019235
 40
2.35619449019235
 40
2.55254403104171
 40
2.55254403104171
 40
2.55254403104171
 40
2.74889357189107
 40
2.74889357189107
 40
2.74889357189107
 40
2.94524311274043
 40
2.94524311274043
 40
2.94524311274043
 40
3.14159265358979
 40
3.14159265358979
 40
3.14159265358979
 40
3.14159265358979
 10
2720.628038988543
 20
1228.620885308887
 30
0.0
 10
2720.628038988543
 20
1228.620885308887
 30
0.0
 10
2720.628038988543
 20
1228.556424429887
 30
0.0
 10
2720.628038988543
 20
1228.428738112887
 30
0.0
 10
2720.628038988543
 20
1228.301051795887
 30
0.0
 10
2720.628038988543
 20
1228.110146354887
 30
0.0
 10
2720.628038988543
 20
1227.859680633887
 30
0.0
 10
2720.628038988543
 20
1227.609214912887
 30
0.0
 10
2720.628038988543
 20
1227.299201298887
 30
0.0
 10
2720.628038988543
 20
1226.935581431887
 30
0.0
 10
2720.628038988543
 20
1226.571961564887
 30
0.0
 10
2720.628038988543
 20
1226.154753426887
 30
0.0
 10
2720.628038988543
 20
1225.691953120887
 30
0.0
 10
2720.628038988543
 20
1225.229152814887
 30
0.0
 10
2720.628038988543
 20
1224.720783227887
 30
0.0
 10
2720.628038988543
 20
1224.176587638887
 30
0.0
 10
2720.628038988543
 20
1223.632392050887
 30
0.0
 10
2720.628038988543
 20
1223.052397372887
 30
0.0
 10
2720.628038988543
 20
1222.447719632887
 30
0.0
 10
2720.628038988543
 20
1221.843041892887
 30
0.0
 10
2720.628038988543
 20
1221.213710993887
 30
0.0
 10
2720.628038988543
 20
1220.571788528887
 30
0.0
 10
2720.628038988543
 20
1219.929866063887
 30
0.0
 10
2720.628038988543
 20
1219.275383777887
 30
0.0
 10
2720.628038988543
 20
1218.620885308887
 30
0.0
  0
LINE
  5
133
330
1F
100
AcDbEntity
  8
0
  6
Continuous
 62
     7
370
    15
100
AcDbLine
 10
2410.6280306438
 20
1238.6208876931
 30
0.0
 11
1830.6280473331
 21
1238.6208876931
 31
0.0
  0
LINE
  5
134
330
1F
100
AcDbEntity
  8
0
  6
Continuous
 62
     7
370
    15
100
AcDbLine
 10
2410.6280306438
 20
1062.7441808545
 30
0.0
 11
2410.6280306438
 21
1062.744136151
 31
0.0
  0
LINE
  5
135
330
1F
100
AcDbEntity
  8
0
  6
Continuous
 62
     7
370
    15
100
AcDbLine
 10
1830.6280473331
 20
618.6208829247
 30
0.0
 11
2410.6280306438
 21
618.6208829247
 31
0.0
  0
LINE
  5
136
330
1F
100
AcDbEntity
  8
0
  6
Continuous
 62
     7
370
    15
100
AcDbLine
 10
1830.6280473331
 20
1062.744136151
 30
0.0
 11
1830.6280473331
 21
1062.7441808545
 31
0.0
  0
LINE
  5
137
330
1F
100
AcDbEntity
  8
0
  6
Continuous
 62
     7
370
    15
100
AcDbLine
 10
1520.6280151466
 20
1125.4737183415
 30
0.0
 11
1520.6280151466
 21
1072.9054316842
 31
0.0
  0
LINE
  5
138
330
1F
100
AcDbEntity
  8
0
  6
Continuous
 62
     7
370
    15
100
AcDbLine
 10
2720.6280628304
 20
1072.9054316842
 30
0.0
 11
2720.6280628304
 21
1125.4737183415
 31
0.0
  0
SPLINE
  5
139
330
1F
100
AcDbEntity
  8
0
  6
Continuous
 62
     7
370
    15
100
AcDbSpline
210
0.0
220
0.0
230
1.0
 70
     8
 71
     3
 72
    29
 73
    25
 74
     0
 42
0.000000001
 43
0.00000001
 40
0.0000000000000222
 40
0.0000000000000222
 40
0.0000000000000222
 40
0.0000000000000222
 40
0.1963495408493821
 40
0.1963495408493821
 40
0.1963495408493821
 40
0.3926990816987421
 40
0.3926990816987421
 40
0.3926990816987421
 40
0.5890486225481031
 40
0.5890486225481031
 40
0.5890486225481031
 40
0.7853981633974632
 40
0.7853981633974632
 40
0.7853981633974632
 40
0.9817477042468221
 40
0.9817477042468221
 40
0.9817477042468221
 40
1.178097245096181
 40
1.178097245096181
 40
1.178097245096181
 40
1.374446785945541
 40
1.374446785945541
 40
1.374446785945541
 40
1.5707963267949
 40
1.5707963267949
 40
1.5707963267949
 40
1.5707963267949
 10
2720.628038988543
 20
1072.744131944887
 30
0.0
 10
2720.628038988543
 20
1072.089633474887
 30
0.0
 10
2720.563578109543
 20
1071.435151189887
 30
0.0
 10
2720.435891792543
 20
1070.793228724887
 30
0.0
 10
2720.308205475543
 20
1070.151306259887
 30
0.0
 10
2720.117300034543
 20
1069.521975360887
 30
0.0
 10
2719.866834313543
 20
1068.917297620888
 30
0.0
 10
2719.616368592543
 20
1068.312619880887
 30
0.0
 10
2719.306354978543
 20
1067.732625202887
 30
0.0
 10
2718.942735111543
 20
1067.188429614887
 30
0.0
 10
2718.579115244543
 20
1066.644234025887
 30
0.0
 10
2718.161907106543
 20
1066.135864438887
 30
0.0
 10
2717.699106800543
 20
1065.673064132887
 30
0.0
 10
2717.236306494543
 20
1065.210263826887
 30
0.0
 10
2716.727936907543
 20
1064.793055688887
 30
0.0
 10
2716.183741318543
 20
1064.429435821887
 30
0.0
 10
2715.639545730543
 20
1064.065815954887
 30
0.0
 10
2715.059551052543
 20
1063.755802339887
 30
0.0
 10
2714.454873312543
 20
1063.505336619887
 30
0.0
 10
2713.850195572543
 20
1063.254870898887
 30
0.0
 10
2713.220864673543
 20
1063.063965457887
 30
0.0
 10
2712.578942208543
 20
1062.936279140887
 30
0.0
 10
2711.937019743543
 20
1062.808592823887
 30
0.0
 10
2711.282537457543
 20
1062.744131944887
 30
0.0
 10
2710.628038988543
 20
1062.744131944887
 30
0.0
  0
SPLINE
  5
13A
330
1F
100
AcDbEntity
  8
0
  6
Continuous
 62
     7
370
    15
100
AcDbSpline
210
0.0
220
0.0
230
1.0
 70
    24
 71
     3
 72
     8
 73
     4
 74
     0
 42
0.000000001
 43
0.00000001
 40
0.0
 40
0.0
 40
0.0
 40
0.0
 40
0.179853499792478
 40
0.179853499792478
 40
0.179853499792478
 40
0.179853499792478
 10
2720.628038988543
 20
1072.905432843887
 30
0.0
 10
2720.628038988543
 20
1072.798188936887
 30
0.0
 10
2720.628038988543
 20
1072.744131944887
 30
0.0
 10
2720.628038988543
 20
1072.744131944887
 30
0.0
  0
SPLINE
  5
13B
330
1F
100
AcDbEntity
  8
0
  6
Continuous
 62
     7
370
    15
100
AcDbSpline
210
0.0
220
0.0
230
1.0
 70
     8
 71
     3
 72
    29
 73
    25
 74
     0
 42
0.000000001
 43
0.00000001
 40
0.0000000000000222
 40
0.0000000000000222
 40
0.0000000000000222
 40
0.0000000000000222
 40
0.196349540849381
 40
0.196349540849381
 40
0.196349540849381
 40
0.392699081698741
 40
0.392699081698741
 40
0.392699081698741
 40
0.5890486225481
 40
0.5890486225481
 40
0.5890486225481
 40
0.7853981633974589
 40
0.7853981633974589
 40
0.7853981633974589
 40
0.981747704246819
 40
0.981747704246819
 40
0.981747704246819
 40
1.17809724509618
 40
1.17809724509618
 40
1.17809724509618
 40
1.37444678594554
 40
1.37444678594554
 40
1.37444678594554
 40
1.5707963267949
 40
1.5707963267949
 40
1.5707963267949
 40
1.5707963267949
 10
1530.628038988455
 20
1062.744131944887
 30
0.0
 10
1529.973540519455
 20
1062.744131944887
 30
0.0
 10
1529.319058233455
 20
1062.808592823887
 30
0.0
 10
1528.677135768455
 20
1062.936279140887
 30
0.0
 10
1528.035213303455
 20
1063.063965457887
 30
0.0
 10
1527.405882404455
 20
1063.254870898887
 30
0.0
 10
1526.801204664455
 20
1063.505336619887
 30
0.0
 10
1526.196526924455
 20
1063.755802339887
 30
0.0
 10
1525.616532246455
 20
1064.065815954887
 30
0.0
 10
1525.072336658455
 20
1064.429435821887
 30
0.0
 10
1524.528141069455
 20
1064.793055688887
 30
0.0
 10
1524.019771482455
 20
1065.210263826887
 30
0.0
 10
1523.556971176455
 20
1065.673064132887
 30
0.0
 10
1523.094170870455
 20
1066.135864438887
 30
0.0
 10
1522.676962732455
 20
1066.644234025887
 30
0.0
 10
1522.313342865455
 20
1067.188429614887
 30
0.0
 10
1521.949722998455
 20
1067.732625202887
 30
0.0
 10
1521.639709384455
 20
1068.312619880887
 30
0.0
 10
1521.389243663455
 20
1068.917297620888
 30
0.0
 10
1521.138777942455
 20
1069.521975360887
 30
0.0
 10
1520.947872501455
 20
1070.151306259887
 30
0.0
 10
1520.820186184455
 20
1070.793228724887
 30
0.0
 10
1520.692499867455
 20
1071.435151189887
 30
0.0
 10
1520.628038988455
 20
1072.089633474887
 30
0.0
 10
1520.628038988455
 20
1072.744131944887
 30
0.0
  0
SPLINE
  5
13C
330
1F
100
AcDbEntity
  8
0
  6
Continuous
 62
     7
370
    15
100
AcDbSpline
210
0.0
220
0.0
230
1.0
 70
    24
 71
     3
 72
     8
 73
     4
 74
     0
 42
0.000000001
 43
0.00000001
 40
0.0
 40
0.0
 40
0.0
 40
0.0
 40
0.179853499792478
 40
0.179853499792478
 40
0.179853499792478
 40
0.179853499792478
 10
1520.628038988455
 20
1072.744131944887
 30
0.0
 10
1520.628038988455
 20
1072.744131944887
 30
0.0
 10
1520.628038988455
 20
1072.798188936887
 30
0.0
 10
1520.628038988455
 20
1072.905432843887
 30
0.0
  0
LINE
  5
13D
330
1F
100
AcDbEntity
  8
0
  6
Continuous
 62
     7
370
    15
100
AcDbLine
 10
2720.6280628304
 20
638.6208936535
 30
0.0
 11
2720.6280628304
 21
1038.7657761537
 31
0.0
  0
LINE
  5
13E
330
1F
100
AcDbEntity
  8
0
  6
Continuous
 62
     7
370
    15
100
AcDbLine
 10
1520.6280151466
 20
1038.7657761537
 30
0.0
 11
1520.6280151466
 21
638.6208936535
 31
0.0
  0
LINE
  5
13F
330
1F
100
AcDbEntity
  8
0
  6
Continuous
 62
     7
370
    15
100
AcDbLine
 10
2410.6280306438
 20
618.6208829247
 30
0.0
 11
2710.6280127625
 21
618.6208829247
 31
0.0
  0
LINE
  5
140
330
1F
100
AcDbEntity
  8
0
  6
Continuous
 62
     7
370
    15
100
AcDbLine
 10
1830.6280473331
 20
618.6208829247
 30
0.0
 11
1530.6280652145
 21
618.6208829247
 31
0.0
  0
SPLINE
  5
141
330
1F
100
AcDbEntity
  8
0
  6
Continuous
 62
     7
370
    15
100
AcDbSpline
210
0.0
220
0.0
230
1.0
 70
    24
 71
     3
 72
    17
 73
    13
 74
     0
 42
0.000000001
 43
0.00000001
 40
1.5707963267949
 40
1.5707963267949
 40
1.5707963267949
 40
1.5707963267949
 40
1.76714586764426
 40
1.76714586764426
 40
1.76714586764426
 40
1.96349540849362
 40
1.96349540849362
 40
1.96349540849362
 40
2.15984494934298
 40
2.15984494934298
 40
2.15984494934298
 40
2.35619449019235
 40
2.35619449019235
 40
2.35619449019235
 40
2.35619449019235
 10
1520.628038988455
 20
1038.765775823887
 30
0.0
 10
1520.628038988455
 20
1039.420274292887
 30
0.0
 10
1520.628038988455
 20
1040.074756578887
 30
0.0
 10
1520.628038988455
 20
1040.716679043887
 30
0.0
 10
1520.628038988455
 20
1041.358601508887
 30
0.0
 10
1520.628038988455
 20
1041.987932407887
 30
0.0
 10
1520.628038988455
 20
1042.592610147887
 30
0.0
 10
1520.628038988455
 20
1043.197287887887
 30
0.0
 10
1520.628038988455
 20
1043.777282564887
 30
0.0
 10
1520.628038988455
 20
1044.321478153887
 30
0.0
 10
1520.628038988455
 20
1044.865673742887
 30
0.0
 10
1520.628038988455
 20
1045.374043329887
 30
0.0
 10
1520.628038988455
 20
1045.836843635887
 30
0.0
  0
SPLINE
  5
142
330
1F
100
AcDbEntity
  8
0
  6
Continuous
 62
     7
370
    15
100
AcDbSpline
210
0.0
220
0.0
230
1.0
 70
    24
 71
     3
 72
    17
 73
    13
 74
     0
 42
0.000000001
 43
0.00000001
 40
1.5707963267949
 40
1.5707963267949
 40
1.5707963267949
 40
1.5707963267949
 40
1.76714586764427
 40
1.76714586764427
 40
1.76714586764427
 40
1.96349540849363
 40
1.96349540849363
 40
1.96349540849363
 40
2.15984494934299
 40
2.15984494934299
 40
2.15984494934299
 40
2.35619449019235
 40
2.35619449019235
 40
2.35619449019235
 40
2.35619449019235
 10
2720.628038988543
 20
1045.836843635887
 30
0.0
 10
2720.628038988543
 20
1045.374043329887
 30
0.0
 10
2720.628038988543
 20
1044.865673742887
 30
0.0
 10
2720.628038988543
 20
1044.321478153887
 30
0.0
 10
2720.628038988543
 20
1043.777282564887
 30
0.0
 10
2720.628038988543
 20
1043.197287887887
 30
0.0
 10
2720.628038988543
 20
1042.592610147887
 30
0.0
 10
2720.628038988543
 20
1041.987932407887
 30
0.0
 10
2720.628038988543
 20
1041.358601508887
 30
0.0
 10
2720.628038988543
 20
1040.716679043887
 30
0.0
 10
2720.628038988543
 20
1040.074756578887
 30
0.0
 10
2720.628038988543
 20
1039.420274292887
 30
0.0
 10
2720.628038988543
 20
1038.765775823887
 30
0.0
  0
SPLINE
  5
143
330
1F
100
AcDbEntity
  8
0
  6
Continuous
 62
     7
370
    15
100
AcDbSpline
210
0.0
220
0.0
230
1.0
 70
     8
 71
     3
 72
    41
 73
    37
 74
     0
 42
0.000000001
 43
0.00000001
 40
0.0
 40
0.0
 40
0.0
 40
0.0
 40
0.1963495408493598
 40
0.1963495408493598
 40
0.1963495408493598
 40
0.3926990816987199
 40
0.3926990816987199
 40
0.3926990816987199
 40
0.5890486225480869
 40
0.5890486225480869
 40
0.5890486225480869
 40
0.7853981633974499
 40
0.7853981633974499
 40
0.7853981633974499
 40
0.8835729338221309
 40
0.8835729338221309
 40
0.8835729338221309
 40
0.9817477042468119
 40
0.9817477042468119
 40
0.9817477042468119
 40
1.079922474671494
 40
1.079922474671494
 40
1.079922474671494
 40
1.178097245096175
 40
1.178097245096175
 40
1.178097245096175
 40
1.276272015520856
 40
1.276272015520856
 40
1.276272015520856
 40
1.374446785945537
 40
1.374446785945537
 40
1.374446785945537
 40
1.472621556370219
 40
1.472621556370219
 40
1.472621556370219
 40
1.5707963267949
 40
1.5707963267949
 40
1.5707963267949
 40
1.5707963267949
 10
2720.628038988543
 20
628.6208853088873
 30
0.0
 10
2720.628038988543
 20
627.9663868398874
 30
0.0
 10
2720.563578109543
 20
627.3119045538873
 30
0.0
 10
2720.435891792543
 20
626.6699820888873
 30
0.0
 10
2720.308205475543
 20
626.0280596238873
 30
0.0
 10
2720.117300034543
 20
625.3987287248873
 30
0.0
 10
2719.866834313543
 20
624.7940509848873
 30
0.0
 10
2719.616368592543
 20
624.1893732448873
 30
0.0
 10
2719.306354978543
 20
623.6093785668874
 30
0.0
 10
2718.942735111543
 20
623.0651829788873
 30
0.0
 10
2718.579115244543
 20
622.5209873898874
 30
0.0
 10
2718.161907106543
 20
622.0126178028873
 30
0.0
 10
2717.699106800543
 20
621.5498174968873
 30
0.0
 10
2717.467706647543
 20
621.3184173438873
 30
0.0
 10
2717.224938909543
 20
621.0983854918873
 30
0.0
 10
2716.971971830543
 20
620.8907807748873
 30
0.0
 10
2716.719004750543
 20
620.6831760588873
 30
0.0
 10
2716.455839113543
 20
620.4879991198874
 30
0.0
 10
2716.183741318543
 20
620.3061891858873
 30
0.0
 10
2715.911643524543
 20
620.1243792518873
 30
0.0
 10
2715.630614415543
 20
619.9559368868873
 30
0.0
 10
2715.342006356543
 20
619.8016726658873
 30
0.0
 10
2715.053398297543
 20
619.6474084438872
 30
0.0
 10
2714.757212182543
 20
619.5073228438873
 30
0.0
 10
2714.454873312543
 20
619.3820899838872
 30
0.0
 10
2714.152534442543
 20
619.2568571228873
 30
0.0
 10
2713.844043753543
 20
619.1464773898873
 30
0.0
 10
2713.530885761543
 20
619.0514819518872
 30
0.0
 10
2713.217727768543
 20
618.9564865128873
 30
0.0
 10
2712.899903441543
 20
618.8768756638873
 30
0.0
 10
2712.578942208543
 20
618.8130325048874
 30
0.0
 10
2712.257980976543
 20
618.7491893458873
 30
0.0
 10
2711.933883832543
 20
618.7011140758873
 30
0.0
 10
2711.608210391543
 20
618.6690380418873
 30
0.0
 10
2711.282536951543
 20
618.6369620078873
 30
0.0
 10
2710.955288223543
 20
618.6208853088873
 30
0.0
 10
2710.628038988543
 20
618.6208853088873
 30
0.0
  0
SPLINE
  5
144
330
1F
100
AcDbEntity
  8
0
  6
Continuous
 62
     7
370
    15
100
AcDbSpline
210
0.0
220
0.0
230
1.0
 70
    24
 71
     3
 72
    29
 73
    25
 74
     0
 42
0.000000001
 43
0.00000001
 40
0.0
 40
0.0
 40
0.0
 40
0.0
 40
0.1963495408493698
 40
0.1963495408493698
 40
0.1963495408493698
 40
0.3926990816987299
 40
0.3926990816987299
 40
0.3926990816987299
 40
0.5890486225480899
 40
0.5890486225480899
 40
0.5890486225480899
 40
0.7853981633974519
 40
0.7853981633974519
 40
0.7853981633974519
 40
0.9817477042468139
 40
0.9817477042468139
 40
0.9817477042468139
 40
1.178097245096176
 40
1.178097245096176
 40
1.178097245096176
 40
1.374446785945538
 40
1.374446785945538
 40
1.374446785945538
 40
1.5707963267949
 40
1.5707963267949
 40
1.5707963267949
 40
1.5707963267949
 10
2720.628038988543
 20
638.6208853088873
 30
0.0
 10
2720.628038988543
 20
637.9663868398873
 30
0.0
 10
2720.628038988543
 20
637.3119045538873
 30
0.0
 10
2720.628038988543
 20
636.6699820888873
 30
0.0
 10
2720.628038988543
 20
636.0280596238872
 30
0.0
 10
2720.628038988543
 20
635.3987287248873
 30
0.0
 10
2720.628038988543
 20
634.7940509848873
 30
0.0
 10
2720.628038988543
 20
634.1893732448872
 30
0.0
 10
2720.628038988543
 20
633.6093785668872
 30
0.0
 10
2720.628038988543
 20
633.0651829788873
 30
0.0
 10
2720.628038988543
 20
632.5209873898873
 30
0.0
 10
2720.628038988543
 20
632.0126178028872
 30
0.0
 10
2720.628038988543
 20
631.5498174968873
 30
0.0
 10
2720.628038988543
 20
631.0870171908873
 30
0.0
 10
2720.628038988543
 20
630.6698090528873
 30
0.0
 10
2720.628038988543
 20
630.3061891858873
 30
0.0
 10
2720.628038988543
 20
629.9425693188873
 30
0.0
 10
2720.628038988543
 20
629.6325557048874
 30
0.0
 10
2720.628038988543
 20
629.3820899838872
 30
0.0
 10
2720.628038988543
 20
629.1316242628873
 30
0.0
 10
2720.628038988543
 20
628.9407188218872
 30
0.0
 10
2720.628038988543
 20
628.8130325048874
 30
0.0
 10
2720.628038988543
 20
628.6853461878874
 30
0.0
 10
2720.628038988543
 20
628.6208853088873
 30
0.0
 10
2720.628038988543
 20
628.6208853088873
 30
0.0
  0
SPLINE
  5
145
330
1F
100
AcDbEntity
  8
0
  6
Continuous
 62
     7
370
    15
100
AcDbSpline
210
0.0
220
0.0
230
1.0
 70
     8
 71
     3
 72
    41
 73
    37
 74
     0
 42
0.000000001
 43
0.00000001
 40
0.0
 40
0.0
 40
0.0
 40
0.0
 40
0.0981747704246814
 40
0.0981747704246814
 40
0.0981747704246814
 40
0.196349540849363
 40
0.196349540849363
 40
0.196349540849363
 40
0.294524311274044
 40
0.294524311274044
 40
0.294524311274044
 40
0.392699081698725
 40
0.392699081698725
 40
0.392699081698725
 40
0.490873852123406
 40
0.490873852123406
 40
0.490873852123406
 40
0.589048622548088
 40
0.589048622548088
 40
0.589048622548088
 40
0.687223392972769
 40
0.687223392972769
 40
0.687223392972769
 40
0.7853981633974499
 40
0.7853981633974499
 40
0.7853981633974499
 40
0.981747704246813
 40
0.981747704246813
 40
0.981747704246813
 40
1.17809724509618
 40
1.17809724509618
 40
1.17809724509618
 40
1.37444678594554
 40
1.37444678594554
 40
1.37444678594554
 40
1.5707963267949
 40
1.5707963267949
 40
1.5707963267949
 40
1.5707963267949
 10
1530.628038988455
 20
618.6208853088873
 30
0.0
 10
1530.300789753455
 20
618.6208853088873
 30
0.0
 10
1529.973541025455
 20
618.6369620078873
 30
0.0
 10
1529.647867585455
 20
618.6690380418873
 30
0.0
 10
1529.322194144455
 20
618.7011140758873
 30
0.0
 10
1528.998097000455
 20
618.7491893458873
 30
0.0
 10
1528.677135768455
 20
618.8130325048874
 30
0.0
 10
1528.356174535455
 20
618.8768756638873
 30
0.0
 10
1528.038350208455
 20
618.9564865128873
 30
0.0
 10
1527.725192215455
 20
619.0514819518872
 30
0.0
 10
1527.412034223455
 20
619.1464773898873
 30
0.0
 10
1527.103543534455
 20
619.2568571228873
 30
0.0
 10
1526.801204664455
 20
619.3820899838872
 30
0.0
 10
1526.498865794455
 20
619.5073228438873
 30
0.0
 10
1526.202679679455
 20
619.6474084438872
 30
0.0
 10
1525.914071620455
 20
619.8016726658873
 30
0.0
 10
1525.625463561455
 20
619.9559368868873
 30
0.0
 10
1525.344434452455
 20
620.1243792518873
 30
0.0
 10
1525.072336658455
 20
620.3061891858873
 30
0.0
 10
1524.800238863455
 20
620.4879991198874
 30
0.0
 10
1524.537073226455
 20
620.6831760588873
 30
0.0
 10
1524.284106146455
 20
620.8907807748873
 30
0.0
 10
1524.031139067455
 20
621.0983854918873
 30
0.0
 10
1523.788371329455
 20
621.3184173438873
 30
0.0
 10
1523.556971176455
 20
621.5498174968873
 30
0.0
 10
1523.094170870455
 20
622.0126178028873
 30
0.0
 10
1522.676962732455
 20
622.5209873898874
 30
0.0
 10
1522.313342865455
 20
623.0651829788873
 30
0.0
 10
1521.949722998455
 20
623.6093785668874
 30
0.0
 10
1521.639709384455
 20
624.1893732448873
 30
0.0
 10
1521.389243663455
 20
624.7940509848873
 30
0.0
 10
1521.138777942455
 20
625.3987287248873
 30
0.0
 10
1520.947872501455
 20
626.0280596238873
 30
0.0
 10
1520.820186184455
 20
626.6699820888873
 30
0.0
 10
1520.692499867455
 20
627.3119045538873
 30
0.0
 10
1520.628038988455
 20
627.9663868398874
 30
0.0
 10
1520.628038988455
 20
628.6208853088873
 30
0.0
  0
SPLINE
  5
146
330
1F
100
AcDbEntity
  8
0
  6
Continuous
 62
     7
370
    15
100
AcDbSpline
210
0.0
220
0.0
230
1.0
 70
    24
 71
     3
 72
    29
 73
    25
 74
     0
 42
0.000000001
 43
0.00000001
 40
0.0
 40
0.0
 40
0.0
 40
0.0
 40
0.196349540849362
 40
0.196349540849362
 40
0.196349540849362
 40
0.392699081698724
 40
0.392699081698724
 40
0.392699081698724
 40
0.589048622548086
 40
0.589048622548086
 40
0.589048622548086
 40
0.785398163397448
 40
0.785398163397448
 40
0.785398163397448
 40
0.98174770424681
 40
0.98174770424681
 40
0.98174770424681
 40
1.17809724509617
 40
1.17809724509617
 40
1.17809724509617
 40
1.37444678594553
 40
1.37444678594553
 40
1.37444678594553
 40
1.5707963267949
 40
1.5707963267949
 40
1.5707963267949
 40
1.5707963267949
 10
1520.628038988455
 20
628.6208853088873
 30
0.0
 10
1520.628038988455
 20
628.6208853088873
 30
0.0
 10
1520.628038988455
 20
628.6853461878874
 30
0.0
 10
1520.628038988455
 20
628.8130325048874
 30
0.0
 10
1520.628038988455
 20
628.9407188218872
 30
0.0
 10
1520.628038988455
 20
629.1316242628873
 30
0.0
 10
1520.628038988455
 20
629.3820899838872
 30
0.0
 10
1520.628038988455
 20
629.6325557048874
 30
0.0
 10
1520.628038988455
 20
629.9425693188873
 30
0.0
 10
1520.628038988455
 20
630.3061891858873
 30
0.0
 10
1520.628038988455
 20
630.6698090528873
 30
0.0
 10
1520.628038988455
 20
631.0870171908873
 30
0.0
 10
1520.628038988455
 20
631.5498174968873
 30
0.0
 10
1520.628038988455
 20
632.0126178028872
 30
0.0
 10
1520.628038988455
 20
632.5209873898873
 30
0.0
 10
1520.628038988455
 20
633.0651829788873
 30
0.0
 10
1520.628038988455
 20
633.6093785668872
 30
0.0
 10
1520.628038988455
 20
634.1893732448872
 30
0.0
 10
1520.628038988455
 20
634.7940509848873
 30
0.0
 10
1520.628038988455
 20
635.3987287248873
 30
0.0
 10
1520.628038988455
 20
636.0280596238872
 30
0.0
 10
1520.628038988455
 20
636.6699820888873
 30
0.0
 10
1520.628038988455
 20
637.3119045538873
 30
0.0
 10
1520.628038988455
 20
637.9663868398873
 30
0.0
 10
1520.628038988455
 20
638.6208853088873
 30
0.0
  0
LINE
  5
147
330
1F
100
AcDbEntity
  8
0
  6
Continuous
 62
     7
370
    15
100
AcDbLine
 10
2720.6280628304
 20
1045.8368465268
 30
0.0
 11
2720.6280628304
 21
1068.2632431351
 31
0.0
  0
LINE
  5
148
330
1F
100
AcDbEntity
  8
0
  6
Continuous
 62
     7
370
    15
100
AcDbLine
 10
1520.6280151466
 20
1068.2632431351
 30
0.0
 11
1520.6280151466
 21
1045.8368465268
 31
0.0
  0
LINE
  5
149
330
1F
100
AcDbEntity
  8
0
  6
Continuous
 62
     7
370
    15
100
AcDbLine
 10
1520.6280151466
 20
1072.6700380408
 30
0.0
 11
1520.6280151466
 21
1071.2939754092
 31
0.0
  0
SPLINE
  5
14A
330
1F
100
AcDbEntity
  8
0
  6
Continuous
 62
     7
370
    15
100
AcDbSpline
210
0.0
220
0.0
230
1.0
 70
    24
 71
     3
 72
     8
 73
     4
 74
     0
 42
0.000000001
 43
0.00000001
 40
0.0
 40
0.0
 40
0.0
 40
0.0
 40
1.0
 40
1.0
 40
1.0
 40
1.0
 10
1520.628038988302
 20
1068.263250510111
 30
0.0
 10
1520.628038988302
 20
1069.108578826905
 30
0.0
 10
1520.628038988302
 20
1070.106060678647
 30
0.0
 10
1520.628038988302
 20
1071.29398160016
 30
0.0
  0
SPLINE
  5
14B
330
1F
100
AcDbEntity
  8
0
  6
Continuous
 62
     7
370
    15
100
AcDbSpline
210
0.0
220
0.0
230
1.0
 70
    24
 71
     3
 72
     8
 73
     4
 74
     0
 42
0.000000001
 43
0.00000001
 40
0.0
 40
0.0
 40
0.0
 40
0.0
 40
1.0
 40
1.0
 40
1.0
 40
1.0
 10
2720.628038988696
 20
1071.293981597241
 30
0.0
 10
2720.628038988696
 20
1070.106060675416
 30
0.0
 10
2720.628038988696
 20
1069.108578823411
 30
0.0
 10
2720.628038988696
 20
1068.263250506395
 30
0.0
  0
LINE
  5
14C
330
1F
100
AcDbEntity
  8
0
  6
Continuous
 62
     7
370
    15
100
AcDbLine
 10
2720.6280628304
 20
1071.2939754092
 30
0.0
 11
2720.6280628304
 21
1072.6700380408
 31
0.0
  0
ARC
  5
14D
330
1F
100
AcDbEntity
  8
0
  6
Continuous
 62
     7
370
    15
100
AcDbCircle
 10
3168.6682712143
 20
1668.9028604568
 30
0.0
 40
22.00000000000045
100
AcDbArc
 50
180.0
 51
270.0
  0
ARC
  5
14E
330
1F
100
AcDbEntity
  8
0
  6
Continuous
 62
     7
370
    15
100
AcDbCircle
 10
3168.6682712143
 20
1668.9028604568
 30
0.0
 40
38.0
100
AcDbArc
 50
180.0
 51
270.0
  0
LINE
  5
14F
330
1F
100
AcDbEntity
  8
0
  6
Continuous
 62
     7
370
    15
100
AcDbLine
 10
3146.6682783582
 20
1668.9028592349
 30
0.0
 11
3146.6682783582
 21
1814.9028608144
 31
0.0
  0
LINE
  5
150
330
1F
100
AcDbEntity
  8
0
  6
Continuous
 62
     7
370
    15
100
AcDbLine
 10
3130.6682757356
 20
1814.9028608144
 30
0.0
 11
3130.6682757356
 21
1668.9028592349
 31
0.0
  0
LINE
  5
151
330
1F
100
AcDbEntity
  8
0
  6
Continuous
 62
     7
370
    15
100
AcDbLine
 10
3130.6682757356
 20
1840.9035095514
 30
0.0
 11
3130.6682757356
 21
1814.9028608144
 31
0.0
  0
LINE
  5
152
330
1F
100
AcDbEntity
  8
0
  6
Continuous
 62
     7
370
    15
100
AcDbLine
 10
3146.6682783582
 20
1814.9028608144
 30
0.0
 11
3146.6682783582
 21
1840.9028539003
 31
0.0
  0
LINE
  5
153
330
1F
100
AcDbEntity
  8
0
  6
Continuous
 62
     7
370
    15
100
AcDbLine
 10
3688.6682740667
 20
1646.9028612168
 30
0.0
 11
3168.6682633378
 21
1646.9028612168
 31
0.0
  0
LINE
  5
154
330
1F
100
AcDbEntity
  8
0
  6
Continuous
 62
     7
370
    15
100
AcDbLine
 10
3168.6682633378
 20
1630.9028604568
 30
0.0
 11
3688.6682740667
 21
1630.9028604568
 31
0.0
  0
ARC
  5
155
330
1F
100
AcDbEntity
  8
0
  6
Continuous
 62
     7
370
    15
100
AcDbCircle
 10
3688.6682712143
 20
1668.9028604568
 30
0.0
 40
22.0
100
AcDbArc
 50
270.0
 51
360.0
  0
ARC
  5
156
330
1F
100
AcDbEntity
  8
0
  6
Continuous
 62
     7
370
    15
100
AcDbCircle
 10
3688.6682712143
 20
1668.9028604568
 30
0.0
 40
38.00000000000023
100
AcDbArc
 50
270.0
 51
360.0
  0
LINE
  5
157
330
1F
100
AcDbEntity
  8
0
  6
Continuous
 62
     7
370
    15
100
AcDbLine
 10
3726.6682616689
 20
1814.9028608144
 30
0.0
 11
3726.6682616689
 21
1840.9028539003
 31
0.0
  0
LINE
  5
158
330
1F
100
AcDbEntity
  8
0
  6
Continuous
 62
     7
370
    15
100
AcDbLine
 10
3710.6682590463
 20
1840.9028539003
 30
0.0
 11
3710.6682590463
 21
1814.9028608144
 31
0.0
  0
LINE
  5
159
330
1F
100
AcDbEntity
  8
0
  6
Continuous
 62
     7
370
    15
100
AcDbLine
 10
3710.6682590463
 20
1814.9028608144
 30
0.0
 11
3710.6682590463
 21
1668.9028592349
 31
0.0
  0
LINE
  5
15A
330
1F
100
AcDbEntity
  8
0
  6
Continuous
 62
     7
370
    15
100
AcDbLine
 10
3726.6682616689
 20
1668.9028592349
 30
0.0
 11
3726.6682616689
 21
1814.9028608144
 31
0.0
  0
LINE
  5
15B
330
1F
100
AcDbEntity
  8
0
  6
Continuous
 62
     7
370
    15
100
AcDbLine
 10
3128.6678246476
 20
1840.9028539003
 30
0.0
 11
3728.6678484895
 21
1840.9028539003
 31
0.0
  0
LINE
  5
15C
330
1F
100
AcDbEntity
  8
0
  6
Continuous
 62
     7
370
    15
100
AcDbLine
 10
3294.2219904878
 20
2105.3550282062
 30
0.0
 11
3241.6537038305
 21
2394.480560118
 31
0.0
  0
LINE
  5
15D
330
1F
100
AcDbEntity
  8
0
  6
Continuous
 62
     7
370
    15
100
AcDbLine
 10
3221.9763032415
 20
2410.9028318466
 30
0.0
 11
3138.6678449132
 21
2410.9028318466
 31
0.0
  0
LINE
  5
15E
330
1F
100
AcDbEntity
  8
0
  6
Continuous
 62
     7
370
    15
100
AcDbLine
 10
3304.3808124282
 20
2075.0449934543
 30
0.0
 11
3281.9544009187
 21
2052.618596846
 31
0.0
  0
LINE
  5
15F
330
1F
100
AcDbEntity
  8
0
  6
Continuous
 62
     7
370
    15
100
AcDbLine
 10
3718.6678282239
 20
2080.9028485359
 30
0.0
 11
3318.5229457238
 21
2080.9028485359
 31
0.0
  0
LINE
  5
160
330
1F
100
AcDbEntity
  8
0
  6
Continuous
 62
     7
370
    15
100
AcDbLine
 10
3267.8122750738
 20
2066.7607226909
 30
0.0
 11
3288.6867306449
 21
2087.6351931632
 31
0.0
  0
LINE
  5
161
330
1F
100
AcDbEntity
  8
0
  6
Continuous
 62
     7
370
    15
100
AcDbLine
 10
3728.6678484895
 20
1840.9028539003
 30
0.0
 11
3738.6678389528
 21
1840.9028539003
 31
0.0
  0
LINE
  5
162
330
1F
100
AcDbEntity
  8
0
  6
Continuous
 62
     7
370
    15
100
AcDbLine
 10
3738.6678389528
 20
1840.9028539003
 30
0.0
 11
3738.6678389528
 21
2060.9028676093
 31
0.0
  0
LINE
  5
163
330
1F
100
AcDbEntity
  8
0
  6
Continuous
 62
     7
370
    15
100
AcDbLine
 10
3118.6678341844
 20
1840.9028539003
 30
0.0
 11
3128.6678246476
 21
1840.9028539003
 31
0.0
  0
LINE
  5
164
330
1F
100
AcDbEntity
  8
0
  6
Continuous
 62
     7
370
    15
100
AcDbLine
 10
3118.6678341844
 20
2390.90285092
 30
0.0
 11
3118.6678341844
 21
1840.9028539003
 31
0.0
  0
SPLINE
  5
165
330
1F
100
AcDbEntity
  8
0
  6
Continuous
 62
     7
370
    15
100
AcDbSpline
210
0.0
220
0.0
230
1.0
 70
     8
 71
     3
 72
    29
 73
    25
 74
     0
 42
0.000000001
 43
0.00000001
 40
0.179853499792478
 40
0.179853499792478
 40
0.179853499792478
 40
0.179853499792478
 40
0.353721353167788
 40
0.353721353167788
 40
0.353721353167788
 40
0.5275892065430879
 40
0.5275892065430879
 40
0.5275892065430879
 40
0.7014570599183879
 40
0.7014570599183879
 40
0.7014570599183879
 40
0.8753249132936909
 40
0.8753249132936909
 40
0.8753249132936909
 40
1.049192766668993
 40
1.049192766668993
 40
1.049192766668993
 40
1.223060620044296
 40
1.223060620044296
 40
1.223060620044296
 40
1.396928473419598
 40
1.396928473419598
 40
1.396928473419598
 40
1.5707963267949
 40
1.5707963267949
 40
1.5707963267949
 40
1.5707963267949
 10
3221.976309500578
 20
2410.902860456792
 30
0.0
 10
3223.135428522578
 20
2410.902860456792
 30
0.0
 10
3224.294529916578
 20
2410.801840606792
 30
0.0
 10
3225.436172928578
 20
2410.601320930792
 30
0.0
 10
3226.577815941578
 20
2410.400801255792
 30
0.0
 10
3227.701965846578
 20
2410.100787852792
 30
0.0
 10
3228.791707799578
 20
2409.705794962792
 30
0.0
 10
3229.881449752578
 20
2409.310802071792
 30
0.0
 10
3230.936750606578
 20
2408.820841707792
 30
0.0
 10
3231.941731473578
 20
2408.243286198793
 30
0.0
 10
3232.946712339578
 20
2407.665730689792
 30
0.0
 10
3233.901342650578
 20
2407.000597604792
 30
0.0
 10
3234.791258285578
 20
2406.257895058792
 30
0.0
 10
3235.681173920578
 20
2405.515192513792
 30
0.0
 10
3236.506347810579
 20
2404.694943099792
 30
0.0
 10
3237.254363739578
 20
2403.809488934793
 30
0.0
 10
3238.002379668578
 20
2402.924034769792
 30
0.0
 10
3238.673214884578
 20
2401.973402788792
 30
0.0
 10
3239.256775470578
 20
2400.971896946793
 30
0.0
 10
3239.840336057578
 20
2399.970391105792
 30
0.0
 10
3240.336604264578
 20
2398.918041868792
 30
0.0
 10
3240.738112850578
 20
2397.830683710793
 30
0.0
 10
3241.139621436578
 20
2396.743325552793
 30
0.0
 10
3241.446358188578
 20
2395.620991548793
 30
0.0
 10
3241.653707702578
 20
2394.480569220792
 30
0.0
  0
SPLINE
  5
166
330
1F
100
AcDbEntity
  8
0
  6
Continuous
 62
     7
370
    15
100
AcDbSpline
210
0.0
220
0.0
230
1.0
 70
     8
 71
     3
 72
    17
 73
    13
 74
     0
 42
0.000000001
 43
0.00000001
 40
1.5707963267949
 40
1.5707963267949
 40
1.5707963267949
 40
1.5707963267949
 40
1.76714586764427
 40
1.76714586764427
 40
1.76714586764427
 40
1.96349540849363
 40
1.96349540849363
 40
1.96349540849363
 40
2.15984494934299
 40
2.15984494934299
 40
2.15984494934299
 40
2.35619449019235
 40
2.35619449019235
 40
2.35619449019235
 40
2.35619449019235
 10
3304.380810429578
 20
2075.044996080792
 30
0.0
 10
3305.306411041578
 20
2075.970596692792
 30
0.0
 10
3306.323150215578
 20
2076.805012968792
 30
0.0
 10
3307.411541393578
 20
2077.532252702792
 30
0.0
 10
3308.499932570578
 20
2078.259492436793
 30
0.0
 10
3309.659921926578
 20
2078.879519665792
 30
0.0
 10
3310.869277406578
 20
2079.380451106792
 30
0.0
 10
3312.078632886578
 20
2079.881382548792
 30
0.0
 10
3313.337294683578
 20
2080.263193430792
 30
0.0
 10
3314.621139613578
 20
2080.518566064793
 30
0.0
 10
3315.904984543578
 20
2080.773938698792
 30
0.0
 10
3317.213949114578
 20
2080.902860456792
 30
0.0
 10
3318.522946053578
 20
2080.902860456792
 30
0.0
  0
ARC
  5
167
330
1F
100
AcDbEntity
  8
0
  6
Continuous
 62
     7
370
    15
100
AcDbCircle
 10
3274.8833357466
 20
2059.6896570208
 30
0.0
 40
10.00000000000072
100
AcDbArc
 50
135.0
 51
315.0000000083
  0
SPLINE
  5
168
330
1F
100
AcDbEntity
  8
0
  6
Continuous
 62
     7
370
    15
100
AcDbSpline
210
0.0
220
0.0
230
1.0
 70
     8
 71
     3
 72
    29
 73
    25
 74
     0
 42
0.000000001
 43
0.00000001
 40
1.5707963267949
 40
1.5707963267949
 40
1.5707963267949
 40
1.5707963267949
 40
1.76714586764426
 40
1.76714586764426
 40
1.76714586764426
 40
1.96349540849362
 40
1.96349540849362
 40
1.96349540849362
 40
2.15984494934298
 40
2.15984494934298
 40
2.15984494934298
 40
2.35619449019235
 40
2.35619449019235
 40
2.35619449019235
 40
2.55254403104171
 40
2.55254403104171
 40
2.55254403104171
 40
2.74889357189107
 40
2.74889357189107
 40
2.74889357189107
 40
2.94524311274043
 40
2.94524311274043
 40
2.94524311274043
 40
3.14159265358979
 40
3.14159265358979
 40
3.14159265358979
 40
3.14159265358979
 10
3118.667836568578
 20
2390.902860456792
 30
0.0
 10
3118.667836568578
 20
2392.211857395792
 30
0.0
 10
3118.796758326578
 20
2393.520821966792
 30
0.0
 10
3119.052130960578
 20
2394.804666896793
 30
0.0
 10
3119.307503594578
 20
2396.088511826792
 30
0.0
 10
3119.689314476578
 20
2397.347173623793
 30
0.0
 10
3120.190245918578
 20
2398.556529103792
 30
0.0
 10
3120.691177359578
 20
2399.765884583792
 30
0.0
 10
3121.311204588578
 20
2400.925873939792
 30
0.0
 10
3122.038444322578
 20
2402.014265116792
 30
0.0
 10
3122.765684056578
 20
2403.102656294792
 30
0.0
 10
3123.600100332578
 20
2404.119395468792
 30
0.0
 10
3124.525700944578
 20
2405.044996080792
 30
0.0
 10
3125.451301556578
 20
2405.970596692792
 30
0.0
 10
3126.468040730578
 20
2406.805012968792
 30
0.0
 10
3127.556431908578
 20
2407.532252702792
 30
0.0
 10
3128.644823085578
 20
2408.259492436792
 30
0.0
 10
3129.804812441578
 20
2408.879519665792
 30
0.0
 10
3131.014167921579
 20
2409.380451106792
 30
0.0
 10
3132.223523401578
 20
2409.881382548792
 30
0.0
 10
3133.482185198578
 20
2410.263193430792
 30
0.0
 10
3134.766030128578
 20
2410.518566064793
 30
0.0
 10
3136.049875058578
 20
2410.773938698792
 30
0.0
 10
3137.358839629578
 20
2410.902860456792
 30
0.0
 10
3138.667836568578
 20
2410.902860456792
 30
0.0
  0
SPLINE
  5
169
330
1F
100
AcDbEntity
  8
0
  6
Continuous
 62
     7
370
    15
100
AcDbSpline
210
0.0
220
0.0
230
1.0
 70
     8
 71
     3
 72
    29
 73
    25
 74
     0
 42
0.000000001
 43
0.00000001
 40
0.0
 40
0.0
 40
0.0
 40
0.0
 40
0.1963495408493698
 40
0.1963495408493698
 40
0.1963495408493698
 40
0.3926990816987299
 40
0.3926990816987299
 40
0.3926990816987299
 40
0.5890486225480899
 40
0.5890486225480899
 40
0.5890486225480899
 40
0.7853981633974519
 40
0.7853981633974519
 40
0.7853981633974519
 40
0.9817477042468139
 40
0.9817477042468139
 40
0.9817477042468139
 40
1.178097245096176
 40
1.178097245096176
 40
1.178097245096176
 40
1.374446785945538
 40
1.374446785945538
 40
1.374446785945538
 40
1.5707963267949
 40
1.5707963267949
 40
1.5707963267949
 40
1.5707963267949
 10
3718.667836568578
 20
2080.902860456792
 30
0.0
 10
3719.976833507578
 20
2080.902860456792
 30
0.0
 10
3721.285798078578
 20
2080.773938698792
 30
0.0
 10
3722.569643008578
 20
2080.518566064793
 30
0.0
 10
3723.853487938578
 20
2080.263193430792
 30
0.0
 10
3725.112149735578
 20
2079.881382548792
 30
0.0
 10
3726.321505215578
 20
2079.380451106792
 30
0.0
 10
3727.530860695578
 20
2078.879519665792
 30
0.0
 10
3728.690850051578
 20
2078.259492436793
 30
0.0
 10
3729.779241228578
 20
2077.532252702792
 30
0.0
 10
3730.867632406578
 20
2076.805012968792
 30
0.0
 10
3731.884371580578
 20
2075.970596692792
 30
0.0
 10
3732.809972192578
 20
2075.044996080792
 30
0.0
 10
3733.735572804578
 20
2074.119395468792
 30
0.0
 10
3734.569989080578
 20
2073.102656294793
 30
0.0
 10
3735.297228814578
 20
2072.014265116793
 30
0.0
 10
3736.024468548578
 20
2070.925873939792
 30
0.0
 10
3736.644495777578
 20
2069.765884583792
 30
0.0
 10
3737.145427218578
 20
2068.556529103792
 30
0.0
 10
3737.646358660578
 20
2067.347173623792
 30
0.0
 10
3738.028169542578
 20
2066.088511826792
 30
0.0
 10
3738.283542176579
 20
2064.804666896792
 30
0.0
 10
3738.538914810578
 20
2063.520821966792
 30
0.0
 10
3738.667836568578
 20
2062.211857395792
 30
0.0
 10
3738.667836568578
 20
2060.902860456792
 30
0.0
  0
SPLINE
  5
16A
330
1F
100
AcDbEntity
  8
0
  6
Continuous
 62
     7
370
    15
100
AcDbSpline
210
0.0
220
0.0
230
1.0
 70
     8
 71
     3
 72
    17
 73
    13
 74
     0
 42
0.000000001
 43
0.00000001
 40
5.49778714378214
 40
5.49778714378214
 40
5.49778714378214
 40
5.49778714378214
 40
5.694136684631511
 40
5.694136684631511
 40
5.694136684631511
 40
5.890486225480871
 40
5.890486225480871
 40
5.890486225480871
 40
6.086835766330231
 40
6.086835766330231
 40
6.086835766330231
 40
6.283185307179591
 40
6.283185307179591
 40
6.283185307179591
 40
6.283185307179591
 10
3294.544589932578
 20
2101.777318078793
 30
0.0
 10
3294.544589932578
 20
2100.468321139792
 30
0.0
 10
3294.415668175578
 20
2099.159356567792
 30
0.0
 10
3294.160295540578
 20
2097.875511637792
 30
0.0
 10
3293.904922906578
 20
2096.591666707793
 30
0.0
 10
3293.523112024578
 20
2095.333004910793
 30
0.0
 10
3293.022180582578
 20
2094.123649430792
 30
0.0
 10
3292.521249141578
 20
2092.914293950792
 30
0.0
 10
3291.901221913578
 20
2091.754304595792
 30
0.0
 10
3291.173982178578
 20
2090.665913417793
 30
0.0
 10
3290.446742444578
 20
2089.577522240792
 30
0.0
 10
3289.612326168578
 20
2088.560783066793
 30
0.0
 10
3288.686725556578
 20
2087.635182454792
 30
0.0
  0
SPLINE
  5
16B
330
1F
100
AcDbEntity
  8
0
  6
Continuous
 62
     7
370
    15
100
AcDbSpline
210
0.0
220
0.0
230
1.0
 70
     8
 71
     3
 72
     8
 73
     4
 74
     0
 42
0.000000001
 43
0.00000001
 40
0.0
 40
0.0
 40
0.0
 40
0.0
 40
0.179853499792478
 40
0.179853499792478
 40
0.179853499792478
 40
0.179853499792478
 10
3294.221988134578
 20
2105.355026842792
 30
0.0
 10
3294.436475948578
 20
2104.175343864792
 30
0.0
 10
3294.544589932578
 20
2102.976341410792
 30
0.0
 10
3294.544589932578
 20
2101.777318078793
 30
0.0
  0
ARC
  5
16C
330
1F
100
AcDbEntity
  8
0
  6
Continuous
 62
     7
370
    15
100
AcDbCircle
 10
1141.6113637798
 20
1668.9028604568
 30
0.0
 40
22.0
100
AcDbArc
 50
270.0
 51
0.0
  0
ARC
  5
16D
330
1F
100
AcDbEntity
  8
0
  6
Continuous
 62
     7
370
    15
100
AcDbCircle
 10
1141.6113637798
 20
1668.9028604568
 30
0.0
 40
38.0
100
AcDbArc
 50
270.0
 51
0.0
  0
LINE
  5
16E
330
1F
100
AcDbEntity
  8
0
  6
Continuous
 62
     7
370
    15
100
AcDbLine
 10
1179.6113592584
 20
1814.9028608144
 30
0.0
 11
1179.6113592584
 21
1840.9035095514
 31
0.0
  0
LINE
  5
16F
330
1F
100
AcDbEntity
  8
0
  6
Continuous
 62
     7
370
    15
100
AcDbLine
 10
1163.6113566358
 20
1840.9028539003
 30
0.0
 11
1163.6113566358
 21
1814.9028608144
 31
0.0
  0
LINE
  5
170
330
1F
100
AcDbEntity
  8
0
  6
Continuous
 62
     7
370
    15
100
AcDbLine
 10
1163.6113566358
 20
1814.9028608144
 30
0.0
 11
1163.6113566358
 21
1668.9028592349
 31
0.0
  0
LINE
  5
171
330
1F
100
AcDbEntity
  8
0
  6
Continuous
 62
     7
370
    15
100
AcDbLine
 10
1179.6113592584
 20
1668.9028592349
 30
0.0
 11
1179.6113592584
 21
1814.9028608144
 31
0.0
  0
LINE
  5
172
330
1F
100
AcDbEntity
  8
0
  6
Continuous
 62
     7
370
    15
100
AcDbLine
 10
1141.6113716562
 20
1646.9028612168
 30
0.0
 11
621.6113609274
 21
1646.9028612168
 31
0.0
  0
LINE
  5
173
330
1F
100
AcDbEntity
  8
0
  6
Continuous
 62
     7
370
    15
100
AcDbLine
 10
621.6113609274
 20
1630.9028604568
 30
0.0
 11
1141.6113716562
 21
1630.9028604568
 31
0.0
  0
ARC
  5
174
330
1F
100
AcDbEntity
  8
0
  6
Continuous
 62
     7
370
    15
100
AcDbCircle
 10
621.6113637798
 20
1668.9028604568
 30
0.0
 40
22.00000000000011
100
AcDbArc
 50
180.0
 51
270.0
  0
ARC
  5
175
330
1F
100
AcDbEntity
  8
0
  6
Continuous
 62
     7
370
    15
100
AcDbCircle
 10
621.6113637798
 20
1668.9028604568
 30
0.0
 40
38.0
100
AcDbArc
 50
180.0
 51
270.0
  0
LINE
  5
176
330
1F
100
AcDbEntity
  8
0
  6
Continuous
 62
     7
370
    15
100
AcDbLine
 10
599.6113759477
 20
1668.9028592349
 30
0.0
 11
599.6113759477
 21
1814.9028608144
 31
0.0
  0
LINE
  5
177
330
1F
100
AcDbEntity
  8
0
  6
Continuous
 62
     7
370
    15
100
AcDbLine
 10
583.6113733251
 20
1814.9028608144
 30
0.0
 11
583.6113733251
 21
1668.9028592349
 31
0.0
  0
LINE
  5
178
330
1F
100
AcDbEntity
  8
0
  6
Continuous
 62
     7
370
    15
100
AcDbLine
 10
583.6113733251
 20
1840.9028539003
 30
0.0
 11
583.6113733251
 21
1814.9028608144
 31
0.0
  0
LINE
  5
179
330
1F
100
AcDbEntity
  8
0
  6
Continuous
 62
     7
370
    15
100
AcDbLine
 10
599.6113759477
 20
1814.9028608144
 30
0.0
 11
599.6113759477
 21
1840.9028539003
 31
0.0
  0
LINE
  5
17A
330
1F
100
AcDbEntity
  8
0
  6
Continuous
 62
     7
370
    15
100
AcDbLine
 10
581.6117865045
 20
1840.9028539003
 30
0.0
 11
1181.6118103464
 21
1840.9028539003
 31
0.0
  0
LINE
  5
17B
330
1F
100
AcDbEntity
  8
0
  6
Continuous
 62
     7
370
    15
100
AcDbLine
 10
1068.6259311636
 20
2394.480560118
 30
0.0
 11
1016.0576445062
 21
2105.3550282062
 31
0.0
  0
LINE
  5
17C
330
1F
100
AcDbEntity
  8
0
  6
Continuous
 62
     7
370
    15
100
AcDbLine
 10
1171.6117900808
 20
2410.9028318466
 30
0.0
 11
1088.3033317526
 21
2410.9028318466
 31
0.0
  0
LINE
  5
17D
330
1F
100
AcDbEntity
  8
0
  6
Continuous
 62
     7
370
    15
100
AcDbLine
 10
1028.3252340753
 20
2052.618596846
 30
0.0
 11
1005.8988225658
 21
2075.0449934543
 31
0.0
  0
LINE
  5
17E
330
1F
100
AcDbEntity
  8
0
  6
Continuous
 62
     7
370
    15
100
AcDbLine
 10
991.7566892703
 20
2080.9028485359
 30
0.0
 11
591.6118067701
 21
2080.9028485359
 31
0.0
  0
LINE
  5
17F
330
1F
100
AcDbEntity
  8
0
  6
Continuous
 62
     7
370
    15
100
AcDbLine
 10
1021.5929043491
 20
2087.6351931632
 30
0.0
 11
1042.4673599203
 21
2066.7607226909
 31
0.0
  0
LINE
  5
180
330
1F
100
AcDbEntity
  8
0
  6
Continuous
 62
     7
370
    15
100
AcDbLine
 10
1191.6118008096
 20
1840.9028539003
 30
0.0
 11
1191.6118008096
 21
2390.90285092
 31
0.0
  0
LINE
  5
181
330
1F
100
AcDbEntity
  8
0
  6
Continuous
 62
     7
370
    15
100
AcDbLine
 10
1181.6118103464
 20
1840.9028539003
 30
0.0
 11
1191.6118008096
 21
1840.9028539003
 31
0.0
  0
LINE
  5
182
330
1F
100
AcDbEntity
  8
0
  6
Continuous
 62
     7
370
    15
100
AcDbLine
 10
571.6117960413
 20
1840.9028539003
 30
0.0
 11
581.6117865045
 21
1840.9028539003
 31
0.0
  0
LINE
  5
183
330
1F
100
AcDbEntity
  8
0
  6
Continuous
 62
     7
370
    15
100
AcDbLine
 10
571.6117960413
 20
2060.9028676093
 30
0.0
 11
571.6117960413
 21
1840.9028539003
 31
0.0
  0
SPLINE
  5
184
330
1F
100
AcDbEntity
  8
0
  6
Continuous
 62
     7
370
    15
100
AcDbSpline
210
0.0
220
0.0
230
1.0
 70
     8
 71
     3
 72
    29
 73
    25
 74
     0
 42
0.000000001
 43
0.00000001
 40
0.179853499792478
 40
0.179853499792478
 40
0.179853499792478
 40
0.179853499792478
 40
0.35372135316778
 40
0.35372135316778
 40
0.35372135316778
 40
0.5275892065430821
 40
0.5275892065430821
 40
0.5275892065430821
 40
0.701457059918385
 40
0.701457059918385
 40
0.701457059918385
 40
0.875324913293687
 40
0.875324913293687
 40
0.875324913293687
 40
1.04919276666899
 40
1.04919276666899
 40
1.04919276666899
 40
1.22306062004429
 40
1.22306062004429
 40
1.22306062004429
 40
1.39692847341959
 40
1.39692847341959
 40
1.39692847341959
 40
1.5707963267949
 40
1.5707963267949
 40
1.5707963267949
 40
1.5707963267949
 10
1068.625927291455
 20
2394.480569220792
 30
0.0
 10
1068.833276805455
 20
2395.620991548793
 30
0.0
 10
1069.140013557455
 20
2396.743325552793
 30
0.0
 10
1069.541522143455
 20
2397.830683710793
 30
0.0
 10
1069.943030729455
 20
2398.918041868792
 30
0.0
 10
1070.439298936455
 20
2399.970391105792
 30
0.0
 10
1071.022859523455
 20
2400.971896946793
 30
0.0
 10
1071.606420109455
 20
2401.973402788792
 30
0.0
 10
1072.277255325455
 20
2402.924034769792
 30
0.0
 10
1073.025271254455
 20
2403.809488934793
 30
0.0
 10
1073.773287183455
 20
2404.694943099792
 30
0.0
 10
1074.598461073455
 20
2405.515192513792
 30
0.0
 10
1075.488376708455
 20
2406.257895058792
 30
0.0
 10
1076.378292343455
 20
2407.000597604792
 30
0.0
 10
1077.332922654455
 20
2407.665730689792
 30
0.0
 10
1078.337903520455
 20
2408.243286198793
 30
0.0
 10
1079.342884387455
 20
2408.820841707792
 30
0.0
 10
1080.398185241455
 20
2409.310802071792
 30
0.0
 10
1081.487927194455
 20
2409.705794962792
 30
0.0
 10
1082.577669147455
 20
2410.100787852792
 30
0.0
 10
1083.701819052455
 20
2410.400801255792
 30
0.0
 10
1084.843462065455
 20
2410.601320930792
 30
0.0
 10
1085.985105077455
 20
2410.801840606792
 30
0.0
 10
1087.144206471455
 20
2410.902860456792
 30
0.0
 10
1088.303325493455
 20
2410.902860456792
 30
0.0
  0
SPLINE
  5
185
330
1F
100
AcDbEntity
  8
0
  6
Continuous
 62
     7
370
    15
100
AcDbSpline
210
0.0
220
0.0
230
1.0
 70
     8
 71
     3
 72
    17
 73
    13
 74
     0
 42
0.000000001
 43
0.00000001
 40
1.5707963267949
 40
1.5707963267949
 40
1.5707963267949
 40
1.5707963267949
 40
1.76714586764426
 40
1.76714586764426
 40
1.76714586764426
 40
1.96349540849362
 40
1.96349540849362
 40
1.96349540849362
 40
2.15984494934298
 40
2.15984494934298
 40
2.15984494934298
 40
2.35619449019235
 40
2.35619449019235
 40
2.35619449019235
 40
2.35619449019235
 10
991.7566889404549
 20
2080.902860456792
 30
0.0
 10
993.0656858794549
 20
2080.902860456792
 30
0.0
 10
994.3746504504549
 20
2080.773938698792
 30
0.0
 10
995.658495380455
 20
2080.518566064793
 30
0.0
 10
996.9423403104548
 20
2080.263193430792
 30
0.0
 10
998.2010021074548
 20
2079.881382548792
 30
0.0
 10
999.4103575874548
 20
2079.380451106792
 30
0.0
 10
1000.619713067455
 20
2078.879519665792
 30
0.0
 10
1001.779702423455
 20
2078.259492436793
 30
0.0
 10
1002.868093600455
 20
2077.532252702792
 30
0.0
 10
1003.956484778455
 20
2076.805012968792
 30
0.0
 10
1004.973223952455
 20
2075.970596692792
 30
0.0
 10
1005.898824564455
 20
2075.044996080792
 30
0.0
  0
ARC
  5
186
330
1F
100
AcDbEntity
  8
0
  6
Continuous
 62
     7
370
    15
100
AcDbCircle
 10
1035.3962992475
 20
2059.6896570208
 30
0.0
 40
10.00000000000088
100
AcDbArc
 50
224.9999999875
 51
45.0000000025
  0
SPLINE
  5
187
330
1F
100
AcDbEntity
  8
0
  6
Continuous
 62
     7
370
    15
100
AcDbSpline
210
0.0
220
0.0
230
1.0
 70
     8
 71
     3
 72
    29
 73
    25
 74
     0
 42
0.000000001
 43
0.00000001
 40
1.5707963267949
 40
1.5707963267949
 40
1.5707963267949
 40
1.5707963267949
 40
1.76714586764426
 40
1.76714586764426
 40
1.76714586764426
 40
1.96349540849362
 40
1.96349540849362
 40
1.96349540849362
 40
2.15984494934298
 40
2.15984494934298
 40
2.15984494934298
 40
2.35619449019234
 40
2.35619449019234
 40
2.35619449019234
 40
2.55254403104171
 40
2.55254403104171
 40
2.55254403104171
 40
2.74889357189107
 40
2.74889357189107
 40
2.74889357189107
 40
2.94524311274043
 40
2.94524311274043
 40
2.94524311274043
 40
3.14159265358979
 40
3.14159265358979
 40
3.14159265358979
 40
3.14159265358979
 10
1171.611798425455
 20
2410.902860456792
 30
0.0
 10
1172.920795364455
 20
2410.902860456792
 30
0.0
 10
1174.229759935455
 20
2410.773938698792
 30
0.0
 10
1175.513604865455
 20
2410.518566064793
 30
0.0
 10
1176.797449795455
 20
2410.263193430792
 30
0.0
 10
1178.056111592455
 20
2409.881382548792
 30
0.0
 10
1179.265467072455
 20
2409.380451106792
 30
0.0
 10
1180.474822552455
 20
2408.879519665792
 30
0.0
 10
1181.634811908455
 20
2408.259492436792
 30
0.0
 10
1182.723203085455
 20
2407.532252702792
 30
0.0
 10
1183.811594263455
 20
2406.805012968792
 30
0.0
 10
1184.828333437455
 20
2405.970596692792
 30
0.0
 10
1185.753934049455
 20
2405.044996080792
 30
0.0
 10
1186.679534661455
 20
2404.119395468792
 30
0.0
 10
1187.513950937455
 20
2403.102656294792
 30
0.0
 10
1188.241190671455
 20
2402.014265116792
 30
0.0
 10
1188.968430405455
 20
2400.925873939792
 30
0.0
 10
1189.588457634455
 20
2399.765884583792
 30
0.0
 10
1190.089389075455
 20
2398.556529103792
 30
0.0
 10
1190.590320517455
 20
2397.347173623793
 30
0.0
 10
1190.972131399455
 20
2396.088511826792
 30
0.0
 10
1191.227504033455
 20
2394.804666896793
 30
0.0
 10
1191.482876667455
 20
2393.520821966792
 30
0.0
 10
1191.611798425455
 20
2392.211857395792
 30
0.0
 10
1191.611798425455
 20
2390.902860456792
 30
0.0
  0
SPLINE
  5
188
330
1F
100
AcDbEntity
  8
0
  6
Continuous
 62
     7
370
    15
100
AcDbSpline
210
0.0
220
0.0
230
1.0
 70
     8
 71
     3
 72
    29
 73
    25
 74
     0
 42
0.000000001
 43
0.00000001
 40
0.0
 40
0.0
 40
0.0
 40
0.0
 40
0.196349540849362
 40
0.196349540849362
 40
0.196349540849362
 40
0.392699081698724
 40
0.392699081698724
 40
0.392699081698724
 40
0.589048622548086
 40
0.589048622548086
 40
0.589048622548086
 40
0.785398163397448
 40
0.785398163397448
 40
0.785398163397448
 40
0.98174770424681
 40
0.98174770424681
 40
0.98174770424681
 40
1.17809724509617
 40
1.17809724509617
 40
1.17809724509617
 40
1.37444678594553
 40
1.37444678594553
 40
1.37444678594553
 40
1.5707963267949
 40
1.5707963267949
 40
1.5707963267949
 40
1.5707963267949
 10
571.6117984254549
 20
2060.902860456792
 30
0.0
 10
571.6117984254549
 20
2062.211857395792
 30
0.0
 10
571.7407201834549
 20
2063.520821966792
 30
0.0
 10
571.9960928174548
 20
2064.804666896792
 30
0.0
 10
572.2514654514548
 20
2066.088511826792
 30
0.0
 10
572.6332763334548
 20
2067.347173623792
 30
0.0
 10
573.1342077754548
 20
2068.556529103792
 30
0.0
 10
573.6351392164548
 20
2069.765884583792
 30
0.0
 10
574.2551664454548
 20
2070.925873939792
 30
0.0
 10
574.9824061794549
 20
2072.014265116793
 30
0.0
 10
575.7096459134548
 20
2073.102656294793
 30
0.0
 10
576.5440621894548
 20
2074.119395468792
 30
0.0
 10
577.4696628014549
 20
2075.044996080792
 30
0.0
 10
578.3952634134549
 20
2075.970596692792
 30
0.0
 10
579.4120025874548
 20
2076.805012968792
 30
0.0
 10
580.5003937654548
 20
2077.532252702792
 30
0.0
 10
581.5887849424548
 20
2078.259492436793
 30
0.0
 10
582.7487742984549
 20
2078.879519665792
 30
0.0
 10
583.9581297784549
 20
2079.380451106792
 30
0.0
 10
585.1674852584548
 20
2079.881382548792
 30
0.0
 10
586.4261470554549
 20
2080.263193430792
 30
0.0
 10
587.7099919854548
 20
2080.518566064793
 30
0.0
 10
588.9938369154548
 20
2080.773938698792
 30
0.0
 10
590.3028014864549
 20
2080.902860456792
 30
0.0
 10
591.6117984254549
 20
2080.902860456792
 30
0.0
  0
SPLINE
  5
189
330
1F
100
AcDbEntity
  8
0
  6
Continuous
 62
     7
370
    15
100
AcDbSpline
210
0.0
220
0.0
230
1.0
 70
     8
 71
     3
 72
    17
 73
    13
 74
     0
 42
0.000000001
 43
0.00000001
 40
5.49778714378214
 40
5.49778714378214
 40
5.49778714378214
 40
5.49778714378214
 40
5.694136684631499
 40
5.694136684631499
 40
5.694136684631499
 40
5.89048622548086
 40
5.89048622548086
 40
5.89048622548086
 40
6.086835766330219
 40
6.086835766330219
 40
6.086835766330219
 40
6.283185307179591
 40
6.283185307179591
 40
6.283185307179591
 40
6.283185307179591
 10
1021.592909437455
 20
2087.635182454792
 30
0.0
 10
1020.667308825455
 20
2088.560783066793
 30
0.0
 10
1019.832892549455
 20
2089.577522240792
 30
0.0
 10
1019.105652815455
 20
2090.665913417793
 30
0.0
 10
1018.378413080455
 20
2091.754304595792
 30
0.0
 10
1017.758385852455
 20
2092.914293950792
 30
0.0
 10
1017.257454411455
 20
2094.123649430792
 30
0.0
 10
1016.756522969455
 20
2095.333004910793
 30
0.0
 10
1016.374712087455
 20
2096.591666707793
 30
0.0
 10
1016.119339453455
 20
2097.875511637792
 30
0.0
 10
1015.863966818455
 20
2099.159356567792
 30
0.0
 10
1015.735045061455
 20
2100.468321139792
 30
0.0
 10
1015.735045061455
 20
2101.777318078793
 30
0.0
  0
SPLINE
  5
18A
330
1F
100
AcDbEntity
  8
0
  6
Continuous
 62
     7
370
    15
100
AcDbSpline
210
0.0
220
0.0
230
1.0
 70
     8
 71
     3
 72
     8
 73
     4
 74
     0
 42
0.000000001
 43
0.00000001
 40
0.0
 40
0.0
 40
0.0
 40
0.0
 40
0.179853499792478
 40
0.179853499792478
 40
0.179853499792478
 40
0.179853499792478
 10
1015.735045061455
 20
2101.777318078793
 30
0.0
 10
1015.735045061455
 20
2102.976341410792
 30
0.0
 10
1015.843159045455
 20
2104.175343864792
 30
0.0
 10
1016.057646859455
 20
2105.355026842792
 30
0.0
  0
ENDSEC
  0
SECTION
  2
OBJECTS
  0
DICTIONARY
  5
C
330
0
100
AcDbDictionary
281
     1
  3
ACAD_DETAILVIEWSTYLE
350
18F
  3
ACAD_GROUP
350
D
  3
ACAD_LAYOUT
350
1A
  3
ACAD_MATERIAL
350
43
  3
ACAD_MLEADERSTYLE
350
18E
  3
ACAD_MLINESTYLE
350
17
  3
ACAD_PLOTSETTINGS
350
19
  3
ACAD_PLOTSTYLENAME
350
E
  3
ACAD_SCALELIST
350
47
  3
ACAD_SECTIONVIEWSTYLE
350
190
  3
ACAD_TABLESTYLE
350
18D
  3
AcDbVariableDictionary
350
18B
  0
DICTIONARY
  5
18F
102
{ACAD_REACTORS
330
C
102
}
330
C
100
AcDbDictionary
281
     1
  0
DICTIONARY
  5
D
102
{ACAD_REACTORS
330
C
102
}
330
C
100
AcDbDictionary
281
     1
  0
DICTIONARY
  5
1A
102
{ACAD_REACTORS
330
C
102
}
330
C
100
AcDbDictionary
281
     1
  3
Layout1
350
1E
  3
Layout2
350
26
  3
Model
350
22
  0
DICTIONARY
  5
43
102
{ACAD_REACTORS
330
C
102
}
330
C
100
AcDbDictionary
281
     1
  3
ByBlock
350
45
  3
ByLayer
350
44
  3
Global
350
46
  0
DICTIONARY
  5
18E
102
{ACAD_REACTORS
330
C
102
}
330
C
100
AcDbDictionary
281
     1
  0
DICTIONARY
  5
17
102
{ACAD_REACTORS
330
C
102
}
330
C
100
AcDbDictionary
281
     1
  3
Standard
350
18
  0
DICTIONARY
  5
19
102
{ACAD_REACTORS
330
C
102
}
330
C
100
AcDbDictionary
281
     1
  0
ACDBDICTIONARYWDFLT
  5
E
102
{ACAD_REACTORS
330
C
102
}
330
C
100
AcDbDictionary
281
     1
  3
Normal
350
F
100
AcDbDictionaryWithDefault
340
F
  0
DICTIONARY
  5
47
102
{ACAD_REACTORS
330
C
102
}
330
C
100
AcDbDictionary
281
     1
  3
A0
350
48
  3
A1
350
49
  3
A2
350
4A
  3
A3
350
4B
  3
A4
350
4C
  3
A5
350
4D
  3
A6
350
4E
  3
A7
350
4F
  3
A8
350
50
  3
A9
350
51
  3
B0
350
52
  3
B1
350
53
  3
B2
350
54
  3
B3
350
55
  3
B4
350
56
  3
B5
350
57
  3
B6
350
58
  3
B7
350
59
  3
B8
350
5A
  3
B9
350
5B
  3
C0
350
5C
  3
C1
350
5D
  3
C2
350
5E
  3
C3
350
5F
  3
C4
350
60
  3
C5
350
61
  3
C6
350
62
  3
C7
350
63
  3
C8
350
64
  3
C9
350
65
  3
D0
350
66
  3
D1
350
67
  3
D2
350
68
  0
DICTIONARY
  5
190
102
{ACAD_REACTORS
330
C
102
}
330
C
100
AcDbDictionary
281
     1
  0
DICTIONARY
  5
18D
102
{ACAD_REACTORS
330
C
102
}
330
C
100
AcDbDictionary
281
     1
  0
DICTIONARY
  5
18B
102
{ACAD_REACTORS
330
C
102
}
330
C
100
AcDbDictionary
281
     1
  3
CANNOSCALE
350
18C
  0
LAYOUT
  5
1E
102
{ACAD_REACTORS
330
1A
102
}
330
1A
100
AcDbPlotSettings
  1

  2
none_device
  4

  6

 40
0.0
 41
0.0
 42
0.0
 43
0.0
 44
0.0
 45
0.0
 46
0.0
 47
0.0
 48
0.0
 49
0.0
140
0.0
141
0.0
142
1.0
143
1.0
 70
   688
 72
     1
 73
     0
 74
     5
  7

 75
    16
 76
     0
 77
     2
 78
   300
147
1.0
148
0.0
149
0.0
100
AcDbLayout
  1
Layout1
 70
     1
 71
     1
 10
0.0
 20
0.0
 11
420.0
 21
297.0
 12
0.0
 22
0.0
 32
0.0
 14
1.0000000000E+20
 24
1.0000000000E+20
 34
1.0000000000E+20
 15
-1.0000000000E+20
 25
-1.0000000000E+20
 35
-1.0000000000E+20
146
0.0
 13
0.0
 23
0.0
 33
0.0
 16
1.0
 26
0.0
 36
0.0
 17
0.0
 27
1.0
 37
0.0
 76
     0
330
1B
  0
LAYOUT
  5
26
102
{ACAD_REACTORS
330
1A
102
}
330
1A
100
AcDbPlotSettings
  1

  2
none_device
  4

  6

 40
0.0
 41
0.0
 42
0.0
 43
0.0
 44
0.0
 45
0.0
 46
0.0
 47
0.0
 48
0.0
 49
0.0
140
0.0
141
0.0
142
1.0
143
1.0
 70
   688
 72
     1
 73
     0
 74
     5
  7

 75
    16
 76
     0
 77
     2
 78
   300
147
1.0
148
0.0
149
0.0
100
AcDbLayout
  1
Layout2
 70
     1
 71
     2
 10
0.0
 20
0.0
 11
0.0
 21
0.0
 12
0.0
 22
0.0
 32
0.0
 14
0.0
 24
0.0
 34
0.0
 15
0.0
 25
0.0
 35
0.0
146
0.0
 13
0.0
 23
0.0
 33
0.0
 16
1.0
 26
0.0
 36
0.0
 17
0.0
 27
1.0
 37
0.0
 76
     0
330
23
  0
LAYOUT
  5
22
102
{ACAD_REACTORS
330
1A
102
}
330
1A
100
AcDbPlotSettings
  1

  2
none_device
  4
Letter_(8.50_x_11.00_Inches)
  6

 40
6.35
 41
6.35
 42
6.35000508
 43
6.35000508
 44
215.9
 45
279.4
 46
0.0
 47
0.0
 48
0.0
 49
0.0
140
0.0
141
0.0
142
1.0
143
1.0
 70
  1712
 72
     1
 73
     0
 74
     0
  7

 75
     0
 76
     0
 77
     2
 78
   300
147
1.0
148
0.0
149
0.0
100
AcDbLayout
  1
Model
 70
     1
 71
     0
 10
0.0
 20
0.0
 11
4455.0
 21
3150.0
 12
0.0
 22
0.0
 32
0.0
 14
0.0
 24
0.0
 34
0.0
 15
4455.0
 25
3150.0
 35
0.0
146
0.0
 13
0.0
 23
0.0
 33
0.0
 16
1.0
 26
0.0
 36
0.0
 17
0.0
 27
1.0
 37
0.0
 76
     0
330
1F
331
29
  0
MATERIAL
  5
45
102
{ACAD_REACTORS
330
43
102
}
330
43
100
AcDbMaterial
  1
ByBlock
  0
MATERIAL
  5
44
102
{ACAD_REACTORS
330
43
102
}
330
43
100
AcDbMaterial
  1
ByLayer
  0
MATERIAL
  5
46
102
{ACAD_REACTORS
330
43
102
}
330
43
100
AcDbMaterial
  1
Global
  0
MLINESTYLE
  5
18
102
{ACAD_REACTORS
330
17
102
}
330
17
100
AcDbMlineStyle
  2
Standard
 70
     0
  3

 62
   256
 51
90.0
 52
90.0
 71
     2
 49
0.5
 62
   256
  6
BYLAYER
 49
-0.5
 62
   256
  6
BYLAYER
  0
ACDBPLACEHOLDER
  5
F
102
{ACAD_REACTORS
330
E
102
}
330
E
  0
SCALE
  5
48
102
{ACAD_REACTORS
330
47
102
}
330
47
100
AcDbScale
 70
     0
300
1:1
140
1.0
141
1.0
290
     1
  0
SCALE
  5
49
102
{ACAD_REACTORS
330
47
102
}
330
47
100
AcDbScale
 70
     0
300
1:2
140
1.0
141
2.0
290
     0
  0
SCALE
  5
4A
102
{ACAD_REACTORS
330
47
102
}
330
47
100
AcDbScale
 70
     0
300
1:4
140
1.0
141
4.0
290
     0
  0
SCALE
  5
4B
102
{ACAD_REACTORS
330
47
102
}
330
47
100
AcDbScale
 70
     0
300
1:5
140
1.0
141
5.0
290
     0
  0
SCALE
  5
4C
102
{ACAD_REACTORS
330
47
102
}
330
47
100
AcDbScale
 70
     0
300
1:8
140
1.0
141
8.0
290
     0
  0
SCALE
  5
4D
102
{ACAD_REACTORS
330
47
102
}
330
47
100
AcDbScale
 70
     0
300
1:10
140
1.0
141
10.0
290
     0
  0
SCALE
  5
4E
102
{ACAD_REACTORS
330
47
102
}
330
47
100
AcDbScale
 70
     0
300
1:16
140
1.0
141
16.0
290
     0
  0
SCALE
  5
4F
102
{ACAD_REACTORS
330
47
102
}
330
47
100
AcDbScale
 70
     0
300
1:20
140
1.0
141
20.0
290
     0
  0
SCALE
  5
50
102
{ACAD_REACTORS
330
47
102
}
330
47
100
AcDbScale
 70
     0
300
1:30
140
1.0
141
30.0
290
     0
  0
SCALE
  5
51
102
{ACAD_REACTORS
330
47
102
}
330
47
100
AcDbScale
 70
     0
300
1:40
140
1.0
141
40.0
290
     0
  0
SCALE
  5
52
102
{ACAD_REACTORS
330
47
102
}
330
47
100
AcDbScale
 70
     0
300
1:50
140
1.0
141
50.0
290
     0
  0
SCALE
  5
53
102
{ACAD_REACTORS
330
47
102
}
330
47
100
AcDbScale
 70
     0
300
1:100
140
1.0
141
100.0
290
     0
  0
SCALE
  5
54
102
{ACAD_REACTORS
330
47
102
}
330
47
100
AcDbScale
 70
     0
300
2:1
140
2.0
141
1.0
290
     0
  0
SCALE
  5
55
102
{ACAD_REACTORS
330
47
102
}
330
47
100
AcDbScale
 70
     0
300
4:1
140
4.0
141
1.0
290
     0
  0
SCALE
  5
56
102
{ACAD_REACTORS
330
47
102
}
330
47
100
AcDbScale
 70
     0
300
8:1
140
8.0
141
1.0
290
     0
  0
SCALE
  5
57
102
{ACAD_REACTORS
330
47
102
}
330
47
100
AcDbScale
 70
     0
300
10:1
140
10.0
141
1.0
290
     0
  0
SCALE
  5
58
102
{ACAD_REACTORS
330
47
102
}
330
47
100
AcDbScale
 70
     0
300
100:1
140
100.0
141
1.0
290
     0
  0
SCALE
  5
59
102
{ACAD_REACTORS
330
47
102
}
330
47
100
AcDbScale
 70
     0
300
1/128" = 1'-0"
140
0.0078125
141
12.0
290
     0
  0
SCALE
  5
5A
102
{ACAD_REACTORS
330
47
102
}
330
47
100
AcDbScale
 70
     0
300
1/64" = 1'-0"
140
0.015625
141
12.0
290
     0
  0
SCALE
  5
5B
102
{ACAD_REACTORS
330
47
102
}
330
47
100
AcDbScale
 70
     0
300
1/32" = 1'-0"
140
0.03125
141
12.0
290
     0
  0
SCALE
  5
5C
102
{ACAD_REACTORS
330
47
102
}
330
47
100
AcDbScale
 70
     0
300
1/16" = 1'-0"
140
0.0625
141
12.0
290
     0
  0
SCALE
  5
5D
102
{ACAD_REACTORS
330
47
102
}
330
47
100
AcDbScale
 70
     0
300
3/32" = 1'-0"
140
0.09375
141
12.0
290
     0
  0
SCALE
  5
5E
102
{ACAD_REACTORS
330
47
102
}
330
47
100
AcDbScale
 70
     0
300
1/8" = 1'-0"
140
0.125
141
12.0
290
     0
  0
SCALE
  5
5F
102
{ACAD_REACTORS
330
47
102
}
330
47
100
AcDbScale
 70
     0
300
3/16" = 1'-0"
140
0.1875
141
12.0
290
     0
  0
SCALE
  5
60
102
{ACAD_REACTORS
330
47
102
}
330
47
100
AcDbScale
 70
     0
300
1/4" = 1'-0"
140
0.25
141
12.0
290
     0
  0
SCALE
  5
61
102
{ACAD_REACTORS
330
47
102
}
330
47
100
AcDbScale
 70
     0
300
3/8" = 1'-0"
140
0.375
141
12.0
290
     0
  0
SCALE
  5
62
102
{ACAD_REACTORS
330
47
102
}
330
47
100
AcDbScale
 70
     0
300
1/2" = 1'-0"
140
0.5
141
12.0
290
     0
  0
SCALE
  5
63
102
{ACAD_REACTORS
330
47
102
}
330
47
100
AcDbScale
 70
     0
300
3/4" = 1'-0"
140
0.75
141
12.0
290
     0
  0
SCALE
  5
64
102
{ACAD_REACTORS
330
47
102
}
330
47
100
AcDbScale
 70
     0
300
1" = 1'-0"
140
1.0
141
12.0
290
     0
  0
SCALE
  5
65
102
{ACAD_REACTORS
330
47
102
}
330
47
100
AcDbScale
 70
     0
300
1-1/2" = 1'-0"
140
1.5
141
12.0
290
     0
  0
SCALE
  5
66
102
{ACAD_REACTORS
330
47
102
}
330
47
100
AcDbScale
 70
     0
300
3" = 1'-0"
140
3.0
141
12.0
290
     0
  0
SCALE
  5
67
102
{ACAD_REACTORS
330
47
102
}
330
47
100
AcDbScale
 70
     0
300
6" = 1'-0"
140
6.0
141
12.0
290
     0
  0
SCALE
  5
68
102
{ACAD_REACTORS
330
47
102
}
330
47
100
AcDbScale
 70
     0
300
1'-0" = 1'-0"
140
12.0
141
12.0
290
     0
  0
DICTIONARYVAR
  5
18C
102
{ACAD_REACTORS
330
18B
102
}
330
18B
100
DictionaryVariables
280
     0
  1
1:1
  0
ENDSEC
  0
EOF
