  0
SECTION
  2
HEADER
  9
$ACADVER
  1
AC1018
  9
$ACADMAINTVER
 70
     0
  9
$DWGCODEPAGE
  3
ANSI_1252
  9
$INSBASE
 10
0.0
 20
0.0
 30
0.0
  9
$EXTMIN
 10
0.0
 20
0.0
 30
0.0
  9
$EXTMAX
 10
2970.0
 20
2100.0
 30
0.0
  9
$LIMMIN
 10
0.0
 20
0.0
  9
$LIMMAX
 10
2970.0
 20
2100.0
  9
$ORTHOMODE
 70
     0
  9
$REGENMODE
 70
     1
  9
$FILLMODE
 70
     1
  9
$QTEXTMODE
 70
     0
  9
$MIRRTEXT
 70
     1
  9
$LTSCALE
 40
10.0
  9
$ATTMODE
 70
     1
  9
$TEXTSIZE
 40
35.0
  9
$TRACEWID
 40
1.0
  9
$TEXTSTYLE
  7
Standard
  9
$CLAYER
  8
0
  9
$CELTYPE
  6
ByLayer
  9
$CECOLOR
 62
   256
  9
$CELTSCALE
 40
1.0
  9
$DISPSILH
 70
     0
  9
$DIMSCALE
 40
1.0
  9
$DIMASZ
 40
25.0
  9
$DIMEXO
 40
0.0
  9
$DIMDLI
 40
3.75
  9
$DIMRND
 40
0.0
  9
$DIMDLE
 40
0.0
  9
$DIMEXE
 40
10.0
  9
$DIMTP
 40
0.0
  9
$DIMTM
 40
0.0
  9
$DIMTXT
 40
30.0
  9
$DIMCEN
 40
2.5
  9
$DIMTSZ
 40
0.0
  9
$DIMTOL
 70
     0
  9
$DIMLIM
 70
     0
  9
$DIMTIH
 70
     1
  9
$DIMTOH
 70
     1
  9
$DIMSE1
 70
     0
  9
$DIMSE2
 70
     0
  9
$DIMTAD
 70
     1
  9
$DIMZIN
 70
     0
  9
$DIMBLK
  1

  9
$DIMASO
 70
     1
  9
$DIMSHO
 70
     1
  9
$DIMPOST
  1

  9
$DIMAPOST
  1

  9
$DIMALT
 70
     0
  9
$DIMALTD
 70
     3
  9
$DIMALTF
 40
0.0393700787
  9
$DIMLFAC
 40
1.0
  9
$DIMTOFL
 70
     1
  9
$DIMTVP
 40
0.0
  9
$DIMTIX
 70
     0
  9
$DIMSOXD
 70
     0
  9
$DIMSAH
 70
     0
  9
$DIMBLK1
  1

  9
$DIMBLK2
  1

  9
$DIMSTYLE
  2
ISO-25
  9
$DIMCLRD
 70
     0
  9
$DIMCLRE
 70
     0
  9
$DIMCLRT
 70
     0
  9
$DIMTFAC
 40
1.0
  9
$DIMGAP
 40
15.0
  9
$DIMJUST
 70
     0
  9
$DIMSD1
 70
     0
  9
$DIMSD2
 70
     0
  9
$DIMTOLJ
 70
     0
  9
$DIMTZIN
 70
     0
  9
$DIMALTZ
 70
     0
  9
$DIMALTTZ
 70
     0
  9
$DIMUPT
 70
     0
  9
$DIMDEC
 70
     1
  9
$DIMTDEC
 70
     1
  9
$DIMALTU
 70
     2
  9
$DIMALTTD
 70
     3
  9
$DIMTXSTY
  7
Standard
  9
$DIMAUNIT
 70
     0
  9
$DIMADEC
 70
     2
  9
$DIMALTRND
 40
0.0
  9
$DIMAZIN
 70
     0
  9
$DIMDSEP
 70
    44
  9
$DIMATFIT
 70
     3
  9
$DIMFRAC
 70
     0
  9
$DIMLDRBLK
  1

  9
$DIMLUNIT
 70
     2
  9
$DIMLWD
 70
    -2
  9
$DIMLWE
 70
    -2
  9
$DIMTMOVE
 70
     0
  9
$LUNITS
 70
     2
  9
$LUPREC
 70
     2
  9
$SKETCHINC
 40
1.0
  9
$FILLETRAD
 40
10.0
  9
$AUNITS
 70
     0
  9
$AUPREC
 70
     2
  9
$MENU
  1
.
  9
$ELEVATION
 40
0.0
  9
$PELEVATION
 40
0.0
  9
$THICKNESS
 40
0.0
  9
$LIMCHECK
 70
     0
  9
$CHAMFERA
 40
0.0
  9
$CHAMFERB
 40
0.0
  9
$CHAMFERC
 40
0.0
  9
$CHAMFERD
 40
0.0
  9
$SKPOLY
 70
     0
  9
$TDCREATE
 40
2457126.348999502
  9
$TDUCREATE
 40
2457126.265666169
  9
$TDUPDATE
 40
2457126.34900059
  9
$TDUUPDATE
 40
2457126.265667257
  9
$TDINDWG
 40
0.0000000116
  9
$TDUSRTIMER
 40
0.0000000116
  9
$USRTIMER
 70
     1
  9
$ANGBASE
 50
0.0
  9
$ANGDIR
 70
     0
  9
$PDMODE
 70
     0
  9
$PDSIZE
 40
-1.0
  9
$PLINEWID
 40
0.0
  9
$SPLFRAME
 70
     0
  9
$SPLINETYPE
 70
     6
  9
$SPLINESEGS
 70
     8
  9
$HANDSEED
  5
183
  9
$SURFTAB1
 70
     6
  9
$SURFTAB2
 70
     6
  9
$SURFTYPE
 70
     6
  9
$SURFU
 70
     6
  9
$SURFV
 70
     6
  9
$UCSBASE
  2

  9
$UCSNAME
  2

  9
$UCSORG
 10
0.0
 20
0.0
 30
0.0
  9
$UCSXDIR
 10
1.0
 20
0.0
 30
0.0
  9
$UCSYDIR
 10
0.0
 20
1.0
 30
0.0
  9
$UCSORTHOREF
  2

  9
$UCSORTHOVIEW
 70
     0
  9
$UCSORGTOP
 10
0.0
 20
0.0
 30
0.0
  9
$UCSORGBOTTOM
 10
0.0
 20
0.0
 30
0.0
  9
$UCSORGLEFT
 10
0.0
 20
0.0
 30
0.0
  9
$UCSORGRIGHT
 10
0.0
 20
0.0
 30
0.0
  9
$UCSORGFRONT
 10
0.0
 20
0.0
 30
0.0
  9
$UCSORGBACK
 10
0.0
 20
0.0
 30
0.0
  9
$PUCSBASE
  2

  9
$PUCSNAME
  2

  9
$PUCSORG
 10
0.0
 20
0.0
 30
0.0
  9
$PUCSXDIR
 10
1.0
 20
0.0
 30
0.0
  9
$PUCSYDIR
 10
0.0
 20
1.0
 30
0.0
  9
$PUCSORTHOREF
  2

  9
$PUCSORTHOVIEW
 70
     0
  9
$PUCSORGTOP
 10
0.0
 20
0.0
 30
0.0
  9
$PUCSORGBOTTOM
 10
0.0
 20
0.0
 30
0.0
  9
$PUCSORGLEFT
 10
0.0
 20
0.0
 30
0.0
  9
$PUCSORGRIGHT
 10
0.0
 20
0.0
 30
0.0
  9
$PUCSORGFRONT
 10
0.0
 20
0.0
 30
0.0
  9
$PUCSORGBACK
 10
0.0
 20
0.0
 30
0.0
  9
$USERI1
 70
     0
  9
$USERI2
 70
     0
  9
$USERI3
 70
     0
  9
$USERI4
 70
     0
  9
$USERI5
 70
     0
  9
$USERR1
 40
0.0
  9
$USERR2
 40
0.0
  9
$USERR3
 40
0.0
  9
$USERR4
 40
0.0
  9
$USERR5
 40
0.0
  9
$WORLDVIEW
 70
     1
  9
$SHADEDGE
 70
     3
  9
$SHADEDIF
 70
    70
  9
$TILEMODE
 70
     1
  9
$MAXACTVP
 70
    64
  9
$PINSBASE
 10
0.0
 20
0.0
 30
0.0
  9
$PLIMCHECK
 70
     0
  9
$PEXTMIN
 10
1.0000000000E+20
 20
1.0000000000E+20
 30
1.0000000000E+20
  9
$PEXTMAX
 10
-1.0000000000E+20
 20
-1.0000000000E+20
 30
-1.0000000000E+20
  9
$PLIMMIN
 10
0.0
 20
0.0
  9
$PLIMMAX
 10
420.0
 20
297.0
  9
$UNITMODE
 70
     0
  9
$VISRETAIN
 70
     1
  9
$PLINEGEN
 70
     0
  9
$PSLTSCALE
 70
     1
  9
$TREEDEPTH
 70
  3020
  9
$CMLSTYLE
  2
Standard
  9
$CMLJUST
 70
     0
  9
$CMLSCALE
 40
20.0
  9
$PROXYGRAPHICS
 70
     1
  9
$MEASUREMENT
 70
     1
  9
$CELWEIGHT
370
    -1
  9
$ENDCAPS
280
     0
  9
$JOINSTYLE
280
     0
  9
$LWDISPLAY
290
     1
  9
$INSUNITS
 70
     4
  9
$HYPERLINKBASE
  1

  9
$STYLESHEET
  1

  9
$XEDIT
290
     1
  9
$CEPSNTYPE
380
     0
  9
$PSTYLEMODE
290
     1
  9
$FINGERPRINTGUID
  2
{85A3D943-07E0-4159-B0EF-FA9303C10AE7}
  9
$VERSIONGUID
  2
{FAEB1C32-E019-11D5-929B-00C0DF256EC4}
  9
$EXTNAMES
290
     1
  9
$PSVPSCALE
 40
0.0
  9
$OLESTARTUP
290
     0
  9
$SORTENTS
280
   127
  9
$INDEXCTL
280
     0
  9
$HIDETEXT
280
     1
  9
$XCLIPFRAME
290
     0
  9
$HALOGAP
280
     0
  9
$OBSCOLOR
 70
   257
  9
$OBSLTYPE
280
     0
  9
$INTERSECTIONDISPLAY
280
     0
  9
$INTERSECTIONCOLOR
 70
   257
  9
$DIMASSOC
280
     2
  9
$PROJECTNAME
  1

  0
ENDSEC
  0
SECTION
  2
CLASSES
  0
CLASS
  1
ACDBDICTIONARYWDFLT
  2
AcDbDictionaryWithDefault
  3
ObjectDBX Classes
 90
        0
 91
        4
280
     0
281
     0
  0
CLASS
  1
VISUALSTYLE
  2
AcDbVisualStyle
  3
ObjectDBX Classes
 90
     4095
 91
        4
280
     0
281
     0
  0
CLASS
  1
MATERIAL
  2
AcDbMaterial
  3
ObjectDBX Classes
 90
     1153
 91
        4
280
     0
281
     0
  0
CLASS
  1
SCALE
  2
AcDbScale
  3
ObjectDBX Classes
 90
     1153
 91
        4
280
     0
281
     0
  0
CLASS
  1
SUN
  2
AcDbSun
  3
SCENEOE
 90
     1153
 91
        4
280
     0
281
     0
  0
CLASS
  1
DICTIONARYVAR
  2
AcDbDictionaryVar
  3
ObjectDBX Classes
 90
        0
 91
        4
280
     0
281
     0
  0
ENDSEC
  0
SECTION
  2
TABLES
  0
TABLE
  2
VPORT
  5
8
330
0
100
AcDbSymbolTable
 70
     1
  0
VPORT
  5
29
330
8
100
AcDbSymbolTableRecord
100
AcDbViewportTableRecord
  2
*Active
 70
     0
 10
0.0
 20
0.0
 11
1.0
 21
1.0
 12
1485.0
 22
1050.0
 13
0.0
 23
0.0
 14
10.0
 24
10.0
 15
10.0
 25
10.0
 16
0.0
 26
0.0
 36
1.0
 17
0.0
 27
0.0
 37
0.0
 40
2100.0
 41
1.4142857143
 42
50.0
 43
0.0
 44
0.0
 50
0.0
 51
0.0
 71
     0
 72
  2000
 73
     1
 74
     3
 75
     0
 76
     0
 77
     0
 78
     0
281
     0
 65
     1
110
0.0
120
0.0
130
0.0
111
1.0
121
0.0
131
0.0
112
0.0
122
1.0
132
0.0
 79
     0
146
0.0
  0
ENDTAB
  0
TABLE
  2
LTYPE
  5
5
330
0
100
AcDbSymbolTable
 70
     6
  0
LTYPE
  5
14
330
5
100
AcDbSymbolTableRecord
100
AcDbLinetypeTableRecord
  2
ByBlock
 70
     0
  3

 72
    65
 73
     0
 40
0.0
  0
LTYPE
  5
15
330
5
100
AcDbSymbolTableRecord
100
AcDbLinetypeTableRecord
  2
ByLayer
 70
     0
  3

 72
    65
 73
     0
 40
0.0
  0
LTYPE
  5
16
330
5
100
AcDbSymbolTableRecord
100
AcDbLinetypeTableRecord
  2
Continuous
 70
     0
  3
Solid line
 72
    65
 73
     0
 40
0.0
  0
LTYPE
  5
6A
330
5
100
AcDbSymbolTableRecord
100
AcDbLinetypeTableRecord
  2
HIDDEN
 70
     0
  3
Hidden __ __ __ __ __ __ __ __ __ __ __ __ __ __
 72
    65
 73
     2
 40
1.905
 49
1.27
 74
     0
 49
-0.635
 74
     0
  0
LTYPE
  5
6B
330
5
100
AcDbSymbolTableRecord
100
AcDbLinetypeTableRecord
  2
PHANTOM
 70
     0
  3
Phantom ______  __  __  ______  __  __  ______
 72
    65
 73
     6
 40
12.7
 49
6.35
 74
     0
 49
-1.27
 74
     0
 49
1.27
 74
     0
 49
-1.27
 74
     0
 49
1.27
 74
     0
 49
-1.27
 74
     0
  0
LTYPE
  5
6C
330
5
100
AcDbSymbolTableRecord
100
AcDbLinetypeTableRecord
  2
CENTER
 70
     0
  3
Center ____ _ ____ _ ____ _ ____ _ ____ _ ____
 72
    65
 73
     4
 40
10.16
 49
6.35
 74
     0
 49
-1.27
 74
     0
 49
1.27
 74
     0
 49
-1.27
 74
     0
  0
LTYPE
  5
6D
330
5
100
AcDbSymbolTableRecord
100
AcDbLinetypeTableRecord
  2
CENTERX2
 70
     0
  3
Center (2x) ________  __  ________  __  _____
 72
    65
 73
     4
 40
20.32
 49
12.7
 74
     0
 49
-2.54
 74
     0
 49
2.54
 74
     0
 49
-2.54
 74
     0
  0
LTYPE
  5
6E
330
5
100
AcDbSymbolTableRecord
100
AcDbLinetypeTableRecord
  2
DOT2
 70
     0
  3
Dot (.5x) ........................................
 72
    65
 73
     2
 40
0.635
 49
0.0
 74
     0
 49
-0.635
 74
     0
  0
ENDTAB
  0
TABLE
  2
LAYER
  5
2
330
0
100
AcDbSymbolTable
 70
     2
  0
LAYER
  5
10
330
2
100
AcDbSymbolTableRecord
100
AcDbLayerTableRecord
  2
0
 70
     0
 62
     7
  6
Continuous
370
    -3
390
F
  0
LAYER
  5
6F
330
2
100
AcDbSymbolTableRecord
100
AcDbLayerTableRecord
  2
FORMAT
 70
     0
 62
     7
  6
Continuous
370
    -3
390
F
  0
ENDTAB
  0
TABLE
  2
STYLE
  5
3
330
0
100
AcDbSymbolTable
 70
     2
  0
STYLE
  5
11
330
3
100
AcDbSymbolTableRecord
100
AcDbTextStyleTableRecord
  2
Standard
 70
     0
 40
0.0
 41
1.0
 50
0.0
 71
     0
 42
35.0
  3
txt
  4

  0
STYLE
  5
E3
330
3
100
AcDbSymbolTableRecord
100
AcDbTextStyleTableRecord
  2
SLDTEXTSTYLE0
 70
     0
 40
0.0
 41
0.605
 50
0.0
 71
     0
 42
35.0
  3
TXT
  4

  0
ENDTAB
  0
TABLE
  2
VIEW
  5
6
330
0
100
AcDbSymbolTable
 70
     0
  0
ENDTAB
  0
TABLE
  2
UCS
  5
7
330
0
100
AcDbSymbolTable
 70
     0
  0
ENDTAB
  0
TABLE
  2
APPID
  5
9
330
0
100
AcDbSymbolTable
 70
     1
  0
APPID
  5
12
330
9
100
AcDbSymbolTableRecord
100
AcDbRegAppTableRecord
  2
ACAD
 70
     0
  0
ENDTAB
  0
TABLE
  2
DIMSTYLE
  5
A
330
0
100
AcDbSymbolTable
 70
     1
100
AcDbDimStyleTable
  0
DIMSTYLE
105
27
330
A
100
AcDbSymbolTableRecord
100
AcDbDimStyleTableRecord
  2
ISO-25
 70
     0
 41
2.5
 42
0.625
 43
3.75
 44
1.25
 73
     0
 74
     0
 77
     1
 78
     8
140
2.5
141
2.5
143
0.0393700787
147
0.625
171
     3
172
     1
178
     0
271
     2
272
     2
274
     3
278
    44
283
     0
284
     8
340
11
  0
ENDTAB
  0
TABLE
  2
BLOCK_RECORD
  5
1
330
0
100
AcDbSymbolTable
 70
     3
  0
BLOCK_RECORD
  5
1F
330
1
100
AcDbSymbolTableRecord
100
AcDbBlockTableRecord
  2
*Model_Space
340
22
  0
BLOCK_RECORD
  5
1B
330
1
100
AcDbSymbolTableRecord
100
AcDbBlockTableRecord
  2
*Paper_Space
340
1E
  0
BLOCK_RECORD
  5
23
330
1
100
AcDbSymbolTableRecord
100
AcDbBlockTableRecord
  2
*Paper_Space0
340
26
  0
BLOCK_RECORD
  5
E7
330
1
100
AcDbSymbolTableRecord
100
AcDbBlockTableRecord
  2
SW_NOTE_0
340
0
102
{BLKREFS
331
EC
102
}
  0
BLOCK_RECORD
  5
EF
330
1
100
AcDbSymbolTableRecord
100
AcDbBlockTableRecord
  2
SW_NOTE_1
340
0
102
{BLKREFS
331
F4
102
}
  0
ENDTAB
  0
ENDSEC
  0
SECTION
  2
BLOCKS
  0
BLOCK
  5
20
330
1F
100
AcDbEntity
  8
0
100
AcDbBlockBegin
  2
*Model_Space
 70
     0
 10
0.0
 20
0.0
 30
0.0
  3
*Model_Space
  1
*Model_Space
  0
ENDBLK
  5
21
330
1F
100
AcDbEntity
  8
0
100
AcDbBlockEnd
  0
BLOCK
  5
1C
330
1B
100
AcDbEntity
 67
     1
  8
0
100
AcDbBlockBegin
  2
*Paper_Space
 70
     0
 10
0.0
 20
0.0
 30
0.0
  3
*Paper_Space
  1
*Paper_Space
  0
ENDBLK
  5
1D
330
1B
100
AcDbEntity
 67
     1
  8
0
100
AcDbBlockEnd
  0
BLOCK
  5
24
330
23
100
AcDbEntity
  8
0
100
AcDbBlockBegin
  2
*Paper_Space0
 70
     0
 10
0.0
 20
0.0
 30
0.0
  3
*Paper_Space0
  1
*Paper_Space0
  0
ENDBLK
  5
25
330
23
100
AcDbEntity
  8
0
100
AcDbBlockEnd
  0
BLOCK
  5
E8
330
E7
100
AcDbEntity
  8
0
100
AcDbBlockBegin
  2
SW_NOTE_0
 70
     0
 10
0.0
 20
0.0
 30
0.0
  3
SW_NOTE_0
  1
SW_NOTE_0
  0
MTEXT
  5
EA
330
E7
100
AcDbEntity
  8
0
  6
Continuous
 62
     0
370
     0
100
AcDbMText
 10
0.0
 20
23.2032193159
 30
0.0
 40
18.0
 41
0.0
 71
     1
 72
     1
  1
Questo disegno e posto sotto la tutela delle vigenti Leggi e non puo essere utilizzato da terze persone se non previa autorizzazione scritta della PEDRALI
  7
SLDTEXTSTYLE0
 73
     1
 44
1.0
  0
MTEXT
  5
EB
330
E7
100
AcDbEntity
  8
0
  6
Continuous
 62
     0
370
     0
100
AcDbMText
 10
1355.5219376087
 20
23.2032193159
 30
0.0
 40
18.0
 41
0.0
 71
     1
 72
     1
  1
S.p.A.
  7
SLDTEXTSTYLE0
 73
     1
 44
1.0
  0
ENDBLK
  5
E9
330
E7
100
AcDbEntity
  8
0
100
AcDbBlockEnd
  0
BLOCK
  5
F0
330
EF
100
AcDbEntity
  8
0
100
AcDbBlockBegin
  2
SW_NOTE_1
 70
     0
 10
0.0
 20
0.0
 30
0.0
  3
SW_NOTE_1
  1
SW_NOTE_1
  0
MTEXT
  5
F2
330
EF
100
AcDbEntity
  8
0
  6
Continuous
 62
     0
370
     0
100
AcDbMText
 10
32.90625
 20
23.2032193159
 30
0.0
 40
18.0
 41
0.0
 71
     2
 72
     1
  1
SCALA
  7
SLDTEXTSTYLE0
 73
     1
 44
1.0
  0
MTEXT
  5
F3
330
EF
100
AcDbEntity
  8
0
  6
Continuous
 62
     0
370
     0
100
AcDbMText
 10
35.6098540438
 20
-1.6396707646
 30
0.0
 40
37.0416666667
 41
0.0
 71
     2
 72
     1
  1
1:1
  7
SLDTEXTSTYLE0
 73
     1
 44
1.0
  0
ENDBLK
  5
F1
330
EF
100
AcDbEntity
  8
0
100
AcDbBlockEnd
  0
ENDSEC
  0
SECTION
  2
ENTITIES
  0
HATCH
  5
70
330
1F
100
AcDbEntity
  8
0
  6
Continuous
 62
     7
100
AcDbHatch
 10
0.0
 20
0.0
 30
0.0
210
0.0
220
0.0
230
1.0
  2
SOLID
 70
     1
 71
     0
 91
        2
 92
        0
 93
        6
 72
     1
 10
2340.243226420216
 20
319.3144821747094
 11
2356.647910872445
 21
319.3144821747094
 72
     3
 10
2351.078765157099
 20
331.9559440369547
 11
27.08884684798352
 21
0.0
 40
0.4768529109443384
 50
293.7756995582609
 51
426.2243004403791
 73
     1
 72
     1
 10
2356.647910872789
 20
344.5974058991662
 11
2323.989918311282
 21
344.5974058991662
 72
     1
 10
2323.989918311282
 20
344.5974058991662
 11
2323.989918311282
 21
304.8670971915081
 72
     1
 10
2323.989918311282
 20
304.8670971915081
 11
2340.243226420216
 21
304.8670971915081
 72
     1
 10
2340.243226420216
 20
304.8670971915081
 11
2340.243226420216
 21
319.3144821747094
 97
        0
 92
        0
 93
        6
 72
     3
 10
2350.175803596967
 20
331.9559440369547
 11
9.932577177641511
 21
0.0
 40
0.5895245510672578
 50
316.3365658560252
 51
403.663434144226
 73
     0
 72
     2
 10
2352.923880980421
 20
333.7618671600596
 40
7.223692492544108
 50
69.99121011132742
 51
90.0
 73
     0
 72
     1
 10
2352.923880980421
 20
326.5381746675155
 11
2340.243226419814
 21
326.5381746675155
 72
     1
 10
2340.243226419814
 20
326.5381746675155
 11
2340.243226419814
 21
337.37371340629
 72
     1
 10
2340.243226419814
 20
337.37371340629
 11
2352.923880981012
 21
337.37371340629
 72
     2
 10
2352.923880981012
 20
330.150020915474
 40
7.223692490816113
 50
270.0000000000008
 51
290.0087898889545
 73
     0
 97
        0
 75
     0
 76
     1
 98
        1
 10
0.0
 20
0.0
  0
HATCH
  5
71
330
1F
100
AcDbEntity
  8
0
  6
Continuous
 62
     7
100
AcDbHatch
 10
0.0
 20
0.0
 30
0.0
210
0.0
220
0.0
230
1.0
  2
SOLID
 70
     1
 71
     0
 91
        1
 92
        0
 93
       12
 72
     1
 10
2435.957151948124
 20
344.59740589754
 11
2381.779458253796
 21
344.59740589754
 72
     1
 10
2381.779458253796
 20
344.59740589754
 11
2381.779458253796
 21
304.867097189882
 72
     1
 10
2381.779458253796
 20
304.867097189882
 11
2435.957151948124
 21
304.867097189882
 72
     1
 10
2435.957151948124
 20
304.867097189882
 11
2435.957151948124
 21
312.09078967967
 72
     1
 10
2435.957151948124
 20
312.09078967967
 11
2399.838689485178
 21
312.09078967967
 72
     1
 10
2399.838689485178
 20
312.09078967967
 11
2399.838689485178
 21
321.1204052953607
 72
     1
 10
2399.838689485178
 20
321.1204052953607
 11
2432.345305703229
 21
321.1204052953607
 72
     1
 10
2432.345305703229
 20
321.1204052953607
 11
2432.345305703229
 21
328.344097788605
 72
     1
 10
2432.345305703229
 20
328.344097788605
 11
2399.838689485178
 21
328.344097788605
 72
     1
 10
2399.838689485178
 20
328.344097788605
 11
2399.838689485178
 21
337.3737134042958
 72
     1
 10
2399.838689485178
 20
337.3737134042958
 11
2435.957151948124
 21
337.3737134042958
 72
     1
 10
2435.957151948124
 20
337.3737134042958
 11
2435.957151948124
 21
344.59740589754
 97
        0
 75
     0
 76
     1
 98
        1
 10
0.0
 20
0.0
  0
HATCH
  5
72
330
1F
100
AcDbEntity
  8
0
  6
Continuous
 62
     7
100
AcDbHatch
 10
0.0
 20
0.0
 30
0.0
210
0.0
220
0.0
230
1.0
  2
SOLID
 70
     1
 71
     0
 91
        1
 92
        0
 93
        6
 72
     1
 10
2645.444234240045
 20
344.597405899586
 11
2627.385003008663
 21
344.597405899586
 72
     1
 10
2627.385003008663
 20
344.597405899586
 11
2627.385003008663
 21
304.8670971919279
 72
     1
 10
2627.385003008663
 20
304.8670971919279
 11
2676.14492733565
 21
304.8670971919279
 72
     1
 10
2676.14492733565
 20
304.8670971919279
 11
2676.14492733565
 21
313.8967128076189
 72
     1
 10
2676.14492733565
 20
313.8967128076189
 11
2645.444234240045
 21
313.8967128076189
 72
     1
 10
2645.444234240045
 20
313.8967128076189
 11
2645.444234240045
 21
344.597405899586
 97
        0
 75
     0
 76
     1
 98
        1
 10
0.0
 20
0.0
  0
HATCH
  5
73
330
1F
100
AcDbEntity
  8
0
  6
Continuous
 62
     7
100
AcDbHatch
 10
0.0
 20
0.0
 30
0.0
210
0.0
220
0.0
230
1.0
  2
SOLID
 70
     1
 71
     0
 91
        1
 92
        0
 93
        4
 72
     1
 10
2677.950850457337
 20
344.5974058991659
 11
2677.950850457337
 21
304.8670971915079
 72
     1
 10
2677.950850457337
 20
304.8670971915079
 11
2696.010081688719
 21
304.8670971915079
 72
     1
 10
2696.010081688719
 20
304.8670971915079
 11
2696.010081688719
 21
344.5974058991659
 72
     1
 10
2696.010081688719
 20
344.5974058991659
 11
2677.950850457337
 21
344.5974058991659
 97
        0
 75
     0
 76
     1
 98
        1
 10
0.0
 20
0.0
  0
HATCH
  5
74
330
1F
100
AcDbEntity
  8
0
  6
Continuous
 62
     7
100
AcDbHatch
 10
0.0
 20
0.0
 30
0.0
210
0.0
220
0.0
230
1.0
  2
SOLID
 70
     1
 71
     0
 91
        2
 92
        0
 93
        4
 72
     3
 10
2468.463768165085
 20
324.7322515426197
 11
28.89476997115586
 21
0.0
 40
0.6929224243374513
 50
280.2934314618138
 51
439.7065685387129
 73
     1
 72
     1
 10
2472.071526001564
 20
344.5974058975816
 11
2439.568998196665
 21
344.5974058975813
 72
     1
 10
2439.568998196665
 20
344.5974058975813
 11
2439.568998196665
 21
304.8670971876741
 72
     1
 10
2439.568998196665
 20
304.8670971876741
 11
2472.071526001749
 21
304.8670971876741
 97
        0
 92
        0
 93
        6
 72
     2
 10
2472.947172767998
 20
324.7322515421808
 40
10.83553873998016
 50
56.16906508602374
 51
90.0
 73
     0
 72
     1
 10
2472.947172767998
 20
313.8967128022008
 11
2455.82230630316
 21
313.8967128022008
 72
     1
 10
2455.82230630316
 20
313.8967128022008
 11
2455.82230630316
 21
335.5677902826995
 72
     1
 10
2455.82230630316
 20
335.5677902826995
 11
2472.947172767998
 21
335.5677902826995
 72
     2
 10
2472.947172767998
 20
324.7322515421808
 40
10.83553874051871
 50
270.0000000000008
 51
303.8314447476077
 73
     0
 72
     3
 10
2462.14303723761
 20
324.7322515426197
 11
22.57403904004612
 21
0.0
 40
0.5985848325441405
 50
331.8713554011807
 51
388.1288999924611
 73
     0
 97
        0
 75
     0
 76
     1
 98
        1
 10
0.0
 20
0.0
  0
HATCH
  5
75
330
1F
100
AcDbEntity
  8
0
  6
Continuous
 62
     7
100
AcDbHatch
 10
0.0
 20
0.0
 30
0.0
210
0.0
220
0.0
230
1.0
  2
SOLID
 70
     1
 71
     0
 91
        3
 92
        0
 93
       19
 72
     1
 10
2558.870202192612
 20
314.7709579586855
 11
2560.355534650718
 21
308.9676544182703
 72
     2
 10
2565.453566637579
 20
310.114383967383
 40
5.225410873593411
 50
192.6768785101394
 51
204.7368873206736
 73
     1
 72
     1
 10
2560.707644877863
 20
307.927800914186
 11
2584.042848052473
 21
344.597405899586
 72
     1
 10
2584.042848052473
 20
344.597405899586
 11
2602.102079283856
 21
344.597405899586
 72
     1
 10
2602.102079283856
 20
344.597405899586
 11
2627.385003008663
 21
304.8670971919279
 72
     1
 10
2627.385003008663
 20
304.8670971919279
 11
2609.325771777099
 21
304.8670971919279
 72
     1
 10
2609.325771777099
 20
304.8670971919279
 11
2605.262444749956
 21
312.090789681716
 72
     1
 10
2605.262444749956
 20
312.090789681716
 11
2580.882482586372
 21
312.090789681716
 72
     1
 10
2580.882482586372
 20
312.090789681716
 11
2576.819155559229
 21
304.8670971919279
 72
     1
 10
2576.819155559229
 20
304.8670971919279
 11
2546.118462463106
 21
304.8670971919279
 72
     1
 10
2546.118462463106
 20
304.8670971919279
 11
2546.118462463106
 21
312.0907896826544
 72
     2
 10
2538.894769969861
 20
312.0907896826544
 40
7.223692493244227
 50
0.0
 51
90.0
 73
     1
 72
     1
 10
2538.894769969861
 20
319.3144821758984
 11
2520.835538738298
 21
319.3144821758984
 72
     1
 10
2520.835538738298
 20
319.3144821758984
 11
2520.835538738298
 21
304.8670971928664
 72
     1
 10
2520.835538738298
 20
304.8670971928664
 11
2504.582230629363
 21
304.8670971928664
 72
     1
 10
2504.582230629363
 20
304.8670971928664
 11
2504.582230629363
 21
344.5974059005244
 72
     1
 10
2504.582230629363
 20
344.5974059005244
 11
2542.019258305786
 21
344.5974059005244
 72
     3
 10
2538.029947706919
 20
332.9364020822968
 11
24.32666622535162
 21
0.0
 40
0.4859291160023137
 50
288.8861745463018
 51
398.6942257036357
 73
     0
 72
     2
 10
2549.037584929584
 20
312.9627960708336
 40
9.997490267756193
 50
279.2678272406082
 51
349.5800515720779
 73
     0
 97
        0
 92
        0
 93
        3
 72
     1
 10
2593.072463667404
 20
333.7618671594018
 11
2584.945809612937
 21
319.3144821729139
 72
     1
 10
2584.945809612937
 20
319.3144821729139
 11
2601.199117721872
 21
319.3144821729139
 72
     1
 10
2601.199117721872
 20
319.3144821729139
 11
2593.072463667404
 21
333.7618671594018
 97
        0
 92
        0
 93
        6
 72
     2
 10
2538.478172418671
 20
331.9559440374287
 40
5.417769370214362
 50
270.0000000000008
 51
305.5869104965606
 73
     1
 72
     3
 10
2532.574039041056
 20
331.9559440369547
 11
11.73850030081747
 21
0.0
 40
0.5900077182209745
 50
334.058541690378
 51
385.9414583083995
 73
     1
 72
     2
 10
2538.478172418671
 20
331.9559440374287
 40
5.417769369443226
 50
54.41308949502037
 51
90.0
 73
     1
 72
     1
 10
2538.478172418671
 20
337.3737134068722
 11
2520.835538737718
 21
337.3737134068722
 72
     1
 10
2520.835538737718
 20
337.3737134068722
 11
2520.835538737718
 21
326.538174667214
 72
     1
 10
2520.835538737718
 20
326.538174667214
 11
2538.478172418671
 21
326.5381746672143
 97
        0
 75
     0
 76
     1
 98
        1
 10
0.0
 20
0.0
  0
LINE
  5
76
330
1F
100
AcDbEntity
  8
0
  6
Continuous
 62
     7
370
    15
100
AcDbLine
 10
2870.0
 20
100.0
 30
0.0
 11
2870.0
 21
2000.0
 31
0.0
  0
LINE
  5
77
330
1F
100
AcDbEntity
  8
0
  6
Continuous
 62
   250
420
  1644836
370
     0
100
AcDbLine
 10
2323.9899183113
 20
344.5974058992
 30
0.0
 11
2323.9899183113
 21
304.8670971915
 31
0.0
  0
LINE
  5
78
330
1F
100
AcDbEntity
  8
0
  6
Continuous
 62
   250
420
  1644836
370
     0
100
AcDbLine
 10
2323.9899183113
 20
344.5974058992
 30
0.0
 11
2356.6479108728
 21
344.5974058992
 31
0.0
  0
LINE
  5
79
330
1F
100
AcDbEntity
  8
0
  6
Continuous
 62
   250
420
  1644836
370
     0
100
AcDbLine
 10
2323.9899183113
 20
304.8670971915
 30
0.0
 11
2340.2432264202
 21
304.8670971915
 31
0.0
  0
LINE
  5
7A
330
1F
100
AcDbEntity
  8
0
  6
Continuous
 62
   250
420
  1644836
370
     0
100
AcDbLine
 10
2340.2432264202
 20
304.8670971915
 30
0.0
 11
2340.2432264202
 21
319.3144821747
 31
0.0
  0
LINE
  5
7B
330
1F
100
AcDbEntity
  8
0
  6
Continuous
 62
   250
420
  1644836
370
     0
100
AcDbLine
 10
2356.6479108724
 20
319.3144821747
 30
0.0
 11
2340.2432264202
 21
319.3144821747
 31
0.0
  0
LINE
  5
7C
330
1F
100
AcDbEntity
  8
0
  6
Continuous
 62
   250
420
  1644836
370
     0
100
AcDbLine
 10
2340.2432264198
 20
326.5381746675
 30
0.0
 11
2340.2432264198
 21
337.3737134063
 31
0.0
  0
LINE
  5
7D
330
1F
100
AcDbEntity
  8
0
  6
Continuous
 62
   250
420
  1644836
370
     0
100
AcDbLine
 10
2340.2432264198
 20
337.3737134063
 30
0.0
 11
2352.923880981
 21
337.3737134063
 31
0.0
  0
LINE
  5
7E
330
1F
100
AcDbEntity
  8
0
  6
Continuous
 62
   250
420
  1644836
370
     0
100
AcDbLine
 10
2340.2432264198
 20
326.5381746675
 30
0.0
 11
2352.9238809804
 21
326.5381746675
 31
0.0
  0
LINE
  5
7F
330
1F
100
AcDbEntity
  8
0
  6
Continuous
 62
   250
420
  1644836
370
     0
100
AcDbLine
 10
2381.7794582538
 20
344.5974058975
 30
0.0
 11
2435.9571519481
 21
344.5974058975
 31
0.0
  0
LINE
  5
80
330
1F
100
AcDbEntity
  8
0
  6
Continuous
 62
   250
420
  1644836
370
     0
100
AcDbLine
 10
2435.9571519481
 20
344.5974058975
 30
0.0
 11
2435.9571519481
 21
337.3737134043
 31
0.0
  0
LINE
  5
81
330
1F
100
AcDbEntity
  8
0
  6
Continuous
 62
   250
420
  1644836
370
     0
100
AcDbLine
 10
2435.9571519481
 20
337.3737134043
 30
0.0
 11
2399.8386894852
 21
337.3737134043
 31
0.0
  0
LINE
  5
82
330
1F
100
AcDbEntity
  8
0
  6
Continuous
 62
   250
420
  1644836
370
     0
100
AcDbLine
 10
2399.8386894852
 20
337.3737134043
 30
0.0
 11
2399.8386894852
 21
328.3440977886
 31
0.0
  0
LINE
  5
83
330
1F
100
AcDbEntity
  8
0
  6
Continuous
 62
   250
420
  1644836
370
     0
100
AcDbLine
 10
2399.8386894852
 20
328.3440977886
 30
0.0
 11
2432.3453057032
 21
328.3440977886
 31
0.0
  0
LINE
  5
84
330
1F
100
AcDbEntity
  8
0
  6
Continuous
 62
   250
420
  1644836
370
     0
100
AcDbLine
 10
2432.3453057032
 20
328.3440977886
 30
0.0
 11
2432.3453057032
 21
321.1204052954
 31
0.0
  0
LINE
  5
85
330
1F
100
AcDbEntity
  8
0
  6
Continuous
 62
   250
420
  1644836
370
     0
100
AcDbLine
 10
2432.3453057032
 20
321.1204052954
 30
0.0
 11
2399.8386894852
 21
321.1204052954
 31
0.0
  0
LINE
  5
86
330
1F
100
AcDbEntity
  8
0
  6
Continuous
 62
   250
420
  1644836
370
     0
100
AcDbLine
 10
2399.8386894852
 20
321.1204052954
 30
0.0
 11
2399.8386894852
 21
312.0907896797
 31
0.0
  0
LINE
  5
87
330
1F
100
AcDbEntity
  8
0
  6
Continuous
 62
   250
420
  1644836
370
     0
100
AcDbLine
 10
2399.8386894852
 20
312.0907896797
 30
0.0
 11
2435.9571519481
 21
312.0907896797
 31
0.0
  0
LINE
  5
88
330
1F
100
AcDbEntity
  8
0
  6
Continuous
 62
   250
420
  1644836
370
     0
100
AcDbLine
 10
2435.9571519481
 20
312.0907896797
 30
0.0
 11
2435.9571519481
 21
304.8670971899
 31
0.0
  0
LINE
  5
89
330
1F
100
AcDbEntity
  8
0
  6
Continuous
 62
   250
420
  1644836
370
     0
100
AcDbLine
 10
2435.9571519481
 20
304.8670971899
 30
0.0
 11
2381.7794582538
 21
304.8670971899
 31
0.0
  0
LINE
  5
8A
330
1F
100
AcDbEntity
  8
0
  6
Continuous
 62
   250
420
  1644836
370
     0
100
AcDbLine
 10
2439.5689981967
 20
344.5974058976
 30
0.0
 11
2439.5689981967
 21
304.8670971877
 31
0.0
  0
LINE
  5
8B
330
1F
100
AcDbEntity
  8
0
  6
Continuous
 62
   250
420
  1644836
370
     0
100
AcDbLine
 10
2439.5689981967
 20
344.5974058976
 30
0.0
 11
2472.0715260016
 21
344.5974058976
 31
0.0
  0
LINE
  5
8C
330
1F
100
AcDbEntity
  8
0
  6
Continuous
 62
   250
420
  1644836
370
     0
100
AcDbLine
 10
2472.0715260017
 20
304.8670971877
 30
0.0
 11
2439.5689981967
 21
304.8670971877
 31
0.0
  0
LINE
  5
8D
330
1F
100
AcDbEntity
  8
0
  6
Continuous
 62
   250
420
  1644836
370
     0
100
AcDbLine
 10
2455.8223063032
 20
324.7322515403
 30
0.0
 11
2455.8223063032
 21
313.8967128022
 31
0.0
  0
LINE
  5
8E
330
1F
100
AcDbEntity
  8
0
  6
Continuous
 62
   250
420
  1644836
370
     0
100
AcDbLine
 10
2455.8223063032
 20
313.8967128022
 30
0.0
 11
2472.947172768
 21
313.8967128022
 31
0.0
  0
LINE
  5
8F
330
1F
100
AcDbEntity
  8
0
  6
Continuous
 62
   250
420
  1644836
370
     0
100
AcDbLine
 10
2455.8223063032
 20
324.7322515403
 30
0.0
 11
2455.8223063032
 21
335.5677902827
 31
0.0
  0
LINE
  5
90
330
1F
100
AcDbEntity
  8
0
  6
Continuous
 62
   250
420
  1644836
370
     0
100
AcDbLine
 10
2455.8223063032
 20
335.5677902827
 30
0.0
 11
2472.947172768
 21
335.5677902827
 31
0.0
  0
LINE
  5
91
330
1F
100
AcDbEntity
  8
0
  6
Continuous
 62
   250
420
  1644836
370
     0
100
AcDbLine
 10
2504.5822306294
 20
344.5974059005
 30
0.0
 11
2504.5822306294
 21
304.8670971929
 31
0.0
  0
LINE
  5
92
330
1F
100
AcDbEntity
  8
0
  6
Continuous
 62
     7
370
     0
100
AcDbLine
 10
2728.7989947508
 20
280.0000000004
 30
0.0
 11
2728.7989947508
 21
190.0000000002
 31
0.0
  0
LINE
  5
93
330
1F
100
AcDbEntity
  8
0
  6
Continuous
 62
   250
420
  1644836
370
     0
100
AcDbLine
 10
2504.5822306294
 20
304.8670971929
 30
0.0
 11
2520.8355387383
 21
304.8670971929
 31
0.0
  0
LINE
  5
94
330
1F
100
AcDbEntity
  8
0
  6
Continuous
 62
   250
420
  1644836
370
     0
100
AcDbLine
 10
2520.8355387383
 20
304.8670971929
 30
0.0
 11
2520.8355387383
 21
319.3144821759
 31
0.0
  0
LINE
  5
95
330
1F
100
AcDbEntity
  8
0
  6
Continuous
 62
   250
420
  1644836
370
     0
100
AcDbLine
 10
2520.8355387383
 20
319.3144821759
 30
0.0
 11
2538.8947699699
 21
319.3144821759
 31
0.0
  0
LINE
  5
96
330
1F
100
AcDbEntity
  8
0
  6
Continuous
 62
   250
420
  1644836
370
     0
100
AcDbLine
 10
2546.1184624631
 20
312.0907896827
 30
0.0
 11
2546.1184624631
 21
304.8670971919
 31
0.0
  0
LINE
  5
97
330
1F
100
AcDbEntity
  8
0
  6
Continuous
 62
   250
420
  1644836
370
     0
100
AcDbLine
 10
2520.8355387377
 20
326.5381746672
 30
0.0
 11
2520.8355387377
 21
337.3737134069
 31
0.0
  0
LINE
  5
98
330
1F
100
AcDbEntity
  8
0
  6
Continuous
 62
   250
420
  1644836
370
     0
100
AcDbLine
 10
2520.8355387377
 20
337.3737134069
 30
0.0
 11
2538.4781724187
 21
337.3737134069
 31
0.0
  0
LINE
  5
99
330
1F
100
AcDbEntity
  8
0
  6
Continuous
 62
   250
420
  1644836
370
     0
100
AcDbLine
 10
2520.8355387377
 20
326.5381746672
 30
0.0
 11
2538.4781724187
 21
326.5381746672
 31
0.0
  0
LINE
  5
9A
330
1F
100
AcDbEntity
  8
0
  6
Continuous
 62
   250
420
  1644836
370
     0
100
AcDbLine
 10
2558.8702021926
 20
314.7709579587
 30
0.0
 11
2560.3555346507
 21
308.9676544183
 31
0.0
  0
LINE
  5
9B
330
1F
100
AcDbEntity
  8
0
  6
Continuous
 62
     7
370
    15
100
AcDbLine
 10
2870.0
 20
2000.0
 30
0.0
 11
100.0
 21
2000.0
 31
0.0
  0
LINE
  5
9C
330
1F
100
AcDbEntity
  8
0
  6
Continuous
 62
     7
370
     0
100
AcDbLine
 10
2728.7989947508
 20
190.0000000002
 30
0.0
 11
2728.7989947508
 21
100.0
 31
0.0
  0
LINE
  5
9D
330
1F
100
AcDbEntity
  8
0
  6
Continuous
 62
     7
370
    15
100
AcDbLine
 10
100.0
 20
2000.0
 30
0.0
 11
100.0
 21
100.0
 31
0.0
  0
LINE
  5
9E
330
1F
100
AcDbEntity
  8
0
  6
Continuous
 62
     7
370
    15
100
AcDbLine
 10
2150.0
 20
370.0000000006
 30
0.0
 11
2870.0
 21
370.0000000006
 31
0.0
  0
LINE
  5
9F
330
1F
100
AcDbEntity
  8
0
  6
Continuous
 62
   250
420
  1973790
370
     0
100
AcDbLine
 10
2795.2884126839
 20
160.2788043096
 30
0.0
 11
2763.4182663121
 21
154.0818314039
 31
0.0
  0
LINE
  5
A0
330
1F
100
AcDbEntity
  8
0
  6
Continuous
 62
   250
420
  1973790
370
     0
100
AcDbLine
 10
2821.3505851521
 20
165.4881573907
 30
0.0
 11
2821.3505851521
 21
124.881030118
 31
0.0
  0
LINE
  5
A1
330
1F
100
AcDbEntity
  8
0
  6
Continuous
 62
   250
420
  1973790
370
     0
100
AcDbLine
 10
2795.2884126839
 20
160.2788043096
 30
0.0
 11
2795.2884126839
 21
130.0903831992
 31
0.0
  0
LINE
  5
A2
330
1F
100
AcDbEntity
  8
0
  6
Continuous
 62
     7
370
    15
100
AcDbLine
 10
100.0
 20
100.0
 30
0.0
 11
2870.0
 21
100.0
 31
0.0
  0
LINE
  5
A3
330
1F
100
AcDbEntity
  8
0
  6
Continuous
 62
   250
420
  1973790
370
     0
100
AcDbLine
 10
2763.4182663121
 20
154.0818314039
 30
0.0
 11
2763.4182663121
 21
136.2873561048
 31
0.0
  0
LINE
  5
A4
330
1F
100
AcDbEntity
  8
0
  6
Continuous
 62
   250
420
  1644836
370
     0
100
AcDbLine
 10
2546.1184624631
 20
304.8670971919
 30
0.0
 11
2576.8191555592
 21
304.8670971919
 31
0.0
  0
LINE
  5
A5
330
1F
100
AcDbEntity
  8
0
  6
Continuous
 62
   250
420
  1973790
370
     0
100
AcDbLine
 10
2795.2884126839
 20
130.0903831992
 30
0.0
 11
2763.4182663121
 21
136.2873561048
 31
0.0
  0
LINE
  5
A6
330
1F
100
AcDbEntity
  8
0
  6
CENTERX2
 62
   250
420
  1973790
370
     0
100
AcDbLine
 10
2838.9207124248
 20
145.1845937544
 30
0.0
 11
2759.4518690643
 21
145.1845937544
 31
0.0
  0
LINE
  5
A7
330
1F
100
AcDbEntity
  8
0
  6
Continuous
 62
   250
420
  1644836
370
     0
100
AcDbLine
 10
2504.5822306294
 20
344.5974059005
 30
0.0
 11
2542.0192583058
 21
344.5974059005
 31
0.0
  0
LINE
  5
A8
330
1F
100
AcDbEntity
  8
0
  6
Continuous
 62
   250
420
  1644836
370
     0
100
AcDbLine
 10
2381.7794582538
 20
344.5974058975
 30
0.0
 11
2381.7794582538
 21
304.8670971899
 31
0.0
  0
LINE
  5
A9
330
1F
100
AcDbEntity
  8
0
  6
Continuous
 62
   250
420
  1644836
370
     0
100
AcDbLine
 10
2584.0428480525
 20
344.5974058996
 30
0.0
 11
2602.1020792839
 21
344.5974058996
 31
0.0
  0
LINE
  5
AA
330
1F
100
AcDbEntity
  8
0
  6
Continuous
 62
   250
420
  1644836
370
     0
100
AcDbLine
 10
2584.0428480525
 20
344.5974058996
 30
0.0
 11
2560.7076448779
 21
307.9278009142
 31
0.0
  0
LINE
  5
AB
330
1F
100
AcDbEntity
  8
0
  6
Continuous
 62
   250
420
  1644836
370
     0
100
AcDbLine
 10
2576.8191555592
 20
304.8670971919
 30
0.0
 11
2580.8824825864
 21
312.0907896817
 31
0.0
  0
LINE
  5
AC
330
1F
100
AcDbEntity
  8
0
  6
Continuous
 62
   250
420
  1644836
370
     0
100
AcDbLine
 10
2593.0724636674
 20
333.7618671594
 30
0.0
 11
2601.1991177219
 21
319.3144821729
 31
0.0
  0
LINE
  5
AD
330
1F
100
AcDbEntity
  8
0
  6
Continuous
 62
   250
420
  1644836
370
     0
100
AcDbLine
 10
2584.9458096129
 20
319.3144821729
 30
0.0
 11
2593.0724636674
 21
333.7618671594
 31
0.0
  0
LINE
  5
AE
330
1F
100
AcDbEntity
  8
0
  6
Continuous
 62
   250
420
  1644836
370
     0
100
AcDbLine
 10
2584.9458096129
 20
319.3144821729
 30
0.0
 11
2601.1991177219
 21
319.3144821729
 31
0.0
  0
LINE
  5
AF
330
1F
100
AcDbEntity
  8
0
  6
Continuous
 62
   250
420
  1644836
370
     0
100
AcDbLine
 10
2580.8824825864
 20
312.0907896817
 30
0.0
 11
2605.26244475
 21
312.0907896817
 31
0.0
  0
LINE
  5
B0
330
1F
100
AcDbEntity
  8
0
  6
Continuous
 62
   250
420
  1644836
370
     0
100
AcDbLine
 10
2605.26244475
 20
312.0907896817
 30
0.0
 11
2609.3257717771
 21
304.8670971919
 31
0.0
  0
LINE
  5
B1
330
1F
100
AcDbEntity
  8
0
  6
Continuous
 62
   250
420
  1644836
370
     0
100
AcDbLine
 10
2627.3850030087
 20
344.5974058996
 30
0.0
 11
2627.3850030087
 21
304.8670971919
 31
0.0
  0
LINE
  5
B2
330
1F
100
AcDbEntity
  8
0
  6
Continuous
 62
   250
420
  1644836
370
     0
100
AcDbLine
 10
2602.1020792839
 20
344.5974058996
 30
0.0
 11
2627.3850030087
 21
304.8670971919
 31
0.0
  0
LINE
  5
B3
330
1F
100
AcDbEntity
  8
0
  6
Continuous
 62
   250
420
  1644836
370
     0
100
AcDbLine
 10
2609.3257717771
 20
304.8670971919
 30
0.0
 11
2627.3850030087
 21
304.8670971919
 31
0.0
  0
LINE
  5
B4
330
1F
100
AcDbEntity
  8
0
  6
Continuous
 62
   250
420
  1644836
370
     0
100
AcDbLine
 10
2627.3850030087
 20
304.8670971919
 30
0.0
 11
2676.1449273357
 21
304.8670971919
 31
0.0
  0
LINE
  5
B5
330
1F
100
AcDbEntity
  8
0
  6
Continuous
 62
   250
420
  1644836
370
     0
100
AcDbLine
 10
2676.1449273357
 20
304.8670971919
 30
0.0
 11
2676.1449273357
 21
313.8967128076
 31
0.0
  0
LINE
  5
B6
330
1F
100
AcDbEntity
  8
0
  6
Continuous
 62
   250
420
  1644836
370
     0
100
AcDbLine
 10
2676.1449273357
 20
313.8967128076
 30
0.0
 11
2645.44423424
 21
313.8967128076
 31
0.0
  0
LINE
  5
B7
330
1F
100
AcDbEntity
  8
0
  6
Continuous
 62
   250
420
  1644836
370
     0
100
AcDbLine
 10
2645.44423424
 20
313.8967128076
 30
0.0
 11
2645.44423424
 21
344.5974058996
 31
0.0
  0
LINE
  5
B8
330
1F
100
AcDbEntity
  8
0
  6
Continuous
 62
   250
420
  1644836
370
     0
100
AcDbLine
 10
2627.3850030087
 20
344.5974058996
 30
0.0
 11
2645.44423424
 21
344.5974058996
 31
0.0
  0
LINE
  5
B9
330
1F
100
AcDbEntity
  8
0
  6
Continuous
 62
   250
420
  1644836
370
     0
100
AcDbLine
 10
2677.9508504573
 20
344.5974058992
 30
0.0
 11
2677.9508504573
 21
304.8670971915
 31
0.0
  0
LINE
  5
BA
330
1F
100
AcDbEntity
  8
0
  6
Continuous
 62
   250
420
  1644836
370
     0
100
AcDbLine
 10
2696.0100816887
 20
344.5974058992
 30
0.0
 11
2696.0100816887
 21
304.8670971915
 31
0.0
  0
LINE
  5
BB
330
1F
100
AcDbEntity
  8
0
  6
Continuous
 62
   250
420
  1644836
370
     0
100
AcDbLine
 10
2677.9508504573
 20
344.5974058992
 30
0.0
 11
2696.0100816887
 21
344.5974058992
 31
0.0
  0
LINE
  5
BC
330
1F
100
AcDbEntity
  8
0
  6
Continuous
 62
   250
420
  1644836
370
     0
100
AcDbLine
 10
2677.9508504573
 20
304.8670971915
 30
0.0
 11
2696.0100816887
 21
304.8670971915
 31
0.0
  0
LINE
  5
BD
330
1F
100
AcDbEntity
  8
0
  6
Continuous
 62
   250
420
  1644836
370
     0
100
AcDbLine
 10
2704.1151644241
 20
341.2930554229
 30
0.0
 11
2708.2866879839
 21
341.2930554229
 31
0.0
  0
LINE
  5
BE
330
1F
100
AcDbEntity
  8
0
  6
Continuous
 62
   250
420
  1644836
370
     0
100
AcDbLine
 10
2708.2866879839
 20
338.5841707372
 30
0.0
 11
2704.1151644241
 21
338.5841707372
 31
0.0
  0
LINE
  5
BF
330
1F
100
AcDbEntity
  8
0
  6
Continuous
 62
   250
420
  1644836
370
     0
100
AcDbLine
 10
2704.1151644241
 20
338.5841707372
 30
0.0
 11
2704.1151644241
 21
341.2930554229
 31
0.0
  0
LINE
  5
C0
330
1F
100
AcDbEntity
  8
0
  6
Continuous
 62
   250
420
  1644836
370
     0
100
AcDbLine
 10
2704.1151644241
 20
338.5841707372
 30
0.0
 11
2706.8240491077
 21
338.5841707372
 31
0.0
  0
LINE
  5
C1
330
1F
100
AcDbEntity
  8
0
  6
Continuous
 62
   250
420
  1644836
370
     0
100
AcDbLine
 10
2704.1151644241
 20
338.5841707372
 30
0.0
 11
2704.1151644241
 21
334.5208437117
 31
0.0
  0
LINE
  5
C2
330
1F
100
AcDbEntity
  8
0
  6
Continuous
 62
   250
420
  1644836
370
     0
100
AcDbLine
 10
2709.5329337914
 20
334.5208437117
 30
0.0
 11
2706.8240491077
 21
338.5841707372
 31
0.0
  0
LINE
  5
C3
330
1F
100
AcDbEntity
  8
0
  6
Continuous
 62
     7
370
     0
100
AcDbLine
 10
2150.0
 20
190.0000000002
 30
0.0
 11
2870.0
 21
190.0000000002
 31
0.0
  0
LINE
  5
C4
330
1F
100
AcDbEntity
  8
0
  6
Continuous
 62
     7
370
     0
100
AcDbLine
 10
2870.0
 20
280.0000000004
 30
0.0
 11
2150.0
 21
280.0000000004
 31
0.0
  0
LINE
  5
C5
330
1F
100
AcDbEntity
  8
0
  6
Continuous
 62
     7
370
     0
100
AcDbLine
 10
100.0
 20
550.0
 30
0.0
 11
100.0
 21
650.0
 31
0.0
  0
LINE
  5
C6
330
1F
100
AcDbEntity
  8
0
  6
Continuous
 62
     7
370
     0
100
AcDbLine
 10
100.0
 20
650.0
 30
0.0
 11
100.0
 21
750.0
 31
0.0
  0
LINE
  5
C7
330
1F
100
AcDbEntity
  8
0
  6
Continuous
 62
     7
370
     0
100
AcDbLine
 10
100.0
 20
750.0
 30
0.0
 11
100.0
 21
850.0
 31
0.0
  0
LINE
  5
C8
330
1F
100
AcDbEntity
  8
0
  6
Continuous
 62
     7
370
     0
100
AcDbLine
 10
100.0
 20
850.0
 30
0.0
 11
100.0
 21
950.0
 31
0.0
  0
LINE
  5
C9
330
1F
100
AcDbEntity
  8
0
  6
Continuous
 62
     7
370
     0
100
AcDbLine
 10
100.0
 20
950.0
 30
0.0
 11
100.0
 21
1050.0
 31
0.0
  0
LINE
  5
CA
330
1F
100
AcDbEntity
  8
0
  6
Continuous
 62
     7
370
     0
100
AcDbLine
 10
100.0
 20
1050.0
 30
0.0
 11
100.0
 21
1150.0
 31
0.0
  0
LINE
  5
CB
330
1F
100
AcDbEntity
  8
0
  6
Continuous
 62
     7
370
     0
100
AcDbLine
 10
100.0
 20
1150.0
 30
0.0
 11
100.0
 21
1250.0
 31
0.0
  0
LINE
  5
CC
330
1F
100
AcDbEntity
  8
0
  6
Continuous
 62
     7
370
     0
100
AcDbLine
 10
100.0
 20
1250.0
 30
0.0
 11
100.0
 21
1350.0
 31
0.0
  0
LINE
  5
CD
330
1F
100
AcDbEntity
  8
0
  6
Continuous
 62
     7
370
     0
100
AcDbLine
 10
100.0
 20
1350.0
 30
0.0
 11
100.0
 21
1450.0
 31
0.0
  0
LINE
  5
CE
330
1F
100
AcDbEntity
  8
0
  6
Continuous
 62
     7
370
     0
100
AcDbLine
 10
100.0
 20
1450.0
 30
0.0
 11
100.0
 21
1550.0
 31
0.0
  0
LINE
  5
CF
330
1F
100
AcDbEntity
  8
0
  6
Continuous
 62
     7
370
    15
100
AcDbLine
 10
2150.0
 20
370.0000000006
 30
0.0
 11
2150.0
 21
100.0
 31
0.0
  0
ARC
  5
D0
330
1F
100
AcDbEntity
  8
0
  6
Continuous
 62
   250
420
  1644836
370
     0
100
AcDbCircle
 10
2352.923880981
 20
330.1500209155
 30
0.0
 40
7.223692490816169
100
AcDbArc
 50
69.991210111
 51
90.0
  0
ARC
  5
D1
330
1F
100
AcDbEntity
  8
0
  6
Continuous
 62
   250
420
  1644836
370
     0
100
AcDbCircle
 10
2352.9238809804
 20
333.7618671601
 30
0.0
 40
7.223692492544103
100
AcDbArc
 50
270.0
 51
290.0087898887
  0
ARC
  5
D2
330
1F
100
AcDbEntity
  8
0
  6
Continuous
 62
   250
420
  1644836
370
     0
100
AcDbCircle
 10
2472.947172768
 20
324.7322515422
 30
0.0
 40
10.8355387405187
100
AcDbArc
 50
56.1685552524
 51
90.0
  0
ARC
  5
D3
330
1F
100
AcDbEntity
  8
0
  6
Continuous
 62
   250
420
  1644836
370
     0
100
AcDbCircle
 10
2472.947172768
 20
324.7322515422
 30
0.0
 40
10.83553873998012
100
AcDbArc
 50
270.0
 51
303.830934914
  0
ARC
  5
D4
330
1F
100
AcDbEntity
  8
0
  6
Continuous
 62
   250
420
  1644836
370
     0
100
AcDbCircle
 10
2538.8947699699
 20
312.0907896827
 30
0.0
 40
7.223692493244471
100
AcDbArc
 50
0.0
 51
90.0
  0
ARC
  5
D5
330
1F
100
AcDbEntity
  8
0
  6
Continuous
 62
   250
420
  1644836
370
     0
100
AcDbCircle
 10
2538.4781724187
 20
331.9559440374
 30
0.0
 40
5.417769369443558
100
AcDbArc
 50
54.413089495
 51
90.0
  0
ARC
  5
D6
330
1F
100
AcDbEntity
  8
0
  6
Continuous
 62
   250
420
  1644836
370
     0
100
AcDbCircle
 10
2538.4781724187
 20
331.9559440374
 30
0.0
 40
5.417769370214614
100
AcDbArc
 50
270.0
 51
305.5869104966
  0
ARC
  5
D7
330
1F
100
AcDbEntity
  8
0
  6
Continuous
 62
   250
420
  1644836
370
     0
100
AcDbCircle
 10
2549.0375849296
 20
312.9627960708
 30
0.0
 40
9.997490267756625
100
AcDbArc
 50
10.4199484279
 51
80.7321727594
  0
ARC
  5
D8
330
1F
100
AcDbEntity
  8
0
  6
Continuous
 62
   250
420
  1644836
370
     0
100
AcDbCircle
 10
2565.4535666376
 20
310.1143839674
 30
0.0
 40
5.225410873593643
100
AcDbArc
 50
192.6768785101
 51
204.7368873207
  0
CIRCLE
  5
D9
330
1F
100
AcDbEntity
  8
0
  6
Continuous
 62
   250
420
  1644836
370
     0
100
AcDbCircle
 10
2706.2864208618
 20
337.8675697335
 30
0.0
 40
5.930102145230649
  0
CIRCLE
  5
DA
330
1F
100
AcDbEntity
  8
0
  6
Continuous
 62
   250
420
  1973790
370
     0
100
AcDbCircle
 10
2821.3505851521
 20
145.1845937544
 30
0.0
 40
8.587078762764193
  0
CIRCLE
  5
DB
330
1F
100
AcDbEntity
  8
0
  6
Continuous
 62
   250
420
  1973790
370
     0
100
AcDbCircle
 10
2821.3505851521
 20
145.1845937544
 30
0.0
 40
16.77593581663705
  0
ELLIPSE
  5
DC
330
1F
100
AcDbEntity
  8
0
  6
Continuous
 62
   250
420
  1644836
370
     0
100
AcDbEllipse
 10
2350.175803597
 20
331.955944037
 30
0.0
 11
9.932577177642086
 21
0.0
 31
0.0
210
0.0
220
0.0
230
1.0
 40
0.5895245511
 41
5.265715075739357
 42
7.300655538615938
  0
ELLIPSE
  5
DD
330
1F
100
AcDbEntity
  8
0
  6
Continuous
 62
   250
420
  1644836
370
     0
100
AcDbEllipse
 10
2462.1430372376
 20
324.7322515426
 30
0.0
 11
22.57403904004605
 21
0.0
 31
0.0
210
0.0
220
0.0
230
1.0
 40
0.5985848325
 41
5.554193105221712
 42
7.012172182744729
  0
ELLIPSE
  5
DE
330
1F
100
AcDbEntity
  8
0
  6
Continuous
 62
   250
420
  1644836
370
     0
100
AcDbEllipse
 10
2532.5740390411
 20
331.955944037
 30
0.0
 11
11.73850030081758
 21
0.0
 31
0.0
210
0.0
220
0.0
230
1.0
 40
0.5900077182
 41
5.593675727225931
 42
6.97269488710657
  0
ELLIPSE
  5
DF
330
1F
100
AcDbEntity
  8
0
  6
Continuous
 62
   250
420
  1644836
370
     0
100
AcDbEllipse
 10
2538.0299477069
 20
332.9364020823
 30
0.0
 11
24.3266662253518
 21
0.0
 31
0.0
210
0.0
220
0.0
230
1.0
 40
0.485929116
 41
5.257694056962849
 42
7.689248379254996
  0
ELLIPSE
  5
E0
330
1F
100
AcDbEntity
  8
0
  6
Continuous
 62
   250
420
  1644836
370
     0
100
AcDbEllipse
 10
2468.4637681651
 20
324.7322515426
 30
0.0
 11
28.89476997115571
 21
0.0
 31
0.0
210
0.0
220
0.0
230
1.0
 40
0.6929224243
 41
4.837574201223028
 42
7.72879641314261
  0
ELLIPSE
  5
E1
330
1F
100
AcDbEntity
  8
0
  6
Continuous
 62
   250
420
  1644836
370
     0
100
AcDbEllipse
 10
2351.0787651571
 20
331.955944037
 30
0.0
 11
27.0888468479834
 21
0.0
 31
0.0
210
0.0
220
0.0
230
1.0
 40
0.4768529109
 41
4.919453630382234
 42
7.646916983963972
  0
ELLIPSE
  5
E2
330
1F
100
AcDbEntity
  8
0
  6
Continuous
 62
   250
420
  1644836
370
     0
100
AcDbEllipse
 10
2708.0427484413
 20
339.93861308
 30
0.0
 11
1.490185355941776
 21
0.0
 31
0.0
210
0.0
220
0.0
230
1.0
 40
0.9213369296
 41
4.876826485633947
 42
7.68954412872528
  0
MTEXT
  5
E4
330
1F
100
AcDbEntity
  8
0
  6
Continuous
 62
     7
370
     0
100
AcDbMText
 10
2231.444945447
 20
165.6379924371
 30
0.0
 40
37.0416666667
 41
0.0
 71
     1
 72
     1
  1
201
  7
SLDTEXTSTYLE0
 73
     1
 44
1.0
  0
MTEXT
  5
E5
330
1F
100
AcDbEntity
  8
0
  6
Continuous
 62
     7
370
     0
100
AcDbMText
 10
2158.8845987823
 20
146.3871334973
 30
0.0
 40
18.0
 41
0.0
 71
     1
 72
     1
  1
COD.
  7
SLDTEXTSTYLE0
 73
     1
 44
1.0
  0
MTEXT
  5
E6
330
1F
100
AcDbEntity
  8
0
  6
Continuous
 62
     7
370
     0
100
AcDbMText
 10
107.0855178468
 20
74.7215172182
 30
0.0
 40
18.0
 41
0.0
 71
     1
 72
     1
  1
This document is the property of PEDRALI S.p.A. who willsafeguard its rights according to the civil and penal prevision of the Law.
  7
SLDTEXTSTYLE0
 73
     1
 44
1.0
  0
INSERT
  5
EC
330
1F
100
AcDbEntity
  8
0
  6
Continuous
 62
     7
370
     0
100
AcDbBlockReference
  2
SW_NOTE_0
 10
1440.8605986612
 20
53.5813398756
 30
0.0
  0
MTEXT
  5
ED
330
1F
100
AcDbEntity
  8
0
  6
Continuous
 62
     7
370
     0
100
AcDbMText
 10
2158.8845987823
 20
234.3102099637
 30
0.0
 40
18.0
 41
0.0
 71
     1
 72
     1
  1
SERIE:
  7
SLDTEXTSTYLE0
 73
     1
 44
1.0
  0
MTEXT
  5
EE
330
1F
100
AcDbEntity
  8
0
  6
Continuous
 62
     7
370
     0
100
AcDbMText
 10
2231.444945447
 20
253.5610689035
 30
0.0
 40
37.0416666667
 41
0.0
 71
     1
 72
     1
  1
HOST
  7
SLDTEXTSTYLE0
 73
     1
 44
1.0
  0
INSERT
  5
F4
330
1F
100
AcDbEntity
  8
0
  6
Continuous
 62
     7
370
     0
100
AcDbBlockReference
  2
SW_NOTE_1
 10
2766.9883061954
 20
242.6632128381
 30
0.0
  0
ARC
  5
F5
330
1F
100
AcDbEntity
  8
0
  6
Continuous
 62
     7
370
    15
100
AcDbCircle
 10
1690.2743025596
 20
1238.7077541737
 30
0.0
 40
21.99999999999977
100
AcDbArc
 50
0.0
 51
90.0
  0
ARC
  5
F6
330
1F
100
AcDbEntity
  8
0
  6
Continuous
 62
     7
370
    15
100
AcDbCircle
 10
1690.2743025596
 20
1238.7077541737
 30
0.0
 40
37.99999999999979
100
AcDbArc
 50
0.0
 51
43.1735511072
  0
LINE
  5
F7
330
1F
100
AcDbEntity
  8
0
  6
Continuous
 62
     7
370
    15
100
AcDbLine
 10
1712.2742915923
 20
1092.7077529518
 30
0.0
 11
1712.2742915923
 21
1062.7077545536
 31
0.0
  0
LINE
  5
F8
330
1F
100
AcDbEntity
  8
0
  6
Continuous
 62
     7
370
    15
100
AcDbLine
 10
1728.2742942149
 20
1062.7077545536
 30
0.0
 11
1728.2742942149
 21
1092.7077529518
 31
0.0
  0
LINE
  5
F9
330
1F
100
AcDbEntity
  8
0
  6
Continuous
 62
     7
370
    15
100
AcDbLine
 10
1448.274302336
 20
1260.7077544121
 30
0.0
 11
1690.2743066127
 21
1260.7077544121
 31
0.0
  0
LINE
  5
FA
330
1F
100
AcDbEntity
  8
0
  6
Continuous
 62
     7
370
    15
100
AcDbLine
 10
1728.2742942149
 20
1092.7077529518
 30
0.0
 11
1728.2742942149
 21
1238.7077545313
 31
0.0
  0
LINE
  5
FB
330
1F
100
AcDbEntity
  8
0
  6
Continuous
 62
     7
370
    15
100
AcDbLine
 10
1712.2742915923
 20
1238.7077545313
 30
0.0
 11
1712.2742915923
 21
1092.7077529518
 31
0.0
  0
LINE
  5
FC
330
1F
100
AcDbEntity
  8
0
  6
Continuous
 62
     7
370
    15
100
AcDbLine
 10
1148.2743109042
 20
1238.7077545313
 30
0.0
 11
1148.2743109042
 21
1092.7077529518
 31
0.0
  0
LINE
  5
FD
330
1F
100
AcDbEntity
  8
0
  6
Continuous
 62
     7
370
    15
100
AcDbLine
 10
1164.2743135268
 20
1092.7077529518
 30
0.0
 11
1164.2743135268
 21
1238.7077545313
 31
0.0
  0
LINE
  5
FE
330
1F
100
AcDbEntity
  8
0
  6
Continuous
 62
     7
370
    15
100
AcDbLine
 10
1164.2743135268
 20
1062.7077545536
 30
0.0
 11
1164.2743135268
 21
1092.7077529518
 31
0.0
  0
LINE
  5
FF
330
1F
100
AcDbEntity
  8
0
  6
Continuous
 62
     7
370
    15
100
AcDbLine
 10
1148.2743109042
 20
1092.7077529518
 30
0.0
 11
1148.2743109042
 21
1062.7077545536
 31
0.0
  0
ARC
  5
100
330
1F
100
AcDbEntity
  8
0
  6
Continuous
 62
     7
370
    15
100
AcDbCircle
 10
1186.2743025596
 20
1238.7077541737
 30
0.0
 40
22.0
100
AcDbArc
 50
90.0
 51
180.0
  0
ARC
  5
101
330
1F
100
AcDbEntity
  8
0
  6
Continuous
 62
     7
370
    15
100
AcDbCircle
 10
1186.2743025596
 20
1238.7077541737
 30
0.0
 40
37.99999999999983
100
AcDbArc
 50
136.8264488928
 51
180.0
  0
LINE
  5
102
330
1F
100
AcDbEntity
  8
0
  6
Continuous
 62
     7
370
    15
100
AcDbLine
 10
1186.2742985064
 20
1260.7077544121
 30
0.0
 11
1428.2743027831
 21
1260.7077544121
 31
0.0
  0
ARC
  5
103
330
1F
100
AcDbEntity
  8
0
  6
Continuous
 62
     7
370
    15
100
AcDbCircle
 10
1720.2743025596
 20
1062.7077541737
 30
0.0
 40
8.0
100
AcDbArc
 50
180.0
 51
0.0
  0
LINE
  5
104
330
1F
100
AcDbEntity
  8
0
  6
Continuous
 62
     7
370
    15
100
AcDbLine
 10
1448.274302336
 20
1260.7077544121
 30
0.0
 11
1448.274302336
 21
1264.7077476171
 31
0.0
  0
ARC
  5
105
330
1F
100
AcDbEntity
  8
0
  6
Continuous
 62
     7
370
    15
100
AcDbCircle
 10
1156.2743025596
 20
1062.7077541737
 30
0.0
 40
8.000000000000227
100
AcDbArc
 50
180.0
 51
0.0
  0
LINE
  5
106
330
1F
100
AcDbEntity
  8
0
  6
Continuous
 62
     7
370
    15
100
AcDbLine
 10
1428.2743027831
 20
1260.7077544121
 30
0.0
 11
1428.2743027831
 21
1264.7077476171
 31
0.0
  0
LINE
  5
107
330
1F
100
AcDbEntity
  8
0
  6
Continuous
 62
     7
370
    15
100
AcDbLine
 10
1138.2742906386
 20
1504.7077422527
 30
0.0
 11
1738.2743144805
 21
1504.7077422527
 31
0.0
  0
LINE
  5
108
330
1F
100
AcDbEntity
  8
0
  6
Continuous
 62
     7
370
    15
100
AcDbLine
 10
1738.2743144805
 20
1264.7077476171
 30
0.0
 11
1748.2743049437
 21
1264.7077476171
 31
0.0
  0
LINE
  5
109
330
1F
100
AcDbEntity
  8
0
  6
Continuous
 62
     7
370
    15
100
AcDbLine
 10
1748.2743049437
 20
1264.7077476171
 30
0.0
 11
1748.2743049437
 21
1484.7077613262
 31
0.0
  0
LINE
  5
10A
330
1F
100
AcDbEntity
  8
0
  6
Continuous
 62
     7
370
    15
100
AcDbLine
 10
1138.2742906386
 20
1264.7077476171
 30
0.0
 11
1738.2743144805
 21
1264.7077476171
 31
0.0
  0
LINE
  5
10B
330
1F
100
AcDbEntity
  8
0
  6
Continuous
 62
     7
370
    15
100
AcDbLine
 10
1128.2743001754
 20
1264.7077476171
 30
0.0
 11
1138.2742906386
 21
1264.7077476171
 31
0.0
  0
LINE
  5
10C
330
1F
100
AcDbEntity
  8
0
  6
Continuous
 62
     7
370
    15
100
AcDbLine
 10
1128.2743001754
 20
1264.7077476171
 30
0.0
 11
1128.2743001754
 21
1484.7077613262
 31
0.0
  0
SPLINE
  5
10D
330
1F
100
AcDbEntity
  8
0
  6
Continuous
 62
     7
370
    15
100
AcDbSpline
210
0.0
220
0.0
230
1.0
 70
     8
 71
     3
 72
    19
 73
    15
 74
     0
 42
0.000000001
 43
0.00000001
 40
0.0
 40
0.0
 40
0.0
 40
0.0
 40
0.0833327998057152
 40
0.1666659953766499
 40
0.2499997441462614
 40
0.333332741185955
 40
0.4166675611092379
 40
0.5000011774246856
 40
0.5833335418821626
 40
0.6666667831547967
 40
0.7500006199314754
 40
0.8333337584022867
 40
0.916667324366064
 40
1.0
 40
1.0
 40
1.0
 40
1.0
 10
1748.274304943749
 20
1494.70775178946
 30
0.0
 10
1748.257785517951
 20
1495.144079391986
 30
0.0
 10
1748.224746587901
 20
1496.016736669251
 30
0.0
 10
1747.959161227881
 20
1497.303343380451
 30
0.0
 10
1747.540053988907
 20
1498.545514558777
 30
0.0
 10
1746.95919232954
 20
1499.722055858648
 30
0.0
 10
1746.230576588043
 20
1500.812793205621
 30
0.0
 10
1745.365577460369
 20
1501.799035995198
 30
0.0
 10
1744.379321731859
 20
1502.664006333315
 30
0.0
 10
1743.288606448997
 20
1503.392629761982
 30
0.0
 10
1742.112091303676
 20
1503.973538381887
 30
0.0
 10
1740.869894803655
 20
1504.392575854684
 30
0.0
 10
1739.58330540837
 20
1504.658233985805
 30
0.0
 10
1738.710643235866
 20
1504.691239555852
 30
0.0
 10
1738.274314480492
 20
1504.707742252717
 30
0.0
  0
SPLINE
  5
10E
330
1F
100
AcDbEntity
  8
0
  6
Continuous
 62
     7
370
    15
100
AcDbSpline
210
0.0
220
0.0
230
1.0
 70
    24
 71
     3
 72
    19
 73
    15
 74
     0
 42
0.000000001
 43
0.00000001
 40
0.0
 40
0.0
 40
0.0
 40
0.0
 40
0.0833262191086167
 40
0.1667117605712583
 40
0.2499993953470982
 40
0.3333183155315271
 40
0.4167121184777112
 40
0.499998959999773
 40
0.5833181287168728
 40
0.666711924509208
 40
0.7499985845963452
 40
0.8333180365000421
 40
0.9166890614420432
 40
1.0
 40
1.0
 40
1.0
 40
1.0
 10
1748.274304943749
 20
1484.707761326204
 30
0.0
 10
1748.274304943749
 20
1485.144058324201
 30
0.0
 10
1748.274304943749
 20
1486.016962932692
 30
0.0
 10
1748.274304943749
 20
1487.303584168383
 30
0.0
 10
1748.274304943749
 20
1488.545650654617
 30
0.0
 10
1748.274304943749
 20
1489.722267417982
 30
0.0
 10
1748.274304943749
 20
1490.812982530306
 30
0.0
 10
1748.274304943749
 20
1491.799076934162
 30
0.0
 10
1748.274304943749
 20
1492.66424002883
 30
0.0
 10
1748.274304943749
 20
1493.392801439411
 30
0.0
 10
1748.274304943749
 20
1493.973496697084
 30
0.0
 10
1748.274304943749
 20
1494.39275373041
 30
0.0
 10
1748.274304943749
 20
1494.658283873124
 30
0.0
 10
1748.274304943749
 20
1494.691266447258
 30
0.0
 10
1748.274304943749
 20
1494.70775178946
 30
0.0
  0
SPLINE
  5
10F
330
1F
100
AcDbEntity
  8
0
  6
Continuous
 62
     7
370
    15
100
AcDbSpline
210
0.0
220
0.0
230
1.0
 70
     8
 71
     3
 72
    19
 73
    15
 74
     0
 42
0.000000001
 43
0.00000001
 40
0.0
 40
0.0
 40
0.0
 40
0.0
 40
0.0833326756339361
 40
0.1666662415977133
 40
0.2499993800685247
 40
0.3333332168452033
 40
0.4166664581178374
 40
0.4999988225753143
 40
0.5833324388907621
 40
0.666667258814045
 40
0.7500002558537385
 40
0.83333400462335
 40
0.9166672001942849
 40
1.0
 40
1.0
 40
1.0
 40
1.0
 10
1138.274290638634
 20
1504.707742252717
 30
0.0
 10
1137.83796188326
 20
1504.691239555852
 30
0.0
 10
1136.965299710757
 20
1504.658233985805
 30
0.0
 10
1135.678710315472
 20
1504.392575854684
 30
0.0
 10
1134.436513815451
 20
1503.973538381887
 30
0.0
 10
1133.25999867013
 20
1503.392629761982
 30
0.0
 10
1132.169283387268
 20
1502.664006333315
 30
0.0
 10
1131.183027658758
 20
1501.799035995198
 30
0.0
 10
1130.318028531084
 20
1500.812793205621
 30
0.0
 10
1129.589412789587
 20
1499.722055858648
 30
0.0
 10
1129.00855113022
 20
1498.545514558777
 30
0.0
 10
1128.589443891246
 20
1497.303343380451
 30
0.0
 10
1128.323858531225
 20
1496.016736669251
 30
0.0
 10
1128.290819601175
 20
1495.144079391986
 30
0.0
 10
1128.274300175377
 20
1494.70775178946
 30
0.0
  0
SPLINE
  5
110
330
1F
100
AcDbEntity
  8
0
  6
Continuous
 62
     7
370
    15
100
AcDbSpline
210
0.0
220
0.0
230
1.0
 70
    24
 71
     3
 72
    19
 73
    15
 74
     0
 42
0.000000001
 43
0.00000001
 40
0.0
 40
0.0
 40
0.0
 40
0.0
 40
0.0833279654881622
 40
0.1667119911380391
 40
0.2500013995904181
 40
0.3333202956438753
 40
0.4167130195733446
 40
0.5000010889804269
 40
0.5833202335664832
 40
0.6667124265251562
 40
0.7500007653963306
 40
0.8333201931689019
 40
0.9166889614979313
 40
1.0
 40
1.0
 40
1.0
 40
1.0
 10
1128.274300175377
 20
1494.70775178946
 30
0.0
 10
1128.274300175377
 20
1494.691282198648
 30
0.0
 10
1128.274300175377
 20
1494.658331936853
 30
0.0
 10
1128.274300175377
 20
1494.392624918369
 30
0.0
 10
1128.274300175377
 20
1493.973382502727
 30
0.0
 10
1128.274300175377
 20
1493.392664670738
 30
0.0
 10
1128.274300175377
 20
1492.664024048292
 30
0.0
 10
1128.274300175377
 20
1491.79883726673
 30
0.0
 10
1128.274300175377
 20
1490.812751626735
 30
0.0
 10
1128.274300175377
 20
1489.721968412233
 30
0.0
 10
1128.274300175377
 20
1488.545348310166
 30
0.0
 10
1128.274300175377
 20
1487.303358076003
 30
0.0
 10
1128.274300175377
 20
1486.016709849602
 30
0.0
 10
1128.274300175377
 20
1485.143976743151
 30
0.0
 10
1128.274300175377
 20
1484.707761326203
 30
0.0
  0
SPLINE
  5
111
330
1F
100
AcDbEntity
  8
0
  6
Continuous
 62
     7
370
    15
100
AcDbSpline
210
0.0
220
0.0
230
1.0
 70
    24
 71
     3
 72
     9
 73
     5
 74
     0
 42
0.000000001
 43
0.00000001
 40
0.0
 40
0.0
 40
0.0
 40
0.0
 40
0.5000025517999878
 40
1.0
 40
1.0
 40
1.0
 40
1.0
 10
1748.274304943749
 20
1525.582212725053
 30
0.0
 10
1748.274304943749
 20
1525.882172345263
 30
0.0
 10
1748.274304943749
 20
1526.482088523951
 30
0.0
 10
1748.274304943749
 20
1527.074742065574
 30
0.0
 10
1748.274304943749
 20
1527.371067324052
 30
0.0
  0
SPLINE
  5
112
330
1F
100
AcDbEntity
  8
0
  6
Continuous
 62
     7
370
    15
100
AcDbSpline
210
0.0
220
0.0
230
1.0
 70
    24
 71
     3
 72
     9
 73
     5
 74
     0
 42
0.000000001
 43
0.00000001
 40
0.0
 40
0.0
 40
0.0
 40
0.0
 40
0.4999974482000123
 40
1.0
 40
1.0
 40
1.0
 40
1.0
 10
1128.274300175377
 20
1527.371067324052
 30
0.0
 10
1128.274300175377
 20
1527.074742065574
 30
0.0
 10
1128.274300175377
 20
1526.482088523951
 30
0.0
 10
1128.274300175377
 20
1525.882172345263
 30
0.0
 10
1128.274300175377
 20
1525.582212725053
 30
0.0
  0
SPLINE
  5
113
330
1F
100
AcDbEntity
  8
0
  6
Continuous
 62
     7
370
    15
100
AcDbSpline
210
0.0
220
0.0
230
1.0
 70
    24
 71
     3
 72
    13
 73
     9
 74
     0
 42
0.000000001
 43
0.00000001
 40
0.0
 40
0.0
 40
0.0
 40
0.0
 40
0.1666546219055821
 40
0.3334252226922346
 40
0.5000018065367738
 40
0.6666399577007791
 40
0.8333781410027364
 40
1.0
 40
1.0
 40
1.0
 40
1.0
 10
1748.274304943749
 20
1518.511134901414
 30
0.0
 10
1748.274304943749
 20
1518.831299242466
 30
0.0
 10
1748.274304943749
 20
1519.471850734486
 30
0.0
 10
1748.274304943749
 20
1520.569482344994
 30
0.0
 10
1748.274304943749
 20
1521.744235335787
 30
0.0
 10
1748.274304943749
 20
1522.986726366902
 30
0.0
 10
1748.274304943749
 20
1524.273233560722
 30
0.0
 10
1748.274304943749
 20
1525.145987851344
 30
0.0
 10
1748.274304943749
 20
1525.582212725053
 30
0.0
  0
SPLINE
  5
114
330
1F
100
AcDbEntity
  8
0
  6
Continuous
 62
     7
370
    15
100
AcDbSpline
210
0.0
220
0.0
230
1.0
 70
    24
 71
     3
 72
    13
 73
     9
 74
     0
 42
0.000000001
 43
0.00000001
 40
0.0
 40
0.0
 40
0.0
 40
0.0
 40
0.1666521882772233
 40
0.3334235156813927
 40
0.4999986594122658
 40
0.6666363739130547
 40
0.8333775135211005
 40
1.0
 40
1.0
 40
1.0
 40
1.0
 10
1128.274300175377
 20
1525.582212725053
 30
0.0
 10
1128.274300175377
 20
1525.145906736685
 30
0.0
 10
1128.274300175377
 20
1524.272982846165
 30
0.0
 10
1128.274300175377
 20
1522.986494976621
 30
0.0
 10
1128.274300175377
 20
1521.743937039229
 30
0.0
 10
1128.274300175377
 20
1520.569258095837
 30
0.0
 10
1128.274300175377
 20
1519.471697920608
 30
0.0
 10
1128.274300175377
 20
1518.83124658983
 30
0.0
 10
1128.274300175377
 20
1518.511134901414
 30
0.0
  0
LINE
  5
115
330
1F
100
AcDbEntity
  8
0
  6
Continuous
 62
     7
370
    15
100
AcDbLine
 10
1748.2743049437
 20
1527.3710673241
 30
0.0
 11
1748.2743049437
 21
1816.4965992359
 31
0.0
  0
LINE
  5
116
330
1F
100
AcDbEntity
  8
0
  6
Continuous
 62
     7
370
    15
100
AcDbLine
 10
1128.2743001754
 20
1816.4965992359
 30
0.0
 11
1128.2743001754
 21
1527.3710673241
 31
0.0
  0
SPLINE
  5
117
330
1F
100
AcDbEntity
  8
0
  6
Continuous
 62
     7
370
    15
100
AcDbSpline
210
0.0
220
0.0
230
1.0
 70
    24
 71
     3
 72
    11
 73
     7
 74
     0
 42
0.000000001
 43
0.00000001
 40
0.0
 40
0.0
 40
0.0
 40
0.0
 40
0.3223954485298797
 40
0.6441143684681417
 40
0.9663216031273247
 40
0.9999999999999999
 40
0.9999999999999999
 40
0.9999999999999999
 40
0.9999999999999999
 10
1128.274300175377
 20
1497.636694231401
 30
0.0
 10
1128.274300175377
 20
1497.348264312395
 30
0.0
 10
1128.274300175377
 20
1496.772009728237
 30
0.0
 10
1128.274300175377
 20
1495.841337163145
 30
0.0
 10
1128.274300175377
 20
1495.172197690145
 30
0.0
 10
1128.274300175377
 20
1494.798843433621
 30
0.0
 10
1128.274300175377
 20
1494.763511934648
 30
0.0
  0
SPLINE
  5
118
330
1F
100
AcDbEntity
  8
0
  6
Continuous
 62
     7
370
    15
100
AcDbSpline
210
0.0
220
0.0
230
1.0
 70
    24
 71
     3
 72
    11
 73
     7
 74
     0
 42
0.000000001
 43
0.00000001
 40
0.0
 40
0.0
 40
0.0
 40
0.0
 40
0.033678419918391
 40
0.3559504710543513
 40
0.6776634815880559
 40
1.0
 40
1.0
 40
1.0
 40
1.0
 10
1748.274304943749
 20
1494.763511934648
 30
0.0
 10
1748.274304943749
 20
1494.798843448979
 30
0.0
 10
1748.274304943749
 20
1495.172265634454
 30
0.0
 10
1748.274304943749
 20
1495.84144578038
 30
0.0
 10
1748.274304943749
 20
1496.772102875804
 30
0.0
 10
1748.274304943749
 20
1497.348311169399
 30
0.0
 10
1748.274304943749
 20
1497.636694231401
 30
0.0
  0
LINE
  5
119
330
1F
100
AcDbEntity
  8
0
  6
Continuous
 62
     7
370
    15
100
AcDbLine
 10
1748.2743049437
 20
1497.6366942314
 30
0.0
 11
1748.2743049437
 21
1518.5111349014
 31
0.0
  0
LINE
  5
11A
330
1F
100
AcDbEntity
  8
0
  6
Continuous
 62
     7
370
    15
100
AcDbLine
 10
1128.2743001754
 20
1518.5111349014
 30
0.0
 11
1128.2743001754
 21
1497.6366942314
 31
0.0
  0
LINE
  5
11B
330
1F
100
AcDbEntity
  8
0
  6
Continuous
 62
     7
370
    15
100
AcDbLine
 10
1738.2743144805
 20
1834.7077255634
 30
0.0
 11
1138.2742906386
 21
1834.7077255634
 31
0.0
  0
SPLINE
  5
11C
330
1F
100
AcDbEntity
  8
0
  6
Continuous
 62
     7
370
    15
100
AcDbSpline
210
0.0
220
0.0
230
1.0
 70
     8
 71
     3
 72
    19
 73
    15
 74
     0
 42
0.000000001
 43
0.00000001
 40
0.0
 40
0.0
 40
0.0
 40
0.0
 40
0.0833346102554215
 40
0.1666677217129969
 40
0.2500013863686906
 40
0.3333325964595537
 40
0.4166689109302443
 40
0.5000010156906226
 40
0.5833345478922863
 40
0.6666666502302091
 40
0.7500012426638136
 40
0.8333342970213233
 40
0.9166674084788986
 40
1.0
 40
1.0
 40
1.0
 40
1.0
 10
1748.274304943749
 20
1824.70773510016
 30
0.0
 10
1748.257786238768
 20
1825.144072773171
 30
0.0
 10
1748.224749125901
 20
1826.016740271528
 30
0.0
 10
1747.959159434728
 20
1827.303355493365
 30
0.0
 10
1747.540063490858
 20
1828.545522971851
 30
0.0
 10
1746.959172329614
 20
1829.722046553589
 30
0.0
 10
1746.230599645378
 20
1830.812804908781
 30
0.0
 10
1745.365553465471
 20
1831.799014643128
 30
0.0
 10
1744.379344714637
 20
1832.664029502752
 30
0.0
 10
1743.288586749653
 20
1833.392600443287
 30
0.0
 10
1742.112100996976
 20
1833.973558411602
 30
0.0
 10
1740.869897090193
 20
1834.392595757454
 30
0.0
 10
1739.583301948434
 20
1834.658208458726
 30
0.0
 10
1738.710642729013
 20
1834.691219896181
 30
0.0
 10
1738.274314480492
 20
1834.707725563416
 30
0.0
  0
SPLINE
  5
11D
330
1F
100
AcDbEntity
  8
0
  6
Continuous
 62
     7
370
    15
100
AcDbSpline
210
0.0
220
0.0
230
1.0
 70
    24
 71
     3
 72
    19
 73
    15
 74
     0
 42
0.000000001
 43
0.00000001
 40
0.0
 40
0.0
 40
0.0
 40
0.0
 40
0.0833366212378486
 40
0.166708887877801
 40
0.2499987573396093
 40
0.3333270143591615
 40
0.4167068497566553
 40
0.5000013296585774
 40
0.5833275605421147
 40
0.6667072495980686
 40
0.7500009643204405
 40
0.8333268955827823
 40
0.9166812783446324
 40
1.0
 40
1.0
 40
1.0
 40
1.0
 10
1748.274304943749
 20
1816.496599235902
 30
0.0
 10
1748.274304943749
 20
1816.874446535147
 30
0.0
 10
1748.274304943749
 20
1817.630302749488
 30
0.0
 10
1748.274304943749
 20
1818.718125607111
 30
0.0
 10
1748.274304943749
 20
1819.753735209727
 30
0.0
 10
1748.274304943749
 20
1820.721374228145
 30
0.0
 10
1748.274304943749
 20
1821.60831479951
 30
0.0
 10
1748.274304943749
 20
1822.402565437447
 30
0.0
 10
1748.274304943749
 20
1823.093758705645
 30
0.0
 10
1748.274304943749
 20
1823.672076284918
 30
0.0
 10
1748.274304943749
 20
1824.130764705119
 30
0.0
 10
1748.274304943749
 20
1824.460569518101
 30
0.0
 10
1748.274304943749
 20
1824.668918737474
 30
0.0
 10
1748.274304943749
 20
1824.694798158304
 30
0.0
 10
1748.274304943749
 20
1824.70773510016
 30
0.0
  0
SPLINE
  5
11E
330
1F
100
AcDbEntity
  8
0
  6
Continuous
 62
     7
370
    15
100
AcDbSpline
210
0.0
220
0.0
230
1.0
 70
     8
 71
     3
 72
    19
 73
    15
 74
     0
 42
0.000000001
 43
0.00000001
 40
0.0
 40
0.0
 40
0.0
 40
0.0
 40
0.0833325915211014
 40
0.1666657029786767
 40
0.2499987573361864
 40
0.3333333497697909
 40
0.4166654521077137
 40
0.4999989843093774
 40
0.5833310890697557
 40
0.6666674035404463
 40
0.7499986136313094
 40
0.8333322782870032
 40
0.9166653897445785
 40
1.0
 40
1.0
 40
1.0
 40
1.0
 10
1138.274290638634
 20
1834.707725563416
 30
0.0
 10
1137.837962390113
 20
1834.691219896181
 30
0.0
 10
1136.965303170693
 20
1834.658208458726
 30
0.0
 10
1135.678708028934
 20
1834.392595757455
 30
0.0
 10
1134.436504122151
 20
1833.973558411602
 30
0.0
 10
1133.260018369474
 20
1833.392600443287
 30
0.0
 10
1132.169260404489
 20
1832.664029502752
 30
0.0
 10
1131.183051653656
 20
1831.799014643128
 30
0.0
 10
1130.318005473749
 20
1830.812804908781
 30
0.0
 10
1129.589432789512
 20
1829.722046553589
 30
0.0
 10
1129.008541628268
 20
1828.545522971852
 30
0.0
 10
1128.589445684398
 20
1827.303355493365
 30
0.0
 10
1128.323855993226
 20
1826.016740271528
 30
0.0
 10
1128.290818880358
 20
1825.144072773171
 30
0.0
 10
1128.274300175377
 20
1824.70773510016
 30
0.0
  0
SPLINE
  5
11F
330
1F
100
AcDbEntity
  8
0
  6
Continuous
 62
     7
370
    15
100
AcDbSpline
210
0.0
220
0.0
230
1.0
 70
    24
 71
     3
 72
    19
 73
    15
 74
     0
 42
0.000000001
 43
0.00000001
 40
0.0
 40
0.0
 40
0.0
 40
0.0
 40
0.0833347761056984
 40
0.1667064811632209
 40
0.2499991490957342
 40
0.3333255200174393
 40
0.4167076261540442
 40
0.4999987050812021
 40
0.5833242720043221
 40
0.6667046187660639
 40
0.7500013684173611
 40
0.8333243106896109
 40
0.9166808009739388
 40
1.0
 40
1.0
 40
1.0
 40
1.0
 10
1128.274300175377
 20
1824.70773510016
 30
0.0
 10
1128.274300175377
 20
1824.694808508605
 30
0.0
 10
1128.274300175377
 20
1824.66894959721
 30
0.0
 10
1128.274300175377
 20
1824.460483847139
 30
0.0
 10
1128.274300175377
 20
1824.130654528159
 30
0.0
 10
1128.274300175377
 20
1823.671997197458
 30
0.0
 10
1128.274300175377
 20
1823.093517270237
 30
0.0
 10
1128.274300175377
 20
1822.402376801226
 30
0.0
 10
1128.274300175377
 20
1821.608134275031
 30
0.0
 10
1128.274300175377
 20
1820.721119571298
 30
0.0
 10
1128.274300175377
 20
1819.753478519025
 30
0.0
 10
1128.274300175377
 20
1818.717922090656
 30
0.0
 10
1128.274300175377
 20
1817.630061938418
 30
0.0
 10
1128.274300175377
 20
1816.874363777921
 30
0.0
 10
1128.274300175377
 20
1816.496599235902
 30
0.0
  0
LINE
  5
120
330
1F
100
AcDbEntity
  8
0
  6
Continuous
 62
     7
370
    15
100
AcDbLine
 10
2031.764633101
 20
1092.7077529518
 30
0.0
 11
2031.764633101
 21
1238.7077545313
 31
0.0
  0
LINE
  5
121
330
1F
100
AcDbEntity
  8
0
  6
Continuous
 62
     7
370
    15
100
AcDbLine
 10
2015.7646304784
 20
1238.7077545313
 30
0.0
 11
2015.7646304784
 21
1092.7077529518
 31
0.0
  0
ARC
  5
122
330
1F
100
AcDbEntity
  8
0
  6
Continuous
 62
     7
370
    15
100
AcDbCircle
 10
2053.7646383462
 20
1092.7077541736
 30
0.0
 40
22.0
100
AcDbArc
 50
180.0
 51
270.0
  0
ARC
  5
123
330
1F
100
AcDbEntity
  8
0
  6
Continuous
 62
     7
370
    15
100
AcDbCircle
 10
2053.7646383462
 20
1092.7077541736
 30
0.0
 40
38.0
100
AcDbArc
 50
180.0
 51
270.0
  0
LINE
  5
124
330
1F
100
AcDbEntity
  8
0
  6
Continuous
 62
     7
370
    15
100
AcDbLine
 10
2573.7646288094
 20
1070.7077549336
 30
0.0
 11
2053.7646478829
 21
1070.7077549336
 31
0.0
  0
LINE
  5
125
330
1F
100
AcDbEntity
  8
0
  6
Continuous
 62
     7
370
    15
100
AcDbLine
 10
2053.7646478829
 20
1054.7077541736
 30
0.0
 11
2573.7646288094
 21
1054.7077541737
 31
0.0
  0
LINE
  5
126
330
1F
100
AcDbEntity
  8
0
  6
Continuous
 62
     7
370
    15
100
AcDbLine
 10
2015.7646304784
 20
1264.7077476171
 30
0.0
 11
2015.7646304784
 21
1238.7077545313
 31
0.0
  0
LINE
  5
127
330
1F
100
AcDbEntity
  8
0
  6
Continuous
 62
     7
370
    15
100
AcDbLine
 10
2031.764633101
 20
1238.7077545313
 30
0.0
 11
2031.764633101
 21
1264.7077476171
 31
0.0
  0
ARC
  5
128
330
1F
100
AcDbEntity
  8
0
  6
Continuous
 62
     7
370
    15
100
AcDbCircle
 10
2573.7646383462
 20
1092.7077541737
 30
0.0
 40
22.00000000000023
100
AcDbArc
 50
270.0
 51
0.0
  0
ARC
  5
129
330
1F
100
AcDbEntity
  8
0
  6
Continuous
 62
     7
370
    15
100
AcDbCircle
 10
2573.7646383462
 20
1092.7077541737
 30
0.0
 40
38.00000000000023
100
AcDbArc
 50
270.0
 51
0.0
  0
LINE
  5
12A
330
1F
100
AcDbEntity
  8
0
  6
Continuous
 62
     7
370
    15
100
AcDbLine
 10
2595.7646435914
 20
1238.7077545313
 30
0.0
 11
2595.7646435914
 21
1092.7077529518
 31
0.0
  0
LINE
  5
12B
330
1F
100
AcDbEntity
  8
0
  6
Continuous
 62
     7
370
    15
100
AcDbLine
 10
2611.764646214
 20
1092.7077529518
 30
0.0
 11
2611.764646214
 21
1238.7077545313
 31
0.0
  0
LINE
  5
12C
330
1F
100
AcDbEntity
  8
0
  6
Continuous
 62
     7
370
    15
100
AcDbLine
 10
2611.764646214
 20
1238.7077545313
 30
0.0
 11
2611.764646214
 21
1264.7077476171
 31
0.0
  0
LINE
  5
12D
330
1F
100
AcDbEntity
  8
0
  6
Continuous
 62
     7
370
    15
100
AcDbLine
 10
2595.7646435914
 20
1264.7077476171
 30
0.0
 11
2595.7646435914
 21
1238.7077545313
 31
0.0
  0
LINE
  5
12E
330
1F
100
AcDbEntity
  8
0
  6
Continuous
 62
     7
370
    15
100
AcDbLine
 10
2013.7646264253
 20
1264.7077476171
 30
0.0
 11
2613.7646502671
 21
1264.7077476171
 31
0.0
  0
LINE
  5
12F
330
1F
100
AcDbEntity
  8
0
  6
Continuous
 62
     7
370
    15
100
AcDbLine
 10
2126.7505056081
 20
1818.2854538349
 30
0.0
 11
2179.3187922654
 21
1529.1599219231
 31
0.0
  0
LINE
  5
130
330
1F
100
AcDbEntity
  8
0
  6
Continuous
 62
     7
370
    15
100
AcDbLine
 10
2023.7646466908
 20
1834.7077255634
 30
0.0
 11
2107.0731050191
 21
1834.7077255634
 31
0.0
  0
LINE
  5
131
330
1F
100
AcDbEntity
  8
0
  6
Continuous
 62
     7
370
    15
100
AcDbLine
 10
2167.0512026963
 20
1476.4234905628
 30
0.0
 11
2189.4776142058
 21
1498.8498871712
 31
0.0
  0
LINE
  5
132
330
1F
100
AcDbEntity
  8
0
  6
Continuous
 62
     7
370
    15
100
AcDbLine
 10
2173.7835324225
 20
1511.4400868801
 30
0.0
 11
2152.9090768514
 21
1490.5656164078
 31
0.0
  0
LINE
  5
133
330
1F
100
AcDbEntity
  8
0
  6
Continuous
 62
     7
370
    15
100
AcDbLine
 10
2203.6197475014
 20
1504.7077422527
 30
0.0
 11
2603.7646300015
 21
1504.7077422527
 31
0.0
  0
LINE
  5
134
330
1F
100
AcDbEntity
  8
0
  6
Continuous
 62
     7
370
    15
100
AcDbLine
 10
2613.7646502671
 20
1264.7077476171
 30
0.0
 11
2623.7646407304
 21
1264.7077476171
 31
0.0
  0
LINE
  5
135
330
1F
100
AcDbEntity
  8
0
  6
Continuous
 62
     7
370
    15
100
AcDbLine
 10
2623.7646407304
 20
1264.7077476171
 30
0.0
 11
2623.7646407304
 21
1484.7077613262
 31
0.0
  0
LINE
  5
136
330
1F
100
AcDbEntity
  8
0
  6
Continuous
 62
     7
370
    15
100
AcDbLine
 10
2003.764635962
 20
1264.7077476171
 30
0.0
 11
2013.7646264253
 21
1264.7077476171
 31
0.0
  0
LINE
  5
137
330
1F
100
AcDbEntity
  8
0
  6
Continuous
 62
     7
370
    15
100
AcDbLine
 10
2003.764635962
 20
1814.7077446369
 30
0.0
 11
2003.764635962
 21
1264.7077476171
 31
0.0
  0
SPLINE
  5
138
330
1F
100
AcDbEntity
  8
0
  6
Continuous
 62
     7
370
    15
100
AcDbSpline
210
0.0
220
0.0
230
1.0
 70
     8
 71
     3
 72
    23
 73
    19
 74
     0
 42
0.000000001
 43
0.00000001
 40
0.0
 40
0.0
 40
0.0
 40
0.0
 40
0.0625002681433388
 40
0.1250006963825424
 40
0.1875008895215717
 40
0.2500010435299789
 40
0.3125010808537901
 40
0.3749995921785275
 40
0.437500571719119
 40
0.5000003415653583
 40
0.5624999961663915
 40
0.624999615065622
 40
0.6874999455899875
 40
0.7499999918782373
 40
0.8125002258153409
 40
0.874999760152391
 40
0.9374999468672657
 40
0.9999999999999999
 40
0.9999999999999999
 40
0.9999999999999999
 40
0.9999999999999999
 10
2126.750505608068
 20
1818.285453834901
 30
0.0
 10
2126.632511110998
 20
1818.853063879522
 30
0.0
 10
2126.396521814613
 20
1819.988285422709
 30
0.0
 10
2125.856788605092
 20
1821.643999145313
 30
0.0
 10
2125.185840715329
 20
1823.24925975878
 30
0.0
 10
2124.375231154182
 20
1824.789482561519
 30
0.0
 10
2123.434722251185
 20
1826.253692513632
 30
0.0
 10
2122.370379597362
 20
1827.630627097471
 30
0.0
 10
2121.190639938375
 20
1828.910035638533
 30
0.0
 10
2119.904213367937
 20
1830.082150976081
 30
0.0
 10
2118.520874550054
 20
1831.138119105087
 30
0.0
 10
2117.051093484572
 20
1832.070012878824
 30
0.0
 10
2115.505952221731
 20
1832.870848886437
 30
0.0
 10
2113.897091285186
 20
1833.534236132813
 30
0.0
 10
2112.236732133949
 20
1834.056320675458
 30
0.0
 10
2110.537325046408
 20
1834.429178880687
 30
0.0
 10
2108.811788548691
 20
1834.664083637391
 30
0.0
 10
2107.652665782715
 20
1834.693178265105
 30
0.0
 10
2107.073105019078
 20
1834.707725563416
 30
0.0
  0
SPLINE
  5
139
330
1F
100
AcDbEntity
  8
0
  6
Continuous
 62
     7
370
    15
100
AcDbSpline
210
0.0
220
0.0
230
1.0
 70
     8
 71
     3
 72
    15
 73
    11
 74
     0
 42
0.000000001
 43
0.00000001
 40
0.0
 40
0.0
 40
0.0
 40
0.0
 40
0.1250000525046936
 40
0.2500000255733197
 40
0.3749997896437904
 40
0.4999999357424795
 40
0.6250001629009694
 40
0.7499994201781022
 40
0.8750002126066235
 40
1.0
 40
1.0
 40
1.0
 40
1.0
 10
2203.619747501359
 20
1504.707742252717
 30
0.0
 10
2202.965248141355
 20
1504.689184206313
 30
0.0
 10
2201.656249837273
 20
1504.652068125298
 30
0.0
 10
2199.711674463342
 20
1504.352691370675
 30
0.0
 10
2197.804686575973
 20
1503.877994128873
 30
0.0
 10
2195.953890104135
 20
1503.214774247695
 30
0.0
 10
2194.176226845675
 20
1502.375010548648
 30
0.0
 10
2192.492102269445
 20
1501.362254546029
 30
0.0
 10
2190.905404699455
 20
1500.198900996892
 30
0.0
 10
2189.953543094831
 20
1499.299557241244
 30
0.0
 10
2189.477614205823
 20
1498.849887171159
 30
0.0
  0
ARC
  5
13A
330
1F
100
AcDbEntity
  8
0
  6
Continuous
 62
     7
370
    15
100
AcDbCircle
 10
2159.9801375242
 20
1483.4945507376
 30
0.0
 40
10.00000000042373
100
AcDbArc
 50
135.0000000007
 51
315.0000000083
  0
SPLINE
  5
13B
330
1F
100
AcDbEntity
  8
0
  6
Continuous
 62
     7
370
    15
100
AcDbSpline
210
0.0
220
0.0
230
1.0
 70
     8
 71
     3
 72
     9
 73
     5
 74
     0
 42
0.000000001
 43
0.00000001
 40
0.0
 40
0.0
 40
0.0
 40
0.0
 40
0.4999956996891323
 40
1.0
 40
1.0
 40
1.0
 40
1.0
 10
2179.641387504087
 20
1525.582212725053
 30
0.0
 10
2179.627865480112
 20
1526.18212111696
 30
0.0
 10
2179.600821199565
 20
1527.381948220035
 30
0.0
 10
2179.412802449148
 20
1528.567260623905
 30
0.0
 10
2179.318792265401
 20
1529.159921923051
 30
0.0
  0
SPLINE
  5
13C
330
1F
100
AcDbEntity
  8
0
  6
Continuous
 62
     7
370
    15
100
AcDbSpline
210
0.0
220
0.0
230
1.0
 70
     8
 71
     3
 72
    15
 73
    11
 74
     0
 42
0.000000001
 43
0.00000001
 40
0.0
 40
0.0
 40
0.0
 40
0.0
 40
0.1249995255247339
 40
0.2499994612112809
 40
0.3749997030998037
 40
0.4999987563169658
 40
0.6249994389071923
 40
0.7499997529870196
 40
0.8750002851499712
 40
1.0
 40
1.0
 40
1.0
 40
1.0
 10
2173.783532422528
 20
1511.440086880098
 30
0.0
 10
2174.233203804936
 20
1511.916012306701
 30
0.0
 10
2175.132548045262
 20
1512.867864721566
 30
0.0
 10
2176.295884372697
 20
1514.454571903148
 30
0.0
 10
2177.308656018295
 20
1516.138678928625
 30
0.0
 10
2178.148405531997
 20
1517.916350115701
 30
0.0
 10
2178.811624806891
 20
1519.767144141119
 30
0.0
 10
2179.286322655669
 20
1521.674139791943
 30
0.0
 10
2179.585693775393
 20
1523.618718045085
 30
0.0
 10
2179.622822968317
 20
1524.927715924877
 30
0.0
 10
2179.641387504087
 20
1525.582212725053
 30
0.0
  0
SPLINE
  5
13D
330
1F
100
AcDbEntity
  8
0
  6
Continuous
 62
     7
370
    15
100
AcDbSpline
210
0.0
220
0.0
230
1.0
 70
     8
 71
     3
 72
    23
 73
    19
 74
     0
 42
0.000000001
 43
0.00000001
 40
0.0
 40
0.0
 40
0.0
 40
0.0
 40
0.0624997166435274
 40
0.1250000510287635
 40
0.1875001371205661
 40
0.2500000877569008
 40
0.3124997462983711
 40
0.3750000402416953
 40
0.4375002198048047
 40
0.4999999774886415
 40
0.5625003724826585
 40
0.6249992244562252
 40
0.6874995183995495
 40
0.7500004869981538
 40
0.8124989702654967
 40
0.8749990563572994
 40
0.9375001902376634
 40
1.0
 40
1.0
 40
1.0
 40
1.0
 10
2023.764646690832
 20
1834.707725563416
 30
0.0
 10
2023.110149993348
 20
1834.689182242447
 30
0.0
 10
2021.801150129395
 20
1834.652095417226
 30
0.0
 10
2019.856567474777
 20
1834.352673442647
 30
0.0
 10
2017.949616214783
 20
1833.877940268022
 30
0.0
 10
2016.098656617427
 20
1833.214915957843
 30
0.0
 10
2014.321552013252
 20
1832.37458171609
 30
0.0
 10
2012.635368883984
 20
1831.363874373067
 30
0.0
 10
2011.056406573376
 20
1830.192779695969
 30
0.0
 10
2009.599733368922
 20
1828.872649453518
 30
0.0
 10
2008.279587319557
 20
1827.416006118961
 30
0.0
 10
2007.108518002266
 20
1825.837035749506
 30
0.0
 10
2006.097780874924
 20
1824.150867390661
 30
0.0
 10
2005.257549293939
 20
1822.373717606665
 30
0.0
 10
2004.594429795296
 20
1820.522797834063
 30
0.0
 10
2004.119705650258
 20
1818.615845240975
 30
0.0
 10
2003.820351974689
 20
1816.671246661112
 30
0.0
 10
2003.783207835073
 20
1815.362240689598
 30
0.0
 10
2003.764635961995
 20
1814.707744636903
 30
0.0
  0
SPLINE
  5
13E
330
1F
100
AcDbEntity
  8
0
  6
Continuous
 62
     7
370
    15
100
AcDbSpline
210
0.0
220
0.0
230
1.0
 70
     8
 71
     3
 72
    23
 73
    19
 74
     0
 42
0.000000001
 43
0.00000001
 40
0.0
 40
0.0
 40
0.0
 40
0.0
 40
0.0624998389879225
 40
0.1250000633469296
 40
0.1875001786644473
 40
0.2499995846960809
 40
0.3124997246117152
 40
0.3750000477808516
 40
0.4374996912363153
 40
0.4999994122765495
 40
0.562499836496426
 40
0.6250000452852941
 40
0.6874998805625872
 40
0.7499995683295726
 40
0.8124998679021669
 40
0.8749999832196846
 40
0.9375002075786917
 40
1.0
 40
1.0
 40
1.0
 40
1.0
 10
2623.764640730367
 20
1484.707761326203
 30
0.0
 10
2623.746069353076
 20
1485.362257423203
 30
0.0
 10
2623.708926483984
 20
1486.671253652796
 30
0.0
 10
2623.40956870001
 20
1488.615841974196
 30
0.0
 10
2622.93484017121
 20
1490.522792074846
 30
0.0
 10
2622.271741482671
 20
1492.373720169162
 30
0.0
 10
2621.431488351691
 20
1494.150861372448
 30
0.0
 10
2620.420748566351
 20
1495.8370242987
 30
0.0
 10
2619.249710816731
 20
1497.416021095351
 30
0.0
 10
2617.929521619184
 20
1498.872634928503
 30
0.0
 10
2616.472881278039
 20
1500.192797751517
 30
0.0
 10
2614.893914684138
 20
1501.36389356565
 30
0.0
 10
2613.20771673313
 20
1502.374565805352
 30
0.0
 10
2611.430614799367
 20
1503.214897391161
 30
0.0
 10
2609.579666405878
 20
1503.877961795777
 30
0.0
 10
2607.672711467032
 20
1504.352700021999
 30
0.0
 10
2605.728122973019
 20
1504.652065182808
 30
0.0
 10
2604.419126150947
 20
1504.689183272168
 30
0.0
 10
2603.764630001531
 20
1504.707742252717
 30
0.0
  0
LINE
  5
13F
330
1F
100
AcDbEntity
  8
0
  6
Continuous
 62
     7
370
    15
100
AcDbLine
 10
1138.2730389411
 20
681.2082106589
 30
0.0
 11
1738.275566178
 21
681.2082106589
 31
0.0
  0
LINE
  5
140
330
1F
100
AcDbEntity
  8
0
  6
Continuous
 62
     7
370
    15
100
AcDbLine
 10
1738.2743144805
 20
857.084962201
 30
0.0
 11
1138.2742906386
 21
857.084962201
 31
0.0
  0
LINE
  5
141
330
1F
100
AcDbEntity
  8
0
  6
Continuous
 62
     7
370
    15
100
AcDbLine
 10
1748.2743049437
 20
753.776493144
 30
0.0
 11
1748.2743049437
 21
837.0849514722
 31
0.0
  0
LINE
  5
142
330
1F
100
AcDbEntity
  8
0
  6
Continuous
 62
     7
370
    15
100
AcDbLine
 10
1128.2743001754
 20
837.0849514722
 30
0.0
 11
1128.2743001754
 21
753.776493144
 31
0.0
  0
SPLINE
  5
143
330
1F
100
AcDbEntity
  8
0
  6
Continuous
 62
     7
370
    15
100
AcDbSpline
210
0.0
220
0.0
230
1.0
 70
    24
 71
     3
 72
    19
 73
    15
 74
     0
 42
0.000000001
 43
0.00000001
 40
0.0
 40
0.0
 40
0.0
 40
0.0
 40
0.0833366212378486
 40
0.166708887877801
 40
0.2499987573396093
 40
0.3333270143591615
 40
0.4167068497566553
 40
0.5000013296585774
 40
0.5833275605421147
 40
0.6667072495980686
 40
0.7500009643204405
 40
0.8333268955827823
 40
0.9166812783446324
 40
1.0
 40
1.0
 40
1.0
 40
1.0
 10
1748.274304943749
 20
743.9377928494577
 30
0.0
 10
1748.274304943749
 20
744.0196219381996
 30
0.0
 10
1748.274304943749
 20
744.1833151162717
 30
0.0
 10
1748.274304943749
 20
744.5930266771794
 30
0.0
 10
1748.274304943749
 20
745.1165991401018
 30
0.0
 10
1748.274304943749
 20
745.7586543484573
 30
0.0
 10
1748.274304943749
 20
746.5078666182867
 30
0.0
 10
1748.274304943749
 20
747.3547888522245
 30
0.0
 10
1748.274304943749
 20
748.2877318694844
 30
0.0
 10
1748.274304943749
 20
749.2944556152779
 30
0.0
 10
1748.274304943749
 20
750.3613034665021
 30
0.0
 10
1748.274304943749
 20
751.4738210343064
 30
0.0
 10
1748.274304943749
 20
752.6174111344966
 30
0.0
 10
1748.274304943749
 20
753.3901875881315
 30
0.0
 10
1748.274304943749
 20
753.7764931439523
 30
0.0
  0
SPLINE
  5
144
330
1F
100
AcDbEntity
  8
0
  6
Continuous
 62
     7
370
    15
100
AcDbSpline
210
0.0
220
0.0
230
1.0
 70
    24
 71
     3
 72
    19
 73
    15
 74
     0
 42
0.000000001
 43
0.00000001
 40
0.0
 40
0.0
 40
0.0
 40
0.0
 40
0.0833347761056984
 40
0.1667064811632209
 40
0.2499991490957342
 40
0.3333255200174393
 40
0.4167076261540442
 40
0.4999987050812021
 40
0.5833242720043221
 40
0.6667046187660639
 40
0.7500013684173611
 40
0.8333243106896109
 40
0.9166808009739388
 40
1.0
 40
1.0
 40
1.0
 40
1.0
 10
1128.274300175377
 20
753.7764931439523
 30
0.0
 10
1128.274300175377
 20
753.3901117616861
 30
0.0
 10
1128.274300175377
 20
752.6171777762046
 30
0.0
 10
1128.274300175377
 20
751.4736038890929
 30
0.0
 10
1128.274300175377
 20
750.3610218459053
 30
0.0
 10
1128.274300175377
 20
749.2941420152024
 30
0.0
 10
1128.274300175377
 20
748.2875123465094
 30
0.0
 10
1128.274300175377
 20
747.3545506596172
 30
0.0
 10
1128.274300175377
 20
746.5076321345193
 30
0.0
 10
1128.274300175377
 20
745.7585077692123
 30
0.0
 10
1128.274300175377
 20
745.1164493433637
 30
0.0
 10
1128.274300175377
 20
744.5929030919864
 30
0.0
 10
1128.274300175377
 20
744.1833027396708
 30
0.0
 10
1128.274300175377
 20
744.0196172721154
 30
0.0
 10
1128.274300175377
 20
743.9377928494577
 30
0.0
  0
SPLINE
  5
145
330
1F
100
AcDbEntity
  8
0
  6
Continuous
 62
     7
370
    15
100
AcDbSpline
210
0.0
220
0.0
230
1.0
 70
     8
 71
     3
 72
    19
 73
    15
 74
     0
 42
0.000000001
 43
0.00000001
 40
0.0
 40
0.0
 40
0.0
 40
0.0
 40
0.0833328666763345
 40
0.1666661291182063
 40
0.2499999447591986
 40
0.3333330086696698
 40
0.4166663168132775
 40
0.5
 40
0.5833336831867224
 40
0.6666669913303301
 40
0.7500000552408014
 40
0.8333338708817938
 40
0.9166671333236656
 40
1.0
 40
1.0
 40
1.0
 40
1.0
 10
1138.274290638634
 20
857.0849622010354
 30
0.0
 10
1137.837963054882
 20
857.0684427457356
 30
0.0
 10
1136.965305815165
 20
857.0354037566818
 30
0.0
 10
1135.678698822358
 20
856.7698188391928
 30
0.0
 10
1134.436528714141
 20
856.3507099185924
 30
0.0
 10
1133.259990844811
 20
855.7698582110456
 30
0.0
 10
1132.169274497806
 20
855.0412250157663
 30
0.0
 10
1131.183035915893
 20
854.1762264605196
 30
0.0
 10
1130.318037360647
 20
853.189987878607
 30
0.0
 10
1129.589404165367
 20
852.0992715316019
 30
0.0
 10
1129.008552457821
 20
850.9227336622715
 30
0.0
 10
1128.58944353722
 20
849.680563554055
 30
0.0
 10
1128.323858619731
 20
848.3939565612483
 30
0.0
 10
1128.290819630677
 20
847.5212993215308
 30
0.0
 10
1128.274300175377
 20
847.0849717377786
 30
0.0
  0
SPLINE
  5
146
330
1F
100
AcDbEntity
  8
0
  6
Continuous
 62
     7
370
    15
100
AcDbSpline
210
0.0
220
0.0
230
1.0
 70
    24
 71
     3
 72
    19
 73
    15
 74
     0
 42
0.000000001
 43
0.00000001
 40
0.0
 40
0.0
 40
0.0
 40
0.0
 40
0.083326131306501
 40
0.1667134470336788
 40
0.25000099404806
 40
0.3333198264380642
 40
0.4167135415109186
 40
0.5000002952723573
 40
0.5833193761947707
 40
0.6667120293801219
 40
0.7499986017068274
 40
0.8333179658155393
 40
0.9166892732576506
 40
1.0
 40
1.0
 40
1.0
 40
1.0
 10
1128.274300175377
 20
847.0849717377786
 30
0.0
 10
1128.274300175377
 20
847.0684838578227
 30
0.0
 10
1128.274300175377
 20
847.0354959912479
 30
0.0
 10
1128.274300175377
 20
846.7698724919187
 30
0.0
 10
1128.274300175377
 20
846.3505887426803
 30
0.0
 10
1128.274300175377
 20
845.7698928619127
 30
0.0
 10
1128.274300175377
 20
845.0412079410692
 30
0.0
 10
1128.274300175377
 20
844.1760584536894
 30
0.0
 10
1128.274300175377
 20
843.1899761451727
 30
0.0
 10
1128.274300175377
 20
842.099158361535
 30
0.0
 10
1128.274300175377
 20
840.9225652778514
 30
0.0
 10
1128.274300175377
 20
839.6805598243409
 30
0.0
 10
1128.274300175377
 20
838.3939196447053
 30
0.0
 10
1128.274300175377
 20
837.5211684623625
 30
0.0
 10
1128.274300175377
 20
837.0849514721994
 30
0.0
  0
SPLINE
  5
147
330
1F
100
AcDbEntity
  8
0
  6
Continuous
 62
     7
370
    15
100
AcDbSpline
210
0.0
220
0.0
230
1.0
 70
     8
 71
     3
 72
    19
 73
    15
 74
     0
 42
0.000000001
 43
0.00000001
 40
0.0
 40
0.0
 40
0.0
 40
0.0
 40
0.0833328666763345
 40
0.1666661291182063
 40
0.2499999447591986
 40
0.3333330086696698
 40
0.4166663168132775
 40
0.5
 40
0.5833336831867224
 40
0.6666669913303301
 40
0.7500000552408014
 40
0.8333338708817938
 40
0.9166671333236656
 40
1.0
 40
1.0
 40
1.0
 40
1.0
 10
1748.274304943749
 20
847.0849717377786
 30
0.0
 10
1748.257785488449
 20
847.5212993215308
 30
0.0
 10
1748.224746499395
 20
848.3939565612483
 30
0.0
 10
1747.959161581907
 20
849.6805635540549
 30
0.0
 10
1747.540052661306
 20
850.9227336622715
 30
0.0
 10
1746.959200953759
 20
852.0992715316019
 30
0.0
 10
1746.23056775848
 20
853.189987878607
 30
0.0
 10
1745.365569203233
 20
854.1762264605196
 30
0.0
 10
1744.379330621321
 20
855.0412250157661
 30
0.0
 10
1743.288614274315
 20
855.7698582110456
 30
0.0
 10
1742.112076404985
 20
856.3507099185923
 30
0.0
 10
1740.869906296769
 20
856.7698188391928
 30
0.0
 10
1739.583299303962
 20
857.0354037566818
 30
0.0
 10
1738.710642064244
 20
857.0684427457358
 30
0.0
 10
1738.274314480492
 20
857.0849622010354
 30
0.0
  0
SPLINE
  5
148
330
1F
100
AcDbEntity
  8
0
  6
Continuous
 62
     7
370
    15
100
AcDbSpline
210
0.0
220
0.0
230
1.0
 70
    24
 71
     3
 72
    19
 73
    15
 74
     0
 42
0.000000001
 43
0.00000001
 40
0.0
 40
0.0
 40
0.0
 40
0.0
 40
0.0833277462836927
 40
0.1667116766692191
 40
0.2500016004459946
 40
0.3333204013095104
 40
0.4167119751317242
 40
0.4999999493840838
 40
0.5833204261228356
 40
0.6667109451419667
 40
0.7499991888581106
 40
0.8333185214401329
 40
0.9166890566788958
 40
1.0
 40
1.0
 40
1.0
 40
1.0
 10
1748.274304943749
 20
837.0849514721994
 30
0.0
 10
1748.274304943749
 20
837.5212594819358
 30
0.0
 10
1748.274304943749
 20
838.394169684016
 30
0.0
 10
1748.274304943749
 20
839.6807927414067
 30
0.0
 10
1748.274304943749
 20
840.9228604530888
 30
0.0
 10
1748.274304943749
 20
842.0994672305645
 30
0.0
 10
1748.274304943749
 20
843.1902295530876
 30
0.0
 10
1748.274304943749
 20
844.1762979261031
 30
0.0
 10
1748.274304943749
 20
845.0414306441198
 30
0.0
 10
1748.274304943749
 20
845.770050150604
 30
0.0
 10
1748.274304943749
 20
846.3507026761839
 30
0.0
 10
1748.274304943749
 20
846.7699876352791
 30
0.0
 10
1748.274304943749
 20
847.0354560751313
 30
0.0
 10
1748.274304943749
 20
847.0684704513264
 30
0.0
 10
1748.274304943749
 20
847.0849717377786
 30
0.0
  0
LINE
  5
149
330
1F
100
AcDbEntity
  8
0
  6
Continuous
 62
     7
370
    15
100
AcDbLine
 10
1748.2743049437
 20
691.3695061921
 30
0.0
 11
1748.2743049437
 21
743.9377928495
 31
0.0
  0
LINE
  5
14A
330
1F
100
AcDbEntity
  8
0
  6
Continuous
 62
     7
370
    15
100
AcDbLine
 10
1128.2743001754
 20
743.9377928495
 30
0.0
 11
1128.2743001754
 21
691.3695061921
 31
0.0
  0
SPLINE
  5
14B
330
1F
100
AcDbEntity
  8
0
  6
Continuous
 62
     7
370
    15
100
AcDbSpline
210
0.0
220
0.0
230
1.0
 70
     8
 71
     3
 72
    19
 73
    15
 74
     0
 42
0.000000001
 43
0.00000001
 40
0.0
 40
0.0
 40
0.0
 40
0.0
 40
0.083333085757314
 40
0.1666666903704193
 40
0.2499997475558565
 40
0.3333325252511546
 40
0.4166659903743647
 40
0.4999993802560974
 40
0.5833333960486055
 40
0.6666668611718156
 40
0.7500000703872097
 40
0.833333432708321
 40
0.9166668521297091
 40
1.0
 40
1.0
 40
1.0
 40
1.0
 10
1738.274314480492
 20
681.208210658944
 30
0.0
 10
1738.710642875358
 20
681.2247332203422
 30
0.0
 10
1739.583302381796
 20
681.2577784460126
 30
0.0
 10
1740.869892793947
 20
681.5234054310093
 30
0.0
 10
1742.11209135278
 20
681.9424171444757
 30
0.0
 10
1743.288580593845
 20
682.5233628155592
 30
0.0
 10
1744.379285906598
 20
683.2519876991357
 30
0.0
 10
1745.365594238452
 20
684.1169110380913
 30
0.0
 10
1746.230526170344
 20
685.1032111357848
 30
0.0
 10
1746.959161670749
 20
686.1939187903546
 30
0.0
 10
1747.540070450628
 20
687.3704286484797
 30
0.0
 10
1747.959122323144
 20
688.6126167477469
 30
0.0
 10
1748.224711909661
 20
689.8992163519388
 30
0.0
 10
1748.257773950342
 20
690.771873339389
 30
0.0
 10
1748.274304943749
 20
691.208201122201
 30
0.0
  0
SPLINE
  5
14C
330
1F
100
AcDbEntity
  8
0
  6
Continuous
 62
     7
370
    15
100
AcDbSpline
210
0.0
220
0.0
230
1.0
 70
    24
 71
     3
 72
     9
 73
     5
 74
     0
 42
0.000000001
 43
0.00000001
 40
0.0
 40
0.0
 40
0.0
 40
0.0
 40
0.5000025517999878
 40
1.0
 40
1.0
 40
1.0
 40
1.0
 10
1748.274304943749
 20
691.208201122201
 30
0.0
 10
1748.274304943749
 20
691.2149499693462
 30
0.0
 10
1748.274304943749
 20
691.2284475947503
 30
0.0
 10
1748.274304943749
 20
691.3224868196457
 30
0.0
 10
1748.274304943749
 20
691.3695061921244
 30
0.0
  0
SPLINE
  5
14D
330
1F
100
AcDbEntity
  8
0
  6
Continuous
 62
     7
370
    15
100
AcDbSpline
210
0.0
220
0.0
230
1.0
 70
     8
 71
     3
 72
    19
 73
    15
 74
     0
 42
0.000000001
 43
0.00000001
 40
0.0
 40
0.0
 40
0.0
 40
0.0
 40
0.0833328827296798
 40
0.1666665937101366
 40
0.2499998771968837
 40
0.3333338589907132
 40
0.4166667178636207
 40
0.4999998532627045
 40
0.5833337902202301
 40
0.6666671765089789
 40
0.7500003068901536
 40
0.8333335903769007
 40
0.9166669309638705
 40
1.0
 40
1.0
 40
1.0
 40
1.0
 10
1138.274290638634
 20
681.208210658944
 30
0.0
 10
1137.837961955003
 20
681.2247196128685
 30
0.0
 10
1136.965300251043
 20
681.2577376848008
 30
0.0
 10
1135.678710410235
 20
681.5233911544159
 30
0.0
 10
1134.436513215605
 20
681.9424287220846
 30
0.0
 10
1133.260003456803
 20
682.5233404644722
 30
0.0
 10
1132.169276549473
 20
683.2519462261015
 30
0.0
 10
1131.183020764311
 20
684.1169236470272
 30
0.0
 10
1130.318076137653
 20
685.103207942926
 30
0.0
 10
1129.589444201594
 20
686.193919645852
 30
0.0
 10
1129.008534466744
 20
687.3704284193283
 30
0.0
 10
1128.589482849783
 20
688.612616808854
 30
0.0
 10
1128.323893196016
 20
689.899216336662
 30
0.0
 10
1128.290831164301
 20
690.7718733342969
 30
0.0
 10
1128.274300175377
 20
691.208201122201
 30
0.0
  0
SPLINE
  5
14E
330
1F
100
AcDbEntity
  8
0
  6
Continuous
 62
     7
370
    15
100
AcDbSpline
210
0.0
220
0.0
230
1.0
 70
    24
 71
     3
 72
     9
 73
     5
 74
     0
 42
0.000000001
 43
0.00000001
 40
0.0
 40
0.0
 40
0.0
 40
0.0
 40
0.4999974482000123
 40
1.0
 40
1.0
 40
1.0
 40
1.0
 10
1128.274300175377
 20
691.3695061921244
 30
0.0
 10
1128.274300175377
 20
691.3224868196457
 30
0.0
 10
1128.274300175377
 20
691.2284475947503
 30
0.0
 10
1128.274300175377
 20
691.2149499693461
 30
0.0
 10
1128.274300175377
 20
691.208201122201
 30
0.0
  0
LINE
  5
14F
330
1F
100
AcDbEntity
  8
0
  6
Continuous
 62
     7
370
    15
100
AcDbLine
 10
1748.2743049437
 20
257.0849681615
 30
0.0
 11
1748.2743049437
 21
657.2298506617
 31
0.0
  0
LINE
  5
150
330
1F
100
AcDbEntity
  8
0
  6
Continuous
 62
     7
370
    15
100
AcDbLine
 10
1128.2743001754
 20
657.2298506617
 30
0.0
 11
1128.2743001754
 21
257.0849681615
 31
0.0
  0
LINE
  5
151
330
1F
100
AcDbEntity
  8
0
  6
Continuous
 62
     7
370
    15
100
AcDbLine
 10
1138.2742906386
 20
237.0849574327
 30
0.0
 11
1738.2743144805
 21
237.0849574327
 31
0.0
  0
SPLINE
  5
152
330
1F
100
AcDbEntity
  8
0
  6
Continuous
 62
     7
370
    15
100
AcDbSpline
210
0.0
220
0.0
230
1.0
 70
    24
 71
     3
 72
    13
 73
     9
 74
     0
 42
0.000000001
 43
0.00000001
 40
0.0
 40
0.0
 40
0.0
 40
0.0
 40
0.1666539378238597
 40
0.3334253575693398
 40
0.5000002680934695
 40
0.6666381604031796
 40
0.8333782354699332
 40
1.0
 40
1.0
 40
1.0
 40
1.0
 10
1128.274300175377
 20
664.3009210347299
 30
0.0
 10
1128.274300175377
 20
663.9807596980568
 30
0.0
 10
1128.274300175377
 20
663.3402113284595
 30
0.0
 10
1128.274300175377
 20
662.2425776060614
 30
0.0
 10
1128.274300175377
 20
661.067831437083
 30
0.0
 10
1128.274300175377
 20
659.8253481954382
 30
0.0
 10
1128.274300175377
 20
658.5388346710216
 30
0.0
 10
1128.274300175377
 20
657.6660754170022
 30
0.0
 10
1128.274300175377
 20
657.2298506616715
 30
0.0
  0
SPLINE
  5
153
330
1F
100
AcDbEntity
  8
0
  6
Continuous
 62
     7
370
    15
100
AcDbSpline
210
0.0
220
0.0
230
1.0
 70
    24
 71
     3
 72
    13
 73
     9
 74
     0
 42
0.000000001
 43
0.00000001
 40
0.0
 40
0.0
 40
0.0
 40
0.0
 40
0.1666540202405317
 40
0.3334248485367269
 40
0.5000000536793222
 40
0.6666378296149014
 40
0.8333774520919244
 40
1.0
 40
1.0
 40
1.0
 40
1.0
 10
1748.274304943749
 20
657.2298506616715
 30
0.0
 10
1748.274304943749
 20
657.6661620763496
 30
0.0
 10
1748.274304943749
 20
658.5390907170381
 30
0.0
 10
1748.274304943749
 20
659.8255761998071
 30
0.0
 10
1748.274304943749
 20
661.0681336473052
 30
0.0
 10
1748.274304943749
 20
662.2428106907646
 30
0.0
 10
1748.274304943749
 20
663.3403596231537
 30
0.0
 10
1748.274304943749
 20
663.9808088713714
 30
0.0
 10
1748.274304943749
 20
664.3009210347299
 30
0.0
  0
SPLINE
  5
154
330
1F
100
AcDbEntity
  8
0
  6
Continuous
 62
     7
370
    15
100
AcDbSpline
210
0.0
220
0.0
230
1.0
 70
     8
 71
     3
 72
    19
 73
    15
 74
     0
 42
0.000000001
 43
0.00000001
 40
0.0
 40
0.0
 40
0.0
 40
0.0
 40
0.0833328666763345
 40
0.1666661291182063
 40
0.2499999447591986
 40
0.3333330086696698
 40
0.4166663168132775
 40
0.5
 40
0.5833336831867224
 40
0.6666669913303301
 40
0.7500000552408014
 40
0.8333338708817938
 40
0.9166671333236656
 40
1.0
 40
1.0
 40
1.0
 40
1.0
 10
1738.274314480492
 20
237.0849574326638
 30
0.0
 10
1738.710642064244
 20
237.1014768879635
 30
0.0
 10
1739.583299303962
 20
237.1345158770174
 30
0.0
 10
1740.869906296769
 20
237.4001007945065
 30
0.0
 10
1742.112076404985
 20
237.8192097151069
 30
0.0
 10
1743.288614274316
 20
238.4000614226536
 30
0.0
 10
1744.379330621321
 20
239.128694617933
 30
0.0
 10
1745.365569203233
 20
239.9936931731797
 30
0.0
 10
1746.23056775848
 20
240.9799317550922
 30
0.0
 10
1746.959200953759
 20
242.0706481020974
 30
0.0
 10
1747.540052661306
 20
243.2471859714277
 30
0.0
 10
1747.959161581907
 20
244.4893560796443
 30
0.0
 10
1748.224746499395
 20
245.7759630724509
 30
0.0
 10
1748.25778548845
 20
246.6486203121683
 30
0.0
 10
1748.274304943749
 20
247.0849478959207
 30
0.0
  0
SPLINE
  5
155
330
1F
100
AcDbEntity
  8
0
  6
Continuous
 62
     7
370
    15
100
AcDbSpline
210
0.0
220
0.0
230
1.0
 70
    24
 71
     3
 72
    19
 73
    15
 74
     0
 42
0.000000001
 43
0.00000001
 40
0.0
 40
0.0
 40
0.0
 40
0.0
 40
0.0833262191086167
 40
0.1667117605712583
 40
0.2499993953470982
 40
0.3333183155315271
 40
0.4167121184777112
 40
0.499998959999773
 40
0.5833181287168728
 40
0.666711924509208
 40
0.7499985845963452
 40
0.8333180365000421
 40
0.9166890614420432
 40
1.0
 40
1.0
 40
1.0
 40
1.0
 10
1748.274304943749
 20
247.0849478959206
 30
0.0
 10
1748.274304943749
 20
247.1014349830688
 30
0.0
 10
1748.274304943749
 20
247.134420895001
 30
0.0
 10
1748.274304943749
 20
247.4000518996604
 30
0.0
 10
1748.274304943749
 20
247.8193304779469
 30
0.0
 10
1748.274304943749
 20
248.4000267895375
 30
0.0
 10
1748.274304943749
 20
249.1287120354051
 30
0.0
 10
1748.274304943749
 20
249.9938597931358
 30
0.0
 10
1748.274304943749
 20
250.9799528584007
 30
0.0
 10
1748.274304943749
 20
252.0707512380573
 30
0.0
 10
1748.274304943749
 20
253.2473562616959
 30
0.0
 10
1748.274304943749
 20
254.4893554132482
 30
0.0
 10
1748.274304943749
 20
255.7760051020636
 30
0.0
 10
1748.274304943749
 20
256.6487520124747
 30
0.0
 10
1748.274304943749
 20
257.0849681614999
 30
0.0
  0
SPLINE
  5
156
330
1F
100
AcDbEntity
  8
0
  6
Continuous
 62
     7
370
    15
100
AcDbSpline
210
0.0
220
0.0
230
1.0
 70
     8
 71
     3
 72
    19
 73
    15
 74
     0
 42
0.000000001
 43
0.00000001
 40
0.0
 40
0.0
 40
0.0
 40
0.0
 40
0.0833328666763345
 40
0.1666661291182063
 40
0.2499999447591986
 40
0.3333330086696698
 40
0.4166663168132775
 40
0.5
 40
0.5833336831867224
 40
0.6666669913303301
 40
0.7500000552408014
 40
0.8333338708817938
 40
0.9166671333236656
 40
1.0
 40
1.0
 40
1.0
 40
1.0
 10
1128.274300175377
 20
247.0849478959207
 30
0.0
 10
1128.290819630677
 20
246.6486203121683
 30
0.0
 10
1128.323858619731
 20
245.775963072451
 30
0.0
 10
1128.58944353722
 20
244.4893560796444
 30
0.0
 10
1129.008552457821
 20
243.2471859714276
 30
0.0
 10
1129.589404165367
 20
242.0706481020974
 30
0.0
 10
1130.318037360647
 20
240.9799317550922
 30
0.0
 10
1131.183035915893
 20
239.9936931731797
 30
0.0
 10
1132.169274497806
 20
239.1286946179331
 30
0.0
 10
1133.259990844811
 20
238.4000614226536
 30
0.0
 10
1134.436528714141
 20
237.8192097151069
 30
0.0
 10
1135.678698822358
 20
237.4001007945064
 30
0.0
 10
1136.965305815165
 20
237.1345158770173
 30
0.0
 10
1137.837963054882
 20
237.1014768879635
 30
0.0
 10
1138.274290638634
 20
237.0849574326638
 30
0.0
  0
SPLINE
  5
157
330
1F
100
AcDbEntity
  8
0
  6
Continuous
 62
     7
370
    15
100
AcDbSpline
210
0.0
220
0.0
230
1.0
 70
    24
 71
     3
 72
    19
 73
    15
 74
     0
 42
0.000000001
 43
0.00000001
 40
0.0
 40
0.0
 40
0.0
 40
0.0
 40
0.0833279654881622
 40
0.1667119911380391
 40
0.2500013995904181
 40
0.3333202956438753
 40
0.4167130195733446
 40
0.5000010889804269
 40
0.5833202335664832
 40
0.6667124265251562
 40
0.7500007653963306
 40
0.8333201931689019
 40
0.9166889614979313
 40
1.0
 40
1.0
 40
1.0
 40
1.0
 10
1128.274300175377
 20
257.0849681614999
 30
0.0
 10
1128.274300175377
 20
256.6486600765925
 30
0.0
 10
1128.274300175377
 20
255.7757503738484
 30
0.0
 10
1128.274300175377
 20
254.4891328461979
 30
0.0
 10
1128.274300175377
 20
253.2470541715408
 30
0.0
 10
1128.274300175377
 20
252.0704438805132
 30
0.0
 10
1128.274300175377
 20
250.9796974359561
 30
0.0
 10
1128.274300175377
 20
249.9936324789989
 30
0.0
 10
1128.274300175377
 20
249.1284692776369
 30
0.0
 10
1128.274300175377
 20
248.399880010083
 30
0.0
 10
1128.274300175377
 20
247.8192147120704
 30
0.0
 10
1128.274300175377
 20
247.3999372458198
 30
0.0
 10
1128.274300175377
 20
247.1344606895923
 30
0.0
 10
1128.274300175377
 20
247.1014483491849
 30
0.0
 10
1128.274300175377
 20
247.0849478959207
 30
0.0
  0
LINE
  5
158
330
1F
100
AcDbEntity
  8
0
  6
Continuous
 62
     7
370
    15
100
AcDbLine
 10
1128.2743001754
 20
686.7273176431
 30
0.0
 11
1128.2743001754
 21
664.3009210347
 31
0.0
  0
LINE
  5
159
330
1F
100
AcDbEntity
  8
0
  6
Continuous
 62
     7
370
    15
100
AcDbLine
 10
1748.2743049437
 20
664.3009210347
 30
0.0
 11
1748.2743049437
 21
686.7273176431
 31
0.0
  0
LINE
  5
15A
330
1F
100
AcDbEntity
  8
0
  6
Continuous
 62
     7
370
    15
100
AcDbLine
 10
1128.2743001754
 20
691.1524558782
 30
0.0
 11
1128.2743001754
 21
689.7580499171
 31
0.0
  0
SPLINE
  5
15B
330
1F
100
AcDbEntity
  8
0
  6
Continuous
 62
     7
370
    15
100
AcDbSpline
210
0.0
220
0.0
230
1.0
 70
    24
 71
     3
 72
     9
 73
     5
 74
     0
 42
0.000000001
 43
0.00000001
 40
0.0
 40
0.0
 40
0.0
 40
0.0
 40
0.500005418814363
 40
1.0
 40
1.0
 40
1.0
 40
1.0
 10
1128.274300175377
 20
689.758049917138
 30
0.0
 10
1128.274300175377
 20
689.2223196771341
 30
0.0
 10
1128.274300175377
 20
688.1508708090914
 30
0.0
 10
1128.274300175377
 20
687.2018319366418
 30
0.0
 10
1128.274300175377
 20
686.7273176430825
 30
0.0
  0
SPLINE
  5
15C
330
1F
100
AcDbEntity
  8
0
  6
Continuous
 62
     7
370
    15
100
AcDbSpline
210
0.0
220
0.0
230
1.0
 70
    24
 71
     3
 72
     9
 73
     5
 74
     0
 42
0.000000001
 43
0.00000001
 40
0.0
 40
0.0
 40
0.0
 40
0.0
 40
0.4999945811856369
 40
1.0
 40
1.0
 40
1.0
 40
1.0
 10
1748.274304943749
 20
686.7273176430825
 30
0.0
 10
1748.274304943749
 20
687.2018319366418
 30
0.0
 10
1748.274304943749
 20
688.1508708090914
 30
0.0
 10
1748.274304943749
 20
689.2223196771341
 30
0.0
 10
1748.274304943749
 20
689.758049917138
 30
0.0
  0
LINE
  5
15D
330
1F
100
AcDbEntity
  8
0
  6
Continuous
 62
     7
370
    15
100
AcDbLine
 10
1748.2743049437
 20
689.7580499171
 30
0.0
 11
1748.2743049437
 21
691.1524558782
 31
0.0
  0
ARC
  5
15E
330
1F
100
AcDbEntity
  8
0
  6
Continuous
 62
     7
370
    15
100
AcDbCircle
 10
812.9471871418
 20
1092.7077541737
 30
0.0
 40
22.00000000000011
100
AcDbArc
 50
270.0
 51
0.0
  0
ARC
  5
15F
330
1F
100
AcDbEntity
  8
0
  6
Continuous
 62
     7
370
    15
100
AcDbCircle
 10
812.9471871418
 20
1092.7077541737
 30
0.0
 40
38.0
100
AcDbArc
 50
270.0
 51
0.0
  0
LINE
  5
160
330
1F
100
AcDbEntity
  8
0
  6
Continuous
 62
     7
370
    15
100
AcDbLine
 10
850.9471950096
 20
1238.7077545313
 30
0.0
 11
850.9471950096
 21
1264.7077476171
 31
0.0
  0
LINE
  5
161
330
1F
100
AcDbEntity
  8
0
  6
Continuous
 62
     7
370
    15
100
AcDbLine
 10
834.947192387
 20
1264.7077476171
 30
0.0
 11
834.947192387
 21
1238.7077545313
 31
0.0
  0
LINE
  5
162
330
1F
100
AcDbEntity
  8
0
  6
Continuous
 62
     7
370
    15
100
AcDbLine
 10
834.947192387
 20
1238.7077545313
 30
0.0
 11
834.947192387
 21
1092.7077529518
 31
0.0
  0
LINE
  5
163
330
1F
100
AcDbEntity
  8
0
  6
Continuous
 62
     7
370
    15
100
AcDbLine
 10
850.9471950096
 20
1092.7077529518
 30
0.0
 11
850.9471950096
 21
1238.7077545313
 31
0.0
  0
LINE
  5
164
330
1F
100
AcDbEntity
  8
0
  6
Continuous
 62
     7
370
    15
100
AcDbLine
 10
812.947177605
 20
1070.7077549336
 30
0.0
 11
292.9471966785
 21
1070.7077549336
 31
0.0
  0
LINE
  5
165
330
1F
100
AcDbEntity
  8
0
  6
Continuous
 62
     7
370
    15
100
AcDbLine
 10
292.9471966785
 20
1054.7077541737
 30
0.0
 11
812.947177605
 21
1054.7077541737
 31
0.0
  0
ARC
  5
166
330
1F
100
AcDbEntity
  8
0
  6
Continuous
 62
     7
370
    15
100
AcDbCircle
 10
292.9471871418
 20
1092.7077541737
 30
0.0
 40
22.0
100
AcDbArc
 50
180.0
 51
270.0
  0
ARC
  5
167
330
1F
100
AcDbEntity
  8
0
  6
Continuous
 62
     7
370
    15
100
AcDbCircle
 10
292.9471871418
 20
1092.7077541737
 30
0.0
 40
38.0
100
AcDbArc
 50
180.0
 51
270.0
  0
LINE
  5
168
330
1F
100
AcDbEntity
  8
0
  6
Continuous
 62
     7
370
    15
100
AcDbLine
 10
254.9471792739
 20
1264.7077476171
 30
0.0
 11
254.9471792739
 21
1238.7077545313
 31
0.0
  0
LINE
  5
169
330
1F
100
AcDbEntity
  8
0
  6
Continuous
 62
     7
370
    15
100
AcDbLine
 10
270.9471818966
 20
1238.7077545313
 30
0.0
 11
270.9471818966
 21
1264.7077476171
 31
0.0
  0
LINE
  5
16A
330
1F
100
AcDbEntity
  8
0
  6
Continuous
 62
     7
370
    15
100
AcDbLine
 10
270.9471818966
 20
1092.7077529518
 30
0.0
 11
270.9471818966
 21
1238.7077545313
 31
0.0
  0
LINE
  5
16B
330
1F
100
AcDbEntity
  8
0
  6
Continuous
 62
     7
370
    15
100
AcDbLine
 10
254.9471792739
 20
1238.7077545313
 30
0.0
 11
254.9471792739
 21
1092.7077529518
 31
0.0
  0
LINE
  5
16C
330
1F
100
AcDbEntity
  8
0
  6
Continuous
 62
     7
370
    15
100
AcDbLine
 10
252.9471752208
 20
1264.7077476171
 30
0.0
 11
852.9471990627
 21
1264.7077476171
 31
0.0
  0
LINE
  5
16D
330
1F
100
AcDbEntity
  8
0
  6
Continuous
 62
     7
370
    15
100
AcDbLine
 10
687.3930332225
 20
1529.1599219231
 30
0.0
 11
739.9613198799
 21
1818.2854538349
 31
0.0
  0
LINE
  5
16E
330
1F
100
AcDbEntity
  8
0
  6
Continuous
 62
     7
370
    15
100
AcDbLine
 10
759.6387204689
 20
1834.7077255634
 30
0.0
 11
842.9471787971
 21
1834.7077255634
 31
0.0
  0
LINE
  5
16F
330
1F
100
AcDbEntity
  8
0
  6
Continuous
 62
     7
370
    15
100
AcDbLine
 10
677.2342112821
 20
1498.8498871712
 30
0.0
 11
699.6606227916
 21
1476.4234905628
 31
0.0
  0
LINE
  5
170
330
1F
100
AcDbEntity
  8
0
  6
Continuous
 62
     7
370
    15
100
AcDbLine
 10
262.9471954864
 20
1504.7077422527
 30
0.0
 11
663.0920779866
 21
1504.7077422527
 31
0.0
  0
LINE
  5
171
330
1F
100
AcDbEntity
  8
0
  6
Continuous
 62
     7
370
    15
100
AcDbLine
 10
713.8027486366
 20
1490.5656164078
 30
0.0
 11
692.9282930654
 21
1511.4400868801
 31
0.0
  0
LINE
  5
172
330
1F
100
AcDbEntity
  8
0
  6
Continuous
 62
     7
370
    15
100
AcDbLine
 10
852.9471990627
 20
1264.7077476171
 30
0.0
 11
862.9471895259
 21
1264.7077476171
 31
0.0
  0
LINE
  5
173
330
1F
100
AcDbEntity
  8
0
  6
Continuous
 62
     7
370
    15
100
AcDbLine
 10
862.9471895259
 20
1264.7077476171
 30
0.0
 11
862.9471895259
 21
1814.7077446369
 31
0.0
  0
LINE
  5
174
330
1F
100
AcDbEntity
  8
0
  6
Continuous
 62
     7
370
    15
100
AcDbLine
 10
242.9471847576
 20
1264.7077476171
 30
0.0
 11
252.9471752208
 21
1264.7077476171
 31
0.0
  0
LINE
  5
175
330
1F
100
AcDbEntity
  8
0
  6
Continuous
 62
     7
370
    15
100
AcDbLine
 10
242.9471847576
 20
1264.7077476171
 30
0.0
 11
242.9471847576
 21
1484.7077613262
 31
0.0
  0
SPLINE
  5
176
330
1F
100
AcDbEntity
  8
0
  6
Continuous
 62
     7
370
    15
100
AcDbSpline
210
0.0
220
0.0
230
1.0
 70
     8
 71
     3
 72
    23
 73
    19
 74
     0
 42
0.000000001
 43
0.00000001
 40
0.0
 40
0.0
 40
0.0
 40
0.0
 40
0.0625000531327344
 40
0.125000239847609
 40
0.1874997741846592
 40
0.2500000081217627
 40
0.3125000544100124
 40
0.375000384934378
 40
0.4375000038336085
 40
0.4999996584346417
 40
0.5624994282808811
 40
0.6250004078214725
 40
0.6874989191462099
 40
0.7499989564700211
 40
0.8124991104784284
 40
0.8749993036174576
 40
0.9374997318566612
 40
1.0
 40
1.0
 40
1.0
 40
1.0
 10
759.6387204688651
 20
1834.707725563416
 30
0.0
 10
759.0591597052284
 20
1834.693178265105
 30
0.0
 10
757.9000369392525
 20
1834.664083637391
 30
0.0
 10
756.1745004415358
 20
1834.429178880687
 30
0.0
 10
754.4750933539946
 20
1834.056320675458
 30
0.0
 10
752.8147342027576
 20
1833.534236132813
 30
0.0
 10
751.2058732662127
 20
1832.870848886437
 30
0.0
 10
749.6607320033719
 20
1832.070012878824
 30
0.0
 10
748.1909509378895
 20
1831.138119105087
 30
0.0
 10
746.8076121200068
 20
1830.082150976081
 30
0.0
 10
745.5211855495688
 20
1828.910035638534
 30
0.0
 10
744.3414458905813
 20
1827.630627097471
 30
0.0
 10
743.2771032367583
 20
1826.253692513632
 30
0.0
 10
742.336594333762
 20
1824.789482561519
 30
0.0
 10
741.5259847726151
 20
1823.24925975878
 30
0.0
 10
740.8550368828511
 20
1821.643999145313
 30
0.0
 10
740.3153036733304
 20
1819.98828542271
 30
0.0
 10
740.0793143769455
 20
1818.853063879522
 30
0.0
 10
739.9613198798758
 20
1818.285453834901
 30
0.0
  0
SPLINE
  5
177
330
1F
100
AcDbEntity
  8
0
  6
Continuous
 62
     7
370
    15
100
AcDbSpline
210
0.0
220
0.0
230
1.0
 70
     8
 71
     3
 72
    15
 73
    11
 74
     0
 42
0.000000001
 43
0.00000001
 40
0.0
 40
0.0
 40
0.0
 40
0.0
 40
0.1249997873933766
 40
0.2500005798218979
 40
0.3749998370990308
 40
0.5000000642575206
 40
0.6250002103562097
 40
0.7499999744266803
 40
0.8749999474953065
 40
1.0
 40
1.0
 40
1.0
 40
1.0
 10
677.2342112821203
 20
1498.849887171159
 30
0.0
 10
676.7582823931126
 20
1499.299557241244
 30
0.0
 10
675.8064207884884
 20
1500.198900996892
 30
0.0
 10
674.2197232184986
 20
1501.362254546029
 30
0.0
 10
672.5355986422692
 20
1502.375010548648
 30
0.0
 10
670.7579353838088
 20
1503.214774247695
 30
0.0
 10
668.9071389119705
 20
1503.877994128873
 30
0.0
 10
667.0001510246018
 20
1504.352691370675
 30
0.0
 10
665.055575650671
 20
1504.652068125297
 30
0.0
 10
663.7465773465887
 20
1504.689184206313
 30
0.0
 10
663.0920779865843
 20
1504.707742252717
 30
0.0
  0
ARC
  5
178
330
1F
100
AcDbEntity
  8
0
  6
Continuous
 62
     7
370
    15
100
AcDbCircle
 10
706.7316879638
 20
1483.4945507376
 30
0.0
 40
10.00000000058828
100
AcDbArc
 50
224.9999999943
 51
45.0000000023
  0
SPLINE
  5
179
330
1F
100
AcDbEntity
  8
0
  6
Continuous
 62
     7
370
    15
100
AcDbSpline
210
0.0
220
0.0
230
1.0
 70
     8
 71
     3
 72
    23
 73
    19
 74
     0
 42
0.000000001
 43
0.00000001
 40
0.0
 40
0.0
 40
0.0
 40
0.0
 40
0.0624997924213083
 40
0.1250000167803154
 40
0.187500132097833
 40
0.2500004316704273
 40
0.3125001194374127
 40
0.3749999547147058
 40
0.437500163503574
 40
0.5000005877234505
 40
0.5625003087636847
 40
0.6249999522191484
 40
0.6875002753882848
 40
0.7500004153039191
 40
0.8124998213355527
 40
0.8749999366530704
 40
0.9375001610120774
 40
1.0
 40
1.0
 40
1.0
 40
1.0
 10
262.9471954864126
 20
1504.707742252717
 30
0.0
 10
262.2926993369966
 20
1504.689183272168
 30
0.0
 10
260.9837025149247
 20
1504.652065182808
 30
0.0
 10
259.0391140209111
 20
1504.352700021999
 30
0.0
 10
257.132159082066
 20
1503.877961795778
 30
0.0
 10
255.2812106885769
 20
1503.214897391161
 30
0.0
 10
253.5041087548135
 20
1502.374565805352
 30
0.0
 10
251.817910803806
 20
1501.363893565651
 30
0.0
 10
250.2389442099041
 20
1500.192797751517
 30
0.0
 10
248.78230386876
 20
1498.872634928503
 30
0.0
 10
247.4621146712132
 20
1497.41602109535
 30
0.0
 10
246.2910769215916
 20
1495.837024298701
 30
0.0
 10
245.2803371362521
 20
1494.150861372448
 30
0.0
 10
244.4400840052726
 20
1492.373720169162
 30
0.0
 10
243.7769853167335
 20
1490.522792074845
 30
0.0
 10
243.3022567879335
 20
1488.615841974196
 30
0.0
 10
243.0028990039596
 20
1486.671253652796
 30
0.0
 10
242.9657561348675
 20
1485.362257423203
 30
0.0
 10
242.9471847575765
 20
1484.707761326204
 30
0.0
  0
SPLINE
  5
17A
330
1F
100
AcDbEntity
  8
0
  6
Continuous
 62
     7
370
    15
100
AcDbSpline
210
0.0
220
0.0
230
1.0
 70
     8
 71
     3
 72
     9
 73
     5
 74
     0
 42
0.000000001
 43
0.00000001
 40
0.0
 40
0.0
 40
0.0
 40
0.0
 40
0.5000043003108676
 40
1.0
 40
1.0
 40
1.0
 40
1.0
 10
687.3930332225424
 20
1529.159921923051
 30
0.0
 10
687.2990230387951
 20
1528.567260623905
 30
0.0
 10
687.1110042883787
 20
1527.381948220035
 30
0.0
 10
687.0839600078316
 20
1526.182121116961
 30
0.0
 10
687.0704379838569
 20
1525.582212725053
 30
0.0
  0
SPLINE
  5
17B
330
1F
100
AcDbEntity
  8
0
  6
Continuous
 62
     7
370
    15
100
AcDbSpline
210
0.0
220
0.0
230
1.0
 70
     8
 71
     3
 72
    15
 73
    11
 74
     0
 42
0.000000001
 43
0.00000001
 40
0.0
 40
0.0
 40
0.0
 40
0.0
 40
0.1249997148500289
 40
0.2500002470129804
 40
0.3750005610928076
 40
0.5000012436830341
 40
0.6250002969001963
 40
0.7500005387887192
 40
0.8750004744752661
 40
1.0
 40
1.0
 40
1.0
 40
1.0
 10
687.0704379838569
 20
1525.582212725053
 30
0.0
 10
687.0890025196267
 20
1524.927715924877
 30
0.0
 10
687.1261317125507
 20
1523.618718045085
 30
0.0
 10
687.4255028322746
 20
1521.674139791943
 30
0.0
 10
687.9002006810525
 20
1519.767144141119
 30
0.0
 10
688.5634199559462
 20
1517.916350115701
 30
0.0
 10
689.4031694696484
 20
1516.138678928625
 30
0.0
 10
690.4159411152465
 20
1514.454571903148
 30
0.0
 10
691.5792774426824
 20
1512.867864721566
 30
0.0
 10
692.4786216830074
 20
1511.916012306701
 30
0.0
 10
692.928293065415
 20
1511.440086880098
 30
0.0
  0
SPLINE
  5
17C
330
1F
100
AcDbEntity
  8
0
  6
Continuous
 62
     7
370
    15
100
AcDbSpline
210
0.0
220
0.0
230
1.0
 70
     8
 71
     3
 72
    23
 73
    19
 74
     0
 42
0.000000001
 43
0.00000001
 40
0.0
 40
0.0
 40
0.0
 40
0.0
 40
0.0624998097623367
 40
0.1250009436427007
 40
0.1875010297345033
 40
0.2499995130018462
 40
0.3125004816004506
 40
0.3750007755437748
 40
0.4374996275173416
 40
0.5000000225113586
 40
0.5624997801951954
 40
0.6249999597583047
 40
0.6875002537016289
 40
0.7499999122430991
 40
0.8124998628794339
 40
0.8749999489712365
 40
0.9375002833564725
 40
1.0
 40
1.0
 40
1.0
 40
1.0
 10
862.9471895259481
 20
1814.707744636903
 30
0.0
 10
862.9286176528711
 20
1815.362240689598
 30
0.0
 10
862.8914735132541
 20
1816.671246661112
 30
0.0
 10
862.5921198376855
 20
1818.615845240975
 30
0.0
 10
862.1173956926472
 20
1820.522797834063
 30
0.0
 10
861.4542761940052
 20
1822.373717606665
 30
0.0
 10
860.6140446130196
 20
1824.150867390661
 30
0.0
 10
859.6033074856776
 20
1825.837035749506
 30
0.0
 10
858.4322381683868
 20
1827.416006118961
 30
0.0
 10
857.1120921190213
 20
1828.872649453517
 30
0.0
 10
855.6554189145679
 20
1830.192779695969
 30
0.0
 10
854.0764566039591
 20
1831.363874373067
 30
0.0
 10
852.3902734746918
 20
1832.37458171609
 30
0.0
 10
850.6131688705162
 20
1833.214915957842
 30
0.0
 10
848.7622092731605
 20
1833.877940268022
 30
0.0
 10
846.8552580131671
 20
1834.352673442647
 30
0.0
 10
844.910675358549
 20
1834.652095417226
 30
0.0
 10
843.601675494595
 20
1834.689182242447
 30
0.0
 10
842.9471787971121
 20
1834.707725563416
 30
0.0
  0
ENDSEC
  0
SECTION
  2
OBJECTS
  0
DICTIONARY
  5
C
330
0
100
AcDbDictionary
281
     1
  3
ACAD_DETAILVIEWSTYLE
350
181
  3
ACAD_GROUP
350
D
  3
ACAD_LAYOUT
350
1A
  3
ACAD_MATERIAL
350
43
  3
ACAD_MLEADERSTYLE
350
180
  3
ACAD_MLINESTYLE
350
17
  3
ACAD_PLOTSETTINGS
350
19
  3
ACAD_PLOTSTYLENAME
350
E
  3
ACAD_SCALELIST
350
47
  3
ACAD_SECTIONVIEWSTYLE
350
182
  3
ACAD_TABLESTYLE
350
17F
  3
AcDbVariableDictionary
350
17D
  0
DICTIONARY
  5
181
102
{ACAD_REACTORS
330
C
102
}
330
C
100
AcDbDictionary
281
     1
  0
DICTIONARY
  5
D
102
{ACAD_REACTORS
330
C
102
}
330
C
100
AcDbDictionary
281
     1
  0
DICTIONARY
  5
1A
102
{ACAD_REACTORS
330
C
102
}
330
C
100
AcDbDictionary
281
     1
  3
Layout1
350
1E
  3
Layout2
350
26
  3
Model
350
22
  0
DICTIONARY
  5
43
102
{ACAD_REACTORS
330
C
102
}
330
C
100
AcDbDictionary
281
     1
  3
ByBlock
350
45
  3
ByLayer
350
44
  3
Global
350
46
  0
DICTIONARY
  5
180
102
{ACAD_REACTORS
330
C
102
}
330
C
100
AcDbDictionary
281
     1
  0
DICTIONARY
  5
17
102
{ACAD_REACTORS
330
C
102
}
330
C
100
AcDbDictionary
281
     1
  3
Standard
350
18
  0
DICTIONARY
  5
19
102
{ACAD_REACTORS
330
C
102
}
330
C
100
AcDbDictionary
281
     1
  0
ACDBDICTIONARYWDFLT
  5
E
102
{ACAD_REACTORS
330
C
102
}
330
C
100
AcDbDictionary
281
     1
  3
Normal
350
F
100
AcDbDictionaryWithDefault
340
F
  0
DICTIONARY
  5
47
102
{ACAD_REACTORS
330
C
102
}
330
C
100
AcDbDictionary
281
     1
  3
A0
350
48
  3
A1
350
49
  3
A2
350
4A
  3
A3
350
4B
  3
A4
350
4C
  3
A5
350
4D
  3
A6
350
4E
  3
A7
350
4F
  3
A8
350
50
  3
A9
350
51
  3
B0
350
52
  3
B1
350
53
  3
B2
350
54
  3
B3
350
55
  3
B4
350
56
  3
B5
350
57
  3
B6
350
58
  3
B7
350
59
  3
B8
350
5A
  3
B9
350
5B
  3
C0
350
5C
  3
C1
350
5D
  3
C2
350
5E
  3
C3
350
5F
  3
C4
350
60
  3
C5
350
61
  3
C6
350
62
  3
C7
350
63
  3
C8
350
64
  3
C9
350
65
  3
D0
350
66
  3
D1
350
67
  3
D2
350
68
  0
DICTIONARY
  5
182
102
{ACAD_REACTORS
330
C
102
}
330
C
100
AcDbDictionary
281
     1
  0
DICTIONARY
  5
17F
102
{ACAD_REACTORS
330
C
102
}
330
C
100
AcDbDictionary
281
     1
  0
DICTIONARY
  5
17D
102
{ACAD_REACTORS
330
C
102
}
330
C
100
AcDbDictionary
281
     1
  3
CANNOSCALE
350
17E
  0
LAYOUT
  5
1E
102
{ACAD_REACTORS
330
1A
102
}
330
1A
100
AcDbPlotSettings
  1

  2
none_device
  4

  6

 40
0.0
 41
0.0
 42
0.0
 43
0.0
 44
0.0
 45
0.0
 46
0.0
 47
0.0
 48
0.0
 49
0.0
140
0.0
141
0.0
142
1.0
143
1.0
 70
   688
 72
     1
 73
     0
 74
     5
  7

 75
    16
 76
     0
 77
     2
 78
   300
147
1.0
148
0.0
149
0.0
100
AcDbLayout
  1
Layout1
 70
     1
 71
     1
 10
0.0
 20
0.0
 11
420.0
 21
297.0
 12
0.0
 22
0.0
 32
0.0
 14
1.0000000000E+20
 24
1.0000000000E+20
 34
1.0000000000E+20
 15
-1.0000000000E+20
 25
-1.0000000000E+20
 35
-1.0000000000E+20
146
0.0
 13
0.0
 23
0.0
 33
0.0
 16
1.0
 26
0.0
 36
0.0
 17
0.0
 27
1.0
 37
0.0
 76
     0
330
1B
  0
LAYOUT
  5
26
102
{ACAD_REACTORS
330
1A
102
}
330
1A
100
AcDbPlotSettings
  1

  2
none_device
  4

  6

 40
0.0
 41
0.0
 42
0.0
 43
0.0
 44
0.0
 45
0.0
 46
0.0
 47
0.0
 48
0.0
 49
0.0
140
0.0
141
0.0
142
1.0
143
1.0
 70
   688
 72
     1
 73
     0
 74
     5
  7

 75
    16
 76
     0
 77
     2
 78
   300
147
1.0
148
0.0
149
0.0
100
AcDbLayout
  1
Layout2
 70
     1
 71
     2
 10
0.0
 20
0.0
 11
0.0
 21
0.0
 12
0.0
 22
0.0
 32
0.0
 14
0.0
 24
0.0
 34
0.0
 15
0.0
 25
0.0
 35
0.0
146
0.0
 13
0.0
 23
0.0
 33
0.0
 16
1.0
 26
0.0
 36
0.0
 17
0.0
 27
1.0
 37
0.0
 76
     0
330
23
  0
LAYOUT
  5
22
102
{ACAD_REACTORS
330
1A
102
}
330
1A
100
AcDbPlotSettings
  1

  2
none_device
  4
Letter_(8.50_x_11.00_Inches)
  6

 40
6.35
 41
6.35
 42
6.35000508
 43
6.35000508
 44
215.9
 45
279.4
 46
0.0
 47
0.0
 48
0.0
 49
0.0
140
0.0
141
0.0
142
1.0
143
1.0
 70
  1712
 72
     1
 73
     0
 74
     0
  7

 75
     0
 76
     0
 77
     2
 78
   300
147
1.0
148
0.0
149
0.0
100
AcDbLayout
  1
Model
 70
     1
 71
     0
 10
0.0
 20
0.0
 11
2970.0
 21
2100.0
 12
0.0
 22
0.0
 32
0.0
 14
0.0
 24
0.0
 34
0.0
 15
2970.0
 25
2100.0
 35
0.0
146
0.0
 13
0.0
 23
0.0
 33
0.0
 16
1.0
 26
0.0
 36
0.0
 17
0.0
 27
1.0
 37
0.0
 76
     0
330
1F
331
29
  0
MATERIAL
  5
45
102
{ACAD_REACTORS
330
43
102
}
330
43
100
AcDbMaterial
  1
ByBlock
  0
MATERIAL
  5
44
102
{ACAD_REACTORS
330
43
102
}
330
43
100
AcDbMaterial
  1
ByLayer
  0
MATERIAL
  5
46
102
{ACAD_REACTORS
330
43
102
}
330
43
100
AcDbMaterial
  1
Global
  0
MLINESTYLE
  5
18
102
{ACAD_REACTORS
330
17
102
}
330
17
100
AcDbMlineStyle
  2
Standard
 70
     0
  3

 62
   256
 51
90.0
 52
90.0
 71
     2
 49
0.5
 62
   256
  6
BYLAYER
 49
-0.5
 62
   256
  6
BYLAYER
  0
ACDBPLACEHOLDER
  5
F
102
{ACAD_REACTORS
330
E
102
}
330
E
  0
SCALE
  5
48
102
{ACAD_REACTORS
330
47
102
}
330
47
100
AcDbScale
 70
     0
300
1:1
140
1.0
141
1.0
290
     1
  0
SCALE
  5
49
102
{ACAD_REACTORS
330
47
102
}
330
47
100
AcDbScale
 70
     0
300
1:2
140
1.0
141
2.0
290
     0
  0
SCALE
  5
4A
102
{ACAD_REACTORS
330
47
102
}
330
47
100
AcDbScale
 70
     0
300
1:4
140
1.0
141
4.0
290
     0
  0
SCALE
  5
4B
102
{ACAD_REACTORS
330
47
102
}
330
47
100
AcDbScale
 70
     0
300
1:5
140
1.0
141
5.0
290
     0
  0
SCALE
  5
4C
102
{ACAD_REACTORS
330
47
102
}
330
47
100
AcDbScale
 70
     0
300
1:8
140
1.0
141
8.0
290
     0
  0
SCALE
  5
4D
102
{ACAD_REACTORS
330
47
102
}
330
47
100
AcDbScale
 70
     0
300
1:10
140
1.0
141
10.0
290
     0
  0
SCALE
  5
4E
102
{ACAD_REACTORS
330
47
102
}
330
47
100
AcDbScale
 70
     0
300
1:16
140
1.0
141
16.0
290
     0
  0
SCALE
  5
4F
102
{ACAD_REACTORS
330
47
102
}
330
47
100
AcDbScale
 70
     0
300
1:20
140
1.0
141
20.0
290
     0
  0
SCALE
  5
50
102
{ACAD_REACTORS
330
47
102
}
330
47
100
AcDbScale
 70
     0
300
1:30
140
1.0
141
30.0
290
     0
  0
SCALE
  5
51
102
{ACAD_REACTORS
330
47
102
}
330
47
100
AcDbScale
 70
     0
300
1:40
140
1.0
141
40.0
290
     0
  0
SCALE
  5
52
102
{ACAD_REACTORS
330
47
102
}
330
47
100
AcDbScale
 70
     0
300
1:50
140
1.0
141
50.0
290
     0
  0
SCALE
  5
53
102
{ACAD_REACTORS
330
47
102
}
330
47
100
AcDbScale
 70
     0
300
1:100
140
1.0
141
100.0
290
     0
  0
SCALE
  5
54
102
{ACAD_REACTORS
330
47
102
}
330
47
100
AcDbScale
 70
     0
300
2:1
140
2.0
141
1.0
290
     0
  0
SCALE
  5
55
102
{ACAD_REACTORS
330
47
102
}
330
47
100
AcDbScale
 70
     0
300
4:1
140
4.0
141
1.0
290
     0
  0
SCALE
  5
56
102
{ACAD_REACTORS
330
47
102
}
330
47
100
AcDbScale
 70
     0
300
8:1
140
8.0
141
1.0
290
     0
  0
SCALE
  5
57
102
{ACAD_REACTORS
330
47
102
}
330
47
100
AcDbScale
 70
     0
300
10:1
140
10.0
141
1.0
290
     0
  0
SCALE
  5
58
102
{ACAD_REACTORS
330
47
102
}
330
47
100
AcDbScale
 70
     0
300
100:1
140
100.0
141
1.0
290
     0
  0
SCALE
  5
59
102
{ACAD_REACTORS
330
47
102
}
330
47
100
AcDbScale
 70
     0
300
1/128" = 1'-0"
140
0.0078125
141
12.0
290
     0
  0
SCALE
  5
5A
102
{ACAD_REACTORS
330
47
102
}
330
47
100
AcDbScale
 70
     0
300
1/64" = 1'-0"
140
0.015625
141
12.0
290
     0
  0
SCALE
  5
5B
102
{ACAD_REACTORS
330
47
102
}
330
47
100
AcDbScale
 70
     0
300
1/32" = 1'-0"
140
0.03125
141
12.0
290
     0
  0
SCALE
  5
5C
102
{ACAD_REACTORS
330
47
102
}
330
47
100
AcDbScale
 70
     0
300
1/16" = 1'-0"
140
0.0625
141
12.0
290
     0
  0
SCALE
  5
5D
102
{ACAD_REACTORS
330
47
102
}
330
47
100
AcDbScale
 70
     0
300
3/32" = 1'-0"
140
0.09375
141
12.0
290
     0
  0
SCALE
  5
5E
102
{ACAD_REACTORS
330
47
102
}
330
47
100
AcDbScale
 70
     0
300
1/8" = 1'-0"
140
0.125
141
12.0
290
     0
  0
SCALE
  5
5F
102
{ACAD_REACTORS
330
47
102
}
330
47
100
AcDbScale
 70
     0
300
3/16" = 1'-0"
140
0.1875
141
12.0
290
     0
  0
SCALE
  5
60
102
{ACAD_REACTORS
330
47
102
}
330
47
100
AcDbScale
 70
     0
300
1/4" = 1'-0"
140
0.25
141
12.0
290
     0
  0
SCALE
  5
61
102
{ACAD_REACTORS
330
47
102
}
330
47
100
AcDbScale
 70
     0
300
3/8" = 1'-0"
140
0.375
141
12.0
290
     0
  0
SCALE
  5
62
102
{ACAD_REACTORS
330
47
102
}
330
47
100
AcDbScale
 70
     0
300
1/2" = 1'-0"
140
0.5
141
12.0
290
     0
  0
SCALE
  5
63
102
{ACAD_REACTORS
330
47
102
}
330
47
100
AcDbScale
 70
     0
300
3/4" = 1'-0"
140
0.75
141
12.0
290
     0
  0
SCALE
  5
64
102
{ACAD_REACTORS
330
47
102
}
330
47
100
AcDbScale
 70
     0
300
1" = 1'-0"
140
1.0
141
12.0
290
     0
  0
SCALE
  5
65
102
{ACAD_REACTORS
330
47
102
}
330
47
100
AcDbScale
 70
     0
300
1-1/2" = 1'-0"
140
1.5
141
12.0
290
     0
  0
SCALE
  5
66
102
{ACAD_REACTORS
330
47
102
}
330
47
100
AcDbScale
 70
     0
300
3" = 1'-0"
140
3.0
141
12.0
290
     0
  0
SCALE
  5
67
102
{ACAD_REACTORS
330
47
102
}
330
47
100
AcDbScale
 70
     0
300
6" = 1'-0"
140
6.0
141
12.0
290
     0
  0
SCALE
  5
68
102
{ACAD_REACTORS
330
47
102
}
330
47
100
AcDbScale
 70
     0
300
1'-0" = 1'-0"
140
12.0
141
12.0
290
     0
  0
DICTIONARYVAR
  5
17E
102
{ACAD_REACTORS
330
17D
102
}
330
17D
100
DictionaryVariables
280
     0
  1
1:1
  0
ENDSEC
  0
EOF
