  0
SECTION
  2
HEADER
  9
$ACADVER
  1
AC1018
  9
$ACADMAINTVER
 70
     0
  9
$DWGCODEPAGE
  3
ANSI_1252
  9
$INSBASE
 10
0.0
 20
0.0
 30
0.0
  9
$EXTMIN
 10
0.0
 20
0.0
 30
0.0
  9
$EXTMAX
 10
5940.0
 20
4200.0
 30
0.0
  9
$LIMMIN
 10
0.0
 20
0.0
  9
$LIMMAX
 10
5940.0
 20
4200.0
  9
$ORTHOMODE
 70
     0
  9
$REGENMODE
 70
     1
  9
$FILLMODE
 70
     1
  9
$QTEXTMODE
 70
     0
  9
$MIRRTEXT
 70
     1
  9
$LTSCALE
 40
20.0
  9
$ATTMODE
 70
     1
  9
$TEXTSIZE
 40
70.0
  9
$TRACEWID
 40
1.0
  9
$TEXTSTYLE
  7
Standard
  9
$CLAYER
  8
0
  9
$CELTYPE
  6
ByLayer
  9
$CECOLOR
 62
   256
  9
$CELTSCALE
 40
1.0
  9
$DISPSILH
 70
     0
  9
$DIMSCALE
 40
1.0
  9
$DIMASZ
 40
50.0
  9
$DIMEXO
 40
0.0
  9
$DIMDLI
 40
3.75
  9
$DIMRND
 40
0.0
  9
$DIMDLE
 40
0.0
  9
$DIMEXE
 40
20.0
  9
$DIMTP
 40
0.0
  9
$DIMTM
 40
0.0
  9
$DIMTXT
 40
60.0
  9
$DIMCEN
 40
2.5
  9
$DIMTSZ
 40
0.0
  9
$DIMTOL
 70
     0
  9
$DIMLIM
 70
     0
  9
$DIMTIH
 70
     1
  9
$DIMTOH
 70
     1
  9
$DIMSE1
 70
     0
  9
$DIMSE2
 70
     0
  9
$DIMTAD
 70
     1
  9
$DIMZIN
 70
     0
  9
$DIMBLK
  1

  9
$DIMASO
 70
     1
  9
$DIMSHO
 70
     1
  9
$DIMPOST
  1

  9
$DIMAPOST
  1

  9
$DIMALT
 70
     0
  9
$DIMALTD
 70
     3
  9
$DIMALTF
 40
0.0393700787
  9
$DIMLFAC
 40
1.0
  9
$DIMTOFL
 70
     1
  9
$DIMTVP
 40
0.0
  9
$DIMTIX
 70
     0
  9
$DIMSOXD
 70
     0
  9
$DIMSAH
 70
     0
  9
$DIMBLK1
  1

  9
$DIMBLK2
  1

  9
$DIMSTYLE
  2
ISO-25
  9
$DIMCLRD
 70
     0
  9
$DIMCLRE
 70
     0
  9
$DIMCLRT
 70
     0
  9
$DIMTFAC
 40
1.0
  9
$DIMGAP
 40
30.0
  9
$DIMJUST
 70
     0
  9
$DIMSD1
 70
     0
  9
$DIMSD2
 70
     0
  9
$DIMTOLJ
 70
     0
  9
$DIMTZIN
 70
     0
  9
$DIMALTZ
 70
     0
  9
$DIMALTTZ
 70
     0
  9
$DIMUPT
 70
     0
  9
$DIMDEC
 70
     1
  9
$DIMTDEC
 70
     1
  9
$DIMALTU
 70
     2
  9
$DIMALTTD
 70
     3
  9
$DIMTXSTY
  7
Standard
  9
$DIMAUNIT
 70
     0
  9
$DIMADEC
 70
     2
  9
$DIMALTRND
 40
0.0
  9
$DIMAZIN
 70
     0
  9
$DIMDSEP
 70
    44
  9
$DIMATFIT
 70
     3
  9
$DIMFRAC
 70
     0
  9
$DIMLDRBLK
  1

  9
$DIMLUNIT
 70
     2
  9
$DIMLWD
 70
    -2
  9
$DIMLWE
 70
    -2
  9
$DIMTMOVE
 70
     0
  9
$LUNITS
 70
     2
  9
$LUPREC
 70
     2
  9
$SKETCHINC
 40
1.0
  9
$FILLETRAD
 40
10.0
  9
$AUNITS
 70
     0
  9
$AUPREC
 70
     2
  9
$MENU
  1
.
  9
$ELEVATION
 40
0.0
  9
$PELEVATION
 40
0.0
  9
$THICKNESS
 40
0.0
  9
$LIMCHECK
 70
     0
  9
$CHAMFERA
 40
0.0
  9
$CHAMFERB
 40
0.0
  9
$CHAMFERC
 40
0.0
  9
$CHAMFERD
 40
0.0
  9
$SKPOLY
 70
     0
  9
$TDCREATE
 40
2457126.350491898
  9
$TDUCREATE
 40
2457126.267158565
  9
$TDUPDATE
 40
2457126.350492801
  9
$TDUUPDATE
 40
2457126.267159468
  9
$TDINDWG
 40
0.0000000116
  9
$TDUSRTIMER
 40
0.0000000116
  9
$USRTIMER
 70
     1
  9
$ANGBASE
 50
0.0
  9
$ANGDIR
 70
     0
  9
$PDMODE
 70
     0
  9
$PDSIZE
 40
-1.0
  9
$PLINEWID
 40
0.0
  9
$SPLFRAME
 70
     0
  9
$SPLINETYPE
 70
     6
  9
$SPLINESEGS
 70
     8
  9
$HANDSEED
  5
21B
  9
$SURFTAB1
 70
     6
  9
$SURFTAB2
 70
     6
  9
$SURFTYPE
 70
     6
  9
$SURFU
 70
     6
  9
$SURFV
 70
     6
  9
$UCSBASE
  2

  9
$UCSNAME
  2

  9
$UCSORG
 10
0.0
 20
0.0
 30
0.0
  9
$UCSXDIR
 10
1.0
 20
0.0
 30
0.0
  9
$UCSYDIR
 10
0.0
 20
1.0
 30
0.0
  9
$UCSORTHOREF
  2

  9
$UCSORTHOVIEW
 70
     0
  9
$UCSORGTOP
 10
0.0
 20
0.0
 30
0.0
  9
$UCSORGBOTTOM
 10
0.0
 20
0.0
 30
0.0
  9
$UCSORGLEFT
 10
0.0
 20
0.0
 30
0.0
  9
$UCSORGRIGHT
 10
0.0
 20
0.0
 30
0.0
  9
$UCSORGFRONT
 10
0.0
 20
0.0
 30
0.0
  9
$UCSORGBACK
 10
0.0
 20
0.0
 30
0.0
  9
$PUCSBASE
  2

  9
$PUCSNAME
  2

  9
$PUCSORG
 10
0.0
 20
0.0
 30
0.0
  9
$PUCSXDIR
 10
1.0
 20
0.0
 30
0.0
  9
$PUCSYDIR
 10
0.0
 20
1.0
 30
0.0
  9
$PUCSORTHOREF
  2

  9
$PUCSORTHOVIEW
 70
     0
  9
$PUCSORGTOP
 10
0.0
 20
0.0
 30
0.0
  9
$PUCSORGBOTTOM
 10
0.0
 20
0.0
 30
0.0
  9
$PUCSORGLEFT
 10
0.0
 20
0.0
 30
0.0
  9
$PUCSORGRIGHT
 10
0.0
 20
0.0
 30
0.0
  9
$PUCSORGFRONT
 10
0.0
 20
0.0
 30
0.0
  9
$PUCSORGBACK
 10
0.0
 20
0.0
 30
0.0
  9
$USERI1
 70
     0
  9
$USERI2
 70
     0
  9
$USERI3
 70
     0
  9
$USERI4
 70
     0
  9
$USERI5
 70
     0
  9
$USERR1
 40
0.0
  9
$USERR2
 40
0.0
  9
$USERR3
 40
0.0
  9
$USERR4
 40
0.0
  9
$USERR5
 40
0.0
  9
$WORLDVIEW
 70
     1
  9
$SHADEDGE
 70
     3
  9
$SHADEDIF
 70
    70
  9
$TILEMODE
 70
     1
  9
$MAXACTVP
 70
    64
  9
$PINSBASE
 10
0.0
 20
0.0
 30
0.0
  9
$PLIMCHECK
 70
     0
  9
$PEXTMIN
 10
1.0000000000E+20
 20
1.0000000000E+20
 30
1.0000000000E+20
  9
$PEXTMAX
 10
-1.0000000000E+20
 20
-1.0000000000E+20
 30
-1.0000000000E+20
  9
$PLIMMIN
 10
0.0
 20
0.0
  9
$PLIMMAX
 10
420.0
 20
297.0
  9
$UNITMODE
 70
     0
  9
$VISRETAIN
 70
     1
  9
$PLINEGEN
 70
     0
  9
$PSLTSCALE
 70
     1
  9
$TREEDEPTH
 70
  3020
  9
$CMLSTYLE
  2
Standard
  9
$CMLJUST
 70
     0
  9
$CMLSCALE
 40
20.0
  9
$PROXYGRAPHICS
 70
     1
  9
$MEASUREMENT
 70
     1
  9
$CELWEIGHT
370
    -1
  9
$ENDCAPS
280
     0
  9
$JOINSTYLE
280
     0
  9
$LWDISPLAY
290
     1
  9
$INSUNITS
 70
     4
  9
$HYPERLINKBASE
  1

  9
$STYLESHEET
  1

  9
$XEDIT
290
     1
  9
$CEPSNTYPE
380
     0
  9
$PSTYLEMODE
290
     1
  9
$FINGERPRINTGUID
  2
{1D82BDE1-506E-4E22-AAF1-E6AFDD3807FE}
  9
$VERSIONGUID
  2
{FAEB1C32-E019-11D5-929B-00C0DF256EC4}
  9
$EXTNAMES
290
     1
  9
$PSVPSCALE
 40
0.0
  9
$OLESTARTUP
290
     0
  9
$SORTENTS
280
   127
  9
$INDEXCTL
280
     0
  9
$HIDETEXT
280
     1
  9
$XCLIPFRAME
290
     0
  9
$HALOGAP
280
     0
  9
$OBSCOLOR
 70
   257
  9
$OBSLTYPE
280
     0
  9
$INTERSECTIONDISPLAY
280
     0
  9
$INTERSECTIONCOLOR
 70
   257
  9
$DIMASSOC
280
     2
  9
$PROJECTNAME
  1

  0
ENDSEC
  0
SECTION
  2
CLASSES
  0
CLASS
  1
ACDBDICTIONARYWDFLT
  2
AcDbDictionaryWithDefault
  3
ObjectDBX Classes
 90
        0
 91
        4
280
     0
281
     0
  0
CLASS
  1
VISUALSTYLE
  2
AcDbVisualStyle
  3
ObjectDBX Classes
 90
     4095
 91
        4
280
     0
281
     0
  0
CLASS
  1
MATERIAL
  2
AcDbMaterial
  3
ObjectDBX Classes
 90
     1153
 91
        4
280
     0
281
     0
  0
CLASS
  1
SCALE
  2
AcDbScale
  3
ObjectDBX Classes
 90
     1153
 91
        4
280
     0
281
     0
  0
CLASS
  1
SUN
  2
AcDbSun
  3
SCENEOE
 90
     1153
 91
        4
280
     0
281
     0
  0
CLASS
  1
DICTIONARYVAR
  2
AcDbDictionaryVar
  3
ObjectDBX Classes
 90
        0
 91
        4
280
     0
281
     0
  0
ENDSEC
  0
SECTION
  2
TABLES
  0
TABLE
  2
VPORT
  5
8
330
0
100
AcDbSymbolTable
 70
     1
  0
VPORT
  5
29
330
8
100
AcDbSymbolTableRecord
100
AcDbViewportTableRecord
  2
*Active
 70
     0
 10
0.0
 20
0.0
 11
1.0
 21
1.0
 12
2970.0
 22
2100.0
 13
0.0
 23
0.0
 14
10.0
 24
10.0
 15
10.0
 25
10.0
 16
0.0
 26
0.0
 36
1.0
 17
0.0
 27
0.0
 37
0.0
 40
4200.0
 41
1.4142857143
 42
50.0
 43
0.0
 44
0.0
 50
0.0
 51
0.0
 71
     0
 72
  2000
 73
     1
 74
     3
 75
     0
 76
     0
 77
     0
 78
     0
281
     0
 65
     1
110
0.0
120
0.0
130
0.0
111
1.0
121
0.0
131
0.0
112
0.0
122
1.0
132
0.0
 79
     0
146
0.0
  0
ENDTAB
  0
TABLE
  2
LTYPE
  5
5
330
0
100
AcDbSymbolTable
 70
     6
  0
LTYPE
  5
14
330
5
100
AcDbSymbolTableRecord
100
AcDbLinetypeTableRecord
  2
ByBlock
 70
     0
  3

 72
    65
 73
     0
 40
0.0
  0
LTYPE
  5
15
330
5
100
AcDbSymbolTableRecord
100
AcDbLinetypeTableRecord
  2
ByLayer
 70
     0
  3

 72
    65
 73
     0
 40
0.0
  0
LTYPE
  5
16
330
5
100
AcDbSymbolTableRecord
100
AcDbLinetypeTableRecord
  2
Continuous
 70
     0
  3
Solid line
 72
    65
 73
     0
 40
0.0
  0
LTYPE
  5
6A
330
5
100
AcDbSymbolTableRecord
100
AcDbLinetypeTableRecord
  2
HIDDEN
 70
     0
  3
Hidden __ __ __ __ __ __ __ __ __ __ __ __ __ __
 72
    65
 73
     2
 40
1.905
 49
1.27
 74
     0
 49
-0.635
 74
     0
  0
LTYPE
  5
6B
330
5
100
AcDbSymbolTableRecord
100
AcDbLinetypeTableRecord
  2
PHANTOM
 70
     0
  3
Phantom ______  __  __  ______  __  __  ______
 72
    65
 73
     6
 40
12.7
 49
6.35
 74
     0
 49
-1.27
 74
     0
 49
1.27
 74
     0
 49
-1.27
 74
     0
 49
1.27
 74
     0
 49
-1.27
 74
     0
  0
LTYPE
  5
6C
330
5
100
AcDbSymbolTableRecord
100
AcDbLinetypeTableRecord
  2
CENTER
 70
     0
  3
Center ____ _ ____ _ ____ _ ____ _ ____ _ ____
 72
    65
 73
     4
 40
10.16
 49
6.35
 74
     0
 49
-1.27
 74
     0
 49
1.27
 74
     0
 49
-1.27
 74
     0
  0
LTYPE
  5
6D
330
5
100
AcDbSymbolTableRecord
100
AcDbLinetypeTableRecord
  2
CENTERX2
 70
     0
  3
Center (2x) ________  __  ________  __  _____
 72
    65
 73
     4
 40
20.32
 49
12.7
 74
     0
 49
-2.54
 74
     0
 49
2.54
 74
     0
 49
-2.54
 74
     0
  0
LTYPE
  5
6E
330
5
100
AcDbSymbolTableRecord
100
AcDbLinetypeTableRecord
  2
DOT2
 70
     0
  3
Dot (.5x) ........................................
 72
    65
 73
     2
 40
0.635
 49
0.0
 74
     0
 49
-0.635
 74
     0
  0
ENDTAB
  0
TABLE
  2
LAYER
  5
2
330
0
100
AcDbSymbolTable
 70
     2
  0
LAYER
  5
10
330
2
100
AcDbSymbolTableRecord
100
AcDbLayerTableRecord
  2
0
 70
     0
 62
     7
  6
Continuous
370
    -3
390
F
  0
LAYER
  5
6F
330
2
100
AcDbSymbolTableRecord
100
AcDbLayerTableRecord
  2
FORMAT
 70
     0
 62
     7
  6
Continuous
370
    -3
390
F
  0
ENDTAB
  0
TABLE
  2
STYLE
  5
3
330
0
100
AcDbSymbolTable
 70
     2
  0
STYLE
  5
11
330
3
100
AcDbSymbolTableRecord
100
AcDbTextStyleTableRecord
  2
Standard
 70
     0
 40
0.0
 41
1.0
 50
0.0
 71
     0
 42
70.0
  3
txt
  4

  0
STYLE
  5
E3
330
3
100
AcDbSymbolTableRecord
100
AcDbTextStyleTableRecord
  2
SLDTEXTSTYLE0
 70
     0
 40
0.0
 41
0.605
 50
0.0
 71
     0
 42
70.0
  3
TXT
  4

  0
ENDTAB
  0
TABLE
  2
VIEW
  5
6
330
0
100
AcDbSymbolTable
 70
     0
  0
ENDTAB
  0
TABLE
  2
UCS
  5
7
330
0
100
AcDbSymbolTable
 70
     0
  0
ENDTAB
  0
TABLE
  2
APPID
  5
9
330
0
100
AcDbSymbolTable
 70
     1
  0
APPID
  5
12
330
9
100
AcDbSymbolTableRecord
100
AcDbRegAppTableRecord
  2
ACAD
 70
     0
  0
ENDTAB
  0
TABLE
  2
DIMSTYLE
  5
A
330
0
100
AcDbSymbolTable
 70
     1
100
AcDbDimStyleTable
  0
DIMSTYLE
105
27
330
A
100
AcDbSymbolTableRecord
100
AcDbDimStyleTableRecord
  2
ISO-25
 70
     0
 41
2.5
 42
0.625
 43
3.75
 44
1.25
 73
     0
 74
     0
 77
     1
 78
     8
140
2.5
141
2.5
143
0.0393700787
147
0.625
171
     3
172
     1
178
     0
271
     2
272
     2
274
     3
278
    44
283
     0
284
     8
340
11
  0
ENDTAB
  0
TABLE
  2
BLOCK_RECORD
  5
1
330
0
100
AcDbSymbolTable
 70
     3
  0
BLOCK_RECORD
  5
1F
330
1
100
AcDbSymbolTableRecord
100
AcDbBlockTableRecord
  2
*Model_Space
340
22
  0
BLOCK_RECORD
  5
1B
330
1
100
AcDbSymbolTableRecord
100
AcDbBlockTableRecord
  2
*Paper_Space
340
1E
  0
BLOCK_RECORD
  5
23
330
1
100
AcDbSymbolTableRecord
100
AcDbBlockTableRecord
  2
*Paper_Space0
340
26
  0
BLOCK_RECORD
  5
E7
330
1
100
AcDbSymbolTableRecord
100
AcDbBlockTableRecord
  2
SW_NOTE_0
340
0
102
{BLKREFS
331
EC
102
}
  0
BLOCK_RECORD
  5
EF
330
1
100
AcDbSymbolTableRecord
100
AcDbBlockTableRecord
  2
SW_NOTE_1
340
0
102
{BLKREFS
331
F4
102
}
  0
ENDTAB
  0
ENDSEC
  0
SECTION
  2
BLOCKS
  0
BLOCK
  5
20
330
1F
100
AcDbEntity
  8
0
100
AcDbBlockBegin
  2
*Model_Space
 70
     0
 10
0.0
 20
0.0
 30
0.0
  3
*Model_Space
  1
*Model_Space
  0
ENDBLK
  5
21
330
1F
100
AcDbEntity
  8
0
100
AcDbBlockEnd
  0
BLOCK
  5
1C
330
1B
100
AcDbEntity
 67
     1
  8
0
100
AcDbBlockBegin
  2
*Paper_Space
 70
     0
 10
0.0
 20
0.0
 30
0.0
  3
*Paper_Space
  1
*Paper_Space
  0
ENDBLK
  5
1D
330
1B
100
AcDbEntity
 67
     1
  8
0
100
AcDbBlockEnd
  0
BLOCK
  5
24
330
23
100
AcDbEntity
  8
0
100
AcDbBlockBegin
  2
*Paper_Space0
 70
     0
 10
0.0
 20
0.0
 30
0.0
  3
*Paper_Space0
  1
*Paper_Space0
  0
ENDBLK
  5
25
330
23
100
AcDbEntity
  8
0
100
AcDbBlockEnd
  0
BLOCK
  5
E8
330
E7
100
AcDbEntity
  8
0
100
AcDbBlockBegin
  2
SW_NOTE_0
 70
     0
 10
0.0
 20
0.0
 30
0.0
  3
SW_NOTE_0
  1
SW_NOTE_0
  0
MTEXT
  5
EA
330
E7
100
AcDbEntity
  8
0
  6
Continuous
 62
     0
370
     0
100
AcDbMText
 10
0.0
 20
46.4064386318
 30
0.0
 40
36.0
 41
0.0
 71
     1
 72
     1
  1
Questo disegno e posto sotto la tutela delle vigenti Leggi e non puo essere utilizzato da terze persone se non previa autorizzazione scritta della PEDRALI
  7
SLDTEXTSTYLE0
 73
     1
 44
1.0
  0
MTEXT
  5
EB
330
E7
100
AcDbEntity
  8
0
  6
Continuous
 62
     0
370
     0
100
AcDbMText
 10
2711.0438752174
 20
46.4064386318
 30
0.0
 40
36.0
 41
0.0
 71
     1
 72
     1
  1
S.p.A.
  7
SLDTEXTSTYLE0
 73
     1
 44
1.0
  0
ENDBLK
  5
E9
330
E7
100
AcDbEntity
  8
0
100
AcDbBlockEnd
  0
BLOCK
  5
F0
330
EF
100
AcDbEntity
  8
0
100
AcDbBlockBegin
  2
SW_NOTE_1
 70
     0
 10
0.0
 20
0.0
 30
0.0
  3
SW_NOTE_1
  1
SW_NOTE_1
  0
MTEXT
  5
F2
330
EF
100
AcDbEntity
  8
0
  6
Continuous
 62
     0
370
     0
100
AcDbMText
 10
65.8125
 20
46.4064386318
 30
0.0
 40
36.0
 41
0.0
 71
     2
 72
     1
  1
SCALA
  7
SLDTEXTSTYLE0
 73
     1
 44
1.0
  0
MTEXT
  5
F3
330
EF
100
AcDbEntity
  8
0
  6
Continuous
 62
     0
370
     0
100
AcDbMText
 10
71.2197080875
 20
-3.2793415293
 30
0.0
 40
74.0833333333
 41
0.0
 71
     2
 72
     1
  1
1:1
  7
SLDTEXTSTYLE0
 73
     1
 44
1.0
  0
ENDBLK
  5
F1
330
EF
100
AcDbEntity
  8
0
100
AcDbBlockEnd
  0
ENDSEC
  0
SECTION
  2
ENTITIES
  0
HATCH
  5
70
330
1F
100
AcDbEntity
  8
0
  6
Continuous
 62
     7
100
AcDbHatch
 10
0.0
 20
0.0
 30
0.0
210
0.0
220
0.0
230
1.0
  2
SOLID
 70
     1
 71
     0
 91
        2
 92
        0
 93
        6
 72
     1
 10
4680.486452840432
 20
638.6289643494189
 11
4713.29582174489
 21
638.6289643494189
 72
     3
 10
4702.157530314198
 20
663.9118880739095
 11
54.17769369596704
 21
0.0
 40
0.4768529109443384
 50
293.7756995582609
 51
426.2243004403791
 73
     1
 72
     1
 10
4713.295821745578
 20
689.1948117983324
 11
4647.979836622563
 21
689.1948117983324
 72
     1
 10
4647.979836622563
 20
689.1948117983324
 11
4647.979836622563
 21
609.7341943830162
 72
     1
 10
4647.979836622563
 20
609.7341943830162
 11
4680.486452840432
 21
609.7341943830162
 72
     1
 10
4680.486452840432
 20
609.7341943830162
 11
4680.486452840432
 21
638.6289643494189
 97
        0
 92
        0
 93
        6
 72
     3
 10
4700.351607193935
 20
663.9118880739095
 11
19.86515435528302
 21
0.0
 40
0.5895245510672578
 50
316.3365658560252
 51
403.663434144226
 73
     0
 72
     2
 10
4705.847761960841
 20
667.5237343201193
 40
14.44738498508822
 50
69.99121011132742
 51
90.0
 73
     0
 72
     1
 10
4705.847761960841
 20
653.0763493350311
 11
4680.486452839627
 21
653.0763493350311
 72
     1
 10
4680.486452839627
 20
653.0763493350311
 11
4680.486452839627
 21
674.74742681258
 72
     1
 10
4680.486452839627
 20
674.74742681258
 11
4705.847761962023
 21
674.74742681258
 72
     2
 10
4705.847761962023
 20
660.300041830948
 40
14.44738498163223
 50
270.0000000000008
 51
290.0087898889545
 73
     0
 97
        0
 75
     0
 76
     1
 98
        1
 10
0.0
 20
0.0
  0
HATCH
  5
71
330
1F
100
AcDbEntity
  8
0
  6
Continuous
 62
     7
100
AcDbHatch
 10
0.0
 20
0.0
 30
0.0
210
0.0
220
0.0
230
1.0
  2
SOLID
 70
     1
 71
     0
 91
        1
 92
        0
 93
       12
 72
     1
 10
4871.914303896247
 20
689.19481179508
 11
4763.558916507592
 21
689.19481179508
 72
     1
 10
4763.558916507592
 20
689.19481179508
 11
4763.558916507592
 21
609.7341943797641
 72
     1
 10
4763.558916507592
 20
609.7341943797641
 11
4871.914303896247
 21
609.7341943797641
 72
     1
 10
4871.914303896247
 20
609.7341943797641
 11
4871.914303896247
 21
624.1815793593399
 72
     1
 10
4871.914303896247
 20
624.1815793593399
 11
4799.677378970356
 21
624.1815793593399
 72
     1
 10
4799.677378970356
 20
624.1815793593399
 11
4799.677378970356
 21
642.2408105907215
 72
     1
 10
4799.677378970356
 20
642.2408105907215
 11
4864.690611406459
 21
642.2408105907215
 72
     1
 10
4864.690611406459
 20
642.2408105907215
 11
4864.690611406459
 21
656.68819557721
 72
     1
 10
4864.690611406459
 20
656.68819557721
 11
4799.677378970356
 21
656.68819557721
 72
     1
 10
4799.677378970356
 20
656.68819557721
 11
4799.677378970356
 21
674.7474268085915
 72
     1
 10
4799.677378970356
 20
674.7474268085915
 11
4871.914303896247
 21
674.7474268085915
 72
     1
 10
4871.914303896247
 20
674.7474268085915
 11
4871.914303896247
 21
689.19481179508
 97
        0
 75
     0
 76
     1
 98
        1
 10
0.0
 20
0.0
  0
HATCH
  5
72
330
1F
100
AcDbEntity
  8
0
  6
Continuous
 62
     7
100
AcDbHatch
 10
0.0
 20
0.0
 30
0.0
210
0.0
220
0.0
230
1.0
  2
SOLID
 70
     1
 71
     0
 91
        1
 92
        0
 93
        6
 72
     1
 10
5290.888468480091
 20
689.1948117991719
 11
5254.770006017327
 21
689.1948117991719
 72
     1
 10
5254.770006017327
 20
689.1948117991719
 11
5254.770006017327
 21
609.7341943838558
 72
     1
 10
5254.770006017327
 20
609.7341943838558
 11
5352.2898546713
 21
609.7341943838558
 72
     1
 10
5352.2898546713
 20
609.7341943838558
 11
5352.2898546713
 21
627.7934256152379
 72
     1
 10
5352.2898546713
 20
627.7934256152379
 11
5290.888468480091
 21
627.7934256152379
 72
     1
 10
5290.888468480091
 20
627.7934256152379
 11
5290.888468480091
 21
689.1948117991719
 97
        0
 75
     0
 76
     1
 98
        1
 10
0.0
 20
0.0
  0
HATCH
  5
73
330
1F
100
AcDbEntity
  8
0
  6
Continuous
 62
     7
100
AcDbHatch
 10
0.0
 20
0.0
 30
0.0
210
0.0
220
0.0
230
1.0
  2
SOLID
 70
     1
 71
     0
 91
        1
 92
        0
 93
        4
 72
     1
 10
5355.901700914674
 20
689.1948117983318
 11
5355.901700914674
 21
609.7341943830158
 72
     1
 10
5355.901700914674
 20
609.7341943830158
 11
5392.020163377438
 21
609.7341943830158
 72
     1
 10
5392.020163377438
 20
609.7341943830158
 11
5392.020163377438
 21
689.1948117983318
 72
     1
 10
5392.020163377438
 20
689.1948117983318
 11
5355.901700914674
 21
689.1948117983318
 97
        0
 75
     0
 76
     1
 98
        1
 10
0.0
 20
0.0
  0
HATCH
  5
74
330
1F
100
AcDbEntity
  8
0
  6
Continuous
 62
     7
100
AcDbHatch
 10
0.0
 20
0.0
 30
0.0
210
0.0
220
0.0
230
1.0
  2
SOLID
 70
     1
 71
     0
 91
        2
 92
        0
 93
        4
 72
     3
 10
4936.927536330169
 20
649.4645030852395
 11
57.78953994231173
 21
0.0
 40
0.6929224243374513
 50
280.2934314618138
 51
439.7065685387129
 73
     1
 72
     1
 10
4944.143052003127
 20
689.1948117951631
 11
4879.13799639333
 21
689.1948117951627
 72
     1
 10
4879.13799639333
 20
689.1948117951627
 11
4879.13799639333
 21
609.7341943753481
 72
     1
 10
4879.13799639333
 20
609.7341943753481
 11
4944.143052003497
 21
609.7341943753481
 97
        0
 92
        0
 93
        6
 72
     2
 10
4945.894345535996
 20
649.4645030843616
 40
21.67107747996031
 50
56.16906508602374
 51
90.0
 73
     0
 72
     1
 10
4945.894345535996
 20
627.7934256044016
 11
4911.64461260632
 21
627.7934256044016
 72
     1
 10
4911.64461260632
 20
627.7934256044016
 11
4911.64461260632
 21
671.135580565399
 72
     1
 10
4911.64461260632
 20
671.135580565399
 11
4945.894345535996
 21
671.135580565399
 72
     2
 10
4945.894345535996
 20
649.4645030843616
 40
21.67107748103741
 50
270.0000000000008
 51
303.8314447476077
 73
     0
 72
     3
 10
4924.286074475221
 20
649.4645030852395
 11
45.14807808009225
 21
0.0
 40
0.5985848325441405
 50
331.8713554011807
 51
388.1288999924611
 73
     0
 97
        0
 75
     0
 76
     1
 98
        1
 10
0.0
 20
0.0
  0
HATCH
  5
75
330
1F
100
AcDbEntity
  8
0
  6
Continuous
 62
     7
100
AcDbHatch
 10
0.0
 20
0.0
 30
0.0
210
0.0
220
0.0
230
1.0
  2
SOLID
 70
     1
 71
     0
 91
        3
 92
        0
 93
       19
 72
     1
 10
5117.740404385225
 20
629.5419159173709
 11
5120.711069301436
 21
617.9353088365406
 72
     2
 10
5130.907133275157
 20
620.228767934766
 40
10.45082174718682
 50
192.6768785101394
 51
204.7368873206736
 73
     1
 72
     1
 10
5121.415289755726
 20
615.855601828372
 11
5168.085696104947
 21
689.1948117991719
 72
     1
 10
5168.085696104947
 20
689.1948117991719
 11
5204.204158567712
 21
689.1948117991719
 72
     1
 10
5204.204158567712
 20
689.1948117991719
 11
5254.770006017327
 21
609.7341943838558
 72
     1
 10
5254.770006017327
 20
609.7341943838558
 11
5218.651543554198
 21
609.7341943838558
 72
     1
 10
5218.651543554198
 20
609.7341943838558
 11
5210.524889499912
 21
624.181579363432
 72
     1
 10
5210.524889499912
 20
624.181579363432
 11
5161.764965172743
 21
624.181579363432
 72
     1
 10
5161.764965172743
 20
624.181579363432
 11
5153.638311118458
 21
609.7341943838558
 72
     1
 10
5153.638311118458
 20
609.7341943838558
 11
5092.236924926212
 21
609.7341943838558
 72
     1
 10
5092.236924926212
 20
609.7341943838558
 11
5092.236924926212
 21
624.1815793653088
 72
     2
 10
5077.789539939723
 20
624.1815793653088
 40
14.44738498648845
 50
0.0
 51
90.0
 73
     1
 72
     1
 10
5077.789539939723
 20
638.6289643517968
 11
5041.671077476595
 21
638.6289643517968
 72
     1
 10
5041.671077476595
 20
638.6289643517968
 11
5041.671077476595
 21
609.7341943857328
 72
     1
 10
5041.671077476595
 20
609.7341943857328
 11
5009.164461258726
 21
609.7341943857328
 72
     1
 10
5009.164461258726
 20
609.7341943857328
 11
5009.164461258726
 21
689.1948118010488
 72
     1
 10
5009.164461258726
 20
689.1948118010488
 11
5084.038516611573
 21
689.1948118010488
 72
     3
 10
5076.059895413838
 20
665.8728041645936
 11
48.65333245070325
 21
0.0
 40
0.4859291160023137
 50
288.8861745463018
 51
398.6942257036357
 73
     0
 72
     2
 10
5098.075169859168
 20
625.9255921416673
 40
19.99498053551239
 50
279.2678272406082
 51
349.5800515720779
 73
     0
 97
        0
 92
        0
 93
        3
 72
     1
 10
5186.144927334808
 20
667.5237343188037
 11
5169.891619225873
 21
638.6289643458279
 72
     1
 10
5169.891619225873
 20
638.6289643458279
 11
5202.398235443744
 21
638.6289643458279
 72
     1
 10
5202.398235443744
 20
638.6289643458279
 11
5186.144927334808
 21
667.5237343188037
 97
        0
 92
        0
 93
        6
 72
     2
 10
5076.956344837342
 20
663.9118880748573
 40
10.83553874042872
 50
270.0000000000008
 51
305.5869104965606
 73
     1
 72
     3
 10
5065.148078082111
 20
663.9118880739095
 11
23.47700060163493
 21
0.0
 40
0.5900077182209745
 50
334.058541690378
 51
385.9414583083995
 73
     1
 72
     2
 10
5076.956344837342
 20
663.9118880748573
 40
10.83553873888645
 50
54.41308949502037
 51
90.0
 73
     1
 72
     1
 10
5076.956344837342
 20
674.7474268137444
 11
5041.671077475436
 21
674.7474268137444
 72
     1
 10
5041.671077475436
 20
674.7474268137444
 11
5041.671077475436
 21
653.076349334428
 72
     1
 10
5041.671077475436
 20
653.076349334428
 11
5076.956344837342
 21
653.0763493344286
 97
        0
 75
     0
 76
     1
 98
        1
 10
0.0
 20
0.0
  0
LINE
  5
76
330
1F
100
AcDbEntity
  8
0
  6
Continuous
 62
     7
370
    15
100
AcDbLine
 10
5740.0
 20
200.0
 30
0.0
 11
5740.0
 21
4000.0
 31
0.0
  0
LINE
  5
77
330
1F
100
AcDbEntity
  8
0
  6
Continuous
 62
   250
420
  1644836
370
     0
100
AcDbLine
 10
4647.9798366226
 20
689.1948117983
 30
0.0
 11
4647.9798366226
 21
609.734194383
 31
0.0
  0
LINE
  5
78
330
1F
100
AcDbEntity
  8
0
  6
Continuous
 62
   250
420
  1644836
370
     0
100
AcDbLine
 10
4647.9798366226
 20
689.1948117983
 30
0.0
 11
4713.2958217456
 21
689.1948117983
 31
0.0
  0
LINE
  5
79
330
1F
100
AcDbEntity
  8
0
  6
Continuous
 62
   250
420
  1644836
370
     0
100
AcDbLine
 10
4647.9798366226
 20
609.734194383
 30
0.0
 11
4680.4864528404
 21
609.734194383
 31
0.0
  0
LINE
  5
7A
330
1F
100
AcDbEntity
  8
0
  6
Continuous
 62
   250
420
  1644836
370
     0
100
AcDbLine
 10
4680.4864528404
 20
609.734194383
 30
0.0
 11
4680.4864528404
 21
638.6289643494
 31
0.0
  0
LINE
  5
7B
330
1F
100
AcDbEntity
  8
0
  6
Continuous
 62
   250
420
  1644836
370
     0
100
AcDbLine
 10
4713.2958217449
 20
638.6289643494
 30
0.0
 11
4680.4864528404
 21
638.6289643494
 31
0.0
  0
LINE
  5
7C
330
1F
100
AcDbEntity
  8
0
  6
Continuous
 62
   250
420
  1644836
370
     0
100
AcDbLine
 10
4680.4864528396
 20
653.076349335
 30
0.0
 11
4680.4864528396
 21
674.7474268126
 31
0.0
  0
LINE
  5
7D
330
1F
100
AcDbEntity
  8
0
  6
Continuous
 62
   250
420
  1644836
370
     0
100
AcDbLine
 10
4680.4864528396
 20
674.7474268126
 30
0.0
 11
4705.847761962
 21
674.7474268126
 31
0.0
  0
LINE
  5
7E
330
1F
100
AcDbEntity
  8
0
  6
Continuous
 62
   250
420
  1644836
370
     0
100
AcDbLine
 10
4680.4864528396
 20
653.076349335
 30
0.0
 11
4705.8477619608
 21
653.076349335
 31
0.0
  0
LINE
  5
7F
330
1F
100
AcDbEntity
  8
0
  6
Continuous
 62
   250
420
  1644836
370
     0
100
AcDbLine
 10
4763.5589165076
 20
689.1948117951
 30
0.0
 11
4871.9143038962
 21
689.1948117951
 31
0.0
  0
LINE
  5
80
330
1F
100
AcDbEntity
  8
0
  6
Continuous
 62
   250
420
  1644836
370
     0
100
AcDbLine
 10
4871.9143038962
 20
689.1948117951
 30
0.0
 11
4871.9143038962
 21
674.7474268086
 31
0.0
  0
LINE
  5
81
330
1F
100
AcDbEntity
  8
0
  6
Continuous
 62
   250
420
  1644836
370
     0
100
AcDbLine
 10
4871.9143038962
 20
674.7474268086
 30
0.0
 11
4799.6773789704
 21
674.7474268086
 31
0.0
  0
LINE
  5
82
330
1F
100
AcDbEntity
  8
0
  6
Continuous
 62
   250
420
  1644836
370
     0
100
AcDbLine
 10
4799.6773789704
 20
674.7474268086
 30
0.0
 11
4799.6773789704
 21
656.6881955772
 31
0.0
  0
LINE
  5
83
330
1F
100
AcDbEntity
  8
0
  6
Continuous
 62
   250
420
  1644836
370
     0
100
AcDbLine
 10
4799.6773789704
 20
656.6881955772
 30
0.0
 11
4864.6906114065
 21
656.6881955772
 31
0.0
  0
LINE
  5
84
330
1F
100
AcDbEntity
  8
0
  6
Continuous
 62
   250
420
  1644836
370
     0
100
AcDbLine
 10
4864.6906114065
 20
656.6881955772
 30
0.0
 11
4864.6906114065
 21
642.2408105907
 31
0.0
  0
LINE
  5
85
330
1F
100
AcDbEntity
  8
0
  6
Continuous
 62
   250
420
  1644836
370
     0
100
AcDbLine
 10
4864.6906114065
 20
642.2408105907
 30
0.0
 11
4799.6773789704
 21
642.2408105907
 31
0.0
  0
LINE
  5
86
330
1F
100
AcDbEntity
  8
0
  6
Continuous
 62
   250
420
  1644836
370
     0
100
AcDbLine
 10
4799.6773789704
 20
642.2408105907
 30
0.0
 11
4799.6773789704
 21
624.1815793593
 31
0.0
  0
LINE
  5
87
330
1F
100
AcDbEntity
  8
0
  6
Continuous
 62
   250
420
  1644836
370
     0
100
AcDbLine
 10
4799.6773789704
 20
624.1815793593
 30
0.0
 11
4871.9143038962
 21
624.1815793593
 31
0.0
  0
LINE
  5
88
330
1F
100
AcDbEntity
  8
0
  6
Continuous
 62
   250
420
  1644836
370
     0
100
AcDbLine
 10
4871.9143038962
 20
624.1815793593
 30
0.0
 11
4871.9143038962
 21
609.7341943798
 31
0.0
  0
LINE
  5
89
330
1F
100
AcDbEntity
  8
0
  6
Continuous
 62
   250
420
  1644836
370
     0
100
AcDbLine
 10
4871.9143038962
 20
609.7341943798
 30
0.0
 11
4763.5589165076
 21
609.7341943798
 31
0.0
  0
LINE
  5
8A
330
1F
100
AcDbEntity
  8
0
  6
Continuous
 62
   250
420
  1644836
370
     0
100
AcDbLine
 10
4879.1379963933
 20
689.1948117952
 30
0.0
 11
4879.1379963933
 21
609.7341943753
 31
0.0
  0
LINE
  5
8B
330
1F
100
AcDbEntity
  8
0
  6
Continuous
 62
   250
420
  1644836
370
     0
100
AcDbLine
 10
4879.1379963933
 20
689.1948117952
 30
0.0
 11
4944.1430520031
 21
689.1948117952
 31
0.0
  0
LINE
  5
8C
330
1F
100
AcDbEntity
  8
0
  6
Continuous
 62
   250
420
  1644836
370
     0
100
AcDbLine
 10
4944.1430520035
 20
609.7341943753
 30
0.0
 11
4879.1379963933
 21
609.7341943753
 31
0.0
  0
LINE
  5
8D
330
1F
100
AcDbEntity
  8
0
  6
Continuous
 62
   250
420
  1644836
370
     0
100
AcDbLine
 10
4911.6446126063
 20
649.4645030807
 30
0.0
 11
4911.6446126063
 21
627.7934256044
 31
0.0
  0
LINE
  5
8E
330
1F
100
AcDbEntity
  8
0
  6
Continuous
 62
   250
420
  1644836
370
     0
100
AcDbLine
 10
4911.6446126063
 20
627.7934256044
 30
0.0
 11
4945.894345536
 21
627.7934256044
 31
0.0
  0
LINE
  5
8F
330
1F
100
AcDbEntity
  8
0
  6
Continuous
 62
   250
420
  1644836
370
     0
100
AcDbLine
 10
4911.6446126063
 20
649.4645030807
 30
0.0
 11
4911.6446126063
 21
671.1355805654
 31
0.0
  0
LINE
  5
90
330
1F
100
AcDbEntity
  8
0
  6
Continuous
 62
   250
420
  1644836
370
     0
100
AcDbLine
 10
4911.6446126063
 20
671.1355805654
 30
0.0
 11
4945.894345536
 21
671.1355805654
 31
0.0
  0
LINE
  5
91
330
1F
100
AcDbEntity
  8
0
  6
Continuous
 62
   250
420
  1644836
370
     0
100
AcDbLine
 10
5009.1644612587
 20
689.194811801
 30
0.0
 11
5009.1644612587
 21
609.7341943857
 31
0.0
  0
LINE
  5
92
330
1F
100
AcDbEntity
  8
0
  6
Continuous
 62
     7
370
     0
100
AcDbLine
 10
5457.5979895016
 20
560.0000000008
 30
0.0
 11
5457.5979895016
 21
380.0000000004
 31
0.0
  0
LINE
  5
93
330
1F
100
AcDbEntity
  8
0
  6
Continuous
 62
   250
420
  1644836
370
     0
100
AcDbLine
 10
5009.1644612587
 20
609.7341943857
 30
0.0
 11
5041.6710774766
 21
609.7341943857
 31
0.0
  0
LINE
  5
94
330
1F
100
AcDbEntity
  8
0
  6
Continuous
 62
   250
420
  1644836
370
     0
100
AcDbLine
 10
5041.6710774766
 20
609.7341943857
 30
0.0
 11
5041.6710774766
 21
638.6289643518
 31
0.0
  0
LINE
  5
95
330
1F
100
AcDbEntity
  8
0
  6
Continuous
 62
   250
420
  1644836
370
     0
100
AcDbLine
 10
5041.6710774766
 20
638.6289643518
 30
0.0
 11
5077.7895399397
 21
638.6289643518
 31
0.0
  0
LINE
  5
96
330
1F
100
AcDbEntity
  8
0
  6
Continuous
 62
   250
420
  1644836
370
     0
100
AcDbLine
 10
5092.2369249262
 20
624.1815793653
 30
0.0
 11
5092.2369249262
 21
609.7341943839
 31
0.0
  0
LINE
  5
97
330
1F
100
AcDbEntity
  8
0
  6
Continuous
 62
   250
420
  1644836
370
     0
100
AcDbLine
 10
5041.6710774754
 20
653.0763493344
 30
0.0
 11
5041.6710774754
 21
674.7474268137
 31
0.0
  0
LINE
  5
98
330
1F
100
AcDbEntity
  8
0
  6
Continuous
 62
   250
420
  1644836
370
     0
100
AcDbLine
 10
5041.6710774754
 20
674.7474268137
 30
0.0
 11
5076.9563448373
 21
674.7474268137
 31
0.0
  0
LINE
  5
99
330
1F
100
AcDbEntity
  8
0
  6
Continuous
 62
   250
420
  1644836
370
     0
100
AcDbLine
 10
5041.6710774754
 20
653.0763493344
 30
0.0
 11
5076.9563448373
 21
653.0763493344
 31
0.0
  0
LINE
  5
9A
330
1F
100
AcDbEntity
  8
0
  6
Continuous
 62
   250
420
  1644836
370
     0
100
AcDbLine
 10
5117.7404043852
 20
629.5419159174
 30
0.0
 11
5120.7110693014
 21
617.9353088365
 31
0.0
  0
LINE
  5
9B
330
1F
100
AcDbEntity
  8
0
  6
Continuous
 62
     7
370
    15
100
AcDbLine
 10
5740.0
 20
4000.0
 30
0.0
 11
200.0
 21
4000.0
 31
0.0
  0
LINE
  5
9C
330
1F
100
AcDbEntity
  8
0
  6
Continuous
 62
     7
370
     0
100
AcDbLine
 10
5457.5979895016
 20
380.0000000004
 30
0.0
 11
5457.5979895016
 21
200.0
 31
0.0
  0
LINE
  5
9D
330
1F
100
AcDbEntity
  8
0
  6
Continuous
 62
     7
370
    15
100
AcDbLine
 10
200.0
 20
4000.0
 30
0.0
 11
200.0
 21
200.0
 31
0.0
  0
LINE
  5
9E
330
1F
100
AcDbEntity
  8
0
  6
Continuous
 62
     7
370
    15
100
AcDbLine
 10
4300.0
 20
740.0000000012
 30
0.0
 11
5740.0
 21
740.0000000012
 31
0.0
  0
LINE
  5
9F
330
1F
100
AcDbEntity
  8
0
  6
Continuous
 62
   250
420
  1973790
370
     0
100
AcDbLine
 10
5590.5768253678
 20
320.5576086191
 30
0.0
 11
5526.8365326242
 21
308.1636628079
 31
0.0
  0
LINE
  5
A0
330
1F
100
AcDbEntity
  8
0
  6
Continuous
 62
   250
420
  1973790
370
     0
100
AcDbLine
 10
5642.7011703042
 20
330.9763147815
 30
0.0
 11
5642.7011703042
 21
249.762060236
 31
0.0
  0
LINE
  5
A1
330
1F
100
AcDbEntity
  8
0
  6
Continuous
 62
   250
420
  1973790
370
     0
100
AcDbLine
 10
5590.5768253678
 20
320.5576086191
 30
0.0
 11
5590.5768253678
 21
260.1807663983
 31
0.0
  0
LINE
  5
A2
330
1F
100
AcDbEntity
  8
0
  6
Continuous
 62
     7
370
    15
100
AcDbLine
 10
200.0
 20
200.0
 30
0.0
 11
5740.0
 21
200.0
 31
0.0
  0
LINE
  5
A3
330
1F
100
AcDbEntity
  8
0
  6
Continuous
 62
   250
420
  1973790
370
     0
100
AcDbLine
 10
5526.8365326242
 20
308.1636628079
 30
0.0
 11
5526.8365326242
 21
272.5747122096
 31
0.0
  0
LINE
  5
A4
330
1F
100
AcDbEntity
  8
0
  6
Continuous
 62
   250
420
  1644836
370
     0
100
AcDbLine
 10
5092.2369249262
 20
609.7341943839
 30
0.0
 11
5153.6383111185
 21
609.7341943839
 31
0.0
  0
LINE
  5
A5
330
1F
100
AcDbEntity
  8
0
  6
Continuous
 62
   250
420
  1973790
370
     0
100
AcDbLine
 10
5590.5768253678
 20
260.1807663983
 30
0.0
 11
5526.8365326242
 21
272.5747122096
 31
0.0
  0
LINE
  5
A6
330
1F
100
AcDbEntity
  8
0
  6
CENTERX2
 62
   250
420
  1973790
370
     0
100
AcDbLine
 10
5677.8414248497
 20
290.3691875087
 30
0.0
 11
5518.9037381286
 21
290.3691875087
 31
0.0
  0
LINE
  5
A7
330
1F
100
AcDbEntity
  8
0
  6
Continuous
 62
   250
420
  1644836
370
     0
100
AcDbLine
 10
5009.1644612587
 20
689.194811801
 30
0.0
 11
5084.0385166116
 21
689.194811801
 31
0.0
  0
LINE
  5
A8
330
1F
100
AcDbEntity
  8
0
  6
Continuous
 62
   250
420
  1644836
370
     0
100
AcDbLine
 10
4763.5589165076
 20
689.1948117951
 30
0.0
 11
4763.5589165076
 21
609.7341943798
 31
0.0
  0
LINE
  5
A9
330
1F
100
AcDbEntity
  8
0
  6
Continuous
 62
   250
420
  1644836
370
     0
100
AcDbLine
 10
5168.0856961049
 20
689.1948117992
 30
0.0
 11
5204.2041585677
 21
689.1948117992
 31
0.0
  0
LINE
  5
AA
330
1F
100
AcDbEntity
  8
0
  6
Continuous
 62
   250
420
  1644836
370
     0
100
AcDbLine
 10
5168.0856961049
 20
689.1948117992
 30
0.0
 11
5121.4152897557
 21
615.8556018284
 31
0.0
  0
LINE
  5
AB
330
1F
100
AcDbEntity
  8
0
  6
Continuous
 62
   250
420
  1644836
370
     0
100
AcDbLine
 10
5153.6383111185
 20
609.7341943839
 30
0.0
 11
5161.7649651727
 21
624.1815793634
 31
0.0
  0
LINE
  5
AC
330
1F
100
AcDbEntity
  8
0
  6
Continuous
 62
   250
420
  1644836
370
     0
100
AcDbLine
 10
5186.1449273348
 20
667.5237343188
 30
0.0
 11
5202.3982354437
 21
638.6289643458
 31
0.0
  0
LINE
  5
AD
330
1F
100
AcDbEntity
  8
0
  6
Continuous
 62
   250
420
  1644836
370
     0
100
AcDbLine
 10
5169.8916192259
 20
638.6289643458
 30
0.0
 11
5186.1449273348
 21
667.5237343188
 31
0.0
  0
LINE
  5
AE
330
1F
100
AcDbEntity
  8
0
  6
Continuous
 62
   250
420
  1644836
370
     0
100
AcDbLine
 10
5169.8916192259
 20
638.6289643458
 30
0.0
 11
5202.3982354437
 21
638.6289643458
 31
0.0
  0
LINE
  5
AF
330
1F
100
AcDbEntity
  8
0
  6
Continuous
 62
   250
420
  1644836
370
     0
100
AcDbLine
 10
5161.7649651727
 20
624.1815793634
 30
0.0
 11
5210.5248894999
 21
624.1815793634
 31
0.0
  0
LINE
  5
B0
330
1F
100
AcDbEntity
  8
0
  6
Continuous
 62
   250
420
  1644836
370
     0
100
AcDbLine
 10
5210.5248894999
 20
624.1815793634
 30
0.0
 11
5218.6515435542
 21
609.7341943839
 31
0.0
  0
LINE
  5
B1
330
1F
100
AcDbEntity
  8
0
  6
Continuous
 62
   250
420
  1644836
370
     0
100
AcDbLine
 10
5254.7700060173
 20
689.1948117992
 30
0.0
 11
5254.7700060173
 21
609.7341943839
 31
0.0
  0
LINE
  5
B2
330
1F
100
AcDbEntity
  8
0
  6
Continuous
 62
   250
420
  1644836
370
     0
100
AcDbLine
 10
5204.2041585677
 20
689.1948117992
 30
0.0
 11
5254.7700060173
 21
609.7341943839
 31
0.0
  0
LINE
  5
B3
330
1F
100
AcDbEntity
  8
0
  6
Continuous
 62
   250
420
  1644836
370
     0
100
AcDbLine
 10
5218.6515435542
 20
609.7341943839
 30
0.0
 11
5254.7700060173
 21
609.7341943839
 31
0.0
  0
LINE
  5
B4
330
1F
100
AcDbEntity
  8
0
  6
Continuous
 62
   250
420
  1644836
370
     0
100
AcDbLine
 10
5254.7700060173
 20
609.7341943839
 30
0.0
 11
5352.2898546713
 21
609.7341943839
 31
0.0
  0
LINE
  5
B5
330
1F
100
AcDbEntity
  8
0
  6
Continuous
 62
   250
420
  1644836
370
     0
100
AcDbLine
 10
5352.2898546713
 20
609.7341943839
 30
0.0
 11
5352.2898546713
 21
627.7934256152
 31
0.0
  0
LINE
  5
B6
330
1F
100
AcDbEntity
  8
0
  6
Continuous
 62
   250
420
  1644836
370
     0
100
AcDbLine
 10
5352.2898546713
 20
627.7934256152
 30
0.0
 11
5290.8884684801
 21
627.7934256152
 31
0.0
  0
LINE
  5
B7
330
1F
100
AcDbEntity
  8
0
  6
Continuous
 62
   250
420
  1644836
370
     0
100
AcDbLine
 10
5290.8884684801
 20
627.7934256152
 30
0.0
 11
5290.8884684801
 21
689.1948117992
 31
0.0
  0
LINE
  5
B8
330
1F
100
AcDbEntity
  8
0
  6
Continuous
 62
   250
420
  1644836
370
     0
100
AcDbLine
 10
5254.7700060173
 20
689.1948117992
 30
0.0
 11
5290.8884684801
 21
689.1948117992
 31
0.0
  0
LINE
  5
B9
330
1F
100
AcDbEntity
  8
0
  6
Continuous
 62
   250
420
  1644836
370
     0
100
AcDbLine
 10
5355.9017009147
 20
689.1948117983
 30
0.0
 11
5355.9017009147
 21
609.734194383
 31
0.0
  0
LINE
  5
BA
330
1F
100
AcDbEntity
  8
0
  6
Continuous
 62
   250
420
  1644836
370
     0
100
AcDbLine
 10
5392.0201633774
 20
689.1948117983
 30
0.0
 11
5392.0201633774
 21
609.734194383
 31
0.0
  0
LINE
  5
BB
330
1F
100
AcDbEntity
  8
0
  6
Continuous
 62
   250
420
  1644836
370
     0
100
AcDbLine
 10
5355.9017009147
 20
689.1948117983
 30
0.0
 11
5392.0201633774
 21
689.1948117983
 31
0.0
  0
LINE
  5
BC
330
1F
100
AcDbEntity
  8
0
  6
Continuous
 62
   250
420
  1644836
370
     0
100
AcDbLine
 10
5355.9017009147
 20
609.734194383
 30
0.0
 11
5392.0201633774
 21
609.734194383
 31
0.0
  0
LINE
  5
BD
330
1F
100
AcDbEntity
  8
0
  6
Continuous
 62
   250
420
  1644836
370
     0
100
AcDbLine
 10
5408.2303288482
 20
682.5861108457
 30
0.0
 11
5416.5733759679
 21
682.5861108457
 31
0.0
  0
LINE
  5
BE
330
1F
100
AcDbEntity
  8
0
  6
Continuous
 62
   250
420
  1644836
370
     0
100
AcDbLine
 10
5416.5733759679
 20
677.1683414744
 30
0.0
 11
5408.2303288482
 21
677.1683414744
 31
0.0
  0
LINE
  5
BF
330
1F
100
AcDbEntity
  8
0
  6
Continuous
 62
   250
420
  1644836
370
     0
100
AcDbLine
 10
5408.2303288482
 20
677.1683414744
 30
0.0
 11
5408.2303288482
 21
682.5861108457
 31
0.0
  0
LINE
  5
C0
330
1F
100
AcDbEntity
  8
0
  6
Continuous
 62
   250
420
  1644836
370
     0
100
AcDbLine
 10
5408.2303288482
 20
677.1683414744
 30
0.0
 11
5413.6480982155
 21
677.1683414744
 31
0.0
  0
LINE
  5
C1
330
1F
100
AcDbEntity
  8
0
  6
Continuous
 62
   250
420
  1644836
370
     0
100
AcDbLine
 10
5408.2303288482
 20
677.1683414744
 30
0.0
 11
5408.2303288482
 21
669.0416874234
 31
0.0
  0
LINE
  5
C2
330
1F
100
AcDbEntity
  8
0
  6
Continuous
 62
   250
420
  1644836
370
     0
100
AcDbLine
 10
5419.0658675828
 20
669.0416874234
 30
0.0
 11
5413.6480982155
 21
677.1683414744
 31
0.0
  0
LINE
  5
C3
330
1F
100
AcDbEntity
  8
0
  6
Continuous
 62
     7
370
     0
100
AcDbLine
 10
4300.0
 20
380.0000000004
 30
0.0
 11
5740.0
 21
380.0000000004
 31
0.0
  0
LINE
  5
C4
330
1F
100
AcDbEntity
  8
0
  6
Continuous
 62
     7
370
     0
100
AcDbLine
 10
5740.0
 20
560.0000000008
 30
0.0
 11
4300.0
 21
560.0000000008
 31
0.0
  0
LINE
  5
C5
330
1F
100
AcDbEntity
  8
0
  6
Continuous
 62
     7
370
     0
100
AcDbLine
 10
200.0
 20
1100.0
 30
0.0
 11
200.0
 21
1300.0
 31
0.0
  0
LINE
  5
C6
330
1F
100
AcDbEntity
  8
0
  6
Continuous
 62
     7
370
     0
100
AcDbLine
 10
200.0
 20
1300.0
 30
0.0
 11
200.0
 21
1500.0
 31
0.0
  0
LINE
  5
C7
330
1F
100
AcDbEntity
  8
0
  6
Continuous
 62
     7
370
     0
100
AcDbLine
 10
200.0
 20
1500.0
 30
0.0
 11
200.0
 21
1700.0
 31
0.0
  0
LINE
  5
C8
330
1F
100
AcDbEntity
  8
0
  6
Continuous
 62
     7
370
     0
100
AcDbLine
 10
200.0
 20
1700.0
 30
0.0
 11
200.0
 21
1900.0
 31
0.0
  0
LINE
  5
C9
330
1F
100
AcDbEntity
  8
0
  6
Continuous
 62
     7
370
     0
100
AcDbLine
 10
200.0
 20
1900.0
 30
0.0
 11
200.0
 21
2100.0
 31
0.0
  0
LINE
  5
CA
330
1F
100
AcDbEntity
  8
0
  6
Continuous
 62
     7
370
     0
100
AcDbLine
 10
200.0
 20
2100.0
 30
0.0
 11
200.0
 21
2300.0
 31
0.0
  0
LINE
  5
CB
330
1F
100
AcDbEntity
  8
0
  6
Continuous
 62
     7
370
     0
100
AcDbLine
 10
200.0
 20
2300.0
 30
0.0
 11
200.0
 21
2500.0
 31
0.0
  0
LINE
  5
CC
330
1F
100
AcDbEntity
  8
0
  6
Continuous
 62
     7
370
     0
100
AcDbLine
 10
200.0
 20
2500.0
 30
0.0
 11
200.0
 21
2700.0
 31
0.0
  0
LINE
  5
CD
330
1F
100
AcDbEntity
  8
0
  6
Continuous
 62
     7
370
     0
100
AcDbLine
 10
200.0
 20
2700.0
 30
0.0
 11
200.0
 21
2900.0
 31
0.0
  0
LINE
  5
CE
330
1F
100
AcDbEntity
  8
0
  6
Continuous
 62
     7
370
     0
100
AcDbLine
 10
200.0
 20
2900.0
 30
0.0
 11
200.0
 21
3100.0
 31
0.0
  0
LINE
  5
CF
330
1F
100
AcDbEntity
  8
0
  6
Continuous
 62
     7
370
    15
100
AcDbLine
 10
4300.0
 20
740.0000000012
 30
0.0
 11
4300.0
 21
200.0
 31
0.0
  0
ARC
  5
D0
330
1F
100
AcDbEntity
  8
0
  6
Continuous
 62
   250
420
  1644836
370
     0
100
AcDbCircle
 10
4705.847761962
 20
660.3000418309
 30
0.0
 40
14.44738498163234
100
AcDbArc
 50
69.991210111
 51
90.0
  0
ARC
  5
D1
330
1F
100
AcDbEntity
  8
0
  6
Continuous
 62
   250
420
  1644836
370
     0
100
AcDbCircle
 10
4705.8477619608
 20
667.5237343201
 30
0.0
 40
14.44738498508821
100
AcDbArc
 50
270.0
 51
290.0087898887
  0
ARC
  5
D2
330
1F
100
AcDbEntity
  8
0
  6
Continuous
 62
   250
420
  1644836
370
     0
100
AcDbCircle
 10
4945.894345536
 20
649.4645030844
 30
0.0
 40
21.6710774810374
100
AcDbArc
 50
56.1685552524
 51
90.0
  0
ARC
  5
D3
330
1F
100
AcDbEntity
  8
0
  6
Continuous
 62
   250
420
  1644836
370
     0
100
AcDbCircle
 10
4945.894345536
 20
649.4645030844
 30
0.0
 40
21.67107747996025
100
AcDbArc
 50
270.0
 51
303.830934914
  0
ARC
  5
D4
330
1F
100
AcDbEntity
  8
0
  6
Continuous
 62
   250
420
  1644836
370
     0
100
AcDbCircle
 10
5077.7895399397
 20
624.1815793653
 30
0.0
 40
14.44738498648894
100
AcDbArc
 50
0.0
 51
90.0
  0
ARC
  5
D5
330
1F
100
AcDbEntity
  8
0
  6
Continuous
 62
   250
420
  1644836
370
     0
100
AcDbCircle
 10
5076.9563448373
 20
663.9118880749
 30
0.0
 40
10.83553873888712
100
AcDbArc
 50
54.413089495
 51
90.0
  0
ARC
  5
D6
330
1F
100
AcDbEntity
  8
0
  6
Continuous
 62
   250
420
  1644836
370
     0
100
AcDbCircle
 10
5076.9563448373
 20
663.9118880749
 30
0.0
 40
10.83553874042923
100
AcDbArc
 50
270.0
 51
305.5869104966
  0
ARC
  5
D7
330
1F
100
AcDbEntity
  8
0
  6
Continuous
 62
   250
420
  1644836
370
     0
100
AcDbCircle
 10
5098.0751698592
 20
625.9255921417
 30
0.0
 40
19.99498053551325
100
AcDbArc
 50
10.4199484279
 51
80.7321727594
  0
ARC
  5
D8
330
1F
100
AcDbEntity
  8
0
  6
Continuous
 62
   250
420
  1644836
370
     0
100
AcDbCircle
 10
5130.9071332752
 20
620.2287679348
 30
0.0
 40
10.45082174718729
100
AcDbArc
 50
192.6768785101
 51
204.7368873207
  0
CIRCLE
  5
D9
330
1F
100
AcDbEntity
  8
0
  6
Continuous
 62
   250
420
  1644836
370
     0
100
AcDbCircle
 10
5412.5728417235
 20
675.7351394671
 30
0.0
 40
11.8602042904613
  0
CIRCLE
  5
DA
330
1F
100
AcDbEntity
  8
0
  6
Continuous
 62
   250
420
  1973790
370
     0
100
AcDbCircle
 10
5642.7011703042
 20
290.3691875087
 30
0.0
 40
17.17415752552839
  0
CIRCLE
  5
DB
330
1F
100
AcDbEntity
  8
0
  6
Continuous
 62
   250
420
  1973790
370
     0
100
AcDbCircle
 10
5642.7011703042
 20
290.3691875087
 30
0.0
 40
33.5518716332741
  0
ELLIPSE
  5
DC
330
1F
100
AcDbEntity
  8
0
  6
Continuous
 62
   250
420
  1644836
370
     0
100
AcDbEllipse
 10
4700.3516071939
 20
663.9118880739
 30
0.0
 11
19.86515435528417
 21
0.0
 31
0.0
210
0.0
220
0.0
230
1.0
 40
0.5895245511
 41
5.265715075739357
 42
7.300655538615938
  0
ELLIPSE
  5
DD
330
1F
100
AcDbEntity
  8
0
  6
Continuous
 62
   250
420
  1644836
370
     0
100
AcDbEllipse
 10
4924.2860744752
 20
649.4645030852
 30
0.0
 11
45.14807808009209
 21
0.0
 31
0.0
210
0.0
220
0.0
230
1.0
 40
0.5985848325
 41
5.554193105221712
 42
7.012172182744729
  0
ELLIPSE
  5
DE
330
1F
100
AcDbEntity
  8
0
  6
Continuous
 62
   250
420
  1644836
370
     0
100
AcDbEllipse
 10
5065.1480780821
 20
663.9118880739
 30
0.0
 11
23.47700060163515
 21
0.0
 31
0.0
210
0.0
220
0.0
230
1.0
 40
0.5900077182
 41
5.593675727225931
 42
6.97269488710657
  0
ELLIPSE
  5
DF
330
1F
100
AcDbEntity
  8
0
  6
Continuous
 62
   250
420
  1644836
370
     0
100
AcDbEllipse
 10
5076.0598954138
 20
665.8728041646
 30
0.0
 11
48.6533324507036
 21
0.0
 31
0.0
210
0.0
220
0.0
230
1.0
 40
0.485929116
 41
5.257694056962849
 42
7.689248379254996
  0
ELLIPSE
  5
E0
330
1F
100
AcDbEntity
  8
0
  6
Continuous
 62
   250
420
  1644836
370
     0
100
AcDbEllipse
 10
4936.9275363302
 20
649.4645030852
 30
0.0
 11
57.78953994231141
 21
0.0
 31
0.0
210
0.0
220
0.0
230
1.0
 40
0.6929224243
 41
4.837574201223028
 42
7.72879641314261
  0
ELLIPSE
  5
E1
330
1F
100
AcDbEntity
  8
0
  6
Continuous
 62
   250
420
  1644836
370
     0
100
AcDbEllipse
 10
4702.1575303142
 20
663.9118880739
 30
0.0
 11
54.17769369596681
 21
0.0
 31
0.0
210
0.0
220
0.0
230
1.0
 40
0.4768529109
 41
4.919453630382234
 42
7.646916983963972
  0
ELLIPSE
  5
E2
330
1F
100
AcDbEntity
  8
0
  6
Continuous
 62
   250
420
  1644836
370
     0
100
AcDbEllipse
 10
5416.0854968826
 20
679.8772261601
 30
0.0
 11
2.980370711883552
 21
0.0
 31
0.0
210
0.0
220
0.0
230
1.0
 40
0.9213369296
 41
4.876826485633947
 42
7.68954412872528
  0
MTEXT
  5
E4
330
1F
100
AcDbEntity
  8
0
  6
Continuous
 62
     7
370
     0
100
AcDbMText
 10
4462.889890894
 20
331.2759848741
 30
0.0
 40
74.0833333333
 41
0.0
 71
     1
 72
     1
  1
202
  7
SLDTEXTSTYLE0
 73
     1
 44
1.0
  0
MTEXT
  5
E5
330
1F
100
AcDbEntity
  8
0
  6
Continuous
 62
     7
370
     0
100
AcDbMText
 10
4317.7691975646
 20
292.7742669947
 30
0.0
 40
36.0
 41
0.0
 71
     1
 72
     1
  1
COD.
  7
SLDTEXTSTYLE0
 73
     1
 44
1.0
  0
MTEXT
  5
E6
330
1F
100
AcDbEntity
  8
0
  6
Continuous
 62
     7
370
     0
100
AcDbMText
 10
214.1710356936
 20
149.4430344364
 30
0.0
 40
36.0
 41
0.0
 71
     1
 72
     1
  1
This document is the property of PEDRALI S.p.A. who willsafeguard its rights according to the civil and penal prevision of the Law.
  7
SLDTEXTSTYLE0
 73
     1
 44
1.0
  0
INSERT
  5
EC
330
1F
100
AcDbEntity
  8
0
  6
Continuous
 62
     7
370
     0
100
AcDbBlockReference
  2
SW_NOTE_0
 10
2881.7211973224
 20
107.1626797512
 30
0.0
  0
MTEXT
  5
ED
330
1F
100
AcDbEntity
  8
0
  6
Continuous
 62
     7
370
     0
100
AcDbMText
 10
4317.7691975646
 20
468.6204199275
 30
0.0
 40
36.0
 41
0.0
 71
     1
 72
     1
  1
SERIE:
  7
SLDTEXTSTYLE0
 73
     1
 44
1.0
  0
MTEXT
  5
EE
330
1F
100
AcDbEntity
  8
0
  6
Continuous
 62
     7
370
     0
100
AcDbMText
 10
4462.889890894
 20
507.1221378069
 30
0.0
 40
74.0833333333
 41
0.0
 71
     1
 72
     1
  1
HOST
  7
SLDTEXTSTYLE0
 73
     1
 44
1.0
  0
INSERT
  5
F4
330
1F
100
AcDbEntity
  8
0
  6
Continuous
 62
     7
370
     0
100
AcDbBlockReference
  2
SW_NOTE_1
 10
5533.9766123908
 20
485.3264256762
 30
0.0
  0
LINE
  5
F5
330
1F
100
AcDbEntity
  8
0
  6
Continuous
 62
     7
370
    15
100
AcDbLine
 10
1265.3111796441
 20
2793.0301692624
 30
0.0
 11
1265.3111796441
 21
2767.0301687259
 31
0.0
  0
LINE
  5
F6
330
1F
100
AcDbEntity
  8
0
  6
Continuous
 62
     7
370
    15
100
AcDbLine
 10
1281.3111822667
 20
2767.0301687259
 30
0.0
 11
1281.3111822667
 21
2793.0301692624
 31
0.0
  0
LINE
  5
F7
330
1F
100
AcDbEntity
  8
0
  6
Continuous
 62
     7
370
    15
100
AcDbLine
 10
1845.3111927571
 20
2767.0301687259
 30
0.0
 11
1845.3111927571
 21
2621.0301634211
 31
0.0
  0
LINE
  5
F8
330
1F
100
AcDbEntity
  8
0
  6
Continuous
 62
     7
370
    15
100
AcDbLine
 10
1861.3111953798
 20
2621.0301634211
 30
0.0
 11
1861.3111953798
 21
2767.0301687259
 31
0.0
  0
LINE
  5
F9
330
1F
100
AcDbEntity
  8
0
  6
Continuous
 62
     7
370
    15
100
AcDbLine
 10
1861.3111953798
 20
2767.0301687259
 30
0.0
 11
1861.3111953798
 21
2793.0301692624
 31
0.0
  0
LINE
  5
FA
330
1F
100
AcDbEntity
  8
0
  6
Continuous
 62
     7
370
    15
100
AcDbLine
 10
1845.3111927571
 20
2793.0301692624
 30
0.0
 11
1845.3111927571
 21
2767.0301687259
 31
0.0
  0
LINE
  5
FB
330
1F
100
AcDbEntity
  8
0
  6
Continuous
 62
     7
370
    15
100
AcDbLine
 10
1281.3111822667
 20
2621.0301634211
 30
0.0
 11
1281.3111822667
 21
2767.0301687259
 31
0.0
  0
LINE
  5
FC
330
1F
100
AcDbEntity
  8
0
  6
Continuous
 62
     7
370
    15
100
AcDbLine
 10
1265.3111796441
 20
2767.0301687259
 30
0.0
 11
1265.3111796441
 21
2621.0301634211
 31
0.0
  0
ARC
  5
FD
330
1F
100
AcDbEntity
  8
0
  6
Continuous
 62
     7
370
    15
100
AcDbCircle
 10
1303.3111875119
 20
2621.0301692624
 30
0.0
 40
22.0
100
AcDbArc
 50
180.0
 51
270.0
  0
ARC
  5
FE
330
1F
100
AcDbEntity
  8
0
  6
Continuous
 62
     7
370
    15
100
AcDbCircle
 10
1303.3111875119
 20
2621.0301692624
 30
0.0
 40
38.00000000000023
100
AcDbArc
 50
180.0
 51
270.0
  0
LINE
  5
FF
330
1F
100
AcDbEntity
  8
0
  6
Continuous
 62
     7
370
    15
100
AcDbLine
 10
1823.3111779752
 20
2599.0301635403
 30
0.0
 11
1303.3111970487
 21
2599.0301635403
 31
0.0
  0
LINE
  5
100
330
1F
100
AcDbEntity
  8
0
  6
Continuous
 62
     7
370
    15
100
AcDbLine
 10
1303.3111970487
 20
2583.0301758189
 30
0.0
 11
1823.3111779752
 21
2583.0301758189
 31
0.0
  0
ARC
  5
101
330
1F
100
AcDbEntity
  8
0
  6
Continuous
 62
     7
370
    15
100
AcDbCircle
 10
1823.3111875119
 20
2621.0301692624
 30
0.0
 40
22.0
100
AcDbArc
 50
270.0
 51
0.0
  0
ARC
  5
102
330
1F
100
AcDbEntity
  8
0
  6
Continuous
 62
     7
370
    15
100
AcDbCircle
 10
1823.3111875119
 20
2621.0301692624
 30
0.0
 40
38.0
100
AcDbArc
 50
270.0
 51
0.0
  0
LINE
  5
103
330
1F
100
AcDbEntity
  8
0
  6
Continuous
 62
     7
370
    15
100
AcDbLine
 10
1376.2970547738
 20
3346.6078903813
 30
0.0
 11
1428.8653414312
 21
3057.4823286671
 31
0.0
  0
LINE
  5
104
330
1F
100
AcDbEntity
  8
0
  6
Continuous
 62
     7
370
    15
100
AcDbLine
 10
1263.311175591
 20
2793.0301692624
 30
0.0
 11
1863.3111994329
 21
2793.0301692624
 31
0.0
  0
LINE
  5
105
330
1F
100
AcDbEntity
  8
0
  6
Continuous
 62
     7
370
    15
100
AcDbLine
 10
1273.3111958566
 20
3363.0301621098
 30
0.0
 11
1356.6196541848
 21
3363.0301621098
 31
0.0
  0
LINE
  5
106
330
1F
100
AcDbEntity
  8
0
  6
Continuous
 62
     7
370
    15
100
AcDbLine
 10
1423.3300815883
 20
3039.7624936242
 30
0.0
 11
1402.4556260171
 21
3018.888038053
 31
0.0
  0
LINE
  5
107
330
1F
100
AcDbEntity
  8
0
  6
Continuous
 62
     7
370
    15
100
AcDbLine
 10
1416.5977518621
 20
3004.7458973069
 30
0.0
 11
1439.0241633716
 21
3027.1723088164
 31
0.0
  0
LINE
  5
108
330
1F
100
AcDbEntity
  8
0
  6
Continuous
 62
     7
370
    15
100
AcDbLine
 10
1453.1662966671
 20
3033.030163898
 30
0.0
 11
1863.3111994329
 21
3033.030163898
 31
0.0
  0
LINE
  5
109
330
1F
100
AcDbEntity
  8
0
  6
Continuous
 62
     7
370
    15
100
AcDbLine
 10
1253.3111851278
 20
2793.0301692624
 30
0.0
 11
1263.311175591
 21
2793.0301692624
 31
0.0
  0
LINE
  5
10A
330
1F
100
AcDbEntity
  8
0
  6
Continuous
 62
     7
370
    15
100
AcDbLine
 10
1253.3111851278
 20
2793.0301692624
 30
0.0
 11
1253.3111851278
 21
3343.0301811833
 31
0.0
  0
SPLINE
  5
10B
330
1F
100
AcDbEntity
  8
0
  6
Continuous
 62
     7
370
    15
100
AcDbSpline
210
0.0
220
0.0
230
1.0
 70
     8
 71
     3
 72
    14
 73
    10
 74
     0
 42
0.000000001
 43
0.00000001
 40
0.0
 40
0.0
 40
0.0
 40
0.0
 40
0.25
 40
0.25
 40
0.5
 40
0.5
 40
0.75
 40
0.75
 40
1.0
 40
1.0
 40
1.0
 40
1.0
 10
1376.297058645938
 20
3346.607878026382
 30
0.0
 10
1375.882359617405
 20
3348.88872268331
 30
0.0
 10
1375.0672475878
 20
3351.096194070364
 30
0.0
 10
1372.733005240945
 20
3355.10221743517
 30
0.0
 10
1371.214440498733
 20
3356.899798773853
 30
0.0
 10
1367.654777958976
 20
3359.870608955651
 30
0.0
 10
1365.614542649543
 20
3361.043117986581
 30
0.0
 10
1361.255574836671
 20
3362.623089549479
 30
0.0
 10
1358.937898488944
 20
3363.030169262382
 30
0.0
 10
1356.61966044394
 20
3363.030169262382
 30
0.0
  0
SPLINE
  5
10C
330
1F
100
AcDbEntity
  8
0
  6
Continuous
 62
     7
370
    15
100
AcDbSpline
210
0.0
220
0.0
230
1.0
 70
     8
 71
     3
 72
    14
 73
    10
 74
     0
 42
0.000000001
 43
0.00000001
 40
0.0
 40
0.0
 40
0.0
 40
0.0
 40
0.2499999999999972
 40
0.2499999999999972
 40
0.4999999999999981
 40
0.4999999999999981
 40
0.749999999999999
 40
0.749999999999999
 40
1.0
 40
1.0
 40
1.0
 40
1.0
 10
1423.330076499671
 20
3039.76249126065
 30
0.0
 10
1424.467636493993
 20
3040.900051254972
 30
0.0
 10
1425.467216241494
 20
3042.175463271667
 30
0.0
 10
1427.132711795732
 20
3044.928364738169
 30
0.0
 10
1427.798533736102
 20
3046.405699036039
 30
0.0
 10
1428.757889569232
 20
3049.476851639036
 30
0.0
 10
1429.051369393251
 20
3051.070496855776
 30
0.0
 10
1429.248990938808
 20
3054.281927635068
 30
0.0
 10
1429.15312152251
 20
3055.899532203237
 30
0.0
 10
1428.865339077938
 20
3057.482335648381
 30
0.0
  0
ARC
  5
10D
330
1F
100
AcDbEntity
  8
0
  6
Continuous
 62
     7
370
    15
100
AcDbCircle
 10
1409.5266866899
 20
3011.8169658264
 30
0.0
 40
10.0000000000004
100
AcDbArc
 50
225.0000000004
 51
315.0000000023
  0
SPLINE
  5
10E
330
1F
100
AcDbEntity
  8
0
  6
Continuous
 62
     7
370
    15
100
AcDbSpline
210
0.0
220
0.0
230
1.0
 70
     8
 71
     3
 72
    14
 73
    10
 74
     0
 42
0.000000001
 43
0.00000001
 40
0.0
 40
0.0
 40
0.0
 40
0.0
 40
0.25
 40
0.25
 40
0.5
 40
0.5
 40
0.75
 40
0.75
 40
1.0
 40
1.0
 40
1.0
 40
1.0
 10
1453.16629699694
 20
3033.030169262381
 30
0.0
 10
1451.857300057944
 20
3033.030169262381
 30
0.0
 10
1450.548335486477
 20
3032.901247504793
 30
0.0
 10
1447.980645626757
 20
3032.390502236099
 30
0.0
 10
1446.721983829696
 20
3032.008691354177
 30
0.0
 10
1444.30327286958
 20
3031.006828471037
 30
0.0
 10
1443.14328351392
 20
3030.386801242852
 30
0.0
 10
1440.966501159176
 20
3028.932321774012
 30
0.0
 10
1439.949761985325
 20
3028.097905498229
 30
0.0
 10
1439.024161373209
 20
3027.172304886112
 30
0.0
  0
ARC
  5
10F
330
1F
100
AcDbEntity
  8
0
  6
Continuous
 62
     7
370
    15
100
AcDbCircle
 10
1409.5266866899
 20
3011.8169658264
 30
0.0
 40
10.00000000010539
100
AcDbArc
 50
135.0000000002
 51
225.0000000004
  0
SPLINE
  5
110
330
1F
100
AcDbEntity
  8
0
  6
Continuous
 62
     7
370
    15
100
AcDbSpline
210
0.0
220
0.0
230
1.0
 70
     8
 71
     3
 72
    22
 73
    18
 74
     0
 42
0.000000001
 43
0.00000001
 40
0.0
 40
0.0
 40
0.0
 40
0.0
 40
0.125
 40
0.125
 40
0.25
 40
0.25
 40
0.375
 40
0.375
 40
0.5
 40
0.5
 40
0.625
 40
0.625
 40
0.75
 40
0.75
 40
0.875
 40
0.875
 40
1.0
 40
1.0
 40
1.0
 40
1.0
 10
1273.31118751194
 20
3363.030169262382
 30
0.0
 10
1272.002190572944
 20
3363.030169262382
 30
0.0
 10
1270.693226001477
 20
3362.901247504793
 30
0.0
 10
1268.125536141757
 20
3362.3905022361
 30
0.0
 10
1266.866874344696
 20
3362.008691354178
 30
0.0
 10
1264.44816338458
 20
3361.006828471037
 30
0.0
 10
1263.28817402892
 20
3360.386801242852
 30
0.0
 10
1261.111391674176
 20
3358.932321774013
 30
0.0
 10
1260.094652500325
 20
3358.097905498229
 30
0.0
 10
1258.243451276093
 20
3356.246704273996
 30
0.0
 10
1257.409035000309
 20
3355.229965100146
 30
0.0
 10
1255.954555531469
 20
3353.053182745402
 30
0.0
 10
1255.334528303284
 20
3351.893193389742
 30
0.0
 10
1254.332665420144
 20
3349.474482429625
 30
0.0
 10
1253.950854538222
 20
3348.215820632564
 30
0.0
 10
1253.440109269528
 20
3345.648130772844
 30
0.0
 10
1253.31118751194
 20
3344.339166201377
 30
0.0
 10
1253.31118751194
 20
3343.030169262382
 30
0.0
  0
ARC
  5
111
330
1F
100
AcDbEntity
  8
0
  6
Continuous
 62
     7
370
    15
100
AcDbCircle
 10
1863.3111875119
 20
3023.0301692624
 30
0.0
 40
10.0
100
AcDbArc
 50
0.0000001175
 51
90.0
  0
LINE
  5
112
330
1F
100
AcDbEntity
  8
0
  6
Continuous
 62
     7
370
    15
100
AcDbLine
 10
1873.3111898961
 20
2793.0301692624
 30
0.0
 11
1873.3111898961
 21
3023.0301734347
 31
0.0
  0
LINE
  5
113
330
1F
100
AcDbEntity
  8
0
  6
Continuous
 62
     7
370
    15
100
AcDbLine
 10
1863.3111994329
 20
2793.0301692624
 30
0.0
 11
1873.3111898961
 21
2793.0301692624
 31
0.0
  0
SPLINE
  5
114
330
1F
100
AcDbEntity
  8
0
  6
Continuous
 62
     7
370
    15
100
AcDbSpline
210
0.0
220
0.0
230
1.0
 70
    24
 71
     3
 72
     8
 73
     4
 74
     0
 42
0.000000001
 43
0.00000001
 40
0.0
 40
0.0
 40
0.0
 40
0.0
 40
1.0
 40
1.0
 40
1.0
 40
1.0
 10
1424.10555046794
 20
3040.537965228381
 30
0.0
 10
1423.59116945194
 20
3040.023584212381
 30
0.0
 10
1423.33007649994
 20
3039.762491260381
 30
0.0
 10
1423.33007649994
 20
3039.762491260381
 30
0.0
  0
SPLINE
  5
115
330
1F
100
AcDbEntity
  8
0
  6
Continuous
 62
     7
370
    15
100
AcDbSpline
210
0.0
220
0.0
230
1.0
 70
    24
 71
     3
 72
    17
 73
    13
 74
     0
 42
0.000000001
 43
0.00000001
 40
5.49778714378214
 40
5.49778714378214
 40
5.49778714378214
 40
5.49778714378214
 40
5.694136684631511
 40
5.694136684631511
 40
5.694136684631511
 40
5.890486225480871
 40
5.890486225480871
 40
5.890486225480871
 40
6.086835766330231
 40
6.086835766330231
 40
6.086835766330231
 40
6.283185307179591
 40
6.283185307179591
 40
6.283185307179591
 40
6.283185307179591
 10
1873.31118751194
 20
3053.904626884382
 30
0.0
 10
1873.31118751194
 20
3053.250128414381
 30
0.0
 10
1873.31118751194
 20
3052.595646128381
 30
0.0
 10
1873.31118751194
 20
3051.953723663381
 30
0.0
 10
1873.31118751194
 20
3051.311801198382
 30
0.0
 10
1873.31118751194
 20
3050.682470300382
 30
0.0
 10
1873.31118751194
 20
3050.077792560382
 30
0.0
 10
1873.31118751194
 20
3049.473114820381
 30
0.0
 10
1873.31118751194
 20
3048.893120142381
 30
0.0
 10
1873.31118751194
 20
3048.348924553381
 30
0.0
 10
1873.31118751194
 20
3047.804728965381
 30
0.0
 10
1873.31118751194
 20
3047.296359378382
 30
0.0
 10
1873.31118751194
 20
3046.833559072382
 30
0.0
  0
SPLINE
  5
116
330
1F
100
AcDbEntity
  8
0
  6
Continuous
 62
     7
370
    15
100
AcDbSpline
210
0.0
220
0.0
230
1.0
 70
    24
 71
     3
 72
     8
 73
     4
 74
     0
 42
0.000000001
 43
0.00000001
 40
0.0
 40
0.0
 40
0.0
 40
0.0
 40
0.179853499792481
 40
0.179853499792481
 40
0.179853499792481
 40
0.179853499792481
 10
1873.31118751194
 20
3055.693481266382
 30
0.0
 10
1873.31118751194
 20
3055.103639777381
 30
0.0
 10
1873.31118751194
 20
3054.504138550381
 30
0.0
 10
1873.31118751194
 20
3053.904626884382
 30
0.0
  0
LINE
  5
117
330
1F
100
AcDbEntity
  8
0
  6
Continuous
 62
     7
370
    15
100
AcDbLine
 10
1873.3111898961
 20
3055.6934740681
 30
0.0
 11
1873.3111898961
 21
3344.8190357823
 31
0.0
  0
LINE
  5
118
330
1F
100
AcDbEntity
  8
0
  6
Continuous
 62
     7
370
    15
100
AcDbLine
 10
1873.3111898961
 20
3025.9591009755
 30
0.0
 11
1873.3111898961
 21
3046.8335714478
 31
0.0
  0
SPLINE
  5
119
330
1F
100
AcDbEntity
  8
0
  6
Continuous
 62
     7
370
    15
100
AcDbSpline
210
0.0
220
0.0
230
1.0
 70
    24
 71
     3
 72
    10
 73
     6
 74
     0
 42
0.000000001
 43
0.00000001
 40
0.0
 40
0.0
 40
0.0
 40
0.0
 40
0.1898214278138616
 40
0.5945483822525301
 40
1.0
 40
1.0
 40
1.0
 40
1.0
 10
1873.311189896126
 20
3023.058068408461
 30
0.0
 10
1873.311189896126
 20
3023.256576213301
 30
0.0
 10
1873.311189896126
 20
3023.878331594615
 30
0.0
 10
1873.311189896126
 20
3024.856009243031
 30
0.0
 10
1873.311189896126
 20
3025.591184539097
 30
0.0
 10
1873.311189896126
 20
3025.959100975485
 30
0.0
  0
SPLINE
  5
11A
330
1F
100
AcDbEntity
  8
0
  6
Continuous
 62
     7
370
    15
100
AcDbSpline
210
0.0
220
0.0
230
1.0
 70
    24
 71
     3
 72
    14
 73
    10
 74
     0
 42
0.000000001
 43
0.00000001
 40
0.0
 40
0.0
 40
0.0
 40
0.0
 40
0.25
 40
0.25
 40
0.5
 40
0.5
 40
0.75
 40
0.75
 40
1.0
 40
1.0
 40
1.0
 40
1.0
 10
1356.61966044394
 20
3363.030169262382
 30
0.0
 10
1356.61966044394
 20
3363.030169262382
 30
0.0
 10
1356.80826125694
 20
3363.030169262382
 30
0.0
 10
1357.55572515294
 20
3363.030169262382
 30
0.0
 10
1358.11457121144
 20
3363.030169262382
 30
0.0
 10
1359.581929429439
 20
3363.030169262382
 30
0.0
 10
1360.49040817194
 20
3363.030169262382
 30
0.0
 10
1362.62353844794
 20
3363.030169262382
 30
0.0
 10
1363.84814051594
 20
3363.030169262382
 30
0.0
 10
1365.20825322194
 20
3363.030169262382
 30
0.0
  0
SPLINE
  5
11B
330
1F
100
AcDbEntity
  8
0
  6
Continuous
 62
     7
370
    15
100
AcDbSpline
210
0.0
220
0.0
230
1.0
 70
    24
 71
     3
 72
    14
 73
    10
 74
     0
 42
0.000000001
 43
0.00000001
 40
0.0
 40
0.0
 40
0.0
 40
0.0
 40
0.25
 40
0.25
 40
0.5
 40
0.5
 40
0.75
 40
0.75
 40
1.0
 40
1.0
 40
1.0
 40
1.0
 10
1365.20825322194
 20
3363.030169262382
 30
0.0
 10
1366.56836592994
 20
3363.030169262382
 30
0.0
 10
1368.06392376894
 20
3363.030169262382
 30
0.0
 10
1371.27090761694
 20
3363.030169262382
 30
0.0
 10
1372.98225970294
 20
3363.030169262382
 30
0.0
 10
1376.55771688694
 20
3363.030169262382
 30
0.0
 10
1378.42174055894
 20
3363.030169262381
 30
0.0
 10
1382.23379337094
 20
3363.030169262382
 30
0.0
 10
1384.18173354694
 20
3363.030169262382
 30
0.0
 10
1386.13575774694
 20
3363.030169262382
 30
0.0
  0
LINE
  5
11C
330
1F
100
AcDbEntity
  8
0
  6
Continuous
 62
     7
370
    15
100
AcDbLine
 10
1863.3111994329
 20
3363.0301621098
 30
0.0
 11
1386.1357550683
 21
3363.0301621098
 31
0.0
  0
SPLINE
  5
11D
330
1F
100
AcDbEntity
  8
0
  6
Continuous
 62
     7
370
    15
100
AcDbSpline
210
0.0
220
0.0
230
1.0
 70
     8
 71
     3
 72
    29
 73
    25
 74
     0
 42
0.000000001
 43
0.00000001
 40
-1.5707963267949
 40
-1.5707963267949
 40
-1.5707963267949
 40
-1.5707963267949
 40
-1.374446785945538
 40
-1.374446785945538
 40
-1.374446785945538
 40
-1.178097245096176
 40
-1.178097245096176
 40
-1.178097245096176
 40
-0.9817477042468139
 40
-0.9817477042468139
 40
-0.9817477042468139
 40
-0.7853981633974509
 40
-0.7853981633974509
 40
-0.7853981633974509
 40
-0.5890486225480889
 40
-0.5890486225480889
 40
-0.5890486225480889
 40
-0.3926990816987299
 40
-0.3926990816987299
 40
-0.3926990816987299
 40
-0.1963495408493698
 40
-0.1963495408493698
 40
-0.1963495408493698
 40
0.0
 40
0.0
 40
0.0
 40
0.0
 10
1863.31118751194
 20
3363.030169262382
 30
0.0
 10
1863.96568598094
 20
3363.030169262382
 30
0.0
 10
1864.62016826694
 20
3362.965708383381
 30
0.0
 10
1865.26209073194
 20
3362.838022066381
 30
0.0
 10
1865.90401319694
 20
3362.710335749382
 30
0.0
 10
1866.53334409594
 20
3362.519430308382
 30
0.0
 10
1867.13802183594
 20
3362.268964587382
 30
0.0
 10
1867.74269957594
 20
3362.018498866381
 30
0.0
 10
1868.32269425394
 20
3361.708485252382
 30
0.0
 10
1868.86688984194
 20
3361.344865385382
 30
0.0
 10
1869.41108543094
 20
3360.981245518382
 30
0.0
 10
1869.91945501794
 20
3360.564037380381
 30
0.0
 10
1870.38225532394
 20
3360.101237074382
 30
0.0
 10
1870.84505562994
 20
3359.638436768382
 30
0.0
 10
1871.26226376794
 20
3359.130067181382
 30
0.0
 10
1871.62588363494
 20
3358.585871592382
 30
0.0
 10
1871.98950350194
 20
3358.041676004382
 30
0.0
 10
1872.29951711594
 20
3357.461681326381
 30
0.0
 10
1872.54998283694
 20
3356.857003586381
 30
0.0
 10
1872.80044855794
 20
3356.252325846382
 30
0.0
 10
1872.99135399894
 20
3355.622994947381
 30
0.0
 10
1873.11904031594
 20
3354.981072482381
 30
0.0
 10
1873.24672663294
 20
3354.339150017381
 30
0.0
 10
1873.31118751194
 20
3353.684667731382
 30
0.0
 10
1873.31118751194
 20
3353.030169262382
 30
0.0
  0
SPLINE
  5
11E
330
1F
100
AcDbEntity
  8
0
  6
Continuous
 62
     7
370
    15
100
AcDbSpline
210
0.0
220
0.0
230
1.0
 70
    24
 71
     3
 72
    29
 73
    25
 74
     0
 42
0.000000001
 43
0.00000001
 40
0.179853499792477
 40
0.179853499792477
 40
0.179853499792477
 40
0.179853499792477
 40
0.353721353167787
 40
0.353721353167787
 40
0.353721353167787
 40
0.5275892065430869
 40
0.5275892065430869
 40
0.5275892065430869
 40
0.7014570599183869
 40
0.7014570599183869
 40
0.7014570599183869
 40
0.8753249132936899
 40
0.8753249132936899
 40
0.8753249132936899
 40
1.049192766668992
 40
1.049192766668992
 40
1.049192766668992
 40
1.223060620044295
 40
1.223060620044295
 40
1.223060620044295
 40
1.396928473419597
 40
1.396928473419597
 40
1.396928473419597
 40
1.5707963267949
 40
1.5707963267949
 40
1.5707963267949
 40
1.5707963267949
 10
1873.31118751194
 20
3353.030169262382
 30
0.0
 10
1873.31118751194
 20
3353.030169262382
 30
0.0
 10
1873.31118751194
 20
3352.979659337382
 30
0.0
 10
1873.31118751194
 20
3352.879399499382
 30
0.0
 10
1873.31118751194
 20
3352.779139661382
 30
0.0
 10
1873.31118751194
 20
3352.629132960381
 30
0.0
 10
1873.31118751194
 20
3352.431636515382
 30
0.0
 10
1873.31118751194
 20
3352.234140069382
 30
0.0
 10
1873.31118751194
 20
3351.989159887382
 30
0.0
 10
1873.31118751194
 20
3351.700382133381
 30
0.0
 10
1873.31118751194
 20
3351.411604378382
 30
0.0
 10
1873.31118751194
 20
3351.079037836381
 30
0.0
 10
1873.31118751194
 20
3350.707686563382
 30
0.0
 10
1873.31118751194
 20
3350.336335290382
 30
0.0
 10
1873.31118751194
 20
3349.926210583381
 30
0.0
 10
1873.31118751194
 20
3349.483483501382
 30
0.0
 10
1873.31118751194
 20
3349.040756419382
 30
0.0
 10
1873.31118751194
 20
3348.565440428381
 30
0.0
 10
1873.31118751194
 20
3348.064687507382
 30
0.0
 10
1873.31118751194
 20
3347.563934587381
 30
0.0
 10
1873.31118751194
 20
3347.037759968382
 30
0.0
 10
1873.31118751194
 20
3346.494080889382
 30
0.0
 10
1873.31118751194
 20
3345.950401810381
 30
0.0
 10
1873.31118751194
 20
3345.389234808381
 30
0.0
 10
1873.31118751194
 20
3344.819023644382
 30
0.0
  0
LINE
  5
11F
330
1F
100
AcDbEntity
  8
0
  6
Continuous
 62
     7
370
    15
100
AcDbLine
 10
2502.9047578872
 20
2789.0301690724
 30
0.0
 11
2744.9047621638
 21
2789.0301690724
 31
0.0
  0
LINE
  5
120
330
1F
100
AcDbEntity
  8
0
  6
Continuous
 62
     7
370
    15
100
AcDbLine
 10
2782.904749766
 20
2621.0301634211
 30
0.0
 11
2782.904749766
 21
2767.0301687259
 31
0.0
  0
LINE
  5
121
330
1F
100
AcDbEntity
  8
0
  6
Continuous
 62
     7
370
    15
100
AcDbLine
 10
2766.9047471434
 20
2767.0301687259
 30
0.0
 11
2766.9047471434
 21
2621.0301634211
 31
0.0
  0
LINE
  5
122
330
1F
100
AcDbEntity
  8
0
  6
Continuous
 62
     7
370
    15
100
AcDbLine
 10
2766.9047471434
 20
2621.0301634211
 30
0.0
 11
2766.9047471434
 21
2591.030162229
 31
0.0
  0
LINE
  5
123
330
1F
100
AcDbEntity
  8
0
  6
Continuous
 62
     7
370
    15
100
AcDbLine
 10
2782.904749766
 20
2591.030162229
 30
0.0
 11
2782.904749766
 21
2621.0301634211
 31
0.0
  0
ARC
  5
124
330
1F
100
AcDbEntity
  8
0
  6
Continuous
 62
     7
370
    15
100
AcDbCircle
 10
2744.9047581107
 20
2767.0301692624
 30
0.0
 40
22.00000000000045
100
AcDbArc
 50
360.0
 51
90.0
  0
ARC
  5
125
330
1F
100
AcDbEntity
  8
0
  6
Continuous
 62
     7
370
    15
100
AcDbCircle
 10
2744.9047581107
 20
2767.0301692624
 30
0.0
 40
38.00000000000045
100
AcDbArc
 50
360.0
 51
43.1735511073
  0
LINE
  5
126
330
1F
100
AcDbEntity
  8
0
  6
Continuous
 62
     7
370
    15
100
AcDbLine
 10
2202.9047664553
 20
2767.0301687259
 30
0.0
 11
2202.9047664553
 21
2621.0301634211
 31
0.0
  0
LINE
  5
127
330
1F
100
AcDbEntity
  8
0
  6
Continuous
 62
     7
370
    15
100
AcDbLine
 10
2218.904769078
 20
2621.0301634211
 30
0.0
 11
2218.904769078
 21
2767.0301687259
 31
0.0
  0
LINE
  5
128
330
1F
100
AcDbEntity
  8
0
  6
Continuous
 62
     7
370
    15
100
AcDbLine
 10
2218.904769078
 20
2591.030162229
 30
0.0
 11
2218.904769078
 21
2621.0301634211
 31
0.0
  0
LINE
  5
129
330
1F
100
AcDbEntity
  8
0
  6
Continuous
 62
     7
370
    15
100
AcDbLine
 10
2202.9047664553
 20
2621.0301634211
 30
0.0
 11
2202.9047664553
 21
2591.030162229
 31
0.0
  0
ARC
  5
12A
330
1F
100
AcDbEntity
  8
0
  6
Continuous
 62
     7
370
    15
100
AcDbCircle
 10
2240.9047581107
 20
2767.0301692624
 30
0.0
 40
22.0
100
AcDbArc
 50
90.0
 51
180.0
  0
ARC
  5
12B
330
1F
100
AcDbEntity
  8
0
  6
Continuous
 62
     7
370
    15
100
AcDbCircle
 10
2240.9047581107
 20
2767.0301692624
 30
0.0
 40
38.00000000000045
100
AcDbArc
 50
136.8264488927
 51
180.0
  0
LINE
  5
12C
330
1F
100
AcDbEntity
  8
0
  6
Continuous
 62
     7
370
    15
100
AcDbLine
 10
2240.9047540576
 20
2789.0301690724
 30
0.0
 11
2482.9047583342
 21
2789.0301690724
 31
0.0
  0
LINE
  5
12D
330
1F
100
AcDbEntity
  8
0
  6
Continuous
 62
     7
370
    15
100
AcDbLine
 10
2502.9047578872
 20
2789.0301690724
 30
0.0
 11
2502.9047578872
 21
2793.0301692624
 31
0.0
  0
ARC
  5
12E
330
1F
100
AcDbEntity
  8
0
  6
Continuous
 62
     7
370
    15
100
AcDbCircle
 10
2774.9047581107
 20
2591.0301692624
 30
0.0
 40
8.000000000000455
100
AcDbArc
 50
180.0
 51
0.0
  0
ARC
  5
12F
330
1F
100
AcDbEntity
  8
0
  6
Continuous
 62
     7
370
    15
100
AcDbCircle
 10
2210.9047581107
 20
2591.0301692624
 30
0.0
 40
8.0
100
AcDbArc
 50
180.0
 51
0.0
  0
LINE
  5
130
330
1F
100
AcDbEntity
  8
0
  6
Continuous
 62
     7
370
    15
100
AcDbLine
 10
2482.9047583342
 20
2789.0301690724
 30
0.0
 11
2482.9047583342
 21
2793.0301692624
 31
0.0
  0
LINE
  5
131
330
1F
100
AcDbEntity
  8
0
  6
Continuous
 62
     7
370
    15
100
AcDbLine
 10
2182.9047557265
 20
2793.0301692624
 30
0.0
 11
2192.9047461898
 21
2793.0301692624
 31
0.0
  0
LINE
  5
132
330
1F
100
AcDbEntity
  8
0
  6
Continuous
 62
     7
370
    15
100
AcDbLine
 10
2182.9047557265
 20
2793.0301692624
 30
0.0
 11
2182.9047557265
 21
3343.0301811833
 31
0.0
  0
LINE
  5
133
330
1F
100
AcDbEntity
  8
0
  6
Continuous
 62
     7
370
    15
100
AcDbLine
 10
2192.9047461898
 20
2793.0301692624
 30
0.0
 11
2792.9047700316
 21
2793.0301692624
 31
0.0
  0
LINE
  5
134
330
1F
100
AcDbEntity
  8
0
  6
Continuous
 62
     7
370
    15
100
AcDbLine
 10
2202.9047664553
 20
3363.0301621098
 30
0.0
 11
2792.9047700316
 21
3363.0301621098
 31
0.0
  0
LINE
  5
135
330
1F
100
AcDbEntity
  8
0
  6
Continuous
 62
     7
370
    15
100
AcDbLine
 10
2792.9047700316
 20
2793.0301692624
 30
0.0
 11
2802.9047604949
 21
2793.0301692624
 31
0.0
  0
LINE
  5
136
330
1F
100
AcDbEntity
  8
0
  6
Continuous
 62
     7
370
    15
100
AcDbLine
 10
2802.9047604949
 20
2793.0301692624
 30
0.0
 11
2802.9047604949
 21
3343.0301811833
 31
0.0
  0
SPLINE
  5
137
330
1F
100
AcDbEntity
  8
0
  6
Continuous
 62
     7
370
    15
100
AcDbSpline
210
0.0
220
0.0
230
1.0
 70
     8
 71
     3
 72
    30
 73
    26
 74
     0
 42
0.000000001
 43
0.00000001
 40
0.0
 40
0.0
 40
0.0
 40
0.0
 40
0.0140366765607068
 40
0.0268553228027425
 40
0.0384559308945279
 40
0.0488384940031946
 40
0.0580030064015997
 40
0.0659494636574512
 40
0.1007098030654073
 40
0.1317677965687589
 40
0.2008448364430455
 40
0.2625134705121997
 40
0.3912833951531758
 40
0.5176010740606632
 40
0.5806494574855278
 40
0.6413634077829398
 40
0.70279232844261
 40
0.7625789364458112
 40
0.8226873693640712
 40
0.8818088786272947
 40
0.9055612939077188
 40
0.9292476965462606
 40
0.9528769723551438
 40
0.9764580717262218
 40
1.0
 40
1.0
 40
1.0
 40
1.0
 10
2202.904758110699
 20
3363.030169262375
 30
0.0
 10
2202.765495351744
 20
3363.029335398621
 30
0.0
 10
2202.499054337021
 20
3363.027740029504
 30
0.0
 10
2202.117636100623
 20
3363.015695119331
 30
0.0
 10
2201.772674348301
 20
3362.999016632168
 30
0.0
 10
2201.464179157436
 20
3362.978924566473
 30
0.0
 10
2201.192116475373
 20
3362.95725057346
 30
0.0
 10
2200.67927185427
 20
3362.909801668789
 30
0.0
 10
2199.951601010206
 20
3362.819066878297
 30
0.0
 10
2198.629189589048
 20
3362.587813863714
 30
0.0
 10
2197.060665533133
 20
3362.190912425512
 30
0.0
 10
2194.608232632131
 20
3361.306938107777
 30
0.0
 10
2191.753614961609
 20
3359.787954405566
 30
0.0
 10
2189.189205618479
 20
3357.691538538062
 30
0.0
 10
2187.420943155547
 20
3355.739944874799
 30
0.0
 10
2186.24642837839
 20
3354.155889625551
 30
0.0
 10
2185.239708857606
 20
3352.476568614724
 30
0.0
 10
2184.397265551223
 20
3350.695410466333
 30
0.0
 10
2183.736114417895
 20
3348.848446707039
 30
0.0
 10
2183.35271204757
 20
3347.317990601493
 30
0.0
 10
2183.145754719144
 20
3346.158614946088
 30
0.0
 10
2183.037913977052
 20
3345.379308225047
 30
0.0
 10
2182.961474622412
 20
3344.597388187171
 30
0.0
 10
2182.913625591089
 20
3343.814046835299
 30
0.0
 10
2182.907712299017
 20
3343.291316946649
 30
0.0
 10
2182.904758110699
 20
3343.030169262382
 30
0.0
  0
SPLINE
  5
138
330
1F
100
AcDbEntity
  8
0
  6
Continuous
 62
     7
370
    15
100
AcDbSpline
210
0.0
220
0.0
230
1.0
 70
    24
 71
     3
 72
    29
 73
    25
 74
     0
 42
0.000000001
 43
0.00000001
 40
4.71238898038469
 40
4.71238898038469
 40
4.71238898038469
 40
4.71238898038469
 40
4.908738521234051
 40
4.908738521234051
 40
4.908738521234051
 40
5.105088062083411
 40
5.105088062083411
 40
5.105088062083411
 40
5.301437602932781
 40
5.301437602932781
 40
5.301437602932781
 40
5.497787143782141
 40
5.497787143782141
 40
5.497787143782141
 40
5.6941366846315
 40
5.6941366846315
 40
5.6941366846315
 40
5.890486225480871
 40
5.890486225480871
 40
5.890486225480871
 40
6.08683576633023
 40
6.08683576633023
 40
6.08683576633023
 40
6.283185307179591
 40
6.283185307179591
 40
6.283185307179591
 40
6.283185307179591
 10
2802.904758110697
 20
3353.030169262382
 30
0.0
 10
2802.904758110697
 20
3353.030169262382
 30
0.0
 10
2802.904758110697
 20
3352.965708383381
 30
0.0
 10
2802.904758110697
 20
3352.838022066382
 30
0.0
 10
2802.904758110697
 20
3352.710335749382
 30
0.0
 10
2802.904758110697
 20
3352.519430308382
 30
0.0
 10
2802.904758110697
 20
3352.268964587382
 30
0.0
 10
2802.904758110697
 20
3352.018498866381
 30
0.0
 10
2802.904758110697
 20
3351.708485252382
 30
0.0
 10
2802.904758110697
 20
3351.344865385382
 30
0.0
 10
2802.904758110697
 20
3350.981245518382
 30
0.0
 10
2802.904758110697
 20
3350.564037380381
 30
0.0
 10
2802.904758110697
 20
3350.101237074382
 30
0.0
 10
2802.904758110697
 20
3349.638436768382
 30
0.0
 10
2802.904758110697
 20
3349.130067181382
 30
0.0
 10
2802.904758110697
 20
3348.585871592381
 30
0.0
 10
2802.904758110697
 20
3348.041676004382
 30
0.0
 10
2802.904758110697
 20
3347.461681326381
 30
0.0
 10
2802.904758110697
 20
3346.857003586381
 30
0.0
 10
2802.904758110697
 20
3346.252325846382
 30
0.0
 10
2802.904758110697
 20
3345.622994947381
 30
0.0
 10
2802.904758110697
 20
3344.981072482381
 30
0.0
 10
2802.904758110697
 20
3344.339150017381
 30
0.0
 10
2802.904758110697
 20
3343.684667731382
 30
0.0
 10
2802.904758110697
 20
3343.030169262382
 30
0.0
  0
SPLINE
  5
139
330
1F
100
AcDbEntity
  8
0
  6
Continuous
 62
     7
370
    15
100
AcDbSpline
210
0.0
220
0.0
230
1.0
 70
     8
 71
     3
 72
    14
 73
    10
 74
     0
 42
0.000000001
 43
0.00000001
 40
0.0
 40
0.0
 40
0.0
 40
0.0
 40
0.25
 40
0.25
 40
0.5
 40
0.5
 40
0.75
 40
0.75
 40
1.0
 40
1.0
 40
1.0
 40
1.0
 10
2802.904758110697
 20
3353.030169262382
 30
0.0
 10
2802.904758110697
 20
3354.339166201378
 30
0.0
 10
2802.644484877381
 20
3355.647648105975
 30
0.0
 10
2801.64262199424
 20
3358.066359066091
 30
0.0
 10
2800.901426534679
 20
3359.175636462131
 30
0.0
 10
2799.050225310446
 20
3361.026837686363
 30
0.0
 10
2797.940947914406
 20
3361.768033145924
 30
0.0
 10
2795.52223695429
 20
3362.769896029065
 30
0.0
 10
2794.213755049693
 20
3363.030169262382
 30
0.0
 10
2792.904758110697
 20
3363.030169262382
 30
0.0
  0
LINE
  5
13A
330
1F
100
AcDbEntity
  8
0
  6
Continuous
 62
     7
370
    15
100
AcDbLine
 10
362.0481655055
 20
2789.0301690724
 30
0.0
 11
604.0481697822
 21
2789.0301690724
 31
0.0
  0
ARC
  5
13B
330
1F
100
AcDbEntity
  8
0
  6
Continuous
 62
     7
370
    15
100
AcDbCircle
 10
362.0481695586
 20
2767.0301692624
 30
0.0
 40
22.0
100
AcDbArc
 50
90.0
 51
180.0
  0
ARC
  5
13C
330
1F
100
AcDbEntity
  8
0
  6
Continuous
 62
     7
370
    15
100
AcDbCircle
 10
362.0481695586
 20
2767.0301692624
 30
0.0
 40
38.00000000000006
100
AcDbArc
 50
136.8264488927
 51
180.0
  0
LINE
  5
13D
330
1F
100
AcDbEntity
  8
0
  6
Continuous
 62
     7
370
    15
100
AcDbLine
 10
324.0481779033
 20
2767.0301687259
 30
0.0
 11
324.0481779033
 21
2621.0301634211
 31
0.0
  0
LINE
  5
13E
330
1F
100
AcDbEntity
  8
0
  6
Continuous
 62
     7
370
    15
100
AcDbLine
 10
340.0481805259
 20
2621.0301634211
 30
0.0
 11
340.0481805259
 21
2767.0301687259
 31
0.0
  0
LINE
  5
13F
330
1F
100
AcDbEntity
  8
0
  6
Continuous
 62
     7
370
    15
100
AcDbLine
 10
340.0481805259
 20
2591.030162229
 30
0.0
 11
340.0481805259
 21
2621.0301634211
 31
0.0
  0
LINE
  5
140
330
1F
100
AcDbEntity
  8
0
  6
Continuous
 62
     7
370
    15
100
AcDbLine
 10
324.0481779033
 20
2621.0301634211
 30
0.0
 11
324.0481779033
 21
2591.030162229
 31
0.0
  0
LINE
  5
141
330
1F
100
AcDbEntity
  8
0
  6
Continuous
 62
     7
370
    15
100
AcDbLine
 10
904.048161214
 20
2621.0301634211
 30
0.0
 11
904.048161214
 21
2767.0301687259
 31
0.0
  0
LINE
  5
142
330
1F
100
AcDbEntity
  8
0
  6
Continuous
 62
     7
370
    15
100
AcDbLine
 10
888.0481585914
 20
2767.0301687259
 30
0.0
 11
888.0481585914
 21
2621.0301634211
 31
0.0
  0
ARC
  5
143
330
1F
100
AcDbEntity
  8
0
  6
Continuous
 62
     7
370
    15
100
AcDbCircle
 10
866.0481695586
 20
2767.0301692624
 30
0.0
 40
22.0
100
AcDbArc
 50
360.0
 51
90.0
  0
ARC
  5
144
330
1F
100
AcDbEntity
  8
0
  6
Continuous
 62
     7
370
    15
100
AcDbCircle
 10
866.0481695586
 20
2767.0301692624
 30
0.0
 40
38.00000000000011
100
AcDbArc
 50
360.0
 51
43.1735511073
  0
LINE
  5
145
330
1F
100
AcDbEntity
  8
0
  6
Continuous
 62
     7
370
    15
100
AcDbLine
 10
624.0481693351
 20
2789.0301690724
 30
0.0
 11
866.0481736118
 21
2789.0301690724
 31
0.0
  0
LINE
  5
146
330
1F
100
AcDbEntity
  8
0
  6
Continuous
 62
     7
370
    15
100
AcDbLine
 10
888.0481585914
 20
2621.0301634211
 30
0.0
 11
888.0481585914
 21
2591.030162229
 31
0.0
  0
LINE
  5
147
330
1F
100
AcDbEntity
  8
0
  6
Continuous
 62
     7
370
    15
100
AcDbLine
 10
904.048161214
 20
2591.030162229
 30
0.0
 11
904.048161214
 21
2621.0301634211
 31
0.0
  0
LINE
  5
148
330
1F
100
AcDbEntity
  8
0
  6
Continuous
 62
     7
370
    15
100
AcDbLine
 10
604.0481697822
 20
2789.0301690724
 30
0.0
 11
604.0481697822
 21
2793.0301692624
 31
0.0
  0
ARC
  5
149
330
1F
100
AcDbEntity
  8
0
  6
Continuous
 62
     7
370
    15
100
AcDbCircle
 10
332.0481695586
 20
2591.0301692624
 30
0.0
 40
8.0
100
AcDbArc
 50
180.0
 51
0.0
  0
LINE
  5
14A
330
1F
100
AcDbEntity
  8
0
  6
Continuous
 62
     7
370
    15
100
AcDbLine
 10
624.0481693351
 20
2789.0301690724
 30
0.0
 11
624.0481693351
 21
2793.0301692624
 31
0.0
  0
ARC
  5
14B
330
1F
100
AcDbEntity
  8
0
  6
Continuous
 62
     7
370
    15
100
AcDbCircle
 10
896.0481695586
 20
2591.0301692624
 30
0.0
 40
8.0
100
AcDbArc
 50
180.0
 51
360.0
  0
LINE
  5
14C
330
1F
100
AcDbEntity
  8
0
  6
Continuous
 62
     7
370
    15
100
AcDbLine
 10
314.0481576377
 20
2793.0301692624
 30
0.0
 11
914.0481814796
 21
2793.0301692624
 31
0.0
  0
LINE
  5
14D
330
1F
100
AcDbEntity
  8
0
  6
Continuous
 62
     7
370
    15
100
AcDbLine
 10
748.4940156394
 20
3057.4823286671
 30
0.0
 11
801.0623022968
 21
3346.6078903813
 31
0.0
  0
LINE
  5
14E
330
1F
100
AcDbEntity
  8
0
  6
Continuous
 62
     7
370
    15
100
AcDbLine
 10
820.7397028858
 20
3363.0301621098
 30
0.0
 11
904.048161214
 21
3363.0301621098
 31
0.0
  0
LINE
  5
14F
330
1F
100
AcDbEntity
  8
0
  6
Continuous
 62
     7
370
    15
100
AcDbLine
 10
738.335193699
 20
3027.1723088164
 30
0.0
 11
760.7616052085
 21
3004.7458973069
 31
0.0
  0
LINE
  5
150
330
1F
100
AcDbEntity
  8
0
  6
Continuous
 62
     7
370
    15
100
AcDbLine
 10
314.0481576377
 20
3033.030163898
 30
0.0
 11
724.1930604035
 21
3033.030163898
 31
0.0
  0
LINE
  5
151
330
1F
100
AcDbEntity
  8
0
  6
Continuous
 62
     7
370
    15
100
AcDbLine
 10
774.9037310535
 20
3018.888038053
 30
0.0
 11
754.0292754823
 21
3039.7624936242
 31
0.0
  0
LINE
  5
152
330
1F
100
AcDbEntity
  8
0
  6
Continuous
 62
     7
370
    15
100
AcDbLine
 10
914.0481814796
 20
2793.0301692624
 30
0.0
 11
924.0481719428
 21
2793.0301692624
 31
0.0
  0
LINE
  5
153
330
1F
100
AcDbEntity
  8
0
  6
Continuous
 62
     7
370
    15
100
AcDbLine
 10
924.0481719428
 20
2793.0301692624
 30
0.0
 11
924.0481719428
 21
3343.0301811833
 31
0.0
  0
SPLINE
  5
154
330
1F
100
AcDbEntity
  8
0
  6
Continuous
 62
     7
370
    15
100
AcDbSpline
210
0.0
220
0.0
230
1.0
 70
     8
 71
     3
 72
    14
 73
    10
 74
     0
 42
0.000000001
 43
0.00000001
 40
0.0
 40
0.0
 40
0.0
 40
0.0
 40
0.25
 40
0.25
 40
0.5
 40
0.5
 40
0.75
 40
0.75
 40
1.0
 40
1.0
 40
1.0
 40
1.0
 10
820.7396966266479
 20
3363.030169262382
 30
0.0
 10
818.4214585816438
 20
3363.030169262382
 30
0.0
 10
816.103782233916
 20
3362.623089549479
 30
0.0
 10
811.7448144210448
 20
3361.04311798658
 30
0.0
 10
809.704579111611
 20
3359.870608955651
 30
0.0
 10
806.1449165718541
 20
3356.899798773853
 30
0.0
 10
804.6263518296424
 20
3355.10221743517
 30
0.0
 10
802.292109482788
 20
3351.096194070364
 30
0.0
 10
801.4769974531823
 20
3348.888722683309
 30
0.0
 10
801.0622984246498
 20
3346.607878026381
 30
0.0
  0
SPLINE
  5
155
330
1F
100
AcDbEntity
  8
0
  6
Continuous
 62
     7
370
    15
100
AcDbSpline
210
0.0
220
0.0
230
1.0
 70
     8
 71
     3
 72
    14
 73
    10
 74
     0
 42
0.000000001
 43
0.00000001
 40
0.0
 40
0.0
 40
0.0
 40
0.0
 40
0.25
 40
0.25
 40
0.5
 40
0.5
 40
0.75
 40
0.75
 40
1.0
 40
1.0
 40
1.0
 40
1.0
 10
738.3351956973788
 20
3027.172304886112
 30
0.0
 10
737.4095950852625
 20
3028.097905498229
 30
0.0
 10
736.3928559114119
 20
3028.932321774013
 30
0.0
 10
734.2160735566679
 20
3030.386801242852
 30
0.0
 10
733.0560842010078
 20
3031.006828471037
 30
0.0
 10
730.6373732408915
 20
3032.008691354178
 30
0.0
 10
729.3787114438303
 20
3032.390502236099
 30
0.0
 10
726.8110215841104
 20
3032.901247504793
 30
0.0
 10
725.5020570126436
 20
3033.030169262381
 30
0.0
 10
724.1930600736478
 20
3033.030169262381
 30
0.0
  0
ARC
  5
156
330
1F
100
AcDbEntity
  8
0
  6
Continuous
 62
     7
370
    15
100
AcDbCircle
 10
767.8326703806
 20
3011.8169658264
 30
0.0
 40
10.00000000054705
100
AcDbArc
 50
225.0000000002
 51
315.0000000062
  0
ARC
  5
157
330
1F
100
AcDbEntity
  8
0
  6
Continuous
 62
     7
370
    15
100
AcDbCircle
 10
767.8326703806
 20
3011.8169658264
 30
0.0
 40
10.0000000001029
100
AcDbArc
 50
315.0000000062
 51
44.9999999907
  0
SPLINE
  5
158
330
1F
100
AcDbEntity
  8
0
  6
Continuous
 62
     7
370
    15
100
AcDbSpline
210
0.0
220
0.0
230
1.0
 70
     8
 71
     3
 72
    14
 73
    10
 74
     0
 42
0.000000001
 43
0.00000001
 40
0.0
 40
0.0
 40
0.0
 40
0.0
 40
0.25
 40
0.25
 40
0.5
 40
0.5
 40
0.75
 40
0.75
 40
1.0
 40
1.0
 40
1.0
 40
1.0
 10
748.1714161946476
 20
3053.904626884382
 30
0.0
 10
748.1714161946476
 20
3052.595629945386
 30
0.0
 10
748.300337952236
 20
3051.286665373918
 30
0.0
 10
748.8110832209296
 20
3048.718975514198
 30
0.0
 10
749.1928941028514
 20
3047.460313717136
 30
0.0
 10
750.1947569859921
 20
3045.04160275702
 30
0.0
 10
750.8147842141768
 20
3043.881613401359
 30
0.0
 10
752.2692636830168
 20
3041.704831046615
 30
0.0
 10
753.1036799588007
 20
3040.688091872764
 30
0.0
 10
754.0292805709173
 20
3039.762491260647
 30
0.0
  0
SPLINE
  5
159
330
1F
100
AcDbEntity
  8
0
  6
Continuous
 62
     7
370
    15
100
AcDbSpline
210
0.0
220
0.0
230
1.0
 70
     8
 71
     3
 72
     8
 73
     4
 74
     0
 42
0.000000001
 43
0.00000001
 40
0.0
 40
0.0
 40
0.0
 40
0.0
 40
1.0
 40
1.0
 40
1.0
 40
1.0
 10
748.4940179926496
 20
3057.482335648382
 30
0.0
 10
748.2795301785017
 20
3056.302652670568
 30
0.0
 10
748.1714161946476
 20
3055.103650216332
 30
0.0
 10
748.1714161946476
 20
3053.904626884382
 30
0.0
  0
SPLINE
  5
15A
330
1F
100
AcDbEntity
  8
0
  6
Continuous
 62
     7
370
    15
100
AcDbSpline
210
0.0
220
0.0
230
1.0
 70
     8
 71
     3
 72
    29
 73
    25
 74
     0
 42
0.000000001
 43
0.00000001
 40
1.5707963267949
 40
1.5707963267949
 40
1.5707963267949
 40
1.5707963267949
 40
1.76714586764426
 40
1.76714586764426
 40
1.76714586764426
 40
1.96349540849362
 40
1.96349540849362
 40
1.96349540849362
 40
2.15984494934298
 40
2.15984494934298
 40
2.15984494934298
 40
2.35619449019234
 40
2.35619449019234
 40
2.35619449019234
 40
2.55254403104171
 40
2.55254403104171
 40
2.55254403104171
 40
2.74889357189107
 40
2.74889357189107
 40
2.74889357189107
 40
2.94524311274043
 40
2.94524311274043
 40
2.94524311274043
 40
3.14159265358979
 40
3.14159265358979
 40
3.14159265358979
 40
3.14159265358979
 10
904.0481695586477
 20
3363.030169262382
 30
0.0
 10
905.3571664976478
 20
3363.030169262382
 30
0.0
 10
906.6661310686477
 20
3362.901247504382
 30
0.0
 10
907.9499759986477
 20
3362.645874870381
 30
0.0
 10
909.2338209286477
 20
3362.390502236382
 30
0.0
 10
910.4924827256477
 20
3362.008691354381
 30
0.0
 10
911.7018382056477
 20
3361.507759912382
 30
0.0
 10
912.9111936856478
 20
3361.006828471382
 30
0.0
 10
914.0711830416477
 20
3360.386801242381
 30
0.0
 10
915.1595742186478
 20
3359.659561508381
 30
0.0
 10
916.2479653966478
 20
3358.932321774382
 30
0.0
 10
917.2647045706478
 20
3358.097905498382
 30
0.0
 10
918.1903051826478
 20
3357.172304886381
 30
0.0
 10
919.1159057946477
 20
3356.246704274381
 30
0.0
 10
919.9503220706478
 20
3355.229965100381
 30
0.0
 10
920.6775618046478
 20
3354.141573922382
 30
0.0
 10
921.4048015386478
 20
3353.053182745381
 30
0.0
 10
922.0248287676477
 20
3351.893193389381
 30
0.0
 10
922.5257602086479
 20
3350.683837909382
 30
0.0
 10
923.0266916506478
 20
3349.474482429382
 30
0.0
 10
923.4085025326477
 20
3348.215820632382
 30
0.0
 10
923.6638751666477
 20
3346.931975702381
 30
0.0
 10
923.9192478006478
 20
3345.648130772382
 30
0.0
 10
924.0481695586477
 20
3344.339166201381
 30
0.0
 10
924.0481695586477
 20
3343.030169262382
 30
0.0
  0
ARC
  5
15B
330
1F
100
AcDbEntity
  8
0
  6
Continuous
 62
     7
370
    15
100
AcDbCircle
 10
314.0481695586
 20
3023.0301692624
 30
0.0
 40
10.0
100
AcDbArc
 50
90.0000000118
 51
180.0000002353
  0
LINE
  5
15C
330
1F
100
AcDbEntity
  8
0
  6
Continuous
 62
     7
370
    15
100
AcDbLine
 10
304.0481671745
 20
3023.0301734347
 30
0.0
 11
304.0481671745
 21
2793.0301692624
 31
0.0
  0
LINE
  5
15D
330
1F
100
AcDbEntity
  8
0
  6
Continuous
 62
     7
370
    15
100
AcDbLine
 10
304.0481671745
 20
2793.0301692624
 30
0.0
 11
314.0481576377
 21
2793.0301692624
 31
0.0
  0
SPLINE
  5
15E
330
1F
100
AcDbEntity
  8
0
  6
Continuous
 62
     7
370
    15
100
AcDbSpline
210
0.0
220
0.0
230
1.0
 70
    24
 71
     3
 72
     8
 73
     4
 74
     0
 42
0.000000001
 43
0.00000001
 40
0.0
 40
0.0
 40
0.0
 40
0.0
 40
1.0
 40
1.0
 40
1.0
 40
1.0
 10
754.0292805706478
 20
3039.762491260381
 30
0.0
 10
754.0292805706478
 20
3039.762491260381
 30
0.0
 10
753.7681876186477
 20
3040.023584212381
 30
0.0
 10
753.2538066026478
 20
3040.537965228381
 30
0.0
  0
SPLINE
  5
15F
330
1F
100
AcDbEntity
  8
0
  6
Continuous
 62
     7
370
    15
100
AcDbSpline
210
0.0
220
0.0
230
1.0
 70
    24
 71
     3
 72
    29
 73
    25
 74
     0
 42
0.000000001
 43
0.00000001
 40
1.39094282700242
 40
1.39094282700242
 40
1.39094282700242
 40
1.39094282700242
 40
1.51159928490117
 40
1.51159928490117
 40
1.51159928490117
 40
1.63225574279991
 40
1.63225574279991
 40
1.63225574279991
 40
1.75291220069865
 40
1.75291220069865
 40
1.75291220069865
 40
1.87356865859739
 40
1.87356865859739
 40
1.87356865859739
 40
1.99422511649613
 40
1.99422511649613
 40
1.99422511649613
 40
2.11488157439487
 40
2.11488157439487
 40
2.11488157439487
 40
2.23553803229361
 40
2.23553803229361
 40
2.23553803229361
 40
2.35619449019235
 40
2.35619449019235
 40
2.35619449019235
 40
2.35619449019235
 10
304.0481695586478
 20
3046.833559072382
 30
0.0
 10
304.0481695586478
 20
3047.117949070382
 30
0.0
 10
304.0481695586478
 20
3047.419515594382
 30
0.0
 10
304.0481695586478
 20
3047.736068325381
 30
0.0
 10
304.0481695586478
 20
3048.052621056381
 30
0.0
 10
304.0481695586478
 20
3048.384157761381
 30
0.0
 10
304.0481695586478
 20
3048.728270444381
 30
0.0
 10
304.0481695586478
 20
3049.072383127381
 30
0.0
 10
304.0481695586478
 20
3049.429069360382
 30
0.0
 10
304.0481695586478
 20
3049.795738484382
 30
0.0
 10
304.0481695586478
 20
3050.162407608382
 30
0.0
 10
304.0481695586478
 20
3050.539057035381
 30
0.0
 10
304.0481695586478
 20
3050.922951110381
 30
0.0
 10
304.0481695586478
 20
3051.306845186381
 30
0.0
 10
304.0481695586478
 20
3051.697981200381
 30
0.0
 10
304.0481695586478
 20
3052.093518280381
 30
0.0
 10
304.0481695586478
 20
3052.489055361381
 30
0.0
 10
304.0481695586478
 20
3052.888990717382
 30
0.0
 10
304.0481695586478
 20
3053.290419564382
 30
0.0
 10
304.0481695586478
 20
3053.691848412382
 30
0.0
 10
304.0481695586478
 20
3054.094767917381
 30
0.0
 10
304.0481695586478
 20
3054.496251624381
 30
0.0
 10
304.0481695586478
 20
3054.897735331382
 30
0.0
 10
304.0481695586478
 20
3055.297780404381
 30
0.0
 10
304.0481695586478
 20
3055.693481266382
 30
0.0
  0
LINE
  5
160
330
1F
100
AcDbEntity
  8
0
  6
Continuous
 62
     7
370
    15
100
AcDbLine
 10
304.0481671745
 20
3344.8190357823
 30
0.0
 11
304.0481671745
 21
3055.6934740681
 31
0.0
  0
LINE
  5
161
330
1F
100
AcDbEntity
  8
0
  6
Continuous
 62
     7
370
    15
100
AcDbLine
 10
304.0481671745
 20
3046.8335714478
 30
0.0
 11
304.0481671745
 21
3025.9591009755
 31
0.0
  0
SPLINE
  5
162
330
1F
100
AcDbEntity
  8
0
  6
Continuous
 62
     7
370
    15
100
AcDbSpline
210
0.0
220
0.0
230
1.0
 70
    24
 71
     3
 72
    10
 73
     6
 74
     0
 42
0.000000001
 43
0.00000001
 40
0.0
 40
0.0
 40
0.0
 40
0.0
 40
0.3893707547121386
 40
0.778173656417059
 40
1.0
 40
1.0
 40
1.0
 40
1.0
 10
304.048167174462
 20
3025.959100975485
 30
0.0
 10
304.048167174462
 20
3025.606112921323
 30
0.0
 10
304.048167174462
 20
3024.900651605969
 30
0.0
 10
304.0481671744619
 20
3023.924940875634
 30
0.0
 10
304.048167174462
 20
3023.289065896275
 30
0.0
 10
304.048167174462
 20
3023.058068408461
 30
0.0
  0
SPLINE
  5
163
330
1F
100
AcDbEntity
  8
0
  6
Continuous
 62
     7
370
    15
100
AcDbSpline
210
0.0
220
0.0
230
1.0
 70
    24
 71
     3
 72
    14
 73
    10
 74
     0
 42
0.000000001
 43
0.00000001
 40
0.0
 40
0.0
 40
0.0
 40
0.0
 40
0.25
 40
0.25
 40
0.5
 40
0.5
 40
0.75
 40
0.75
 40
1.0
 40
1.0
 40
1.0
 40
1.0
 10
812.1511038486478
 20
3363.030169262382
 30
0.0
 10
813.5112165546476
 20
3363.030169262382
 30
0.0
 10
814.7358186226478
 20
3363.030169262382
 30
0.0
 10
816.8689488986478
 20
3363.030169262382
 30
0.0
 10
817.7774276411478
 20
3363.030169262382
 30
0.0
 10
819.2447858591479
 20
3363.030169262382
 30
0.0
 10
819.8036319176477
 20
3363.030169262381
 30
0.0
 10
820.5510958136477
 20
3363.030169262382
 30
0.0
 10
820.7396966266479
 20
3363.030169262382
 30
0.0
 10
820.7396966266479
 20
3363.030169262382
 30
0.0
  0
SPLINE
  5
164
330
1F
100
AcDbEntity
  8
0
  6
Continuous
 62
     7
370
    15
100
AcDbSpline
210
0.0
220
0.0
230
1.0
 70
    24
 71
     3
 72
    14
 73
    10
 74
     0
 42
0.000000001
 43
0.00000001
 40
0.0
 40
0.0
 40
0.0
 40
0.0
 40
0.25
 40
0.25
 40
0.5
 40
0.5
 40
0.75
 40
0.75
 40
1.0
 40
1.0
 40
1.0
 40
1.0
 10
791.2235993236477
 20
3363.030169262382
 30
0.0
 10
793.1776235236478
 20
3363.030169262382
 30
0.0
 10
795.125563699648
 20
3363.030169262382
 30
0.0
 10
798.9376165116478
 20
3363.030169262382
 30
0.0
 10
800.8016401836479
 20
3363.030169262382
 30
0.0
 10
804.3770973676476
 20
3363.030169262382
 30
0.0
 10
806.0884494536479
 20
3363.030169262382
 30
0.0
 10
809.2954333016478
 20
3363.030169262382
 30
0.0
 10
810.7909911406479
 20
3363.030169262382
 30
0.0
 10
812.1511038486478
 20
3363.030169262382
 30
0.0
  0
LINE
  5
165
330
1F
100
AcDbEntity
  8
0
  6
Continuous
 62
     7
370
    15
100
AcDbLine
 10
314.0481576377
 20
3363.0301621098
 30
0.0
 11
791.2236020023
 21
3363.0301621098
 31
0.0
  0
SPLINE
  5
166
330
1F
100
AcDbEntity
  8
0
  6
Continuous
 62
     7
370
    15
100
AcDbSpline
210
0.0
220
0.0
230
1.0
 70
     8
 71
     3
 72
    14
 73
    10
 74
     0
 42
0.000000001
 43
0.00000001
 40
0.0
 40
0.0
 40
0.0
 40
0.0
 40
0.25
 40
0.25
 40
0.5
 40
0.5
 40
0.75
 40
0.75
 40
1.0
 40
1.0
 40
1.0
 40
1.0
 10
314.0481695586479
 20
3363.03016926238
 30
0.0
 10
312.7391726196524
 20
3363.03016926238
 30
0.0
 10
311.4306907150556
 20
3362.769896029063
 30
0.0
 10
309.0119797549396
 20
3361.768033145923
 30
0.0
 10
307.9027023588996
 20
3361.026837686362
 30
0.0
 10
306.051501134667
 20
3359.17563646213
 30
0.0
 10
305.3103056751062
 20
3358.06635906609
 30
0.0
 10
304.3084427919654
 20
3355.647648105974
 30
0.0
 10
304.0481695586483
 20
3354.339166201378
 30
0.0
 10
304.0481695586481
 20
3353.030169262382
 30
0.0
  0
SPLINE
  5
167
330
1F
100
AcDbEntity
  8
0
  6
Continuous
 62
     7
370
    15
100
AcDbSpline
210
0.0
220
0.0
230
1.0
 70
    24
 71
     3
 72
    29
 73
    25
 74
     0
 42
0.000000001
 43
0.00000001
 40
0.0
 40
0.0
 40
0.0
 40
0.0
 40
0.1738678533753002
 40
0.1738678533753002
 40
0.1738678533753002
 40
0.3477357067506102
 40
0.3477357067506102
 40
0.3477357067506102
 40
0.521603560125908
 40
0.521603560125908
 40
0.521603560125908
 40
0.69547141350121
 40
0.69547141350121
 40
0.69547141350121
 40
0.8693392668765131
 40
0.8693392668765131
 40
0.8693392668765131
 40
1.043207120251815
 40
1.043207120251815
 40
1.043207120251815
 40
1.217074973627118
 40
1.217074973627118
 40
1.217074973627118
 40
1.39094282700242
 40
1.39094282700242
 40
1.39094282700242
 40
1.39094282700242
 10
304.0481695586478
 20
3344.819023644382
 30
0.0
 10
304.0481695586478
 20
3345.389234808381
 30
0.0
 10
304.0481695586478
 20
3345.950401810381
 30
0.0
 10
304.0481695586478
 20
3346.494080889382
 30
0.0
 10
304.0481695586478
 20
3347.037759968382
 30
0.0
 10
304.0481695586478
 20
3347.563934587381
 30
0.0
 10
304.0481695586478
 20
3348.064687507382
 30
0.0
 10
304.0481695586478
 20
3348.565440428381
 30
0.0
 10
304.0481695586478
 20
3349.040756419382
 30
0.0
 10
304.0481695586478
 20
3349.483483501382
 30
0.0
 10
304.0481695586478
 20
3349.926210583381
 30
0.0
 10
304.0481695586478
 20
3350.336335290382
 30
0.0
 10
304.0481695586478
 20
3350.707686563382
 30
0.0
 10
304.0481695586478
 20
3351.079037836381
 30
0.0
 10
304.0481695586478
 20
3351.411604378382
 30
0.0
 10
304.0481695586478
 20
3351.700382133381
 30
0.0
 10
304.0481695586478
 20
3351.989159887382
 30
0.0
 10
304.0481695586478
 20
3352.234140069382
 30
0.0
 10
304.0481695586478
 20
3352.431636515382
 30
0.0
 10
304.0481695586478
 20
3352.629132960381
 30
0.0
 10
304.0481695586478
 20
3352.779139661382
 30
0.0
 10
304.0481695586478
 20
3352.879399499382
 30
0.0
 10
304.0481695586478
 20
3352.979659337382
 30
0.0
 10
304.0481695586478
 20
3353.030169262382
 30
0.0
 10
304.0481695586478
 20
3353.030169262382
 30
0.0
  0
SPLINE
  5
168
330
1F
100
AcDbEntity
  8
0
  6
Continuous
 62
     7
370
    15
100
AcDbSpline
210
0.0
220
0.0
230
1.0
 70
     8
 71
     3
 72
    23
 73
    19
 74
     0
 42
0.000000001
 43
0.00000001
 40
0.0
 40
0.0
 40
0.0
 40
0.0
 40
0.1026903588614463
 40
0.1874325390346317
 40
0.2572539698584612
 40
0.3147761327495086
 40
0.3759243964962171
 40
0.4225532642823626
 40
0.4598201357970132
 40
0.4929837636542492
 40
0.5325988880376374
 40
0.5794300821591025
 40
0.6349233783773466
 40
0.7013273590273986
 40
0.7817054744403349
 40
0.8449057410376893
 40
0.9172364612836046
 40
1.0
 40
1.0
 40
1.0
 40
1.0
 10
1429.551644212265
 20
2112.514976517303
 30
0.0
 10
1429.61264865945
 20
2112.778472430209
 30
0.0
 10
1429.723995221631
 20
2113.259410548733
 30
0.0
 10
1429.956141184264
 20
2113.918501420925
 30
0.0
 10
1430.194467043317
 20
2114.459057376846
 30
0.0
 10
1430.448788333869
 20
2114.935238847866
 30
0.0
 10
1430.709716178239
 20
2115.346972251851
 30
0.0
 10
1430.971130106597
 20
2115.69927970868
 30
0.0
 10
1431.202741438312
 20
2115.975131008599
 30
0.0
 10
1431.435270371149
 20
2116.22473023597
 30
0.0
 10
1431.702259507244
 20
2116.482063200905
 30
0.0
 10
1432.035007315744
 20
2116.764389513256
 30
0.0
 10
1432.446282983002
 20
2117.064570611439
 30
0.0
 10
1432.952790624537
 20
2117.37391327825
 30
0.0
 10
1433.487366548343
 20
2117.637281825691
 30
0.0
 10
1434.040632080435
 20
2117.856821336166
 30
0.0
 10
1434.602024676444
 20
2118.038599460333
 30
0.0
 10
1435.001106835728
 20
2118.129105687765
 30
0.0
 10
1435.214070564766
 20
2118.177402869804
 30
0.0
  0
SPLINE
  5
169
330
1F
100
AcDbEntity
  8
0
  6
Continuous
 62
     7
370
    15
100
AcDbSpline
210
0.0
220
0.0
230
1.0
 70
     8
 71
     3
 72
    10
 73
     6
 74
     0
 42
0.000000001
 43
0.00000001
 40
0.0
 40
0.0
 40
0.0
 40
0.0
 40
0.316401026089393
 40
0.6490321673231221
 40
1.0
 40
1.0
 40
1.0
 40
1.0
 10
1429.18300438549
 20
2109.025005356414
 30
0.0
 10
1429.192600879928
 20
2109.411479300511
 30
0.0
 10
1429.212286130828
 20
2110.204251766049
 30
0.0
 10
1429.339510702158
 20
2111.377273549781
 30
0.0
 10
1429.479699447587
 20
2112.129079711327
 30
0.0
 10
1429.551674014587
 20
2112.51506592427
 30
0.0
  0
SPLINE
  5
16A
330
1F
100
AcDbEntity
  8
0
  6
Continuous
 62
     7
370
    15
100
AcDbSpline
210
0.0
220
0.0
230
1.0
 70
     8
 71
     3
 72
    10
 73
     6
 74
     0
 42
0.000000001
 43
0.00000001
 40
0.0
 40
0.0
 40
0.0
 40
0.0
 40
0.350967832676878
 40
0.6835989739106071
 40
1.0
 40
1.0
 40
1.0
 40
1.0
 10
1435.213981157799
 20
2118.177373067481
 30
0.0
 10
1435.599967370741
 20
2118.249347634481
 30
0.0
 10
1436.351773532288
 20
2118.38953637991
 30
0.0
 10
1437.524795316019
 20
2118.51676095124
 30
0.0
 10
1438.317567781557
 20
2118.536446202141
 30
0.0
 10
1438.704041725654
 20
2118.546042696578
 30
0.0
  0
LINE
  5
16B
330
1F
100
AcDbEntity
  8
0
  6
Continuous
 62
     7
370
    15
100
AcDbLine
 10
1438.7040417257
 20
2118.5411104122
 30
0.0
 11
1863.3124511304
 21
2118.5411104122
 31
0.0
  0
LINE
  5
16C
330
1F
100
AcDbEntity
  8
0
  6
Continuous
 62
     7
370
    15
100
AcDbLine
 10
1429.1879366698
 20
1684.4165959517
 30
0.0
 11
1429.1879366698
 21
2109.0250053564
 31
0.0
  0
SPLINE
  5
16D
330
1F
100
AcDbEntity
  8
0
  6
Continuous
 62
     7
370
    15
100
AcDbSpline
210
0.0
220
0.0
230
1.0
 70
     8
 71
     3
 72
    27
 73
    23
 74
     0
 42
0.000000001
 43
0.00000001
 40
0.0
 40
0.0
 40
0.0
 40
0.0
 40
0.0196286218487322
 40
0.0452920855495998
 40
0.0631562839729486
 40
0.0806011731481215
 40
0.0987699630905037
 40
0.1185678782726712
 40
0.1477485316168535
 40
0.179417544046565
 40
0.2121625608849916
 40
0.2601767430688944
 40
0.3062215199847337
 40
0.3653104796444444
 40
0.4226877028478693
 40
0.4791923595400457
 40
0.5637726126033606
 40
0.6498427022750964
 40
0.7374165604499989
 40
0.825389554537547
 40
0.9128691177411241
 40
1.0
 40
1.0
 40
1.0
 40
1.0
 10
1419.167442208786
 20
1674.418065802199
 30
0.0
 10
1419.201197688732
 20
1674.418138530242
 30
0.0
 10
1419.279086808879
 20
1674.418306346645
 30
0.0
 10
1419.439486476243
 20
1674.420681951158
 30
0.0
 10
1419.648629860135
 20
1674.427823928902
 30
0.0
 10
1419.882720345215
 20
1674.440951690682
 30
0.0
 10
1420.166646298659
 20
1674.464417837395
 30
0.0
 10
1420.527823017903
 20
1674.505474419419
 30
0.0
 10
1420.964660022842
 20
1674.572972372336
 30
0.0
 10
1421.462485309371
 20
1674.675440998617
 30
0.0
 10
1422.048793810285
 20
1674.828322738563
 30
0.0
 10
1422.700040387613
 20
1675.044518274471
 30
0.0
 10
1423.468575625894
 20
1675.367095247759
 30
0.0
 10
1424.255241297222
 20
1675.779946970582
 30
0.0
 10
1425.047017112755
 20
1676.296911501404
 30
0.0
 10
1425.8945461794
 20
1676.970243932279
 30
0.0
 10
1426.769898010199
 20
1677.847805990569
 30
0.0
 10
1427.619043412368
 20
1678.978148802857
 30
0.0
 10
1428.30933672057
 20
1680.234253502376
 30
0.0
 10
1428.811137082987
 20
1681.58296960542
 30
0.0
 10
1429.12886478729
 20
1682.988105894424
 30
0.0
 10
1429.168272273364
 20
1683.94190194517
 30
0.0
 10
1429.187936669845
 20
1684.4178476492
 30
0.0
  0
LINE
  5
16E
330
1F
100
AcDbEntity
  8
0
  6
Continuous
 62
     7
370
    15
100
AcDbLine
 10
1863.3111994329
 20
2294.4178619543
 30
0.0
 11
1263.311175591
 21
2294.4178619543
 31
0.0
  0
LINE
  5
16F
330
1F
100
AcDbEntity
  8
0
  6
Continuous
 62
     7
370
    15
100
AcDbLine
 10
1253.3111851278
 20
2284.4178714911
 30
0.0
 11
1253.3111851278
 21
1684.4178476492
 31
0.0
  0
LINE
  5
170
330
1F
100
AcDbEntity
  8
0
  6
Continuous
 62
     7
370
    15
100
AcDbLine
 10
1273.3111958566
 20
1674.4178571859
 30
0.0
 11
1356.6196541848
 21
1674.4178571859
 31
0.0
  0
LINE
  5
171
330
1F
100
AcDbEntity
  8
0
  6
Continuous
 62
     7
370
    15
100
AcDbLine
 10
1873.3111898961
 20
2191.1093928972
 30
0.0
 11
1873.3111898961
 21
2274.4178512255
 31
0.0
  0
SPLINE
  5
172
330
1F
100
AcDbEntity
  8
0
  6
Continuous
 62
     7
370
    15
100
AcDbSpline
210
0.0
220
0.0
230
1.0
 70
    24
 71
     3
 72
    29
 73
    25
 74
     0
 42
0.000000001
 43
0.00000001
 40
0.0
 40
0.0
 40
0.0
 40
0.0
 40
0.1738678533753002
 40
0.1738678533753002
 40
0.1738678533753002
 40
0.3477357067506102
 40
0.3477357067506102
 40
0.3477357067506102
 40
0.521603560125908
 40
0.521603560125908
 40
0.521603560125908
 40
0.69547141350121
 40
0.69547141350121
 40
0.69547141350121
 40
0.8693392668765131
 40
0.8693392668765131
 40
0.8693392668765131
 40
1.043207120251815
 40
1.043207120251815
 40
1.043207120251815
 40
1.217074973627118
 40
1.217074973627118
 40
1.217074973627118
 40
1.39094282700242
 40
1.39094282700242
 40
1.39094282700242
 40
1.39094282700242
 10
1366.45835954494
 20
1674.417859570128
 30
0.0
 10
1366.35468478794
 20
1674.417859570128
 30
0.0
 10
1366.20131641194
 20
1674.417859570128
 30
0.0
 10
1366.00056211894
 20
1674.417859570128
 30
0.0
 10
1365.79980782594
 20
1674.417859570128
 30
0.0
 10
1365.55167372194
 20
1674.417859570128
 30
0.0
 10
1365.25989342894
 20
1674.417859570128
 30
0.0
 10
1364.96811313594
 20
1674.417859570128
 30
0.0
 10
1364.63269552794
 20
1674.417859570128
 30
0.0
 10
1364.25868756294
 20
1674.417859570128
 30
0.0
 10
1363.88467959894
 20
1674.417859570128
 30
0.0
 10
1363.47209265394
 20
1674.417859570128
 30
0.0
 10
1363.02713483594
 20
1674.417859570128
 30
0.0
 10
1362.58217701894
 20
1674.417859570128
 30
0.0
 10
1362.10486186394
 20
1674.417859570128
 30
0.0
 10
1361.60237142994
 20
1674.417859570128
 30
0.0
 10
1361.09988099694
 20
1674.417859570128
 30
0.0
 10
1360.57223056994
 20
1674.417859570128
 30
0.0
 10
1360.02735959294
 20
1674.417859570128
 30
0.0
 10
1359.48248861694
 20
1674.417859570128
 30
0.0
 10
1358.92041366394
 20
1674.417859570128
 30
0.0
 10
1358.34959215794
 20
1674.417859570128
 30
0.0
 10
1357.77877065194
 20
1674.417859570128
 30
0.0
 10
1357.19921995494
 20
1674.417859570128
 30
0.0
 10
1356.61966044394
 20
1674.417859570128
 30
0.0
  0
SPLINE
  5
173
330
1F
100
AcDbEntity
  8
0
  6
Continuous
 62
     7
370
    15
100
AcDbSpline
210
0.0
220
0.0
230
1.0
 70
    24
 71
     3
 72
    29
 73
    25
 74
     0
 42
0.000000001
 43
0.00000001
 40
0.179853499792477
 40
0.179853499792477
 40
0.179853499792477
 40
0.179853499792477
 40
0.353721353167787
 40
0.353721353167787
 40
0.353721353167787
 40
0.5275892065430869
 40
0.5275892065430869
 40
0.5275892065430869
 40
0.7014570599183869
 40
0.7014570599183869
 40
0.7014570599183869
 40
0.8753249132936899
 40
0.8753249132936899
 40
0.8753249132936899
 40
1.049192766668992
 40
1.049192766668992
 40
1.049192766668992
 40
1.223060620044295
 40
1.223060620044295
 40
1.223060620044295
 40
1.396928473419597
 40
1.396928473419597
 40
1.396928473419597
 40
1.5707963267949
 40
1.5707963267949
 40
1.5707963267949
 40
1.5707963267949
 10
1873.31118751194
 20
2191.109386638128
 30
0.0
 10
1873.31118751194
 20
2190.529827127129
 30
0.0
 10
1873.31118751194
 20
2189.950276430128
 30
0.0
 10
1873.31118751194
 20
2189.379454924128
 30
0.0
 10
1873.31118751194
 20
2188.808633418128
 30
0.0
 10
1873.31118751194
 20
2188.246558465129
 30
0.0
 10
1873.31118751194
 20
2187.701687489129
 30
0.0
 10
1873.31118751194
 20
2187.156816512128
 30
0.0
 10
1873.31118751194
 20
2186.629166085128
 30
0.0
 10
1873.31118751194
 20
2186.126675652129
 30
0.0
 10
1873.31118751194
 20
2185.624185218128
 30
0.0
 10
1873.31118751194
 20
2185.146870063129
 30
0.0
 10
1873.31118751194
 20
2184.701912246129
 30
0.0
 10
1873.31118751194
 20
2184.256954428129
 30
0.0
 10
1873.31118751194
 20
2183.844367483128
 30
0.0
 10
1873.31118751194
 20
2183.470359519129
 30
0.0
 10
1873.31118751194
 20
2183.096351554128
 30
0.0
 10
1873.31118751194
 20
2182.760933946128
 30
0.0
 10
1873.31118751194
 20
2182.469153653129
 30
0.0
 10
1873.31118751194
 20
2182.177373360129
 30
0.0
 10
1873.31118751194
 20
2181.929239256128
 30
0.0
 10
1873.31118751194
 20
2181.728484963129
 30
0.0
 10
1873.31118751194
 20
2181.527730670129
 30
0.0
 10
1873.31118751194
 20
2181.374362294128
 30
0.0
 10
1873.31118751194
 20
2181.270687537129
 30
0.0
  0
ARC
  5
174
330
1F
100
AcDbEntity
  8
0
  6
Continuous
 62
     7
370
    15
100
AcDbCircle
 10
1263.3111875119
 20
2284.4178595701
 30
0.0
 40
10.0
100
AcDbArc
 50
90.0000000235
 51
179.999999978
  0
SPLINE
  5
175
330
1F
100
AcDbEntity
  8
0
  6
Continuous
 62
     7
370
    15
100
AcDbSpline
210
0.0
220
0.0
230
1.0
 70
    24
 71
     3
 72
    29
 73
    25
 74
     0
 42
0.000000001
 43
0.00000001
 40
4.71238898038469
 40
4.71238898038469
 40
4.71238898038469
 40
4.71238898038469
 40
4.908738521234051
 40
4.908738521234051
 40
4.908738521234051
 40
5.105088062083411
 40
5.105088062083411
 40
5.105088062083411
 40
5.301437602932781
 40
5.301437602932781
 40
5.301437602932781
 40
5.497787143782141
 40
5.497787143782141
 40
5.497787143782141
 40
5.6941366846315
 40
5.6941366846315
 40
5.6941366846315
 40
5.890486225480871
 40
5.890486225480871
 40
5.890486225480871
 40
6.08683576633023
 40
6.08683576633023
 40
6.08683576633023
 40
6.283185307179591
 40
6.283185307179591
 40
6.283185307179591
 40
6.283185307179591
 10
1273.31118751194
 20
1674.417859570128
 30
0.0
 10
1272.65668904294
 20
1674.417859570128
 30
0.0
 10
1272.00220675694
 20
1674.417859570128
 30
0.0
 10
1271.36028429194
 20
1674.417859570128
 30
0.0
 10
1270.71836182694
 20
1674.417859570128
 30
0.0
 10
1270.08903092794
 20
1674.417859570128
 30
0.0
 10
1269.48435318794
 20
1674.417859570128
 30
0.0
 10
1268.87967544794
 20
1674.417859570128
 30
0.0
 10
1268.29968076994
 20
1674.417859570128
 30
0.0
 10
1267.75548518194
 20
1674.417859570128
 30
0.0
 10
1267.21128959294
 20
1674.417859570128
 30
0.0
 10
1266.70292000594
 20
1674.417859570128
 30
0.0
 10
1266.240119699939
 20
1674.417859570128
 30
0.0
 10
1265.77731939394
 20
1674.417859570128
 30
0.0
 10
1265.36011125594
 20
1674.417859570128
 30
0.0
 10
1264.99649138894
 20
1674.417859570128
 30
0.0
 10
1264.63287152194
 20
1674.417859570128
 30
0.0
 10
1264.32285790794
 20
1674.417859570128
 30
0.0
 10
1264.07239218694
 20
1674.417859570128
 30
0.0
 10
1263.82192646594
 20
1674.417859570128
 30
0.0
 10
1263.63102102494
 20
1674.417859570128
 30
0.0
 10
1263.50333470794
 20
1674.417859570128
 30
0.0
 10
1263.37564839094
 20
1674.417859570128
 30
0.0
 10
1263.31118751194
 20
1674.417859570128
 30
0.0
 10
1263.31118751194
 20
1674.417859570128
 30
0.0
  0
SPLINE
  5
176
330
1F
100
AcDbEntity
  8
0
  6
Continuous
 62
     7
370
    15
100
AcDbSpline
210
0.0
220
0.0
230
1.0
 70
     8
 71
     3
 72
    41
 73
    37
 74
     0
 42
0.000000001
 43
0.00000001
 40
-1.5707963267949
 40
-1.5707963267949
 40
-1.5707963267949
 40
-1.5707963267949
 40
-1.37444678594553
 40
-1.37444678594553
 40
-1.37444678594553
 40
-1.17809724509617
 40
-1.17809724509617
 40
-1.17809724509617
 40
-0.98174770424681
 40
-0.98174770424681
 40
-0.98174770424681
 40
-0.785398163397448
 40
-0.785398163397448
 40
-0.785398163397448
 40
-0.687223392972767
 40
-0.687223392972767
 40
-0.687223392972767
 40
-0.589048622548086
 40
-0.589048622548086
 40
-0.589048622548086
 40
-0.490873852123405
 40
-0.490873852123405
 40
-0.490873852123405
 40
-0.392699081698724
 40
-0.392699081698724
 40
-0.392699081698724
 40
-0.294524311274043
 40
-0.294524311274043
 40
-0.294524311274043
 40
-0.196349540849362
 40
-0.196349540849362
 40
-0.196349540849362
 40
-0.0981747704246812
 40
-0.0981747704246812
 40
-0.0981747704246812
 40
-0.0000000000000001
 40
-0.0000000000000001
 40
-0.0000000000000001
 40
-0.0000000000000001
 10
1263.31118751194
 20
1674.417859570128
 30
0.0
 10
1262.65668904294
 20
1674.417859570128
 30
0.0
 10
1262.00220675694
 20
1674.482320449129
 30
0.0
 10
1261.36028429194
 20
1674.610006766128
 30
0.0
 10
1260.71836182694
 20
1674.737693083129
 30
0.0
 10
1260.08903092794
 20
1674.928598524129
 30
0.0
 10
1259.48435318794
 20
1675.179064245128
 30
0.0
 10
1258.87967544794
 20
1675.429529966128
 30
0.0
 10
1258.29968076994
 20
1675.739543580128
 30
0.0
 10
1257.75548518194
 20
1676.103163447129
 30
0.0
 10
1257.21128959294
 20
1676.466783314128
 30
0.0
 10
1256.70292000594
 20
1676.883991452128
 30
0.0
 10
1256.240119699939
 20
1677.346791758128
 30
0.0
 10
1256.00871954694
 20
1677.578191911128
 30
0.0
 10
1255.78868769494
 20
1677.820959649128
 30
0.0
 10
1255.58108297794
 20
1678.073926728128
 30
0.0
 10
1255.37347826194
 20
1678.326893808128
 30
0.0
 10
1255.17830132294
 20
1678.590059445128
 30
0.0
 10
1254.99649138894
 20
1678.862157240128
 30
0.0
 10
1254.81468145494
 20
1679.134255034129
 30
0.0
 10
1254.64623908994
 20
1679.415284143128
 30
0.0
 10
1254.49197486894
 20
1679.703892202128
 30
0.0
 10
1254.33771064694
 20
1679.992500261128
 30
0.0
 10
1254.19762504694
 20
1680.288686376128
 30
0.0
 10
1254.07239218694
 20
1680.591025246128
 30
0.0
 10
1253.94715932594
 20
1680.893364116128
 30
0.0
 10
1253.83677959294
 20
1681.201854805128
 30
0.0
 10
1253.74178415494
 20
1681.515012797129
 30
0.0
 10
1253.64678871594
 20
1681.828170790128
 30
0.0
 10
1253.56717786694
 20
1682.145995117128
 30
0.0
 10
1253.50333470794
 20
1682.466956350128
 30
0.0
 10
1253.43949154894
 20
1682.787917582128
 30
0.0
 10
1253.39141627894
 20
1683.112014726129
 30
0.0
 10
1253.35934024494
 20
1683.437688167128
 30
0.0
 10
1253.32726421094
 20
1683.763361607128
 30
0.0
 10
1253.31118751194
 20
1684.090610335128
 30
0.0
 10
1253.31118751194
 20
1684.417859570128
 30
0.0
  0
SPLINE
  5
177
330
1F
100
AcDbEntity
  8
0
  6
Continuous
 62
     7
370
    15
100
AcDbSpline
210
0.0
220
0.0
230
1.0
 70
    24
 71
     3
 72
    29
 73
    25
 74
     0
 42
0.000000001
 43
0.00000001
 40
1.5707963267949
 40
1.5707963267949
 40
1.5707963267949
 40
1.5707963267949
 40
1.76714586764426
 40
1.76714586764426
 40
1.76714586764426
 40
1.96349540849362
 40
1.96349540849362
 40
1.96349540849362
 40
2.15984494934298
 40
2.15984494934298
 40
2.15984494934298
 40
2.35619449019235
 40
2.35619449019235
 40
2.35619449019235
 40
2.55254403104171
 40
2.55254403104171
 40
2.55254403104171
 40
2.74889357189107
 40
2.74889357189107
 40
2.74889357189107
 40
2.94524311274043
 40
2.94524311274043
 40
2.94524311274043
 40
3.14159265358979
 40
3.14159265358979
 40
3.14159265358979
 40
3.14159265358979
 10
1873.31118751194
 20
2284.417859570128
 30
0.0
 10
1873.31118751194
 20
2284.417859570128
 30
0.0
 10
1873.31118751194
 20
2284.353398691128
 30
0.0
 10
1873.31118751194
 20
2284.225712374128
 30
0.0
 10
1873.31118751194
 20
2284.098026057129
 30
0.0
 10
1873.31118751194
 20
2283.907120616128
 30
0.0
 10
1873.31118751194
 20
2283.656654895128
 30
0.0
 10
1873.31118751194
 20
2283.406189174128
 30
0.0
 10
1873.31118751194
 20
2283.096175560129
 30
0.0
 10
1873.31118751194
 20
2282.732555693129
 30
0.0
 10
1873.31118751194
 20
2282.368935826129
 30
0.0
 10
1873.31118751194
 20
2281.951727688128
 30
0.0
 10
1873.31118751194
 20
2281.488927382129
 30
0.0
 10
1873.31118751194
 20
2281.026127076128
 30
0.0
 10
1873.31118751194
 20
2280.517757489128
 30
0.0
 10
1873.31118751194
 20
2279.973561900129
 30
0.0
 10
1873.31118751194
 20
2279.429366312128
 30
0.0
 10
1873.31118751194
 20
2278.849371634129
 30
0.0
 10
1873.31118751194
 20
2278.244693894128
 30
0.0
 10
1873.31118751194
 20
2277.640016154129
 30
0.0
 10
1873.31118751194
 20
2277.010685255128
 30
0.0
 10
1873.31118751194
 20
2276.368762790129
 30
0.0
 10
1873.31118751194
 20
2275.726840325129
 30
0.0
 10
1873.31118751194
 20
2275.072358039129
 30
0.0
 10
1873.31118751194
 20
2274.417859570128
 30
0.0
  0
SPLINE
  5
178
330
1F
100
AcDbEntity
  8
0
  6
Continuous
 62
     7
370
    15
100
AcDbSpline
210
0.0
220
0.0
230
1.0
 70
     8
 71
     3
 72
    41
 73
    37
 74
     0
 42
0.000000001
 43
0.00000001
 40
-1.5707963267949
 40
-1.5707963267949
 40
-1.5707963267949
 40
-1.5707963267949
 40
-1.472621556370219
 40
-1.472621556370219
 40
-1.472621556370219
 40
-1.374446785945538
 40
-1.374446785945538
 40
-1.374446785945538
 40
-1.276272015520857
 40
-1.276272015520857
 40
-1.276272015520857
 40
-1.178097245096176
 40
-1.178097245096176
 40
-1.178097245096176
 40
-1.079922474671495
 40
-1.079922474671495
 40
-1.079922474671495
 40
-0.9817477042468139
 40
-0.9817477042468139
 40
-0.9817477042468139
 40
-0.8835729338221329
 40
-0.8835729338221329
 40
-0.8835729338221329
 40
-0.7853981633974519
 40
-0.7853981633974519
 40
-0.7853981633974519
 40
-0.5890486225480899
 40
-0.5890486225480899
 40
-0.5890486225480899
 40
-0.3926990816987299
 40
-0.3926990816987299
 40
-0.3926990816987299
 40
-0.1963495408493698
 40
-0.1963495408493698
 40
-0.1963495408493698
 40
0.0
 40
0.0
 40
0.0
 40
0.0
 10
1863.31118751194
 20
2294.417859570128
 30
0.0
 10
1863.63843674694
 20
2294.417859570128
 30
0.0
 10
1863.96568547494
 20
2294.401782871128
 30
0.0
 10
1864.29135891494
 20
2294.369706837128
 30
0.0
 10
1864.61703235594
 20
2294.337630803128
 30
0.0
 10
1864.94112949994
 20
2294.289555533128
 30
0.0
 10
1865.26209073194
 20
2294.225712374128
 30
0.0
 10
1865.58305196494
 20
2294.161869215128
 30
0.0
 10
1865.90087629194
 20
2294.082258366128
 30
0.0
 10
1866.21403428494
 20
2293.987262927129
 30
0.0
 10
1866.52719227694
 20
2293.892267489129
 30
0.0
 10
1866.83568296594
 20
2293.781887756129
 30
0.0
 10
1867.13802183594
 20
2293.656654895128
 30
0.0
 10
1867.44036070594
 20
2293.531422035128
 30
0.0
 10
1867.73654682094
 20
2293.391336435128
 30
0.0
 10
1868.02515487994
 20
2293.237072213129
 30
0.0
 10
1868.31376293894
 20
2293.082807992128
 30
0.0
 10
1868.59479204794
 20
2292.914365627129
 30
0.0
 10
1868.86688984194
 20
2292.732555693129
 30
0.0
 10
1869.13898763694
 20
2292.550745759128
 30
0.0
 10
1869.40215327394
 20
2292.355568820129
 30
0.0
 10
1869.65512035394
 20
2292.147964104128
 30
0.0
 10
1869.90808743294
 20
2291.940359387128
 30
0.0
 10
1870.15085517094
 20
2291.720327535128
 30
0.0
 10
1870.38225532394
 20
2291.488927382129
 30
0.0
 10
1870.84505562994
 20
2291.026127076128
 30
0.0
 10
1871.26226376794
 20
2290.517757489128
 30
0.0
 10
1871.62588363494
 20
2289.973561900129
 30
0.0
 10
1871.98950350194
 20
2289.429366312128
 30
0.0
 10
1872.29951711594
 20
2288.849371634129
 30
0.0
 10
1872.54998283694
 20
2288.244693894128
 30
0.0
 10
1872.80044855794
 20
2287.640016154129
 30
0.0
 10
1872.99135399894
 20
2287.010685255128
 30
0.0
 10
1873.11904031594
 20
2286.368762790129
 30
0.0
 10
1873.24672663294
 20
2285.726840325129
 30
0.0
 10
1873.31118751194
 20
2285.072358039129
 30
0.0
 10
1873.31118751194
 20
2284.417859570128
 30
0.0
  0
LINE
  5
179
330
1F
100
AcDbEntity
  8
0
  6
Continuous
 62
     7
370
    15
100
AcDbLine
 10
1873.3111898961
 20
2128.7024059454
 30
0.0
 11
1873.3111898961
 21
2181.2706926027
 31
0.0
  0
LINE
  5
17A
330
1F
100
AcDbEntity
  8
0
  6
Continuous
 62
     7
370
    15
100
AcDbLine
 10
1366.4583544793
 20
1674.4178571859
 30
0.0
 11
1419.0266411367
 21
1674.4178571859
 31
0.0
  0
SPLINE
  5
17B
330
1F
100
AcDbEntity
  8
0
  6
Continuous
 62
     7
370
    15
100
AcDbSpline
210
0.0
220
0.0
230
1.0
 70
    24
 71
     3
 72
    10
 73
     6
 74
     0
 42
0.000000001
 43
0.00000001
 40
0.0
 40
0.0
 40
0.0
 40
0.0
 40
0.4186080914375513
 40
0.8372199170668191
 40
1.0
 40
1.0
 40
1.0
 40
1.0
 10
1419.026641136665
 20
1674.417857185942
 30
0.0
 10
1419.083074183404
 20
1674.417857185942
 30
0.0
 10
1419.195940780294
 20
1674.417857185942
 30
0.0
 10
1419.208833859767
 20
1674.417857185943
 30
0.0
 10
1419.133259001763
 20
1674.417857185942
 30
0.0
 10
1419.112099296112
 20
1674.417857185942
 30
0.0
  0
SPLINE
  5
17C
330
1F
100
AcDbEntity
  8
0
  6
Continuous
 62
     7
370
    15
100
AcDbSpline
210
0.0
220
0.0
230
1.0
 70
     8
 71
     3
 72
    41
 73
    37
 74
     0
 42
0.000000001
 43
0.00000001
 40
-1.5707963267949
 40
-1.5707963267949
 40
-1.5707963267949
 40
-1.5707963267949
 40
-1.472621556370219
 40
-1.472621556370219
 40
-1.472621556370219
 40
-1.374446785945538
 40
-1.374446785945538
 40
-1.374446785945538
 40
-1.276272015520857
 40
-1.276272015520857
 40
-1.276272015520857
 40
-1.178097245096176
 40
-1.178097245096176
 40
-1.178097245096176
 40
-1.079922474671495
 40
-1.079922474671495
 40
-1.079922474671495
 40
-0.9817477042468139
 40
-0.9817477042468139
 40
-0.9817477042468139
 40
-0.8835729338221329
 40
-0.8835729338221329
 40
-0.8835729338221329
 40
-0.7853981633974519
 40
-0.7853981633974519
 40
-0.7853981633974519
 40
-0.5890486225480899
 40
-0.5890486225480899
 40
-0.5890486225480899
 40
-0.3926990816987299
 40
-0.3926990816987299
 40
-0.3926990816987299
 40
-0.1963495408493698
 40
-0.1963495408493698
 40
-0.1963495408493698
 40
0.0
 40
0.0
 40
0.0
 40
0.0
 10
1863.31118751194
 20
2118.541106206128
 30
0.0
 10
1863.63843674694
 20
2118.541106206128
 30
0.0
 10
1863.96568547494
 20
2118.557182905129
 30
0.0
 10
1864.29135891494
 20
2118.589258939128
 30
0.0
 10
1864.61703235594
 20
2118.621334973128
 30
0.0
 10
1864.94112949994
 20
2118.669410243129
 30
0.0
 10
1865.26209073194
 20
2118.733253402128
 30
0.0
 10
1865.58305196494
 20
2118.797096560128
 30
0.0
 10
1865.90087629194
 20
2118.876707410128
 30
0.0
 10
1866.21403428494
 20
2118.971702848128
 30
0.0
 10
1866.52719227694
 20
2119.066698287128
 30
0.0
 10
1866.83568296594
 20
2119.177078020129
 30
0.0
 10
1867.13802183594
 20
2119.302310881129
 30
0.0
 10
1867.44036070594
 20
2119.427543741129
 30
0.0
 10
1867.73654682094
 20
2119.567629341129
 30
0.0
 10
1868.02515487994
 20
2119.721893562129
 30
0.0
 10
1868.31376293894
 20
2119.876157784129
 30
0.0
 10
1868.59479204794
 20
2120.044600149129
 30
0.0
 10
1868.86688984194
 20
2120.226410083128
 30
0.0
 10
1869.13898763694
 20
2120.408220016128
 30
0.0
 10
1869.40215327394
 20
2120.603396955129
 30
0.0
 10
1869.65512035394
 20
2120.811001672128
 30
0.0
 10
1869.90808743294
 20
2121.018606389128
 30
0.0
 10
1870.15085517094
 20
2121.238638241129
 30
0.0
 10
1870.38225532394
 20
2121.470038394129
 30
0.0
 10
1870.84505562994
 20
2121.932838700128
 30
0.0
 10
1871.26226376794
 20
2122.441208287129
 30
0.0
 10
1871.62588363494
 20
2122.985403876128
 30
0.0
 10
1871.98950350194
 20
2123.529599464128
 30
0.0
 10
1872.29951711594
 20
2124.109594142129
 30
0.0
 10
1872.54998283694
 20
2124.714271882129
 30
0.0
 10
1872.80044855794
 20
2125.318949622128
 30
0.0
 10
1872.99135399894
 20
2125.948280521129
 30
0.0
 10
1873.11904031594
 20
2126.590202986129
 30
0.0
 10
1873.24672663294
 20
2127.232125451128
 30
0.0
 10
1873.31118751194
 20
2127.886607736129
 30
0.0
 10
1873.31118751194
 20
2128.541106206128
 30
0.0
  0
SPLINE
  5
17D
330
1F
100
AcDbEntity
  8
0
  6
Continuous
 62
     7
370
    15
100
AcDbSpline
210
0.0
220
0.0
230
1.0
 70
    24
 71
     3
 72
     8
 73
     4
 74
     0
 42
0.000000001
 43
0.00000001
 40
0.0
 40
0.0
 40
0.0
 40
0.0
 40
0.179853499792481
 40
0.179853499792481
 40
0.179853499792481
 40
0.179853499792481
 10
1873.31118751194
 20
2128.702407105129
 30
0.0
 10
1873.31118751194
 20
2128.595163198128
 30
0.0
 10
1873.31118751194
 20
2128.541106206128
 30
0.0
 10
1873.31118751194
 20
2128.541106206128
 30
0.0
  0
LINE
  5
17E
330
1F
100
AcDbEntity
  8
0
  6
Continuous
 62
     7
370
    15
100
AcDbLine
 10
1873.3111898961
 20
1684.4178476492
 30
0.0
 11
1873.3111898961
 21
2094.562750415
 31
0.0
  0
LINE
  5
17F
330
1F
100
AcDbEntity
  8
0
  6
Continuous
 62
     7
370
    15
100
AcDbLine
 10
1453.1662966671
 20
1674.4178571859
 30
0.0
 11
1863.3111994329
 21
1674.4178571859
 31
0.0
  0
SPLINE
  5
180
330
1F
100
AcDbEntity
  8
0
  6
Continuous
 62
     7
370
    15
100
AcDbSpline
210
0.0
220
0.0
230
1.0
 70
    24
 71
     3
 72
    17
 73
    13
 74
     0
 42
0.000000001
 43
0.00000001
 40
5.497787143782149
 40
5.497787143782149
 40
5.497787143782149
 40
5.497787143782149
 40
5.694136684631511
 40
5.694136684631511
 40
5.694136684631511
 40
5.890486225480871
 40
5.890486225480871
 40
5.890486225480871
 40
6.08683576633023
 40
6.08683576633023
 40
6.08683576633023
 40
6.283185307179591
 40
6.283185307179591
 40
6.283185307179591
 40
6.283185307179591
 10
1453.16629699694
 20
1674.417859570128
 30
0.0
 10
1452.51179852794
 20
1674.417859570128
 30
0.0
 10
1451.85731624194
 20
1674.417859570128
 30
0.0
 10
1451.21539377694
 20
1674.417859570128
 30
0.0
 10
1450.57347131194
 20
1674.417859570128
 30
0.0
 10
1449.94414041294
 20
1674.417859570128
 30
0.0
 10
1449.33946267294
 20
1674.417859570128
 30
0.0
 10
1448.73478493294
 20
1674.417859570128
 30
0.0
 10
1448.15479025594
 20
1674.417859570128
 30
0.0
 10
1447.61059466694
 20
1674.417859570128
 30
0.0
 10
1447.06639907794
 20
1674.417859570128
 30
0.0
 10
1446.55802949094
 20
1674.417859570128
 30
0.0
 10
1446.09522918494
 20
1674.417859570128
 30
0.0
  0
SPLINE
  5
181
330
1F
100
AcDbEntity
  8
0
  6
Continuous
 62
     7
370
    15
100
AcDbSpline
210
0.0
220
0.0
230
1.0
 70
    24
 71
     3
 72
    17
 73
    13
 74
     0
 42
0.000000001
 43
0.00000001
 40
1.5707963267949
 40
1.5707963267949
 40
1.5707963267949
 40
1.5707963267949
 40
1.76714586764426
 40
1.76714586764426
 40
1.76714586764426
 40
1.96349540849362
 40
1.96349540849362
 40
1.96349540849362
 40
2.15984494934297
 40
2.15984494934297
 40
2.15984494934297
 40
2.35619449019233
 40
2.35619449019233
 40
2.35619449019233
 40
2.35619449019233
 10
1873.31118751194
 20
2101.633817897128
 30
0.0
 10
1873.31118751194
 20
2101.171017591128
 30
0.0
 10
1873.31118751194
 20
2100.662648004129
 30
0.0
 10
1873.31118751194
 20
2100.118452415129
 30
0.0
 10
1873.31118751194
 20
2099.574256826128
 30
0.0
 10
1873.31118751194
 20
2098.994262149128
 30
0.0
 10
1873.31118751194
 20
2098.389584409128
 30
0.0
 10
1873.31118751194
 20
2097.784906669128
 30
0.0
 10
1873.31118751194
 20
2097.155575770129
 30
0.0
 10
1873.31118751194
 20
2096.513653305129
 30
0.0
 10
1873.31118751194
 20
2095.871730840128
 30
0.0
 10
1873.31118751194
 20
2095.217248554128
 30
0.0
 10
1873.31118751194
 20
2094.562750085129
 30
0.0
  0
ARC
  5
182
330
1F
100
AcDbEntity
  8
0
  6
Continuous
 62
     7
370
    15
100
AcDbCircle
 10
1863.3111875119
 20
1684.4178595701
 30
0.0
 40
10.0
100
AcDbArc
 50
269.9999999882
 51
359.9999999941
  0
LINE
  5
183
330
1F
100
AcDbEntity
  8
0
  6
Continuous
 62
     7
370
    15
100
AcDbLine
 10
1873.3111898961
 20
2101.633820788
 30
0.0
 11
1873.3111898961
 21
2124.0602173964
 31
0.0
  0
LINE
  5
184
330
1F
100
AcDbEntity
  8
0
  6
Continuous
 62
     7
370
    15
100
AcDbLine
 10
1423.6688296857
 20
1674.4178571859
 30
0.0
 11
1446.0952262941
 21
1674.4178571859
 31
0.0
  0
SPLINE
  5
185
330
1F
100
AcDbEntity
  8
0
  6
Continuous
 62
     7
370
    15
100
AcDbSpline
210
0.0
220
0.0
230
1.0
 70
    24
 71
     3
 72
    11
 73
     7
 74
     0
 42
0.000000001
 43
0.00000001
 40
0.0
 40
0.0
 40
0.0
 40
0.0
 40
0.2636518776342439
 40
0.5269192489598822
 40
0.7967519699243009
 40
1.0
 40
1.0
 40
1.0
 40
1.0
 10
1873.311189896126
 20
2124.060217396361
 30
0.0
 10
1873.311189896126
 20
2124.412564096803
 30
0.0
 10
1873.311189896126
 20
2125.116743640055
 30
0.0
 10
1873.311189896126
 20
2126.274517957549
 30
0.0
 10
1873.311189896126
 20
2127.393048892204
 30
0.0
 10
1873.311189896126
 20
2128.157099317084
 30
0.0
 10
1873.311189896126
 20
2128.485355631454
 30
0.0
  0
SPLINE
  5
186
330
1F
100
AcDbEntity
  8
0
  6
Continuous
 62
     7
370
    15
100
AcDbSpline
210
0.0
220
0.0
230
1.0
 70
    24
 71
     3
 72
    11
 73
     7
 74
     0
 42
0.000000001
 43
0.00000001
 40
0.0
 40
0.0
 40
0.0
 40
0.0
 40
0.206812379324637
 40
0.4754658454851098
 40
0.7375113930108587
 40
1.0
 40
1.0
 40
1.0
 40
1.0
 10
1419.221563226242
 20
1674.417857185942
 30
0.0
 10
1419.557150470254
 20
1674.417857185942
 30
0.0
 10
1420.32867233577
 20
1674.417857185942
 30
0.0
 10
1421.454349442771
 20
1674.417857185943
 30
0.0
 10
1422.612201606119
 20
1674.417857185942
 30
0.0
 10
1423.316422047348
 20
1674.417857185943
 30
0.0
 10
1423.668829685707
 20
1674.417857185942
 30
0.0
  0
LINE
  5
187
330
1F
100
AcDbEntity
  8
0
  6
Continuous
 62
     7
370
    15
100
AcDbLine
 10
4203.3800697964
 20
2789.0301690724
 30
0.0
 11
4445.380074073
 21
2789.0301690724
 31
0.0
  0
ARC
  5
188
330
1F
100
AcDbEntity
  8
0
  6
Continuous
 62
     7
370
    15
100
AcDbCircle
 10
4203.3800738495
 20
2767.0301692624
 30
0.0
 40
22.0
100
AcDbArc
 50
90.0
 51
180.0
  0
ARC
  5
189
330
1F
100
AcDbEntity
  8
0
  6
Continuous
 62
     7
370
    15
100
AcDbCircle
 10
4203.3800738495
 20
2767.0301692624
 30
0.0
 40
38.00000000000006
100
AcDbArc
 50
136.8264488927
 51
180.0
  0
LINE
  5
18A
330
1F
100
AcDbEntity
  8
0
  6
Continuous
 62
     7
370
    15
100
AcDbLine
 10
4165.3800821941
 20
2767.0301687259
 30
0.0
 11
4165.3800821941
 21
2621.0301634211
 31
0.0
  0
LINE
  5
18B
330
1F
100
AcDbEntity
  8
0
  6
Continuous
 62
     7
370
    15
100
AcDbLine
 10
4181.3800848167
 20
2621.0301634211
 30
0.0
 11
4181.3800848167
 21
2767.0301687259
 31
0.0
  0
LINE
  5
18C
330
1F
100
AcDbEntity
  8
0
  6
Continuous
 62
     7
370
    15
100
AcDbLine
 10
4181.3800848167
 20
2591.030162229
 30
0.0
 11
4181.3800848167
 21
2621.0301634211
 31
0.0
  0
LINE
  5
18D
330
1F
100
AcDbEntity
  8
0
  6
Continuous
 62
     7
370
    15
100
AcDbLine
 10
4165.3800821941
 20
2621.0301634211
 30
0.0
 11
4165.3800821941
 21
2591.030162229
 31
0.0
  0
LINE
  5
18E
330
1F
100
AcDbEntity
  8
0
  6
Continuous
 62
     7
370
    15
100
AcDbLine
 10
4745.3800655048
 20
2621.0301634211
 30
0.0
 11
4745.3800655048
 21
2767.0301687259
 31
0.0
  0
LINE
  5
18F
330
1F
100
AcDbEntity
  8
0
  6
Continuous
 62
     7
370
    15
100
AcDbLine
 10
4729.3800628822
 20
2767.0301687259
 30
0.0
 11
4729.3800628822
 21
2621.0301634211
 31
0.0
  0
LINE
  5
190
330
1F
100
AcDbEntity
  8
0
  6
Continuous
 62
     7
370
    15
100
AcDbLine
 10
4729.3800628822
 20
2621.0301634211
 30
0.0
 11
4729.3800628822
 21
2591.030162229
 31
0.0
  0
LINE
  5
191
330
1F
100
AcDbEntity
  8
0
  6
Continuous
 62
     7
370
    15
100
AcDbLine
 10
4745.3800655048
 20
2591.030162229
 30
0.0
 11
4745.3800655048
 21
2621.0301634211
 31
0.0
  0
LINE
  5
192
330
1F
100
AcDbEntity
  8
0
  6
Continuous
 62
     7
370
    15
100
AcDbLine
 10
4465.380073626
 20
2789.0301690724
 30
0.0
 11
4707.3800779026
 21
2789.0301690724
 31
0.0
  0
ARC
  5
193
330
1F
100
AcDbEntity
  8
0
  6
Continuous
 62
     7
370
    15
100
AcDbCircle
 10
4707.3800738495
 20
2767.0301692624
 30
0.0
 40
22.0
100
AcDbArc
 50
360.0
 51
90.0
  0
ARC
  5
194
330
1F
100
AcDbEntity
  8
0
  6
Continuous
 62
     7
370
    15
100
AcDbCircle
 10
4707.3800738495
 20
2767.0301692624
 30
0.0
 40
38.00000000000022
100
AcDbArc
 50
0.0
 51
43.1735511073
  0
LINE
  5
195
330
1F
100
AcDbEntity
  8
0
  6
Continuous
 62
     7
370
    15
100
AcDbLine
 10
4445.380074073
 20
2789.0301690724
 30
0.0
 11
4445.380074073
 21
2793.0301692624
 31
0.0
  0
ARC
  5
196
330
1F
100
AcDbEntity
  8
0
  6
Continuous
 62
     7
370
    15
100
AcDbCircle
 10
4173.3800738495
 20
2591.0301692624
 30
0.0
 40
8.00000000000091
100
AcDbArc
 50
180.0
 51
0.0
  0
ARC
  5
197
330
1F
100
AcDbEntity
  8
0
  6
Continuous
 62
     7
370
    15
100
AcDbCircle
 10
4737.3800738495
 20
2591.0301692624
 30
0.0
 40
8.0
100
AcDbArc
 50
180.0
 51
0.0
  0
LINE
  5
198
330
1F
100
AcDbEntity
  8
0
  6
Continuous
 62
     7
370
    15
100
AcDbLine
 10
4465.380073626
 20
2789.0301690724
 30
0.0
 11
4465.380073626
 21
2793.0301692624
 31
0.0
  0
LINE
  5
199
330
1F
100
AcDbEntity
  8
0
  6
Continuous
 62
     7
370
    15
100
AcDbLine
 10
4268.3659411114
 20
3346.6078903813
 30
0.0
 11
4320.9342277687
 21
3057.4823286671
 31
0.0
  0
LINE
  5
19A
330
1F
100
AcDbEntity
  8
0
  6
Continuous
 62
     7
370
    15
100
AcDbLine
 10
4155.3800619285
 20
2793.0301692624
 30
0.0
 11
4755.3800857704
 21
2793.0301692624
 31
0.0
  0
LINE
  5
19B
330
1F
100
AcDbEntity
  8
0
  6
Continuous
 62
     7
370
    15
100
AcDbLine
 10
4165.3800821941
 20
3363.0301621098
 30
0.0
 11
4248.6885405224
 21
3363.0301621098
 31
0.0
  0
LINE
  5
19C
330
1F
100
AcDbEntity
  8
0
  6
Continuous
 62
     7
370
    15
100
AcDbLine
 10
4315.3989679258
 20
3039.7624936242
 30
0.0
 11
4294.5245123546
 21
3018.888038053
 31
0.0
  0
LINE
  5
19D
330
1F
100
AcDbEntity
  8
0
  6
Continuous
 62
     7
370
    15
100
AcDbLine
 10
4308.6666381996
 20
3004.7458973069
 30
0.0
 11
4331.0930497091
 21
3027.1723088164
 31
0.0
  0
LINE
  5
19E
330
1F
100
AcDbEntity
  8
0
  6
Continuous
 62
     7
370
    15
100
AcDbLine
 10
4345.2351830046
 20
3033.030163898
 30
0.0
 11
4755.3800857704
 21
3033.030163898
 31
0.0
  0
LINE
  5
19F
330
1F
100
AcDbEntity
  8
0
  6
Continuous
 62
     7
370
    15
100
AcDbLine
 10
4145.3800714653
 20
2793.0301692624
 30
0.0
 11
4155.3800619285
 21
2793.0301692624
 31
0.0
  0
LINE
  5
1A0
330
1F
100
AcDbEntity
  8
0
  6
Continuous
 62
     7
370
    15
100
AcDbLine
 10
4145.3800714653
 20
2793.0301692624
 30
0.0
 11
4145.3800714653
 21
3343.0301811833
 31
0.0
  0
SPLINE
  5
1A1
330
1F
100
AcDbEntity
  8
0
  6
Continuous
 62
     7
370
    15
100
AcDbSpline
210
0.0
220
0.0
230
1.0
 70
     8
 71
     3
 72
    14
 73
    10
 74
     0
 42
0.000000001
 43
0.00000001
 40
0.0
 40
0.0
 40
0.0
 40
0.0
 40
0.25
 40
0.25
 40
0.5
 40
0.5
 40
0.75
 40
0.75
 40
1.0
 40
1.0
 40
1.0
 40
1.0
 10
4268.365944983469
 20
3346.607878026377
 30
0.0
 10
4267.951245954937
 20
3348.888722683305
 30
0.0
 10
4267.136133925331
 20
3351.09619407036
 30
0.0
 10
4264.801891578476
 20
3355.102217435165
 30
0.0
 10
4263.283326836265
 20
3356.899798773849
 30
0.0
 10
4259.723664296508
 20
3359.870608955646
 30
0.0
 10
4257.683428987074
 20
3361.043117986576
 30
0.0
 10
4253.324461174203
 20
3362.623089549475
 30
0.0
 10
4251.006784826475
 20
3363.030169262377
 30
0.0
 10
4248.688546781471
 20
3363.030169262377
 30
0.0
  0
SPLINE
  5
1A2
330
1F
100
AcDbEntity
  8
0
  6
Continuous
 62
     7
370
    15
100
AcDbSpline
210
0.0
220
0.0
230
1.0
 70
     8
 71
     3
 72
    14
 73
    10
 74
     0
 42
0.000000001
 43
0.00000001
 40
0.0
 40
0.0
 40
0.0
 40
0.0
 40
0.2499999999999972
 40
0.2499999999999972
 40
0.4999999999999981
 40
0.4999999999999981
 40
0.749999999999999
 40
0.749999999999999
 40
1.0
 40
1.0
 40
1.0
 40
1.0
 10
4315.398962837202
 20
3039.762491260646
 30
0.0
 10
4316.536522831524
 20
3040.900051254968
 30
0.0
 10
4317.536102579025
 20
3042.175463271662
 30
0.0
 10
4319.201598133263
 20
3044.928364738164
 30
0.0
 10
4319.867420073633
 20
3046.405699036035
 30
0.0
 10
4320.826775906762
 20
3049.476851639031
 30
0.0
 10
4321.120255730782
 20
3051.070496855771
 30
0.0
 10
4321.317877276339
 20
3054.281927635064
 30
0.0
 10
4321.22200786004
 20
3055.899532203232
 30
0.0
 10
4320.934225415469
 20
3057.482335648377
 30
0.0
  0
ARC
  5
1A3
330
1F
100
AcDbEntity
  8
0
  6
Continuous
 62
     7
370
    15
100
AcDbCircle
 10
4301.5955730275
 20
3011.8169658264
 30
0.0
 40
10.0000000000004
100
AcDbArc
 50
225.0000000004
 51
315.0000000023
  0
SPLINE
  5
1A4
330
1F
100
AcDbEntity
  8
0
  6
Continuous
 62
     7
370
    15
100
AcDbSpline
210
0.0
220
0.0
230
1.0
 70
     8
 71
     3
 72
    14
 73
    10
 74
     0
 42
0.000000001
 43
0.00000001
 40
0.0
 40
0.0
 40
0.0
 40
0.0
 40
0.25
 40
0.25
 40
0.5
 40
0.5
 40
0.75
 40
0.75
 40
1.0
 40
1.0
 40
1.0
 40
1.0
 10
4345.235183334471
 20
3033.030169262377
 30
0.0
 10
4343.926186395475
 20
3033.030169262377
 30
0.0
 10
4342.617221824008
 20
3032.901247504788
 30
0.0
 10
4340.049531964289
 20
3032.390502236095
 30
0.0
 10
4338.790870167228
 20
3032.008691354173
 30
0.0
 10
4336.372159207111
 20
3031.006828471032
 30
0.0
 10
4335.212169851451
 20
3030.386801242847
 30
0.0
 10
4333.035387496707
 20
3028.932321774008
 30
0.0
 10
4332.018648322856
 20
3028.097905498224
 30
0.0
 10
4331.09304771074
 20
3027.172304886108
 30
0.0
  0
ARC
  5
1A5
330
1F
100
AcDbEntity
  8
0
  6
Continuous
 62
     7
370
    15
100
AcDbCircle
 10
4301.5955730275
 20
3011.8169658264
 30
0.0
 40
10.00000000010555
100
AcDbArc
 50
135.0000000002
 51
225.0000000004
  0
SPLINE
  5
1A6
330
1F
100
AcDbEntity
  8
0
  6
Continuous
 62
     7
370
    15
100
AcDbSpline
210
0.0
220
0.0
230
1.0
 70
     8
 71
     3
 72
    22
 73
    18
 74
     0
 42
0.000000001
 43
0.00000001
 40
0.0
 40
0.0
 40
0.0
 40
0.0
 40
0.125
 40
0.125
 40
0.25
 40
0.25
 40
0.375
 40
0.375
 40
0.5
 40
0.5
 40
0.625
 40
0.625
 40
0.75
 40
0.75
 40
0.875
 40
0.875
 40
1.0
 40
1.0
 40
1.0
 40
1.0
 10
4165.380073849471
 20
3363.030169262377
 30
0.0
 10
4164.071076910475
 20
3363.030169262377
 30
0.0
 10
4162.762112339008
 20
3362.901247504789
 30
0.0
 10
4160.194422479289
 20
3362.390502236095
 30
0.0
 10
4158.935760682228
 20
3362.008691354174
 30
0.0
 10
4156.517049722111
 20
3361.006828471033
 30
0.0
 10
4155.357060366451
 20
3360.386801242848
 30
0.0
 10
4153.180278011707
 20
3358.932321774008
 30
0.0
 10
4152.163538837856
 20
3358.097905498224
 30
0.0
 10
4150.312337613624
 20
3356.246704273992
 30
0.0
 10
4149.47792133784
 20
3355.229965100142
 30
0.0
 10
4148.023441869001
 20
3353.053182745397
 30
0.0
 10
4147.403414640816
 20
3351.893193389737
 30
0.0
 10
4146.401551757675
 20
3349.474482429621
 30
0.0
 10
4146.019740875753
 20
3348.21582063256
 30
0.0
 10
4145.50899560706
 20
3345.64813077284
 30
0.0
 10
4145.380073849471
 20
3344.339166201373
 30
0.0
 10
4145.380073849471
 20
3343.030169262377
 30
0.0
  0
ARC
  5
1A7
330
1F
100
AcDbEntity
  8
0
  6
Continuous
 62
     7
370
    15
100
AcDbCircle
 10
4755.3800738495
 20
3023.0301692624
 30
0.0
 40
10.0
100
AcDbArc
 50
0.0000001175
 51
90.0
  0
LINE
  5
1A8
330
1F
100
AcDbEntity
  8
0
  6
Continuous
 62
     7
370
    15
100
AcDbLine
 10
4765.3800762337
 20
2793.0301692624
 30
0.0
 11
4765.3800762337
 21
3023.0301734347
 31
0.0
  0
LINE
  5
1A9
330
1F
100
AcDbEntity
  8
0
  6
Continuous
 62
     7
370
    15
100
AcDbLine
 10
4755.3800857704
 20
2793.0301692624
 30
0.0
 11
4765.3800762337
 21
2793.0301692624
 31
0.0
  0
SPLINE
  5
1AA
330
1F
100
AcDbEntity
  8
0
  6
Continuous
 62
     7
370
    15
100
AcDbSpline
210
0.0
220
0.0
230
1.0
 70
    24
 71
     3
 72
     8
 73
     4
 74
     0
 42
0.000000001
 43
0.00000001
 40
0.0
 40
0.0
 40
0.0
 40
0.0
 40
1.0
 40
1.0
 40
1.0
 40
1.0
 10
4316.174436805471
 20
3040.537965228377
 30
0.0
 10
4315.660055789471
 20
3040.023584212377
 30
0.0
 10
4315.398962837471
 20
3039.762491260377
 30
0.0
 10
4315.398962837471
 20
3039.762491260377
 30
0.0
  0
SPLINE
  5
1AB
330
1F
100
AcDbEntity
  8
0
  6
Continuous
 62
     7
370
    15
100
AcDbSpline
210
0.0
220
0.0
230
1.0
 70
    24
 71
     3
 72
    17
 73
    13
 74
     0
 42
0.000000001
 43
0.00000001
 40
5.49778714378214
 40
5.49778714378214
 40
5.49778714378214
 40
5.49778714378214
 40
5.694136684631511
 40
5.694136684631511
 40
5.694136684631511
 40
5.890486225480871
 40
5.890486225480871
 40
5.890486225480871
 40
6.086835766330231
 40
6.086835766330231
 40
6.086835766330231
 40
6.283185307179591
 40
6.283185307179591
 40
6.283185307179591
 40
6.283185307179591
 10
4765.380073849471
 20
3053.904626884377
 30
0.0
 10
4765.380073849471
 20
3053.250128414377
 30
0.0
 10
4765.380073849471
 20
3052.595646128377
 30
0.0
 10
4765.380073849471
 20
3051.953723663377
 30
0.0
 10
4765.380073849471
 20
3051.311801198377
 30
0.0
 10
4765.380073849471
 20
3050.682470300377
 30
0.0
 10
4765.380073849471
 20
3050.077792560377
 30
0.0
 10
4765.380073849471
 20
3049.473114820377
 30
0.0
 10
4765.380073849471
 20
3048.893120142377
 30
0.0
 10
4765.380073849471
 20
3048.348924553377
 30
0.0
 10
4765.380073849471
 20
3047.804728965377
 30
0.0
 10
4765.380073849471
 20
3047.296359378377
 30
0.0
 10
4765.380073849471
 20
3046.833559072377
 30
0.0
  0
SPLINE
  5
1AC
330
1F
100
AcDbEntity
  8
0
  6
Continuous
 62
     7
370
    15
100
AcDbSpline
210
0.0
220
0.0
230
1.0
 70
    24
 71
     3
 72
     8
 73
     4
 74
     0
 42
0.000000001
 43
0.00000001
 40
0.0
 40
0.0
 40
0.0
 40
0.0
 40
0.179853499792481
 40
0.179853499792481
 40
0.179853499792481
 40
0.179853499792481
 10
4765.380073849471
 20
3055.693481266377
 30
0.0
 10
4765.380073849471
 20
3055.103639777377
 30
0.0
 10
4765.380073849471
 20
3054.504138550377
 30
0.0
 10
4765.380073849471
 20
3053.904626884377
 30
0.0
  0
LINE
  5
1AD
330
1F
100
AcDbEntity
  8
0
  6
Continuous
 62
     7
370
    15
100
AcDbLine
 10
4765.3800762337
 20
3055.6934740681
 30
0.0
 11
4765.3800762337
 21
3344.8190357823
 31
0.0
  0
LINE
  5
1AE
330
1F
100
AcDbEntity
  8
0
  6
Continuous
 62
     7
370
    15
100
AcDbLine
 10
4765.3800762337
 20
3025.9591009755
 30
0.0
 11
4765.3800762337
 21
3046.8335714478
 31
0.0
  0
SPLINE
  5
1AF
330
1F
100
AcDbEntity
  8
0
  6
Continuous
 62
     7
370
    15
100
AcDbSpline
210
0.0
220
0.0
230
1.0
 70
    24
 71
     3
 72
    10
 73
     6
 74
     0
 42
0.000000001
 43
0.00000001
 40
0.0
 40
0.0
 40
0.0
 40
0.0
 40
0.1898214278138616
 40
0.5945483822525301
 40
1.0
 40
1.0
 40
1.0
 40
1.0
 10
4765.380076233657
 20
3023.058068408457
 30
0.0
 10
4765.380076233657
 20
3023.256576213297
 30
0.0
 10
4765.380076233657
 20
3023.878331594611
 30
0.0
 10
4765.380076233657
 20
3024.856009243027
 30
0.0
 10
4765.380076233657
 20
3025.591184539092
 30
0.0
 10
4765.380076233657
 20
3025.959100975481
 30
0.0
  0
SPLINE
  5
1B0
330
1F
100
AcDbEntity
  8
0
  6
Continuous
 62
     7
370
    15
100
AcDbSpline
210
0.0
220
0.0
230
1.0
 70
    24
 71
     3
 72
    14
 73
    10
 74
     0
 42
0.000000001
 43
0.00000001
 40
0.0
 40
0.0
 40
0.0
 40
0.0
 40
0.25
 40
0.25
 40
0.5
 40
0.5
 40
0.75
 40
0.75
 40
1.0
 40
1.0
 40
1.0
 40
1.0
 10
4248.688546781471
 20
3363.030169262377
 30
0.0
 10
4248.688546781471
 20
3363.030169262377
 30
0.0
 10
4248.87714759447
 20
3363.030169262377
 30
0.0
 10
4249.624611490472
 20
3363.030169262377
 30
0.0
 10
4250.183457548971
 20
3363.030169262377
 30
0.0
 10
4251.65081576697
 20
3363.030169262377
 30
0.0
 10
4252.559294509471
 20
3363.030169262377
 30
0.0
 10
4254.692424785471
 20
3363.030169262377
 30
0.0
 10
4255.917026853472
 20
3363.030169262377
 30
0.0
 10
4257.277139559471
 20
3363.030169262377
 30
0.0
  0
SPLINE
  5
1B1
330
1F
100
AcDbEntity
  8
0
  6
Continuous
 62
     7
370
    15
100
AcDbSpline
210
0.0
220
0.0
230
1.0
 70
    24
 71
     3
 72
    14
 73
    10
 74
     0
 42
0.000000001
 43
0.00000001
 40
0.0
 40
0.0
 40
0.0
 40
0.0
 40
0.25
 40
0.25
 40
0.5
 40
0.5
 40
0.75
 40
0.75
 40
1.0
 40
1.0
 40
1.0
 40
1.0
 10
4257.277139559471
 20
3363.030169262377
 30
0.0
 10
4258.637252267471
 20
3363.030169262377
 30
0.0
 10
4260.132810106471
 20
3363.030169262377
 30
0.0
 10
4263.339793954471
 20
3363.030169262377
 30
0.0
 10
4265.051146040471
 20
3363.030169262377
 30
0.0
 10
4268.626603224471
 20
3363.030169262377
 30
0.0
 10
4270.490626896471
 20
3363.030169262377
 30
0.0
 10
4274.302679708471
 20
3363.030169262377
 30
0.0
 10
4276.25061988447
 20
3363.030169262377
 30
0.0
 10
4278.204644084472
 20
3363.030169262377
 30
0.0
  0
LINE
  5
1B2
330
1F
100
AcDbEntity
  8
0
  6
Continuous
 62
     7
370
    15
100
AcDbLine
 10
4755.3800857704
 20
3363.0301621098
 30
0.0
 11
4278.2046414059
 21
3363.0301621098
 31
0.0
  0
SPLINE
  5
1B3
330
1F
100
AcDbEntity
  8
0
  6
Continuous
 62
     7
370
    15
100
AcDbSpline
210
0.0
220
0.0
230
1.0
 70
     8
 71
     3
 72
    29
 73
    25
 74
     0
 42
0.000000001
 43
0.00000001
 40
-1.5707963267949
 40
-1.5707963267949
 40
-1.5707963267949
 40
-1.5707963267949
 40
-1.374446785945538
 40
-1.374446785945538
 40
-1.374446785945538
 40
-1.178097245096176
 40
-1.178097245096176
 40
-1.178097245096176
 40
-0.9817477042468139
 40
-0.9817477042468139
 40
-0.9817477042468139
 40
-0.7853981633974509
 40
-0.7853981633974509
 40
-0.7853981633974509
 40
-0.5890486225480889
 40
-0.5890486225480889
 40
-0.5890486225480889
 40
-0.3926990816987299
 40
-0.3926990816987299
 40
-0.3926990816987299
 40
-0.1963495408493698
 40
-0.1963495408493698
 40
-0.1963495408493698
 40
0.0
 40
0.0
 40
0.0
 40
0.0
 10
4755.380073849471
 20
3363.030169262377
 30
0.0
 10
4756.034572318471
 20
3363.030169262377
 30
0.0
 10
4756.689054604471
 20
3362.965708383377
 30
0.0
 10
4757.330977069471
 20
3362.838022066377
 30
0.0
 10
4757.972899534471
 20
3362.710335749377
 30
0.0
 10
4758.602230433471
 20
3362.519430308377
 30
0.0
 10
4759.206908173471
 20
3362.268964587377
 30
0.0
 10
4759.811585913471
 20
3362.018498866377
 30
0.0
 10
4760.391580591471
 20
3361.708485252377
 30
0.0
 10
4760.935776179471
 20
3361.344865385377
 30
0.0
 10
4761.479971768471
 20
3360.981245518377
 30
0.0
 10
4761.988341355471
 20
3360.564037380377
 30
0.0
 10
4762.451141661471
 20
3360.101237074377
 30
0.0
 10
4762.913941967471
 20
3359.638436768377
 30
0.0
 10
4763.331150105471
 20
3359.130067181377
 30
0.0
 10
4763.694769972471
 20
3358.585871592377
 30
0.0
 10
4764.058389839472
 20
3358.041676004377
 30
0.0
 10
4764.368403453471
 20
3357.461681326377
 30
0.0
 10
4764.618869174471
 20
3356.857003586377
 30
0.0
 10
4764.86933489547
 20
3356.252325846377
 30
0.0
 10
4765.060240336471
 20
3355.622994947377
 30
0.0
 10
4765.187926653471
 20
3354.981072482377
 30
0.0
 10
4765.315612970471
 20
3354.339150017377
 30
0.0
 10
4765.380073849471
 20
3353.684667731377
 30
0.0
 10
4765.380073849471
 20
3353.030169262377
 30
0.0
  0
SPLINE
  5
1B4
330
1F
100
AcDbEntity
  8
0
  6
Continuous
 62
     7
370
    15
100
AcDbSpline
210
0.0
220
0.0
230
1.0
 70
    24
 71
     3
 72
    29
 73
    25
 74
     0
 42
0.000000001
 43
0.00000001
 40
0.179853499792477
 40
0.179853499792477
 40
0.179853499792477
 40
0.179853499792477
 40
0.353721353167787
 40
0.353721353167787
 40
0.353721353167787
 40
0.5275892065430869
 40
0.5275892065430869
 40
0.5275892065430869
 40
0.7014570599183869
 40
0.7014570599183869
 40
0.7014570599183869
 40
0.8753249132936899
 40
0.8753249132936899
 40
0.8753249132936899
 40
1.049192766668992
 40
1.049192766668992
 40
1.049192766668992
 40
1.223060620044295
 40
1.223060620044295
 40
1.223060620044295
 40
1.396928473419597
 40
1.396928473419597
 40
1.396928473419597
 40
1.5707963267949
 40
1.5707963267949
 40
1.5707963267949
 40
1.5707963267949
 10
4765.380073849471
 20
3353.030169262377
 30
0.0
 10
4765.380073849471
 20
3353.030169262377
 30
0.0
 10
4765.380073849471
 20
3352.979659337377
 30
0.0
 10
4765.380073849471
 20
3352.879399499377
 30
0.0
 10
4765.380073849471
 20
3352.779139661377
 30
0.0
 10
4765.380073849471
 20
3352.629132960377
 30
0.0
 10
4765.380073849471
 20
3352.431636515377
 30
0.0
 10
4765.380073849471
 20
3352.234140069377
 30
0.0
 10
4765.380073849471
 20
3351.989159887377
 30
0.0
 10
4765.380073849471
 20
3351.700382133377
 30
0.0
 10
4765.380073849471
 20
3351.411604378377
 30
0.0
 10
4765.380073849471
 20
3351.079037836377
 30
0.0
 10
4765.380073849471
 20
3350.707686563377
 30
0.0
 10
4765.380073849471
 20
3350.336335290377
 30
0.0
 10
4765.380073849471
 20
3349.926210583377
 30
0.0
 10
4765.380073849471
 20
3349.483483501377
 30
0.0
 10
4765.380073849471
 20
3349.040756419377
 30
0.0
 10
4765.380073849471
 20
3348.565440428377
 30
0.0
 10
4765.380073849471
 20
3348.064687507377
 30
0.0
 10
4765.380073849471
 20
3347.563934587377
 30
0.0
 10
4765.380073849471
 20
3347.037759968377
 30
0.0
 10
4765.380073849471
 20
3346.494080889377
 30
0.0
 10
4765.380073849471
 20
3345.950401810377
 30
0.0
 10
4765.380073849471
 20
3345.389234808377
 30
0.0
 10
4765.380073849471
 20
3344.819023644377
 30
0.0
  0
LINE
  5
1B5
330
1F
100
AcDbEntity
  8
0
  6
Continuous
 62
     7
370
    15
100
AcDbLine
 10
3843.4649397686
 20
2767.0301687259
 30
0.0
 11
3843.4649397686
 21
2793.0301692624
 31
0.0
  0
LINE
  5
1B6
330
1F
100
AcDbEntity
  8
0
  6
Continuous
 62
     7
370
    15
100
AcDbLine
 10
3827.464937146
 20
2793.0301692624
 30
0.0
 11
3827.464937146
 21
2767.0301687259
 31
0.0
  0
LINE
  5
1B7
330
1F
100
AcDbEntity
  8
0
  6
Continuous
 62
     7
370
    15
100
AcDbLine
 10
3827.464937146
 20
2767.0301687259
 30
0.0
 11
3827.464937146
 21
2621.0301634211
 31
0.0
  0
LINE
  5
1B8
330
1F
100
AcDbEntity
  8
0
  6
Continuous
 62
     7
370
    15
100
AcDbLine
 10
3843.4649397686
 20
2621.0301634211
 30
0.0
 11
3843.4649397686
 21
2767.0301687259
 31
0.0
  0
ARC
  5
1B9
330
1F
100
AcDbEntity
  8
0
  6
Continuous
 62
     7
370
    15
100
AcDbCircle
 10
3805.4649319008
 20
2621.0301692624
 30
0.0
 40
21.99999999999955
100
AcDbArc
 50
270.0
 51
0.0
  0
ARC
  5
1BA
330
1F
100
AcDbEntity
  8
0
  6
Continuous
 62
     7
370
    15
100
AcDbCircle
 10
3805.4649319008
 20
2621.0301692624
 30
0.0
 40
38.0
100
AcDbArc
 50
270.0
 51
0.0
  0
LINE
  5
1BB
330
1F
100
AcDbEntity
  8
0
  6
Continuous
 62
     7
370
    15
100
AcDbLine
 10
3805.464922364
 20
2599.0301635403
 30
0.0
 11
3285.4649414375
 21
2599.0301635403
 31
0.0
  0
LINE
  5
1BC
330
1F
100
AcDbEntity
  8
0
  6
Continuous
 62
     7
370
    15
100
AcDbLine
 10
3285.4649414375
 20
2583.0301758189
 30
0.0
 11
3805.464922364
 21
2583.0301758189
 31
0.0
  0
LINE
  5
1BD
330
1F
100
AcDbEntity
  8
0
  6
Continuous
 62
     7
370
    15
100
AcDbLine
 10
3247.464924033
 20
2793.0301692624
 30
0.0
 11
3247.464924033
 21
2767.0301687259
 31
0.0
  0
LINE
  5
1BE
330
1F
100
AcDbEntity
  8
0
  6
Continuous
 62
     7
370
    15
100
AcDbLine
 10
3263.4649266556
 20
2767.0301687259
 30
0.0
 11
3263.4649266556
 21
2793.0301692624
 31
0.0
  0
LINE
  5
1BF
330
1F
100
AcDbEntity
  8
0
  6
Continuous
 62
     7
370
    15
100
AcDbLine
 10
3263.4649266556
 20
2621.0301634211
 30
0.0
 11
3263.4649266556
 21
2767.0301687259
 31
0.0
  0
LINE
  5
1C0
330
1F
100
AcDbEntity
  8
0
  6
Continuous
 62
     7
370
    15
100
AcDbLine
 10
3247.464924033
 20
2767.0301687259
 30
0.0
 11
3247.464924033
 21
2621.0301634211
 31
0.0
  0
ARC
  5
1C1
330
1F
100
AcDbEntity
  8
0
  6
Continuous
 62
     7
370
    15
100
AcDbCircle
 10
3285.4649319008
 20
2621.0301692624
 30
0.0
 40
22.00000000000045
100
AcDbArc
 50
180.0
 51
270.0
  0
ARC
  5
1C2
330
1F
100
AcDbEntity
  8
0
  6
Continuous
 62
     7
370
    15
100
AcDbCircle
 10
3285.4649319008
 20
2621.0301692624
 30
0.0
 40
38.0
100
AcDbArc
 50
180.0
 51
270.0
  0
LINE
  5
1C3
330
1F
100
AcDbEntity
  8
0
  6
Continuous
 62
     7
370
    15
100
AcDbLine
 10
3245.4649199799
 20
2793.0301692624
 30
0.0
 11
3845.4649438217
 21
2793.0301692624
 31
0.0
  0
LINE
  5
1C4
330
1F
100
AcDbEntity
  8
0
  6
Continuous
 62
     7
370
    15
100
AcDbLine
 10
3679.9107779816
 20
3057.4823286671
 30
0.0
 11
3732.4790646389
 21
3346.6078903813
 31
0.0
  0
LINE
  5
1C5
330
1F
100
AcDbEntity
  8
0
  6
Continuous
 62
     7
370
    15
100
AcDbLine
 10
3752.1564652279
 20
3363.0301621098
 30
0.0
 11
3835.4649235561
 21
3363.0301621098
 31
0.0
  0
LINE
  5
1C6
330
1F
100
AcDbEntity
  8
0
  6
Continuous
 62
     7
370
    15
100
AcDbLine
 10
3669.7519560411
 20
3027.1723088164
 30
0.0
 11
3692.1783675507
 21
3004.7458973069
 31
0.0
  0
LINE
  5
1C7
330
1F
100
AcDbEntity
  8
0
  6
Continuous
 62
     7
370
    15
100
AcDbLine
 10
3245.4649199799
 20
3033.030163898
 30
0.0
 11
3655.6098227456
 21
3033.030163898
 31
0.0
  0
LINE
  5
1C8
330
1F
100
AcDbEntity
  8
0
  6
Continuous
 62
     7
370
    15
100
AcDbLine
 10
3706.3204933956
 20
3018.888038053
 30
0.0
 11
3685.4460378244
 21
3039.7624936242
 31
0.0
  0
LINE
  5
1C9
330
1F
100
AcDbEntity
  8
0
  6
Continuous
 62
     7
370
    15
100
AcDbLine
 10
3845.4649438217
 20
2793.0301692624
 30
0.0
 11
3855.464934285
 21
2793.0301692624
 31
0.0
  0
LINE
  5
1CA
330
1F
100
AcDbEntity
  8
0
  6
Continuous
 62
     7
370
    15
100
AcDbLine
 10
3855.464934285
 20
2793.0301692624
 30
0.0
 11
3855.464934285
 21
3343.0301811833
 31
0.0
  0
SPLINE
  5
1CB
330
1F
100
AcDbEntity
  8
0
  6
Continuous
 62
     7
370
    15
100
AcDbSpline
210
0.0
220
0.0
230
1.0
 70
     8
 71
     3
 72
    14
 73
    10
 74
     0
 42
0.000000001
 43
0.00000001
 40
0.0
 40
0.0
 40
0.0
 40
0.0
 40
0.25
 40
0.25
 40
0.5
 40
0.5
 40
0.75
 40
0.75
 40
1.0
 40
1.0
 40
1.0
 40
1.0
 10
3752.15645896878
 20
3363.030169262377
 30
0.0
 10
3749.838220923776
 20
3363.030169262377
 30
0.0
 10
3747.520544576048
 20
3362.623089549475
 30
0.0
 10
3743.161576763177
 20
3361.043117986576
 30
0.0
 10
3741.121341453742
 20
3359.870608955646
 30
0.0
 10
3737.561678913986
 20
3356.899798773849
 30
0.0
 10
3736.043114171774
 20
3355.102217435165
 30
0.0
 10
3733.70887182492
 20
3351.09619407036
 30
0.0
 10
3732.893759795314
 20
3348.888722683305
 30
0.0
 10
3732.479060766781
 20
3346.607878026377
 30
0.0
  0
SPLINE
  5
1CC
330
1F
100
AcDbEntity
  8
0
  6
Continuous
 62
     7
370
    15
100
AcDbSpline
210
0.0
220
0.0
230
1.0
 70
     8
 71
     3
 72
    14
 73
    10
 74
     0
 42
0.000000001
 43
0.00000001
 40
0.0
 40
0.0
 40
0.0
 40
0.0
 40
0.25
 40
0.25
 40
0.5
 40
0.5
 40
0.75
 40
0.75
 40
1.0
 40
1.0
 40
1.0
 40
1.0
 10
3669.751958039511
 20
3027.172304886108
 30
0.0
 10
3668.826357427394
 20
3028.097905498224
 30
0.0
 10
3667.809618253544
 20
3028.932321774008
 30
0.0
 10
3665.632835898799
 20
3030.386801242847
 30
0.0
 10
3664.472846543139
 20
3031.006828471032
 30
0.0
 10
3662.054135583023
 20
3032.008691354173
 30
0.0
 10
3660.795473785962
 20
3032.390502236095
 30
0.0
 10
3658.227783926242
 20
3032.901247504788
 30
0.0
 10
3656.918819354775
 20
3033.030169262377
 30
0.0
 10
3655.609822415779
 20
3033.030169262377
 30
0.0
  0
ARC
  5
1CD
330
1F
100
AcDbEntity
  8
0
  6
Continuous
 62
     7
370
    15
100
AcDbCircle
 10
3699.2494327228
 20
3011.8169658264
 30
0.0
 40
10.00000000054672
100
AcDbArc
 50
225.0000000002
 51
315.0000000062
  0
ARC
  5
1CE
330
1F
100
AcDbEntity
  8
0
  6
Continuous
 62
     7
370
    15
100
AcDbCircle
 10
3699.2494327228
 20
3011.8169658264
 30
0.0
 40
10.00000000010266
100
AcDbArc
 50
315.0000000062
 51
44.9999999907
  0
SPLINE
  5
1CF
330
1F
100
AcDbEntity
  8
0
  6
Continuous
 62
     7
370
    15
100
AcDbSpline
210
0.0
220
0.0
230
1.0
 70
     8
 71
     3
 72
    14
 73
    10
 74
     0
 42
0.000000001
 43
0.00000001
 40
0.0
 40
0.0
 40
0.0
 40
0.0
 40
0.25
 40
0.25
 40
0.5
 40
0.5
 40
0.75
 40
0.75
 40
1.0
 40
1.0
 40
1.0
 40
1.0
 10
3679.588178536779
 20
3053.904626884377
 30
0.0
 10
3679.588178536779
 20
3052.595629945381
 30
0.0
 10
3679.717100294368
 20
3051.286665373914
 30
0.0
 10
3680.227845563061
 20
3048.718975514194
 30
0.0
 10
3680.609656444983
 20
3047.460313717132
 30
0.0
 10
3681.611519328124
 20
3045.041602757015
 30
0.0
 10
3682.231546556309
 20
3043.881613401355
 30
0.0
 10
3683.686026025149
 20
3041.704831046611
 30
0.0
 10
3684.520442300933
 20
3040.68809187276
 30
0.0
 10
3685.446042913049
 20
3039.762491260643
 30
0.0
  0
SPLINE
  5
1D0
330
1F
100
AcDbEntity
  8
0
  6
Continuous
 62
     7
370
    15
100
AcDbSpline
210
0.0
220
0.0
230
1.0
 70
     8
 71
     3
 72
     8
 73
     4
 74
     0
 42
0.000000001
 43
0.00000001
 40
0.0
 40
0.0
 40
0.0
 40
0.0
 40
1.0
 40
1.0
 40
1.0
 40
1.0
 10
3679.910780334782
 20
3057.482335648377
 30
0.0
 10
3679.696292520634
 20
3056.302652670564
 30
0.0
 10
3679.58817853678
 20
3055.103650216327
 30
0.0
 10
3679.588178536779
 20
3053.904626884377
 30
0.0
  0
SPLINE
  5
1D1
330
1F
100
AcDbEntity
  8
0
  6
Continuous
 62
     7
370
    15
100
AcDbSpline
210
0.0
220
0.0
230
1.0
 70
     8
 71
     3
 72
    29
 73
    25
 74
     0
 42
0.000000001
 43
0.00000001
 40
1.5707963267949
 40
1.5707963267949
 40
1.5707963267949
 40
1.5707963267949
 40
1.76714586764426
 40
1.76714586764426
 40
1.76714586764426
 40
1.96349540849362
 40
1.96349540849362
 40
1.96349540849362
 40
2.15984494934298
 40
2.15984494934298
 40
2.15984494934298
 40
2.35619449019234
 40
2.35619449019234
 40
2.35619449019234
 40
2.55254403104171
 40
2.55254403104171
 40
2.55254403104171
 40
2.74889357189107
 40
2.74889357189107
 40
2.74889357189107
 40
2.94524311274043
 40
2.94524311274043
 40
2.94524311274043
 40
3.14159265358979
 40
3.14159265358979
 40
3.14159265358979
 40
3.14159265358979
 10
3835.464931900779
 20
3363.030169262377
 30
0.0
 10
3836.77392883978
 20
3363.030169262377
 30
0.0
 10
3838.082893410779
 20
3362.901247504377
 30
0.0
 10
3839.366738340779
 20
3362.645874870377
 30
0.0
 10
3840.650583270779
 20
3362.390502236377
 30
0.0
 10
3841.909245067779
 20
3362.008691354377
 30
0.0
 10
3843.11860054778
 20
3361.507759912377
 30
0.0
 10
3844.327956027779
 20
3361.006828471378
 30
0.0
 10
3845.487945383779
 20
3360.386801242377
 30
0.0
 10
3846.57633656078
 20
3359.659561508377
 30
0.0
 10
3847.664727738779
 20
3358.932321774377
 30
0.0
 10
3848.681466912779
 20
3358.097905498377
 30
0.0
 10
3849.60706752478
 20
3357.172304886377
 30
0.0
 10
3850.53266813678
 20
3356.246704274377
 30
0.0
 10
3851.36708441278
 20
3355.229965100377
 30
0.0
 10
3852.094324146779
 20
3354.141573922377
 30
0.0
 10
3852.82156388078
 20
3353.053182745377
 30
0.0
 10
3853.44159110978
 20
3351.893193389377
 30
0.0
 10
3853.942522550779
 20
3350.683837909377
 30
0.0
 10
3854.44345399278
 20
3349.474482429377
 30
0.0
 10
3854.825264874779
 20
3348.215820632377
 30
0.0
 10
3855.080637508779
 20
3346.931975702377
 30
0.0
 10
3855.336010142779
 20
3345.648130772377
 30
0.0
 10
3855.464931900779
 20
3344.339166201377
 30
0.0
 10
3855.464931900779
 20
3343.030169262377
 30
0.0
  0
ARC
  5
1D2
330
1F
100
AcDbEntity
  8
0
  6
Continuous
 62
     7
370
    15
100
AcDbCircle
 10
3245.4649319008
 20
3023.0301692624
 30
0.0
 40
10.0
100
AcDbArc
 50
90.0000000118
 51
180.0000002353
  0
LINE
  5
1D3
330
1F
100
AcDbEntity
  8
0
  6
Continuous
 62
     7
370
    15
100
AcDbLine
 10
3235.4649295166
 20
3023.0301734347
 30
0.0
 11
3235.4649295166
 21
2793.0301692624
 31
0.0
  0
LINE
  5
1D4
330
1F
100
AcDbEntity
  8
0
  6
Continuous
 62
     7
370
    15
100
AcDbLine
 10
3235.4649295166
 20
2793.0301692624
 30
0.0
 11
3245.4649199799
 21
2793.0301692624
 31
0.0
  0
SPLINE
  5
1D5
330
1F
100
AcDbEntity
  8
0
  6
Continuous
 62
     7
370
    15
100
AcDbSpline
210
0.0
220
0.0
230
1.0
 70
    24
 71
     3
 72
     8
 73
     4
 74
     0
 42
0.000000001
 43
0.00000001
 40
0.0
 40
0.0
 40
0.0
 40
0.0
 40
1.0
 40
1.0
 40
1.0
 40
1.0
 10
3685.446042912779
 20
3039.762491260377
 30
0.0
 10
3685.446042912779
 20
3039.762491260377
 30
0.0
 10
3685.184949960779
 20
3040.023584212377
 30
0.0
 10
3684.670568944779
 20
3040.537965228377
 30
0.0
  0
SPLINE
  5
1D6
330
1F
100
AcDbEntity
  8
0
  6
Continuous
 62
     7
370
    15
100
AcDbSpline
210
0.0
220
0.0
230
1.0
 70
    24
 71
     3
 72
    29
 73
    25
 74
     0
 42
0.000000001
 43
0.00000001
 40
1.39094282700242
 40
1.39094282700242
 40
1.39094282700242
 40
1.39094282700242
 40
1.51159928490117
 40
1.51159928490117
 40
1.51159928490117
 40
1.63225574279991
 40
1.63225574279991
 40
1.63225574279991
 40
1.75291220069865
 40
1.75291220069865
 40
1.75291220069865
 40
1.87356865859739
 40
1.87356865859739
 40
1.87356865859739
 40
1.99422511649613
 40
1.99422511649613
 40
1.99422511649613
 40
2.11488157439487
 40
2.11488157439487
 40
2.11488157439487
 40
2.23553803229361
 40
2.23553803229361
 40
2.23553803229361
 40
2.35619449019235
 40
2.35619449019235
 40
2.35619449019235
 40
2.35619449019235
 10
3235.464931900779
 20
3046.833559072377
 30
0.0
 10
3235.464931900779
 20
3047.117949070377
 30
0.0
 10
3235.464931900779
 20
3047.419515594377
 30
0.0
 10
3235.464931900779
 20
3047.736068325377
 30
0.0
 10
3235.464931900779
 20
3048.052621056377
 30
0.0
 10
3235.464931900779
 20
3048.384157761377
 30
0.0
 10
3235.464931900779
 20
3048.728270444377
 30
0.0
 10
3235.464931900779
 20
3049.072383127377
 30
0.0
 10
3235.464931900779
 20
3049.429069360377
 30
0.0
 10
3235.464931900779
 20
3049.795738484377
 30
0.0
 10
3235.464931900779
 20
3050.162407608377
 30
0.0
 10
3235.464931900779
 20
3050.539057035377
 30
0.0
 10
3235.464931900779
 20
3050.922951110377
 30
0.0
 10
3235.464931900779
 20
3051.306845186377
 30
0.0
 10
3235.464931900779
 20
3051.697981200377
 30
0.0
 10
3235.464931900779
 20
3052.093518280377
 30
0.0
 10
3235.464931900779
 20
3052.489055361377
 30
0.0
 10
3235.464931900779
 20
3052.888990717378
 30
0.0
 10
3235.464931900779
 20
3053.290419564377
 30
0.0
 10
3235.464931900779
 20
3053.691848412377
 30
0.0
 10
3235.464931900779
 20
3054.094767917377
 30
0.0
 10
3235.464931900779
 20
3054.496251624377
 30
0.0
 10
3235.464931900779
 20
3054.897735331377
 30
0.0
 10
3235.464931900779
 20
3055.297780404377
 30
0.0
 10
3235.464931900779
 20
3055.693481266377
 30
0.0
  0
LINE
  5
1D7
330
1F
100
AcDbEntity
  8
0
  6
Continuous
 62
     7
370
    15
100
AcDbLine
 10
3235.4649295166
 20
3344.8190357823
 30
0.0
 11
3235.4649295166
 21
3055.6934740681
 31
0.0
  0
LINE
  5
1D8
330
1F
100
AcDbEntity
  8
0
  6
Continuous
 62
     7
370
    15
100
AcDbLine
 10
3235.4649295166
 20
3046.8335714478
 30
0.0
 11
3235.4649295166
 21
3025.9591009755
 31
0.0
  0
SPLINE
  5
1D9
330
1F
100
AcDbEntity
  8
0
  6
Continuous
 62
     7
370
    15
100
AcDbSpline
210
0.0
220
0.0
230
1.0
 70
    24
 71
     3
 72
    10
 73
     6
 74
     0
 42
0.000000001
 43
0.00000001
 40
0.0
 40
0.0
 40
0.0
 40
0.0
 40
0.3893707547121386
 40
0.778173656417059
 40
1.0
 40
1.0
 40
1.0
 40
1.0
 10
3235.464929516594
 20
3025.959100975481
 30
0.0
 10
3235.464929516594
 20
3025.606112921319
 30
0.0
 10
3235.464929516594
 20
3024.900651605965
 30
0.0
 10
3235.464929516594
 20
3023.924940875629
 30
0.0
 10
3235.464929516594
 20
3023.289065896271
 30
0.0
 10
3235.464929516594
 20
3023.058068408457
 30
0.0
  0
SPLINE
  5
1DA
330
1F
100
AcDbEntity
  8
0
  6
Continuous
 62
     7
370
    15
100
AcDbSpline
210
0.0
220
0.0
230
1.0
 70
    24
 71
     3
 72
    14
 73
    10
 74
     0
 42
0.000000001
 43
0.00000001
 40
0.0
 40
0.0
 40
0.0
 40
0.0
 40
0.25
 40
0.25
 40
0.5
 40
0.5
 40
0.75
 40
0.75
 40
1.0
 40
1.0
 40
1.0
 40
1.0
 10
3743.56786619078
 20
3363.030169262377
 30
0.0
 10
3744.927978896779
 20
3363.030169262377
 30
0.0
 10
3746.15258096478
 20
3363.030169262377
 30
0.0
 10
3748.28571124078
 20
3363.030169262377
 30
0.0
 10
3749.194189983279
 20
3363.030169262377
 30
0.0
 10
3750.661548201279
 20
3363.030169262377
 30
0.0
 10
3751.220394259779
 20
3363.030169262377
 30
0.0
 10
3751.967858155779
 20
3363.030169262377
 30
0.0
 10
3752.15645896878
 20
3363.030169262377
 30
0.0
 10
3752.15645896878
 20
3363.030169262377
 30
0.0
  0
SPLINE
  5
1DB
330
1F
100
AcDbEntity
  8
0
  6
Continuous
 62
     7
370
    15
100
AcDbSpline
210
0.0
220
0.0
230
1.0
 70
    24
 71
     3
 72
    14
 73
    10
 74
     0
 42
0.000000001
 43
0.00000001
 40
0.0
 40
0.0
 40
0.0
 40
0.0
 40
0.25
 40
0.25
 40
0.5
 40
0.5
 40
0.75
 40
0.75
 40
1.0
 40
1.0
 40
1.0
 40
1.0
 10
3722.640361665779
 20
3363.030169262377
 30
0.0
 10
3724.594385865779
 20
3363.030169262377
 30
0.0
 10
3726.54232604178
 20
3363.030169262377
 30
0.0
 10
3730.35437885378
 20
3363.030169262377
 30
0.0
 10
3732.218402525779
 20
3363.030169262377
 30
0.0
 10
3735.79385970978
 20
3363.030169262377
 30
0.0
 10
3737.50521179578
 20
3363.030169262377
 30
0.0
 10
3740.71219564378
 20
3363.030169262377
 30
0.0
 10
3742.207753482779
 20
3363.030169262377
 30
0.0
 10
3743.56786619078
 20
3363.030169262377
 30
0.0
  0
LINE
  5
1DC
330
1F
100
AcDbEntity
  8
0
  6
Continuous
 62
     7
370
    15
100
AcDbLine
 10
3245.4649199799
 20
3363.0301621098
 30
0.0
 11
3722.6403643444
 21
3363.0301621098
 31
0.0
  0
SPLINE
  5
1DD
330
1F
100
AcDbEntity
  8
0
  6
Continuous
 62
     7
370
    15
100
AcDbSpline
210
0.0
220
0.0
230
1.0
 70
     8
 71
     3
 72
    14
 73
    10
 74
     0
 42
0.000000001
 43
0.00000001
 40
0.0
 40
0.0
 40
0.0
 40
0.0
 40
0.25
 40
0.25
 40
0.5
 40
0.5
 40
0.75
 40
0.75
 40
1.0
 40
1.0
 40
1.0
 40
1.0
 10
3245.464931900779
 20
3363.030169262375
 30
0.0
 10
3244.155934961784
 20
3363.030169262375
 30
0.0
 10
3242.847453057187
 20
3362.769896029059
 30
0.0
 10
3240.428742097071
 20
3361.768033145918
 30
0.0
 10
3239.319464701031
 20
3361.026837686358
 30
0.0
 10
3237.468263476799
 20
3359.175636462126
 30
0.0
 10
3236.727068017238
 20
3358.066359066085
 30
0.0
 10
3235.725205134097
 20
3355.64764810597
 30
0.0
 10
3235.46493190078
 20
3354.339166201373
 30
0.0
 10
3235.46493190078
 20
3353.030169262378
 30
0.0
  0
SPLINE
  5
1DE
330
1F
100
AcDbEntity
  8
0
  6
Continuous
 62
     7
370
    15
100
AcDbSpline
210
0.0
220
0.0
230
1.0
 70
    24
 71
     3
 72
    29
 73
    25
 74
     0
 42
0.000000001
 43
0.00000001
 40
0.0
 40
0.0
 40
0.0
 40
0.0
 40
0.1738678533753002
 40
0.1738678533753002
 40
0.1738678533753002
 40
0.3477357067506102
 40
0.3477357067506102
 40
0.3477357067506102
 40
0.521603560125908
 40
0.521603560125908
 40
0.521603560125908
 40
0.69547141350121
 40
0.69547141350121
 40
0.69547141350121
 40
0.8693392668765131
 40
0.8693392668765131
 40
0.8693392668765131
 40
1.043207120251815
 40
1.043207120251815
 40
1.043207120251815
 40
1.217074973627118
 40
1.217074973627118
 40
1.217074973627118
 40
1.39094282700242
 40
1.39094282700242
 40
1.39094282700242
 40
1.39094282700242
 10
3235.464931900779
 20
3344.819023644377
 30
0.0
 10
3235.464931900779
 20
3345.389234808377
 30
0.0
 10
3235.464931900779
 20
3345.950401810377
 30
0.0
 10
3235.464931900779
 20
3346.494080889377
 30
0.0
 10
3235.464931900779
 20
3347.037759968377
 30
0.0
 10
3235.464931900779
 20
3347.563934587377
 30
0.0
 10
3235.464931900779
 20
3348.064687507377
 30
0.0
 10
3235.464931900779
 20
3348.565440428377
 30
0.0
 10
3235.464931900779
 20
3349.040756419377
 30
0.0
 10
3235.464931900779
 20
3349.483483501377
 30
0.0
 10
3235.464931900779
 20
3349.926210583377
 30
0.0
 10
3235.464931900779
 20
3350.336335290377
 30
0.0
 10
3235.464931900779
 20
3350.707686563377
 30
0.0
 10
3235.464931900779
 20
3351.079037836377
 30
0.0
 10
3235.464931900779
 20
3351.411604378377
 30
0.0
 10
3235.464931900779
 20
3351.700382133377
 30
0.0
 10
3235.464931900779
 20
3351.989159887377
 30
0.0
 10
3235.464931900779
 20
3352.234140069377
 30
0.0
 10
3235.464931900779
 20
3352.431636515377
 30
0.0
 10
3235.464931900779
 20
3352.629132960377
 30
0.0
 10
3235.464931900779
 20
3352.779139661377
 30
0.0
 10
3235.464931900779
 20
3352.879399499377
 30
0.0
 10
3235.464931900779
 20
3352.979659337377
 30
0.0
 10
3235.464931900779
 20
3353.030169262377
 30
0.0
 10
3235.464931900779
 20
3353.030169262377
 30
0.0
  0
LINE
  5
1DF
330
1F
100
AcDbEntity
  8
0
  6
Continuous
 62
     7
370
    15
100
AcDbLine
 10
5067.2996985781
 20
2793.0301692624
 30
0.0
 11
5067.2996985781
 21
2767.0301687259
 31
0.0
  0
LINE
  5
1E0
330
1F
100
AcDbEntity
  8
0
  6
Continuous
 62
     7
370
    15
100
AcDbLine
 10
5083.2997012007
 20
2767.0301687259
 30
0.0
 11
5083.2997012007
 21
2793.0301692624
 31
0.0
  0
LINE
  5
1E1
330
1F
100
AcDbEntity
  8
0
  6
Continuous
 62
     7
370
    15
100
AcDbLine
 10
5083.2997012007
 20
2621.0301634211
 30
0.0
 11
5083.2997012007
 21
2767.0301687259
 31
0.0
  0
LINE
  5
1E2
330
1F
100
AcDbEntity
  8
0
  6
Continuous
 62
     7
370
    15
100
AcDbLine
 10
5067.2996985781
 20
2767.0301687259
 30
0.0
 11
5067.2996985781
 21
2621.0301634211
 31
0.0
  0
LINE
  5
1E3
330
1F
100
AcDbEntity
  8
0
  6
Continuous
 62
     7
370
    15
100
AcDbLine
 10
5663.2997143138
 20
2767.0301687259
 30
0.0
 11
5663.2997143138
 21
2793.0301692624
 31
0.0
  0
LINE
  5
1E4
330
1F
100
AcDbEntity
  8
0
  6
Continuous
 62
     7
370
    15
100
AcDbLine
 10
5647.2997116912
 20
2793.0301692624
 30
0.0
 11
5647.2997116912
 21
2767.0301687259
 31
0.0
  0
LINE
  5
1E5
330
1F
100
AcDbEntity
  8
0
  6
Continuous
 62
     7
370
    15
100
AcDbLine
 10
5647.2997116912
 20
2767.0301687259
 30
0.0
 11
5647.2997116912
 21
2621.0301634211
 31
0.0
  0
LINE
  5
1E6
330
1F
100
AcDbEntity
  8
0
  6
Continuous
 62
     7
370
    15
100
AcDbLine
 10
5663.2997143138
 20
2621.0301634211
 30
0.0
 11
5663.2997143138
 21
2767.0301687259
 31
0.0
  0
ARC
  5
1E7
330
1F
100
AcDbEntity
  8
0
  6
Continuous
 62
     7
370
    15
100
AcDbCircle
 10
5105.299706446
 20
2621.0301692624
 30
0.0
 40
22.00000000000091
100
AcDbArc
 50
180.0
 51
270.0
  0
ARC
  5
1E8
330
1F
100
AcDbEntity
  8
0
  6
Continuous
 62
     7
370
    15
100
AcDbCircle
 10
5105.299706446
 20
2621.0301692624
 30
0.0
 40
38.0
100
AcDbArc
 50
180.0
 51
270.0
  0
LINE
  5
1E9
330
1F
100
AcDbEntity
  8
0
  6
Continuous
 62
     7
370
    15
100
AcDbLine
 10
5625.2996969092
 20
2599.0301635403
 30
0.0
 11
5105.2997159827
 21
2599.0301635403
 31
0.0
  0
LINE
  5
1EA
330
1F
100
AcDbEntity
  8
0
  6
Continuous
 62
     7
370
    15
100
AcDbLine
 10
5105.2997159827
 20
2583.0301758189
 30
0.0
 11
5625.2996969092
 21
2583.0301758189
 31
0.0
  0
ARC
  5
1EB
330
1F
100
AcDbEntity
  8
0
  6
Continuous
 62
     7
370
    15
100
AcDbCircle
 10
5625.2997064459
 20
2621.0301692624
 30
0.0
 40
22.0
100
AcDbArc
 50
270.0
 51
0.0
  0
ARC
  5
1EC
330
1F
100
AcDbEntity
  8
0
  6
Continuous
 62
     7
370
    15
100
AcDbCircle
 10
5625.2997064459
 20
2621.0301692624
 30
0.0
 40
38.0
100
AcDbArc
 50
270.0
 51
360.0
  0
LINE
  5
1ED
330
1F
100
AcDbEntity
  8
0
  6
Continuous
 62
     7
370
    15
100
AcDbLine
 10
5055.2997040618
 20
2793.0301692624
 30
0.0
 11
5065.299694525
 21
2793.0301692624
 31
0.0
  0
LINE
  5
1EE
330
1F
100
AcDbEntity
  8
0
  6
Continuous
 62
     7
370
    15
100
AcDbLine
 10
5055.2997040618
 20
2793.0301692624
 30
0.0
 11
5055.2997040618
 21
3343.0301811833
 31
0.0
  0
LINE
  5
1EF
330
1F
100
AcDbEntity
  8
0
  6
Continuous
 62
     7
370
    15
100
AcDbLine
 10
5065.299694525
 20
2793.0301692624
 30
0.0
 11
5665.2997183669
 21
2793.0301692624
 31
0.0
  0
LINE
  5
1F0
330
1F
100
AcDbEntity
  8
0
  6
Continuous
 62
     7
370
    15
100
AcDbLine
 10
5075.2997147906
 20
3363.0301621098
 30
0.0
 11
5665.2997183669
 21
3363.0301621098
 31
0.0
  0
LINE
  5
1F1
330
1F
100
AcDbEntity
  8
0
  6
Continuous
 62
     7
370
    15
100
AcDbLine
 10
5665.2997183669
 20
2793.0301692624
 30
0.0
 11
5675.2997088301
 21
2793.0301692624
 31
0.0
  0
LINE
  5
1F2
330
1F
100
AcDbEntity
  8
0
  6
Continuous
 62
     7
370
    15
100
AcDbLine
 10
5675.2997088301
 20
2793.0301692624
 30
0.0
 11
5675.2997088301
 21
3343.0301811833
 31
0.0
  0
SPLINE
  5
1F3
330
1F
100
AcDbEntity
  8
0
  6
Continuous
 62
     7
370
    15
100
AcDbSpline
210
0.0
220
0.0
230
1.0
 70
     8
 71
     3
 72
    30
 73
    26
 74
     0
 42
0.000000001
 43
0.00000001
 40
0.0
 40
0.0
 40
0.0
 40
0.0
 40
0.0140366765607068
 40
0.0268553228027425
 40
0.0384559308945279
 40
0.0488384940031946
 40
0.0580030064015997
 40
0.0659494636574512
 40
0.1007098030654073
 40
0.1317677965687589
 40
0.2008448364430455
 40
0.2625134705121997
 40
0.3912833951531758
 40
0.5176010740606632
 40
0.5806494574855278
 40
0.6413634077829398
 40
0.70279232844261
 40
0.7625789364458112
 40
0.8226873693640712
 40
0.8818088786272947
 40
0.9055612939077188
 40
0.9292476965462606
 40
0.9528769723551438
 40
0.9764580717262218
 40
1.0
 40
1.0
 40
1.0
 40
1.0
 10
5075.299706445954
 20
3363.030169262371
 30
0.0
 10
5075.160443686997
 20
3363.029335398617
 30
0.0
 10
5074.894002672276
 20
3363.027740029499
 30
0.0
 10
5074.512584435877
 20
3363.015695119327
 30
0.0
 10
5074.167622683555
 20
3362.999016632163
 30
0.0
 10
5073.85912749269
 20
3362.978924566469
 30
0.0
 10
5073.587064810628
 20
3362.957250573455
 30
0.0
 10
5073.074220189524
 20
3362.909801668784
 30
0.0
 10
5072.346549345461
 20
3362.819066878293
 30
0.0
 10
5071.024137924303
 20
3362.58781386371
 30
0.0
 10
5069.455613868387
 20
3362.190912425508
 30
0.0
 10
5067.003180967386
 20
3361.306938107773
 30
0.0
 10
5064.148563296864
 20
3359.787954405561
 30
0.0
 10
5061.584153953733
 20
3357.691538538058
 30
0.0
 10
5059.815891490802
 20
3355.739944874794
 30
0.0
 10
5058.641376713644
 20
3354.155889625546
 30
0.0
 10
5057.63465719286
 20
3352.476568614719
 30
0.0
 10
5056.792213886477
 20
3350.695410466328
 30
0.0
 10
5056.131062753149
 20
3348.848446707035
 30
0.0
 10
5055.747660382824
 20
3347.317990601489
 30
0.0
 10
5055.540703054398
 20
3346.158614946084
 30
0.0
 10
5055.432862312306
 20
3345.379308225043
 30
0.0
 10
5055.356422957667
 20
3344.597388187166
 30
0.0
 10
5055.308573926343
 20
3343.814046835294
 30
0.0
 10
5055.302660634272
 20
3343.291316946645
 30
0.0
 10
5055.299706445952
 20
3343.030169262378
 30
0.0
  0
SPLINE
  5
1F4
330
1F
100
AcDbEntity
  8
0
  6
Continuous
 62
     7
370
    15
100
AcDbSpline
210
0.0
220
0.0
230
1.0
 70
    24
 71
     3
 72
    29
 73
    25
 74
     0
 42
0.000000001
 43
0.00000001
 40
4.71238898038469
 40
4.71238898038469
 40
4.71238898038469
 40
4.71238898038469
 40
4.908738521234051
 40
4.908738521234051
 40
4.908738521234051
 40
5.105088062083411
 40
5.105088062083411
 40
5.105088062083411
 40
5.301437602932781
 40
5.301437602932781
 40
5.301437602932781
 40
5.497787143782141
 40
5.497787143782141
 40
5.497787143782141
 40
5.6941366846315
 40
5.6941366846315
 40
5.6941366846315
 40
5.890486225480871
 40
5.890486225480871
 40
5.890486225480871
 40
6.08683576633023
 40
6.08683576633023
 40
6.08683576633023
 40
6.283185307179591
 40
6.283185307179591
 40
6.283185307179591
 40
6.283185307179591
 10
5675.299706445951
 20
3353.030169262377
 30
0.0
 10
5675.299706445951
 20
3353.030169262377
 30
0.0
 10
5675.299706445951
 20
3352.965708383377
 30
0.0
 10
5675.299706445951
 20
3352.838022066377
 30
0.0
 10
5675.299706445951
 20
3352.710335749377
 30
0.0
 10
5675.299706445951
 20
3352.519430308377
 30
0.0
 10
5675.299706445951
 20
3352.268964587377
 30
0.0
 10
5675.299706445951
 20
3352.018498866377
 30
0.0
 10
5675.299706445951
 20
3351.708485252377
 30
0.0
 10
5675.299706445951
 20
3351.344865385377
 30
0.0
 10
5675.299706445951
 20
3350.981245518377
 30
0.0
 10
5675.299706445951
 20
3350.564037380377
 30
0.0
 10
5675.299706445951
 20
3350.101237074377
 30
0.0
 10
5675.299706445951
 20
3349.638436768377
 30
0.0
 10
5675.299706445951
 20
3349.130067181377
 30
0.0
 10
5675.299706445951
 20
3348.585871592377
 30
0.0
 10
5675.299706445951
 20
3348.041676004377
 30
0.0
 10
5675.299706445951
 20
3347.461681326377
 30
0.0
 10
5675.299706445951
 20
3346.857003586377
 30
0.0
 10
5675.299706445951
 20
3346.252325846377
 30
0.0
 10
5675.299706445951
 20
3345.622994947377
 30
0.0
 10
5675.299706445951
 20
3344.981072482377
 30
0.0
 10
5675.299706445951
 20
3344.339150017377
 30
0.0
 10
5675.299706445951
 20
3343.684667731377
 30
0.0
 10
5675.299706445951
 20
3343.030169262377
 30
0.0
  0
SPLINE
  5
1F5
330
1F
100
AcDbEntity
  8
0
  6
Continuous
 62
     7
370
    15
100
AcDbSpline
210
0.0
220
0.0
230
1.0
 70
     8
 71
     3
 72
    14
 73
    10
 74
     0
 42
0.000000001
 43
0.00000001
 40
0.0
 40
0.0
 40
0.0
 40
0.0
 40
0.25
 40
0.25
 40
0.5
 40
0.5
 40
0.75
 40
0.75
 40
1.0
 40
1.0
 40
1.0
 40
1.0
 10
5675.299706445952
 20
3353.030169262378
 30
0.0
 10
5675.299706445952
 20
3354.339166201373
 30
0.0
 10
5675.039433212635
 20
3355.64764810597
 30
0.0
 10
5674.037570329494
 20
3358.066359066087
 30
0.0
 10
5673.296374869933
 20
3359.175636462126
 30
0.0
 10
5671.4451736457
 20
3361.026837686359
 30
0.0
 10
5670.33589624966
 20
3361.76803314592
 30
0.0
 10
5667.917185289544
 20
3362.769896029061
 30
0.0
 10
5666.608703384946
 20
3363.030169262377
 30
0.0
 10
5665.299706445951
 20
3363.030169262378
 30
0.0
  0
SPLINE
  5
1F6
330
1F
100
AcDbEntity
  8
0
  6
Continuous
 62
     7
370
    15
100
AcDbSpline
210
0.0
220
0.0
230
1.0
 70
     8
 71
     3
 72
    23
 73
    19
 74
     0
 42
0.000000001
 43
0.00000001
 40
0.0
 40
0.0
 40
0.0
 40
0.0
 40
0.1026903588614463
 40
0.1874325390346317
 40
0.2572539698584612
 40
0.3147761327495086
 40
0.3759243964962171
 40
0.4225532642823626
 40
0.4598201357970132
 40
0.4929837636542492
 40
0.5325988880376374
 40
0.5794300821591025
 40
0.6349233783773466
 40
0.7013273590273986
 40
0.7817054744403349
 40
0.8449057410376893
 40
0.9172364612836046
 40
1.0
 40
1.0
 40
1.0
 40
1.0
 10
4321.620530549796
 20
2132.188914519598
 30
0.0
 10
4321.681534996981
 20
2132.452410432505
 30
0.0
 10
4321.792881559162
 20
2132.933348551028
 30
0.0
 10
4322.025027521795
 20
2133.59243942322
 30
0.0
 10
4322.263353380848
 20
2134.132995379141
 30
0.0
 10
4322.517674671401
 20
2134.609176850161
 30
0.0
 10
4322.77860251577
 20
2135.020910254146
 30
0.0
 10
4323.040016444129
 20
2135.373217710975
 30
0.0
 10
4323.271627775844
 20
2135.649069010894
 30
0.0
 10
4323.504156708681
 20
2135.898668238265
 30
0.0
 10
4323.771145844775
 20
2136.156001203201
 30
0.0
 10
4324.103893653275
 20
2136.438327515551
 30
0.0
 10
4324.515169320533
 20
2136.738508613735
 30
0.0
 10
4325.021676962068
 20
2137.047851280545
 30
0.0
 10
4325.556252885875
 20
2137.311219827987
 30
0.0
 10
4326.109518417967
 20
2137.530759338462
 30
0.0
 10
4326.670911013975
 20
2137.712537462628
 30
0.0
 10
4327.069993173259
 20
2137.80304369006
 30
0.0
 10
4327.282956902297
 20
2137.851340872099
 30
0.0
  0
SPLINE
  5
1F7
330
1F
100
AcDbEntity
  8
0
  6
Continuous
 62
     7
370
    15
100
AcDbSpline
210
0.0
220
0.0
230
1.0
 70
     8
 71
     3
 72
    10
 73
     6
 74
     0
 42
0.000000001
 43
0.00000001
 40
0.0
 40
0.0
 40
0.0
 40
0.0
 40
0.316401026089393
 40
0.6490321673231221
 40
1.0
 40
1.0
 40
1.0
 40
1.0
 10
4321.251890723021
 20
2128.698943358709
 30
0.0
 10
4321.261487217459
 20
2129.085417302807
 30
0.0
 10
4321.281172468359
 20
2129.878189768345
 30
0.0
 10
4321.40839703969
 20
2131.051211552076
 30
0.0
 10
4321.548585785118
 20
2131.803017713622
 30
0.0
 10
4321.620560352118
 20
2132.189003926565
 30
0.0
  0
SPLINE
  5
1F8
330
1F
100
AcDbEntity
  8
0
  6
Continuous
 62
     7
370
    15
100
AcDbSpline
210
0.0
220
0.0
230
1.0
 70
     8
 71
     3
 72
    10
 73
     6
 74
     0
 42
0.000000001
 43
0.00000001
 40
0.0
 40
0.0
 40
0.0
 40
0.0
 40
0.350967832676878
 40
0.6835989739106071
 40
1.0
 40
1.0
 40
1.0
 40
1.0
 10
4327.28286749533
 20
2137.851311069776
 30
0.0
 10
4327.668853708273
 20
2137.923285636776
 30
0.0
 10
4328.420659869819
 20
2138.063474382205
 30
0.0
 10
4329.59368165355
 20
2138.190698953536
 30
0.0
 10
4330.386454119088
 20
2138.210384204436
 30
0.0
 10
4330.772928063186
 20
2138.219980698873
 30
0.0
  0
LINE
  5
1F9
330
1F
100
AcDbEntity
  8
0
  6
Continuous
 62
     7
370
    15
100
AcDbLine
 10
4330.7729280632
 20
2138.2150484145
 30
0.0
 11
4755.3813374679
 21
2138.2150484145
 31
0.0
  0
LINE
  5
1FA
330
1F
100
AcDbEntity
  8
0
  6
Continuous
 62
     7
370
    15
100
AcDbLine
 10
4321.2568230074
 20
1704.090533954
 30
0.0
 11
4321.2568230074
 21
2128.6989433587
 31
0.0
  0
SPLINE
  5
1FB
330
1F
100
AcDbEntity
  8
0
  6
Continuous
 62
     7
370
    15
100
AcDbSpline
210
0.0
220
0.0
230
1.0
 70
     8
 71
     3
 72
    27
 73
    23
 74
     0
 42
0.000000001
 43
0.00000001
 40
0.0
 40
0.0
 40
0.0
 40
0.0
 40
0.0196286218487322
 40
0.0452920855495998
 40
0.0631562839729486
 40
0.0806011731481215
 40
0.0987699630905037
 40
0.1185678782726712
 40
0.1477485316168535
 40
0.179417544046565
 40
0.2121625608849916
 40
0.2601767430688944
 40
0.3062215199847337
 40
0.3653104796444444
 40
0.4226877028478693
 40
0.4791923595400457
 40
0.5637726126033606
 40
0.6498427022750964
 40
0.7374165604499989
 40
0.825389554537547
 40
0.9128691177411241
 40
1.0
 40
1.0
 40
1.0
 40
1.0
 10
4311.236328546317
 20
1694.092003804495
 30
0.0
 10
4311.270084026263
 20
1694.092076532537
 30
0.0
 10
4311.34797314641
 20
1694.09224434894
 30
0.0
 10
4311.508372813773
 20
1694.094619953453
 30
0.0
 10
4311.717516197667
 20
1694.101761931197
 30
0.0
 10
4311.951606682746
 20
1694.114889692977
 30
0.0
 10
4312.23553263619
 20
1694.13835583969
 30
0.0
 10
4312.596709355435
 20
1694.179412421714
 30
0.0
 10
4313.033546360373
 20
1694.246910374631
 30
0.0
 10
4313.531371646902
 20
1694.349379000912
 30
0.0
 10
4314.117680147817
 20
1694.502260740858
 30
0.0
 10
4314.768926725144
 20
1694.718456276767
 30
0.0
 10
4315.537461963425
 20
1695.041033250054
 30
0.0
 10
4316.324127634753
 20
1695.453884972878
 30
0.0
 10
4317.115903450286
 20
1695.9708495037
 30
0.0
 10
4317.963432516931
 20
1696.644181934575
 30
0.0
 10
4318.83878434773
 20
1697.521743992864
 30
0.0
 10
4319.6879297499
 20
1698.652086805152
 30
0.0
 10
4320.378223058101
 20
1699.908191504672
 30
0.0
 10
4320.880023420518
 20
1701.256907607715
 30
0.0
 10
4321.197751124821
 20
1702.662043896719
 30
0.0
 10
4321.237158610896
 20
1703.615839947465
 30
0.0
 10
4321.256823007377
 20
1704.091785651495
 30
0.0
  0
LINE
  5
1FC
330
1F
100
AcDbEntity
  8
0
  6
Continuous
 62
     7
370
    15
100
AcDbLine
 10
4755.3800857704
 20
2314.0917999566
 30
0.0
 11
4155.3800619285
 21
2314.0917999566
 31
0.0
  0
LINE
  5
1FD
330
1F
100
AcDbEntity
  8
0
  6
Continuous
 62
     7
370
    15
100
AcDbLine
 10
4145.3800714653
 20
2304.0918094934
 30
0.0
 11
4145.3800714653
 21
1704.0917856515
 31
0.0
  0
LINE
  5
1FE
330
1F
100
AcDbEntity
  8
0
  6
Continuous
 62
     7
370
    15
100
AcDbLine
 10
4165.3800821941
 20
1694.0917951882
 30
0.0
 11
4248.6885405224
 21
1694.0917951882
 31
0.0
  0
LINE
  5
1FF
330
1F
100
AcDbEntity
  8
0
  6
Continuous
 62
     7
370
    15
100
AcDbLine
 10
4765.3800762337
 20
2210.7833308995
 30
0.0
 11
4765.3800762337
 21
2294.0917892278
 31
0.0
  0
SPLINE
  5
200
330
1F
100
AcDbEntity
  8
0
  6
Continuous
 62
     7
370
    15
100
AcDbSpline
210
0.0
220
0.0
230
1.0
 70
    24
 71
     3
 72
    29
 73
    25
 74
     0
 42
0.000000001
 43
0.00000001
 40
0.0
 40
0.0
 40
0.0
 40
0.0
 40
0.1738678533753002
 40
0.1738678533753002
 40
0.1738678533753002
 40
0.3477357067506102
 40
0.3477357067506102
 40
0.3477357067506102
 40
0.521603560125908
 40
0.521603560125908
 40
0.521603560125908
 40
0.69547141350121
 40
0.69547141350121
 40
0.69547141350121
 40
0.8693392668765131
 40
0.8693392668765131
 40
0.8693392668765131
 40
1.043207120251815
 40
1.043207120251815
 40
1.043207120251815
 40
1.217074973627118
 40
1.217074973627118
 40
1.217074973627118
 40
1.39094282700242
 40
1.39094282700242
 40
1.39094282700242
 40
1.39094282700242
 10
4258.527245882471
 20
1694.091797572424
 30
0.0
 10
4258.423571125471
 20
1694.091797572424
 30
0.0
 10
4258.270202749472
 20
1694.091797572424
 30
0.0
 10
4258.069448456471
 20
1694.091797572424
 30
0.0
 10
4257.868694163471
 20
1694.091797572424
 30
0.0
 10
4257.62056005947
 20
1694.091797572424
 30
0.0
 10
4257.328779766471
 20
1694.091797572424
 30
0.0
 10
4257.036999473471
 20
1694.091797572424
 30
0.0
 10
4256.701581865471
 20
1694.091797572424
 30
0.0
 10
4256.327573900471
 20
1694.091797572424
 30
0.0
 10
4255.953565936471
 20
1694.091797572424
 30
0.0
 10
4255.540978991471
 20
1694.091797572424
 30
0.0
 10
4255.096021173471
 20
1694.091797572424
 30
0.0
 10
4254.651063356471
 20
1694.091797572424
 30
0.0
 10
4254.173748201471
 20
1694.091797572424
 30
0.0
 10
4253.671257767471
 20
1694.091797572424
 30
0.0
 10
4253.168767334471
 20
1694.091797572424
 30
0.0
 10
4252.641116907471
 20
1694.091797572424
 30
0.0
 10
4252.096245930471
 20
1694.091797572424
 30
0.0
 10
4251.551374954471
 20
1694.091797572424
 30
0.0
 10
4250.989300001471
 20
1694.091797572424
 30
0.0
 10
4250.418478495471
 20
1694.091797572424
 30
0.0
 10
4249.847656989471
 20
1694.091797572424
 30
0.0
 10
4249.268106292471
 20
1694.091797572424
 30
0.0
 10
4248.688546781471
 20
1694.091797572424
 30
0.0
  0
SPLINE
  5
201
330
1F
100
AcDbEntity
  8
0
  6
Continuous
 62
     7
370
    15
100
AcDbSpline
210
0.0
220
0.0
230
1.0
 70
    24
 71
     3
 72
    29
 73
    25
 74
     0
 42
0.000000001
 43
0.00000001
 40
0.179853499792477
 40
0.179853499792477
 40
0.179853499792477
 40
0.179853499792477
 40
0.353721353167787
 40
0.353721353167787
 40
0.353721353167787
 40
0.5275892065430869
 40
0.5275892065430869
 40
0.5275892065430869
 40
0.7014570599183869
 40
0.7014570599183869
 40
0.7014570599183869
 40
0.8753249132936899
 40
0.8753249132936899
 40
0.8753249132936899
 40
1.049192766668992
 40
1.049192766668992
 40
1.049192766668992
 40
1.223060620044295
 40
1.223060620044295
 40
1.223060620044295
 40
1.396928473419597
 40
1.396928473419597
 40
1.396928473419597
 40
1.5707963267949
 40
1.5707963267949
 40
1.5707963267949
 40
1.5707963267949
 10
4765.380073849471
 20
2210.783324640424
 30
0.0
 10
4765.380073849471
 20
2210.203765129424
 30
0.0
 10
4765.380073849471
 20
2209.624214432424
 30
0.0
 10
4765.380073849471
 20
2209.053392926424
 30
0.0
 10
4765.380073849471
 20
2208.482571420423
 30
0.0
 10
4765.380073849471
 20
2207.920496467424
 30
0.0
 10
4765.380073849471
 20
2207.375625491424
 30
0.0
 10
4765.380073849471
 20
2206.830754514424
 30
0.0
 10
4765.380073849471
 20
2206.303104087424
 30
0.0
 10
4765.380073849471
 20
2205.800613654424
 30
0.0
 10
4765.380073849471
 20
2205.298123220424
 30
0.0
 10
4765.380073849471
 20
2204.820808065424
 30
0.0
 10
4765.380073849471
 20
2204.375850248424
 30
0.0
 10
4765.380073849471
 20
2203.930892430424
 30
0.0
 10
4765.380073849471
 20
2203.518305485424
 30
0.0
 10
4765.380073849471
 20
2203.144297521424
 30
0.0
 10
4765.380073849471
 20
2202.770289556424
 30
0.0
 10
4765.380073849471
 20
2202.434871948424
 30
0.0
 10
4765.380073849471
 20
2202.143091655424
 30
0.0
 10
4765.380073849471
 20
2201.851311362424
 30
0.0
 10
4765.380073849471
 20
2201.603177258424
 30
0.0
 10
4765.380073849471
 20
2201.402422965424
 30
0.0
 10
4765.380073849471
 20
2201.201668672424
 30
0.0
 10
4765.380073849471
 20
2201.048300296424
 30
0.0
 10
4765.380073849471
 20
2200.944625539424
 30
0.0
  0
ARC
  5
202
330
1F
100
AcDbEntity
  8
0
  6
Continuous
 62
     7
370
    15
100
AcDbCircle
 10
4155.3800738495
 20
2304.0917975724
 30
0.0
 40
10.0
100
AcDbArc
 50
90.0000000235
 51
179.999999978
  0
SPLINE
  5
203
330
1F
100
AcDbEntity
  8
0
  6
Continuous
 62
     7
370
    15
100
AcDbSpline
210
0.0
220
0.0
230
1.0
 70
    24
 71
     3
 72
    29
 73
    25
 74
     0
 42
0.000000001
 43
0.00000001
 40
4.71238898038469
 40
4.71238898038469
 40
4.71238898038469
 40
4.71238898038469
 40
4.908738521234051
 40
4.908738521234051
 40
4.908738521234051
 40
5.105088062083411
 40
5.105088062083411
 40
5.105088062083411
 40
5.301437602932781
 40
5.301437602932781
 40
5.301437602932781
 40
5.497787143782141
 40
5.497787143782141
 40
5.497787143782141
 40
5.6941366846315
 40
5.6941366846315
 40
5.6941366846315
 40
5.890486225480871
 40
5.890486225480871
 40
5.890486225480871
 40
6.08683576633023
 40
6.08683576633023
 40
6.08683576633023
 40
6.283185307179591
 40
6.283185307179591
 40
6.283185307179591
 40
6.283185307179591
 10
4165.380073849471
 20
1694.091797572424
 30
0.0
 10
4164.725575380471
 20
1694.091797572424
 30
0.0
 10
4164.071093094471
 20
1694.091797572424
 30
0.0
 10
4163.429170629472
 20
1694.091797572424
 30
0.0
 10
4162.787248164471
 20
1694.091797572424
 30
0.0
 10
4162.157917265471
 20
1694.091797572424
 30
0.0
 10
4161.553239525471
 20
1694.091797572424
 30
0.0
 10
4160.948561785471
 20
1694.091797572424
 30
0.0
 10
4160.368567107471
 20
1694.091797572424
 30
0.0
 10
4159.824371519471
 20
1694.091797572424
 30
0.0
 10
4159.280175930471
 20
1694.091797572424
 30
0.0
 10
4158.771806343471
 20
1694.091797572424
 30
0.0
 10
4158.309006037471
 20
1694.091797572424
 30
0.0
 10
4157.846205731471
 20
1694.091797572424
 30
0.0
 10
4157.428997593471
 20
1694.091797572424
 30
0.0
 10
4157.065377726471
 20
1694.091797572424
 30
0.0
 10
4156.701757859471
 20
1694.091797572424
 30
0.0
 10
4156.391744245471
 20
1694.091797572424
 30
0.0
 10
4156.141278524471
 20
1694.091797572424
 30
0.0
 10
4155.890812803471
 20
1694.091797572424
 30
0.0
 10
4155.699907362471
 20
1694.091797572424
 30
0.0
 10
4155.572221045471
 20
1694.091797572424
 30
0.0
 10
4155.444534728471
 20
1694.091797572424
 30
0.0
 10
4155.380073849471
 20
1694.091797572424
 30
0.0
 10
4155.380073849471
 20
1694.091797572424
 30
0.0
  0
SPLINE
  5
204
330
1F
100
AcDbEntity
  8
0
  6
Continuous
 62
     7
370
    15
100
AcDbSpline
210
0.0
220
0.0
230
1.0
 70
     8
 71
     3
 72
    41
 73
    37
 74
     0
 42
0.000000001
 43
0.00000001
 40
-1.5707963267949
 40
-1.5707963267949
 40
-1.5707963267949
 40
-1.5707963267949
 40
-1.37444678594553
 40
-1.37444678594553
 40
-1.37444678594553
 40
-1.17809724509617
 40
-1.17809724509617
 40
-1.17809724509617
 40
-0.98174770424681
 40
-0.98174770424681
 40
-0.98174770424681
 40
-0.785398163397448
 40
-0.785398163397448
 40
-0.785398163397448
 40
-0.687223392972767
 40
-0.687223392972767
 40
-0.687223392972767
 40
-0.589048622548086
 40
-0.589048622548086
 40
-0.589048622548086
 40
-0.490873852123405
 40
-0.490873852123405
 40
-0.490873852123405
 40
-0.392699081698724
 40
-0.392699081698724
 40
-0.392699081698724
 40
-0.294524311274043
 40
-0.294524311274043
 40
-0.294524311274043
 40
-0.196349540849362
 40
-0.196349540849362
 40
-0.196349540849362
 40
-0.0981747704246812
 40
-0.0981747704246812
 40
-0.0981747704246812
 40
-0.0000000000000001
 40
-0.0000000000000001
 40
-0.0000000000000001
 40
-0.0000000000000001
 10
4155.380073849471
 20
1694.091797572424
 30
0.0
 10
4154.725575380471
 20
1694.091797572424
 30
0.0
 10
4154.071093094471
 20
1694.156258451424
 30
0.0
 10
4153.429170629472
 20
1694.283944768424
 30
0.0
 10
4152.787248164471
 20
1694.411631085424
 30
0.0
 10
4152.157917265471
 20
1694.602536526424
 30
0.0
 10
4151.553239525471
 20
1694.853002247424
 30
0.0
 10
4150.948561785471
 20
1695.103467968424
 30
0.0
 10
4150.368567107471
 20
1695.413481582424
 30
0.0
 10
4149.824371519471
 20
1695.777101449424
 30
0.0
 10
4149.280175930471
 20
1696.140721316424
 30
0.0
 10
4148.77180634347
 20
1696.557929454424
 30
0.0
 10
4148.309006037471
 20
1697.020729760424
 30
0.0
 10
4148.077605884471
 20
1697.252129913424
 30
0.0
 10
4147.85757403247
 20
1697.494897651424
 30
0.0
 10
4147.649969315471
 20
1697.747864730424
 30
0.0
 10
4147.44236459947
 20
1698.000831810424
 30
0.0
 10
4147.247187660471
 20
1698.263997447424
 30
0.0
 10
4147.065377726471
 20
1698.536095242424
 30
0.0
 10
4146.883567792471
 20
1698.808193036424
 30
0.0
 10
4146.715125427471
 20
1699.089222145424
 30
0.0
 10
4146.560861206471
 20
1699.377830204424
 30
0.0
 10
4146.406596984471
 20
1699.666438263424
 30
0.0
 10
4146.266511384471
 20
1699.962624378424
 30
0.0
 10
4146.141278524471
 20
1700.264963248424
 30
0.0
 10
4146.016045663471
 20
1700.567302118424
 30
0.0
 10
4145.905665930471
 20
1700.875792807424
 30
0.0
 10
4145.81067049247
 20
1701.188950799424
 30
0.0
 10
4145.71567505347
 20
1701.502108792424
 30
0.0
 10
4145.636064204471
 20
1701.819933119424
 30
0.0
 10
4145.572221045471
 20
1702.140894352424
 30
0.0
 10
4145.508377886471
 20
1702.461855584424
 30
0.0
 10
4145.460302616471
 20
1702.785952728424
 30
0.0
 10
4145.428226582471
 20
1703.111626169424
 30
0.0
 10
4145.396150548471
 20
1703.437299609424
 30
0.0
 10
4145.380073849471
 20
1703.764548337424
 30
0.0
 10
4145.380073849471
 20
1704.091797572424
 30
0.0
  0
SPLINE
  5
205
330
1F
100
AcDbEntity
  8
0
  6
Continuous
 62
     7
370
    15
100
AcDbSpline
210
0.0
220
0.0
230
1.0
 70
    24
 71
     3
 72
    29
 73
    25
 74
     0
 42
0.000000001
 43
0.00000001
 40
1.5707963267949
 40
1.5707963267949
 40
1.5707963267949
 40
1.5707963267949
 40
1.76714586764426
 40
1.76714586764426
 40
1.76714586764426
 40
1.96349540849362
 40
1.96349540849362
 40
1.96349540849362
 40
2.15984494934298
 40
2.15984494934298
 40
2.15984494934298
 40
2.35619449019235
 40
2.35619449019235
 40
2.35619449019235
 40
2.55254403104171
 40
2.55254403104171
 40
2.55254403104171
 40
2.74889357189107
 40
2.74889357189107
 40
2.74889357189107
 40
2.94524311274043
 40
2.94524311274043
 40
2.94524311274043
 40
3.14159265358979
 40
3.14159265358979
 40
3.14159265358979
 40
3.14159265358979
 10
4765.380073849471
 20
2304.091797572424
 30
0.0
 10
4765.380073849471
 20
2304.091797572424
 30
0.0
 10
4765.380073849471
 20
2304.027336693424
 30
0.0
 10
4765.380073849471
 20
2303.899650376424
 30
0.0
 10
4765.380073849471
 20
2303.771964059424
 30
0.0
 10
4765.380073849471
 20
2303.581058618424
 30
0.0
 10
4765.380073849471
 20
2303.330592897424
 30
0.0
 10
4765.380073849471
 20
2303.080127176424
 30
0.0
 10
4765.380073849471
 20
2302.770113562424
 30
0.0
 10
4765.380073849471
 20
2302.406493695424
 30
0.0
 10
4765.380073849471
 20
2302.042873828424
 30
0.0
 10
4765.380073849471
 20
2301.625665690424
 30
0.0
 10
4765.380073849471
 20
2301.162865384424
 30
0.0
 10
4765.380073849471
 20
2300.700065078424
 30
0.0
 10
4765.380073849471
 20
2300.191695491424
 30
0.0
 10
4765.380073849471
 20
2299.647499902424
 30
0.0
 10
4765.380073849471
 20
2299.103304314424
 30
0.0
 10
4765.380073849471
 20
2298.523309636424
 30
0.0
 10
4765.380073849471
 20
2297.918631896424
 30
0.0
 10
4765.380073849471
 20
2297.313954156424
 30
0.0
 10
4765.380073849471
 20
2296.684623257424
 30
0.0
 10
4765.380073849471
 20
2296.042700792424
 30
0.0
 10
4765.380073849471
 20
2295.400778327424
 30
0.0
 10
4765.380073849471
 20
2294.746296041424
 30
0.0
 10
4765.380073849471
 20
2294.091797572424
 30
0.0
  0
SPLINE
  5
206
330
1F
100
AcDbEntity
  8
0
  6
Continuous
 62
     7
370
    15
100
AcDbSpline
210
0.0
220
0.0
230
1.0
 70
     8
 71
     3
 72
    41
 73
    37
 74
     0
 42
0.000000001
 43
0.00000001
 40
-1.5707963267949
 40
-1.5707963267949
 40
-1.5707963267949
 40
-1.5707963267949
 40
-1.472621556370219
 40
-1.472621556370219
 40
-1.472621556370219
 40
-1.374446785945538
 40
-1.374446785945538
 40
-1.374446785945538
 40
-1.276272015520857
 40
-1.276272015520857
 40
-1.276272015520857
 40
-1.178097245096176
 40
-1.178097245096176
 40
-1.178097245096176
 40
-1.079922474671495
 40
-1.079922474671495
 40
-1.079922474671495
 40
-0.9817477042468139
 40
-0.9817477042468139
 40
-0.9817477042468139
 40
-0.8835729338221329
 40
-0.8835729338221329
 40
-0.8835729338221329
 40
-0.7853981633974519
 40
-0.7853981633974519
 40
-0.7853981633974519
 40
-0.5890486225480899
 40
-0.5890486225480899
 40
-0.5890486225480899
 40
-0.3926990816987299
 40
-0.3926990816987299
 40
-0.3926990816987299
 40
-0.1963495408493698
 40
-0.1963495408493698
 40
-0.1963495408493698
 40
0.0
 40
0.0
 40
0.0
 40
0.0
 10
4755.380073849471
 20
2314.091797572424
 30
0.0
 10
4755.707323084471
 20
2314.091797572424
 30
0.0
 10
4756.034571812471
 20
2314.075720873424
 30
0.0
 10
4756.360245252471
 20
2314.043644839424
 30
0.0
 10
4756.685918693471
 20
2314.011568805424
 30
0.0
 10
4757.010015837471
 20
2313.963493535424
 30
0.0
 10
4757.330977069471
 20
2313.899650376424
 30
0.0
 10
4757.651938302472
 20
2313.835807217424
 30
0.0
 10
4757.969762629471
 20
2313.756196368424
 30
0.0
 10
4758.282920622471
 20
2313.661200929424
 30
0.0
 10
4758.596078614471
 20
2313.566205491424
 30
0.0
 10
4758.904569303471
 20
2313.455825758424
 30
0.0
 10
4759.206908173471
 20
2313.330592897424
 30
0.0
 10
4759.509247043471
 20
2313.205360037424
 30
0.0
 10
4759.805433158471
 20
2313.065274437424
 30
0.0
 10
4760.09404121747
 20
2312.911010215424
 30
0.0
 10
4760.382649276471
 20
2312.756745994424
 30
0.0
 10
4760.663678385471
 20
2312.588303629424
 30
0.0
 10
4760.935776179471
 20
2312.406493695424
 30
0.0
 10
4761.207873974471
 20
2312.224683761424
 30
0.0
 10
4761.471039611471
 20
2312.029506822424
 30
0.0
 10
4761.724006691471
 20
2311.821902106424
 30
0.0
 10
4761.976973770471
 20
2311.614297389424
 30
0.0
 10
4762.219741508471
 20
2311.394265537424
 30
0.0
 10
4762.451141661471
 20
2311.162865384424
 30
0.0
 10
4762.913941967471
 20
2310.700065078424
 30
0.0
 10
4763.331150105471
 20
2310.191695491424
 30
0.0
 10
4763.694769972471
 20
2309.647499902424
 30
0.0
 10
4764.058389839472
 20
2309.103304314424
 30
0.0
 10
4764.368403453471
 20
2308.523309636424
 30
0.0
 10
4764.618869174471
 20
2307.918631896424
 30
0.0
 10
4764.86933489547
 20
2307.313954156424
 30
0.0
 10
4765.060240336471
 20
2306.684623257424
 30
0.0
 10
4765.187926653471
 20
2306.042700792424
 30
0.0
 10
4765.315612970471
 20
2305.400778327424
 30
0.0
 10
4765.380073849471
 20
2304.746296041424
 30
0.0
 10
4765.380073849471
 20
2304.091797572424
 30
0.0
  0
LINE
  5
207
330
1F
100
AcDbEntity
  8
0
  6
Continuous
 62
     7
370
    15
100
AcDbLine
 10
4765.3800762337
 20
2148.3763439477
 30
0.0
 11
4765.3800762337
 21
2200.944630605
 31
0.0
  0
LINE
  5
208
330
1F
100
AcDbEntity
  8
0
  6
Continuous
 62
     7
370
    15
100
AcDbLine
 10
4258.5272408169
 20
1694.0917951882
 30
0.0
 11
4311.0955274742
 21
1694.0917951882
 31
0.0
  0
SPLINE
  5
209
330
1F
100
AcDbEntity
  8
0
  6
Continuous
 62
     7
370
    15
100
AcDbSpline
210
0.0
220
0.0
230
1.0
 70
    24
 71
     3
 72
    10
 73
     6
 74
     0
 42
0.000000001
 43
0.00000001
 40
0.0
 40
0.0
 40
0.0
 40
0.0
 40
0.4186080914375513
 40
0.8372199170668191
 40
1.0
 40
1.0
 40
1.0
 40
1.0
 10
4311.095527474196
 20
1694.091795188238
 30
0.0
 10
4311.151960520935
 20
1694.091795188238
 30
0.0
 10
4311.264827117824
 20
1694.091795188238
 30
0.0
 10
4311.277720197298
 20
1694.091795188238
 30
0.0
 10
4311.202145339294
 20
1694.091795188238
 30
0.0
 10
4311.180985633643
 20
1694.091795188238
 30
0.0
  0
SPLINE
  5
20A
330
1F
100
AcDbEntity
  8
0
  6
Continuous
 62
     7
370
    15
100
AcDbSpline
210
0.0
220
0.0
230
1.0
 70
     8
 71
     3
 72
    41
 73
    37
 74
     0
 42
0.000000001
 43
0.00000001
 40
-1.5707963267949
 40
-1.5707963267949
 40
-1.5707963267949
 40
-1.5707963267949
 40
-1.472621556370219
 40
-1.472621556370219
 40
-1.472621556370219
 40
-1.374446785945538
 40
-1.374446785945538
 40
-1.374446785945538
 40
-1.276272015520857
 40
-1.276272015520857
 40
-1.276272015520857
 40
-1.178097245096176
 40
-1.178097245096176
 40
-1.178097245096176
 40
-1.079922474671495
 40
-1.079922474671495
 40
-1.079922474671495
 40
-0.9817477042468139
 40
-0.9817477042468139
 40
-0.9817477042468139
 40
-0.8835729338221329
 40
-0.8835729338221329
 40
-0.8835729338221329
 40
-0.7853981633974519
 40
-0.7853981633974519
 40
-0.7853981633974519
 40
-0.5890486225480899
 40
-0.5890486225480899
 40
-0.5890486225480899
 40
-0.3926990816987299
 40
-0.3926990816987299
 40
-0.3926990816987299
 40
-0.1963495408493698
 40
-0.1963495408493698
 40
-0.1963495408493698
 40
0.0
 40
0.0
 40
0.0
 40
0.0
 10
4755.380073849471
 20
2138.215044208424
 30
0.0
 10
4755.707323084471
 20
2138.215044208424
 30
0.0
 10
4756.034571812471
 20
2138.231120907424
 30
0.0
 10
4756.360245252471
 20
2138.263196941424
 30
0.0
 10
4756.685918693471
 20
2138.295272975424
 30
0.0
 10
4757.010015837471
 20
2138.343348245424
 30
0.0
 10
4757.330977069471
 20
2138.407191404424
 30
0.0
 10
4757.651938302472
 20
2138.471034562424
 30
0.0
 10
4757.969762629471
 20
2138.550645412424
 30
0.0
 10
4758.282920622471
 20
2138.645640850424
 30
0.0
 10
4758.596078614471
 20
2138.740636289424
 30
0.0
 10
4758.904569303471
 20
2138.851016022424
 30
0.0
 10
4759.206908173471
 20
2138.976248883424
 30
0.0
 10
4759.509247043471
 20
2139.101481743424
 30
0.0
 10
4759.805433158471
 20
2139.241567343424
 30
0.0
 10
4760.09404121747
 20
2139.395831564424
 30
0.0
 10
4760.382649276471
 20
2139.550095786424
 30
0.0
 10
4760.663678385471
 20
2139.718538151424
 30
0.0
 10
4760.935776179471
 20
2139.900348085424
 30
0.0
 10
4761.207873974471
 20
2140.082158018424
 30
0.0
 10
4761.471039611471
 20
2140.277334957424
 30
0.0
 10
4761.724006691471
 20
2140.484939674424
 30
0.0
 10
4761.976973770471
 20
2140.692544391424
 30
0.0
 10
4762.219741508471
 20
2140.912576243424
 30
0.0
 10
4762.451141661471
 20
2141.143976396424
 30
0.0
 10
4762.913941967471
 20
2141.606776702424
 30
0.0
 10
4763.331150105471
 20
2142.115146289424
 30
0.0
 10
4763.694769972471
 20
2142.659341878424
 30
0.0
 10
4764.058389839472
 20
2143.203537466424
 30
0.0
 10
4764.368403453471
 20
2143.783532144424
 30
0.0
 10
4764.618869174471
 20
2144.388209884424
 30
0.0
 10
4764.86933489547
 20
2144.992887624423
 30
0.0
 10
4765.060240336471
 20
2145.622218523424
 30
0.0
 10
4765.187926653471
 20
2146.264140988424
 30
0.0
 10
4765.315612970471
 20
2146.906063453424
 30
0.0
 10
4765.380073849471
 20
2147.560545738424
 30
0.0
 10
4765.380073849471
 20
2148.215044208424
 30
0.0
  0
SPLINE
  5
20B
330
1F
100
AcDbEntity
  8
0
  6
Continuous
 62
     7
370
    15
100
AcDbSpline
210
0.0
220
0.0
230
1.0
 70
    24
 71
     3
 72
     8
 73
     4
 74
     0
 42
0.000000001
 43
0.00000001
 40
0.0
 40
0.0
 40
0.0
 40
0.0
 40
0.179853499792481
 40
0.179853499792481
 40
0.179853499792481
 40
0.179853499792481
 10
4765.380073849471
 20
2148.376345107424
 30
0.0
 10
4765.380073849471
 20
2148.269101200424
 30
0.0
 10
4765.380073849471
 20
2148.215044208424
 30
0.0
 10
4765.380073849471
 20
2148.215044208424
 30
0.0
  0
LINE
  5
20C
330
1F
100
AcDbEntity
  8
0
  6
Continuous
 62
     7
370
    15
100
AcDbLine
 10
4765.3800762337
 20
1704.0917856515
 30
0.0
 11
4765.3800762337
 21
2114.2366884172
 31
0.0
  0
LINE
  5
20D
330
1F
100
AcDbEntity
  8
0
  6
Continuous
 62
     7
370
    15
100
AcDbLine
 10
4345.2351830046
 20
1694.0917951882
 30
0.0
 11
4755.3800857704
 21
1694.0917951882
 31
0.0
  0
SPLINE
  5
20E
330
1F
100
AcDbEntity
  8
0
  6
Continuous
 62
     7
370
    15
100
AcDbSpline
210
0.0
220
0.0
230
1.0
 70
    24
 71
     3
 72
    17
 73
    13
 74
     0
 42
0.000000001
 43
0.00000001
 40
5.497787143782149
 40
5.497787143782149
 40
5.497787143782149
 40
5.497787143782149
 40
5.694136684631511
 40
5.694136684631511
 40
5.694136684631511
 40
5.890486225480871
 40
5.890486225480871
 40
5.890486225480871
 40
6.08683576633023
 40
6.08683576633023
 40
6.08683576633023
 40
6.283185307179591
 40
6.283185307179591
 40
6.283185307179591
 40
6.283185307179591
 10
4345.235183334471
 20
1694.091797572424
 30
0.0
 10
4344.580684865471
 20
1694.091797572424
 30
0.0
 10
4343.926202579471
 20
1694.091797572424
 30
0.0
 10
4343.284280114471
 20
1694.091797572424
 30
0.0
 10
4342.642357649471
 20
1694.091797572424
 30
0.0
 10
4342.013026750471
 20
1694.091797572424
 30
0.0
 10
4341.408349010471
 20
1694.091797572424
 30
0.0
 10
4340.803671270472
 20
1694.091797572424
 30
0.0
 10
4340.223676593471
 20
1694.091797572424
 30
0.0
 10
4339.679481004471
 20
1694.091797572424
 30
0.0
 10
4339.135285415471
 20
1694.091797572424
 30
0.0
 10
4338.62691582847
 20
1694.091797572424
 30
0.0
 10
4338.164115522471
 20
1694.091797572424
 30
0.0
  0
SPLINE
  5
20F
330
1F
100
AcDbEntity
  8
0
  6
Continuous
 62
     7
370
    15
100
AcDbSpline
210
0.0
220
0.0
230
1.0
 70
    24
 71
     3
 72
    17
 73
    13
 74
     0
 42
0.000000001
 43
0.00000001
 40
1.5707963267949
 40
1.5707963267949
 40
1.5707963267949
 40
1.5707963267949
 40
1.76714586764426
 40
1.76714586764426
 40
1.76714586764426
 40
1.96349540849362
 40
1.96349540849362
 40
1.96349540849362
 40
2.15984494934297
 40
2.15984494934297
 40
2.15984494934297
 40
2.35619449019233
 40
2.35619449019233
 40
2.35619449019233
 40
2.35619449019233
 10
4765.380073849471
 20
2121.307755899424
 30
0.0
 10
4765.380073849471
 20
2120.844955593424
 30
0.0
 10
4765.380073849471
 20
2120.336586006424
 30
0.0
 10
4765.380073849471
 20
2119.792390417424
 30
0.0
 10
4765.380073849471
 20
2119.248194828424
 30
0.0
 10
4765.380073849471
 20
2118.668200151424
 30
0.0
 10
4765.380073849471
 20
2118.063522411424
 30
0.0
 10
4765.380073849471
 20
2117.458844671424
 30
0.0
 10
4765.380073849471
 20
2116.829513772424
 30
0.0
 10
4765.380073849471
 20
2116.187591307424
 30
0.0
 10
4765.380073849471
 20
2115.545668842424
 30
0.0
 10
4765.380073849471
 20
2114.891186556424
 30
0.0
 10
4765.380073849471
 20
2114.236688087424
 30
0.0
  0
ARC
  5
210
330
1F
100
AcDbEntity
  8
0
  6
Continuous
 62
     7
370
    15
100
AcDbCircle
 10
4755.3800738495
 20
1704.0917975724
 30
0.0
 40
10.0
100
AcDbArc
 50
269.9999999882
 51
359.9999999941
  0
LINE
  5
211
330
1F
100
AcDbEntity
  8
0
  6
Continuous
 62
     7
370
    15
100
AcDbLine
 10
4765.3800762337
 20
2121.3077587903
 30
0.0
 11
4765.3800762337
 21
2143.7341553987
 31
0.0
  0
LINE
  5
212
330
1F
100
AcDbEntity
  8
0
  6
Continuous
 62
     7
370
    15
100
AcDbLine
 10
4315.7377160232
 20
1694.0917951882
 30
0.0
 11
4338.1641126316
 21
1694.0917951882
 31
0.0
  0
SPLINE
  5
213
330
1F
100
AcDbEntity
  8
0
  6
Continuous
 62
     7
370
    15
100
AcDbSpline
210
0.0
220
0.0
230
1.0
 70
    24
 71
     3
 72
    11
 73
     7
 74
     0
 42
0.000000001
 43
0.00000001
 40
0.0
 40
0.0
 40
0.0
 40
0.0
 40
0.2636518776342439
 40
0.5269192489598822
 40
0.7967519699243009
 40
1.0
 40
1.0
 40
1.0
 40
1.0
 10
4765.380076233657
 20
2143.734155398657
 30
0.0
 10
4765.380076233657
 20
2144.086502099098
 30
0.0
 10
4765.380076233657
 20
2144.790681642351
 30
0.0
 10
4765.380076233657
 20
2145.948455959844
 30
0.0
 10
4765.380076233657
 20
2147.066986894499
 30
0.0
 10
4765.380076233657
 20
2147.831037319379
 30
0.0
 10
4765.380076233657
 20
2148.159293633749
 30
0.0
  0
SPLINE
  5
214
330
1F
100
AcDbEntity
  8
0
  6
Continuous
 62
     7
370
    15
100
AcDbSpline
210
0.0
220
0.0
230
1.0
 70
    24
 71
     3
 72
    11
 73
     7
 74
     0
 42
0.000000001
 43
0.00000001
 40
0.0
 40
0.0
 40
0.0
 40
0.0
 40
0.206812379324637
 40
0.4754658454851098
 40
0.7375113930108587
 40
1.0
 40
1.0
 40
1.0
 40
1.0
 10
4311.290449563773
 20
1694.091795188238
 30
0.0
 10
4311.626036807786
 20
1694.091795188238
 30
0.0
 10
4312.397558673301
 20
1694.091795188238
 30
0.0
 10
4313.523235780302
 20
1694.091795188238
 30
0.0
 10
4314.681087943651
 20
1694.091795188238
 30
0.0
 10
4315.385308384879
 20
1694.091795188238
 30
0.0
 10
4315.737716023238
 20
1694.091795188238
 30
0.0
  0
ENDSEC
  0
SECTION
  2
OBJECTS
  0
DICTIONARY
  5
C
330
0
100
AcDbDictionary
281
     1
  3
ACAD_DETAILVIEWSTYLE
350
219
  3
ACAD_GROUP
350
D
  3
ACAD_LAYOUT
350
1A
  3
ACAD_MATERIAL
350
43
  3
ACAD_MLEADERSTYLE
350
218
  3
ACAD_MLINESTYLE
350
17
  3
ACAD_PLOTSETTINGS
350
19
  3
ACAD_PLOTSTYLENAME
350
E
  3
ACAD_SCALELIST
350
47
  3
ACAD_SECTIONVIEWSTYLE
350
21A
  3
ACAD_TABLESTYLE
350
217
  3
AcDbVariableDictionary
350
215
  0
DICTIONARY
  5
219
102
{ACAD_REACTORS
330
C
102
}
330
C
100
AcDbDictionary
281
     1
  0
DICTIONARY
  5
D
102
{ACAD_REACTORS
330
C
102
}
330
C
100
AcDbDictionary
281
     1
  0
DICTIONARY
  5
1A
102
{ACAD_REACTORS
330
C
102
}
330
C
100
AcDbDictionary
281
     1
  3
Layout1
350
1E
  3
Layout2
350
26
  3
Model
350
22
  0
DICTIONARY
  5
43
102
{ACAD_REACTORS
330
C
102
}
330
C
100
AcDbDictionary
281
     1
  3
ByBlock
350
45
  3
ByLayer
350
44
  3
Global
350
46
  0
DICTIONARY
  5
218
102
{ACAD_REACTORS
330
C
102
}
330
C
100
AcDbDictionary
281
     1
  0
DICTIONARY
  5
17
102
{ACAD_REACTORS
330
C
102
}
330
C
100
AcDbDictionary
281
     1
  3
Standard
350
18
  0
DICTIONARY
  5
19
102
{ACAD_REACTORS
330
C
102
}
330
C
100
AcDbDictionary
281
     1
  0
ACDBDICTIONARYWDFLT
  5
E
102
{ACAD_REACTORS
330
C
102
}
330
C
100
AcDbDictionary
281
     1
  3
Normal
350
F
100
AcDbDictionaryWithDefault
340
F
  0
DICTIONARY
  5
47
102
{ACAD_REACTORS
330
C
102
}
330
C
100
AcDbDictionary
281
     1
  3
A0
350
48
  3
A1
350
49
  3
A2
350
4A
  3
A3
350
4B
  3
A4
350
4C
  3
A5
350
4D
  3
A6
350
4E
  3
A7
350
4F
  3
A8
350
50
  3
A9
350
51
  3
B0
350
52
  3
B1
350
53
  3
B2
350
54
  3
B3
350
55
  3
B4
350
56
  3
B5
350
57
  3
B6
350
58
  3
B7
350
59
  3
B8
350
5A
  3
B9
350
5B
  3
C0
350
5C
  3
C1
350
5D
  3
C2
350
5E
  3
C3
350
5F
  3
C4
350
60
  3
C5
350
61
  3
C6
350
62
  3
C7
350
63
  3
C8
350
64
  3
C9
350
65
  3
D0
350
66
  3
D1
350
67
  3
D2
350
68
  0
DICTIONARY
  5
21A
102
{ACAD_REACTORS
330
C
102
}
330
C
100
AcDbDictionary
281
     1
  0
DICTIONARY
  5
217
102
{ACAD_REACTORS
330
C
102
}
330
C
100
AcDbDictionary
281
     1
  0
DICTIONARY
  5
215
102
{ACAD_REACTORS
330
C
102
}
330
C
100
AcDbDictionary
281
     1
  3
CANNOSCALE
350
216
  0
LAYOUT
  5
1E
102
{ACAD_REACTORS
330
1A
102
}
330
1A
100
AcDbPlotSettings
  1

  2
none_device
  4

  6

 40
0.0
 41
0.0
 42
0.0
 43
0.0
 44
0.0
 45
0.0
 46
0.0
 47
0.0
 48
0.0
 49
0.0
140
0.0
141
0.0
142
1.0
143
1.0
 70
   688
 72
     1
 73
     0
 74
     5
  7

 75
    16
 76
     0
 77
     2
 78
   300
147
1.0
148
0.0
149
0.0
100
AcDbLayout
  1
Layout1
 70
     1
 71
     1
 10
0.0
 20
0.0
 11
420.0
 21
297.0
 12
0.0
 22
0.0
 32
0.0
 14
1.0000000000E+20
 24
1.0000000000E+20
 34
1.0000000000E+20
 15
-1.0000000000E+20
 25
-1.0000000000E+20
 35
-1.0000000000E+20
146
0.0
 13
0.0
 23
0.0
 33
0.0
 16
1.0
 26
0.0
 36
0.0
 17
0.0
 27
1.0
 37
0.0
 76
     0
330
1B
  0
LAYOUT
  5
26
102
{ACAD_REACTORS
330
1A
102
}
330
1A
100
AcDbPlotSettings
  1

  2
none_device
  4

  6

 40
0.0
 41
0.0
 42
0.0
 43
0.0
 44
0.0
 45
0.0
 46
0.0
 47
0.0
 48
0.0
 49
0.0
140
0.0
141
0.0
142
1.0
143
1.0
 70
   688
 72
     1
 73
     0
 74
     5
  7

 75
    16
 76
     0
 77
     2
 78
   300
147
1.0
148
0.0
149
0.0
100
AcDbLayout
  1
Layout2
 70
     1
 71
     2
 10
0.0
 20
0.0
 11
0.0
 21
0.0
 12
0.0
 22
0.0
 32
0.0
 14
0.0
 24
0.0
 34
0.0
 15
0.0
 25
0.0
 35
0.0
146
0.0
 13
0.0
 23
0.0
 33
0.0
 16
1.0
 26
0.0
 36
0.0
 17
0.0
 27
1.0
 37
0.0
 76
     0
330
23
  0
LAYOUT
  5
22
102
{ACAD_REACTORS
330
1A
102
}
330
1A
100
AcDbPlotSettings
  1

  2
none_device
  4
Letter_(8.50_x_11.00_Inches)
  6

 40
6.35
 41
6.35
 42
6.35000508
 43
6.35000508
 44
215.9
 45
279.4
 46
0.0
 47
0.0
 48
0.0
 49
0.0
140
0.0
141
0.0
142
1.0
143
1.0
 70
  1712
 72
     1
 73
     0
 74
     0
  7

 75
     0
 76
     0
 77
     2
 78
   300
147
1.0
148
0.0
149
0.0
100
AcDbLayout
  1
Model
 70
     1
 71
     0
 10
0.0
 20
0.0
 11
5940.0
 21
4200.0
 12
0.0
 22
0.0
 32
0.0
 14
0.0
 24
0.0
 34
0.0
 15
5940.0
 25
4200.0
 35
0.0
146
0.0
 13
0.0
 23
0.0
 33
0.0
 16
1.0
 26
0.0
 36
0.0
 17
0.0
 27
1.0
 37
0.0
 76
     0
330
1F
331
29
  0
MATERIAL
  5
45
102
{ACAD_REACTORS
330
43
102
}
330
43
100
AcDbMaterial
  1
ByBlock
  0
MATERIAL
  5
44
102
{ACAD_REACTORS
330
43
102
}
330
43
100
AcDbMaterial
  1
ByLayer
  0
MATERIAL
  5
46
102
{ACAD_REACTORS
330
43
102
}
330
43
100
AcDbMaterial
  1
Global
  0
MLINESTYLE
  5
18
102
{ACAD_REACTORS
330
17
102
}
330
17
100
AcDbMlineStyle
  2
Standard
 70
     0
  3

 62
   256
 51
90.0
 52
90.0
 71
     2
 49
0.5
 62
   256
  6
BYLAYER
 49
-0.5
 62
   256
  6
BYLAYER
  0
ACDBPLACEHOLDER
  5
F
102
{ACAD_REACTORS
330
E
102
}
330
E
  0
SCALE
  5
48
102
{ACAD_REACTORS
330
47
102
}
330
47
100
AcDbScale
 70
     0
300
1:1
140
1.0
141
1.0
290
     1
  0
SCALE
  5
49
102
{ACAD_REACTORS
330
47
102
}
330
47
100
AcDbScale
 70
     0
300
1:2
140
1.0
141
2.0
290
     0
  0
SCALE
  5
4A
102
{ACAD_REACTORS
330
47
102
}
330
47
100
AcDbScale
 70
     0
300
1:4
140
1.0
141
4.0
290
     0
  0
SCALE
  5
4B
102
{ACAD_REACTORS
330
47
102
}
330
47
100
AcDbScale
 70
     0
300
1:5
140
1.0
141
5.0
290
     0
  0
SCALE
  5
4C
102
{ACAD_REACTORS
330
47
102
}
330
47
100
AcDbScale
 70
     0
300
1:8
140
1.0
141
8.0
290
     0
  0
SCALE
  5
4D
102
{ACAD_REACTORS
330
47
102
}
330
47
100
AcDbScale
 70
     0
300
1:10
140
1.0
141
10.0
290
     0
  0
SCALE
  5
4E
102
{ACAD_REACTORS
330
47
102
}
330
47
100
AcDbScale
 70
     0
300
1:16
140
1.0
141
16.0
290
     0
  0
SCALE
  5
4F
102
{ACAD_REACTORS
330
47
102
}
330
47
100
AcDbScale
 70
     0
300
1:20
140
1.0
141
20.0
290
     0
  0
SCALE
  5
50
102
{ACAD_REACTORS
330
47
102
}
330
47
100
AcDbScale
 70
     0
300
1:30
140
1.0
141
30.0
290
     0
  0
SCALE
  5
51
102
{ACAD_REACTORS
330
47
102
}
330
47
100
AcDbScale
 70
     0
300
1:40
140
1.0
141
40.0
290
     0
  0
SCALE
  5
52
102
{ACAD_REACTORS
330
47
102
}
330
47
100
AcDbScale
 70
     0
300
1:50
140
1.0
141
50.0
290
     0
  0
SCALE
  5
53
102
{ACAD_REACTORS
330
47
102
}
330
47
100
AcDbScale
 70
     0
300
1:100
140
1.0
141
100.0
290
     0
  0
SCALE
  5
54
102
{ACAD_REACTORS
330
47
102
}
330
47
100
AcDbScale
 70
     0
300
2:1
140
2.0
141
1.0
290
     0
  0
SCALE
  5
55
102
{ACAD_REACTORS
330
47
102
}
330
47
100
AcDbScale
 70
     0
300
4:1
140
4.0
141
1.0
290
     0
  0
SCALE
  5
56
102
{ACAD_REACTORS
330
47
102
}
330
47
100
AcDbScale
 70
     0
300
8:1
140
8.0
141
1.0
290
     0
  0
SCALE
  5
57
102
{ACAD_REACTORS
330
47
102
}
330
47
100
AcDbScale
 70
     0
300
10:1
140
10.0
141
1.0
290
     0
  0
SCALE
  5
58
102
{ACAD_REACTORS
330
47
102
}
330
47
100
AcDbScale
 70
     0
300
100:1
140
100.0
141
1.0
290
     0
  0
SCALE
  5
59
102
{ACAD_REACTORS
330
47
102
}
330
47
100
AcDbScale
 70
     0
300
1/128" = 1'-0"
140
0.0078125
141
12.0
290
     0
  0
SCALE
  5
5A
102
{ACAD_REACTORS
330
47
102
}
330
47
100
AcDbScale
 70
     0
300
1/64" = 1'-0"
140
0.015625
141
12.0
290
     0
  0
SCALE
  5
5B
102
{ACAD_REACTORS
330
47
102
}
330
47
100
AcDbScale
 70
     0
300
1/32" = 1'-0"
140
0.03125
141
12.0
290
     0
  0
SCALE
  5
5C
102
{ACAD_REACTORS
330
47
102
}
330
47
100
AcDbScale
 70
     0
300
1/16" = 1'-0"
140
0.0625
141
12.0
290
     0
  0
SCALE
  5
5D
102
{ACAD_REACTORS
330
47
102
}
330
47
100
AcDbScale
 70
     0
300
3/32" = 1'-0"
140
0.09375
141
12.0
290
     0
  0
SCALE
  5
5E
102
{ACAD_REACTORS
330
47
102
}
330
47
100
AcDbScale
 70
     0
300
1/8" = 1'-0"
140
0.125
141
12.0
290
     0
  0
SCALE
  5
5F
102
{ACAD_REACTORS
330
47
102
}
330
47
100
AcDbScale
 70
     0
300
3/16" = 1'-0"
140
0.1875
141
12.0
290
     0
  0
SCALE
  5
60
102
{ACAD_REACTORS
330
47
102
}
330
47
100
AcDbScale
 70
     0
300
1/4" = 1'-0"
140
0.25
141
12.0
290
     0
  0
SCALE
  5
61
102
{ACAD_REACTORS
330
47
102
}
330
47
100
AcDbScale
 70
     0
300
3/8" = 1'-0"
140
0.375
141
12.0
290
     0
  0
SCALE
  5
62
102
{ACAD_REACTORS
330
47
102
}
330
47
100
AcDbScale
 70
     0
300
1/2" = 1'-0"
140
0.5
141
12.0
290
     0
  0
SCALE
  5
63
102
{ACAD_REACTORS
330
47
102
}
330
47
100
AcDbScale
 70
     0
300
3/4" = 1'-0"
140
0.75
141
12.0
290
     0
  0
SCALE
  5
64
102
{ACAD_REACTORS
330
47
102
}
330
47
100
AcDbScale
 70
     0
300
1" = 1'-0"
140
1.0
141
12.0
290
     0
  0
SCALE
  5
65
102
{ACAD_REACTORS
330
47
102
}
330
47
100
AcDbScale
 70
     0
300
1-1/2" = 1'-0"
140
1.5
141
12.0
290
     0
  0
SCALE
  5
66
102
{ACAD_REACTORS
330
47
102
}
330
47
100
AcDbScale
 70
     0
300
3" = 1'-0"
140
3.0
141
12.0
290
     0
  0
SCALE
  5
67
102
{ACAD_REACTORS
330
47
102
}
330
47
100
AcDbScale
 70
     0
300
6" = 1'-0"
140
6.0
141
12.0
290
     0
  0
SCALE
  5
68
102
{ACAD_REACTORS
330
47
102
}
330
47
100
AcDbScale
 70
     0
300
1'-0" = 1'-0"
140
12.0
141
12.0
290
     0
  0
DICTIONARYVAR
  5
216
102
{ACAD_REACTORS
330
215
102
}
330
215
100
DictionaryVariables
280
     0
  1
1:1
  0
ENDSEC
  0
EOF
