  0
SECTION
  2
HEADER
  9
$ACADVER
  1
AC1009
  9
$DWGCODEPAGE
  3
ansi_1252
  9
$INSBASE
 10
0.0
 20
0.0
 30
0.0
  9
$EXTMIN
 10
0.0
 20
0.0
 30
0.0
  9
$EXTMAX
 10
2970.0
 20
2100.0
 30
0.0
  9
$LIMMIN
 10
0.0
 20
0.0
  9
$LIMMAX
 10
2970.0
 20
2100.0
  9
$ORTHOMODE
 70
     0
  9
$REGENMODE
 70
     1
  9
$FILLMODE
 70
     1
  9
$QTEXTMODE
 70
     0
  9
$MIRRTEXT
 70
     1
  9
$DRAGMODE
 70
     2
  9
$LTSCALE
 40
10.0
  9
$OSMODE
 70
    37
  9
$ATTMODE
 70
     1
  9
$TEXTSIZE
 40
35.0
  9
$TRACEWID
 40
1.0
  9
$TEXTSTYLE
  7
STANDARD
  9
$CLAYER
  8
0
  9
$CELTYPE
  6
BYLAYER
  9
$CECOLOR
 62
   256
  9
$DIMSCALE
 40
1.0
  9
$DIMASZ
 40
25.0
  9
$DIMEXO
 40
0.0
  9
$DIMDLI
 40
3.75
  9
$DIMRND
 40
0.0
  9
$DIMDLE
 40
0.0
  9
$DIMEXE
 40
10.0
  9
$DIMTP
 40
0.0
  9
$DIMTM
 40
0.0
  9
$DIMTXT
 40
30.0
  9
$DIMCEN
 40
2.5
  9
$DIMTSZ
 40
0.0
  9
$DIMTOL
 70
     0
  9
$DIMLIM
 70
     0
  9
$DIMTIH
 70
     1
  9
$DIMTOH
 70
     1
  9
$DIMSE1
 70
     0
  9
$DIMSE2
 70
     0
  9
$DIMTAD
 70
     1
  9
$DIMZIN
 70
     0
  9
$DIMBLK
  1

  9
$DIMASO
 70
     1
  9
$DIMSHO
 70
     1
  9
$DIMPOST
  1

  9
$DIMAPOST
  1

  9
$DIMALT
 70
     0
  9
$DIMALTD
 70
     3
  9
$DIMALTF
 40
0.0393700787
  9
$DIMLFAC
 40
1.0
  9
$DIMTOFL
 70
     1
  9
$DIMTVP
 40
0.0
  9
$DIMTIX
 70
     0
  9
$DIMSOXD
 70
     0
  9
$DIMSAH
 70
     0
  9
$DIMBLK1
  1

  9
$DIMBLK2
  1

  9
$DIMSTYLE
  2
ISO-25
  9
$DIMCLRD
 70
     0
  9
$DIMCLRE
 70
     0
  9
$DIMCLRT
 70
     0
  9
$DIMTFAC
 40
1.0
  9
$DIMGAP
 40
15.0
  9
$LUNITS
 70
     2
  9
$LUPREC
 70
     2
  9
$SKETCHINC
 40
1.0
  9
$FILLETRAD
 40
10.0
  9
$AUNITS
 70
     0
  9
$AUPREC
 70
     2
  9
$MENU
  1
.
  9
$ELEVATION
 40
0.0
  9
$PELEVATION
 40
0.0
  9
$THICKNESS
 40
0.0
  9
$LIMCHECK
 70
     0
  9
$CHAMFERA
 40
0.0
  9
$CHAMFERB
 40
0.0
  9
$SKPOLY
 70
     0
  9
$TDCREATE
 40
2457196.574006134
  9
$TDUPDATE
 40
2457196.574008067
  9
$TDINDWG
 40
0.0000000116
  9
$TDUSRTIMER
 40
0.0000000116
  9
$USRTIMER
 70
     1
  9
$ANGBASE
 50
0.0
  9
$ANGDIR
 70
     0
  9
$PDMODE
 70
     0
  9
$PDSIZE
 40
-1.0
  9
$PLINEWID
 40
0.0
  9
$COORDS
 70
     1
  9
$SPLFRAME
 70
     0
  9
$SPLINETYPE
 70
     6
  9
$SPLINESEGS
 70
     8
  9
$ATTDIA
 70
     0
  9
$ATTREQ
 70
     1
  9
$HANDLING
 70
     1
  9
$HANDSEED
  5
3C2
  9
$SURFTAB1
 70
     6
  9
$SURFTAB2
 70
     6
  9
$SURFTYPE
 70
     6
  9
$SURFU
 70
     6
  9
$SURFV
 70
     6
  9
$UCSNAME
  2

  9
$UCSORG
 10
0.0
 20
0.0
 30
0.0
  9
$UCSXDIR
 10
1.0
 20
0.0
 30
0.0
  9
$UCSYDIR
 10
0.0
 20
1.0
 30
0.0
  9
$PUCSNAME
  2

  9
$PUCSORG
 10
0.0
 20
0.0
 30
0.0
  9
$PUCSXDIR
 10
1.0
 20
0.0
 30
0.0
  9
$PUCSYDIR
 10
0.0
 20
1.0
 30
0.0
  9
$USERI1
 70
     0
  9
$USERI2
 70
     0
  9
$USERI3
 70
     0
  9
$USERI4
 70
     0
  9
$USERI5
 70
     0
  9
$USERR1
 40
0.0
  9
$USERR2
 40
0.0
  9
$USERR3
 40
0.0
  9
$USERR4
 40
0.0
  9
$USERR5
 40
0.0
  9
$WORLDVIEW
 70
     1
  9
$SHADEDGE
 70
     3
  9
$SHADEDIF
 70
    70
  9
$TILEMODE
 70
     1
  9
$MAXACTVP
 70
    64
  9
$PLIMCHECK
 70
     0
  9
$PEXTMIN
 10
1.0000000000E+20
 20
1.0000000000E+20
 30
1.0000000000E+20
  9
$PEXTMAX
 10
-1.0000000000E+20
 20
-1.0000000000E+20
 30
-1.0000000000E+20
  9
$PLIMMIN
 10
0.0
 20
0.0
  9
$PLIMMAX
 10
420.0
 20
297.0
  9
$UNITMODE
 70
     0
  9
$VISRETAIN
 70
     1
  9
$PLINEGEN
 70
     0
  9
$PSLTSCALE
 70
     1
  0
ENDSEC
  0
SECTION
  2
TABLES
  0
TABLE
  2
VPORT
 70
     1
  0
VPORT
  2
*ACTIVE
 70
     0
 10
0.0
 20
0.0
 11
1.0
 21
1.0
 12
1485.0
 22
1050.0
 13
0.0
 23
0.0
 14
10.0
 24
10.0
 15
10.0
 25
10.0
 16
0.0
 26
0.0
 36
1.0
 17
0.0
 27
0.0
 37
0.0
 40
2100.0
 41
1.4142857143
 42
50.0
 43
0.0
 44
0.0
 50
0.0
 51
0.0
 71
     0
 72
  2000
 73
     1
 74
     3
 75
     0
 76
     0
 77
     0
 78
     0
  0
ENDTAB
  0
TABLE
  2
LTYPE
 70
     6
  0
LTYPE
  2
CONTINUOUS
 70
     0
  3
Solid line
 72
    65
 73
     0
 40
0.0
  0
LTYPE
  2
HIDDEN
 70
     0
  3
Hidden __ __ __ __ __ __ __ __ __ __ __ __ __ __
 72
    65
 73
     2
 40
1.905
 49
1.27
 49
-0.635
  0
LTYPE
  2
PHANTOM
 70
     0
  3
Phantom ______  __  __  ______  __  __  ______
 72
    65
 73
     6
 40
12.7
 49
6.35
 49
-1.27
 49
1.27
 49
-1.27
 49
1.27
 49
-1.27
  0
LTYPE
  2
CENTER
 70
     0
  3
Center ____ _ ____ _ ____ _ ____ _ ____ _ ____
 72
    65
 73
     4
 40
10.16
 49
6.35
 49
-1.27
 49
1.27
 49
-1.27
  0
LTYPE
  2
CENTERX2
 70
     0
  3
Center (2x) ________  __  ________  __  _____
 72
    65
 73
     4
 40
20.32
 49
12.7
 49
-2.54
 49
2.54
 49
-2.54
  0
LTYPE
  2
DOT2
 70
     0
  3
Dot (.5x) ........................................
 72
    65
 73
     2
 40
0.635
 49
0.0
 49
-0.635
  0
ENDTAB
  0
TABLE
  2
LAYER
 70
     2
  0
LAYER
  2
0
 70
     0
 62
     7
  6
CONTINUOUS
  0
LAYER
  2
FORMAT
 70
     0
 62
     7
  6
CONTINUOUS
  0
ENDTAB
  0
TABLE
  2
STYLE
 70
     1
  0
STYLE
  2
STANDARD
 70
     0
 40
0.0
 41
1.0
 50
0.0
 71
     0
 42
35.0
  3
txt
  4

  0
ENDTAB
  0
TABLE
  2
VIEW
 70
     0
  0
ENDTAB
  0
TABLE
  2
UCS
 70
     0
  0
ENDTAB
  0
TABLE
  2
APPID
 70
     1
  0
APPID
  2
ACAD
 70
     0
  0
ENDTAB
  0
TABLE
  2
DIMSTYLE
 70
     1
  0
DIMSTYLE
  2
ISO-25
 70
     0
  3

  4

  5

  6

  7

 40
1.0
 41
2.5
 42
0.625
 43
3.75
 44
1.25
 45
0.0
 46
0.0
 47
0.0
 48
0.0
140
2.5
141
2.5
142
0.0
143
0.0393700787
144
1.0
145
0.0
146
1.0
147
0.625
 71
     0
 72
     0
 73
     0
 74
     0
 75
     0
 76
     0
 77
     1
 78
     8
170
     0
171
     3
172
     1
173
     0
174
     0
175
     0
176
     0
177
     0
178
     0
  0
ENDTAB
  0
ENDSEC
  0
SECTION
  2
BLOCKS
  0
BLOCK
  8
0
  2
$MODEL_SPACE
 70
     0
 10
0.0
 20
0.0
 30
0.0
  3
$MODEL_SPACE
  1

  0
ENDBLK
  5
21
  8
0
  0
BLOCK
 67
     1
  8
0
  2
$PAPER_SPACE
 70
     0
 10
0.0
 20
0.0
 30
0.0
  3
$PAPER_SPACE
  1

  0
ENDBLK
  5
1D
 67
     1
  8
0
  0
BLOCK
  8
0
  2
SW_NOTE_0
 70
     0
 10
0.0
 20
0.0
 30
0.0
  3
SW_NOTE_0
  1

  0
TEXT
  5
E7
  8
0
  6
CONTINUOUS
 62
     0
 10
0.0
 20
6.3586811146
 30
0.0
 40
18.0
  1
Questo disegno e posto sotto la tutela delle vigenti Leggi e non puo essere utilizzato da terze persone se non previa autorizzazione scritta della PEDRALI
 41
0.6454545455
 11
0.0
 21
0.0
 31
0.0
 73
     1
  0
TEXT
  5
E8
  8
0
  6
CONTINUOUS
 62
     0
 10
1349.8969376087
 20
6.3586811146
 30
0.0
 40
18.0
  1
 S.p.A.
 41
0.7
 11
1349.8969376087
 21
0.0
 31
0.0
 73
     1
  0
ENDBLK
  5
E6
  8
0
  0
BLOCK
  8
0
  2
SW_NOTE_1
 70
     0
 10
0.0
 20
0.0
 30
0.0
  3
SW_NOTE_1
  1

  0
TEXT
  5
EF
  8
0
  6
CONTINUOUS
 62
     0
 10
0.0
 20
6.3586811146
 30
0.0
 40
18.0
  1
SCALA 
 41
0.7
 11
0.0
 21
0.0
 31
0.0
 73
     1
  0
TEXT
  5
F0
  8
0
  6
CONTINUOUS
 62
     0
 10
6.6710519604
 20
-36.3035468317
 30
0.0
 40
37.0416666667
  1
1:1
 41
0.7
 11
6.6710519604
 21
-49.388888292
 31
0.0
 73
     1
  0
ENDBLK
  5
EE
  8
0
  0
ENDSEC
  0
SECTION
  2
ENTITIES
  0
LINE
  5
74
  8
0
  6
CONTINUOUS
 62
     7
 10
2870.0
 20
100.0
 30
0.0
 11
2870.0
 21
2000.0
 31
0.0
  0
LINE
  5
75
  8
0
  6
CONTINUOUS
 62
   179
 10
2323.9899183113
 20
344.5974058992
 30
0.0
 11
2323.9899183113
 21
304.8670971915
 31
0.0
  0
LINE
  5
76
  8
0
  6
CONTINUOUS
 62
   179
 10
2323.9899183113
 20
344.5974058992
 30
0.0
 11
2356.6479108728
 21
344.5974058992
 31
0.0
  0
LINE
  5
77
  8
0
  6
CONTINUOUS
 62
   179
 10
2323.9899183113
 20
304.8670971915
 30
0.0
 11
2340.2432264202
 21
304.8670971915
 31
0.0
  0
LINE
  5
78
  8
0
  6
CONTINUOUS
 62
   179
 10
2340.2432264202
 20
304.8670971915
 30
0.0
 11
2340.2432264202
 21
319.3144821747
 31
0.0
  0
LINE
  5
79
  8
0
  6
CONTINUOUS
 62
   179
 10
2356.6479108724
 20
319.3144821747
 30
0.0
 11
2340.2432264202
 21
319.3144821747
 31
0.0
  0
LINE
  5
7A
  8
0
  6
CONTINUOUS
 62
   179
 10
2340.2432264198
 20
326.5381746675
 30
0.0
 11
2340.2432264198
 21
337.3737134063
 31
0.0
  0
LINE
  5
7B
  8
0
  6
CONTINUOUS
 62
   179
 10
2340.2432264198
 20
337.3737134063
 30
0.0
 11
2352.923880981
 21
337.3737134063
 31
0.0
  0
LINE
  5
7C
  8
0
  6
CONTINUOUS
 62
   179
 10
2340.2432264198
 20
326.5381746675
 30
0.0
 11
2352.9238809804
 21
326.5381746675
 31
0.0
  0
LINE
  5
7D
  8
0
  6
CONTINUOUS
 62
   179
 10
2381.7794582538
 20
344.5974058975
 30
0.0
 11
2435.9571519481
 21
344.5974058975
 31
0.0
  0
LINE
  5
7E
  8
0
  6
CONTINUOUS
 62
   179
 10
2435.9571519481
 20
344.5974058975
 30
0.0
 11
2435.9571519481
 21
337.3737134043
 31
0.0
  0
LINE
  5
7F
  8
0
  6
CONTINUOUS
 62
   179
 10
2435.9571519481
 20
337.3737134043
 30
0.0
 11
2399.8386894852
 21
337.3737134043
 31
0.0
  0
LINE
  5
80
  8
0
  6
CONTINUOUS
 62
   179
 10
2399.8386894852
 20
337.3737134043
 30
0.0
 11
2399.8386894852
 21
328.3440977886
 31
0.0
  0
LINE
  5
81
  8
0
  6
CONTINUOUS
 62
   179
 10
2399.8386894852
 20
328.3440977886
 30
0.0
 11
2432.3453057032
 21
328.3440977886
 31
0.0
  0
LINE
  5
82
  8
0
  6
CONTINUOUS
 62
   179
 10
2432.3453057032
 20
328.3440977886
 30
0.0
 11
2432.3453057032
 21
321.1204052954
 31
0.0
  0
LINE
  5
83
  8
0
  6
CONTINUOUS
 62
   179
 10
2432.3453057032
 20
321.1204052954
 30
0.0
 11
2399.8386894852
 21
321.1204052954
 31
0.0
  0
LINE
  5
84
  8
0
  6
CONTINUOUS
 62
   179
 10
2399.8386894852
 20
321.1204052954
 30
0.0
 11
2399.8386894852
 21
312.0907896797
 31
0.0
  0
LINE
  5
85
  8
0
  6
CONTINUOUS
 62
   179
 10
2399.8386894852
 20
312.0907896797
 30
0.0
 11
2435.9571519481
 21
312.0907896797
 31
0.0
  0
LINE
  5
86
  8
0
  6
CONTINUOUS
 62
   179
 10
2435.9571519481
 20
312.0907896797
 30
0.0
 11
2435.9571519481
 21
304.8670971899
 31
0.0
  0
LINE
  5
87
  8
0
  6
CONTINUOUS
 62
   179
 10
2435.9571519481
 20
304.8670971899
 30
0.0
 11
2381.7794582538
 21
304.8670971899
 31
0.0
  0
LINE
  5
88
  8
0
  6
CONTINUOUS
 62
   179
 10
2439.5689981967
 20
344.5974058976
 30
0.0
 11
2439.5689981967
 21
304.8670971877
 31
0.0
  0
LINE
  5
89
  8
0
  6
CONTINUOUS
 62
   179
 10
2439.5689981967
 20
344.5974058976
 30
0.0
 11
2472.0715260016
 21
344.5974058976
 31
0.0
  0
LINE
  5
8A
  8
0
  6
CONTINUOUS
 62
   179
 10
2472.0715260017
 20
304.8670971877
 30
0.0
 11
2439.5689981967
 21
304.8670971877
 31
0.0
  0
LINE
  5
8B
  8
0
  6
CONTINUOUS
 62
   179
 10
2455.8223063032
 20
324.7322515403
 30
0.0
 11
2455.8223063032
 21
313.8967128022
 31
0.0
  0
LINE
  5
8C
  8
0
  6
CONTINUOUS
 62
   179
 10
2455.8223063032
 20
313.8967128022
 30
0.0
 11
2472.947172768
 21
313.8967128022
 31
0.0
  0
LINE
  5
8D
  8
0
  6
CONTINUOUS
 62
   179
 10
2455.8223063032
 20
324.7322515403
 30
0.0
 11
2455.8223063032
 21
335.5677902827
 31
0.0
  0
LINE
  5
8E
  8
0
  6
CONTINUOUS
 62
   179
 10
2455.8223063032
 20
335.5677902827
 30
0.0
 11
2472.947172768
 21
335.5677902827
 31
0.0
  0
LINE
  5
8F
  8
0
  6
CONTINUOUS
 62
   179
 10
2504.5822306294
 20
344.5974059005
 30
0.0
 11
2504.5822306294
 21
304.8670971929
 31
0.0
  0
LINE
  5
90
  8
0
  6
CONTINUOUS
 62
     7
 10
2728.7989947508
 20
280.0000000004
 30
0.0
 11
2728.7989947508
 21
190.0000000002
 31
0.0
  0
LINE
  5
91
  8
0
  6
CONTINUOUS
 62
   179
 10
2504.5822306294
 20
304.8670971929
 30
0.0
 11
2520.8355387383
 21
304.8670971929
 31
0.0
  0
LINE
  5
92
  8
0
  6
CONTINUOUS
 62
   179
 10
2520.8355387383
 20
304.8670971929
 30
0.0
 11
2520.8355387383
 21
319.3144821759
 31
0.0
  0
LINE
  5
93
  8
0
  6
CONTINUOUS
 62
   179
 10
2520.8355387383
 20
319.3144821759
 30
0.0
 11
2538.8947699699
 21
319.3144821759
 31
0.0
  0
LINE
  5
94
  8
0
  6
CONTINUOUS
 62
   179
 10
2546.1184624631
 20
312.0907896827
 30
0.0
 11
2546.1184624631
 21
304.8670971919
 31
0.0
  0
LINE
  5
95
  8
0
  6
CONTINUOUS
 62
   179
 10
2520.8355387377
 20
326.5381746672
 30
0.0
 11
2520.8355387377
 21
337.3737134069
 31
0.0
  0
LINE
  5
96
  8
0
  6
CONTINUOUS
 62
   179
 10
2520.8355387377
 20
337.3737134069
 30
0.0
 11
2538.4781724187
 21
337.3737134069
 31
0.0
  0
LINE
  5
97
  8
0
  6
CONTINUOUS
 62
   179
 10
2520.8355387377
 20
326.5381746672
 30
0.0
 11
2538.4781724187
 21
326.5381746672
 31
0.0
  0
LINE
  5
98
  8
0
  6
CONTINUOUS
 62
   179
 10
2558.8702021926
 20
314.7709579587
 30
0.0
 11
2560.3555346507
 21
308.9676544183
 31
0.0
  0
LINE
  5
99
  8
0
  6
CONTINUOUS
 62
     7
 10
2870.0
 20
2000.0
 30
0.0
 11
100.0
 21
2000.0
 31
0.0
  0
LINE
  5
9A
  8
0
  6
CONTINUOUS
 62
     7
 10
2728.7989947508
 20
190.0000000002
 30
0.0
 11
2728.7989947508
 21
100.0
 31
0.0
  0
LINE
  5
9B
  8
0
  6
CONTINUOUS
 62
     7
 10
100.0
 20
2000.0
 30
0.0
 11
100.0
 21
100.0
 31
0.0
  0
LINE
  5
9C
  8
0
  6
CONTINUOUS
 62
     7
 10
2150.0
 20
370.0000000006
 30
0.0
 11
2870.0
 21
370.0000000006
 31
0.0
  0
LINE
  5
9D
  8
0
  6
CONTINUOUS
 62
    19
 10
2795.2884126839
 20
160.2788043096
 30
0.0
 11
2763.4182663121
 21
154.0818314039
 31
0.0
  0
LINE
  5
9E
  8
0
  6
CONTINUOUS
 62
    19
 10
2821.3505851521
 20
165.4881573907
 30
0.0
 11
2821.3505851521
 21
124.881030118
 31
0.0
  0
LINE
  5
9F
  8
0
  6
CONTINUOUS
 62
    19
 10
2795.2884126839
 20
160.2788043096
 30
0.0
 11
2795.2884126839
 21
130.0903831992
 31
0.0
  0
LINE
  5
A0
  8
0
  6
CONTINUOUS
 62
     7
 10
100.0
 20
100.0
 30
0.0
 11
2870.0
 21
100.0
 31
0.0
  0
LINE
  5
A1
  8
0
  6
CONTINUOUS
 62
    19
 10
2763.4182663121
 20
154.0818314039
 30
0.0
 11
2763.4182663121
 21
136.2873561048
 31
0.0
  0
LINE
  5
A2
  8
0
  6
CONTINUOUS
 62
   179
 10
2546.1184624631
 20
304.8670971919
 30
0.0
 11
2576.8191555592
 21
304.8670971919
 31
0.0
  0
LINE
  5
A3
  8
0
  6
CONTINUOUS
 62
    19
 10
2795.2884126839
 20
130.0903831992
 30
0.0
 11
2763.4182663121
 21
136.2873561048
 31
0.0
  0
LINE
  5
A4
  8
0
  6
CENTERX2
 62
    19
 10
2838.9207124248
 20
145.1845937544
 30
0.0
 11
2759.4518690643
 21
145.1845937544
 31
0.0
  0
LINE
  5
A5
  8
0
  6
CONTINUOUS
 62
   179
 10
2504.5822306294
 20
344.5974059005
 30
0.0
 11
2542.0192583058
 21
344.5974059005
 31
0.0
  0
LINE
  5
A6
  8
0
  6
CONTINUOUS
 62
   179
 10
2381.7794582538
 20
344.5974058975
 30
0.0
 11
2381.7794582538
 21
304.8670971899
 31
0.0
  0
LINE
  5
A7
  8
0
  6
CONTINUOUS
 62
   179
 10
2584.0428480525
 20
344.5974058996
 30
0.0
 11
2602.1020792839
 21
344.5974058996
 31
0.0
  0
LINE
  5
A8
  8
0
  6
CONTINUOUS
 62
   179
 10
2584.0428480525
 20
344.5974058996
 30
0.0
 11
2560.7076448779
 21
307.9278009142
 31
0.0
  0
LINE
  5
A9
  8
0
  6
CONTINUOUS
 62
   179
 10
2576.8191555592
 20
304.8670971919
 30
0.0
 11
2580.8824825864
 21
312.0907896817
 31
0.0
  0
LINE
  5
AA
  8
0
  6
CONTINUOUS
 62
   179
 10
2593.0724636674
 20
333.7618671594
 30
0.0
 11
2601.1991177219
 21
319.3144821729
 31
0.0
  0
LINE
  5
AB
  8
0
  6
CONTINUOUS
 62
   179
 10
2584.9458096129
 20
319.3144821729
 30
0.0
 11
2593.0724636674
 21
333.7618671594
 31
0.0
  0
LINE
  5
AC
  8
0
  6
CONTINUOUS
 62
   179
 10
2584.9458096129
 20
319.3144821729
 30
0.0
 11
2601.1991177219
 21
319.3144821729
 31
0.0
  0
LINE
  5
AD
  8
0
  6
CONTINUOUS
 62
   179
 10
2580.8824825864
 20
312.0907896817
 30
0.0
 11
2605.26244475
 21
312.0907896817
 31
0.0
  0
LINE
  5
AE
  8
0
  6
CONTINUOUS
 62
   179
 10
2605.26244475
 20
312.0907896817
 30
0.0
 11
2609.3257717771
 21
304.8670971919
 31
0.0
  0
LINE
  5
AF
  8
0
  6
CONTINUOUS
 62
   179
 10
2627.3850030087
 20
344.5974058996
 30
0.0
 11
2627.3850030087
 21
304.8670971919
 31
0.0
  0
LINE
  5
B0
  8
0
  6
CONTINUOUS
 62
   179
 10
2602.1020792839
 20
344.5974058996
 30
0.0
 11
2627.3850030087
 21
304.8670971919
 31
0.0
  0
LINE
  5
B1
  8
0
  6
CONTINUOUS
 62
   179
 10
2609.3257717771
 20
304.8670971919
 30
0.0
 11
2627.3850030087
 21
304.8670971919
 31
0.0
  0
LINE
  5
B2
  8
0
  6
CONTINUOUS
 62
   179
 10
2627.3850030087
 20
304.8670971919
 30
0.0
 11
2676.1449273357
 21
304.8670971919
 31
0.0
  0
LINE
  5
B3
  8
0
  6
CONTINUOUS
 62
   179
 10
2676.1449273357
 20
304.8670971919
 30
0.0
 11
2676.1449273357
 21
313.8967128076
 31
0.0
  0
LINE
  5
B4
  8
0
  6
CONTINUOUS
 62
   179
 10
2676.1449273357
 20
313.8967128076
 30
0.0
 11
2645.44423424
 21
313.8967128076
 31
0.0
  0
LINE
  5
B5
  8
0
  6
CONTINUOUS
 62
   179
 10
2645.44423424
 20
313.8967128076
 30
0.0
 11
2645.44423424
 21
344.5974058996
 31
0.0
  0
LINE
  5
B6
  8
0
  6
CONTINUOUS
 62
   179
 10
2627.3850030087
 20
344.5974058996
 30
0.0
 11
2645.44423424
 21
344.5974058996
 31
0.0
  0
LINE
  5
B7
  8
0
  6
CONTINUOUS
 62
   179
 10
2677.9508504573
 20
344.5974058992
 30
0.0
 11
2677.9508504573
 21
304.8670971915
 31
0.0
  0
LINE
  5
B8
  8
0
  6
CONTINUOUS
 62
   179
 10
2696.0100816887
 20
344.5974058992
 30
0.0
 11
2696.0100816887
 21
304.8670971915
 31
0.0
  0
LINE
  5
B9
  8
0
  6
CONTINUOUS
 62
   179
 10
2677.9508504573
 20
344.5974058992
 30
0.0
 11
2696.0100816887
 21
344.5974058992
 31
0.0
  0
LINE
  5
BA
  8
0
  6
CONTINUOUS
 62
   179
 10
2677.9508504573
 20
304.8670971915
 30
0.0
 11
2696.0100816887
 21
304.8670971915
 31
0.0
  0
LINE
  5
BB
  8
0
  6
CONTINUOUS
 62
   179
 10
2704.1151644241
 20
341.2930554229
 30
0.0
 11
2708.2866879839
 21
341.2930554229
 31
0.0
  0
LINE
  5
BC
  8
0
  6
CONTINUOUS
 62
   179
 10
2708.2866879839
 20
338.5841707372
 30
0.0
 11
2704.1151644241
 21
338.5841707372
 31
0.0
  0
LINE
  5
BD
  8
0
  6
CONTINUOUS
 62
   179
 10
2704.1151644241
 20
338.5841707372
 30
0.0
 11
2704.1151644241
 21
341.2930554229
 31
0.0
  0
LINE
  5
BE
  8
0
  6
CONTINUOUS
 62
   179
 10
2704.1151644241
 20
338.5841707372
 30
0.0
 11
2706.8240491077
 21
338.5841707372
 31
0.0
  0
LINE
  5
BF
  8
0
  6
CONTINUOUS
 62
   179
 10
2704.1151644241
 20
338.5841707372
 30
0.0
 11
2704.1151644241
 21
334.5208437117
 31
0.0
  0
LINE
  5
C0
  8
0
  6
CONTINUOUS
 62
   179
 10
2709.5329337914
 20
334.5208437117
 30
0.0
 11
2706.8240491077
 21
338.5841707372
 31
0.0
  0
LINE
  5
C1
  8
0
  6
CONTINUOUS
 62
     7
 10
2150.0
 20
190.0000000002
 30
0.0
 11
2870.0
 21
190.0000000002
 31
0.0
  0
LINE
  5
C2
  8
0
  6
CONTINUOUS
 62
     7
 10
2870.0
 20
280.0000000004
 30
0.0
 11
2150.0
 21
280.0000000004
 31
0.0
  0
LINE
  5
C3
  8
0
  6
CONTINUOUS
 62
     7
 10
100.0
 20
550.0
 30
0.0
 11
100.0
 21
650.0
 31
0.0
  0
LINE
  5
C4
  8
0
  6
CONTINUOUS
 62
     7
 10
100.0
 20
650.0
 30
0.0
 11
100.0
 21
750.0
 31
0.0
  0
LINE
  5
C5
  8
0
  6
CONTINUOUS
 62
     7
 10
100.0
 20
750.0
 30
0.0
 11
100.0
 21
850.0
 31
0.0
  0
LINE
  5
C6
  8
0
  6
CONTINUOUS
 62
     7
 10
100.0
 20
850.0
 30
0.0
 11
100.0
 21
950.0
 31
0.0
  0
LINE
  5
C7
  8
0
  6
CONTINUOUS
 62
     7
 10
100.0
 20
950.0
 30
0.0
 11
100.0
 21
1050.0
 31
0.0
  0
LINE
  5
C8
  8
0
  6
CONTINUOUS
 62
     7
 10
100.0
 20
1050.0
 30
0.0
 11
100.0
 21
1150.0
 31
0.0
  0
LINE
  5
C9
  8
0
  6
CONTINUOUS
 62
     7
 10
100.0
 20
1150.0
 30
0.0
 11
100.0
 21
1250.0
 31
0.0
  0
LINE
  5
CA
  8
0
  6
CONTINUOUS
 62
     7
 10
100.0
 20
1250.0
 30
0.0
 11
100.0
 21
1350.0
 31
0.0
  0
LINE
  5
CB
  8
0
  6
CONTINUOUS
 62
     7
 10
100.0
 20
1350.0
 30
0.0
 11
100.0
 21
1450.0
 31
0.0
  0
LINE
  5
CC
  8
0
  6
CONTINUOUS
 62
     7
 10
100.0
 20
1450.0
 30
0.0
 11
100.0
 21
1550.0
 31
0.0
  0
LINE
  5
CD
  8
0
  6
CONTINUOUS
 62
     7
 10
2150.0
 20
370.0000000006
 30
0.0
 11
2150.0
 21
100.0
 31
0.0
  0
ARC
  5
CE
  8
0
  6
CONTINUOUS
 62
   179
 10
2352.923880981
 20
330.1500209155
 30
0.0
 40
7.223692490816169
 50
69.991210111
 51
90.0
  0
ARC
  5
CF
  8
0
  6
CONTINUOUS
 62
   179
 10
2352.9238809804
 20
333.7618671601
 30
0.0
 40
7.223692492544103
 50
270.0
 51
290.0087898887
  0
ARC
  5
D0
  8
0
  6
CONTINUOUS
 62
   179
 10
2472.947172768
 20
324.7322515422
 30
0.0
 40
10.8355387405187
 50
56.1685552524
 51
90.0
  0
ARC
  5
D1
  8
0
  6
CONTINUOUS
 62
   179
 10
2472.947172768
 20
324.7322515422
 30
0.0
 40
10.83553873998012
 50
270.0
 51
303.830934914
  0
ARC
  5
D2
  8
0
  6
CONTINUOUS
 62
   179
 10
2538.8947699699
 20
312.0907896827
 30
0.0
 40
7.223692493244471
 50
0.0
 51
90.0
  0
ARC
  5
D3
  8
0
  6
CONTINUOUS
 62
   179
 10
2538.4781724187
 20
331.9559440374
 30
0.0
 40
5.417769369443558
 50
54.413089495
 51
90.0
  0
ARC
  5
D4
  8
0
  6
CONTINUOUS
 62
   179
 10
2538.4781724187
 20
331.9559440374
 30
0.0
 40
5.417769370214614
 50
270.0
 51
305.5869104966
  0
ARC
  5
D5
  8
0
  6
CONTINUOUS
 62
   179
 10
2549.0375849296
 20
312.9627960708
 30
0.0
 40
9.997490267756625
 50
10.4199484279
 51
80.7321727594
  0
ARC
  5
D6
  8
0
  6
CONTINUOUS
 62
   179
 10
2565.4535666376
 20
310.1143839674
 30
0.0
 40
5.225410873593643
 50
192.6768785101
 51
204.7368873207
  0
CIRCLE
  5
D7
  8
0
  6
CONTINUOUS
 62
   179
 10
2706.2864208618
 20
337.8675697335
 30
0.0
 40
5.930102145230649
  0
CIRCLE
  5
D8
  8
0
  6
CONTINUOUS
 62
    19
 10
2821.3505851521
 20
145.1845937544
 30
0.0
 40
8.587078762764193
  0
CIRCLE
  5
D9
  8
0
  6
CONTINUOUS
 62
    19
 10
2821.3505851521
 20
145.1845937544
 30
0.0
 40
16.77593581663705
  0
POLYLINE
  5
DA
  8
0
  6
CONTINUOUS
 62
   179
 66
     1
 10
0.0
 20
0.0
 30
0.0
 70
   128
  0
VERTEX
  5
14F
  8
0
  6
CONTINUOUS
 62
   179
 10
2355.3955706648
 20
326.9741957382
 30
0.0
  0
VERTEX
  5
150
  8
0
  6
CONTINUOUS
 62
   179
 10
2355.6170487708
 20
327.0572489827
 30
0.0
  0
VERTEX
  5
151
  8
0
  6
CONTINUOUS
 62
   179
 10
2355.8347267771
 20
327.1437234164
 30
0.0
  0
VERTEX
  5
152
  8
0
  6
CONTINUOUS
 62
   179
 10
2356.0484526602
 20
327.2335586465
 30
0.0
  0
VERTEX
  5
153
  8
0
  6
CONTINUOUS
 62
   179
 10
2356.2580771564
 20
327.3266919334
 30
0.0
  0
VERTEX
  5
154
  8
0
  6
CONTINUOUS
 62
   179
 10
2356.4634538666
 20
327.4230582338
 30
0.0
  0
VERTEX
  5
155
  8
0
  6
CONTINUOUS
 62
   179
 10
2356.664439358
 20
327.5225902466
 30
0.0
  0
VERTEX
  5
156
  8
0
  6
CONTINUOUS
 62
   179
 10
2356.860893265
 20
327.6252184599
 30
0.0
  0
VERTEX
  5
157
  8
0
  6
CONTINUOUS
 62
   179
 10
2357.0526783864
 20
327.7308711995
 30
0.0
  0
VERTEX
  5
158
  8
0
  6
CONTINUOUS
 62
   179
 10
2357.2396607819
 20
327.8394746786
 30
0.0
  0
VERTEX
  5
159
  8
0
  6
CONTINUOUS
 62
   179
 10
2357.4217098652
 20
327.9509530501
 30
0.0
  0
VERTEX
  5
15A
  8
0
  6
CONTINUOUS
 62
   179
 10
2357.5986984955
 20
328.0652284586
 30
0.0
  0
VERTEX
  5
15B
  8
0
  6
CONTINUOUS
 62
   179
 10
2357.770503066
 20
328.1822210957
 30
0.0
  0
VERTEX
  5
15C
  8
0
  6
CONTINUOUS
 62
   179
 10
2357.9370035905
 20
328.3018492552
 30
0.0
  0
VERTEX
  5
15D
  8
0
  6
CONTINUOUS
 62
   179
 10
2358.0980837871
 20
328.4240293901
 30
0.0
  0
VERTEX
  5
15E
  8
0
  6
CONTINUOUS
 62
   179
 10
2358.2536311594
 20
328.5486761713
 30
0.0
  0
VERTEX
  5
15F
  8
0
  6
CONTINUOUS
 62
   179
 10
2358.4035370748
 20
328.6757025471
 30
0.0
  0
VERTEX
  5
160
  8
0
  6
CONTINUOUS
 62
   179
 10
2358.547696841
 20
328.8050198038
 30
0.0
  0
VERTEX
  5
161
  8
0
  6
CONTINUOUS
 62
   179
 10
2358.6860097785
 20
328.9365376277
 30
0.0
  0
VERTEX
  5
162
  8
0
  6
CONTINUOUS
 62
   179
 10
2358.8183792913
 20
329.0701641685
 30
0.0
  0
VERTEX
  5
163
  8
0
  6
CONTINUOUS
 62
   179
 10
2358.944712934
 20
329.2058061029
 30
0.0
  0
VERTEX
  5
164
  8
0
  6
CONTINUOUS
 62
   179
 10
2359.0649224768
 20
329.3433687002
 30
0.0
  0
VERTEX
  5
165
  8
0
  6
CONTINUOUS
 62
   179
 10
2359.1789239668
 20
329.4827558885
 30
0.0
  0
VERTEX
  5
166
  8
0
  6
CONTINUOUS
 62
   179
 10
2359.2866377868
 20
329.6238703214
 30
0.0
  0
VERTEX
  5
167
  8
0
  6
CONTINUOUS
 62
   179
 10
2359.3879887107
 20
329.7666134463
 30
0.0
  0
VERTEX
  5
168
  8
0
  6
CONTINUOUS
 62
   179
 10
2359.4829059562
 20
329.9108855731
 30
0.0
  0
VERTEX
  5
169
  8
0
  6
CONTINUOUS
 62
   179
 10
2359.5713232344
 20
330.0565859439
 30
0.0
  0
VERTEX
  5
16A
  8
0
  6
CONTINUOUS
 62
   179
 10
2359.6531787956
 20
330.2036128034
 30
0.0
  0
VERTEX
  5
16B
  8
0
  6
CONTINUOUS
 62
   179
 10
2359.7284154729
 20
330.3518634698
 30
0.0
  0
VERTEX
  5
16C
  8
0
  6
CONTINUOUS
 62
   179
 10
2359.796980722
 20
330.5012344065
 30
0.0
  0
VERTEX
  5
16D
  8
0
  6
CONTINUOUS
 62
   179
 10
2359.8588266577
 20
330.6516212949
 30
0.0
  0
VERTEX
  5
16E
  8
0
  6
CONTINUOUS
 62
   179
 10
2359.9139100876
 20
330.8029191064
 30
0.0
  0
VERTEX
  5
16F
  8
0
  6
CONTINUOUS
 62
   179
 10
2359.962192542
 20
330.9550221765
 30
0.0
  0
VERTEX
  5
170
  8
0
  6
CONTINUOUS
 62
   179
 10
2360.0036403011
 20
331.1078242783
 30
0.0
  0
VERTEX
  5
171
  8
0
  6
CONTINUOUS
 62
   179
 10
2360.0382244182
 20
331.2612186967
 30
0.0
  0
VERTEX
  5
172
  8
0
  6
CONTINUOUS
 62
   179
 10
2360.0659207403
 20
331.4150983028
 30
0.0
  0
VERTEX
  5
173
  8
0
  6
CONTINUOUS
 62
   179
 10
2360.0867099245
 20
331.569355629
 30
0.0
  0
VERTEX
  5
174
  8
0
  6
CONTINUOUS
 62
   179
 10
2360.100577452
 20
331.7238829439
 30
0.0
  0
VERTEX
  5
175
  8
0
  6
CONTINUOUS
 62
   179
 10
2360.1075136378
 20
331.8785723274
 30
0.0
  0
VERTEX
  5
176
  8
0
  6
CONTINUOUS
 62
   179
 10
2360.1075136378
 20
332.0333157464
 30
0.0
  0
VERTEX
  5
177
  8
0
  6
CONTINUOUS
 62
   179
 10
2360.100577452
 20
332.18800513
 30
0.0
  0
VERTEX
  5
178
  8
0
  6
CONTINUOUS
 62
   179
 10
2360.0867099245
 20
332.3425324448
 30
0.0
  0
VERTEX
  5
179
  8
0
  6
CONTINUOUS
 62
   179
 10
2360.0659207403
 20
332.4967897711
 30
0.0
  0
VERTEX
  5
17A
  8
0
  6
CONTINUOUS
 62
   179
 10
2360.0382244182
 20
332.6506693772
 30
0.0
  0
VERTEX
  5
17B
  8
0
  6
CONTINUOUS
 62
   179
 10
2360.0036403011
 20
332.8040637956
 30
0.0
  0
VERTEX
  5
17C
  8
0
  6
CONTINUOUS
 62
   179
 10
2359.962192542
 20
332.9568658974
 30
0.0
  0
VERTEX
  5
17D
  8
0
  6
CONTINUOUS
 62
   179
 10
2359.9139100876
 20
333.1089689675
 30
0.0
  0
VERTEX
  5
17E
  8
0
  6
CONTINUOUS
 62
   179
 10
2359.8588266577
 20
333.260266779
 30
0.0
  0
VERTEX
  5
17F
  8
0
  6
CONTINUOUS
 62
   179
 10
2359.796980722
 20
333.4106536674
 30
0.0
  0
VERTEX
  5
180
  8
0
  6
CONTINUOUS
 62
   179
 10
2359.728415473
 20
333.5600246041
 30
0.0
  0
VERTEX
  5
181
  8
0
  6
CONTINUOUS
 62
   179
 10
2359.6531787956
 20
333.7082752705
 30
0.0
  0
VERTEX
  5
182
  8
0
  6
CONTINUOUS
 62
   179
 10
2359.5713232344
 20
333.85530213
 30
0.0
  0
VERTEX
  5
183
  8
0
  6
CONTINUOUS
 62
   179
 10
2359.4829059562
 20
334.0010025008
 30
0.0
  0
VERTEX
  5
184
  8
0
  6
CONTINUOUS
 62
   179
 10
2359.3879887107
 20
334.1452746276
 30
0.0
  0
VERTEX
  5
185
  8
0
  6
CONTINUOUS
 62
   179
 10
2359.2866377868
 20
334.2880177525
 30
0.0
  0
VERTEX
  5
186
  8
0
  6
CONTINUOUS
 62
   179
 10
2359.1789239668
 20
334.4291321854
 30
0.0
  0
VERTEX
  5
187
  8
0
  6
CONTINUOUS
 62
   179
 10
2359.0649224768
 20
334.5685193737
 30
0.0
  0
VERTEX
  5
188
  8
0
  6
CONTINUOUS
 62
   179
 10
2358.944712934
 20
334.706081971
 30
0.0
  0
VERTEX
  5
189
  8
0
  6
CONTINUOUS
 62
   179
 10
2358.8183792913
 20
334.8417239054
 30
0.0
  0
VERTEX
  5
18A
  8
0
  6
CONTINUOUS
 62
   179
 10
2358.6860097786
 20
334.9753504462
 30
0.0
  0
VERTEX
  5
18B
  8
0
  6
CONTINUOUS
 62
   179
 10
2358.547696841
 20
335.1068682701
 30
0.0
  0
VERTEX
  5
18C
  8
0
  6
CONTINUOUS
 62
   179
 10
2358.4035370749
 20
335.2361855267
 30
0.0
  0
VERTEX
  5
18D
  8
0
  6
CONTINUOUS
 62
   179
 10
2358.2536311594
 20
335.3632119025
 30
0.0
  0
VERTEX
  5
18E
  8
0
  6
CONTINUOUS
 62
   179
 10
2358.0980837872
 20
335.4878586838
 30
0.0
  0
VERTEX
  5
18F
  8
0
  6
CONTINUOUS
 62
   179
 10
2357.9370035906
 20
335.6100388187
 30
0.0
  0
VERTEX
  5
190
  8
0
  6
CONTINUOUS
 62
   179
 10
2357.770503066
 20
335.7296669782
 30
0.0
  0
VERTEX
  5
191
  8
0
  6
CONTINUOUS
 62
   179
 10
2357.5986984955
 20
335.8466596153
 30
0.0
  0
VERTEX
  5
192
  8
0
  6
CONTINUOUS
 62
   179
 10
2357.4217098652
 20
335.9609350238
 30
0.0
  0
VERTEX
  5
193
  8
0
  6
CONTINUOUS
 62
   179
 10
2357.2396607819
 20
336.0724133952
 30
0.0
  0
VERTEX
  5
194
  8
0
  6
CONTINUOUS
 62
   179
 10
2357.0526783864
 20
336.1810168744
 30
0.0
  0
VERTEX
  5
195
  8
0
  6
CONTINUOUS
 62
   179
 10
2356.860893265
 20
336.286669614
 30
0.0
  0
VERTEX
  5
196
  8
0
  6
CONTINUOUS
 62
   179
 10
2356.664439358
 20
336.3892978273
 30
0.0
  0
VERTEX
  5
197
  8
0
  6
CONTINUOUS
 62
   179
 10
2356.4634538666
 20
336.4888298401
 30
0.0
  0
VERTEX
  5
198
  8
0
  6
CONTINUOUS
 62
   179
 10
2356.2580771565
 20
336.5851961405
 30
0.0
  0
VERTEX
  5
199
  8
0
  6
CONTINUOUS
 62
   179
 10
2356.0484526603
 20
336.6783294274
 30
0.0
  0
VERTEX
  5
19A
  8
0
  6
CONTINUOUS
 62
   179
 10
2355.8347267772
 20
336.7681646575
 30
0.0
  0
VERTEX
  5
19B
  8
0
  6
CONTINUOUS
 62
   179
 10
2355.6170487708
 20
336.8546390912
 30
0.0
  0
SEQEND
  5
3B9
  8
0
  6
CONTINUOUS
 62
   179
  0
POLYLINE
  5
DB
  8
0
  6
CONTINUOUS
 62
   179
 66
     1
 10
0.0
 20
0.0
 30
0.0
 70
   128
  0
VERTEX
  5
19C
  8
0
  6
CONTINUOUS
 62
   179
 10
2478.9797960752
 20
315.7313429314
 30
0.0
  0
VERTEX
  5
19D
  8
0
  6
CONTINUOUS
 62
   179
 10
2479.3724450143
 20
316.0016348207
 30
0.0
  0
VERTEX
  5
19E
  8
0
  6
CONTINUOUS
 62
   179
 10
2479.7529873554
 20
316.2780614575
 30
0.0
  0
VERTEX
  5
19F
  8
0
  6
CONTINUOUS
 62
   179
 10
2480.1211557026
 20
316.5604286051
 30
0.0
  0
VERTEX
  5
1A0
  8
0
  6
CONTINUOUS
 62
   179
 10
2480.4766913548
 20
316.8485378522
 30
0.0
  0
VERTEX
  5
1A1
  8
0
  6
CONTINUOUS
 62
   179
 10
2480.8193444875
 20
317.142186753
 30
0.0
  0
VERTEX
  5
1A2
  8
0
  6
CONTINUOUS
 62
   179
 10
2481.1488743286
 20
317.441168969
 30
0.0
  0
VERTEX
  5
1A3
  8
0
  6
CONTINUOUS
 62
   179
 10
2481.4650493271
 20
317.7452744143
 30
0.0
  0
VERTEX
  5
1A4
  8
0
  6
CONTINUOUS
 62
   179
 10
2481.767647316
 20
318.0542894029
 30
0.0
  0
VERTEX
  5
1A5
  8
0
  6
CONTINUOUS
 62
   179
 10
2482.0564556687
 20
318.367996799
 30
0.0
  0
VERTEX
  5
1A6
  8
0
  6
CONTINUOUS
 62
   179
 10
2482.3312714481
 20
318.6861761697
 30
0.0
  0
VERTEX
  5
1A7
  8
0
  6
CONTINUOUS
 62
   179
 10
2482.5919015492
 20
319.0086039397
 30
0.0
  0
VERTEX
  5
1A8
  8
0
  6
CONTINUOUS
 62
   179
 10
2482.8381628349
 20
319.3350535486
 30
0.0
  0
VERTEX
  5
1A9
  8
0
  6
CONTINUOUS
 62
   179
 10
2483.0698822646
 20
319.6652956097
 30
0.0
  0
VERTEX
  5
1AA
  8
0
  6
CONTINUOUS
 62
   179
 10
2483.2868970159
 20
319.9990980716
 30
0.0
  0
VERTEX
  5
1AB
  8
0
  6
CONTINUOUS
 62
   179
 10
2483.489054599
 20
320.3362263813
 30
0.0
  0
VERTEX
  5
1AC
  8
0
  6
CONTINUOUS
 62
   179
 10
2483.6762129635
 20
320.6764436486
 30
0.0
  0
VERTEX
  5
1AD
  8
0
  6
CONTINUOUS
 62
   179
 10
2483.848240599
 20
321.0195108127
 30
0.0
  0
VERTEX
  5
1AE
  8
0
  6
CONTINUOUS
 62
   179
 10
2484.0050166265
 20
321.3651868105
 30
0.0
  0
VERTEX
  5
1AF
  8
0
  6
CONTINUOUS
 62
   179
 10
2484.1464308842
 20
321.7132287457
 30
0.0
  0
VERTEX
  5
1B0
  8
0
  6
CONTINUOUS
 62
   179
 10
2484.2723840045
 20
322.0633920594
 30
0.0
  0
VERTEX
  5
1B1
  8
0
  6
CONTINUOUS
 62
   179
 10
2484.3827874838
 20
322.4154307021
 30
0.0
  0
VERTEX
  5
1B2
  8
0
  6
CONTINUOUS
 62
   179
 10
2484.4775637448
 20
322.7690973067
 30
0.0
  0
VERTEX
  5
1B3
  8
0
  6
CONTINUOUS
 62
   179
 10
2484.5566461911
 20
323.124143362
 30
0.0
  0
VERTEX
  5
1B4
  8
0
  6
CONTINUOUS
 62
   179
 10
2484.6199792536
 20
323.4803193876
 30
0.0
  0
VERTEX
  5
1B5
  8
0
  6
CONTINUOUS
 62
   179
 10
2484.6675184303
 20
323.8373751091
 30
0.0
  0
VERTEX
  5
1B6
  8
0
  6
CONTINUOUS
 62
   179
 10
2484.6992303166
 20
324.195059634
 30
0.0
  0
VERTEX
  5
1B7
  8
0
  6
CONTINUOUS
 62
   179
 10
2484.7150926295
 20
324.5531216278
 30
0.0
  0
VERTEX
  5
1B8
  8
0
  6
CONTINUOUS
 62
   179
 10
2484.7150942232
 20
324.911309491
 30
0.0
  0
VERTEX
  5
1B9
  8
0
  6
CONTINUOUS
 62
   179
 10
2484.6992350964
 20
325.2693715354
 30
0.0
  0
VERTEX
  5
1BA
  8
0
  6
CONTINUOUS
 62
   179
 10
2484.6675263928
 20
325.6270561613
 30
0.0
  0
VERTEX
  5
1BB
  8
0
  6
CONTINUOUS
 62
   179
 10
2484.6199903934
 20
325.9841120344
 30
0.0
  0
VERTEX
  5
1BC
  8
0
  6
CONTINUOUS
 62
   179
 10
2484.5566605002
 20
326.340288262
 30
0.0
  0
VERTEX
  5
1BD
  8
0
  6
CONTINUOUS
 62
   179
 10
2484.4775812132
 20
326.6953345694
 30
0.0
  0
VERTEX
  5
1BE
  8
0
  6
CONTINUOUS
 62
   179
 10
2484.3828080993
 20
327.0490014761
 30
0.0
  0
VERTEX
  5
1BF
  8
0
  6
CONTINUOUS
 62
   179
 10
2484.2724077525
 20
327.4010404709
 30
0.0
  0
VERTEX
  5
1C0
  8
0
  6
CONTINUOUS
 62
   179
 10
2484.1464577481
 20
327.7512041861
 30
0.0
  0
VERTEX
  5
1C1
  8
0
  6
CONTINUOUS
 62
   179
 10
2484.0050465874
 20
328.0992465722
 30
0.0
  0
VERTEX
  5
1C2
  8
0
  6
CONTINUOUS
 62
   179
 10
2483.8482736358
 20
328.4449230698
 30
0.0
  0
VERTEX
  5
1C3
  8
0
  6
CONTINUOUS
 62
   179
 10
2483.6762490531
 20
328.7879907824
 30
0.0
  0
VERTEX
  5
1C4
  8
0
  6
CONTINUOUS
 62
   179
 10
2483.4890937159
 20
329.1282086464
 30
0.0
  0
VERTEX
  5
1C5
  8
0
  6
CONTINUOUS
 62
   179
 10
2483.2869391327
 20
329.4653376006
 30
0.0
  0
VERTEX
  5
1C6
  8
0
  6
CONTINUOUS
 62
   179
 10
2483.0699273517
 20
329.7991407545
 30
0.0
  0
VERTEX
  5
1C7
  8
0
  6
CONTINUOUS
 62
   179
 10
2482.8382108605
 20
330.1293835544
 30
0.0
  0
VERTEX
  5
1C8
  8
0
  6
CONTINUOUS
 62
   179
 10
2482.5919524797
 20
330.4558339483
 30
0.0
  0
VERTEX
  5
1C9
  8
0
  6
CONTINUOUS
 62
   179
 10
2482.3313252477
 20
330.7782625493
 30
0.0
  0
VERTEX
  5
1CA
  8
0
  6
CONTINUOUS
 62
   179
 10
2482.0565122996
 20
331.0964427962
 30
0.0
  0
VERTEX
  5
1CB
  8
0
  6
CONTINUOUS
 62
   179
 10
2481.7677067383
 20
331.4101511132
 30
0.0
  0
VERTEX
  5
1CC
  8
0
  6
CONTINUOUS
 62
   179
 10
2481.4651114991
 20
331.7191670665
 30
0.0
  0
VERTEX
  5
1CD
  8
0
  6
CONTINUOUS
 62
   179
 10
2481.1489392067
 20
332.0232735199
 30
0.0
  0
VERTEX
  5
1CE
  8
0
  6
CONTINUOUS
 62
   179
 10
2480.819412026
 20
332.3222567865
 30
0.0
  0
VERTEX
  5
1CF
  8
0
  6
CONTINUOUS
 62
   179
 10
2480.4767615062
 20
332.6159067798
 30
0.0
  0
VERTEX
  5
1D0
  8
0
  6
CONTINUOUS
 62
   179
 10
2480.1212284177
 20
332.9040171605
 30
0.0
  0
VERTEX
  5
1D1
  8
0
  6
CONTINUOUS
 62
   179
 10
2479.7530625831
 20
333.1863854818
 30
0.0
  0
VERTEX
  5
1D2
  8
0
  6
CONTINUOUS
 62
   179
 10
2479.3725227018
 20
333.4628133319
 30
0.0
  0
SEQEND
  5
3BA
  8
0
  6
CONTINUOUS
 62
   179
  0
POLYLINE
  5
DC
  8
0
  6
CONTINUOUS
 62
   179
 66
     1
 10
0.0
 20
0.0
 30
0.0
 70
   128
  0
VERTEX
  5
1D3
  8
0
  6
CONTINUOUS
 62
   179
 10
2541.6309739459
 20
327.5500312513
 30
0.0
  0
VERTEX
  5
1D4
  8
0
  6
CONTINUOUS
 62
   179
 10
2541.8258025609
 20
327.693275627
 30
0.0
  0
VERTEX
  5
1D5
  8
0
  6
CONTINUOUS
 62
   179
 10
2542.0141248925
 20
327.8395177154
 30
0.0
  0
VERTEX
  5
1D6
  8
0
  6
CONTINUOUS
 62
   179
 10
2542.1958085032
 20
327.9886546721
 30
0.0
  0
VERTEX
  5
1D7
  8
0
  6
CONTINUOUS
 62
   179
 10
2542.3707256246
 20
328.1405816168
 30
0.0
  0
VERTEX
  5
1D8
  8
0
  6
CONTINUOUS
 62
   179
 10
2542.5387532464
 20
328.2951917072
 30
0.0
  0
VERTEX
  5
1D9
  8
0
  6
CONTINUOUS
 62
   179
 10
2542.6997732036
 20
328.4523762141
 30
0.0
  0
VERTEX
  5
1DA
  8
0
  6
CONTINUOUS
 62
   179
 10
2542.8536722593
 20
328.6120245978
 30
0.0
  0
VERTEX
  5
1DB
  8
0
  6
CONTINUOUS
 62
   179
 10
2543.0003421842
 20
328.774024586
 30
0.0
  0
VERTEX
  5
1DC
  8
0
  6
CONTINUOUS
 62
   179
 10
2543.139679833
 20
328.9382622523
 30
0.0
  0
VERTEX
  5
1DD
  8
0
  6
CONTINUOUS
 62
   179
 10
2543.2715872169
 20
329.1046220972
 30
0.0
  0
VERTEX
  5
1DE
  8
0
  6
CONTINUOUS
 62
   179
 10
2543.3959715722
 20
329.2729871282
 30
0.0
  0
VERTEX
  5
1DF
  8
0
  6
CONTINUOUS
 62
   179
 10
2543.5127454259
 20
329.4432389432
 30
0.0
  0
VERTEX
  5
1E0
  8
0
  6
CONTINUOUS
 62
   179
 10
2543.621826657
 20
329.6152578128
 30
0.0
  0
VERTEX
  5
1E1
  8
0
  6
CONTINUOUS
 62
   179
 10
2543.7231385544
 20
329.7889227651
 30
0.0
  0
VERTEX
  5
1E2
  8
0
  6
CONTINUOUS
 62
   179
 10
2543.8166098707
 20
329.9641116707
 30
0.0
  0
VERTEX
  5
1E3
  8
0
  6
CONTINUOUS
 62
   179
 10
2543.9021748723
 20
330.1407013282
 30
0.0
  0
VERTEX
  5
1E4
  8
0
  6
CONTINUOUS
 62
   179
 10
2543.979773386
 20
330.3185675514
 30
0.0
  0
VERTEX
  5
1E5
  8
0
  6
CONTINUOUS
 62
   179
 10
2544.0493508406
 20
330.4975852562
 30
0.0
  0
VERTEX
  5
1E6
  8
0
  6
CONTINUOUS
 62
   179
 10
2544.1108583059
 20
330.6776285488
 30
0.0
  0
VERTEX
  5
1E7
  8
0
  6
CONTINUOUS
 62
   179
 10
2544.1642525271
 20
330.8585708141
 30
0.0
  0
VERTEX
  5
1E8
  8
0
  6
CONTINUOUS
 62
   179
 10
2544.2094959546
 20
331.0402848049
 30
0.0
  0
VERTEX
  5
1E9
  8
0
  6
CONTINUOUS
 62
   179
 10
2544.2465567712
 20
331.2226427311
 30
0.0
  0
VERTEX
  5
1EA
  8
0
  6
CONTINUOUS
 62
   179
 10
2544.2754089139
 20
331.40551635
 30
0.0
  0
VERTEX
  5
1EB
  8
0
  6
CONTINUOUS
 62
   179
 10
2544.2960320926
 20
331.588777056
 30
0.0
  0
VERTEX
  5
1EC
  8
0
  6
CONTINUOUS
 62
   179
 10
2544.3084118039
 20
331.7722959713
 30
0.0
  0
VERTEX
  5
1ED
  8
0
  6
CONTINUOUS
 62
   179
 10
2544.3125393419
 20
331.9559440369
 30
0.0
  0
VERTEX
  5
1EE
  8
0
  6
CONTINUOUS
 62
   179
 10
2544.3084118039
 20
332.1395921024
 30
0.0
  0
VERTEX
  5
1EF
  8
0
  6
CONTINUOUS
 62
   179
 10
2544.2960320926
 20
332.3231110178
 30
0.0
  0
VERTEX
  5
1F0
  8
0
  6
CONTINUOUS
 62
   179
 10
2544.275408914
 20
332.5063717237
 30
0.0
  0
VERTEX
  5
1F1
  8
0
  6
CONTINUOUS
 62
   179
 10
2544.2465567713
 20
332.6892453426
 30
0.0
  0
VERTEX
  5
1F2
  8
0
  6
CONTINUOUS
 62
   179
 10
2544.2094959547
 20
332.8716032688
 30
0.0
  0
VERTEX
  5
1F3
  8
0
  6
CONTINUOUS
 62
   179
 10
2544.1642525271
 20
333.0533172596
 30
0.0
  0
VERTEX
  5
1F4
  8
0
  6
CONTINUOUS
 62
   179
 10
2544.110858306
 20
333.2342595249
 30
0.0
  0
VERTEX
  5
1F5
  8
0
  6
CONTINUOUS
 62
   179
 10
2544.0493508406
 20
333.4143028175
 30
0.0
  0
VERTEX
  5
1F6
  8
0
  6
CONTINUOUS
 62
   179
 10
2543.979773386
 20
333.5933205223
 30
0.0
  0
VERTEX
  5
1F7
  8
0
  6
CONTINUOUS
 62
   179
 10
2543.9021748724
 20
333.7711867455
 30
0.0
  0
VERTEX
  5
1F8
  8
0
  6
CONTINUOUS
 62
   179
 10
2543.8166098708
 20
333.9477764031
 30
0.0
  0
VERTEX
  5
1F9
  8
0
  6
CONTINUOUS
 62
   179
 10
2543.7231385545
 20
334.1229653086
 30
0.0
  0
VERTEX
  5
1FA
  8
0
  6
CONTINUOUS
 62
   179
 10
2543.6218266571
 20
334.296630261
 30
0.0
  0
VERTEX
  5
1FB
  8
0
  6
CONTINUOUS
 62
   179
 10
2543.512745426
 20
334.4686491306
 30
0.0
  0
VERTEX
  5
1FC
  8
0
  6
CONTINUOUS
 62
   179
 10
2543.3959715723
 20
334.6389009455
 30
0.0
  0
VERTEX
  5
1FD
  8
0
  6
CONTINUOUS
 62
   179
 10
2543.271587217
 20
334.8072659766
 30
0.0
  0
VERTEX
  5
1FE
  8
0
  6
CONTINUOUS
 62
   179
 10
2543.1396798332
 20
334.9736258214
 30
0.0
  0
VERTEX
  5
1FF
  8
0
  6
CONTINUOUS
 62
   179
 10
2543.0003421843
 20
335.1378634878
 30
0.0
  0
VERTEX
  5
200
  8
0
  6
CONTINUOUS
 62
   179
 10
2542.8536722594
 20
335.2998634759
 30
0.0
  0
VERTEX
  5
201
  8
0
  6
CONTINUOUS
 62
   179
 10
2542.6997732038
 20
335.4595118596
 30
0.0
  0
VERTEX
  5
202
  8
0
  6
CONTINUOUS
 62
   179
 10
2542.5387532466
 20
335.6166963665
 30
0.0
  0
VERTEX
  5
203
  8
0
  6
CONTINUOUS
 62
   179
 10
2542.3707256248
 20
335.7713064569
 30
0.0
  0
VERTEX
  5
204
  8
0
  6
CONTINUOUS
 62
   179
 10
2542.1958085034
 20
335.9232334017
 30
0.0
  0
VERTEX
  5
205
  8
0
  6
CONTINUOUS
 62
   179
 10
2542.0141248927
 20
336.0723703584
 30
0.0
  0
VERTEX
  5
206
  8
0
  6
CONTINUOUS
 62
   179
 10
2541.8258025611
 20
336.2186124468
 30
0.0
  0
SEQEND
  5
3BB
  8
0
  6
CONTINUOUS
 62
   179
  0
POLYLINE
  5
DD
  8
0
  6
CONTINUOUS
 62
   179
 66
     1
 10
0.0
 20
0.0
 30
0.0
 70
   128
  0
VERTEX
  5
207
  8
0
  6
CONTINUOUS
 62
   179
 10
2550.6476772967
 20
322.8297821468
 30
0.0
  0
VERTEX
  5
208
  8
0
  6
CONTINUOUS
 62
   179
 10
2551.1929108863
 20
322.9953434899
 30
0.0
  0
VERTEX
  5
209
  8
0
  6
CONTINUOUS
 62
   179
 10
2551.7289501333
 20
323.1678486721
 30
0.0
  0
VERTEX
  5
20A
  8
0
  6
CONTINUOUS
 62
   179
 10
2552.2554206138
 20
323.3471771984
 30
0.0
  0
VERTEX
  5
20B
  8
0
  6
CONTINUOUS
 62
   179
 10
2552.7719545876
 20
323.5332038076
 30
0.0
  0
VERTEX
  5
20C
  8
0
  6
CONTINUOUS
 62
   179
 10
2553.2781912552
 20
323.72579856
 30
0.0
  0
VERTEX
  5
20D
  8
0
  6
CONTINUOUS
 62
   179
 10
2553.7737770098
 20
323.9248269279
 30
0.0
  0
VERTEX
  5
20E
  8
0
  6
CONTINUOUS
 62
   179
 10
2554.2583656842
 20
324.1301498898
 30
0.0
  0
VERTEX
  5
20F
  8
0
  6
CONTINUOUS
 62
   179
 10
2554.7316187929
 20
324.3416240275
 30
0.0
  0
VERTEX
  5
210
  8
0
  6
CONTINUOUS
 62
   179
 10
2555.1932057681
 20
324.5591016261
 30
0.0
  0
VERTEX
  5
211
  8
0
  6
CONTINUOUS
 62
   179
 10
2555.6428041907
 20
324.7824307772
 30
0.0
  0
VERTEX
  5
212
  8
0
  6
CONTINUOUS
 62
   179
 10
2556.0801000159
 20
325.0114554852
 30
0.0
  0
VERTEX
  5
213
  8
0
  6
CONTINUOUS
 62
   179
 10
2556.5047877921
 20
325.2460157762
 30
0.0
  0
VERTEX
  5
214
  8
0
  6
CONTINUOUS
 62
   179
 10
2556.9165708745
 20
325.4859478094
 30
0.0
  0
VERTEX
  5
215
  8
0
  6
CONTINUOUS
 62
   179
 10
2557.3151616322
 20
325.7310839923
 30
0.0
  0
VERTEX
  5
216
  8
0
  6
CONTINUOUS
 62
   179
 10
2557.7002816492
 20
325.9812530969
 30
0.0
  0
VERTEX
  5
217
  8
0
  6
CONTINUOUS
 62
   179
 10
2558.0716619187
 20
326.2362803798
 30
0.0
  0
VERTEX
  5
218
  8
0
  6
CONTINUOUS
 62
   179
 10
2558.4290430313
 20
326.4959877042
 30
0.0
  0
VERTEX
  5
219
  8
0
  6
CONTINUOUS
 62
   179
 10
2558.7721753559
 20
326.7601936644
 30
0.0
  0
VERTEX
  5
21A
  8
0
  6
CONTINUOUS
 62
   179
 10
2559.1008192142
 20
327.0287137122
 30
0.0
  0
VERTEX
  5
21B
  8
0
  6
CONTINUOUS
 62
   179
 10
2559.4147450483
 20
327.3013602861
 30
0.0
  0
VERTEX
  5
21C
  8
0
  6
CONTINUOUS
 62
   179
 10
2559.7137335806
 20
327.5779429421
 30
0.0
  0
VERTEX
  5
21D
  8
0
  6
CONTINUOUS
 62
   179
 10
2559.9975759673
 20
327.8582684871
 30
0.0
  0
VERTEX
  5
21E
  8
0
  6
CONTINUOUS
 62
   179
 10
2560.2660739442
 20
328.1421411134
 30
0.0
  0
VERTEX
  5
21F
  8
0
  6
CONTINUOUS
 62
   179
 10
2560.5190399652
 20
328.4293625357
 30
0.0
  0
VERTEX
  5
220
  8
0
  6
CONTINUOUS
 62
   179
 10
2560.7562973334
 20
328.7197321294
 30
0.0
  0
VERTEX
  5
221
  8
0
  6
CONTINUOUS
 62
   179
 10
2560.9776803242
 20
329.0130470712
 30
0.0
  0
VERTEX
  5
222
  8
0
  6
CONTINUOUS
 62
   179
 10
2561.1830343013
 20
329.3091024804
 30
0.0
  0
VERTEX
  5
223
  8
0
  6
CONTINUOUS
 62
   179
 10
2561.372215825
 20
329.6076915618
 30
0.0
  0
VERTEX
  5
224
  8
0
  6
CONTINUOUS
 62
   179
 10
2561.5450927515
 20
329.9086057508
 30
0.0
  0
VERTEX
  5
225
  8
0
  6
CONTINUOUS
 62
   179
 10
2561.7015443263
 20
330.2116348585
 30
0.0
  0
VERTEX
  5
226
  8
0
  6
CONTINUOUS
 62
   179
 10
2561.8414612678
 20
330.5165672187
 30
0.0
  0
VERTEX
  5
227
  8
0
  6
CONTINUOUS
 62
   179
 10
2561.9647458438
 20
330.823189836
 30
0.0
  0
VERTEX
  5
228
  8
0
  6
CONTINUOUS
 62
   179
 10
2562.07131194
 20
331.131288534
 30
0.0
  0
VERTEX
  5
229
  8
0
  6
CONTINUOUS
 62
   179
 10
2562.1610851198
 20
331.4406481057
 30
0.0
  0
VERTEX
  5
22A
  8
0
  6
CONTINUOUS
 62
   179
 10
2562.2340026766
 20
331.7510524629
 30
0.0
  0
VERTEX
  5
22B
  8
0
  6
CONTINUOUS
 62
   179
 10
2562.2900136774
 20
332.0622847881
 30
0.0
  0
VERTEX
  5
22C
  8
0
  6
CONTINUOUS
 62
   179
 10
2562.3290789985
 20
332.374127685
 30
0.0
  0
VERTEX
  5
22D
  8
0
  6
CONTINUOUS
 62
   179
 10
2562.3511713526
 20
332.6863633311
 30
0.0
  0
VERTEX
  5
22E
  8
0
  6
CONTINUOUS
 62
   179
 10
2562.3562753084
 20
332.9987736295
 30
0.0
  0
VERTEX
  5
22F
  8
0
  6
CONTINUOUS
 62
   179
 10
2562.3443873005
 20
333.3111403614
 30
0.0
  0
VERTEX
  5
230
  8
0
  6
CONTINUOUS
 62
   179
 10
2562.3155156329
 20
333.6232453381
 30
0.0
  0
VERTEX
  5
231
  8
0
  6
CONTINUOUS
 62
   179
 10
2562.2696804724
 20
333.9348705543
 30
0.0
  0
VERTEX
  5
232
  8
0
  6
CONTINUOUS
 62
   179
 10
2562.2069138349
 20
334.2457983392
 30
0.0
  0
VERTEX
  5
233
  8
0
  6
CONTINUOUS
 62
   179
 10
2562.127259563
 20
334.5558115095
 30
0.0
  0
VERTEX
  5
234
  8
0
  6
CONTINUOUS
 62
   179
 10
2562.0307732953
 20
334.8646935208
 30
0.0
  0
VERTEX
  5
235
  8
0
  6
CONTINUOUS
 62
   179
 10
2561.9175224274
 20
335.1722286186
 30
0.0
  0
VERTEX
  5
236
  8
0
  6
CONTINUOUS
 62
   179
 10
2561.7875860654
 20
335.4782019894
 30
0.0
  0
VERTEX
  5
237
  8
0
  6
CONTINUOUS
 62
   179
 10
2561.6410549698
 20
335.7823999105
 30
0.0
  0
VERTEX
  5
238
  8
0
  6
CONTINUOUS
 62
   179
 10
2561.4780314927
 20
336.0846098993
 30
0.0
  0
VERTEX
  5
239
  8
0
  6
CONTINUOUS
 62
   179
 10
2561.2986295062
 20
336.3846208619
 30
0.0
  0
VERTEX
  5
23A
  8
0
  6
CONTINUOUS
 62
   179
 10
2561.1029743228
 20
336.6822232404
 30
0.0
  0
VERTEX
  5
23B
  8
0
  6
CONTINUOUS
 62
   179
 10
2560.8912026078
 20
336.9772091591
 30
0.0
  0
VERTEX
  5
23C
  8
0
  6
CONTINUOUS
 62
   179
 10
2560.6634622839
 20
337.2693725701
 30
0.0
  0
VERTEX
  5
23D
  8
0
  6
CONTINUOUS
 62
   179
 10
2560.4199124281
 20
337.558509397
 30
0.0
  0
VERTEX
  5
23E
  8
0
  6
CONTINUOUS
 62
   179
 10
2560.16072316
 20
337.8444176774
 30
0.0
  0
VERTEX
  5
23F
  8
0
  6
CONTINUOUS
 62
   179
 10
2559.8860755237
 20
338.1268977041
 30
0.0
  0
VERTEX
  5
240
  8
0
  6
CONTINUOUS
 62
   179
 10
2559.5961613608
 20
338.4057521646
 30
0.0
  0
VERTEX
  5
241
  8
0
  6
CONTINUOUS
 62
   179
 10
2559.2911831767
 20
338.6807862788
 30
0.0
  0
VERTEX
  5
242
  8
0
  6
CONTINUOUS
 62
   179
 10
2558.9713539988
 20
338.9518079349
 30
0.0
  0
VERTEX
  5
243
  8
0
  6
CONTINUOUS
 62
   179
 10
2558.6368972282
 20
339.2186278242
 30
0.0
  0
VERTEX
  5
244
  8
0
  6
CONTINUOUS
 62
   179
 10
2558.2880464832
 20
339.4810595727
 30
0.0
  0
VERTEX
  5
245
  8
0
  6
CONTINUOUS
 62
   179
 10
2557.9250454366
 20
339.7389198716
 30
0.0
  0
VERTEX
  5
246
  8
0
  6
CONTINUOUS
 62
   179
 10
2557.5481476447
 20
339.9920286051
 30
0.0
  0
VERTEX
  5
247
  8
0
  6
CONTINUOUS
 62
   179
 10
2557.1576163711
 20
340.2402089767
 30
0.0
  0
VERTEX
  5
248
  8
0
  6
CONTINUOUS
 62
   179
 10
2556.7537244024
 20
340.483287632
 30
0.0
  0
VERTEX
  5
249
  8
0
  6
CONTINUOUS
 62
   179
 10
2556.3367538573
 20
340.7210947804
 30
0.0
  0
VERTEX
  5
24A
  8
0
  6
CONTINUOUS
 62
   179
 10
2555.9069959903
 20
340.9534643133
 30
0.0
  0
VERTEX
  5
24B
  8
0
  6
CONTINUOUS
 62
   179
 10
2555.4647509876
 20
341.1802339205
 30
0.0
  0
VERTEX
  5
24C
  8
0
  6
CONTINUOUS
 62
   179
 10
2555.0103277578
 20
341.401245203
 30
0.0
  0
VERTEX
  5
24D
  8
0
  6
CONTINUOUS
 62
   179
 10
2554.544043716
 20
341.6163437844
 30
0.0
  0
VERTEX
  5
24E
  8
0
  6
CONTINUOUS
 62
   179
 10
2554.0662245621
 20
341.8253794181
 30
0.0
  0
VERTEX
  5
24F
  8
0
  6
CONTINUOUS
 62
   179
 10
2553.5772040531
 20
342.0282060924
 30
0.0
  0
VERTEX
  5
250
  8
0
  6
CONTINUOUS
 62
   179
 10
2553.0773237704
 20
342.2246821327
 30
0.0
  0
VERTEX
  5
251
  8
0
  6
CONTINUOUS
 62
   179
 10
2552.5669328808
 20
342.4146703004
 30
0.0
  0
VERTEX
  5
252
  8
0
  6
CONTINUOUS
 62
   179
 10
2552.0463878929
 20
342.5980378885
 30
0.0
  0
VERTEX
  5
253
  8
0
  6
CONTINUOUS
 62
   179
 10
2551.5160524079
 20
342.7746568145
 30
0.0
  0
VERTEX
  5
254
  8
0
  6
CONTINUOUS
 62
   179
 10
2550.9762968655
 20
342.94440371
 30
0.0
  0
VERTEX
  5
255
  8
0
  6
CONTINUOUS
 62
   179
 10
2550.4274982857
 20
343.1071600066
 30
0.0
  0
VERTEX
  5
256
  8
0
  6
CONTINUOUS
 62
   179
 10
2549.8700400047
 20
343.2628120189
 30
0.0
  0
VERTEX
  5
257
  8
0
  6
CONTINUOUS
 62
   179
 10
2549.3043114077
 20
343.4112510238
 30
0.0
  0
VERTEX
  5
258
  8
0
  6
CONTINUOUS
 62
   179
 10
2548.7307076566
 20
343.5523733365
 30
0.0
  0
VERTEX
  5
259
  8
0
  6
CONTINUOUS
 62
   179
 10
2548.1496294143
 20
343.6860803828
 30
0.0
  0
VERTEX
  5
25A
  8
0
  6
CONTINUOUS
 62
   179
 10
2547.5614825644
 20
343.8122787685
 30
0.0
  0
VERTEX
  5
25B
  8
0
  6
CONTINUOUS
 62
   179
 10
2546.9666779281
 20
343.9308803436
 30
0.0
  0
VERTEX
  5
25C
  8
0
  6
CONTINUOUS
 62
   179
 10
2546.3656309771
 20
344.041802265
 30
0.0
  0
VERTEX
  5
25D
  8
0
  6
CONTINUOUS
 62
   179
 10
2545.7587615431
 20
344.1449670534
 30
0.0
  0
VERTEX
  5
25E
  8
0
  6
CONTINUOUS
 62
   179
 10
2545.1464935252
 20
344.2403026484
 30
0.0
  0
VERTEX
  5
25F
  8
0
  6
CONTINUOUS
 62
   179
 10
2544.5292545931
 20
344.3277424577
 30
0.0
  0
VERTEX
  5
260
  8
0
  6
CONTINUOUS
 62
   179
 10
2543.9074758887
 20
344.4072254047
 30
0.0
  0
VERTEX
  5
261
  8
0
  6
CONTINUOUS
 62
   179
 10
2543.2815917252
 20
344.4786959704
 30
0.0
  0
VERTEX
  5
262
  8
0
  6
CONTINUOUS
 62
   179
 10
2542.6520392832
 20
344.5421042326
 30
0.0
  0
SEQEND
  5
3BC
  8
0
  6
CONTINUOUS
 62
   179
  0
POLYLINE
  5
DE
  8
0
  6
CONTINUOUS
 62
   179
 66
     1
 10
0.0
 20
0.0
 30
0.0
 70
   128
  0
VERTEX
  5
263
  8
0
  6
CONTINUOUS
 62
   179
 10
2472.0715260017
 20
304.8670971877
 30
0.0
  0
VERTEX
  5
264
  8
0
  6
CONTINUOUS
 62
   179
 10
2472.8237154322
 20
304.9396579208
 30
0.0
  0
VERTEX
  5
265
  8
0
  6
CONTINUOUS
 62
   179
 10
2473.5728930095
 20
305.0258913853
 30
0.0
  0
VERTEX
  5
266
  8
0
  6
CONTINUOUS
 62
   179
 10
2474.3185412013
 20
305.1257380109
 30
0.0
  0
VERTEX
  5
267
  8
0
  6
CONTINUOUS
 62
   179
 10
2475.0601449137
 20
305.2391288236
 30
0.0
  0
VERTEX
  5
268
  8
0
  6
CONTINUOUS
 62
   179
 10
2475.7971918465
 20
305.365985493
 30
0.0
  0
VERTEX
  5
269
  8
0
  6
CONTINUOUS
 62
   179
 10
2476.5291728473
 20
305.5062203864
 30
0.0
  0
VERTEX
  5
26A
  8
0
  6
CONTINUOUS
 62
   179
 10
2477.2555822636
 20
305.6597366296
 30
0.0
  0
VERTEX
  5
26B
  8
0
  6
CONTINUOUS
 62
   179
 10
2477.9759182912
 20
305.8264281733
 30
0.0
  0
VERTEX
  5
26C
  8
0
  6
CONTINUOUS
 62
   179
 10
2478.6896833219
 20
306.0061798672
 30
0.0
  0
VERTEX
  5
26D
  8
0
  6
CONTINUOUS
 62
   179
 10
2479.3963842865
 20
306.1988675385
 30
0.0
  0
VERTEX
  5
26E
  8
0
  6
CONTINUOUS
 62
   179
 10
2480.0955329956
 20
306.4043580786
 30
0.0
  0
VERTEX
  5
26F
  8
0
  6
CONTINUOUS
 62
   179
 10
2480.7866464772
 20
306.6225095346
 30
0.0
  0
VERTEX
  5
270
  8
0
  6
CONTINUOUS
 62
   179
 10
2481.4692473096
 20
306.8531712073
 30
0.0
  0
VERTEX
  5
271
  8
0
  6
CONTINUOUS
 62
   179
 10
2482.1428639521
 20
307.0961837556
 30
0.0
  0
VERTEX
  5
272
  8
0
  6
CONTINUOUS
 62
   179
 10
2482.80703107
 20
307.3513793063
 30
0.0
  0
VERTEX
  5
273
  8
0
  6
CONTINUOUS
 62
   179
 10
2483.4612898563
 20
307.6185815702
 30
0.0
  0
VERTEX
  5
274
  8
0
  6
CONTINUOUS
 62
   179
 10
2484.1051883488
 20
307.897605964
 30
0.0
  0
VERTEX
  5
275
  8
0
  6
CONTINUOUS
 62
   179
 10
2484.7382817423
 20
308.1882597373
 30
0.0
  0
VERTEX
  5
276
  8
0
  6
CONTINUOUS
 62
   179
 10
2485.3601326955
 20
308.4903421066
 30
0.0
  0
VERTEX
  5
277
  8
0
  6
CONTINUOUS
 62
   179
 10
2485.9703116337
 20
308.8036443931
 30
0.0
  0
VERTEX
  5
278
  8
0
  6
CONTINUOUS
 62
   179
 10
2486.5683970448
 20
309.1279501676
 30
0.0
  0
VERTEX
  5
279
  8
0
  6
CONTINUOUS
 62
   179
 10
2487.1539757714
 20
309.4630353995
 30
0.0
  0
VERTEX
  5
27A
  8
0
  6
CONTINUOUS
 62
   179
 10
2487.7266432954
 20
309.8086686118
 30
0.0
  0
VERTEX
  5
27B
  8
0
  6
CONTINUOUS
 62
   179
 10
2488.2860040178
 20
310.1646110409
 30
0.0
  0
VERTEX
  5
27C
  8
0
  6
CONTINUOUS
 62
   179
 10
2488.8316715321
 20
310.5306168016
 30
0.0
  0
VERTEX
  5
27D
  8
0
  6
CONTINUOUS
 62
   179
 10
2489.3632688909
 20
310.9064330571
 30
0.0
  0
VERTEX
  5
27E
  8
0
  6
CONTINUOUS
 62
   179
 10
2489.8804288666
 20
311.2918001933
 30
0.0
  0
VERTEX
  5
27F
  8
0
  6
CONTINUOUS
 62
   179
 10
2490.3827942048
 20
311.6864519985
 30
0.0
  0
VERTEX
  5
280
  8
0
  6
CONTINUOUS
 62
   179
 10
2490.8700178714
 20
312.090115847
 30
0.0
  0
VERTEX
  5
281
  8
0
  6
CONTINUOUS
 62
   179
 10
2491.3417632921
 20
312.5025128877
 30
0.0
  0
VERTEX
  5
282
  8
0
  6
CONTINUOUS
 62
   179
 10
2491.797704585
 20
312.9233582366
 30
0.0
  0
VERTEX
  5
283
  8
0
  6
CONTINUOUS
 62
   179
 10
2492.2375267856
 20
313.3523611735
 30
0.0
  0
VERTEX
  5
284
  8
0
  6
CONTINUOUS
 62
   179
 10
2492.6609260646
 20
313.7892253431
 30
0.0
  0
VERTEX
  5
285
  8
0
  6
CONTINUOUS
 62
   179
 10
2493.0676099376
 20
314.2336489593
 30
0.0
  0
VERTEX
  5
286
  8
0
  6
CONTINUOUS
 62
   179
 10
2493.4572974673
 20
314.6853250143
 30
0.0
  0
VERTEX
  5
287
  8
0
  6
CONTINUOUS
 62
   179
 10
2493.8297194573
 20
315.14394149
 30
0.0
  0
VERTEX
  5
288
  8
0
  6
CONTINUOUS
 62
   179
 10
2494.1846186384
 20
315.6091815739
 30
0.0
  0
VERTEX
  5
289
  8
0
  6
CONTINUOUS
 62
   179
 10
2494.5217498462
 20
316.0807238781
 30
0.0
  0
VERTEX
  5
28A
  8
0
  6
CONTINUOUS
 62
   179
 10
2494.8408801901
 20
316.5582426609
 30
0.0
  0
VERTEX
  5
28B
  8
0
  6
CONTINUOUS
 62
   179
 10
2495.1417892149
 20
317.0414080522
 30
0.0
  0
VERTEX
  5
28C
  8
0
  6
CONTINUOUS
 62
   179
 10
2495.4242690526
 20
317.5298862812
 30
0.0
  0
VERTEX
  5
28D
  8
0
  6
CONTINUOUS
 62
   179
 10
2495.6881245658
 20
318.0233399068
 30
0.0
  0
VERTEX
  5
28E
  8
0
  6
CONTINUOUS
 62
   179
 10
2495.9331734832
 20
318.5214280512
 30
0.0
  0
VERTEX
  5
28F
  8
0
  6
CONTINUOUS
 62
   179
 10
2496.1592465248
 20
319.0238066348
 30
0.0
  0
VERTEX
  5
290
  8
0
  6
CONTINUOUS
 62
   179
 10
2496.3661875193
 20
319.5301286144
 30
0.0
  0
VERTEX
  5
291
  8
0
  6
CONTINUOUS
 62
   179
 10
2496.5538535118
 20
320.0400442225
 30
0.0
  0
VERTEX
  5
292
  8
0
  6
CONTINUOUS
 62
   179
 10
2496.7221148626
 20
320.5532012092
 30
0.0
  0
VERTEX
  5
293
  8
0
  6
CONTINUOUS
 62
   179
 10
2496.8708553366
 20
321.0692450855
 30
0.0
  0
VERTEX
  5
294
  8
0
  6
CONTINUOUS
 62
   179
 10
2496.9999721838
 20
321.587819368
 30
0.0
  0
VERTEX
  5
295
  8
0
  6
CONTINUOUS
 62
   179
 10
2497.1093762104
 20
322.1085658255
 30
0.0
  0
VERTEX
  5
296
  8
0
  6
CONTINUOUS
 62
   179
 10
2497.1989918398
 20
322.6311247262
 30
0.0
  0
VERTEX
  5
297
  8
0
  6
CONTINUOUS
 62
   179
 10
2497.2687571658
 20
323.155135086
 30
0.0
  0
VERTEX
  5
298
  8
0
  6
CONTINUOUS
 62
   179
 10
2497.3186239942
 20
323.6802349185
 30
0.0
  0
VERTEX
  5
299
  8
0
  6
CONTINUOUS
 62
   179
 10
2497.3485578771
 20
324.2060614844
 30
0.0
  0
VERTEX
  5
29A
  8
0
  6
CONTINUOUS
 62
   179
 10
2497.3585381362
 20
324.7322515427
 30
0.0
  0
VERTEX
  5
29B
  8
0
  6
CONTINUOUS
 62
   179
 10
2497.3485578771
 20
325.2584416009
 30
0.0
  0
VERTEX
  5
29C
  8
0
  6
CONTINUOUS
 62
   179
 10
2497.3186239942
 20
325.7842681669
 30
0.0
  0
VERTEX
  5
29D
  8
0
  6
CONTINUOUS
 62
   179
 10
2497.2687571657
 20
326.3093679994
 30
0.0
  0
VERTEX
  5
29E
  8
0
  6
CONTINUOUS
 62
   179
 10
2497.1989918398
 20
326.8333783592
 30
0.0
  0
VERTEX
  5
29F
  8
0
  6
CONTINUOUS
 62
   179
 10
2497.1093762103
 20
327.3559372598
 30
0.0
  0
VERTEX
  5
2A0
  8
0
  6
CONTINUOUS
 62
   179
 10
2496.9999721838
 20
327.8766837173
 30
0.0
  0
VERTEX
  5
2A1
  8
0
  6
CONTINUOUS
 62
   179
 10
2496.8708553365
 20
328.3952579999
 30
0.0
  0
VERTEX
  5
2A2
  8
0
  6
CONTINUOUS
 62
   179
 10
2496.7221148626
 20
328.9113018762
 30
0.0
  0
VERTEX
  5
2A3
  8
0
  6
CONTINUOUS
 62
   179
 10
2496.5538535118
 20
329.4244588629
 30
0.0
  0
VERTEX
  5
2A4
  8
0
  6
CONTINUOUS
 62
   179
 10
2496.3661875193
 20
329.934374471
 30
0.0
  0
VERTEX
  5
2A5
  8
0
  6
CONTINUOUS
 62
   179
 10
2496.1592465248
 20
330.4406964505
 30
0.0
  0
VERTEX
  5
2A6
  8
0
  6
CONTINUOUS
 62
   179
 10
2495.9331734831
 20
330.9430750342
 30
0.0
  0
VERTEX
  5
2A7
  8
0
  6
CONTINUOUS
 62
   179
 10
2495.6881245658
 20
331.4411631785
 30
0.0
  0
VERTEX
  5
2A8
  8
0
  6
CONTINUOUS
 62
   179
 10
2495.4242690525
 20
331.9346168042
 30
0.0
  0
VERTEX
  5
2A9
  8
0
  6
CONTINUOUS
 62
   179
 10
2495.1417892149
 20
332.4230950331
 30
0.0
  0
VERTEX
  5
2AA
  8
0
  6
CONTINUOUS
 62
   179
 10
2494.84088019
 20
332.9062604244
 30
0.0
  0
VERTEX
  5
2AB
  8
0
  6
CONTINUOUS
 62
   179
 10
2494.5217498461
 20
333.3837792072
 30
0.0
  0
VERTEX
  5
2AC
  8
0
  6
CONTINUOUS
 62
   179
 10
2494.1846186383
 20
333.8553215114
 30
0.0
  0
VERTEX
  5
2AD
  8
0
  6
CONTINUOUS
 62
   179
 10
2493.8297194572
 20
334.3205615954
 30
0.0
  0
VERTEX
  5
2AE
  8
0
  6
CONTINUOUS
 62
   179
 10
2493.4572974672
 20
334.779178071
 30
0.0
  0
VERTEX
  5
2AF
  8
0
  6
CONTINUOUS
 62
   179
 10
2493.0676099375
 20
335.230854126
 30
0.0
  0
VERTEX
  5
2B0
  8
0
  6
CONTINUOUS
 62
   179
 10
2492.6609260645
 20
335.6752777423
 30
0.0
  0
VERTEX
  5
2B1
  8
0
  6
CONTINUOUS
 62
   179
 10
2492.2375267855
 20
336.1121419118
 30
0.0
  0
VERTEX
  5
2B2
  8
0
  6
CONTINUOUS
 62
   179
 10
2491.7977045848
 20
336.5411448487
 30
0.0
  0
VERTEX
  5
2B3
  8
0
  6
CONTINUOUS
 62
   179
 10
2491.341763292
 20
336.9619901976
 30
0.0
  0
VERTEX
  5
2B4
  8
0
  6
CONTINUOUS
 62
   179
 10
2490.8700178713
 20
337.3743872383
 30
0.0
  0
VERTEX
  5
2B5
  8
0
  6
CONTINUOUS
 62
   179
 10
2490.3827942047
 20
337.7780510869
 30
0.0
  0
VERTEX
  5
2B6
  8
0
  6
CONTINUOUS
 62
   179
 10
2489.8804288665
 20
338.172702892
 30
0.0
  0
VERTEX
  5
2B7
  8
0
  6
CONTINUOUS
 62
   179
 10
2489.3632688908
 20
338.5580700282
 30
0.0
  0
VERTEX
  5
2B8
  8
0
  6
CONTINUOUS
 62
   179
 10
2488.831671532
 20
338.9338862837
 30
0.0
  0
VERTEX
  5
2B9
  8
0
  6
CONTINUOUS
 62
   179
 10
2488.2860040177
 20
339.2998920445
 30
0.0
  0
VERTEX
  5
2BA
  8
0
  6
CONTINUOUS
 62
   179
 10
2487.7266432953
 20
339.6558344736
 30
0.0
  0
VERTEX
  5
2BB
  8
0
  6
CONTINUOUS
 62
   179
 10
2487.1539757713
 20
340.0014676858
 30
0.0
  0
VERTEX
  5
2BC
  8
0
  6
CONTINUOUS
 62
   179
 10
2486.5683970447
 20
340.3365529177
 30
0.0
  0
VERTEX
  5
2BD
  8
0
  6
CONTINUOUS
 62
   179
 10
2485.9703116335
 20
340.6608586922
 30
0.0
  0
VERTEX
  5
2BE
  8
0
  6
CONTINUOUS
 62
   179
 10
2485.3601326954
 20
340.9741609787
 30
0.0
  0
VERTEX
  5
2BF
  8
0
  6
CONTINUOUS
 62
   179
 10
2484.7382817421
 20
341.276243348
 30
0.0
  0
VERTEX
  5
2C0
  8
0
  6
CONTINUOUS
 62
   179
 10
2484.1051883487
 20
341.5668971213
 30
0.0
  0
VERTEX
  5
2C1
  8
0
  6
CONTINUOUS
 62
   179
 10
2483.4612898561
 20
341.8459215151
 30
0.0
  0
VERTEX
  5
2C2
  8
0
  6
CONTINUOUS
 62
   179
 10
2482.8070310698
 20
342.113123779
 30
0.0
  0
VERTEX
  5
2C3
  8
0
  6
CONTINUOUS
 62
   179
 10
2482.1428639519
 20
342.3683193297
 30
0.0
  0
VERTEX
  5
2C4
  8
0
  6
CONTINUOUS
 62
   179
 10
2481.4692473095
 20
342.611331878
 30
0.0
  0
VERTEX
  5
2C5
  8
0
  6
CONTINUOUS
 62
   179
 10
2480.786646477
 20
342.8419935507
 30
0.0
  0
VERTEX
  5
2C6
  8
0
  6
CONTINUOUS
 62
   179
 10
2480.0955329955
 20
343.0601450067
 30
0.0
  0
VERTEX
  5
2C7
  8
0
  6
CONTINUOUS
 62
   179
 10
2479.3963842863
 20
343.2656355468
 30
0.0
  0
VERTEX
  5
2C8
  8
0
  6
CONTINUOUS
 62
   179
 10
2478.6896833217
 20
343.4583232181
 30
0.0
  0
VERTEX
  5
2C9
  8
0
  6
CONTINUOUS
 62
   179
 10
2477.975918291
 20
343.6380749119
 30
0.0
  0
VERTEX
  5
2CA
  8
0
  6
CONTINUOUS
 62
   179
 10
2477.2555822634
 20
343.8047664557
 30
0.0
  0
VERTEX
  5
2CB
  8
0
  6
CONTINUOUS
 62
   179
 10
2476.5291728472
 20
343.9582826988
 30
0.0
  0
VERTEX
  5
2CC
  8
0
  6
CONTINUOUS
 62
   179
 10
2475.7971918463
 20
344.0985175923
 30
0.0
  0
VERTEX
  5
2CD
  8
0
  6
CONTINUOUS
 62
   179
 10
2475.0601449135
 20
344.2253742616
 30
0.0
  0
VERTEX
  5
2CE
  8
0
  6
CONTINUOUS
 62
   179
 10
2474.3185412011
 20
344.3387650743
 30
0.0
  0
VERTEX
  5
2CF
  8
0
  6
CONTINUOUS
 62
   179
 10
2473.5728930093
 20
344.4386117
 30
0.0
  0
VERTEX
  5
2D0
  8
0
  6
CONTINUOUS
 62
   179
 10
2472.8237154321
 20
344.5248451644
 30
0.0
  0
SEQEND
  5
3BD
  8
0
  6
CONTINUOUS
 62
   179
  0
POLYLINE
  5
DF
  8
0
  6
CONTINUOUS
 62
   179
 66
     1
 10
0.0
 20
0.0
 30
0.0
 70
   128
  0
VERTEX
  5
2D1
  8
0
  6
CONTINUOUS
 62
   179
 10
2356.6479108724
 20
319.3144821747
 30
0.0
  0
VERTEX
  5
2D2
  8
0
  6
CONTINUOUS
 62
   179
 10
2357.3411620224
 20
319.3884676198
 30
0.0
  0
VERTEX
  5
2D3
  8
0
  6
CONTINUOUS
 62
   179
 10
2358.0301062517
 20
319.4710962608
 30
0.0
  0
VERTEX
  5
2D4
  8
0
  6
CONTINUOUS
 62
   179
 10
2358.7142697438
 20
319.5623112705
 30
0.0
  0
VERTEX
  5
2D5
  8
0
  6
CONTINUOUS
 62
   179
 10
2359.3931819698
 20
319.6620499162
 30
0.0
  0
VERTEX
  5
2D6
  8
0
  6
CONTINUOUS
 62
   179
 10
2360.0663760126
 20
319.7702436036
 30
0.0
  0
VERTEX
  5
2D7
  8
0
  6
CONTINUOUS
 62
   179
 10
2360.7333888875
 20
319.886817923
 30
0.0
  0
VERTEX
  5
2D8
  8
0
  6
CONTINUOUS
 62
   179
 10
2361.393761861
 20
320.0116927013
 30
0.0
  0
VERTEX
  5
2D9
  8
0
  6
CONTINUOUS
 62
   179
 10
2362.0470407661
 20
320.1447820567
 30
0.0
  0
VERTEX
  5
2DA
  8
0
  6
CONTINUOUS
 62
   179
 10
2362.6927763147
 20
320.2859944579
 30
0.0
  0
VERTEX
  5
2DB
  8
0
  6
CONTINUOUS
 62
   179
 10
2363.3305244066
 20
320.4352327871
 30
0.0
  0
VERTEX
  5
2DC
  8
0
  6
CONTINUOUS
 62
   179
 10
2363.959846435
 20
320.5923944066
 30
0.0
  0
VERTEX
  5
2DD
  8
0
  6
CONTINUOUS
 62
   179
 10
2364.5803095878
 20
320.7573712296
 30
0.0
  0
VERTEX
  5
2DE
  8
0
  6
CONTINUOUS
 62
   179
 10
2365.1914871458
 20
320.9300497945
 30
0.0
  0
VERTEX
  5
2DF
  8
0
  6
CONTINUOUS
 62
   179
 10
2365.7929587759
 20
321.1103113426
 30
0.0
  0
VERTEX
  5
2E0
  8
0
  6
CONTINUOUS
 62
   179
 10
2366.38431082
 20
321.2980319004
 30
0.0
  0
VERTEX
  5
2E1
  8
0
  6
CONTINUOUS
 62
   179
 10
2366.9651365799
 20
321.4930823644
 30
0.0
  0
VERTEX
  5
2E2
  8
0
  6
CONTINUOUS
 62
   179
 10
2367.5350365964
 20
321.6953285898
 30
0.0
  0
VERTEX
  5
2E3
  8
0
  6
CONTINUOUS
 62
   179
 10
2368.093618925
 20
321.9046314834
 30
0.0
  0
VERTEX
  5
2E4
  8
0
  6
CONTINUOUS
 62
   179
 10
2368.6404994042
 20
322.1208470983
 30
0.0
  0
VERTEX
  5
2E5
  8
0
  6
CONTINUOUS
 62
   179
 10
2369.175301921
 20
322.3438267339
 30
0.0
  0
VERTEX
  5
2E6
  8
0
  6
CONTINUOUS
 62
   179
 10
2369.6976586684
 20
322.5734170373
 30
0.0
  0
VERTEX
  5
2E7
  8
0
  6
CONTINUOUS
 62
   179
 10
2370.2072103992
 20
322.8094601095
 30
0.0
  0
VERTEX
  5
2E8
  8
0
  6
CONTINUOUS
 62
   179
 10
2370.7036066727
 20
323.0517936135
 30
0.0
  0
VERTEX
  5
2E9
  8
0
  6
CONTINUOUS
 62
   179
 10
2371.1865060957
 20
323.3002508859
 30
0.0
  0
VERTEX
  5
2EA
  8
0
  6
CONTINUOUS
 62
   179
 10
2371.6555765575
 20
323.5546610521
 30
0.0
  0
VERTEX
  5
2EB
  8
0
  6
CONTINUOUS
 62
   179
 10
2372.1104954581
 20
323.8148491432
 30
0.0
  0
VERTEX
  5
2EC
  8
0
  6
CONTINUOUS
 62
   179
 10
2372.5509499301
 20
324.0806362165
 30
0.0
  0
VERTEX
  5
2ED
  8
0
  6
CONTINUOUS
 62
   179
 10
2372.9766370539
 20
324.351839479
 30
0.0
  0
VERTEX
  5
2EE
  8
0
  6
CONTINUOUS
 62
   179
 10
2373.3872640662
 20
324.6282724123
 30
0.0
  0
VERTEX
  5
2EF
  8
0
  6
CONTINUOUS
 62
   179
 10
2373.7825485611
 20
324.9097449016
 30
0.0
  0
VERTEX
  5
2F0
  8
0
  6
CONTINUOUS
 62
   179
 10
2374.1622186842
 20
325.1960633661
 30
0.0
  0
VERTEX
  5
2F1
  8
0
  6
CONTINUOUS
 62
   179
 10
2374.5260133202
 20
325.4870308923
 30
0.0
  0
VERTEX
  5
2F2
  8
0
  6
CONTINUOUS
 62
   179
 10
2374.8736822717
 20
325.7824473693
 30
0.0
  0
VERTEX
  5
2F3
  8
0
  6
CONTINUOUS
 62
   179
 10
2375.2049864318
 20
326.0821096264
 30
0.0
  0
VERTEX
  5
2F4
  8
0
  6
CONTINUOUS
 62
   179
 10
2375.5196979483
 20
326.3858115728
 30
0.0
  0
VERTEX
  5
2F5
  8
0
  6
CONTINUOUS
 62
   179
 10
2375.8176003805
 20
326.6933443398
 30
0.0
  0
VERTEX
  5
2F6
  8
0
  6
CONTINUOUS
 62
   179
 10
2376.0984888481
 20
327.0044964237
 30
0.0
  0
VERTEX
  5
2F7
  8
0
  6
CONTINUOUS
 62
   179
 10
2376.362170172
 20
327.3190538318
 30
0.0
  0
VERTEX
  5
2F8
  8
0
  6
CONTINUOUS
 62
   179
 10
2376.6084630071
 20
327.6368002294
 30
0.0
  0
VERTEX
  5
2F9
  8
0
  6
CONTINUOUS
 62
   179
 10
2376.8371979672
 20
327.9575170886
 30
0.0
  0
VERTEX
  5
2FA
  8
0
  6
CONTINUOUS
 62
   179
 10
2377.0482177413
 20
328.2809838386
 30
0.0
  0
VERTEX
  5
2FB
  8
0
  6
CONTINUOUS
 62
   179
 10
2377.2413772022
 20
328.6069780173
 30
0.0
  0
VERTEX
  5
2FC
  8
0
  6
CONTINUOUS
 62
   179
 10
2377.4165435057
 20
328.9352754245
 30
0.0
  0
VERTEX
  5
2FD
  8
0
  6
CONTINUOUS
 62
   179
 10
2377.5735961824
 20
329.2656502758
 30
0.0
  0
VERTEX
  5
2FE
  8
0
  6
CONTINUOUS
 62
   179
 10
2377.7124272203
 20
329.5978753583
 30
0.0
  0
VERTEX
  5
2FF
  8
0
  6
CONTINUOUS
 62
   179
 10
2377.8329411394
 20
329.9317221863
 30
0.0
  0
VERTEX
  5
300
  8
0
  6
CONTINUOUS
 62
   179
 10
2377.9350550571
 20
330.2669611591
 30
0.0
  0
VERTEX
  5
301
  8
0
  6
CONTINUOUS
 62
   179
 10
2378.0186987452
 20
330.6033617183
 30
0.0
  0
VERTEX
  5
302
  8
0
  6
CONTINUOUS
 62
   179
 10
2378.0838146783
 20
330.9406925067
 30
0.0
  0
VERTEX
  5
303
  8
0
  6
CONTINUOUS
 62
   179
 10
2378.1303580734
 20
331.2787215274
 30
0.0
  0
VERTEX
  5
304
  8
0
  6
CONTINUOUS
 62
   179
 10
2378.1582969206
 20
331.6172163033
 30
0.0
  0
VERTEX
  5
305
  8
0
  6
CONTINUOUS
 62
   179
 10
2378.1676120051
 20
331.9559440369
 30
0.0
  0
VERTEX
  5
306
  8
0
  6
CONTINUOUS
 62
   179
 10
2378.1582969206
 20
332.2946717704
 30
0.0
  0
VERTEX
  5
307
  8
0
  6
CONTINUOUS
 62
   179
 10
2378.1303580734
 20
332.6331665463
 30
0.0
  0
VERTEX
  5
308
  8
0
  6
CONTINUOUS
 62
   179
 10
2378.0838146783
 20
332.971195567
 30
0.0
  0
VERTEX
  5
309
  8
0
  6
CONTINUOUS
 62
   179
 10
2378.0186987452
 20
333.3085263554
 30
0.0
  0
VERTEX
  5
30A
  8
0
  6
CONTINUOUS
 62
   179
 10
2377.9350550571
 20
333.6449269146
 30
0.0
  0
VERTEX
  5
30B
  8
0
  6
CONTINUOUS
 62
   179
 10
2377.8329411395
 20
333.9801658874
 30
0.0
  0
VERTEX
  5
30C
  8
0
  6
CONTINUOUS
 62
   179
 10
2377.7124272204
 20
334.3140127155
 30
0.0
  0
VERTEX
  5
30D
  8
0
  6
CONTINUOUS
 62
   179
 10
2377.5735961825
 20
334.6462377979
 30
0.0
  0
VERTEX
  5
30E
  8
0
  6
CONTINUOUS
 62
   179
 10
2377.4165435058
 20
334.9766126493
 30
0.0
  0
VERTEX
  5
30F
  8
0
  6
CONTINUOUS
 62
   179
 10
2377.2413772023
 20
335.3049100564
 30
0.0
  0
VERTEX
  5
310
  8
0
  6
CONTINUOUS
 62
   179
 10
2377.0482177414
 20
335.6309042352
 30
0.0
  0
VERTEX
  5
311
  8
0
  6
CONTINUOUS
 62
   179
 10
2376.8371979673
 20
335.9543709851
 30
0.0
  0
VERTEX
  5
312
  8
0
  6
CONTINUOUS
 62
   179
 10
2376.6084630072
 20
336.2750878443
 30
0.0
  0
VERTEX
  5
313
  8
0
  6
CONTINUOUS
 62
   179
 10
2376.3621701721
 20
336.592834242
 30
0.0
  0
VERTEX
  5
314
  8
0
  6
CONTINUOUS
 62
   179
 10
2376.0984888483
 20
336.9073916501
 30
0.0
  0
VERTEX
  5
315
  8
0
  6
CONTINUOUS
 62
   179
 10
2375.8176003807
 20
337.2185437339
 30
0.0
  0
VERTEX
  5
316
  8
0
  6
CONTINUOUS
 62
   179
 10
2375.5196979485
 20
337.5260765009
 30
0.0
  0
VERTEX
  5
317
  8
0
  6
CONTINUOUS
 62
   179
 10
2375.204986432
 20
337.8297784474
 30
0.0
  0
VERTEX
  5
318
  8
0
  6
CONTINUOUS
 62
   179
 10
2374.8736822719
 20
338.1294407044
 30
0.0
  0
VERTEX
  5
319
  8
0
  6
CONTINUOUS
 62
   179
 10
2374.5260133204
 20
338.4248571814
 30
0.0
  0
VERTEX
  5
31A
  8
0
  6
CONTINUOUS
 62
   179
 10
2374.1622186844
 20
338.7158247076
 30
0.0
  0
VERTEX
  5
31B
  8
0
  6
CONTINUOUS
 62
   179
 10
2373.7825485612
 20
339.0021431722
 30
0.0
  0
VERTEX
  5
31C
  8
0
  6
CONTINUOUS
 62
   179
 10
2373.3872640664
 20
339.2836156615
 30
0.0
  0
VERTEX
  5
31D
  8
0
  6
CONTINUOUS
 62
   179
 10
2372.9766370541
 20
339.5600485948
 30
0.0
  0
VERTEX
  5
31E
  8
0
  6
CONTINUOUS
 62
   179
 10
2372.5509499303
 20
339.8312518572
 30
0.0
  0
VERTEX
  5
31F
  8
0
  6
CONTINUOUS
 62
   179
 10
2372.1104954583
 20
340.0970389306
 30
0.0
  0
VERTEX
  5
320
  8
0
  6
CONTINUOUS
 62
   179
 10
2371.6555765577
 20
340.3572270217
 30
0.0
  0
VERTEX
  5
321
  8
0
  6
CONTINUOUS
 62
   179
 10
2371.1865060959
 20
340.6116371879
 30
0.0
  0
VERTEX
  5
322
  8
0
  6
CONTINUOUS
 62
   179
 10
2370.7036066729
 20
340.8600944603
 30
0.0
  0
VERTEX
  5
323
  8
0
  6
CONTINUOUS
 62
   179
 10
2370.2072103994
 20
341.1024279642
 30
0.0
  0
VERTEX
  5
324
  8
0
  6
CONTINUOUS
 62
   179
 10
2369.6976586686
 20
341.3384710364
 30
0.0
  0
VERTEX
  5
325
  8
0
  6
CONTINUOUS
 62
   179
 10
2369.1753019212
 20
341.5680613399
 30
0.0
  0
VERTEX
  5
326
  8
0
  6
CONTINUOUS
 62
   179
 10
2368.6404994045
 20
341.7910409755
 30
0.0
  0
VERTEX
  5
327
  8
0
  6
CONTINUOUS
 62
   179
 10
2368.0936189252
 20
342.0072565904
 30
0.0
  0
VERTEX
  5
328
  8
0
  6
CONTINUOUS
 62
   179
 10
2367.5350365967
 20
342.216559484
 30
0.0
  0
VERTEX
  5
329
  8
0
  6
CONTINUOUS
 62
   179
 10
2366.9651365801
 20
342.4188057094
 30
0.0
  0
VERTEX
  5
32A
  8
0
  6
CONTINUOUS
 62
   179
 10
2366.3843108203
 20
342.6138561734
 30
0.0
  0
VERTEX
  5
32B
  8
0
  6
CONTINUOUS
 62
   179
 10
2365.7929587762
 20
342.8015767312
 30
0.0
  0
VERTEX
  5
32C
  8
0
  6
CONTINUOUS
 62
   179
 10
2365.1914871461
 20
342.9818382793
 30
0.0
  0
VERTEX
  5
32D
  8
0
  6
CONTINUOUS
 62
   179
 10
2364.5803095881
 20
343.1545168442
 30
0.0
  0
VERTEX
  5
32E
  8
0
  6
CONTINUOUS
 62
   179
 10
2363.9598464353
 20
343.3194936672
 30
0.0
  0
VERTEX
  5
32F
  8
0
  6
CONTINUOUS
 62
   179
 10
2363.3305244069
 20
343.4766552867
 30
0.0
  0
VERTEX
  5
330
  8
0
  6
CONTINUOUS
 62
   179
 10
2362.692776315
 20
343.6258936159
 30
0.0
  0
VERTEX
  5
331
  8
0
  6
CONTINUOUS
 62
   179
 10
2362.0470407664
 20
343.7671060172
 30
0.0
  0
VERTEX
  5
332
  8
0
  6
CONTINUOUS
 62
   179
 10
2361.3937618613
 20
343.9001953726
 30
0.0
  0
VERTEX
  5
333
  8
0
  6
CONTINUOUS
 62
   179
 10
2360.7333888878
 20
344.0250701509
 30
0.0
  0
VERTEX
  5
334
  8
0
  6
CONTINUOUS
 62
   179
 10
2360.0663760129
 20
344.1416444703
 30
0.0
  0
VERTEX
  5
335
  8
0
  6
CONTINUOUS
 62
   179
 10
2359.3931819701
 20
344.2498381576
 30
0.0
  0
VERTEX
  5
336
  8
0
  6
CONTINUOUS
 62
   179
 10
2358.7142697441
 20
344.3495768034
 30
0.0
  0
VERTEX
  5
337
  8
0
  6
CONTINUOUS
 62
   179
 10
2358.030106252
 20
344.440791813
 30
0.0
  0
VERTEX
  5
338
  8
0
  6
CONTINUOUS
 62
   179
 10
2357.3411620227
 20
344.523420454
 30
0.0
  0
SEQEND
  5
3BE
  8
0
  6
CONTINUOUS
 62
   179
  0
POLYLINE
  5
E0
  8
0
  6
CONTINUOUS
 62
   179
 66
     1
 10
0.0
 20
0.0
 30
0.0
 70
   128
  0
VERTEX
  5
339
  8
0
  6
CONTINUOUS
 62
   179
 10
2708.2866879839
 20
338.5841707372
 30
0.0
  0
VERTEX
  5
33A
  8
0
  6
CONTINUOUS
 62
   179
 10
2708.3252434632
 20
338.5905460317
 30
0.0
  0
VERTEX
  5
33B
  8
0
  6
CONTINUOUS
 62
   179
 10
2708.3636037467
 20
338.5978528011
 30
0.0
  0
VERTEX
  5
33C
  8
0
  6
CONTINUOUS
 62
   179
 10
2708.4017423285
 20
338.6060859968
 30
0.0
  0
VERTEX
  5
33D
  8
0
  6
CONTINUOUS
 62
   179
 10
2708.439632856
 20
338.6152399299
 30
0.0
  0
VERTEX
  5
33E
  8
0
  6
CONTINUOUS
 62
   179
 10
2708.4772491479
 20
338.6253082752
 30
0.0
  0
VERTEX
  5
33F
  8
0
  6
CONTINUOUS
 62
   179
 10
2708.5145652125
 20
338.6362840758
 30
0.0
  0
VERTEX
  5
340
  8
0
  6
CONTINUOUS
 62
   179
 10
2708.5515552656
 20
338.6481597477
 30
0.0
  0
VERTEX
  5
341
  8
0
  6
CONTINUOUS
 62
   179
 10
2708.5881937479
 20
338.6609270852
 30
0.0
  0
VERTEX
  5
342
  8
0
  6
CONTINUOUS
 62
   179
 10
2708.6244553434
 20
338.6745772665
 30
0.0
  0
VERTEX
  5
343
  8
0
  6
CONTINUOUS
 62
   179
 10
2708.6603149965
 20
338.6891008597
 30
0.0
  0
VERTEX
  5
344
  8
0
  6
CONTINUOUS
 62
   179
 10
2708.6957479291
 20
338.7044878293
 30
0.0
  0
VERTEX
  5
345
  8
0
  6
CONTINUOUS
 62
   179
 10
2708.7307296581
 20
338.7207275435
 30
0.0
  0
VERTEX
  5
346
  8
0
  6
CONTINUOUS
 62
   179
 10
2708.7652360121
 20
338.737808781
 30
0.0
  0
VERTEX
  5
347
  8
0
  6
CONTINUOUS
 62
   179
 10
2708.7992431483
 20
338.7557197393
 30
0.0
  0
VERTEX
  5
348
  8
0
  6
CONTINUOUS
 62
   179
 10
2708.8327275687
 20
338.7744480424
 30
0.0
  0
VERTEX
  5
349
  8
0
  6
CONTINUOUS
 62
   179
 10
2708.8656661366
 20
338.7939807496
 30
0.0
  0
VERTEX
  5
34A
  8
0
  6
CONTINUOUS
 62
   179
 10
2708.8980360924
 20
338.8143043643
 30
0.0
  0
VERTEX
  5
34B
  8
0
  6
CONTINUOUS
 62
   179
 10
2708.9298150693
 20
338.8354048435
 30
0.0
  0
VERTEX
  5
34C
  8
0
  6
CONTINUOUS
 62
   179
 10
2708.9609811092
 20
338.8572676075
 30
0.0
  0
VERTEX
  5
34D
  8
0
  6
CONTINUOUS
 62
   179
 10
2708.991512677
 20
338.8798775496
 30
0.0
  0
VERTEX
  5
34E
  8
0
  6
CONTINUOUS
 62
   179
 10
2709.0213886764
 20
338.903219047
 30
0.0
  0
VERTEX
  5
34F
  8
0
  6
CONTINUOUS
 62
   179
 10
2709.0505884639
 20
338.9272759716
 30
0.0
  0
VERTEX
  5
350
  8
0
  6
CONTINUOUS
 62
   179
 10
2709.0790918635
 20
338.9520317006
 30
0.0
  0
VERTEX
  5
351
  8
0
  6
CONTINUOUS
 62
   179
 10
2709.1068791799
 20
338.9774691285
 30
0.0
  0
VERTEX
  5
352
  8
0
  6
CONTINUOUS
 62
   179
 10
2709.133931213
 20
339.0035706789
 30
0.0
  0
VERTEX
  5
353
  8
0
  6
CONTINUOUS
 62
   179
 10
2709.1602292707
 20
339.0303183162
 30
0.0
  0
VERTEX
  5
354
  8
0
  6
CONTINUOUS
 62
   179
 10
2709.1857551818
 20
339.0576935588
 30
0.0
  0
VERTEX
  5
355
  8
0
  6
CONTINUOUS
 62
   179
 10
2709.2104913085
 20
339.085677491
 30
0.0
  0
VERTEX
  5
356
  8
0
  6
CONTINUOUS
 62
   179
 10
2709.2344205589
 20
339.1142507769
 30
0.0
  0
VERTEX
  5
357
  8
0
  6
CONTINUOUS
 62
   179
 10
2709.2575263987
 20
339.1433936731
 30
0.0
  0
VERTEX
  5
358
  8
0
  6
CONTINUOUS
 62
   179
 10
2709.2797928624
 20
339.1730860426
 30
0.0
  0
VERTEX
  5
359
  8
0
  6
CONTINUOUS
 62
   179
 10
2709.3012045645
 20
339.203307369
 30
0.0
  0
VERTEX
  5
35A
  8
0
  6
CONTINUOUS
 62
   179
 10
2709.3217467101
 20
339.2340367703
 30
0.0
  0
VERTEX
  5
35B
  8
0
  6
CONTINUOUS
 62
   179
 10
2709.3414051052
 20
339.2652530131
 30
0.0
  0
VERTEX
  5
35C
  8
0
  6
CONTINUOUS
 62
   179
 10
2709.3601661665
 20
339.2969345282
 30
0.0
  0
VERTEX
  5
35D
  8
0
  6
CONTINUOUS
 62
   179
 10
2709.3780169305
 20
339.3290594244
 30
0.0
  0
VERTEX
  5
35E
  8
0
  6
CONTINUOUS
 62
   179
 10
2709.394945063
 20
339.3616055044
 30
0.0
  0
VERTEX
  5
35F
  8
0
  6
CONTINUOUS
 62
   179
 10
2709.410938867
 20
339.3945502798
 30
0.0
  0
VERTEX
  5
360
  8
0
  6
CONTINUOUS
 62
   179
 10
2709.4259872914
 20
339.4278709867
 30
0.0
  0
VERTEX
  5
361
  8
0
  6
CONTINUOUS
 62
   179
 10
2709.4400799381
 20
339.4615446015
 30
0.0
  0
VERTEX
  5
362
  8
0
  6
CONTINUOUS
 62
   179
 10
2709.4532070695
 20
339.4955478567
 30
0.0
  0
VERTEX
  5
363
  8
0
  6
CONTINUOUS
 62
   179
 10
2709.4653596151
 20
339.5298572571
 30
0.0
  0
VERTEX
  5
364
  8
0
  6
CONTINUOUS
 62
   179
 10
2709.4765291779
 20
339.5644490958
 30
0.0
  0
VERTEX
  5
365
  8
0
  6
CONTINUOUS
 62
   179
 10
2709.4867080401
 20
339.5992994709
 30
0.0
  0
VERTEX
  5
366
  8
0
  6
CONTINUOUS
 62
   179
 10
2709.4958891683
 20
339.6343843018
 30
0.0
  0
VERTEX
  5
367
  8
0
  6
CONTINUOUS
 62
   179
 10
2709.5040662186
 20
339.6696793459
 30
0.0
  0
VERTEX
  5
368
  8
0
  6
CONTINUOUS
 62
   179
 10
2709.511233541
 20
339.7051602153
 30
0.0
  0
VERTEX
  5
369
  8
0
  6
CONTINUOUS
 62
   179
 10
2709.5173861831
 20
339.7408023939
 30
0.0
  0
VERTEX
  5
36A
  8
0
  6
CONTINUOUS
 62
   179
 10
2709.5225198935
 20
339.7765812539
 30
0.0
  0
VERTEX
  5
36B
  8
0
  6
CONTINUOUS
 62
   179
 10
2709.5266311249
 20
339.8124720732
 30
0.0
  0
VERTEX
  5
36C
  8
0
  6
CONTINUOUS
 62
   179
 10
2709.5297170368
 20
339.8484500522
 30
0.0
  0
VERTEX
  5
36D
  8
0
  6
CONTINUOUS
 62
   179
 10
2709.5317754967
 20
339.8844903313
 30
0.0
  0
VERTEX
  5
36E
  8
0
  6
CONTINUOUS
 62
   179
 10
2709.5328050824
 20
339.9205680076
 30
0.0
  0
VERTEX
  5
36F
  8
0
  6
CONTINUOUS
 62
   179
 10
2709.5328050824
 20
339.9566581525
 30
0.0
  0
VERTEX
  5
370
  8
0
  6
CONTINUOUS
 62
   179
 10
2709.5317754967
 20
339.9927358288
 30
0.0
  0
VERTEX
  5
371
  8
0
  6
CONTINUOUS
 62
   179
 10
2709.5297170368
 20
340.0287761078
 30
0.0
  0
VERTEX
  5
372
  8
0
  6
CONTINUOUS
 62
   179
 10
2709.5266311249
 20
340.0647540868
 30
0.0
  0
VERTEX
  5
373
  8
0
  6
CONTINUOUS
 62
   179
 10
2709.5225198935
 20
340.1006449061
 30
0.0
  0
VERTEX
  5
374
  8
0
  6
CONTINUOUS
 62
   179
 10
2709.5173861831
 20
340.1364237661
 30
0.0
  0
VERTEX
  5
375
  8
0
  6
CONTINUOUS
 62
   179
 10
2709.511233541
 20
340.1720659447
 30
0.0
  0
VERTEX
  5
376
  8
0
  6
CONTINUOUS
 62
   179
 10
2709.5040662186
 20
340.2075468142
 30
0.0
  0
VERTEX
  5
377
  8
0
  6
CONTINUOUS
 62
   179
 10
2709.4958891683
 20
340.2428418583
 30
0.0
  0
VERTEX
  5
378
  8
0
  6
CONTINUOUS
 62
   179
 10
2709.4867080401
 20
340.2779266892
 30
0.0
  0
VERTEX
  5
379
  8
0
  6
CONTINUOUS
 62
   179
 10
2709.4765291779
 20
340.3127770643
 30
0.0
  0
VERTEX
  5
37A
  8
0
  6
CONTINUOUS
 62
   179
 10
2709.4653596151
 20
340.347368903
 30
0.0
  0
VERTEX
  5
37B
  8
0
  6
CONTINUOUS
 62
   179
 10
2709.4532070695
 20
340.3816783033
 30
0.0
  0
VERTEX
  5
37C
  8
0
  6
CONTINUOUS
 62
   179
 10
2709.4400799381
 20
340.4156815585
 30
0.0
  0
VERTEX
  5
37D
  8
0
  6
CONTINUOUS
 62
   179
 10
2709.4259872914
 20
340.4493551733
 30
0.0
  0
VERTEX
  5
37E
  8
0
  6
CONTINUOUS
 62
   179
 10
2709.410938867
 20
340.4826758803
 30
0.0
  0
VERTEX
  5
37F
  8
0
  6
CONTINUOUS
 62
   179
 10
2709.394945063
 20
340.5156206557
 30
0.0
  0
VERTEX
  5
380
  8
0
  6
CONTINUOUS
 62
   179
 10
2709.3780169305
 20
340.5481667357
 30
0.0
  0
VERTEX
  5
381
  8
0
  6
CONTINUOUS
 62
   179
 10
2709.3601661665
 20
340.5802916319
 30
0.0
  0
VERTEX
  5
382
  8
0
  6
CONTINUOUS
 62
   179
 10
2709.3414051052
 20
340.6119731469
 30
0.0
  0
VERTEX
  5
383
  8
0
  6
CONTINUOUS
 62
   179
 10
2709.3217467101
 20
340.6431893898
 30
0.0
  0
VERTEX
  5
384
  8
0
  6
CONTINUOUS
 62
   179
 10
2709.3012045645
 20
340.673918791
 30
0.0
  0
VERTEX
  5
385
  8
0
  6
CONTINUOUS
 62
   179
 10
2709.2797928624
 20
340.7041401174
 30
0.0
  0
VERTEX
  5
386
  8
0
  6
CONTINUOUS
 62
   179
 10
2709.2575263987
 20
340.733832487
 30
0.0
  0
VERTEX
  5
387
  8
0
  6
CONTINUOUS
 62
   179
 10
2709.2344205589
 20
340.7629753832
 30
0.0
  0
VERTEX
  5
388
  8
0
  6
CONTINUOUS
 62
   179
 10
2709.2104913085
 20
340.791548669
 30
0.0
  0
VERTEX
  5
389
  8
0
  6
CONTINUOUS
 62
   179
 10
2709.1857551818
 20
340.8195326013
 30
0.0
  0
VERTEX
  5
38A
  8
0
  6
CONTINUOUS
 62
   179
 10
2709.1602292707
 20
340.8469078438
 30
0.0
  0
VERTEX
  5
38B
  8
0
  6
CONTINUOUS
 62
   179
 10
2709.133931213
 20
340.8736554812
 30
0.0
  0
VERTEX
  5
38C
  8
0
  6
CONTINUOUS
 62
   179
 10
2709.1068791799
 20
340.8997570316
 30
0.0
  0
VERTEX
  5
38D
  8
0
  6
CONTINUOUS
 62
   179
 10
2709.0790918635
 20
340.9251944595
 30
0.0
  0
VERTEX
  5
38E
  8
0
  6
CONTINUOUS
 62
   179
 10
2709.0505884639
 20
340.9499501885
 30
0.0
  0
VERTEX
  5
38F
  8
0
  6
CONTINUOUS
 62
   179
 10
2709.0213886764
 20
340.974007113
 30
0.0
  0
VERTEX
  5
390
  8
0
  6
CONTINUOUS
 62
   179
 10
2708.991512677
 20
340.9973486105
 30
0.0
  0
VERTEX
  5
391
  8
0
  6
CONTINUOUS
 62
   179
 10
2708.9609811092
 20
341.0199585526
 30
0.0
  0
VERTEX
  5
392
  8
0
  6
CONTINUOUS
 62
   179
 10
2708.9298150693
 20
341.0418213165
 30
0.0
  0
VERTEX
  5
393
  8
0
  6
CONTINUOUS
 62
   179
 10
2708.8980360924
 20
341.0629217958
 30
0.0
  0
VERTEX
  5
394
  8
0
  6
CONTINUOUS
 62
   179
 10
2708.8656661366
 20
341.0832454105
 30
0.0
  0
VERTEX
  5
395
  8
0
  6
CONTINUOUS
 62
   179
 10
2708.8327275687
 20
341.1027781176
 30
0.0
  0
VERTEX
  5
396
  8
0
  6
CONTINUOUS
 62
   179
 10
2708.7992431483
 20
341.1215064207
 30
0.0
  0
VERTEX
  5
397
  8
0
  6
CONTINUOUS
 62
   179
 10
2708.7652360121
 20
341.139417379
 30
0.0
  0
VERTEX
  5
398
  8
0
  6
CONTINUOUS
 62
   179
 10
2708.7307296581
 20
341.1564986166
 30
0.0
  0
VERTEX
  5
399
  8
0
  6
CONTINUOUS
 62
   179
 10
2708.6957479291
 20
341.1727383308
 30
0.0
  0
VERTEX
  5
39A
  8
0
  6
CONTINUOUS
 62
   179
 10
2708.6603149965
 20
341.1881253004
 30
0.0
  0
VERTEX
  5
39B
  8
0
  6
CONTINUOUS
 62
   179
 10
2708.6244553434
 20
341.2026488936
 30
0.0
  0
VERTEX
  5
39C
  8
0
  6
CONTINUOUS
 62
   179
 10
2708.5881937479
 20
341.2162990748
 30
0.0
  0
VERTEX
  5
39D
  8
0
  6
CONTINUOUS
 62
   179
 10
2708.5515552656
 20
341.2290664124
 30
0.0
  0
VERTEX
  5
39E
  8
0
  6
CONTINUOUS
 62
   179
 10
2708.5145652125
 20
341.2409420843
 30
0.0
  0
VERTEX
  5
39F
  8
0
  6
CONTINUOUS
 62
   179
 10
2708.4772491479
 20
341.2519178849
 30
0.0
  0
VERTEX
  5
3A0
  8
0
  6
CONTINUOUS
 62
   179
 10
2708.439632856
 20
341.2619862302
 30
0.0
  0
VERTEX
  5
3A1
  8
0
  6
CONTINUOUS
 62
   179
 10
2708.4017423285
 20
341.2711401632
 30
0.0
  0
VERTEX
  5
3A2
  8
0
  6
CONTINUOUS
 62
   179
 10
2708.3636037467
 20
341.2793733589
 30
0.0
  0
VERTEX
  5
3A3
  8
0
  6
CONTINUOUS
 62
   179
 10
2708.3252434632
 20
341.2866801284
 30
0.0
  0
SEQEND
  5
3BF
  8
0
  6
CONTINUOUS
 62
   179
  0
TEXT
  5
E1
  8
0
  6
CONTINUOUS
 62
     7
 10
2231.444945447
 20
130.9741163699
 30
0.0
 40
37.0416666667
  1
790
 41
0.7
 11
2231.444945447
 21
117.8887749097
 31
0.0
 73
     1
  0
TEXT
  5
E2
  8
0
  6
CONTINUOUS
 62
     7
 10
2158.8845987823
 20
129.542595296
 30
0.0
 40
18.0
  1
COD.
 41
0.7
 11
2158.8845987823
 21
123.1839141814
 31
0.0
 73
     1
  0
TEXT
  5
E3
  8
0
  6
CONTINUOUS
 62
     7
 10
107.0855178468
 20
57.8769790168
 30
0.0
 40
18.0
  1
This document is the property of PEDRALI S.p.A. who willsafeguard its rights according to the civil and penal prevision of the Law.
 41
0.6438931298
 11
107.0855178468
 21
51.5182979023
 31
0.0
 73
     1
  0
INSERT
  5
E9
  8
0
  6
CONTINUOUS
 62
     7
  2
SW_NOTE_0
 10
1440.8605986612
 20
53.5813398756
 30
0.0
  0
TEXT
  5
EA
  8
0
  6
CONTINUOUS
 62
     7
 10
2158.8845987823
 20
217.4656717624
 30
0.0
 40
18.0
  1
SERIE:
 41
0.7
 11
2158.8845987823
 21
211.1069906478
 31
0.0
 73
     1
  0
TEXT
  5
EB
  8
0
  6
CONTINUOUS
 62
     7
 10
2231.444945447
 20
218.8971928363
 30
0.0
 40
37.0416666667
  1
HOST
 41
0.7
 11
2231.444945447
 21
205.8118513761
 31
0.0
 73
     1
  0
INSERT
  5
F1
  8
0
  6
CONTINUOUS
 62
     7
  2
SW_NOTE_1
 10
2766.9883061954
 20
242.6632128381
 30
0.0
  0
LINE
  5
F2
  8
0
  6
CONTINUOUS
 62
     7
 10
757.3065425331
 20
1161.1486808706
 30
0.0
 11
1391.306545871
 21
1161.1486808706
 31
0.0
  0
LINE
  5
F3
  8
0
  6
CONTINUOUS
 62
     7
 10
1391.306545871
 20
1177.1486834932
 30
0.0
 11
757.3065425331
 21
1177.1486834932
 31
0.0
  0
ARC
  5
F4
  8
0
  6
CONTINUOUS
 62
     7
 10
1391.3065442021
 20
1199.1486796785
 30
0.0
 40
22.00000000000023
 50
270.0
 51
0.0
  0
ARC
  5
F5
  8
0
  6
CONTINUOUS
 62
     7
 10
1391.3065442021
 20
1199.1486796785
 30
0.0
 40
38.0
 50
270.0
 51
0.0
  0
ARC
  5
F6
  8
0
  6
CONTINUOUS
 62
     7
 10
757.3065442021
 20
1199.1486796785
 30
0.0
 40
22.00000000000023
 50
180.0
 51
270.0
  0
ARC
  5
F7
  8
0
  6
CONTINUOUS
 62
     7
 10
757.3065442021
 20
1199.1486796785
 30
0.0
 40
38.00000000000011
 50
180.0
 51
270.0
  0
LINE
  5
F8
  8
0
  6
CONTINUOUS
 62
     7
 10
719.3065549309
 20
1381.1486796785
 30
0.0
 11
719.3065549309
 21
1355.1486791421
 31
0.0
  0
LINE
  5
F9
  8
0
  6
CONTINUOUS
 62
     7
 10
735.3065575535
 20
1355.1486791421
 30
0.0
 11
735.3065575535
 21
1381.1486796785
 31
0.0
  0
LINE
  5
FA
  8
0
  6
CONTINUOUS
 62
     7
 10
1429.3065334732
 20
1355.1486791421
 30
0.0
 11
1429.3065334732
 21
1381.1486796785
 31
0.0
  0
LINE
  5
FB
  8
0
  6
CONTINUOUS
 62
     7
 10
1413.3065308506
 20
1381.1486796785
 30
0.0
 11
1413.3065308506
 21
1355.1486791421
 31
0.0
  0
LINE
  5
FC
  8
0
  6
CONTINUOUS
 62
     7
 10
1413.3065308506
 20
1355.1486791421
 30
0.0
 11
1413.3065308506
 21
1199.148683374
 31
0.0
  0
LINE
  5
FD
  8
0
  6
CONTINUOUS
 62
     7
 10
1429.3065334732
 20
1199.148683374
 30
0.0
 11
1429.3065334732
 21
1355.1486791421
 31
0.0
  0
LINE
  5
FE
  8
0
  6
CONTINUOUS
 62
     7
 10
719.3065549309
 20
1355.1486791421
 30
0.0
 11
719.3065549309
 21
1199.148683374
 31
0.0
  0
LINE
  5
FF
  8
0
  6
CONTINUOUS
 62
     7
 10
735.3065575535
 20
1199.148683374
 30
0.0
 11
735.3065575535
 21
1355.1486791421
 31
0.0
  0
LINE
  5
100
  8
0
  6
CONTINUOUS
 62
     7
 10
701.8065418179
 20
1389.1486800585
 30
0.0
 11
701.8065418179
 21
1531.148685639
 31
0.0
  0
LINE
  5
101
  8
0
  6
CONTINUOUS
 62
     7
 10
721.8065525467
 20
1551.1486814667
 30
0.0
 11
1426.8065358574
 21
1551.1486814667
 31
0.0
  0
LINE
  5
102
  8
0
  6
CONTINUOUS
 62
     7
 10
1446.8065465863
 20
1531.148685639
 30
0.0
 11
1446.8065465863
 21
1389.1486800585
 31
0.0
  0
ARC
  5
103
  8
0
  6
CONTINUOUS
 62
     7
 10
721.8065442021
 20
1531.1486796785
 30
0.0
 40
20.0
 50
90.0
 51
180.0
  0
ARC
  5
104
  8
0
  6
CONTINUOUS
 62
     7
 10
1426.8065442021
 20
1531.1486796785
 30
0.0
 40
20.0
 50
0.0
 51
90.0
  0
LINE
  5
105
  8
0
  6
CONTINUOUS
 62
     7
 10
1438.8065303738
 20
1381.1486796785
 30
0.0
 11
1426.8065358574
 21
1381.1486796785
 31
0.0
  0
ARC
  5
106
  8
0
  6
CONTINUOUS
 62
     7
 10
1438.8065442021
 20
1389.1486796785
 30
0.0
 40
7.999999999999773
 50
270.0
 51
0.0
  0
LINE
  5
107
  8
0
  6
CONTINUOUS
 62
     7
 10
721.8065525467
 20
1381.1486796785
 30
0.0
 11
709.8065580303
 21
1381.1486796785
 31
0.0
  0
ARC
  5
108
  8
0
  6
CONTINUOUS
 62
     7
 10
709.8065442021
 20
1389.1486796785
 30
0.0
 40
8.0
 50
180.0
 51
270.0
  0
LINE
  5
109
  8
0
  6
CONTINUOUS
 62
     7
 10
1426.8065358574
 20
1381.1486796785
 30
0.0
 11
721.8065525467
 21
1381.1486796785
 31
0.0
  0
LINE
  5
10A
  8
0
  6
CONTINUOUS
 62
     7
 10
1446.8065465863
 20
1836.1486927916
 30
0.0
 11
1446.8065465863
 21
1559.256284063
 31
0.0
  0
LINE
  5
10B
  8
0
  6
CONTINUOUS
 62
     7
 10
701.8065418179
 20
1559.256284063
 30
0.0
 11
701.8065418179
 21
1836.1486927916
 31
0.0
  0
LINE
  5
10C
  8
0
  6
CONTINUOUS
 62
     7
 10
1446.8065465863
 20
1559.256284063
 30
0.0
 11
1446.8065465863
 21
1543.2197437931
 31
0.0
  0
LINE
  5
10D
  8
0
  6
CONTINUOUS
 62
     7
 10
701.8065418179
 20
1543.2197437931
 30
0.0
 11
701.8065418179
 21
1559.256284063
 31
0.0
  0
LINE
  5
10E
  8
0
  6
CONTINUOUS
 62
     7
 10
1446.8065465863
 20
1531.148685639
 30
0.0
 11
1446.8065465863
 21
1543.2197437931
 31
0.0
  0
LINE
  5
10F
  8
0
  6
CONTINUOUS
 62
     7
 10
701.8065418179
 20
1543.2197437931
 30
0.0
 11
701.8065418179
 21
1531.148685639
 31
0.0
  0
ARC
  5
110
  8
0
  6
CONTINUOUS
 62
     7
 10
721.8065442021
 20
1836.1486796785
 30
0.0
 40
20.0
 50
90.0
 51
180.0
  0
ARC
  5
111
  8
0
  6
CONTINUOUS
 62
     7
 10
1426.8065442021
 20
1836.1486796785
 30
0.0
 40
20.0
 50
0.0
 51
90.0
  0
LINE
  5
112
  8
0
  6
CONTINUOUS
 62
     7
 10
721.8065525467
 20
1856.1486737181
 30
0.0
 11
1426.8065358574
 21
1856.1486737181
 31
0.0
  0
ARC
  5
113
  8
0
  6
CONTINUOUS
 62
     7
 10
2418.6475315729
 20
1355.1486796785
 30
0.0
 40
30.00000000000013
 50
0.0
 51
60.0735651334
  0
ARC
  5
114
  8
0
  6
CONTINUOUS
 62
     7
 10
2418.6475315729
 20
1355.1486796785
 30
0.0
 40
46.00000000000014
 50
0.0
 51
34.4173887104
  0
LINE
  5
115
  8
0
  6
CONTINUOUS
 62
     7
 10
2448.6475206056
 20
1355.1486791421
 30
0.0
 11
2448.6475206056
 21
1199.148683374
 31
0.0
  0
LINE
  5
116
  8
0
  6
CONTINUOUS
 62
     7
 10
2464.6475530306
 20
1199.148683374
 30
0.0
 11
2464.6475530306
 21
1355.1486791421
 31
0.0
  0
LINE
  5
117
  8
0
  6
CONTINUOUS
 62
     7
 10
2448.6475206056
 20
1199.148683374
 30
0.0
 11
2448.6475206056
 21
1169.1486821819
 31
0.0
  0
LINE
  5
118
  8
0
  6
CONTINUOUS
 62
     7
 10
2464.6475530306
 20
1169.1486821819
 30
0.0
 11
2464.6475530306
 21
1199.148683374
 31
0.0
  0
LINE
  5
119
  8
0
  6
CONTINUOUS
 62
     7
 10
1754.6475316474
 20
1355.1486791421
 30
0.0
 11
1754.6475316474
 21
1199.148683374
 31
0.0
  0
LINE
  5
11A
  8
0
  6
CONTINUOUS
 62
     7
 10
1770.6475324074
 20
1199.148683374
 30
0.0
 11
1770.6475324074
 21
1355.1486791421
 31
0.0
  0
LINE
  5
11B
  8
0
  6
CONTINUOUS
 62
     7
 10
1770.6475324074
 20
1169.1486821819
 30
0.0
 11
1770.6475324074
 21
1199.148683374
 31
0.0
  0
LINE
  5
11C
  8
0
  6
CONTINUOUS
 62
     7
 10
1754.6475316474
 20
1199.148683374
 30
0.0
 11
1754.6475316474
 21
1169.1486821819
 31
0.0
  0
ARC
  5
11D
  8
0
  6
CONTINUOUS
 62
     7
 10
1800.6475315729
 20
1355.1486796785
 30
0.0
 40
30.00000000000028
 50
119.9264348666
 51
180.0
  0
ARC
  5
11E
  8
0
  6
CONTINUOUS
 62
     7
 10
1800.6475315729
 20
1355.1486796785
 30
0.0
 40
46.00000000000038
 50
145.5826112896
 51
180.0
  0
ARC
  5
11F
  8
0
  6
CONTINUOUS
 62
     7
 10
2456.6475315729
 20
1169.1486796785
 30
0.0
 40
8.0
 50
180.0
 51
0.0
  0
ARC
  5
120
  8
0
  6
CONTINUOUS
 62
     7
 10
1762.6475315729
 20
1169.1486796785
 30
0.0
 40
8.0
 50
180.0
 51
0.0
  0
POLYLINE
  5
121
  8
0
  6
CONTINUOUS
 62
     7
 66
     1
 10
0.0
 20
0.0
 30
0.0
 70
   128
  0
VERTEX
  5
3A4
  8
0
  6
CONTINUOUS
 62
     7
 10
1968.9272261301
 20
1556.2126473833
 30
0.0
  0
VERTEX
  5
3A5
  8
0
  6
CONTINUOUS
 62
     7
 10
1968.3936900535
 20
1555.6791113068
 30
0.0
  0
VERTEX
  5
3A6
  8
0
  6
CONTINUOUS
 62
     7
 10
1967.8410655895
 20
1555.1264868427
 30
0.0
  0
VERTEX
  5
3A7
  8
0
  6
CONTINUOUS
 62
     7
 10
1967.2723478714
 20
1554.5577691246
 30
0.0
  0
VERTEX
  5
3A8
  8
0
  6
CONTINUOUS
 62
     7
 10
1966.6906512419
 20
1553.9760724951
 30
0.0
  0
VERTEX
  5
3A9
  8
0
  6
CONTINUOUS
 62
     7
 10
1966.0991794506
 20
1553.3845858026
 30
0.0
  0
VERTEX
  5
3AA
  8
0
  6
CONTINUOUS
 62
     7
 10
1965.5011362472
 20
1552.7865575005
 30
0.0
  0
VERTEX
  5
3AB
  8
0
  6
CONTINUOUS
 62
     7
 10
1964.8997998873
 20
1552.1852211405
 30
0.0
  0
SEQEND
  5
3C0
  8
0
  6
CONTINUOUS
 62
     7
  0
LINE
  5
122
  8
0
  6
CONTINUOUS
 62
     7
 10
1757.1475311259
 20
1856.1486737181
 30
0.0
 11
1881.8938798347
 21
1856.1486737181
 31
0.0
  0
POLYLINE
  5
123
  8
0
  6
CONTINUOUS
 62
     7
 66
     1
 10
0.0
 20
0.0
 30
0.0
 70
   128
  0
VERTEX
  5
3AC
  8
0
  6
CONTINUOUS
 62
     7
 10
1979.2185938993
 20
1538.2197485615
 30
0.0
  0
VERTEX
  5
3AD
  8
0
  6
CONTINUOUS
 62
     7
 10
1979.8726356665
 20
1538.8737754274
 30
0.0
  0
VERTEX
  5
3AE
  8
0
  6
CONTINUOUS
 62
     7
 10
1980.5238611141
 20
1539.5250157762
 30
0.0
  0
VERTEX
  5
3AF
  8
0
  6
CONTINUOUS
 62
     7
 10
1981.1694986263
 20
1540.1706532885
 30
0.0
  0
VERTEX
  5
3B0
  8
0
  6
CONTINUOUS
 62
     7
 10
1981.8067914883
 20
1540.8079312492
 30
0.0
  0
VERTEX
  5
3B1
  8
0
  6
CONTINUOUS
 62
     7
 10
1982.4329978863
 20
1541.4341376472
 30
0.0
  0
VERTEX
  5
3B2
  8
0
  6
CONTINUOUS
 62
     7
 10
1983.0454356113
 20
1542.0465753723
 30
0.0
  0
VERTEX
  5
3B3
  8
0
  6
CONTINUOUS
 62
     7
 10
1983.6414820591
 20
1542.6426367212
 30
0.0
  0
VERTEX
  5
3B4
  8
0
  6
CONTINUOUS
 62
     7
 10
1984.2186040321
 20
1543.2197437931
 30
0.0
  0
VERTEX
  5
3B5
  8
0
  6
CONTINUOUS
 62
     7
 10
1984.7742981354
 20
1543.7754527975
 30
0.0
  0
VERTEX
  5
3B6
  8
0
  6
CONTINUOUS
 62
     7
 10
1985.3062099853
 20
1544.3073646475
 30
0.0
  0
VERTEX
  5
3B7
  8
0
  6
CONTINUOUS
 62
     7
 10
1985.8120597044
 20
1544.8131994654
 30
0.0
  0
VERTEX
  5
3B8
  8
0
  6
CONTINUOUS
 62
     7
 10
1986.289671723
 20
1545.2908114839
 30
0.0
  0
SEQEND
  5
3C1
  8
0
  6
CONTINUOUS
 62
     7
  0
LINE
  5
124
  8
0
  6
CONTINUOUS
 62
     7
 10
1964.8997998873
 20
1552.1852211405
 30
0.0
 11
1948.8632596174
 21
1536.1486808706
 31
0.0
  0
ARC
  5
125
  8
0
  6
CONTINUOUS
 62
     7
 10
1881.8938821355
 20
1836.1486796785
 30
0.0
 40
20.0
 50
15.335737955
 51
90.0
  0
LINE
  5
126
  8
0
  6
CONTINUOUS
 62
     7
 10
1963.0054003635
 20
1522.0065401245
 30
0.0
 11
1979.2185938993
 21
1538.2197485615
 31
0.0
  0
LINE
  5
127
  8
0
  6
CONTINUOUS
 62
     7
 10
1901.1817342678
 20
1841.4381579805
 30
0.0
 11
1974.072939817
 21
1575.6442682196
 31
0.0
  0
LINE
  5
128
  8
0
  6
CONTINUOUS
 62
     7
 10
1737.1475315729
 20
1389.1486800585
 30
0.0
 11
1737.1475315729
 21
1836.1486927916
 31
0.0
  0
LINE
  5
129
  8
0
  6
CONTINUOUS
 62
     7
 10
1757.1475311259
 20
1381.1486796785
 30
0.0
 11
1745.1475319529
 21
1381.1486796785
 31
0.0
  0
ARC
  5
12A
  8
0
  6
CONTINUOUS
 62
     7
 10
1745.1475315729
 20
1389.1486796785
 30
0.0
 40
8.0
 50
180.0
 51
270.0
  0
ARC
  5
12B
  8
0
  6
CONTINUOUS
 62
     7
 10
1757.1475315729
 20
1836.1486796785
 30
0.0
 40
20.0
 50
90.0
 51
180.0
  0
LINE
  5
12C
  8
0
  6
CONTINUOUS
 62
     7
 10
2482.1475363413
 20
1531.148685639
 30
0.0
 11
2482.1475363413
 21
1389.1486800585
 31
0.0
  0
LINE
  5
12D
  8
0
  6
CONTINUOUS
 62
     7
 10
2000.4317975679
 20
1551.1486814667
 30
0.0
 11
2462.1475554148
 21
1551.1486814667
 31
0.0
  0
LINE
  5
12E
  8
0
  6
CONTINUOUS
 62
     7
 10
2474.1475201288
 20
1381.1486796785
 30
0.0
 11
2462.1475554148
 21
1381.1486796785
 31
0.0
  0
ARC
  5
12F
  8
0
  6
CONTINUOUS
 62
     7
 10
2474.1475315729
 20
1389.1486796785
 30
0.0
 40
8.0
 50
270.0
 51
0.0
  0
ARC
  5
130
  8
0
  6
CONTINUOUS
 62
     7
 10
1955.9343281373
 20
1529.0776118667
 30
0.0
 40
10.00000000000008
 50
225.0
 51
315.0
  0
ARC
  5
131
  8
0
  6
CONTINUOUS
 62
     7
 10
2462.1475315729
 20
1531.1486796785
 30
0.0
 40
20.0
 50
0.0
 51
90.0
  0
LINE
  5
132
  8
0
  6
CONTINUOUS
 62
     7
 10
2462.1475554148
 20
1381.1486796785
 30
0.0
 11
1757.1475311259
 21
1381.1486796785
 31
0.0
  0
ARC
  5
133
  8
0
  6
CONTINUOUS
 62
     7
 10
1955.9343281373
 20
1529.0776118667
 30
0.0
 40
10.00000000000024
 50
135.0
 51
225.0
  0
ARC
  5
134
  8
0
  6
CONTINUOUS
 62
     7
 10
1954.7851442767
 20
1570.3547632318
 30
0.0
 40
19.9999479954318
 50
314.9999311354
 51
15.3358152276
  0
ARC
  5
135
  8
0
  6
CONTINUOUS
 62
     7
 10
2000.4318323067
 20
1531.1486347431
 30
0.0
 40
20.00004672357083
 50
90.0000995191
 51
134.9999672705
  0
ARC
  5
136
  8
0
  6
CONTINUOUS
 62
     7
 10
718.8764963554
 20
755.6431503675
 30
0.0
 40
17.129788263822
 50
215.4634109195
 51
270.9683032879
  0
LINE
  5
137
  8
0
  6
CONTINUOUS
 62
     7
 10
719.1618050511
 20
738.509967033
 30
0.0
 11
1429.4512833531
 21
738.509967033
 31
0.0
  0
ARC
  5
138
  8
0
  6
CONTINUOUS
 62
     7
 10
1429.7408410076
 20
755.6331951854
 30
0.0
 40
17.12055264864555
 50
269.0159551377
 51
324.5554746087
  0
ARC
  5
139
  8
0
  6
CONTINUOUS
 62
     7
 10
718.9128299683
 20
755.5492312145
 30
0.0
 40
17.10479592823121
 50
188.157251578
 51
214.9649569401
  0
ARC
  5
13A
  8
0
  6
CONTINUOUS
 62
     7
 10
1429.7002584358
 20
755.5492312145
 30
0.0
 40
17.10479592823425
 50
325.0350430599
 51
351.842748422
  0
ARC
  5
13B
  8
0
  6
CONTINUOUS
 62
     7
 10
1426.8065442021
 20
956.1475315729
 30
0.0
 40
20.0
 50
0.0
 51
90.0
  0
LINE
  5
13C
  8
0
  6
CONTINUOUS
 62
     7
 10
721.8065525467
 20
976.1475315729
 30
0.0
 11
1426.8065358574
 21
976.1475315729
 31
0.0
  0
ARC
  5
13D
  8
0
  6
CONTINUOUS
 62
     7
 10
721.8065442021
 20
956.1475315729
 30
0.0
 40
20.0
 50
90.0
 51
180.0
  0
LINE
  5
13E
  8
0
  6
CONTINUOUS
 62
     7
 10
1446.8065465863
 20
956.1475320199
 30
0.0
 11
1446.8065465863
 21
831.4011833111
 31
0.0
  0
LINE
  5
13F
  8
0
  6
CONTINUOUS
 62
     7
 10
701.8065418179
 20
831.4011833111
 30
0.0
 11
701.8065418179
 21
956.1475320199
 31
0.0
  0
LINE
  5
140
  8
0
  6
CONTINUOUS
 62
     7
 10
1446.8065465863
 20
831.4011833111
 30
0.0
 11
1446.8065465863
 21
755.466326181
 31
0.0
  0
ARC
  5
141
  8
0
  6
CONTINUOUS
 62
     7
 10
1430.9536563851
 20
755.4681718168
 30
0.0
 40
15.8528903086284
 50
351.412158607
 51
359.9933294727
  0
LINE
  5
142
  8
0
  6
CONTINUOUS
 62
     7
 10
701.8065418179
 20
755.466326181
 30
0.0
 11
701.8065418179
 21
831.4011833111
 31
0.0
  0
ARC
  5
143
  8
0
  6
CONTINUOUS
 62
     7
 10
717.6573721753
 20
755.4680546297
 30
0.0
 40
15.85083045168444
 50
180.0062477996
 51
188.5406579187
  0
LINE
  5
144
  8
0
  6
CONTINUOUS
 62
     7
 10
704.9246396
 20
745.7045307794
 30
0.0
 11
704.8952247078
 21
745.7471331993
 31
0.0
  0
LINE
  5
145
  8
0
  6
CONTINUOUS
 62
     7
 10
1443.7177742893
 20
745.7470288912
 30
0.0
 11
1443.6845446999
 21
745.6989577452
 31
0.0
  0
LINE
  5
146
  8
0
  6
CONTINUOUS
 62
     7
 10
701.8065418179
 20
251.147507731
 30
0.0
 11
701.8065418179
 21
727.0053914228
 31
0.0
  0
LINE
  5
147
  8
0
  6
CONTINUOUS
 62
     7
 10
1446.8065465863
 20
727.0053914228
 30
0.0
 11
1446.8065465863
 21
251.147507731
 31
0.0
  0
LINE
  5
148
  8
0
  6
CONTINUOUS
 62
     7
 10
1426.8065358574
 20
231.1475268045
 30
0.0
 11
721.8065525467
 21
231.1475268045
 31
0.0
  0
ARC
  5
149
  8
0
  6
CONTINUOUS
 62
     7
 10
1426.8065442021
 20
251.1475315729
 30
0.0
 40
20.00000000000003
 50
270.0
 51
0.0
  0
ARC
  5
14A
  8
0
  6
CONTINUOUS
 62
     7
 10
721.8065442021
 20
251.1475315729
 30
0.0
 40
20.00000000000003
 50
180.0
 51
270.0
  0
LINE
  5
14B
  8
0
  6
CONTINUOUS
 62
     7
 10
1446.8065465863
 20
743.2185998598
 30
0.0
 11
1446.8065465863
 21
727.0053914228
 31
0.0
  0
LINE
  5
14C
  8
0
  6
CONTINUOUS
 62
     7
 10
701.8065418179
 20
727.0053914228
 30
0.0
 11
701.8065418179
 21
743.2185998598
 31
0.0
  0
LINE
  5
14D
  8
0
  6
CONTINUOUS
 62
     7
 10
1446.8065465863
 20
743.2185998598
 30
0.0
 11
1446.8065465863
 21
755.466326181
 31
0.0
  0
LINE
  5
14E
  8
0
  6
CONTINUOUS
 62
     7
 10
701.8065418179
 20
755.466326181
 30
0.0
 11
701.8065418179
 21
743.2185998598
 31
0.0
  0
ENDSEC
  0
EOF
