  0
SECTION
  2
HEADER
  9
$ACADVER
  1
AC1009
  9
$DWGCODEPAGE
  3
ansi_1252
  9
$INSBASE
 10
0.0
 20
0.0
 30
0.0
  9
$EXTMIN
 10
0.0
 20
0.0
 30
0.0
  9
$EXTMAX
 10
2673.0
 20
1890.0
 30
0.0
  9
$LIMMIN
 10
0.0
 20
0.0
  9
$LIMMAX
 10
2673.0
 20
1890.0
  9
$ORTHOMODE
 70
     0
  9
$REGENMODE
 70
     1
  9
$FILLMODE
 70
     1
  9
$QTEXTMODE
 70
     0
  9
$MIRRTEXT
 70
     1
  9
$DRAGMODE
 70
     2
  9
$LTSCALE
 40
9.0
  9
$OSMODE
 70
    37
  9
$ATTMODE
 70
     1
  9
$TEXTSIZE
 40
31.5
  9
$TRACEWID
 40
1.0
  9
$TEXTSTYLE
  7
STANDARD
  9
$CLAYER
  8
0
  9
$CELTYPE
  6
BYLAYER
  9
$CECOLOR
 62
   256
  9
$DIMSCALE
 40
1.0
  9
$DIMASZ
 40
22.5
  9
$DIMEXO
 40
0.0
  9
$DIMDLI
 40
3.75
  9
$DIMRND
 40
0.0
  9
$DIMDLE
 40
0.0
  9
$DIMEXE
 40
9.0
  9
$DIMTP
 40
0.0
  9
$DIMTM
 40
0.0
  9
$DIMTXT
 40
27.0
  9
$DIMCEN
 40
2.5
  9
$DIMTSZ
 40
0.0
  9
$DIMTOL
 70
     0
  9
$DIMLIM
 70
     0
  9
$DIMTIH
 70
     1
  9
$DIMTOH
 70
     1
  9
$DIMSE1
 70
     0
  9
$DIMSE2
 70
     0
  9
$DIMTAD
 70
     1
  9
$DIMZIN
 70
     0
  9
$DIMBLK
  1

  9
$DIMASO
 70
     1
  9
$DIMSHO
 70
     1
  9
$DIMPOST
  1

  9
$DIMAPOST
  1

  9
$DIMALT
 70
     0
  9
$DIMALTD
 70
     3
  9
$DIMALTF
 40
0.0393700787
  9
$DIMLFAC
 40
1.0
  9
$DIMTOFL
 70
     1
  9
$DIMTVP
 40
0.0
  9
$DIMTIX
 70
     0
  9
$DIMSOXD
 70
     0
  9
$DIMSAH
 70
     0
  9
$DIMBLK1
  1

  9
$DIMBLK2
  1

  9
$DIMSTYLE
  2
ISO-25
  9
$DIMCLRD
 70
     0
  9
$DIMCLRE
 70
     0
  9
$DIMCLRT
 70
     0
  9
$DIMTFAC
 40
1.0
  9
$DIMGAP
 40
13.5
  9
$LUNITS
 70
     2
  9
$LUPREC
 70
     2
  9
$SKETCHINC
 40
1.0
  9
$FILLETRAD
 40
10.0
  9
$AUNITS
 70
     0
  9
$AUPREC
 70
     2
  9
$MENU
  1
.
  9
$ELEVATION
 40
0.0
  9
$PELEVATION
 40
0.0
  9
$THICKNESS
 40
0.0
  9
$LIMCHECK
 70
     0
  9
$CHAMFERA
 40
0.0
  9
$CHAMFERB
 40
0.0
  9
$SKPOLY
 70
     0
  9
$TDCREATE
 40
2457196.609038102
  9
$TDUPDATE
 40
2457196.609038923
  9
$TDINDWG
 40
0.0000000116
  9
$TDUSRTIMER
 40
0.0000000116
  9
$USRTIMER
 70
     1
  9
$ANGBASE
 50
0.0
  9
$ANGDIR
 70
     0
  9
$PDMODE
 70
     0
  9
$PDSIZE
 40
-1.0
  9
$PLINEWID
 40
0.0
  9
$COORDS
 70
     1
  9
$SPLFRAME
 70
     0
  9
$SPLINETYPE
 70
     6
  9
$SPLINESEGS
 70
     8
  9
$ATTDIA
 70
     0
  9
$ATTREQ
 70
     1
  9
$HANDLING
 70
     1
  9
$HANDSEED
  5
385
  9
$SURFTAB1
 70
     6
  9
$SURFTAB2
 70
     6
  9
$SURFTYPE
 70
     6
  9
$SURFU
 70
     6
  9
$SURFV
 70
     6
  9
$UCSNAME
  2

  9
$UCSORG
 10
0.0
 20
0.0
 30
0.0
  9
$UCSXDIR
 10
1.0
 20
0.0
 30
0.0
  9
$UCSYDIR
 10
0.0
 20
1.0
 30
0.0
  9
$PUCSNAME
  2

  9
$PUCSORG
 10
0.0
 20
0.0
 30
0.0
  9
$PUCSXDIR
 10
1.0
 20
0.0
 30
0.0
  9
$PUCSYDIR
 10
0.0
 20
1.0
 30
0.0
  9
$USERI1
 70
     0
  9
$USERI2
 70
     0
  9
$USERI3
 70
     0
  9
$USERI4
 70
     0
  9
$USERI5
 70
     0
  9
$USERR1
 40
0.0
  9
$USERR2
 40
0.0
  9
$USERR3
 40
0.0
  9
$USERR4
 40
0.0
  9
$USERR5
 40
0.0
  9
$WORLDVIEW
 70
     1
  9
$SHADEDGE
 70
     3
  9
$SHADEDIF
 70
    70
  9
$TILEMODE
 70
     1
  9
$MAXACTVP
 70
    64
  9
$PLIMCHECK
 70
     0
  9
$PEXTMIN
 10
1.0000000000E+20
 20
1.0000000000E+20
 30
1.0000000000E+20
  9
$PEXTMAX
 10
-1.0000000000E+20
 20
-1.0000000000E+20
 30
-1.0000000000E+20
  9
$PLIMMIN
 10
0.0
 20
0.0
  9
$PLIMMAX
 10
420.0
 20
297.0
  9
$UNITMODE
 70
     0
  9
$VISRETAIN
 70
     1
  9
$PLINEGEN
 70
     0
  9
$PSLTSCALE
 70
     1
  0
ENDSEC
  0
SECTION
  2
TABLES
  0
TABLE
  2
VPORT
 70
     1
  0
VPORT
  2
*ACTIVE
 70
     0
 10
0.0
 20
0.0
 11
1.0
 21
1.0
 12
1336.5
 22
945.0
 13
0.0
 23
0.0
 14
10.0
 24
10.0
 15
10.0
 25
10.0
 16
0.0
 26
0.0
 36
1.0
 17
0.0
 27
0.0
 37
0.0
 40
1890.0
 41
1.4142857143
 42
50.0
 43
0.0
 44
0.0
 50
0.0
 51
0.0
 71
     0
 72
  2000
 73
     1
 74
     3
 75
     0
 76
     0
 77
     0
 78
     0
  0
ENDTAB
  0
TABLE
  2
LTYPE
 70
     6
  0
LTYPE
  2
CONTINUOUS
 70
     0
  3
Solid line
 72
    65
 73
     0
 40
0.0
  0
LTYPE
  2
HIDDEN
 70
     0
  3
Hidden __ __ __ __ __ __ __ __ __ __ __ __ __ __
 72
    65
 73
     2
 40
1.905
 49
1.27
 49
-0.635
  0
LTYPE
  2
PHANTOM
 70
     0
  3
Phantom ______  __  __  ______  __  __  ______
 72
    65
 73
     6
 40
12.7
 49
6.35
 49
-1.27
 49
1.27
 49
-1.27
 49
1.27
 49
-1.27
  0
LTYPE
  2
CENTER
 70
     0
  3
Center ____ _ ____ _ ____ _ ____ _ ____ _ ____
 72
    65
 73
     4
 40
10.16
 49
6.35
 49
-1.27
 49
1.27
 49
-1.27
  0
LTYPE
  2
CENTERX2
 70
     0
  3
Center (2x) ________  __  ________  __  _____
 72
    65
 73
     4
 40
20.32
 49
12.7
 49
-2.54
 49
2.54
 49
-2.54
  0
LTYPE
  2
DOT2
 70
     0
  3
Dot (.5x) ........................................
 72
    65
 73
     2
 40
0.635
 49
0.0
 49
-0.635
  0
ENDTAB
  0
TABLE
  2
LAYER
 70
     2
  0
LAYER
  2
0
 70
     0
 62
     7
  6
CONTINUOUS
  0
LAYER
  2
FORMAT
 70
     0
 62
     7
  6
CONTINUOUS
  0
ENDTAB
  0
TABLE
  2
STYLE
 70
     1
  0
STYLE
  2
STANDARD
 70
     0
 40
0.0
 41
1.0
 50
0.0
 71
     0
 42
31.5
  3
txt
  4

  0
ENDTAB
  0
TABLE
  2
VIEW
 70
     0
  0
ENDTAB
  0
TABLE
  2
UCS
 70
     0
  0
ENDTAB
  0
TABLE
  2
APPID
 70
     1
  0
APPID
  2
ACAD
 70
     0
  0
ENDTAB
  0
TABLE
  2
DIMSTYLE
 70
     1
  0
DIMSTYLE
  2
ISO-25
 70
     0
  3

  4

  5

  6

  7

 40
1.0
 41
2.5
 42
0.625
 43
3.75
 44
1.25
 45
0.0
 46
0.0
 47
0.0
 48
0.0
140
2.5
141
2.5
142
0.0
143
0.0393700787
144
1.0
145
0.0
146
1.0
147
0.625
 71
     0
 72
     0
 73
     0
 74
     0
 75
     0
 76
     0
 77
     1
 78
     8
170
     0
171
     3
172
     1
173
     0
174
     0
175
     0
176
     0
177
     0
178
     0
  0
ENDTAB
  0
ENDSEC
  0
SECTION
  2
BLOCKS
  0
BLOCK
  8
0
  2
$MODEL_SPACE
 70
     0
 10
0.0
 20
0.0
 30
0.0
  3
$MODEL_SPACE
  1

  0
ENDBLK
  5
21
  8
0
  0
BLOCK
 67
     1
  8
0
  2
$PAPER_SPACE
 70
     0
 10
0.0
 20
0.0
 30
0.0
  3
$PAPER_SPACE
  1

  0
ENDBLK
  5
1D
 67
     1
  8
0
  0
BLOCK
  8
0
  2
SW_NOTE_0
 70
     0
 10
0.0
 20
0.0
 30
0.0
  3
SW_NOTE_0
  1

  0
TEXT
  5
E7
  8
0
  6
CONTINUOUS
 62
     0
 10
0.0
 20
5.7228130031
 30
0.0
 40
16.2
  1
Questo disegno e posto sotto la tutela delle vigenti Leggi e non puo essere utilizzato da terze persone se non previa autorizzazione scritta della PEDRALI
 41
0.6454545455
 11
0.0
 21
0.0
 31
0.0
 73
     1
  0
TEXT
  5
E8
  8
0
  6
CONTINUOUS
 62
     0
 10
1214.9072438478
 20
5.7228130031
 30
0.0
 40
16.2
  1
 S.p.A.
 41
0.7
 11
1214.9072438478
 21
0.0
 31
0.0
 73
     1
  0
ENDBLK
  5
E6
  8
0
  0
BLOCK
  8
0
  2
SW_NOTE_1
 70
     0
 10
0.0
 20
0.0
 30
0.0
  3
SW_NOTE_1
  1

  0
TEXT
  5
EF
  8
0
  6
CONTINUOUS
 62
     0
 10
0.0
 20
5.7228130031
 30
0.0
 40
16.2
  1
SCALA 
 41
0.7
 11
0.0
 21
0.0
 31
0.0
 73
     1
  0
TEXT
  5
F0
  8
0
  6
CONTINUOUS
 62
     0
 10
6.0039467644
 20
-32.6731921486
 30
0.0
 40
33.3375
  1
1:1
 41
0.7
 11
6.0039467644
 21
-44.4499994628
 31
0.0
 73
     1
  0
ENDBLK
  5
EE
  8
0
  0
ENDSEC
  0
SECTION
  2
ENTITIES
  0
LINE
  5
74
  8
0
  6
CONTINUOUS
 62
     7
 10
2583.0
 20
90.0
 30
0.0
 11
2583.0
 21
1800.0
 31
0.0
  0
LINE
  5
75
  8
0
  6
CONTINUOUS
 62
   179
 10
2091.5909264802
 20
310.1376653092
 30
0.0
 11
2091.5909264802
 21
274.3803874724
 31
0.0
  0
LINE
  5
76
  8
0
  6
CONTINUOUS
 62
   179
 10
2091.5909264802
 20
310.1376653092
 30
0.0
 11
2120.9831197855
 21
310.1376653092
 31
0.0
  0
LINE
  5
77
  8
0
  6
CONTINUOUS
 62
   179
 10
2091.5909264802
 20
274.3803874724
 30
0.0
 11
2106.2189037782
 21
274.3803874724
 31
0.0
  0
LINE
  5
78
  8
0
  6
CONTINUOUS
 62
   179
 10
2106.2189037782
 20
274.3803874724
 30
0.0
 11
2106.2189037782
 21
287.3830339572
 31
0.0
  0
LINE
  5
79
  8
0
  6
CONTINUOUS
 62
   179
 10
2120.9831197852
 20
287.3830339572
 30
0.0
 11
2106.2189037782
 21
287.3830339572
 31
0.0
  0
LINE
  5
7A
  8
0
  6
CONTINUOUS
 62
   179
 10
2106.2189037778
 20
293.8843572008
 30
0.0
 11
2106.2189037778
 21
303.6363420657
 31
0.0
  0
LINE
  5
7B
  8
0
  6
CONTINUOUS
 62
   179
 10
2106.2189037778
 20
303.6363420657
 30
0.0
 11
2117.6314928829
 21
303.6363420657
 31
0.0
  0
LINE
  5
7C
  8
0
  6
CONTINUOUS
 62
   179
 10
2106.2189037778
 20
293.8843572008
 30
0.0
 11
2117.6314928824
 21
293.8843572008
 31
0.0
  0
LINE
  5
7D
  8
0
  6
CONTINUOUS
 62
   179
 10
2143.6015124284
 20
310.1376653078
 30
0.0
 11
2192.3614367533
 21
310.1376653078
 31
0.0
  0
LINE
  5
7E
  8
0
  6
CONTINUOUS
 62
   179
 10
2192.3614367533
 20
310.1376653078
 30
0.0
 11
2192.3614367533
 21
303.6363420639
 31
0.0
  0
LINE
  5
7F
  8
0
  6
CONTINUOUS
 62
   179
 10
2192.3614367533
 20
303.6363420639
 30
0.0
 11
2159.8548205367
 21
303.6363420639
 31
0.0
  0
LINE
  5
80
  8
0
  6
CONTINUOUS
 62
   179
 10
2159.8548205367
 20
303.6363420639
 30
0.0
 11
2159.8548205367
 21
295.5096880097
 31
0.0
  0
LINE
  5
81
  8
0
  6
CONTINUOUS
 62
   179
 10
2159.8548205367
 20
295.5096880097
 30
0.0
 11
2189.1107751329
 21
295.5096880097
 31
0.0
  0
LINE
  5
82
  8
0
  6
CONTINUOUS
 62
   179
 10
2189.1107751329
 20
295.5096880097
 30
0.0
 11
2189.1107751329
 21
289.0083647658
 31
0.0
  0
LINE
  5
83
  8
0
  6
CONTINUOUS
 62
   179
 10
2189.1107751329
 20
289.0083647658
 30
0.0
 11
2159.8548205367
 21
289.0083647658
 31
0.0
  0
LINE
  5
84
  8
0
  6
CONTINUOUS
 62
   179
 10
2159.8548205367
 20
289.0083647658
 30
0.0
 11
2159.8548205367
 21
280.8817107117
 31
0.0
  0
LINE
  5
85
  8
0
  6
CONTINUOUS
 62
   179
 10
2159.8548205367
 20
280.8817107117
 30
0.0
 11
2192.3614367533
 21
280.8817107117
 31
0.0
  0
LINE
  5
86
  8
0
  6
CONTINUOUS
 62
   179
 10
2192.3614367533
 20
280.8817107117
 30
0.0
 11
2192.3614367533
 21
274.3803874709
 31
0.0
  0
LINE
  5
87
  8
0
  6
CONTINUOUS
 62
   179
 10
2192.3614367533
 20
274.3803874709
 30
0.0
 11
2143.6015124284
 21
274.3803874709
 31
0.0
  0
LINE
  5
88
  8
0
  6
CONTINUOUS
 62
   179
 10
2195.612098377
 20
310.1376653078
 30
0.0
 11
2195.612098377
 21
274.3803874689
 31
0.0
  0
LINE
  5
89
  8
0
  6
CONTINUOUS
 62
   179
 10
2195.612098377
 20
310.1376653078
 30
0.0
 11
2224.8643734014
 21
310.1376653078
 31
0.0
  0
LINE
  5
8A
  8
0
  6
CONTINUOUS
 62
   179
 10
2224.8643734016
 20
274.3803874689
 30
0.0
 11
2195.612098377
 21
274.3803874689
 31
0.0
  0
LINE
  5
8B
  8
0
  6
CONTINUOUS
 62
   179
 10
2210.2400756728
 20
292.2590263863
 30
0.0
 11
2210.2400756728
 21
282.507041522
 31
0.0
  0
LINE
  5
8C
  8
0
  6
CONTINUOUS
 62
   179
 10
2210.2400756728
 20
282.507041522
 30
0.0
 11
2225.6524554912
 21
282.507041522
 31
0.0
  0
LINE
  5
8D
  8
0
  6
CONTINUOUS
 62
   179
 10
2210.2400756728
 20
292.2590263863
 30
0.0
 11
2210.2400756728
 21
302.0110112544
 31
0.0
  0
LINE
  5
8E
  8
0
  6
CONTINUOUS
 62
   179
 10
2210.2400756728
 20
302.0110112544
 30
0.0
 11
2225.6524554912
 21
302.0110112544
 31
0.0
  0
LINE
  5
8F
  8
0
  6
CONTINUOUS
 62
   179
 10
2254.1240075664
 20
310.1376653105
 30
0.0
 11
2254.1240075664
 21
274.3803874736
 31
0.0
  0
LINE
  5
90
  8
0
  6
CONTINUOUS
 62
     7
 10
2455.9190952757
 20
252.0000000004
 30
0.0
 11
2455.9190952757
 21
171.0000000002
 31
0.0
  0
LINE
  5
91
  8
0
  6
CONTINUOUS
 62
   179
 10
2254.1240075664
 20
274.3803874736
 30
0.0
 11
2268.7519848645
 21
274.3803874736
 31
0.0
  0
LINE
  5
92
  8
0
  6
CONTINUOUS
 62
   179
 10
2268.7519848645
 20
274.3803874736
 30
0.0
 11
2268.7519848645
 21
287.3830339583
 31
0.0
  0
LINE
  5
93
  8
0
  6
CONTINUOUS
 62
   179
 10
2268.7519848645
 20
287.3830339583
 30
0.0
 11
2285.0052929729
 21
287.3830339583
 31
0.0
  0
LINE
  5
94
  8
0
  6
CONTINUOUS
 62
   179
 10
2291.5066162168
 20
280.8817107144
 30
0.0
 11
2291.5066162168
 21
274.3803874727
 31
0.0
  0
LINE
  5
95
  8
0
  6
CONTINUOUS
 62
   179
 10
2268.7519848639
 20
293.8843572005
 30
0.0
 11
2268.7519848639
 21
303.6363420662
 31
0.0
  0
LINE
  5
96
  8
0
  6
CONTINUOUS
 62
   179
 10
2268.7519848639
 20
303.6363420662
 30
0.0
 11
2284.6303551768
 21
303.6363420662
 31
0.0
  0
LINE
  5
97
  8
0
  6
CONTINUOUS
 62
   179
 10
2268.7519848639
 20
293.8843572005
 30
0.0
 11
2284.6303551768
 21
293.8843572005
 31
0.0
  0
LINE
  5
98
  8
0
  6
CONTINUOUS
 62
   179
 10
2302.9831819734
 20
283.2938621628
 30
0.0
 11
2304.3199811856
 21
278.0708889764
 31
0.0
  0
LINE
  5
99
  8
0
  6
CONTINUOUS
 62
     7
 10
2583.0
 20
1800.0
 30
0.0
 11
90.0
 21
1800.0
 31
0.0
  0
LINE
  5
9A
  8
0
  6
CONTINUOUS
 62
     7
 10
2455.9190952757
 20
171.0000000002
 30
0.0
 11
2455.9190952757
 21
90.0
 31
0.0
  0
LINE
  5
9B
  8
0
  6
CONTINUOUS
 62
     7
 10
90.0
 20
1800.0
 30
0.0
 11
90.0
 21
90.0
 31
0.0
  0
LINE
  5
9C
  8
0
  6
CONTINUOUS
 62
     7
 10
1935.0
 20
333.0000000005
 30
0.0
 11
2583.0
 21
333.0000000005
 31
0.0
  0
LINE
  5
9D
  8
0
  6
CONTINUOUS
 62
    19
 10
2515.7595714155
 20
144.2509238786
 30
0.0
 11
2487.0764396809
 21
138.6736482635
 31
0.0
  0
LINE
  5
9E
  8
0
  6
CONTINUOUS
 62
    19
 10
2539.2155266369
 20
148.9393416517
 30
0.0
 11
2539.2155266369
 21
112.3929271062
 31
0.0
  0
LINE
  5
9F
  8
0
  6
CONTINUOUS
 62
    19
 10
2515.7595714155
 20
144.2509238786
 30
0.0
 11
2515.7595714155
 21
117.0813448793
 31
0.0
  0
LINE
  5
A0
  8
0
  6
CONTINUOUS
 62
     7
 10
90.0
 20
90.0
 30
0.0
 11
2583.0
 21
90.0
 31
0.0
  0
LINE
  5
A1
  8
0
  6
CONTINUOUS
 62
    19
 10
2487.0764396809
 20
138.6736482635
 30
0.0
 11
2487.0764396809
 21
122.6586204943
 31
0.0
  0
LINE
  5
A2
  8
0
  6
CONTINUOUS
 62
   179
 10
2291.5066162168
 20
274.3803874727
 30
0.0
 11
2319.1372400033
 21
274.3803874727
 31
0.0
  0
LINE
  5
A3
  8
0
  6
CONTINUOUS
 62
    19
 10
2515.7595714155
 20
117.0813448793
 30
0.0
 11
2487.0764396809
 21
122.6586204943
 31
0.0
  0
LINE
  5
A4
  8
0
  6
CENTERX2
 62
    19
 10
2555.0286411823
 20
130.6661343789
 30
0.0
 11
2483.5066821579
 21
130.6661343789
 31
0.0
  0
LINE
  5
A5
  8
0
  6
CONTINUOUS
 62
   179
 10
2254.1240075664
 20
310.1376653105
 30
0.0
 11
2287.8173324752
 21
310.1376653105
 31
0.0
  0
LINE
  5
A6
  8
0
  6
CONTINUOUS
 62
   179
 10
2143.6015124284
 20
310.1376653078
 30
0.0
 11
2143.6015124284
 21
274.3803874709
 31
0.0
  0
LINE
  5
A7
  8
0
  6
CONTINUOUS
 62
   179
 10
2325.6385632472
 20
310.1376653096
 30
0.0
 11
2341.8918713555
 21
310.1376653096
 31
0.0
  0
LINE
  5
A8
  8
0
  6
CONTINUOUS
 62
   179
 10
2325.6385632472
 20
310.1376653096
 30
0.0
 11
2304.6368803901
 21
277.1350208228
 31
0.0
  0
LINE
  5
A9
  8
0
  6
CONTINUOUS
 62
   179
 10
2319.1372400033
 20
274.3803874727
 30
0.0
 11
2322.7942343277
 21
280.8817107135
 31
0.0
  0
LINE
  5
AA
  8
0
  6
CONTINUOUS
 62
   179
 10
2333.7652173007
 20
300.3856804435
 30
0.0
 11
2341.0792059497
 21
287.3830339556
 31
0.0
  0
LINE
  5
AB
  8
0
  6
CONTINUOUS
 62
   179
 10
2326.4512286516
 20
287.3830339556
 30
0.0
 11
2333.7652173007
 21
300.3856804435
 31
0.0
  0
LINE
  5
AC
  8
0
  6
CONTINUOUS
 62
   179
 10
2326.4512286516
 20
287.3830339556
 30
0.0
 11
2341.0792059497
 21
287.3830339556
 31
0.0
  0
LINE
  5
AD
  8
0
  6
CONTINUOUS
 62
   179
 10
2322.7942343277
 20
280.8817107135
 30
0.0
 11
2344.736200275
 21
280.8817107135
 31
0.0
  0
LINE
  5
AE
  8
0
  6
CONTINUOUS
 62
   179
 10
2344.736200275
 20
280.8817107135
 30
0.0
 11
2348.3931945994
 21
274.3803874727
 31
0.0
  0
LINE
  5
AF
  8
0
  6
CONTINUOUS
 62
   179
 10
2364.6465027078
 20
310.1376653096
 30
0.0
 11
2364.6465027078
 21
274.3803874727
 31
0.0
  0
LINE
  5
B0
  8
0
  6
CONTINUOUS
 62
   179
 10
2341.8918713555
 20
310.1376653096
 30
0.0
 11
2364.6465027078
 21
274.3803874727
 31
0.0
  0
LINE
  5
B1
  8
0
  6
CONTINUOUS
 62
   179
 10
2348.3931945994
 20
274.3803874727
 30
0.0
 11
2364.6465027078
 21
274.3803874727
 31
0.0
  0
LINE
  5
B2
  8
0
  6
CONTINUOUS
 62
   179
 10
2364.6465027078
 20
274.3803874727
 30
0.0
 11
2408.5304346021
 21
274.3803874727
 31
0.0
  0
LINE
  5
B3
  8
0
  6
CONTINUOUS
 62
   179
 10
2408.5304346021
 20
274.3803874727
 30
0.0
 11
2408.5304346021
 21
282.5070415269
 31
0.0
  0
LINE
  5
B4
  8
0
  6
CONTINUOUS
 62
   179
 10
2408.5304346021
 20
282.5070415269
 30
0.0
 11
2380.899810816
 21
282.5070415269
 31
0.0
  0
LINE
  5
B5
  8
0
  6
CONTINUOUS
 62
   179
 10
2380.899810816
 20
282.5070415269
 30
0.0
 11
2380.899810816
 21
310.1376653096
 31
0.0
  0
LINE
  5
B6
  8
0
  6
CONTINUOUS
 62
   179
 10
2364.6465027078
 20
310.1376653096
 30
0.0
 11
2380.899810816
 21
310.1376653096
 31
0.0
  0
LINE
  5
B7
  8
0
  6
CONTINUOUS
 62
   179
 10
2410.1557654116
 20
310.1376653092
 30
0.0
 11
2410.1557654116
 21
274.3803874724
 31
0.0
  0
LINE
  5
B8
  8
0
  6
CONTINUOUS
 62
   179
 10
2426.4090735198
 20
310.1376653092
 30
0.0
 11
2426.4090735198
 21
274.3803874724
 31
0.0
  0
LINE
  5
B9
  8
0
  6
CONTINUOUS
 62
   179
 10
2410.1557654116
 20
310.1376653092
 30
0.0
 11
2426.4090735198
 21
310.1376653092
 31
0.0
  0
LINE
  5
BA
  8
0
  6
CONTINUOUS
 62
   179
 10
2410.1557654116
 20
274.3803874724
 30
0.0
 11
2426.4090735198
 21
274.3803874724
 31
0.0
  0
LINE
  5
BB
  8
0
  6
CONTINUOUS
 62
   179
 10
2433.7036479817
 20
307.1637498806
 30
0.0
 11
2437.4580191855
 21
307.1637498806
 31
0.0
  0
LINE
  5
BC
  8
0
  6
CONTINUOUS
 62
   179
 10
2437.4580191855
 20
304.7257536635
 30
0.0
 11
2433.7036479817
 21
304.7257536635
 31
0.0
  0
LINE
  5
BD
  8
0
  6
CONTINUOUS
 62
   179
 10
2433.7036479817
 20
304.7257536635
 30
0.0
 11
2433.7036479817
 21
307.1637498806
 31
0.0
  0
LINE
  5
BE
  8
0
  6
CONTINUOUS
 62
   179
 10
2433.7036479817
 20
304.7257536635
 30
0.0
 11
2436.141644197
 21
304.7257536635
 31
0.0
  0
LINE
  5
BF
  8
0
  6
CONTINUOUS
 62
   179
 10
2433.7036479817
 20
304.7257536635
 30
0.0
 11
2433.7036479817
 21
301.0687593405
 31
0.0
  0
LINE
  5
C0
  8
0
  6
CONTINUOUS
 62
   179
 10
2438.5796404123
 20
301.0687593405
 30
0.0
 11
2436.141644197
 21
304.7257536635
 31
0.0
  0
LINE
  5
C1
  8
0
  6
CONTINUOUS
 62
     7
 10
1935.0
 20
171.0000000002
 30
0.0
 11
2583.0
 21
171.0000000002
 31
0.0
  0
LINE
  5
C2
  8
0
  6
CONTINUOUS
 62
     7
 10
2583.0
 20
252.0000000004
 30
0.0
 11
1935.0
 21
252.0000000004
 31
0.0
  0
LINE
  5
C3
  8
0
  6
CONTINUOUS
 62
     7
 10
90.0
 20
495.0
 30
0.0
 11
90.0
 21
585.0
 31
0.0
  0
LINE
  5
C4
  8
0
  6
CONTINUOUS
 62
     7
 10
90.0
 20
585.0
 30
0.0
 11
90.0
 21
675.0
 31
0.0
  0
LINE
  5
C5
  8
0
  6
CONTINUOUS
 62
     7
 10
90.0
 20
675.0
 30
0.0
 11
90.0
 21
765.0
 31
0.0
  0
LINE
  5
C6
  8
0
  6
CONTINUOUS
 62
     7
 10
90.0
 20
765.0
 30
0.0
 11
90.0
 21
855.0
 31
0.0
  0
LINE
  5
C7
  8
0
  6
CONTINUOUS
 62
     7
 10
90.0
 20
855.0
 30
0.0
 11
90.0
 21
945.0
 31
0.0
  0
LINE
  5
C8
  8
0
  6
CONTINUOUS
 62
     7
 10
90.0
 20
945.0
 30
0.0
 11
90.0
 21
1035.0
 31
0.0
  0
LINE
  5
C9
  8
0
  6
CONTINUOUS
 62
     7
 10
90.0
 20
1035.0
 30
0.0
 11
90.0
 21
1125.0
 31
0.0
  0
LINE
  5
CA
  8
0
  6
CONTINUOUS
 62
     7
 10
90.0
 20
1125.0
 30
0.0
 11
90.0
 21
1215.0
 31
0.0
  0
LINE
  5
CB
  8
0
  6
CONTINUOUS
 62
     7
 10
90.0
 20
1215.0
 30
0.0
 11
90.0
 21
1305.0
 31
0.0
  0
LINE
  5
CC
  8
0
  6
CONTINUOUS
 62
     7
 10
90.0
 20
1305.0
 30
0.0
 11
90.0
 21
1395.0
 31
0.0
  0
LINE
  5
CD
  8
0
  6
CONTINUOUS
 62
     7
 10
1935.0
 20
333.0000000005
 30
0.0
 11
1935.0
 21
90.0
 31
0.0
  0
ARC
  5
CE
  8
0
  6
CONTINUOUS
 62
   179
 10
2117.6314928829
 20
297.1350188239
 30
0.0
 40
6.501323241734482
 50
69.991210111
 51
90.0
  0
ARC
  5
CF
  8
0
  6
CONTINUOUS
 62
   179
 10
2117.6314928824
 20
300.3856804441
 30
0.0
 40
6.501323243289691
 50
270.0
 51
290.0087898887
  0
ARC
  5
D0
  8
0
  6
CONTINUOUS
 62
   179
 10
2225.6524554912
 20
292.259026388
 30
0.0
 40
9.75198486646692
 50
56.1685552524
 51
90.0
  0
ARC
  5
D1
  8
0
  6
CONTINUOUS
 62
   179
 10
2225.6524554912
 20
292.259026388
 30
0.0
 40
9.751984865982418
 50
270.0
 51
303.830934914
  0
ARC
  5
D2
  8
0
  6
CONTINUOUS
 62
   179
 10
2285.0052929729
 20
280.8817107144
 30
0.0
 40
6.501323243920524
 50
0.0
 51
90.0
  0
ARC
  5
D3
  8
0
  6
CONTINUOUS
 62
   179
 10
2284.6303551768
 20
298.7603496337
 30
0.0
 40
4.875992432499174
 50
54.413089495
 51
90.0
  0
ARC
  5
D4
  8
0
  6
CONTINUOUS
 62
   179
 10
2284.6303551768
 20
298.7603496337
 30
0.0
 40
4.875992433193176
 50
270.0
 51
305.5869104966
  0
ARC
  5
D5
  8
0
  6
CONTINUOUS
 62
   179
 10
2294.1338264366
 20
281.6665164638
 30
0.0
 40
8.997741240980668
 50
10.4199484279
 51
80.7321727594
  0
ARC
  5
D6
  8
0
  6
CONTINUOUS
 62
   179
 10
2308.9082099738
 20
279.1029455706
 30
0.0
 40
4.702869786234504
 50
192.6768785101
 51
204.7368873207
  0
CIRCLE
  5
D7
  8
0
  6
CONTINUOUS
 62
   179
 10
2435.6577787756
 20
304.0808127602
 30
0.0
 40
5.337091930707629
  0
CIRCLE
  5
D8
  8
0
  6
CONTINUOUS
 62
    19
 10
2539.2155266369
 20
130.6661343789
 30
0.0
 40
7.72837088648816
  0
CIRCLE
  5
D9
  8
0
  6
CONTINUOUS
 62
    19
 10
2539.2155266369
 20
130.6661343789
 30
0.0
 40
15.0983422349739
  0
POLYLINE
  5
DA
  8
0
  6
CONTINUOUS
 62
   179
 66
     1
 10
0.0
 20
0.0
 30
0.0
 70
   128
  0
VERTEX
  5
12D
  8
0
  6
CONTINUOUS
 62
   179
 10
2119.8560135983
 20
294.2767761644
 30
0.0
  0
VERTEX
  5
12E
  8
0
  6
CONTINUOUS
 62
   179
 10
2120.0553438937
 20
294.3515240844
 30
0.0
  0
VERTEX
  5
12F
  8
0
  6
CONTINUOUS
 62
   179
 10
2120.2512540994
 20
294.4293510747
 30
0.0
  0
VERTEX
  5
130
  8
0
  6
CONTINUOUS
 62
   179
 10
2120.4436073942
 20
294.5102027819
 30
0.0
  0
VERTEX
  5
131
  8
0
  6
CONTINUOUS
 62
   179
 10
2120.6322694408
 20
294.5940227401
 30
0.0
  0
VERTEX
  5
132
  8
0
  6
CONTINUOUS
 62
   179
 10
2120.8171084799
 20
294.6807524104
 30
0.0
  0
VERTEX
  5
133
  8
0
  6
CONTINUOUS
 62
   179
 10
2120.9979954222
 20
294.7703312219
 30
0.0
  0
VERTEX
  5
134
  8
0
  6
CONTINUOUS
 62
   179
 10
2121.1748039385
 20
294.8626966139
 30
0.0
  0
VERTEX
  5
135
  8
0
  6
CONTINUOUS
 62
   179
 10
2121.3474105477
 20
294.9577840795
 30
0.0
  0
VERTEX
  5
136
  8
0
  6
CONTINUOUS
 62
   179
 10
2121.5156947037
 20
295.0555272108
 30
0.0
  0
VERTEX
  5
137
  8
0
  6
CONTINUOUS
 62
   179
 10
2121.6795388787
 20
295.1558577451
 30
0.0
  0
VERTEX
  5
138
  8
0
  6
CONTINUOUS
 62
   179
 10
2121.8388286459
 20
295.2587056128
 30
0.0
  0
VERTEX
  5
139
  8
0
  6
CONTINUOUS
 62
   179
 10
2121.9934527594
 20
295.3639989862
 30
0.0
  0
VERTEX
  5
13A
  8
0
  6
CONTINUOUS
 62
   179
 10
2122.1433032315
 20
295.4716643297
 30
0.0
  0
VERTEX
  5
13B
  8
0
  6
CONTINUOUS
 62
   179
 10
2122.2882754084
 20
295.5816264511
 30
0.0
  0
VERTEX
  5
13C
  8
0
  6
CONTINUOUS
 62
   179
 10
2122.4282680434
 20
295.6938085542
 30
0.0
  0
VERTEX
  5
13D
  8
0
  6
CONTINUOUS
 62
   179
 10
2122.5631833673
 20
295.8081322924
 30
0.0
  0
VERTEX
  5
13E
  8
0
  6
CONTINUOUS
 62
   179
 10
2122.6929271569
 20
295.9245178234
 30
0.0
  0
VERTEX
  5
13F
  8
0
  6
CONTINUOUS
 62
   179
 10
2122.8174088007
 20
296.042883865
 30
0.0
  0
VERTEX
  5
140
  8
0
  6
CONTINUOUS
 62
   179
 10
2122.9365413622
 20
296.1631477516
 30
0.0
  0
VERTEX
  5
141
  8
0
  6
CONTINUOUS
 62
   179
 10
2123.0502416406
 20
296.2852254926
 30
0.0
  0
VERTEX
  5
142
  8
0
  6
CONTINUOUS
 62
   179
 10
2123.1584302291
 20
296.4090318302
 30
0.0
  0
VERTEX
  5
143
  8
0
  6
CONTINUOUS
 62
   179
 10
2123.2610315701
 20
296.5344802997
 30
0.0
  0
VERTEX
  5
144
  8
0
  6
CONTINUOUS
 62
   179
 10
2123.3579740081
 20
296.6614832893
 30
0.0
  0
VERTEX
  5
145
  8
0
  6
CONTINUOUS
 62
   179
 10
2123.4491898396
 20
296.7899521016
 30
0.0
  0
VERTEX
  5
146
  8
0
  6
CONTINUOUS
 62
   179
 10
2123.5346153606
 20
296.9197970158
 30
0.0
  0
VERTEX
  5
147
  8
0
  6
CONTINUOUS
 62
   179
 10
2123.6141909109
 20
297.0509273495
 30
0.0
  0
VERTEX
  5
148
  8
0
  6
CONTINUOUS
 62
   179
 10
2123.687860916
 20
297.1832515231
 30
0.0
  0
VERTEX
  5
149
  8
0
  6
CONTINUOUS
 62
   179
 10
2123.7555739257
 20
297.3166771228
 30
0.0
  0
VERTEX
  5
14A
  8
0
  6
CONTINUOUS
 62
   179
 10
2123.8172826498
 20
297.4511109659
 30
0.0
  0
VERTEX
  5
14B
  8
0
  6
CONTINUOUS
 62
   179
 10
2123.872943992
 20
297.5864591654
 30
0.0
  0
VERTEX
  5
14C
  8
0
  6
CONTINUOUS
 62
   179
 10
2123.9225190788
 20
297.7226271957
 30
0.0
  0
VERTEX
  5
14D
  8
0
  6
CONTINUOUS
 62
   179
 10
2123.9659732878
 20
297.8595199589
 30
0.0
  0
VERTEX
  5
14E
  8
0
  6
CONTINUOUS
 62
   179
 10
2124.003276271
 20
297.9970418505
 30
0.0
  0
VERTEX
  5
14F
  8
0
  6
CONTINUOUS
 62
   179
 10
2124.0344019764
 20
298.135096827
 30
0.0
  0
VERTEX
  5
150
  8
0
  6
CONTINUOUS
 62
   179
 10
2124.0593286663
 20
298.2735884725
 30
0.0
  0
VERTEX
  5
151
  8
0
  6
CONTINUOUS
 62
   179
 10
2124.0780389321
 20
298.4124200661
 30
0.0
  0
VERTEX
  5
152
  8
0
  6
CONTINUOUS
 62
   179
 10
2124.0905197068
 20
298.5514946495
 30
0.0
  0
VERTEX
  5
153
  8
0
  6
CONTINUOUS
 62
   179
 10
2124.096762274
 20
298.6907150947
 30
0.0
  0
VERTEX
  5
154
  8
0
  6
CONTINUOUS
 62
   179
 10
2124.096762274
 20
298.8299841718
 30
0.0
  0
VERTEX
  5
155
  8
0
  6
CONTINUOUS
 62
   179
 10
2124.0905197068
 20
298.969204617
 30
0.0
  0
VERTEX
  5
156
  8
0
  6
CONTINUOUS
 62
   179
 10
2124.0780389321
 20
299.1082792004
 30
0.0
  0
VERTEX
  5
157
  8
0
  6
CONTINUOUS
 62
   179
 10
2124.0593286663
 20
299.247110794
 30
0.0
  0
VERTEX
  5
158
  8
0
  6
CONTINUOUS
 62
   179
 10
2124.0344019764
 20
299.3856024395
 30
0.0
  0
VERTEX
  5
159
  8
0
  6
CONTINUOUS
 62
   179
 10
2124.003276271
 20
299.523657416
 30
0.0
  0
VERTEX
  5
15A
  8
0
  6
CONTINUOUS
 62
   179
 10
2123.9659732878
 20
299.6611793076
 30
0.0
  0
VERTEX
  5
15B
  8
0
  6
CONTINUOUS
 62
   179
 10
2123.9225190788
 20
299.7980720708
 30
0.0
  0
VERTEX
  5
15C
  8
0
  6
CONTINUOUS
 62
   179
 10
2123.872943992
 20
299.9342401011
 30
0.0
  0
VERTEX
  5
15D
  8
0
  6
CONTINUOUS
 62
   179
 10
2123.8172826498
 20
300.0695883006
 30
0.0
  0
VERTEX
  5
15E
  8
0
  6
CONTINUOUS
 62
   179
 10
2123.7555739257
 20
300.2040221437
 30
0.0
  0
VERTEX
  5
15F
  8
0
  6
CONTINUOUS
 62
   179
 10
2123.6878609161
 20
300.3374477434
 30
0.0
  0
VERTEX
  5
160
  8
0
  6
CONTINUOUS
 62
   179
 10
2123.614190911
 20
300.469771917
 30
0.0
  0
VERTEX
  5
161
  8
0
  6
CONTINUOUS
 62
   179
 10
2123.5346153606
 20
300.6009022507
 30
0.0
  0
VERTEX
  5
162
  8
0
  6
CONTINUOUS
 62
   179
 10
2123.4491898396
 20
300.7307471649
 30
0.0
  0
VERTEX
  5
163
  8
0
  6
CONTINUOUS
 62
   179
 10
2123.3579740081
 20
300.8592159772
 30
0.0
  0
VERTEX
  5
164
  8
0
  6
CONTINUOUS
 62
   179
 10
2123.2610315702
 20
300.9862189668
 30
0.0
  0
VERTEX
  5
165
  8
0
  6
CONTINUOUS
 62
   179
 10
2123.1584302291
 20
301.1116674363
 30
0.0
  0
VERTEX
  5
166
  8
0
  6
CONTINUOUS
 62
   179
 10
2123.0502416406
 20
301.2354737739
 30
0.0
  0
VERTEX
  5
167
  8
0
  6
CONTINUOUS
 62
   179
 10
2122.9365413622
 20
301.3575515149
 30
0.0
  0
VERTEX
  5
168
  8
0
  6
CONTINUOUS
 62
   179
 10
2122.8174088007
 20
301.4778154015
 30
0.0
  0
VERTEX
  5
169
  8
0
  6
CONTINUOUS
 62
   179
 10
2122.6929271569
 20
301.5961814431
 30
0.0
  0
VERTEX
  5
16A
  8
0
  6
CONTINUOUS
 62
   179
 10
2122.5631833674
 20
301.7125669741
 30
0.0
  0
VERTEX
  5
16B
  8
0
  6
CONTINUOUS
 62
   179
 10
2122.4282680435
 20
301.8268907123
 30
0.0
  0
VERTEX
  5
16C
  8
0
  6
CONTINUOUS
 62
   179
 10
2122.2882754085
 20
301.9390728154
 30
0.0
  0
VERTEX
  5
16D
  8
0
  6
CONTINUOUS
 62
   179
 10
2122.1433032315
 20
302.0490349368
 30
0.0
  0
VERTEX
  5
16E
  8
0
  6
CONTINUOUS
 62
   179
 10
2121.9934527594
 20
302.1567002803
 30
0.0
  0
VERTEX
  5
16F
  8
0
  6
CONTINUOUS
 62
   179
 10
2121.8388286459
 20
302.2619936537
 30
0.0
  0
VERTEX
  5
170
  8
0
  6
CONTINUOUS
 62
   179
 10
2121.6795388787
 20
302.3648415214
 30
0.0
  0
VERTEX
  5
171
  8
0
  6
CONTINUOUS
 62
   179
 10
2121.5156947037
 20
302.4651720557
 30
0.0
  0
VERTEX
  5
172
  8
0
  6
CONTINUOUS
 62
   179
 10
2121.3474105478
 20
302.562915187
 30
0.0
  0
VERTEX
  5
173
  8
0
  6
CONTINUOUS
 62
   179
 10
2121.1748039385
 20
302.6580026526
 30
0.0
  0
VERTEX
  5
174
  8
0
  6
CONTINUOUS
 62
   179
 10
2120.9979954222
 20
302.7503680446
 30
0.0
  0
VERTEX
  5
175
  8
0
  6
CONTINUOUS
 62
   179
 10
2120.8171084799
 20
302.8399468561
 30
0.0
  0
VERTEX
  5
176
  8
0
  6
CONTINUOUS
 62
   179
 10
2120.6322694408
 20
302.9266765264
 30
0.0
  0
VERTEX
  5
177
  8
0
  6
CONTINUOUS
 62
   179
 10
2120.4436073942
 20
303.0104964846
 30
0.0
  0
VERTEX
  5
178
  8
0
  6
CONTINUOUS
 62
   179
 10
2120.2512540995
 20
303.0913481918
 30
0.0
  0
VERTEX
  5
179
  8
0
  6
CONTINUOUS
 62
   179
 10
2120.0553438937
 20
303.1691751821
 30
0.0
  0
SEQEND
  5
37E
  8
0
  6
CONTINUOUS
 62
   179
  0
POLYLINE
  5
DB
  8
0
  6
CONTINUOUS
 62
   179
 66
     1
 10
0.0
 20
0.0
 30
0.0
 70
   128
  0
VERTEX
  5
17A
  8
0
  6
CONTINUOUS
 62
   179
 10
2231.0818164677
 20
284.1582086383
 30
0.0
  0
VERTEX
  5
17B
  8
0
  6
CONTINUOUS
 62
   179
 10
2231.4352005129
 20
284.4014713386
 30
0.0
  0
VERTEX
  5
17C
  8
0
  6
CONTINUOUS
 62
   179
 10
2231.7776886198
 20
284.6502553118
 30
0.0
  0
VERTEX
  5
17D
  8
0
  6
CONTINUOUS
 62
   179
 10
2232.1090401323
 20
284.9043857446
 30
0.0
  0
VERTEX
  5
17E
  8
0
  6
CONTINUOUS
 62
   179
 10
2232.4290222193
 20
285.1636840669
 30
0.0
  0
VERTEX
  5
17F
  8
0
  6
CONTINUOUS
 62
   179
 10
2232.7374100388
 20
285.4279680777
 30
0.0
  0
VERTEX
  5
180
  8
0
  6
CONTINUOUS
 62
   179
 10
2233.0339868958
 20
285.6970520721
 30
0.0
  0
VERTEX
  5
181
  8
0
  6
CONTINUOUS
 62
   179
 10
2233.3185443944
 20
285.9707469729
 30
0.0
  0
VERTEX
  5
182
  8
0
  6
CONTINUOUS
 62
   179
 10
2233.5908825844
 20
286.2488604626
 30
0.0
  0
VERTEX
  5
183
  8
0
  6
CONTINUOUS
 62
   179
 10
2233.8508101019
 20
286.5311971191
 30
0.0
  0
VERTEX
  5
184
  8
0
  6
CONTINUOUS
 62
   179
 10
2234.0981443033
 20
286.8175585527
 30
0.0
  0
VERTEX
  5
185
  8
0
  6
CONTINUOUS
 62
   179
 10
2234.3327113943
 20
287.1077435458
 30
0.0
  0
VERTEX
  5
186
  8
0
  6
CONTINUOUS
 62
   179
 10
2234.5543465514
 20
287.4015481937
 30
0.0
  0
VERTEX
  5
187
  8
0
  6
CONTINUOUS
 62
   179
 10
2234.7628940381
 20
287.6987660487
 30
0.0
  0
VERTEX
  5
188
  8
0
  6
CONTINUOUS
 62
   179
 10
2234.9582073143
 20
287.9991882645
 30
0.0
  0
VERTEX
  5
189
  8
0
  6
CONTINUOUS
 62
   179
 10
2235.1401491391
 20
288.3026037432
 30
0.0
  0
VERTEX
  5
18A
  8
0
  6
CONTINUOUS
 62
   179
 10
2235.3085916672
 20
288.6087992837
 30
0.0
  0
VERTEX
  5
18B
  8
0
  6
CONTINUOUS
 62
   179
 10
2235.4634165391
 20
288.9175597314
 30
0.0
  0
VERTEX
  5
18C
  8
0
  6
CONTINUOUS
 62
   179
 10
2235.6045149638
 20
289.2286681295
 30
0.0
  0
VERTEX
  5
18D
  8
0
  6
CONTINUOUS
 62
   179
 10
2235.7317877958
 20
289.5419058711
 30
0.0
  0
VERTEX
  5
18E
  8
0
  6
CONTINUOUS
 62
   179
 10
2235.8451456041
 20
289.8570528534
 30
0.0
  0
VERTEX
  5
18F
  8
0
  6
CONTINUOUS
 62
   179
 10
2235.9445087354
 20
290.1738876319
 30
0.0
  0
VERTEX
  5
190
  8
0
  6
CONTINUOUS
 62
   179
 10
2236.0298073703
 20
290.492187576
 30
0.0
  0
VERTEX
  5
191
  8
0
  6
CONTINUOUS
 62
   179
 10
2236.100981572
 20
290.8117290258
 30
0.0
  0
VERTEX
  5
192
  8
0
  6
CONTINUOUS
 62
   179
 10
2236.1579813283
 20
291.1322874489
 30
0.0
  0
VERTEX
  5
193
  8
0
  6
CONTINUOUS
 62
   179
 10
2236.2007665872
 20
291.4536375982
 30
0.0
  0
VERTEX
  5
194
  8
0
  6
CONTINUOUS
 62
   179
 10
2236.2293072849
 20
291.7755536706
 30
0.0
  0
VERTEX
  5
195
  8
0
  6
CONTINUOUS
 62
   179
 10
2236.2435833666
 20
292.097809465
 30
0.0
  0
VERTEX
  5
196
  8
0
  6
CONTINUOUS
 62
   179
 10
2236.2435848008
 20
292.4201785419
 30
0.0
  0
VERTEX
  5
197
  8
0
  6
CONTINUOUS
 62
   179
 10
2236.2293115867
 20
292.7424343818
 30
0.0
  0
VERTEX
  5
198
  8
0
  6
CONTINUOUS
 62
   179
 10
2236.2007737536
 20
293.0643505452
 30
0.0
  0
VERTEX
  5
199
  8
0
  6
CONTINUOUS
 62
   179
 10
2236.1579913541
 20
293.385700831
 30
0.0
  0
VERTEX
  5
19A
  8
0
  6
CONTINUOUS
 62
   179
 10
2236.1009944502
 20
293.7062594358
 30
0.0
  0
VERTEX
  5
19B
  8
0
  6
CONTINUOUS
 62
   179
 10
2236.0298230919
 20
294.0258011125
 30
0.0
  0
VERTEX
  5
19C
  8
0
  6
CONTINUOUS
 62
   179
 10
2235.9445272893
 20
294.3441013285
 30
0.0
  0
VERTEX
  5
19D
  8
0
  6
CONTINUOUS
 62
   179
 10
2235.8451669773
 20
294.6609364238
 30
0.0
  0
VERTEX
  5
19E
  8
0
  6
CONTINUOUS
 62
   179
 10
2235.7318119733
 20
294.9760837675
 30
0.0
  0
VERTEX
  5
19F
  8
0
  6
CONTINUOUS
 62
   179
 10
2235.6045419286
 20
295.2893219149
 30
0.0
  0
VERTEX
  5
1A0
  8
0
  6
CONTINUOUS
 62
   179
 10
2235.4634462722
 20
295.6004307629
 30
0.0
  0
VERTEX
  5
1A1
  8
0
  6
CONTINUOUS
 62
   179
 10
2235.3086241478
 20
295.9091917042
 30
0.0
  0
VERTEX
  5
1A2
  8
0
  6
CONTINUOUS
 62
   179
 10
2235.1401843443
 20
296.2153877818
 30
0.0
  0
VERTEX
  5
1A3
  8
0
  6
CONTINUOUS
 62
   179
 10
2234.9582452194
 20
296.5188038406
 30
0.0
  0
VERTEX
  5
1A4
  8
0
  6
CONTINUOUS
 62
   179
 10
2234.7629346165
 20
296.819226679
 30
0.0
  0
VERTEX
  5
1A5
  8
0
  6
CONTINUOUS
 62
   179
 10
2234.5543897745
 20
297.1164451989
 30
0.0
  0
VERTEX
  5
1A6
  8
0
  6
CONTINUOUS
 62
   179
 10
2234.3327572317
 20
297.4102505535
 30
0.0
  0
VERTEX
  5
1A7
  8
0
  6
CONTINUOUS
 62
   179
 10
2234.0981927229
 20
297.7004362944
 30
0.0
  0
VERTEX
  5
1A8
  8
0
  6
CONTINUOUS
 62
   179
 10
2233.8508610696
 20
297.9867985166
 30
0.0
  0
VERTEX
  5
1A9
  8
0
  6
CONTINUOUS
 62
   179
 10
2233.5909360645
 20
298.2691360019
 30
0.0
  0
VERTEX
  5
1AA
  8
0
  6
CONTINUOUS
 62
   179
 10
2233.3186003492
 20
298.5472503599
 30
0.0
  0
VERTEX
  5
1AB
  8
0
  6
CONTINUOUS
 62
   179
 10
2233.034045286
 20
298.8209461679
 30
0.0
  0
VERTEX
  5
1AC
  8
0
  6
CONTINUOUS
 62
   179
 10
2232.7374708234
 20
299.0900311079
 30
0.0
  0
VERTEX
  5
1AD
  8
0
  6
CONTINUOUS
 62
   179
 10
2232.4290853556
 20
299.3543161018
 30
0.0
  0
VERTEX
  5
1AE
  8
0
  6
CONTINUOUS
 62
   179
 10
2232.109105576
 20
299.6136154444
 30
0.0
  0
VERTEX
  5
1AF
  8
0
  6
CONTINUOUS
 62
   179
 10
2231.7777563248
 20
299.8677469336
 30
0.0
  0
VERTEX
  5
1B0
  8
0
  6
CONTINUOUS
 62
   179
 10
2231.4352704316
 20
300.1165319987
 30
0.0
  0
SEQEND
  5
37F
  8
0
  6
CONTINUOUS
 62
   179
  0
POLYLINE
  5
DC
  8
0
  6
CONTINUOUS
 62
   179
 66
     1
 10
0.0
 20
0.0
 30
0.0
 70
   128
  0
VERTEX
  5
1B1
  8
0
  6
CONTINUOUS
 62
   179
 10
2287.4678765513
 20
294.7950281262
 30
0.0
  0
VERTEX
  5
1B2
  8
0
  6
CONTINUOUS
 62
   179
 10
2287.6432223048
 20
294.9239480643
 30
0.0
  0
VERTEX
  5
1B3
  8
0
  6
CONTINUOUS
 62
   179
 10
2287.8127124032
 20
295.0555659439
 30
0.0
  0
VERTEX
  5
1B4
  8
0
  6
CONTINUOUS
 62
   179
 10
2287.9762276529
 20
295.1897892049
 30
0.0
  0
VERTEX
  5
1B5
  8
0
  6
CONTINUOUS
 62
   179
 10
2288.1336530621
 20
295.3265234551
 30
0.0
  0
VERTEX
  5
1B6
  8
0
  6
CONTINUOUS
 62
   179
 10
2288.2848779218
 20
295.4656725365
 30
0.0
  0
VERTEX
  5
1B7
  8
0
  6
CONTINUOUS
 62
   179
 10
2288.4297958832
 20
295.6071385927
 30
0.0
  0
VERTEX
  5
1B8
  8
0
  6
CONTINUOUS
 62
   179
 10
2288.5683050333
 20
295.750822138
 30
0.0
  0
VERTEX
  5
1B9
  8
0
  6
CONTINUOUS
 62
   179
 10
2288.7003079658
 20
295.8966221274
 30
0.0
  0
VERTEX
  5
1BA
  8
0
  6
CONTINUOUS
 62
   179
 10
2288.8257118497
 20
296.0444360271
 30
0.0
  0
VERTEX
  5
1BB
  8
0
  6
CONTINUOUS
 62
   179
 10
2288.9444284952
 20
296.1941598874
 30
0.0
  0
VERTEX
  5
1BC
  8
0
  6
CONTINUOUS
 62
   179
 10
2289.056374415
 20
296.3456884154
 30
0.0
  0
VERTEX
  5
1BD
  8
0
  6
CONTINUOUS
 62
   179
 10
2289.1614708833
 20
296.4989150489
 30
0.0
  0
VERTEX
  5
1BE
  8
0
  6
CONTINUOUS
 62
   179
 10
2289.2596439913
 20
296.6537320315
 30
0.0
  0
VERTEX
  5
1BF
  8
0
  6
CONTINUOUS
 62
   179
 10
2289.350824699
 20
296.8100304886
 30
0.0
  0
VERTEX
  5
1C0
  8
0
  6
CONTINUOUS
 62
   179
 10
2289.4349488836
 20
296.9677005036
 30
0.0
  0
VERTEX
  5
1C1
  8
0
  6
CONTINUOUS
 62
   179
 10
2289.5119573851
 20
297.1266311954
 30
0.0
  0
VERTEX
  5
1C2
  8
0
  6
CONTINUOUS
 62
   179
 10
2289.5817960474
 20
297.2867107963
 30
0.0
  0
VERTEX
  5
1C3
  8
0
  6
CONTINUOUS
 62
   179
 10
2289.6444157565
 20
297.4478267306
 30
0.0
  0
VERTEX
  5
1C4
  8
0
  6
CONTINUOUS
 62
   179
 10
2289.6997724753
 20
297.6098656939
 30
0.0
  0
VERTEX
  5
1C5
  8
0
  6
CONTINUOUS
 62
   179
 10
2289.7478272744
 20
297.7727137327
 30
0.0
  0
VERTEX
  5
1C6
  8
0
  6
CONTINUOUS
 62
   179
 10
2289.7885463592
 20
297.9362563244
 30
0.0
  0
VERTEX
  5
1C7
  8
0
  6
CONTINUOUS
 62
   179
 10
2289.8219010941
 20
298.100378458
 30
0.0
  0
VERTEX
  5
1C8
  8
0
  6
CONTINUOUS
 62
   179
 10
2289.8478680225
 20
298.264964715
 30
0.0
  0
VERTEX
  5
1C9
  8
0
  6
CONTINUOUS
 62
   179
 10
2289.8664288833
 20
298.4298993504
 30
0.0
  0
VERTEX
  5
1CA
  8
0
  6
CONTINUOUS
 62
   179
 10
2289.8775706235
 20
298.5950663742
 30
0.0
  0
VERTEX
  5
1CB
  8
0
  6
CONTINUOUS
 62
   179
 10
2289.8812854077
 20
298.7603496332
 30
0.0
  0
VERTEX
  5
1CC
  8
0
  6
CONTINUOUS
 62
   179
 10
2289.8775706235
 20
298.9256328921
 30
0.0
  0
VERTEX
  5
1CD
  8
0
  6
CONTINUOUS
 62
   179
 10
2289.8664288833
 20
299.090799916
 30
0.0
  0
VERTEX
  5
1CE
  8
0
  6
CONTINUOUS
 62
   179
 10
2289.8478680226
 20
299.2557345514
 30
0.0
  0
VERTEX
  5
1CF
  8
0
  6
CONTINUOUS
 62
   179
 10
2289.8219010941
 20
299.4203208083
 30
0.0
  0
VERTEX
  5
1D0
  8
0
  6
CONTINUOUS
 62
   179
 10
2289.7885463592
 20
299.5844429419
 30
0.0
  0
VERTEX
  5
1D1
  8
0
  6
CONTINUOUS
 62
   179
 10
2289.7478272744
 20
299.7479855336
 30
0.0
  0
VERTEX
  5
1D2
  8
0
  6
CONTINUOUS
 62
   179
 10
2289.6997724754
 20
299.9108335724
 30
0.0
  0
VERTEX
  5
1D3
  8
0
  6
CONTINUOUS
 62
   179
 10
2289.6444157566
 20
300.0728725358
 30
0.0
  0
VERTEX
  5
1D4
  8
0
  6
CONTINUOUS
 62
   179
 10
2289.5817960474
 20
300.2339884701
 30
0.0
  0
VERTEX
  5
1D5
  8
0
  6
CONTINUOUS
 62
   179
 10
2289.5119573852
 20
300.394068071
 30
0.0
  0
VERTEX
  5
1D6
  8
0
  6
CONTINUOUS
 62
   179
 10
2289.4349488837
 20
300.5529987628
 30
0.0
  0
VERTEX
  5
1D7
  8
0
  6
CONTINUOUS
 62
   179
 10
2289.3508246991
 20
300.7106687778
 30
0.0
  0
VERTEX
  5
1D8
  8
0
  6
CONTINUOUS
 62
   179
 10
2289.2596439914
 20
300.8669672349
 30
0.0
  0
VERTEX
  5
1D9
  8
0
  6
CONTINUOUS
 62
   179
 10
2289.1614708834
 20
301.0217842175
 30
0.0
  0
VERTEX
  5
1DA
  8
0
  6
CONTINUOUS
 62
   179
 10
2289.0563744151
 20
301.175010851
 30
0.0
  0
VERTEX
  5
1DB
  8
0
  6
CONTINUOUS
 62
   179
 10
2288.9444284953
 20
301.3265393789
 30
0.0
  0
VERTEX
  5
1DC
  8
0
  6
CONTINUOUS
 62
   179
 10
2288.8257118499
 20
301.4762632393
 30
0.0
  0
VERTEX
  5
1DD
  8
0
  6
CONTINUOUS
 62
   179
 10
2288.7003079659
 20
301.624077139
 30
0.0
  0
VERTEX
  5
1DE
  8
0
  6
CONTINUOUS
 62
   179
 10
2288.5683050335
 20
301.7698771283
 30
0.0
  0
VERTEX
  5
1DF
  8
0
  6
CONTINUOUS
 62
   179
 10
2288.4297958834
 20
301.9135606737
 30
0.0
  0
VERTEX
  5
1E0
  8
0
  6
CONTINUOUS
 62
   179
 10
2288.2848779219
 20
302.0550267299
 30
0.0
  0
VERTEX
  5
1E1
  8
0
  6
CONTINUOUS
 62
   179
 10
2288.1336530623
 20
302.1941758113
 30
0.0
  0
VERTEX
  5
1E2
  8
0
  6
CONTINUOUS
 62
   179
 10
2287.9762276531
 20
302.3309100615
 30
0.0
  0
VERTEX
  5
1E3
  8
0
  6
CONTINUOUS
 62
   179
 10
2287.8127124034
 20
302.4651333225
 30
0.0
  0
VERTEX
  5
1E4
  8
0
  6
CONTINUOUS
 62
   179
 10
2287.643222305
 20
302.5967512021
 30
0.0
  0
SEQEND
  5
380
  8
0
  6
CONTINUOUS
 62
   179
  0
POLYLINE
  5
DD
  8
0
  6
CONTINUOUS
 62
   179
 66
     1
 10
0.0
 20
0.0
 30
0.0
 70
   128
  0
VERTEX
  5
1E5
  8
0
  6
CONTINUOUS
 62
   179
 10
2295.582909567
 20
290.5468039321
 30
0.0
  0
VERTEX
  5
1E6
  8
0
  6
CONTINUOUS
 62
   179
 10
2296.0736197977
 20
290.6958091409
 30
0.0
  0
VERTEX
  5
1E7
  8
0
  6
CONTINUOUS
 62
   179
 10
2296.55605512
 20
290.8510638049
 30
0.0
  0
VERTEX
  5
1E8
  8
0
  6
CONTINUOUS
 62
   179
 10
2297.0298785524
 20
291.0124594785
 30
0.0
  0
VERTEX
  5
1E9
  8
0
  6
CONTINUOUS
 62
   179
 10
2297.4947591288
 20
291.1798834268
 30
0.0
  0
VERTEX
  5
1EA
  8
0
  6
CONTINUOUS
 62
   179
 10
2297.9503721297
 20
291.353218704
 30
0.0
  0
VERTEX
  5
1EB
  8
0
  6
CONTINUOUS
 62
   179
 10
2298.3963993088
 20
291.5323442351
 30
0.0
  0
VERTEX
  5
1EC
  8
0
  6
CONTINUOUS
 62
   179
 10
2298.8325291158
 20
291.7171349009
 30
0.0
  0
VERTEX
  5
1ED
  8
0
  6
CONTINUOUS
 62
   179
 10
2299.2584569136
 20
291.9074616248
 30
0.0
  0
VERTEX
  5
1EE
  8
0
  6
CONTINUOUS
 62
   179
 10
2299.6738851913
 20
292.1031914635
 30
0.0
  0
VERTEX
  5
1EF
  8
0
  6
CONTINUOUS
 62
   179
 10
2300.0785237716
 20
292.3041876995
 30
0.0
  0
VERTEX
  5
1F0
  8
0
  6
CONTINUOUS
 62
   179
 10
2300.4720900143
 20
292.5103099367
 30
0.0
  0
VERTEX
  5
1F1
  8
0
  6
CONTINUOUS
 62
   179
 10
2300.8543090129
 20
292.7214141985
 30
0.0
  0
VERTEX
  5
1F2
  8
0
  6
CONTINUOUS
 62
   179
 10
2301.2249137871
 20
292.9373530285
 30
0.0
  0
VERTEX
  5
1F3
  8
0
  6
CONTINUOUS
 62
   179
 10
2301.583645469
 20
293.1579755931
 30
0.0
  0
VERTEX
  5
1F4
  8
0
  6
CONTINUOUS
 62
   179
 10
2301.9302534843
 20
293.3831277872
 30
0.0
  0
VERTEX
  5
1F5
  8
0
  6
CONTINUOUS
 62
   179
 10
2302.2644957268
 20
293.6126523418
 30
0.0
  0
VERTEX
  5
1F6
  8
0
  6
CONTINUOUS
 62
   179
 10
2302.5861387281
 20
293.8463889338
 30
0.0
  0
VERTEX
  5
1F7
  8
0
  6
CONTINUOUS
 62
   179
 10
2302.8949578203
 20
294.084174298
 30
0.0
  0
VERTEX
  5
1F8
  8
0
  6
CONTINUOUS
 62
   179
 10
2303.1907372928
 20
294.325842341
 30
0.0
  0
VERTEX
  5
1F9
  8
0
  6
CONTINUOUS
 62
   179
 10
2303.4732705435
 20
294.5712242575
 30
0.0
  0
VERTEX
  5
1FA
  8
0
  6
CONTINUOUS
 62
   179
 10
2303.7423602225
 20
294.8201486479
 30
0.0
  0
VERTEX
  5
1FB
  8
0
  6
CONTINUOUS
 62
   179
 10
2303.9978183705
 20
295.0724416384
 30
0.0
  0
VERTEX
  5
1FC
  8
0
  6
CONTINUOUS
 62
   179
 10
2304.2394665497
 20
295.3279270021
 30
0.0
  0
VERTEX
  5
1FD
  8
0
  6
CONTINUOUS
 62
   179
 10
2304.4671359687
 20
295.5864262821
 30
0.0
  0
VERTEX
  5
1FE
  8
0
  6
CONTINUOUS
 62
   179
 10
2304.6806676
 20
295.8477589165
 30
0.0
  0
VERTEX
  5
1FF
  8
0
  6
CONTINUOUS
 62
   179
 10
2304.8799122918
 20
296.1117423641
 30
0.0
  0
VERTEX
  5
200
  8
0
  6
CONTINUOUS
 62
   179
 10
2305.0647308712
 20
296.3781922323
 30
0.0
  0
VERTEX
  5
201
  8
0
  6
CONTINUOUS
 62
   179
 10
2305.2349942425
 20
296.6469224056
 30
0.0
  0
VERTEX
  5
202
  8
0
  6
CONTINUOUS
 62
   179
 10
2305.3905834764
 20
296.9177451757
 30
0.0
  0
VERTEX
  5
203
  8
0
  6
CONTINUOUS
 62
   179
 10
2305.5313898937
 20
297.1904713726
 30
0.0
  0
VERTEX
  5
204
  8
0
  6
CONTINUOUS
 62
   179
 10
2305.657315141
 20
297.4649104968
 30
0.0
  0
VERTEX
  5
205
  8
0
  6
CONTINUOUS
 62
   179
 10
2305.7682712594
 20
297.7408708524
 30
0.0
  0
VERTEX
  5
206
  8
0
  6
CONTINUOUS
 62
   179
 10
2305.864180746
 20
298.0181596806
 30
0.0
  0
VERTEX
  5
207
  8
0
  6
CONTINUOUS
 62
   179
 10
2305.9449766079
 20
298.2965832951
 30
0.0
  0
VERTEX
  5
208
  8
0
  6
CONTINUOUS
 62
   179
 10
2306.010602409
 20
298.5759472166
 30
0.0
  0
VERTEX
  5
209
  8
0
  6
CONTINUOUS
 62
   179
 10
2306.0610123097
 20
298.8560563093
 30
0.0
  0
VERTEX
  5
20A
  8
0
  6
CONTINUOUS
 62
   179
 10
2306.0961710987
 20
299.1367149165
 30
0.0
  0
VERTEX
  5
20B
  8
0
  6
CONTINUOUS
 62
   179
 10
2306.1160542174
 20
299.417726998
 30
0.0
  0
VERTEX
  5
20C
  8
0
  6
CONTINUOUS
 62
   179
 10
2306.1206477775
 20
299.6988962666
 30
0.0
  0
VERTEX
  5
20D
  8
0
  6
CONTINUOUS
 62
   179
 10
2306.1099485705
 20
299.9800263252
 30
0.0
  0
VERTEX
  5
20E
  8
0
  6
CONTINUOUS
 62
   179
 10
2306.0839640696
 20
300.2609208043
 30
0.0
  0
VERTEX
  5
20F
  8
0
  6
CONTINUOUS
 62
   179
 10
2306.0427124252
 20
300.5413834988
 30
0.0
  0
VERTEX
  5
210
  8
0
  6
CONTINUOUS
 62
   179
 10
2305.9862224514
 20
300.8212185052
 30
0.0
  0
VERTEX
  5
211
  8
0
  6
CONTINUOUS
 62
   179
 10
2305.9145336067
 20
301.1002303585
 30
0.0
  0
VERTEX
  5
212
  8
0
  6
CONTINUOUS
 62
   179
 10
2305.8276959657
 20
301.3782241687
 30
0.0
  0
VERTEX
  5
213
  8
0
  6
CONTINUOUS
 62
   179
 10
2305.7257701847
 20
301.6550057567
 30
0.0
  0
VERTEX
  5
214
  8
0
  6
CONTINUOUS
 62
   179
 10
2305.6088274588
 20
301.9303817905
 30
0.0
  0
VERTEX
  5
215
  8
0
  6
CONTINUOUS
 62
   179
 10
2305.4769494728
 20
302.2041599195
 30
0.0
  0
VERTEX
  5
216
  8
0
  6
CONTINUOUS
 62
   179
 10
2305.3302283434
 20
302.4761489094
 30
0.0
  0
VERTEX
  5
217
  8
0
  6
CONTINUOUS
 62
   179
 10
2305.1687665556
 20
302.7461587758
 30
0.0
  0
VERTEX
  5
218
  8
0
  6
CONTINUOUS
 62
   179
 10
2304.9926768905
 20
303.0140009163
 30
0.0
  0
VERTEX
  5
219
  8
0
  6
CONTINUOUS
 62
   179
 10
2304.802082347
 20
303.2794882432
 30
0.0
  0
VERTEX
  5
21A
  8
0
  6
CONTINUOUS
 62
   179
 10
2304.5971160555
 20
303.5424353131
 30
0.0
  0
VERTEX
  5
21B
  8
0
  6
CONTINUOUS
 62
   179
 10
2304.3779211853
 20
303.8026584573
 30
0.0
  0
VERTEX
  5
21C
  8
0
  6
CONTINUOUS
 62
   179
 10
2304.144650844
 20
304.0599759097
 30
0.0
  0
VERTEX
  5
21D
  8
0
  6
CONTINUOUS
 62
   179
 10
2303.8974679713
 20
304.3142079337
 30
0.0
  0
VERTEX
  5
21E
  8
0
  6
CONTINUOUS
 62
   179
 10
2303.6365452247
 20
304.5651769482
 30
0.0
  0
VERTEX
  5
21F
  8
0
  6
CONTINUOUS
 62
   179
 10
2303.362064859
 20
304.8127076509
 30
0.0
  0
VERTEX
  5
220
  8
0
  6
CONTINUOUS
 62
   179
 10
2303.0742185989
 20
305.0566271414
 30
0.0
  0
VERTEX
  5
221
  8
0
  6
CONTINUOUS
 62
   179
 10
2302.7732075054
 20
305.2967650418
 30
0.0
  0
VERTEX
  5
222
  8
0
  6
CONTINUOUS
 62
   179
 10
2302.4592418349
 20
305.5329536155
 30
0.0
  0
VERTEX
  5
223
  8
0
  6
CONTINUOUS
 62
   179
 10
2302.1325408929
 20
305.7650278844
 30
0.0
  0
VERTEX
  5
224
  8
0
  6
CONTINUOUS
 62
   179
 10
2301.7933328802
 20
305.9928257446
 30
0.0
  0
VERTEX
  5
225
  8
0
  6
CONTINUOUS
 62
   179
 10
2301.441854734
 20
306.216188079
 30
0.0
  0
VERTEX
  5
226
  8
0
  6
CONTINUOUS
 62
   179
 10
2301.0783519621
 20
306.4349588688
 30
0.0
  0
VERTEX
  5
227
  8
0
  6
CONTINUOUS
 62
   179
 10
2300.7030784716
 20
306.6489853023
 30
0.0
  0
VERTEX
  5
228
  8
0
  6
CONTINUOUS
 62
   179
 10
2300.3162963913
 20
306.858117882
 30
0.0
  0
VERTEX
  5
229
  8
0
  6
CONTINUOUS
 62
   179
 10
2299.9182758889
 20
307.0622105284
 30
0.0
  0
VERTEX
  5
22A
  8
0
  6
CONTINUOUS
 62
   179
 10
2299.5092949821
 20
307.2611206827
 30
0.0
  0
VERTEX
  5
22B
  8
0
  6
CONTINUOUS
 62
   179
 10
2299.0896393444
 20
307.454709406
 30
0.0
  0
VERTEX
  5
22C
  8
0
  6
CONTINUOUS
 62
   179
 10
2298.6596021059
 20
307.6428414763
 30
0.0
  0
VERTEX
  5
22D
  8
0
  6
CONTINUOUS
 62
   179
 10
2298.2194836478
 20
307.8253854831
 30
0.0
  0
VERTEX
  5
22E
  8
0
  6
CONTINUOUS
 62
   179
 10
2297.7695913933
 20
308.0022139195
 30
0.0
  0
VERTEX
  5
22F
  8
0
  6
CONTINUOUS
 62
   179
 10
2297.3102395927
 20
308.1732032704
 30
0.0
  0
VERTEX
  5
230
  8
0
  6
CONTINUOUS
 62
   179
 10
2296.8417491036
 20
308.3382340996
 30
0.0
  0
VERTEX
  5
231
  8
0
  6
CONTINUOUS
 62
   179
 10
2296.3644471671
 20
308.4971911331
 30
0.0
  0
VERTEX
  5
232
  8
0
  6
CONTINUOUS
 62
   179
 10
2295.878667179
 20
308.649963339
 30
0.0
  0
VERTEX
  5
233
  8
0
  6
CONTINUOUS
 62
   179
 10
2295.3847484571
 20
308.796444006
 30
0.0
  0
VERTEX
  5
234
  8
0
  6
CONTINUOUS
 62
   179
 10
2294.8830360042
 20
308.936530817
 30
0.0
  0
VERTEX
  5
235
  8
0
  6
CONTINUOUS
 62
   179
 10
2294.3738802669
 20
309.0701259214
 30
0.0
  0
VERTEX
  5
236
  8
0
  6
CONTINUOUS
 62
   179
 10
2293.8576368909
 20
309.1971360028
 30
0.0
  0
VERTEX
  5
237
  8
0
  6
CONTINUOUS
 62
   179
 10
2293.3346664728
 20
309.3174723446
 30
0.0
  0
VERTEX
  5
238
  8
0
  6
CONTINUOUS
 62
   179
 10
2292.805334308
 20
309.4310508916
 30
0.0
  0
VERTEX
  5
239
  8
0
  6
CONTINUOUS
 62
   179
 10
2292.2700101353
 20
309.5377923092
 30
0.0
  0
VERTEX
  5
23A
  8
0
  6
CONTINUOUS
 62
   179
 10
2291.7290678794
 20
309.6376220385
 30
0.0
  0
VERTEX
  5
23B
  8
0
  6
CONTINUOUS
 62
   179
 10
2291.1828853888
 20
309.7304703481
 30
0.0
  0
VERTEX
  5
23C
  8
0
  6
CONTINUOUS
 62
   179
 10
2290.6318441727
 20
309.8162723835
 30
0.0
  0
VERTEX
  5
23D
  8
0
  6
CONTINUOUS
 62
   179
 10
2290.0763291337
 20
309.894968212
 30
0.0
  0
VERTEX
  5
23E
  8
0
  6
CONTINUOUS
 62
   179
 10
2289.5167282998
 20
309.9665028643
 30
0.0
  0
VERTEX
  5
23F
  8
0
  6
CONTINUOUS
 62
   179
 10
2288.9534325527
 20
310.0308263734
 30
0.0
  0
VERTEX
  5
240
  8
0
  6
CONTINUOUS
 62
   179
 10
2288.3868353549
 20
310.0878938094
 30
0.0
  0
SEQEND
  5
381
  8
0
  6
CONTINUOUS
 62
   179
  0
POLYLINE
  5
DE
  8
0
  6
CONTINUOUS
 62
   179
 66
     1
 10
0.0
 20
0.0
 30
0.0
 70
   128
  0
VERTEX
  5
241
  8
0
  6
CONTINUOUS
 62
   179
 10
2224.8643734016
 20
274.3803874689
 30
0.0
  0
VERTEX
  5
242
  8
0
  6
CONTINUOUS
 62
   179
 10
2225.541343889
 20
274.4456921288
 30
0.0
  0
VERTEX
  5
243
  8
0
  6
CONTINUOUS
 62
   179
 10
2226.2156037085
 20
274.5233022468
 30
0.0
  0
VERTEX
  5
244
  8
0
  6
CONTINUOUS
 62
   179
 10
2226.8866870812
 20
274.6131642098
 30
0.0
  0
VERTEX
  5
245
  8
0
  6
CONTINUOUS
 62
   179
 10
2227.5541304223
 20
274.7152159413
 30
0.0
  0
VERTEX
  5
246
  8
0
  6
CONTINUOUS
 62
   179
 10
2228.2174726618
 20
274.8293869437
 30
0.0
  0
VERTEX
  5
247
  8
0
  6
CONTINUOUS
 62
   179
 10
2228.8762555626
 20
274.9555983478
 30
0.0
  0
VERTEX
  5
248
  8
0
  6
CONTINUOUS
 62
   179
 10
2229.5300240372
 20
275.0937629666
 30
0.0
  0
VERTEX
  5
249
  8
0
  6
CONTINUOUS
 62
   179
 10
2230.1783264621
 20
275.243785356
 30
0.0
  0
VERTEX
  5
24A
  8
0
  6
CONTINUOUS
 62
   179
 10
2230.8207149897
 20
275.4055618804
 30
0.0
  0
VERTEX
  5
24B
  8
0
  6
CONTINUOUS
 62
   179
 10
2231.4567458578
 20
275.5789807846
 30
0.0
  0
VERTEX
  5
24C
  8
0
  6
CONTINUOUS
 62
   179
 10
2232.0859796961
 20
275.7639222708
 30
0.0
  0
VERTEX
  5
24D
  8
0
  6
CONTINUOUS
 62
   179
 10
2232.7079818295
 20
275.9602585811
 30
0.0
  0
VERTEX
  5
24E
  8
0
  6
CONTINUOUS
 62
   179
 10
2233.3223225787
 20
276.1678540866
 30
0.0
  0
VERTEX
  5
24F
  8
0
  6
CONTINUOUS
 62
   179
 10
2233.9285775569
 20
276.3865653801
 30
0.0
  0
VERTEX
  5
250
  8
0
  6
CONTINUOUS
 62
   179
 10
2234.526327963
 20
276.6162413757
 30
0.0
  0
VERTEX
  5
251
  8
0
  6
CONTINUOUS
 62
   179
 10
2235.1151608706
 20
276.8567234132
 30
0.0
  0
VERTEX
  5
252
  8
0
  6
CONTINUOUS
 62
   179
 10
2235.6946695139
 20
277.1078453676
 30
0.0
  0
VERTEX
  5
253
  8
0
  6
CONTINUOUS
 62
   179
 10
2236.2644535681
 20
277.3694337636
 30
0.0
  0
VERTEX
  5
254
  8
0
  6
CONTINUOUS
 62
   179
 10
2236.824119426
 20
277.6413078959
 30
0.0
  0
VERTEX
  5
255
  8
0
  6
CONTINUOUS
 62
   179
 10
2237.3732804703
 20
277.9232799538
 30
0.0
  0
VERTEX
  5
256
  8
0
  6
CONTINUOUS
 62
   179
 10
2237.9115573404
 20
278.2151551509
 30
0.0
  0
VERTEX
  5
257
  8
0
  6
CONTINUOUS
 62
   179
 10
2238.4385781943
 20
278.5167318596
 30
0.0
  0
VERTEX
  5
258
  8
0
  6
CONTINUOUS
 62
   179
 10
2238.9539789659
 20
278.8278017506
 30
0.0
  0
VERTEX
  5
259
  8
0
  6
CONTINUOUS
 62
   179
 10
2239.457403616
 20
279.1481499368
 30
0.0
  0
VERTEX
  5
25A
  8
0
  6
CONTINUOUS
 62
   179
 10
2239.9485043789
 20
279.4775551214
 30
0.0
  0
VERTEX
  5
25B
  8
0
  6
CONTINUOUS
 62
   179
 10
2240.4269420018
 20
279.8157897514
 30
0.0
  0
VERTEX
  5
25C
  8
0
  6
CONTINUOUS
 62
   179
 10
2240.8923859799
 20
280.162620174
 30
0.0
  0
VERTEX
  5
25D
  8
0
  6
CONTINUOUS
 62
   179
 10
2241.3445147843
 20
280.5178067986
 30
0.0
  0
VERTEX
  5
25E
  8
0
  6
CONTINUOUS
 62
   179
 10
2241.7830160843
 20
280.8811042623
 30
0.0
  0
VERTEX
  5
25F
  8
0
  6
CONTINUOUS
 62
   179
 10
2242.2075869629
 20
281.2522615989
 30
0.0
  0
VERTEX
  5
260
  8
0
  6
CONTINUOUS
 62
   179
 10
2242.6179341265
 20
281.6310224129
 30
0.0
  0
VERTEX
  5
261
  8
0
  6
CONTINUOUS
 62
   179
 10
2243.013774107
 20
282.0171250562
 30
0.0
  0
VERTEX
  5
262
  8
0
  6
CONTINUOUS
 62
   179
 10
2243.3948334581
 20
282.4103028088
 30
0.0
  0
VERTEX
  5
263
  8
0
  6
CONTINUOUS
 62
   179
 10
2243.7608489439
 20
282.8102840634
 30
0.0
  0
VERTEX
  5
264
  8
0
  6
CONTINUOUS
 62
   179
 10
2244.1115677206
 20
283.2167925129
 30
0.0
  0
VERTEX
  5
265
  8
0
  6
CONTINUOUS
 62
   179
 10
2244.4467475116
 20
283.629547341
 30
0.0
  0
VERTEX
  5
266
  8
0
  6
CONTINUOUS
 62
   179
 10
2244.7661567746
 20
284.0482634165
 30
0.0
  0
VERTEX
  5
267
  8
0
  6
CONTINUOUS
 62
   179
 10
2245.0695748615
 20
284.4726514903
 30
0.0
  0
VERTEX
  5
268
  8
0
  6
CONTINUOUS
 62
   179
 10
2245.3567921711
 20
284.9024183948
 30
0.0
  0
VERTEX
  5
269
  8
0
  6
CONTINUOUS
 62
   179
 10
2245.6276102934
 20
285.337267247
 30
0.0
  0
VERTEX
  5
26A
  8
0
  6
CONTINUOUS
 62
   179
 10
2245.8818421473
 20
285.7768976531
 30
0.0
  0
VERTEX
  5
26B
  8
0
  6
CONTINUOUS
 62
   179
 10
2246.1193121092
 20
286.2210059161
 30
0.0
  0
VERTEX
  5
26C
  8
0
  6
CONTINUOUS
 62
   179
 10
2246.3398561349
 20
286.6692852461
 30
0.0
  0
VERTEX
  5
26D
  8
0
  6
CONTINUOUS
 62
   179
 10
2246.5433218723
 20
287.1214259714
 30
0.0
  0
VERTEX
  5
26E
  8
0
  6
CONTINUOUS
 62
   179
 10
2246.7295687674
 20
287.577115753
 30
0.0
  0
VERTEX
  5
26F
  8
0
  6
CONTINUOUS
 62
   179
 10
2246.8984681607
 20
288.0360398002
 30
0.0
  0
VERTEX
  5
270
  8
0
  6
CONTINUOUS
 62
   179
 10
2247.0499033763
 20
288.4978810883
 30
0.0
  0
VERTEX
  5
271
  8
0
  6
CONTINUOUS
 62
   179
 10
2247.1837698029
 20
288.9623205769
 30
0.0
  0
VERTEX
  5
272
  8
0
  6
CONTINUOUS
 62
   179
 10
2247.2999749654
 20
289.4290374312
 30
0.0
  0
VERTEX
  5
273
  8
0
  6
CONTINUOUS
 62
   179
 10
2247.3984385893
 20
289.897709243
 30
0.0
  0
VERTEX
  5
274
  8
0
  6
CONTINUOUS
 62
   179
 10
2247.4790926559
 20
290.3680122535
 30
0.0
  0
VERTEX
  5
275
  8
0
  6
CONTINUOUS
 62
   179
 10
2247.5418814492
 20
290.8396215774
 30
0.0
  0
VERTEX
  5
276
  8
0
  6
CONTINUOUS
 62
   179
 10
2247.5867615948
 20
291.3122114266
 30
0.0
  0
VERTEX
  5
277
  8
0
  6
CONTINUOUS
 62
   179
 10
2247.6137020894
 20
291.785455336
 30
0.0
  0
VERTEX
  5
278
  8
0
  6
CONTINUOUS
 62
   179
 10
2247.6226843226
 20
292.2590263884
 30
0.0
  0
VERTEX
  5
279
  8
0
  6
CONTINUOUS
 62
   179
 10
2247.6137020894
 20
292.7325974409
 30
0.0
  0
VERTEX
  5
27A
  8
0
  6
CONTINUOUS
 62
   179
 10
2247.5867615948
 20
293.2058413502
 30
0.0
  0
VERTEX
  5
27B
  8
0
  6
CONTINUOUS
 62
   179
 10
2247.5418814492
 20
293.6784311995
 30
0.0
  0
VERTEX
  5
27C
  8
0
  6
CONTINUOUS
 62
   179
 10
2247.4790926558
 20
294.1500405233
 30
0.0
  0
VERTEX
  5
27D
  8
0
  6
CONTINUOUS
 62
   179
 10
2247.3984385893
 20
294.6203435338
 30
0.0
  0
VERTEX
  5
27E
  8
0
  6
CONTINUOUS
 62
   179
 10
2247.2999749654
 20
295.0890153456
 30
0.0
  0
VERTEX
  5
27F
  8
0
  6
CONTINUOUS
 62
   179
 10
2247.1837698029
 20
295.5557321999
 30
0.0
  0
VERTEX
  5
280
  8
0
  6
CONTINUOUS
 62
   179
 10
2247.0499033763
 20
296.0201716886
 30
0.0
  0
VERTEX
  5
281
  8
0
  6
CONTINUOUS
 62
   179
 10
2246.8984681606
 20
296.4820129766
 30
0.0
  0
VERTEX
  5
282
  8
0
  6
CONTINUOUS
 62
   179
 10
2246.7295687674
 20
296.9409370239
 30
0.0
  0
VERTEX
  5
283
  8
0
  6
CONTINUOUS
 62
   179
 10
2246.5433218723
 20
297.3966268055
 30
0.0
  0
VERTEX
  5
284
  8
0
  6
CONTINUOUS
 62
   179
 10
2246.3398561348
 20
297.8487675307
 30
0.0
  0
VERTEX
  5
285
  8
0
  6
CONTINUOUS
 62
   179
 10
2246.1193121092
 20
298.2970468607
 30
0.0
  0
VERTEX
  5
286
  8
0
  6
CONTINUOUS
 62
   179
 10
2245.8818421473
 20
298.7411551238
 30
0.0
  0
VERTEX
  5
287
  8
0
  6
CONTINUOUS
 62
   179
 10
2245.6276102934
 20
299.1807855298
 30
0.0
  0
VERTEX
  5
288
  8
0
  6
CONTINUOUS
 62
   179
 10
2245.356792171
 20
299.615634382
 30
0.0
  0
VERTEX
  5
289
  8
0
  6
CONTINUOUS
 62
   179
 10
2245.0695748615
 20
300.0454012865
 30
0.0
  0
VERTEX
  5
28A
  8
0
  6
CONTINUOUS
 62
   179
 10
2244.7661567745
 20
300.4697893603
 30
0.0
  0
VERTEX
  5
28B
  8
0
  6
CONTINUOUS
 62
   179
 10
2244.4467475115
 20
300.8885054358
 30
0.0
  0
VERTEX
  5
28C
  8
0
  6
CONTINUOUS
 62
   179
 10
2244.1115677205
 20
301.3012602639
 30
0.0
  0
VERTEX
  5
28D
  8
0
  6
CONTINUOUS
 62
   179
 10
2243.7608489438
 20
301.7077687134
 30
0.0
  0
VERTEX
  5
28E
  8
0
  6
CONTINUOUS
 62
   179
 10
2243.394833458
 20
302.107749968
 30
0.0
  0
VERTEX
  5
28F
  8
0
  6
CONTINUOUS
 62
   179
 10
2243.0137741069
 20
302.5009277206
 30
0.0
  0
VERTEX
  5
290
  8
0
  6
CONTINUOUS
 62
   179
 10
2242.6179341264
 20
302.8870303639
 30
0.0
  0
VERTEX
  5
291
  8
0
  6
CONTINUOUS
 62
   179
 10
2242.2075869628
 20
303.2657911779
 30
0.0
  0
VERTEX
  5
292
  8
0
  6
CONTINUOUS
 62
   179
 10
2241.7830160842
 20
303.6369485145
 30
0.0
  0
VERTEX
  5
293
  8
0
  6
CONTINUOUS
 62
   179
 10
2241.3445147842
 20
304.0002459782
 30
0.0
  0
VERTEX
  5
294
  8
0
  6
CONTINUOUS
 62
   179
 10
2240.8923859798
 20
304.3554326028
 30
0.0
  0
VERTEX
  5
295
  8
0
  6
CONTINUOUS
 62
   179
 10
2240.4269420017
 20
304.7022630254
 30
0.0
  0
VERTEX
  5
296
  8
0
  6
CONTINUOUS
 62
   179
 10
2239.9485043788
 20
305.0404976553
 30
0.0
  0
VERTEX
  5
297
  8
0
  6
CONTINUOUS
 62
   179
 10
2239.4574036159
 20
305.36990284
 30
0.0
  0
VERTEX
  5
298
  8
0
  6
CONTINUOUS
 62
   179
 10
2238.9539789657
 20
305.6902510262
 30
0.0
  0
VERTEX
  5
299
  8
0
  6
CONTINUOUS
 62
   179
 10
2238.4385781941
 20
306.0013209172
 30
0.0
  0
VERTEX
  5
29A
  8
0
  6
CONTINUOUS
 62
   179
 10
2237.9115573402
 20
306.3028976259
 30
0.0
  0
VERTEX
  5
29B
  8
0
  6
CONTINUOUS
 62
   179
 10
2237.3732804702
 20
306.594772823
 30
0.0
  0
VERTEX
  5
29C
  8
0
  6
CONTINUOUS
 62
   179
 10
2236.8241194259
 20
306.8767448808
 30
0.0
  0
VERTEX
  5
29D
  8
0
  6
CONTINUOUS
 62
   179
 10
2236.2644535679
 20
307.1486190132
 30
0.0
  0
VERTEX
  5
29E
  8
0
  6
CONTINUOUS
 62
   179
 10
2235.6946695138
 20
307.4102074092
 30
0.0
  0
VERTEX
  5
29F
  8
0
  6
CONTINUOUS
 62
   179
 10
2235.1151608705
 20
307.6613293636
 30
0.0
  0
VERTEX
  5
2A0
  8
0
  6
CONTINUOUS
 62
   179
 10
2234.5263279628
 20
307.9018114011
 30
0.0
  0
VERTEX
  5
2A1
  8
0
  6
CONTINUOUS
 62
   179
 10
2233.9285775568
 20
308.1314873967
 30
0.0
  0
VERTEX
  5
2A2
  8
0
  6
CONTINUOUS
 62
   179
 10
2233.3223225785
 20
308.3501986902
 30
0.0
  0
VERTEX
  5
2A3
  8
0
  6
CONTINUOUS
 62
   179
 10
2232.7079818293
 20
308.5577941956
 30
0.0
  0
VERTEX
  5
2A4
  8
0
  6
CONTINUOUS
 62
   179
 10
2232.0859796959
 20
308.754130506
 30
0.0
  0
VERTEX
  5
2A5
  8
0
  6
CONTINUOUS
 62
   179
 10
2231.4567458577
 20
308.9390719921
 30
0.0
  0
VERTEX
  5
2A6
  8
0
  6
CONTINUOUS
 62
   179
 10
2230.8207149896
 20
309.1124908963
 30
0.0
  0
VERTEX
  5
2A7
  8
0
  6
CONTINUOUS
 62
   179
 10
2230.1783264619
 20
309.2742674208
 30
0.0
  0
VERTEX
  5
2A8
  8
0
  6
CONTINUOUS
 62
   179
 10
2229.530024037
 20
309.4242898101
 30
0.0
  0
VERTEX
  5
2A9
  8
0
  6
CONTINUOUS
 62
   179
 10
2228.8762555624
 20
309.562454429
 30
0.0
  0
VERTEX
  5
2AA
  8
0
  6
CONTINUOUS
 62
   179
 10
2228.2174726617
 20
309.688665833
 30
0.0
  0
VERTEX
  5
2AB
  8
0
  6
CONTINUOUS
 62
   179
 10
2227.5541304222
 20
309.8028368355
 30
0.0
  0
VERTEX
  5
2AC
  8
0
  6
CONTINUOUS
 62
   179
 10
2226.886687081
 20
309.9048885669
 30
0.0
  0
VERTEX
  5
2AD
  8
0
  6
CONTINUOUS
 62
   179
 10
2226.2156037084
 20
309.99475053
 30
0.0
  0
VERTEX
  5
2AE
  8
0
  6
CONTINUOUS
 62
   179
 10
2225.5413438888
 20
310.072360648
 30
0.0
  0
SEQEND
  5
382
  8
0
  6
CONTINUOUS
 62
   179
  0
POLYLINE
  5
DF
  8
0
  6
CONTINUOUS
 62
   179
 66
     1
 10
0.0
 20
0.0
 30
0.0
 70
   128
  0
VERTEX
  5
2AF
  8
0
  6
CONTINUOUS
 62
   179
 10
2120.9831197852
 20
287.3830339572
 30
0.0
  0
VERTEX
  5
2B0
  8
0
  6
CONTINUOUS
 62
   179
 10
2121.6070458201
 20
287.4496208578
 30
0.0
  0
VERTEX
  5
2B1
  8
0
  6
CONTINUOUS
 62
   179
 10
2122.2270956265
 20
287.5239866348
 30
0.0
  0
VERTEX
  5
2B2
  8
0
  6
CONTINUOUS
 62
   179
 10
2122.8428427694
 20
287.6060801434
 30
0.0
  0
VERTEX
  5
2B3
  8
0
  6
CONTINUOUS
 62
   179
 10
2123.4538637728
 20
287.6958449246
 30
0.0
  0
VERTEX
  5
2B4
  8
0
  6
CONTINUOUS
 62
   179
 10
2124.0597384113
 20
287.7932192432
 30
0.0
  0
VERTEX
  5
2B5
  8
0
  6
CONTINUOUS
 62
   179
 10
2124.6600499987
 20
287.8981361307
 30
0.0
  0
VERTEX
  5
2B6
  8
0
  6
CONTINUOUS
 62
   179
 10
2125.2543856749
 20
288.0105234311
 30
0.0
  0
VERTEX
  5
2B7
  8
0
  6
CONTINUOUS
 62
   179
 10
2125.8423366895
 20
288.130303851
 30
0.0
  0
VERTEX
  5
2B8
  8
0
  6
CONTINUOUS
 62
   179
 10
2126.4234986832
 20
288.2573950121
 30
0.0
  0
VERTEX
  5
2B9
  8
0
  6
CONTINUOUS
 62
   179
 10
2126.997471966
 20
288.3917095084
 30
0.0
  0
VERTEX
  5
2BA
  8
0
  6
CONTINUOUS
 62
   179
 10
2127.5638617915
 20
288.533154966
 30
0.0
  0
VERTEX
  5
2BB
  8
0
  6
CONTINUOUS
 62
   179
 10
2128.122278629
 20
288.6816341067
 30
0.0
  0
VERTEX
  5
2BC
  8
0
  6
CONTINUOUS
 62
   179
 10
2128.6723384313
 20
288.837044815
 30
0.0
  0
VERTEX
  5
2BD
  8
0
  6
CONTINUOUS
 62
   179
 10
2129.2136628983
 20
288.9992802084
 30
0.0
  0
VERTEX
  5
2BE
  8
0
  6
CONTINUOUS
 62
   179
 10
2129.745879738
 20
289.1682287104
 30
0.0
  0
VERTEX
  5
2BF
  8
0
  6
CONTINUOUS
 62
   179
 10
2130.2686229219
 20
289.3437741279
 30
0.0
  0
VERTEX
  5
2C0
  8
0
  6
CONTINUOUS
 62
   179
 10
2130.7815329368
 20
289.5257957309
 30
0.0
  0
VERTEX
  5
2C1
  8
0
  6
CONTINUOUS
 62
   179
 10
2131.2842570325
 20
289.714168335
 30
0.0
  0
VERTEX
  5
2C2
  8
0
  6
CONTINUOUS
 62
   179
 10
2131.7764494638
 20
289.9087623885
 30
0.0
  0
VERTEX
  5
2C3
  8
0
  6
CONTINUOUS
 62
   179
 10
2132.2577717289
 20
290.1094440605
 30
0.0
  0
VERTEX
  5
2C4
  8
0
  6
CONTINUOUS
 62
   179
 10
2132.7278928015
 20
290.3160753336
 30
0.0
  0
VERTEX
  5
2C5
  8
0
  6
CONTINUOUS
 62
   179
 10
2133.1864893592
 20
290.5285140986
 30
0.0
  0
VERTEX
  5
2C6
  8
0
  6
CONTINUOUS
 62
   179
 10
2133.6332460054
 20
290.7466142521
 30
0.0
  0
VERTEX
  5
2C7
  8
0
  6
CONTINUOUS
 62
   179
 10
2134.0678554861
 20
290.9702257973
 30
0.0
  0
VERTEX
  5
2C8
  8
0
  6
CONTINUOUS
 62
   179
 10
2134.4900189017
 20
291.1991949469
 30
0.0
  0
VERTEX
  5
2C9
  8
0
  6
CONTINUOUS
 62
   179
 10
2134.8994459123
 20
291.4333642289
 30
0.0
  0
VERTEX
  5
2CA
  8
0
  6
CONTINUOUS
 62
   179
 10
2135.2958549371
 20
291.6725725949
 30
0.0
  0
VERTEX
  5
2CB
  8
0
  6
CONTINUOUS
 62
   179
 10
2135.6789733485
 20
291.9166555311
 30
0.0
  0
VERTEX
  5
2CC
  8
0
  6
CONTINUOUS
 62
   179
 10
2136.0485376596
 20
292.165445171
 30
0.0
  0
VERTEX
  5
2CD
  8
0
  6
CONTINUOUS
 62
   179
 10
2136.4042937049
 20
292.4187704114
 30
0.0
  0
VERTEX
  5
2CE
  8
0
  6
CONTINUOUS
 62
   179
 10
2136.7459968158
 20
292.6764570295
 30
0.0
  0
VERTEX
  5
2CF
  8
0
  6
CONTINUOUS
 62
   179
 10
2137.0734119882
 20
292.9383278031
 30
0.0
  0
VERTEX
  5
2D0
  8
0
  6
CONTINUOUS
 62
   179
 10
2137.3863140445
 20
293.2042026324
 30
0.0
  0
VERTEX
  5
2D1
  8
0
  6
CONTINUOUS
 62
   179
 10
2137.6844877886
 20
293.4738986637
 30
0.0
  0
VERTEX
  5
2D2
  8
0
  6
CONTINUOUS
 62
   179
 10
2137.9677281535
 20
293.7472304156
 30
0.0
  0
VERTEX
  5
2D3
  8
0
  6
CONTINUOUS
 62
   179
 10
2138.2358403425
 20
294.0240099058
 30
0.0
  0
VERTEX
  5
2D4
  8
0
  6
CONTINUOUS
 62
   179
 10
2138.4886399633
 20
294.3040467813
 30
0.0
  0
VERTEX
  5
2D5
  8
0
  6
CONTINUOUS
 62
   179
 10
2138.7259531548
 20
294.5871484486
 30
0.0
  0
VERTEX
  5
2D6
  8
0
  6
CONTINUOUS
 62
   179
 10
2138.9476167064
 20
294.8731202065
 30
0.0
  0
VERTEX
  5
2D7
  8
0
  6
CONTINUOUS
 62
   179
 10
2139.1534781704
 20
295.1617653798
 30
0.0
  0
VERTEX
  5
2D8
  8
0
  6
CONTINUOUS
 62
   179
 10
2139.3433959672
 20
295.4528854547
 30
0.0
  0
VERTEX
  5
2D9
  8
0
  6
CONTINUOUS
 62
   179
 10
2139.517239482
 20
295.7462802156
 30
0.0
  0
VERTEX
  5
2DA
  8
0
  6
CONTINUOUS
 62
   179
 10
2139.6748891551
 20
296.041747882
 30
0.0
  0
VERTEX
  5
2DB
  8
0
  6
CONTINUOUS
 62
   179
 10
2139.8162365641
 20
296.3390852482
 30
0.0
  0
VERTEX
  5
2DC
  8
0
  6
CONTINUOUS
 62
   179
 10
2139.9411844983
 20
296.6380878224
 30
0.0
  0
VERTEX
  5
2DD
  8
0
  6
CONTINUOUS
 62
   179
 10
2140.0496470255
 20
296.9385499677
 30
0.0
  0
VERTEX
  5
2DE
  8
0
  6
CONTINUOUS
 62
   179
 10
2140.1415495514
 20
297.2402650432
 30
0.0
  0
VERTEX
  5
2DF
  8
0
  6
CONTINUOUS
 62
   179
 10
2140.2168288707
 20
297.5430255465
 30
0.0
  0
VERTEX
  5
2E0
  8
0
  6
CONTINUOUS
 62
   179
 10
2140.2754332104
 20
297.8466232561
 30
0.0
  0
VERTEX
  5
2E1
  8
0
  6
CONTINUOUS
 62
   179
 10
2140.317322266
 20
298.1508493747
 30
0.0
  0
VERTEX
  5
2E2
  8
0
  6
CONTINUOUS
 62
   179
 10
2140.3424672285
 20
298.455494673
 30
0.0
  0
VERTEX
  5
2E3
  8
0
  6
CONTINUOUS
 62
   179
 10
2140.3508508046
 20
298.7603496332
 30
0.0
  0
VERTEX
  5
2E4
  8
0
  6
CONTINUOUS
 62
   179
 10
2140.3424672285
 20
299.0652045934
 30
0.0
  0
VERTEX
  5
2E5
  8
0
  6
CONTINUOUS
 62
   179
 10
2140.317322266
 20
299.3698498917
 30
0.0
  0
VERTEX
  5
2E6
  8
0
  6
CONTINUOUS
 62
   179
 10
2140.2754332105
 20
299.6740760103
 30
0.0
  0
VERTEX
  5
2E7
  8
0
  6
CONTINUOUS
 62
   179
 10
2140.2168288707
 20
299.9776737199
 30
0.0
  0
VERTEX
  5
2E8
  8
0
  6
CONTINUOUS
 62
   179
 10
2140.1415495514
 20
300.2804342232
 30
0.0
  0
VERTEX
  5
2E9
  8
0
  6
CONTINUOUS
 62
   179
 10
2140.0496470255
 20
300.5821492987
 30
0.0
  0
VERTEX
  5
2EA
  8
0
  6
CONTINUOUS
 62
   179
 10
2139.9411844983
 20
300.8826114439
 30
0.0
  0
VERTEX
  5
2EB
  8
0
  6
CONTINUOUS
 62
   179
 10
2139.8162365642
 20
301.1816140181
 30
0.0
  0
VERTEX
  5
2EC
  8
0
  6
CONTINUOUS
 62
   179
 10
2139.6748891552
 20
301.4789513844
 30
0.0
  0
VERTEX
  5
2ED
  8
0
  6
CONTINUOUS
 62
   179
 10
2139.5172394821
 20
301.7744190508
 30
0.0
  0
VERTEX
  5
2EE
  8
0
  6
CONTINUOUS
 62
   179
 10
2139.3433959673
 20
302.0678138116
 30
0.0
  0
VERTEX
  5
2EF
  8
0
  6
CONTINUOUS
 62
   179
 10
2139.1534781705
 20
302.3589338866
 30
0.0
  0
VERTEX
  5
2F0
  8
0
  6
CONTINUOUS
 62
   179
 10
2138.9476167065
 20
302.6475790599
 30
0.0
  0
VERTEX
  5
2F1
  8
0
  6
CONTINUOUS
 62
   179
 10
2138.7259531549
 20
302.9335508178
 30
0.0
  0
VERTEX
  5
2F2
  8
0
  6
CONTINUOUS
 62
   179
 10
2138.4886399635
 20
303.2166524851
 30
0.0
  0
VERTEX
  5
2F3
  8
0
  6
CONTINUOUS
 62
   179
 10
2138.2358403426
 20
303.4966893606
 30
0.0
  0
VERTEX
  5
2F4
  8
0
  6
CONTINUOUS
 62
   179
 10
2137.9677281536
 20
303.7734688508
 30
0.0
  0
VERTEX
  5
2F5
  8
0
  6
CONTINUOUS
 62
   179
 10
2137.6844877888
 20
304.0468006026
 30
0.0
  0
VERTEX
  5
2F6
  8
0
  6
CONTINUOUS
 62
   179
 10
2137.3863140447
 20
304.316496634
 30
0.0
  0
VERTEX
  5
2F7
  8
0
  6
CONTINUOUS
 62
   179
 10
2137.0734119883
 20
304.5823714633
 30
0.0
  0
VERTEX
  5
2F8
  8
0
  6
CONTINUOUS
 62
   179
 10
2136.745996816
 20
304.8442422369
 30
0.0
  0
VERTEX
  5
2F9
  8
0
  6
CONTINUOUS
 62
   179
 10
2136.4042937051
 20
305.101928855
 30
0.0
  0
VERTEX
  5
2FA
  8
0
  6
CONTINUOUS
 62
   179
 10
2136.0485376598
 20
305.3552540954
 30
0.0
  0
VERTEX
  5
2FB
  8
0
  6
CONTINUOUS
 62
   179
 10
2135.6789733487
 20
305.6040437353
 30
0.0
  0
VERTEX
  5
2FC
  8
0
  6
CONTINUOUS
 62
   179
 10
2135.2958549372
 20
305.8481266715
 30
0.0
  0
VERTEX
  5
2FD
  8
0
  6
CONTINUOUS
 62
   179
 10
2134.8994459125
 20
306.0873350375
 30
0.0
  0
VERTEX
  5
2FE
  8
0
  6
CONTINUOUS
 62
   179
 10
2134.490018902
 20
306.3215043195
 30
0.0
  0
VERTEX
  5
2FF
  8
0
  6
CONTINUOUS
 62
   179
 10
2134.0678554863
 20
306.5504734691
 30
0.0
  0
VERTEX
  5
300
  8
0
  6
CONTINUOUS
 62
   179
 10
2133.6332460056
 20
306.7740850143
 30
0.0
  0
VERTEX
  5
301
  8
0
  6
CONTINUOUS
 62
   179
 10
2133.1864893595
 20
306.9921851678
 30
0.0
  0
VERTEX
  5
302
  8
0
  6
CONTINUOUS
 62
   179
 10
2132.7278928018
 20
307.2046239328
 30
0.0
  0
VERTEX
  5
303
  8
0
  6
CONTINUOUS
 62
   179
 10
2132.2577717291
 20
307.4112552059
 30
0.0
  0
VERTEX
  5
304
  8
0
  6
CONTINUOUS
 62
   179
 10
2131.776449464
 20
307.6119368779
 30
0.0
  0
VERTEX
  5
305
  8
0
  6
CONTINUOUS
 62
   179
 10
2131.2842570327
 20
307.8065309314
 30
0.0
  0
VERTEX
  5
306
  8
0
  6
CONTINUOUS
 62
   179
 10
2130.781532937
 20
307.9949035356
 30
0.0
  0
VERTEX
  5
307
  8
0
  6
CONTINUOUS
 62
   179
 10
2130.2686229221
 20
308.1769251385
 30
0.0
  0
VERTEX
  5
308
  8
0
  6
CONTINUOUS
 62
   179
 10
2129.7458797383
 20
308.352470556
 30
0.0
  0
VERTEX
  5
309
  8
0
  6
CONTINUOUS
 62
   179
 10
2129.2136628986
 20
308.5214190581
 30
0.0
  0
VERTEX
  5
30A
  8
0
  6
CONTINUOUS
 62
   179
 10
2128.6723384315
 20
308.6836544514
 30
0.0
  0
VERTEX
  5
30B
  8
0
  6
CONTINUOUS
 62
   179
 10
2128.1222786293
 20
308.8390651598
 30
0.0
  0
VERTEX
  5
30C
  8
0
  6
CONTINUOUS
 62
   179
 10
2127.5638617917
 20
308.9875443005
 30
0.0
  0
VERTEX
  5
30D
  8
0
  6
CONTINUOUS
 62
   179
 10
2126.9974719662
 20
309.1289897581
 30
0.0
  0
VERTEX
  5
30E
  8
0
  6
CONTINUOUS
 62
   179
 10
2126.4234986835
 20
309.2633042543
 30
0.0
  0
VERTEX
  5
30F
  8
0
  6
CONTINUOUS
 62
   179
 10
2125.8423366898
 20
309.3903954155
 30
0.0
  0
VERTEX
  5
310
  8
0
  6
CONTINUOUS
 62
   179
 10
2125.2543856752
 20
309.5101758353
 30
0.0
  0
VERTEX
  5
311
  8
0
  6
CONTINUOUS
 62
   179
 10
2124.660049999
 20
309.6225631358
 30
0.0
  0
VERTEX
  5
312
  8
0
  6
CONTINUOUS
 62
   179
 10
2124.0597384116
 20
309.7274800233
 30
0.0
  0
VERTEX
  5
313
  8
0
  6
CONTINUOUS
 62
   179
 10
2123.4538637731
 20
309.8248543418
 30
0.0
  0
VERTEX
  5
314
  8
0
  6
CONTINUOUS
 62
   179
 10
2122.8428427697
 20
309.914619123
 30
0.0
  0
VERTEX
  5
315
  8
0
  6
CONTINUOUS
 62
   179
 10
2122.2270956268
 20
309.9967126317
 30
0.0
  0
VERTEX
  5
316
  8
0
  6
CONTINUOUS
 62
   179
 10
2121.6070458204
 20
310.0710784086
 30
0.0
  0
SEQEND
  5
383
  8
0
  6
CONTINUOUS
 62
   179
  0
POLYLINE
  5
E0
  8
0
  6
CONTINUOUS
 62
   179
 66
     1
 10
0.0
 20
0.0
 30
0.0
 70
   128
  0
VERTEX
  5
317
  8
0
  6
CONTINUOUS
 62
   179
 10
2437.4580191855
 20
304.7257536635
 30
0.0
  0
VERTEX
  5
318
  8
0
  6
CONTINUOUS
 62
   179
 10
2437.4940632979
 20
304.7317311922
 30
0.0
  0
VERTEX
  5
319
  8
0
  6
CONTINUOUS
 62
   179
 10
2437.529916823
 20
304.7386132427
 30
0.0
  0
VERTEX
  5
31A
  8
0
  6
CONTINUOUS
 62
   179
 10
2437.5655530254
 20
304.7463946831
 30
0.0
  0
VERTEX
  5
31B
  8
0
  6
CONTINUOUS
 62
   179
 10
2437.6009453322
 20
304.7550697111
 30
0.0
  0
VERTEX
  5
31C
  8
0
  6
CONTINUOUS
 62
   179
 10
2437.6360673521
 20
304.7646318577
 30
0.0
  0
VERTEX
  5
31D
  8
0
  6
CONTINUOUS
 62
   179
 10
2437.6708928955
 20
304.7750739928
 30
0.0
  0
VERTEX
  5
31E
  8
0
  6
CONTINUOUS
 62
   179
 10
2437.7053959936
 20
304.7863883299
 30
0.0
  0
VERTEX
  5
31F
  8
0
  6
CONTINUOUS
 62
   179
 10
2437.7395509184
 20
304.7985664322
 30
0.0
  0
VERTEX
  5
320
  8
0
  6
CONTINUOUS
 62
   179
 10
2437.7733322012
 20
304.8115992187
 30
0.0
  0
VERTEX
  5
321
  8
0
  6
CONTINUOUS
 62
   179
 10
2437.8067146523
 20
304.8254769711
 30
0.0
  0
VERTEX
  5
322
  8
0
  6
CONTINUOUS
 62
   179
 10
2437.8396733789
 20
304.8401893412
 30
0.0
  0
VERTEX
  5
323
  8
0
  6
CONTINUOUS
 62
   179
 10
2437.8721838046
 20
304.8557253583
 30
0.0
  0
VERTEX
  5
324
  8
0
  6
CONTINUOUS
 62
   179
 10
2437.9042216871
 20
304.8720734375
 30
0.0
  0
VERTEX
  5
325
  8
0
  6
CONTINUOUS
 62
   179
 10
2437.9357631365
 20
304.8892213884
 30
0.0
  0
VERTEX
  5
326
  8
0
  6
CONTINUOUS
 62
   179
 10
2437.9667846329
 20
304.9071564242
 30
0.0
  0
VERTEX
  5
327
  8
0
  6
CONTINUOUS
 62
   179
 10
2437.9972630445
 20
304.9258651711
 30
0.0
  0
VERTEX
  5
328
  8
0
  6
CONTINUOUS
 62
   179
 10
2438.0271756441
 20
304.9453336785
 30
0.0
  0
VERTEX
  5
329
  8
0
  6
CONTINUOUS
 62
   179
 10
2438.0565001266
 20
304.9655474292
 30
0.0
  0
VERTEX
  5
32A
  8
0
  6
CONTINUOUS
 62
   179
 10
2438.0852146255
 20
304.9864913501
 30
0.0
  0
VERTEX
  5
32B
  8
0
  6
CONTINUOUS
 62
   179
 10
2438.1132977288
 20
305.008149824
 30
0.0
  0
VERTEX
  5
32C
  8
0
  6
CONTINUOUS
 62
   179
 10
2438.1407284959
 20
305.0305067005
 30
0.0
  0
VERTEX
  5
32D
  8
0
  6
CONTINUOUS
 62
   179
 10
2438.167486472
 20
305.0535453087
 30
0.0
  0
VERTEX
  5
32E
  8
0
  6
CONTINUOUS
 62
   179
 10
2438.1935517045
 20
305.0772484692
 30
0.0
  0
VERTEX
  5
32F
  8
0
  6
CONTINUOUS
 62
   179
 10
2438.2189047571
 20
305.101598507
 30
0.0
  0
VERTEX
  5
330
  8
0
  6
CONTINUOUS
 62
   179
 10
2438.2435267245
 20
305.126577265
 30
0.0
  0
VERTEX
  5
331
  8
0
  6
CONTINUOUS
 62
   179
 10
2438.2673992468
 20
305.1521661171
 30
0.0
  0
VERTEX
  5
332
  8
0
  6
CONTINUOUS
 62
   179
 10
2438.2905045227
 20
305.1783459821
 30
0.0
  0
VERTEX
  5
333
  8
0
  6
CONTINUOUS
 62
   179
 10
2438.3128253232
 20
305.2050973385
 30
0.0
  0
VERTEX
  5
334
  8
0
  6
CONTINUOUS
 62
   179
 10
2438.3343450042
 20
305.2324002382
 30
0.0
  0
VERTEX
  5
335
  8
0
  6
CONTINUOUS
 62
   179
 10
2438.3550475189
 20
305.2602343222
 30
0.0
  0
VERTEX
  5
336
  8
0
  6
CONTINUOUS
 62
   179
 10
2438.37491743
 20
305.2885788352
 30
0.0
  0
VERTEX
  5
337
  8
0
  6
CONTINUOUS
 62
   179
 10
2438.3939399208
 20
305.3174126415
 30
0.0
  0
VERTEX
  5
338
  8
0
  6
CONTINUOUS
 62
   179
 10
2438.4121008068
 20
305.3467142401
 30
0.0
  0
VERTEX
  5
339
  8
0
  6
CONTINUOUS
 62
   179
 10
2438.4293865459
 20
305.3764617817
 30
0.0
  0
VERTEX
  5
33A
  8
0
  6
CONTINUOUS
 62
   179
 10
2438.4457842483
 20
305.4066330841
 30
0.0
  0
VERTEX
  5
33B
  8
0
  6
CONTINUOUS
 62
   179
 10
2438.4612816868
 20
305.4372056494
 30
0.0
  0
VERTEX
  5
33C
  8
0
  6
CONTINUOUS
 62
   179
 10
2438.4758673052
 20
305.4681566802
 30
0.0
  0
VERTEX
  5
33D
  8
0
  6
CONTINUOUS
 62
   179
 10
2438.4895302274
 20
305.4994630971
 30
0.0
  0
VERTEX
  5
33E
  8
0
  6
CONTINUOUS
 62
   179
 10
2438.5022602652
 20
305.5311015555
 30
0.0
  0
VERTEX
  5
33F
  8
0
  6
CONTINUOUS
 62
   179
 10
2438.5140479262
 20
305.5630484635
 30
0.0
  0
VERTEX
  5
340
  8
0
  6
CONTINUOUS
 62
   179
 10
2438.5248844206
 20
305.5952799989
 30
0.0
  0
VERTEX
  5
341
  8
0
  6
CONTINUOUS
 62
   179
 10
2438.5347616678
 20
305.6277721275
 30
0.0
  0
VERTEX
  5
342
  8
0
  6
CONTINUOUS
 62
   179
 10
2438.5436723026
 20
305.6605006205
 30
0.0
  0
VERTEX
  5
343
  8
0
  6
CONTINUOUS
 62
   179
 10
2438.5516096806
 20
305.6934410731
 30
0.0
  0
VERTEX
  5
344
  8
0
  6
CONTINUOUS
 62
   179
 10
2438.558567883
 20
305.7265689223
 30
0.0
  0
VERTEX
  5
345
  8
0
  6
CONTINUOUS
 62
   179
 10
2438.5645417212
 20
305.7598594655
 30
0.0
  0
VERTEX
  5
346
  8
0
  6
CONTINUOUS
 62
   179
 10
2438.5695267408
 20
305.7932878787
 30
0.0
  0
VERTEX
  5
347
  8
0
  6
CONTINUOUS
 62
   179
 10
2438.5735192244
 20
305.8268292351
 30
0.0
  0
VERTEX
  5
348
  8
0
  6
CONTINUOUS
 62
   179
 10
2438.576516195
 20
305.8604585236
 30
0.0
  0
VERTEX
  5
349
  8
0
  6
CONTINUOUS
 62
   179
 10
2438.5785154178
 20
305.8941506676
 30
0.0
  0
VERTEX
  5
34A
  8
0
  6
CONTINUOUS
 62
   179
 10
2438.579515402
 20
305.9278805437
 30
0.0
  0
VERTEX
  5
34B
  8
0
  6
CONTINUOUS
 62
   179
 10
2438.579515402
 20
305.9616230003
 30
0.0
  0
VERTEX
  5
34C
  8
0
  6
CONTINUOUS
 62
   179
 10
2438.5785154178
 20
305.9953528765
 30
0.0
  0
VERTEX
  5
34D
  8
0
  6
CONTINUOUS
 62
   179
 10
2438.576516195
 20
306.0290450205
 30
0.0
  0
VERTEX
  5
34E
  8
0
  6
CONTINUOUS
 62
   179
 10
2438.5735192244
 20
306.062674309
 30
0.0
  0
VERTEX
  5
34F
  8
0
  6
CONTINUOUS
 62
   179
 10
2438.5695267408
 20
306.0962156653
 30
0.0
  0
VERTEX
  5
350
  8
0
  6
CONTINUOUS
 62
   179
 10
2438.5645417212
 20
306.1296440785
 30
0.0
  0
VERTEX
  5
351
  8
0
  6
CONTINUOUS
 62
   179
 10
2438.558567883
 20
306.1629346217
 30
0.0
  0
VERTEX
  5
352
  8
0
  6
CONTINUOUS
 62
   179
 10
2438.5516096806
 20
306.196062471
 30
0.0
  0
VERTEX
  5
353
  8
0
  6
CONTINUOUS
 62
   179
 10
2438.5436723026
 20
306.2290029236
 30
0.0
  0
VERTEX
  5
354
  8
0
  6
CONTINUOUS
 62
   179
 10
2438.5347616678
 20
306.2617314166
 30
0.0
  0
VERTEX
  5
355
  8
0
  6
CONTINUOUS
 62
   179
 10
2438.5248844206
 20
306.2942235451
 30
0.0
  0
VERTEX
  5
356
  8
0
  6
CONTINUOUS
 62
   179
 10
2438.5140479262
 20
306.3264550805
 30
0.0
  0
VERTEX
  5
357
  8
0
  6
CONTINUOUS
 62
   179
 10
2438.5022602652
 20
306.3584019885
 30
0.0
  0
VERTEX
  5
358
  8
0
  6
CONTINUOUS
 62
   179
 10
2438.4895302274
 20
306.390040447
 30
0.0
  0
VERTEX
  5
359
  8
0
  6
CONTINUOUS
 62
   179
 10
2438.4758673052
 20
306.4213468639
 30
0.0
  0
VERTEX
  5
35A
  8
0
  6
CONTINUOUS
 62
   179
 10
2438.4612816868
 20
306.4522978947
 30
0.0
  0
VERTEX
  5
35B
  8
0
  6
CONTINUOUS
 62
   179
 10
2438.4457842483
 20
306.4828704599
 30
0.0
  0
VERTEX
  5
35C
  8
0
  6
CONTINUOUS
 62
   179
 10
2438.4293865459
 20
306.5130417624
 30
0.0
  0
VERTEX
  5
35D
  8
0
  6
CONTINUOUS
 62
   179
 10
2438.4121008068
 20
306.5427893039
 30
0.0
  0
VERTEX
  5
35E
  8
0
  6
CONTINUOUS
 62
   179
 10
2438.3939399208
 20
306.5720909026
 30
0.0
  0
VERTEX
  5
35F
  8
0
  6
CONTINUOUS
 62
   179
 10
2438.37491743
 20
306.6009247088
 30
0.0
  0
VERTEX
  5
360
  8
0
  6
CONTINUOUS
 62
   179
 10
2438.3550475189
 20
306.6292692218
 30
0.0
  0
VERTEX
  5
361
  8
0
  6
CONTINUOUS
 62
   179
 10
2438.3343450042
 20
306.6571033059
 30
0.0
  0
VERTEX
  5
362
  8
0
  6
CONTINUOUS
 62
   179
 10
2438.3128253232
 20
306.6844062056
 30
0.0
  0
VERTEX
  5
363
  8
0
  6
CONTINUOUS
 62
   179
 10
2438.2905045227
 20
306.7111575619
 30
0.0
  0
VERTEX
  5
364
  8
0
  6
CONTINUOUS
 62
   179
 10
2438.2673992468
 20
306.737337427
 30
0.0
  0
VERTEX
  5
365
  8
0
  6
CONTINUOUS
 62
   179
 10
2438.2435267245
 20
306.762926279
 30
0.0
  0
VERTEX
  5
366
  8
0
  6
CONTINUOUS
 62
   179
 10
2438.2189047571
 20
306.787905037
 30
0.0
  0
VERTEX
  5
367
  8
0
  6
CONTINUOUS
 62
   179
 10
2438.1935517045
 20
306.8122550749
 30
0.0
  0
VERTEX
  5
368
  8
0
  6
CONTINUOUS
 62
   179
 10
2438.167486472
 20
306.8359582354
 30
0.0
  0
VERTEX
  5
369
  8
0
  6
CONTINUOUS
 62
   179
 10
2438.1407284959
 20
306.8589968436
 30
0.0
  0
VERTEX
  5
36A
  8
0
  6
CONTINUOUS
 62
   179
 10
2438.1132977288
 20
306.8813537201
 30
0.0
  0
VERTEX
  5
36B
  8
0
  6
CONTINUOUS
 62
   179
 10
2438.0852146255
 20
306.9030121939
 30
0.0
  0
VERTEX
  5
36C
  8
0
  6
CONTINUOUS
 62
   179
 10
2438.0565001266
 20
306.9239561149
 30
0.0
  0
VERTEX
  5
36D
  8
0
  6
CONTINUOUS
 62
   179
 10
2438.0271756441
 20
306.9441698655
 30
0.0
  0
VERTEX
  5
36E
  8
0
  6
CONTINUOUS
 62
   179
 10
2437.9972630445
 20
306.9636383729
 30
0.0
  0
VERTEX
  5
36F
  8
0
  6
CONTINUOUS
 62
   179
 10
2437.9667846329
 20
306.9823471199
 30
0.0
  0
VERTEX
  5
370
  8
0
  6
CONTINUOUS
 62
   179
 10
2437.9357631365
 20
307.0002821557
 30
0.0
  0
VERTEX
  5
371
  8
0
  6
CONTINUOUS
 62
   179
 10
2437.9042216871
 20
307.0174301066
 30
0.0
  0
VERTEX
  5
372
  8
0
  6
CONTINUOUS
 62
   179
 10
2437.8721838046
 20
307.0337781858
 30
0.0
  0
VERTEX
  5
373
  8
0
  6
CONTINUOUS
 62
   179
 10
2437.8396733789
 20
307.0493142028
 30
0.0
  0
VERTEX
  5
374
  8
0
  6
CONTINUOUS
 62
   179
 10
2437.8067146523
 20
307.0640265729
 30
0.0
  0
VERTEX
  5
375
  8
0
  6
CONTINUOUS
 62
   179
 10
2437.7733322012
 20
307.0779043254
 30
0.0
  0
VERTEX
  5
376
  8
0
  6
CONTINUOUS
 62
   179
 10
2437.7395509184
 20
307.0909371118
 30
0.0
  0
VERTEX
  5
377
  8
0
  6
CONTINUOUS
 62
   179
 10
2437.7053959936
 20
307.1031152141
 30
0.0
  0
VERTEX
  5
378
  8
0
  6
CONTINUOUS
 62
   179
 10
2437.6708928955
 20
307.1144295512
 30
0.0
  0
VERTEX
  5
379
  8
0
  6
CONTINUOUS
 62
   179
 10
2437.6360673521
 20
307.1248716863
 30
0.0
  0
VERTEX
  5
37A
  8
0
  6
CONTINUOUS
 62
   179
 10
2437.6009453322
 20
307.134433833
 30
0.0
  0
VERTEX
  5
37B
  8
0
  6
CONTINUOUS
 62
   179
 10
2437.5655530254
 20
307.1431088609
 30
0.0
  0
VERTEX
  5
37C
  8
0
  6
CONTINUOUS
 62
   179
 10
2437.529916823
 20
307.1508903013
 30
0.0
  0
VERTEX
  5
37D
  8
0
  6
CONTINUOUS
 62
   179
 10
2437.4940632979
 20
307.1577723518
 30
0.0
  0
SEQEND
  5
384
  8
0
  6
CONTINUOUS
 62
   179
  0
TEXT
  5
E1
  8
0
  6
CONTINUOUS
 62
     7
 10
2008.3004509023
 20
117.876704733
 30
0.0
 40
33.3375
  1
793
 41
0.7
 11
2008.3004509023
 21
106.0998974187
 31
0.0
 73
     1
  0
TEXT
  5
E2
  8
0
  6
CONTINUOUS
 62
     7
 10
1942.9961389041
 20
116.5883357664
 30
0.0
 40
16.2
  1
COD.
 41
0.7
 11
1942.9961389041
 21
110.8655227633
 31
0.0
 73
     1
  0
TEXT
  5
E3
  8
0
  6
CONTINUOUS
 62
     7
 10
96.3769660621
 20
52.0892811152
 30
0.0
 40
16.2
  1
This document is the property of PEDRALI S.p.A. who willsafeguard its rights according to the civil and penal prevision of the Law.
 41
0.6438931298
 11
96.3769660621
 21
46.3664681121
 31
0.0
 73
     1
  0
INSERT
  5
E9
  8
0
  6
CONTINUOUS
 62
     7
  2
SW_NOTE_0
 10
1296.7745387951
 20
48.2232058881
 30
0.0
  0
TEXT
  5
EA
  8
0
  6
CONTINUOUS
 62
     7
 10
1942.9961389041
 20
195.7191045861
 30
0.0
 40
16.2
  1
SERIE:
 41
0.7
 11
1942.9961389041
 21
189.9962915831
 31
0.0
 73
     1
  0
TEXT
  5
EB
  8
0
  6
CONTINUOUS
 62
     7
 10
2008.3004509023
 20
197.0074735527
 30
0.0
 40
33.3375
  1
HOST
 41
0.7
 11
2008.3004509023
 21
185.2306662385
 31
0.0
 73
     1
  0
INSERT
  5
F1
  8
0
  6
CONTINUOUS
 62
     7
  2
SW_NOTE_1
 10
2490.2894755759
 20
218.3968915543
 30
0.0
  0
LINE
  5
F2
  8
0
  6
CONTINUOUS
 62
     7
 10
850.6143639309
 20
1431.0883532979
 30
0.0
 11
1154.6143541558
 21
1431.0883532979
 31
0.0
  0
LINE
  5
F3
  8
0
  6
CONTINUOUS
 62
     7
 10
1184.6143553478
 20
1401.0883521058
 30
0.0
 11
1184.6143553478
 21
1245.0883563377
 31
0.0
  0
LINE
  5
F4
  8
0
  6
CONTINUOUS
 62
     7
 10
1200.6143579705
 20
1245.0883563377
 30
0.0
 11
1200.6143579705
 21
1401.0883521058
 31
0.0
  0
LINE
  5
F5
  8
0
  6
CONTINUOUS
 62
     7
 10
1200.6143579705
 20
1215.0883551456
 30
0.0
 11
1200.6143579705
 21
1245.0883563377
 31
0.0
  0
LINE
  5
F6
  8
0
  6
CONTINUOUS
 62
     7
 10
1184.6143553478
 20
1245.0883563377
 30
0.0
 11
1184.6143553478
 21
1215.0883551456
 31
0.0
  0
ARC
  5
F7
  8
0
  6
CONTINUOUS
 62
     7
 10
1154.6143639309
 20
1401.0883544304
 30
0.0
 40
30.0
 50
0.0
 51
90.0
  0
ARC
  5
F8
  8
0
  6
CONTINUOUS
 62
     7
 10
1154.6143639309
 20
1401.0883544304
 30
0.0
 40
46.00000000000009
 50
0.0
 51
47.6573945478
  0
LINE
  5
F9
  8
0
  6
CONTINUOUS
 62
     7
 10
546.6143737061
 20
1431.0883532979
 30
0.0
 11
850.6143639309
 21
1431.0883532979
 31
0.0
  0
ARC
  5
FA
  8
0
  6
CONTINUOUS
 62
     7
 10
546.6143639309
 20
1401.0883544304
 30
0.0
 40
30.0
 50
90.0
 51
180.0
  0
ARC
  5
FB
  8
0
  6
CONTINUOUS
 62
     7
 10
546.6143639309
 20
1401.0883544304
 30
0.0
 40
46.00000000000006
 50
132.3426054522
 51
180.0
  0
LINE
  5
FC
  8
0
  6
CONTINUOUS
 62
     7
 10
516.614372514
 20
1215.0883551456
 30
0.0
 11
516.614372514
 21
1245.0883563377
 31
0.0
  0
LINE
  5
FD
  8
0
  6
CONTINUOUS
 62
     7
 10
500.6143698914
 20
1245.0883563377
 30
0.0
 11
500.6143698914
 21
1215.0883551456
 31
0.0
  0
LINE
  5
FE
  8
0
  6
CONTINUOUS
 62
     7
 10
500.6143698914
 20
1401.0883521058
 30
0.0
 11
500.6143698914
 21
1245.0883563377
 31
0.0
  0
LINE
  5
FF
  8
0
  6
CONTINUOUS
 62
     7
 10
516.614372514
 20
1245.0883563377
 30
0.0
 11
516.614372514
 21
1401.0883521058
 31
0.0
  0
LINE
  5
100
  8
0
  6
CONTINUOUS
 62
     7
 10
850.6143639309
 20
1435.0883539535
 30
0.0
 11
850.6143639309
 21
1431.0883532979
 31
0.0
  0
ARC
  5
101
  8
0
  6
CONTINUOUS
 62
     7
 10
1192.6143639309
 20
1215.0883544304
 30
0.0
 40
8.000000000000227
 50
180.0
 51
0.0
  0
ARC
  5
102
  8
0
  6
CONTINUOUS
 62
     7
 10
508.6143639309
 20
1215.0883544304
 30
0.0
 40
8.000000000000114
 50
180.0
 51
0.0
  0
LINE
  5
103
  8
0
  6
CONTINUOUS
 62
     7
 10
475.6143639309
 20
1443.0883552648
 30
0.0
 11
475.6143639309
 21
1595.0883578278
 31
0.0
  0
LINE
  5
104
  8
0
  6
CONTINUOUS
 62
     7
 10
1217.6143775208
 20
1435.0883539535
 30
0.0
 11
1205.6143532021
 21
1435.0883539535
 31
0.0
  0
ARC
  5
105
  8
0
  6
CONTINUOUS
 62
     7
 10
1217.6143639309
 20
1443.0883544304
 30
0.0
 40
8.0
 50
270.0
 51
0.0
  0
LINE
  5
106
  8
0
  6
CONTINUOUS
 62
     7
 10
1225.6143639309
 20
1595.0883578278
 30
0.0
 11
1225.6143639309
 21
1443.0883552648
 31
0.0
  0
ARC
  5
107
  8
0
  6
CONTINUOUS
 62
     7
 10
495.6143639309
 20
1595.0883544304
 30
0.0
 40
20.0
 50
90.0
 51
180.0
  0
LINE
  5
108
  8
0
  6
CONTINUOUS
 62
     7
 10
495.6143746598
 20
1435.0883539535
 30
0.0
 11
483.6143503411
 21
1435.0883539535
 31
0.0
  0
ARC
  5
109
  8
0
  6
CONTINUOUS
 62
     7
 10
483.6143639309
 20
1443.0883544304
 30
0.0
 40
8.0
 50
180.0
 51
270.0
  0
LINE
  5
10A
  8
0
  6
CONTINUOUS
 62
     7
 10
495.6143746598
 20
1615.0883611061
 30
0.0
 11
1205.6143532021
 21
1615.0883611061
 31
0.0
  0
ARC
  5
10B
  8
0
  6
CONTINUOUS
 62
     7
 10
1205.6143639309
 20
1595.0883544304
 30
0.0
 40
19.99999999999977
 50
0.0
 51
90.0
  0
LINE
  5
10C
  8
0
  6
CONTINUOUS
 62
     7
 10
1205.6143532021
 20
1435.0883539535
 30
0.0
 11
495.6143746598
 21
1435.0883539535
 31
0.0
  0
LINE
  5
10D
  8
0
  6
CONTINUOUS
 62
     7
 10
1569.3257670648
 20
1401.0883521058
 30
0.0
 11
1569.3257670648
 21
1245.0883563377
 31
0.0
  0
LINE
  5
10E
  8
0
  6
CONTINUOUS
 62
     7
 10
1585.3257696874
 20
1245.0883563377
 30
0.0
 11
1585.3257696874
 21
1401.0883521058
 31
0.0
  0
ARC
  5
10F
  8
0
  6
CONTINUOUS
 62
     7
 10
1607.325756336
 20
1245.0883544304
 30
0.0
 40
22.0
 50
180.0
 51
270.0
  0
ARC
  5
110
  8
0
  6
CONTINUOUS
 62
     7
 10
1607.325756336
 20
1245.0883544304
 30
0.0
 40
38.00000000000023
 50
180.0
 51
270.0
  0
LINE
  5
111
  8
0
  6
CONTINUOUS
 62
     7
 10
1585.3257696874
 20
1401.0883521058
 30
0.0
 11
1585.3257696874
 21
1435.0883539535
 31
0.0
  0
LINE
  5
112
  8
0
  6
CONTINUOUS
 62
     7
 10
1569.3257670648
 20
1435.0883539535
 30
0.0
 11
1569.3257670648
 21
1401.0883521058
 31
0.0
  0
LINE
  5
113
  8
0
  6
CONTINUOUS
 62
     7
 10
1607.325754667
 20
1207.0883687355
 30
0.0
 11
2241.3257580049
 21
1207.0883687355
 31
0.0
  0
LINE
  5
114
  8
0
  6
CONTINUOUS
 62
     7
 10
2241.3257580049
 20
1223.0883564569
 30
0.0
 11
1607.325754667
 21
1223.0883564569
 31
0.0
  0
LINE
  5
115
  8
0
  6
CONTINUOUS
 62
     7
 10
2279.3257456071
 20
1401.0883521058
 30
0.0
 11
2279.3257456071
 21
1435.0883539535
 31
0.0
  0
LINE
  5
116
  8
0
  6
CONTINUOUS
 62
     7
 10
2263.3257429845
 20
1435.0883539535
 30
0.0
 11
2263.3257429845
 21
1401.0883521058
 31
0.0
  0
LINE
  5
117
  8
0
  6
CONTINUOUS
 62
     7
 10
2263.3257429845
 20
1401.0883521058
 30
0.0
 11
2263.3257429845
 21
1245.0883563377
 31
0.0
  0
LINE
  5
118
  8
0
  6
CONTINUOUS
 62
     7
 10
2279.3257456071
 20
1245.0883563377
 30
0.0
 11
2279.3257456071
 21
1401.0883521058
 31
0.0
  0
ARC
  5
119
  8
0
  6
CONTINUOUS
 62
     7
 10
2241.325756336
 20
1245.0883544304
 30
0.0
 40
22.0
 50
270.0
 51
0.0
  0
ARC
  5
11A
  8
0
  6
CONTINUOUS
 62
     7
 10
2241.325756336
 20
1245.0883544304
 30
0.0
 40
38.00000000000023
 50
270.0
 51
0.0
  0
LINE
  5
11B
  8
0
  6
CONTINUOUS
 62
     7
 10
1569.3257670648
 20
1435.0883539535
 30
0.0
 11
1557.3257427461
 21
1435.0883539535
 31
0.0
  0
ARC
  5
11C
  8
0
  6
CONTINUOUS
 62
     7
 10
1557.325756336
 20
1443.0883544304
 30
0.0
 40
7.999999999999773
 50
180.0
 51
270.0
  0
ARC
  5
11D
  8
0
  6
CONTINUOUS
 62
     7
 10
1569.325756336
 20
1595.0883544304
 30
0.0
 40
19.99999999999977
 50
90.0
 51
180.0
  0
LINE
  5
11E
  8
0
  6
CONTINUOUS
 62
     7
 10
1549.325756336
 20
1443.0883552648
 30
0.0
 11
1549.325756336
 21
1595.0883578278
 31
0.0
  0
LINE
  5
11F
  8
0
  6
CONTINUOUS
 62
     7
 10
1569.3257670648
 20
1615.0883611061
 30
0.0
 11
2279.3257456071
 21
1615.0883611061
 31
0.0
  0
LINE
  5
120
  8
0
  6
CONTINUOUS
 62
     7
 10
2279.3257456071
 20
1435.0883539535
 30
0.0
 11
1569.3257670648
 21
1435.0883539535
 31
0.0
  0
LINE
  5
121
  8
0
  6
CONTINUOUS
 62
     7
 10
2299.325756336
 20
1595.0883578278
 30
0.0
 11
2299.325756336
 21
1443.0883552648
 31
0.0
  0
ARC
  5
122
  8
0
  6
CONTINUOUS
 62
     7
 10
2279.325756336
 20
1595.0883544304
 30
0.0
 40
20.0
 50
0.0
 51
90.0
  0
ARC
  5
123
  8
0
  6
CONTINUOUS
 62
     7
 10
2291.325756336
 20
1443.0883544304
 30
0.0
 40
7.999999999999773
 50
270.0
 51
0.0
  0
LINE
  5
124
  8
0
  6
CONTINUOUS
 62
     7
 10
2291.3257699258
 20
1435.0883539535
 30
0.0
 11
2279.3257456071
 21
1435.0883539535
 31
0.0
  0
LINE
  5
125
  8
0
  6
CONTINUOUS
 62
     7
 10
495.6143746598
 20
975.9243037975
 30
0.0
 11
1205.6143532021
 21
975.9243037975
 31
0.0
  0
ARC
  5
126
  8
0
  6
CONTINUOUS
 62
     7
 10
495.6143639309
 20
955.9243037975
 30
0.0
 40
20.00000000000011
 50
90.0
 51
180.0
  0
ARC
  5
127
  8
0
  6
CONTINUOUS
 62
     7
 10
1205.6143639309
 20
955.9243037975
 30
0.0
 40
20.00000000000011
 50
0.0
 51
90.0
  0
LINE
  5
128
  8
0
  6
CONTINUOUS
 62
     7
 10
1225.6143639309
 20
955.9242930686
 30
0.0
 11
1225.6143639309
 21
245.9243145263
 31
0.0
  0
LINE
  5
129
  8
0
  6
CONTINUOUS
 62
     7
 10
475.6143639309
 20
245.9243145263
 30
0.0
 11
475.6143639309
 21
955.9242930686
 31
0.0
  0
ARC
  5
12A
  8
0
  6
CONTINUOUS
 62
     7
 10
495.6143639309
 20
245.9243037975
 30
0.0
 40
20.00000000000006
 50
180.0
 51
270.0
  0
LINE
  5
12B
  8
0
  6
CONTINUOUS
 62
     7
 10
1205.6143532021
 20
225.9243037975
 30
0.0
 11
495.6143746598
 21
225.9243037975
 31
0.0
  0
ARC
  5
12C
  8
0
  6
CONTINUOUS
 62
     7
 10
1205.6143639309
 20
245.9243037975
 30
0.0
 40
20.00000000000006
 50
270.0
 51
0.0
  0
ENDSEC
  0
EOF
