  0
SECTION
  2
HEADER
  9
$ACADVER
  1
AC1015
  9
$ACADMAINTVER
 70
     6
  9
$DWGCODEPAGE
  3
ANSI_1252
  9
$INSBASE
 10
0.0
 20
0.0
 30
0.0
  9
$EXTMIN
 10
0.0
 20
0.0
 30
0.0
  9
$EXTMAX
 10
2970.0
 20
2100.0
 30
0.0
  9
$LIMMIN
 10
0.0
 20
0.0
  9
$LIMMAX
 10
2970.0
 20
2100.0
  9
$ORTHOMODE
 70
     0
  9
$REGENMODE
 70
     1
  9
$FILLMODE
 70
     1
  9
$QTEXTMODE
 70
     0
  9
$MIRRTEXT
 70
     1
  9
$LTSCALE
 40
10.0
  9
$ATTMODE
 70
     1
  9
$TEXTSIZE
 40
35.0
  9
$TRACEWID
 40
1.0
  9
$TEXTSTYLE
  7
Standard
  9
$CLAYER
  8
0
  9
$CELTYPE
  6
ByLayer
  9
$CECOLOR
 62
   256
  9
$CELTSCALE
 40
1.0
  9
$DISPSILH
 70
     0
  9
$DIMSCALE
 40
1.0
  9
$DIMASZ
 40
25.0
  9
$DIMEXO
 40
0.0
  9
$DIMDLI
 40
3.75
  9
$DIMRND
 40
0.0
  9
$DIMDLE
 40
0.0
  9
$DIMEXE
 40
10.0
  9
$DIMTP
 40
0.0
  9
$DIMTM
 40
0.0
  9
$DIMTXT
 40
30.0
  9
$DIMCEN
 40
2.5
  9
$DIMTSZ
 40
0.0
  9
$DIMTOL
 70
     0
  9
$DIMLIM
 70
     0
  9
$DIMTIH
 70
     1
  9
$DIMTOH
 70
     1
  9
$DIMSE1
 70
     0
  9
$DIMSE2
 70
     0
  9
$DIMTAD
 70
     1
  9
$DIMZIN
 70
     0
  9
$DIMBLK
  1

  9
$DIMASO
 70
     1
  9
$DIMSHO
 70
     1
  9
$DIMPOST
  1

  9
$DIMAPOST
  1

  9
$DIMALT
 70
     0
  9
$DIMALTD
 70
     3
  9
$DIMALTF
 40
0.0393700787
  9
$DIMLFAC
 40
1.0
  9
$DIMTOFL
 70
     1
  9
$DIMTVP
 40
0.0
  9
$DIMTIX
 70
     0
  9
$DIMSOXD
 70
     0
  9
$DIMSAH
 70
     0
  9
$DIMBLK1
  1

  9
$DIMBLK2
  1

  9
$DIMSTYLE
  2
ISO-25
  9
$DIMCLRD
 70
     0
  9
$DIMCLRE
 70
     0
  9
$DIMCLRT
 70
     0
  9
$DIMTFAC
 40
1.0
  9
$DIMGAP
 40
15.0
  9
$DIMJUST
 70
     0
  9
$DIMSD1
 70
     0
  9
$DIMSD2
 70
     0
  9
$DIMTOLJ
 70
     0
  9
$DIMTZIN
 70
     0
  9
$DIMALTZ
 70
     0
  9
$DIMALTTZ
 70
     0
  9
$DIMUPT
 70
     0
  9
$DIMDEC
 70
     1
  9
$DIMTDEC
 70
     1
  9
$DIMALTU
 70
     2
  9
$DIMALTTD
 70
     3
  9
$DIMTXSTY
  7
Standard
  9
$DIMAUNIT
 70
     0
  9
$DIMADEC
 70
     2
  9
$DIMALTRND
 40
0.0
  9
$DIMAZIN
 70
     0
  9
$DIMDSEP
 70
    44
  9
$DIMATFIT
 70
     3
  9
$DIMFRAC
 70
     0
  9
$DIMLDRBLK
  1

  9
$DIMLUNIT
 70
     2
  9
$DIMLWD
 70
    -2
  9
$DIMLWE
 70
    -2
  9
$DIMTMOVE
 70
     0
  9
$LUNITS
 70
     2
  9
$LUPREC
 70
     2
  9
$SKETCHINC
 40
1.0
  9
$FILLETRAD
 40
10.0
  9
$AUNITS
 70
     0
  9
$AUPREC
 70
     2
  9
$MENU
  1
.
  9
$ELEVATION
 40
0.0
  9
$PELEVATION
 40
0.0
  9
$THICKNESS
 40
0.0
  9
$LIMCHECK
 70
     0
  9
$CHAMFERA
 40
0.0
  9
$CHAMFERB
 40
0.0
  9
$CHAMFERC
 40
0.0
  9
$CHAMFERD
 40
0.0
  9
$SKPOLY
 70
     0
  9
$TDCREATE
 40
2457584.409754676
  9
$TDUCREATE
 40
2457584.326421343
  9
$TDUPDATE
 40
2457584.409755521
  9
$TDUUPDATE
 40
2457584.326422187
  9
$TDINDWG
 40
0.0000000116
  9
$TDUSRTIMER
 40
0.0000000116
  9
$USRTIMER
 70
     1
  9
$ANGBASE
 50
0.0
  9
$ANGDIR
 70
     0
  9
$PDMODE
 70
     0
  9
$PDSIZE
 40
-1.0
  9
$PLINEWID
 40
0.0
  9
$SPLFRAME
 70
     0
  9
$SPLINETYPE
 70
     6
  9
$SPLINESEGS
 70
     8
  9
$HANDSEED
  5
17B
  9
$SURFTAB1
 70
     6
  9
$SURFTAB2
 70
     6
  9
$SURFTYPE
 70
     6
  9
$SURFU
 70
     6
  9
$SURFV
 70
     6
  9
$UCSBASE
  2

  9
$UCSNAME
  2

  9
$UCSORG
 10
0.0
 20
0.0
 30
0.0
  9
$UCSXDIR
 10
1.0
 20
0.0
 30
0.0
  9
$UCSYDIR
 10
0.0
 20
1.0
 30
0.0
  9
$UCSORTHOREF
  2

  9
$UCSORTHOVIEW
 70
     0
  9
$UCSORGTOP
 10
0.0
 20
0.0
 30
0.0
  9
$UCSORGBOTTOM
 10
0.0
 20
0.0
 30
0.0
  9
$UCSORGLEFT
 10
0.0
 20
0.0
 30
0.0
  9
$UCSORGRIGHT
 10
0.0
 20
0.0
 30
0.0
  9
$UCSORGFRONT
 10
0.0
 20
0.0
 30
0.0
  9
$UCSORGBACK
 10
0.0
 20
0.0
 30
0.0
  9
$PUCSBASE
  2

  9
$PUCSNAME
  2

  9
$PUCSORG
 10
0.0
 20
0.0
 30
0.0
  9
$PUCSXDIR
 10
1.0
 20
0.0
 30
0.0
  9
$PUCSYDIR
 10
0.0
 20
1.0
 30
0.0
  9
$PUCSORTHOREF
  2

  9
$PUCSORTHOVIEW
 70
     0
  9
$PUCSORGTOP
 10
0.0
 20
0.0
 30
0.0
  9
$PUCSORGBOTTOM
 10
0.0
 20
0.0
 30
0.0
  9
$PUCSORGLEFT
 10
0.0
 20
0.0
 30
0.0
  9
$PUCSORGRIGHT
 10
0.0
 20
0.0
 30
0.0
  9
$PUCSORGFRONT
 10
0.0
 20
0.0
 30
0.0
  9
$PUCSORGBACK
 10
0.0
 20
0.0
 30
0.0
  9
$USERI1
 70
     0
  9
$USERI2
 70
     0
  9
$USERI3
 70
     0
  9
$USERI4
 70
     0
  9
$USERI5
 70
     0
  9
$USERR1
 40
0.0
  9
$USERR2
 40
0.0
  9
$USERR3
 40
0.0
  9
$USERR4
 40
0.0
  9
$USERR5
 40
0.0
  9
$WORLDVIEW
 70
     1
  9
$SHADEDGE
 70
     3
  9
$SHADEDIF
 70
    70
  9
$TILEMODE
 70
     1
  9
$MAXACTVP
 70
    64
  9
$PINSBASE
 10
0.0
 20
0.0
 30
0.0
  9
$PLIMCHECK
 70
     0
  9
$PEXTMIN
 10
1.0000000000E+20
 20
1.0000000000E+20
 30
1.0000000000E+20
  9
$PEXTMAX
 10
-1.0000000000E+20
 20
-1.0000000000E+20
 30
-1.0000000000E+20
  9
$PLIMMIN
 10
0.0
 20
0.0
  9
$PLIMMAX
 10
420.0
 20
297.0
  9
$UNITMODE
 70
     0
  9
$VISRETAIN
 70
     1
  9
$PLINEGEN
 70
     0
  9
$PSLTSCALE
 70
     1
  9
$TREEDEPTH
 70
  3020
  9
$CMLSTYLE
  2
Standard
  9
$CMLJUST
 70
     0
  9
$CMLSCALE
 40
20.0
  9
$PROXYGRAPHICS
 70
     1
  9
$MEASUREMENT
 70
     1
  9
$CELWEIGHT
370
    -1
  9
$ENDCAPS
280
     0
  9
$JOINSTYLE
280
     0
  9
$LWDISPLAY
290
     1
  9
$INSUNITS
 70
     4
  9
$HYPERLINKBASE
  1

  9
$STYLESHEET
  1

  9
$XEDIT
290
     1
  9
$CEPSNTYPE
380
     0
  9
$PSTYLEMODE
290
     1
  9
$FINGERPRINTGUID
  2
{4D098072-CFD9-4F89-9C78-AA1D699FCD08}
  9
$VERSIONGUID
  2
{FAEB1C32-E019-11D5-929B-00C0DF256EC4}
  9
$EXTNAMES
290
     1
  9
$PSVPSCALE
 40
0.0
  9
$OLESTARTUP
290
     0
  0
ENDSEC
  0
SECTION
  2
CLASSES
  0
CLASS
  1
ACDBDICTIONARYWDFLT
  2
AcDbDictionaryWithDefault
  3
ObjectDBX Classes
 90
        0
280
     0
281
     0
  0
CLASS
  1
VISUALSTYLE
  2
AcDbVisualStyle
  3
ObjectDBX Classes
 90
     4095
280
     0
281
     0
  0
CLASS
  1
MATERIAL
  2
AcDbMaterial
  3
ObjectDBX Classes
 90
     1153
280
     0
281
     0
  0
CLASS
  1
SCALE
  2
AcDbScale
  3
ObjectDBX Classes
 90
     1153
280
     0
281
     0
  0
CLASS
  1
TABLESTYLE
  2
AcDbTableStyle
  3
ObjectDBX Classes
 90
     4095
280
     0
281
     0
  0
CLASS
  1
MLEADERSTYLE
  2
AcDbMLeaderStyle
  3
ACDB_MLEADERSTYLE_CLASS
 90
     4095
280
     0
281
     0
  0
CLASS
  1
SUN
  2
AcDbSun
  3
SCENEOE
 90
     1153
280
     0
281
     0
  0
CLASS
  1
ACDBPLACEHOLDER
  2
AcDbPlaceHolder
  3
ObjectDBX Classes
 90
        0
280
     0
281
     0
  0
CLASS
  1
LAYOUT
  2
AcDbLayout
  3
ObjectDBX Classes
 90
        0
280
     0
281
     0
  0
ENDSEC
  0
SECTION
  2
TABLES
  0
TABLE
  2
VPORT
  5
8
330
0
100
AcDbSymbolTable
 70
     1
  0
VPORT
  5
29
330
8
100
AcDbSymbolTableRecord
100
AcDbViewportTableRecord
  2
*Active
 70
     0
 10
0.0
 20
0.0
 11
1.0
 21
1.0
 12
1485.0
 22
1050.0
 13
0.0
 23
0.0
 14
10.0
 24
10.0
 15
10.0
 25
10.0
 16
0.0
 26
0.0
 36
1.0
 17
0.0
 27
0.0
 37
0.0
 40
2100.0
 41
1.4142857143
 42
50.0
 43
0.0
 44
0.0
 50
0.0
 51
0.0
 71
     0
 72
  2000
 73
     1
 74
     3
 75
     0
 76
     0
 77
     0
 78
     0
281
     0
 65
     1
110
0.0
120
0.0
130
0.0
111
1.0
121
0.0
131
0.0
112
0.0
122
1.0
132
0.0
 79
     0
146
0.0
  0
ENDTAB
  0
TABLE
  2
LTYPE
  5
5
330
0
100
AcDbSymbolTable
 70
     6
  0
LTYPE
  5
14
330
5
100
AcDbSymbolTableRecord
100
AcDbLinetypeTableRecord
  2
ByBlock
 70
     0
  3

 72
    65
 73
     0
 40
0.0
  0
LTYPE
  5
15
330
5
100
AcDbSymbolTableRecord
100
AcDbLinetypeTableRecord
  2
ByLayer
 70
     0
  3

 72
    65
 73
     0
 40
0.0
  0
LTYPE
  5
16
330
5
100
AcDbSymbolTableRecord
100
AcDbLinetypeTableRecord
  2
Continuous
 70
     0
  3
Solid line
 72
    65
 73
     0
 40
0.0
  0
LTYPE
  5
6E
330
5
100
AcDbSymbolTableRecord
100
AcDbLinetypeTableRecord
  2
HIDDEN
 70
     0
  3
Hidden __ __ __ __ __ __ __ __ __ __ __ __ __ __
 72
    65
 73
     2
 40
1.905
 49
1.27
 74
     0
 49
-0.635
 74
     0
  0
LTYPE
  5
6F
330
5
100
AcDbSymbolTableRecord
100
AcDbLinetypeTableRecord
  2
PHANTOM
 70
     0
  3
Phantom ______  __  __  ______  __  __  ______
 72
    65
 73
     6
 40
12.7
 49
6.35
 74
     0
 49
-1.27
 74
     0
 49
1.27
 74
     0
 49
-1.27
 74
     0
 49
1.27
 74
     0
 49
-1.27
 74
     0
  0
LTYPE
  5
70
330
5
100
AcDbSymbolTableRecord
100
AcDbLinetypeTableRecord
  2
CENTER
 70
     0
  3
Center ____ _ ____ _ ____ _ ____ _ ____ _ ____
 72
    65
 73
     4
 40
10.16
 49
6.35
 74
     0
 49
-1.27
 74
     0
 49
1.27
 74
     0
 49
-1.27
 74
     0
  0
LTYPE
  5
71
330
5
100
AcDbSymbolTableRecord
100
AcDbLinetypeTableRecord
  2
CENTERX2
 70
     0
  3
Center (2x) ________  __  ________  __  _____
 72
    65
 73
     4
 40
20.32
 49
12.7
 74
     0
 49
-2.54
 74
     0
 49
2.54
 74
     0
 49
-2.54
 74
     0
  0
LTYPE
  5
72
330
5
100
AcDbSymbolTableRecord
100
AcDbLinetypeTableRecord
  2
DOT2
 70
     0
  3
Dot (.5x) ........................................
 72
    65
 73
     2
 40
0.635
 49
0.0
 74
     0
 49
-0.635
 74
     0
  0
ENDTAB
  0
TABLE
  2
LAYER
  5
2
330
0
100
AcDbSymbolTable
 70
     2
  0
LAYER
  5
10
330
2
100
AcDbSymbolTableRecord
100
AcDbLayerTableRecord
  2
0
 70
     0
 62
     7
  6
Continuous
370
    -3
390
F
  0
LAYER
  5
73
330
2
100
AcDbSymbolTableRecord
100
AcDbLayerTableRecord
  2
FORMAT
 70
     0
 62
     7
  6
Continuous
370
    -3
390
F
  0
ENDTAB
  0
TABLE
  2
STYLE
  5
3
330
0
100
AcDbSymbolTable
 70
     2
  0
STYLE
  5
11
330
3
100
AcDbSymbolTableRecord
100
AcDbTextStyleTableRecord
  2
Standard
 70
     0
 40
0.0
 41
1.0
 50
0.0
 71
     0
 42
35.0
  3
txt
  4

  0
STYLE
  5
E7
330
3
100
AcDbSymbolTableRecord
100
AcDbTextStyleTableRecord
  2
SLDTEXTSTYLE0
 70
     0
 40
0.0
 41
0.605
 50
0.0
 71
     0
 42
35.0
  3
TXT
  4

  0
ENDTAB
  0
TABLE
  2
VIEW
  5
6
330
0
100
AcDbSymbolTable
 70
     0
  0
ENDTAB
  0
TABLE
  2
UCS
  5
7
330
0
100
AcDbSymbolTable
 70
     0
  0
ENDTAB
  0
TABLE
  2
APPID
  5
9
330
0
100
AcDbSymbolTable
 70
     1
  0
APPID
  5
12
330
9
100
AcDbSymbolTableRecord
100
AcDbRegAppTableRecord
  2
ACAD
 70
     0
  0
ENDTAB
  0
TABLE
  2
DIMSTYLE
  5
A
330
0
100
AcDbSymbolTable
 70
     1
100
AcDbDimStyleTable
  0
DIMSTYLE
105
27
330
A
100
AcDbSymbolTableRecord
100
AcDbDimStyleTableRecord
  2
ISO-25
 70
     0
 41
2.5
 42
0.625
 43
3.75
 44
1.25
 73
     0
 74
     0
 77
     1
 78
     8
140
2.5
141
2.5
143
0.0393700787
147
0.625
171
     3
172
     1
178
     0
271
     2
272
     2
274
     3
278
    44
283
     0
284
     8
340
11
  0
ENDTAB
  0
TABLE
  2
BLOCK_RECORD
  5
1
330
0
100
AcDbSymbolTable
 70
     3
  0
BLOCK_RECORD
  5
1F
330
1
100
AcDbSymbolTableRecord
100
AcDbBlockTableRecord
  2
*Model_Space
340
22
  0
BLOCK_RECORD
  5
1B
330
1
100
AcDbSymbolTableRecord
100
AcDbBlockTableRecord
  2
*Paper_Space
340
1E
  0
BLOCK_RECORD
  5
23
330
1
100
AcDbSymbolTableRecord
100
AcDbBlockTableRecord
  2
*Paper_Space0
340
26
  0
BLOCK_RECORD
  5
EB
330
1
100
AcDbSymbolTableRecord
100
AcDbBlockTableRecord
  2
SW_NOTE_0
340
0
102
{BLKREFS
331
F0
102
}
  0
BLOCK_RECORD
  5
F3
330
1
100
AcDbSymbolTableRecord
100
AcDbBlockTableRecord
  2
SW_NOTE_1
340
0
102
{BLKREFS
331
F8
102
}
  0
ENDTAB
  0
ENDSEC
  0
SECTION
  2
BLOCKS
  0
BLOCK
  5
20
330
1F
100
AcDbEntity
  8
0
100
AcDbBlockBegin
  2
*Model_Space
 70
     0
 10
0.0
 20
0.0
 30
0.0
  3
*Model_Space
  1

  0
ENDBLK
  5
21
330
1F
100
AcDbEntity
  8
0
100
AcDbBlockEnd
  0
BLOCK
  5
1C
330
1B
100
AcDbEntity
 67
     1
  8
0
100
AcDbBlockBegin
  2
*Paper_Space
 70
     0
 10
0.0
 20
0.0
 30
0.0
  3
*Paper_Space
  1

  0
ENDBLK
  5
1D
330
1B
100
AcDbEntity
 67
     1
  8
0
100
AcDbBlockEnd
  0
BLOCK
  5
24
330
23
100
AcDbEntity
  8
0
100
AcDbBlockBegin
  2
*Paper_Space0
 70
     0
 10
0.0
 20
0.0
 30
0.0
  3
*Paper_Space0
  1

  0
ENDBLK
  5
25
330
23
100
AcDbEntity
  8
0
100
AcDbBlockEnd
  0
BLOCK
  5
EC
330
EB
100
AcDbEntity
  8
0
100
AcDbBlockBegin
  2
SW_NOTE_0
 70
     0
 10
0.0
 20
0.0
 30
0.0
  3
SW_NOTE_0
  1

  0
MTEXT
  5
EE
330
EB
100
AcDbEntity
  8
0
  6
Continuous
 62
     0
370
     0
100
AcDbMText
 10
0.0
 20
23.2032193159
 30
0.0
 40
18.0
 41
0.0
 71
     1
 72
     1
  1
Questo disegno e posto sotto la tutela delle vigenti Leggi e non puo essere utilizzato da terze persone se non previa autorizzazione scritta della PEDRALI
  7
SLDTEXTSTYLE0
 73
     1
 44
1.0
  0
MTEXT
  5
EF
330
EB
100
AcDbEntity
  8
0
  6
Continuous
 62
     0
370
     0
100
AcDbMText
 10
1355.5219376087
 20
23.2032193159
 30
0.0
 40
18.0
 41
0.0
 71
     1
 72
     1
  1
S.p.A.
  7
SLDTEXTSTYLE0
 73
     1
 44
1.0
  0
ENDBLK
  5
ED
330
EB
100
AcDbEntity
  8
0
100
AcDbBlockEnd
  0
BLOCK
  5
F4
330
F3
100
AcDbEntity
  8
0
100
AcDbBlockBegin
  2
SW_NOTE_1
 70
     0
 10
0.0
 20
0.0
 30
0.0
  3
SW_NOTE_1
  1

  0
MTEXT
  5
F6
330
F3
100
AcDbEntity
  8
0
  6
Continuous
 62
     0
370
     0
100
AcDbMText
 10
33.1875
 20
23.2032193159
 30
0.0
 40
18.0
 41
0.0
 71
     2
 72
     1
  1
SCALA
  7
SLDTEXTSTYLE0
 73
     1
 44
1.0
  0
MTEXT
  5
F7
330
F3
100
AcDbEntity
  8
0
  6
Continuous
 62
     0
370
     0
100
AcDbMText
 10
35.6098540438
 20
-1.6396707646
 30
0.0
 40
37.0416666667
 41
0.0
 71
     2
 72
     1
  1
1:1
  7
SLDTEXTSTYLE0
 73
     1
 44
1.0
  0
ENDBLK
  5
F5
330
F3
100
AcDbEntity
  8
0
100
AcDbBlockEnd
  0
ENDSEC
  0
SECTION
  2
ENTITIES
  0
HATCH
  5
74
330
1F
100
AcDbEntity
  8
0
  6
Continuous
 62
     7
100
AcDbHatch
 10
0.0
 20
0.0
 30
0.0
210
0.0
220
0.0
230
1.0
  2
SOLID
 70
     1
 71
     0
 91
        2
 92
        0
 93
        6
 72
     1
 10
2340.243226420216
 20
319.3144821747094
 11
2356.647910872445
 21
319.3144821747094
 72
     3
 10
2351.078765157099
 20
331.9559440369547
 11
27.08884684798352
 21
0.0
 40
0.4768529109443384
 50
293.7756995582609
 51
426.2243004403791
 73
     1
 72
     1
 10
2356.647910872789
 20
344.5974058991662
 11
2323.989918311282
 21
344.5974058991662
 72
     1
 10
2323.989918311282
 20
344.5974058991662
 11
2323.989918311282
 21
304.8670971915081
 72
     1
 10
2323.989918311282
 20
304.8670971915081
 11
2340.243226420216
 21
304.8670971915081
 72
     1
 10
2340.243226420216
 20
304.8670971915081
 11
2340.243226420216
 21
319.3144821747094
 97
        0
 92
        0
 93
        6
 72
     3
 10
2350.175803596967
 20
331.9559440369547
 11
9.932577177641511
 21
0.0
 40
0.5895245510672578
 50
316.3365658560252
 51
403.663434144226
 73
     0
 72
     2
 10
2352.923880980421
 20
333.7618671600596
 40
7.223692492544108
 50
69.99121011132742
 51
90.0
 73
     0
 72
     1
 10
2352.923880980421
 20
326.5381746675155
 11
2340.243226419814
 21
326.5381746675155
 72
     1
 10
2340.243226419814
 20
326.5381746675155
 11
2340.243226419814
 21
337.37371340629
 72
     1
 10
2340.243226419814
 20
337.37371340629
 11
2352.923880981012
 21
337.37371340629
 72
     2
 10
2352.923880981012
 20
330.150020915474
 40
7.223692490816113
 50
270.0000000000008
 51
290.0087898889545
 73
     0
 97
        0
 75
     0
 76
     1
 98
        1
 10
0.0
 20
0.0
  0
HATCH
  5
75
330
1F
100
AcDbEntity
  8
0
  6
Continuous
 62
     7
100
AcDbHatch
 10
0.0
 20
0.0
 30
0.0
210
0.0
220
0.0
230
1.0
  2
SOLID
 70
     1
 71
     0
 91
        1
 92
        0
 93
       12
 72
     1
 10
2435.957151948124
 20
344.59740589754
 11
2381.779458253796
 21
344.59740589754
 72
     1
 10
2381.779458253796
 20
344.59740589754
 11
2381.779458253796
 21
304.867097189882
 72
     1
 10
2381.779458253796
 20
304.867097189882
 11
2435.957151948124
 21
304.867097189882
 72
     1
 10
2435.957151948124
 20
304.867097189882
 11
2435.957151948124
 21
312.09078967967
 72
     1
 10
2435.957151948124
 20
312.09078967967
 11
2399.838689485178
 21
312.09078967967
 72
     1
 10
2399.838689485178
 20
312.09078967967
 11
2399.838689485178
 21
321.1204052953607
 72
     1
 10
2399.838689485178
 20
321.1204052953607
 11
2432.345305703229
 21
321.1204052953607
 72
     1
 10
2432.345305703229
 20
321.1204052953607
 11
2432.345305703229
 21
328.344097788605
 72
     1
 10
2432.345305703229
 20
328.344097788605
 11
2399.838689485178
 21
328.344097788605
 72
     1
 10
2399.838689485178
 20
328.344097788605
 11
2399.838689485178
 21
337.3737134042958
 72
     1
 10
2399.838689485178
 20
337.3737134042958
 11
2435.957151948124
 21
337.3737134042958
 72
     1
 10
2435.957151948124
 20
337.3737134042958
 11
2435.957151948124
 21
344.59740589754
 97
        0
 75
     0
 76
     1
 98
        1
 10
0.0
 20
0.0
  0
HATCH
  5
76
330
1F
100
AcDbEntity
  8
0
  6
Continuous
 62
     7
100
AcDbHatch
 10
0.0
 20
0.0
 30
0.0
210
0.0
220
0.0
230
1.0
  2
SOLID
 70
     1
 71
     0
 91
        1
 92
        0
 93
        6
 72
     1
 10
2645.444234240045
 20
344.597405899586
 11
2627.385003008663
 21
344.597405899586
 72
     1
 10
2627.385003008663
 20
344.597405899586
 11
2627.385003008663
 21
304.8670971919279
 72
     1
 10
2627.385003008663
 20
304.8670971919279
 11
2676.14492733565
 21
304.8670971919279
 72
     1
 10
2676.14492733565
 20
304.8670971919279
 11
2676.14492733565
 21
313.8967128076189
 72
     1
 10
2676.14492733565
 20
313.8967128076189
 11
2645.444234240045
 21
313.8967128076189
 72
     1
 10
2645.444234240045
 20
313.8967128076189
 11
2645.444234240045
 21
344.597405899586
 97
        0
 75
     0
 76
     1
 98
        1
 10
0.0
 20
0.0
  0
HATCH
  5
77
330
1F
100
AcDbEntity
  8
0
  6
Continuous
 62
     7
100
AcDbHatch
 10
0.0
 20
0.0
 30
0.0
210
0.0
220
0.0
230
1.0
  2
SOLID
 70
     1
 71
     0
 91
        1
 92
        0
 93
        4
 72
     1
 10
2677.950850457337
 20
344.5974058991659
 11
2677.950850457337
 21
304.8670971915079
 72
     1
 10
2677.950850457337
 20
304.8670971915079
 11
2696.010081688719
 21
304.8670971915079
 72
     1
 10
2696.010081688719
 20
304.8670971915079
 11
2696.010081688719
 21
344.5974058991659
 72
     1
 10
2696.010081688719
 20
344.5974058991659
 11
2677.950850457337
 21
344.5974058991659
 97
        0
 75
     0
 76
     1
 98
        1
 10
0.0
 20
0.0
  0
HATCH
  5
78
330
1F
100
AcDbEntity
  8
0
  6
Continuous
 62
     7
100
AcDbHatch
 10
0.0
 20
0.0
 30
0.0
210
0.0
220
0.0
230
1.0
  2
SOLID
 70
     1
 71
     0
 91
        2
 92
        0
 93
        4
 72
     3
 10
2468.463768165085
 20
324.7322515426197
 11
28.89476997115586
 21
0.0
 40
0.6929224243374513
 50
280.2934314618138
 51
439.7065685387129
 73
     1
 72
     1
 10
2472.071526001564
 20
344.5974058975816
 11
2439.568998196665
 21
344.5974058975813
 72
     1
 10
2439.568998196665
 20
344.5974058975813
 11
2439.568998196665
 21
304.8670971876741
 72
     1
 10
2439.568998196665
 20
304.8670971876741
 11
2472.071526001749
 21
304.8670971876741
 97
        0
 92
        0
 93
        6
 72
     2
 10
2472.947172767998
 20
324.7322515421808
 40
10.83553873998016
 50
56.16906508602374
 51
90.0
 73
     0
 72
     1
 10
2472.947172767998
 20
313.8967128022008
 11
2455.82230630316
 21
313.8967128022008
 72
     1
 10
2455.82230630316
 20
313.8967128022008
 11
2455.82230630316
 21
335.5677902826995
 72
     1
 10
2455.82230630316
 20
335.5677902826995
 11
2472.947172767998
 21
335.5677902826995
 72
     2
 10
2472.947172767998
 20
324.7322515421808
 40
10.83553874051871
 50
270.0000000000008
 51
303.8314447476077
 73
     0
 72
     3
 10
2462.14303723761
 20
324.7322515426197
 11
22.57403904004612
 21
0.0
 40
0.5985848325441405
 50
331.8713554011807
 51
388.1288999924611
 73
     0
 97
        0
 75
     0
 76
     1
 98
        1
 10
0.0
 20
0.0
  0
HATCH
  5
79
330
1F
100
AcDbEntity
  8
0
  6
Continuous
 62
     7
100
AcDbHatch
 10
0.0
 20
0.0
 30
0.0
210
0.0
220
0.0
230
1.0
  2
SOLID
 70
     1
 71
     0
 91
        3
 92
        0
 93
       19
 72
     1
 10
2558.870202192612
 20
314.7709579586855
 11
2560.355534650718
 21
308.9676544182703
 72
     2
 10
2565.453566637579
 20
310.114383967383
 40
5.225410873593411
 50
192.6768785101394
 51
204.7368873206736
 73
     1
 72
     1
 10
2560.707644877863
 20
307.927800914186
 11
2584.042848052473
 21
344.597405899586
 72
     1
 10
2584.042848052473
 20
344.597405899586
 11
2602.102079283856
 21
344.597405899586
 72
     1
 10
2602.102079283856
 20
344.597405899586
 11
2627.385003008663
 21
304.8670971919279
 72
     1
 10
2627.385003008663
 20
304.8670971919279
 11
2609.325771777099
 21
304.8670971919279
 72
     1
 10
2609.325771777099
 20
304.8670971919279
 11
2605.262444749956
 21
312.090789681716
 72
     1
 10
2605.262444749956
 20
312.090789681716
 11
2580.882482586372
 21
312.090789681716
 72
     1
 10
2580.882482586372
 20
312.090789681716
 11
2576.819155559229
 21
304.8670971919279
 72
     1
 10
2576.819155559229
 20
304.8670971919279
 11
2546.118462463106
 21
304.8670971919279
 72
     1
 10
2546.118462463106
 20
304.8670971919279
 11
2546.118462463106
 21
312.0907896826544
 72
     2
 10
2538.894769969861
 20
312.0907896826544
 40
7.223692493244227
 50
0.0
 51
90.0
 73
     1
 72
     1
 10
2538.894769969861
 20
319.3144821758984
 11
2520.835538738298
 21
319.3144821758984
 72
     1
 10
2520.835538738298
 20
319.3144821758984
 11
2520.835538738298
 21
304.8670971928664
 72
     1
 10
2520.835538738298
 20
304.8670971928664
 11
2504.582230629363
 21
304.8670971928664
 72
     1
 10
2504.582230629363
 20
304.8670971928664
 11
2504.582230629363
 21
344.5974059005244
 72
     1
 10
2504.582230629363
 20
344.5974059005244
 11
2542.019258305786
 21
344.5974059005244
 72
     3
 10
2538.029947706919
 20
332.9364020822968
 11
24.32666622535162
 21
0.0
 40
0.4859291160023137
 50
288.8861745463018
 51
398.6942257036357
 73
     0
 72
     2
 10
2549.037584929584
 20
312.9627960708336
 40
9.997490267756193
 50
279.2678272406082
 51
349.5800515720779
 73
     0
 97
        0
 92
        0
 93
        3
 72
     1
 10
2593.072463667404
 20
333.7618671594018
 11
2584.945809612937
 21
319.3144821729139
 72
     1
 10
2584.945809612937
 20
319.3144821729139
 11
2601.199117721872
 21
319.3144821729139
 72
     1
 10
2601.199117721872
 20
319.3144821729139
 11
2593.072463667404
 21
333.7618671594018
 97
        0
 92
        0
 93
        6
 72
     2
 10
2538.478172418671
 20
331.9559440374287
 40
5.417769370214362
 50
270.0000000000008
 51
305.5869104965606
 73
     1
 72
     3
 10
2532.574039041056
 20
331.9559440369547
 11
11.73850030081747
 21
0.0
 40
0.5900077182209745
 50
334.058541690378
 51
385.9414583083995
 73
     1
 72
     2
 10
2538.478172418671
 20
331.9559440374287
 40
5.417769369443226
 50
54.41308949502037
 51
90.0
 73
     1
 72
     1
 10
2538.478172418671
 20
337.3737134068722
 11
2520.835538737718
 21
337.3737134068722
 72
     1
 10
2520.835538737718
 20
337.3737134068722
 11
2520.835538737718
 21
326.538174667214
 72
     1
 10
2520.835538737718
 20
326.538174667214
 11
2538.478172418671
 21
326.5381746672143
 97
        0
 75
     0
 76
     1
 98
        1
 10
0.0
 20
0.0
  0
LINE
  5
7A
330
1F
100
AcDbEntity
  8
0
  6
Continuous
 62
     7
370
    15
100
AcDbLine
 10
2870.0
 20
100.0
 30
0.0
 11
2870.0
 21
2000.0
 31
0.0
  0
LINE
  5
7B
330
1F
100
AcDbEntity
  8
0
  6
Continuous
 62
   179
370
     0
100
AcDbLine
 10
2323.9899183113
 20
344.5974058992
 30
0.0
 11
2323.9899183113
 21
304.8670971915
 31
0.0
  0
LINE
  5
7C
330
1F
100
AcDbEntity
  8
0
  6
Continuous
 62
   179
370
     0
100
AcDbLine
 10
2323.9899183113
 20
344.5974058992
 30
0.0
 11
2356.6479108728
 21
344.5974058992
 31
0.0
  0
LINE
  5
7D
330
1F
100
AcDbEntity
  8
0
  6
Continuous
 62
   179
370
     0
100
AcDbLine
 10
2323.9899183113
 20
304.8670971915
 30
0.0
 11
2340.2432264202
 21
304.8670971915
 31
0.0
  0
LINE
  5
7E
330
1F
100
AcDbEntity
  8
0
  6
Continuous
 62
   179
370
     0
100
AcDbLine
 10
2340.2432264202
 20
304.8670971915
 30
0.0
 11
2340.2432264202
 21
319.3144821747
 31
0.0
  0
LINE
  5
7F
330
1F
100
AcDbEntity
  8
0
  6
Continuous
 62
   179
370
     0
100
AcDbLine
 10
2356.6479108724
 20
319.3144821747
 30
0.0
 11
2340.2432264202
 21
319.3144821747
 31
0.0
  0
LINE
  5
80
330
1F
100
AcDbEntity
  8
0
  6
Continuous
 62
   179
370
     0
100
AcDbLine
 10
2340.2432264198
 20
326.5381746675
 30
0.0
 11
2340.2432264198
 21
337.3737134063
 31
0.0
  0
LINE
  5
81
330
1F
100
AcDbEntity
  8
0
  6
Continuous
 62
   179
370
     0
100
AcDbLine
 10
2340.2432264198
 20
337.3737134063
 30
0.0
 11
2352.923880981
 21
337.3737134063
 31
0.0
  0
LINE
  5
82
330
1F
100
AcDbEntity
  8
0
  6
Continuous
 62
   179
370
     0
100
AcDbLine
 10
2340.2432264198
 20
326.5381746675
 30
0.0
 11
2352.9238809804
 21
326.5381746675
 31
0.0
  0
LINE
  5
83
330
1F
100
AcDbEntity
  8
0
  6
Continuous
 62
   179
370
     0
100
AcDbLine
 10
2381.7794582538
 20
344.5974058975
 30
0.0
 11
2435.9571519481
 21
344.5974058975
 31
0.0
  0
LINE
  5
84
330
1F
100
AcDbEntity
  8
0
  6
Continuous
 62
   179
370
     0
100
AcDbLine
 10
2435.9571519481
 20
344.5974058975
 30
0.0
 11
2435.9571519481
 21
337.3737134043
 31
0.0
  0
LINE
  5
85
330
1F
100
AcDbEntity
  8
0
  6
Continuous
 62
   179
370
     0
100
AcDbLine
 10
2435.9571519481
 20
337.3737134043
 30
0.0
 11
2399.8386894852
 21
337.3737134043
 31
0.0
  0
LINE
  5
86
330
1F
100
AcDbEntity
  8
0
  6
Continuous
 62
   179
370
     0
100
AcDbLine
 10
2399.8386894852
 20
337.3737134043
 30
0.0
 11
2399.8386894852
 21
328.3440977886
 31
0.0
  0
LINE
  5
87
330
1F
100
AcDbEntity
  8
0
  6
Continuous
 62
   179
370
     0
100
AcDbLine
 10
2399.8386894852
 20
328.3440977886
 30
0.0
 11
2432.3453057032
 21
328.3440977886
 31
0.0
  0
LINE
  5
88
330
1F
100
AcDbEntity
  8
0
  6
Continuous
 62
   179
370
     0
100
AcDbLine
 10
2432.3453057032
 20
328.3440977886
 30
0.0
 11
2432.3453057032
 21
321.1204052954
 31
0.0
  0
LINE
  5
89
330
1F
100
AcDbEntity
  8
0
  6
Continuous
 62
   179
370
     0
100
AcDbLine
 10
2432.3453057032
 20
321.1204052954
 30
0.0
 11
2399.8386894852
 21
321.1204052954
 31
0.0
  0
LINE
  5
8A
330
1F
100
AcDbEntity
  8
0
  6
Continuous
 62
   179
370
     0
100
AcDbLine
 10
2399.8386894852
 20
321.1204052954
 30
0.0
 11
2399.8386894852
 21
312.0907896797
 31
0.0
  0
LINE
  5
8B
330
1F
100
AcDbEntity
  8
0
  6
Continuous
 62
   179
370
     0
100
AcDbLine
 10
2399.8386894852
 20
312.0907896797
 30
0.0
 11
2435.9571519481
 21
312.0907896797
 31
0.0
  0
LINE
  5
8C
330
1F
100
AcDbEntity
  8
0
  6
Continuous
 62
   179
370
     0
100
AcDbLine
 10
2435.9571519481
 20
312.0907896797
 30
0.0
 11
2435.9571519481
 21
304.8670971899
 31
0.0
  0
LINE
  5
8D
330
1F
100
AcDbEntity
  8
0
  6
Continuous
 62
   179
370
     0
100
AcDbLine
 10
2435.9571519481
 20
304.8670971899
 30
0.0
 11
2381.7794582538
 21
304.8670971899
 31
0.0
  0
LINE
  5
8E
330
1F
100
AcDbEntity
  8
0
  6
Continuous
 62
   179
370
     0
100
AcDbLine
 10
2439.5689981967
 20
344.5974058976
 30
0.0
 11
2439.5689981967
 21
304.8670971877
 31
0.0
  0
LINE
  5
8F
330
1F
100
AcDbEntity
  8
0
  6
Continuous
 62
   179
370
     0
100
AcDbLine
 10
2439.5689981967
 20
344.5974058976
 30
0.0
 11
2472.0715260016
 21
344.5974058976
 31
0.0
  0
LINE
  5
90
330
1F
100
AcDbEntity
  8
0
  6
Continuous
 62
   179
370
     0
100
AcDbLine
 10
2472.0715260017
 20
304.8670971877
 30
0.0
 11
2439.5689981967
 21
304.8670971877
 31
0.0
  0
LINE
  5
91
330
1F
100
AcDbEntity
  8
0
  6
Continuous
 62
   179
370
     0
100
AcDbLine
 10
2455.8223063032
 20
324.7322515403
 30
0.0
 11
2455.8223063032
 21
313.8967128022
 31
0.0
  0
LINE
  5
92
330
1F
100
AcDbEntity
  8
0
  6
Continuous
 62
   179
370
     0
100
AcDbLine
 10
2455.8223063032
 20
313.8967128022
 30
0.0
 11
2472.947172768
 21
313.8967128022
 31
0.0
  0
LINE
  5
93
330
1F
100
AcDbEntity
  8
0
  6
Continuous
 62
   179
370
     0
100
AcDbLine
 10
2455.8223063032
 20
324.7322515403
 30
0.0
 11
2455.8223063032
 21
335.5677902827
 31
0.0
  0
LINE
  5
94
330
1F
100
AcDbEntity
  8
0
  6
Continuous
 62
   179
370
     0
100
AcDbLine
 10
2455.8223063032
 20
335.5677902827
 30
0.0
 11
2472.947172768
 21
335.5677902827
 31
0.0
  0
LINE
  5
95
330
1F
100
AcDbEntity
  8
0
  6
Continuous
 62
   179
370
     0
100
AcDbLine
 10
2504.5822306294
 20
344.5974059005
 30
0.0
 11
2504.5822306294
 21
304.8670971929
 31
0.0
  0
LINE
  5
96
330
1F
100
AcDbEntity
  8
0
  6
Continuous
 62
     7
370
     0
100
AcDbLine
 10
2728.7989947508
 20
280.0000000004
 30
0.0
 11
2728.7989947508
 21
190.0000000002
 31
0.0
  0
LINE
  5
97
330
1F
100
AcDbEntity
  8
0
  6
Continuous
 62
   179
370
     0
100
AcDbLine
 10
2504.5822306294
 20
304.8670971929
 30
0.0
 11
2520.8355387383
 21
304.8670971929
 31
0.0
  0
LINE
  5
98
330
1F
100
AcDbEntity
  8
0
  6
Continuous
 62
   179
370
     0
100
AcDbLine
 10
2520.8355387383
 20
304.8670971929
 30
0.0
 11
2520.8355387383
 21
319.3144821759
 31
0.0
  0
LINE
  5
99
330
1F
100
AcDbEntity
  8
0
  6
Continuous
 62
   179
370
     0
100
AcDbLine
 10
2520.8355387383
 20
319.3144821759
 30
0.0
 11
2538.8947699699
 21
319.3144821759
 31
0.0
  0
LINE
  5
9A
330
1F
100
AcDbEntity
  8
0
  6
Continuous
 62
   179
370
     0
100
AcDbLine
 10
2546.1184624631
 20
312.0907896827
 30
0.0
 11
2546.1184624631
 21
304.8670971919
 31
0.0
  0
LINE
  5
9B
330
1F
100
AcDbEntity
  8
0
  6
Continuous
 62
   179
370
     0
100
AcDbLine
 10
2520.8355387377
 20
326.5381746672
 30
0.0
 11
2520.8355387377
 21
337.3737134069
 31
0.0
  0
LINE
  5
9C
330
1F
100
AcDbEntity
  8
0
  6
Continuous
 62
   179
370
     0
100
AcDbLine
 10
2520.8355387377
 20
337.3737134069
 30
0.0
 11
2538.4781724187
 21
337.3737134069
 31
0.0
  0
LINE
  5
9D
330
1F
100
AcDbEntity
  8
0
  6
Continuous
 62
   179
370
     0
100
AcDbLine
 10
2520.8355387377
 20
326.5381746672
 30
0.0
 11
2538.4781724187
 21
326.5381746672
 31
0.0
  0
LINE
  5
9E
330
1F
100
AcDbEntity
  8
0
  6
Continuous
 62
   179
370
     0
100
AcDbLine
 10
2558.8702021926
 20
314.7709579587
 30
0.0
 11
2560.3555346507
 21
308.9676544183
 31
0.0
  0
LINE
  5
9F
330
1F
100
AcDbEntity
  8
0
  6
Continuous
 62
     7
370
    15
100
AcDbLine
 10
2870.0
 20
2000.0
 30
0.0
 11
100.0
 21
2000.0
 31
0.0
  0
LINE
  5
A0
330
1F
100
AcDbEntity
  8
0
  6
Continuous
 62
     7
370
     0
100
AcDbLine
 10
2728.7989947508
 20
190.0000000002
 30
0.0
 11
2728.7989947508
 21
100.0
 31
0.0
  0
LINE
  5
A1
330
1F
100
AcDbEntity
  8
0
  6
Continuous
 62
     7
370
    15
100
AcDbLine
 10
100.0
 20
2000.0
 30
0.0
 11
100.0
 21
100.0
 31
0.0
  0
LINE
  5
A2
330
1F
100
AcDbEntity
  8
0
  6
Continuous
 62
     7
370
    15
100
AcDbLine
 10
2150.0
 20
370.0000000006
 30
0.0
 11
2870.0
 21
370.0000000006
 31
0.0
  0
LINE
  5
A3
330
1F
100
AcDbEntity
  8
0
  6
Continuous
 62
    19
370
     0
100
AcDbLine
 10
2795.2884126839
 20
160.2788043096
 30
0.0
 11
2763.4182663121
 21
154.0818314039
 31
0.0
  0
LINE
  5
A4
330
1F
100
AcDbEntity
  8
0
  6
Continuous
 62
    19
370
     0
100
AcDbLine
 10
2821.3505851521
 20
165.4881573907
 30
0.0
 11
2821.3505851521
 21
124.881030118
 31
0.0
  0
LINE
  5
A5
330
1F
100
AcDbEntity
  8
0
  6
Continuous
 62
    19
370
     0
100
AcDbLine
 10
2795.2884126839
 20
160.2788043096
 30
0.0
 11
2795.2884126839
 21
130.0903831992
 31
0.0
  0
LINE
  5
A6
330
1F
100
AcDbEntity
  8
0
  6
Continuous
 62
     7
370
    15
100
AcDbLine
 10
100.0
 20
100.0
 30
0.0
 11
2870.0
 21
100.0
 31
0.0
  0
LINE
  5
A7
330
1F
100
AcDbEntity
  8
0
  6
Continuous
 62
    19
370
     0
100
AcDbLine
 10
2763.4182663121
 20
154.0818314039
 30
0.0
 11
2763.4182663121
 21
136.2873561048
 31
0.0
  0
LINE
  5
A8
330
1F
100
AcDbEntity
  8
0
  6
Continuous
 62
   179
370
     0
100
AcDbLine
 10
2546.1184624631
 20
304.8670971919
 30
0.0
 11
2576.8191555592
 21
304.8670971919
 31
0.0
  0
LINE
  5
A9
330
1F
100
AcDbEntity
  8
0
  6
Continuous
 62
    19
370
     0
100
AcDbLine
 10
2795.2884126839
 20
130.0903831992
 30
0.0
 11
2763.4182663121
 21
136.2873561048
 31
0.0
  0
LINE
  5
AA
330
1F
100
AcDbEntity
  8
0
  6
CENTERX2
 62
    19
370
     0
100
AcDbLine
 10
2838.9207124248
 20
145.1845937544
 30
0.0
 11
2759.4518690643
 21
145.1845937544
 31
0.0
  0
LINE
  5
AB
330
1F
100
AcDbEntity
  8
0
  6
Continuous
 62
   179
370
     0
100
AcDbLine
 10
2504.5822306294
 20
344.5974059005
 30
0.0
 11
2542.0192583058
 21
344.5974059005
 31
0.0
  0
LINE
  5
AC
330
1F
100
AcDbEntity
  8
0
  6
Continuous
 62
   179
370
     0
100
AcDbLine
 10
2381.7794582538
 20
344.5974058975
 30
0.0
 11
2381.7794582538
 21
304.8670971899
 31
0.0
  0
LINE
  5
AD
330
1F
100
AcDbEntity
  8
0
  6
Continuous
 62
   179
370
     0
100
AcDbLine
 10
2584.0428480525
 20
344.5974058996
 30
0.0
 11
2602.1020792839
 21
344.5974058996
 31
0.0
  0
LINE
  5
AE
330
1F
100
AcDbEntity
  8
0
  6
Continuous
 62
   179
370
     0
100
AcDbLine
 10
2584.0428480525
 20
344.5974058996
 30
0.0
 11
2560.7076448779
 21
307.9278009142
 31
0.0
  0
LINE
  5
AF
330
1F
100
AcDbEntity
  8
0
  6
Continuous
 62
   179
370
     0
100
AcDbLine
 10
2576.8191555592
 20
304.8670971919
 30
0.0
 11
2580.8824825864
 21
312.0907896817
 31
0.0
  0
LINE
  5
B0
330
1F
100
AcDbEntity
  8
0
  6
Continuous
 62
   179
370
     0
100
AcDbLine
 10
2593.0724636674
 20
333.7618671594
 30
0.0
 11
2601.1991177219
 21
319.3144821729
 31
0.0
  0
LINE
  5
B1
330
1F
100
AcDbEntity
  8
0
  6
Continuous
 62
   179
370
     0
100
AcDbLine
 10
2584.9458096129
 20
319.3144821729
 30
0.0
 11
2593.0724636674
 21
333.7618671594
 31
0.0
  0
LINE
  5
B2
330
1F
100
AcDbEntity
  8
0
  6
Continuous
 62
   179
370
     0
100
AcDbLine
 10
2584.9458096129
 20
319.3144821729
 30
0.0
 11
2601.1991177219
 21
319.3144821729
 31
0.0
  0
LINE
  5
B3
330
1F
100
AcDbEntity
  8
0
  6
Continuous
 62
   179
370
     0
100
AcDbLine
 10
2580.8824825864
 20
312.0907896817
 30
0.0
 11
2605.26244475
 21
312.0907896817
 31
0.0
  0
LINE
  5
B4
330
1F
100
AcDbEntity
  8
0
  6
Continuous
 62
   179
370
     0
100
AcDbLine
 10
2605.26244475
 20
312.0907896817
 30
0.0
 11
2609.3257717771
 21
304.8670971919
 31
0.0
  0
LINE
  5
B5
330
1F
100
AcDbEntity
  8
0
  6
Continuous
 62
   179
370
     0
100
AcDbLine
 10
2627.3850030087
 20
344.5974058996
 30
0.0
 11
2627.3850030087
 21
304.8670971919
 31
0.0
  0
LINE
  5
B6
330
1F
100
AcDbEntity
  8
0
  6
Continuous
 62
   179
370
     0
100
AcDbLine
 10
2602.1020792839
 20
344.5974058996
 30
0.0
 11
2627.3850030087
 21
304.8670971919
 31
0.0
  0
LINE
  5
B7
330
1F
100
AcDbEntity
  8
0
  6
Continuous
 62
   179
370
     0
100
AcDbLine
 10
2609.3257717771
 20
304.8670971919
 30
0.0
 11
2627.3850030087
 21
304.8670971919
 31
0.0
  0
LINE
  5
B8
330
1F
100
AcDbEntity
  8
0
  6
Continuous
 62
   179
370
     0
100
AcDbLine
 10
2627.3850030087
 20
304.8670971919
 30
0.0
 11
2676.1449273357
 21
304.8670971919
 31
0.0
  0
LINE
  5
B9
330
1F
100
AcDbEntity
  8
0
  6
Continuous
 62
   179
370
     0
100
AcDbLine
 10
2676.1449273357
 20
304.8670971919
 30
0.0
 11
2676.1449273357
 21
313.8967128076
 31
0.0
  0
LINE
  5
BA
330
1F
100
AcDbEntity
  8
0
  6
Continuous
 62
   179
370
     0
100
AcDbLine
 10
2676.1449273357
 20
313.8967128076
 30
0.0
 11
2645.44423424
 21
313.8967128076
 31
0.0
  0
LINE
  5
BB
330
1F
100
AcDbEntity
  8
0
  6
Continuous
 62
   179
370
     0
100
AcDbLine
 10
2645.44423424
 20
313.8967128076
 30
0.0
 11
2645.44423424
 21
344.5974058996
 31
0.0
  0
LINE
  5
BC
330
1F
100
AcDbEntity
  8
0
  6
Continuous
 62
   179
370
     0
100
AcDbLine
 10
2627.3850030087
 20
344.5974058996
 30
0.0
 11
2645.44423424
 21
344.5974058996
 31
0.0
  0
LINE
  5
BD
330
1F
100
AcDbEntity
  8
0
  6
Continuous
 62
   179
370
     0
100
AcDbLine
 10
2677.9508504573
 20
344.5974058992
 30
0.0
 11
2677.9508504573
 21
304.8670971915
 31
0.0
  0
LINE
  5
BE
330
1F
100
AcDbEntity
  8
0
  6
Continuous
 62
   179
370
     0
100
AcDbLine
 10
2696.0100816887
 20
344.5974058992
 30
0.0
 11
2696.0100816887
 21
304.8670971915
 31
0.0
  0
LINE
  5
BF
330
1F
100
AcDbEntity
  8
0
  6
Continuous
 62
   179
370
     0
100
AcDbLine
 10
2677.9508504573
 20
344.5974058992
 30
0.0
 11
2696.0100816887
 21
344.5974058992
 31
0.0
  0
LINE
  5
C0
330
1F
100
AcDbEntity
  8
0
  6
Continuous
 62
   179
370
     0
100
AcDbLine
 10
2677.9508504573
 20
304.8670971915
 30
0.0
 11
2696.0100816887
 21
304.8670971915
 31
0.0
  0
LINE
  5
C1
330
1F
100
AcDbEntity
  8
0
  6
Continuous
 62
   179
370
     0
100
AcDbLine
 10
2704.1151644241
 20
341.2930554229
 30
0.0
 11
2708.2866879839
 21
341.2930554229
 31
0.0
  0
LINE
  5
C2
330
1F
100
AcDbEntity
  8
0
  6
Continuous
 62
   179
370
     0
100
AcDbLine
 10
2708.2866879839
 20
338.5841707372
 30
0.0
 11
2704.1151644241
 21
338.5841707372
 31
0.0
  0
LINE
  5
C3
330
1F
100
AcDbEntity
  8
0
  6
Continuous
 62
   179
370
     0
100
AcDbLine
 10
2704.1151644241
 20
338.5841707372
 30
0.0
 11
2704.1151644241
 21
341.2930554229
 31
0.0
  0
LINE
  5
C4
330
1F
100
AcDbEntity
  8
0
  6
Continuous
 62
   179
370
     0
100
AcDbLine
 10
2704.1151644241
 20
338.5841707372
 30
0.0
 11
2706.8240491077
 21
338.5841707372
 31
0.0
  0
LINE
  5
C5
330
1F
100
AcDbEntity
  8
0
  6
Continuous
 62
   179
370
     0
100
AcDbLine
 10
2704.1151644241
 20
338.5841707372
 30
0.0
 11
2704.1151644241
 21
334.5208437117
 31
0.0
  0
LINE
  5
C6
330
1F
100
AcDbEntity
  8
0
  6
Continuous
 62
   179
370
     0
100
AcDbLine
 10
2709.5329337914
 20
334.5208437117
 30
0.0
 11
2706.8240491077
 21
338.5841707372
 31
0.0
  0
LINE
  5
C7
330
1F
100
AcDbEntity
  8
0
  6
Continuous
 62
     7
370
     0
100
AcDbLine
 10
2150.0
 20
190.0000000002
 30
0.0
 11
2870.0
 21
190.0000000002
 31
0.0
  0
LINE
  5
C8
330
1F
100
AcDbEntity
  8
0
  6
Continuous
 62
     7
370
     0
100
AcDbLine
 10
2870.0
 20
280.0000000004
 30
0.0
 11
2150.0
 21
280.0000000004
 31
0.0
  0
LINE
  5
C9
330
1F
100
AcDbEntity
  8
0
  6
Continuous
 62
     7
370
     0
100
AcDbLine
 10
100.0
 20
550.0
 30
0.0
 11
100.0
 21
650.0
 31
0.0
  0
LINE
  5
CA
330
1F
100
AcDbEntity
  8
0
  6
Continuous
 62
     7
370
     0
100
AcDbLine
 10
100.0
 20
650.0
 30
0.0
 11
100.0
 21
750.0
 31
0.0
  0
LINE
  5
CB
330
1F
100
AcDbEntity
  8
0
  6
Continuous
 62
     7
370
     0
100
AcDbLine
 10
100.0
 20
750.0
 30
0.0
 11
100.0
 21
850.0
 31
0.0
  0
LINE
  5
CC
330
1F
100
AcDbEntity
  8
0
  6
Continuous
 62
     7
370
     0
100
AcDbLine
 10
100.0
 20
850.0
 30
0.0
 11
100.0
 21
950.0
 31
0.0
  0
LINE
  5
CD
330
1F
100
AcDbEntity
  8
0
  6
Continuous
 62
     7
370
     0
100
AcDbLine
 10
100.0
 20
950.0
 30
0.0
 11
100.0
 21
1050.0
 31
0.0
  0
LINE
  5
CE
330
1F
100
AcDbEntity
  8
0
  6
Continuous
 62
     7
370
     0
100
AcDbLine
 10
100.0
 20
1050.0
 30
0.0
 11
100.0
 21
1150.0
 31
0.0
  0
LINE
  5
CF
330
1F
100
AcDbEntity
  8
0
  6
Continuous
 62
     7
370
     0
100
AcDbLine
 10
100.0
 20
1150.0
 30
0.0
 11
100.0
 21
1250.0
 31
0.0
  0
LINE
  5
D0
330
1F
100
AcDbEntity
  8
0
  6
Continuous
 62
     7
370
     0
100
AcDbLine
 10
100.0
 20
1250.0
 30
0.0
 11
100.0
 21
1350.0
 31
0.0
  0
LINE
  5
D1
330
1F
100
AcDbEntity
  8
0
  6
Continuous
 62
     7
370
     0
100
AcDbLine
 10
100.0
 20
1350.0
 30
0.0
 11
100.0
 21
1450.0
 31
0.0
  0
LINE
  5
D2
330
1F
100
AcDbEntity
  8
0
  6
Continuous
 62
     7
370
     0
100
AcDbLine
 10
100.0
 20
1450.0
 30
0.0
 11
100.0
 21
1550.0
 31
0.0
  0
LINE
  5
D3
330
1F
100
AcDbEntity
  8
0
  6
Continuous
 62
     7
370
    15
100
AcDbLine
 10
2150.0
 20
370.0000000006
 30
0.0
 11
2150.0
 21
100.0
 31
0.0
  0
ARC
  5
D4
330
1F
100
AcDbEntity
  8
0
  6
Continuous
 62
   179
370
     0
100
AcDbCircle
 10
2352.923880981
 20
330.1500209155
 30
0.0
 40
7.223692490816169
100
AcDbArc
 50
69.991210111
 51
90.0
  0
ARC
  5
D5
330
1F
100
AcDbEntity
  8
0
  6
Continuous
 62
   179
370
     0
100
AcDbCircle
 10
2352.9238809804
 20
333.7618671601
 30
0.0
 40
7.223692492544103
100
AcDbArc
 50
270.0
 51
290.0087898887
  0
ARC
  5
D6
330
1F
100
AcDbEntity
  8
0
  6
Continuous
 62
   179
370
     0
100
AcDbCircle
 10
2472.947172768
 20
324.7322515422
 30
0.0
 40
10.8355387405187
100
AcDbArc
 50
56.1685552524
 51
90.0
  0
ARC
  5
D7
330
1F
100
AcDbEntity
  8
0
  6
Continuous
 62
   179
370
     0
100
AcDbCircle
 10
2472.947172768
 20
324.7322515422
 30
0.0
 40
10.83553873998012
100
AcDbArc
 50
270.0
 51
303.830934914
  0
ARC
  5
D8
330
1F
100
AcDbEntity
  8
0
  6
Continuous
 62
   179
370
     0
100
AcDbCircle
 10
2538.8947699699
 20
312.0907896827
 30
0.0
 40
7.223692493244471
100
AcDbArc
 50
0.0
 51
90.0
  0
ARC
  5
D9
330
1F
100
AcDbEntity
  8
0
  6
Continuous
 62
   179
370
     0
100
AcDbCircle
 10
2538.4781724187
 20
331.9559440374
 30
0.0
 40
5.417769369443558
100
AcDbArc
 50
54.413089495
 51
90.0
  0
ARC
  5
DA
330
1F
100
AcDbEntity
  8
0
  6
Continuous
 62
   179
370
     0
100
AcDbCircle
 10
2538.4781724187
 20
331.9559440374
 30
0.0
 40
5.417769370214614
100
AcDbArc
 50
270.0
 51
305.5869104966
  0
ARC
  5
DB
330
1F
100
AcDbEntity
  8
0
  6
Continuous
 62
   179
370
     0
100
AcDbCircle
 10
2549.0375849296
 20
312.9627960708
 30
0.0
 40
9.997490267756625
100
AcDbArc
 50
10.4199484279
 51
80.7321727594
  0
ARC
  5
DC
330
1F
100
AcDbEntity
  8
0
  6
Continuous
 62
   179
370
     0
100
AcDbCircle
 10
2565.4535666376
 20
310.1143839674
 30
0.0
 40
5.225410873593643
100
AcDbArc
 50
192.6768785101
 51
204.7368873207
  0
CIRCLE
  5
DD
330
1F
100
AcDbEntity
  8
0
  6
Continuous
 62
   179
370
     0
100
AcDbCircle
 10
2706.2864208618
 20
337.8675697335
 30
0.0
 40
5.930102145230649
  0
CIRCLE
  5
DE
330
1F
100
AcDbEntity
  8
0
  6
Continuous
 62
    19
370
     0
100
AcDbCircle
 10
2821.3505851521
 20
145.1845937544
 30
0.0
 40
8.587078762764193
  0
CIRCLE
  5
DF
330
1F
100
AcDbEntity
  8
0
  6
Continuous
 62
    19
370
     0
100
AcDbCircle
 10
2821.3505851521
 20
145.1845937544
 30
0.0
 40
16.77593581663705
  0
ELLIPSE
  5
E0
330
1F
100
AcDbEntity
  8
0
  6
Continuous
 62
   179
370
     0
100
AcDbEllipse
 10
2350.175803597
 20
331.955944037
 30
0.0
 11
9.932577177642086
 21
0.0
 31
0.0
210
0.0
220
0.0
230
1.0
 40
0.5895245511
 41
5.265715075739357
 42
7.300655538615938
  0
ELLIPSE
  5
E1
330
1F
100
AcDbEntity
  8
0
  6
Continuous
 62
   179
370
     0
100
AcDbEllipse
 10
2462.1430372376
 20
324.7322515426
 30
0.0
 11
22.57403904004605
 21
0.0
 31
0.0
210
0.0
220
0.0
230
1.0
 40
0.5985848325
 41
5.554193105221712
 42
7.012172182744729
  0
ELLIPSE
  5
E2
330
1F
100
AcDbEntity
  8
0
  6
Continuous
 62
   179
370
     0
100
AcDbEllipse
 10
2532.5740390411
 20
331.955944037
 30
0.0
 11
11.73850030081758
 21
0.0
 31
0.0
210
0.0
220
0.0
230
1.0
 40
0.5900077182
 41
5.593675727225931
 42
6.97269488710657
  0
ELLIPSE
  5
E3
330
1F
100
AcDbEntity
  8
0
  6
Continuous
 62
   179
370
     0
100
AcDbEllipse
 10
2538.0299477069
 20
332.9364020823
 30
0.0
 11
24.3266662253518
 21
0.0
 31
0.0
210
0.0
220
0.0
230
1.0
 40
0.485929116
 41
5.257694056962849
 42
7.689248379254996
  0
ELLIPSE
  5
E4
330
1F
100
AcDbEntity
  8
0
  6
Continuous
 62
   179
370
     0
100
AcDbEllipse
 10
2468.4637681651
 20
324.7322515426
 30
0.0
 11
28.89476997115571
 21
0.0
 31
0.0
210
0.0
220
0.0
230
1.0
 40
0.6929224243
 41
4.837574201223028
 42
7.72879641314261
  0
ELLIPSE
  5
E5
330
1F
100
AcDbEntity
  8
0
  6
Continuous
 62
   179
370
     0
100
AcDbEllipse
 10
2351.0787651571
 20
331.955944037
 30
0.0
 11
27.0888468479834
 21
0.0
 31
0.0
210
0.0
220
0.0
230
1.0
 40
0.4768529109
 41
4.919453630382234
 42
7.646916983963972
  0
ELLIPSE
  5
E6
330
1F
100
AcDbEntity
  8
0
  6
Continuous
 62
   179
370
     0
100
AcDbEllipse
 10
2708.0427484413
 20
339.93861308
 30
0.0
 11
1.490185355941776
 21
0.0
 31
0.0
210
0.0
220
0.0
230
1.0
 40
0.9213369296
 41
4.876826485633947
 42
7.68954412872528
  0
MTEXT
  5
E8
330
1F
100
AcDbEntity
  8
0
  6
Continuous
 62
     7
370
     0
100
AcDbMText
 10
2231.444945447
 20
165.6379924371
 30
0.0
 40
37.0416666667
 41
0.0
 71
     1
 72
     1
  1
4402H/ST_OPEN
  7
SLDTEXTSTYLE0
 73
     1
 44
1.0
  0
MTEXT
  5
E9
330
1F
100
AcDbEntity
  8
0
  6
Continuous
 62
     7
370
     0
100
AcDbMText
 10
2158.8845987823
 20
146.3871334973
 30
0.0
 40
18.0
 41
0.0
 71
     1
 72
     1
  1
COD.
  7
SLDTEXTSTYLE0
 73
     1
 44
1.0
  0
MTEXT
  5
EA
330
1F
100
AcDbEntity
  8
0
  6
Continuous
 62
     7
370
     0
100
AcDbMText
 10
107.0855178468
 20
74.7215172182
 30
0.0
 40
18.0
 41
0.0
 71
     1
 72
     1
  1
This document is the property of PEDRALI S.p.A. who willsafeguard its rights according to the civil and penal prevision of the Law.
  7
SLDTEXTSTYLE0
 73
     1
 44
1.0
  0
INSERT
  5
F0
330
1F
100
AcDbEntity
  8
0
  6
Continuous
 62
     7
370
     0
100
AcDbBlockReference
  2
SW_NOTE_0
 10
1440.8605986612
 20
53.5813398756
 30
0.0
  0
MTEXT
  5
F1
330
1F
100
AcDbEntity
  8
0
  6
Continuous
 62
     7
370
     0
100
AcDbMText
 10
2158.8845987823
 20
234.3102099637
 30
0.0
 40
18.0
 41
0.0
 71
     1
 72
     1
  1
SERIE:
  7
SLDTEXTSTYLE0
 73
     1
 44
1.0
  0
MTEXT
  5
F2
330
1F
100
AcDbEntity
  8
0
  6
Continuous
 62
     7
370
     0
100
AcDbMText
 10
2231.444945447
 20
253.5610689035
 30
0.0
 40
37.0416666667
 41
0.0
 71
     1
 72
     1
  1
INOX
  7
SLDTEXTSTYLE0
 73
     1
 44
1.0
  0
INSERT
  5
F8
330
1F
100
AcDbEntity
  8
0
  6
Continuous
 62
     7
370
     0
100
AcDbBlockReference
  2
SW_NOTE_1
 10
2766.9883061954
 20
242.6632128381
 30
0.0
  0
LINE
  5
F9
330
1F
100
AcDbEntity
  8
0
  6
Continuous
 62
     7
370
    15
100
AcDbLine
 10
1009.2583538717
 20
997.7609355257
 30
0.0
 11
1009.2583538717
 21
1002.760935414
 31
0.0
  0
LINE
  5
FA
330
1F
100
AcDbEntity
  8
0
  6
Continuous
 62
     7
370
    15
100
AcDbLine
 10
991.258347196
 20
1002.760935414
 30
0.0
 11
991.258347196
 21
997.7609355257
 31
0.0
  0
LINE
  5
FB
330
1F
100
AcDbEntity
  8
0
  6
Continuous
 62
     7
370
    15
100
AcDbLine
 10
1379.25835864
 20
997.7609355257
 30
0.0
 11
1379.25835864
 21
1002.760935414
 31
0.0
  0
LINE
  5
FC
330
1F
100
AcDbEntity
  8
0
  6
Continuous
 62
     7
370
    15
100
AcDbLine
 10
1361.2583519643
 20
1002.760935414
 30
0.0
 11
1361.2583519643
 21
997.7609355257
 31
0.0
  0
LINE
  5
FD
330
1F
100
AcDbEntity
  8
0
  6
Continuous
 62
     7
370
    15
100
AcDbLine
 10
1098.1083379811
 20
1722.7609593676
 30
0.0
 11
1098.1083379811
 21
1714.2609197901
 31
0.0
  0
LINE
  5
FE
330
1F
100
AcDbEntity
  8
0
  6
Continuous
 62
     7
370
    15
100
AcDbLine
 10
1272.4083678549
 20
1714.2609197901
 30
0.0
 11
1272.4083678549
 21
1722.7609593676
 31
0.0
  0
LINE
  5
FF
330
1F
100
AcDbEntity
  8
0
  6
Continuous
 62
     7
370
    15
100
AcDbLine
 10
1344.2824871963
 20
1655.3531725214
 30
0.0
 11
1245.45440988
 21
1670.7483966158
 31
0.0
  0
LINE
  5
100
330
1F
100
AcDbEntity
  8
0
  6
Continuous
 62
     7
370
    15
100
AcDbLine
 10
1244.4125206893
 20
1664.8395497606
 30
0.0
 11
1342.5459952777
 21
1645.5051142977
 31
0.0
  0
LINE
  5
101
330
1F
100
AcDbEntity
  8
0
  6
Continuous
 62
     7
370
    15
100
AcDbLine
 10
1205.258352471
 20
1671.7434365557
 30
0.0
 11
1244.4125206893
 21
1664.8395497606
 31
0.0
  0
LINE
  5
102
330
1F
100
AcDbEntity
  8
0
  6
Continuous
 62
     7
370
    15
100
AcDbLine
 10
1245.45440988
 20
1670.7483966158
 30
0.0
 11
1205.258352471
 21
1677.8360445307
 31
0.0
  0
LINE
  5
103
330
1F
100
AcDbEntity
  8
0
  6
Continuous
 62
     7
370
    15
100
AcDbLine
 10
992.1069683259
 20
997.7609355257
 30
0.0
 11
991.258347196
 21
997.7609355257
 31
0.0
  0
LINE
  5
104
330
1F
100
AcDbEntity
  8
0
  6
Continuous
 62
     7
370
    15
100
AcDbLine
 10
1009.2583538717
 20
997.7609355257
 30
0.0
 11
992.1069683259
 21
997.7609355257
 31
0.0
  0
LINE
  5
105
330
1F
100
AcDbEntity
  8
0
  6
Continuous
 62
     7
370
    15
100
AcDbLine
 10
1362.1069581932
 20
997.7609355257
 30
0.0
 11
1361.2583519643
 21
997.7609355257
 31
0.0
  0
LINE
  5
106
330
1F
100
AcDbEntity
  8
0
  6
Continuous
 62
     7
370
    15
100
AcDbLine
 10
1379.25835864
 20
997.7609355257
 30
0.0
 11
1362.1069581932
 21
997.7609355257
 31
0.0
  0
LINE
  5
107
330
1F
100
AcDbEntity
  8
0
  6
Continuous
 62
     7
370
    15
100
AcDbLine
 10
1232.6345087713
 20
1714.2609197901
 30
0.0
 11
1185.258352918
 21
1714.2609197901
 31
0.0
  0
LINE
  5
108
330
1F
100
AcDbEntity
  8
0
  6
Continuous
 62
     7
370
    15
100
AcDbLine
 10
1185.258352918
 20
1714.2609197901
 30
0.0
 11
1137.8821970647
 21
1714.2609197901
 31
0.0
  0
LINE
  5
109
330
1F
100
AcDbEntity
  8
0
  6
Continuous
 62
     7
370
    15
100
AcDbLine
 10
1137.8821970647
 20
1722.7609593676
 30
0.0
 11
1232.6345087713
 21
1722.7609593676
 31
0.0
  0
LINE
  5
10A
330
1F
100
AcDbEntity
  8
0
  6
Continuous
 62
     7
370
    15
100
AcDbLine
 10
1235.6380799538
 20
1709.205134611
 30
0.0
 11
1232.8588494783
 21
1714.2609197901
 31
0.0
  0
LINE
  5
10B
330
1F
100
AcDbEntity
  8
0
  6
Continuous
 62
     7
370
    15
100
AcDbLine
 10
1237.7593980854
 20
1709.6280891703
 30
0.0
 11
1235.6380799538
 21
1709.205134611
 31
0.0
  0
LINE
  5
10C
330
1F
100
AcDbEntity
  8
0
  6
Continuous
 62
     7
370
    15
100
AcDbLine
 10
1237.7593980854
 20
1707.2609503077
 30
0.0
 11
1237.7593980854
 21
1709.6280891703
 31
0.0
  0
LINE
  5
10D
330
1F
100
AcDbEntity
  8
0
  6
Continuous
 62
     7
370
    15
100
AcDbLine
 10
1237.7593980854
 20
1707.2609503077
 30
0.0
 11
1132.7573077506
 21
1707.2609503077
 31
0.0
  0
LINE
  5
10E
330
1F
100
AcDbEntity
  8
0
  6
Continuous
 62
     7
370
    15
100
AcDbLine
 10
1132.7573077506
 20
1707.2609503077
 30
0.0
 11
1132.7573077506
 21
1709.6280891703
 31
0.0
  0
LINE
  5
10F
330
1F
100
AcDbEntity
  8
0
  6
Continuous
 62
     7
370
    15
100
AcDbLine
 10
1134.8786258822
 20
1709.205134611
 30
0.0
 11
1132.7573077506
 21
1709.6280891703
 31
0.0
  0
LINE
  5
110
330
1F
100
AcDbEntity
  8
0
  6
Continuous
 62
     7
370
    15
100
AcDbLine
 10
1134.8786258822
 20
1709.205134611
 30
0.0
 11
1137.6578563577
 21
1714.2609197901
 31
0.0
  0
LINE
  5
111
330
1F
100
AcDbEntity
  8
0
  6
Continuous
 62
     7
370
    15
100
AcDbLine
 10
1127.9827037579
 20
1714.2609197901
 30
0.0
 11
1098.1083379811
 21
1714.2609197901
 31
0.0
  0
LINE
  5
112
330
1F
100
AcDbEntity
  8
0
  6
Continuous
 62
     7
370
    15
100
AcDbLine
 10
1098.1083379811
 20
1722.7609593676
 30
0.0
 11
1127.9827037579
 21
1722.7609593676
 31
0.0
  0
LINE
  5
113
330
1F
100
AcDbEntity
  8
0
  6
Continuous
 62
     7
370
    15
100
AcDbLine
 10
1272.4083678549
 20
1714.2609197901
 30
0.0
 11
1242.5340020781
 21
1714.2609197901
 31
0.0
  0
LINE
  5
114
330
1F
100
AcDbEntity
  8
0
  6
Continuous
 62
     7
370
    15
100
AcDbLine
 10
1242.5340020781
 20
1722.7609593676
 30
0.0
 11
1272.4083678549
 21
1722.7609593676
 31
0.0
  0
LINE
  5
115
330
1F
100
AcDbEntity
  8
0
  6
Continuous
 62
     7
370
    15
100
AcDbLine
 10
1127.9827037579
 20
1714.2609197901
 30
0.0
 11
1137.8821970647
 21
1714.2609197901
 31
0.0
  0
LINE
  5
116
330
1F
100
AcDbEntity
  8
0
  6
Continuous
 62
     7
370
    15
100
AcDbLine
 10
1127.9827037579
 20
1722.7609593676
 30
0.0
 11
1137.8821970647
 21
1722.7609593676
 31
0.0
  0
LINE
  5
117
330
1F
100
AcDbEntity
  8
0
  6
Continuous
 62
     7
370
    15
100
AcDbLine
 10
1232.6345087713
 20
1714.2609197901
 30
0.0
 11
1242.5340020781
 21
1714.2609197901
 31
0.0
  0
LINE
  5
118
330
1F
100
AcDbEntity
  8
0
  6
Continuous
 62
     7
370
    15
100
AcDbLine
 10
1232.6345087713
 20
1722.7609593676
 30
0.0
 11
1242.5340020781
 21
1722.7609593676
 31
0.0
  0
LINE
  5
119
330
1F
100
AcDbEntity
  8
0
  6
Continuous
 62
     7
370
    15
100
AcDbLine
 10
1134.8786258822
 20
1709.205134611
 30
0.0
 11
1122.1997977918
 21
1714.2609197901
 31
0.0
  0
LINE
  5
11A
330
1F
100
AcDbEntity
  8
0
  6
Continuous
 62
     7
370
    15
100
AcDbLine
 10
1235.6380799538
 20
1709.205134611
 30
0.0
 11
1248.3169080442
 21
1714.2609197901
 31
0.0
  0
LINE
  5
11B
330
1F
100
AcDbEntity
  8
0
  6
Continuous
 62
     7
370
    15
100
AcDbLine
 10
1132.7573077506
 20
1709.205134611
 30
0.0
 11
1120.0784759348
 21
1714.2609197901
 31
0.0
  0
LINE
  5
11C
330
1F
100
AcDbEntity
  8
0
  6
Continuous
 62
     7
370
    15
100
AcDbLine
 10
1237.7593980854
 20
1709.205134611
 30
0.0
 11
1250.4382299012
 21
1714.2609197901
 31
0.0
  0
LWPOLYLINE
  5
11D
330
1F
100
AcDbEntity
  8
0
  6
Continuous
 62
     7
370
    15
100
AcDbPolyline
 90
       14
 70
   128
 43
0.0
 10
1244.9334652847
 20
1667.7939731882
 10
1244.9974843985
 20
1668.1570250796
 10
1245.0605312115
 20
1668.5145933436
 10
1245.1216520494
 20
1668.8611943529
 10
1245.1799230402
 20
1669.1916425036
 10
1245.2344538396
 20
1669.5009310053
 10
1245.2844248837
 20
1669.7843510912
 10
1245.3290724879
 20
1670.0375516222
 10
1245.3677261001
 20
1670.2567775057
 10
1245.3997971242
 20
1670.4386312769
 10
1245.4247975474
 20
1670.5804307268
 10
1245.4423511153
 20
1670.6799704836
 10
1245.452189607
 20
1670.7357604311
 10
1245.45440988
 20
1670.7483966158
  0
LWPOLYLINE
  5
11E
330
1F
100
AcDbEntity
  8
0
  6
Continuous
 62
     7
370
    15
100
AcDbPolyline
 90
       14
 70
   128
 43
0.0
 10
1244.4125206893
 20
1664.8395497606
 10
1244.4147446876
 20
1664.8521263407
 10
1244.4245831793
 20
1664.9079162882
 10
1244.4421367472
 20
1665.007456045
 10
1244.4671371704
 20
1665.1492554949
 10
1244.4992044693
 20
1665.3311092661
 10
1244.5378580814
 20
1665.5503351496
 10
1244.582509411
 20
1665.8035356806
 10
1244.6324767297
 20
1666.0869557665
 10
1244.6870112544
 20
1666.3962442682
 10
1244.74527852
 20
1666.7266924189
 10
1244.8063993579
 20
1667.0732934283
 10
1244.8694498962
 20
1667.4308616923
 10
1244.9334652847
 20
1667.7939731882
  0
LWPOLYLINE
  5
11F
330
1F
100
AcDbEntity
  8
0
  6
Continuous
 62
     7
370
    15
100
AcDbPolyline
 90
       18
 70
   128
 43
0.0
 10
1343.414241237
 20
1650.4291136072
 10
1343.4967787689
 20
1650.8971888827
 10
1343.5785563415
 20
1651.3610322283
 10
1343.6588586992
 20
1651.8164117144
 10
1343.7369407838
 20
1652.2592146204
 10
1343.8120873397
 20
1652.6854474352
 10
1343.8836427158
 20
1653.0912358568
 10
1343.9509512609
 20
1653.472944002
 10
1344.0134020275
 20
1653.8271148012
 10
1344.0704138702
 20
1654.1504699991
 10
1344.1214950508
 20
1654.4401485728
 10
1344.1661538309
 20
1654.693468313
 10
1344.2040176815
 20
1654.9081642435
 10
1344.2347289747
 20
1655.0823290156
 10
1344.2580045885
 20
1655.2143533037
 10
1344.2736508077
 20
1655.3030450152
 10
1344.2815037197
 20
1655.3475696848
 10
1344.2824871963
 20
1655.3531725214
  0
LWPOLYLINE
  5
120
330
1F
100
AcDbEntity
  8
0
  6
Continuous
 62
     7
370
    15
100
AcDbPolyline
 90
       18
 70
   128
 43
0.0
 10
1342.5459952777
 20
1645.5051142977
 10
1342.5469787544
 20
1645.5106575297
 10
1342.5548316663
 20
1645.5551821993
 10
1342.5704778856
 20
1645.6438739107
 10
1342.5937534994
 20
1645.7758981989
 10
1342.6244647926
 20
1645.9500629709
 10
1342.6623286432
 20
1646.1647589014
 10
1342.7069874233
 20
1646.4181382464
 10
1342.7580686038
 20
1646.7077572153
 10
1342.8150804466
 20
1647.0311720179
 10
1342.8775312131
 20
1647.3852832125
 10
1342.9448397583
 20
1647.7669913576
 10
1343.0163951343
 20
1648.1727797793
 10
1343.0915416902
 20
1648.5990721987
 10
1343.1696237749
 20
1649.0418751047
 10
1343.2499261325
 20
1649.4972545908
 10
1343.3317037052
 20
1649.9610383318
 10
1343.414241237
 20
1650.4291136072
  0
LINE
  5
121
330
1F
100
AcDbEntity
  8
0
  6
Continuous
 62
     7
370
    15
100
AcDbLine
 10
1160.0083520388
 20
1443.7609453009
 30
0.0
 11
1160.0083520388
 21
1449.7609276579
 31
0.0
  0
LINE
  5
122
330
1F
100
AcDbEntity
  8
0
  6
Continuous
 62
     7
370
    15
100
AcDbLine
 10
1210.5083537972
 20
1443.7609453009
 30
0.0
 11
1210.5083537972
 21
1449.7609276579
 31
0.0
  0
LINE
  5
123
330
1F
100
AcDbEntity
  8
0
  6
Continuous
 62
     7
370
    15
100
AcDbLine
 10
1210.5083537972
 20
1443.7609453009
 30
0.0
 11
1160.0083520388
 21
1443.7609453009
 31
0.0
  0
LINE
  5
124
330
1F
100
AcDbEntity
  8
0
  6
Continuous
 62
     7
370
    15
100
AcDbLine
 10
1210.5083537972
 20
1449.7609276579
 30
0.0
 11
1160.0083520388
 21
1449.7609276579
 31
0.0
  0
LINE
  5
125
330
1F
100
AcDbEntity
  8
0
  6
Continuous
 62
     7
370
    15
100
AcDbLine
 10
1165.258353365
 20
1707.2609503077
 30
0.0
 11
1165.258353365
 21
1449.7609276579
 31
0.0
  0
LINE
  5
126
330
1F
100
AcDbEntity
  8
0
  6
Continuous
 62
     7
370
    15
100
AcDbLine
 10
1205.258352471
 20
1707.2609503077
 30
0.0
 11
1205.258352471
 21
1449.7609276579
 31
0.0
  0
LINE
  5
127
330
1F
100
AcDbEntity
  8
0
  6
Continuous
 62
     7
370
    15
100
AcDbLine
 10
1160.2583525455
 20
1443.7609453009
 30
0.0
 11
1160.2583525455
 21
1013.7609362857
 31
0.0
  0
LINE
  5
128
330
1F
100
AcDbEntity
  8
0
  6
Continuous
 62
     7
370
    15
100
AcDbLine
 10
1210.2583532905
 20
1443.7609453009
 30
0.0
 11
1210.2583532905
 21
1013.7609362857
 31
0.0
  0
LINE
  5
129
330
1F
100
AcDbEntity
  8
0
  6
Continuous
 62
     7
370
    15
100
AcDbLine
 10
983.3589883274
 20
1013.7609362857
 30
0.0
 11
1387.1577175086
 21
1013.7609362857
 31
0.0
  0
LINE
  5
12A
330
1F
100
AcDbEntity
  8
0
  6
Continuous
 62
     7
370
    15
100
AcDbLine
 10
1388.5083587593
 20
1002.760935414
 30
0.0
 11
1387.1577175086
 21
1013.7609362857
 31
0.0
  0
LINE
  5
12B
330
1F
100
AcDbEntity
  8
0
  6
Continuous
 62
     7
370
    15
100
AcDbLine
 10
982.0083470767
 20
1002.760935414
 30
0.0
 11
1388.5083587593
 21
1002.760935414
 31
0.0
  0
LINE
  5
12C
330
1F
100
AcDbEntity
  8
0
  6
Continuous
 62
     7
370
    15
100
AcDbLine
 10
983.3589883274
 20
1013.7609362857
 30
0.0
 11
982.0083470767
 21
1002.760935414
 31
0.0
  0
LINE
  5
12D
330
1F
100
AcDbEntity
  8
0
  6
Continuous
 62
     7
370
    15
100
AcDbLine
 10
1636.7795524361
 20
997.7609355257
 30
0.0
 11
1636.7795524361
 21
1002.760935414
 31
0.0
  0
LINE
  5
12E
330
1F
100
AcDbEntity
  8
0
  6
Continuous
 62
     7
370
    15
100
AcDbLine
 10
1618.7795457604
 20
1002.760935414
 30
0.0
 11
1618.7795457604
 21
997.7609355257
 31
0.0
  0
LINE
  5
12F
330
1F
100
AcDbEntity
  8
0
  6
Continuous
 62
     7
370
    15
100
AcDbLine
 10
2006.7795572045
 20
997.7609355257
 30
0.0
 11
2006.7795572045
 21
1002.760935414
 31
0.0
  0
LINE
  5
130
330
1F
100
AcDbEntity
  8
0
  6
Continuous
 62
     7
370
    15
100
AcDbLine
 10
1988.7795505288
 20
1002.760935414
 30
0.0
 11
1988.7795505288
 21
997.7609355257
 31
0.0
  0
LINE
  5
131
330
1F
100
AcDbEntity
  8
0
  6
Continuous
 62
     7
370
    15
100
AcDbLine
 10
1725.6295365455
 20
1722.7609593676
 30
0.0
 11
1725.6295365455
 21
1714.2609197901
 31
0.0
  0
LINE
  5
132
330
1F
100
AcDbEntity
  8
0
  6
Continuous
 62
     7
370
    15
100
AcDbLine
 10
1899.9295664194
 20
1714.2609197901
 30
0.0
 11
1899.9295664194
 21
1722.7609593676
 31
0.0
  0
LINE
  5
133
330
1F
100
AcDbEntity
  8
0
  6
Continuous
 62
     7
370
    15
100
AcDbLine
 10
1631.5946337941
 20
997.7609355257
 30
0.0
 11
1618.7795457604
 21
997.7609355257
 31
0.0
  0
LINE
  5
134
330
1F
100
AcDbEntity
  8
0
  6
Continuous
 62
     7
370
    15
100
AcDbLine
 10
1636.7795524361
 20
997.7609355257
 30
0.0
 11
1631.5946337941
 21
997.7609355257
 31
0.0
  0
LINE
  5
135
330
1F
100
AcDbEntity
  8
0
  6
Continuous
 62
     7
370
    15
100
AcDbLine
 10
2001.5946385625
 20
997.7609355257
 30
0.0
 11
1988.7795505288
 21
997.7609355257
 31
0.0
  0
LINE
  5
136
330
1F
100
AcDbEntity
  8
0
  6
Continuous
 62
     7
370
    15
100
AcDbLine
 10
2006.7795572045
 20
997.7609355257
 30
0.0
 11
2001.5946385625
 21
997.7609355257
 31
0.0
  0
LINE
  5
137
330
1F
100
AcDbEntity
  8
0
  6
Continuous
 62
     7
370
    15
100
AcDbLine
 10
1860.1557073357
 20
1714.2609197901
 30
0.0
 11
1812.7795514825
 21
1714.2609197901
 31
0.0
  0
LINE
  5
138
330
1F
100
AcDbEntity
  8
0
  6
Continuous
 62
     7
370
    15
100
AcDbLine
 10
1812.7795514825
 20
1714.2609197901
 30
0.0
 11
1765.4033956292
 21
1714.2609197901
 31
0.0
  0
LINE
  5
139
330
1F
100
AcDbEntity
  8
0
  6
Continuous
 62
     7
370
    15
100
AcDbLine
 10
1765.4033956292
 20
1722.7609593676
 30
0.0
 11
1860.1557073357
 21
1722.7609593676
 31
0.0
  0
LINE
  5
13A
330
1F
100
AcDbEntity
  8
0
  6
Continuous
 62
     7
370
    15
100
AcDbLine
 10
1863.1592785182
 20
1709.205134611
 30
0.0
 11
1860.3800480428
 21
1714.2609197901
 31
0.0
  0
LINE
  5
13B
330
1F
100
AcDbEntity
  8
0
  6
Continuous
 62
     7
370
    15
100
AcDbLine
 10
1865.2805966499
 20
1709.6280891703
 30
0.0
 11
1863.1592785182
 21
1709.205134611
 31
0.0
  0
LINE
  5
13C
330
1F
100
AcDbEntity
  8
0
  6
Continuous
 62
     7
370
    15
100
AcDbLine
 10
1865.2805966499
 20
1707.2609503077
 30
0.0
 11
1865.2805966499
 21
1709.6280891703
 31
0.0
  0
LINE
  5
13D
330
1F
100
AcDbEntity
  8
0
  6
Continuous
 62
     7
370
    15
100
AcDbLine
 10
1760.278506315
 20
1707.2609503077
 30
0.0
 11
1760.278506315
 21
1709.6280891703
 31
0.0
  0
LINE
  5
13E
330
1F
100
AcDbEntity
  8
0
  6
Continuous
 62
     7
370
    15
100
AcDbLine
 10
1762.3998244467
 20
1709.205134611
 30
0.0
 11
1760.278506315
 21
1709.6280891703
 31
0.0
  0
LINE
  5
13F
330
1F
100
AcDbEntity
  8
0
  6
Continuous
 62
     7
370
    15
100
AcDbLine
 10
1762.3998244467
 20
1709.205134611
 30
0.0
 11
1765.1790549221
 21
1714.2609197901
 31
0.0
  0
LINE
  5
140
330
1F
100
AcDbEntity
  8
0
  6
Continuous
 62
     7
370
    15
100
AcDbLine
 10
1865.2805966499
 20
1707.2609503077
 30
0.0
 11
1760.278506315
 21
1707.2609503077
 31
0.0
  0
LINE
  5
141
330
1F
100
AcDbEntity
  8
0
  6
Continuous
 62
     7
370
    15
100
AcDbLine
 10
1755.5039023223
 20
1714.2609197901
 30
0.0
 11
1725.6295365455
 21
1714.2609197901
 31
0.0
  0
LINE
  5
142
330
1F
100
AcDbEntity
  8
0
  6
Continuous
 62
     7
370
    15
100
AcDbLine
 10
1725.6295365455
 20
1722.7609593676
 30
0.0
 11
1755.5039023223
 21
1722.7609593676
 31
0.0
  0
LINE
  5
143
330
1F
100
AcDbEntity
  8
0
  6
Continuous
 62
     7
370
    15
100
AcDbLine
 10
1899.9295664194
 20
1714.2609197901
 30
0.0
 11
1870.0552006426
 21
1714.2609197901
 31
0.0
  0
LINE
  5
144
330
1F
100
AcDbEntity
  8
0
  6
Continuous
 62
     7
370
    15
100
AcDbLine
 10
1870.0552006426
 20
1722.7609593676
 30
0.0
 11
1899.9295664194
 21
1722.7609593676
 31
0.0
  0
LINE
  5
145
330
1F
100
AcDbEntity
  8
0
  6
Continuous
 62
     7
370
    15
100
AcDbLine
 10
1755.5039023223
 20
1714.2609197901
 30
0.0
 11
1765.4033956292
 21
1714.2609197901
 31
0.0
  0
LINE
  5
146
330
1F
100
AcDbEntity
  8
0
  6
Continuous
 62
     7
370
    15
100
AcDbLine
 10
1755.5039023223
 20
1722.7609593676
 30
0.0
 11
1765.4033956292
 21
1722.7609593676
 31
0.0
  0
LINE
  5
147
330
1F
100
AcDbEntity
  8
0
  6
Continuous
 62
     7
370
    15
100
AcDbLine
 10
1860.1557073357
 20
1714.2609197901
 30
0.0
 11
1870.0552006426
 21
1714.2609197901
 31
0.0
  0
LINE
  5
148
330
1F
100
AcDbEntity
  8
0
  6
Continuous
 62
     7
370
    15
100
AcDbLine
 10
1860.1557073357
 20
1722.7609593676
 30
0.0
 11
1870.0552006426
 21
1722.7609593676
 31
0.0
  0
LINE
  5
149
330
1F
100
AcDbEntity
  8
0
  6
Continuous
 62
     7
370
    15
100
AcDbLine
 10
1762.3998244467
 20
1709.205134611
 30
0.0
 11
1749.7209963563
 21
1714.2609197901
 31
0.0
  0
LINE
  5
14A
330
1F
100
AcDbEntity
  8
0
  6
Continuous
 62
     7
370
    15
100
AcDbLine
 10
1863.1592785182
 20
1709.205134611
 30
0.0
 11
1875.8381066087
 21
1714.2609197901
 31
0.0
  0
LINE
  5
14B
330
1F
100
AcDbEntity
  8
0
  6
Continuous
 62
     7
370
    15
100
AcDbLine
 10
1865.2805966499
 20
1709.205134611
 30
0.0
 11
1877.9594284656
 21
1714.2609197901
 31
0.0
  0
LINE
  5
14C
330
1F
100
AcDbEntity
  8
0
  6
Continuous
 62
     7
370
    15
100
AcDbLine
 10
1760.278506315
 20
1709.205134611
 30
0.0
 11
1747.5996744993
 21
1714.2609197901
 31
0.0
  0
LINE
  5
14D
330
1F
100
AcDbEntity
  8
0
  6
Continuous
 62
     7
370
    15
100
AcDbLine
 10
1787.5295506033
 20
1443.7609453009
 30
0.0
 11
1787.5295506033
 21
1449.7609276579
 31
0.0
  0
LINE
  5
14E
330
1F
100
AcDbEntity
  8
0
  6
Continuous
 62
     7
370
    15
100
AcDbLine
 10
1838.0295523616
 20
1443.7609453009
 30
0.0
 11
1838.0295523616
 21
1449.7609276579
 31
0.0
  0
LINE
  5
14F
330
1F
100
AcDbEntity
  8
0
  6
Continuous
 62
     7
370
    15
100
AcDbLine
 10
1838.0295523616
 20
1443.7609453009
 30
0.0
 11
1787.5295506033
 21
1443.7609453009
 31
0.0
  0
LINE
  5
150
330
1F
100
AcDbEntity
  8
0
  6
Continuous
 62
     7
370
    15
100
AcDbLine
 10
1838.0295523616
 20
1449.7609276579
 30
0.0
 11
1787.5295506033
 21
1449.7609276579
 31
0.0
  0
LINE
  5
151
330
1F
100
AcDbEntity
  8
0
  6
Continuous
 62
     7
370
    15
100
AcDbLine
 10
1792.7795519295
 20
1707.2609503077
 30
0.0
 11
1792.7795519295
 21
1449.7609276579
 31
0.0
  0
LINE
  5
152
330
1F
100
AcDbEntity
  8
0
  6
Continuous
 62
     7
370
    15
100
AcDbLine
 10
1832.7795510354
 20
1707.2609503077
 30
0.0
 11
1832.7795510354
 21
1449.7609276579
 31
0.0
  0
LINE
  5
153
330
1F
100
AcDbEntity
  8
0
  6
Continuous
 62
     7
370
    15
100
AcDbLine
 10
1787.7795511099
 20
1443.7609453009
 30
0.0
 11
1787.7795511099
 21
1013.7609362857
 31
0.0
  0
LINE
  5
154
330
1F
100
AcDbEntity
  8
0
  6
Continuous
 62
     7
370
    15
100
AcDbLine
 10
1837.779551855
 20
1443.7609453009
 30
0.0
 11
1837.779551855
 21
1013.7609362857
 31
0.0
  0
LINE
  5
155
330
1F
100
AcDbEntity
  8
0
  6
Continuous
 62
     7
370
    15
100
AcDbLine
 10
2014.6789160731
 20
1013.7609362857
 30
0.0
 11
2016.0295573237
 21
1002.760935414
 31
0.0
  0
LINE
  5
156
330
1F
100
AcDbEntity
  8
0
  6
Continuous
 62
     7
370
    15
100
AcDbLine
 10
1609.5295456412
 20
1002.760935414
 30
0.0
 11
2016.0295573237
 21
1002.760935414
 31
0.0
  0
LINE
  5
157
330
1F
100
AcDbEntity
  8
0
  6
Continuous
 62
     7
370
    15
100
AcDbLine
 10
1609.5295456412
 20
1002.760935414
 30
0.0
 11
1610.8801868918
 21
1013.7609362857
 31
0.0
  0
LINE
  5
158
330
1F
100
AcDbEntity
  8
0
  6
Continuous
 62
     7
370
    15
100
AcDbLine
 10
1610.8801868918
 20
1013.7609362857
 30
0.0
 11
2014.6789160731
 21
1013.7609362857
 31
0.0
  0
LINE
  5
159
330
1F
100
AcDbEntity
  8
0
  6
Continuous
 62
     7
370
    15
100
AcDbLine
 10
1237.8265985971
 20
546.3733839002
 30
0.0
 11
1244.9334652847
 21
546.3733839002
 31
0.0
  0
LINE
  5
15A
330
1F
100
AcDbEntity
  8
0
  6
Continuous
 62
     7
370
    15
100
AcDbLine
 10
1244.9334652847
 20
552.3733839524
 30
0.0
 11
1237.8265985971
 21
552.3733839524
 31
0.0
  0
LINE
  5
15B
330
1F
100
AcDbEntity
  8
0
  6
Continuous
 62
     7
370
    15
100
AcDbLine
 10
1343.411186499
 20
554.3733526152
 30
0.0
 11
1244.9316287166
 21
552.3733653259
 31
0.0
  0
LINE
  5
15C
330
1F
100
AcDbEntity
  8
0
  6
Continuous
 62
     7
370
    15
100
AcDbLine
 10
1244.9316287166
 20
546.3734025267
 30
0.0
 11
1343.411186499
 21
544.3734152373
 31
0.0
  0
LINE
  5
15D
330
1F
100
AcDbEntity
  8
0
  6
Continuous
 62
     7
370
    15
100
AcDbLine
 10
1257.3832439011
 20
596.7495397796
 30
0.0
 11
1267.2827409333
 21
606.6490330864
 31
0.0
  0
ARC
  5
15E
330
1F
100
AcDbEntity
  8
0
  6
Continuous
 62
     7
370
    15
100
AcDbCircle
 10
1304.7593989385
 20
549.3733839263
 30
0.0
 40
67.00000000000006
100
AcDbArc
 50
135.0
 51
225.0
  0
LINE
  5
15F
330
1F
100
AcDbEntity
  8
0
  6
Continuous
 62
     7
370
    15
100
AcDbLine
 10
1267.2827409333
 20
492.0977347661
 30
0.0
 11
1257.3832439011
 21
501.997228073
 31
0.0
  0
ARC
  5
160
330
1F
100
AcDbEntity
  8
0
  6
Continuous
 62
     7
370
    15
100
AcDbCircle
 10
1254.9083708649
 20
479.7233659794
 30
0.0
 40
17.5000000000001
100
AcDbArc
 50
225.0
 51
45.0
  0
LINE
  5
161
330
1F
100
AcDbEntity
  8
0
  6
Continuous
 62
     7
370
    15
100
AcDbLine
 10
1232.6345087713
 20
477.2484929432
 30
0.0
 11
1242.5340020781
 21
467.348995911
 31
0.0
  0
ARC
  5
162
330
1F
100
AcDbEntity
  8
0
  6
Continuous
 62
     7
370
    15
100
AcDbCircle
 10
1185.258352918
 20
429.8723379058
 30
0.0
 40
67.00000000000006
100
AcDbArc
 50
45.0
 51
135.0
  0
LINE
  5
163
330
1F
100
AcDbEntity
  8
0
  6
Continuous
 62
     7
370
    15
100
AcDbLine
 10
1127.9827037579
 20
467.348995911
 30
0.0
 11
1137.8821970647
 21
477.2484929432
 31
0.0
  0
ARC
  5
164
330
1F
100
AcDbEntity
  8
0
  6
Continuous
 62
     7
370
    15
100
AcDbCircle
 10
1115.6083349711
 20
479.7233659794
 30
0.0
 40
17.50000000000018
100
AcDbArc
 50
135.0
 51
315.0
  0
LINE
  5
165
330
1F
100
AcDbEntity
  8
0
  6
Continuous
 62
     7
370
    15
100
AcDbLine
 10
1113.1334619349
 20
501.997228073
 30
0.0
 11
1103.2339649027
 21
492.0977347661
 31
0.0
  0
ARC
  5
166
330
1F
100
AcDbEntity
  8
0
  6
Continuous
 62
     7
370
    15
100
AcDbCircle
 10
1065.7573068975
 20
549.3733839263
 30
0.0
 40
67.00000000000021
100
AcDbArc
 50
315.0
 51
45.0
  0
LINE
  5
167
330
1F
100
AcDbEntity
  8
0
  6
Continuous
 62
     7
370
    15
100
AcDbLine
 10
1103.2339649027
 20
606.6490330864
 30
0.0
 11
1113.1334619349
 21
596.7495397796
 31
0.0
  0
ARC
  5
168
330
1F
100
AcDbEntity
  8
0
  6
Continuous
 62
     7
370
    15
100
AcDbCircle
 10
1115.6083349711
 20
619.0234018732
 30
0.0
 40
17.50000000000006
100
AcDbArc
 50
45.0
 51
225.0
  0
LINE
  5
169
330
1F
100
AcDbEntity
  8
0
  6
Continuous
 62
     7
370
    15
100
AcDbLine
 10
1137.8821970647
 20
621.4982749094
 30
0.0
 11
1127.9827037579
 21
631.3977719416
 31
0.0
  0
ARC
  5
16A
330
1F
100
AcDbEntity
  8
0
  6
Continuous
 62
     7
370
    15
100
AcDbCircle
 10
1185.258352918
 20
668.8744299468
 30
0.0
 40
67.00000000000014
100
AcDbArc
 50
225.0
 51
315.0
  0
LINE
  5
16B
330
1F
100
AcDbEntity
  8
0
  6
Continuous
 62
     7
370
    15
100
AcDbLine
 10
1242.5340020781
 20
631.3977719416
 30
0.0
 11
1232.6345087713
 21
621.4982749094
 31
0.0
  0
ARC
  5
16C
330
1F
100
AcDbEntity
  8
0
  6
Continuous
 62
     7
370
    15
100
AcDbCircle
 10
1254.9083708649
 20
619.0234018732
 30
0.0
 40
17.50000000000014
100
AcDbArc
 50
315.0
 51
135.0
  0
LWPOLYLINE
  5
16D
330
1F
100
AcDbEntity
  8
0
  6
Continuous
 62
     7
370
    15
100
AcDbPolyline
 90
       27
 70
   128
 43
0.0
 10
1244.9334652847
 20
546.3733839002
 10
1244.9974843985
 20
546.3961223737
 10
1245.0605312115
 20
546.4639932048
 10
1245.1216520494
 20
546.5759672821
 10
1245.1799230402
 20
546.7303472702
 10
1245.2344538396
 20
546.9247932211
 10
1245.2844248837
 20
547.1563572661
 10
1245.3290724879
 20
547.4215290174
 10
1245.3677261001
 20
547.7162890034
 10
1245.3997971242
 20
548.0361688547
 10
1245.4247975474
 20
548.376319524
 10
1245.4423511153
 20
548.7315846854
 10
1245.452189607
 20
549.09657885
 10
1245.4541640109
 20
549.465769103
 10
1245.4482445246
 20
549.8335588796
 10
1245.4345242804
 20
550.1943728901
 10
1245.4132081693
 20
550.5427414915
 10
1245.3846165663
 20
550.8733839393
 10
1245.3491890555
 20
551.1812877972
 10
1245.3074583536
 20
551.4617858585
 10
1245.2600577599
 20
551.7106257044
 10
1245.2077062553
 20
551.9240352456
 10
1245.151201052
 20
552.0987797659
 10
1245.0913915163
 20
552.2322098855
 10
1245.0291903442
 20
552.3223032374
 10
1244.9655363089
 20
552.3676938043
 10
1244.9334652847
 20
552.3733839524
  0
LWPOLYLINE
  5
16E
330
1F
100
AcDbEntity
  8
0
  6
Continuous
 62
     7
370
    15
100
AcDbPolyline
 90
       35
 70
   128
 43
0.0
 10
1343.414241237
 20
544.373384038
 10
1343.4967787689
 20
544.3960244898
 10
1343.5785563415
 20
544.4637404886
 10
1343.6588586992
 20
544.575919224
 10
1343.7369407838
 20
544.7315441575
 10
1343.8120873397
 20
544.9292066638
 10
1343.8836427158
 20
545.1671162751
 10
1343.9509512609
 20
545.4431183767
 10
1344.0134020275
 20
545.7547137645
 10
1344.0704138702
 20
546.0990802981
 10
1344.1214950508
 20
546.4730994441
 10
1344.1661538309
 20
546.8733839822
 10
1344.2040176815
 20
547.296308972
 10
1344.2347289747
 20
547.7380441167
 10
1344.2580045885
 20
548.1945892694
 10
1344.2736508077
 20
548.6618097071
 10
1344.2815037197
 20
549.1354743441
 10
1344.2815037197
 20
549.6112935085
 10
1344.2736508077
 20
550.0849581454
 10
1344.2580045885
 20
550.5521785832
 10
1344.2347289747
 20
551.0087237359
 10
1344.2040176815
 20
551.4504588806
 10
1344.1661538309
 20
551.8733838704
 10
1344.1214950508
 20
552.2736684084
 10
1344.0704138702
 20
552.6476875544
 10
1344.0134020275
 20
552.9920540881
 10
1343.9509512609
 20
553.3036494759
 10
1343.8836427158
 20
553.5796515775
 10
1343.8120873397
 20
553.8175611888
 10
1343.7369407838
 20
554.015223695
 10
1343.6588586992
 20
554.1708486286
 10
1343.5785563415
 20
554.283027364
 10
1343.4967787689
 20
554.3507433627
 10
1343.414241237
 20
554.3733838145
 10
1343.411186499
 20
554.3733526152
  0
LINE
  5
16F
330
1F
100
AcDbEntity
  8
0
  6
Continuous
 62
     7
370
    15
100
AcDbLine
 10
1388.5083587593
 20
752.6233897675
 30
0.0
 11
1387.1577175086
 21
751.2727485169
 31
0.0
  0
LINE
  5
170
330
1F
100
AcDbEntity
  8
0
  6
Continuous
 62
     7
370
    15
100
AcDbLine
 10
1388.5083587593
 20
346.123378085
 30
0.0
 11
1388.5083587593
 21
752.6233897675
 31
0.0
  0
LINE
  5
171
330
1F
100
AcDbEntity
  8
0
  6
Continuous
 62
     7
370
    15
100
AcDbLine
 10
1388.5083587593
 20
346.123378085
 30
0.0
 11
1387.1577175086
 21
347.4740193356
 31
0.0
  0
LINE
  5
172
330
1F
100
AcDbEntity
  8
0
  6
Continuous
 62
     7
370
    15
100
AcDbLine
 10
1387.1577175086
 20
347.4740193356
 30
0.0
 11
1387.1577175086
 21
751.2727485169
 31
0.0
  0
LINE
  5
173
330
1F
100
AcDbEntity
  8
0
  6
Continuous
 62
     7
370
    15
100
AcDbLine
 10
983.3589883274
 20
347.4740193356
 30
0.0
 11
982.0083470767
 21
346.123378085
 31
0.0
  0
LINE
  5
174
330
1F
100
AcDbEntity
  8
0
  6
Continuous
 62
     7
370
    15
100
AcDbLine
 10
982.0083470767
 20
752.6233897675
 30
0.0
 11
982.0083470767
 21
346.123378085
 31
0.0
  0
LINE
  5
175
330
1F
100
AcDbEntity
  8
0
  6
Continuous
 62
     7
370
    15
100
AcDbLine
 10
982.0083470767
 20
752.6233897675
 30
0.0
 11
983.3589883274
 21
751.2727485169
 31
0.0
  0
LINE
  5
176
330
1F
100
AcDbEntity
  8
0
  6
Continuous
 62
     7
370
    15
100
AcDbLine
 10
983.3589883274
 20
751.2727485169
 30
0.0
 11
983.3589883274
 21
347.4740193356
 31
0.0
  0
LINE
  5
177
330
1F
100
AcDbEntity
  8
0
  6
Continuous
 62
     7
370
    15
100
AcDbLine
 10
1388.5083587593
 20
752.6233897675
 30
0.0
 11
982.0083470767
 21
752.6233897675
 31
0.0
  0
LINE
  5
178
330
1F
100
AcDbEntity
  8
0
  6
Continuous
 62
     7
370
    15
100
AcDbLine
 10
1387.1577175086
 20
751.2727485169
 30
0.0
 11
983.3589883274
 21
751.2727485169
 31
0.0
  0
LINE
  5
179
330
1F
100
AcDbEntity
  8
0
  6
Continuous
 62
     7
370
    15
100
AcDbLine
 10
983.3589883274
 20
347.4740193356
 30
0.0
 11
1387.1577175086
 21
347.4740193356
 31
0.0
  0
LINE
  5
17A
330
1F
100
AcDbEntity
  8
0
  6
Continuous
 62
     7
370
    15
100
AcDbLine
 10
982.0083470767
 20
346.123378085
 30
0.0
 11
1388.5083587593
 21
346.123378085
 31
0.0
  0
ENDSEC
  0
SECTION
  2
OBJECTS
  0
DICTIONARY
  5
C
330
0
100
AcDbDictionary
281
     1
  3
ACAD_GROUP
350
D
  3
ACAD_LAYOUT
350
1A
  3
ACAD_MLINESTYLE
350
17
  3
ACAD_PLOTSETTINGS
350
19
  3
ACAD_PLOTSTYLENAME
350
E
  3
ACAD_SCALELIST
350
47
  0
DICTIONARY
  5
D
102
{ACAD_REACTORS
330
C
102
}
330
C
100
AcDbDictionary
281
     1
  0
DICTIONARY
  5
1A
102
{ACAD_REACTORS
330
C
102
}
330
C
100
AcDbDictionary
281
     1
  3
Layout1
350
1E
  3
Layout2
350
26
  3
Model
350
22
  0
DICTIONARY
  5
17
102
{ACAD_REACTORS
330
C
102
}
330
C
100
AcDbDictionary
281
     1
  3
Standard
350
18
  0
DICTIONARY
  5
19
102
{ACAD_REACTORS
330
C
102
}
330
C
100
AcDbDictionary
281
     1
  0
ACDBDICTIONARYWDFLT
  5
E
102
{ACAD_REACTORS
330
C
102
}
330
C
100
AcDbDictionary
281
     1
  3
Normal
350
F
100
AcDbDictionaryWithDefault
340
F
  0
DICTIONARY
  5
47
102
{ACAD_REACTORS
330
C
102
}
330
C
100
AcDbDictionary
281
     1
  3
A0
350
48
  3
A1
350
49
  3
A2
350
4A
  3
A3
350
4B
  3
A4
350
4C
  3
A5
350
4D
  3
A6
350
4E
  3
A7
350
4F
  3
A8
350
50
  3
A9
350
51
  3
B0
350
52
  3
B1
350
53
  3
B2
350
54
  3
B3
350
55
  3
B4
350
56
  3
B5
350
57
  3
B6
350
58
  3
B7
350
59
  3
B8
350
5A
  3
B9
350
5B
  3
C0
350
5C
  3
C1
350
5D
  3
C2
350
5E
  3
C3
350
5F
  3
C4
350
60
  3
C5
350
61
  3
C6
350
62
  3
C7
350
63
  3
C8
350
64
  3
C9
350
65
  3
D0
350
66
  3
D1
350
67
  3
D2
350
68
  0
LAYOUT
  5
1E
102
{ACAD_REACTORS
330
1A
102
}
330
1A
100
AcDbPlotSettings
  1

  2
none_device
  4

  6

 40
0.0
 41
0.0
 42
0.0
 43
0.0
 44
0.0
 45
0.0
 46
0.0
 47
0.0
 48
0.0
 49
0.0
140
0.0
141
0.0
142
1.0
143
1.0
 70
   688
 72
     1
 73
     0
 74
     5
  7

 75
    16
147
1.0
148
0.0
149
0.0
100
AcDbLayout
  1
Layout1
 70
     1
 71
     1
 10
0.0
 20
0.0
 11
420.0
 21
297.0
 12
0.0
 22
0.0
 32
0.0
 14
1.0000000000E+20
 24
1.0000000000E+20
 34
1.0000000000E+20
 15
-1.0000000000E+20
 25
-1.0000000000E+20
 35
-1.0000000000E+20
146
0.0
 13
0.0
 23
0.0
 33
0.0
 16
1.0
 26
0.0
 36
0.0
 17
0.0
 27
1.0
 37
0.0
 76
     0
330
1B
  0
LAYOUT
  5
26
102
{ACAD_REACTORS
330
1A
102
}
330
1A
100
AcDbPlotSettings
  1

  2
none_device
  4

  6

 40
0.0
 41
0.0
 42
0.0
 43
0.0
 44
0.0
 45
0.0
 46
0.0
 47
0.0
 48
0.0
 49
0.0
140
0.0
141
0.0
142
1.0
143
1.0
 70
   688
 72
     1
 73
     0
 74
     5
  7

 75
    16
147
1.0
148
0.0
149
0.0
100
AcDbLayout
  1
Layout2
 70
     1
 71
     2
 10
0.0
 20
0.0
 11
0.0
 21
0.0
 12
0.0
 22
0.0
 32
0.0
 14
0.0
 24
0.0
 34
0.0
 15
0.0
 25
0.0
 35
0.0
146
0.0
 13
0.0
 23
0.0
 33
0.0
 16
1.0
 26
0.0
 36
0.0
 17
0.0
 27
1.0
 37
0.0
 76
     0
330
23
  0
LAYOUT
  5
22
102
{ACAD_REACTORS
330
1A
102
}
330
1A
100
AcDbPlotSettings
  1

  2
none_device
  4
Letter_(8.50_x_11.00_Inches)
  6

 40
6.35
 41
6.35
 42
6.35000508
 43
6.35000508
 44
215.9
 45
279.4
 46
0.0
 47
0.0
 48
0.0
 49
0.0
140
0.0
141
0.0
142
1.0
143
1.0
 70
  1712
 72
     1
 73
     0
 74
     0
  7

 75
     0
147
1.0
148
0.0
149
0.0
100
AcDbLayout
  1
Model
 70
     1
 71
     0
 10
0.0
 20
0.0
 11
2970.0
 21
2100.0
 12
0.0
 22
0.0
 32
0.0
 14
0.0
 24
0.0
 34
0.0
 15
2970.0
 25
2100.0
 35
0.0
146
0.0
 13
0.0
 23
0.0
 33
0.0
 16
1.0
 26
0.0
 36
0.0
 17
0.0
 27
1.0
 37
0.0
 76
     0
330
1F
331
29
  0
MLINESTYLE
  5
18
102
{ACAD_REACTORS
330
17
102
}
330
17
100
AcDbMlineStyle
  2
Standard
 70
     0
  3

 62
   256
 51
90.0
 52
90.0
 71
     2
 49
0.5
 62
   256
  6
BYLAYER
 49
-0.5
 62
   256
  6
BYLAYER
  0
ACDBPLACEHOLDER
  5
F
102
{ACAD_REACTORS
330
E
102
}
330
E
  0
SCALE
  5
48
102
{ACAD_REACTORS
330
47
102
}
330
47
100
AcDbScale
 70
     0
300
1:1
140
1.0
141
1.0
290
     1
  0
SCALE
  5
49
102
{ACAD_REACTORS
330
47
102
}
330
47
100
AcDbScale
 70
     0
300
1:2
140
1.0
141
2.0
290
     0
  0
SCALE
  5
4A
102
{ACAD_REACTORS
330
47
102
}
330
47
100
AcDbScale
 70
     0
300
1:4
140
1.0
141
4.0
290
     0
  0
SCALE
  5
4B
102
{ACAD_REACTORS
330
47
102
}
330
47
100
AcDbScale
 70
     0
300
1:5
140
1.0
141
5.0
290
     0
  0
SCALE
  5
4C
102
{ACAD_REACTORS
330
47
102
}
330
47
100
AcDbScale
 70
     0
300
1:8
140
1.0
141
8.0
290
     0
  0
SCALE
  5
4D
102
{ACAD_REACTORS
330
47
102
}
330
47
100
AcDbScale
 70
     0
300
1:10
140
1.0
141
10.0
290
     0
  0
SCALE
  5
4E
102
{ACAD_REACTORS
330
47
102
}
330
47
100
AcDbScale
 70
     0
300
1:16
140
1.0
141
16.0
290
     0
  0
SCALE
  5
4F
102
{ACAD_REACTORS
330
47
102
}
330
47
100
AcDbScale
 70
     0
300
1:20
140
1.0
141
20.0
290
     0
  0
SCALE
  5
50
102
{ACAD_REACTORS
330
47
102
}
330
47
100
AcDbScale
 70
     0
300
1:30
140
1.0
141
30.0
290
     0
  0
SCALE
  5
51
102
{ACAD_REACTORS
330
47
102
}
330
47
100
AcDbScale
 70
     0
300
1:40
140
1.0
141
40.0
290
     0
  0
SCALE
  5
52
102
{ACAD_REACTORS
330
47
102
}
330
47
100
AcDbScale
 70
     0
300
1:50
140
1.0
141
50.0
290
     0
  0
SCALE
  5
53
102
{ACAD_REACTORS
330
47
102
}
330
47
100
AcDbScale
 70
     0
300
1:100
140
1.0
141
100.0
290
     0
  0
SCALE
  5
54
102
{ACAD_REACTORS
330
47
102
}
330
47
100
AcDbScale
 70
     0
300
2:1
140
2.0
141
1.0
290
     0
  0
SCALE
  5
55
102
{ACAD_REACTORS
330
47
102
}
330
47
100
AcDbScale
 70
     0
300
4:1
140
4.0
141
1.0
290
     0
  0
SCALE
  5
56
102
{ACAD_REACTORS
330
47
102
}
330
47
100
AcDbScale
 70
     0
300
8:1
140
8.0
141
1.0
290
     0
  0
SCALE
  5
57
102
{ACAD_REACTORS
330
47
102
}
330
47
100
AcDbScale
 70
     0
300
10:1
140
10.0
141
1.0
290
     0
  0
SCALE
  5
58
102
{ACAD_REACTORS
330
47
102
}
330
47
100
AcDbScale
 70
     0
300
100:1
140
100.0
141
1.0
290
     0
  0
SCALE
  5
59
102
{ACAD_REACTORS
330
47
102
}
330
47
100
AcDbScale
 70
     0
300
1/128" = 1'-0"
140
0.0078125
141
12.0
290
     0
  0
SCALE
  5
5A
102
{ACAD_REACTORS
330
47
102
}
330
47
100
AcDbScale
 70
     0
300
1/64" = 1'-0"
140
0.015625
141
12.0
290
     0
  0
SCALE
  5
5B
102
{ACAD_REACTORS
330
47
102
}
330
47
100
AcDbScale
 70
     0
300
1/32" = 1'-0"
140
0.03125
141
12.0
290
     0
  0
SCALE
  5
5C
102
{ACAD_REACTORS
330
47
102
}
330
47
100
AcDbScale
 70
     0
300
1/16" = 1'-0"
140
0.0625
141
12.0
290
     0
  0
SCALE
  5
5D
102
{ACAD_REACTORS
330
47
102
}
330
47
100
AcDbScale
 70
     0
300
3/32" = 1'-0"
140
0.09375
141
12.0
290
     0
  0
SCALE
  5
5E
102
{ACAD_REACTORS
330
47
102
}
330
47
100
AcDbScale
 70
     0
300
1/8" = 1'-0"
140
0.125
141
12.0
290
     0
  0
SCALE
  5
5F
102
{ACAD_REACTORS
330
47
102
}
330
47
100
AcDbScale
 70
     0
300
3/16" = 1'-0"
140
0.1875
141
12.0
290
     0
  0
SCALE
  5
60
102
{ACAD_REACTORS
330
47
102
}
330
47
100
AcDbScale
 70
     0
300
1/4" = 1'-0"
140
0.25
141
12.0
290
     0
  0
SCALE
  5
61
102
{ACAD_REACTORS
330
47
102
}
330
47
100
AcDbScale
 70
     0
300
3/8" = 1'-0"
140
0.375
141
12.0
290
     0
  0
SCALE
  5
62
102
{ACAD_REACTORS
330
47
102
}
330
47
100
AcDbScale
 70
     0
300
1/2" = 1'-0"
140
0.5
141
12.0
290
     0
  0
SCALE
  5
63
102
{ACAD_REACTORS
330
47
102
}
330
47
100
AcDbScale
 70
     0
300
3/4" = 1'-0"
140
0.75
141
12.0
290
     0
  0
SCALE
  5
64
102
{ACAD_REACTORS
330
47
102
}
330
47
100
AcDbScale
 70
     0
300
1" = 1'-0"
140
1.0
141
12.0
290
     0
  0
SCALE
  5
65
102
{ACAD_REACTORS
330
47
102
}
330
47
100
AcDbScale
 70
     0
300
1-1/2" = 1'-0"
140
1.5
141
12.0
290
     0
  0
SCALE
  5
66
102
{ACAD_REACTORS
330
47
102
}
330
47
100
AcDbScale
 70
     0
300
3" = 1'-0"
140
3.0
141
12.0
290
     0
  0
SCALE
  5
67
102
{ACAD_REACTORS
330
47
102
}
330
47
100
AcDbScale
 70
     0
300
6" = 1'-0"
140
6.0
141
12.0
290
     0
  0
SCALE
  5
68
102
{ACAD_REACTORS
330
47
102
}
330
47
100
AcDbScale
 70
     0
300
1'-0" = 1'-0"
140
12.0
141
12.0
290
     0
  0
ENDSEC
  0
EOF
