  0
SECTION
  2
HEADER
  9
$ACADVER
  1
AC1009
  9
$DWGCODEPAGE
  3
ansi_1252
  9
$INSBASE
 10
0.0
 20
0.0
 30
0.0
  9
$EXTMIN
 10
0.0
 20
0.0
 30
0.0
  9
$EXTMAX
 10
2079.0
 20
1470.0
 30
0.0
  9
$LIMMIN
 10
0.0
 20
0.0
  9
$LIMMAX
 10
2079.0
 20
1470.0
  9
$ORTHOMODE
 70
     0
  9
$REGENMODE
 70
     1
  9
$FILLMODE
 70
     1
  9
$QTEXTMODE
 70
     0
  9
$MIRRTEXT
 70
     1
  9
$DRAGMODE
 70
     2
  9
$LTSCALE
 40
7.0
  9
$OSMODE
 70
    37
  9
$ATTMODE
 70
     1
  9
$TEXTSIZE
 40
24.5
  9
$TRACEWID
 40
1.0
  9
$TEXTSTYLE
  7
STANDARD
  9
$CLAYER
  8
0
  9
$CELTYPE
  6
BYLAYER
  9
$CECOLOR
 62
   256
  9
$DIMSCALE
 40
1.0
  9
$DIMASZ
 40
17.5
  9
$DIMEXO
 40
0.0
  9
$DIMDLI
 40
3.75
  9
$DIMRND
 40
0.0
  9
$DIMDLE
 40
0.0
  9
$DIMEXE
 40
7.0
  9
$DIMTP
 40
0.0
  9
$DIMTM
 40
0.0
  9
$DIMTXT
 40
21.0
  9
$DIMCEN
 40
2.5
  9
$DIMTSZ
 40
0.0
  9
$DIMTOL
 70
     0
  9
$DIMLIM
 70
     0
  9
$DIMTIH
 70
     1
  9
$DIMTOH
 70
     1
  9
$DIMSE1
 70
     0
  9
$DIMSE2
 70
     0
  9
$DIMTAD
 70
     1
  9
$DIMZIN
 70
     0
  9
$DIMBLK
  1

  9
$DIMASO
 70
     1
  9
$DIMSHO
 70
     1
  9
$DIMPOST
  1

  9
$DIMAPOST
  1

  9
$DIMALT
 70
     0
  9
$DIMALTD
 70
     3
  9
$DIMALTF
 40
0.0393700787
  9
$DIMLFAC
 40
1.0
  9
$DIMTOFL
 70
     1
  9
$DIMTVP
 40
0.0
  9
$DIMTIX
 70
     0
  9
$DIMSOXD
 70
     0
  9
$DIMSAH
 70
     0
  9
$DIMBLK1
  1

  9
$DIMBLK2
  1

  9
$DIMSTYLE
  2
ISO-25
  9
$DIMCLRD
 70
     0
  9
$DIMCLRE
 70
     0
  9
$DIMCLRT
 70
     0
  9
$DIMTFAC
 40
1.0
  9
$DIMGAP
 40
10.5
  9
$LUNITS
 70
     2
  9
$LUPREC
 70
     2
  9
$SKETCHINC
 40
1.0
  9
$FILLETRAD
 40
10.0
  9
$AUNITS
 70
     0
  9
$AUPREC
 70
     2
  9
$MENU
  1
.
  9
$ELEVATION
 40
0.0
  9
$PELEVATION
 40
0.0
  9
$THICKNESS
 40
0.0
  9
$LIMCHECK
 70
     0
  9
$CHAMFERA
 40
0.0
  9
$CHAMFERB
 40
0.0
  9
$SKPOLY
 70
     0
  9
$TDCREATE
 40
2457162.396399306
  9
$TDUPDATE
 40
2457162.396399769
  9
$TDINDWG
 40
0.0000000116
  9
$TDUSRTIMER
 40
0.0000000116
  9
$USRTIMER
 70
     1
  9
$ANGBASE
 50
0.0
  9
$ANGDIR
 70
     0
  9
$PDMODE
 70
     0
  9
$PDSIZE
 40
-1.0
  9
$PLINEWID
 40
0.0
  9
$COORDS
 70
     1
  9
$SPLFRAME
 70
     0
  9
$SPLINETYPE
 70
     6
  9
$SPLINESEGS
 70
     8
  9
$ATTDIA
 70
     0
  9
$ATTREQ
 70
     1
  9
$HANDLING
 70
     1
  9
$HANDSEED
  5
39A
  9
$SURFTAB1
 70
     6
  9
$SURFTAB2
 70
     6
  9
$SURFTYPE
 70
     6
  9
$SURFU
 70
     6
  9
$SURFV
 70
     6
  9
$UCSNAME
  2

  9
$UCSORG
 10
0.0
 20
0.0
 30
0.0
  9
$UCSXDIR
 10
1.0
 20
0.0
 30
0.0
  9
$UCSYDIR
 10
0.0
 20
1.0
 30
0.0
  9
$PUCSNAME
  2

  9
$PUCSORG
 10
0.0
 20
0.0
 30
0.0
  9
$PUCSXDIR
 10
1.0
 20
0.0
 30
0.0
  9
$PUCSYDIR
 10
0.0
 20
1.0
 30
0.0
  9
$USERI1
 70
     0
  9
$USERI2
 70
     0
  9
$USERI3
 70
     0
  9
$USERI4
 70
     0
  9
$USERI5
 70
     0
  9
$USERR1
 40
0.0
  9
$USERR2
 40
0.0
  9
$USERR3
 40
0.0
  9
$USERR4
 40
0.0
  9
$USERR5
 40
0.0
  9
$WORLDVIEW
 70
     1
  9
$SHADEDGE
 70
     3
  9
$SHADEDIF
 70
    70
  9
$TILEMODE
 70
     1
  9
$MAXACTVP
 70
    64
  9
$PLIMCHECK
 70
     0
  9
$PEXTMIN
 10
1.0000000000E+20
 20
1.0000000000E+20
 30
1.0000000000E+20
  9
$PEXTMAX
 10
-1.0000000000E+20
 20
-1.0000000000E+20
 30
-1.0000000000E+20
  9
$PLIMMIN
 10
0.0
 20
0.0
  9
$PLIMMAX
 10
420.0
 20
297.0
  9
$UNITMODE
 70
     0
  9
$VISRETAIN
 70
     1
  9
$PLINEGEN
 70
     0
  9
$PSLTSCALE
 70
     1
  0
ENDSEC
  0
SECTION
  2
TABLES
  0
TABLE
  2
VPORT
 70
     1
  0
VPORT
  2
*ACTIVE
 70
     0
 10
0.0
 20
0.0
 11
1.0
 21
1.0
 12
1039.5
 22
735.0
 13
0.0
 23
0.0
 14
10.0
 24
10.0
 15
10.0
 25
10.0
 16
0.0
 26
0.0
 36
1.0
 17
0.0
 27
0.0
 37
0.0
 40
1470.0
 41
1.4142857143
 42
50.0
 43
0.0
 44
0.0
 50
0.0
 51
0.0
 71
     0
 72
  2000
 73
     1
 74
     3
 75
     0
 76
     0
 77
     0
 78
     0
  0
ENDTAB
  0
TABLE
  2
LTYPE
 70
     6
  0
LTYPE
  2
CONTINUOUS
 70
     0
  3
Solid line
 72
    65
 73
     0
 40
0.0
  0
LTYPE
  2
HIDDEN
 70
     0
  3
Hidden __ __ __ __ __ __ __ __ __ __ __ __ __ __
 72
    65
 73
     2
 40
1.905
 49
1.27
 49
-0.635
  0
LTYPE
  2
PHANTOM
 70
     0
  3
Phantom ______  __  __  ______  __  __  ______
 72
    65
 73
     6
 40
12.7
 49
6.35
 49
-1.27
 49
1.27
 49
-1.27
 49
1.27
 49
-1.27
  0
LTYPE
  2
CENTER
 70
     0
  3
Center ____ _ ____ _ ____ _ ____ _ ____ _ ____
 72
    65
 73
     4
 40
10.16
 49
6.35
 49
-1.27
 49
1.27
 49
-1.27
  0
LTYPE
  2
CENTERX2
 70
     0
  3
Center (2x) ________  __  ________  __  _____
 72
    65
 73
     4
 40
20.32
 49
12.7
 49
-2.54
 49
2.54
 49
-2.54
  0
LTYPE
  2
DOT2
 70
     0
  3
Dot (.5x) ........................................
 72
    65
 73
     2
 40
0.635
 49
0.0
 49
-0.635
  0
ENDTAB
  0
TABLE
  2
LAYER
 70
     2
  0
LAYER
  2
0
 70
     0
 62
     7
  6
CONTINUOUS
  0
LAYER
  2
FORMAT
 70
     0
 62
     7
  6
CONTINUOUS
  0
ENDTAB
  0
TABLE
  2
STYLE
 70
     1
  0
STYLE
  2
STANDARD
 70
     0
 40
0.0
 41
1.0
 50
0.0
 71
     0
 42
24.5
  3
txt
  4

  0
ENDTAB
  0
TABLE
  2
VIEW
 70
     0
  0
ENDTAB
  0
TABLE
  2
UCS
 70
     0
  0
ENDTAB
  0
TABLE
  2
APPID
 70
     1
  0
APPID
  2
ACAD
 70
     0
  0
ENDTAB
  0
TABLE
  2
DIMSTYLE
 70
     1
  0
DIMSTYLE
  2
ISO-25
 70
     0
  3

  4

  5

  6

  7

 40
1.0
 41
2.5
 42
0.625
 43
3.75
 44
1.25
 45
0.0
 46
0.0
 47
0.0
 48
0.0
140
2.5
141
2.5
142
0.0
143
0.0393700787
144
1.0
145
0.0
146
1.0
147
0.625
 71
     0
 72
     0
 73
     0
 74
     0
 75
     0
 76
     0
 77
     1
 78
     8
170
     0
171
     3
172
     1
173
     0
174
     0
175
     0
176
     0
177
     0
178
     0
  0
ENDTAB
  0
ENDSEC
  0
SECTION
  2
BLOCKS
  0
BLOCK
  8
0
  2
$MODEL_SPACE
 70
     0
 10
0.0
 20
0.0
 30
0.0
  3
$MODEL_SPACE
  1

  0
ENDBLK
  5
21
  8
0
  0
BLOCK
 67
     1
  8
0
  2
$PAPER_SPACE
 70
     0
 10
0.0
 20
0.0
 30
0.0
  3
$PAPER_SPACE
  1

  0
ENDBLK
  5
1D
 67
     1
  8
0
  0
BLOCK
  8
0
  2
SW_NOTE_0
 70
     0
 10
0.0
 20
0.0
 30
0.0
  3
SW_NOTE_0
  1

  0
TEXT
  5
E3
  8
0
  6
CONTINUOUS
 62
     0
 10
0.0
 20
4.4510767802
 30
0.0
 40
12.6
  1
Questo disegno e posto sotto la tutela delle vigenti Leggi e non puo essere utilizzato da terze persone se non previa autorizzazione scritta della PEDRALI
 41
0.6454545455
 11
0.0
 21
0.0
 31
0.0
 73
     1
  0
TEXT
  5
E4
  8
0
  6
CONTINUOUS
 62
     0
 10
944.9278563261
 20
4.4510767802
 30
0.0
 40
12.6
  1
 S.p.A.
 41
0.7
 11
944.9278563261
 21
0.0
 31
0.0
 73
     1
  0
ENDBLK
  5
E2
  8
0
  0
BLOCK
  8
0
  2
SW_NOTE_1
 70
     0
 10
0.0
 20
0.0
 30
0.0
  3
SW_NOTE_1
  1

  0
TEXT
  5
EB
  8
0
  6
CONTINUOUS
 62
     0
 10
0.0
 20
4.4510767802
 30
0.0
 40
12.6
  1
SCALA 
 41
0.7
 11
0.0
 21
0.0
 31
0.0
 73
     1
  0
TEXT
  5
EC
  8
0
  6
CONTINUOUS
 62
     0
 10
4.6697363723
 20
-25.4124827822
 30
0.0
 40
25.9291666667
  1
1:1
 41
0.7
 11
4.6697363723
 21
-34.5722218044
 31
0.0
 73
     1
  0
ENDBLK
  5
EA
  8
0
  0
ENDSEC
  0
SECTION
  2
ENTITIES
  0
LINE
  5
70
  8
0
  6
CONTINUOUS
 62
     7
 10
2009.0
 20
70.0
 30
0.0
 11
2009.0
 21
1400.0
 31
0.0
  0
LINE
  5
71
  8
0
  6
CONTINUOUS
 62
   179
 10
1626.7929428179
 20
241.2181841294
 30
0.0
 11
1626.7929428179
 21
213.4069680341
 31
0.0
  0
LINE
  5
72
  8
0
  6
CONTINUOUS
 62
   179
 10
1626.7929428179
 20
241.2181841294
 30
0.0
 11
1649.653537611
 21
241.2181841294
 31
0.0
  0
LINE
  5
73
  8
0
  6
CONTINUOUS
 62
   179
 10
1626.7929428179
 20
213.4069680341
 30
0.0
 11
1638.1702584942
 21
213.4069680341
 31
0.0
  0
LINE
  5
74
  8
0
  6
CONTINUOUS
 62
   179
 10
1638.1702584942
 20
213.4069680341
 30
0.0
 11
1638.1702584942
 21
223.5201375223
 31
0.0
  0
LINE
  5
75
  8
0
  6
CONTINUOUS
 62
   179
 10
1649.6535376107
 20
223.5201375223
 30
0.0
 11
1638.1702584942
 21
223.5201375223
 31
0.0
  0
LINE
  5
76
  8
0
  6
CONTINUOUS
 62
   179
 10
1638.1702584939
 20
228.5767222673
 30
0.0
 11
1638.1702584939
 21
236.1615993844
 31
0.0
  0
LINE
  5
77
  8
0
  6
CONTINUOUS
 62
   179
 10
1638.1702584939
 20
236.1615993844
 30
0.0
 11
1647.0467166867
 21
236.1615993844
 31
0.0
  0
LINE
  5
78
  8
0
  6
CONTINUOUS
 62
   179
 10
1638.1702584939
 20
228.5767222673
 30
0.0
 11
1647.0467166863
 21
228.5767222673
 31
0.0
  0
LINE
  5
79
  8
0
  6
CONTINUOUS
 62
   179
 10
1667.2456207777
 20
241.2181841283
 30
0.0
 11
1705.1700063637
 21
241.2181841283
 31
0.0
  0
LINE
  5
7A
  8
0
  6
CONTINUOUS
 62
   179
 10
1705.1700063637
 20
241.2181841283
 30
0.0
 11
1705.1700063637
 21
236.161599383
 31
0.0
  0
LINE
  5
7B
  8
0
  6
CONTINUOUS
 62
   179
 10
1705.1700063637
 20
236.161599383
 30
0.0
 11
1679.8870826396
 21
236.161599383
 31
0.0
  0
LINE
  5
7C
  8
0
  6
CONTINUOUS
 62
   179
 10
1679.8870826396
 20
236.161599383
 30
0.0
 11
1679.8870826396
 21
229.840868452
 31
0.0
  0
LINE
  5
7D
  8
0
  6
CONTINUOUS
 62
   179
 10
1679.8870826396
 20
229.840868452
 30
0.0
 11
1702.6417139923
 21
229.840868452
 31
0.0
  0
LINE
  5
7E
  8
0
  6
CONTINUOUS
 62
   179
 10
1702.6417139923
 20
229.840868452
 30
0.0
 11
1702.6417139923
 21
224.7842837068
 31
0.0
  0
LINE
  5
7F
  8
0
  6
CONTINUOUS
 62
   179
 10
1702.6417139923
 20
224.7842837068
 30
0.0
 11
1679.8870826396
 21
224.7842837068
 31
0.0
  0
LINE
  5
80
  8
0
  6
CONTINUOUS
 62
   179
 10
1679.8870826396
 20
224.7842837068
 30
0.0
 11
1679.8870826396
 21
218.4635527758
 31
0.0
  0
LINE
  5
81
  8
0
  6
CONTINUOUS
 62
   179
 10
1679.8870826396
 20
218.4635527758
 30
0.0
 11
1705.1700063637
 21
218.4635527758
 31
0.0
  0
LINE
  5
82
  8
0
  6
CONTINUOUS
 62
   179
 10
1705.1700063637
 20
218.4635527758
 30
0.0
 11
1705.1700063637
 21
213.4069680329
 31
0.0
  0
LINE
  5
83
  8
0
  6
CONTINUOUS
 62
   179
 10
1705.1700063637
 20
213.4069680329
 30
0.0
 11
1667.2456207777
 21
213.4069680329
 31
0.0
  0
LINE
  5
84
  8
0
  6
CONTINUOUS
 62
   179
 10
1707.6982987377
 20
241.2181841283
 30
0.0
 11
1707.6982987377
 21
213.4069680314
 31
0.0
  0
LINE
  5
85
  8
0
  6
CONTINUOUS
 62
   179
 10
1707.6982987377
 20
241.2181841283
 30
0.0
 11
1730.4500682011
 21
241.2181841283
 31
0.0
  0
LINE
  5
86
  8
0
  6
CONTINUOUS
 62
   179
 10
1730.4500682012
 20
213.4069680314
 30
0.0
 11
1707.6982987377
 21
213.4069680314
 31
0.0
  0
LINE
  5
87
  8
0
  6
CONTINUOUS
 62
   179
 10
1719.0756144122
 20
227.3125760782
 30
0.0
 11
1719.0756144122
 21
219.7276989615
 31
0.0
  0
LINE
  5
88
  8
0
  6
CONTINUOUS
 62
   179
 10
1719.0756144122
 20
219.7276989615
 30
0.0
 11
1731.0630209376
 21
219.7276989615
 31
0.0
  0
LINE
  5
89
  8
0
  6
CONTINUOUS
 62
   179
 10
1719.0756144122
 20
227.3125760782
 30
0.0
 11
1719.0756144122
 21
234.8974531979
 31
0.0
  0
LINE
  5
8A
  8
0
  6
CONTINUOUS
 62
   179
 10
1719.0756144122
 20
234.8974531979
 30
0.0
 11
1731.0630209376
 21
234.8974531979
 31
0.0
  0
LINE
  5
8B
  8
0
  6
CONTINUOUS
 62
   179
 10
1753.2075614406
 20
241.2181841304
 30
0.0
 11
1753.2075614406
 21
213.406968035
 31
0.0
  0
LINE
  5
8C
  8
0
  6
CONTINUOUS
 62
     7
 10
1910.1592963256
 20
196.0000000003
 30
0.0
 11
1910.1592963256
 21
133.0000000001
 31
0.0
  0
LINE
  5
8D
  8
0
  6
CONTINUOUS
 62
   179
 10
1753.2075614406
 20
213.406968035
 30
0.0
 11
1764.5848771168
 21
213.406968035
 31
0.0
  0
LINE
  5
8E
  8
0
  6
CONTINUOUS
 62
   179
 10
1764.5848771168
 20
213.406968035
 30
0.0
 11
1764.5848771168
 21
223.5201375231
 31
0.0
  0
LINE
  5
8F
  8
0
  6
CONTINUOUS
 62
   179
 10
1764.5848771168
 20
223.5201375231
 30
0.0
 11
1777.2263389789
 21
223.5201375231
 31
0.0
  0
LINE
  5
90
  8
0
  6
CONTINUOUS
 62
   179
 10
1782.2829237242
 20
218.4635527779
 30
0.0
 11
1782.2829237242
 21
213.4069680343
 31
0.0
  0
LINE
  5
91
  8
0
  6
CONTINUOUS
 62
   179
 10
1764.5848771164
 20
228.576722267
 30
0.0
 11
1764.5848771164
 21
236.1615993848
 31
0.0
  0
LINE
  5
92
  8
0
  6
CONTINUOUS
 62
   179
 10
1764.5848771164
 20
236.1615993848
 30
0.0
 11
1776.9347206931
 21
236.1615993848
 31
0.0
  0
LINE
  5
93
  8
0
  6
CONTINUOUS
 62
   179
 10
1764.5848771164
 20
228.576722267
 30
0.0
 11
1776.9347206931
 21
228.576722267
 31
0.0
  0
LINE
  5
94
  8
0
  6
CONTINUOUS
 62
   179
 10
1791.2091415348
 20
220.3396705711
 30
0.0
 11
1792.2488742555
 21
216.2773580928
 31
0.0
  0
LINE
  5
95
  8
0
  6
CONTINUOUS
 62
     7
 10
2009.0
 20
1400.0
 30
0.0
 11
70.0
 21
1400.0
 31
0.0
  0
LINE
  5
96
  8
0
  6
CONTINUOUS
 62
     7
 10
1910.1592963256
 20
133.0000000001
 30
0.0
 11
1910.1592963256
 21
70.0
 31
0.0
  0
LINE
  5
97
  8
0
  6
CONTINUOUS
 62
     7
 10
70.0
 20
1400.0
 30
0.0
 11
70.0
 21
70.0
 31
0.0
  0
LINE
  5
98
  8
0
  6
CONTINUOUS
 62
     7
 10
1505.0
 20
259.0000000004
 30
0.0
 11
2009.0
 21
259.0000000004
 31
0.0
  0
LINE
  5
99
  8
0
  6
CONTINUOUS
 62
    19
 10
1956.7018888787
 20
112.1951630167
 30
0.0
 11
1934.3927864185
 21
107.8572819827
 31
0.0
  0
LINE
  5
9A
  8
0
  6
CONTINUOUS
 62
    19
 10
1974.9454096065
 20
115.8417101735
 30
0.0
 11
1974.9454096065
 21
87.4167210826
 31
0.0
  0
LINE
  5
9B
  8
0
  6
CONTINUOUS
 62
    19
 10
1956.7018888787
 20
112.1951630167
 30
0.0
 11
1956.7018888787
 21
91.0632682394
 31
0.0
  0
LINE
  5
9C
  8
0
  6
CONTINUOUS
 62
     7
 10
70.0
 20
70.0
 30
0.0
 11
2009.0
 21
70.0
 31
0.0
  0
LINE
  5
9D
  8
0
  6
CONTINUOUS
 62
    19
 10
1934.3927864185
 20
107.8572819827
 30
0.0
 11
1934.3927864185
 21
95.4011492734
 31
0.0
  0
LINE
  5
9E
  8
0
  6
CONTINUOUS
 62
   179
 10
1782.2829237242
 20
213.4069680343
 30
0.0
 11
1803.7734088915
 21
213.4069680343
 31
0.0
  0
LINE
  5
9F
  8
0
  6
CONTINUOUS
 62
    19
 10
1956.7018888787
 20
91.0632682394
 30
0.0
 11
1934.3927864185
 21
95.4011492734
 31
0.0
  0
LINE
  5
A0
  8
0
  6
CENTERX2
 62
    19
 10
1987.2444986974
 20
101.6292156281
 30
0.0
 11
1931.616308345
 21
101.6292156281
 31
0.0
  0
LINE
  5
A1
  8
0
  6
CONTINUOUS
 62
   179
 10
1753.2075614406
 20
241.2181841304
 30
0.0
 11
1779.4134808141
 21
241.2181841304
 31
0.0
  0
LINE
  5
A2
  8
0
  6
CONTINUOUS
 62
   179
 10
1667.2456207777
 20
241.2181841283
 30
0.0
 11
1667.2456207777
 21
213.4069680329
 31
0.0
  0
LINE
  5
A3
  8
0
  6
CONTINUOUS
 62
   179
 10
1808.8299936367
 20
241.2181841297
 30
0.0
 11
1821.4714554987
 21
241.2181841297
 31
0.0
  0
LINE
  5
A4
  8
0
  6
CONTINUOUS
 62
   179
 10
1808.8299936367
 20
241.2181841297
 30
0.0
 11
1792.4953514145
 21
215.5494606399
 31
0.0
  0
LINE
  5
A5
  8
0
  6
CONTINUOUS
 62
   179
 10
1803.7734088915
 20
213.4069680343
 30
0.0
 11
1806.6177378105
 21
218.4635527772
 31
0.0
  0
LINE
  5
A6
  8
0
  6
CONTINUOUS
 62
   179
 10
1815.1507245672
 20
233.6333070116
 30
0.0
 11
1820.8393824053
 21
223.520137521
 31
0.0
  0
LINE
  5
A7
  8
0
  6
CONTINUOUS
 62
   179
 10
1809.4620667291
 20
223.520137521
 30
0.0
 11
1815.1507245672
 21
233.6333070116
 31
0.0
  0
LINE
  5
A8
  8
0
  6
CONTINUOUS
 62
   179
 10
1809.4620667291
 20
223.520137521
 30
0.0
 11
1820.8393824053
 21
223.520137521
 31
0.0
  0
LINE
  5
A9
  8
0
  6
CONTINUOUS
 62
   179
 10
1806.6177378105
 20
218.4635527772
 30
0.0
 11
1823.683711325
 21
218.4635527772
 31
0.0
  0
LINE
  5
AA
  8
0
  6
CONTINUOUS
 62
   179
 10
1823.683711325
 20
218.4635527772
 30
0.0
 11
1826.528040244
 21
213.4069680343
 31
0.0
  0
LINE
  5
AB
  8
0
  6
CONTINUOUS
 62
   179
 10
1839.1695021061
 20
241.2181841297
 30
0.0
 11
1839.1695021061
 21
213.4069680343
 31
0.0
  0
LINE
  5
AC
  8
0
  6
CONTINUOUS
 62
   179
 10
1821.4714554987
 20
241.2181841297
 30
0.0
 11
1839.1695021061
 21
213.4069680343
 31
0.0
  0
LINE
  5
AD
  8
0
  6
CONTINUOUS
 62
   179
 10
1826.528040244
 20
213.4069680343
 30
0.0
 11
1839.1695021061
 21
213.4069680343
 31
0.0
  0
LINE
  5
AE
  8
0
  6
CONTINUOUS
 62
   179
 10
1839.1695021061
 20
213.4069680343
 30
0.0
 11
1873.301449135
 21
213.4069680343
 31
0.0
  0
LINE
  5
AF
  8
0
  6
CONTINUOUS
 62
   179
 10
1873.301449135
 20
213.4069680343
 30
0.0
 11
1873.301449135
 21
219.7276989653
 31
0.0
  0
LINE
  5
B0
  8
0
  6
CONTINUOUS
 62
   179
 10
1873.301449135
 20
219.7276989653
 30
0.0
 11
1851.810963968
 21
219.7276989653
 31
0.0
  0
LINE
  5
B1
  8
0
  6
CONTINUOUS
 62
   179
 10
1851.810963968
 20
219.7276989653
 30
0.0
 11
1851.810963968
 21
241.2181841297
 31
0.0
  0
LINE
  5
B2
  8
0
  6
CONTINUOUS
 62
   179
 10
1839.1695021061
 20
241.2181841297
 30
0.0
 11
1851.810963968
 21
241.2181841297
 31
0.0
  0
LINE
  5
B3
  8
0
  6
CONTINUOUS
 62
   179
 10
1874.5655953201
 20
241.2181841294
 30
0.0
 11
1874.5655953201
 21
213.4069680341
 31
0.0
  0
LINE
  5
B4
  8
0
  6
CONTINUOUS
 62
   179
 10
1887.2070571821
 20
241.2181841294
 30
0.0
 11
1887.2070571821
 21
213.4069680341
 31
0.0
  0
LINE
  5
B5
  8
0
  6
CONTINUOUS
 62
   179
 10
1874.5655953201
 20
241.2181841294
 30
0.0
 11
1887.2070571821
 21
241.2181841294
 31
0.0
  0
LINE
  5
B6
  8
0
  6
CONTINUOUS
 62
   179
 10
1874.5655953201
 20
213.4069680341
 30
0.0
 11
1887.2070571821
 21
213.4069680341
 31
0.0
  0
LINE
  5
B7
  8
0
  6
CONTINUOUS
 62
   179
 10
1892.8806150969
 20
238.905138796
 30
0.0
 11
1895.8006815888
 21
238.905138796
 31
0.0
  0
LINE
  5
B8
  8
0
  6
CONTINUOUS
 62
   179
 10
1895.8006815888
 20
237.008919516
 30
0.0
 11
1892.8806150969
 21
237.008919516
 31
0.0
  0
LINE
  5
B9
  8
0
  6
CONTINUOUS
 62
   179
 10
1892.8806150969
 20
237.008919516
 30
0.0
 11
1892.8806150969
 21
238.905138796
 31
0.0
  0
LINE
  5
BA
  8
0
  6
CONTINUOUS
 62
   179
 10
1892.8806150969
 20
237.008919516
 30
0.0
 11
1894.7768343754
 21
237.008919516
 31
0.0
  0
LINE
  5
BB
  8
0
  6
CONTINUOUS
 62
   179
 10
1892.8806150969
 20
237.008919516
 30
0.0
 11
1892.8806150969
 21
234.1645905982
 31
0.0
  0
LINE
  5
BC
  8
0
  6
CONTINUOUS
 62
   179
 10
1896.673053654
 20
234.1645905982
 30
0.0
 11
1894.7768343754
 21
237.008919516
 31
0.0
  0
LINE
  5
BD
  8
0
  6
CONTINUOUS
 62
     7
 10
1505.0
 20
133.0000000001
 30
0.0
 11
2009.0
 21
133.0000000001
 31
0.0
  0
LINE
  5
BE
  8
0
  6
CONTINUOUS
 62
     7
 10
2009.0
 20
196.0000000003
 30
0.0
 11
1505.0
 21
196.0000000003
 31
0.0
  0
LINE
  5
BF
  8
0
  6
CONTINUOUS
 62
     7
 10
70.0
 20
385.0
 30
0.0
 11
70.0
 21
455.0
 31
0.0
  0
LINE
  5
C0
  8
0
  6
CONTINUOUS
 62
     7
 10
70.0
 20
455.0
 30
0.0
 11
70.0
 21
525.0
 31
0.0
  0
LINE
  5
C1
  8
0
  6
CONTINUOUS
 62
     7
 10
70.0
 20
525.0
 30
0.0
 11
70.0
 21
595.0
 31
0.0
  0
LINE
  5
C2
  8
0
  6
CONTINUOUS
 62
     7
 10
70.0
 20
595.0
 30
0.0
 11
70.0
 21
665.0
 31
0.0
  0
LINE
  5
C3
  8
0
  6
CONTINUOUS
 62
     7
 10
70.0
 20
665.0
 30
0.0
 11
70.0
 21
735.0
 31
0.0
  0
LINE
  5
C4
  8
0
  6
CONTINUOUS
 62
     7
 10
70.0
 20
735.0
 30
0.0
 11
70.0
 21
805.0
 31
0.0
  0
LINE
  5
C5
  8
0
  6
CONTINUOUS
 62
     7
 10
70.0
 20
805.0
 30
0.0
 11
70.0
 21
875.0
 31
0.0
  0
LINE
  5
C6
  8
0
  6
CONTINUOUS
 62
     7
 10
70.0
 20
875.0
 30
0.0
 11
70.0
 21
945.0
 31
0.0
  0
LINE
  5
C7
  8
0
  6
CONTINUOUS
 62
     7
 10
70.0
 20
945.0
 30
0.0
 11
70.0
 21
1015.0
 31
0.0
  0
LINE
  5
C8
  8
0
  6
CONTINUOUS
 62
     7
 10
70.0
 20
1015.0
 30
0.0
 11
70.0
 21
1085.0
 31
0.0
  0
LINE
  5
C9
  8
0
  6
CONTINUOUS
 62
     7
 10
1505.0
 20
259.0000000004
 30
0.0
 11
1505.0
 21
70.0
 31
0.0
  0
ARC
  5
CA
  8
0
  6
CONTINUOUS
 62
   179
 10
1647.0467166867
 20
231.1050146408
 30
0.0
 40
5.056584743571334
 50
69.991210111
 51
90.0
  0
ARC
  5
CB
  8
0
  6
CONTINUOUS
 62
   179
 10
1647.0467166863
 20
233.633307012
 30
0.0
 40
5.056584744780878
 50
270.0
 51
290.0087898887
  0
ARC
  5
CC
  8
0
  6
CONTINUOUS
 62
   179
 10
1731.0630209376
 20
227.3125760795
 30
0.0
 40
7.584877118363159
 50
56.1685552524
 51
90.0
  0
ARC
  5
CD
  8
0
  6
CONTINUOUS
 62
   179
 10
1731.0630209376
 20
227.3125760795
 30
0.0
 40
7.584877117986292
 50
270.0
 51
303.830934914
  0
ARC
  5
CE
  8
0
  6
CONTINUOUS
 62
   179
 10
1777.2263389789
 20
218.4635527779
 30
0.0
 40
5.056584745271039
 50
0.0
 51
90.0
  0
ARC
  5
CF
  8
0
  6
CONTINUOUS
 62
   179
 10
1776.9347206931
 20
232.3691608262
 30
0.0
 40
3.792438558610456
 50
54.413089495
 51
90.0
  0
ARC
  5
D0
  8
0
  6
CONTINUOUS
 62
   179
 10
1776.9347206931
 20
232.3691608262
 30
0.0
 40
3.792438559150327
 50
270.0
 51
305.5869104966
  0
ARC
  5
D1
  8
0
  6
CONTINUOUS
 62
   179
 10
1784.3263094507
 20
219.0739572496
 30
0.0
 40
6.998243187429416
 50
10.4199484279
 51
80.7321727594
  0
ARC
  5
D2
  8
0
  6
CONTINUOUS
 62
   179
 10
1795.8174966463
 20
217.0800687772
 30
0.0
 40
3.657787611515559
 50
192.6768785101
 51
204.7368873207
  0
CIRCLE
  5
D3
  8
0
  6
CONTINUOUS
 62
   179
 10
1894.4004946032
 20
236.5072988135
 30
0.0
 40
4.15107150166159
  0
CIRCLE
  5
D4
  8
0
  6
CONTINUOUS
 62
    19
 10
1974.9454096065
 20
101.6292156281
 30
0.0
 40
6.010955133934809
  0
CIRCLE
  5
D5
  8
0
  6
CONTINUOUS
 62
    19
 10
1974.9454096065
 20
101.6292156281
 30
0.0
 40
11.74315507164588
  0
POLYLINE
  5
D6
  8
0
  6
CONTINUOUS
 62
   179
 66
     1
 10
0.0
 20
0.0
 30
0.0
 70
   128
  0
VERTEX
  5
136
  8
0
  6
CONTINUOUS
 62
   179
 10
1648.7768994653
 20
228.8819370167
 30
0.0
  0
VERTEX
  5
137
  8
0
  6
CONTINUOUS
 62
   179
 10
1648.9319341395
 20
228.9400742879
 30
0.0
  0
VERTEX
  5
138
  8
0
  6
CONTINUOUS
 62
   179
 10
1649.084308744
 20
229.0006063914
 30
0.0
  0
VERTEX
  5
139
  8
0
  6
CONTINUOUS
 62
   179
 10
1649.2339168622
 20
229.0634910526
 30
0.0
  0
VERTEX
  5
13A
  8
0
  6
CONTINUOUS
 62
   179
 10
1649.3806540095
 20
229.1286843534
 30
0.0
  0
VERTEX
  5
13B
  8
0
  6
CONTINUOUS
 62
   179
 10
1649.5244177066
 20
229.1961407636
 30
0.0
  0
VERTEX
  5
13C
  8
0
  6
CONTINUOUS
 62
   179
 10
1649.6651075506
 20
229.2658131726
 30
0.0
  0
VERTEX
  5
13D
  8
0
  6
CONTINUOUS
 62
   179
 10
1649.8026252855
 20
229.337652922
 30
0.0
  0
VERTEX
  5
13E
  8
0
  6
CONTINUOUS
 62
   179
 10
1649.9368748705
 20
229.4116098396
 30
0.0
  0
VERTEX
  5
13F
  8
0
  6
CONTINUOUS
 62
   179
 10
1650.0677625473
 20
229.4876322751
 30
0.0
  0
VERTEX
  5
140
  8
0
  6
CONTINUOUS
 62
   179
 10
1650.1951969056
 20
229.5656671351
 30
0.0
  0
VERTEX
  5
141
  8
0
  6
CONTINUOUS
 62
   179
 10
1650.3190889468
 20
229.645659921
 30
0.0
  0
VERTEX
  5
142
  8
0
  6
CONTINUOUS
 62
   179
 10
1650.4393521462
 20
229.727554767
 30
0.0
  0
VERTEX
  5
143
  8
0
  6
CONTINUOUS
 62
   179
 10
1650.5559025134
 20
229.8112944786
 30
0.0
  0
VERTEX
  5
144
  8
0
  6
CONTINUOUS
 62
   179
 10
1650.668658651
 20
229.8968205731
 30
0.0
  0
VERTEX
  5
145
  8
0
  6
CONTINUOUS
 62
   179
 10
1650.7775418116
 20
229.9840733199
 30
0.0
  0
VERTEX
  5
146
  8
0
  6
CONTINUOUS
 62
   179
 10
1650.8824759524
 20
230.072991783
 30
0.0
  0
VERTEX
  5
147
  8
0
  6
CONTINUOUS
 62
   179
 10
1650.9833877887
 20
230.1635138627
 30
0.0
  0
VERTEX
  5
148
  8
0
  6
CONTINUOUS
 62
   179
 10
1651.080206845
 20
230.2555763394
 30
0.0
  0
VERTEX
  5
149
  8
0
  6
CONTINUOUS
 62
   179
 10
1651.1728655039
 20
230.3491149179
 30
0.0
  0
VERTEX
  5
14A
  8
0
  6
CONTINUOUS
 62
   179
 10
1651.2612990538
 20
230.444064272
 30
0.0
  0
VERTEX
  5
14B
  8
0
  6
CONTINUOUS
 62
   179
 10
1651.3454457338
 20
230.5403580902
 30
0.0
  0
VERTEX
  5
14C
  8
0
  6
CONTINUOUS
 62
   179
 10
1651.4252467768
 20
230.637929122
 30
0.0
  0
VERTEX
  5
14D
  8
0
  6
CONTINUOUS
 62
   179
 10
1651.5006464508
 20
230.736709225
 30
0.0
  0
VERTEX
  5
14E
  8
0
  6
CONTINUOUS
 62
   179
 10
1651.5715920975
 20
230.8366294124
 30
0.0
  0
VERTEX
  5
14F
  8
0
  6
CONTINUOUS
 62
   179
 10
1651.6380341694
 20
230.9376199012
 30
0.0
  0
VERTEX
  5
150
  8
0
  6
CONTINUOUS
 62
   179
 10
1651.6999262641
 20
231.0396101607
 30
0.0
  0
VERTEX
  5
151
  8
0
  6
CONTINUOUS
 62
   179
 10
1651.7572251569
 20
231.1425289624
 30
0.0
  0
VERTEX
  5
152
  8
0
  6
CONTINUOUS
 62
   179
 10
1651.8098908311
 20
231.2463044288
 30
0.0
  0
VERTEX
  5
153
  8
0
  6
CONTINUOUS
 62
   179
 10
1651.8578865054
 20
231.3508640846
 30
0.0
  0
VERTEX
  5
154
  8
0
  6
CONTINUOUS
 62
   179
 10
1651.9011786604
 20
231.4561349064
 30
0.0
  0
VERTEX
  5
155
  8
0
  6
CONTINUOUS
 62
   179
 10
1651.9397370613
 20
231.5620433745
 30
0.0
  0
VERTEX
  5
156
  8
0
  6
CONTINUOUS
 62
   179
 10
1651.9735347794
 20
231.6685155236
 30
0.0
  0
VERTEX
  5
157
  8
0
  6
CONTINUOUS
 62
   179
 10
1652.0025482107
 20
231.7754769948
 30
0.0
  0
VERTEX
  5
158
  8
0
  6
CONTINUOUS
 62
   179
 10
1652.0267570928
 20
231.8828530877
 30
0.0
  0
VERTEX
  5
159
  8
0
  6
CONTINUOUS
 62
   179
 10
1652.0461445182
 20
231.990568812
 30
0.0
  0
VERTEX
  5
15A
  8
0
  6
CONTINUOUS
 62
   179
 10
1652.0606969472
 20
232.0985489403
 30
0.0
  0
VERTEX
  5
15B
  8
0
  6
CONTINUOUS
 62
   179
 10
1652.0704042164
 20
232.2067180607
 30
0.0
  0
VERTEX
  5
15C
  8
0
  6
CONTINUOUS
 62
   179
 10
1652.0752595465
 20
232.3150006292
 30
0.0
  0
VERTEX
  5
15D
  8
0
  6
CONTINUOUS
 62
   179
 10
1652.0752595465
 20
232.4233210225
 30
0.0
  0
VERTEX
  5
15E
  8
0
  6
CONTINUOUS
 62
   179
 10
1652.0704042164
 20
232.531603591
 30
0.0
  0
VERTEX
  5
15F
  8
0
  6
CONTINUOUS
 62
   179
 10
1652.0606969472
 20
232.6397727114
 30
0.0
  0
VERTEX
  5
160
  8
0
  6
CONTINUOUS
 62
   179
 10
1652.0461445182
 20
232.7477528397
 30
0.0
  0
VERTEX
  5
161
  8
0
  6
CONTINUOUS
 62
   179
 10
1652.0267570928
 20
232.855468564
 30
0.0
  0
VERTEX
  5
162
  8
0
  6
CONTINUOUS
 62
   179
 10
1652.0025482108
 20
232.9628446569
 30
0.0
  0
VERTEX
  5
163
  8
0
  6
CONTINUOUS
 62
   179
 10
1651.9735347794
 20
233.0698061282
 30
0.0
  0
VERTEX
  5
164
  8
0
  6
CONTINUOUS
 62
   179
 10
1651.9397370613
 20
233.1762782773
 30
0.0
  0
VERTEX
  5
165
  8
0
  6
CONTINUOUS
 62
   179
 10
1651.9011786604
 20
233.2821867453
 30
0.0
  0
VERTEX
  5
166
  8
0
  6
CONTINUOUS
 62
   179
 10
1651.8578865054
 20
233.3874575672
 30
0.0
  0
VERTEX
  5
167
  8
0
  6
CONTINUOUS
 62
   179
 10
1651.8098908311
 20
233.4920172229
 30
0.0
  0
VERTEX
  5
168
  8
0
  6
CONTINUOUS
 62
   179
 10
1651.7572251569
 20
233.5957926893
 30
0.0
  0
VERTEX
  5
169
  8
0
  6
CONTINUOUS
 62
   179
 10
1651.6999262641
 20
233.698711491
 30
0.0
  0
VERTEX
  5
16A
  8
0
  6
CONTINUOUS
 62
   179
 10
1651.6380341694
 20
233.8007017506
 30
0.0
  0
VERTEX
  5
16B
  8
0
  6
CONTINUOUS
 62
   179
 10
1651.5715920975
 20
233.9016922393
 30
0.0
  0
VERTEX
  5
16C
  8
0
  6
CONTINUOUS
 62
   179
 10
1651.5006464508
 20
234.0016124267
 30
0.0
  0
VERTEX
  5
16D
  8
0
  6
CONTINUOUS
 62
   179
 10
1651.4252467768
 20
234.1003925298
 30
0.0
  0
VERTEX
  5
16E
  8
0
  6
CONTINUOUS
 62
   179
 10
1651.3454457338
 20
234.1979635616
 30
0.0
  0
VERTEX
  5
16F
  8
0
  6
CONTINUOUS
 62
   179
 10
1651.2612990538
 20
234.2942573797
 30
0.0
  0
VERTEX
  5
170
  8
0
  6
CONTINUOUS
 62
   179
 10
1651.1728655039
 20
234.3892067338
 30
0.0
  0
VERTEX
  5
171
  8
0
  6
CONTINUOUS
 62
   179
 10
1651.080206845
 20
234.4827453123
 30
0.0
  0
VERTEX
  5
172
  8
0
  6
CONTINUOUS
 62
   179
 10
1650.9833877887
 20
234.5748077891
 30
0.0
  0
VERTEX
  5
173
  8
0
  6
CONTINUOUS
 62
   179
 10
1650.8824759524
 20
234.6653298687
 30
0.0
  0
VERTEX
  5
174
  8
0
  6
CONTINUOUS
 62
   179
 10
1650.7775418116
 20
234.7542483318
 30
0.0
  0
VERTEX
  5
175
  8
0
  6
CONTINUOUS
 62
   179
 10
1650.668658651
 20
234.8415010787
 30
0.0
  0
VERTEX
  5
176
  8
0
  6
CONTINUOUS
 62
   179
 10
1650.5559025134
 20
234.9270271731
 30
0.0
  0
VERTEX
  5
177
  8
0
  6
CONTINUOUS
 62
   179
 10
1650.4393521462
 20
235.0107668847
 30
0.0
  0
VERTEX
  5
178
  8
0
  6
CONTINUOUS
 62
   179
 10
1650.3190889468
 20
235.0926617307
 30
0.0
  0
VERTEX
  5
179
  8
0
  6
CONTINUOUS
 62
   179
 10
1650.1951969057
 20
235.1726545167
 30
0.0
  0
VERTEX
  5
17A
  8
0
  6
CONTINUOUS
 62
   179
 10
1650.0677625473
 20
235.2506893767
 30
0.0
  0
VERTEX
  5
17B
  8
0
  6
CONTINUOUS
 62
   179
 10
1649.9368748705
 20
235.3267118121
 30
0.0
  0
VERTEX
  5
17C
  8
0
  6
CONTINUOUS
 62
   179
 10
1649.8026252855
 20
235.4006687298
 30
0.0
  0
VERTEX
  5
17D
  8
0
  6
CONTINUOUS
 62
   179
 10
1649.6651075506
 20
235.4725084791
 30
0.0
  0
VERTEX
  5
17E
  8
0
  6
CONTINUOUS
 62
   179
 10
1649.5244177066
 20
235.5421808881
 30
0.0
  0
VERTEX
  5
17F
  8
0
  6
CONTINUOUS
 62
   179
 10
1649.3806540095
 20
235.6096372983
 30
0.0
  0
VERTEX
  5
180
  8
0
  6
CONTINUOUS
 62
   179
 10
1649.2339168622
 20
235.6748305991
 30
0.0
  0
VERTEX
  5
181
  8
0
  6
CONTINUOUS
 62
   179
 10
1649.084308744
 20
235.7377152603
 30
0.0
  0
VERTEX
  5
182
  8
0
  6
CONTINUOUS
 62
   179
 10
1648.9319341396
 20
235.7982473639
 30
0.0
  0
SEQEND
  5
391
  8
0
  6
CONTINUOUS
 62
   179
  0
POLYLINE
  5
D7
  8
0
  6
CONTINUOUS
 62
   179
 66
     1
 10
0.0
 20
0.0
 30
0.0
 70
   128
  0
VERTEX
  5
183
  8
0
  6
CONTINUOUS
 62
   179
 10
1735.2858572526
 20
221.011940052
 30
0.0
  0
VERTEX
  5
184
  8
0
  6
CONTINUOUS
 62
   179
 10
1735.56071151
 20
221.2011443745
 30
0.0
  0
VERTEX
  5
185
  8
0
  6
CONTINUOUS
 62
   179
 10
1735.8270911488
 20
221.3946430203
 30
0.0
  0
VERTEX
  5
186
  8
0
  6
CONTINUOUS
 62
   179
 10
1736.0848089918
 20
221.5923000235
 30
0.0
  0
VERTEX
  5
187
  8
0
  6
CONTINUOUS
 62
   179
 10
1736.3336839483
 20
221.7939764965
 30
0.0
  0
VERTEX
  5
188
  8
0
  6
CONTINUOUS
 62
   179
 10
1736.5735411413
 20
221.9995307271
 30
0.0
  0
VERTEX
  5
189
  8
0
  6
CONTINUOUS
 62
   179
 10
1736.80421203
 20
222.2088182783
 30
0.0
  0
VERTEX
  5
18A
  8
0
  6
CONTINUOUS
 62
   179
 10
1737.0255345289
 20
222.42169209
 30
0.0
  0
VERTEX
  5
18B
  8
0
  6
CONTINUOUS
 62
   179
 10
1737.2373531212
 20
222.638002582
 30
0.0
  0
VERTEX
  5
18C
  8
0
  6
CONTINUOUS
 62
   179
 10
1737.4395189681
 20
222.8575977593
 30
0.0
  0
VERTEX
  5
18D
  8
0
  6
CONTINUOUS
 62
   179
 10
1737.6318900137
 20
223.0803233188
 30
0.0
  0
VERTEX
  5
18E
  8
0
  6
CONTINUOUS
 62
   179
 10
1737.8143310845
 20
223.3060227578
 30
0.0
  0
VERTEX
  5
18F
  8
0
  6
CONTINUOUS
 62
   179
 10
1737.9867139844
 20
223.534537484
 30
0.0
  0
VERTEX
  5
190
  8
0
  6
CONTINUOUS
 62
   179
 10
1738.1489175852
 20
223.7657069268
 30
0.0
  0
VERTEX
  5
191
  8
0
  6
CONTINUOUS
 62
   179
 10
1738.3008279111
 20
223.9993686501
 30
0.0
  0
VERTEX
  5
192
  8
0
  6
CONTINUOUS
 62
   179
 10
1738.4423382193
 20
224.2353584669
 30
0.0
  0
VERTEX
  5
193
  8
0
  6
CONTINUOUS
 62
   179
 10
1738.5733490745
 20
224.473510554
 30
0.0
  0
VERTEX
  5
194
  8
0
  6
CONTINUOUS
 62
   179
 10
1738.6937684193
 20
224.7136575689
 30
0.0
  0
VERTEX
  5
195
  8
0
  6
CONTINUOUS
 62
   179
 10
1738.8035116385
 20
224.9556307674
 30
0.0
  0
VERTEX
  5
196
  8
0
  6
CONTINUOUS
 62
   179
 10
1738.902501619
 20
225.199260122
 30
0.0
  0
VERTEX
  5
197
  8
0
  6
CONTINUOUS
 62
   179
 10
1738.9906688032
 20
225.4443744416
 30
0.0
  0
VERTEX
  5
198
  8
0
  6
CONTINUOUS
 62
   179
 10
1739.0679512387
 20
225.6908014915
 30
0.0
  0
VERTEX
  5
199
  8
0
  6
CONTINUOUS
 62
   179
 10
1739.1342946214
 20
225.9383681147
 30
0.0
  0
VERTEX
  5
19A
  8
0
  6
CONTINUOUS
 62
   179
 10
1739.1896523337
 20
226.1869003534
 30
0.0
  0
VERTEX
  5
19B
  8
0
  6
CONTINUOUS
 62
   179
 10
1739.2339854776
 20
226.4362235713
 30
0.0
  0
VERTEX
  5
19C
  8
0
  6
CONTINUOUS
 62
   179
 10
1739.2672629012
 20
226.6861625764
 30
0.0
  0
VERTEX
  5
19D
  8
0
  6
CONTINUOUS
 62
   179
 10
1739.2894612216
 20
226.9365417438
 30
0.0
  0
VERTEX
  5
19E
  8
0
  6
CONTINUOUS
 62
   179
 10
1739.3005648407
 20
227.1871851395
 30
0.0
  0
VERTEX
  5
19F
  8
0
  6
CONTINUOUS
 62
   179
 10
1739.3005659562
 20
227.4379166437
 30
0.0
  0
VERTEX
  5
1A0
  8
0
  6
CONTINUOUS
 62
   179
 10
1739.2894645674
 20
227.6885600748
 30
0.0
  0
VERTEX
  5
1A1
  8
0
  6
CONTINUOUS
 62
   179
 10
1739.267268475
 20
227.9389393129
 30
0.0
  0
VERTEX
  5
1A2
  8
0
  6
CONTINUOUS
 62
   179
 10
1739.2339932754
 20
228.1888784241
 30
0.0
  0
VERTEX
  5
1A3
  8
0
  6
CONTINUOUS
 62
   179
 10
1739.1896623501
 20
228.4382017834
 30
0.0
  0
VERTEX
  5
1A4
  8
0
  6
CONTINUOUS
 62
   179
 10
1739.1343068493
 20
228.6867341986
 30
0.0
  0
VERTEX
  5
1A5
  8
0
  6
CONTINUOUS
 62
   179
 10
1739.0679656695
 20
228.9343010333
 30
0.0
  0
VERTEX
  5
1A6
  8
0
  6
CONTINUOUS
 62
   179
 10
1738.9906854268
 20
229.1807283296
 30
0.0
  0
VERTEX
  5
1A7
  8
0
  6
CONTINUOUS
 62
   179
 10
1738.9025204237
 20
229.4258429303
 30
0.0
  0
VERTEX
  5
1A8
  8
0
  6
CONTINUOUS
 62
   179
 10
1738.8035326112
 20
229.6694726005
 30
0.0
  0
VERTEX
  5
1A9
  8
0
  6
CONTINUOUS
 62
   179
 10
1738.693791545
 20
229.9114461489
 30
0.0
  0
VERTEX
  5
1AA
  8
0
  6
CONTINUOUS
 62
   179
 10
1738.5733743371
 20
230.1515935477
 30
0.0
  0
VERTEX
  5
1AB
  8
0
  6
CONTINUOUS
 62
   179
 10
1738.4423656011
 20
230.3897460525
 30
0.0
  0
VERTEX
  5
1AC
  8
0
  6
CONTINUOUS
 62
   179
 10
1738.3008573929
 20
230.6257363204
 30
0.0
  0
VERTEX
  5
1AD
  8
0
  6
CONTINUOUS
 62
   179
 10
1738.1489491462
 20
230.8593985281
 30
0.0
  0
VERTEX
  5
1AE
  8
0
  6
CONTINUOUS
 62
   179
 10
1737.9867476024
 20
231.0905684881
 30
0.0
  0
VERTEX
  5
1AF
  8
0
  6
CONTINUOUS
 62
   179
 10
1737.8143667358
 20
231.3190837638
 30
0.0
  0
VERTEX
  5
1B0
  8
0
  6
CONTINUOUS
 62
   179
 10
1737.6319276734
 20
231.5447837845
 30
0.0
  0
VERTEX
  5
1B1
  8
0
  6
CONTINUOUS
 62
   179
 10
1737.4395586097
 20
231.7675099574
 30
0.0
  0
VERTEX
  5
1B2
  8
0
  6
CONTINUOUS
 62
   179
 10
1737.2373947168
 20
231.9871057792
 30
0.0
  0
VERTEX
  5
1B3
  8
0
  6
CONTINUOUS
 62
   179
 10
1737.0255780493
 20
232.2034169466
 30
0.0
  0
VERTEX
  5
1B4
  8
0
  6
CONTINUOUS
 62
   179
 10
1736.8042574447
 20
232.4162914639
 30
0.0
  0
VERTEX
  5
1B5
  8
0
  6
CONTINUOUS
 62
   179
 10
1736.5735884182
 20
232.6255797506
 30
0.0
  0
VERTEX
  5
1B6
  8
0
  6
CONTINUOUS
 62
   179
 10
1736.3337330544
 20
232.8311347459
 30
0.0
  0
VERTEX
  5
1B7
  8
0
  6
CONTINUOUS
 62
   179
 10
1736.0848598924
 20
233.0328120123
 30
0.0
  0
VERTEX
  5
1B8
  8
0
  6
CONTINUOUS
 62
   179
 10
1735.8271438082
 20
233.2304698373
 30
0.0
  0
VERTEX
  5
1B9
  8
0
  6
CONTINUOUS
 62
   179
 10
1735.5607658912
 20
233.4239693323
 30
0.0
  0
SEQEND
  5
392
  8
0
  6
CONTINUOUS
 62
   179
  0
POLYLINE
  5
D8
  8
0
  6
CONTINUOUS
 62
   179
 66
     1
 10
0.0
 20
0.0
 30
0.0
 70
   128
  0
VERTEX
  5
1BA
  8
0
  6
CONTINUOUS
 62
   179
 10
1779.1416817621
 20
229.2850218759
 30
0.0
  0
VERTEX
  5
1BB
  8
0
  6
CONTINUOUS
 62
   179
 10
1779.2780617927
 20
229.3852929389
 30
0.0
  0
VERTEX
  5
1BC
  8
0
  6
CONTINUOUS
 62
   179
 10
1779.4098874247
 20
229.4876624008
 30
0.0
  0
VERTEX
  5
1BD
  8
0
  6
CONTINUOUS
 62
   179
 10
1779.5370659523
 20
229.5920582705
 30
0.0
  0
VERTEX
  5
1BE
  8
0
  6
CONTINUOUS
 62
   179
 10
1779.6595079372
 20
229.6984071318
 30
0.0
  0
VERTEX
  5
1BF
  8
0
  6
CONTINUOUS
 62
   179
 10
1779.7771272725
 20
229.8066341951
 30
0.0
  0
VERTEX
  5
1C0
  8
0
  6
CONTINUOUS
 62
   179
 10
1779.8898412425
 20
229.9166633499
 30
0.0
  0
VERTEX
  5
1C1
  8
0
  6
CONTINUOUS
 62
   179
 10
1779.9975705815
 20
230.0284172185
 30
0.0
  0
VERTEX
  5
1C2
  8
0
  6
CONTINUOUS
 62
   179
 10
1780.1002395289
 20
230.1418172102
 30
0.0
  0
VERTEX
  5
1C3
  8
0
  6
CONTINUOUS
 62
   179
 10
1780.1977758831
 20
230.2567835766
 30
0.0
  0
VERTEX
  5
1C4
  8
0
  6
CONTINUOUS
 62
   179
 10
1780.2901110518
 20
230.373235468
 30
0.0
  0
VERTEX
  5
1C5
  8
0
  6
CONTINUOUS
 62
   179
 10
1780.3771801006
 20
230.4910909898
 30
0.0
  0
VERTEX
  5
1C6
  8
0
  6
CONTINUOUS
 62
   179
 10
1780.4589217981
 20
230.6102672602
 30
0.0
  0
VERTEX
  5
1C7
  8
0
  6
CONTINUOUS
 62
   179
 10
1780.5352786599
 20
230.7306804689
 30
0.0
  0
VERTEX
  5
1C8
  8
0
  6
CONTINUOUS
 62
   179
 10
1780.6061969881
 20
230.8522459356
 30
0.0
  0
VERTEX
  5
1C9
  8
0
  6
CONTINUOUS
 62
   179
 10
1780.6716269095
 20
230.9748781695
 30
0.0
  0
VERTEX
  5
1CA
  8
0
  6
CONTINUOUS
 62
   179
 10
1780.7315224106
 20
231.0984909297
 30
0.0
  0
VERTEX
  5
1CB
  8
0
  6
CONTINUOUS
 62
   179
 10
1780.7858413702
 20
231.222997286
 30
0.0
  0
VERTEX
  5
1CC
  8
0
  6
CONTINUOUS
 62
   179
 10
1780.8345455884
 20
231.3483096794
 30
0.0
  0
VERTEX
  5
1CD
  8
0
  6
CONTINUOUS
 62
   179
 10
1780.8776008142
 20
231.4743399842
 30
0.0
  0
VERTEX
  5
1CE
  8
0
  6
CONTINUOUS
 62
   179
 10
1780.914976769
 20
231.6009995699
 30
0.0
  0
VERTEX
  5
1CF
  8
0
  6
CONTINUOUS
 62
   179
 10
1780.9466471682
 20
231.7281993634
 30
0.0
  0
VERTEX
  5
1D0
  8
0
  6
CONTINUOUS
 62
   179
 10
1780.9725897399
 20
231.8558499118
 30
0.0
  0
VERTEX
  5
1D1
  8
0
  6
CONTINUOUS
 62
   179
 10
1780.9927862398
 20
231.983861445
 30
0.0
  0
VERTEX
  5
1D2
  8
0
  6
CONTINUOUS
 62
   179
 10
1781.0072224648
 20
232.1121439392
 30
0.0
  0
VERTEX
  5
1D3
  8
0
  6
CONTINUOUS
 62
   179
 10
1781.0158882627
 20
232.2406071799
 30
0.0
  0
VERTEX
  5
1D4
  8
0
  6
CONTINUOUS
 62
   179
 10
1781.0187775393
 20
232.3691608258
 30
0.0
  0
VERTEX
  5
1D5
  8
0
  6
CONTINUOUS
 62
   179
 10
1781.0158882627
 20
232.4977144717
 30
0.0
  0
VERTEX
  5
1D6
  8
0
  6
CONTINUOUS
 62
   179
 10
1781.0072224648
 20
232.6261777124
 30
0.0
  0
VERTEX
  5
1D7
  8
0
  6
CONTINUOUS
 62
   179
 10
1780.9927862398
 20
232.7544602066
 30
0.0
  0
VERTEX
  5
1D8
  8
0
  6
CONTINUOUS
 62
   179
 10
1780.9725897399
 20
232.8824717398
 30
0.0
  0
VERTEX
  5
1D9
  8
0
  6
CONTINUOUS
 62
   179
 10
1780.9466471683
 20
233.0101222882
 30
0.0
  0
VERTEX
  5
1DA
  8
0
  6
CONTINUOUS
 62
   179
 10
1780.914976769
 20
233.1373220817
 30
0.0
  0
VERTEX
  5
1DB
  8
0
  6
CONTINUOUS
 62
   179
 10
1780.8776008142
 20
233.2639816674
 30
0.0
  0
VERTEX
  5
1DC
  8
0
  6
CONTINUOUS
 62
   179
 10
1780.8345455884
 20
233.3900119723
 30
0.0
  0
VERTEX
  5
1DD
  8
0
  6
CONTINUOUS
 62
   179
 10
1780.7858413702
 20
233.5153243656
 30
0.0
  0
VERTEX
  5
1DE
  8
0
  6
CONTINUOUS
 62
   179
 10
1780.7315224107
 20
233.6398307219
 30
0.0
  0
VERTEX
  5
1DF
  8
0
  6
CONTINUOUS
 62
   179
 10
1780.6716269096
 20
233.7634434821
 30
0.0
  0
VERTEX
  5
1E0
  8
0
  6
CONTINUOUS
 62
   179
 10
1780.6061969882
 20
233.886075716
 30
0.0
  0
VERTEX
  5
1E1
  8
0
  6
CONTINUOUS
 62
   179
 10
1780.53527866
 20
234.0076411827
 30
0.0
  0
VERTEX
  5
1E2
  8
0
  6
CONTINUOUS
 62
   179
 10
1780.4589217982
 20
234.1280543914
 30
0.0
  0
VERTEX
  5
1E3
  8
0
  6
CONTINUOUS
 62
   179
 10
1780.3771801006
 20
234.2472306619
 30
0.0
  0
VERTEX
  5
1E4
  8
0
  6
CONTINUOUS
 62
   179
 10
1780.2901110519
 20
234.3650861836
 30
0.0
  0
VERTEX
  5
1E5
  8
0
  6
CONTINUOUS
 62
   179
 10
1780.1977758832
 20
234.481538075
 30
0.0
  0
VERTEX
  5
1E6
  8
0
  6
CONTINUOUS
 62
   179
 10
1780.100239529
 20
234.5965044415
 30
0.0
  0
VERTEX
  5
1E7
  8
0
  6
CONTINUOUS
 62
   179
 10
1779.9975705816
 20
234.7099044331
 30
0.0
  0
VERTEX
  5
1E8
  8
0
  6
CONTINUOUS
 62
   179
 10
1779.8898412426
 20
234.8216583017
 30
0.0
  0
VERTEX
  5
1E9
  8
0
  6
CONTINUOUS
 62
   179
 10
1779.7771272726
 20
234.9316874566
 30
0.0
  0
VERTEX
  5
1EA
  8
0
  6
CONTINUOUS
 62
   179
 10
1779.6595079373
 20
235.0399145199
 30
0.0
  0
VERTEX
  5
1EB
  8
0
  6
CONTINUOUS
 62
   179
 10
1779.5370659524
 20
235.1462633812
 30
0.0
  0
VERTEX
  5
1EC
  8
0
  6
CONTINUOUS
 62
   179
 10
1779.4098874249
 20
235.2506592508
 30
0.0
  0
VERTEX
  5
1ED
  8
0
  6
CONTINUOUS
 62
   179
 10
1779.2780617928
 20
235.3530287127
 30
0.0
  0
SEQEND
  5
393
  8
0
  6
CONTINUOUS
 62
   179
  0
POLYLINE
  5
D9
  8
0
  6
CONTINUOUS
 62
   179
 66
     1
 10
0.0
 20
0.0
 30
0.0
 70
   128
  0
VERTEX
  5
1EE
  8
0
  6
CONTINUOUS
 62
   179
 10
1785.4533741077
 20
225.9808475028
 30
0.0
  0
VERTEX
  5
1EF
  8
0
  6
CONTINUOUS
 62
   179
 10
1785.8350376204
 20
226.0967404429
 30
0.0
  0
VERTEX
  5
1F0
  8
0
  6
CONTINUOUS
 62
   179
 10
1786.2102650933
 20
226.2174940704
 30
0.0
  0
VERTEX
  5
1F1
  8
0
  6
CONTINUOUS
 62
   179
 10
1786.5787944297
 20
226.3430240388
 30
0.0
  0
VERTEX
  5
1F2
  8
0
  6
CONTINUOUS
 62
   179
 10
1786.9403682113
 20
226.4732426653
 30
0.0
  0
VERTEX
  5
1F3
  8
0
  6
CONTINUOUS
 62
   179
 10
1787.2947338786
 20
226.608058992
 30
0.0
  0
VERTEX
  5
1F4
  8
0
  6
CONTINUOUS
 62
   179
 10
1787.6416439068
 20
226.7473788495
 30
0.0
  0
VERTEX
  5
1F5
  8
0
  6
CONTINUOUS
 62
   179
 10
1787.980855979
 20
226.8911049229
 30
0.0
  0
VERTEX
  5
1F6
  8
0
  6
CONTINUOUS
 62
   179
 10
1788.312133155
 20
227.0391368193
 30
0.0
  0
VERTEX
  5
1F7
  8
0
  6
CONTINUOUS
 62
   179
 10
1788.6352440376
 20
227.1913711383
 30
0.0
  0
VERTEX
  5
1F8
  8
0
  6
CONTINUOUS
 62
   179
 10
1788.9499629335
 20
227.347701544
 30
0.0
  0
VERTEX
  5
1F9
  8
0
  6
CONTINUOUS
 62
   179
 10
1789.2560700111
 20
227.5080188397
 30
0.0
  0
VERTEX
  5
1FA
  8
0
  6
CONTINUOUS
 62
   179
 10
1789.5533514545
 20
227.6722110433
 30
0.0
  0
VERTEX
  5
1FB
  8
0
  6
CONTINUOUS
 62
   179
 10
1789.8415996122
 20
227.8401634666
 30
0.0
  0
VERTEX
  5
1FC
  8
0
  6
CONTINUOUS
 62
   179
 10
1790.1206131426
 20
228.0117587946
 30
0.0
  0
VERTEX
  5
1FD
  8
0
  6
CONTINUOUS
 62
   179
 10
1790.3901971544
 20
228.1868771678
 30
0.0
  0
VERTEX
  5
1FE
  8
0
  6
CONTINUOUS
 62
   179
 10
1790.6501633431
 20
228.3653962658
 30
0.0
  0
VERTEX
  5
1FF
  8
0
  6
CONTINUOUS
 62
   179
 10
1790.9003301219
 20
228.547191393
 30
0.0
  0
VERTEX
  5
200
  8
0
  6
CONTINUOUS
 62
   179
 10
1791.1405227491
 20
228.7321355651
 30
0.0
  0
VERTEX
  5
201
  8
0
  6
CONTINUOUS
 62
   179
 10
1791.37057345
 20
228.9200995985
 30
0.0
  0
VERTEX
  5
202
  8
0
  6
CONTINUOUS
 62
   179
 10
1791.5903215338
 20
229.1109522003
 30
0.0
  0
VERTEX
  5
203
  8
0
  6
CONTINUOUS
 62
   179
 10
1791.7996135064
 20
229.3045600595
 30
0.0
  0
VERTEX
  5
204
  8
0
  6
CONTINUOUS
 62
   179
 10
1791.9983031771
 20
229.500787941
 30
0.0
  0
VERTEX
  5
205
  8
0
  6
CONTINUOUS
 62
   179
 10
1792.1862517609
 20
229.6994987794
 30
0.0
  0
VERTEX
  5
206
  8
0
  6
CONTINUOUS
 62
   179
 10
1792.3633279756
 20
229.900553775
 30
0.0
  0
VERTEX
  5
207
  8
0
  6
CONTINUOUS
 62
   179
 10
1792.5294081334
 20
230.1038124906
 30
0.0
  0
VERTEX
  5
208
  8
0
  6
CONTINUOUS
 62
   179
 10
1792.6843762269
 20
230.3091329499
 30
0.0
  0
VERTEX
  5
209
  8
0
  6
CONTINUOUS
 62
   179
 10
1792.8281240109
 20
230.5163717363
 30
0.0
  0
VERTEX
  5
20A
  8
0
  6
CONTINUOUS
 62
   179
 10
1792.9605510775
 20
230.7253840933
 30
0.0
  0
VERTEX
  5
20B
  8
0
  6
CONTINUOUS
 62
   179
 10
1793.0815649261
 20
230.9360240256
 30
0.0
  0
VERTEX
  5
20C
  8
0
  6
CONTINUOUS
 62
   179
 10
1793.1910810284
 20
231.1481444009
 30
0.0
  0
VERTEX
  5
20D
  8
0
  6
CONTINUOUS
 62
   179
 10
1793.2890228875
 20
231.3615970531
 30
0.0
  0
VERTEX
  5
20E
  8
0
  6
CONTINUOUS
 62
   179
 10
1793.3753220907
 20
231.5762328852
 30
0.0
  0
VERTEX
  5
20F
  8
0
  6
CONTINUOUS
 62
   179
 10
1793.449918358
 20
231.7919019738
 30
0.0
  0
VERTEX
  5
210
  8
0
  6
CONTINUOUS
 62
   179
 10
1793.5127595839
 20
232.008453674
 30
0.0
  0
VERTEX
  5
211
  8
0
  6
CONTINUOUS
 62
   179
 10
1793.5638018737
 20
232.2257367241
 30
0.0
  0
VERTEX
  5
212
  8
0
  6
CONTINUOUS
 62
   179
 10
1793.6030095742
 20
232.4435993516
 30
0.0
  0
VERTEX
  5
213
  8
0
  6
CONTINUOUS
 62
   179
 10
1793.630355299
 20
232.6618893795
 30
0.0
  0
VERTEX
  5
214
  8
0
  6
CONTINUOUS
 62
   179
 10
1793.6458199469
 20
232.8804543318
 30
0.0
  0
VERTEX
  5
215
  8
0
  6
CONTINUOUS
 62
   179
 10
1793.6493927159
 20
233.0991415407
 30
0.0
  0
VERTEX
  5
216
  8
0
  6
CONTINUOUS
 62
   179
 10
1793.6410711104
 20
233.3177982529
 30
0.0
  0
VERTEX
  5
217
  8
0
  6
CONTINUOUS
 62
   179
 10
1793.620860943
 20
233.5362717367
 30
0.0
  0
VERTEX
  5
218
  8
0
  6
CONTINUOUS
 62
   179
 10
1793.5887763307
 20
233.754409388
 30
0.0
  0
VERTEX
  5
219
  8
0
  6
CONTINUOUS
 62
   179
 10
1793.5448396844
 20
233.9720588374
 30
0.0
  0
VERTEX
  5
21A
  8
0
  6
CONTINUOUS
 62
   179
 10
1793.4890816941
 20
234.1890680566
 30
0.0
  0
VERTEX
  5
21B
  8
0
  6
CONTINUOUS
 62
   179
 10
1793.4215413067
 20
234.4052854645
 30
0.0
  0
VERTEX
  5
21C
  8
0
  6
CONTINUOUS
 62
   179
 10
1793.3422656992
 20
234.620560033
 30
0.0
  0
VERTEX
  5
21D
  8
0
  6
CONTINUOUS
 62
   179
 10
1793.2513102458
 20
234.8347413926
 30
0.0
  0
VERTEX
  5
21E
  8
0
  6
CONTINUOUS
 62
   179
 10
1793.1487384788
 20
235.0476799374
 30
0.0
  0
VERTEX
  5
21F
  8
0
  6
CONTINUOUS
 62
   179
 10
1793.0346220449
 20
235.2592269295
 30
0.0
  0
VERTEX
  5
220
  8
0
  6
CONTINUOUS
 62
   179
 10
1792.9090406543
 20
235.4692346034
 30
0.0
  0
VERTEX
  5
221
  8
0
  6
CONTINUOUS
 62
   179
 10
1792.772082026
 20
235.6775562683
 30
0.0
  0
VERTEX
  5
222
  8
0
  6
CONTINUOUS
 62
   179
 10
1792.6238418254
 20
235.8840464113
 30
0.0
  0
VERTEX
  5
223
  8
0
  6
CONTINUOUS
 62
   179
 10
1792.4644235988
 20
236.088560799
 30
0.0
  0
VERTEX
  5
224
  8
0
  6
CONTINUOUS
 62
   179
 10
1792.2939386997
 20
236.2909565779
 30
0.0
  0
VERTEX
  5
225
  8
0
  6
CONTINUOUS
 62
   179
 10
1792.112506212
 20
236.4910923742
 30
0.0
  0
VERTEX
  5
226
  8
0
  6
CONTINUOUS
 62
   179
 10
1791.9202528666
 20
236.6888283929
 30
0.0
  0
VERTEX
  5
227
  8
0
  6
CONTINUOUS
 62
   179
 10
1791.7173129526
 20
236.8840265152
 30
0.0
  0
VERTEX
  5
228
  8
0
  6
CONTINUOUS
 62
   179
 10
1791.5038282237
 20
237.0765503951
 30
0.0
  0
VERTEX
  5
229
  8
0
  6
CONTINUOUS
 62
   179
 10
1791.2799477991
 20
237.2662655544
 30
0.0
  0
VERTEX
  5
22A
  8
0
  6
CONTINUOUS
 62
   179
 10
1791.0458280597
 20
237.453039477
 30
0.0
  0
VERTEX
  5
22B
  8
0
  6
CONTINUOUS
 62
   179
 10
1790.8016325383
 20
237.6367417009
 30
0.0
  0
VERTEX
  5
22C
  8
0
  6
CONTINUOUS
 62
   179
 10
1790.5475318056
 20
237.8172439101
 30
0.0
  0
VERTEX
  5
22D
  8
0
  6
CONTINUOUS
 62
   179
 10
1790.2837033513
 20
237.9944200236
 30
0.0
  0
VERTEX
  5
22E
  8
0
  6
CONTINUOUS
 62
   179
 10
1790.0103314598
 20
238.1681462837
 30
0.0
  0
VERTEX
  5
22F
  8
0
  6
CONTINUOUS
 62
   179
 10
1789.7276070817
 20
238.3383013424
 30
0.0
  0
VERTEX
  5
230
  8
0
  6
CONTINUOUS
 62
   179
 10
1789.4357277001
 20
238.5047663463
 30
0.0
  0
VERTEX
  5
231
  8
0
  6
CONTINUOUS
 62
   179
 10
1789.1348971932
 20
238.6674250193
 30
0.0
  0
VERTEX
  5
232
  8
0
  6
CONTINUOUS
 62
   179
 10
1788.8253256913
 20
238.8261637443
 30
0.0
  0
VERTEX
  5
233
  8
0
  6
CONTINUOUS
 62
   179
 10
1788.5072294305
 20
238.9808716421
 30
0.0
  0
VERTEX
  5
234
  8
0
  6
CONTINUOUS
 62
   179
 10
1788.1808306012
 20
239.1314406491
 30
0.0
  0
VERTEX
  5
235
  8
0
  6
CONTINUOUS
 62
   179
 10
1787.8463571935
 20
239.2777655926
 30
0.0
  0
VERTEX
  5
236
  8
0
  6
CONTINUOUS
 62
   179
 10
1787.5040428372
 20
239.4197442647
 30
0.0
  0
VERTEX
  5
237
  8
0
  6
CONTINUOUS
 62
   179
 10
1787.1541266393
 20
239.5572774929
 30
0.0
  0
VERTEX
  5
238
  8
0
  6
CONTINUOUS
 62
   179
 10
1786.7968530166
 20
239.6902692103
 30
0.0
  0
VERTEX
  5
239
  8
0
  6
CONTINUOUS
 62
   179
 10
1786.432471525
 20
239.8186265219
 30
0.0
  0
VERTEX
  5
23A
  8
0
  6
CONTINUOUS
 62
   179
 10
1786.0612366855
 20
239.9422597702
 30
0.0
  0
VERTEX
  5
23B
  8
0
  6
CONTINUOUS
 62
   179
 10
1785.6834078059
 20
240.061082597
 30
0.0
  0
VERTEX
  5
23C
  8
0
  6
CONTINUOUS
 62
   179
 10
1785.2992488
 20
240.1750120046
 30
0.0
  0
VERTEX
  5
23D
  8
0
  6
CONTINUOUS
 62
   179
 10
1784.9090280033
 20
240.2839684132
 30
0.0
  0
VERTEX
  5
23E
  8
0
  6
CONTINUOUS
 62
   179
 10
1784.5130179854
 20
240.3878757166
 30
0.0
  0
VERTEX
  5
23F
  8
0
  6
CONTINUOUS
 62
   179
 10
1784.1114953596
 20
240.4866613355
 30
0.0
  0
VERTEX
  5
240
  8
0
  6
CONTINUOUS
 62
   179
 10
1783.70474059
 20
240.580256268
 30
0.0
  0
VERTEX
  5
241
  8
0
  6
CONTINUOUS
 62
   179
 10
1783.2930377951
 20
240.6685951379
 30
0.0
  0
VERTEX
  5
242
  8
0
  6
CONTINUOUS
 62
   179
 10
1782.8766745497
 20
240.7516162405
 30
0.0
  0
VERTEX
  5
243
  8
0
  6
CONTINUOUS
 62
   179
 10
1782.455941684
 20
240.8292615855
 30
0.0
  0
VERTEX
  5
244
  8
0
  6
CONTINUOUS
 62
   179
 10
1782.0311330802
 20
240.9014769374
 30
0.0
  0
VERTEX
  5
245
  8
0
  6
CONTINUOUS
 62
   179
 10
1781.6025454676
 20
240.9682118539
 30
0.0
  0
VERTEX
  5
246
  8
0
  6
CONTINUOUS
 62
   179
 10
1781.1704782151
 20
241.0294197204
 30
0.0
  0
VERTEX
  5
247
  8
0
  6
CONTINUOUS
 62
   179
 10
1780.7352331221
 20
241.0850577833
 30
0.0
  0
VERTEX
  5
248
  8
0
  6
CONTINUOUS
 62
   179
 10
1780.2971142076
 20
241.1350871793
 30
0.0
  0
VERTEX
  5
249
  8
0
  6
CONTINUOUS
 62
   179
 10
1779.8564274983
 20
241.1794729628
 30
0.0
  0
SEQEND
  5
394
  8
0
  6
CONTINUOUS
 62
   179
  0
POLYLINE
  5
DA
  8
0
  6
CONTINUOUS
 62
   179
 66
     1
 10
0.0
 20
0.0
 30
0.0
 70
   128
  0
VERTEX
  5
24A
  8
0
  6
CONTINUOUS
 62
   179
 10
1730.4500682012
 20
213.4069680314
 30
0.0
  0
VERTEX
  5
24B
  8
0
  6
CONTINUOUS
 62
   179
 10
1730.9766008026
 20
213.4577605446
 30
0.0
  0
VERTEX
  5
24C
  8
0
  6
CONTINUOUS
 62
   179
 10
1731.5010251066
 20
213.5181239697
 30
0.0
  0
VERTEX
  5
24D
  8
0
  6
CONTINUOUS
 62
   179
 10
1732.0229788409
 20
213.5880166076
 30
0.0
  0
VERTEX
  5
24E
  8
0
  6
CONTINUOUS
 62
   179
 10
1732.5421014396
 20
213.6673901765
 30
0.0
  0
VERTEX
  5
24F
  8
0
  6
CONTINUOUS
 62
   179
 10
1733.0580342925
 20
213.7561898451
 30
0.0
  0
VERTEX
  5
250
  8
0
  6
CONTINUOUS
 62
   179
 10
1733.5704209931
 20
213.8543542705
 30
0.0
  0
VERTEX
  5
251
  8
0
  6
CONTINUOUS
 62
   179
 10
1734.0789075845
 20
213.9618156407
 30
0.0
  0
VERTEX
  5
252
  8
0
  6
CONTINUOUS
 62
   179
 10
1734.5831428039
 20
214.0784997213
 30
0.0
  0
VERTEX
  5
253
  8
0
  6
CONTINUOUS
 62
   179
 10
1735.0827783253
 20
214.204325907
 30
0.0
  0
VERTEX
  5
254
  8
0
  6
CONTINUOUS
 62
   179
 10
1735.5774690005
 20
214.3392072769
 30
0.0
  0
VERTEX
  5
255
  8
0
  6
CONTINUOUS
 62
   179
 10
1736.066873097
 20
214.483050655
 30
0.0
  0
VERTEX
  5
256
  8
0
  6
CONTINUOUS
 62
   179
 10
1736.550652534
 20
214.6357566742
 30
0.0
  0
VERTEX
  5
257
  8
0
  6
CONTINUOUS
 62
   179
 10
1737.0284731168
 20
214.7972198451
 30
0.0
  0
VERTEX
  5
258
  8
0
  6
CONTINUOUS
 62
   179
 10
1737.5000047665
 20
214.9673286289
 30
0.0
  0
VERTEX
  5
259
  8
0
  6
CONTINUOUS
 62
   179
 10
1737.964921749
 20
215.1459655144
 30
0.0
  0
VERTEX
  5
25A
  8
0
  6
CONTINUOUS
 62
   179
 10
1738.4229028994
 20
215.3330070992
 30
0.0
  0
VERTEX
  5
25B
  8
0
  6
CONTINUOUS
 62
   179
 10
1738.8736318442
 20
215.5283241748
 30
0.0
  0
VERTEX
  5
25C
  8
0
  6
CONTINUOUS
 62
   179
 10
1739.3167972196
 20
215.7317818161
 30
0.0
  0
VERTEX
  5
25D
  8
0
  6
CONTINUOUS
 62
   179
 10
1739.7520928869
 20
215.9432394746
 30
0.0
  0
VERTEX
  5
25E
  8
0
  6
CONTINUOUS
 62
   179
 10
1740.1792181436
 20
216.1625510752
 30
0.0
  0
VERTEX
  5
25F
  8
0
  6
CONTINUOUS
 62
   179
 10
1740.5978779314
 20
216.3895651173
 30
0.0
  0
VERTEX
  5
260
  8
0
  6
CONTINUOUS
 62
   179
 10
1741.00778304
 20
216.6241247797
 30
0.0
  0
VERTEX
  5
261
  8
0
  6
CONTINUOUS
 62
   179
 10
1741.4086503068
 20
216.8660680282
 30
0.0
  0
VERTEX
  5
262
  8
0
  6
CONTINUOUS
 62
   179
 10
1741.8002028125
 20
217.1152277286
 30
0.0
  0
VERTEX
  5
263
  8
0
  6
CONTINUOUS
 62
   179
 10
1742.1821700725
 20
217.3714317611
 30
0.0
  0
VERTEX
  5
264
  8
0
  6
CONTINUOUS
 62
   179
 10
1742.5542882236
 20
217.63450314
 30
0.0
  0
VERTEX
  5
265
  8
0
  6
CONTINUOUS
 62
   179
 10
1742.9163002066
 20
217.9042601353
 30
0.0
  0
VERTEX
  5
266
  8
0
  6
CONTINUOUS
 62
   179
 10
1743.2679559434
 20
218.1805163989
 30
0.0
  0
VERTEX
  5
267
  8
0
  6
CONTINUOUS
 62
   179
 10
1743.60901251
 20
218.4630810929
 30
0.0
  0
VERTEX
  5
268
  8
0
  6
CONTINUOUS
 62
   179
 10
1743.9392343045
 20
218.7517590214
 30
0.0
  0
VERTEX
  5
269
  8
0
  6
CONTINUOUS
 62
   179
 10
1744.2583932095
 20
219.0463507656
 30
0.0
  0
VERTEX
  5
26A
  8
0
  6
CONTINUOUS
 62
   179
 10
1744.5662687499
 20
219.3466528215
 30
0.0
  0
VERTEX
  5
26B
  8
0
  6
CONTINUOUS
 62
   179
 10
1744.8626482452
 20
219.6524577402
 30
0.0
  0
VERTEX
  5
26C
  8
0
  6
CONTINUOUS
 62
   179
 10
1745.1473269563
 20
219.9635542715
 30
0.0
  0
VERTEX
  5
26D
  8
0
  6
CONTINUOUS
 62
   179
 10
1745.4201082271
 20
220.27972751
 30
0.0
  0
VERTEX
  5
26E
  8
0
  6
CONTINUOUS
 62
   179
 10
1745.6808036201
 20
220.600759043
 30
0.0
  0
VERTEX
  5
26F
  8
0
  6
CONTINUOUS
 62
   179
 10
1745.9292330469
 20
220.9264271017
 30
0.0
  0
VERTEX
  5
270
  8
0
  6
CONTINUOUS
 62
   179
 10
1746.1652248923
 20
221.2565067147
 30
0.0
  0
VERTEX
  5
271
  8
0
  6
CONTINUOUS
 62
   179
 10
1746.3886161331
 20
221.5907698627
 30
0.0
  0
VERTEX
  5
272
  8
0
  6
CONTINUOUS
 62
   179
 10
1746.5992524505
 20
221.9289856366
 30
0.0
  0
VERTEX
  5
273
  8
0
  6
CONTINUOUS
 62
   179
 10
1746.7969883368
 20
222.2709203968
 30
0.0
  0
VERTEX
  5
274
  8
0
  6
CONTINUOUS
 62
   179
 10
1746.9816871961
 20
222.6163379348
 30
0.0
  0
VERTEX
  5
275
  8
0
  6
CONTINUOUS
 62
   179
 10
1747.1532214382
 20
222.9649996358
 30
0.0
  0
VERTEX
  5
276
  8
0
  6
CONTINUOUS
 62
   179
 10
1747.3114725674
 20
223.3166646444
 30
0.0
  0
VERTEX
  5
277
  8
0
  6
CONTINUOUS
 62
   179
 10
1747.4563312635
 20
223.6710900301
 30
0.0
  0
VERTEX
  5
278
  8
0
  6
CONTINUOUS
 62
   179
 10
1747.5876974583
 20
224.0280309557
 30
0.0
  0
VERTEX
  5
279
  8
0
  6
CONTINUOUS
 62
   179
 10
1747.7054804038
 20
224.3872408464
 30
0.0
  0
VERTEX
  5
27A
  8
0
  6
CONTINUOUS
 62
   179
 10
1747.8095987356
 20
224.7484715598
 30
0.0
  0
VERTEX
  5
27B
  8
0
  6
CONTINUOUS
 62
   179
 10
1747.8999805287
 20
225.1114735576
 30
0.0
  0
VERTEX
  5
27C
  8
0
  6
CONTINUOUS
 62
   179
 10
1747.9765633473
 20
225.4759960779
 30
0.0
  0
VERTEX
  5
27D
  8
0
  6
CONTINUOUS
 62
   179
 10
1748.0392942879
 20
225.8417873083
 30
0.0
  0
VERTEX
  5
27E
  8
0
  6
CONTINUOUS
 62
   179
 10
1748.088130016
 20
226.2085945602
 30
0.0
  0
VERTEX
  5
27F
  8
0
  6
CONTINUOUS
 62
   179
 10
1748.1230367959
 20
226.5761644429
 30
0.0
  0
VERTEX
  5
280
  8
0
  6
CONTINUOUS
 62
   179
 10
1748.143990514
 20
226.9442430391
 30
0.0
  0
VERTEX
  5
281
  8
0
  6
CONTINUOUS
 62
   179
 10
1748.1509766954
 20
227.3125760799
 30
0.0
  0
VERTEX
  5
282
  8
0
  6
CONTINUOUS
 62
   179
 10
1748.143990514
 20
227.6809091207
 30
0.0
  0
VERTEX
  5
283
  8
0
  6
CONTINUOUS
 62
   179
 10
1748.1230367959
 20
228.0489877168
 30
0.0
  0
VERTEX
  5
284
  8
0
  6
CONTINUOUS
 62
   179
 10
1748.088130016
 20
228.4165575996
 30
0.0
  0
VERTEX
  5
285
  8
0
  6
CONTINUOUS
 62
   179
 10
1748.0392942879
 20
228.7833648514
 30
0.0
  0
VERTEX
  5
286
  8
0
  6
CONTINUOUS
 62
   179
 10
1747.9765633472
 20
229.1491560819
 30
0.0
  0
VERTEX
  5
287
  8
0
  6
CONTINUOUS
 62
   179
 10
1747.8999805287
 20
229.5136786021
 30
0.0
  0
VERTEX
  5
288
  8
0
  6
CONTINUOUS
 62
   179
 10
1747.8095987356
 20
229.8766805999
 30
0.0
  0
VERTEX
  5
289
  8
0
  6
CONTINUOUS
 62
   179
 10
1747.7054804038
 20
230.2379113133
 30
0.0
  0
VERTEX
  5
28A
  8
0
  6
CONTINUOUS
 62
   179
 10
1747.5876974583
 20
230.597121204
 30
0.0
  0
VERTEX
  5
28B
  8
0
  6
CONTINUOUS
 62
   179
 10
1747.4563312635
 20
230.9540621297
 30
0.0
  0
VERTEX
  5
28C
  8
0
  6
CONTINUOUS
 62
   179
 10
1747.3114725673
 20
231.3084875154
 30
0.0
  0
VERTEX
  5
28D
  8
0
  6
CONTINUOUS
 62
   179
 10
1747.1532214382
 20
231.6601525239
 30
0.0
  0
VERTEX
  5
28E
  8
0
  6
CONTINUOUS
 62
   179
 10
1746.981687196
 20
232.008814225
 30
0.0
  0
VERTEX
  5
28F
  8
0
  6
CONTINUOUS
 62
   179
 10
1746.7969883367
 20
232.3542317629
 30
0.0
  0
VERTEX
  5
290
  8
0
  6
CONTINUOUS
 62
   179
 10
1746.5992524504
 20
232.6961665232
 30
0.0
  0
VERTEX
  5
291
  8
0
  6
CONTINUOUS
 62
   179
 10
1746.388616133
 20
233.0343822971
 30
0.0
  0
VERTEX
  5
292
  8
0
  6
CONTINUOUS
 62
   179
 10
1746.1652248923
 20
233.3686454451
 30
0.0
  0
VERTEX
  5
293
  8
0
  6
CONTINUOUS
 62
   179
 10
1745.9292330468
 20
233.698725058
 30
0.0
  0
VERTEX
  5
294
  8
0
  6
CONTINUOUS
 62
   179
 10
1745.6808036201
 20
234.0243931168
 30
0.0
  0
VERTEX
  5
295
  8
0
  6
CONTINUOUS
 62
   179
 10
1745.420108227
 20
234.3454246497
 30
0.0
  0
VERTEX
  5
296
  8
0
  6
CONTINUOUS
 62
   179
 10
1745.1473269563
 20
234.6615978882
 30
0.0
  0
VERTEX
  5
297
  8
0
  6
CONTINUOUS
 62
   179
 10
1744.8626482451
 20
234.9726944196
 30
0.0
  0
VERTEX
  5
298
  8
0
  6
CONTINUOUS
 62
   179
 10
1744.5662687498
 20
235.2784993383
 30
0.0
  0
VERTEX
  5
299
  8
0
  6
CONTINUOUS
 62
   179
 10
1744.2583932094
 20
235.5788013941
 30
0.0
  0
VERTEX
  5
29A
  8
0
  6
CONTINUOUS
 62
   179
 10
1743.9392343044
 20
235.8733931383
 30
0.0
  0
VERTEX
  5
29B
  8
0
  6
CONTINUOUS
 62
   179
 10
1743.6090125099
 20
236.1620710668
 30
0.0
  0
VERTEX
  5
29C
  8
0
  6
CONTINUOUS
 62
   179
 10
1743.2679559433
 20
236.4446357608
 30
0.0
  0
VERTEX
  5
29D
  8
0
  6
CONTINUOUS
 62
   179
 10
1742.9163002065
 20
236.7208920244
 30
0.0
  0
VERTEX
  5
29E
  8
0
  6
CONTINUOUS
 62
   179
 10
1742.5542882235
 20
236.9906490198
 30
0.0
  0
VERTEX
  5
29F
  8
0
  6
CONTINUOUS
 62
   179
 10
1742.1821700724
 20
237.2537203986
 30
0.0
  0
VERTEX
  5
2A0
  8
0
  6
CONTINUOUS
 62
   179
 10
1741.8002028124
 20
237.5099244311
 30
0.0
  0
VERTEX
  5
2A1
  8
0
  6
CONTINUOUS
 62
   179
 10
1741.4086503067
 20
237.7590841315
 30
0.0
  0
VERTEX
  5
2A2
  8
0
  6
CONTINUOUS
 62
   179
 10
1741.0077830399
 20
238.0010273801
 30
0.0
  0
VERTEX
  5
2A3
  8
0
  6
CONTINUOUS
 62
   179
 10
1740.5978779313
 20
238.2355870424
 30
0.0
  0
VERTEX
  5
2A4
  8
0
  6
CONTINUOUS
 62
   179
 10
1740.1792181435
 20
238.4626010845
 30
0.0
  0
VERTEX
  5
2A5
  8
0
  6
CONTINUOUS
 62
   179
 10
1739.7520928868
 20
238.6819126851
 30
0.0
  0
VERTEX
  5
2A6
  8
0
  6
CONTINUOUS
 62
   179
 10
1739.3167972195
 20
238.8933703436
 30
0.0
  0
VERTEX
  5
2A7
  8
0
  6
CONTINUOUS
 62
   179
 10
1738.8736318441
 20
239.0968279849
 30
0.0
  0
VERTEX
  5
2A8
  8
0
  6
CONTINUOUS
 62
   179
 10
1738.4229028993
 20
239.2921450605
 30
0.0
  0
VERTEX
  5
2A9
  8
0
  6
CONTINUOUS
 62
   179
 10
1737.9649217489
 20
239.4791866453
 30
0.0
  0
VERTEX
  5
2AA
  8
0
  6
CONTINUOUS
 62
   179
 10
1737.5000047664
 20
239.6578235308
 30
0.0
  0
VERTEX
  5
2AB
  8
0
  6
CONTINUOUS
 62
   179
 10
1737.0284731166
 20
239.8279323146
 30
0.0
  0
VERTEX
  5
2AC
  8
0
  6
CONTINUOUS
 62
   179
 10
1736.5506525339
 20
239.9893954855
 30
0.0
  0
VERTEX
  5
2AD
  8
0
  6
CONTINUOUS
 62
   179
 10
1736.0668730968
 20
240.1421015047
 30
0.0
  0
VERTEX
  5
2AE
  8
0
  6
CONTINUOUS
 62
   179
 10
1735.5774690004
 20
240.2859448828
 30
0.0
  0
VERTEX
  5
2AF
  8
0
  6
CONTINUOUS
 62
   179
 10
1735.0827783252
 20
240.4208262527
 30
0.0
  0
VERTEX
  5
2B0
  8
0
  6
CONTINUOUS
 62
   179
 10
1734.5831428037
 20
240.5466524384
 30
0.0
  0
VERTEX
  5
2B1
  8
0
  6
CONTINUOUS
 62
   179
 10
1734.0789075844
 20
240.663336519
 30
0.0
  0
VERTEX
  5
2B2
  8
0
  6
CONTINUOUS
 62
   179
 10
1733.570420993
 20
240.7707978892
 30
0.0
  0
VERTEX
  5
2B3
  8
0
  6
CONTINUOUS
 62
   179
 10
1733.0580342924
 20
240.8689623146
 30
0.0
  0
VERTEX
  5
2B4
  8
0
  6
CONTINUOUS
 62
   179
 10
1732.5421014395
 20
240.9577619831
 30
0.0
  0
VERTEX
  5
2B5
  8
0
  6
CONTINUOUS
 62
   179
 10
1732.0229788408
 20
241.037135552
 30
0.0
  0
VERTEX
  5
2B6
  8
0
  6
CONTINUOUS
 62
   179
 10
1731.5010251065
 20
241.10702819
 30
0.0
  0
VERTEX
  5
2B7
  8
0
  6
CONTINUOUS
 62
   179
 10
1730.9766008024
 20
241.1673916151
 30
0.0
  0
SEQEND
  5
395
  8
0
  6
CONTINUOUS
 62
   179
  0
POLYLINE
  5
DB
  8
0
  6
CONTINUOUS
 62
   179
 66
     1
 10
0.0
 20
0.0
 30
0.0
 70
   128
  0
VERTEX
  5
2B8
  8
0
  6
CONTINUOUS
 62
   179
 10
1649.6535376107
 20
223.5201375223
 30
0.0
  0
VERTEX
  5
2B9
  8
0
  6
CONTINUOUS
 62
   179
 10
1650.1388134157
 20
223.5719273339
 30
0.0
  0
VERTEX
  5
2BA
  8
0
  6
CONTINUOUS
 62
   179
 10
1650.6210743762
 20
223.6297673826
 30
0.0
  0
VERTEX
  5
2BB
  8
0
  6
CONTINUOUS
 62
   179
 10
1651.0999888206
 20
223.6936178893
 30
0.0
  0
VERTEX
  5
2BC
  8
0
  6
CONTINUOUS
 62
   179
 10
1651.5752273789
 20
223.7634349414
 30
0.0
  0
VERTEX
  5
2BD
  8
0
  6
CONTINUOUS
 62
   179
 10
1652.0464632088
 20
223.8391705225
 30
0.0
  0
VERTEX
  5
2BE
  8
0
  6
CONTINUOUS
 62
   179
 10
1652.5133722212
 20
223.9207725461
 30
0.0
  0
VERTEX
  5
2BF
  8
0
  6
CONTINUOUS
 62
   179
 10
1652.9756333027
 20
224.0081848909
 30
0.0
  0
VERTEX
  5
2C0
  8
0
  6
CONTINUOUS
 62
   179
 10
1653.4329285363
 20
224.1013474397
 30
0.0
  0
VERTEX
  5
2C1
  8
0
  6
CONTINUOUS
 62
   179
 10
1653.8849434203
 20
224.2001961205
 30
0.0
  0
VERTEX
  5
2C2
  8
0
  6
CONTINUOUS
 62
   179
 10
1654.3313670846
 20
224.304662951
 30
0.0
  0
VERTEX
  5
2C3
  8
0
  6
CONTINUOUS
 62
   179
 10
1654.7718925045
 20
224.4146760846
 30
0.0
  0
VERTEX
  5
2C4
  8
0
  6
CONTINUOUS
 62
   179
 10
1655.2062167115
 20
224.5301598608
 30
0.0
  0
VERTEX
  5
2C5
  8
0
  6
CONTINUOUS
 62
   179
 10
1655.6340410021
 20
224.6510348561
 30
0.0
  0
VERTEX
  5
2C6
  8
0
  6
CONTINUOUS
 62
   179
 10
1656.0550711431
 20
224.7772179398
 30
0.0
  0
VERTEX
  5
2C7
  8
0
  6
CONTINUOUS
 62
   179
 10
1656.469017574
 20
224.9086223303
 30
0.0
  0
VERTEX
  5
2C8
  8
0
  6
CONTINUOUS
 62
   179
 10
1656.8755956059
 20
225.0451576551
 30
0.0
  0
VERTEX
  5
2C9
  8
0
  6
CONTINUOUS
 62
   179
 10
1657.2745256175
 20
225.1867300129
 30
0.0
  0
VERTEX
  5
2CA
  8
0
  6
CONTINUOUS
 62
   179
 10
1657.6655332475
 20
225.3332420384
 30
0.0
  0
VERTEX
  5
2CB
  8
0
  6
CONTINUOUS
 62
   179
 10
1658.048349583
 20
225.4845929688
 30
0.0
  0
VERTEX
  5
2CC
  8
0
  6
CONTINUOUS
 62
   179
 10
1658.4227113447
 20
225.6406787137
 30
0.0
  0
VERTEX
  5
2CD
  8
0
  6
CONTINUOUS
 62
   179
 10
1658.7883610679
 20
225.8013919261
 30
0.0
  0
VERTEX
  5
2CE
  8
0
  6
CONTINUOUS
 62
   179
 10
1659.1450472794
 20
225.9666220767
 30
0.0
  0
VERTEX
  5
2CF
  8
0
  6
CONTINUOUS
 62
   179
 10
1659.4925246709
 20
226.1362555294
 30
0.0
  0
VERTEX
  5
2D0
  8
0
  6
CONTINUOUS
 62
   179
 10
1659.830554267
 20
226.3101756201
 30
0.0
  0
VERTEX
  5
2D1
  8
0
  6
CONTINUOUS
 62
   179
 10
1660.1589035902
 20
226.4882627365
 30
0.0
  0
VERTEX
  5
2D2
  8
0
  6
CONTINUOUS
 62
   179
 10
1660.4773468207
 20
226.6703944002
 30
0.0
  0
VERTEX
  5
2D3
  8
0
  6
CONTINUOUS
 62
   179
 10
1660.785664951
 20
226.8564453516
 30
0.0
  0
VERTEX
  5
2D4
  8
0
  6
CONTINUOUS
 62
   179
 10
1661.0836459377
 20
227.0462876353
 30
0.0
  0
VERTEX
  5
2D5
  8
0
  6
CONTINUOUS
 62
   179
 10
1661.3710848463
 20
227.2397906886
 30
0.0
  0
VERTEX
  5
2D6
  8
0
  6
CONTINUOUS
 62
   179
 10
1661.6477839927
 20
227.4368214311
 30
0.0
  0
VERTEX
  5
2D7
  8
0
  6
CONTINUOUS
 62
   179
 10
1661.913553079
 20
227.6372443563
 30
0.0
  0
VERTEX
  5
2D8
  8
0
  6
CONTINUOUS
 62
   179
 10
1662.1682093241
 20
227.8409216246
 30
0.0
  0
VERTEX
  5
2D9
  8
0
  6
CONTINUOUS
 62
   179
 10
1662.4115775902
 20
228.0477131585
 30
0.0
  0
VERTEX
  5
2DA
  8
0
  6
CONTINUOUS
 62
   179
 10
1662.6434905023
 20
228.2574767385
 30
0.0
  0
VERTEX
  5
2DB
  8
0
  6
CONTINUOUS
 62
   179
 10
1662.8637885638
 20
228.470068101
 30
0.0
  0
VERTEX
  5
2DC
  8
0
  6
CONTINUOUS
 62
   179
 10
1663.0723202664
 20
228.6853410379
 30
0.0
  0
VERTEX
  5
2DD
  8
0
  6
CONTINUOUS
 62
   179
 10
1663.2689421937
 20
228.9031474966
 30
0.0
  0
VERTEX
  5
2DE
  8
0
  6
CONTINUOUS
 62
   179
 10
1663.4535191204
 20
229.1233376823
 30
0.0
  0
VERTEX
  5
2DF
  8
0
  6
CONTINUOUS
 62
   179
 10
1663.6259241049
 20
229.3457601606
 30
0.0
  0
VERTEX
  5
2E0
  8
0
  6
CONTINUOUS
 62
   179
 10
1663.786038577
 20
229.570261962
 30
0.0
  0
VERTEX
  5
2E1
  8
0
  6
CONTINUOUS
 62
   179
 10
1663.9337524189
 20
229.796688687
 30
0.0
  0
VERTEX
  5
2E2
  8
0
  6
CONTINUOUS
 62
   179
 10
1664.0689640416
 20
230.0248846121
 30
0.0
  0
VERTEX
  5
2E3
  8
0
  6
CONTINUOUS
 62
   179
 10
1664.191580454
 20
230.2546927971
 30
0.0
  0
VERTEX
  5
2E4
  8
0
  6
CONTINUOUS
 62
   179
 10
1664.3015173277
 20
230.4859551931
 30
0.0
  0
VERTEX
  5
2E5
  8
0
  6
CONTINUOUS
 62
   179
 10
1664.3986990542
 20
230.7185127508
 30
0.0
  0
VERTEX
  5
2E6
  8
0
  6
CONTINUOUS
 62
   179
 10
1664.4830587976
 20
230.9522055304
 30
0.0
  0
VERTEX
  5
2E7
  8
0
  6
CONTINUOUS
 62
   179
 10
1664.55453854
 20
231.1868728114
 30
0.0
  0
VERTEX
  5
2E8
  8
0
  6
CONTINUOUS
 62
   179
 10
1664.6130891216
 20
231.4223532028
 30
0.0
  0
VERTEX
  5
2E9
  8
0
  6
CONTINUOUS
 62
   179
 10
1664.6586702748
 20
231.6584847547
 30
0.0
  0
VERTEX
  5
2EA
  8
0
  6
CONTINUOUS
 62
   179
 10
1664.6912506514
 20
231.8951050692
 30
0.0
  0
VERTEX
  5
2EB
  8
0
  6
CONTINUOUS
 62
   179
 10
1664.7108078444
 20
232.1320514123
 30
0.0
  0
VERTEX
  5
2EC
  8
0
  6
CONTINUOUS
 62
   179
 10
1664.7173284036
 20
232.3691608258
 30
0.0
  0
VERTEX
  5
2ED
  8
0
  6
CONTINUOUS
 62
   179
 10
1664.7108078444
 20
232.6062702393
 30
0.0
  0
VERTEX
  5
2EE
  8
0
  6
CONTINUOUS
 62
   179
 10
1664.6912506514
 20
232.8432165824
 30
0.0
  0
VERTEX
  5
2EF
  8
0
  6
CONTINUOUS
 62
   179
 10
1664.6586702748
 20
233.0798368969
 30
0.0
  0
VERTEX
  5
2F0
  8
0
  6
CONTINUOUS
 62
   179
 10
1664.6130891216
 20
233.3159684488
 30
0.0
  0
VERTEX
  5
2F1
  8
0
  6
CONTINUOUS
 62
   179
 10
1664.55453854
 20
233.5514488403
 30
0.0
  0
VERTEX
  5
2F2
  8
0
  6
CONTINUOUS
 62
   179
 10
1664.4830587976
 20
233.7861161212
 30
0.0
  0
VERTEX
  5
2F3
  8
0
  6
CONTINUOUS
 62
   179
 10
1664.3986990543
 20
234.0198089008
 30
0.0
  0
VERTEX
  5
2F4
  8
0
  6
CONTINUOUS
 62
   179
 10
1664.3015173277
 20
234.2523664586
 30
0.0
  0
VERTEX
  5
2F5
  8
0
  6
CONTINUOUS
 62
   179
 10
1664.1915804541
 20
234.4836288545
 30
0.0
  0
VERTEX
  5
2F6
  8
0
  6
CONTINUOUS
 62
   179
 10
1664.0689640416
 20
234.7134370395
 30
0.0
  0
VERTEX
  5
2F7
  8
0
  6
CONTINUOUS
 62
   179
 10
1663.933752419
 20
234.9416329646
 30
0.0
  0
VERTEX
  5
2F8
  8
0
  6
CONTINUOUS
 62
   179
 10
1663.7860385771
 20
235.1680596896
 30
0.0
  0
VERTEX
  5
2F9
  8
0
  6
CONTINUOUS
 62
   179
 10
1663.625924105
 20
235.392561491
 30
0.0
  0
VERTEX
  5
2FA
  8
0
  6
CONTINUOUS
 62
   179
 10
1663.4535191205
 20
235.6149839694
 30
0.0
  0
VERTEX
  5
2FB
  8
0
  6
CONTINUOUS
 62
   179
 10
1663.2689421938
 20
235.835174155
 30
0.0
  0
VERTEX
  5
2FC
  8
0
  6
CONTINUOUS
 62
   179
 10
1663.0723202665
 20
236.0529806138
 30
0.0
  0
VERTEX
  5
2FD
  8
0
  6
CONTINUOUS
 62
   179
 10
1662.8637885639
 20
236.2682535506
 30
0.0
  0
VERTEX
  5
2FE
  8
0
  6
CONTINUOUS
 62
   179
 10
1662.6434905024
 20
236.4808449132
 30
0.0
  0
VERTEX
  5
2FF
  8
0
  6
CONTINUOUS
 62
   179
 10
1662.4115775903
 20
236.6906084931
 30
0.0
  0
VERTEX
  5
300
  8
0
  6
CONTINUOUS
 62
   179
 10
1662.1682093243
 20
236.897400027
 30
0.0
  0
VERTEX
  5
301
  8
0
  6
CONTINUOUS
 62
   179
 10
1661.9135530791
 20
237.1010772954
 30
0.0
  0
VERTEX
  5
302
  8
0
  6
CONTINUOUS
 62
   179
 10
1661.6477839929
 20
237.3015002205
 30
0.0
  0
VERTEX
  5
303
  8
0
  6
CONTINUOUS
 62
   179
 10
1661.3710848465
 20
237.4985309631
 30
0.0
  0
VERTEX
  5
304
  8
0
  6
CONTINUOUS
 62
   179
 10
1661.0836459379
 20
237.6920340164
 30
0.0
  0
VERTEX
  5
305
  8
0
  6
CONTINUOUS
 62
   179
 10
1660.7856649512
 20
237.8818763001
 30
0.0
  0
VERTEX
  5
306
  8
0
  6
CONTINUOUS
 62
   179
 10
1660.4773468208
 20
238.0679272514
 30
0.0
  0
VERTEX
  5
307
  8
0
  6
CONTINUOUS
 62
   179
 10
1660.1589035904
 20
238.2500589152
 30
0.0
  0
VERTEX
  5
308
  8
0
  6
CONTINUOUS
 62
   179
 10
1659.8305542671
 20
238.4281460315
 30
0.0
  0
VERTEX
  5
309
  8
0
  6
CONTINUOUS
 62
   179
 10
1659.492524671
 20
238.6020661222
 30
0.0
  0
VERTEX
  5
30A
  8
0
  6
CONTINUOUS
 62
   179
 10
1659.1450472796
 20
238.771699575
 30
0.0
  0
VERTEX
  5
30B
  8
0
  6
CONTINUOUS
 62
   179
 10
1658.788361068
 20
238.9369297255
 30
0.0
  0
VERTEX
  5
30C
  8
0
  6
CONTINUOUS
 62
   179
 10
1658.4227113449
 20
239.0976429379
 30
0.0
  0
VERTEX
  5
30D
  8
0
  6
CONTINUOUS
 62
   179
 10
1658.0483495831
 20
239.2537286828
 30
0.0
  0
VERTEX
  5
30E
  8
0
  6
CONTINUOUS
 62
   179
 10
1657.6655332477
 20
239.4050796133
 30
0.0
  0
VERTEX
  5
30F
  8
0
  6
CONTINUOUS
 62
   179
 10
1657.2745256177
 20
239.5515916388
 30
0.0
  0
VERTEX
  5
310
  8
0
  6
CONTINUOUS
 62
   179
 10
1656.8755956061
 20
239.6931639966
 30
0.0
  0
VERTEX
  5
311
  8
0
  6
CONTINUOUS
 62
   179
 10
1656.4690175742
 20
239.8296993214
 30
0.0
  0
VERTEX
  5
312
  8
0
  6
CONTINUOUS
 62
   179
 10
1656.0550711434
 20
239.9611037118
 30
0.0
  0
VERTEX
  5
313
  8
0
  6
CONTINUOUS
 62
   179
 10
1655.6340410023
 20
240.0872867955
 30
0.0
  0
VERTEX
  5
314
  8
0
  6
CONTINUOUS
 62
   179
 10
1655.2062167117
 20
240.2081617909
 30
0.0
  0
VERTEX
  5
315
  8
0
  6
CONTINUOUS
 62
   179
 10
1654.7718925047
 20
240.323645567
 30
0.0
  0
VERTEX
  5
316
  8
0
  6
CONTINUOUS
 62
   179
 10
1654.3313670849
 20
240.4336587007
 30
0.0
  0
VERTEX
  5
317
  8
0
  6
CONTINUOUS
 62
   179
 10
1653.8849434205
 20
240.5381255312
 30
0.0
  0
VERTEX
  5
318
  8
0
  6
CONTINUOUS
 62
   179
 10
1653.4329285365
 20
240.636974212
 30
0.0
  0
VERTEX
  5
319
  8
0
  6
CONTINUOUS
 62
   179
 10
1652.9756333029
 20
240.7301367608
 30
0.0
  0
VERTEX
  5
31A
  8
0
  6
CONTINUOUS
 62
   179
 10
1652.5133722215
 20
240.8175491056
 30
0.0
  0
VERTEX
  5
31B
  8
0
  6
CONTINUOUS
 62
   179
 10
1652.046463209
 20
240.8991511292
 30
0.0
  0
VERTEX
  5
31C
  8
0
  6
CONTINUOUS
 62
   179
 10
1651.5752273791
 20
240.9748867103
 30
0.0
  0
VERTEX
  5
31D
  8
0
  6
CONTINUOUS
 62
   179
 10
1651.0999888209
 20
241.0447037624
 30
0.0
  0
VERTEX
  5
31E
  8
0
  6
CONTINUOUS
 62
   179
 10
1650.6210743764
 20
241.1085542691
 30
0.0
  0
VERTEX
  5
31F
  8
0
  6
CONTINUOUS
 62
   179
 10
1650.1388134159
 20
241.1663943178
 30
0.0
  0
SEQEND
  5
396
  8
0
  6
CONTINUOUS
 62
   179
  0
POLYLINE
  5
DC
  8
0
  6
CONTINUOUS
 62
   179
 66
     1
 10
0.0
 20
0.0
 30
0.0
 70
   128
  0
VERTEX
  5
320
  8
0
  6
CONTINUOUS
 62
   179
 10
1895.8006815888
 20
237.008919516
 30
0.0
  0
VERTEX
  5
321
  8
0
  6
CONTINUOUS
 62
   179
 10
1895.8327535379
 20
237.0142984917
 30
0.0
  0
VERTEX
  5
322
  8
0
  6
CONTINUOUS
 62
   179
 10
1895.8646273967
 20
237.0205981703
 30
0.0
  0
VERTEX
  5
323
  8
0
  6
CONTINUOUS
 62
   179
 10
1895.896272036
 20
237.0278123993
 30
0.0
  0
VERTEX
  5
324
  8
0
  6
CONTINUOUS
 62
   179
 10
1895.9276565507
 20
237.0359341332
 30
0.0
  0
VERTEX
  5
325
  8
0
  6
CONTINUOUS
 62
   179
 10
1895.9587502895
 20
237.04495544
 30
0.0
  0
VERTEX
  5
326
  8
0
  6
CONTINUOUS
 62
   179
 10
1895.9895228852
 20
237.054867509
 30
0.0
  0
VERTEX
  5
327
  8
0
  6
CONTINUOUS
 62
   179
 10
1896.0199442843
 20
237.06566066
 30
0.0
  0
VERTEX
  5
328
  8
0
  6
CONTINUOUS
 62
   179
 10
1896.0499847762
 20
237.0773243519
 30
0.0
  0
VERTEX
  5
329
  8
0
  6
CONTINUOUS
 62
   179
 10
1896.0796150223
 20
237.0898471935
 30
0.0
  0
VERTEX
  5
32A
  8
0
  6
CONTINUOUS
 62
   179
 10
1896.1088060847
 20
237.1032169547
 30
0.0
  0
VERTEX
  5
32B
  8
0
  6
CONTINUOUS
 62
   179
 10
1896.1375294544
 20
237.117420578
 30
0.0
  0
VERTEX
  5
32C
  8
0
  6
CONTINUOUS
 62
   179
 10
1896.1657570792
 20
237.1324441917
 30
0.0
  0
VERTEX
  5
32D
  8
0
  6
CONTINUOUS
 62
   179
 10
1896.193461391
 20
237.1482731232
 30
0.0
  0
VERTEX
  5
32E
  8
0
  6
CONTINUOUS
 62
   179
 10
1896.2206153328
 20
237.1648919136
 30
0.0
  0
VERTEX
  5
32F
  8
0
  6
CONTINUOUS
 62
   179
 10
1896.2471923853
 20
237.1822843322
 30
0.0
  0
VERTEX
  5
330
  8
0
  6
CONTINUOUS
 62
   179
 10
1896.2731665923
 20
237.200433393
 30
0.0
  0
VERTEX
  5
331
  8
0
  6
CONTINUOUS
 62
   179
 10
1896.2985125865
 20
237.2193213711
 30
0.0
  0
VERTEX
  5
332
  8
0
  6
CONTINUOUS
 62
   179
 10
1896.3232056141
 20
237.2389298199
 30
0.0
  0
VERTEX
  5
333
  8
0
  6
CONTINUOUS
 62
   179
 10
1896.3472215592
 20
237.2592395889
 30
0.0
  0
VERTEX
  5
334
  8
0
  6
CONTINUOUS
 62
   179
 10
1896.3705369669
 20
237.2802308431
 30
0.0
  0
VERTEX
  5
335
  8
0
  6
CONTINUOUS
 62
   179
 10
1896.3931290666
 20
237.3018830817
 30
0.0
  0
VERTEX
  5
336
  8
0
  6
CONTINUOUS
 62
   179
 10
1896.414975794
 20
237.3241751582
 30
0.0
  0
VERTEX
  5
337
  8
0
  6
CONTINUOUS
 62
   179
 10
1896.436055813
 20
237.3470853016
 30
0.0
  0
VERTEX
  5
338
  8
0
  6
CONTINUOUS
 62
   179
 10
1896.456348536
 20
237.370591137
 30
0.0
  0
VERTEX
  5
339
  8
0
  6
CONTINUOUS
 62
   179
 10
1896.4758341445
 20
237.3946697078
 30
0.0
  0
VERTEX
  5
33A
  8
0
  6
CONTINUOUS
 62
   179
 10
1896.4944936082
 20
237.4192974981
 30
0.0
  0
VERTEX
  5
33B
  8
0
  6
CONTINUOUS
 62
   179
 10
1896.5123087036
 20
237.4444504554
 30
0.0
  0
VERTEX
  5
33C
  8
0
  6
CONTINUOUS
 62
   179
 10
1896.5292620319
 20
237.4701040146
 30
0.0
  0
VERTEX
  5
33D
  8
0
  6
CONTINUOUS
 62
   179
 10
1896.5453370358
 20
237.4962331215
 30
0.0
  0
VERTEX
  5
33E
  8
0
  6
CONTINUOUS
 62
   179
 10
1896.5605180161
 20
237.5228122576
 30
0.0
  0
VERTEX
  5
33F
  8
0
  6
CONTINUOUS
 62
   179
 10
1896.5747901463
 20
237.5498154647
 30
0.0
  0
VERTEX
  5
340
  8
0
  6
CONTINUOUS
 62
   179
 10
1896.5881394879
 20
237.5772163707
 30
0.0
  0
VERTEX
  5
341
  8
0
  6
CONTINUOUS
 62
   179
 10
1896.6005530034
 20
237.6049882147
 30
0.0
  0
VERTEX
  5
342
  8
0
  6
CONTINUOUS
 62
   179
 10
1896.6120185694
 20
237.633103874
 30
0.0
  0
VERTEX
  5
343
  8
0
  6
CONTINUOUS
 62
   179
 10
1896.6225249883
 20
237.6615358897
 30
0.0
  0
VERTEX
  5
344
  8
0
  6
CONTINUOUS
 62
   179
 10
1896.632061999
 20
237.6902564943
 30
0.0
  0
VERTEX
  5
345
  8
0
  6
CONTINUOUS
 62
   179
 10
1896.6406202874
 20
237.7192376382
 30
0.0
  0
VERTEX
  5
346
  8
0
  6
CONTINUOUS
 62
   179
 10
1896.6481914952
 20
237.7484510174
 30
0.0
  0
VERTEX
  5
347
  8
0
  6
CONTINUOUS
 62
   179
 10
1896.6547682282
 20
237.7778681011
 30
0.0
  0
VERTEX
  5
348
  8
0
  6
CONTINUOUS
 62
   179
 10
1896.6603440631
 20
237.8074601596
 30
0.0
  0
VERTEX
  5
349
  8
0
  6
CONTINUOUS
 62
   179
 10
1896.6649135546
 20
237.8371982923
 30
0.0
  0
VERTEX
  5
34A
  8
0
  6
CONTINUOUS
 62
   179
 10
1896.6684722398
 20
237.8670534559
 30
0.0
  0
VERTEX
  5
34B
  8
0
  6
CONTINUOUS
 62
   179
 10
1896.6710166433
 20
237.8969964929
 30
0.0
  0
VERTEX
  5
34C
  8
0
  6
CONTINUOUS
 62
   179
 10
1896.67254428
 20
237.9269981598
 30
0.0
  0
VERTEX
  5
34D
  8
0
  6
CONTINUOUS
 62
   179
 10
1896.6730536581
 20
237.957029156
 30
0.0
  0
VERTEX
  5
34E
  8
0
  6
CONTINUOUS
 62
   179
 10
1896.67254428
 20
237.9870601522
 30
0.0
  0
VERTEX
  5
34F
  8
0
  6
CONTINUOUS
 62
   179
 10
1896.6710166433
 20
238.0170618191
 30
0.0
  0
VERTEX
  5
350
  8
0
  6
CONTINUOUS
 62
   179
 10
1896.6684722398
 20
238.0470048561
 30
0.0
  0
VERTEX
  5
351
  8
0
  6
CONTINUOUS
 62
   179
 10
1896.6649135546
 20
238.0768600197
 30
0.0
  0
VERTEX
  5
352
  8
0
  6
CONTINUOUS
 62
   179
 10
1896.6603440631
 20
238.1065981525
 30
0.0
  0
VERTEX
  5
353
  8
0
  6
CONTINUOUS
 62
   179
 10
1896.6547682282
 20
238.136190211
 30
0.0
  0
VERTEX
  5
354
  8
0
  6
CONTINUOUS
 62
   179
 10
1896.6481914952
 20
238.1656072947
 30
0.0
  0
VERTEX
  5
355
  8
0
  6
CONTINUOUS
 62
   179
 10
1896.6406202874
 20
238.1948206739
 30
0.0
  0
VERTEX
  5
356
  8
0
  6
CONTINUOUS
 62
   179
 10
1896.632061999
 20
238.2238018177
 30
0.0
  0
VERTEX
  5
357
  8
0
  6
CONTINUOUS
 62
   179
 10
1896.6225249883
 20
238.2525224223
 30
0.0
  0
VERTEX
  5
358
  8
0
  6
CONTINUOUS
 62
   179
 10
1896.6120185694
 20
238.2809544381
 30
0.0
  0
VERTEX
  5
359
  8
0
  6
CONTINUOUS
 62
   179
 10
1896.6005530034
 20
238.3090700973
 30
0.0
  0
VERTEX
  5
35A
  8
0
  6
CONTINUOUS
 62
   179
 10
1896.5881394879
 20
238.3368419414
 30
0.0
  0
VERTEX
  5
35B
  8
0
  6
CONTINUOUS
 62
   179
 10
1896.5747901463
 20
238.3642428473
 30
0.0
  0
VERTEX
  5
35C
  8
0
  6
CONTINUOUS
 62
   179
 10
1896.5605180161
 20
238.3912460544
 30
0.0
  0
VERTEX
  5
35D
  8
0
  6
CONTINUOUS
 62
   179
 10
1896.5453370358
 20
238.4178251905
 30
0.0
  0
VERTEX
  5
35E
  8
0
  6
CONTINUOUS
 62
   179
 10
1896.5292620319
 20
238.4439542974
 30
0.0
  0
VERTEX
  5
35F
  8
0
  6
CONTINUOUS
 62
   179
 10
1896.5123087036
 20
238.4696078566
 30
0.0
  0
VERTEX
  5
360
  8
0
  6
CONTINUOUS
 62
   179
 10
1896.4944936082
 20
238.494760814
 30
0.0
  0
VERTEX
  5
361
  8
0
  6
CONTINUOUS
 62
   179
 10
1896.4758341445
 20
238.5193886042
 30
0.0
  0
VERTEX
  5
362
  8
0
  6
CONTINUOUS
 62
   179
 10
1896.456348536
 20
238.543467175
 30
0.0
  0
VERTEX
  5
363
  8
0
  6
CONTINUOUS
 62
   179
 10
1896.436055813
 20
238.5669730104
 30
0.0
  0
VERTEX
  5
364
  8
0
  6
CONTINUOUS
 62
   179
 10
1896.414975794
 20
238.5898831538
 30
0.0
  0
VERTEX
  5
365
  8
0
  6
CONTINUOUS
 62
   179
 10
1896.3931290666
 20
238.6121752304
 30
0.0
  0
VERTEX
  5
366
  8
0
  6
CONTINUOUS
 62
   179
 10
1896.3705369669
 20
238.6338274689
 30
0.0
  0
VERTEX
  5
367
  8
0
  6
CONTINUOUS
 62
   179
 10
1896.3472215592
 20
238.6548187231
 30
0.0
  0
VERTEX
  5
368
  8
0
  6
CONTINUOUS
 62
   179
 10
1896.3232056141
 20
238.6751284922
 30
0.0
  0
VERTEX
  5
369
  8
0
  6
CONTINUOUS
 62
   179
 10
1896.2985125865
 20
238.6947369409
 30
0.0
  0
VERTEX
  5
36A
  8
0
  6
CONTINUOUS
 62
   179
 10
1896.2731665923
 20
238.713624919
 30
0.0
  0
VERTEX
  5
36B
  8
0
  6
CONTINUOUS
 62
   179
 10
1896.2471923853
 20
238.7317739799
 30
0.0
  0
VERTEX
  5
36C
  8
0
  6
CONTINUOUS
 62
   179
 10
1896.2206153328
 20
238.7491663985
 30
0.0
  0
VERTEX
  5
36D
  8
0
  6
CONTINUOUS
 62
   179
 10
1896.193461391
 20
238.7657851888
 30
0.0
  0
VERTEX
  5
36E
  8
0
  6
CONTINUOUS
 62
   179
 10
1896.1657570792
 20
238.7816141204
 30
0.0
  0
VERTEX
  5
36F
  8
0
  6
CONTINUOUS
 62
   179
 10
1896.1375294544
 20
238.7966377341
 30
0.0
  0
VERTEX
  5
370
  8
0
  6
CONTINUOUS
 62
   179
 10
1896.1088060847
 20
238.8108413574
 30
0.0
  0
VERTEX
  5
371
  8
0
  6
CONTINUOUS
 62
   179
 10
1896.0796150223
 20
238.8242111185
 30
0.0
  0
VERTEX
  5
372
  8
0
  6
CONTINUOUS
 62
   179
 10
1896.0499847762
 20
238.8367339602
 30
0.0
  0
VERTEX
  5
373
  8
0
  6
CONTINUOUS
 62
   179
 10
1896.0199442843
 20
238.848397652
 30
0.0
  0
VERTEX
  5
374
  8
0
  6
CONTINUOUS
 62
   179
 10
1895.9895228852
 20
238.859190803
 30
0.0
  0
VERTEX
  5
375
  8
0
  6
CONTINUOUS
 62
   179
 10
1895.9587502895
 20
238.8691028721
 30
0.0
  0
VERTEX
  5
376
  8
0
  6
CONTINUOUS
 62
   179
 10
1895.9276565507
 20
238.8781241788
 30
0.0
  0
VERTEX
  5
377
  8
0
  6
CONTINUOUS
 62
   179
 10
1895.896272036
 20
238.8862459127
 30
0.0
  0
VERTEX
  5
378
  8
0
  6
CONTINUOUS
 62
   179
 10
1895.8646273967
 20
238.8934601418
 30
0.0
  0
VERTEX
  5
379
  8
0
  6
CONTINUOUS
 62
   179
 10
1895.8327535379
 20
238.8997598204
 30
0.0
  0
SEQEND
  5
397
  8
0
  6
CONTINUOUS
 62
   179
  0
TEXT
  5
DD
  8
0
  6
CONTINUOUS
 62
     7
 10
1562.0114618129
 20
91.681881459
 30
0.0
 40
25.9291666667
  1
4402
 41
0.7
 11
1562.0114618129
 21
82.5221424368
 31
0.0
 73
     1
  0
TEXT
  5
DE
  8
0
  6
CONTINUOUS
 62
     7
 10
1511.2192191476
 20
90.6798167072
 30
0.0
 40
12.6
  1
COD.
 41
0.7
 11
1511.2192191476
 21
86.228739927
 31
0.0
 73
     1
  0
TEXT
  5
DF
  8
0
  6
CONTINUOUS
 62
     7
 10
74.9598624928
 20
40.5138853118
 30
0.0
 40
12.6
  1
This document is the property of PEDRALI S.p.A. who willsafeguard its rights according to the civil and penal prevision of the Law.
 41
0.6438931298
 11
74.9598624928
 21
36.0628085316
 31
0.0
 73
     1
  0
INSERT
  5
E5
  8
0
  6
CONTINUOUS
 62
     7
  2
SW_NOTE_0
 10
1008.6024190629
 20
37.5069379129
 30
0.0
  0
TEXT
  5
E6
  8
0
  6
CONTINUOUS
 62
     7
 10
1511.2192191476
 20
152.2259702337
 30
0.0
 40
12.6
  1
SERIE:
 41
0.7
 11
1511.2192191476
 21
147.7748934535
 31
0.0
 73
     1
  0
TEXT
  5
E7
  8
0
  6
CONTINUOUS
 62
     7
 10
1562.0114618129
 20
153.2280349854
 30
0.0
 40
25.9291666667
  1
IKON
 41
0.7
 11
1562.0114618129
 21
144.0682959632
 31
0.0
 73
     1
  0
INSERT
  5
ED
  8
0
  6
CONTINUOUS
 62
     7
  2
SW_NOTE_1
 10
1936.8918143368
 20
169.8642489867
 30
0.0
  0
LINE
  5
EE
  8
0
  6
CONTINUOUS
 62
     7
 10
886.6117882427
 20
1341.4361517473
 30
0.0
 11
886.6117882427
 21
1332.9361517473
 31
0.0
  0
LINE
  5
EF
  8
0
  6
CONTINUOUS
 62
     7
 10
1210.9397820915
 20
1332.9361517473
 30
0.0
 11
1210.9397820915
 21
1341.4361517473
 31
0.0
  0
LINE
  5
F0
  8
0
  6
CONTINUOUS
 62
     7
 10
996.5676393139
 20
1318.342670827
 30
0.0
 11
996.6175535806
 21
1317.9361517473
 31
0.0
  0
LINE
  5
F1
  8
0
  6
CONTINUOUS
 62
     7
 10
1100.9340167535
 20
1317.9361517473
 30
0.0
 11
1100.9839310202
 21
1318.342670827
 31
0.0
  0
LINE
  5
F2
  8
0
  6
CONTINUOUS
 62
     7
 10
870.4757851671
 20
609.9361517473
 30
0.0
 11
870.4757851671
 21
614.9361517473
 31
0.0
  0
LINE
  5
F3
  8
0
  6
CONTINUOUS
 62
     7
 10
852.4757851671
 20
614.9361517473
 30
0.0
 11
852.4757851671
 21
609.9361517473
 31
0.0
  0
LINE
  5
F4
  8
0
  6
CONTINUOUS
 62
     7
 10
1245.0757851671
 20
609.9361517473
 30
0.0
 11
1245.0757851671
 21
614.9361517473
 31
0.0
  0
LINE
  5
F5
  8
0
  6
CONTINUOUS
 62
     7
 10
1227.0757851671
 20
614.9361517473
 30
0.0
 11
1227.0757851671
 21
609.9361517473
 31
0.0
  0
LINE
  5
F6
  8
0
  6
CONTINUOUS
 62
     7
 10
886.6117882427
 20
1332.9361517473
 30
0.0
 11
914.4388613137
 21
1332.9361517473
 31
0.0
  0
LINE
  5
F7
  8
0
  6
CONTINUOUS
 62
     7
 10
886.6117882427
 20
1341.4361517473
 30
0.0
 11
914.4388613137
 21
1341.4361517473
 31
0.0
  0
LINE
  5
F8
  8
0
  6
CONTINUOUS
 62
     7
 10
1183.1127090204
 20
1332.9361517473
 30
0.0
 11
1210.9397820915
 21
1332.9361517473
 31
0.0
  0
LINE
  5
F9
  8
0
  6
CONTINUOUS
 62
     7
 10
1183.1127090204
 20
1341.4361517473
 30
0.0
 11
1210.9397820915
 21
1341.4361517473
 31
0.0
  0
LINE
  5
FA
  8
0
  6
CONTINUOUS
 62
     7
 10
914.4388613137
 20
1332.9361517473
 30
0.0
 11
1023.2202472908
 21
1332.9361517473
 31
0.0
  0
LINE
  5
FB
  8
0
  6
CONTINUOUS
 62
     7
 10
914.4388613137
 20
1341.4361517473
 30
0.0
 11
1023.2202472908
 21
1341.4361517473
 31
0.0
  0
LINE
  5
FC
  8
0
  6
CONTINUOUS
 62
     7
 10
1074.3313230434
 20
1332.9361517473
 30
0.0
 11
1183.1127090204
 21
1332.9361517473
 31
0.0
  0
LINE
  5
FD
  8
0
  6
CONTINUOUS
 62
     7
 10
1074.3313230434
 20
1341.4361517473
 30
0.0
 11
1183.1127090204
 21
1341.4361517473
 31
0.0
  0
LINE
  5
FE
  8
0
  6
CONTINUOUS
 62
     7
 10
1007.7175535806
 20
1317.9361517473
 30
0.0
 11
1006.2893002182
 21
1317.9361517473
 31
0.0
  0
LINE
  5
FF
  8
0
  6
CONTINUOUS
 62
     7
 10
1091.262270116
 20
1317.9361517473
 30
0.0
 11
1089.8340167535
 21
1317.9361517473
 31
0.0
  0
LINE
  5
100
  8
0
  6
CONTINUOUS
 62
     7
 10
911.0570648252
 20
1332.9361517473
 30
0.0
 11
913.0421236556
 21
1324.9361517473
 31
0.0
  0
LINE
  5
101
  8
0
  6
CONTINUOUS
 62
     7
 10
1186.494505509
 20
1332.9361517473
 30
0.0
 11
1184.5094466786
 21
1324.9361517473
 31
0.0
  0
LINE
  5
102
  8
0
  6
CONTINUOUS
 62
     7
 10
1001.7173798183
 20
1317.9361517473
 30
0.0
 11
1006.2893002182
 21
1317.9361517473
 31
0.0
  0
LINE
  5
103
  8
0
  6
CONTINUOUS
 62
     7
 10
913.0421236556
 20
1324.9361517473
 30
0.0
 11
1001.7173798183
 21
1317.9361517473
 31
0.0
  0
LINE
  5
104
  8
0
  6
CONTINUOUS
 62
     7
 10
1095.8341905158
 20
1317.9361517473
 30
0.0
 11
1184.5094466786
 21
1324.9361517473
 31
0.0
  0
LINE
  5
105
  8
0
  6
CONTINUOUS
 62
     7
 10
1095.8341905158
 20
1317.9361517473
 30
0.0
 11
1091.262270116
 21
1317.9361517473
 31
0.0
  0
POLYLINE
  5
106
  8
0
  6
CONTINUOUS
 62
     7
 66
     1
 10
0.0
 20
0.0
 30
0.0
 70
   128
  0
VERTEX
  5
37A
  8
0
  6
CONTINUOUS
 62
     7
 10
1062.9447850731
 20
1332.9361517473
 30
0.0
  0
VERTEX
  5
37B
  8
0
  6
CONTINUOUS
 62
     7
 10
1063.4025540302
 20
1333.028527195
 30
0.0
  0
VERTEX
  5
37C
  8
0
  6
CONTINUOUS
 62
     7
 10
1063.6697107463
 20
1333.1665270669
 30
0.0
  0
VERTEX
  5
37D
  8
0
  6
CONTINUOUS
 62
     7
 10
1063.9141955364
 20
1333.3459739917
 30
0.0
  0
VERTEX
  5
37E
  8
0
  6
CONTINUOUS
 62
     7
 10
1064.3184526251
 20
1333.7513558483
 30
0.0
  0
VERTEX
  5
37F
  8
0
  6
CONTINUOUS
 62
     7
 10
1064.6666400649
 20
1334.2106115563
 30
0.0
  0
VERTEX
  5
380
  8
0
  6
CONTINUOUS
 62
     7
 10
1065.20387182
 20
1335.0939751531
 30
0.0
  0
VERTEX
  5
381
  8
0
  6
CONTINUOUS
 62
     7
 10
1065.659941686
 20
1336.0270230121
 30
0.0
  0
VERTEX
  5
382
  8
0
  6
CONTINUOUS
 62
     7
 10
1066.0559500719
 20
1336.991244583
 30
0.0
  0
VERTEX
  5
383
  8
0
  6
CONTINUOUS
 62
     7
 10
1066.4129973864
 20
1337.9681293156
 30
0.0
  0
VERTEX
  5
384
  8
0
  6
CONTINUOUS
 62
     7
 10
1066.9783024839
 20
1339.6925457502
 30
0.0
  0
VERTEX
  5
385
  8
0
  6
CONTINUOUS
 62
     7
 10
1067.480898049
 20
1341.4361517473
 30
0.0
  0
SEQEND
  5
398
  8
0
  6
CONTINUOUS
 62
     7
  0
POLYLINE
  5
107
  8
0
  6
CONTINUOUS
 62
     7
 66
     1
 10
0.0
 20
0.0
 30
0.0
 70
   128
  0
VERTEX
  5
386
  8
0
  6
CONTINUOUS
 62
     7
 10
1030.0706722852
 20
1341.4361517473
 30
0.0
  0
VERTEX
  5
387
  8
0
  6
CONTINUOUS
 62
     7
 10
1030.5117570718
 20
1339.8960866723
 30
0.0
  0
VERTEX
  5
388
  8
0
  6
CONTINUOUS
 62
     7
 10
1030.9994835928
 20
1338.3699741806
 30
0.0
  0
VERTEX
  5
389
  8
0
  6
CONTINUOUS
 62
     7
 10
1031.3680353311
 20
1337.3372022867
 30
0.0
  0
VERTEX
  5
38A
  8
0
  6
CONTINUOUS
 62
     7
 10
1031.7756675635
 20
1336.319384442
 30
0.0
  0
VERTEX
  5
38B
  8
0
  6
CONTINUOUS
 62
     7
 10
1032.4319106946
 20
1334.9535327013
 30
0.0
  0
VERTEX
  5
38C
  8
0
  6
CONTINUOUS
 62
     7
 10
1032.8390461171
 20
1334.2759610153
 30
0.0
  0
VERTEX
  5
38D
  8
0
  6
CONTINUOUS
 62
     7
 10
1033.3202112441
 20
1333.6534935468
 30
0.0
  0
VERTEX
  5
38E
  8
0
  6
CONTINUOUS
 62
     7
 10
1033.7881823737
 20
1333.2292878462
 30
0.0
  0
VERTEX
  5
38F
  8
0
  6
CONTINUOUS
 62
     7
 10
1034.2610876397
 20
1332.9889637045
 30
0.0
  0
VERTEX
  5
390
  8
0
  6
CONTINUOUS
 62
     7
 10
1034.606785261
 20
1332.9361517473
 30
0.0
  0
SEQEND
  5
399
  8
0
  6
CONTINUOUS
 62
     7
  0
LINE
  5
108
  8
0
  6
CONTINUOUS
 62
     7
 10
1073.9909990393
 20
1317.9361517473
 30
0.0
 11
1023.5605712948
 21
1317.9361517473
 31
0.0
  0
LINE
  5
109
  8
0
  6
CONTINUOUS
 62
     7
 10
1067.480898049
 20
1341.4361517473
 30
0.0
 11
1030.0706722852
 21
1341.4361517473
 31
0.0
  0
LINE
  5
10A
  8
0
  6
CONTINUOUS
 62
     7
 10
1062.9447850731
 20
1332.9361517473
 30
0.0
 11
1074.3313230434
 21
1332.9361517473
 31
0.0
  0
LINE
  5
10B
  8
0
  6
CONTINUOUS
 62
     7
 10
1067.480898049
 20
1341.4361517473
 30
0.0
 11
1074.3313230434
 21
1341.4361517473
 31
0.0
  0
LINE
  5
10C
  8
0
  6
CONTINUOUS
 62
     7
 10
1023.2202472908
 20
1332.9361517473
 30
0.0
 11
1034.606785261
 21
1332.9361517473
 31
0.0
  0
LINE
  5
10D
  8
0
  6
CONTINUOUS
 62
     7
 10
1023.2202472908
 20
1341.4361517473
 30
0.0
 11
1030.0706722852
 21
1341.4361517473
 31
0.0
  0
LINE
  5
10E
  8
0
  6
CONTINUOUS
 62
     7
 10
1023.5605712948
 20
1317.9361517473
 30
0.0
 11
1007.7175535806
 21
1317.9361517473
 31
0.0
  0
LINE
  5
10F
  8
0
  6
CONTINUOUS
 62
     7
 10
1089.8340167535
 20
1317.9361517473
 30
0.0
 11
1073.9909990393
 21
1317.9361517473
 31
0.0
  0
LINE
  5
110
  8
0
  6
CONTINUOUS
 62
     7
 10
1001.7173798183
 20
1317.9361517473
 30
0.0
 11
996.6175535806
 21
1317.9361517473
 31
0.0
  0
LINE
  5
111
  8
0
  6
CONTINUOUS
 62
     7
 10
1100.9340167535
 20
1317.9361517473
 30
0.0
 11
1095.8341905158
 21
1317.9361517473
 31
0.0
  0
LINE
  5
112
  8
0
  6
CONTINUOUS
 62
     7
 10
870.4757851671
 20
609.9361517473
 30
0.0
 11
852.4757851671
 21
609.9361517473
 31
0.0
  0
LINE
  5
113
  8
0
  6
CONTINUOUS
 62
     7
 10
1245.0757851671
 20
609.9361517473
 30
0.0
 11
1227.0757851671
 21
609.9361517473
 31
0.0
  0
LINE
  5
114
  8
0
  6
CONTINUOUS
 62
     7
 10
1023.7757851671
 20
1317.9361517473
 30
0.0
 11
1023.7757851671
 21
625.9361517473
 31
0.0
  0
LINE
  5
115
  8
0
  6
CONTINUOUS
 62
     7
 10
1073.7757851671
 20
1317.9361517473
 30
0.0
 11
1073.7757851671
 21
625.9361517473
 31
0.0
  0
LINE
  5
116
  8
0
  6
CONTINUOUS
 62
     7
 10
846.2757851671
 20
625.9361517473
 30
0.0
 11
846.2757851671
 21
614.9361517473
 31
0.0
  0
LINE
  5
117
  8
0
  6
CONTINUOUS
 62
     7
 10
846.2757851671
 20
625.9361517473
 30
0.0
 11
1251.2757851671
 21
625.9361517473
 31
0.0
  0
LINE
  5
118
  8
0
  6
CONTINUOUS
 62
     7
 10
1251.2757851671
 20
625.9361517473
 30
0.0
 11
1251.2757851671
 21
614.9361517473
 31
0.0
  0
LINE
  5
119
  8
0
  6
CONTINUOUS
 62
     7
 10
846.2757851671
 20
614.9361517473
 30
0.0
 11
1251.2757851671
 21
614.9361517473
 31
0.0
  0
LINE
  5
11A
  8
0
  6
CONTINUOUS
 62
     7
 10
914.4388613137
 20
176.8655360627
 30
0.0
 11
1023.2202472908
 21
279.5655148516
 31
0.0
  0
ARC
  5
11B
  8
0
  6
CONTINUOUS
 62
     7
 10
903.1117882427
 20
188.8633448477
 30
0.0
 40
16.50000000000004
 50
136.6471568054
 51
313.3528431946
  0
LINE
  5
11C
  8
0
  6
CONTINUOUS
 62
     7
 10
993.8139582466
 20
308.9718038959
 30
0.0
 11
891.1139794576
 21
200.1904179188
 31
0.0
  0
LINE
  5
11D
  8
0
  6
CONTINUOUS
 62
     7
 10
891.1139794576
 20
468.8642656255
 30
0.0
 11
993.8139582466
 21
360.0828796484
 31
0.0
  0
ARC
  5
11E
  8
0
  6
CONTINUOUS
 62
     7
 10
903.1117882427
 20
480.1913386966
 30
0.0
 40
16.5
 50
46.6471568054
 51
223.3528431946
  0
LINE
  5
11F
  8
0
  6
CONTINUOUS
 62
     7
 10
1023.2202472908
 20
389.4891686927
 30
0.0
 11
914.4388613137
 21
492.1891474816
 31
0.0
  0
LINE
  5
120
  8
0
  6
CONTINUOUS
 62
     7
 10
1183.1127090204
 20
492.1891474816
 30
0.0
 11
1074.3313230434
 21
389.4891686927
 31
0.0
  0
ARC
  5
121
  8
0
  6
CONTINUOUS
 62
     7
 10
1194.4397820915
 20
480.1913386966
 30
0.0
 40
16.50000000000012
 50
316.6471568054
 51
133.3528431946
  0
LINE
  5
122
  8
0
  6
CONTINUOUS
 62
     7
 10
1103.7376120876
 20
360.0828796484
 30
0.0
 11
1206.4375908765
 21
468.8642656255
 31
0.0
  0
LINE
  5
123
  8
0
  6
CONTINUOUS
 62
     7
 10
1206.4375908765
 20
200.1904179188
 30
0.0
 11
1103.7376120876
 21
308.9718038959
 31
0.0
  0
ARC
  5
124
  8
0
  6
CONTINUOUS
 62
     7
 10
1194.4397820915
 20
188.8633448477
 30
0.0
 40
16.49999999999996
 50
226.6471568054
 51
43.3528431946
  0
LINE
  5
125
  8
0
  6
CONTINUOUS
 62
     7
 10
1074.3313230434
 20
279.5655148516
 30
0.0
 11
1183.1127090204
 21
176.8655360627
 31
0.0
  0
ARC
  5
126
  8
0
  6
CONTINUOUS
 62
     7
 10
1031.4581186152
 20
270.8398357353
 30
0.0
 40
11.99999999999999
 50
96.6394174086
 51
133.3528431946
  0
ARC
  5
127
  8
0
  6
CONTINUOUS
 62
     7
 10
1112.463291204
 20
317.2096752203
 30
0.0
 40
12.00000000000003
 50
186.6394174086
 51
223.3528431946
  0
ARC
  5
128
  8
0
  6
CONTINUOUS
 62
     7
 10
985.0882791302
 20
351.845008324
 30
0.0
 40
12.00000000000003
 50
6.6394174086
 51
43.3528431946
  0
ARC
  5
129
  8
0
  6
CONTINUOUS
 62
     7
 10
1066.0934517189
 20
398.214847809
 30
0.0
 40
11.99999999999996
 50
276.6394174086
 51
313.3528431946
  0
ARC
  5
12A
  8
0
  6
CONTINUOUS
 62
     7
 10
1048.7757851671
 20
334.5273417722
 30
0.0
 40
55.04366876767469
 50
250.1339002467
 51
289.8660997533
  0
ARC
  5
12B
  8
0
  6
CONTINUOUS
 62
     7
 10
1066.0934517189
 20
270.8398357353
 30
0.0
 40
12.00000000000014
 50
46.6471568054
 51
83.3605825914
  0
ARC
  5
12C
  8
0
  6
CONTINUOUS
 62
     7
 10
985.0882791302
 20
317.2096752203
 30
0.0
 40
12.00000000000007
 50
316.6471568054
 51
353.3605825914
  0
ARC
  5
12D
  8
0
  6
CONTINUOUS
 62
     7
 10
1048.7757851671
 20
334.5273417722
 30
0.0
 40
55.04366876767476
 50
160.1339002467
 51
199.8660997533
  0
ARC
  5
12E
  8
0
  6
CONTINUOUS
 62
     7
 10
1112.463291204
 20
351.845008324
 30
0.0
 40
12.00000000000019
 50
136.6471568054
 51
173.3605825914
  0
ARC
  5
12F
  8
0
  6
CONTINUOUS
 62
     7
 10
1048.7757851671
 20
334.5273417722
 30
0.0
 40
55.04366876767469
 50
70.1339002467
 51
109.8660997533
  0
ARC
  5
130
  8
0
  6
CONTINUOUS
 62
     7
 10
1048.7757851671
 20
334.5273417722
 30
0.0
 40
55.04366876767476
 50
340.1339002467
 51
19.8660997533
  0
ARC
  5
131
  8
0
  6
CONTINUOUS
 62
     7
 10
1031.4581186152
 20
398.214847809
 30
0.0
 40
11.99999999999999
 50
226.6471568054
 51
263.3605825914
  0
LINE
  5
132
  8
0
  6
CONTINUOUS
 62
     7
 10
846.2757851671
 20
132.0273417722
 30
0.0
 11
1251.2757851671
 21
132.0273417722
 31
0.0
  0
LINE
  5
133
  8
0
  6
CONTINUOUS
 62
     7
 10
846.2757851671
 20
537.0273417722
 30
0.0
 11
846.2757851671
 21
132.0273417722
 31
0.0
  0
LINE
  5
134
  8
0
  6
CONTINUOUS
 62
     7
 10
1251.2757851671
 20
537.0273417722
 30
0.0
 11
846.2757851671
 21
537.0273417722
 31
0.0
  0
LINE
  5
135
  8
0
  6
CONTINUOUS
 62
     7
 10
1251.2757851671
 20
132.0273417722
 30
0.0
 11
1251.2757851671
 21
537.0273417722
 31
0.0
  0
ENDSEC
  0
EOF
