  0
SECTION
  2
HEADER
  9
$ACADVER
  1
AC1009
  9
$DWGCODEPAGE
  3
ansi_1252
  9
$INSBASE
 10
0.0
 20
0.0
 30
0.0
  9
$EXTMIN
 10
0.0
 20
0.0
 30
0.0
  9
$EXTMAX
 10
2376.0
 20
1680.0
 30
0.0
  9
$LIMMIN
 10
0.0
 20
0.0
  9
$LIMMAX
 10
2376.0
 20
1680.0
  9
$ORTHOMODE
 70
     0
  9
$REGENMODE
 70
     1
  9
$FILLMODE
 70
     1
  9
$QTEXTMODE
 70
     0
  9
$MIRRTEXT
 70
     1
  9
$DRAGMODE
 70
     2
  9
$LTSCALE
 40
8.0
  9
$OSMODE
 70
    37
  9
$ATTMODE
 70
     1
  9
$TEXTSIZE
 40
28.0
  9
$TRACEWID
 40
1.0
  9
$TEXTSTYLE
  7
STANDARD
  9
$CLAYER
  8
0
  9
$CELTYPE
  6
BYLAYER
  9
$CECOLOR
 62
   256
  9
$DIMSCALE
 40
1.0
  9
$DIMASZ
 40
20.0
  9
$DIMEXO
 40
0.0
  9
$DIMDLI
 40
3.75
  9
$DIMRND
 40
0.0
  9
$DIMDLE
 40
0.0
  9
$DIMEXE
 40
8.0
  9
$DIMTP
 40
0.0
  9
$DIMTM
 40
0.0
  9
$DIMTXT
 40
24.0
  9
$DIMCEN
 40
2.5
  9
$DIMTSZ
 40
0.0
  9
$DIMTOL
 70
     0
  9
$DIMLIM
 70
     0
  9
$DIMTIH
 70
     1
  9
$DIMTOH
 70
     1
  9
$DIMSE1
 70
     0
  9
$DIMSE2
 70
     0
  9
$DIMTAD
 70
     1
  9
$DIMZIN
 70
     0
  9
$DIMBLK
  1

  9
$DIMASO
 70
     1
  9
$DIMSHO
 70
     1
  9
$DIMPOST
  1

  9
$DIMAPOST
  1

  9
$DIMALT
 70
     0
  9
$DIMALTD
 70
     3
  9
$DIMALTF
 40
0.0393700787
  9
$DIMLFAC
 40
1.0
  9
$DIMTOFL
 70
     1
  9
$DIMTVP
 40
0.0
  9
$DIMTIX
 70
     0
  9
$DIMSOXD
 70
     0
  9
$DIMSAH
 70
     0
  9
$DIMBLK1
  1

  9
$DIMBLK2
  1

  9
$DIMSTYLE
  2
ISO-25
  9
$DIMCLRD
 70
     0
  9
$DIMCLRE
 70
     0
  9
$DIMCLRT
 70
     0
  9
$DIMTFAC
 40
1.0
  9
$DIMGAP
 40
12.0
  9
$LUNITS
 70
     2
  9
$LUPREC
 70
     2
  9
$SKETCHINC
 40
1.0
  9
$FILLETRAD
 40
10.0
  9
$AUNITS
 70
     0
  9
$AUPREC
 70
     2
  9
$MENU
  1
.
  9
$ELEVATION
 40
0.0
  9
$PELEVATION
 40
0.0
  9
$THICKNESS
 40
0.0
  9
$LIMCHECK
 70
     0
  9
$CHAMFERA
 40
0.0
  9
$CHAMFERB
 40
0.0
  9
$SKPOLY
 70
     0
  9
$TDCREATE
 40
2457162.427629549
  9
$TDUPDATE
 40
2457162.427630023
  9
$TDINDWG
 40
0.0000000116
  9
$TDUSRTIMER
 40
0.0000000116
  9
$USRTIMER
 70
     1
  9
$ANGBASE
 50
0.0
  9
$ANGDIR
 70
     0
  9
$PDMODE
 70
     0
  9
$PDSIZE
 40
-1.0
  9
$PLINEWID
 40
0.0
  9
$COORDS
 70
     1
  9
$SPLFRAME
 70
     0
  9
$SPLINETYPE
 70
     6
  9
$SPLINESEGS
 70
     8
  9
$ATTDIA
 70
     0
  9
$ATTREQ
 70
     1
  9
$HANDLING
 70
     1
  9
$HANDSEED
  5
3BA
  9
$SURFTAB1
 70
     6
  9
$SURFTAB2
 70
     6
  9
$SURFTYPE
 70
     6
  9
$SURFU
 70
     6
  9
$SURFV
 70
     6
  9
$UCSNAME
  2

  9
$UCSORG
 10
0.0
 20
0.0
 30
0.0
  9
$UCSXDIR
 10
1.0
 20
0.0
 30
0.0
  9
$UCSYDIR
 10
0.0
 20
1.0
 30
0.0
  9
$PUCSNAME
  2

  9
$PUCSORG
 10
0.0
 20
0.0
 30
0.0
  9
$PUCSXDIR
 10
1.0
 20
0.0
 30
0.0
  9
$PUCSYDIR
 10
0.0
 20
1.0
 30
0.0
  9
$USERI1
 70
     0
  9
$USERI2
 70
     0
  9
$USERI3
 70
     0
  9
$USERI4
 70
     0
  9
$USERI5
 70
     0
  9
$USERR1
 40
0.0
  9
$USERR2
 40
0.0
  9
$USERR3
 40
0.0
  9
$USERR4
 40
0.0
  9
$USERR5
 40
0.0
  9
$WORLDVIEW
 70
     1
  9
$SHADEDGE
 70
     3
  9
$SHADEDIF
 70
    70
  9
$TILEMODE
 70
     1
  9
$MAXACTVP
 70
    64
  9
$PLIMCHECK
 70
     0
  9
$PEXTMIN
 10
1.0000000000E+20
 20
1.0000000000E+20
 30
1.0000000000E+20
  9
$PEXTMAX
 10
-1.0000000000E+20
 20
-1.0000000000E+20
 30
-1.0000000000E+20
  9
$PLIMMIN
 10
0.0
 20
0.0
  9
$PLIMMAX
 10
420.0
 20
297.0
  9
$UNITMODE
 70
     0
  9
$VISRETAIN
 70
     1
  9
$PLINEGEN
 70
     0
  9
$PSLTSCALE
 70
     1
  0
ENDSEC
  0
SECTION
  2
TABLES
  0
TABLE
  2
VPORT
 70
     1
  0
VPORT
  2
*ACTIVE
 70
     0
 10
0.0
 20
0.0
 11
1.0
 21
1.0
 12
1188.0
 22
840.0
 13
0.0
 23
0.0
 14
10.0
 24
10.0
 15
10.0
 25
10.0
 16
0.0
 26
0.0
 36
1.0
 17
0.0
 27
0.0
 37
0.0
 40
1680.0
 41
1.4142857143
 42
50.0
 43
0.0
 44
0.0
 50
0.0
 51
0.0
 71
     0
 72
  2000
 73
     1
 74
     3
 75
     0
 76
     0
 77
     0
 78
     0
  0
ENDTAB
  0
TABLE
  2
LTYPE
 70
     6
  0
LTYPE
  2
CONTINUOUS
 70
     0
  3
Solid line
 72
    65
 73
     0
 40
0.0
  0
LTYPE
  2
HIDDEN
 70
     0
  3
Hidden __ __ __ __ __ __ __ __ __ __ __ __ __ __
 72
    65
 73
     2
 40
1.905
 49
1.27
 49
-0.635
  0
LTYPE
  2
PHANTOM
 70
     0
  3
Phantom ______  __  __  ______  __  __  ______
 72
    65
 73
     6
 40
12.7
 49
6.35
 49
-1.27
 49
1.27
 49
-1.27
 49
1.27
 49
-1.27
  0
LTYPE
  2
CENTER
 70
     0
  3
Center ____ _ ____ _ ____ _ ____ _ ____ _ ____
 72
    65
 73
     4
 40
10.16
 49
6.35
 49
-1.27
 49
1.27
 49
-1.27
  0
LTYPE
  2
CENTERX2
 70
     0
  3
Center (2x) ________  __  ________  __  _____
 72
    65
 73
     4
 40
20.32
 49
12.7
 49
-2.54
 49
2.54
 49
-2.54
  0
LTYPE
  2
DOT2
 70
     0
  3
Dot (.5x) ........................................
 72
    65
 73
     2
 40
0.635
 49
0.0
 49
-0.635
  0
ENDTAB
  0
TABLE
  2
LAYER
 70
     2
  0
LAYER
  2
0
 70
     0
 62
     7
  6
CONTINUOUS
  0
LAYER
  2
FORMAT
 70
     0
 62
     7
  6
CONTINUOUS
  0
ENDTAB
  0
TABLE
  2
STYLE
 70
     1
  0
STYLE
  2
STANDARD
 70
     0
 40
0.0
 41
1.0
 50
0.0
 71
     0
 42
28.0
  3
txt
  4

  0
ENDTAB
  0
TABLE
  2
VIEW
 70
     0
  0
ENDTAB
  0
TABLE
  2
UCS
 70
     0
  0
ENDTAB
  0
TABLE
  2
APPID
 70
     1
  0
APPID
  2
ACAD
 70
     0
  0
ENDTAB
  0
TABLE
  2
DIMSTYLE
 70
     1
  0
DIMSTYLE
  2
ISO-25
 70
     0
  3

  4

  5

  6

  7

 40
1.0
 41
2.5
 42
0.625
 43
3.75
 44
1.25
 45
0.0
 46
0.0
 47
0.0
 48
0.0
140
2.5
141
2.5
142
0.0
143
0.0393700787
144
1.0
145
0.0
146
1.0
147
0.625
 71
     0
 72
     0
 73
     0
 74
     0
 75
     0
 76
     0
 77
     1
 78
     8
170
     0
171
     3
172
     1
173
     0
174
     0
175
     0
176
     0
177
     0
178
     0
  0
ENDTAB
  0
ENDSEC
  0
SECTION
  2
BLOCKS
  0
BLOCK
  8
0
  2
$MODEL_SPACE
 70
     0
 10
0.0
 20
0.0
 30
0.0
  3
$MODEL_SPACE
  1

  0
ENDBLK
  5
21
  8
0
  0
BLOCK
 67
     1
  8
0
  2
$PAPER_SPACE
 70
     0
 10
0.0
 20
0.0
 30
0.0
  3
$PAPER_SPACE
  1

  0
ENDBLK
  5
1D
 67
     1
  8
0
  0
BLOCK
  8
0
  2
SW_NOTE_0
 70
     0
 10
0.0
 20
0.0
 30
0.0
  3
SW_NOTE_0
  1

  0
TEXT
  5
E3
  8
0
  6
CONTINUOUS
 62
     0
 10
0.0
 20
5.0869448916
 30
0.0
 40
14.4
  1
Questo disegno e posto sotto la tutela delle vigenti Leggi e non puo essere utilizzato da terze persone se non previa autorizzazione scritta della PEDRALI
 41
0.6454545455
 11
0.0
 21
0.0
 31
0.0
 73
     1
  0
TEXT
  5
E4
  8
0
  6
CONTINUOUS
 62
     0
 10
1079.917550087
 20
5.0869448916
 30
0.0
 40
14.4
  1
 S.p.A.
 41
0.7
 11
1079.917550087
 21
0.0
 31
0.0
 73
     1
  0
ENDBLK
  5
E2
  8
0
  0
BLOCK
  8
0
  2
SW_NOTE_1
 70
     0
 10
0.0
 20
0.0
 30
0.0
  3
SW_NOTE_1
  1

  0
TEXT
  5
EB
  8
0
  6
CONTINUOUS
 62
     0
 10
0.0
 20
5.0869448916
 30
0.0
 40
14.4
  1
SCALA 
 41
0.7
 11
0.0
 21
0.0
 31
0.0
 73
     1
  0
TEXT
  5
EC
  8
0
  6
CONTINUOUS
 62
     0
 10
5.3368415684
 20
-29.0428374654
 30
0.0
 40
29.6333333333
  1
1:1
 41
0.7
 11
5.3368415684
 21
-39.5111106336
 31
0.0
 73
     1
  0
ENDBLK
  5
EA
  8
0
  0
ENDSEC
  0
SECTION
  2
ENTITIES
  0
LINE
  5
70
  8
0
  6
CONTINUOUS
 62
     7
 10
2296.0
 20
80.0
 30
0.0
 11
2296.0
 21
1600.0
 31
0.0
  0
LINE
  5
71
  8
0
  6
CONTINUOUS
 62
   179
 10
1859.191934649
 20
275.6779247193
 30
0.0
 11
1859.191934649
 21
243.8936777532
 31
0.0
  0
LINE
  5
72
  8
0
  6
CONTINUOUS
 62
   179
 10
1859.191934649
 20
275.6779247193
 30
0.0
 11
1885.3183286982
 21
275.6779247193
 31
0.0
  0
LINE
  5
73
  8
0
  6
CONTINUOUS
 62
   179
 10
1859.191934649
 20
243.8936777532
 30
0.0
 11
1872.1945811362
 21
243.8936777532
 31
0.0
  0
LINE
  5
74
  8
0
  6
CONTINUOUS
 62
   179
 10
1872.1945811362
 20
243.8936777532
 30
0.0
 11
1872.1945811362
 21
255.4515857398
 31
0.0
  0
LINE
  5
75
  8
0
  6
CONTINUOUS
 62
   179
 10
1885.318328698
 20
255.4515857398
 30
0.0
 11
1872.1945811362
 21
255.4515857398
 31
0.0
  0
LINE
  5
76
  8
0
  6
CONTINUOUS
 62
   179
 10
1872.1945811359
 20
261.230539734
 30
0.0
 11
1872.1945811359
 21
269.898970725
 31
0.0
  0
LINE
  5
77
  8
0
  6
CONTINUOUS
 62
   179
 10
1872.1945811359
 20
269.898970725
 30
0.0
 11
1882.3391047848
 21
269.898970725
 31
0.0
  0
LINE
  5
78
  8
0
  6
CONTINUOUS
 62
   179
 10
1872.1945811359
 20
261.230539734
 30
0.0
 11
1882.3391047843
 21
261.230539734
 31
0.0
  0
LINE
  5
79
  8
0
  6
CONTINUOUS
 62
   179
 10
1905.423566603
 20
275.677924718
 30
0.0
 11
1948.7657215585
 21
275.677924718
 31
0.0
  0
LINE
  5
7A
  8
0
  6
CONTINUOUS
 62
   179
 10
1948.7657215585
 20
275.677924718
 30
0.0
 11
1948.7657215585
 21
269.8989707234
 31
0.0
  0
LINE
  5
7B
  8
0
  6
CONTINUOUS
 62
   179
 10
1948.7657215585
 20
269.8989707234
 30
0.0
 11
1919.8709515881
 21
269.8989707234
 31
0.0
  0
LINE
  5
7C
  8
0
  6
CONTINUOUS
 62
   179
 10
1919.8709515881
 20
269.8989707234
 30
0.0
 11
1919.8709515881
 21
262.6752782309
 31
0.0
  0
LINE
  5
7D
  8
0
  6
CONTINUOUS
 62
   179
 10
1919.8709515881
 20
262.6752782309
 30
0.0
 11
1945.8762445626
 21
262.6752782309
 31
0.0
  0
LINE
  5
7E
  8
0
  6
CONTINUOUS
 62
   179
 10
1945.8762445626
 20
262.6752782309
 30
0.0
 11
1945.8762445626
 21
256.8963242363
 31
0.0
  0
LINE
  5
7F
  8
0
  6
CONTINUOUS
 62
   179
 10
1945.8762445626
 20
256.8963242363
 30
0.0
 11
1919.8709515881
 21
256.8963242363
 31
0.0
  0
LINE
  5
80
  8
0
  6
CONTINUOUS
 62
   179
 10
1919.8709515881
 20
256.8963242363
 30
0.0
 11
1919.8709515881
 21
249.6726317437
 31
0.0
  0
LINE
  5
81
  8
0
  6
CONTINUOUS
 62
   179
 10
1919.8709515881
 20
249.6726317437
 30
0.0
 11
1948.7657215585
 21
249.6726317437
 31
0.0
  0
LINE
  5
82
  8
0
  6
CONTINUOUS
 62
   179
 10
1948.7657215585
 20
249.6726317437
 30
0.0
 11
1948.7657215585
 21
243.8936777519
 31
0.0
  0
LINE
  5
83
  8
0
  6
CONTINUOUS
 62
   179
 10
1948.7657215585
 20
243.8936777519
 30
0.0
 11
1905.423566603
 21
243.8936777519
 31
0.0
  0
LINE
  5
84
  8
0
  6
CONTINUOUS
 62
   179
 10
1951.6551985573
 20
275.6779247181
 30
0.0
 11
1951.6551985573
 21
243.8936777501
 31
0.0
  0
LINE
  5
85
  8
0
  6
CONTINUOUS
 62
   179
 10
1951.6551985573
 20
275.6779247181
 30
0.0
 11
1977.6572208013
 21
275.6779247181
 31
0.0
  0
LINE
  5
86
  8
0
  6
CONTINUOUS
 62
   179
 10
1977.6572208014
 20
243.8936777501
 30
0.0
 11
1951.6551985573
 21
243.8936777501
 31
0.0
  0
LINE
  5
87
  8
0
  6
CONTINUOUS
 62
   179
 10
1964.6578450425
 20
259.7858012323
 30
0.0
 11
1964.6578450425
 21
251.1173702418
 31
0.0
  0
LINE
  5
88
  8
0
  6
CONTINUOUS
 62
   179
 10
1964.6578450425
 20
251.1173702418
 30
0.0
 11
1978.3577382144
 21
251.1173702418
 31
0.0
  0
LINE
  5
89
  8
0
  6
CONTINUOUS
 62
   179
 10
1964.6578450425
 20
259.7858012323
 30
0.0
 11
1964.6578450425
 21
268.4542322262
 31
0.0
  0
LINE
  5
8A
  8
0
  6
CONTINUOUS
 62
   179
 10
1964.6578450425
 20
268.4542322262
 30
0.0
 11
1978.3577382144
 21
268.4542322262
 31
0.0
  0
LINE
  5
8B
  8
0
  6
CONTINUOUS
 62
   179
 10
2003.6657845035
 20
275.6779247204
 30
0.0
 11
2003.6657845035
 21
243.8936777543
 31
0.0
  0
LINE
  5
8C
  8
0
  6
CONTINUOUS
 62
     7
 10
2183.0391958006
 20
224.0000000003
 30
0.0
 11
2183.0391958006
 21
152.0000000002
 31
0.0
  0
LINE
  5
8D
  8
0
  6
CONTINUOUS
 62
   179
 10
2003.6657845035
 20
243.8936777543
 30
0.0
 11
2016.6684309906
 21
243.8936777543
 31
0.0
  0
LINE
  5
8E
  8
0
  6
CONTINUOUS
 62
   179
 10
2016.6684309906
 20
243.8936777543
 30
0.0
 11
2016.6684309906
 21
255.4515857407
 31
0.0
  0
LINE
  5
8F
  8
0
  6
CONTINUOUS
 62
   179
 10
2016.6684309906
 20
255.4515857407
 30
0.0
 11
2031.1158159759
 21
255.4515857407
 31
0.0
  0
LINE
  5
90
  8
0
  6
CONTINUOUS
 62
   179
 10
2036.8947699705
 20
249.6726317461
 30
0.0
 11
2036.8947699705
 21
243.8936777535
 31
0.0
  0
LINE
  5
91
  8
0
  6
CONTINUOUS
 62
   179
 10
2016.6684309902
 20
261.2305397338
 30
0.0
 11
2016.6684309902
 21
269.8989707255
 31
0.0
  0
LINE
  5
92
  8
0
  6
CONTINUOUS
 62
   179
 10
2016.6684309902
 20
269.8989707255
 30
0.0
 11
2030.7825379349
 21
269.8989707255
 31
0.0
  0
LINE
  5
93
  8
0
  6
CONTINUOUS
 62
   179
 10
2016.6684309902
 20
261.2305397338
 30
0.0
 11
2030.7825379349
 21
261.2305397338
 31
0.0
  0
LINE
  5
94
  8
0
  6
CONTINUOUS
 62
   179
 10
2047.0961617541
 20
251.8167663669
 30
0.0
 11
2048.2844277206
 21
247.1741235346
 31
0.0
  0
LINE
  5
95
  8
0
  6
CONTINUOUS
 62
     7
 10
2296.0
 20
1600.0
 30
0.0
 11
80.0
 21
1600.0
 31
0.0
  0
LINE
  5
96
  8
0
  6
CONTINUOUS
 62
     7
 10
2183.0391958006
 20
152.0000000002
 30
0.0
 11
2183.0391958006
 21
80.0
 31
0.0
  0
LINE
  5
97
  8
0
  6
CONTINUOUS
 62
     7
 10
80.0
 20
1600.0
 30
0.0
 11
80.0
 21
80.0
 31
0.0
  0
LINE
  5
98
  8
0
  6
CONTINUOUS
 62
     7
 10
1720.0
 20
296.0000000005
 30
0.0
 11
2296.0
 21
296.0000000005
 31
0.0
  0
LINE
  5
99
  8
0
  6
CONTINUOUS
 62
    19
 10
2236.2307301471
 20
128.2230434476
 30
0.0
 11
2210.7346130497
 21
123.2654651231
 31
0.0
  0
LINE
  5
9A
  8
0
  6
CONTINUOUS
 62
    19
 10
2257.0804681217
 20
132.3905259126
 30
0.0
 11
2257.0804681217
 21
99.9048240944
 31
0.0
  0
LINE
  5
9B
  8
0
  6
CONTINUOUS
 62
    19
 10
2236.2307301471
 20
128.2230434476
 30
0.0
 11
2236.2307301471
 21
104.0723065593
 31
0.0
  0
LINE
  5
9C
  8
0
  6
CONTINUOUS
 62
     7
 10
80.0
 20
80.0
 30
0.0
 11
2296.0
 21
80.0
 31
0.0
  0
LINE
  5
9D
  8
0
  6
CONTINUOUS
 62
    19
 10
2210.7346130497
 20
123.2654651231
 30
0.0
 11
2210.7346130497
 21
109.0298848838
 31
0.0
  0
LINE
  5
9E
  8
0
  6
CONTINUOUS
 62
   179
 10
2036.8947699705
 20
243.8936777535
 30
0.0
 11
2061.4553244474
 21
243.8936777535
 31
0.0
  0
LINE
  5
9F
  8
0
  6
CONTINUOUS
 62
    19
 10
2236.2307301471
 20
104.0723065593
 30
0.0
 11
2210.7346130497
 21
109.0298848838
 31
0.0
  0
LINE
  5
A0
  8
0
  6
CENTERX2
 62
    19
 10
2271.1365699399
 20
116.1476750035
 30
0.0
 11
2207.5614952514
 21
116.1476750035
 31
0.0
  0
LINE
  5
A1
  8
0
  6
CONTINUOUS
 62
   179
 10
2003.6657845035
 20
275.6779247204
 30
0.0
 11
2033.6154066446
 21
275.6779247204
 31
0.0
  0
LINE
  5
A2
  8
0
  6
CONTINUOUS
 62
   179
 10
1905.423566603
 20
275.677924718
 30
0.0
 11
1905.423566603
 21
243.8936777519
 31
0.0
  0
LINE
  5
A3
  8
0
  6
CONTINUOUS
 62
   179
 10
2067.234278442
 20
275.6779247197
 30
0.0
 11
2081.6816634271
 21
275.6779247197
 31
0.0
  0
LINE
  5
A4
  8
0
  6
CONTINUOUS
 62
   179
 10
2067.234278442
 20
275.6779247197
 30
0.0
 11
2048.5661159023
 21
246.3422407313
 31
0.0
  0
LINE
  5
A5
  8
0
  6
CONTINUOUS
 62
   179
 10
2061.4553244474
 20
243.8936777535
 30
0.0
 11
2064.7059860691
 21
249.6726317454
 31
0.0
  0
LINE
  5
A6
  8
0
  6
CONTINUOUS
 62
   179
 10
2074.4579709339
 20
267.0094937275
 30
0.0
 11
2080.9592941775
 21
255.4515857383
 31
0.0
  0
LINE
  5
A7
  8
0
  6
CONTINUOUS
 62
   179
 10
2067.9566476903
 20
255.4515857383
 30
0.0
 11
2074.4579709339
 21
267.0094937275
 31
0.0
  0
LINE
  5
A8
  8
0
  6
CONTINUOUS
 62
   179
 10
2067.9566476903
 20
255.4515857383
 30
0.0
 11
2080.9592941775
 21
255.4515857383
 31
0.0
  0
LINE
  5
A9
  8
0
  6
CONTINUOUS
 62
   179
 10
2064.7059860691
 20
249.6726317454
 30
0.0
 11
2084.2099558
 21
249.6726317454
 31
0.0
  0
LINE
  5
AA
  8
0
  6
CONTINUOUS
 62
   179
 10
2084.2099558
 20
249.6726317454
 30
0.0
 11
2087.4606174217
 21
243.8936777535
 31
0.0
  0
LINE
  5
AB
  8
0
  6
CONTINUOUS
 62
   179
 10
2101.9080024069
 20
275.6779247197
 30
0.0
 11
2101.9080024069
 21
243.8936777535
 31
0.0
  0
LINE
  5
AC
  8
0
  6
CONTINUOUS
 62
   179
 10
2081.6816634271
 20
275.6779247197
 30
0.0
 11
2101.9080024069
 21
243.8936777535
 31
0.0
  0
LINE
  5
AD
  8
0
  6
CONTINUOUS
 62
   179
 10
2087.4606174217
 20
243.8936777535
 30
0.0
 11
2101.9080024069
 21
243.8936777535
 31
0.0
  0
LINE
  5
AE
  8
0
  6
CONTINUOUS
 62
   179
 10
2101.9080024069
 20
243.8936777535
 30
0.0
 11
2140.9159418685
 21
243.8936777535
 31
0.0
  0
LINE
  5
AF
  8
0
  6
CONTINUOUS
 62
   179
 10
2140.9159418685
 20
243.8936777535
 30
0.0
 11
2140.9159418685
 21
251.1173702461
 31
0.0
  0
LINE
  5
B0
  8
0
  6
CONTINUOUS
 62
   179
 10
2140.9159418685
 20
251.1173702461
 30
0.0
 11
2116.355387392
 21
251.1173702461
 31
0.0
  0
LINE
  5
B1
  8
0
  6
CONTINUOUS
 62
   179
 10
2116.355387392
 20
251.1173702461
 30
0.0
 11
2116.355387392
 21
275.6779247197
 31
0.0
  0
LINE
  5
B2
  8
0
  6
CONTINUOUS
 62
   179
 10
2101.9080024069
 20
275.6779247197
 30
0.0
 11
2116.355387392
 21
275.6779247197
 31
0.0
  0
LINE
  5
B3
  8
0
  6
CONTINUOUS
 62
   179
 10
2142.3606803659
 20
275.6779247193
 30
0.0
 11
2142.3606803659
 21
243.8936777532
 31
0.0
  0
LINE
  5
B4
  8
0
  6
CONTINUOUS
 62
   179
 10
2156.808065351
 20
275.6779247193
 30
0.0
 11
2156.808065351
 21
243.8936777532
 31
0.0
  0
LINE
  5
B5
  8
0
  6
CONTINUOUS
 62
   179
 10
2142.3606803659
 20
275.6779247193
 30
0.0
 11
2156.808065351
 21
275.6779247193
 31
0.0
  0
LINE
  5
B6
  8
0
  6
CONTINUOUS
 62
   179
 10
2142.3606803659
 20
243.8936777532
 30
0.0
 11
2156.808065351
 21
243.8936777532
 31
0.0
  0
LINE
  5
B7
  8
0
  6
CONTINUOUS
 62
   179
 10
2163.2921315393
 20
273.0344443383
 30
0.0
 11
2166.6293503871
 21
273.0344443383
 31
0.0
  0
LINE
  5
B8
  8
0
  6
CONTINUOUS
 62
   179
 10
2166.6293503871
 20
270.8673365898
 30
0.0
 11
2163.2921315393
 21
270.8673365898
 31
0.0
  0
LINE
  5
B9
  8
0
  6
CONTINUOUS
 62
   179
 10
2163.2921315393
 20
270.8673365898
 30
0.0
 11
2163.2921315393
 21
273.0344443383
 31
0.0
  0
LINE
  5
BA
  8
0
  6
CONTINUOUS
 62
   179
 10
2163.2921315393
 20
270.8673365898
 30
0.0
 11
2165.4592392862
 21
270.8673365898
 31
0.0
  0
LINE
  5
BB
  8
0
  6
CONTINUOUS
 62
   179
 10
2163.2921315393
 20
270.8673365898
 30
0.0
 11
2163.2921315393
 21
267.6166749694
 31
0.0
  0
LINE
  5
BC
  8
0
  6
CONTINUOUS
 62
   179
 10
2167.6263470331
 20
267.6166749694
 30
0.0
 11
2165.4592392862
 21
270.8673365898
 31
0.0
  0
LINE
  5
BD
  8
0
  6
CONTINUOUS
 62
     7
 10
1720.0
 20
152.0000000002
 30
0.0
 11
2296.0
 21
152.0000000002
 31
0.0
  0
LINE
  5
BE
  8
0
  6
CONTINUOUS
 62
     7
 10
2296.0
 20
224.0000000003
 30
0.0
 11
1720.0
 21
224.0000000003
 31
0.0
  0
LINE
  5
BF
  8
0
  6
CONTINUOUS
 62
     7
 10
80.0
 20
440.0
 30
0.0
 11
80.0
 21
520.0
 31
0.0
  0
LINE
  5
C0
  8
0
  6
CONTINUOUS
 62
     7
 10
80.0
 20
520.0
 30
0.0
 11
80.0
 21
600.0
 31
0.0
  0
LINE
  5
C1
  8
0
  6
CONTINUOUS
 62
     7
 10
80.0
 20
600.0
 30
0.0
 11
80.0
 21
680.0
 31
0.0
  0
LINE
  5
C2
  8
0
  6
CONTINUOUS
 62
     7
 10
80.0
 20
680.0
 30
0.0
 11
80.0
 21
760.0
 31
0.0
  0
LINE
  5
C3
  8
0
  6
CONTINUOUS
 62
     7
 10
80.0
 20
760.0
 30
0.0
 11
80.0
 21
840.0
 31
0.0
  0
LINE
  5
C4
  8
0
  6
CONTINUOUS
 62
     7
 10
80.0
 20
840.0
 30
0.0
 11
80.0
 21
920.0
 31
0.0
  0
LINE
  5
C5
  8
0
  6
CONTINUOUS
 62
     7
 10
80.0
 20
920.0
 30
0.0
 11
80.0
 21
1000.0
 31
0.0
  0
LINE
  5
C6
  8
0
  6
CONTINUOUS
 62
     7
 10
80.0
 20
1000.0
 30
0.0
 11
80.0
 21
1080.0
 31
0.0
  0
LINE
  5
C7
  8
0
  6
CONTINUOUS
 62
     7
 10
80.0
 20
1080.0
 30
0.0
 11
80.0
 21
1160.0
 31
0.0
  0
LINE
  5
C8
  8
0
  6
CONTINUOUS
 62
     7
 10
80.0
 20
1160.0
 30
0.0
 11
80.0
 21
1240.0
 31
0.0
  0
LINE
  5
C9
  8
0
  6
CONTINUOUS
 62
     7
 10
1720.0
 20
296.0000000005
 30
0.0
 11
1720.0
 21
80.0
 31
0.0
  0
ARC
  5
CA
  8
0
  6
CONTINUOUS
 62
   179
 10
1882.3391047848
 20
264.1200167324
 30
0.0
 40
5.77895399265292
 50
69.991210111
 51
90.0
  0
ARC
  5
CB
  8
0
  6
CONTINUOUS
 62
   179
 10
1882.3391047843
 20
267.009493728
 30
0.0
 40
5.778953994035305
 50
270.0
 51
290.0087898887
  0
ARC
  5
CC
  8
0
  6
CONTINUOUS
 62
   179
 10
1978.3577382144
 20
259.7858012337
 30
0.0
 40
8.668430992414983
 50
56.1685552524
 51
90.0
  0
ARC
  5
CD
  8
0
  6
CONTINUOUS
 62
   179
 10
1978.3577382144
 20
259.7858012337
 30
0.0
 40
8.668430991984229
 50
270.0
 51
303.830934914
  0
ARC
  5
CE
  8
0
  6
CONTINUOUS
 62
   179
 10
2031.1158159759
 20
249.6726317461
 30
0.0
 40
5.778953994595668
 50
0.0
 51
90.0
  0
ARC
  5
CF
  8
0
  6
CONTINUOUS
 62
   179
 10
2030.7825379349
 20
265.5647552299
 30
0.0
 40
4.334215495554815
 50
54.413089495
 51
90.0
  0
ARC
  5
D0
  8
0
  6
CONTINUOUS
 62
   179
 10
2030.7825379349
 20
265.5647552299
 30
0.0
 40
4.334215496171737
 50
270.0
 51
305.5869104966
  0
ARC
  5
D1
  8
0
  6
CONTINUOUS
 62
   179
 10
2039.2300679437
 20
250.3702368567
 30
0.0
 40
7.99799221420502
 50
10.4199484279
 51
80.7321727594
  0
ARC
  5
D2
  8
0
  6
CONTINUOUS
 62
   179
 10
2052.3628533101
 20
248.0915071739
 30
0.0
 40
4.180328698874916
 50
192.6768785101
 51
204.7368873207
  0
CIRCLE
  5
D3
  8
0
  6
CONTINUOUS
 62
   179
 10
2165.0291366894
 20
270.2940557868
 30
0.0
 40
4.74408171618461
  0
CIRCLE
  5
D4
  8
0
  6
CONTINUOUS
 62
    19
 10
2257.0804681217
 20
116.1476750035
 30
0.0
 40
6.869663010211271
  0
CIRCLE
  5
D5
  8
0
  6
CONTINUOUS
 62
    19
 10
2257.0804681217
 20
116.1476750035
 30
0.0
 40
13.42074865330946
  0
POLYLINE
  5
D6
  8
0
  6
CONTINUOUS
 62
   179
 66
     1
 10
0.0
 20
0.0
 30
0.0
 70
   128
  0
VERTEX
  5
134
  8
0
  6
CONTINUOUS
 62
   179
 10
1884.3164565318
 20
261.5793565906
 30
0.0
  0
VERTEX
  5
135
  8
0
  6
CONTINUOUS
 62
   179
 10
1884.4936390166
 20
261.6457991861
 30
0.0
  0
VERTEX
  5
136
  8
0
  6
CONTINUOUS
 62
   179
 10
1884.6677814217
 20
261.7149787331
 30
0.0
  0
VERTEX
  5
137
  8
0
  6
CONTINUOUS
 62
   179
 10
1884.8387621282
 20
261.7868469172
 30
0.0
  0
VERTEX
  5
138
  8
0
  6
CONTINUOUS
 62
   179
 10
1885.0064617251
 20
261.8613535467
 30
0.0
  0
VERTEX
  5
139
  8
0
  6
CONTINUOUS
 62
   179
 10
1885.1707630932
 20
261.938446587
 30
0.0
  0
VERTEX
  5
13A
  8
0
  6
CONTINUOUS
 62
   179
 10
1885.3315514864
 20
262.0180721973
 30
0.0
  0
VERTEX
  5
13B
  8
0
  6
CONTINUOUS
 62
   179
 10
1885.488714612
 20
262.1001747679
 30
0.0
  0
VERTEX
  5
13C
  8
0
  6
CONTINUOUS
 62
   179
 10
1885.6421427091
 20
262.1846969596
 30
0.0
  0
VERTEX
  5
13D
  8
0
  6
CONTINUOUS
 62
   179
 10
1885.7917286255
 20
262.2715797429
 30
0.0
  0
VERTEX
  5
13E
  8
0
  6
CONTINUOUS
 62
   179
 10
1885.9373678922
 20
262.3607624401
 30
0.0
  0
VERTEX
  5
13F
  8
0
  6
CONTINUOUS
 62
   179
 10
1886.0789587964
 20
262.4521827669
 30
0.0
  0
VERTEX
  5
140
  8
0
  6
CONTINUOUS
 62
   179
 10
1886.2164024528
 20
262.5457768766
 30
0.0
  0
VERTEX
  5
141
  8
0
  6
CONTINUOUS
 62
   179
 10
1886.3496028724
 20
262.6414794041
 30
0.0
  0
VERTEX
  5
142
  8
0
  6
CONTINUOUS
 62
   179
 10
1886.4784670297
 20
262.7392235121
 30
0.0
  0
VERTEX
  5
143
  8
0
  6
CONTINUOUS
 62
   179
 10
1886.6029049275
 20
262.8389409371
 30
0.0
  0
VERTEX
  5
144
  8
0
  6
CONTINUOUS
 62
   179
 10
1886.7228296599
 20
262.9405620377
 30
0.0
  0
VERTEX
  5
145
  8
0
  6
CONTINUOUS
 62
   179
 10
1886.8381574728
 20
263.044015843
 30
0.0
  0
VERTEX
  5
146
  8
0
  6
CONTINUOUS
 62
   179
 10
1886.9488078228
 20
263.1492301022
 30
0.0
  0
VERTEX
  5
147
  8
0
  6
CONTINUOUS
 62
   179
 10
1887.054703433
 20
263.2561313348
 30
0.0
  0
VERTEX
  5
148
  8
0
  6
CONTINUOUS
 62
   179
 10
1887.1557703472
 20
263.3646448823
 30
0.0
  0
VERTEX
  5
149
  8
0
  6
CONTINUOUS
 62
   179
 10
1887.2519379815
 20
263.4746949602
 30
0.0
  0
VERTEX
  5
14A
  8
0
  6
CONTINUOUS
 62
   179
 10
1887.3431391735
 20
263.5862047108
 30
0.0
  0
VERTEX
  5
14B
  8
0
  6
CONTINUOUS
 62
   179
 10
1887.4293102294
 20
263.6990962571
 30
0.0
  0
VERTEX
  5
14C
  8
0
  6
CONTINUOUS
 62
   179
 10
1887.5103909685
 20
263.813290757
 30
0.0
  0
VERTEX
  5
14D
  8
0
  6
CONTINUOUS
 62
   179
 10
1887.586324765
 20
263.9287084585
 30
0.0
  0
VERTEX
  5
14E
  8
0
  6
CONTINUOUS
 62
   179
 10
1887.6570585875
 20
264.0452687551
 30
0.0
  0
VERTEX
  5
14F
  8
0
  6
CONTINUOUS
 62
   179
 10
1887.7225430365
 20
264.1628902427
 30
0.0
  0
VERTEX
  5
150
  8
0
  6
CONTINUOUS
 62
   179
 10
1887.7827323784
 20
264.2814907758
 30
0.0
  0
VERTEX
  5
151
  8
0
  6
CONTINUOUS
 62
   179
 10
1887.8375845776
 20
264.4009875252
 30
0.0
  0
VERTEX
  5
152
  8
0
  6
CONTINUOUS
 62
   179
 10
1887.8870613262
 20
264.5212970359
 30
0.0
  0
VERTEX
  5
153
  8
0
  6
CONTINUOUS
 62
   179
 10
1887.9311280701
 20
264.6423352851
 30
0.0
  0
VERTEX
  5
154
  8
0
  6
CONTINUOUS
 62
   179
 10
1887.9697540336
 20
264.7640177412
 30
0.0
  0
VERTEX
  5
155
  8
0
  6
CONTINUOUS
 62
   179
 10
1888.0029122409
 20
264.8862594227
 30
0.0
  0
VERTEX
  5
156
  8
0
  6
CONTINUOUS
 62
   179
 10
1888.0305795346
 20
265.0089749574
 30
0.0
  0
VERTEX
  5
157
  8
0
  6
CONTINUOUS
 62
   179
 10
1888.0527365922
 20
265.1320786423
 30
0.0
  0
VERTEX
  5
158
  8
0
  6
CONTINUOUS
 62
   179
 10
1888.0693679396
 20
265.2554845032
 30
0.0
  0
VERTEX
  5
159
  8
0
  6
CONTINUOUS
 62
   179
 10
1888.0804619616
 20
265.3791063551
 30
0.0
  0
VERTEX
  5
15A
  8
0
  6
CONTINUOUS
 62
   179
 10
1888.0860109103
 20
265.502857862
 30
0.0
  0
VERTEX
  5
15B
  8
0
  6
CONTINUOUS
 62
   179
 10
1888.0860109103
 20
265.6266525972
 30
0.0
  0
VERTEX
  5
15C
  8
0
  6
CONTINUOUS
 62
   179
 10
1888.0804619616
 20
265.750404104
 30
0.0
  0
VERTEX
  5
15D
  8
0
  6
CONTINUOUS
 62
   179
 10
1888.0693679396
 20
265.8740259559
 30
0.0
  0
VERTEX
  5
15E
  8
0
  6
CONTINUOUS
 62
   179
 10
1888.0527365922
 20
265.9974318169
 30
0.0
  0
VERTEX
  5
15F
  8
0
  6
CONTINUOUS
 62
   179
 10
1888.0305795346
 20
266.1205355018
 30
0.0
  0
VERTEX
  5
160
  8
0
  6
CONTINUOUS
 62
   179
 10
1888.0029122409
 20
266.2432510364
 30
0.0
  0
VERTEX
  5
161
  8
0
  6
CONTINUOUS
 62
   179
 10
1887.9697540336
 20
266.3654927179
 30
0.0
  0
VERTEX
  5
162
  8
0
  6
CONTINUOUS
 62
   179
 10
1887.9311280701
 20
266.487175174
 30
0.0
  0
VERTEX
  5
163
  8
0
  6
CONTINUOUS
 62
   179
 10
1887.8870613262
 20
266.6082134232
 30
0.0
  0
VERTEX
  5
164
  8
0
  6
CONTINUOUS
 62
   179
 10
1887.8375845776
 20
266.7285229339
 30
0.0
  0
VERTEX
  5
165
  8
0
  6
CONTINUOUS
 62
   179
 10
1887.7827323784
 20
266.8480196833
 30
0.0
  0
VERTEX
  5
166
  8
0
  6
CONTINUOUS
 62
   179
 10
1887.7225430365
 20
266.9666202164
 30
0.0
  0
VERTEX
  5
167
  8
0
  6
CONTINUOUS
 62
   179
 10
1887.6570585875
 20
267.084241704
 30
0.0
  0
VERTEX
  5
168
  8
0
  6
CONTINUOUS
 62
   179
 10
1887.586324765
 20
267.2008020006
 30
0.0
  0
VERTEX
  5
169
  8
0
  6
CONTINUOUS
 62
   179
 10
1887.5103909686
 20
267.3162197021
 30
0.0
  0
VERTEX
  5
16A
  8
0
  6
CONTINUOUS
 62
   179
 10
1887.4293102294
 20
267.430414202
 30
0.0
  0
VERTEX
  5
16B
  8
0
  6
CONTINUOUS
 62
   179
 10
1887.3431391735
 20
267.5433057483
 30
0.0
  0
VERTEX
  5
16C
  8
0
  6
CONTINUOUS
 62
   179
 10
1887.2519379815
 20
267.6548154989
 30
0.0
  0
VERTEX
  5
16D
  8
0
  6
CONTINUOUS
 62
   179
 10
1887.1557703472
 20
267.7648655768
 30
0.0
  0
VERTEX
  5
16E
  8
0
  6
CONTINUOUS
 62
   179
 10
1887.054703433
 20
267.8733791243
 30
0.0
  0
VERTEX
  5
16F
  8
0
  6
CONTINUOUS
 62
   179
 10
1886.9488078228
 20
267.9802803569
 30
0.0
  0
VERTEX
  5
170
  8
0
  6
CONTINUOUS
 62
   179
 10
1886.8381574728
 20
268.0854946161
 30
0.0
  0
VERTEX
  5
171
  8
0
  6
CONTINUOUS
 62
   179
 10
1886.7228296599
 20
268.1889484214
 30
0.0
  0
VERTEX
  5
172
  8
0
  6
CONTINUOUS
 62
   179
 10
1886.6029049275
 20
268.290569522
 30
0.0
  0
VERTEX
  5
173
  8
0
  6
CONTINUOUS
 62
   179
 10
1886.4784670297
 20
268.390286947
 30
0.0
  0
VERTEX
  5
174
  8
0
  6
CONTINUOUS
 62
   179
 10
1886.3496028724
 20
268.488031055
 30
0.0
  0
VERTEX
  5
175
  8
0
  6
CONTINUOUS
 62
   179
 10
1886.2164024528
 20
268.5837335825
 30
0.0
  0
VERTEX
  5
176
  8
0
  6
CONTINUOUS
 62
   179
 10
1886.0789587964
 20
268.6773276922
 30
0.0
  0
VERTEX
  5
177
  8
0
  6
CONTINUOUS
 62
   179
 10
1885.9373678922
 20
268.7687480191
 30
0.0
  0
VERTEX
  5
178
  8
0
  6
CONTINUOUS
 62
   179
 10
1885.7917286255
 20
268.8579307162
 30
0.0
  0
VERTEX
  5
179
  8
0
  6
CONTINUOUS
 62
   179
 10
1885.6421427091
 20
268.9448134995
 30
0.0
  0
VERTEX
  5
17A
  8
0
  6
CONTINUOUS
 62
   179
 10
1885.488714612
 20
269.0293356912
 30
0.0
  0
VERTEX
  5
17B
  8
0
  6
CONTINUOUS
 62
   179
 10
1885.3315514864
 20
269.1114382618
 30
0.0
  0
VERTEX
  5
17C
  8
0
  6
CONTINUOUS
 62
   179
 10
1885.1707630933
 20
269.1910638721
 30
0.0
  0
VERTEX
  5
17D
  8
0
  6
CONTINUOUS
 62
   179
 10
1885.0064617252
 20
269.2681569124
 30
0.0
  0
VERTEX
  5
17E
  8
0
  6
CONTINUOUS
 62
   179
 10
1884.8387621282
 20
269.3426635419
 30
0.0
  0
VERTEX
  5
17F
  8
0
  6
CONTINUOUS
 62
   179
 10
1884.6677814217
 20
269.414531726
 30
0.0
  0
VERTEX
  5
180
  8
0
  6
CONTINUOUS
 62
   179
 10
1884.4936390166
 20
269.483711273
 30
0.0
  0
SEQEND
  5
3AD
  8
0
  6
CONTINUOUS
 62
   179
  0
POLYLINE
  5
D7
  8
0
  6
CONTINUOUS
 62
   179
 66
     1
 10
0.0
 20
0.0
 30
0.0
 70
   128
  0
VERTEX
  5
181
  8
0
  6
CONTINUOUS
 62
   179
 10
1983.1838368601
 20
252.5850743451
 30
0.0
  0
VERTEX
  5
182
  8
0
  6
CONTINUOUS
 62
   179
 10
1983.4979560114
 20
252.8013078566
 30
0.0
  0
VERTEX
  5
183
  8
0
  6
CONTINUOUS
 62
   179
 10
1983.8023898843
 20
253.022449166
 30
0.0
  0
VERTEX
  5
184
  8
0
  6
CONTINUOUS
 62
   179
 10
1984.0969245621
 20
253.248342884
 30
0.0
  0
VERTEX
  5
185
  8
0
  6
CONTINUOUS
 62
   179
 10
1984.3813530838
 20
253.4788302817
 30
0.0
  0
VERTEX
  5
186
  8
0
  6
CONTINUOUS
 62
   179
 10
1984.65547559
 20
253.7137494024
 30
0.0
  0
VERTEX
  5
187
  8
0
  6
CONTINUOUS
 62
   179
 10
1984.9190994629
 20
253.9529351752
 30
0.0
  0
VERTEX
  5
188
  8
0
  6
CONTINUOUS
 62
   179
 10
1985.1720394616
 20
254.1962195314
 30
0.0
  0
VERTEX
  5
189
  8
0
  6
CONTINUOUS
 62
   179
 10
1985.4141178528
 20
254.4434315223
 30
0.0
  0
VERTEX
  5
18A
  8
0
  6
CONTINUOUS
 62
   179
 10
1985.645164535
 20
254.6943974392
 30
0.0
  0
VERTEX
  5
18B
  8
0
  6
CONTINUOUS
 62
   179
 10
1985.8650171585
 20
254.9489409358
 30
0.0
  0
VERTEX
  5
18C
  8
0
  6
CONTINUOUS
 62
   179
 10
1986.0735212394
 20
255.2068831518
 30
0.0
  0
VERTEX
  5
18D
  8
0
  6
CONTINUOUS
 62
   179
 10
1986.2705302679
 20
255.4680428389
 30
0.0
  0
VERTEX
  5
18E
  8
0
  6
CONTINUOUS
 62
   179
 10
1986.4559058117
 20
255.7322364877
 30
0.0
  0
VERTEX
  5
18F
  8
0
  6
CONTINUOUS
 62
   179
 10
1986.6295176127
 20
255.9992784573
 30
0.0
  0
VERTEX
  5
190
  8
0
  6
CONTINUOUS
 62
   179
 10
1986.7912436792
 20
256.2689811051
 30
0.0
  0
VERTEX
  5
191
  8
0
  6
CONTINUOUS
 62
   179
 10
1986.9409703708
 20
256.5411549188
 30
0.0
  0
VERTEX
  5
192
  8
0
  6
CONTINUOUS
 62
   179
 10
1987.0785924792
 20
256.8156086502
 30
0.0
  0
VERTEX
  5
193
  8
0
  6
CONTINUOUS
 62
   179
 10
1987.2040133012
 20
257.0921494484
 30
0.0
  0
VERTEX
  5
194
  8
0
  6
CONTINUOUS
 62
   179
 10
1987.3171447074
 20
257.3705829966
 30
0.0
  0
VERTEX
  5
195
  8
0
  6
CONTINUOUS
 62
   179
 10
1987.4179072036
 20
257.6507136475
 30
0.0
  0
VERTEX
  5
196
  8
0
  6
CONTINUOUS
 62
   179
 10
1987.506229987
 20
257.9323445617
 30
0.0
  0
VERTEX
  5
197
  8
0
  6
CONTINUOUS
 62
   179
 10
1987.5820509958
 20
258.2152778453
 30
0.0
  0
VERTEX
  5
198
  8
0
  6
CONTINUOUS
 62
   179
 10
1987.6453169529
 20
258.4993146896
 30
0.0
  0
VERTEX
  5
199
  8
0
  6
CONTINUOUS
 62
   179
 10
1987.6959834029
 20
258.7842555101
 30
0.0
  0
VERTEX
  5
19A
  8
0
  6
CONTINUOUS
 62
   179
 10
1987.7340147442
 20
259.0699000873
 30
0.0
  0
VERTEX
  5
19B
  8
0
  6
CONTINUOUS
 62
   179
 10
1987.7593842533
 20
259.3560477072
 30
0.0
  0
VERTEX
  5
19C
  8
0
  6
CONTINUOUS
 62
   179
 10
1987.7720741036
 20
259.6424973023
 30
0.0
  0
VERTEX
  5
19D
  8
0
  6
CONTINUOUS
 62
   179
 10
1987.7720753785
 20
259.9290475928
 30
0.0
  0
VERTEX
  5
19E
  8
0
  6
CONTINUOUS
 62
   179
 10
1987.7593880771
 20
260.2154972283
 30
0.0
  0
VERTEX
  5
19F
  8
0
  6
CONTINUOUS
 62
   179
 10
1987.7340211143
 20
260.5016449291
 30
0.0
  0
VERTEX
  5
1A0
  8
0
  6
CONTINUOUS
 62
   179
 10
1987.6959923147
 20
260.7872896275
 30
0.0
  0
VERTEX
  5
1A1
  8
0
  6
CONTINUOUS
 62
   179
 10
1987.6453284002
 20
261.0722306096
 30
0.0
  0
VERTEX
  5
1A2
  8
0
  6
CONTINUOUS
 62
   179
 10
1987.5820649706
 20
261.3562676555
 30
0.0
  0
VERTEX
  5
1A3
  8
0
  6
CONTINUOUS
 62
   179
 10
1987.5062464794
 20
261.6392011809
 30
0.0
  0
VERTEX
  5
1A4
  8
0
  6
CONTINUOUS
 62
   179
 10
1987.417926202
 20
261.9208323767
 30
0.0
  0
VERTEX
  5
1A5
  8
0
  6
CONTINUOUS
 62
   179
 10
1987.3171661985
 20
262.2009633489
 30
0.0
  0
VERTEX
  5
1A6
  8
0
  6
CONTINUOUS
 62
   179
 10
1987.2040372699
 20
262.4793972577
 30
0.0
  0
VERTEX
  5
1A7
  8
0
  6
CONTINUOUS
 62
   179
 10
1987.0786189086
 20
262.7559384559
 30
0.0
  0
VERTEX
  5
1A8
  8
0
  6
CONTINUOUS
 62
   179
 10
1986.9409992424
 20
263.030392626
 30
0.0
  0
VERTEX
  5
1A9
  8
0
  6
CONTINUOUS
 62
   179
 10
1986.7912749727
 20
263.3025669171
 30
0.0
  0
VERTEX
  5
1AA
  8
0
  6
CONTINUOUS
 62
   179
 10
1986.6295513061
 20
263.5722700805
 30
0.0
  0
VERTEX
  5
1AB
  8
0
  6
CONTINUOUS
 62
   179
 10
1986.4559418813
 20
263.8393126036
 30
0.0
  0
VERTEX
  5
1AC
  8
0
  6
CONTINUOUS
 62
   179
 10
1986.2705686884
 20
264.1035068435
 30
0.0
  0
VERTEX
  5
1AD
  8
0
  6
CONTINUOUS
 62
   179
 10
1986.0735619838
 20
264.3646671587
 30
0.0
  0
VERTEX
  5
1AE
  8
0
  6
CONTINUOUS
 62
   179
 10
1985.8650601981
 20
264.6226100395
 30
0.0
  0
VERTEX
  5
1AF
  8
0
  6
CONTINUOUS
 62
   179
 10
1985.6452098396
 20
264.877154237
 30
0.0
  0
VERTEX
  5
1B0
  8
0
  6
CONTINUOUS
 62
   179
 10
1985.4141653906
 20
265.1281208905
 30
0.0
  0
VERTEX
  5
1B1
  8
0
  6
CONTINUOUS
 62
   179
 10
1985.1720891993
 20
265.3753336532
 30
0.0
  0
VERTEX
  5
1B2
  8
0
  6
CONTINUOUS
 62
   179
 10
1984.9191513653
 20
265.6186188159
 30
0.0
  0
VERTEX
  5
1B3
  8
0
  6
CONTINUOUS
 62
   179
 10
1984.6555296208
 20
265.8578054292
 30
0.0
  0
VERTEX
  5
1B4
  8
0
  6
CONTINUOUS
 62
   179
 10
1984.381409205
 20
266.0927254239
 30
0.0
  0
VERTEX
  5
1B5
  8
0
  6
CONTINUOUS
 62
   179
 10
1984.0969827342
 20
266.3232137284
 30
0.0
  0
VERTEX
  5
1B6
  8
0
  6
CONTINUOUS
 62
   179
 10
1983.8024500665
 20
266.5491083854
 30
0.0
  0
VERTEX
  5
1B7
  8
0
  6
CONTINUOUS
 62
   179
 10
1983.4980181614
 20
266.7702506655
 30
0.0
  0
SEQEND
  5
3AE
  8
0
  6
CONTINUOUS
 62
   179
  0
POLYLINE
  5
D8
  8
0
  6
CONTINUOUS
 62
   179
 66
     1
 10
0.0
 20
0.0
 30
0.0
 70
   128
  0
VERTEX
  5
1B8
  8
0
  6
CONTINUOUS
 62
   179
 10
2033.3047791567
 20
262.040025001
 30
0.0
  0
VERTEX
  5
1B9
  8
0
  6
CONTINUOUS
 62
   179
 10
2033.4606420487
 20
262.1546205016
 30
0.0
  0
VERTEX
  5
1BA
  8
0
  6
CONTINUOUS
 62
   179
 10
2033.611299914
 20
262.2716141723
 30
0.0
  0
VERTEX
  5
1BB
  8
0
  6
CONTINUOUS
 62
   179
 10
2033.7566468026
 20
262.3909237377
 30
0.0
  0
VERTEX
  5
1BC
  8
0
  6
CONTINUOUS
 62
   179
 10
2033.8965804997
 20
262.5124652934
 30
0.0
  0
VERTEX
  5
1BD
  8
0
  6
CONTINUOUS
 62
   179
 10
2034.0310025971
 20
262.6361533658
 30
0.0
  0
VERTEX
  5
1BE
  8
0
  6
CONTINUOUS
 62
   179
 10
2034.1598185629
 20
262.7619009713
 30
0.0
  0
VERTEX
  5
1BF
  8
0
  6
CONTINUOUS
 62
   179
 10
2034.2829378074
 20
262.8896196783
 30
0.0
  0
VERTEX
  5
1C0
  8
0
  6
CONTINUOUS
 62
   179
 10
2034.4002737473
 20
263.0192196688
 30
0.0
  0
VERTEX
  5
1C1
  8
0
  6
CONTINUOUS
 62
   179
 10
2034.5117438664
 20
263.1506098019
 30
0.0
  0
VERTEX
  5
1C2
  8
0
  6
CONTINUOUS
 62
   179
 10
2034.6172697735
 20
263.2836976777
 30
0.0
  0
VERTEX
  5
1C3
  8
0
  6
CONTINUOUS
 62
   179
 10
2034.7167772578
 20
263.4183897026
 30
0.0
  0
VERTEX
  5
1C4
  8
0
  6
CONTINUOUS
 62
   179
 10
2034.8101963407
 20
263.5545911545
 30
0.0
  0
VERTEX
  5
1C5
  8
0
  6
CONTINUOUS
 62
   179
 10
2034.8974613256
 20
263.6922062502
 30
0.0
  0
VERTEX
  5
1C6
  8
0
  6
CONTINUOUS
 62
   179
 10
2034.9785108435
 20
263.8311382121
 30
0.0
  0
VERTEX
  5
1C7
  8
0
  6
CONTINUOUS
 62
   179
 10
2035.0532878966
 20
263.9712893365
 30
0.0
  0
VERTEX
  5
1C8
  8
0
  6
CONTINUOUS
 62
   179
 10
2035.1217398979
 20
264.1125610626
 30
0.0
  0
VERTEX
  5
1C9
  8
0
  6
CONTINUOUS
 62
   179
 10
2035.1838187088
 20
264.2548540411
 30
0.0
  0
VERTEX
  5
1CA
  8
0
  6
CONTINUOUS
 62
   179
 10
2035.2394806725
 20
264.398068205
 30
0.0
  0
VERTEX
  5
1CB
  8
0
  6
CONTINUOUS
 62
   179
 10
2035.2886866447
 20
264.5421028391
 30
0.0
  0
VERTEX
  5
1CC
  8
0
  6
CONTINUOUS
 62
   179
 10
2035.3314020217
 20
264.6868566513
 30
0.0
  0
VERTEX
  5
1CD
  8
0
  6
CONTINUOUS
 62
   179
 10
2035.3675967637
 20
264.8322278439
 30
0.0
  0
VERTEX
  5
1CE
  8
0
  6
CONTINUOUS
 62
   179
 10
2035.397245417
 20
264.9781141849
 30
0.0
  0
VERTEX
  5
1CF
  8
0
  6
CONTINUOUS
 62
   179
 10
2035.4203271312
 20
265.12441308
 30
0.0
  0
VERTEX
  5
1D0
  8
0
  6
CONTINUOUS
 62
   179
 10
2035.436825674
 20
265.2710216448
 30
0.0
  0
VERTEX
  5
1D1
  8
0
  6
CONTINUOUS
 62
   179
 10
2035.4467294431
 20
265.4178367771
 30
0.0
  0
VERTEX
  5
1D2
  8
0
  6
CONTINUOUS
 62
   179
 10
2035.4500314735
 20
265.5647552295
 30
0.0
  0
VERTEX
  5
1D3
  8
0
  6
CONTINUOUS
 62
   179
 10
2035.4467294431
 20
265.7116736819
 30
0.0
  0
VERTEX
  5
1D4
  8
0
  6
CONTINUOUS
 62
   179
 10
2035.4368256741
 20
265.8584888142
 30
0.0
  0
VERTEX
  5
1D5
  8
0
  6
CONTINUOUS
 62
   179
 10
2035.4203271312
 20
266.005097379
 30
0.0
  0
VERTEX
  5
1D6
  8
0
  6
CONTINUOUS
 62
   179
 10
2035.397245417
 20
266.1513962741
 30
0.0
  0
VERTEX
  5
1D7
  8
0
  6
CONTINUOUS
 62
   179
 10
2035.3675967637
 20
266.2972826151
 30
0.0
  0
VERTEX
  5
1D8
  8
0
  6
CONTINUOUS
 62
   179
 10
2035.3314020217
 20
266.4426538077
 30
0.0
  0
VERTEX
  5
1D9
  8
0
  6
CONTINUOUS
 62
   179
 10
2035.2886866448
 20
266.5874076199
 30
0.0
  0
VERTEX
  5
1DA
  8
0
  6
CONTINUOUS
 62
   179
 10
2035.2394806725
 20
266.731442254
 30
0.0
  0
VERTEX
  5
1DB
  8
0
  6
CONTINUOUS
 62
   179
 10
2035.1838187088
 20
266.8746564179
 30
0.0
  0
VERTEX
  5
1DC
  8
0
  6
CONTINUOUS
 62
   179
 10
2035.1217398979
 20
267.0169493964
 30
0.0
  0
VERTEX
  5
1DD
  8
0
  6
CONTINUOUS
 62
   179
 10
2035.0532878966
 20
267.1582211225
 30
0.0
  0
VERTEX
  5
1DE
  8
0
  6
CONTINUOUS
 62
   179
 10
2034.9785108436
 20
267.2983722469
 30
0.0
  0
VERTEX
  5
1DF
  8
0
  6
CONTINUOUS
 62
   179
 10
2034.8974613257
 20
267.4373042088
 30
0.0
  0
VERTEX
  5
1E0
  8
0
  6
CONTINUOUS
 62
   179
 10
2034.8101963408
 20
267.5749193044
 30
0.0
  0
VERTEX
  5
1E1
  8
0
  6
CONTINUOUS
 62
   179
 10
2034.7167772579
 20
267.7111207564
 30
0.0
  0
VERTEX
  5
1E2
  8
0
  6
CONTINUOUS
 62
   179
 10
2034.6172697736
 20
267.8458127813
 30
0.0
  0
VERTEX
  5
1E3
  8
0
  6
CONTINUOUS
 62
   179
 10
2034.5117438665
 20
267.9789006571
 30
0.0
  0
VERTEX
  5
1E4
  8
0
  6
CONTINUOUS
 62
   179
 10
2034.4002737475
 20
268.1102907902
 30
0.0
  0
VERTEX
  5
1E5
  8
0
  6
CONTINUOUS
 62
   179
 10
2034.2829378075
 20
268.2398907807
 30
0.0
  0
VERTEX
  5
1E6
  8
0
  6
CONTINUOUS
 62
   179
 10
2034.159818563
 20
268.3676094877
 30
0.0
  0
VERTEX
  5
1E7
  8
0
  6
CONTINUOUS
 62
   179
 10
2034.0310025972
 20
268.4933570932
 30
0.0
  0
VERTEX
  5
1E8
  8
0
  6
CONTINUOUS
 62
   179
 10
2033.8965804998
 20
268.6170451656
 30
0.0
  0
VERTEX
  5
1E9
  8
0
  6
CONTINUOUS
 62
   179
 10
2033.7566468027
 20
268.7385867213
 30
0.0
  0
VERTEX
  5
1EA
  8
0
  6
CONTINUOUS
 62
   179
 10
2033.6112999141
 20
268.8578962867
 30
0.0
  0
VERTEX
  5
1EB
  8
0
  6
CONTINUOUS
 62
   179
 10
2033.4606420489
 20
268.9748899574
 30
0.0
  0
SEQEND
  5
3AF
  8
0
  6
CONTINUOUS
 62
   179
  0
POLYLINE
  5
D9
  8
0
  6
CONTINUOUS
 62
   179
 66
     1
 10
0.0
 20
0.0
 30
0.0
 70
   128
  0
VERTEX
  5
1EC
  8
0
  6
CONTINUOUS
 62
   179
 10
2040.5181418373
 20
258.2638257174
 30
0.0
  0
VERTEX
  5
1ED
  8
0
  6
CONTINUOUS
 62
   179
 10
2040.9543287091
 20
258.3962747919
 30
0.0
  0
VERTEX
  5
1EE
  8
0
  6
CONTINUOUS
 62
   179
 10
2041.3831601067
 20
258.5342789377
 30
0.0
  0
VERTEX
  5
1EF
  8
0
  6
CONTINUOUS
 62
   179
 10
2041.8043364911
 20
258.6777417587
 30
0.0
  0
VERTEX
  5
1F0
  8
0
  6
CONTINUOUS
 62
   179
 10
2042.2175636701
 20
258.8265630461
 30
0.0
  0
VERTEX
  5
1F1
  8
0
  6
CONTINUOUS
 62
   179
 10
2042.6225530041
 20
258.980638848
 30
0.0
  0
VERTEX
  5
1F2
  8
0
  6
CONTINUOUS
 62
   179
 10
2043.0190216078
 20
259.1398615423
 30
0.0
  0
VERTEX
  5
1F3
  8
0
  6
CONTINUOUS
 62
   179
 10
2043.4066925474
 20
259.3041199119
 30
0.0
  0
VERTEX
  5
1F4
  8
0
  6
CONTINUOUS
 62
   179
 10
2043.7852950343
 20
259.473299222
 30
0.0
  0
VERTEX
  5
1F5
  8
0
  6
CONTINUOUS
 62
   179
 10
2044.1545646144
 20
259.6472813009
 30
0.0
  0
VERTEX
  5
1F6
  8
0
  6
CONTINUOUS
 62
   179
 10
2044.5142433526
 20
259.8259446218
 30
0.0
  0
VERTEX
  5
1F7
  8
0
  6
CONTINUOUS
 62
   179
 10
2044.8640800127
 20
260.0091643882
 30
0.0
  0
VERTEX
  5
1F8
  8
0
  6
CONTINUOUS
 62
   179
 10
2045.2038302337
 20
260.1968126209
 30
0.0
  0
VERTEX
  5
1F9
  8
0
  6
CONTINUOUS
 62
   179
 10
2045.5332566996
 20
260.3887582475
 30
0.0
  0
VERTEX
  5
1FA
  8
0
  6
CONTINUOUS
 62
   179
 10
2045.8521293058
 20
260.5848671938
 30
0.0
  0
VERTEX
  5
1FB
  8
0
  6
CONTINUOUS
 62
   179
 10
2046.1602253193
 20
260.7850024775
 30
0.0
  0
VERTEX
  5
1FC
  8
0
  6
CONTINUOUS
 62
   179
 10
2046.457329535
 20
260.9890243038
 30
0.0
  0
VERTEX
  5
1FD
  8
0
  6
CONTINUOUS
 62
   179
 10
2046.743234425
 20
261.1967901634
 30
0.0
  0
VERTEX
  5
1FE
  8
0
  6
CONTINUOUS
 62
   179
 10
2047.0177402847
 20
261.4081549315
 30
0.0
  0
VERTEX
  5
1FF
  8
0
  6
CONTINUOUS
 62
   179
 10
2047.2806553714
 20
261.6229709698
 30
0.0
  0
VERTEX
  5
200
  8
0
  6
CONTINUOUS
 62
   179
 10
2047.5317960386
 20
261.8410882289
 30
0.0
  0
VERTEX
  5
201
  8
0
  6
CONTINUOUS
 62
   179
 10
2047.7709868645
 20
262.0623543537
 30
0.0
  0
VERTEX
  5
202
  8
0
  6
CONTINUOUS
 62
   179
 10
2047.9980607738
 20
262.2866147897
 30
0.0
  0
VERTEX
  5
203
  8
0
  6
CONTINUOUS
 62
   179
 10
2048.2128591553
 20
262.5137128907
 30
0.0
  0
VERTEX
  5
204
  8
0
  6
CONTINUOUS
 62
   179
 10
2048.4152319722
 20
262.7434900285
 30
0.0
  0
VERTEX
  5
205
  8
0
  6
CONTINUOUS
 62
   179
 10
2048.6050378667
 20
262.9757857035
 30
0.0
  0
VERTEX
  5
206
  8
0
  6
CONTINUOUS
 62
   179
 10
2048.7821442593
 20
263.210437657
 30
0.0
  0
VERTEX
  5
207
  8
0
  6
CONTINUOUS
 62
   179
 10
2048.9464274411
 20
263.4472819843
 30
0.0
  0
VERTEX
  5
208
  8
0
  6
CONTINUOUS
 62
   179
 10
2049.09777266
 20
263.6861532495
 30
0.0
  0
VERTEX
  5
209
  8
0
  6
CONTINUOUS
 62
   179
 10
2049.2360742012
 20
263.9268846006
 30
0.0
  0
VERTEX
  5
20A
  8
0
  6
CONTINUOUS
 62
   179
 10
2049.3612354611
 20
264.1693078868
 30
0.0
  0
VERTEX
  5
20B
  8
0
  6
CONTINUOUS
 62
   179
 10
2049.4731690142
 20
264.413253775
 30
0.0
  0
VERTEX
  5
20C
  8
0
  6
CONTINUOUS
 62
   179
 10
2049.5717966751
 20
264.6585518688
 30
0.0
  0
VERTEX
  5
20D
  8
0
  6
CONTINUOUS
 62
   179
 10
2049.657049552
 20
264.9050308272
 30
0.0
  0
VERTEX
  5
20E
  8
0
  6
CONTINUOUS
 62
   179
 10
2049.7288680959
 20
265.1525184846
 30
0.0
  0
VERTEX
  5
20F
  8
0
  6
CONTINUOUS
 62
   179
 10
2049.7872021413
 20
265.4008419704
 30
0.0
  0
VERTEX
  5
210
  8
0
  6
CONTINUOUS
 62
   179
 10
2049.832010942
 20
265.6498278305
 30
0.0
  0
VERTEX
  5
211
  8
0
  6
CONTINUOUS
 62
   179
 10
2049.8632631988
 20
265.899302148
 30
0.0
  0
VERTEX
  5
212
  8
0
  6
CONTINUOUS
 62
   179
 10
2049.8809370821
 20
266.1490906649
 30
0.0
  0
VERTEX
  5
213
  8
0
  6
CONTINUOUS
 62
   179
 10
2049.8850202467
 20
266.3990189036
 30
0.0
  0
VERTEX
  5
214
  8
0
  6
CONTINUOUS
 62
   179
 10
2049.8755098404
 20
266.6489122891
 30
0.0
  0
VERTEX
  5
215
  8
0
  6
CONTINUOUS
 62
   179
 10
2049.8524125063
 20
266.8985962705
 30
0.0
  0
VERTEX
  5
216
  8
0
  6
CONTINUOUS
 62
   179
 10
2049.8157443779
 20
267.1478964434
 30
0.0
  0
VERTEX
  5
217
  8
0
  6
CONTINUOUS
 62
   179
 10
2049.7655310679
 20
267.3966386713
 30
0.0
  0
VERTEX
  5
218
  8
0
  6
CONTINUOUS
 62
   179
 10
2049.7018076504
 20
267.6446492076
 30
0.0
  0
VERTEX
  5
219
  8
0
  6
CONTINUOUS
 62
   179
 10
2049.6246186362
 20
267.8917548166
 30
0.0
  0
VERTEX
  5
21A
  8
0
  6
CONTINUOUS
 62
   179
 10
2049.534017942
 20
268.1377828949
 30
0.0
  0
VERTEX
  5
21B
  8
0
  6
CONTINUOUS
 62
   179
 10
2049.4300688523
 20
268.3825615915
 30
0.0
  0
VERTEX
  5
21C
  8
0
  6
CONTINUOUS
 62
   179
 10
2049.3128439758
 20
268.6259199284
 30
0.0
  0
VERTEX
  5
21D
  8
0
  6
CONTINUOUS
 62
   179
 10
2049.1824251941
 20
268.8676879195
 30
0.0
  0
VERTEX
  5
21E
  8
0
  6
CONTINUOUS
 62
   179
 10
2049.038903605
 20
269.1076966896
 30
0.0
  0
VERTEX
  5
21F
  8
0
  6
CONTINUOUS
 62
   179
 10
2048.8823794582
 20
269.3457785923
 30
0.0
  0
VERTEX
  5
220
  8
0
  6
CONTINUOUS
 62
   179
 10
2048.7129620862
 20
269.5817673272
 30
0.0
  0
VERTEX
  5
221
  8
0
  6
CONTINUOUS
 62
   179
 10
2048.5307698271
 20
269.8154980561
 30
0.0
  0
VERTEX
  5
222
  8
0
  6
CONTINUOUS
 62
   179
 10
2048.3359299425
 20
270.0468075176
 30
0.0
  0
VERTEX
  5
223
  8
0
  6
CONTINUOUS
 62
   179
 10
2048.128578528
 20
270.2755341419
 30
0.0
  0
VERTEX
  5
224
  8
0
  6
CONTINUOUS
 62
   179
 10
2047.908860419
 20
270.5015181633
 30
0.0
  0
VERTEX
  5
225
  8
0
  6
CONTINUOUS
 62
   179
 10
2047.6769290887
 20
270.7246017317
 30
0.0
  0
VERTEX
  5
226
  8
0
  6
CONTINUOUS
 62
   179
 10
2047.4329465413
 20
270.944629023
 30
0.0
  0
VERTEX
  5
227
  8
0
  6
CONTINUOUS
 62
   179
 10
2047.177083199
 20
271.1614463479
 30
0.0
  0
VERTEX
  5
228
  8
0
  6
CONTINUOUS
 62
   179
 10
2046.9095177825
 20
271.3749022594
 30
0.0
  0
VERTEX
  5
229
  8
0
  6
CONTINUOUS
 62
   179
 10
2046.6304371866
 20
271.5848476582
 30
0.0
  0
VERTEX
  5
22A
  8
0
  6
CONTINUOUS
 62
   179
 10
2046.3400363492
 20
271.7911358973
 30
0.0
  0
VERTEX
  5
22B
  8
0
  6
CONTINUOUS
 62
   179
 10
2046.0385181158
 20
271.9936228841
 30
0.0
  0
VERTEX
  5
22C
  8
0
  6
CONTINUOUS
 62
   179
 10
2045.7260930969
 20
272.1921671813
 30
0.0
  0
VERTEX
  5
22D
  8
0
  6
CONTINUOUS
 62
   179
 10
2045.4029795219
 20
272.3866301056
 30
0.0
  0
VERTEX
  5
22E
  8
0
  6
CONTINUOUS
 62
   179
 10
2045.0694030858
 20
272.5768758243
 30
0.0
  0
VERTEX
  5
22F
  8
0
  6
CONTINUOUS
 62
   179
 10
2044.7255967922
 20
272.7627714506
 30
0.0
  0
VERTEX
  5
230
  8
0
  6
CONTINUOUS
 62
   179
 10
2044.3718007901
 20
272.9441871364
 30
0.0
  0
VERTEX
  5
231
  8
0
  6
CONTINUOUS
 62
   179
 10
2044.0082622063
 20
273.1209961624
 30
0.0
  0
VERTEX
  5
232
  8
0
  6
CONTINUOUS
 62
   179
 10
2043.6352349728
 20
273.2930750275
 30
0.0
  0
VERTEX
  5
233
  8
0
  6
CONTINUOUS
 62
   179
 10
2043.2529796497
 20
273.4603035345
 30
0.0
  0
VERTEX
  5
234
  8
0
  6
CONTINUOUS
 62
   179
 10
2042.8617632425
 20
273.6225648739
 30
0.0
  0
VERTEX
  5
235
  8
0
  6
CONTINUOUS
 62
   179
 10
2042.4618590163
 20
273.7797457062
 30
0.0
  0
VERTEX
  5
236
  8
0
  6
CONTINUOUS
 62
   179
 10
2042.0535463046
 20
273.9317362403
 30
0.0
  0
VERTEX
  5
237
  8
0
  6
CONTINUOUS
 62
   179
 10
2041.6371103143
 20
274.0784303108
 30
0.0
  0
VERTEX
  5
238
  8
0
  6
CONTINUOUS
 62
   179
 10
2041.2128419263
 20
274.2197254516
 30
0.0
  0
VERTEX
  5
239
  8
0
  6
CONTINUOUS
 62
   179
 10
2040.7810374924
 20
274.355522968
 30
0.0
  0
VERTEX
  5
23A
  8
0
  6
CONTINUOUS
 62
   179
 10
2040.3419986286
 20
274.4857280053
 30
0.0
  0
VERTEX
  5
23B
  8
0
  6
CONTINUOUS
 62
   179
 10
2039.8960320038
 20
274.6102496151
 30
0.0
  0
VERTEX
  5
23C
  8
0
  6
CONTINUOUS
 62
   179
 10
2039.4434491261
 20
274.729000819
 30
0.0
  0
VERTEX
  5
23D
  8
0
  6
CONTINUOUS
 62
   179
 10
2038.9845661253
 20
274.8418986692
 30
0.0
  0
VERTEX
  5
23E
  8
0
  6
CONTINUOUS
 62
   179
 10
2038.5197035314
 20
274.9488643063
 30
0.0
  0
VERTEX
  5
23F
  8
0
  6
CONTINUOUS
 62
   179
 10
2038.0491860515
 20
275.0498230148
 30
0.0
  0
VERTEX
  5
240
  8
0
  6
CONTINUOUS
 62
   179
 10
2037.5733423425
 20
275.1447042749
 30
0.0
  0
VERTEX
  5
241
  8
0
  6
CONTINUOUS
 62
   179
 10
2037.0925047817
 20
275.233441812
 30
0.0
  0
VERTEX
  5
242
  8
0
  6
CONTINUOUS
 62
   179
 10
2036.6070092345
 20
275.3159736428
 30
0.0
  0
VERTEX
  5
243
  8
0
  6
CONTINUOUS
 62
   179
 10
2036.1171948202
 20
275.3922421187
 30
0.0
  0
VERTEX
  5
244
  8
0
  6
CONTINUOUS
 62
   179
 10
2035.6234036744
 20
275.4621939662
 30
0.0
  0
VERTEX
  5
245
  8
0
  6
CONTINUOUS
 62
   179
 10
2035.125980711
 20
275.5257803238
 30
0.0
  0
VERTEX
  5
246
  8
0
  6
CONTINUOUS
 62
   179
 10
2034.6252733802
 20
275.5829567764
 30
0.0
  0
VERTEX
  5
247
  8
0
  6
CONTINUOUS
 62
   179
 10
2034.1216314266
 20
275.6336833861
 30
0.0
  0
SEQEND
  5
3B0
  8
0
  6
CONTINUOUS
 62
   179
  0
POLYLINE
  5
DA
  8
0
  6
CONTINUOUS
 62
   179
 66
     1
 10
0.0
 20
0.0
 30
0.0
 70
   128
  0
VERTEX
  5
248
  8
0
  6
CONTINUOUS
 62
   179
 10
1977.6572208014
 20
243.8936777501
 30
0.0
  0
VERTEX
  5
249
  8
0
  6
CONTINUOUS
 62
   179
 10
1978.2589723458
 20
243.9517263367
 30
0.0
  0
VERTEX
  5
24A
  8
0
  6
CONTINUOUS
 62
   179
 10
1978.8583144076
 20
244.0207131082
 30
0.0
  0
VERTEX
  5
24B
  8
0
  6
CONTINUOUS
 62
   179
 10
1979.4548329611
 20
244.1005904087
 30
0.0
  0
VERTEX
  5
24C
  8
0
  6
CONTINUOUS
 62
   179
 10
1980.0481159309
 20
244.1913030589
 30
0.0
  0
VERTEX
  5
24D
  8
0
  6
CONTINUOUS
 62
   179
 10
1980.6377534772
 20
244.2927883944
 30
0.0
  0
VERTEX
  5
24E
  8
0
  6
CONTINUOUS
 62
   179
 10
1981.2233382779
 20
244.4049763091
 30
0.0
  0
VERTEX
  5
24F
  8
0
  6
CONTINUOUS
 62
   179
 10
1981.8044658108
 20
244.5277893037
 30
0.0
  0
VERTEX
  5
250
  8
0
  6
CONTINUOUS
 62
   179
 10
1982.380734633
 20
244.6611425387
 30
0.0
  0
VERTEX
  5
251
  8
0
  6
CONTINUOUS
 62
   179
 10
1982.9517466575
 20
244.8049438937
 30
0.0
  0
VERTEX
  5
252
  8
0
  6
CONTINUOUS
 62
   179
 10
1983.5171074292
 20
244.9590940308
 30
0.0
  0
VERTEX
  5
253
  8
0
  6
CONTINUOUS
 62
   179
 10
1984.0764263965
 20
245.1234864629
 30
0.0
  0
VERTEX
  5
254
  8
0
  6
CONTINUOUS
 62
   179
 10
1984.6293171817
 20
245.2980076277
 30
0.0
  0
VERTEX
  5
255
  8
0
  6
CONTINUOUS
 62
   179
 10
1985.1753978477
 20
245.4825369659
 30
0.0
  0
VERTEX
  5
256
  8
0
  6
CONTINUOUS
 62
   179
 10
1985.7142911617
 20
245.6769470045
 30
0.0
  0
VERTEX
  5
257
  8
0
  6
CONTINUOUS
 62
   179
 10
1986.245624856
 20
245.8811034451
 30
0.0
  0
VERTEX
  5
258
  8
0
  6
CONTINUOUS
 62
   179
 10
1986.769031885
 20
246.0948652562
 30
0.0
  0
VERTEX
  5
259
  8
0
  6
CONTINUOUS
 62
   179
 10
1987.2841506791
 20
246.3180847712
 30
0.0
  0
VERTEX
  5
25A
  8
0
  6
CONTINUOUS
 62
   179
 10
1987.7906253938
 20
246.5506077899
 30
0.0
  0
VERTEX
  5
25B
  8
0
  6
CONTINUOUS
 62
   179
 10
1988.2881061564
 20
246.7922736853
 30
0.0
  0
VERTEX
  5
25C
  8
0
  6
CONTINUOUS
 62
   179
 10
1988.7762493069
 20
247.0429155145
 30
0.0
  0
VERTEX
  5
25D
  8
0
  6
CONTINUOUS
 62
   179
 10
1989.2547176359
 20
247.3023601341
 30
0.0
  0
VERTEX
  5
25E
  8
0
  6
CONTINUOUS
 62
   179
 10
1989.7231806171
 20
247.5704283196
 30
0.0
  0
VERTEX
  5
25F
  8
0
  6
CONTINUOUS
 62
   179
 10
1990.1813146363
 20
247.8469348894
 30
0.0
  0
VERTEX
  5
260
  8
0
  6
CONTINUOUS
 62
   179
 10
1990.6288032143
 20
248.1316888327
 30
0.0
  0
VERTEX
  5
261
  8
0
  6
CONTINUOUS
 62
   179
 10
1991.0653372257
 20
248.4244934413
 30
0.0
  0
VERTEX
  5
262
  8
0
  6
CONTINUOUS
 62
   179
 10
1991.4906151127
 20
248.7251464457
 30
0.0
  0
VERTEX
  5
263
  8
0
  6
CONTINUOUS
 62
   179
 10
1991.9043430933
 20
249.0334401546
 30
0.0
  0
VERTEX
  5
264
  8
0
  6
CONTINUOUS
 62
   179
 10
1992.3062353638
 20
249.3491615988
 30
0.0
  0
VERTEX
  5
265
  8
0
  6
CONTINUOUS
 62
   179
 10
1992.6960142971
 20
249.6720926776
 30
0.0
  0
VERTEX
  5
266
  8
0
  6
CONTINUOUS
 62
   179
 10
1993.0734106337
 20
250.0020103102
 30
0.0
  0
VERTEX
  5
267
  8
0
  6
CONTINUOUS
 62
   179
 10
1993.438163668
 20
250.3386865893
 30
0.0
  0
VERTEX
  5
268
  8
0
  6
CONTINUOUS
 62
   179
 10
1993.7900214285
 20
250.6818889388
 30
0.0
  0
VERTEX
  5
269
  8
0
  6
CONTINUOUS
 62
   179
 10
1994.1287408517
 20
251.0313802745
 30
0.0
  0
VERTEX
  5
26A
  8
0
  6
CONTINUOUS
 62
   179
 10
1994.4540879501
 20
251.3869191675
 30
0.0
  0
VERTEX
  5
26B
  8
0
  6
CONTINUOUS
 62
   179
 10
1994.7658379738
 20
251.7482600114
 30
0.0
  0
VERTEX
  5
26C
  8
0
  6
CONTINUOUS
 62
   179
 10
1995.0637755659
 20
252.115153192
 30
0.0
  0
VERTEX
  5
26D
  8
0
  6
CONTINUOUS
 62
   179
 10
1995.3476949107
 20
252.4873452591
 30
0.0
  0
VERTEX
  5
26E
  8
0
  6
CONTINUOUS
 62
   179
 10
1995.6173998769
 20
252.8645791025
 30
0.0
  0
VERTEX
  5
26F
  8
0
  6
CONTINUOUS
 62
   179
 10
1995.8727041521
 20
253.2465941288
 30
0.0
  0
VERTEX
  5
270
  8
0
  6
CONTINUOUS
 62
   179
 10
1996.113431372
 20
253.6331264418
 30
0.0
  0
VERTEX
  5
271
  8
0
  6
CONTINUOUS
 62
   179
 10
1996.3394152421
 20
254.023909025
 30
0.0
  0
VERTEX
  5
272
  8
0
  6
CONTINUOUS
 62
   179
 10
1996.5504996527
 20
254.4186719255
 30
0.0
  0
VERTEX
  5
273
  8
0
  6
CONTINUOUS
 62
   179
 10
1996.7465387866
 20
254.817142441
 30
0.0
  0
VERTEX
  5
274
  8
0
  6
CONTINUOUS
 62
   179
 10
1996.9273972199
 20
255.2190453079
 30
0.0
  0
VERTEX
  5
275
  8
0
  6
CONTINUOUS
 62
   179
 10
1997.0929500155
 20
255.6241028915
 30
0.0
  0
VERTEX
  5
276
  8
0
  6
CONTINUOUS
 62
   179
 10
1997.2430828095
 20
256.032035378
 30
0.0
  0
VERTEX
  5
277
  8
0
  6
CONTINUOUS
 62
   179
 10
1997.3776918901
 20
256.4425609674
 30
0.0
  0
VERTEX
  5
278
  8
0
  6
CONTINUOUS
 62
   179
 10
1997.4966842693
 20
256.8553960684
 30
0.0
  0
VERTEX
  5
279
  8
0
  6
CONTINUOUS
 62
   179
 10
1997.5999777471
 20
257.2702554944
 30
0.0
  0
VERTEX
  5
27A
  8
0
  6
CONTINUOUS
 62
   179
 10
1997.6875009683
 20
257.6868526604
 30
0.0
  0
VERTEX
  5
27B
  8
0
  6
CONTINUOUS
 62
   179
 10
1997.7591934719
 20
258.1048997809
 30
0.0
  0
VERTEX
  5
27C
  8
0
  6
CONTINUOUS
 62
   179
 10
1997.8150057326
 20
258.5241080688
 30
0.0
  0
VERTEX
  5
27D
  8
0
  6
CONTINUOUS
 62
   179
 10
1997.8548991954
 20
258.9441879348
 30
0.0
  0
VERTEX
  5
27E
  8
0
  6
CONTINUOUS
 62
   179
 10
1997.8788463017
 20
259.3648491875
 30
0.0
  0
VERTEX
  5
27F
  8
0
  6
CONTINUOUS
 62
   179
 10
1997.886830509
 20
259.7858012341
 30
0.0
  0
VERTEX
  5
280
  8
0
  6
CONTINUOUS
 62
   179
 10
1997.8788463017
 20
260.2067532808
 30
0.0
  0
VERTEX
  5
281
  8
0
  6
CONTINUOUS
 62
   179
 10
1997.8548991954
 20
260.6274145335
 30
0.0
  0
VERTEX
  5
282
  8
0
  6
CONTINUOUS
 62
   179
 10
1997.8150057326
 20
261.0474943995
 30
0.0
  0
VERTEX
  5
283
  8
0
  6
CONTINUOUS
 62
   179
 10
1997.7591934719
 20
261.4667026874
 30
0.0
  0
VERTEX
  5
284
  8
0
  6
CONTINUOUS
 62
   179
 10
1997.6875009683
 20
261.8847498079
 30
0.0
  0
VERTEX
  5
285
  8
0
  6
CONTINUOUS
 62
   179
 10
1997.599977747
 20
262.3013469739
 30
0.0
  0
VERTEX
  5
286
  8
0
  6
CONTINUOUS
 62
   179
 10
1997.4966842692
 20
262.7162063999
 30
0.0
  0
VERTEX
  5
287
  8
0
  6
CONTINUOUS
 62
   179
 10
1997.37769189
 20
263.1290415009
 30
0.0
  0
VERTEX
  5
288
  8
0
  6
CONTINUOUS
 62
   179
 10
1997.2430828094
 20
263.5395670903
 30
0.0
  0
VERTEX
  5
289
  8
0
  6
CONTINUOUS
 62
   179
 10
1997.0929500154
 20
263.9474995768
 30
0.0
  0
VERTEX
  5
28A
  8
0
  6
CONTINUOUS
 62
   179
 10
1996.9273972198
 20
264.3525571604
 30
0.0
  0
VERTEX
  5
28B
  8
0
  6
CONTINUOUS
 62
   179
 10
1996.7465387865
 20
264.7544600273
 30
0.0
  0
VERTEX
  5
28C
  8
0
  6
CONTINUOUS
 62
   179
 10
1996.5504996526
 20
265.1529305428
 30
0.0
  0
VERTEX
  5
28D
  8
0
  6
CONTINUOUS
 62
   179
 10
1996.339415242
 20
265.5476934433
 30
0.0
  0
VERTEX
  5
28E
  8
0
  6
CONTINUOUS
 62
   179
 10
1996.1134313719
 20
265.9384760265
 30
0.0
  0
VERTEX
  5
28F
  8
0
  6
CONTINUOUS
 62
   179
 10
1995.872704152
 20
266.3250083395
 30
0.0
  0
VERTEX
  5
290
  8
0
  6
CONTINUOUS
 62
   179
 10
1995.6173998769
 20
266.7070233658
 30
0.0
  0
VERTEX
  5
291
  8
0
  6
CONTINUOUS
 62
   179
 10
1995.3476949107
 20
267.0842572091
 30
0.0
  0
VERTEX
  5
292
  8
0
  6
CONTINUOUS
 62
   179
 10
1995.0637755658
 20
267.4564492763
 30
0.0
  0
VERTEX
  5
293
  8
0
  6
CONTINUOUS
 62
   179
 10
1994.7658379738
 20
267.8233424568
 30
0.0
  0
VERTEX
  5
294
  8
0
  6
CONTINUOUS
 62
   179
 10
1994.45408795
 20
268.1846833008
 30
0.0
  0
VERTEX
  5
295
  8
0
  6
CONTINUOUS
 62
   179
 10
1994.1287408516
 20
268.5402221938
 30
0.0
  0
VERTEX
  5
296
  8
0
  6
CONTINUOUS
 62
   179
 10
1993.7900214284
 20
268.8897135295
 30
0.0
  0
VERTEX
  5
297
  8
0
  6
CONTINUOUS
 62
   179
 10
1993.4381636679
 20
269.232915879
 30
0.0
  0
VERTEX
  5
298
  8
0
  6
CONTINUOUS
 62
   179
 10
1993.0734106336
 20
269.5695921581
 30
0.0
  0
VERTEX
  5
299
  8
0
  6
CONTINUOUS
 62
   179
 10
1992.696014297
 20
269.8995097907
 30
0.0
  0
VERTEX
  5
29A
  8
0
  6
CONTINUOUS
 62
   179
 10
1992.3062353637
 20
270.2224408695
 30
0.0
  0
VERTEX
  5
29B
  8
0
  6
CONTINUOUS
 62
   179
 10
1991.9043430932
 20
270.5381623136
 30
0.0
  0
VERTEX
  5
29C
  8
0
  6
CONTINUOUS
 62
   179
 10
1991.4906151126
 20
270.8464560226
 30
0.0
  0
VERTEX
  5
29D
  8
0
  6
CONTINUOUS
 62
   179
 10
1991.0653372256
 20
271.147109027
 30
0.0
  0
VERTEX
  5
29E
  8
0
  6
CONTINUOUS
 62
   179
 10
1990.6288032142
 20
271.4399136356
 30
0.0
  0
VERTEX
  5
29F
  8
0
  6
CONTINUOUS
 62
   179
 10
1990.1813146362
 20
271.7246675788
 30
0.0
  0
VERTEX
  5
2A0
  8
0
  6
CONTINUOUS
 62
   179
 10
1989.723180617
 20
272.0011741487
 30
0.0
  0
VERTEX
  5
2A1
  8
0
  6
CONTINUOUS
 62
   179
 10
1989.2547176358
 20
272.2692423342
 30
0.0
  0
VERTEX
  5
2A2
  8
0
  6
CONTINUOUS
 62
   179
 10
1988.7762493068
 20
272.5286869537
 30
0.0
  0
VERTEX
  5
2A3
  8
0
  6
CONTINUOUS
 62
   179
 10
1988.2881061563
 20
272.779328783
 30
0.0
  0
VERTEX
  5
2A4
  8
0
  6
CONTINUOUS
 62
   179
 10
1987.7906253937
 20
273.0209946784
 30
0.0
  0
VERTEX
  5
2A5
  8
0
  6
CONTINUOUS
 62
   179
 10
1987.2841506789
 20
273.2535176971
 30
0.0
  0
VERTEX
  5
2A6
  8
0
  6
CONTINUOUS
 62
   179
 10
1986.7690318849
 20
273.476737212
 30
0.0
  0
VERTEX
  5
2A7
  8
0
  6
CONTINUOUS
 62
   179
 10
1986.2456248558
 20
273.6904990232
 30
0.0
  0
VERTEX
  5
2A8
  8
0
  6
CONTINUOUS
 62
   179
 10
1985.7142911616
 20
273.8946554637
 30
0.0
  0
VERTEX
  5
2A9
  8
0
  6
CONTINUOUS
 62
   179
 10
1985.1753978476
 20
274.0890655024
 30
0.0
  0
VERTEX
  5
2AA
  8
0
  6
CONTINUOUS
 62
   179
 10
1984.6293171816
 20
274.2735948406
 30
0.0
  0
VERTEX
  5
2AB
  8
0
  6
CONTINUOUS
 62
   179
 10
1984.0764263964
 20
274.4481160053
 30
0.0
  0
VERTEX
  5
2AC
  8
0
  6
CONTINUOUS
 62
   179
 10
1983.5171074291
 20
274.6125084374
 30
0.0
  0
VERTEX
  5
2AD
  8
0
  6
CONTINUOUS
 62
   179
 10
1982.9517466574
 20
274.7666585745
 30
0.0
  0
VERTEX
  5
2AE
  8
0
  6
CONTINUOUS
 62
   179
 10
1982.3807346328
 20
274.9104599296
 30
0.0
  0
VERTEX
  5
2AF
  8
0
  6
CONTINUOUS
 62
   179
 10
1981.8044658107
 20
275.0438131646
 30
0.0
  0
VERTEX
  5
2B0
  8
0
  6
CONTINUOUS
 62
   179
 10
1981.2233382777
 20
275.1666261591
 30
0.0
  0
VERTEX
  5
2B1
  8
0
  6
CONTINUOUS
 62
   179
 10
1980.637753477
 20
275.2788140738
 30
0.0
  0
VERTEX
  5
2B2
  8
0
  6
CONTINUOUS
 62
   179
 10
1980.0481159308
 20
275.3802994093
 30
0.0
  0
VERTEX
  5
2B3
  8
0
  6
CONTINUOUS
 62
   179
 10
1979.4548329609
 20
275.4710120595
 30
0.0
  0
VERTEX
  5
2B4
  8
0
  6
CONTINUOUS
 62
   179
 10
1978.8583144074
 20
275.55088936
 30
0.0
  0
VERTEX
  5
2B5
  8
0
  6
CONTINUOUS
 62
   179
 10
1978.2589723456
 20
275.6198761315
 30
0.0
  0
SEQEND
  5
3B1
  8
0
  6
CONTINUOUS
 62
   179
  0
POLYLINE
  5
DB
  8
0
  6
CONTINUOUS
 62
   179
 66
     1
 10
0.0
 20
0.0
 30
0.0
 70
   128
  0
VERTEX
  5
2B6
  8
0
  6
CONTINUOUS
 62
   179
 10
1885.318328698
 20
255.4515857398
 30
0.0
  0
VERTEX
  5
2B7
  8
0
  6
CONTINUOUS
 62
   179
 10
1885.8729296179
 20
255.5107740959
 30
0.0
  0
VERTEX
  5
2B8
  8
0
  6
CONTINUOUS
 62
   179
 10
1886.4240850014
 20
255.5768770087
 30
0.0
  0
VERTEX
  5
2B9
  8
0
  6
CONTINUOUS
 62
   179
 10
1886.971415795
 20
255.6498490164
 30
0.0
  0
VERTEX
  5
2BA
  8
0
  6
CONTINUOUS
 62
   179
 10
1887.5145455758
 20
255.729639933
 30
0.0
  0
VERTEX
  5
2BB
  8
0
  6
CONTINUOUS
 62
   179
 10
1888.05310081
 20
255.8161948829
 30
0.0
  0
VERTEX
  5
2BC
  8
0
  6
CONTINUOUS
 62
   179
 10
1888.58671111
 20
255.9094543384
 30
0.0
  0
VERTEX
  5
2BD
  8
0
  6
CONTINUOUS
 62
   179
 10
1889.1150094888
 20
256.009354161
 30
0.0
  0
VERTEX
  5
2BE
  8
0
  6
CONTINUOUS
 62
   179
 10
1889.6376326129
 20
256.1158256453
 30
0.0
  0
VERTEX
  5
2BF
  8
0
  6
CONTINUOUS
 62
   179
 10
1890.1542210518
 20
256.2287955663
 30
0.0
  0
VERTEX
  5
2C0
  8
0
  6
CONTINUOUS
 62
   179
 10
1890.6644195253
 20
256.3481862297
 30
0.0
  0
VERTEX
  5
2C1
  8
0
  6
CONTINUOUS
 62
   179
 10
1891.167877148
 20
256.4739155253
 30
0.0
  0
VERTEX
  5
2C2
  8
0
  6
CONTINUOUS
 62
   179
 10
1891.6642476702
 20
256.6058969837
 30
0.0
  0
VERTEX
  5
2C3
  8
0
  6
CONTINUOUS
 62
   179
 10
1892.1531897167
 20
256.7440398356
 30
0.0
  0
VERTEX
  5
2C4
  8
0
  6
CONTINUOUS
 62
   179
 10
1892.6343670207
 20
256.8882490741
 30
0.0
  0
VERTEX
  5
2C5
  8
0
  6
CONTINUOUS
 62
   179
 10
1893.107448656
 20
257.0384255203
 30
0.0
  0
VERTEX
  5
2C6
  8
0
  6
CONTINUOUS
 62
   179
 10
1893.5721092639
 20
257.1944658915
 30
0.0
  0
VERTEX
  5
2C7
  8
0
  6
CONTINUOUS
 62
   179
 10
1894.0280292772
 20
257.3562628719
 30
0.0
  0
VERTEX
  5
2C8
  8
0
  6
CONTINUOUS
 62
   179
 10
1894.47489514
 20
257.5237051867
 30
0.0
  0
VERTEX
  5
2C9
  8
0
  6
CONTINUOUS
 62
   179
 10
1894.9123995234
 20
257.6966776787
 30
0.0
  0
VERTEX
  5
2CA
  8
0
  6
CONTINUOUS
 62
   179
 10
1895.3402415368
 20
257.8750613871
 30
0.0
  0
VERTEX
  5
2CB
  8
0
  6
CONTINUOUS
 62
   179
 10
1895.7581269347
 20
258.0587336299
 30
0.0
  0
VERTEX
  5
2CC
  8
0
  6
CONTINUOUS
 62
   179
 10
1896.1657683193
 20
258.2475680876
 30
0.0
  0
VERTEX
  5
2CD
  8
0
  6
CONTINUOUS
 62
   179
 10
1896.5628853381
 20
258.4414348908
 30
0.0
  0
VERTEX
  5
2CE
  8
0
  6
CONTINUOUS
 62
   179
 10
1896.9492048766
 20
258.6402007087
 30
0.0
  0
VERTEX
  5
2CF
  8
0
  6
CONTINUOUS
 62
   179
 10
1897.324461246
 20
258.8437288417
 30
0.0
  0
VERTEX
  5
2D0
  8
0
  6
CONTINUOUS
 62
   179
 10
1897.6883963665
 20
259.0518793145
 30
0.0
  0
VERTEX
  5
2D1
  8
0
  6
CONTINUOUS
 62
   179
 10
1898.040759944
 20
259.2645089732
 30
0.0
  0
VERTEX
  5
2D2
  8
0
  6
CONTINUOUS
 62
   179
 10
1898.3813096431
 20
259.4814715832
 30
0.0
  0
VERTEX
  5
2D3
  8
0
  6
CONTINUOUS
 62
   179
 10
1898.709811253
 20
259.7026179298
 30
0.0
  0
VERTEX
  5
2D4
  8
0
  6
CONTINUOUS
 62
   179
 10
1899.0260388488
 20
259.9277959213
 30
0.0
  0
VERTEX
  5
2D5
  8
0
  6
CONTINUOUS
 62
   179
 10
1899.3297749474
 20
260.1568506929
 30
0.0
  0
VERTEX
  5
2D6
  8
0
  6
CONTINUOUS
 62
   179
 10
1899.6208106562
 20
260.3896247139
 30
0.0
  0
VERTEX
  5
2D7
  8
0
  6
CONTINUOUS
 62
   179
 10
1899.8989458174
 20
260.6259578955
 30
0.0
  0
VERTEX
  5
2D8
  8
0
  6
CONTINUOUS
 62
   179
 10
1900.1639891454
 20
260.8656877011
 30
0.0
  0
VERTEX
  5
2D9
  8
0
  6
CONTINUOUS
 62
   179
 10
1900.4157583586
 20
261.1086492583
 30
0.0
  0
VERTEX
  5
2DA
  8
0
  6
CONTINUOUS
 62
   179
 10
1900.6540803044
 20
261.3546754718
 30
0.0
  0
VERTEX
  5
2DB
  8
0
  6
CONTINUOUS
 62
   179
 10
1900.8787910785
 20
261.603597139
 30
0.0
  0
VERTEX
  5
2DC
  8
0
  6
CONTINUOUS
 62
   179
 10
1901.0897361376
 20
261.8552430654
 30
0.0
  0
VERTEX
  5
2DD
  8
0
  6
CONTINUOUS
 62
   179
 10
1901.2867704057
 20
262.1094401835
 30
0.0
  0
VERTEX
  5
2DE
  8
0
  6
CONTINUOUS
 62
   179
 10
1901.4697583737
 20
262.3660136709
 30
0.0
  0
VERTEX
  5
2DF
  8
0
  6
CONTINUOUS
 62
   179
 10
1901.6385741931
 20
262.6247870709
 30
0.0
  0
VERTEX
  5
2E0
  8
0
  6
CONTINUOUS
 62
   179
 10
1901.7931017618
 20
262.8855824138
 30
0.0
  0
VERTEX
  5
2E1
  8
0
  6
CONTINUOUS
 62
   179
 10
1901.9332348046
 20
263.1482203396
 30
0.0
  0
VERTEX
  5
2E2
  8
0
  6
CONTINUOUS
 62
   179
 10
1902.0588769459
 20
263.4125202206
 30
0.0
  0
VERTEX
  5
2E3
  8
0
  6
CONTINUOUS
 62
   179
 10
1902.1699417763
 20
263.6783002866
 30
0.0
  0
VERTEX
  5
2E4
  8
0
  6
CONTINUOUS
 62
   179
 10
1902.2663529115
 20
263.9453777491
 30
0.0
  0
VERTEX
  5
2E5
  8
0
  6
CONTINUOUS
 62
   179
 10
1902.3480440457
 20
264.2135689273
 30
0.0
  0
VERTEX
  5
2E6
  8
0
  6
CONTINUOUS
 62
   179
 10
1902.4149589961
 20
264.4826893746
 30
0.0
  0
VERTEX
  5
2E7
  8
0
  6
CONTINUOUS
 62
   179
 10
1902.4670517426
 20
264.7525540054
 30
0.0
  0
VERTEX
  5
2E8
  8
0
  6
CONTINUOUS
 62
   179
 10
1902.5042864587
 20
265.022977222
 30
0.0
  0
VERTEX
  5
2E9
  8
0
  6
CONTINUOUS
 62
   179
 10
1902.5266375364
 20
265.2937730427
 30
0.0
  0
VERTEX
  5
2EA
  8
0
  6
CONTINUOUS
 62
   179
 10
1902.5340896041
 20
265.5647552295
 30
0.0
  0
VERTEX
  5
2EB
  8
0
  6
CONTINUOUS
 62
   179
 10
1902.5266375365
 20
265.8357374163
 30
0.0
  0
VERTEX
  5
2EC
  8
0
  6
CONTINUOUS
 62
   179
 10
1902.5042864587
 20
266.106533237
 30
0.0
  0
VERTEX
  5
2ED
  8
0
  6
CONTINUOUS
 62
   179
 10
1902.4670517426
 20
266.3769564536
 30
0.0
  0
VERTEX
  5
2EE
  8
0
  6
CONTINUOUS
 62
   179
 10
1902.4149589962
 20
266.6468210844
 30
0.0
  0
VERTEX
  5
2EF
  8
0
  6
CONTINUOUS
 62
   179
 10
1902.3480440457
 20
266.9159415317
 30
0.0
  0
VERTEX
  5
2F0
  8
0
  6
CONTINUOUS
 62
   179
 10
1902.2663529116
 20
267.1841327099
 30
0.0
  0
VERTEX
  5
2F1
  8
0
  6
CONTINUOUS
 62
   179
 10
1902.1699417763
 20
267.4512101724
 30
0.0
  0
VERTEX
  5
2F2
  8
0
  6
CONTINUOUS
 62
   179
 10
1902.058876946
 20
267.7169902384
 30
0.0
  0
VERTEX
  5
2F3
  8
0
  6
CONTINUOUS
 62
   179
 10
1901.9332348046
 20
267.9812901194
 30
0.0
  0
VERTEX
  5
2F4
  8
0
  6
CONTINUOUS
 62
   179
 10
1901.7931017619
 20
268.2439280452
 30
0.0
  0
VERTEX
  5
2F5
  8
0
  6
CONTINUOUS
 62
   179
 10
1901.6385741932
 20
268.5047233881
 30
0.0
  0
VERTEX
  5
2F6
  8
0
  6
CONTINUOUS
 62
   179
 10
1901.4697583738
 20
268.7634967881
 30
0.0
  0
VERTEX
  5
2F7
  8
0
  6
CONTINUOUS
 62
   179
 10
1901.2867704058
 20
269.0200702755
 30
0.0
  0
VERTEX
  5
2F8
  8
0
  6
CONTINUOUS
 62
   179
 10
1901.0897361377
 20
269.2742673936
 30
0.0
  0
VERTEX
  5
2F9
  8
0
  6
CONTINUOUS
 62
   179
 10
1900.8787910786
 20
269.52591332
 30
0.0
  0
VERTEX
  5
2FA
  8
0
  6
CONTINUOUS
 62
   179
 10
1900.6540803045
 20
269.7748349872
 30
0.0
  0
VERTEX
  5
2FB
  8
0
  6
CONTINUOUS
 62
   179
 10
1900.4157583588
 20
270.0208612007
 30
0.0
  0
VERTEX
  5
2FC
  8
0
  6
CONTINUOUS
 62
   179
 10
1900.1639891456
 20
270.2638227579
 30
0.0
  0
VERTEX
  5
2FD
  8
0
  6
CONTINUOUS
 62
   179
 10
1899.8989458175
 20
270.5035525636
 30
0.0
  0
VERTEX
  5
2FE
  8
0
  6
CONTINUOUS
 62
   179
 10
1899.6208106563
 20
270.7398857451
 30
0.0
  0
VERTEX
  5
2FF
  8
0
  6
CONTINUOUS
 62
   179
 10
1899.3297749475
 20
270.9726597661
 30
0.0
  0
VERTEX
  5
300
  8
0
  6
CONTINUOUS
 62
   179
 10
1899.026038849
 20
271.2017145378
 30
0.0
  0
VERTEX
  5
301
  8
0
  6
CONTINUOUS
 62
   179
 10
1898.7098112531
 20
271.4268925292
 30
0.0
  0
VERTEX
  5
302
  8
0
  6
CONTINUOUS
 62
   179
 10
1898.3813096433
 20
271.6480388759
 30
0.0
  0
VERTEX
  5
303
  8
0
  6
CONTINUOUS
 62
   179
 10
1898.0407599442
 20
271.8650014858
 30
0.0
  0
VERTEX
  5
304
  8
0
  6
CONTINUOUS
 62
   179
 10
1897.6883963666
 20
272.0776311445
 30
0.0
  0
VERTEX
  5
305
  8
0
  6
CONTINUOUS
 62
   179
 10
1897.3244612462
 20
272.2857816173
 30
0.0
  0
VERTEX
  5
306
  8
0
  6
CONTINUOUS
 62
   179
 10
1896.9492048767
 20
272.4893097503
 30
0.0
  0
VERTEX
  5
307
  8
0
  6
CONTINUOUS
 62
   179
 10
1896.5628853383
 20
272.6880755682
 30
0.0
  0
VERTEX
  5
308
  8
0
  6
CONTINUOUS
 62
   179
 10
1896.1657683195
 20
272.8819423714
 30
0.0
  0
VERTEX
  5
309
  8
0
  6
CONTINUOUS
 62
   179
 10
1895.7581269349
 20
273.0707768292
 30
0.0
  0
VERTEX
  5
30A
  8
0
  6
CONTINUOUS
 62
   179
 10
1895.340241537
 20
273.2544490719
 30
0.0
  0
VERTEX
  5
30B
  8
0
  6
CONTINUOUS
 62
   179
 10
1894.9123995236
 20
273.4328327804
 30
0.0
  0
VERTEX
  5
30C
  8
0
  6
CONTINUOUS
 62
   179
 10
1894.4748951402
 20
273.6058052723
 30
0.0
  0
VERTEX
  5
30D
  8
0
  6
CONTINUOUS
 62
   179
 10
1894.0280292774
 20
273.7732475872
 30
0.0
  0
VERTEX
  5
30E
  8
0
  6
CONTINUOUS
 62
   179
 10
1893.5721092641
 20
273.9350445675
 30
0.0
  0
VERTEX
  5
30F
  8
0
  6
CONTINUOUS
 62
   179
 10
1893.1074486563
 20
274.0910849387
 30
0.0
  0
VERTEX
  5
310
  8
0
  6
CONTINUOUS
 62
   179
 10
1892.634367021
 20
274.241261385
 30
0.0
  0
VERTEX
  5
311
  8
0
  6
CONTINUOUS
 62
   179
 10
1892.1531897169
 20
274.3854706235
 30
0.0
  0
VERTEX
  5
312
  8
0
  6
CONTINUOUS
 62
   179
 10
1891.6642476705
 20
274.5236134753
 30
0.0
  0
VERTEX
  5
313
  8
0
  6
CONTINUOUS
 62
   179
 10
1891.1678771482
 20
274.6555949338
 30
0.0
  0
VERTEX
  5
314
  8
0
  6
CONTINUOUS
 62
   179
 10
1890.6644195255
 20
274.7813242294
 30
0.0
  0
VERTEX
  5
315
  8
0
  6
CONTINUOUS
 62
   179
 10
1890.154221052
 20
274.9007148927
 30
0.0
  0
VERTEX
  5
316
  8
0
  6
CONTINUOUS
 62
   179
 10
1889.6376326131
 20
275.0136848137
 30
0.0
  0
VERTEX
  5
317
  8
0
  6
CONTINUOUS
 62
   179
 10
1889.115009489
 20
275.1201562981
 30
0.0
  0
VERTEX
  5
318
  8
0
  6
CONTINUOUS
 62
   179
 10
1888.5867111102
 20
275.2200561207
 30
0.0
  0
VERTEX
  5
319
  8
0
  6
CONTINUOUS
 62
   179
 10
1888.0531008103
 20
275.3133155762
 30
0.0
  0
VERTEX
  5
31A
  8
0
  6
CONTINUOUS
 62
   179
 10
1887.5145455761
 20
275.3998705261
 30
0.0
  0
VERTEX
  5
31B
  8
0
  6
CONTINUOUS
 62
   179
 10
1886.9714157953
 20
275.4796614427
 30
0.0
  0
VERTEX
  5
31C
  8
0
  6
CONTINUOUS
 62
   179
 10
1886.4240850016
 20
275.5526334504
 30
0.0
  0
VERTEX
  5
31D
  8
0
  6
CONTINUOUS
 62
   179
 10
1885.8729296182
 20
275.6187363632
 30
0.0
  0
SEQEND
  5
3B2
  8
0
  6
CONTINUOUS
 62
   179
  0
POLYLINE
  5
DC
  8
0
  6
CONTINUOUS
 62
   179
 66
     1
 10
0.0
 20
0.0
 30
0.0
 70
   128
  0
VERTEX
  5
31E
  8
0
  6
CONTINUOUS
 62
   179
 10
2166.6293503871
 20
270.8673365898
 30
0.0
  0
VERTEX
  5
31F
  8
0
  6
CONTINUOUS
 62
   179
 10
2166.6633660862
 20
270.8730050586
 30
0.0
  0
VERTEX
  5
320
  8
0
  6
CONTINUOUS
 62
   179
 10
2166.6971891076
 20
270.8795797836
 30
0.0
  0
VERTEX
  5
321
  8
0
  6
CONTINUOUS
 62
   179
 10
2166.7307910141
 20
270.8870552369
 30
0.0
  0
VERTEX
  5
322
  8
0
  6
CONTINUOUS
 62
   179
 10
2166.764143554
 20
270.8954251334
 30
0.0
  0
VERTEX
  5
323
  8
0
  6
CONTINUOUS
 62
   179
 10
2166.7972186855
 20
270.9046824358
 30
0.0
  0
VERTEX
  5
324
  8
0
  6
CONTINUOUS
 62
   179
 10
2166.8299886
 20
270.9148193609
 30
0.0
  0
VERTEX
  5
325
  8
0
  6
CONTINUOUS
 62
   179
 10
2166.8624257452
 20
270.9258273859
 30
0.0
  0
VERTEX
  5
326
  8
0
  6
CONTINUOUS
 62
   179
 10
2166.8945028491
 20
270.9376972554
 30
0.0
  0
VERTEX
  5
327
  8
0
  6
CONTINUOUS
 62
   179
 10
2166.9261929421
 20
270.9504189897
 30
0.0
  0
VERTEX
  5
328
  8
0
  6
CONTINUOUS
 62
   179
 10
2166.9574693801
 20
270.9639818927
 30
0.0
  0
VERTEX
  5
329
  8
0
  6
CONTINUOUS
 62
   179
 10
2166.9883058666
 20
270.978374561
 30
0.0
  0
VERTEX
  5
32A
  8
0
  6
CONTINUOUS
 62
   179
 10
2167.0186764752
 20
270.9935848937
 30
0.0
  0
VERTEX
  5
32B
  8
0
  6
CONTINUOUS
 62
   179
 10
2167.0485556711
 20
271.0096001024
 30
0.0
  0
VERTEX
  5
32C
  8
0
  6
CONTINUOUS
 62
   179
 10
2167.0779183328
 20
271.0264067219
 30
0.0
  0
VERTEX
  5
32D
  8
0
  6
CONTINUOUS
 62
   179
 10
2167.1067397729
 20
271.0439906217
 30
0.0
  0
VERTEX
  5
32E
  8
0
  6
CONTINUOUS
 62
   179
 10
2167.1349957592
 20
271.0623370178
 30
0.0
  0
VERTEX
  5
32F
  8
0
  6
CONTINUOUS
 62
   179
 10
2167.1626625348
 20
271.0814304849
 30
0.0
  0
VERTEX
  5
330
  8
0
  6
CONTINUOUS
 62
   179
 10
2167.1897168383
 20
271.1012549699
 30
0.0
  0
VERTEX
  5
331
  8
0
  6
CONTINUOUS
 62
   179
 10
2167.2161359231
 20
271.1217938048
 30
0.0
  0
VERTEX
  5
332
  8
0
  6
CONTINUOUS
 62
   179
 10
2167.2418975768
 20
271.1430297211
 30
0.0
  0
VERTEX
  5
333
  8
0
  6
CONTINUOUS
 62
   179
 10
2167.2669801398
 20
271.1649448644
 30
0.0
  0
VERTEX
  5
334
  8
0
  6
CONTINUOUS
 62
   179
 10
2167.2913625233
 20
271.187520809
 30
0.0
  0
VERTEX
  5
335
  8
0
  6
CONTINUOUS
 62
   179
 10
2167.3150242272
 20
271.2107385736
 30
0.0
  0
VERTEX
  5
336
  8
0
  6
CONTINUOUS
 62
   179
 10
2167.3379453576
 20
271.2345786373
 30
0.0
  0
VERTEX
  5
337
  8
0
  6
CONTINUOUS
 62
   179
 10
2167.3601066428
 20
271.2590209562
 30
0.0
  0
VERTEX
  5
338
  8
0
  6
CONTINUOUS
 62
   179
 10
2167.3814894504
 20
271.2840449798
 30
0.0
  0
VERTEX
  5
339
  8
0
  6
CONTINUOUS
 62
   179
 10
2167.4020758022
 20
271.3096296685
 30
0.0
  0
VERTEX
  5
33A
  8
0
  6
CONTINUOUS
 62
   179
 10
2167.4218483899
 20
271.3357535116
 30
0.0
  0
VERTEX
  5
33B
  8
0
  6
CONTINUOUS
 62
   179
 10
2167.4407905891
 20
271.3623945447
 30
0.0
  0
VERTEX
  5
33C
  8
0
  6
CONTINUOUS
 62
   179
 10
2167.4588864739
 20
271.3895303689
 30
0.0
  0
VERTEX
  5
33D
  8
0
  6
CONTINUOUS
 62
   179
 10
2167.4761208296
 20
271.417138169
 30
0.0
  0
VERTEX
  5
33E
  8
0
  6
CONTINUOUS
 62
   179
 10
2167.4924791662
 20
271.4451947333
 30
0.0
  0
VERTEX
  5
33F
  8
0
  6
CONTINUOUS
 62
   179
 10
2167.5079477299
 20
271.4736764726
 30
0.0
  0
VERTEX
  5
340
  8
0
  6
CONTINUOUS
 62
   179
 10
2167.5225135153
 20
271.5025594401
 30
0.0
  0
VERTEX
  5
341
  8
0
  6
CONTINUOUS
 62
   179
 10
2167.5361642758
 20
271.5318193519
 30
0.0
  0
VERTEX
  5
342
  8
0
  6
CONTINUOUS
 62
   179
 10
2167.5488885343
 20
271.5614316071
 30
0.0
  0
VERTEX
  5
343
  8
0
  6
CONTINUOUS
 62
   179
 10
2167.5606755925
 20
271.5913713085
 30
0.0
  0
VERTEX
  5
344
  8
0
  6
CONTINUOUS
 62
   179
 10
2167.5715155403
 20
271.6216132836
 30
0.0
  0
VERTEX
  5
345
  8
0
  6
CONTINUOUS
 62
   179
 10
2167.5813992636
 20
271.6521321058
 30
0.0
  0
VERTEX
  5
346
  8
0
  6
CONTINUOUS
 62
   179
 10
2167.5903184526
 20
271.6829021158
 30
0.0
  0
VERTEX
  5
347
  8
0
  6
CONTINUOUS
 62
   179
 10
2167.5982656082
 20
271.7138974429
 30
0.0
  0
VERTEX
  5
348
  8
0
  6
CONTINUOUS
 62
   179
 10
2167.6052340487
 20
271.7450920272
 30
0.0
  0
VERTEX
  5
349
  8
0
  6
CONTINUOUS
 62
   179
 10
2167.6112179151
 20
271.7764596412
 30
0.0
  0
VERTEX
  5
34A
  8
0
  6
CONTINUOUS
 62
   179
 10
2167.6162121765
 20
271.8079739117
 30
0.0
  0
VERTEX
  5
34B
  8
0
  6
CONTINUOUS
 62
   179
 10
2167.6202126339
 20
271.8396083425
 30
0.0
  0
VERTEX
  5
34C
  8
0
  6
CONTINUOUS
 62
   179
 10
2167.6232159236
 20
271.8713363362
 30
0.0
  0
VERTEX
  5
34D
  8
0
  6
CONTINUOUS
 62
   179
 10
2167.6252195207
 20
271.9031312168
 30
0.0
  0
VERTEX
  5
34E
  8
0
  6
CONTINUOUS
 62
   179
 10
2167.6262217406
 20
271.9349662521
 30
0.0
  0
VERTEX
  5
34F
  8
0
  6
CONTINUOUS
 62
   179
 10
2167.6262217406
 20
271.966814676
 30
0.0
  0
VERTEX
  5
350
  8
0
  6
CONTINUOUS
 62
   179
 10
2167.6252195207
 20
271.9986497112
 30
0.0
  0
VERTEX
  5
351
  8
0
  6
CONTINUOUS
 62
   179
 10
2167.6232159236
 20
272.0304445919
 30
0.0
  0
VERTEX
  5
352
  8
0
  6
CONTINUOUS
 62
   179
 10
2167.6202126339
 20
272.0621725856
 30
0.0
  0
VERTEX
  5
353
  8
0
  6
CONTINUOUS
 62
   179
 10
2167.6162121765
 20
272.0938070164
 30
0.0
  0
VERTEX
  5
354
  8
0
  6
CONTINUOUS
 62
   179
 10
2167.6112179151
 20
272.1253212869
 30
0.0
  0
VERTEX
  5
355
  8
0
  6
CONTINUOUS
 62
   179
 10
2167.6052340487
 20
272.1566889008
 30
0.0
  0
VERTEX
  5
356
  8
0
  6
CONTINUOUS
 62
   179
 10
2167.5982656082
 20
272.1878834851
 30
0.0
  0
VERTEX
  5
357
  8
0
  6
CONTINUOUS
 62
   179
 10
2167.5903184526
 20
272.2188788123
 30
0.0
  0
VERTEX
  5
358
  8
0
  6
CONTINUOUS
 62
   179
 10
2167.5813992636
 20
272.2496488222
 30
0.0
  0
VERTEX
  5
359
  8
0
  6
CONTINUOUS
 62
   179
 10
2167.5715155403
 20
272.2801676445
 30
0.0
  0
VERTEX
  5
35A
  8
0
  6
CONTINUOUS
 62
   179
 10
2167.5606755925
 20
272.3104096196
 30
0.0
  0
VERTEX
  5
35B
  8
0
  6
CONTINUOUS
 62
   179
 10
2167.5488885343
 20
272.340349321
 30
0.0
  0
VERTEX
  5
35C
  8
0
  6
CONTINUOUS
 62
   179
 10
2167.5361642758
 20
272.3699615762
 30
0.0
  0
VERTEX
  5
35D
  8
0
  6
CONTINUOUS
 62
   179
 10
2167.5225135153
 20
272.399221488
 30
0.0
  0
VERTEX
  5
35E
  8
0
  6
CONTINUOUS
 62
   179
 10
2167.5079477299
 20
272.4281044555
 30
0.0
  0
VERTEX
  5
35F
  8
0
  6
CONTINUOUS
 62
   179
 10
2167.4924791662
 20
272.4565861947
 30
0.0
  0
VERTEX
  5
360
  8
0
  6
CONTINUOUS
 62
   179
 10
2167.4761208296
 20
272.484642759
 30
0.0
  0
VERTEX
  5
361
  8
0
  6
CONTINUOUS
 62
   179
 10
2167.4588864739
 20
272.5122505592
 30
0.0
  0
VERTEX
  5
362
  8
0
  6
CONTINUOUS
 62
   179
 10
2167.4407905891
 20
272.5393863834
 30
0.0
  0
VERTEX
  5
363
  8
0
  6
CONTINUOUS
 62
   179
 10
2167.4218483899
 20
272.5660274165
 30
0.0
  0
VERTEX
  5
364
  8
0
  6
CONTINUOUS
 62
   179
 10
2167.4020758022
 20
272.5921512595
 30
0.0
  0
VERTEX
  5
365
  8
0
  6
CONTINUOUS
 62
   179
 10
2167.3814894504
 20
272.6177359483
 30
0.0
  0
VERTEX
  5
366
  8
0
  6
CONTINUOUS
 62
   179
 10
2167.3601066428
 20
272.6427599718
 30
0.0
  0
VERTEX
  5
367
  8
0
  6
CONTINUOUS
 62
   179
 10
2167.3379453576
 20
272.6672022907
 30
0.0
  0
VERTEX
  5
368
  8
0
  6
CONTINUOUS
 62
   179
 10
2167.3150242272
 20
272.6910423545
 30
0.0
  0
VERTEX
  5
369
  8
0
  6
CONTINUOUS
 62
   179
 10
2167.2913625233
 20
272.7142601191
 30
0.0
  0
VERTEX
  5
36A
  8
0
  6
CONTINUOUS
 62
   179
 10
2167.2669801398
 20
272.7368360636
 30
0.0
  0
VERTEX
  5
36B
  8
0
  6
CONTINUOUS
 62
   179
 10
2167.2418975768
 20
272.7587512069
 30
0.0
  0
VERTEX
  5
36C
  8
0
  6
CONTINUOUS
 62
   179
 10
2167.2161359231
 20
272.7799871233
 30
0.0
  0
VERTEX
  5
36D
  8
0
  6
CONTINUOUS
 62
   179
 10
2167.1897168383
 20
272.8005259582
 30
0.0
  0
VERTEX
  5
36E
  8
0
  6
CONTINUOUS
 62
   179
 10
2167.1626625348
 20
272.8203504432
 30
0.0
  0
VERTEX
  5
36F
  8
0
  6
CONTINUOUS
 62
   179
 10
2167.1349957592
 20
272.8394439103
 30
0.0
  0
VERTEX
  5
370
  8
0
  6
CONTINUOUS
 62
   179
 10
2167.1067397729
 20
272.8577903063
 30
0.0
  0
VERTEX
  5
371
  8
0
  6
CONTINUOUS
 62
   179
 10
2167.0779183328
 20
272.8753742061
 30
0.0
  0
VERTEX
  5
372
  8
0
  6
CONTINUOUS
 62
   179
 10
2167.0485556711
 20
272.8921808256
 30
0.0
  0
VERTEX
  5
373
  8
0
  6
CONTINUOUS
 62
   179
 10
2167.0186764752
 20
272.9081960343
 30
0.0
  0
VERTEX
  5
374
  8
0
  6
CONTINUOUS
 62
   179
 10
2166.9883058666
 20
272.923406367
 30
0.0
  0
VERTEX
  5
375
  8
0
  6
CONTINUOUS
 62
   179
 10
2166.9574693801
 20
272.9377990353
 30
0.0
  0
VERTEX
  5
376
  8
0
  6
CONTINUOUS
 62
   179
 10
2166.9261929421
 20
272.9513619383
 30
0.0
  0
VERTEX
  5
377
  8
0
  6
CONTINUOUS
 62
   179
 10
2166.8945028491
 20
272.9640836726
 30
0.0
  0
VERTEX
  5
378
  8
0
  6
CONTINUOUS
 62
   179
 10
2166.8624257452
 20
272.9759535422
 30
0.0
  0
VERTEX
  5
379
  8
0
  6
CONTINUOUS
 62
   179
 10
2166.8299886
 20
272.9869615671
 30
0.0
  0
VERTEX
  5
37A
  8
0
  6
CONTINUOUS
 62
   179
 10
2166.7972186855
 20
272.9970984923
 30
0.0
  0
VERTEX
  5
37B
  8
0
  6
CONTINUOUS
 62
   179
 10
2166.764143554
 20
273.0063557947
 30
0.0
  0
VERTEX
  5
37C
  8
0
  6
CONTINUOUS
 62
   179
 10
2166.7307910141
 20
273.0147256911
 30
0.0
  0
VERTEX
  5
37D
  8
0
  6
CONTINUOUS
 62
   179
 10
2166.6971891076
 20
273.0222011444
 30
0.0
  0
VERTEX
  5
37E
  8
0
  6
CONTINUOUS
 62
   179
 10
2166.6633660862
 20
273.0287758694
 30
0.0
  0
SEQEND
  5
3B3
  8
0
  6
CONTINUOUS
 62
   179
  0
TEXT
  5
DD
  8
0
  6
CONTINUOUS
 62
     7
 10
1785.1559563576
 20
104.779293096
 30
0.0
 40
29.6333333333
  1
4410, 4411
 41
0.7
 11
1785.1559563576
 21
94.3110199277
 31
0.0
 73
     1
  0
TEXT
  5
DE
  8
0
  6
CONTINUOUS
 62
     7
 10
1727.1076790258
 20
103.6340762368
 30
0.0
 40
14.4
  1
COD.
 41
0.7
 11
1727.1076790258
 21
98.5471313452
 31
0.0
 73
     1
  0
TEXT
  5
DF
  8
0
  6
CONTINUOUS
 62
     7
 10
85.6684142774
 20
46.3015832135
 30
0.0
 40
14.4
  1
This document is the property of PEDRALI S.p.A. who willsafeguard its rights according to the civil and penal prevision of the Law.
 41
0.6438931298
 11
85.6684142774
 21
41.2146383218
 31
0.0
 73
     1
  0
INSERT
  5
E5
  8
0
  6
CONTINUOUS
 62
     7
  2
SW_NOTE_0
 10
1152.688478929
 20
42.8650719005
 30
0.0
  0
TEXT
  5
E6
  8
0
  6
CONTINUOUS
 62
     7
 10
1727.1076790258
 20
173.9725374099
 30
0.0
 40
14.4
  1
SERIE:
 41
0.7
 11
1727.1076790258
 21
168.8855925183
 31
0.0
 73
     1
  0
TEXT
  5
E7
  8
0
  6
CONTINUOUS
 62
     7
 10
1785.1559563576
 20
175.1177542691
 30
0.0
 40
29.6333333333
  1
INOX
 41
0.7
 11
1785.1559563576
 21
164.6494811009
 31
0.0
 73
     1
  0
INSERT
  5
ED
  8
0
  6
CONTINUOUS
 62
     7
  2
SW_NOTE_1
 10
2213.5906449563
 20
194.1305702705
 30
0.0
  0
LINE
  5
EE
  8
0
  6
CONTINUOUS
 62
     7
 10
950.6226652053
 20
748.676
 30
0.0
 11
950.6226652053
 21
753.676
 31
0.0
  0
LINE
  5
EF
  8
0
  6
CONTINUOUS
 62
     7
 10
932.6226652053
 20
753.676
 30
0.0
 11
932.6226652053
 21
748.676
 31
0.0
  0
LINE
  5
F0
  8
0
  6
CONTINUOUS
 62
     7
 10
1314.3533347947
 20
748.676
 30
0.0
 11
1314.3533347947
 21
753.676
 31
0.0
  0
LINE
  5
F1
  8
0
  6
CONTINUOUS
 62
     7
 10
1296.3533347947
 20
753.676
 30
0.0
 11
1296.3533347947
 21
748.676
 31
0.0
  0
LINE
  5
F2
  8
0
  6
CONTINUOUS
 62
     7
 10
1132.488
 20
748.676
 30
0.0
 11
1132.488
 21
753.676
 31
0.0
  0
LINE
  5
F3
  8
0
  6
CONTINUOUS
 62
     7
 10
1114.488
 20
753.676
 30
0.0
 11
1114.488
 21
748.676
 31
0.0
  0
LINE
  5
F4
  8
0
  6
CONTINUOUS
 62
     7
 10
1284.3871294121
 20
1470.676
 30
0.0
 11
1285.6519969244
 21
1479.676
 31
0.0
  0
LINE
  5
F5
  8
0
  6
CONTINUOUS
 62
     7
 10
961.3240030756
 20
1479.676
 30
0.0
 11
962.5888705879
 21
1470.676
 31
0.0
  0
LINE
  5
F6
  8
0
  6
CONTINUOUS
 62
     7
 10
1175.6150199671
 20
1455.676
 30
0.0
 11
1175.6848753711
 21
1456.1730470264
 31
0.0
  0
LINE
  5
F7
  8
0
  6
CONTINUOUS
 62
     7
 10
1071.2911246289
 20
1456.1730470264
 30
0.0
 11
1071.3609800329
 21
1455.676
 31
0.0
  0
LINE
  5
F8
  8
0
  6
CONTINUOUS
 62
     7
 10
1085.488
 20
1455.676
 30
0.0
 11
1085.488
 21
764.676
 31
0.0
  0
LINE
  5
F9
  8
0
  6
CONTINUOUS
 62
     7
 10
1161.488
 20
764.676
 30
0.0
 11
1161.488
 21
1455.676
 31
0.0
  0
LINE
  5
FA
  8
0
  6
CONTINUOUS
 62
     7
 10
1350.988
 20
753.676
 30
0.0
 11
1350.988
 21
764.676
 31
0.0
  0
LINE
  5
FB
  8
0
  6
CONTINUOUS
 62
     7
 10
895.988
 20
764.676
 30
0.0
 11
895.988
 21
753.676
 31
0.0
  0
LINE
  5
FC
  8
0
  6
CONTINUOUS
 62
     7
 10
946.1226652053
 20
748.676
 30
0.0
 11
932.6226652053
 21
748.676
 31
0.0
  0
LINE
  5
FD
  8
0
  6
CONTINUOUS
 62
     7
 10
950.6226652053
 20
748.676
 30
0.0
 11
946.1226652053
 21
748.676
 31
0.0
  0
LINE
  5
FE
  8
0
  6
CONTINUOUS
 62
     7
 10
1314.3533347947
 20
748.676
 30
0.0
 11
1296.3533347947
 21
748.676
 31
0.0
  0
LINE
  5
FF
  8
0
  6
CONTINUOUS
 62
     7
 10
1132.488
 20
748.676
 30
0.0
 11
1114.488
 21
748.676
 31
0.0
  0
LINE
  5
100
  8
0
  6
CONTINUOUS
 62
     7
 10
1284.3871294121
 20
1470.676
 30
0.0
 11
1258.7318334582
 21
1470.676
 31
0.0
  0
LINE
  5
101
  8
0
  6
CONTINUOUS
 62
     7
 10
1285.6519969244
 20
1479.676
 30
0.0
 11
1257.866719469
 21
1479.676
 31
0.0
  0
LINE
  5
102
  8
0
  6
CONTINUOUS
 62
     7
 10
988.2441665418
 20
1470.676
 30
0.0
 11
962.5888705879
 21
1470.676
 31
0.0
  0
LINE
  5
103
  8
0
  6
CONTINUOUS
 62
     7
 10
989.109280531
 20
1479.676
 30
0.0
 11
961.3240030756
 21
1479.676
 31
0.0
  0
LINE
  5
104
  8
0
  6
CONTINUOUS
 62
     7
 10
1144.4653092347
 20
1479.676
 30
0.0
 11
1144.7336265526
 21
1470.676
 31
0.0
  0
LINE
  5
105
  8
0
  6
CONTINUOUS
 62
     7
 10
1258.7318334582
 20
1470.676
 30
0.0
 11
1144.7336265526
 21
1470.676
 31
0.0
  0
LINE
  5
106
  8
0
  6
CONTINUOUS
 62
     7
 10
1257.866719469
 20
1479.676
 30
0.0
 11
1144.4653092347
 21
1479.676
 31
0.0
  0
LINE
  5
107
  8
0
  6
CONTINUOUS
 62
     7
 10
1102.2423734474
 20
1470.676
 30
0.0
 11
1102.5106907653
 21
1479.676
 31
0.0
  0
LINE
  5
108
  8
0
  6
CONTINUOUS
 62
     7
 10
1102.2423734474
 20
1470.676
 30
0.0
 11
988.2441665418
 21
1470.676
 31
0.0
  0
LINE
  5
109
  8
0
  6
CONTINUOUS
 62
     7
 10
1102.5106907653
 20
1479.676
 30
0.0
 11
989.109280531
 21
1479.676
 31
0.0
  0
POLYLINE
  5
10A
  8
0
  6
CONTINUOUS
 62
     7
 66
     1
 10
0.0
 20
0.0
 30
0.0
 70
   128
  0
VERTEX
  5
37F
  8
0
  6
CONTINUOUS
 62
     7
 10
1079.3657604551
 20
1455.8187382464
 30
0.0
  0
VERTEX
  5
380
  8
0
  6
CONTINUOUS
 62
     7
 10
1080.3093239948
 20
1455.7563598036
 30
0.0
  0
VERTEX
  5
381
  8
0
  6
CONTINUOUS
 62
     7
 10
1081.2551641558
 20
1455.7117725482
 30
0.0
  0
SEQEND
  5
3B4
  8
0
  6
CONTINUOUS
 62
     7
  0
LINE
  5
10B
  8
0
  6
CONTINUOUS
 62
     7
 10
984.8458803825
 20
1469.1387609804
 30
0.0
 11
984.5415174968
 21
1470.676
 31
0.0
  0
LINE
  5
10C
  8
0
  6
CONTINUOUS
 62
     7
 10
1262.1301196175
 20
1469.1387609804
 30
0.0
 11
1262.4344825032
 21
1470.676
 31
0.0
  0
POLYLINE
  5
10D
  8
0
  6
CONTINUOUS
 62
     7
 66
     1
 10
0.0
 20
0.0
 30
0.0
 70
   128
  0
VERTEX
  5
382
  8
0
  6
CONTINUOUS
 62
     7
 10
990.7880347873
 20
1462.2635648478
 30
0.0
  0
VERTEX
  5
383
  8
0
  6
CONTINUOUS
 62
     7
 10
990.300483111
 20
1462.3299103783
 30
0.0
  0
VERTEX
  5
384
  8
0
  6
CONTINUOUS
 62
     7
 10
989.8128829546
 20
1462.4549602115
 30
0.0
  0
VERTEX
  5
385
  8
0
  6
CONTINUOUS
 62
     7
 10
989.3288474684
 20
1462.6377877199
 30
0.0
  0
VERTEX
  5
386
  8
0
  6
CONTINUOUS
 62
     7
 10
988.8519633883
 20
1462.877038139
 30
0.0
  0
VERTEX
  5
387
  8
0
  6
CONTINUOUS
 62
     7
 10
988.3857644577
 20
1463.1709386071
 30
0.0
  0
VERTEX
  5
388
  8
0
  6
CONTINUOUS
 62
     7
 10
987.9337052424
 20
1463.5173113017
 30
0.0
  0
VERTEX
  5
389
  8
0
  6
CONTINUOUS
 62
     7
 10
987.4991355318
 20
1463.9135895775
 30
0.0
  0
VERTEX
  5
38A
  8
0
  6
CONTINUOUS
 62
     7
 10
987.0852755172
 20
1464.3568369857
 30
0.0
  0
VERTEX
  5
38B
  8
0
  6
CONTINUOUS
 62
     7
 10
986.6951919293
 20
1464.8437690328
 30
0.0
  0
VERTEX
  5
38C
  8
0
  6
CONTINUOUS
 62
     7
 10
986.3317753139
 20
1465.3707775192
 30
0.0
  0
VERTEX
  5
38D
  8
0
  6
CONTINUOUS
 62
     7
 10
985.9977186131
 20
1465.9339572762
 30
0.0
  0
VERTEX
  5
38E
  8
0
  6
CONTINUOUS
 62
     7
 10
985.6954972095
 20
1466.5291351037
 30
0.0
  0
VERTEX
  5
38F
  8
0
  6
CONTINUOUS
 62
     7
 10
985.4273505843
 20
1467.1519006933
 30
0.0
  0
VERTEX
  5
390
  8
0
  6
CONTINUOUS
 62
     7
 10
985.1952657224
 20
1467.7976393098
 30
0.0
  0
VERTEX
  5
391
  8
0
  6
CONTINUOUS
 62
     7
 10
985.0009623881
 20
1468.4615659861
 30
0.0
  0
VERTEX
  5
392
  8
0
  6
CONTINUOUS
 62
     7
 10
984.8458803825
 20
1469.1387609804
 30
0.0
  0
SEQEND
  5
3B5
  8
0
  6
CONTINUOUS
 62
     7
  0
POLYLINE
  5
10E
  8
0
  6
CONTINUOUS
 62
     7
 66
     1
 10
0.0
 20
0.0
 30
0.0
 70
   128
  0
VERTEX
  5
393
  8
0
  6
CONTINUOUS
 62
     7
 10
1262.1301196175
 20
1469.1387609804
 30
0.0
  0
VERTEX
  5
394
  8
0
  6
CONTINUOUS
 62
     7
 10
1261.9750376119
 20
1468.4615659861
 30
0.0
  0
VERTEX
  5
395
  8
0
  6
CONTINUOUS
 62
     7
 10
1261.7807342776
 20
1467.7976393098
 30
0.0
  0
VERTEX
  5
396
  8
0
  6
CONTINUOUS
 62
     7
 10
1261.5486494157
 20
1467.1519006933
 30
0.0
  0
VERTEX
  5
397
  8
0
  6
CONTINUOUS
 62
     7
 10
1261.2805027905
 20
1466.5291351036
 30
0.0
  0
VERTEX
  5
398
  8
0
  6
CONTINUOUS
 62
     7
 10
1260.9782813869
 20
1465.9339572762
 30
0.0
  0
VERTEX
  5
399
  8
0
  6
CONTINUOUS
 62
     7
 10
1260.6442246861
 20
1465.3707775192
 30
0.0
  0
VERTEX
  5
39A
  8
0
  6
CONTINUOUS
 62
     7
 10
1260.2808080707
 20
1464.8437690328
 30
0.0
  0
VERTEX
  5
39B
  8
0
  6
CONTINUOUS
 62
     7
 10
1259.8907244828
 20
1464.3568369857
 30
0.0
  0
VERTEX
  5
39C
  8
0
  6
CONTINUOUS
 62
     7
 10
1259.4768644682
 20
1463.9135895775
 30
0.0
  0
VERTEX
  5
39D
  8
0
  6
CONTINUOUS
 62
     7
 10
1259.0422947576
 20
1463.5173113017
 30
0.0
  0
VERTEX
  5
39E
  8
0
  6
CONTINUOUS
 62
     7
 10
1258.5902355423
 20
1463.1709386071
 30
0.0
  0
VERTEX
  5
39F
  8
0
  6
CONTINUOUS
 62
     7
 10
1258.1240366117
 20
1462.877038139
 30
0.0
  0
VERTEX
  5
3A0
  8
0
  6
CONTINUOUS
 62
     7
 10
1257.6471525316
 20
1462.6377877199
 30
0.0
  0
VERTEX
  5
3A1
  8
0
  6
CONTINUOUS
 62
     7
 10
1257.1631170454
 20
1462.4549602115
 30
0.0
  0
VERTEX
  5
3A2
  8
0
  6
CONTINUOUS
 62
     7
 10
1256.675516889
 20
1462.3299103783
 30
0.0
  0
VERTEX
  5
3A3
  8
0
  6
CONTINUOUS
 62
     7
 10
1256.1879652127
 20
1462.2635648478
 30
0.0
  0
SEQEND
  5
3B6
  8
0
  6
CONTINUOUS
 62
     7
  0
LINE
  5
10F
  8
0
  6
CONTINUOUS
 62
     7
 10
1075.9742981097
 20
1455.8187382464
 30
0.0
 11
1079.3657604551
 21
1455.8187382464
 31
0.0
  0
LINE
  5
110
  8
0
  6
CONTINUOUS
 62
     7
 10
1075.9742981097
 20
1455.8187382464
 30
0.0
 11
990.7880347873
 21
1462.2635648478
 31
0.0
  0
LINE
  5
111
  8
0
  6
CONTINUOUS
 62
     7
 10
1256.1879652127
 20
1462.2635648478
 30
0.0
 11
1171.0017018903
 21
1455.8187382464
 31
0.0
  0
LINE
  5
112
  8
0
  6
CONTINUOUS
 62
     7
 10
1148.6951668296
 20
1455.676
 30
0.0
 11
1098.2808331704
 21
1455.676
 31
0.0
  0
LINE
  5
113
  8
0
  6
CONTINUOUS
 62
     7
 10
1144.4653092347
 20
1479.676
 30
0.0
 11
1102.5106907653
 21
1479.676
 31
0.0
  0
LINE
  5
114
  8
0
  6
CONTINUOUS
 62
     7
 10
1161.9434752241
 20
1455.676
 30
0.0
 11
1148.6951668296
 21
1455.676
 31
0.0
  0
POLYLINE
  5
115
  8
0
  6
CONTINUOUS
 62
     7
 66
     1
 10
0.0
 20
0.0
 30
0.0
 70
   128
  0
VERTEX
  5
3A4
  8
0
  6
CONTINUOUS
 62
     7
 10
1081.2551641558
 20
1455.7117725482
 30
0.0
  0
VERTEX
  5
3A5
  8
0
  6
CONTINUOUS
 62
     7
 10
1083.1424184913
 20
1455.684943537
 30
0.0
  0
VERTEX
  5
3A6
  8
0
  6
CONTINUOUS
 62
     7
 10
1085.0325247759
 20
1455.676
 30
0.0
  0
SEQEND
  5
3B7
  8
0
  6
CONTINUOUS
 62
     7
  0
LINE
  5
116
  8
0
  6
CONTINUOUS
 62
     7
 10
1098.2808331704
 20
1455.676
 30
0.0
 11
1085.0325247759
 21
1455.676
 31
0.0
  0
LINE
  5
117
  8
0
  6
CONTINUOUS
 62
     7
 10
1169.1200474709
 20
1455.7117725482
 30
0.0
 11
1169.1150199671
 21
1455.676
 31
0.0
  0
LINE
  5
118
  8
0
  6
CONTINUOUS
 62
     7
 10
1169.1150199671
 20
1455.676
 30
0.0
 11
1161.9434752241
 21
1455.676
 31
0.0
  0
POLYLINE
  5
119
  8
0
  6
CONTINUOUS
 62
     7
 66
     1
 10
0.0
 20
0.0
 30
0.0
 70
   128
  0
VERTEX
  5
3A7
  8
0
  6
CONTINUOUS
 62
     7
 10
1171.0017018903
 20
1455.8187382464
 30
0.0
  0
VERTEX
  5
3A8
  8
0
  6
CONTINUOUS
 62
     7
 10
1170.0602410153
 20
1455.7563598036
 30
0.0
  0
VERTEX
  5
3A9
  8
0
  6
CONTINUOUS
 62
     7
 10
1169.1200474709
 20
1455.7117725482
 30
0.0
  0
SEQEND
  5
3B8
  8
0
  6
CONTINUOUS
 62
     7
  0
LINE
  5
11A
  8
0
  6
CONTINUOUS
 62
     7
 10
1077.8609800329
 20
1455.676
 30
0.0
 11
1077.8559525291
 21
1455.7117725482
 31
0.0
  0
LINE
  5
11B
  8
0
  6
CONTINUOUS
 62
     7
 10
1085.0325247759
 20
1455.676
 30
0.0
 11
1077.8609800329
 21
1455.676
 31
0.0
  0
POLYLINE
  5
11C
  8
0
  6
CONTINUOUS
 62
     7
 66
     1
 10
0.0
 20
0.0
 30
0.0
 70
   128
  0
VERTEX
  5
3AA
  8
0
  6
CONTINUOUS
 62
     7
 10
1077.8559525291
 20
1455.7117725482
 30
0.0
  0
VERTEX
  5
3AB
  8
0
  6
CONTINUOUS
 62
     7
 10
1076.9157589847
 20
1455.7563598036
 30
0.0
  0
VERTEX
  5
3AC
  8
0
  6
CONTINUOUS
 62
     7
 10
1075.9742981097
 20
1455.8187382464
 30
0.0
  0
SEQEND
  5
3B9
  8
0
  6
CONTINUOUS
 62
     7
  0
LINE
  5
11D
  8
0
  6
CONTINUOUS
 62
     7
 10
1175.6150199671
 20
1455.676
 30
0.0
 11
1169.1150199671
 21
1455.676
 31
0.0
  0
LINE
  5
11E
  8
0
  6
CONTINUOUS
 62
     7
 10
1077.8609800329
 20
1455.676
 30
0.0
 11
1071.3609800329
 21
1455.676
 31
0.0
  0
LINE
  5
11F
  8
0
  6
CONTINUOUS
 62
     7
 10
1123.488
 20
753.676
 30
0.0
 11
1350.988
 21
753.676
 31
0.0
  0
LINE
  5
120
  8
0
  6
CONTINUOUS
 62
     7
 10
895.988
 20
753.676
 30
0.0
 11
1123.488
 21
753.676
 31
0.0
  0
LINE
  5
121
  8
0
  6
CONTINUOUS
 62
     7
 10
1123.488
 20
764.676
 30
0.0
 11
1350.988
 21
764.676
 31
0.0
  0
LINE
  5
122
  8
0
  6
CONTINUOUS
 62
     7
 10
895.988
 20
764.676
 30
0.0
 11
1123.488
 21
764.676
 31
0.0
  0
LINE
  5
123
  8
0
  6
CONTINUOUS
 62
     7
 10
1102.5106907653
 20
347.1130991742
 30
0.0
 11
989.109280531
 21
240.7948724891
 31
0.0
  0
ARC
  5
124
  8
0
  6
CONTINUOUS
 62
     7
 10
977.8240030756
 20
252.8320030756
 30
0.0
 40
16.50000000000004
 50
136.846425872
 51
313.153574128
  0
LINE
  5
125
  8
0
  6
CONTINUOUS
 62
     7
 10
965.7868724891
 20
264.117280531
 30
0.0
 11
1072.1050991742
 21
377.5186907653
 31
0.0
  0
ARC
  5
126
  8
0
  6
CONTINUOUS
 62
     7
 10
1123.488
 20
398.496
 30
0.0
 40
55.5000000000001
 50
157.792032385
 51
202.207967615
  0
LINE
  5
127
  8
0
  6
CONTINUOUS
 62
     7
 10
1072.1050991742
 20
419.4733092347
 30
0.0
 11
965.7868724891
 21
532.874719469
 31
0.0
  0
ARC
  5
128
  8
0
  6
CONTINUOUS
 62
     7
 10
977.8240030756
 20
544.1599969244
 30
0.0
 40
16.49999999999995
 50
46.846425872
 51
223.153574128
  0
LINE
  5
129
  8
0
  6
CONTINUOUS
 62
     7
 10
989.109280531
 20
556.1971275109
 30
0.0
 11
1102.5106907653
 21
449.8789008258
 31
0.0
  0
ARC
  5
12A
  8
0
  6
CONTINUOUS
 62
     7
 10
1123.488
 20
398.496
 30
0.0
 40
55.49999999999999
 50
67.792032385
 51
112.207967615
  0
LINE
  5
12B
  8
0
  6
CONTINUOUS
 62
     7
 10
1144.4653092347
 20
449.8789008258
 30
0.0
 11
1257.866719469
 21
556.1971275109
 31
0.0
  0
ARC
  5
12C
  8
0
  6
CONTINUOUS
 62
     7
 10
1269.1519969244
 20
544.1599969244
 30
0.0
 40
16.50000000000004
 50
316.846425872
 51
133.153574128
  0
LINE
  5
12D
  8
0
  6
CONTINUOUS
 62
     7
 10
1281.1891275109
 20
532.874719469
 30
0.0
 11
1174.8709008258
 21
419.4733092347
 31
0.0
  0
ARC
  5
12E
  8
0
  6
CONTINUOUS
 62
     7
 10
1123.488
 20
398.496
 30
0.0
 40
55.5000000000001
 50
337.792032385
 51
22.207967615
  0
LINE
  5
12F
  8
0
  6
CONTINUOUS
 62
     7
 10
1174.8709008258
 20
377.5186907653
 30
0.0
 11
1281.1891275109
 21
264.117280531
 31
0.0
  0
ARC
  5
130
  8
0
  6
CONTINUOUS
 62
     7
 10
1269.1519969244
 20
252.8320030756
 30
0.0
 40
16.50000000000004
 50
226.846425872
 51
43.153574128
  0
LINE
  5
131
  8
0
  6
CONTINUOUS
 62
     7
 10
1257.866719469
 20
240.7948724891
 30
0.0
 11
1144.4653092347
 21
347.1130991742
 31
0.0
  0
ARC
  5
132
  8
0
  6
CONTINUOUS
 62
     7
 10
1123.488
 20
398.496
 30
0.0
 40
55.50000000000001
 50
247.792032385
 51
292.207967615
  0
CIRCLE
  5
133
  8
0
  6
CONTINUOUS
 62
     7
 10
1123.488
 20
398.496
 30
0.0
 40
227.5000000000001
  0
ENDSEC
  0
EOF
