  0
SECTION
  2
HEADER
  9
$ACADVER
  1
AC1015
  9
$ACADMAINTVER
 70
     6
  9
$DWGCODEPAGE
  3
ANSI_1252
  9
$INSBASE
 10
0.0
 20
0.0
 30
0.0
  9
$EXTMIN
 10
0.0
 20
0.0
 30
0.0
  9
$EXTMAX
 10
2970.0
 20
2100.0
 30
0.0
  9
$LIMMIN
 10
0.0
 20
0.0
  9
$LIMMAX
 10
2970.0
 20
2100.0
  9
$ORTHOMODE
 70
     0
  9
$REGENMODE
 70
     1
  9
$FILLMODE
 70
     1
  9
$QTEXTMODE
 70
     0
  9
$MIRRTEXT
 70
     1
  9
$LTSCALE
 40
10.0
  9
$ATTMODE
 70
     1
  9
$TEXTSIZE
 40
35.0
  9
$TRACEWID
 40
1.0
  9
$TEXTSTYLE
  7
Standard
  9
$CLAYER
  8
0
  9
$CELTYPE
  6
ByLayer
  9
$CECOLOR
 62
   256
  9
$CELTSCALE
 40
1.0
  9
$DISPSILH
 70
     0
  9
$DIMSCALE
 40
1.0
  9
$DIMASZ
 40
25.0
  9
$DIMEXO
 40
0.0
  9
$DIMDLI
 40
3.75
  9
$DIMRND
 40
0.0
  9
$DIMDLE
 40
0.0
  9
$DIMEXE
 40
10.0
  9
$DIMTP
 40
0.0
  9
$DIMTM
 40
0.0
  9
$DIMTXT
 40
30.0
  9
$DIMCEN
 40
2.5
  9
$DIMTSZ
 40
0.0
  9
$DIMTOL
 70
     0
  9
$DIMLIM
 70
     0
  9
$DIMTIH
 70
     1
  9
$DIMTOH
 70
     1
  9
$DIMSE1
 70
     0
  9
$DIMSE2
 70
     0
  9
$DIMTAD
 70
     1
  9
$DIMZIN
 70
     0
  9
$DIMBLK
  1

  9
$DIMASO
 70
     1
  9
$DIMSHO
 70
     1
  9
$DIMPOST
  1

  9
$DIMAPOST
  1

  9
$DIMALT
 70
     0
  9
$DIMALTD
 70
     3
  9
$DIMALTF
 40
0.0393700787
  9
$DIMLFAC
 40
1.0
  9
$DIMTOFL
 70
     1
  9
$DIMTVP
 40
0.0
  9
$DIMTIX
 70
     0
  9
$DIMSOXD
 70
     0
  9
$DIMSAH
 70
     0
  9
$DIMBLK1
  1

  9
$DIMBLK2
  1

  9
$DIMSTYLE
  2
ISO-25
  9
$DIMCLRD
 70
     0
  9
$DIMCLRE
 70
     0
  9
$DIMCLRT
 70
     0
  9
$DIMTFAC
 40
1.0
  9
$DIMGAP
 40
15.0
  9
$DIMJUST
 70
     0
  9
$DIMSD1
 70
     0
  9
$DIMSD2
 70
     0
  9
$DIMTOLJ
 70
     0
  9
$DIMTZIN
 70
     0
  9
$DIMALTZ
 70
     0
  9
$DIMALTTZ
 70
     0
  9
$DIMUPT
 70
     0
  9
$DIMDEC
 70
     1
  9
$DIMTDEC
 70
     1
  9
$DIMALTU
 70
     2
  9
$DIMALTTD
 70
     3
  9
$DIMTXSTY
  7
Standard
  9
$DIMAUNIT
 70
     0
  9
$DIMADEC
 70
     2
  9
$DIMALTRND
 40
0.0
  9
$DIMAZIN
 70
     0
  9
$DIMDSEP
 70
    44
  9
$DIMATFIT
 70
     3
  9
$DIMFRAC
 70
     0
  9
$DIMLDRBLK
  1

  9
$DIMLUNIT
 70
     2
  9
$DIMLWD
 70
    -2
  9
$DIMLWE
 70
    -2
  9
$DIMTMOVE
 70
     0
  9
$LUNITS
 70
     2
  9
$LUPREC
 70
     2
  9
$SKETCHINC
 40
1.0
  9
$FILLETRAD
 40
10.0
  9
$AUNITS
 70
     0
  9
$AUPREC
 70
     2
  9
$MENU
  1
.
  9
$ELEVATION
 40
0.0
  9
$PELEVATION
 40
0.0
  9
$THICKNESS
 40
0.0
  9
$LIMCHECK
 70
     0
  9
$CHAMFERA
 40
0.0
  9
$CHAMFERB
 40
0.0
  9
$CHAMFERC
 40
0.0
  9
$CHAMFERD
 40
0.0
  9
$SKPOLY
 70
     0
  9
$TDCREATE
 40
2457583.494302257
  9
$TDUCREATE
 40
2457583.410968923
  9
$TDUPDATE
 40
2457583.494302894
  9
$TDUUPDATE
 40
2457583.41096956
  9
$TDINDWG
 40
0.0000000116
  9
$TDUSRTIMER
 40
0.0000000116
  9
$USRTIMER
 70
     1
  9
$ANGBASE
 50
0.0
  9
$ANGDIR
 70
     0
  9
$PDMODE
 70
     0
  9
$PDSIZE
 40
-1.0
  9
$PLINEWID
 40
0.0
  9
$SPLFRAME
 70
     0
  9
$SPLINETYPE
 70
     6
  9
$SPLINESEGS
 70
     8
  9
$HANDSEED
  5
1E4
  9
$SURFTAB1
 70
     6
  9
$SURFTAB2
 70
     6
  9
$SURFTYPE
 70
     6
  9
$SURFU
 70
     6
  9
$SURFV
 70
     6
  9
$UCSBASE
  2

  9
$UCSNAME
  2

  9
$UCSORG
 10
0.0
 20
0.0
 30
0.0
  9
$UCSXDIR
 10
1.0
 20
0.0
 30
0.0
  9
$UCSYDIR
 10
0.0
 20
1.0
 30
0.0
  9
$UCSORTHOREF
  2

  9
$UCSORTHOVIEW
 70
     0
  9
$UCSORGTOP
 10
0.0
 20
0.0
 30
0.0
  9
$UCSORGBOTTOM
 10
0.0
 20
0.0
 30
0.0
  9
$UCSORGLEFT
 10
0.0
 20
0.0
 30
0.0
  9
$UCSORGRIGHT
 10
0.0
 20
0.0
 30
0.0
  9
$UCSORGFRONT
 10
0.0
 20
0.0
 30
0.0
  9
$UCSORGBACK
 10
0.0
 20
0.0
 30
0.0
  9
$PUCSBASE
  2

  9
$PUCSNAME
  2

  9
$PUCSORG
 10
0.0
 20
0.0
 30
0.0
  9
$PUCSXDIR
 10
1.0
 20
0.0
 30
0.0
  9
$PUCSYDIR
 10
0.0
 20
1.0
 30
0.0
  9
$PUCSORTHOREF
  2

  9
$PUCSORTHOVIEW
 70
     0
  9
$PUCSORGTOP
 10
0.0
 20
0.0
 30
0.0
  9
$PUCSORGBOTTOM
 10
0.0
 20
0.0
 30
0.0
  9
$PUCSORGLEFT
 10
0.0
 20
0.0
 30
0.0
  9
$PUCSORGRIGHT
 10
0.0
 20
0.0
 30
0.0
  9
$PUCSORGFRONT
 10
0.0
 20
0.0
 30
0.0
  9
$PUCSORGBACK
 10
0.0
 20
0.0
 30
0.0
  9
$USERI1
 70
     0
  9
$USERI2
 70
     0
  9
$USERI3
 70
     0
  9
$USERI4
 70
     0
  9
$USERI5
 70
     0
  9
$USERR1
 40
0.0
  9
$USERR2
 40
0.0
  9
$USERR3
 40
0.0
  9
$USERR4
 40
0.0
  9
$USERR5
 40
0.0
  9
$WORLDVIEW
 70
     1
  9
$SHADEDGE
 70
     3
  9
$SHADEDIF
 70
    70
  9
$TILEMODE
 70
     1
  9
$MAXACTVP
 70
    64
  9
$PINSBASE
 10
0.0
 20
0.0
 30
0.0
  9
$PLIMCHECK
 70
     0
  9
$PEXTMIN
 10
1.0000000000E+20
 20
1.0000000000E+20
 30
1.0000000000E+20
  9
$PEXTMAX
 10
-1.0000000000E+20
 20
-1.0000000000E+20
 30
-1.0000000000E+20
  9
$PLIMMIN
 10
0.0
 20
0.0
  9
$PLIMMAX
 10
420.0
 20
297.0
  9
$UNITMODE
 70
     0
  9
$VISRETAIN
 70
     1
  9
$PLINEGEN
 70
     0
  9
$PSLTSCALE
 70
     1
  9
$TREEDEPTH
 70
  3020
  9
$CMLSTYLE
  2
Standard
  9
$CMLJUST
 70
     0
  9
$CMLSCALE
 40
20.0
  9
$PROXYGRAPHICS
 70
     1
  9
$MEASUREMENT
 70
     1
  9
$CELWEIGHT
370
    -1
  9
$ENDCAPS
280
     0
  9
$JOINSTYLE
280
     0
  9
$LWDISPLAY
290
     1
  9
$INSUNITS
 70
     4
  9
$HYPERLINKBASE
  1

  9
$STYLESHEET
  1

  9
$XEDIT
290
     1
  9
$CEPSNTYPE
380
     0
  9
$PSTYLEMODE
290
     1
  9
$FINGERPRINTGUID
  2
{EE3D8A61-B0E2-4026-9AED-D07765367590}
  9
$VERSIONGUID
  2
{FAEB1C32-E019-11D5-929B-00C0DF256EC4}
  9
$EXTNAMES
290
     1
  9
$PSVPSCALE
 40
0.0
  9
$OLESTARTUP
290
     0
  0
ENDSEC
  0
SECTION
  2
CLASSES
  0
CLASS
  1
ACDBDICTIONARYWDFLT
  2
AcDbDictionaryWithDefault
  3
ObjectDBX Classes
 90
        0
280
     0
281
     0
  0
CLASS
  1
VISUALSTYLE
  2
AcDbVisualStyle
  3
ObjectDBX Classes
 90
     4095
280
     0
281
     0
  0
CLASS
  1
MATERIAL
  2
AcDbMaterial
  3
ObjectDBX Classes
 90
     1153
280
     0
281
     0
  0
CLASS
  1
SCALE
  2
AcDbScale
  3
ObjectDBX Classes
 90
     1153
280
     0
281
     0
  0
CLASS
  1
TABLESTYLE
  2
AcDbTableStyle
  3
ObjectDBX Classes
 90
     4095
280
     0
281
     0
  0
CLASS
  1
MLEADERSTYLE
  2
AcDbMLeaderStyle
  3
ACDB_MLEADERSTYLE_CLASS
 90
     4095
280
     0
281
     0
  0
CLASS
  1
SUN
  2
AcDbSun
  3
SCENEOE
 90
     1153
280
     0
281
     0
  0
CLASS
  1
ACDBPLACEHOLDER
  2
AcDbPlaceHolder
  3
ObjectDBX Classes
 90
        0
280
     0
281
     0
  0
CLASS
  1
LAYOUT
  2
AcDbLayout
  3
ObjectDBX Classes
 90
        0
280
     0
281
     0
  0
ENDSEC
  0
SECTION
  2
TABLES
  0
TABLE
  2
VPORT
  5
8
330
0
100
AcDbSymbolTable
 70
     1
  0
VPORT
  5
29
330
8
100
AcDbSymbolTableRecord
100
AcDbViewportTableRecord
  2
*Active
 70
     0
 10
0.0
 20
0.0
 11
1.0
 21
1.0
 12
1485.0
 22
1050.0
 13
0.0
 23
0.0
 14
10.0
 24
10.0
 15
10.0
 25
10.0
 16
0.0
 26
0.0
 36
1.0
 17
0.0
 27
0.0
 37
0.0
 40
2100.0
 41
1.4142857143
 42
50.0
 43
0.0
 44
0.0
 50
0.0
 51
0.0
 71
     0
 72
  2000
 73
     1
 74
     3
 75
     0
 76
     0
 77
     0
 78
     0
281
     0
 65
     1
110
0.0
120
0.0
130
0.0
111
1.0
121
0.0
131
0.0
112
0.0
122
1.0
132
0.0
 79
     0
146
0.0
  0
ENDTAB
  0
TABLE
  2
LTYPE
  5
5
330
0
100
AcDbSymbolTable
 70
     6
  0
LTYPE
  5
14
330
5
100
AcDbSymbolTableRecord
100
AcDbLinetypeTableRecord
  2
ByBlock
 70
     0
  3

 72
    65
 73
     0
 40
0.0
  0
LTYPE
  5
15
330
5
100
AcDbSymbolTableRecord
100
AcDbLinetypeTableRecord
  2
ByLayer
 70
     0
  3

 72
    65
 73
     0
 40
0.0
  0
LTYPE
  5
16
330
5
100
AcDbSymbolTableRecord
100
AcDbLinetypeTableRecord
  2
Continuous
 70
     0
  3
Solid line
 72
    65
 73
     0
 40
0.0
  0
LTYPE
  5
6E
330
5
100
AcDbSymbolTableRecord
100
AcDbLinetypeTableRecord
  2
HIDDEN
 70
     0
  3
Hidden __ __ __ __ __ __ __ __ __ __ __ __ __ __
 72
    65
 73
     2
 40
1.905
 49
1.27
 74
     0
 49
-0.635
 74
     0
  0
LTYPE
  5
6F
330
5
100
AcDbSymbolTableRecord
100
AcDbLinetypeTableRecord
  2
PHANTOM
 70
     0
  3
Phantom ______  __  __  ______  __  __  ______
 72
    65
 73
     6
 40
12.7
 49
6.35
 74
     0
 49
-1.27
 74
     0
 49
1.27
 74
     0
 49
-1.27
 74
     0
 49
1.27
 74
     0
 49
-1.27
 74
     0
  0
LTYPE
  5
70
330
5
100
AcDbSymbolTableRecord
100
AcDbLinetypeTableRecord
  2
CENTER
 70
     0
  3
Center ____ _ ____ _ ____ _ ____ _ ____ _ ____
 72
    65
 73
     4
 40
10.16
 49
6.35
 74
     0
 49
-1.27
 74
     0
 49
1.27
 74
     0
 49
-1.27
 74
     0
  0
LTYPE
  5
71
330
5
100
AcDbSymbolTableRecord
100
AcDbLinetypeTableRecord
  2
CENTERX2
 70
     0
  3
Center (2x) ________  __  ________  __  _____
 72
    65
 73
     4
 40
20.32
 49
12.7
 74
     0
 49
-2.54
 74
     0
 49
2.54
 74
     0
 49
-2.54
 74
     0
  0
LTYPE
  5
72
330
5
100
AcDbSymbolTableRecord
100
AcDbLinetypeTableRecord
  2
DOT2
 70
     0
  3
Dot (.5x) ........................................
 72
    65
 73
     2
 40
0.635
 49
0.0
 74
     0
 49
-0.635
 74
     0
  0
ENDTAB
  0
TABLE
  2
LAYER
  5
2
330
0
100
AcDbSymbolTable
 70
     2
  0
LAYER
  5
10
330
2
100
AcDbSymbolTableRecord
100
AcDbLayerTableRecord
  2
0
 70
     0
 62
     7
  6
Continuous
370
    -3
390
F
  0
LAYER
  5
73
330
2
100
AcDbSymbolTableRecord
100
AcDbLayerTableRecord
  2
FORMAT
 70
     0
 62
     7
  6
Continuous
370
    -3
390
F
  0
ENDTAB
  0
TABLE
  2
STYLE
  5
3
330
0
100
AcDbSymbolTable
 70
     2
  0
STYLE
  5
11
330
3
100
AcDbSymbolTableRecord
100
AcDbTextStyleTableRecord
  2
Standard
 70
     0
 40
0.0
 41
1.0
 50
0.0
 71
     0
 42
35.0
  3
txt
  4

  0
STYLE
  5
E7
330
3
100
AcDbSymbolTableRecord
100
AcDbTextStyleTableRecord
  2
SLDTEXTSTYLE0
 70
     0
 40
0.0
 41
0.605
 50
0.0
 71
     0
 42
35.0
  3
TXT
  4

  0
ENDTAB
  0
TABLE
  2
VIEW
  5
6
330
0
100
AcDbSymbolTable
 70
     0
  0
ENDTAB
  0
TABLE
  2
UCS
  5
7
330
0
100
AcDbSymbolTable
 70
     0
  0
ENDTAB
  0
TABLE
  2
APPID
  5
9
330
0
100
AcDbSymbolTable
 70
     1
  0
APPID
  5
12
330
9
100
AcDbSymbolTableRecord
100
AcDbRegAppTableRecord
  2
ACAD
 70
     0
  0
ENDTAB
  0
TABLE
  2
DIMSTYLE
  5
A
330
0
100
AcDbSymbolTable
 70
     1
100
AcDbDimStyleTable
  0
DIMSTYLE
105
27
330
A
100
AcDbSymbolTableRecord
100
AcDbDimStyleTableRecord
  2
ISO-25
 70
     0
 41
2.5
 42
0.625
 43
3.75
 44
1.25
 73
     0
 74
     0
 77
     1
 78
     8
140
2.5
141
2.5
143
0.0393700787
147
0.625
171
     3
172
     1
178
     0
271
     2
272
     2
274
     3
278
    44
283
     0
284
     8
340
11
  0
ENDTAB
  0
TABLE
  2
BLOCK_RECORD
  5
1
330
0
100
AcDbSymbolTable
 70
     3
  0
BLOCK_RECORD
  5
1F
330
1
100
AcDbSymbolTableRecord
100
AcDbBlockTableRecord
  2
*Model_Space
340
22
  0
BLOCK_RECORD
  5
1B
330
1
100
AcDbSymbolTableRecord
100
AcDbBlockTableRecord
  2
*Paper_Space
340
1E
  0
BLOCK_RECORD
  5
23
330
1
100
AcDbSymbolTableRecord
100
AcDbBlockTableRecord
  2
*Paper_Space0
340
26
  0
BLOCK_RECORD
  5
EB
330
1
100
AcDbSymbolTableRecord
100
AcDbBlockTableRecord
  2
SW_NOTE_0
340
0
102
{BLKREFS
331
F0
102
}
  0
BLOCK_RECORD
  5
F3
330
1
100
AcDbSymbolTableRecord
100
AcDbBlockTableRecord
  2
SW_NOTE_1
340
0
102
{BLKREFS
331
F8
102
}
  0
ENDTAB
  0
ENDSEC
  0
SECTION
  2
BLOCKS
  0
BLOCK
  5
20
330
1F
100
AcDbEntity
  8
0
100
AcDbBlockBegin
  2
*Model_Space
 70
     0
 10
0.0
 20
0.0
 30
0.0
  3
*Model_Space
  1

  0
ENDBLK
  5
21
330
1F
100
AcDbEntity
  8
0
100
AcDbBlockEnd
  0
BLOCK
  5
1C
330
1B
100
AcDbEntity
 67
     1
  8
0
100
AcDbBlockBegin
  2
*Paper_Space
 70
     0
 10
0.0
 20
0.0
 30
0.0
  3
*Paper_Space
  1

  0
ENDBLK
  5
1D
330
1B
100
AcDbEntity
 67
     1
  8
0
100
AcDbBlockEnd
  0
BLOCK
  5
24
330
23
100
AcDbEntity
  8
0
100
AcDbBlockBegin
  2
*Paper_Space0
 70
     0
 10
0.0
 20
0.0
 30
0.0
  3
*Paper_Space0
  1

  0
ENDBLK
  5
25
330
23
100
AcDbEntity
  8
0
100
AcDbBlockEnd
  0
BLOCK
  5
EC
330
EB
100
AcDbEntity
  8
0
100
AcDbBlockBegin
  2
SW_NOTE_0
 70
     0
 10
0.0
 20
0.0
 30
0.0
  3
SW_NOTE_0
  1

  0
MTEXT
  5
EE
330
EB
100
AcDbEntity
  8
0
  6
Continuous
 62
     0
370
     0
100
AcDbMText
 10
0.0
 20
23.2032193159
 30
0.0
 40
18.0
 41
0.0
 71
     1
 72
     1
  1
Questo disegno e posto sotto la tutela delle vigenti Leggi e non puo essere utilizzato da terze persone se non previa autorizzazione scritta della PEDRALI
  7
SLDTEXTSTYLE0
 73
     1
 44
1.0
  0
MTEXT
  5
EF
330
EB
100
AcDbEntity
  8
0
  6
Continuous
 62
     0
370
     0
100
AcDbMText
 10
1355.5219376087
 20
23.2032193159
 30
0.0
 40
18.0
 41
0.0
 71
     1
 72
     1
  1
S.p.A.
  7
SLDTEXTSTYLE0
 73
     1
 44
1.0
  0
ENDBLK
  5
ED
330
EB
100
AcDbEntity
  8
0
100
AcDbBlockEnd
  0
BLOCK
  5
F4
330
F3
100
AcDbEntity
  8
0
100
AcDbBlockBegin
  2
SW_NOTE_1
 70
     0
 10
0.0
 20
0.0
 30
0.0
  3
SW_NOTE_1
  1

  0
MTEXT
  5
F6
330
F3
100
AcDbEntity
  8
0
  6
Continuous
 62
     0
370
     0
100
AcDbMText
 10
33.1875
 20
23.2032193159
 30
0.0
 40
18.0
 41
0.0
 71
     2
 72
     1
  1
SCALA
  7
SLDTEXTSTYLE0
 73
     1
 44
1.0
  0
MTEXT
  5
F7
330
F3
100
AcDbEntity
  8
0
  6
Continuous
 62
     0
370
     0
100
AcDbMText
 10
35.6098540438
 20
-1.6396707646
 30
0.0
 40
37.0416666667
 41
0.0
 71
     2
 72
     1
  1
1:1
  7
SLDTEXTSTYLE0
 73
     1
 44
1.0
  0
ENDBLK
  5
F5
330
F3
100
AcDbEntity
  8
0
100
AcDbBlockEnd
  0
ENDSEC
  0
SECTION
  2
ENTITIES
  0
HATCH
  5
74
330
1F
100
AcDbEntity
  8
0
  6
Continuous
 62
     7
100
AcDbHatch
 10
0.0
 20
0.0
 30
0.0
210
0.0
220
0.0
230
1.0
  2
SOLID
 70
     1
 71
     0
 91
        2
 92
        0
 93
        6
 72
     1
 10
2340.243226420216
 20
319.3144821747094
 11
2356.647910872445
 21
319.3144821747094
 72
     3
 10
2351.078765157099
 20
331.9559440369547
 11
27.08884684798352
 21
0.0
 40
0.4768529109443384
 50
293.7756995582609
 51
426.2243004403791
 73
     1
 72
     1
 10
2356.647910872789
 20
344.5974058991662
 11
2323.989918311282
 21
344.5974058991662
 72
     1
 10
2323.989918311282
 20
344.5974058991662
 11
2323.989918311282
 21
304.8670971915081
 72
     1
 10
2323.989918311282
 20
304.8670971915081
 11
2340.243226420216
 21
304.8670971915081
 72
     1
 10
2340.243226420216
 20
304.8670971915081
 11
2340.243226420216
 21
319.3144821747094
 97
        0
 92
        0
 93
        6
 72
     3
 10
2350.175803596967
 20
331.9559440369547
 11
9.932577177641511
 21
0.0
 40
0.5895245510672578
 50
316.3365658560252
 51
403.663434144226
 73
     0
 72
     2
 10
2352.923880980421
 20
333.7618671600596
 40
7.223692492544108
 50
69.99121011132742
 51
90.0
 73
     0
 72
     1
 10
2352.923880980421
 20
326.5381746675155
 11
2340.243226419814
 21
326.5381746675155
 72
     1
 10
2340.243226419814
 20
326.5381746675155
 11
2340.243226419814
 21
337.37371340629
 72
     1
 10
2340.243226419814
 20
337.37371340629
 11
2352.923880981012
 21
337.37371340629
 72
     2
 10
2352.923880981012
 20
330.150020915474
 40
7.223692490816113
 50
270.0000000000008
 51
290.0087898889545
 73
     0
 97
        0
 75
     0
 76
     1
 98
        1
 10
0.0
 20
0.0
  0
HATCH
  5
75
330
1F
100
AcDbEntity
  8
0
  6
Continuous
 62
     7
100
AcDbHatch
 10
0.0
 20
0.0
 30
0.0
210
0.0
220
0.0
230
1.0
  2
SOLID
 70
     1
 71
     0
 91
        1
 92
        0
 93
       12
 72
     1
 10
2435.957151948124
 20
344.59740589754
 11
2381.779458253796
 21
344.59740589754
 72
     1
 10
2381.779458253796
 20
344.59740589754
 11
2381.779458253796
 21
304.867097189882
 72
     1
 10
2381.779458253796
 20
304.867097189882
 11
2435.957151948124
 21
304.867097189882
 72
     1
 10
2435.957151948124
 20
304.867097189882
 11
2435.957151948124
 21
312.09078967967
 72
     1
 10
2435.957151948124
 20
312.09078967967
 11
2399.838689485178
 21
312.09078967967
 72
     1
 10
2399.838689485178
 20
312.09078967967
 11
2399.838689485178
 21
321.1204052953607
 72
     1
 10
2399.838689485178
 20
321.1204052953607
 11
2432.345305703229
 21
321.1204052953607
 72
     1
 10
2432.345305703229
 20
321.1204052953607
 11
2432.345305703229
 21
328.344097788605
 72
     1
 10
2432.345305703229
 20
328.344097788605
 11
2399.838689485178
 21
328.344097788605
 72
     1
 10
2399.838689485178
 20
328.344097788605
 11
2399.838689485178
 21
337.3737134042958
 72
     1
 10
2399.838689485178
 20
337.3737134042958
 11
2435.957151948124
 21
337.3737134042958
 72
     1
 10
2435.957151948124
 20
337.3737134042958
 11
2435.957151948124
 21
344.59740589754
 97
        0
 75
     0
 76
     1
 98
        1
 10
0.0
 20
0.0
  0
HATCH
  5
76
330
1F
100
AcDbEntity
  8
0
  6
Continuous
 62
     7
100
AcDbHatch
 10
0.0
 20
0.0
 30
0.0
210
0.0
220
0.0
230
1.0
  2
SOLID
 70
     1
 71
     0
 91
        1
 92
        0
 93
        6
 72
     1
 10
2645.444234240045
 20
344.597405899586
 11
2627.385003008663
 21
344.597405899586
 72
     1
 10
2627.385003008663
 20
344.597405899586
 11
2627.385003008663
 21
304.8670971919279
 72
     1
 10
2627.385003008663
 20
304.8670971919279
 11
2676.14492733565
 21
304.8670971919279
 72
     1
 10
2676.14492733565
 20
304.8670971919279
 11
2676.14492733565
 21
313.8967128076189
 72
     1
 10
2676.14492733565
 20
313.8967128076189
 11
2645.444234240045
 21
313.8967128076189
 72
     1
 10
2645.444234240045
 20
313.8967128076189
 11
2645.444234240045
 21
344.597405899586
 97
        0
 75
     0
 76
     1
 98
        1
 10
0.0
 20
0.0
  0
HATCH
  5
77
330
1F
100
AcDbEntity
  8
0
  6
Continuous
 62
     7
100
AcDbHatch
 10
0.0
 20
0.0
 30
0.0
210
0.0
220
0.0
230
1.0
  2
SOLID
 70
     1
 71
     0
 91
        1
 92
        0
 93
        4
 72
     1
 10
2677.950850457337
 20
344.5974058991659
 11
2677.950850457337
 21
304.8670971915079
 72
     1
 10
2677.950850457337
 20
304.8670971915079
 11
2696.010081688719
 21
304.8670971915079
 72
     1
 10
2696.010081688719
 20
304.8670971915079
 11
2696.010081688719
 21
344.5974058991659
 72
     1
 10
2696.010081688719
 20
344.5974058991659
 11
2677.950850457337
 21
344.5974058991659
 97
        0
 75
     0
 76
     1
 98
        1
 10
0.0
 20
0.0
  0
HATCH
  5
78
330
1F
100
AcDbEntity
  8
0
  6
Continuous
 62
     7
100
AcDbHatch
 10
0.0
 20
0.0
 30
0.0
210
0.0
220
0.0
230
1.0
  2
SOLID
 70
     1
 71
     0
 91
        2
 92
        0
 93
        4
 72
     3
 10
2468.463768165085
 20
324.7322515426197
 11
28.89476997115586
 21
0.0
 40
0.6929224243374513
 50
280.2934314618138
 51
439.7065685387129
 73
     1
 72
     1
 10
2472.071526001564
 20
344.5974058975816
 11
2439.568998196665
 21
344.5974058975813
 72
     1
 10
2439.568998196665
 20
344.5974058975813
 11
2439.568998196665
 21
304.8670971876741
 72
     1
 10
2439.568998196665
 20
304.8670971876741
 11
2472.071526001749
 21
304.8670971876741
 97
        0
 92
        0
 93
        6
 72
     2
 10
2472.947172767998
 20
324.7322515421808
 40
10.83553873998016
 50
56.16906508602374
 51
90.0
 73
     0
 72
     1
 10
2472.947172767998
 20
313.8967128022008
 11
2455.82230630316
 21
313.8967128022008
 72
     1
 10
2455.82230630316
 20
313.8967128022008
 11
2455.82230630316
 21
335.5677902826995
 72
     1
 10
2455.82230630316
 20
335.5677902826995
 11
2472.947172767998
 21
335.5677902826995
 72
     2
 10
2472.947172767998
 20
324.7322515421808
 40
10.83553874051871
 50
270.0000000000008
 51
303.8314447476077
 73
     0
 72
     3
 10
2462.14303723761
 20
324.7322515426197
 11
22.57403904004612
 21
0.0
 40
0.5985848325441405
 50
331.8713554011807
 51
388.1288999924611
 73
     0
 97
        0
 75
     0
 76
     1
 98
        1
 10
0.0
 20
0.0
  0
HATCH
  5
79
330
1F
100
AcDbEntity
  8
0
  6
Continuous
 62
     7
100
AcDbHatch
 10
0.0
 20
0.0
 30
0.0
210
0.0
220
0.0
230
1.0
  2
SOLID
 70
     1
 71
     0
 91
        3
 92
        0
 93
       19
 72
     1
 10
2558.870202192612
 20
314.7709579586855
 11
2560.355534650718
 21
308.9676544182703
 72
     2
 10
2565.453566637579
 20
310.114383967383
 40
5.225410873593411
 50
192.6768785101394
 51
204.7368873206736
 73
     1
 72
     1
 10
2560.707644877863
 20
307.927800914186
 11
2584.042848052473
 21
344.597405899586
 72
     1
 10
2584.042848052473
 20
344.597405899586
 11
2602.102079283856
 21
344.597405899586
 72
     1
 10
2602.102079283856
 20
344.597405899586
 11
2627.385003008663
 21
304.8670971919279
 72
     1
 10
2627.385003008663
 20
304.8670971919279
 11
2609.325771777099
 21
304.8670971919279
 72
     1
 10
2609.325771777099
 20
304.8670971919279
 11
2605.262444749956
 21
312.090789681716
 72
     1
 10
2605.262444749956
 20
312.090789681716
 11
2580.882482586372
 21
312.090789681716
 72
     1
 10
2580.882482586372
 20
312.090789681716
 11
2576.819155559229
 21
304.8670971919279
 72
     1
 10
2576.819155559229
 20
304.8670971919279
 11
2546.118462463106
 21
304.8670971919279
 72
     1
 10
2546.118462463106
 20
304.8670971919279
 11
2546.118462463106
 21
312.0907896826544
 72
     2
 10
2538.894769969861
 20
312.0907896826544
 40
7.223692493244227
 50
0.0
 51
90.0
 73
     1
 72
     1
 10
2538.894769969861
 20
319.3144821758984
 11
2520.835538738298
 21
319.3144821758984
 72
     1
 10
2520.835538738298
 20
319.3144821758984
 11
2520.835538738298
 21
304.8670971928664
 72
     1
 10
2520.835538738298
 20
304.8670971928664
 11
2504.582230629363
 21
304.8670971928664
 72
     1
 10
2504.582230629363
 20
304.8670971928664
 11
2504.582230629363
 21
344.5974059005244
 72
     1
 10
2504.582230629363
 20
344.5974059005244
 11
2542.019258305786
 21
344.5974059005244
 72
     3
 10
2538.029947706919
 20
332.9364020822968
 11
24.32666622535162
 21
0.0
 40
0.4859291160023137
 50
288.8861745463018
 51
398.6942257036357
 73
     0
 72
     2
 10
2549.037584929584
 20
312.9627960708336
 40
9.997490267756193
 50
279.2678272406082
 51
349.5800515720779
 73
     0
 97
        0
 92
        0
 93
        3
 72
     1
 10
2593.072463667404
 20
333.7618671594018
 11
2584.945809612937
 21
319.3144821729139
 72
     1
 10
2584.945809612937
 20
319.3144821729139
 11
2601.199117721872
 21
319.3144821729139
 72
     1
 10
2601.199117721872
 20
319.3144821729139
 11
2593.072463667404
 21
333.7618671594018
 97
        0
 92
        0
 93
        6
 72
     2
 10
2538.478172418671
 20
331.9559440374287
 40
5.417769370214362
 50
270.0000000000008
 51
305.5869104965606
 73
     1
 72
     3
 10
2532.574039041056
 20
331.9559440369547
 11
11.73850030081747
 21
0.0
 40
0.5900077182209745
 50
334.058541690378
 51
385.9414583083995
 73
     1
 72
     2
 10
2538.478172418671
 20
331.9559440374287
 40
5.417769369443226
 50
54.41308949502037
 51
90.0
 73
     1
 72
     1
 10
2538.478172418671
 20
337.3737134068722
 11
2520.835538737718
 21
337.3737134068722
 72
     1
 10
2520.835538737718
 20
337.3737134068722
 11
2520.835538737718
 21
326.538174667214
 72
     1
 10
2520.835538737718
 20
326.538174667214
 11
2538.478172418671
 21
326.5381746672143
 97
        0
 75
     0
 76
     1
 98
        1
 10
0.0
 20
0.0
  0
LINE
  5
7A
330
1F
100
AcDbEntity
  8
0
  6
Continuous
 62
     7
370
    15
100
AcDbLine
 10
2870.0
 20
100.0
 30
0.0
 11
2870.0
 21
2000.0
 31
0.0
  0
LINE
  5
7B
330
1F
100
AcDbEntity
  8
0
  6
Continuous
 62
   179
370
     0
100
AcDbLine
 10
2323.9899183113
 20
344.5974058992
 30
0.0
 11
2323.9899183113
 21
304.8670971915
 31
0.0
  0
LINE
  5
7C
330
1F
100
AcDbEntity
  8
0
  6
Continuous
 62
   179
370
     0
100
AcDbLine
 10
2323.9899183113
 20
344.5974058992
 30
0.0
 11
2356.6479108728
 21
344.5974058992
 31
0.0
  0
LINE
  5
7D
330
1F
100
AcDbEntity
  8
0
  6
Continuous
 62
   179
370
     0
100
AcDbLine
 10
2323.9899183113
 20
304.8670971915
 30
0.0
 11
2340.2432264202
 21
304.8670971915
 31
0.0
  0
LINE
  5
7E
330
1F
100
AcDbEntity
  8
0
  6
Continuous
 62
   179
370
     0
100
AcDbLine
 10
2340.2432264202
 20
304.8670971915
 30
0.0
 11
2340.2432264202
 21
319.3144821747
 31
0.0
  0
LINE
  5
7F
330
1F
100
AcDbEntity
  8
0
  6
Continuous
 62
   179
370
     0
100
AcDbLine
 10
2356.6479108724
 20
319.3144821747
 30
0.0
 11
2340.2432264202
 21
319.3144821747
 31
0.0
  0
LINE
  5
80
330
1F
100
AcDbEntity
  8
0
  6
Continuous
 62
   179
370
     0
100
AcDbLine
 10
2340.2432264198
 20
326.5381746675
 30
0.0
 11
2340.2432264198
 21
337.3737134063
 31
0.0
  0
LINE
  5
81
330
1F
100
AcDbEntity
  8
0
  6
Continuous
 62
   179
370
     0
100
AcDbLine
 10
2340.2432264198
 20
337.3737134063
 30
0.0
 11
2352.923880981
 21
337.3737134063
 31
0.0
  0
LINE
  5
82
330
1F
100
AcDbEntity
  8
0
  6
Continuous
 62
   179
370
     0
100
AcDbLine
 10
2340.2432264198
 20
326.5381746675
 30
0.0
 11
2352.9238809804
 21
326.5381746675
 31
0.0
  0
LINE
  5
83
330
1F
100
AcDbEntity
  8
0
  6
Continuous
 62
   179
370
     0
100
AcDbLine
 10
2381.7794582538
 20
344.5974058975
 30
0.0
 11
2435.9571519481
 21
344.5974058975
 31
0.0
  0
LINE
  5
84
330
1F
100
AcDbEntity
  8
0
  6
Continuous
 62
   179
370
     0
100
AcDbLine
 10
2435.9571519481
 20
344.5974058975
 30
0.0
 11
2435.9571519481
 21
337.3737134043
 31
0.0
  0
LINE
  5
85
330
1F
100
AcDbEntity
  8
0
  6
Continuous
 62
   179
370
     0
100
AcDbLine
 10
2435.9571519481
 20
337.3737134043
 30
0.0
 11
2399.8386894852
 21
337.3737134043
 31
0.0
  0
LINE
  5
86
330
1F
100
AcDbEntity
  8
0
  6
Continuous
 62
   179
370
     0
100
AcDbLine
 10
2399.8386894852
 20
337.3737134043
 30
0.0
 11
2399.8386894852
 21
328.3440977886
 31
0.0
  0
LINE
  5
87
330
1F
100
AcDbEntity
  8
0
  6
Continuous
 62
   179
370
     0
100
AcDbLine
 10
2399.8386894852
 20
328.3440977886
 30
0.0
 11
2432.3453057032
 21
328.3440977886
 31
0.0
  0
LINE
  5
88
330
1F
100
AcDbEntity
  8
0
  6
Continuous
 62
   179
370
     0
100
AcDbLine
 10
2432.3453057032
 20
328.3440977886
 30
0.0
 11
2432.3453057032
 21
321.1204052954
 31
0.0
  0
LINE
  5
89
330
1F
100
AcDbEntity
  8
0
  6
Continuous
 62
   179
370
     0
100
AcDbLine
 10
2432.3453057032
 20
321.1204052954
 30
0.0
 11
2399.8386894852
 21
321.1204052954
 31
0.0
  0
LINE
  5
8A
330
1F
100
AcDbEntity
  8
0
  6
Continuous
 62
   179
370
     0
100
AcDbLine
 10
2399.8386894852
 20
321.1204052954
 30
0.0
 11
2399.8386894852
 21
312.0907896797
 31
0.0
  0
LINE
  5
8B
330
1F
100
AcDbEntity
  8
0
  6
Continuous
 62
   179
370
     0
100
AcDbLine
 10
2399.8386894852
 20
312.0907896797
 30
0.0
 11
2435.9571519481
 21
312.0907896797
 31
0.0
  0
LINE
  5
8C
330
1F
100
AcDbEntity
  8
0
  6
Continuous
 62
   179
370
     0
100
AcDbLine
 10
2435.9571519481
 20
312.0907896797
 30
0.0
 11
2435.9571519481
 21
304.8670971899
 31
0.0
  0
LINE
  5
8D
330
1F
100
AcDbEntity
  8
0
  6
Continuous
 62
   179
370
     0
100
AcDbLine
 10
2435.9571519481
 20
304.8670971899
 30
0.0
 11
2381.7794582538
 21
304.8670971899
 31
0.0
  0
LINE
  5
8E
330
1F
100
AcDbEntity
  8
0
  6
Continuous
 62
   179
370
     0
100
AcDbLine
 10
2439.5689981967
 20
344.5974058976
 30
0.0
 11
2439.5689981967
 21
304.8670971877
 31
0.0
  0
LINE
  5
8F
330
1F
100
AcDbEntity
  8
0
  6
Continuous
 62
   179
370
     0
100
AcDbLine
 10
2439.5689981967
 20
344.5974058976
 30
0.0
 11
2472.0715260016
 21
344.5974058976
 31
0.0
  0
LINE
  5
90
330
1F
100
AcDbEntity
  8
0
  6
Continuous
 62
   179
370
     0
100
AcDbLine
 10
2472.0715260017
 20
304.8670971877
 30
0.0
 11
2439.5689981967
 21
304.8670971877
 31
0.0
  0
LINE
  5
91
330
1F
100
AcDbEntity
  8
0
  6
Continuous
 62
   179
370
     0
100
AcDbLine
 10
2455.8223063032
 20
324.7322515403
 30
0.0
 11
2455.8223063032
 21
313.8967128022
 31
0.0
  0
LINE
  5
92
330
1F
100
AcDbEntity
  8
0
  6
Continuous
 62
   179
370
     0
100
AcDbLine
 10
2455.8223063032
 20
313.8967128022
 30
0.0
 11
2472.947172768
 21
313.8967128022
 31
0.0
  0
LINE
  5
93
330
1F
100
AcDbEntity
  8
0
  6
Continuous
 62
   179
370
     0
100
AcDbLine
 10
2455.8223063032
 20
324.7322515403
 30
0.0
 11
2455.8223063032
 21
335.5677902827
 31
0.0
  0
LINE
  5
94
330
1F
100
AcDbEntity
  8
0
  6
Continuous
 62
   179
370
     0
100
AcDbLine
 10
2455.8223063032
 20
335.5677902827
 30
0.0
 11
2472.947172768
 21
335.5677902827
 31
0.0
  0
LINE
  5
95
330
1F
100
AcDbEntity
  8
0
  6
Continuous
 62
   179
370
     0
100
AcDbLine
 10
2504.5822306294
 20
344.5974059005
 30
0.0
 11
2504.5822306294
 21
304.8670971929
 31
0.0
  0
LINE
  5
96
330
1F
100
AcDbEntity
  8
0
  6
Continuous
 62
     7
370
     0
100
AcDbLine
 10
2728.7989947508
 20
280.0000000004
 30
0.0
 11
2728.7989947508
 21
190.0000000002
 31
0.0
  0
LINE
  5
97
330
1F
100
AcDbEntity
  8
0
  6
Continuous
 62
   179
370
     0
100
AcDbLine
 10
2504.5822306294
 20
304.8670971929
 30
0.0
 11
2520.8355387383
 21
304.8670971929
 31
0.0
  0
LINE
  5
98
330
1F
100
AcDbEntity
  8
0
  6
Continuous
 62
   179
370
     0
100
AcDbLine
 10
2520.8355387383
 20
304.8670971929
 30
0.0
 11
2520.8355387383
 21
319.3144821759
 31
0.0
  0
LINE
  5
99
330
1F
100
AcDbEntity
  8
0
  6
Continuous
 62
   179
370
     0
100
AcDbLine
 10
2520.8355387383
 20
319.3144821759
 30
0.0
 11
2538.8947699699
 21
319.3144821759
 31
0.0
  0
LINE
  5
9A
330
1F
100
AcDbEntity
  8
0
  6
Continuous
 62
   179
370
     0
100
AcDbLine
 10
2546.1184624631
 20
312.0907896827
 30
0.0
 11
2546.1184624631
 21
304.8670971919
 31
0.0
  0
LINE
  5
9B
330
1F
100
AcDbEntity
  8
0
  6
Continuous
 62
   179
370
     0
100
AcDbLine
 10
2520.8355387377
 20
326.5381746672
 30
0.0
 11
2520.8355387377
 21
337.3737134069
 31
0.0
  0
LINE
  5
9C
330
1F
100
AcDbEntity
  8
0
  6
Continuous
 62
   179
370
     0
100
AcDbLine
 10
2520.8355387377
 20
337.3737134069
 30
0.0
 11
2538.4781724187
 21
337.3737134069
 31
0.0
  0
LINE
  5
9D
330
1F
100
AcDbEntity
  8
0
  6
Continuous
 62
   179
370
     0
100
AcDbLine
 10
2520.8355387377
 20
326.5381746672
 30
0.0
 11
2538.4781724187
 21
326.5381746672
 31
0.0
  0
LINE
  5
9E
330
1F
100
AcDbEntity
  8
0
  6
Continuous
 62
   179
370
     0
100
AcDbLine
 10
2558.8702021926
 20
314.7709579587
 30
0.0
 11
2560.3555346507
 21
308.9676544183
 31
0.0
  0
LINE
  5
9F
330
1F
100
AcDbEntity
  8
0
  6
Continuous
 62
     7
370
    15
100
AcDbLine
 10
2870.0
 20
2000.0
 30
0.0
 11
100.0
 21
2000.0
 31
0.0
  0
LINE
  5
A0
330
1F
100
AcDbEntity
  8
0
  6
Continuous
 62
     7
370
     0
100
AcDbLine
 10
2728.7989947508
 20
190.0000000002
 30
0.0
 11
2728.7989947508
 21
100.0
 31
0.0
  0
LINE
  5
A1
330
1F
100
AcDbEntity
  8
0
  6
Continuous
 62
     7
370
    15
100
AcDbLine
 10
100.0
 20
2000.0
 30
0.0
 11
100.0
 21
100.0
 31
0.0
  0
LINE
  5
A2
330
1F
100
AcDbEntity
  8
0
  6
Continuous
 62
     7
370
    15
100
AcDbLine
 10
2150.0
 20
370.0000000006
 30
0.0
 11
2870.0
 21
370.0000000006
 31
0.0
  0
LINE
  5
A3
330
1F
100
AcDbEntity
  8
0
  6
Continuous
 62
    19
370
     0
100
AcDbLine
 10
2795.2884126839
 20
160.2788043096
 30
0.0
 11
2763.4182663121
 21
154.0818314039
 31
0.0
  0
LINE
  5
A4
330
1F
100
AcDbEntity
  8
0
  6
Continuous
 62
    19
370
     0
100
AcDbLine
 10
2821.3505851521
 20
165.4881573907
 30
0.0
 11
2821.3505851521
 21
124.881030118
 31
0.0
  0
LINE
  5
A5
330
1F
100
AcDbEntity
  8
0
  6
Continuous
 62
    19
370
     0
100
AcDbLine
 10
2795.2884126839
 20
160.2788043096
 30
0.0
 11
2795.2884126839
 21
130.0903831992
 31
0.0
  0
LINE
  5
A6
330
1F
100
AcDbEntity
  8
0
  6
Continuous
 62
     7
370
    15
100
AcDbLine
 10
100.0
 20
100.0
 30
0.0
 11
2870.0
 21
100.0
 31
0.0
  0
LINE
  5
A7
330
1F
100
AcDbEntity
  8
0
  6
Continuous
 62
    19
370
     0
100
AcDbLine
 10
2763.4182663121
 20
154.0818314039
 30
0.0
 11
2763.4182663121
 21
136.2873561048
 31
0.0
  0
LINE
  5
A8
330
1F
100
AcDbEntity
  8
0
  6
Continuous
 62
   179
370
     0
100
AcDbLine
 10
2546.1184624631
 20
304.8670971919
 30
0.0
 11
2576.8191555592
 21
304.8670971919
 31
0.0
  0
LINE
  5
A9
330
1F
100
AcDbEntity
  8
0
  6
Continuous
 62
    19
370
     0
100
AcDbLine
 10
2795.2884126839
 20
130.0903831992
 30
0.0
 11
2763.4182663121
 21
136.2873561048
 31
0.0
  0
LINE
  5
AA
330
1F
100
AcDbEntity
  8
0
  6
CENTERX2
 62
    19
370
     0
100
AcDbLine
 10
2838.9207124248
 20
145.1845937544
 30
0.0
 11
2759.4518690643
 21
145.1845937544
 31
0.0
  0
LINE
  5
AB
330
1F
100
AcDbEntity
  8
0
  6
Continuous
 62
   179
370
     0
100
AcDbLine
 10
2504.5822306294
 20
344.5974059005
 30
0.0
 11
2542.0192583058
 21
344.5974059005
 31
0.0
  0
LINE
  5
AC
330
1F
100
AcDbEntity
  8
0
  6
Continuous
 62
   179
370
     0
100
AcDbLine
 10
2381.7794582538
 20
344.5974058975
 30
0.0
 11
2381.7794582538
 21
304.8670971899
 31
0.0
  0
LINE
  5
AD
330
1F
100
AcDbEntity
  8
0
  6
Continuous
 62
   179
370
     0
100
AcDbLine
 10
2584.0428480525
 20
344.5974058996
 30
0.0
 11
2602.1020792839
 21
344.5974058996
 31
0.0
  0
LINE
  5
AE
330
1F
100
AcDbEntity
  8
0
  6
Continuous
 62
   179
370
     0
100
AcDbLine
 10
2584.0428480525
 20
344.5974058996
 30
0.0
 11
2560.7076448779
 21
307.9278009142
 31
0.0
  0
LINE
  5
AF
330
1F
100
AcDbEntity
  8
0
  6
Continuous
 62
   179
370
     0
100
AcDbLine
 10
2576.8191555592
 20
304.8670971919
 30
0.0
 11
2580.8824825864
 21
312.0907896817
 31
0.0
  0
LINE
  5
B0
330
1F
100
AcDbEntity
  8
0
  6
Continuous
 62
   179
370
     0
100
AcDbLine
 10
2593.0724636674
 20
333.7618671594
 30
0.0
 11
2601.1991177219
 21
319.3144821729
 31
0.0
  0
LINE
  5
B1
330
1F
100
AcDbEntity
  8
0
  6
Continuous
 62
   179
370
     0
100
AcDbLine
 10
2584.9458096129
 20
319.3144821729
 30
0.0
 11
2593.0724636674
 21
333.7618671594
 31
0.0
  0
LINE
  5
B2
330
1F
100
AcDbEntity
  8
0
  6
Continuous
 62
   179
370
     0
100
AcDbLine
 10
2584.9458096129
 20
319.3144821729
 30
0.0
 11
2601.1991177219
 21
319.3144821729
 31
0.0
  0
LINE
  5
B3
330
1F
100
AcDbEntity
  8
0
  6
Continuous
 62
   179
370
     0
100
AcDbLine
 10
2580.8824825864
 20
312.0907896817
 30
0.0
 11
2605.26244475
 21
312.0907896817
 31
0.0
  0
LINE
  5
B4
330
1F
100
AcDbEntity
  8
0
  6
Continuous
 62
   179
370
     0
100
AcDbLine
 10
2605.26244475
 20
312.0907896817
 30
0.0
 11
2609.3257717771
 21
304.8670971919
 31
0.0
  0
LINE
  5
B5
330
1F
100
AcDbEntity
  8
0
  6
Continuous
 62
   179
370
     0
100
AcDbLine
 10
2627.3850030087
 20
344.5974058996
 30
0.0
 11
2627.3850030087
 21
304.8670971919
 31
0.0
  0
LINE
  5
B6
330
1F
100
AcDbEntity
  8
0
  6
Continuous
 62
   179
370
     0
100
AcDbLine
 10
2602.1020792839
 20
344.5974058996
 30
0.0
 11
2627.3850030087
 21
304.8670971919
 31
0.0
  0
LINE
  5
B7
330
1F
100
AcDbEntity
  8
0
  6
Continuous
 62
   179
370
     0
100
AcDbLine
 10
2609.3257717771
 20
304.8670971919
 30
0.0
 11
2627.3850030087
 21
304.8670971919
 31
0.0
  0
LINE
  5
B8
330
1F
100
AcDbEntity
  8
0
  6
Continuous
 62
   179
370
     0
100
AcDbLine
 10
2627.3850030087
 20
304.8670971919
 30
0.0
 11
2676.1449273357
 21
304.8670971919
 31
0.0
  0
LINE
  5
B9
330
1F
100
AcDbEntity
  8
0
  6
Continuous
 62
   179
370
     0
100
AcDbLine
 10
2676.1449273357
 20
304.8670971919
 30
0.0
 11
2676.1449273357
 21
313.8967128076
 31
0.0
  0
LINE
  5
BA
330
1F
100
AcDbEntity
  8
0
  6
Continuous
 62
   179
370
     0
100
AcDbLine
 10
2676.1449273357
 20
313.8967128076
 30
0.0
 11
2645.44423424
 21
313.8967128076
 31
0.0
  0
LINE
  5
BB
330
1F
100
AcDbEntity
  8
0
  6
Continuous
 62
   179
370
     0
100
AcDbLine
 10
2645.44423424
 20
313.8967128076
 30
0.0
 11
2645.44423424
 21
344.5974058996
 31
0.0
  0
LINE
  5
BC
330
1F
100
AcDbEntity
  8
0
  6
Continuous
 62
   179
370
     0
100
AcDbLine
 10
2627.3850030087
 20
344.5974058996
 30
0.0
 11
2645.44423424
 21
344.5974058996
 31
0.0
  0
LINE
  5
BD
330
1F
100
AcDbEntity
  8
0
  6
Continuous
 62
   179
370
     0
100
AcDbLine
 10
2677.9508504573
 20
344.5974058992
 30
0.0
 11
2677.9508504573
 21
304.8670971915
 31
0.0
  0
LINE
  5
BE
330
1F
100
AcDbEntity
  8
0
  6
Continuous
 62
   179
370
     0
100
AcDbLine
 10
2696.0100816887
 20
344.5974058992
 30
0.0
 11
2696.0100816887
 21
304.8670971915
 31
0.0
  0
LINE
  5
BF
330
1F
100
AcDbEntity
  8
0
  6
Continuous
 62
   179
370
     0
100
AcDbLine
 10
2677.9508504573
 20
344.5974058992
 30
0.0
 11
2696.0100816887
 21
344.5974058992
 31
0.0
  0
LINE
  5
C0
330
1F
100
AcDbEntity
  8
0
  6
Continuous
 62
   179
370
     0
100
AcDbLine
 10
2677.9508504573
 20
304.8670971915
 30
0.0
 11
2696.0100816887
 21
304.8670971915
 31
0.0
  0
LINE
  5
C1
330
1F
100
AcDbEntity
  8
0
  6
Continuous
 62
   179
370
     0
100
AcDbLine
 10
2704.1151644241
 20
341.2930554229
 30
0.0
 11
2708.2866879839
 21
341.2930554229
 31
0.0
  0
LINE
  5
C2
330
1F
100
AcDbEntity
  8
0
  6
Continuous
 62
   179
370
     0
100
AcDbLine
 10
2708.2866879839
 20
338.5841707372
 30
0.0
 11
2704.1151644241
 21
338.5841707372
 31
0.0
  0
LINE
  5
C3
330
1F
100
AcDbEntity
  8
0
  6
Continuous
 62
   179
370
     0
100
AcDbLine
 10
2704.1151644241
 20
338.5841707372
 30
0.0
 11
2704.1151644241
 21
341.2930554229
 31
0.0
  0
LINE
  5
C4
330
1F
100
AcDbEntity
  8
0
  6
Continuous
 62
   179
370
     0
100
AcDbLine
 10
2704.1151644241
 20
338.5841707372
 30
0.0
 11
2706.8240491077
 21
338.5841707372
 31
0.0
  0
LINE
  5
C5
330
1F
100
AcDbEntity
  8
0
  6
Continuous
 62
   179
370
     0
100
AcDbLine
 10
2704.1151644241
 20
338.5841707372
 30
0.0
 11
2704.1151644241
 21
334.5208437117
 31
0.0
  0
LINE
  5
C6
330
1F
100
AcDbEntity
  8
0
  6
Continuous
 62
   179
370
     0
100
AcDbLine
 10
2709.5329337914
 20
334.5208437117
 30
0.0
 11
2706.8240491077
 21
338.5841707372
 31
0.0
  0
LINE
  5
C7
330
1F
100
AcDbEntity
  8
0
  6
Continuous
 62
     7
370
     0
100
AcDbLine
 10
2150.0
 20
190.0000000002
 30
0.0
 11
2870.0
 21
190.0000000002
 31
0.0
  0
LINE
  5
C8
330
1F
100
AcDbEntity
  8
0
  6
Continuous
 62
     7
370
     0
100
AcDbLine
 10
2870.0
 20
280.0000000004
 30
0.0
 11
2150.0
 21
280.0000000004
 31
0.0
  0
LINE
  5
C9
330
1F
100
AcDbEntity
  8
0
  6
Continuous
 62
     7
370
     0
100
AcDbLine
 10
100.0
 20
550.0
 30
0.0
 11
100.0
 21
650.0
 31
0.0
  0
LINE
  5
CA
330
1F
100
AcDbEntity
  8
0
  6
Continuous
 62
     7
370
     0
100
AcDbLine
 10
100.0
 20
650.0
 30
0.0
 11
100.0
 21
750.0
 31
0.0
  0
LINE
  5
CB
330
1F
100
AcDbEntity
  8
0
  6
Continuous
 62
     7
370
     0
100
AcDbLine
 10
100.0
 20
750.0
 30
0.0
 11
100.0
 21
850.0
 31
0.0
  0
LINE
  5
CC
330
1F
100
AcDbEntity
  8
0
  6
Continuous
 62
     7
370
     0
100
AcDbLine
 10
100.0
 20
850.0
 30
0.0
 11
100.0
 21
950.0
 31
0.0
  0
LINE
  5
CD
330
1F
100
AcDbEntity
  8
0
  6
Continuous
 62
     7
370
     0
100
AcDbLine
 10
100.0
 20
950.0
 30
0.0
 11
100.0
 21
1050.0
 31
0.0
  0
LINE
  5
CE
330
1F
100
AcDbEntity
  8
0
  6
Continuous
 62
     7
370
     0
100
AcDbLine
 10
100.0
 20
1050.0
 30
0.0
 11
100.0
 21
1150.0
 31
0.0
  0
LINE
  5
CF
330
1F
100
AcDbEntity
  8
0
  6
Continuous
 62
     7
370
     0
100
AcDbLine
 10
100.0
 20
1150.0
 30
0.0
 11
100.0
 21
1250.0
 31
0.0
  0
LINE
  5
D0
330
1F
100
AcDbEntity
  8
0
  6
Continuous
 62
     7
370
     0
100
AcDbLine
 10
100.0
 20
1250.0
 30
0.0
 11
100.0
 21
1350.0
 31
0.0
  0
LINE
  5
D1
330
1F
100
AcDbEntity
  8
0
  6
Continuous
 62
     7
370
     0
100
AcDbLine
 10
100.0
 20
1350.0
 30
0.0
 11
100.0
 21
1450.0
 31
0.0
  0
LINE
  5
D2
330
1F
100
AcDbEntity
  8
0
  6
Continuous
 62
     7
370
     0
100
AcDbLine
 10
100.0
 20
1450.0
 30
0.0
 11
100.0
 21
1550.0
 31
0.0
  0
LINE
  5
D3
330
1F
100
AcDbEntity
  8
0
  6
Continuous
 62
     7
370
    15
100
AcDbLine
 10
2150.0
 20
370.0000000006
 30
0.0
 11
2150.0
 21
100.0
 31
0.0
  0
ARC
  5
D4
330
1F
100
AcDbEntity
  8
0
  6
Continuous
 62
   179
370
     0
100
AcDbCircle
 10
2352.923880981
 20
330.1500209155
 30
0.0
 40
7.223692490816169
100
AcDbArc
 50
69.991210111
 51
90.0
  0
ARC
  5
D5
330
1F
100
AcDbEntity
  8
0
  6
Continuous
 62
   179
370
     0
100
AcDbCircle
 10
2352.9238809804
 20
333.7618671601
 30
0.0
 40
7.223692492544103
100
AcDbArc
 50
270.0
 51
290.0087898887
  0
ARC
  5
D6
330
1F
100
AcDbEntity
  8
0
  6
Continuous
 62
   179
370
     0
100
AcDbCircle
 10
2472.947172768
 20
324.7322515422
 30
0.0
 40
10.8355387405187
100
AcDbArc
 50
56.1685552524
 51
90.0
  0
ARC
  5
D7
330
1F
100
AcDbEntity
  8
0
  6
Continuous
 62
   179
370
     0
100
AcDbCircle
 10
2472.947172768
 20
324.7322515422
 30
0.0
 40
10.83553873998012
100
AcDbArc
 50
270.0
 51
303.830934914
  0
ARC
  5
D8
330
1F
100
AcDbEntity
  8
0
  6
Continuous
 62
   179
370
     0
100
AcDbCircle
 10
2538.8947699699
 20
312.0907896827
 30
0.0
 40
7.223692493244471
100
AcDbArc
 50
0.0
 51
90.0
  0
ARC
  5
D9
330
1F
100
AcDbEntity
  8
0
  6
Continuous
 62
   179
370
     0
100
AcDbCircle
 10
2538.4781724187
 20
331.9559440374
 30
0.0
 40
5.417769369443558
100
AcDbArc
 50
54.413089495
 51
90.0
  0
ARC
  5
DA
330
1F
100
AcDbEntity
  8
0
  6
Continuous
 62
   179
370
     0
100
AcDbCircle
 10
2538.4781724187
 20
331.9559440374
 30
0.0
 40
5.417769370214614
100
AcDbArc
 50
270.0
 51
305.5869104966
  0
ARC
  5
DB
330
1F
100
AcDbEntity
  8
0
  6
Continuous
 62
   179
370
     0
100
AcDbCircle
 10
2549.0375849296
 20
312.9627960708
 30
0.0
 40
9.997490267756625
100
AcDbArc
 50
10.4199484279
 51
80.7321727594
  0
ARC
  5
DC
330
1F
100
AcDbEntity
  8
0
  6
Continuous
 62
   179
370
     0
100
AcDbCircle
 10
2565.4535666376
 20
310.1143839674
 30
0.0
 40
5.225410873593643
100
AcDbArc
 50
192.6768785101
 51
204.7368873207
  0
CIRCLE
  5
DD
330
1F
100
AcDbEntity
  8
0
  6
Continuous
 62
   179
370
     0
100
AcDbCircle
 10
2706.2864208618
 20
337.8675697335
 30
0.0
 40
5.930102145230649
  0
CIRCLE
  5
DE
330
1F
100
AcDbEntity
  8
0
  6
Continuous
 62
    19
370
     0
100
AcDbCircle
 10
2821.3505851521
 20
145.1845937544
 30
0.0
 40
8.587078762764193
  0
CIRCLE
  5
DF
330
1F
100
AcDbEntity
  8
0
  6
Continuous
 62
    19
370
     0
100
AcDbCircle
 10
2821.3505851521
 20
145.1845937544
 30
0.0
 40
16.77593581663705
  0
ELLIPSE
  5
E0
330
1F
100
AcDbEntity
  8
0
  6
Continuous
 62
   179
370
     0
100
AcDbEllipse
 10
2350.175803597
 20
331.955944037
 30
0.0
 11
9.932577177642086
 21
0.0
 31
0.0
210
0.0
220
0.0
230
1.0
 40
0.5895245511
 41
5.265715075739357
 42
7.300655538615938
  0
ELLIPSE
  5
E1
330
1F
100
AcDbEntity
  8
0
  6
Continuous
 62
   179
370
     0
100
AcDbEllipse
 10
2462.1430372376
 20
324.7322515426
 30
0.0
 11
22.57403904004605
 21
0.0
 31
0.0
210
0.0
220
0.0
230
1.0
 40
0.5985848325
 41
5.554193105221712
 42
7.012172182744729
  0
ELLIPSE
  5
E2
330
1F
100
AcDbEntity
  8
0
  6
Continuous
 62
   179
370
     0
100
AcDbEllipse
 10
2532.5740390411
 20
331.955944037
 30
0.0
 11
11.73850030081758
 21
0.0
 31
0.0
210
0.0
220
0.0
230
1.0
 40
0.5900077182
 41
5.593675727225931
 42
6.97269488710657
  0
ELLIPSE
  5
E3
330
1F
100
AcDbEntity
  8
0
  6
Continuous
 62
   179
370
     0
100
AcDbEllipse
 10
2538.0299477069
 20
332.9364020823
 30
0.0
 11
24.3266662253518
 21
0.0
 31
0.0
210
0.0
220
0.0
230
1.0
 40
0.485929116
 41
5.257694056962849
 42
7.689248379254996
  0
ELLIPSE
  5
E4
330
1F
100
AcDbEntity
  8
0
  6
Continuous
 62
   179
370
     0
100
AcDbEllipse
 10
2468.4637681651
 20
324.7322515426
 30
0.0
 11
28.89476997115571
 21
0.0
 31
0.0
210
0.0
220
0.0
230
1.0
 40
0.6929224243
 41
4.837574201223028
 42
7.72879641314261
  0
ELLIPSE
  5
E5
330
1F
100
AcDbEntity
  8
0
  6
Continuous
 62
   179
370
     0
100
AcDbEllipse
 10
2351.0787651571
 20
331.955944037
 30
0.0
 11
27.0888468479834
 21
0.0
 31
0.0
210
0.0
220
0.0
230
1.0
 40
0.4768529109
 41
4.919453630382234
 42
7.646916983963972
  0
ELLIPSE
  5
E6
330
1F
100
AcDbEntity
  8
0
  6
Continuous
 62
   179
370
     0
100
AcDbEllipse
 10
2708.0427484413
 20
339.93861308
 30
0.0
 11
1.490185355941776
 21
0.0
 31
0.0
210
0.0
220
0.0
230
1.0
 40
0.9213369296
 41
4.876826485633947
 42
7.68954412872528
  0
MTEXT
  5
E8
330
1F
100
AcDbEntity
  8
0
  6
Continuous
 62
     7
370
     0
100
AcDbMText
 10
2231.444945447
 20
165.6379924371
 30
0.0
 40
37.0416666667
 41
0.0
 71
     1
 72
     1
  1
4901
  7
SLDTEXTSTYLE0
 73
     1
 44
1.0
  0
MTEXT
  5
E9
330
1F
100
AcDbEntity
  8
0
  6
Continuous
 62
     7
370
     0
100
AcDbMText
 10
2158.8845987823
 20
146.3871334973
 30
0.0
 40
18.0
 41
0.0
 71
     1
 72
     1
  1
COD.
  7
SLDTEXTSTYLE0
 73
     1
 44
1.0
  0
MTEXT
  5
EA
330
1F
100
AcDbEntity
  8
0
  6
Continuous
 62
     7
370
     0
100
AcDbMText
 10
107.0855178468
 20
74.7215172182
 30
0.0
 40
18.0
 41
0.0
 71
     1
 72
     1
  1
This document is the property of PEDRALI S.p.A. who willsafeguard its rights according to the civil and penal prevision of the Law.
  7
SLDTEXTSTYLE0
 73
     1
 44
1.0
  0
INSERT
  5
F0
330
1F
100
AcDbEntity
  8
0
  6
Continuous
 62
     7
370
     0
100
AcDbBlockReference
  2
SW_NOTE_0
 10
1440.8605986612
 20
53.5813398756
 30
0.0
  0
MTEXT
  5
F1
330
1F
100
AcDbEntity
  8
0
  6
Continuous
 62
     7
370
     0
100
AcDbMText
 10
2158.8845987823
 20
234.3102099637
 30
0.0
 40
18.0
 41
0.0
 71
     1
 72
     1
  1
SERIE:
  7
SLDTEXTSTYLE0
 73
     1
 44
1.0
  0
MTEXT
  5
F2
330
1F
100
AcDbEntity
  8
0
  6
Continuous
 62
     7
370
     0
100
AcDbMText
 10
2231.444945447
 20
253.5610689035
 30
0.0
 40
37.0416666667
 41
0.0
 71
     1
 72
     1
  1
INOX
  7
SLDTEXTSTYLE0
 73
     1
 44
1.0
  0
INSERT
  5
F8
330
1F
100
AcDbEntity
  8
0
  6
Continuous
 62
     7
370
     0
100
AcDbBlockReference
  2
SW_NOTE_1
 10
2766.9883061954
 20
242.6632128381
 30
0.0
  0
LINE
  5
F9
330
1F
100
AcDbEntity
  8
0
  6
Continuous
 62
     7
370
    15
100
AcDbLine
 10
937.5779121697
 20
1034.8551195376
 30
0.0
 11
937.5779121697
 21
1039.8551195376
 31
0.0
  0
LINE
  5
FA
330
1F
100
AcDbEntity
  8
0
  6
Continuous
 62
     7
370
    15
100
AcDbLine
 10
919.5779121697
 20
1039.8551195376
 30
0.0
 11
919.5779121697
 21
1034.8551195376
 31
0.0
  0
LINE
  5
FB
330
1F
100
AcDbEntity
  8
0
  6
Continuous
 62
     7
370
    15
100
AcDbLine
 10
1380.5779121697
 20
1034.8551195376
 30
0.0
 11
1380.5779121697
 21
1039.8551195376
 31
0.0
  0
LINE
  5
FC
330
1F
100
AcDbEntity
  8
0
  6
Continuous
 62
     7
370
    15
100
AcDbLine
 10
1362.5779121697
 20
1039.8551195376
 30
0.0
 11
1362.5779121697
 21
1034.8551195376
 31
0.0
  0
LINE
  5
FD
330
1F
100
AcDbEntity
  8
0
  6
Continuous
 62
     7
370
    15
100
AcDbLine
 10
1235.5779121697
 20
1034.8551195376
 30
0.0
 11
1235.5779121697
 21
1039.8551195376
 31
0.0
  0
LINE
  5
FE
330
1F
100
AcDbEntity
  8
0
  6
Continuous
 62
     7
370
    15
100
AcDbLine
 10
1217.5779121697
 20
1039.8551195376
 30
0.0
 11
1217.5779121697
 21
1034.8551195376
 31
0.0
  0
LINE
  5
FF
330
1F
100
AcDbEntity
  8
0
  6
Continuous
 62
     7
370
    15
100
AcDbLine
 10
792.5779121697
 20
1034.8551195376
 30
0.0
 11
792.5779121697
 21
1039.8551195376
 31
0.0
  0
LINE
  5
100
330
1F
100
AcDbEntity
  8
0
  6
Continuous
 62
     7
370
    15
100
AcDbLine
 10
774.5779121697
 20
1039.8551195376
 30
0.0
 11
774.5779121697
 21
1034.8551195376
 31
0.0
  0
LINE
  5
101
330
1F
100
AcDbEntity
  8
0
  6
Continuous
 62
     7
370
    15
100
AcDbLine
 10
1238.9896047147
 20
1756.8551195376
 30
0.0
 11
1240.254472227
 21
1765.8551195376
 31
0.0
  0
LINE
  5
102
330
1F
100
AcDbEntity
  8
0
  6
Continuous
 62
     7
370
    15
100
AcDbLine
 10
914.9013521123
 20
1765.8551195376
 30
0.0
 11
916.1662196246
 21
1756.8551195376
 31
0.0
  0
ARC
  5
103
330
1F
100
AcDbEntity
  8
0
  6
Continuous
 62
     7
370
    15
100
AcDbCircle
 10
1024.0385033747
 20
1746.8551195376
 30
0.0
 40
5.0
100
AcDbArc
 50
239.7738575575
 51
270.0
  0
ARC
  5
104
330
1F
100
AcDbEntity
  8
0
  6
Continuous
 62
     7
370
    15
100
AcDbCircle
 10
1131.1173209646
 20
1746.8551195376
 30
0.0
 40
5.0
100
AcDbArc
 50
270.0
 51
300.2261424425
  0
LINE
  5
105
330
1F
100
AcDbEntity
  8
0
  6
Continuous
 62
     7
370
    15
100
AcDbLine
 10
1039.5779121697
 20
1741.8551195376
 30
0.0
 11
1039.5779121697
 21
1050.8551195376
 31
0.0
  0
LINE
  5
106
330
1F
100
AcDbEntity
  8
0
  6
Continuous
 62
     7
370
    15
100
AcDbLine
 10
1115.5779121697
 20
1050.8551195376
 30
0.0
 11
1115.5779121697
 21
1741.8551195376
 31
0.0
  0
LINE
  5
107
330
1F
100
AcDbEntity
  8
0
  6
Continuous
 62
     7
370
    15
100
AcDbLine
 10
1455.0779121697
 20
1039.8551195376
 30
0.0
 11
1455.0779121697
 21
1050.8551195376
 31
0.0
  0
LINE
  5
108
330
1F
100
AcDbEntity
  8
0
  6
Continuous
 62
     7
370
    15
100
AcDbLine
 10
700.0779121697
 20
1050.8551195376
 30
0.0
 11
700.0779121697
 21
1039.8551195376
 31
0.0
  0
LINE
  5
109
330
1F
100
AcDbEntity
  8
0
  6
Continuous
 62
     7
370
    15
100
AcDbLine
 10
936.1124341087
 20
1034.8551195376
 30
0.0
 11
919.5779121697
 21
1034.8551195376
 31
0.0
  0
LINE
  5
10A
330
1F
100
AcDbEntity
  8
0
  6
Continuous
 62
     7
370
    15
100
AcDbLine
 10
937.5779121697
 20
1034.8551195376
 30
0.0
 11
936.1124341087
 21
1034.8551195376
 31
0.0
  0
LINE
  5
10B
330
1F
100
AcDbEntity
  8
0
  6
Continuous
 62
     7
370
    15
100
AcDbLine
 10
1379.1124341087
 20
1034.8551195376
 30
0.0
 11
1362.5779121697
 21
1034.8551195376
 31
0.0
  0
LINE
  5
10C
330
1F
100
AcDbEntity
  8
0
  6
Continuous
 62
     7
370
    15
100
AcDbLine
 10
1380.5779121697
 20
1034.8551195376
 30
0.0
 11
1379.1124341087
 21
1034.8551195376
 31
0.0
  0
LINE
  5
10D
330
1F
100
AcDbEntity
  8
0
  6
Continuous
 62
     7
370
    15
100
AcDbLine
 10
1234.1124341087
 20
1034.8551195376
 30
0.0
 11
1217.5779121697
 21
1034.8551195376
 31
0.0
  0
LINE
  5
10E
330
1F
100
AcDbEntity
  8
0
  6
Continuous
 62
     7
370
    15
100
AcDbLine
 10
1235.5779121697
 20
1034.8551195376
 30
0.0
 11
1234.1124341087
 21
1034.8551195376
 31
0.0
  0
LINE
  5
10F
330
1F
100
AcDbEntity
  8
0
  6
Continuous
 62
     7
370
    15
100
AcDbLine
 10
791.1124341087
 20
1034.8551195376
 30
0.0
 11
774.5779121697
 21
1034.8551195376
 31
0.0
  0
LINE
  5
110
330
1F
100
AcDbEntity
  8
0
  6
Continuous
 62
     7
370
    15
100
AcDbLine
 10
792.5779121697
 20
1034.8551195376
 30
0.0
 11
791.1124341087
 21
1034.8551195376
 31
0.0
  0
LINE
  5
111
330
1F
100
AcDbEntity
  8
0
  6
Continuous
 62
     7
370
    15
100
AcDbLine
 10
1238.9896047147
 20
1756.8551195376
 30
0.0
 11
1210.2056077711
 21
1756.8551195376
 31
0.0
  0
LINE
  5
112
330
1F
100
AcDbEntity
  8
0
  6
Continuous
 62
     7
370
    15
100
AcDbLine
 10
1240.254472227
 20
1765.8551195376
 30
0.0
 11
1209.3269569662
 21
1765.8551195376
 31
0.0
  0
LINE
  5
113
330
1F
100
AcDbEntity
  8
0
  6
Continuous
 62
     7
370
    15
100
AcDbLine
 10
944.9502165682
 20
1756.8551195376
 30
0.0
 11
916.1662196246
 21
1756.8551195376
 31
0.0
  0
LINE
  5
114
330
1F
100
AcDbEntity
  8
0
  6
Continuous
 62
     7
370
    15
100
AcDbLine
 10
945.8288673732
 20
1765.8551195376
 30
0.0
 11
914.9013521123
 21
1765.8551195376
 31
0.0
  0
LINE
  5
115
330
1F
100
AcDbEntity
  8
0
  6
Continuous
 62
     7
370
    15
100
AcDbLine
 10
1210.2056077711
 20
1756.8551195376
 30
0.0
 11
1110.9968595161
 21
1756.8551195376
 31
0.0
  0
LINE
  5
116
330
1F
100
AcDbEntity
  8
0
  6
Continuous
 62
     7
370
    15
100
AcDbLine
 10
1209.3269569662
 20
1765.8551195376
 30
0.0
 11
1110.7139818477
 21
1765.8551195376
 31
0.0
  0
LINE
  5
117
330
1F
100
AcDbEntity
  8
0
  6
Continuous
 62
     7
370
    15
100
AcDbLine
 10
1044.1589648232
 20
1756.8551195376
 30
0.0
 11
944.9502165682
 21
1756.8551195376
 31
0.0
  0
LINE
  5
118
330
1F
100
AcDbEntity
  8
0
  6
Continuous
 62
     7
370
    15
100
AcDbLine
 10
1044.4418424917
 20
1765.8551195376
 30
0.0
 11
945.8288673732
 21
1765.8551195376
 31
0.0
  0
LINE
  5
119
330
1F
100
AcDbEntity
  8
0
  6
Continuous
 62
     7
370
    15
100
AcDbLine
 10
1034.0806876886
 20
1741.8894633589
 30
0.0
 11
1034.9418732004
 21
1756.8551195376
 31
0.0
  0
ELLIPSE
  5
11A
330
1F
100
AcDbEntity
  8
0
  6
Continuous
 62
     7
370
    15
100
AcDbEllipse
 10
1045.8834936445
 20
1841.8551195376
 30
0.0
 11
19.62423826829786
 21
99.05441950419481
 31
0.0
210
0.0
220
0.0
230
1.0
 40
0.6991049172
 41
3.226860859574693
 42
3.253011659553133
  0
LINE
  5
11B
330
1F
100
AcDbEntity
  8
0
  6
Continuous
 62
     7
370
    15
100
AcDbLine
 10
1032.2281749485
 20
1741.9921660621
 30
0.0
 11
952.1376014949
 21
1747.9234919273
 31
0.0
  0
ELLIPSE
  5
11C
330
1F
100
AcDbEntity
  8
0
  6
Continuous
 62
     7
370
    15
100
AcDbEllipse
 10
953.2300269906
 20
1755.9125282053
 30
0.0
 11
1.569939061463856
 21
7.924353560335476
 31
0.0
210
0.0
220
0.0
230
1.0
 40
0.6991049172
 41
1.848050750499153
 42
3.22686085957472
  0
LINE
  5
11D
330
1F
100
AcDbEntity
  8
0
  6
Continuous
 62
     7
370
    15
100
AcDbLine
 10
947.4719227777
 20
1754.7991433976
 30
0.0
 11
947.4702644313
 21
1756.8551195376
 31
0.0
  0
ELLIPSE
  5
11E
330
1F
100
AcDbEntity
  8
0
  6
Continuous
 62
     7
370
    15
100
AcDbEllipse
 10
1109.2723306948
 20
1841.8551195376
 30
0.0
 11
-19.62423826829786
 21
99.05441950419458
 31
0.0
210
0.0
220
0.0
230
1.0
 40
0.6991049172
 41
3.030173647626446
 42
3.056324447604915
  0
LINE
  5
11F
330
1F
100
AcDbEntity
  8
0
  6
Continuous
 62
     7
370
    15
100
AcDbLine
 10
1121.0751366508
 20
1741.8894633589
 30
0.0
 11
1120.213951139
 21
1756.8551195376
 31
0.0
  0
LINE
  5
120
330
1F
100
AcDbEntity
  8
0
  6
Continuous
 62
     7
370
    15
100
AcDbLine
 10
1207.6839015616
 20
1754.7991433976
 30
0.0
 11
1207.685559908
 21
1756.8551195376
 31
0.0
  0
ELLIPSE
  5
121
330
1F
100
AcDbEntity
  8
0
  6
Continuous
 62
     7
370
    15
100
AcDbEllipse
 10
1201.9257973487
 20
1755.9125282053
 30
0.0
 11
-1.569939061463856
 21
7.9243535603357
 31
0.0
210
0.0
220
0.0
230
1.0
 40
0.6991049172
 41
3.056324447604909
 42
4.435134556680467
  0
LINE
  5
122
330
1F
100
AcDbEntity
  8
0
  6
Continuous
 62
     7
370
    15
100
AcDbLine
 10
1203.0182228444
 20
1747.9234919273
 30
0.0
 11
1122.9276493908
 21
1741.9921660621
 31
0.0
  0
LINE
  5
123
330
1F
100
AcDbEntity
  8
0
  6
Continuous
 62
     7
370
    15
100
AcDbLine
 10
942.9274936496
 20
1754.7991433976
 30
0.0
 11
942.520516963
 21
1756.8551195376
 31
0.0
  0
LINE
  5
124
330
1F
100
AcDbEntity
  8
0
  6
Continuous
 62
     7
370
    15
100
AcDbLine
 10
1212.2283306897
 20
1754.7991433976
 30
0.0
 11
1212.6353073763
 21
1756.8551195376
 31
0.0
  0
ELLIPSE
  5
125
330
1F
100
AcDbEntity
  8
0
  6
Continuous
 62
     7
370
    15
100
AcDbEllipse
 10
948.3729937023
 20
1755.9125282053
 30
0.0
 11
-1.523563619372453
 21
7.930989607302081
 31
0.0
210
0.0
220
0.0
230
1.0
 40
0.6882053315
 41
1.578978915725679
 42
2.957789024801219
  0
ELLIPSE
  5
126
330
1F
100
AcDbEntity
  8
0
  6
Continuous
 62
     7
370
    15
100
AcDbEllipse
 10
1206.782830637
 20
1755.9125282053
 30
0.0
 11
1.52356361937268
 21
7.930989607302081
 31
0.0
210
0.0
220
0.0
230
1.0
 40
0.6882053315
 41
3.32539628237843
 42
4.704206391453937
  0
LINE
  5
127
330
1F
100
AcDbEntity
  8
0
  6
Continuous
 62
     7
370
    15
100
AcDbLine
 10
948.8733054451
 20
1747.9234919273
 30
0.0
 11
1028.8383877761
 21
1741.9921660621
 31
0.0
  0
LINE
  5
128
330
1F
100
AcDbEntity
  8
0
  6
Continuous
 62
     7
370
    15
100
AcDbLine
 10
1126.3174365633
 20
1741.9921660621
 30
0.0
 11
1206.2825188943
 21
1747.9234919273
 31
0.0
  0
LINE
  5
129
330
1F
100
AcDbEntity
  8
0
  6
Continuous
 62
     7
370
    15
100
AcDbLine
 10
1065.842779682
 20
1756.8551195376
 30
0.0
 11
1064.5779121697
 21
1765.8551195376
 31
0.0
  0
LINE
  5
12A
330
1F
100
AcDbEntity
  8
0
  6
Continuous
 62
     7
370
    15
100
AcDbLine
 10
1089.3130446574
 20
1756.8551195376
 30
0.0
 11
1090.5779121697
 21
1765.8551195376
 31
0.0
  0
LINE
  5
12B
330
1F
100
AcDbEntity
  8
0
  6
Continuous
 62
     7
370
    15
100
AcDbLine
 10
1089.3130446574
 20
1756.8551195376
 30
0.0
 11
1065.842779682
 21
1756.8551195376
 31
0.0
  0
LINE
  5
12C
330
1F
100
AcDbEntity
  8
0
  6
Continuous
 62
     7
370
    15
100
AcDbLine
 10
1090.5779121697
 20
1765.8551195376
 30
0.0
 11
1064.5779121697
 21
1765.8551195376
 31
0.0
  0
SPLINE
  5
12D
330
1F
100
AcDbEntity
  8
0
  6
Continuous
 62
     7
370
    15
100
AcDbSpline
210
0.0
220
0.0
230
1.0
 70
    24
 71
     3
 72
    16
 73
    12
 74
     0
 42
0.000000001
 43
0.00000001
 40
0.0
 40
0.0
 40
0.0
 40
0.0
 40
0.1304089458102712
 40
0.2608103415695145
 40
0.3477435179873649
 40
0.4349564877191528
 40
0.5218878489969337
 40
0.6515365547988831
 40
0.781188785040737
 40
0.8905924512630489
 40
1.0
 40
1.0
 40
1.0
 40
1.0
 10
1095.077017550269
 20
1756.855119537553
 30
0.0
 10
1094.653806746071
 20
1756.855119537553
 30
0.0
 10
1093.807409639546
 20
1756.855119537553
 30
0.0
 10
1092.777868459572
 20
1756.855119537553
 30
0.0
 10
1091.960026054558
 20
1756.855119537553
 30
0.0
 10
1091.325722009024
 20
1756.855119537553
 30
0.0
 10
1090.67414514352
 20
1756.855119537553
 30
0.0
 10
1090.069459637192
 20
1756.855119537553
 30
0.0
 10
1089.617576678276
 20
1756.855119537553
 30
0.0
 10
1089.359284253283
 20
1756.855119537553
 30
0.0
 10
1089.328458038319
 20
1756.855119537553
 30
0.0
 10
1089.313044657353
 20
1756.855119537553
 30
0.0
  0
SPLINE
  5
12E
330
1F
100
AcDbEntity
  8
0
  6
Continuous
 62
     7
370
    15
100
AcDbSpline
210
0.0
220
0.0
230
1.0
 70
    24
 71
     3
 72
    15
 73
    11
 74
     0
 42
0.000000001
 43
0.00000001
 40
0.0
 40
0.0
 40
0.0
 40
0.0
 40
0.1317447122811142
 40
0.2634819513336643
 40
0.3952703362030995
 40
0.5270562098654931
 40
0.6580548703881013
 40
0.7890571628006029
 40
0.8945269669972952
 40
1.0
 40
1.0
 40
1.0
 40
1.0
 10
1090.577912169674
 20
1765.855119537553
 30
0.0
 10
1090.599944550475
 20
1765.855119537553
 30
0.0
 10
1090.644008062287
 20
1765.855119537553
 30
0.0
 10
1090.989405068954
 20
1765.855119537552
 30
0.0
 10
1091.537268347695
 20
1765.855119537553
 30
0.0
 10
1092.283296901838
 20
1765.855119537552
 30
0.0
 10
1093.206715874137
 20
1765.855119537553
 30
0.0
 10
1094.206692131824
 20
1765.855119537553
 30
0.0
 10
1095.228048277843
 20
1765.855119537553
 30
0.0
 10
1095.904404108087
 20
1765.855119537553
 30
0.0
 10
1096.242587199544
 20
1765.855119537553
 30
0.0
  0
SPLINE
  5
12F
330
1F
100
AcDbEntity
  8
0
  6
Continuous
 62
     7
370
    15
100
AcDbSpline
210
0.0
220
0.0
230
1.0
 70
    24
 71
     3
 72
    16
 73
    12
 74
     0
 42
0.000000001
 43
0.00000001
 40
0.0
 40
0.0
 40
0.0
 40
0.0
 40
0.1304091657036794
 40
0.2608107933904971
 40
0.3477440951468776
 40
0.434957187411179
 40
0.5218886705736898
 40
0.6515379454493941
 40
0.7811907418565951
 40
0.8905934263385368
 40
0.9999999999999999
 40
0.9999999999999999
 40
0.9999999999999999
 40
0.9999999999999999
 10
1065.842779681996
 20
1756.855119537553
 30
0.0
 10
1065.820798758377
 20
1756.855119537553
 30
0.0
 10
1065.776838181698
 20
1756.855119537553
 30
0.0
 10
1065.469189729744
 20
1756.855119537553
 30
0.0
 10
1065.07079966432
 20
1756.855119537553
 30
0.0
 10
1064.637008282672
 20
1756.855119537553
 30
0.0
 10
1064.03452126964
 20
1756.855119537553
 30
0.0
 10
1063.213680100502
 20
1756.855119537553
 30
0.0
 10
1062.200082360958
 20
1756.855119537553
 30
0.0
 10
1061.146186671381
 20
1756.855119537553
 30
0.0
 10
1060.434604299137
 20
1756.855119537553
 30
0.0
 10
1060.078806789079
 20
1756.855119537553
 30
0.0
  0
SPLINE
  5
130
330
1F
100
AcDbEntity
  8
0
  6
Continuous
 62
     7
370
    15
100
AcDbSpline
210
0.0
220
0.0
230
1.0
 70
    24
 71
     3
 72
    15
 73
    11
 74
     0
 42
0.000000001
 43
0.00000001
 40
0.0
 40
0.0
 40
0.0
 40
0.0
 40
0.1317445026771829
 40
0.2634815208008823
 40
0.3952697254402345
 40
0.5270554237335553
 40
0.6580535658468023
 40
0.7890553422915982
 40
0.8945260594262613
 40
1.0
 40
1.0
 40
1.0
 40
1.0
 10
1058.913237139805
 20
1765.855119537553
 30
0.0
 10
1059.334506392937
 20
1765.855119537553
 30
0.0
 10
1060.17702096642
 20
1765.855119537553
 30
0.0
 10
1061.326080176101
 20
1765.855119537553
 30
0.0
 10
1062.344294886876
 20
1765.855119537553
 30
0.0
 10
1063.20022134639
 20
1765.855119537553
 30
0.0
 10
1063.865727030235
 20
1765.855119537553
 30
0.0
 10
1064.296415264977
 20
1765.855119537552
 30
0.0
 10
1064.535851411921
 20
1765.855119537553
 30
0.0
 10
1064.563891774262
 20
1765.855119537553
 30
0.0
 10
1064.577912169674
 20
1765.855119537553
 30
0.0
  0
LINE
  5
131
330
1F
100
AcDbEntity
  8
0
  6
Continuous
 62
     7
370
    15
100
AcDbLine
 10
1081.4321648405
 20
1745.1450188209
 30
0.0
 11
1083.0779121697
 21
1756.8551195376
 31
0.0
  0
LINE
  5
132
330
1F
100
AcDbEntity
  8
0
  6
Continuous
 62
     7
370
    15
100
AcDbLine
 10
1073.7236594988
 20
1745.1450188209
 30
0.0
 11
1072.0779121697
 21
1756.8551195376
 31
0.0
  0
SPLINE
  5
133
330
1F
100
AcDbEntity
  8
0
  6
Continuous
 62
     7
370
    15
100
AcDbSpline
210
0.0
220
0.0
230
1.0
 70
    24
 71
     3
 72
    14
 73
    10
 74
     0
 42
0.000000001
 43
0.00000001
 40
0.0
 40
0.0
 40
0.0
 40
0.0
 40
0.1448360695201712
 40
0.2896652335533927
 40
0.4345385631496667
 40
0.5794104444920282
 40
0.7236240297893483
 40
0.8678422516031831
 40
0.9999999999999999
 40
0.9999999999999999
 40
0.9999999999999999
 40
0.9999999999999999
 10
1052.727019381646
 20
1756.855119537553
 30
0.0
 10
1052.307534302895
 20
1756.855119537553
 30
0.0
 10
1051.468584145583
 20
1756.855119537553
 30
0.0
 10
1050.135918351241
 20
1756.855119537553
 30
0.0
 10
1048.795655402815
 20
1756.855119537553
 30
0.0
 10
1047.47893721849
 20
1756.855119537552
 30
0.0
 10
1046.230879844381
 20
1756.855119537553
 30
0.0
 10
1045.101769470501
 20
1756.855119537553
 30
0.0
 10
1044.463955411979
 20
1756.855119537553
 30
0.0
 10
1044.158964823231
 20
1756.855119537553
 30
0.0
  0
SPLINE
  5
134
330
1F
100
AcDbEntity
  8
0
  6
Continuous
 62
     7
370
    15
100
AcDbSpline
210
0.0
220
0.0
230
1.0
 70
    24
 71
     3
 72
    14
 73
    10
 74
     0
 42
0.000000001
 43
0.00000001
 40
0.0
 40
0.0
 40
0.0
 40
0.0
 40
0.1462539632316589
 40
0.2925010840467131
 40
0.438791666128838
 40
0.5850809000524284
 40
0.7307245576854946
 40
0.876372953911627
 40
1.0
 40
1.0
 40
1.0
 40
1.0
 10
1044.441842491689
 20
1765.855119537553
 30
0.0
 10
1044.777718435482
 20
1765.855119537553
 30
0.0
 10
1045.449454609285
 20
1765.855119537553
 30
0.0
 10
1046.624666527107
 20
1765.855119537553
 30
0.0
 10
1047.88525207936
 20
1765.855119537553
 30
0.0
 10
1049.205091384784
 20
1765.855119537553
 30
0.0
 10
1050.541979730146
 20
1765.855119537553
 30
0.0
 10
1051.799136001207
 20
1765.855119537553
 30
0.0
 10
1052.57182580716
 20
1765.855119537553
 30
0.0
 10
1052.926575417565
 20
1765.855119537553
 30
0.0
  0
SPLINE
  5
135
330
1F
100
AcDbEntity
  8
0
  6
Continuous
 62
     7
370
    15
100
AcDbSpline
210
0.0
220
0.0
230
1.0
 70
    24
 71
     3
 72
    14
 73
    10
 74
     0
 42
0.000000001
 43
0.00000001
 40
0.0
 40
0.0
 40
0.0
 40
0.0
 40
0.144836221846407
 40
0.2896655458954388
 40
0.4345390139395849
 40
0.5794110294549094
 40
0.7236248458891857
 40
0.8678432996874564
 40
1.0
 40
1.0
 40
1.0
 40
1.0
 10
1110.996859516119
 20
1756.855119537553
 30
0.0
 10
1110.660963557652
 20
1756.855119537553
 30
0.0
 10
1109.989187637701
 20
1756.855119537553
 30
0.0
 10
1108.813909192399
 20
1756.855119537553
 30
0.0
 10
1107.553243790968
 20
1756.855119537553
 30
0.0
 10
1106.233344736393
 20
1756.855119537553
 30
0.0
 10
1104.896536224737
 20
1756.855119537553
 30
0.0
 10
1103.609428447956
 20
1756.855119537553
 30
0.0
 10
1102.810726962301
 20
1756.855119537553
 30
0.0
 10
1102.428804957704
 20
1756.855119537553
 30
0.0
  0
SPLINE
  5
136
330
1F
100
AcDbEntity
  8
0
  6
Continuous
 62
     7
370
    15
100
AcDbSpline
210
0.0
220
0.0
230
1.0
 70
    24
 71
     3
 72
    14
 73
    10
 74
     0
 42
0.000000001
 43
0.00000001
 40
0.0
 40
0.0
 40
0.0
 40
0.0
 40
0.1462538192088302
 40
0.2925007887500084
 40
0.4387912392874101
 40
0.5850803457846889
 40
0.7307237982288262
 40
0.8763719881529968
 40
1.0
 40
1.0
 40
1.0
 40
1.0
 10
1102.229248921785
 20
1765.855119537553
 30
0.0
 10
1102.650410707199
 20
1765.855119537553
 30
0.0
 10
1103.492714553288
 20
1765.855119537553
 30
0.0
 10
1104.827305623206
 20
1765.855119537552
 30
0.0
 10
1106.167033218258
 20
1765.855119537553
 30
0.0
 10
1107.480693455826
 20
1765.855119537553
 30
0.0
 10
1108.723350547734
 20
1765.855119537552
 30
0.0
 10
1109.818797161545
 20
1765.855119537553
 30
0.0
 10
1110.432310388958
 20
1765.855119537553
 30
0.0
 10
1110.713981847661
 20
1765.855119537553
 30
0.0
  0
LINE
  5
137
330
1F
100
AcDbEntity
  8
0
  6
Continuous
 62
     7
370
    15
100
AcDbLine
 10
1102.4288049577
 20
1756.8551195376
 30
0.0
 11
1095.0770175503
 21
1756.8551195376
 31
0.0
  0
LINE
  5
138
330
1F
100
AcDbEntity
  8
0
  6
Continuous
 62
     7
370
    15
100
AcDbLine
 10
1102.2292489218
 20
1765.8551195376
 30
0.0
 11
1096.2425871995
 21
1765.8551195376
 31
0.0
  0
LINE
  5
139
330
1F
100
AcDbEntity
  8
0
  6
Continuous
 62
     7
370
    15
100
AcDbLine
 10
1060.0788067891
 20
1756.8551195376
 30
0.0
 11
1052.7270193816
 21
1756.8551195376
 31
0.0
  0
LINE
  5
13A
330
1F
100
AcDbEntity
  8
0
  6
Continuous
 62
     7
370
    15
100
AcDbLine
 10
1058.9132371398
 20
1765.8551195376
 30
0.0
 11
1052.9265754176
 21
1765.8551195376
 31
0.0
  0
SPLINE
  5
13B
330
1F
100
AcDbEntity
  8
0
  6
Continuous
 62
     7
370
    15
100
AcDbSpline
210
0.0
220
0.0
230
1.0
 70
    24
 71
     3
 72
    15
 73
    11
 74
     0
 42
0.000000001
 43
0.00000001
 40
0.0
 40
0.0
 40
0.0
 40
0.0
 40
0.1344926318563935
 40
0.2728754310305405
 40
0.4073722749002625
 40
0.5457808473606723
 40
0.6801202933417133
 40
0.8183202059212631
 40
0.9085992956715994
 40
1.0
 40
1.0
 40
1.0
 40
1.0
 10
1074.186024690211
 20
1741.855119537553
 30
0.0
 10
1074.184192497929
 20
1741.868156263036
 30
0.0
 10
1074.180475117642
 20
1741.89460679818
 30
0.0
 10
1074.150489287917
 20
1742.107967063107
 30
0.0
 10
1074.102974860498
 20
1742.446049781338
 30
0.0
 10
1074.038387161831
 20
1742.905615136871
 30
0.0
 10
1073.957975166903
 20
1743.477776210898
 30
0.0
 10
1073.875265063188
 20
1744.066289178607
 30
0.0
 10
1073.795914257083
 20
1744.630899501817
 30
0.0
 10
1073.747843341454
 20
1744.972941839414
 30
0.0
 10
1073.723659498839
 20
1745.145018820924
 30
0.0
  0
SPLINE
  5
13C
330
1F
100
AcDbEntity
  8
0
  6
Continuous
 62
     7
370
    15
100
AcDbSpline
210
0.0
220
0.0
230
1.0
 70
    24
 71
     3
 72
    15
 73
    11
 74
     0
 42
0.000000001
 43
0.00000001
 40
0.0
 40
0.0
 40
0.0
 40
0.0
 40
0.1355031336738686
 40
0.2749092596134782
 40
0.4104214705779964
 40
0.5499098581195541
 40
0.6846135858477604
 40
0.8232484961646954
 40
0.9110978847418353
 40
1.0
 40
1.0
 40
1.0
 40
1.0
 10
1081.432164840511
 20
1745.145018820924
 30
0.0
 10
1081.396491543665
 20
1744.891190124651
 30
0.0
 10
1081.324117426861
 20
1744.37622152526
 30
0.0
 10
1081.227255426895
 20
1743.687012583447
 30
0.0
 10
1081.141451126551
 20
1743.076483262732
 30
0.0
 10
1081.071514753611
 20
1742.578860112222
 30
0.0
 10
1081.017876159312
 20
1742.197201682393
 30
0.0
 10
1080.987300050743
 20
1741.979641365254
 30
0.0
 10
1080.972186295739
 20
1741.872101410505
 30
0.0
 10
1080.97059835059
 20
1741.860802593676
 30
0.0
 10
1080.969799649139
 20
1741.855119537553
 30
0.0
  0
LINE
  5
13D
330
1F
100
AcDbEntity
  8
0
  6
Continuous
 62
     7
370
    15
100
AcDbLine
 10
1080.9697996491
 20
1741.8551195376
 30
0.0
 11
1074.1860246902
 21
1741.8551195376
 31
0.0
  0
LINE
  5
13E
330
1F
100
AcDbEntity
  8
0
  6
Continuous
 62
     7
370
    15
100
AcDbLine
 10
1102.0463132158
 20
1741.8551195376
 30
0.0
 11
1102.5579041633
 21
1756.8551195376
 31
0.0
  0
LINE
  5
13F
330
1F
100
AcDbEntity
  8
0
  6
Continuous
 62
     7
370
    15
100
AcDbLine
 10
1102.0463132158
 20
1741.8551195376
 30
0.0
 11
1080.9697996491
 21
1741.8551195376
 31
0.0
  0
LINE
  5
140
330
1F
100
AcDbEntity
  8
0
  6
Continuous
 62
     7
370
    15
100
AcDbLine
 10
1053.1095111236
 20
1741.8551195376
 30
0.0
 11
1052.5979201761
 21
1756.8551195375
 31
0.0
  0
LINE
  5
141
330
1F
100
AcDbEntity
  8
0
  6
Continuous
 62
     7
370
    15
100
AcDbLine
 10
1074.1860246902
 20
1741.8551195376
 30
0.0
 11
1053.1095111236
 21
1741.8551195376
 31
0.0
  0
ELLIPSE
  5
142
330
1F
100
AcDbEntity
  8
0
  6
Continuous
 62
     7
370
    15
100
AcDbEllipse
 10
1051.8360434165
 20
1841.8551195376
 30
0.0
 11
141.496204807562
 21
19.14385769769547
 31
0.0
210
0.0
220
0.0
230
1.0
 40
0.6936614286
 41
4.493552279768676
 42
4.519761357350066
  0
LINE
  5
143
330
1F
100
AcDbEntity
  8
0
  6
Continuous
 62
     7
370
    15
100
AcDbLine
 10
1053.1095111236
 20
1741.8551195376
 30
0.0
 11
1037.7819599462
 21
1741.8551195376
 31
0.0
  0
ELLIPSE
  5
144
330
1F
100
AcDbEntity
  8
0
  6
Continuous
 62
     7
370
    15
100
AcDbEllipse
 10
1103.3197809229
 20
1841.8551195376
 30
0.0
 11
141.4962048075677
 21
-19.14385769769387
 31
0.0
210
0.0
220
0.0
230
1.0
 40
0.6936614286
 41
4.905016603419317
 42
4.93122568100068
  0
LINE
  5
145
330
1F
100
AcDbEntity
  8
0
  6
Continuous
 62
     7
370
    15
100
AcDbLine
 10
1117.3738643931
 20
1741.8551195376
 30
0.0
 11
1102.0463132158
 21
1741.8551195376
 31
0.0
  0
LINE
  5
146
330
1F
100
AcDbEntity
  8
0
  6
Continuous
 62
     7
370
    15
100
AcDbLine
 10
1030.6860246902
 20
1741.8551195376
 30
0.0
 11
1030.6811979809
 21
1741.8894633589
 31
0.0
  0
LINE
  5
147
330
1F
100
AcDbEntity
  8
0
  6
Continuous
 62
     7
370
    15
100
AcDbLine
 10
1037.7819599462
 20
1741.8551195376
 30
0.0
 11
1030.6860246902
 21
1741.8551195376
 31
0.0
  0
ELLIPSE
  5
148
330
1F
100
AcDbEntity
  8
0
  6
Continuous
 62
     7
370
    15
100
AcDbEllipse
 10
1022.5844909919
 20
1841.8551195376
 30
0.0
 11
-19.04454524215669
 21
99.13737009127567
 31
0.0
210
0.0
220
0.0
230
1.0
 40
0.6882053315
 41
2.957789024801208
 42
2.983939824779644
  0
LINE
  5
149
330
1F
100
AcDbEntity
  8
0
  6
Continuous
 62
     7
370
    15
100
AcDbLine
 10
1124.4746263585
 20
1741.8894633589
 30
0.0
 11
1124.4697996491
 21
1741.8551195376
 31
0.0
  0
LINE
  5
14A
330
1F
100
AcDbEntity
  8
0
  6
Continuous
 62
     7
370
    15
100
AcDbLine
 10
1124.4697996491
 20
1741.8551195376
 30
0.0
 11
1117.3738643931
 21
1741.8551195376
 31
0.0
  0
ELLIPSE
  5
14B
330
1F
100
AcDbEntity
  8
0
  6
Continuous
 62
     7
370
    15
100
AcDbEllipse
 10
1132.5713333474
 20
1841.8551195376
 30
0.0
 11
19.04454524215657
 21
99.13737009127566
 31
0.0
210
0.0
220
0.0
230
1.0
 40
0.6882053315
 41
3.299245482399932
 42
3.325396282378397
  0
LINE
  5
14C
330
1F
100
AcDbEntity
  8
0
  6
Continuous
 62
     7
370
    15
100
AcDbLine
 10
1130.4180293026
 20
1742.296323215
 30
0.0
 11
1130.3609289503
 21
1741.8551195376
 31
0.0
  0
LINE
  5
14D
330
1F
100
AcDbEntity
  8
0
  6
Continuous
 62
     7
370
    15
100
AcDbLine
 10
1130.3609289503
 20
1741.8551195376
 30
0.0
 11
1124.4697996491
 21
1741.8551195376
 31
0.0
  0
LINE
  5
14E
330
1F
100
AcDbEntity
  8
0
  6
Continuous
 62
     7
370
    15
100
AcDbLine
 10
1024.794895389
 20
1741.8551195376
 30
0.0
 11
1024.7377950367
 21
1742.296323215
 31
0.0
  0
LINE
  5
14F
330
1F
100
AcDbEntity
  8
0
  6
Continuous
 62
     7
370
    15
100
AcDbLine
 10
1030.6860246902
 20
1741.8551195376
 30
0.0
 11
1024.794895389
 21
1741.8551195376
 31
0.0
  0
SPLINE
  5
150
330
1F
100
AcDbEntity
  8
0
  6
Continuous
 62
     7
370
    15
100
AcDbSpline
210
0.0
220
0.0
230
1.0
 70
     8
 71
     3
 72
    11
 73
     7
 74
     0
 42
0.000000001
 43
0.00000001
 40
0.0
 40
0.0
 40
0.0
 40
0.0
 40
0.3205340575095647
 40
0.6410594855200066
 40
0.9616228938460469
 40
1.0
 40
1.0
 40
1.0
 40
1.0
 10
1131.009769646655
 20
1741.855119537553
 30
0.0
 10
1131.288424205222
 20
1741.868186632502
 30
0.0
 10
1131.845725820348
 20
1741.894320470604
 30
0.0
 10
1132.651567642325
 20
1742.117511399786
 30
0.0
 10
1133.207106001257
 20
1742.332159994399
 30
0.0
 10
1133.464502871099
 20
1742.50577134395
 30
0.0
 10
1133.492023160949
 20
1742.524333475898
 30
0.0
  0
LINE
  5
151
330
1F
100
AcDbEntity
  8
0
  6
Continuous
 62
     7
370
    15
100
AcDbLine
 10
1131.0097696467
 20
1741.8551195376
 30
0.0
 11
1130.3609289503
 21
1741.8551195376
 31
0.0
  0
SPLINE
  5
152
330
1F
100
AcDbEntity
  8
0
  6
Continuous
 62
     7
370
    15
100
AcDbSpline
210
0.0
220
0.0
230
1.0
 70
     8
 71
     3
 72
    11
 73
     7
 74
     0
 42
0.000000001
 43
0.00000001
 40
0.0
 40
0.0
 40
0.0
 40
0.0
 40
0.2619851510538632
 40
0.5837942972910946
 40
0.7918962114222762
 40
1.0
 40
1.0
 40
1.0
 40
1.0
 10
1021.670490090328
 20
1742.523837332892
 30
0.0
 10
1021.86946494254
 20
1742.415291280894
 30
0.0
 10
1022.31285031594
 20
1742.173412816046
 30
0.0
 10
1022.975111472435
 20
1741.979851111161
 30
0.0
 10
1023.60544920966
 20
1741.871863034321
 30
0.0
 10
1023.965852323973
 20
1741.860700719899
 30
0.0
 10
1024.146054692695
 20
1741.855119537553
 30
0.0
  0
LINE
  5
153
330
1F
100
AcDbEntity
  8
0
  6
Continuous
 62
     7
370
    15
100
AcDbLine
 10
1024.794895389
 20
1741.8551195376
 30
0.0
 11
1024.1460546927
 21
1741.8551195376
 31
0.0
  0
LINE
  5
154
330
1F
100
AcDbEntity
  8
0
  6
Continuous
 62
     7
370
    15
100
AcDbLine
 10
1024.1460546927
 20
1741.8551195376
 30
0.0
 11
1024.0385033747
 21
1741.8551195376
 31
0.0
  0
LINE
  5
155
330
1F
100
AcDbEntity
  8
0
  6
Continuous
 62
     7
370
    15
100
AcDbLine
 10
1131.1173209646
 20
1741.8551195376
 30
0.0
 11
1131.0097696467
 21
1741.8551195376
 31
0.0
  0
LINE
  5
156
330
1F
100
AcDbEntity
  8
0
  6
Continuous
 62
     7
370
    15
100
AcDbLine
 10
700.0779121697
 20
1050.8551195376
 30
0.0
 11
1455.0779121697
 21
1050.8551195376
 31
0.0
  0
LINE
  5
157
330
1F
100
AcDbEntity
  8
0
  6
Continuous
 62
     7
370
    15
100
AcDbLine
 10
700.0779121697
 20
1039.8551195376
 30
0.0
 11
1455.0779121697
 21
1039.8551195376
 31
0.0
  0
LINE
  5
158
330
1F
100
AcDbEntity
  8
0
  6
Continuous
 62
     7
370
    15
100
AcDbLine
 10
2109.3467063243
 20
1034.8551195376
 30
0.0
 11
2109.3467063243
 21
1039.8551195376
 31
0.0
  0
LINE
  5
159
330
1F
100
AcDbEntity
  8
0
  6
Continuous
 62
     7
370
    15
100
AcDbLine
 10
2091.3467063243
 20
1039.8551195376
 30
0.0
 11
2091.3467063243
 21
1034.8551195376
 31
0.0
  0
LINE
  5
15A
330
1F
100
AcDbEntity
  8
0
  6
Continuous
 62
     7
370
    15
100
AcDbLine
 10
2028.8467063243
 20
1034.8551195376
 30
0.0
 11
2028.8467063243
 21
1039.8551195376
 31
0.0
  0
LINE
  5
15B
330
1F
100
AcDbEntity
  8
0
  6
Continuous
 62
     7
370
    15
100
AcDbLine
 10
2010.8467063243
 20
1039.8551195376
 30
0.0
 11
2010.8467063243
 21
1034.8551195376
 31
0.0
  0
LINE
  5
15C
330
1F
100
AcDbEntity
  8
0
  6
Continuous
 62
     7
370
    15
100
AcDbLine
 10
1774.8467063243
 20
1034.8551195376
 30
0.0
 11
1774.8467063243
 21
1039.8551195376
 31
0.0
  0
LINE
  5
15D
330
1F
100
AcDbEntity
  8
0
  6
Continuous
 62
     7
370
    15
100
AcDbLine
 10
1756.8467063243
 20
1039.8551195376
 30
0.0
 11
1756.8467063243
 21
1034.8551195376
 31
0.0
  0
LINE
  5
15E
330
1F
100
AcDbEntity
  8
0
  6
Continuous
 62
     7
370
    15
100
AcDbLine
 10
1694.3467063243
 20
1034.8551195376
 30
0.0
 11
1694.3467063243
 21
1039.8551195376
 31
0.0
  0
LINE
  5
15F
330
1F
100
AcDbEntity
  8
0
  6
Continuous
 62
     7
370
    15
100
AcDbLine
 10
1676.3467063243
 20
1039.8551195376
 30
0.0
 11
1676.3467063243
 21
1034.8551195376
 31
0.0
  0
LINE
  5
160
330
1F
100
AcDbEntity
  8
0
  6
Continuous
 62
     7
370
    15
100
AcDbLine
 10
1730.1701462669
 20
1765.8551195376
 30
0.0
 11
1731.4350137793
 21
1756.8551195376
 31
0.0
  0
LINE
  5
161
330
1F
100
AcDbEntity
  8
0
  6
Continuous
 62
     7
370
    15
100
AcDbLine
 10
2054.2583988693
 20
1756.8551195376
 30
0.0
 11
2055.5232663816
 21
1765.8551195376
 31
0.0
  0
ARC
  5
162
330
1F
100
AcDbEntity
  8
0
  6
Continuous
 62
     7
370
    15
100
AcDbCircle
 10
1839.3072975293
 20
1746.8551195376
 30
0.0
 40
5.0
100
AcDbArc
 50
239.7738575575
 51
270.0
  0
ARC
  5
163
330
1F
100
AcDbEntity
  8
0
  6
Continuous
 62
     7
370
    15
100
AcDbCircle
 10
1946.3861151192
 20
1746.8551195376
 30
0.0
 40
5.0
100
AcDbArc
 50
270.0
 51
300.2261424425
  0
LINE
  5
164
330
1F
100
AcDbEntity
  8
0
  6
Continuous
 62
     7
370
    15
100
AcDbLine
 10
1854.8467063243
 20
1741.8551195376
 30
0.0
 11
1854.8467063243
 21
1050.8551195376
 31
0.0
  0
LINE
  5
165
330
1F
100
AcDbEntity
  8
0
  6
Continuous
 62
     7
370
    15
100
AcDbLine
 10
1930.8467063243
 20
1050.8551195376
 30
0.0
 11
1930.8467063243
 21
1741.8551195376
 31
0.0
  0
LINE
  5
166
330
1F
100
AcDbEntity
  8
0
  6
Continuous
 62
     7
370
    15
100
AcDbLine
 10
2145.3467063243
 20
1039.8551195376
 30
0.0
 11
2145.3467063243
 21
1050.8551195376
 31
0.0
  0
LINE
  5
167
330
1F
100
AcDbEntity
  8
0
  6
Continuous
 62
     7
370
    15
100
AcDbLine
 10
1640.3467063243
 20
1050.8551195376
 30
0.0
 11
1640.3467063243
 21
1039.8551195376
 31
0.0
  0
LINE
  5
168
330
1F
100
AcDbEntity
  8
0
  6
Continuous
 62
     7
370
    15
100
AcDbLine
 10
2109.3467063243
 20
1034.8551195376
 30
0.0
 11
2091.3467063243
 21
1034.8551195376
 31
0.0
  0
LINE
  5
169
330
1F
100
AcDbEntity
  8
0
  6
Continuous
 62
     7
370
    15
100
AcDbLine
 10
2028.8467063243
 20
1034.8551195376
 30
0.0
 11
2010.8467063243
 21
1034.8551195376
 31
0.0
  0
LINE
  5
16A
330
1F
100
AcDbEntity
  8
0
  6
Continuous
 62
     7
370
    15
100
AcDbLine
 10
1774.8467063243
 20
1034.8551195376
 30
0.0
 11
1756.8467063243
 21
1034.8551195376
 31
0.0
  0
LINE
  5
16B
330
1F
100
AcDbEntity
  8
0
  6
Continuous
 62
     7
370
    15
100
AcDbLine
 10
1694.3467063243
 20
1034.8551195376
 30
0.0
 11
1676.3467063243
 21
1034.8551195376
 31
0.0
  0
LINE
  5
16C
330
1F
100
AcDbEntity
  8
0
  6
Continuous
 62
     7
370
    15
100
AcDbLine
 10
1760.2190107229
 20
1756.8551195376
 30
0.0
 11
1731.4350137793
 21
1756.8551195376
 31
0.0
  0
LINE
  5
16D
330
1F
100
AcDbEntity
  8
0
  6
Continuous
 62
     7
370
    15
100
AcDbLine
 10
1761.0976615278
 20
1765.8551195376
 30
0.0
 11
1730.1701462669
 21
1765.8551195376
 31
0.0
  0
LINE
  5
16E
330
1F
100
AcDbEntity
  8
0
  6
Continuous
 62
     7
370
    15
100
AcDbLine
 10
2054.2583988693
 20
1756.8551195376
 30
0.0
 11
2025.4744019257
 21
1756.8551195376
 31
0.0
  0
LINE
  5
16F
330
1F
100
AcDbEntity
  8
0
  6
Continuous
 62
     7
370
    15
100
AcDbLine
 10
2055.5232663816
 20
1765.8551195376
 30
0.0
 11
2024.5957511208
 21
1765.8551195376
 31
0.0
  0
LINE
  5
170
330
1F
100
AcDbEntity
  8
0
  6
Continuous
 62
     7
370
    15
100
AcDbLine
 10
1859.4277589778
 20
1756.8551195376
 30
0.0
 11
1760.2190107229
 21
1756.8551195376
 31
0.0
  0
LINE
  5
171
330
1F
100
AcDbEntity
  8
0
  6
Continuous
 62
     7
370
    15
100
AcDbLine
 10
1859.7106366463
 20
1765.8551195376
 30
0.0
 11
1761.0976615278
 21
1765.8551195376
 31
0.0
  0
LINE
  5
172
330
1F
100
AcDbEntity
  8
0
  6
Continuous
 62
     7
370
    15
100
AcDbLine
 10
2025.4744019257
 20
1756.8551195376
 30
0.0
 11
1926.2656536707
 21
1756.8551195376
 31
0.0
  0
LINE
  5
173
330
1F
100
AcDbEntity
  8
0
  6
Continuous
 62
     7
370
    15
100
AcDbLine
 10
2024.5957511208
 20
1765.8551195376
 30
0.0
 11
1925.9827760023
 21
1765.8551195376
 31
0.0
  0
LINE
  5
174
330
1F
100
AcDbEntity
  8
0
  6
Continuous
 62
     7
370
    15
100
AcDbLine
 10
1849.3494818432
 20
1741.8894633589
 30
0.0
 11
1850.210667355
 21
1756.8551195376
 31
0.0
  0
ELLIPSE
  5
175
330
1F
100
AcDbEntity
  8
0
  6
Continuous
 62
     7
370
    15
100
AcDbEllipse
 10
1861.1522877991
 20
1841.8551195376
 30
0.0
 11
19.62423826829786
 21
99.05441950419434
 31
0.0
210
0.0
220
0.0
230
1.0
 40
0.6991049172
 41
3.226860859574692
 42
3.253011659553132
  0
LINE
  5
176
330
1F
100
AcDbEntity
  8
0
  6
Continuous
 62
     7
370
    15
100
AcDbLine
 10
1847.4969691031
 20
1741.9921660621
 30
0.0
 11
1767.4063956496
 21
1747.9234919273
 31
0.0
  0
ELLIPSE
  5
177
330
1F
100
AcDbEntity
  8
0
  6
Continuous
 62
     7
370
    15
100
AcDbEllipse
 10
1768.4988211452
 20
1755.9125282053
 30
0.0
 11
1.569939061463856
 21
7.924353560335476
 31
0.0
210
0.0
220
0.0
230
1.0
 40
0.6991049172
 41
1.848050750499151
 42
3.226860859574699
  0
LINE
  5
178
330
1F
100
AcDbEntity
  8
0
  6
Continuous
 62
     7
370
    15
100
AcDbLine
 10
1762.7407169323
 20
1754.7991433976
 30
0.0
 11
1762.739058586
 21
1756.8551195376
 31
0.0
  0
ELLIPSE
  5
179
330
1F
100
AcDbEntity
  8
0
  6
Continuous
 62
     7
370
    15
100
AcDbEllipse
 10
1924.5411248494
 20
1841.8551195376
 30
0.0
 11
-19.62423826829786
 21
99.05441950419434
 31
0.0
210
0.0
220
0.0
230
1.0
 40
0.6991049172
 41
3.030173647626477
 42
3.056324447604914
  0
LINE
  5
17A
330
1F
100
AcDbEntity
  8
0
  6
Continuous
 62
     7
370
    15
100
AcDbLine
 10
1936.3439308054
 20
1741.8894633589
 30
0.0
 11
1935.4827452936
 21
1756.8551195376
 31
0.0
  0
LINE
  5
17B
330
1F
100
AcDbEntity
  8
0
  6
Continuous
 62
     7
370
    15
100
AcDbLine
 10
2022.9526957162
 20
1754.7991433976
 30
0.0
 11
2022.9543540626
 21
1756.8551195376
 31
0.0
  0
ELLIPSE
  5
17C
330
1F
100
AcDbEntity
  8
0
  6
Continuous
 62
     7
370
    15
100
AcDbEllipse
 10
2017.1945915033
 20
1755.9125282053
 30
0.0
 11
-1.569939061463629
 21
7.924353560335478
 31
0.0
210
0.0
220
0.0
230
1.0
 40
0.6991049172
 41
3.056324447604944
 42
4.435134556680472
  0
LINE
  5
17D
330
1F
100
AcDbEntity
  8
0
  6
Continuous
 62
     7
370
    15
100
AcDbLine
 10
2018.287016999
 20
1747.9234919273
 30
0.0
 11
1938.1964435454
 21
1741.9921660621
 31
0.0
  0
LINE
  5
17E
330
1F
100
AcDbEntity
  8
0
  6
Continuous
 62
     7
370
    15
100
AcDbLine
 10
1758.1962878042
 20
1754.7991433976
 30
0.0
 11
1757.7893111177
 21
1756.8551195376
 31
0.0
  0
LINE
  5
17F
330
1F
100
AcDbEntity
  8
0
  6
Continuous
 62
     7
370
    15
100
AcDbLine
 10
2027.4971248443
 20
1754.7991433976
 30
0.0
 11
2027.9041015309
 21
1756.8551195376
 31
0.0
  0
ELLIPSE
  5
180
330
1F
100
AcDbEntity
  8
0
  6
Continuous
 62
     7
370
    15
100
AcDbEllipse
 10
1763.6417878569
 20
1755.9125282053
 30
0.0
 11
-1.52356361937268
 21
7.930989607302081
 31
0.0
210
0.0
220
0.0
230
1.0
 40
0.6882053315
 41
1.578978915725659
 42
2.95778902480109
  0
ELLIPSE
  5
181
330
1F
100
AcDbEntity
  8
0
  6
Continuous
 62
     7
370
    15
100
AcDbEllipse
 10
2022.0516247916
 20
1755.9125282053
 30
0.0
 11
1.52356361937268
 21
7.930989607302081
 31
0.0
210
0.0
220
0.0
230
1.0
 40
0.6882053315
 41
3.32539628237847
 42
4.704206391453937
  0
LINE
  5
182
330
1F
100
AcDbEntity
  8
0
  6
Continuous
 62
     7
370
    15
100
AcDbLine
 10
1764.1420995997
 20
1747.9234919273
 30
0.0
 11
1844.1071819307
 21
1741.9921660621
 31
0.0
  0
LINE
  5
183
330
1F
100
AcDbEntity
  8
0
  6
Continuous
 62
     7
370
    15
100
AcDbLine
 10
1941.5862307179
 20
1741.9921660621
 30
0.0
 11
2021.5513130489
 21
1747.9234919273
 31
0.0
  0
LINE
  5
184
330
1F
100
AcDbEntity
  8
0
  6
Continuous
 62
     7
370
    15
100
AcDbLine
 10
1881.1115738366
 20
1756.8551195376
 30
0.0
 11
1879.8467063243
 21
1765.8551195376
 31
0.0
  0
LINE
  5
185
330
1F
100
AcDbEntity
  8
0
  6
Continuous
 62
     7
370
    15
100
AcDbLine
 10
1904.581838812
 20
1756.8551195376
 30
0.0
 11
1905.8467063243
 21
1765.8551195376
 31
0.0
  0
LINE
  5
186
330
1F
100
AcDbEntity
  8
0
  6
Continuous
 62
     7
370
    15
100
AcDbLine
 10
1904.581838812
 20
1756.8551195376
 30
0.0
 11
1881.1115738366
 21
1756.8551195376
 31
0.0
  0
LINE
  5
187
330
1F
100
AcDbEntity
  8
0
  6
Continuous
 62
     7
370
    15
100
AcDbLine
 10
1905.8467063243
 20
1765.8551195376
 30
0.0
 11
1879.8467063243
 21
1765.8551195376
 31
0.0
  0
SPLINE
  5
188
330
1F
100
AcDbEntity
  8
0
  6
Continuous
 62
     7
370
    15
100
AcDbSpline
210
0.0
220
0.0
230
1.0
 70
    24
 71
     3
 72
    16
 73
    12
 74
     0
 42
0.000000001
 43
0.00000001
 40
0.0
 40
0.0
 40
0.0
 40
0.0
 40
0.1304089458102714
 40
0.2608103415695146
 40
0.347743517987364
 40
0.43495648771915
 40
0.5218878489969312
 40
0.6515365547988795
 40
0.7811887850407336
 40
0.8905924512630463
 40
0.9999999999999999
 40
0.9999999999999999
 40
0.9999999999999999
 40
0.9999999999999999
 10
1910.345811704881
 20
1756.855119537553
 30
0.0
 10
1909.922600900682
 20
1756.855119537553
 30
0.0
 10
1909.076203794157
 20
1756.855119537553
 30
0.0
 10
1908.046662614183
 20
1756.855119537553
 30
0.0
 10
1907.228820209169
 20
1756.855119537553
 30
0.0
 10
1906.594516163635
 20
1756.855119537553
 30
0.0
 10
1905.942939298131
 20
1756.855119537553
 30
0.0
 10
1905.338253791803
 20
1756.855119537553
 30
0.0
 10
1904.886370832887
 20
1756.855119537552
 30
0.0
 10
1904.628078407894
 20
1756.855119537553
 30
0.0
 10
1904.59725219293
 20
1756.855119537553
 30
0.0
 10
1904.581838811964
 20
1756.855119537553
 30
0.0
  0
SPLINE
  5
189
330
1F
100
AcDbEntity
  8
0
  6
Continuous
 62
     7
370
    15
100
AcDbSpline
210
0.0
220
0.0
230
1.0
 70
    24
 71
     3
 72
    15
 73
    11
 74
     0
 42
0.000000001
 43
0.00000001
 40
0.0
 40
0.0
 40
0.0
 40
0.0
 40
0.1317447122811137
 40
0.2634819513336663
 40
0.3952703362031021
 40
0.5270562098654955
 40
0.6580548703881026
 40
0.7890571628006043
 40
0.8945269669972946
 40
1.0
 40
1.0
 40
1.0
 40
1.0
 10
1905.846706324285
 20
1765.855119537553
 30
0.0
 10
1905.868738705086
 20
1765.855119537553
 30
0.0
 10
1905.912802216899
 20
1765.855119537553
 30
0.0
 10
1906.258199223565
 20
1765.855119537552
 30
0.0
 10
1906.806062502306
 20
1765.855119537553
 30
0.0
 10
1907.552091056449
 20
1765.855119537552
 30
0.0
 10
1908.475510028748
 20
1765.855119537553
 30
0.0
 10
1909.475486286435
 20
1765.855119537553
 30
0.0
 10
1910.496842432455
 20
1765.855119537553
 30
0.0
 10
1911.173198262697
 20
1765.855119537553
 30
0.0
 10
1911.511381354155
 20
1765.855119537553
 30
0.0
  0
SPLINE
  5
18A
330
1F
100
AcDbEntity
  8
0
  6
Continuous
 62
     7
370
    15
100
AcDbSpline
210
0.0
220
0.0
230
1.0
 70
    24
 71
     3
 72
    16
 73
    12
 74
     0
 42
0.000000001
 43
0.00000001
 40
0.0
 40
0.0
 40
0.0
 40
0.0
 40
0.1304091657036805
 40
0.2608107933904985
 40
0.3477440951468792
 40
0.4349571874111796
 40
0.5218886705736908
 40
0.651537945449396
 40
0.7811907418565958
 40
0.8905934263385369
 40
1.0
 40
1.0
 40
1.0
 40
1.0
 10
1881.111573836607
 20
1756.855119537553
 30
0.0
 10
1881.089592912988
 20
1756.855119537553
 30
0.0
 10
1881.045632336309
 20
1756.855119537553
 30
0.0
 10
1880.737983884355
 20
1756.855119537553
 30
0.0
 10
1880.339593818931
 20
1756.855119537553
 30
0.0
 10
1879.905802437283
 20
1756.855119537553
 30
0.0
 10
1879.303315424251
 20
1756.855119537553
 30
0.0
 10
1878.482474255113
 20
1756.855119537553
 30
0.0
 10
1877.468876515569
 20
1756.855119537552
 30
0.0
 10
1876.414980825992
 20
1756.855119537553
 30
0.0
 10
1875.703398453748
 20
1756.855119537553
 30
0.0
 10
1875.34760094369
 20
1756.855119537553
 30
0.0
  0
SPLINE
  5
18B
330
1F
100
AcDbEntity
  8
0
  6
Continuous
 62
     7
370
    15
100
AcDbSpline
210
0.0
220
0.0
230
1.0
 70
    24
 71
     3
 72
    15
 73
    11
 74
     0
 42
0.000000001
 43
0.00000001
 40
0.0
 40
0.0
 40
0.0
 40
0.0
 40
0.131744502677183
 40
0.2634815208008804
 40
0.3952697254402321
 40
0.5270554237335522
 40
0.6580535658468004
 40
0.789055342291595
 40
0.894526059426259
 40
1.0
 40
1.0
 40
1.0
 40
1.0
 10
1874.182031294416
 20
1765.855119537553
 30
0.0
 10
1874.603300547548
 20
1765.855119537553
 30
0.0
 10
1875.445815121031
 20
1765.855119537553
 30
0.0
 10
1876.594874330711
 20
1765.855119537553
 30
0.0
 10
1877.613089041487
 20
1765.855119537553
 30
0.0
 10
1878.469015501001
 20
1765.855119537553
 30
0.0
 10
1879.134521184847
 20
1765.855119537553
 30
0.0
 10
1879.565209419588
 20
1765.855119537553
 30
0.0
 10
1879.804645566532
 20
1765.855119537553
 30
0.0
 10
1879.832685928873
 20
1765.855119537553
 30
0.0
 10
1879.846706324285
 20
1765.855119537553
 30
0.0
  0
LINE
  5
18C
330
1F
100
AcDbEntity
  8
0
  6
Continuous
 62
     7
370
    15
100
AcDbLine
 10
1896.7009589951
 20
1745.1450188209
 30
0.0
 11
1898.3467063243
 21
1756.8551195376
 31
0.0
  0
LINE
  5
18D
330
1F
100
AcDbEntity
  8
0
  6
Continuous
 62
     7
370
    15
100
AcDbLine
 10
1888.9924536534
 20
1745.1450188209
 30
0.0
 11
1887.3467063243
 21
1756.8551195376
 31
0.0
  0
SPLINE
  5
18E
330
1F
100
AcDbEntity
  8
0
  6
Continuous
 62
     7
370
    15
100
AcDbSpline
210
0.0
220
0.0
230
1.0
 70
    24
 71
     3
 72
    14
 73
    10
 74
     0
 42
0.000000001
 43
0.00000001
 40
0.0
 40
0.0
 40
0.0
 40
0.0
 40
0.1448360695201698
 40
0.2896652335533907
 40
0.4345385631496632
 40
0.5794104444920233
 40
0.7236240297893456
 40
0.8678422516031796
 40
1.0
 40
1.0
 40
1.0
 40
1.0
 10
1867.995813536257
 20
1756.855119537553
 30
0.0
 10
1867.576328457507
 20
1756.855119537553
 30
0.0
 10
1866.737378300194
 20
1756.855119537553
 30
0.0
 10
1865.404712505852
 20
1756.855119537553
 30
0.0
 10
1864.064449557427
 20
1756.855119537553
 30
0.0
 10
1862.747731373101
 20
1756.855119537553
 30
0.0
 10
1861.499673998992
 20
1756.855119537553
 30
0.0
 10
1860.370563625112
 20
1756.855119537552
 30
0.0
 10
1859.73274956659
 20
1756.855119537553
 30
0.0
 10
1859.427758977842
 20
1756.855119537553
 30
0.0
  0
SPLINE
  5
18F
330
1F
100
AcDbEntity
  8
0
  6
Continuous
 62
     7
370
    15
100
AcDbSpline
210
0.0
220
0.0
230
1.0
 70
    24
 71
     3
 72
    14
 73
    10
 74
     0
 42
0.000000001
 43
0.00000001
 40
0.0
 40
0.0
 40
0.0
 40
0.0
 40
0.1462539632316597
 40
0.2925010840467132
 40
0.438791666128838
 40
0.585080900052429
 40
0.7307245576854954
 40
0.8763729539116286
 40
1.0
 40
1.0
 40
1.0
 40
1.0
 10
1859.7106366463
 20
1765.855119537553
 30
0.0
 10
1860.046512590093
 20
1765.855119537553
 30
0.0
 10
1860.718248763896
 20
1765.855119537553
 30
0.0
 10
1861.893460681718
 20
1765.855119537553
 30
0.0
 10
1863.154046233971
 20
1765.855119537553
 30
0.0
 10
1864.473885539395
 20
1765.855119537552
 30
0.0
 10
1865.810773884757
 20
1765.855119537553
 30
0.0
 10
1867.067930155818
 20
1765.855119537553
 30
0.0
 10
1867.840619961771
 20
1765.855119537553
 30
0.0
 10
1868.195369572176
 20
1765.855119537553
 30
0.0
  0
SPLINE
  5
190
330
1F
100
AcDbEntity
  8
0
  6
Continuous
 62
     7
370
    15
100
AcDbSpline
210
0.0
220
0.0
230
1.0
 70
    24
 71
     3
 72
    14
 73
    10
 74
     0
 42
0.000000001
 43
0.00000001
 40
0.0
 40
0.0
 40
0.0
 40
0.0
 40
0.1448362218464059
 40
0.289665545895437
 40
0.4345390139395811
 40
0.5794110294549064
 40
0.7236248458891823
 40
0.8678432996874542
 40
1.0
 40
1.0
 40
1.0
 40
1.0
 10
1926.265653670729
 20
1756.855119537553
 30
0.0
 10
1925.929757712263
 20
1756.855119537553
 30
0.0
 10
1925.257981792311
 20
1756.855119537553
 30
0.0
 10
1924.082703347009
 20
1756.855119537553
 30
0.0
 10
1922.822037945579
 20
1756.855119537553
 30
0.0
 10
1921.502138891003
 20
1756.855119537553
 30
0.0
 10
1920.165330379347
 20
1756.855119537553
 30
0.0
 10
1918.878222602567
 20
1756.855119537553
 30
0.0
 10
1918.079521116911
 20
1756.855119537553
 30
0.0
 10
1917.697599112314
 20
1756.855119537553
 30
0.0
  0
SPLINE
  5
191
330
1F
100
AcDbEntity
  8
0
  6
Continuous
 62
     7
370
    15
100
AcDbSpline
210
0.0
220
0.0
230
1.0
 70
    24
 71
     3
 72
    14
 73
    10
 74
     0
 42
0.000000001
 43
0.00000001
 40
0.0
 40
0.0
 40
0.0
 40
0.0
 40
0.1462538192088308
 40
0.2925007887500091
 40
0.4387912392874103
 40
0.5850803457846898
 40
0.7307237982288283
 40
0.8763719881530017
 40
1.0
 40
1.0
 40
1.0
 40
1.0
 10
1917.498043076396
 20
1765.855119537553
 30
0.0
 10
1917.919204861809
 20
1765.855119537553
 30
0.0
 10
1918.761508707898
 20
1765.855119537553
 30
0.0
 10
1920.096099777816
 20
1765.855119537552
 30
0.0
 10
1921.435827372869
 20
1765.855119537553
 30
0.0
 10
1922.749487610436
 20
1765.855119537553
 30
0.0
 10
1923.992144702344
 20
1765.855119537553
 30
0.0
 10
1925.087591316155
 20
1765.855119537553
 30
0.0
 10
1925.701104543568
 20
1765.855119537553
 30
0.0
 10
1925.982776002271
 20
1765.855119537553
 30
0.0
  0
LINE
  5
192
330
1F
100
AcDbEntity
  8
0
  6
Continuous
 62
     7
370
    15
100
AcDbLine
 10
1875.3476009437
 20
1756.8551195376
 30
0.0
 11
1867.9958135363
 21
1756.8551195376
 31
0.0
  0
LINE
  5
193
330
1F
100
AcDbEntity
  8
0
  6
Continuous
 62
     7
370
    15
100
AcDbLine
 10
1874.1820312944
 20
1765.8551195376
 30
0.0
 11
1868.1953695722
 21
1765.8551195376
 31
0.0
  0
LINE
  5
194
330
1F
100
AcDbEntity
  8
0
  6
Continuous
 62
     7
370
    15
100
AcDbLine
 10
1917.6975991123
 20
1756.8551195376
 30
0.0
 11
1910.3458117049
 21
1756.8551195376
 31
0.0
  0
LINE
  5
195
330
1F
100
AcDbEntity
  8
0
  6
Continuous
 62
     7
370
    15
100
AcDbLine
 10
1917.4980430764
 20
1765.8551195376
 30
0.0
 11
1911.5113813542
 21
1765.8551195376
 31
0.0
  0
SPLINE
  5
196
330
1F
100
AcDbEntity
  8
0
  6
Continuous
 62
     7
370
    15
100
AcDbSpline
210
0.0
220
0.0
230
1.0
 70
    24
 71
     3
 72
    15
 73
    11
 74
     0
 42
0.000000001
 43
0.00000001
 40
0.0
 40
0.0
 40
0.0
 40
0.0
 40
0.1344926318563924
 40
0.2728754310305405
 40
0.4073722749002615
 40
0.5457808473606695
 40
0.6801202933417113
 40
0.8183202059212625
 40
0.9085992956715973
 40
0.9999999999999999
 40
0.9999999999999999
 40
0.9999999999999999
 40
0.9999999999999999
 10
1889.454818844821
 20
1741.855119537553
 30
0.0
 10
1889.45298665254
 20
1741.868156263036
 30
0.0
 10
1889.449269272253
 20
1741.894606798181
 30
0.0
 10
1889.419283442528
 20
1742.107967063107
 30
0.0
 10
1889.371769015109
 20
1742.446049781338
 30
0.0
 10
1889.307181316442
 20
1742.905615136871
 30
0.0
 10
1889.226769321514
 20
1743.477776210898
 30
0.0
 10
1889.144059217799
 20
1744.066289178607
 30
0.0
 10
1889.064708411694
 20
1744.630899501817
 30
0.0
 10
1889.016637496064
 20
1744.972941839414
 30
0.0
 10
1888.99245365345
 20
1745.145018820924
 30
0.0
  0
SPLINE
  5
197
330
1F
100
AcDbEntity
  8
0
  6
Continuous
 62
     7
370
    15
100
AcDbSpline
210
0.0
220
0.0
230
1.0
 70
    24
 71
     3
 72
    15
 73
    11
 74
     0
 42
0.000000001
 43
0.00000001
 40
0.0
 40
0.0
 40
0.0
 40
0.0
 40
0.135503133673867
 40
0.274909259613479
 40
0.4104214705779959
 40
0.5499098581195536
 40
0.6846135858477581
 40
0.823248496164693
 40
0.911097884741833
 40
1.0
 40
1.0
 40
1.0
 40
1.0
 10
1896.700958995121
 20
1745.145018820924
 30
0.0
 10
1896.665285698276
 20
1744.891190124651
 30
0.0
 10
1896.592911581472
 20
1744.37622152526
 30
0.0
 10
1896.496049581505
 20
1743.687012583447
 30
0.0
 10
1896.410245281161
 20
1743.076483262732
 30
0.0
 10
1896.340308908221
 20
1742.578860112222
 30
0.0
 10
1896.286670313922
 20
1742.197201682393
 30
0.0
 10
1896.256094205353
 20
1741.979641365254
 30
0.0
 10
1896.240980450349
 20
1741.872101410505
 30
0.0
 10
1896.239392505201
 20
1741.860802593676
 30
0.0
 10
1896.23859380375
 20
1741.855119537553
 30
0.0
  0
LINE
  5
198
330
1F
100
AcDbEntity
  8
0
  6
Continuous
 62
     7
370
    15
100
AcDbLine
 10
1896.2385938037
 20
1741.8551195376
 30
0.0
 11
1889.4548188448
 21
1741.8551195376
 31
0.0
  0
LINE
  5
199
330
1F
100
AcDbEntity
  8
0
  6
Continuous
 62
     7
370
    15
100
AcDbLine
 10
1917.3151073704
 20
1741.8551195376
 30
0.0
 11
1917.8266983179
 21
1756.8551195375
 31
0.0
  0
LINE
  5
19A
330
1F
100
AcDbEntity
  8
0
  6
Continuous
 62
     7
370
    15
100
AcDbLine
 10
1917.3151073704
 20
1741.8551195376
 30
0.0
 11
1896.2385938037
 21
1741.8551195376
 31
0.0
  0
LINE
  5
19B
330
1F
100
AcDbEntity
  8
0
  6
Continuous
 62
     7
370
    15
100
AcDbLine
 10
1868.3783052782
 20
1741.8551195376
 30
0.0
 11
1867.8667143307
 21
1756.8551195376
 31
0.0
  0
LINE
  5
19C
330
1F
100
AcDbEntity
  8
0
  6
Continuous
 62
     7
370
    15
100
AcDbLine
 10
1889.4548188448
 20
1741.8551195376
 30
0.0
 11
1868.3783052782
 21
1741.8551195376
 31
0.0
  0
ELLIPSE
  5
19D
330
1F
100
AcDbEntity
  8
0
  6
Continuous
 62
     7
370
    15
100
AcDbEllipse
 10
1867.1048375711
 20
1841.8551195376
 30
0.0
 11
141.4962048075631
 21
19.14385769769501
 31
0.0
210
0.0
220
0.0
230
1.0
 40
0.6936614286
 41
4.49355227976868
 42
4.519761357350069
  0
LINE
  5
19E
330
1F
100
AcDbEntity
  8
0
  6
Continuous
 62
     7
370
    15
100
AcDbLine
 10
1868.3783052782
 20
1741.8551195376
 30
0.0
 11
1853.0507541008
 21
1741.8551195376
 31
0.0
  0
ELLIPSE
  5
19F
330
1F
100
AcDbEntity
  8
0
  6
Continuous
 62
     7
370
    15
100
AcDbEllipse
 10
1918.5885750775
 20
1841.8551195376
 30
0.0
 11
141.4962048075679
 21
-19.14385769769433
 31
0.0
210
0.0
220
0.0
230
1.0
 40
0.6936614286
 41
4.905016603419322
 42
4.931225681000714
  0
LINE
  5
1A0
330
1F
100
AcDbEntity
  8
0
  6
Continuous
 62
     7
370
    15
100
AcDbLine
 10
1932.6426585477
 20
1741.8551195376
 30
0.0
 11
1917.3151073704
 21
1741.8551195376
 31
0.0
  0
LINE
  5
1A1
330
1F
100
AcDbEntity
  8
0
  6
Continuous
 62
     7
370
    15
100
AcDbLine
 10
1845.9548188448
 20
1741.8551195376
 30
0.0
 11
1845.9499921355
 21
1741.8894633589
 31
0.0
  0
LINE
  5
1A2
330
1F
100
AcDbEntity
  8
0
  6
Continuous
 62
     7
370
    15
100
AcDbLine
 10
1853.0507541008
 20
1741.8551195376
 30
0.0
 11
1845.9548188448
 21
1741.8551195376
 31
0.0
  0
ELLIPSE
  5
1A3
330
1F
100
AcDbEntity
  8
0
  6
Continuous
 62
     7
370
    15
100
AcDbEllipse
 10
1837.8532851465
 20
1841.8551195376
 30
0.0
 11
-19.0445452421568
 21
99.13737009127523
 31
0.0
210
0.0
220
0.0
230
1.0
 40
0.6882053315
 41
2.957789024801206
 42
2.983939824779645
  0
LINE
  5
1A4
330
1F
100
AcDbEntity
  8
0
  6
Continuous
 62
     7
370
    15
100
AcDbLine
 10
1939.7434205131
 20
1741.8894633589
 30
0.0
 11
1939.7385938037
 21
1741.8551195376
 31
0.0
  0
LINE
  5
1A5
330
1F
100
AcDbEntity
  8
0
  6
Continuous
 62
     7
370
    15
100
AcDbLine
 10
1939.7385938037
 20
1741.8551195376
 30
0.0
 11
1932.6426585477
 21
1741.8551195376
 31
0.0
  0
ELLIPSE
  5
1A6
330
1F
100
AcDbEntity
  8
0
  6
Continuous
 62
     7
370
    15
100
AcDbEllipse
 10
1947.840127502
 20
1841.8551195376
 30
0.0
 11
19.0445452421568
 21
99.13737009127523
 31
0.0
210
0.0
220
0.0
230
1.0
 40
0.6882053315
 41
3.299245482399962
 42
3.325396282378404
  0
LINE
  5
1A7
330
1F
100
AcDbEntity
  8
0
  6
Continuous
 62
     7
370
    15
100
AcDbLine
 10
1840.0636895436
 20
1741.8551195376
 30
0.0
 11
1840.0065891913
 21
1742.296323215
 31
0.0
  0
LINE
  5
1A8
330
1F
100
AcDbEntity
  8
0
  6
Continuous
 62
     7
370
    15
100
AcDbLine
 10
1845.9548188448
 20
1741.8551195376
 30
0.0
 11
1840.0636895436
 21
1741.8551195376
 31
0.0
  0
LINE
  5
1A9
330
1F
100
AcDbEntity
  8
0
  6
Continuous
 62
     7
370
    15
100
AcDbLine
 10
1945.6868234572
 20
1742.296323215
 30
0.0
 11
1945.6297231049
 21
1741.8551195376
 31
0.0
  0
LINE
  5
1AA
330
1F
100
AcDbEntity
  8
0
  6
Continuous
 62
     7
370
    15
100
AcDbLine
 10
1945.6297231049
 20
1741.8551195376
 30
0.0
 11
1939.7385938037
 21
1741.8551195376
 31
0.0
  0
SPLINE
  5
1AB
330
1F
100
AcDbEntity
  8
0
  6
Continuous
 62
     7
370
    15
100
AcDbSpline
210
0.0
220
0.0
230
1.0
 70
     8
 71
     3
 72
    11
 73
     7
 74
     0
 42
0.000000001
 43
0.00000001
 40
0.0
 40
0.0
 40
0.0
 40
0.0
 40
0.2619851510539406
 40
0.5837942972911372
 40
0.7918962114222922
 40
1.0
 40
1.0
 40
1.0
 40
1.0
 10
1836.939284244938
 20
1742.523837332892
 30
0.0
 10
1837.13825909715
 20
1742.415291280894
 30
0.0
 10
1837.581644470551
 20
1742.173412816046
 30
0.0
 10
1838.243905627046
 20
1741.979851111161
 30
0.0
 10
1838.874243364271
 20
1741.871863034321
 30
0.0
 10
1839.234646478583
 20
1741.860700719899
 30
0.0
 10
1839.414848847305
 20
1741.855119537553
 30
0.0
  0
LINE
  5
1AC
330
1F
100
AcDbEntity
  8
0
  6
Continuous
 62
     7
370
    15
100
AcDbLine
 10
1840.0636895436
 20
1741.8551195376
 30
0.0
 11
1839.4148488473
 21
1741.8551195376
 31
0.0
  0
SPLINE
  5
1AD
330
1F
100
AcDbEntity
  8
0
  6
Continuous
 62
     7
370
    15
100
AcDbSpline
210
0.0
220
0.0
230
1.0
 70
     8
 71
     3
 72
    11
 73
     7
 74
     0
 42
0.000000001
 43
0.00000001
 40
0.0
 40
0.0
 40
0.0
 40
0.0
 40
0.3160505910319095
 40
0.6412428700731801
 40
0.957303359114246
 40
1.0
 40
1.0
 40
1.0
 40
1.0
 10
1946.278563801266
 20
1741.855119537553
 30
0.0
 10
1946.553278725501
 20
1741.867553671897
 30
0.0
 10
1947.110654637671
 20
1741.892781594959
 30
0.0
 10
1947.912668059115
 20
1742.115426352694
 30
0.0
 10
1948.472164519257
 20
1742.330000784432
 30
0.0
 10
1948.729317139675
 20
1742.50360583487
 30
0.0
 10
1948.759921557458
 20
1742.524267033983
 30
0.0
  0
LINE
  5
1AE
330
1F
100
AcDbEntity
  8
0
  6
Continuous
 62
     7
370
    15
100
AcDbLine
 10
1946.2785638013
 20
1741.8551195376
 30
0.0
 11
1945.6297231049
 21
1741.8551195376
 31
0.0
  0
LINE
  5
1AF
330
1F
100
AcDbEntity
  8
0
  6
Continuous
 62
     7
370
    15
100
AcDbLine
 10
1839.4148488473
 20
1741.8551195376
 30
0.0
 11
1839.3072975293
 21
1741.8551195376
 31
0.0
  0
LINE
  5
1B0
330
1F
100
AcDbEntity
  8
0
  6
Continuous
 62
     7
370
    15
100
AcDbLine
 10
1946.3861151192
 20
1741.8551195376
 30
0.0
 11
1946.2785638013
 21
1741.8551195376
 31
0.0
  0
LINE
  5
1B1
330
1F
100
AcDbEntity
  8
0
  6
Continuous
 62
     7
370
    15
100
AcDbLine
 10
1640.3467063243
 20
1050.8551195376
 30
0.0
 11
2145.3467063243
 21
1050.8551195376
 31
0.0
  0
LINE
  5
1B2
330
1F
100
AcDbEntity
  8
0
  6
Continuous
 62
     7
370
    15
100
AcDbLine
 10
1640.3467063243
 20
1039.8551195376
 30
0.0
 11
2145.3467063243
 21
1039.8551195376
 31
0.0
  0
SPLINE
  5
1B3
330
1F
100
AcDbEntity
  8
0
  6
Continuous
 62
     7
370
    15
100
AcDbSpline
210
0.0
220
0.0
230
1.0
 70
     8
 71
     3
 72
    14
 73
    10
 74
     0
 42
0.000000001
 43
0.00000001
 40
0.0
 40
0.0
 40
0.0
 40
0.0
 40
0.1462539632316575
 40
0.2925010840467122
 40
0.438791666128837
 40
0.5850809000524273
 40
0.7307245576854947
 40
0.8763729539116256
 40
1.0
 40
1.0
 40
1.0
 40
1.0
 10
1044.441842491689
 20
509.7534827443541
 30
0.0
 10
1044.777718435482
 20
510.0471796499367
 30
0.0
 10
1045.449454609285
 20
510.634559720643
 30
0.0
 10
1046.624666527107
 20
511.289306033107
 30
0.0
 10
1047.88525207936
 20
511.7453669095752
 30
0.0
 10
1049.205091384784
 20
511.9840565802347
 30
0.0
 10
1050.541979730146
 20
511.9898869720444
 30
0.0
 10
1051.799136001207
 20
511.7993099612324
 30
0.0
 10
1052.57182580716
 20
511.5218311282727
 30
0.0
 10
1052.926575417565
 20
511.3944378235732
 30
0.0
  0
LINE
  5
1B4
330
1F
100
AcDbEntity
  8
0
  6
Continuous
 62
     7
370
    15
100
AcDbLine
 10
1044.4418424917
 20
509.7534827444
 30
0.0
 11
945.8288673732
 21
414.5240396221
 31
0.0
  0
ARC
  5
1B5
330
1F
100
AcDbEntity
  8
0
  6
Continuous
 62
     7
370
    15
100
AcDbCircle
 10
933.1513521123
 20
427.6519909783
 30
0.0
 40
18.25000000000006
100
AcDbArc
 50
136.0
 51
314.0
  0
LINE
  5
1B6
330
1F
100
AcDbEntity
  8
0
  6
Continuous
 62
     7
370
    15
100
AcDbLine
 10
920.0234007561
 20
440.3295062392
 30
0.0
 11
1015.2528438784
 21
538.9424813576
 31
0.0
  0
SPLINE
  5
1B7
330
1F
100
AcDbEntity
  8
0
  6
Continuous
 62
     7
370
    15
100
AcDbSpline
210
0.0
220
0.0
230
1.0
 70
     8
 71
     3
 72
    14
 73
    10
 74
     0
 42
0.000000001
 43
0.00000001
 40
0.0
 40
0.0
 40
0.0
 40
0.0
 40
0.1462538192088308
 40
0.2925007887500091
 40
0.438791239287411
 40
0.5850803457846896
 40
0.7307237982288293
 40
0.8763719881530024
 40
1.0
 40
1.0
 40
1.0
 40
1.0
 10
1016.893798957615
 20
547.4272142835227
 30
0.0
 10
1017.041083970231
 20
547.0060524981092
 30
0.0
 10
1017.3356470975
 20
546.16374865202
 30
0.0
 10
1017.504995735271
 20
544.8291575821022
 30
0.0
 10
1017.45815348749
 20
543.4894299870498
 30
0.0
 10
1017.187521899228
 20
542.1757697494821
 30
0.0
 10
1016.694466918452
 20
540.9331126575742
 30
0.0
 10
1016.048895488316
 20
539.837666043763
 30
0.0
 10
1015.503322937798
 20
539.2241528163499
 30
0.0
 10
1015.252843878396
 20
538.9424813576469
 30
0.0
  0
ARC
  5
1B8
330
1F
100
AcDbEntity
  8
0
  6
Continuous
 62
     7
370
    15
100
AcDbCircle
 10
1077.5779121697
 20
572.0785510356
 30
0.0
 40
65.49999999999996
100
AcDbArc
 50
196.5562705581
 51
202.108164441
  0
SPLINE
  5
1B9
330
1F
100
AcDbEntity
  8
0
  6
Continuous
 62
     7
370
    15
100
AcDbSpline
210
0.0
220
0.0
230
1.0
 70
     8
 71
     3
 72
    15
 73
    11
 74
     0
 42
0.000000001
 43
0.00000001
 40
0.0
 40
0.0
 40
0.0
 40
0.0
 40
0.1317447122811165
 40
0.2634819513336665
 40
0.3952703362031025
 40
0.5270562098654965
 40
0.6580548703881034
 40
0.7890571628006046
 40
0.8945269669972957
 40
1.0
 40
1.0
 40
1.0
 40
1.0
 10
1007.19982482892
 20
559.0785510356327
 30
0.0
 10
1007.645865659339
 20
559.0565186548322
 30
0.0
 10
1008.537922018479
 20
559.0124551430195
 30
0.0
 10
1009.839362552429
 20
558.6670581363531
 30
0.0
 10
1011.064489268013
 20
558.1191948576121
 30
0.0
 10
1012.179220174514
 20
557.3731663034688
 30
0.0
 10
1013.148028389086
 20
556.4497473311699
 30
0.0
 10
1013.894617989611
 20
555.4497710734832
 30
0.0
 10
1014.448036934172
 20
554.4284149274637
 30
0.0
 10
1014.678357771521
 20
553.7520590972205
 30
0.0
 10
1014.793519952904
 20
553.4138760057634
 30
0.0
  0
LINE
  5
1BA
330
1F
100
AcDbEntity
  8
0
  6
Continuous
 62
     7
370
    15
100
AcDbLine
 10
1007.1998248289
 20
559.0785510356
 30
0.0
 11
1005.0779121697
 21
559.0785510356
 31
0.0
  0
ARC
  5
1BB
330
1F
100
AcDbEntity
  8
0
  6
Continuous
 62
     7
370
    15
100
AcDbCircle
 10
1005.0779121697
 20
572.0785510356
 30
0.0
 40
13.00000000000011
100
AcDbArc
 50
90.0
 51
270.0
  0
LINE
  5
1BC
330
1F
100
AcDbEntity
  8
0
  6
Continuous
 62
     7
370
    15
100
AcDbLine
 10
1005.0779121697
 20
585.0785510356
 30
0.0
 11
1007.1998248289
 21
585.0785510356
 31
0.0
  0
SPLINE
  5
1BD
330
1F
100
AcDbEntity
  8
0
  6
Continuous
 62
     7
370
    15
100
AcDbSpline
210
0.0
220
0.0
230
1.0
 70
     8
 71
     3
 72
    15
 73
    11
 74
     0
 42
0.000000001
 43
0.00000001
 40
0.0
 40
0.0
 40
0.0
 40
0.0
 40
0.1317445026771831
 40
0.2634815208008809
 40
0.3952697254402319
 40
0.5270554237335525
 40
0.6580535658468004
 40
0.789055342291595
 40
0.8945260594262591
 40
1.0
 40
1.0
 40
1.0
 40
1.0
 10
1014.793519952904
 20
590.7432260655021
 30
0.0
 10
1014.64529910629
 20
590.3219568123703
 30
0.0
 10
1014.348865833655
 20
589.4794422388871
 30
0.0
 10
1013.646937140665
 20
588.3303830292066
 30
0.0
 10
1012.772681200776
 20
587.3121683184307
 30
0.0
 10
1011.739934624889
 20
586.456241858917
 30
0.0
 10
1010.578735709854
 20
585.7907361750715
 30
0.0
 10
1009.407473664355
 20
585.3600479403303
 30
0.0
 10
1008.270758319734
 20
585.1206117933862
 30
0.0
 10
1007.556806295818
 20
585.0925714310451
 30
0.0
 10
1007.19982482892
 20
585.0785510356327
 30
0.0
  0
ARC
  5
1BE
330
1F
100
AcDbEntity
  8
0
  6
Continuous
 62
     7
370
    15
100
AcDbCircle
 10
1077.5779121697
 20
572.0785510356
 30
0.0
 40
65.49999999999999
100
AcDbArc
 50
157.891835559
 51
163.4437294419
  0
SPLINE
  5
1BF
330
1F
100
AcDbEntity
  8
0
  6
Continuous
 62
     7
370
    15
100
AcDbSpline
210
0.0
220
0.0
230
1.0
 70
     8
 71
     3
 72
    14
 73
    10
 74
     0
 42
0.000000001
 43
0.00000001
 40
0.0
 40
0.0
 40
0.0
 40
0.0
 40
0.1462539632316599
 40
0.2925010840467139
 40
0.4387916661288391
 40
0.5850809000524299
 40
0.7307245576854964
 40
0.8763729539116291
 40
1.0
 40
1.0
 40
1.0
 40
1.0
 10
1015.252843878396
 20
605.2146207136183
 30
0.0
 10
1015.546540783979
 20
604.8787447698248
 30
0.0
 10
1016.133920854685
 20
604.2070085960218
 30
0.0
 10
1016.788667167149
 20
603.0317966782004
 30
0.0
 10
1017.244728043617
 20
601.7712111259472
 30
0.0
 10
1017.483417714277
 20
600.4513718205228
 30
0.0
 10
1017.489248106086
 20
599.1144834751613
 30
0.0
 10
1017.298671095274
 20
597.8573272040999
 30
0.0
 10
1017.021192262315
 20
597.0846373981468
 30
0.0
 10
1016.893798957615
 20
596.7298877877423
 30
0.0
  0
LINE
  5
1C0
330
1F
100
AcDbEntity
  8
0
  6
Continuous
 62
     7
370
    15
100
AcDbLine
 10
1015.2528438784
 20
605.2146207136
 30
0.0
 11
920.0234007561
 21
703.8275958321
 31
0.0
  0
ARC
  5
1C1
330
1F
100
AcDbEntity
  8
0
  6
Continuous
 62
     7
370
    15
100
AcDbCircle
 10
933.1513521123
 20
716.505111093
 30
0.0
 40
18.24999999999998
100
AcDbArc
 50
46.0
 51
224.0
  0
LINE
  5
1C2
330
1F
100
AcDbEntity
  8
0
  6
Continuous
 62
     7
370
    15
100
AcDbLine
 10
945.8288673732
 20
729.6330624492
 30
0.0
 11
1044.4418424917
 21
634.4036193269
 31
0.0
  0
SPLINE
  5
1C3
330
1F
100
AcDbEntity
  8
0
  6
Continuous
 62
     7
370
    15
100
AcDbSpline
210
0.0
220
0.0
230
1.0
 70
     8
 71
     3
 72
    14
 73
    10
 74
     0
 42
0.000000001
 43
0.00000001
 40
0.0
 40
0.0
 40
0.0
 40
0.0
 40
0.1462538192088307
 40
0.292500788750009
 40
0.4387912392874126
 40
0.5850803457846916
 40
0.7307237982288317
 40
0.8763719881530045
 40
1.0
 40
1.0
 40
1.0
 40
1.0
 10
1052.926575417564
 20
632.7626642476922
 30
0.0
 10
1052.505413632151
 20
632.6153792350764
 30
0.0
 10
1051.663109786062
 20
632.3208161078074
 30
0.0
 10
1050.328518716144
 20
632.1514674700361
 30
0.0
 10
1048.988791121091
 20
632.1983097178177
 30
0.0
 10
1047.675130883524
 20
632.4689413060792
 30
0.0
 10
1046.432473791616
 20
632.9619962868554
 30
0.0
 10
1045.337027177804
 20
633.607567716991
 30
0.0
 10
1044.723513950391
 20
634.1531402675093
 30
0.0
 10
1044.441842491688
 20
634.4036193269111
 30
0.0
  0
ARC
  5
1C4
330
1F
100
AcDbEntity
  8
0
  6
Continuous
 62
     7
370
    15
100
AcDbCircle
 10
1077.5779121697
 20
572.0785510356
 30
0.0
 40
65.50000000000014
100
AcDbArc
 50
106.5562705581
 51
112.108164441
  0
SPLINE
  5
1C5
330
1F
100
AcDbEntity
  8
0
  6
Continuous
 62
     7
370
    15
100
AcDbSpline
210
0.0
220
0.0
230
1.0
 70
     8
 71
     3
 72
    15
 73
    11
 74
     0
 42
0.000000001
 43
0.00000001
 40
0.0
 40
0.0
 40
0.0
 40
0.0
 40
0.1317447122811145
 40
0.2634819513336655
 40
0.3952703362031022
 40
0.5270562098654955
 40
0.6580548703881035
 40
0.7890571628006053
 40
0.8945269669972958
 40
1.0
 40
1.0
 40
1.0
 40
1.0
 10
1064.577912169675
 20
642.4566383763876
 30
0.0
 10
1064.555879788875
 20
642.0105975459684
 30
0.0
 10
1064.511816277062
 20
641.1185411868288
 30
0.0
 10
1064.166419270395
 20
639.8171006528786
 30
0.0
 10
1063.618555991654
 20
638.5919739372948
 30
0.0
 10
1062.872527437511
 20
637.4772430307936
 30
0.0
 10
1061.949108465212
 20
636.5084348162219
 30
0.0
 10
1060.949132207526
 20
635.7618452156966
 30
0.0
 10
1059.927776061506
 20
635.2084262711355
 30
0.0
 10
1059.251420231263
 20
634.9781054337866
 30
0.0
 10
1058.913237139806
 20
634.8629432524042
 30
0.0
  0
LINE
  5
1C6
330
1F
100
AcDbEntity
  8
0
  6
Continuous
 62
     7
370
    15
100
AcDbLine
 10
1064.5779121697
 20
642.4566383764
 30
0.0
 11
1064.5779121697
 21
644.5785510356
 31
0.0
  0
ARC
  5
1C7
330
1F
100
AcDbEntity
  8
0
  6
Continuous
 62
     7
370
    15
100
AcDbCircle
 10
1077.5779121697
 20
644.5785510356
 30
0.0
 40
13.00000000000023
100
AcDbArc
 50
360.0
 51
180.0
  0
LINE
  5
1C8
330
1F
100
AcDbEntity
  8
0
  6
Continuous
 62
     7
370
    15
100
AcDbLine
 10
1090.5779121697
 20
644.5785510356
 30
0.0
 11
1090.5779121697
 21
642.4566383764
 31
0.0
  0
SPLINE
  5
1C9
330
1F
100
AcDbEntity
  8
0
  6
Continuous
 62
     7
370
    15
100
AcDbSpline
210
0.0
220
0.0
230
1.0
 70
     8
 71
     3
 72
    15
 73
    11
 74
     0
 42
0.000000001
 43
0.00000001
 40
0.0
 40
0.0
 40
0.0
 40
0.0
 40
0.1317445026771825
 40
0.2634815208008811
 40
0.3952697254402321
 40
0.5270554237335536
 40
0.6580535658468004
 40
0.7890553422915948
 40
0.894526059426259
 40
1.0
 40
1.0
 40
1.0
 40
1.0
 10
1096.242587199544
 20
634.8629432524041
 30
0.0
 10
1095.821317946413
 20
635.0111640990177
 30
0.0
 10
1094.978803372929
 20
635.3075973716523
 30
0.0
 10
1093.829744163249
 20
636.0095260646423
 30
0.0
 10
1092.811529452473
 20
636.8837820045316
 30
0.0
 10
1091.955602992959
 20
637.9165285804183
 30
0.0
 10
1091.290097309114
 20
639.0777274954537
 30
0.0
 10
1090.859409074373
 20
640.2489895409528
 30
0.0
 10
1090.619972927429
 20
641.3857048855731
 30
0.0
 10
1090.591932565088
 20
642.0996569094895
 30
0.0
 10
1090.577912169675
 20
642.4566383763876
 30
0.0
  0
ARC
  5
1CA
330
1F
100
AcDbEntity
  8
0
  6
Continuous
 62
     7
370
    15
100
AcDbCircle
 10
1077.5779121697
 20
572.0785510356
 30
0.0
 40
65.50000000000016
100
AcDbArc
 50
67.891835559
 51
73.4437294419
  0
SPLINE
  5
1CB
330
1F
100
AcDbEntity
  8
0
  6
Continuous
 62
     7
370
    15
100
AcDbSpline
210
0.0
220
0.0
230
1.0
 70
     8
 71
     3
 72
    14
 73
    10
 74
     0
 42
0.000000001
 43
0.00000001
 40
0.0
 40
0.0
 40
0.0
 40
0.0
 40
0.1462539632316608
 40
0.292501084046717
 40
0.4387916661288416
 40
0.5850809000524305
 40
0.730724557685498
 40
0.8763729539116313
 40
1.0
 40
1.0
 40
1.0
 40
1.0
 10
1110.713981847661
 20
634.4036193269114
 30
0.0
 10
1110.378105903867
 20
634.109922421329
 30
0.0
 10
1109.706369730064
 20
633.5225423506225
 30
0.0
 10
1108.531157812243
 20
632.8677960381588
 30
0.0
 10
1107.270572259989
 20
632.4117351616903
 30
0.0
 10
1105.950732954565
 20
632.1730454910308
 30
0.0
 10
1104.613844609204
 20
632.1672150992213
 30
0.0
 10
1103.356688338142
 20
632.3577921100332
 30
0.0
 10
1102.583998532189
 20
632.6352709429929
 30
0.0
 10
1102.229248921785
 20
632.7626642476924
 30
0.0
  0
LINE
  5
1CC
330
1F
100
AcDbEntity
  8
0
  6
Continuous
 62
     7
370
    15
100
AcDbLine
 10
1110.7139818477
 20
634.4036193269
 30
0.0
 11
1209.3269569661
 21
729.6330624492
 31
0.0
  0
ARC
  5
1CD
330
1F
100
AcDbEntity
  8
0
  6
Continuous
 62
     7
370
    15
100
AcDbCircle
 10
1222.004472227
 20
716.505111093
 30
0.0
 40
18.25000000000014
100
AcDbArc
 50
316.0
 51
134.0
  0
LINE
  5
1CE
330
1F
100
AcDbEntity
  8
0
  6
Continuous
 62
     7
370
    15
100
AcDbLine
 10
1235.1324235832
 20
703.8275958321
 30
0.0
 11
1139.902980461
 21
605.2146207136
 31
0.0
  0
SPLINE
  5
1CF
330
1F
100
AcDbEntity
  8
0
  6
Continuous
 62
     7
370
    15
100
AcDbSpline
210
0.0
220
0.0
230
1.0
 70
     8
 71
     3
 72
    14
 73
    10
 74
     0
 42
0.000000001
 43
0.00000001
 40
0.0
 40
0.0
 40
0.0
 40
0.0
 40
0.1462538192088302
 40
0.2925007887500082
 40
0.4387912392874101
 40
0.585080345784688
 40
0.7307237982288279
 40
0.8763719881529998
 40
1.0
 40
1.0
 40
1.0
 40
1.0
 10
1138.262025381734
 20
596.7298877877432
 30
0.0
 10
1138.114740369119
 20
597.1510495731567
 30
0.0
 10
1137.82017724185
 20
597.9933534192459
 30
0.0
 10
1137.650828604078
 20
599.3279444891638
 30
0.0
 10
1137.69767085186
 20
600.6676720842162
 30
0.0
 10
1137.968302440121
 20
601.9813323217837
 30
0.0
 10
1138.461357420898
 20
603.2239894136917
 30
0.0
 10
1139.106928851033
 20
604.319436027503
 30
0.0
 10
1139.652501401552
 20
604.9329492549159
 30
0.0
 10
1139.902980460953
 20
605.214620713619
 30
0.0
  0
ARC
  5
1D0
330
1F
100
AcDbEntity
  8
0
  6
Continuous
 62
     7
370
    15
100
AcDbCircle
 10
1077.5779121697
 20
572.0785510356
 30
0.0
 40
65.5000000000002
100
AcDbArc
 50
16.5562705581
 51
22.108164441
  0
SPLINE
  5
1D1
330
1F
100
AcDbEntity
  8
0
  6
Continuous
 62
     7
370
    15
100
AcDbSpline
210
0.0
220
0.0
230
1.0
 70
     8
 71
     3
 72
    15
 73
    11
 74
     0
 42
0.000000001
 43
0.00000001
 40
0.0
 40
0.0
 40
0.0
 40
0.0
 40
0.1317447122811143
 40
0.2634819513336633
 40
0.3952703362030993
 40
0.5270562098654943
 40
0.6580548703881032
 40
0.7890571628006058
 40
0.8945269669972956
 40
1.0
 40
1.0
 40
1.0
 40
1.0
 10
1147.95599951043
 20
585.0785510356321
 30
0.0
 10
1147.509958680011
 20
585.1005834164328
 30
0.0
 10
1146.617902320871
 20
585.1446469282455
 30
0.0
 10
1145.316461786921
 20
585.4900439349119
 30
0.0
 10
1144.091335071337
 20
586.0379072136528
 30
0.0
 10
1142.976604164836
 20
586.7839357677962
 30
0.0
 10
1142.007795950264
 20
587.7073547400952
 30
0.0
 10
1141.261206349739
 20
588.7073309977818
 30
0.0
 10
1140.707787405178
 20
589.7286871438013
 30
0.0
 10
1140.477466567829
 20
590.4050429740445
 30
0.0
 10
1140.362304386446
 20
590.7432260655015
 30
0.0
  0
LINE
  5
1D2
330
1F
100
AcDbEntity
  8
0
  6
Continuous
 62
     7
370
    15
100
AcDbLine
 10
1147.9559995104
 20
585.0785510356
 30
0.0
 11
1150.0779121697
 21
585.0785510356
 31
0.0
  0
ARC
  5
1D3
330
1F
100
AcDbEntity
  8
0
  6
Continuous
 62
     7
370
    15
100
AcDbCircle
 10
1150.0779121697
 20
572.0785510356
 30
0.0
 40
13.0
100
AcDbArc
 50
270.0
 51
90.0
  0
LINE
  5
1D4
330
1F
100
AcDbEntity
  8
0
  6
Continuous
 62
     7
370
    15
100
AcDbLine
 10
1150.0779121697
 20
559.0785510356
 30
0.0
 11
1147.9559995104
 21
559.0785510356
 31
0.0
  0
SPLINE
  5
1D5
330
1F
100
AcDbEntity
  8
0
  6
Continuous
 62
     7
370
    15
100
AcDbSpline
210
0.0
220
0.0
230
1.0
 70
     8
 71
     3
 72
    15
 73
    11
 74
     0
 42
0.000000001
 43
0.00000001
 40
0.0
 40
0.0
 40
0.0
 40
0.0
 40
0.1317445026771829
 40
0.2634815208008806
 40
0.3952697254402313
 40
0.5270554237335522
 40
0.6580535658467993
 40
0.7890553422915937
 40
0.8945260594262592
 40
1.0
 40
1.0
 40
1.0
 40
1.0
 10
1140.362304386446
 20
553.413876005763
 30
0.0
 10
1140.51052523306
 20
553.8351452588947
 30
0.0
 10
1140.806958505694
 20
554.6776598323778
 30
0.0
 10
1141.508887198685
 20
555.8267190420584
 30
0.0
 10
1142.383143138574
 20
556.8449337528343
 30
0.0
 10
1143.41588971446
 20
557.7008602123478
 30
0.0
 10
1144.577088629496
 20
558.3663658961934
 30
0.0
 10
1145.748350674995
 20
558.7970541309346
 30
0.0
 10
1146.885066019615
 20
559.0364902778788
 30
0.0
 10
1147.599018043532
 20
559.0645306402198
 30
0.0
 10
1147.95599951043
 20
559.0785510356322
 30
0.0
  0
ARC
  5
1D6
330
1F
100
AcDbEntity
  8
0
  6
Continuous
 62
     7
370
    15
100
AcDbCircle
 10
1077.5779121697
 20
572.0785510356
 30
0.0
 40
65.50000000000009
100
AcDbArc
 50
337.891835559
 51
343.4437294419
  0
SPLINE
  5
1D7
330
1F
100
AcDbEntity
  8
0
  6
Continuous
 62
     7
370
    15
100
AcDbSpline
210
0.0
220
0.0
230
1.0
 70
     8
 71
     3
 72
    14
 73
    10
 74
     0
 42
0.000000001
 43
0.00000001
 40
0.0
 40
0.0
 40
0.0
 40
0.0
 40
0.1462539632316583
 40
0.2925010840467122
 40
0.438791666128837
 40
0.5850809000524283
 40
0.7307245576854953
 40
0.8763729539116286
 40
1.0
 40
1.0
 40
1.0
 40
1.0
 10
1139.902980460954
 20
538.9424813576468
 30
0.0
 10
1139.609283555371
 20
539.2783573014401
 30
0.0
 10
1139.021903484665
 20
539.9500934752433
 30
0.0
 10
1138.367157172201
 20
541.1253053930647
 30
0.0
 10
1137.911096295732
 20
542.3858909453178
 30
0.0
 10
1137.672406625073
 20
543.7057302507421
 30
0.0
 10
1137.666576233263
 20
545.0426185961037
 30
0.0
 10
1137.857153244075
 20
546.2997748671651
 30
0.0
 10
1138.134632077035
 20
547.0724646731181
 30
0.0
 10
1138.262025381734
 20
547.4272142835226
 30
0.0
  0
LINE
  5
1D8
330
1F
100
AcDbEntity
  8
0
  6
Continuous
 62
     7
370
    15
100
AcDbLine
 10
1139.902980461
 20
538.9424813576
 30
0.0
 11
1235.1324235832
 21
440.3295062392
 31
0.0
  0
ARC
  5
1D9
330
1F
100
AcDbEntity
  8
0
  6
Continuous
 62
     7
370
    15
100
AcDbCircle
 10
1222.004472227
 20
427.6519909783
 30
0.0
 40
18.25000000000005
100
AcDbArc
 50
226.0
 51
44.0
  0
LINE
  5
1DA
330
1F
100
AcDbEntity
  8
0
  6
Continuous
 62
     7
370
    15
100
AcDbLine
 10
1209.3269569662
 20
414.5240396221
 30
0.0
 11
1110.7139818477
 21
509.7534827444
 31
0.0
  0
SPLINE
  5
1DB
330
1F
100
AcDbEntity
  8
0
  6
Continuous
 62
     7
370
    15
100
AcDbSpline
210
0.0
220
0.0
230
1.0
 70
     8
 71
     3
 72
    14
 73
    10
 74
     0
 42
0.000000001
 43
0.00000001
 40
0.0
 40
0.0
 40
0.0
 40
0.0
 40
0.1462538192088293
 40
0.2925007887500071
 40
0.4387912392874101
 40
0.585080345784688
 40
0.730723798228826
 40
0.8763719881529967
 40
0.9999999999999999
 40
0.9999999999999999
 40
0.9999999999999999
 40
0.9999999999999999
 10
1102.229248921785
 20
511.3944378235732
 30
0.0
 10
1102.650410707199
 20
511.541722836189
 30
0.0
 10
1103.492714553288
 20
511.8362859634579
 30
0.0
 10
1104.827305623206
 20
512.0056346012291
 30
0.0
 10
1106.167033218258
 20
511.9587923534475
 30
0.0
 10
1107.480693455826
 20
511.6881607651861
 30
0.0
 10
1108.723350547734
 20
511.1951057844097
 30
0.0
 10
1109.818797161545
 20
510.5495343542743
 30
0.0
 10
1110.432310388958
 20
510.0039618037558
 30
0.0
 10
1110.713981847661
 20
509.7534827443541
 30
0.0
  0
ARC
  5
1DC
330
1F
100
AcDbEntity
  8
0
  6
Continuous
 62
     7
370
    15
100
AcDbCircle
 10
1077.5779121697
 20
572.0785510356
 30
0.0
 40
65.50000000000004
100
AcDbArc
 50
286.5562705581
 51
292.108164441
  0
SPLINE
  5
1DD
330
1F
100
AcDbEntity
  8
0
  6
Continuous
 62
     7
370
    15
100
AcDbSpline
210
0.0
220
0.0
230
1.0
 70
     8
 71
     3
 72
    15
 73
    11
 74
     0
 42
0.000000001
 43
0.00000001
 40
0.0
 40
0.0
 40
0.0
 40
0.0
 40
0.1317447122811143
 40
0.2634819513336635
 40
0.3952703362030994
 40
0.5270562098654923
 40
0.6580548703881006
 40
0.7890571628006029
 40
0.8945269669972941
 40
1.0
 40
1.0
 40
1.0
 40
1.0
 10
1090.577912169674
 20
501.7004636948777
 30
0.0
 10
1090.599944550475
 20
502.1465045252971
 30
0.0
 10
1090.644008062287
 20
503.0385608844365
 30
0.0
 10
1090.989405068954
 20
504.3400014183869
 30
0.0
 10
1091.537268347695
 20
505.5651281339704
 30
0.0
 10
1092.283296901838
 20
506.6798590404717
 30
0.0
 10
1093.206715874137
 20
507.6486672550434
 30
0.0
 10
1094.206692131824
 20
508.3952568555687
 30
0.0
 10
1095.228048277843
 20
508.9486758001299
 30
0.0
 10
1095.904404108087
 20
509.1789966374786
 30
0.0
 10
1096.242587199544
 20
509.2941588188612
 30
0.0
  0
LINE
  5
1DE
330
1F
100
AcDbEntity
  8
0
  6
Continuous
 62
     7
370
    15
100
AcDbLine
 10
1090.5779121697
 20
501.7004636949
 30
0.0
 11
1090.5779121697
 21
499.5785510356
 31
0.0
  0
ARC
  5
1DF
330
1F
100
AcDbEntity
  8
0
  6
Continuous
 62
     7
370
    15
100
AcDbCircle
 10
1077.5779121697
 20
499.5785510356
 30
0.0
 40
13.0
100
AcDbArc
 50
180.0
 51
0.0
  0
LINE
  5
1E0
330
1F
100
AcDbEntity
  8
0
  6
Continuous
 62
     7
370
    15
100
AcDbLine
 10
1064.5779121697
 20
499.5785510356
 30
0.0
 11
1064.5779121697
 21
501.7004636949
 31
0.0
  0
SPLINE
  5
1E1
330
1F
100
AcDbEntity
  8
0
  6
Continuous
 62
     7
370
    15
100
AcDbSpline
210
0.0
220
0.0
230
1.0
 70
     8
 71
     3
 72
    15
 73
    11
 74
     0
 42
0.000000001
 43
0.00000001
 40
0.0
 40
0.0
 40
0.0
 40
0.0
 40
0.1317445026771832
 40
0.2634815208008823
 40
0.3952697254402345
 40
0.5270554237335566
 40
0.6580535658468037
 40
0.789055342291598
 40
0.8945260594262613
 40
1.0
 40
1.0
 40
1.0
 40
1.0
 10
1058.913237139805
 20
509.2941588188616
 30
0.0
 10
1059.334506392937
 20
509.1459379722478
 30
0.0
 10
1060.17702096642
 20
508.8495046996132
 30
0.0
 10
1061.326080176101
 20
508.1475760066232
 30
0.0
 10
1062.344294886876
 20
507.273320066734
 30
0.0
 10
1063.20022134639
 20
506.2405734908471
 30
0.0
 10
1063.865727030235
 20
505.0793745758118
 30
0.0
 10
1064.296415264977
 20
503.9081125303127
 30
0.0
 10
1064.535851411921
 20
502.7713971856924
 30
0.0
 10
1064.563891774262
 20
502.0574451617761
 30
0.0
 10
1064.577912169674
 20
501.700463694878
 30
0.0
  0
ARC
  5
1E2
330
1F
100
AcDbEntity
  8
0
  6
Continuous
 62
     7
370
    15
100
AcDbCircle
 10
1077.5779121697
 20
572.0785510356
 30
0.0
 40
65.49999999999996
100
AcDbArc
 50
247.891835559
 51
253.4437294419
  0
ELLIPSE
  5
1E3
330
1F
100
AcDbEntity
  8
0
  6
Continuous
 62
     7
370
    15
100
AcDbEllipse
 10
1077.5779121697
 20
572.0785510356
 30
0.0
 11
377.5000000000002
 21
0.0
 31
0.0
210
0.0
220
0.0
230
1.0
 40
0.6688741722
 41
0.0
 42
6.283185307179586
  0
ENDSEC
  0
SECTION
  2
OBJECTS
  0
DICTIONARY
  5
C
330
0
100
AcDbDictionary
281
     1
  3
ACAD_GROUP
350
D
  3
ACAD_LAYOUT
350
1A
  3
ACAD_MLINESTYLE
350
17
  3
ACAD_PLOTSETTINGS
350
19
  3
ACAD_PLOTSTYLENAME
350
E
  3
ACAD_SCALELIST
350
47
  0
DICTIONARY
  5
D
102
{ACAD_REACTORS
330
C
102
}
330
C
100
AcDbDictionary
281
     1
  0
DICTIONARY
  5
1A
102
{ACAD_REACTORS
330
C
102
}
330
C
100
AcDbDictionary
281
     1
  3
Layout1
350
1E
  3
Layout2
350
26
  3
Model
350
22
  0
DICTIONARY
  5
17
102
{ACAD_REACTORS
330
C
102
}
330
C
100
AcDbDictionary
281
     1
  3
Standard
350
18
  0
DICTIONARY
  5
19
102
{ACAD_REACTORS
330
C
102
}
330
C
100
AcDbDictionary
281
     1
  0
ACDBDICTIONARYWDFLT
  5
E
102
{ACAD_REACTORS
330
C
102
}
330
C
100
AcDbDictionary
281
     1
  3
Normal
350
F
100
AcDbDictionaryWithDefault
340
F
  0
DICTIONARY
  5
47
102
{ACAD_REACTORS
330
C
102
}
330
C
100
AcDbDictionary
281
     1
  3
A0
350
48
  3
A1
350
49
  3
A2
350
4A
  3
A3
350
4B
  3
A4
350
4C
  3
A5
350
4D
  3
A6
350
4E
  3
A7
350
4F
  3
A8
350
50
  3
A9
350
51
  3
B0
350
52
  3
B1
350
53
  3
B2
350
54
  3
B3
350
55
  3
B4
350
56
  3
B5
350
57
  3
B6
350
58
  3
B7
350
59
  3
B8
350
5A
  3
B9
350
5B
  3
C0
350
5C
  3
C1
350
5D
  3
C2
350
5E
  3
C3
350
5F
  3
C4
350
60
  3
C5
350
61
  3
C6
350
62
  3
C7
350
63
  3
C8
350
64
  3
C9
350
65
  3
D0
350
66
  3
D1
350
67
  3
D2
350
68
  0
LAYOUT
  5
1E
102
{ACAD_REACTORS
330
1A
102
}
330
1A
100
AcDbPlotSettings
  1

  2
none_device
  4

  6

 40
0.0
 41
0.0
 42
0.0
 43
0.0
 44
0.0
 45
0.0
 46
0.0
 47
0.0
 48
0.0
 49
0.0
140
0.0
141
0.0
142
1.0
143
1.0
 70
   688
 72
     1
 73
     0
 74
     5
  7

 75
    16
147
1.0
148
0.0
149
0.0
100
AcDbLayout
  1
Layout1
 70
     1
 71
     1
 10
0.0
 20
0.0
 11
420.0
 21
297.0
 12
0.0
 22
0.0
 32
0.0
 14
1.0000000000E+20
 24
1.0000000000E+20
 34
1.0000000000E+20
 15
-1.0000000000E+20
 25
-1.0000000000E+20
 35
-1.0000000000E+20
146
0.0
 13
0.0
 23
0.0
 33
0.0
 16
1.0
 26
0.0
 36
0.0
 17
0.0
 27
1.0
 37
0.0
 76
     0
330
1B
  0
LAYOUT
  5
26
102
{ACAD_REACTORS
330
1A
102
}
330
1A
100
AcDbPlotSettings
  1

  2
none_device
  4

  6

 40
0.0
 41
0.0
 42
0.0
 43
0.0
 44
0.0
 45
0.0
 46
0.0
 47
0.0
 48
0.0
 49
0.0
140
0.0
141
0.0
142
1.0
143
1.0
 70
   688
 72
     1
 73
     0
 74
     5
  7

 75
    16
147
1.0
148
0.0
149
0.0
100
AcDbLayout
  1
Layout2
 70
     1
 71
     2
 10
0.0
 20
0.0
 11
0.0
 21
0.0
 12
0.0
 22
0.0
 32
0.0
 14
0.0
 24
0.0
 34
0.0
 15
0.0
 25
0.0
 35
0.0
146
0.0
 13
0.0
 23
0.0
 33
0.0
 16
1.0
 26
0.0
 36
0.0
 17
0.0
 27
1.0
 37
0.0
 76
     0
330
23
  0
LAYOUT
  5
22
102
{ACAD_REACTORS
330
1A
102
}
330
1A
100
AcDbPlotSettings
  1

  2
none_device
  4
Letter_(8.50_x_11.00_Inches)
  6

 40
6.35
 41
6.35
 42
6.35000508
 43
6.35000508
 44
215.9
 45
279.4
 46
0.0
 47
0.0
 48
0.0
 49
0.0
140
0.0
141
0.0
142
1.0
143
1.0
 70
  1712
 72
     1
 73
     0
 74
     0
  7

 75
     0
147
1.0
148
0.0
149
0.0
100
AcDbLayout
  1
Model
 70
     1
 71
     0
 10
0.0
 20
0.0
 11
2970.0
 21
2100.0
 12
0.0
 22
0.0
 32
0.0
 14
0.0
 24
0.0
 34
0.0
 15
2970.0
 25
2100.0
 35
0.0
146
0.0
 13
0.0
 23
0.0
 33
0.0
 16
1.0
 26
0.0
 36
0.0
 17
0.0
 27
1.0
 37
0.0
 76
     0
330
1F
331
29
  0
MLINESTYLE
  5
18
102
{ACAD_REACTORS
330
17
102
}
330
17
100
AcDbMlineStyle
  2
Standard
 70
     0
  3

 62
   256
 51
90.0
 52
90.0
 71
     2
 49
0.5
 62
   256
  6
BYLAYER
 49
-0.5
 62
   256
  6
BYLAYER
  0
ACDBPLACEHOLDER
  5
F
102
{ACAD_REACTORS
330
E
102
}
330
E
  0
SCALE
  5
48
102
{ACAD_REACTORS
330
47
102
}
330
47
100
AcDbScale
 70
     0
300
1:1
140
1.0
141
1.0
290
     1
  0
SCALE
  5
49
102
{ACAD_REACTORS
330
47
102
}
330
47
100
AcDbScale
 70
     0
300
1:2
140
1.0
141
2.0
290
     0
  0
SCALE
  5
4A
102
{ACAD_REACTORS
330
47
102
}
330
47
100
AcDbScale
 70
     0
300
1:4
140
1.0
141
4.0
290
     0
  0
SCALE
  5
4B
102
{ACAD_REACTORS
330
47
102
}
330
47
100
AcDbScale
 70
     0
300
1:5
140
1.0
141
5.0
290
     0
  0
SCALE
  5
4C
102
{ACAD_REACTORS
330
47
102
}
330
47
100
AcDbScale
 70
     0
300
1:8
140
1.0
141
8.0
290
     0
  0
SCALE
  5
4D
102
{ACAD_REACTORS
330
47
102
}
330
47
100
AcDbScale
 70
     0
300
1:10
140
1.0
141
10.0
290
     0
  0
SCALE
  5
4E
102
{ACAD_REACTORS
330
47
102
}
330
47
100
AcDbScale
 70
     0
300
1:16
140
1.0
141
16.0
290
     0
  0
SCALE
  5
4F
102
{ACAD_REACTORS
330
47
102
}
330
47
100
AcDbScale
 70
     0
300
1:20
140
1.0
141
20.0
290
     0
  0
SCALE
  5
50
102
{ACAD_REACTORS
330
47
102
}
330
47
100
AcDbScale
 70
     0
300
1:30
140
1.0
141
30.0
290
     0
  0
SCALE
  5
51
102
{ACAD_REACTORS
330
47
102
}
330
47
100
AcDbScale
 70
     0
300
1:40
140
1.0
141
40.0
290
     0
  0
SCALE
  5
52
102
{ACAD_REACTORS
330
47
102
}
330
47
100
AcDbScale
 70
     0
300
1:50
140
1.0
141
50.0
290
     0
  0
SCALE
  5
53
102
{ACAD_REACTORS
330
47
102
}
330
47
100
AcDbScale
 70
     0
300
1:100
140
1.0
141
100.0
290
     0
  0
SCALE
  5
54
102
{ACAD_REACTORS
330
47
102
}
330
47
100
AcDbScale
 70
     0
300
2:1
140
2.0
141
1.0
290
     0
  0
SCALE
  5
55
102
{ACAD_REACTORS
330
47
102
}
330
47
100
AcDbScale
 70
     0
300
4:1
140
4.0
141
1.0
290
     0
  0
SCALE
  5
56
102
{ACAD_REACTORS
330
47
102
}
330
47
100
AcDbScale
 70
     0
300
8:1
140
8.0
141
1.0
290
     0
  0
SCALE
  5
57
102
{ACAD_REACTORS
330
47
102
}
330
47
100
AcDbScale
 70
     0
300
10:1
140
10.0
141
1.0
290
     0
  0
SCALE
  5
58
102
{ACAD_REACTORS
330
47
102
}
330
47
100
AcDbScale
 70
     0
300
100:1
140
100.0
141
1.0
290
     0
  0
SCALE
  5
59
102
{ACAD_REACTORS
330
47
102
}
330
47
100
AcDbScale
 70
     0
300
1/128" = 1'-0"
140
0.0078125
141
12.0
290
     0
  0
SCALE
  5
5A
102
{ACAD_REACTORS
330
47
102
}
330
47
100
AcDbScale
 70
     0
300
1/64" = 1'-0"
140
0.015625
141
12.0
290
     0
  0
SCALE
  5
5B
102
{ACAD_REACTORS
330
47
102
}
330
47
100
AcDbScale
 70
     0
300
1/32" = 1'-0"
140
0.03125
141
12.0
290
     0
  0
SCALE
  5
5C
102
{ACAD_REACTORS
330
47
102
}
330
47
100
AcDbScale
 70
     0
300
1/16" = 1'-0"
140
0.0625
141
12.0
290
     0
  0
SCALE
  5
5D
102
{ACAD_REACTORS
330
47
102
}
330
47
100
AcDbScale
 70
     0
300
3/32" = 1'-0"
140
0.09375
141
12.0
290
     0
  0
SCALE
  5
5E
102
{ACAD_REACTORS
330
47
102
}
330
47
100
AcDbScale
 70
     0
300
1/8" = 1'-0"
140
0.125
141
12.0
290
     0
  0
SCALE
  5
5F
102
{ACAD_REACTORS
330
47
102
}
330
47
100
AcDbScale
 70
     0
300
3/16" = 1'-0"
140
0.1875
141
12.0
290
     0
  0
SCALE
  5
60
102
{ACAD_REACTORS
330
47
102
}
330
47
100
AcDbScale
 70
     0
300
1/4" = 1'-0"
140
0.25
141
12.0
290
     0
  0
SCALE
  5
61
102
{ACAD_REACTORS
330
47
102
}
330
47
100
AcDbScale
 70
     0
300
3/8" = 1'-0"
140
0.375
141
12.0
290
     0
  0
SCALE
  5
62
102
{ACAD_REACTORS
330
47
102
}
330
47
100
AcDbScale
 70
     0
300
1/2" = 1'-0"
140
0.5
141
12.0
290
     0
  0
SCALE
  5
63
102
{ACAD_REACTORS
330
47
102
}
330
47
100
AcDbScale
 70
     0
300
3/4" = 1'-0"
140
0.75
141
12.0
290
     0
  0
SCALE
  5
64
102
{ACAD_REACTORS
330
47
102
}
330
47
100
AcDbScale
 70
     0
300
1" = 1'-0"
140
1.0
141
12.0
290
     0
  0
SCALE
  5
65
102
{ACAD_REACTORS
330
47
102
}
330
47
100
AcDbScale
 70
     0
300
1-1/2" = 1'-0"
140
1.5
141
12.0
290
     0
  0
SCALE
  5
66
102
{ACAD_REACTORS
330
47
102
}
330
47
100
AcDbScale
 70
     0
300
3" = 1'-0"
140
3.0
141
12.0
290
     0
  0
SCALE
  5
67
102
{ACAD_REACTORS
330
47
102
}
330
47
100
AcDbScale
 70
     0
300
6" = 1'-0"
140
6.0
141
12.0
290
     0
  0
SCALE
  5
68
102
{ACAD_REACTORS
330
47
102
}
330
47
100
AcDbScale
 70
     0
300
1'-0" = 1'-0"
140
12.0
141
12.0
290
     0
  0
ENDSEC
  0
EOF
