  0
SECTION
  2
HEADER
  9
$ACADVER
  1
AC1015
  9
$ACADMAINTVER
 70
     6
  9
$DWGCODEPAGE
  3
ANSI_1252
  9
$INSBASE
 10
0.0
 20
0.0
 30
0.0
  9
$EXTMIN
 10
0.0
 20
0.0
 30
0.0
  9
$EXTMAX
 10
2970.0
 20
2100.0
 30
0.0
  9
$LIMMIN
 10
0.0
 20
0.0
  9
$LIMMAX
 10
2970.0
 20
2100.0
  9
$ORTHOMODE
 70
     0
  9
$REGENMODE
 70
     1
  9
$FILLMODE
 70
     1
  9
$QTEXTMODE
 70
     0
  9
$MIRRTEXT
 70
     1
  9
$LTSCALE
 40
10.0
  9
$ATTMODE
 70
     1
  9
$TEXTSIZE
 40
35.0
  9
$TRACEWID
 40
1.0
  9
$TEXTSTYLE
  7
Standard
  9
$CLAYER
  8
0
  9
$CELTYPE
  6
ByLayer
  9
$CECOLOR
 62
   256
  9
$CELTSCALE
 40
1.0
  9
$DISPSILH
 70
     0
  9
$DIMSCALE
 40
1.0
  9
$DIMASZ
 40
25.0
  9
$DIMEXO
 40
0.0
  9
$DIMDLI
 40
3.75
  9
$DIMRND
 40
0.0
  9
$DIMDLE
 40
0.0
  9
$DIMEXE
 40
10.0
  9
$DIMTP
 40
0.0
  9
$DIMTM
 40
0.0
  9
$DIMTXT
 40
30.0
  9
$DIMCEN
 40
2.5
  9
$DIMTSZ
 40
0.0
  9
$DIMTOL
 70
     0
  9
$DIMLIM
 70
     0
  9
$DIMTIH
 70
     1
  9
$DIMTOH
 70
     1
  9
$DIMSE1
 70
     0
  9
$DIMSE2
 70
     0
  9
$DIMTAD
 70
     1
  9
$DIMZIN
 70
     0
  9
$DIMBLK
  1

  9
$DIMASO
 70
     1
  9
$DIMSHO
 70
     1
  9
$DIMPOST
  1

  9
$DIMAPOST
  1

  9
$DIMALT
 70
     0
  9
$DIMALTD
 70
     3
  9
$DIMALTF
 40
0.0393700787
  9
$DIMLFAC
 40
1.0
  9
$DIMTOFL
 70
     1
  9
$DIMTVP
 40
0.0
  9
$DIMTIX
 70
     0
  9
$DIMSOXD
 70
     0
  9
$DIMSAH
 70
     0
  9
$DIMBLK1
  1

  9
$DIMBLK2
  1

  9
$DIMSTYLE
  2
ISO-25
  9
$DIMCLRD
 70
     0
  9
$DIMCLRE
 70
     0
  9
$DIMCLRT
 70
     0
  9
$DIMTFAC
 40
1.0
  9
$DIMGAP
 40
15.0
  9
$DIMJUST
 70
     0
  9
$DIMSD1
 70
     0
  9
$DIMSD2
 70
     0
  9
$DIMTOLJ
 70
     0
  9
$DIMTZIN
 70
     0
  9
$DIMALTZ
 70
     0
  9
$DIMALTTZ
 70
     0
  9
$DIMUPT
 70
     0
  9
$DIMDEC
 70
     1
  9
$DIMTDEC
 70
     1
  9
$DIMALTU
 70
     2
  9
$DIMALTTD
 70
     3
  9
$DIMTXSTY
  7
Standard
  9
$DIMAUNIT
 70
     0
  9
$DIMADEC
 70
     2
  9
$DIMALTRND
 40
0.0
  9
$DIMAZIN
 70
     0
  9
$DIMDSEP
 70
    44
  9
$DIMATFIT
 70
     3
  9
$DIMFRAC
 70
     0
  9
$DIMLDRBLK
  1

  9
$DIMLUNIT
 70
     2
  9
$DIMLWD
 70
    -2
  9
$DIMLWE
 70
    -2
  9
$DIMTMOVE
 70
     0
  9
$LUNITS
 70
     2
  9
$LUPREC
 70
     2
  9
$SKETCHINC
 40
1.0
  9
$FILLETRAD
 40
10.0
  9
$AUNITS
 70
     0
  9
$AUPREC
 70
     2
  9
$MENU
  1
.
  9
$ELEVATION
 40
0.0
  9
$PELEVATION
 40
0.0
  9
$THICKNESS
 40
0.0
  9
$LIMCHECK
 70
     0
  9
$CHAMFERA
 40
0.0
  9
$CHAMFERB
 40
0.0
  9
$CHAMFERC
 40
0.0
  9
$CHAMFERD
 40
0.0
  9
$SKPOLY
 70
     0
  9
$TDCREATE
 40
2457583.472261725
  9
$TDUCREATE
 40
2457583.388928391
  9
$TDUPDATE
 40
2457583.472262349
  9
$TDUUPDATE
 40
2457583.388929016
  9
$TDINDWG
 40
0.0000000116
  9
$TDUSRTIMER
 40
0.0000000116
  9
$USRTIMER
 70
     1
  9
$ANGBASE
 50
0.0
  9
$ANGDIR
 70
     0
  9
$PDMODE
 70
     0
  9
$PDSIZE
 40
-1.0
  9
$PLINEWID
 40
0.0
  9
$SPLFRAME
 70
     0
  9
$SPLINETYPE
 70
     6
  9
$SPLINESEGS
 70
     8
  9
$HANDSEED
  5
18A
  9
$SURFTAB1
 70
     6
  9
$SURFTAB2
 70
     6
  9
$SURFTYPE
 70
     6
  9
$SURFU
 70
     6
  9
$SURFV
 70
     6
  9
$UCSBASE
  2

  9
$UCSNAME
  2

  9
$UCSORG
 10
0.0
 20
0.0
 30
0.0
  9
$UCSXDIR
 10
1.0
 20
0.0
 30
0.0
  9
$UCSYDIR
 10
0.0
 20
1.0
 30
0.0
  9
$UCSORTHOREF
  2

  9
$UCSORTHOVIEW
 70
     0
  9
$UCSORGTOP
 10
0.0
 20
0.0
 30
0.0
  9
$UCSORGBOTTOM
 10
0.0
 20
0.0
 30
0.0
  9
$UCSORGLEFT
 10
0.0
 20
0.0
 30
0.0
  9
$UCSORGRIGHT
 10
0.0
 20
0.0
 30
0.0
  9
$UCSORGFRONT
 10
0.0
 20
0.0
 30
0.0
  9
$UCSORGBACK
 10
0.0
 20
0.0
 30
0.0
  9
$PUCSBASE
  2

  9
$PUCSNAME
  2

  9
$PUCSORG
 10
0.0
 20
0.0
 30
0.0
  9
$PUCSXDIR
 10
1.0
 20
0.0
 30
0.0
  9
$PUCSYDIR
 10
0.0
 20
1.0
 30
0.0
  9
$PUCSORTHOREF
  2

  9
$PUCSORTHOVIEW
 70
     0
  9
$PUCSORGTOP
 10
0.0
 20
0.0
 30
0.0
  9
$PUCSORGBOTTOM
 10
0.0
 20
0.0
 30
0.0
  9
$PUCSORGLEFT
 10
0.0
 20
0.0
 30
0.0
  9
$PUCSORGRIGHT
 10
0.0
 20
0.0
 30
0.0
  9
$PUCSORGFRONT
 10
0.0
 20
0.0
 30
0.0
  9
$PUCSORGBACK
 10
0.0
 20
0.0
 30
0.0
  9
$USERI1
 70
     0
  9
$USERI2
 70
     0
  9
$USERI3
 70
     0
  9
$USERI4
 70
     0
  9
$USERI5
 70
     0
  9
$USERR1
 40
0.0
  9
$USERR2
 40
0.0
  9
$USERR3
 40
0.0
  9
$USERR4
 40
0.0
  9
$USERR5
 40
0.0
  9
$WORLDVIEW
 70
     1
  9
$SHADEDGE
 70
     3
  9
$SHADEDIF
 70
    70
  9
$TILEMODE
 70
     1
  9
$MAXACTVP
 70
    64
  9
$PINSBASE
 10
0.0
 20
0.0
 30
0.0
  9
$PLIMCHECK
 70
     0
  9
$PEXTMIN
 10
1.0000000000E+20
 20
1.0000000000E+20
 30
1.0000000000E+20
  9
$PEXTMAX
 10
-1.0000000000E+20
 20
-1.0000000000E+20
 30
-1.0000000000E+20
  9
$PLIMMIN
 10
0.0
 20
0.0
  9
$PLIMMAX
 10
420.0
 20
297.0
  9
$UNITMODE
 70
     0
  9
$VISRETAIN
 70
     1
  9
$PLINEGEN
 70
     0
  9
$PSLTSCALE
 70
     1
  9
$TREEDEPTH
 70
  3020
  9
$CMLSTYLE
  2
Standard
  9
$CMLJUST
 70
     0
  9
$CMLSCALE
 40
20.0
  9
$PROXYGRAPHICS
 70
     1
  9
$MEASUREMENT
 70
     1
  9
$CELWEIGHT
370
    -1
  9
$ENDCAPS
280
     0
  9
$JOINSTYLE
280
     0
  9
$LWDISPLAY
290
     1
  9
$INSUNITS
 70
     4
  9
$HYPERLINKBASE
  1

  9
$STYLESHEET
  1

  9
$XEDIT
290
     1
  9
$CEPSNTYPE
380
     0
  9
$PSTYLEMODE
290
     1
  9
$FINGERPRINTGUID
  2
{08248E7D-D290-4DA7-AE50-CCE91C4FFFE3}
  9
$VERSIONGUID
  2
{FAEB1C32-E019-11D5-929B-00C0DF256EC4}
  9
$EXTNAMES
290
     1
  9
$PSVPSCALE
 40
0.0
  9
$OLESTARTUP
290
     0
  0
ENDSEC
  0
SECTION
  2
CLASSES
  0
CLASS
  1
ACDBDICTIONARYWDFLT
  2
AcDbDictionaryWithDefault
  3
ObjectDBX Classes
 90
        0
280
     0
281
     0
  0
CLASS
  1
VISUALSTYLE
  2
AcDbVisualStyle
  3
ObjectDBX Classes
 90
     4095
280
     0
281
     0
  0
CLASS
  1
MATERIAL
  2
AcDbMaterial
  3
ObjectDBX Classes
 90
     1153
280
     0
281
     0
  0
CLASS
  1
SCALE
  2
AcDbScale
  3
ObjectDBX Classes
 90
     1153
280
     0
281
     0
  0
CLASS
  1
TABLESTYLE
  2
AcDbTableStyle
  3
ObjectDBX Classes
 90
     4095
280
     0
281
     0
  0
CLASS
  1
MLEADERSTYLE
  2
AcDbMLeaderStyle
  3
ACDB_MLEADERSTYLE_CLASS
 90
     4095
280
     0
281
     0
  0
CLASS
  1
SUN
  2
AcDbSun
  3
SCENEOE
 90
     1153
280
     0
281
     0
  0
CLASS
  1
ACDBPLACEHOLDER
  2
AcDbPlaceHolder
  3
ObjectDBX Classes
 90
        0
280
     0
281
     0
  0
CLASS
  1
LAYOUT
  2
AcDbLayout
  3
ObjectDBX Classes
 90
        0
280
     0
281
     0
  0
ENDSEC
  0
SECTION
  2
TABLES
  0
TABLE
  2
VPORT
  5
8
330
0
100
AcDbSymbolTable
 70
     1
  0
VPORT
  5
29
330
8
100
AcDbSymbolTableRecord
100
AcDbViewportTableRecord
  2
*Active
 70
     0
 10
0.0
 20
0.0
 11
1.0
 21
1.0
 12
1485.0
 22
1050.0
 13
0.0
 23
0.0
 14
10.0
 24
10.0
 15
10.0
 25
10.0
 16
0.0
 26
0.0
 36
1.0
 17
0.0
 27
0.0
 37
0.0
 40
2100.0
 41
1.4142857143
 42
50.0
 43
0.0
 44
0.0
 50
0.0
 51
0.0
 71
     0
 72
  2000
 73
     1
 74
     3
 75
     0
 76
     0
 77
     0
 78
     0
281
     0
 65
     1
110
0.0
120
0.0
130
0.0
111
1.0
121
0.0
131
0.0
112
0.0
122
1.0
132
0.0
 79
     0
146
0.0
  0
ENDTAB
  0
TABLE
  2
LTYPE
  5
5
330
0
100
AcDbSymbolTable
 70
     6
  0
LTYPE
  5
14
330
5
100
AcDbSymbolTableRecord
100
AcDbLinetypeTableRecord
  2
ByBlock
 70
     0
  3

 72
    65
 73
     0
 40
0.0
  0
LTYPE
  5
15
330
5
100
AcDbSymbolTableRecord
100
AcDbLinetypeTableRecord
  2
ByLayer
 70
     0
  3

 72
    65
 73
     0
 40
0.0
  0
LTYPE
  5
16
330
5
100
AcDbSymbolTableRecord
100
AcDbLinetypeTableRecord
  2
Continuous
 70
     0
  3
Solid line
 72
    65
 73
     0
 40
0.0
  0
LTYPE
  5
6E
330
5
100
AcDbSymbolTableRecord
100
AcDbLinetypeTableRecord
  2
HIDDEN
 70
     0
  3
Hidden __ __ __ __ __ __ __ __ __ __ __ __ __ __
 72
    65
 73
     2
 40
1.905
 49
1.27
 74
     0
 49
-0.635
 74
     0
  0
LTYPE
  5
6F
330
5
100
AcDbSymbolTableRecord
100
AcDbLinetypeTableRecord
  2
PHANTOM
 70
     0
  3
Phantom ______  __  __  ______  __  __  ______
 72
    65
 73
     6
 40
12.7
 49
6.35
 74
     0
 49
-1.27
 74
     0
 49
1.27
 74
     0
 49
-1.27
 74
     0
 49
1.27
 74
     0
 49
-1.27
 74
     0
  0
LTYPE
  5
70
330
5
100
AcDbSymbolTableRecord
100
AcDbLinetypeTableRecord
  2
CENTER
 70
     0
  3
Center ____ _ ____ _ ____ _ ____ _ ____ _ ____
 72
    65
 73
     4
 40
10.16
 49
6.35
 74
     0
 49
-1.27
 74
     0
 49
1.27
 74
     0
 49
-1.27
 74
     0
  0
LTYPE
  5
71
330
5
100
AcDbSymbolTableRecord
100
AcDbLinetypeTableRecord
  2
CENTERX2
 70
     0
  3
Center (2x) ________  __  ________  __  _____
 72
    65
 73
     4
 40
20.32
 49
12.7
 74
     0
 49
-2.54
 74
     0
 49
2.54
 74
     0
 49
-2.54
 74
     0
  0
LTYPE
  5
72
330
5
100
AcDbSymbolTableRecord
100
AcDbLinetypeTableRecord
  2
DOT2
 70
     0
  3
Dot (.5x) ........................................
 72
    65
 73
     2
 40
0.635
 49
0.0
 74
     0
 49
-0.635
 74
     0
  0
ENDTAB
  0
TABLE
  2
LAYER
  5
2
330
0
100
AcDbSymbolTable
 70
     2
  0
LAYER
  5
10
330
2
100
AcDbSymbolTableRecord
100
AcDbLayerTableRecord
  2
0
 70
     0
 62
     7
  6
Continuous
370
    -3
390
F
  0
LAYER
  5
73
330
2
100
AcDbSymbolTableRecord
100
AcDbLayerTableRecord
  2
FORMAT
 70
     0
 62
     7
  6
Continuous
370
    -3
390
F
  0
ENDTAB
  0
TABLE
  2
STYLE
  5
3
330
0
100
AcDbSymbolTable
 70
     2
  0
STYLE
  5
11
330
3
100
AcDbSymbolTableRecord
100
AcDbTextStyleTableRecord
  2
Standard
 70
     0
 40
0.0
 41
1.0
 50
0.0
 71
     0
 42
35.0
  3
txt
  4

  0
STYLE
  5
E7
330
3
100
AcDbSymbolTableRecord
100
AcDbTextStyleTableRecord
  2
SLDTEXTSTYLE0
 70
     0
 40
0.0
 41
0.605
 50
0.0
 71
     0
 42
35.0
  3
TXT
  4

  0
ENDTAB
  0
TABLE
  2
VIEW
  5
6
330
0
100
AcDbSymbolTable
 70
     0
  0
ENDTAB
  0
TABLE
  2
UCS
  5
7
330
0
100
AcDbSymbolTable
 70
     0
  0
ENDTAB
  0
TABLE
  2
APPID
  5
9
330
0
100
AcDbSymbolTable
 70
     1
  0
APPID
  5
12
330
9
100
AcDbSymbolTableRecord
100
AcDbRegAppTableRecord
  2
ACAD
 70
     0
  0
ENDTAB
  0
TABLE
  2
DIMSTYLE
  5
A
330
0
100
AcDbSymbolTable
 70
     1
100
AcDbDimStyleTable
  0
DIMSTYLE
105
27
330
A
100
AcDbSymbolTableRecord
100
AcDbDimStyleTableRecord
  2
ISO-25
 70
     0
 41
2.5
 42
0.625
 43
3.75
 44
1.25
 73
     0
 74
     0
 77
     1
 78
     8
140
2.5
141
2.5
143
0.0393700787
147
0.625
171
     3
172
     1
178
     0
271
     2
272
     2
274
     3
278
    44
283
     0
284
     8
340
11
  0
ENDTAB
  0
TABLE
  2
BLOCK_RECORD
  5
1
330
0
100
AcDbSymbolTable
 70
     3
  0
BLOCK_RECORD
  5
1F
330
1
100
AcDbSymbolTableRecord
100
AcDbBlockTableRecord
  2
*Model_Space
340
22
  0
BLOCK_RECORD
  5
1B
330
1
100
AcDbSymbolTableRecord
100
AcDbBlockTableRecord
  2
*Paper_Space
340
1E
  0
BLOCK_RECORD
  5
23
330
1
100
AcDbSymbolTableRecord
100
AcDbBlockTableRecord
  2
*Paper_Space0
340
26
  0
BLOCK_RECORD
  5
EB
330
1
100
AcDbSymbolTableRecord
100
AcDbBlockTableRecord
  2
SW_NOTE_0
340
0
102
{BLKREFS
331
F0
102
}
  0
BLOCK_RECORD
  5
F3
330
1
100
AcDbSymbolTableRecord
100
AcDbBlockTableRecord
  2
SW_NOTE_1
340
0
102
{BLKREFS
331
F8
102
}
  0
ENDTAB
  0
ENDSEC
  0
SECTION
  2
BLOCKS
  0
BLOCK
  5
20
330
1F
100
AcDbEntity
  8
0
100
AcDbBlockBegin
  2
*Model_Space
 70
     0
 10
0.0
 20
0.0
 30
0.0
  3
*Model_Space
  1

  0
ENDBLK
  5
21
330
1F
100
AcDbEntity
  8
0
100
AcDbBlockEnd
  0
BLOCK
  5
1C
330
1B
100
AcDbEntity
 67
     1
  8
0
100
AcDbBlockBegin
  2
*Paper_Space
 70
     0
 10
0.0
 20
0.0
 30
0.0
  3
*Paper_Space
  1

  0
ENDBLK
  5
1D
330
1B
100
AcDbEntity
 67
     1
  8
0
100
AcDbBlockEnd
  0
BLOCK
  5
24
330
23
100
AcDbEntity
  8
0
100
AcDbBlockBegin
  2
*Paper_Space0
 70
     0
 10
0.0
 20
0.0
 30
0.0
  3
*Paper_Space0
  1

  0
ENDBLK
  5
25
330
23
100
AcDbEntity
  8
0
100
AcDbBlockEnd
  0
BLOCK
  5
EC
330
EB
100
AcDbEntity
  8
0
100
AcDbBlockBegin
  2
SW_NOTE_0
 70
     0
 10
0.0
 20
0.0
 30
0.0
  3
SW_NOTE_0
  1

  0
MTEXT
  5
EE
330
EB
100
AcDbEntity
  8
0
  6
Continuous
 62
     0
370
     0
100
AcDbMText
 10
0.0
 20
23.2032193159
 30
0.0
 40
18.0
 41
0.0
 71
     1
 72
     1
  1
Questo disegno e posto sotto la tutela delle vigenti Leggi e non puo essere utilizzato da terze persone se non previa autorizzazione scritta della PEDRALI
  7
SLDTEXTSTYLE0
 73
     1
 44
1.0
  0
MTEXT
  5
EF
330
EB
100
AcDbEntity
  8
0
  6
Continuous
 62
     0
370
     0
100
AcDbMText
 10
1355.5219376087
 20
23.2032193159
 30
0.0
 40
18.0
 41
0.0
 71
     1
 72
     1
  1
S.p.A.
  7
SLDTEXTSTYLE0
 73
     1
 44
1.0
  0
ENDBLK
  5
ED
330
EB
100
AcDbEntity
  8
0
100
AcDbBlockEnd
  0
BLOCK
  5
F4
330
F3
100
AcDbEntity
  8
0
100
AcDbBlockBegin
  2
SW_NOTE_1
 70
     0
 10
0.0
 20
0.0
 30
0.0
  3
SW_NOTE_1
  1

  0
MTEXT
  5
F6
330
F3
100
AcDbEntity
  8
0
  6
Continuous
 62
     0
370
     0
100
AcDbMText
 10
33.1875
 20
23.2032193159
 30
0.0
 40
18.0
 41
0.0
 71
     2
 72
     1
  1
SCALA
  7
SLDTEXTSTYLE0
 73
     1
 44
1.0
  0
MTEXT
  5
F7
330
F3
100
AcDbEntity
  8
0
  6
Continuous
 62
     0
370
     0
100
AcDbMText
 10
35.6098540438
 20
-1.6396707646
 30
0.0
 40
37.0416666667
 41
0.0
 71
     2
 72
     1
  1
1:1
  7
SLDTEXTSTYLE0
 73
     1
 44
1.0
  0
ENDBLK
  5
F5
330
F3
100
AcDbEntity
  8
0
100
AcDbBlockEnd
  0
ENDSEC
  0
SECTION
  2
ENTITIES
  0
HATCH
  5
74
330
1F
100
AcDbEntity
  8
0
  6
Continuous
 62
     7
100
AcDbHatch
 10
0.0
 20
0.0
 30
0.0
210
0.0
220
0.0
230
1.0
  2
SOLID
 70
     1
 71
     0
 91
        2
 92
        0
 93
        6
 72
     1
 10
2340.243226420216
 20
319.3144821747094
 11
2356.647910872445
 21
319.3144821747094
 72
     3
 10
2351.078765157099
 20
331.9559440369547
 11
27.08884684798352
 21
0.0
 40
0.4768529109443384
 50
293.7756995582609
 51
426.2243004403791
 73
     1
 72
     1
 10
2356.647910872789
 20
344.5974058991662
 11
2323.989918311282
 21
344.5974058991662
 72
     1
 10
2323.989918311282
 20
344.5974058991662
 11
2323.989918311282
 21
304.8670971915081
 72
     1
 10
2323.989918311282
 20
304.8670971915081
 11
2340.243226420216
 21
304.8670971915081
 72
     1
 10
2340.243226420216
 20
304.8670971915081
 11
2340.243226420216
 21
319.3144821747094
 97
        0
 92
        0
 93
        6
 72
     3
 10
2350.175803596967
 20
331.9559440369547
 11
9.932577177641511
 21
0.0
 40
0.5895245510672578
 50
316.3365658560252
 51
403.663434144226
 73
     0
 72
     2
 10
2352.923880980421
 20
333.7618671600596
 40
7.223692492544108
 50
69.99121011132742
 51
90.0
 73
     0
 72
     1
 10
2352.923880980421
 20
326.5381746675155
 11
2340.243226419814
 21
326.5381746675155
 72
     1
 10
2340.243226419814
 20
326.5381746675155
 11
2340.243226419814
 21
337.37371340629
 72
     1
 10
2340.243226419814
 20
337.37371340629
 11
2352.923880981012
 21
337.37371340629
 72
     2
 10
2352.923880981012
 20
330.150020915474
 40
7.223692490816113
 50
270.0000000000008
 51
290.0087898889545
 73
     0
 97
        0
 75
     0
 76
     1
 98
        1
 10
0.0
 20
0.0
  0
HATCH
  5
75
330
1F
100
AcDbEntity
  8
0
  6
Continuous
 62
     7
100
AcDbHatch
 10
0.0
 20
0.0
 30
0.0
210
0.0
220
0.0
230
1.0
  2
SOLID
 70
     1
 71
     0
 91
        1
 92
        0
 93
       12
 72
     1
 10
2435.957151948124
 20
344.59740589754
 11
2381.779458253796
 21
344.59740589754
 72
     1
 10
2381.779458253796
 20
344.59740589754
 11
2381.779458253796
 21
304.867097189882
 72
     1
 10
2381.779458253796
 20
304.867097189882
 11
2435.957151948124
 21
304.867097189882
 72
     1
 10
2435.957151948124
 20
304.867097189882
 11
2435.957151948124
 21
312.09078967967
 72
     1
 10
2435.957151948124
 20
312.09078967967
 11
2399.838689485178
 21
312.09078967967
 72
     1
 10
2399.838689485178
 20
312.09078967967
 11
2399.838689485178
 21
321.1204052953607
 72
     1
 10
2399.838689485178
 20
321.1204052953607
 11
2432.345305703229
 21
321.1204052953607
 72
     1
 10
2432.345305703229
 20
321.1204052953607
 11
2432.345305703229
 21
328.344097788605
 72
     1
 10
2432.345305703229
 20
328.344097788605
 11
2399.838689485178
 21
328.344097788605
 72
     1
 10
2399.838689485178
 20
328.344097788605
 11
2399.838689485178
 21
337.3737134042958
 72
     1
 10
2399.838689485178
 20
337.3737134042958
 11
2435.957151948124
 21
337.3737134042958
 72
     1
 10
2435.957151948124
 20
337.3737134042958
 11
2435.957151948124
 21
344.59740589754
 97
        0
 75
     0
 76
     1
 98
        1
 10
0.0
 20
0.0
  0
HATCH
  5
76
330
1F
100
AcDbEntity
  8
0
  6
Continuous
 62
     7
100
AcDbHatch
 10
0.0
 20
0.0
 30
0.0
210
0.0
220
0.0
230
1.0
  2
SOLID
 70
     1
 71
     0
 91
        1
 92
        0
 93
        6
 72
     1
 10
2645.444234240045
 20
344.597405899586
 11
2627.385003008663
 21
344.597405899586
 72
     1
 10
2627.385003008663
 20
344.597405899586
 11
2627.385003008663
 21
304.8670971919279
 72
     1
 10
2627.385003008663
 20
304.8670971919279
 11
2676.14492733565
 21
304.8670971919279
 72
     1
 10
2676.14492733565
 20
304.8670971919279
 11
2676.14492733565
 21
313.8967128076189
 72
     1
 10
2676.14492733565
 20
313.8967128076189
 11
2645.444234240045
 21
313.8967128076189
 72
     1
 10
2645.444234240045
 20
313.8967128076189
 11
2645.444234240045
 21
344.597405899586
 97
        0
 75
     0
 76
     1
 98
        1
 10
0.0
 20
0.0
  0
HATCH
  5
77
330
1F
100
AcDbEntity
  8
0
  6
Continuous
 62
     7
100
AcDbHatch
 10
0.0
 20
0.0
 30
0.0
210
0.0
220
0.0
230
1.0
  2
SOLID
 70
     1
 71
     0
 91
        1
 92
        0
 93
        4
 72
     1
 10
2677.950850457337
 20
344.5974058991659
 11
2677.950850457337
 21
304.8670971915079
 72
     1
 10
2677.950850457337
 20
304.8670971915079
 11
2696.010081688719
 21
304.8670971915079
 72
     1
 10
2696.010081688719
 20
304.8670971915079
 11
2696.010081688719
 21
344.5974058991659
 72
     1
 10
2696.010081688719
 20
344.5974058991659
 11
2677.950850457337
 21
344.5974058991659
 97
        0
 75
     0
 76
     1
 98
        1
 10
0.0
 20
0.0
  0
HATCH
  5
78
330
1F
100
AcDbEntity
  8
0
  6
Continuous
 62
     7
100
AcDbHatch
 10
0.0
 20
0.0
 30
0.0
210
0.0
220
0.0
230
1.0
  2
SOLID
 70
     1
 71
     0
 91
        2
 92
        0
 93
        4
 72
     3
 10
2468.463768165085
 20
324.7322515426197
 11
28.89476997115586
 21
0.0
 40
0.6929224243374513
 50
280.2934314618138
 51
439.7065685387129
 73
     1
 72
     1
 10
2472.071526001564
 20
344.5974058975816
 11
2439.568998196665
 21
344.5974058975813
 72
     1
 10
2439.568998196665
 20
344.5974058975813
 11
2439.568998196665
 21
304.8670971876741
 72
     1
 10
2439.568998196665
 20
304.8670971876741
 11
2472.071526001749
 21
304.8670971876741
 97
        0
 92
        0
 93
        6
 72
     2
 10
2472.947172767998
 20
324.7322515421808
 40
10.83553873998016
 50
56.16906508602374
 51
90.0
 73
     0
 72
     1
 10
2472.947172767998
 20
313.8967128022008
 11
2455.82230630316
 21
313.8967128022008
 72
     1
 10
2455.82230630316
 20
313.8967128022008
 11
2455.82230630316
 21
335.5677902826995
 72
     1
 10
2455.82230630316
 20
335.5677902826995
 11
2472.947172767998
 21
335.5677902826995
 72
     2
 10
2472.947172767998
 20
324.7322515421808
 40
10.83553874051871
 50
270.0000000000008
 51
303.8314447476077
 73
     0
 72
     3
 10
2462.14303723761
 20
324.7322515426197
 11
22.57403904004612
 21
0.0
 40
0.5985848325441405
 50
331.8713554011807
 51
388.1288999924611
 73
     0
 97
        0
 75
     0
 76
     1
 98
        1
 10
0.0
 20
0.0
  0
HATCH
  5
79
330
1F
100
AcDbEntity
  8
0
  6
Continuous
 62
     7
100
AcDbHatch
 10
0.0
 20
0.0
 30
0.0
210
0.0
220
0.0
230
1.0
  2
SOLID
 70
     1
 71
     0
 91
        3
 92
        0
 93
       19
 72
     1
 10
2558.870202192612
 20
314.7709579586855
 11
2560.355534650718
 21
308.9676544182703
 72
     2
 10
2565.453566637579
 20
310.114383967383
 40
5.225410873593411
 50
192.6768785101394
 51
204.7368873206736
 73
     1
 72
     1
 10
2560.707644877863
 20
307.927800914186
 11
2584.042848052473
 21
344.597405899586
 72
     1
 10
2584.042848052473
 20
344.597405899586
 11
2602.102079283856
 21
344.597405899586
 72
     1
 10
2602.102079283856
 20
344.597405899586
 11
2627.385003008663
 21
304.8670971919279
 72
     1
 10
2627.385003008663
 20
304.8670971919279
 11
2609.325771777099
 21
304.8670971919279
 72
     1
 10
2609.325771777099
 20
304.8670971919279
 11
2605.262444749956
 21
312.090789681716
 72
     1
 10
2605.262444749956
 20
312.090789681716
 11
2580.882482586372
 21
312.090789681716
 72
     1
 10
2580.882482586372
 20
312.090789681716
 11
2576.819155559229
 21
304.8670971919279
 72
     1
 10
2576.819155559229
 20
304.8670971919279
 11
2546.118462463106
 21
304.8670971919279
 72
     1
 10
2546.118462463106
 20
304.8670971919279
 11
2546.118462463106
 21
312.0907896826544
 72
     2
 10
2538.894769969861
 20
312.0907896826544
 40
7.223692493244227
 50
0.0
 51
90.0
 73
     1
 72
     1
 10
2538.894769969861
 20
319.3144821758984
 11
2520.835538738298
 21
319.3144821758984
 72
     1
 10
2520.835538738298
 20
319.3144821758984
 11
2520.835538738298
 21
304.8670971928664
 72
     1
 10
2520.835538738298
 20
304.8670971928664
 11
2504.582230629363
 21
304.8670971928664
 72
     1
 10
2504.582230629363
 20
304.8670971928664
 11
2504.582230629363
 21
344.5974059005244
 72
     1
 10
2504.582230629363
 20
344.5974059005244
 11
2542.019258305786
 21
344.5974059005244
 72
     3
 10
2538.029947706919
 20
332.9364020822968
 11
24.32666622535162
 21
0.0
 40
0.4859291160023137
 50
288.8861745463018
 51
398.6942257036357
 73
     0
 72
     2
 10
2549.037584929584
 20
312.9627960708336
 40
9.997490267756193
 50
279.2678272406082
 51
349.5800515720779
 73
     0
 97
        0
 92
        0
 93
        3
 72
     1
 10
2593.072463667404
 20
333.7618671594018
 11
2584.945809612937
 21
319.3144821729139
 72
     1
 10
2584.945809612937
 20
319.3144821729139
 11
2601.199117721872
 21
319.3144821729139
 72
     1
 10
2601.199117721872
 20
319.3144821729139
 11
2593.072463667404
 21
333.7618671594018
 97
        0
 92
        0
 93
        6
 72
     2
 10
2538.478172418671
 20
331.9559440374287
 40
5.417769370214362
 50
270.0000000000008
 51
305.5869104965606
 73
     1
 72
     3
 10
2532.574039041056
 20
331.9559440369547
 11
11.73850030081747
 21
0.0
 40
0.5900077182209745
 50
334.058541690378
 51
385.9414583083995
 73
     1
 72
     2
 10
2538.478172418671
 20
331.9559440374287
 40
5.417769369443226
 50
54.41308949502037
 51
90.0
 73
     1
 72
     1
 10
2538.478172418671
 20
337.3737134068722
 11
2520.835538737718
 21
337.3737134068722
 72
     1
 10
2520.835538737718
 20
337.3737134068722
 11
2520.835538737718
 21
326.538174667214
 72
     1
 10
2520.835538737718
 20
326.538174667214
 11
2538.478172418671
 21
326.5381746672143
 97
        0
 75
     0
 76
     1
 98
        1
 10
0.0
 20
0.0
  0
LINE
  5
7A
330
1F
100
AcDbEntity
  8
0
  6
Continuous
 62
     7
370
    15
100
AcDbLine
 10
2870.0
 20
100.0
 30
0.0
 11
2870.0
 21
2000.0
 31
0.0
  0
LINE
  5
7B
330
1F
100
AcDbEntity
  8
0
  6
Continuous
 62
   179
370
     0
100
AcDbLine
 10
2323.9899183113
 20
344.5974058992
 30
0.0
 11
2323.9899183113
 21
304.8670971915
 31
0.0
  0
LINE
  5
7C
330
1F
100
AcDbEntity
  8
0
  6
Continuous
 62
   179
370
     0
100
AcDbLine
 10
2323.9899183113
 20
344.5974058992
 30
0.0
 11
2356.6479108728
 21
344.5974058992
 31
0.0
  0
LINE
  5
7D
330
1F
100
AcDbEntity
  8
0
  6
Continuous
 62
   179
370
     0
100
AcDbLine
 10
2323.9899183113
 20
304.8670971915
 30
0.0
 11
2340.2432264202
 21
304.8670971915
 31
0.0
  0
LINE
  5
7E
330
1F
100
AcDbEntity
  8
0
  6
Continuous
 62
   179
370
     0
100
AcDbLine
 10
2340.2432264202
 20
304.8670971915
 30
0.0
 11
2340.2432264202
 21
319.3144821747
 31
0.0
  0
LINE
  5
7F
330
1F
100
AcDbEntity
  8
0
  6
Continuous
 62
   179
370
     0
100
AcDbLine
 10
2356.6479108724
 20
319.3144821747
 30
0.0
 11
2340.2432264202
 21
319.3144821747
 31
0.0
  0
LINE
  5
80
330
1F
100
AcDbEntity
  8
0
  6
Continuous
 62
   179
370
     0
100
AcDbLine
 10
2340.2432264198
 20
326.5381746675
 30
0.0
 11
2340.2432264198
 21
337.3737134063
 31
0.0
  0
LINE
  5
81
330
1F
100
AcDbEntity
  8
0
  6
Continuous
 62
   179
370
     0
100
AcDbLine
 10
2340.2432264198
 20
337.3737134063
 30
0.0
 11
2352.923880981
 21
337.3737134063
 31
0.0
  0
LINE
  5
82
330
1F
100
AcDbEntity
  8
0
  6
Continuous
 62
   179
370
     0
100
AcDbLine
 10
2340.2432264198
 20
326.5381746675
 30
0.0
 11
2352.9238809804
 21
326.5381746675
 31
0.0
  0
LINE
  5
83
330
1F
100
AcDbEntity
  8
0
  6
Continuous
 62
   179
370
     0
100
AcDbLine
 10
2381.7794582538
 20
344.5974058975
 30
0.0
 11
2435.9571519481
 21
344.5974058975
 31
0.0
  0
LINE
  5
84
330
1F
100
AcDbEntity
  8
0
  6
Continuous
 62
   179
370
     0
100
AcDbLine
 10
2435.9571519481
 20
344.5974058975
 30
0.0
 11
2435.9571519481
 21
337.3737134043
 31
0.0
  0
LINE
  5
85
330
1F
100
AcDbEntity
  8
0
  6
Continuous
 62
   179
370
     0
100
AcDbLine
 10
2435.9571519481
 20
337.3737134043
 30
0.0
 11
2399.8386894852
 21
337.3737134043
 31
0.0
  0
LINE
  5
86
330
1F
100
AcDbEntity
  8
0
  6
Continuous
 62
   179
370
     0
100
AcDbLine
 10
2399.8386894852
 20
337.3737134043
 30
0.0
 11
2399.8386894852
 21
328.3440977886
 31
0.0
  0
LINE
  5
87
330
1F
100
AcDbEntity
  8
0
  6
Continuous
 62
   179
370
     0
100
AcDbLine
 10
2399.8386894852
 20
328.3440977886
 30
0.0
 11
2432.3453057032
 21
328.3440977886
 31
0.0
  0
LINE
  5
88
330
1F
100
AcDbEntity
  8
0
  6
Continuous
 62
   179
370
     0
100
AcDbLine
 10
2432.3453057032
 20
328.3440977886
 30
0.0
 11
2432.3453057032
 21
321.1204052954
 31
0.0
  0
LINE
  5
89
330
1F
100
AcDbEntity
  8
0
  6
Continuous
 62
   179
370
     0
100
AcDbLine
 10
2432.3453057032
 20
321.1204052954
 30
0.0
 11
2399.8386894852
 21
321.1204052954
 31
0.0
  0
LINE
  5
8A
330
1F
100
AcDbEntity
  8
0
  6
Continuous
 62
   179
370
     0
100
AcDbLine
 10
2399.8386894852
 20
321.1204052954
 30
0.0
 11
2399.8386894852
 21
312.0907896797
 31
0.0
  0
LINE
  5
8B
330
1F
100
AcDbEntity
  8
0
  6
Continuous
 62
   179
370
     0
100
AcDbLine
 10
2399.8386894852
 20
312.0907896797
 30
0.0
 11
2435.9571519481
 21
312.0907896797
 31
0.0
  0
LINE
  5
8C
330
1F
100
AcDbEntity
  8
0
  6
Continuous
 62
   179
370
     0
100
AcDbLine
 10
2435.9571519481
 20
312.0907896797
 30
0.0
 11
2435.9571519481
 21
304.8670971899
 31
0.0
  0
LINE
  5
8D
330
1F
100
AcDbEntity
  8
0
  6
Continuous
 62
   179
370
     0
100
AcDbLine
 10
2435.9571519481
 20
304.8670971899
 30
0.0
 11
2381.7794582538
 21
304.8670971899
 31
0.0
  0
LINE
  5
8E
330
1F
100
AcDbEntity
  8
0
  6
Continuous
 62
   179
370
     0
100
AcDbLine
 10
2439.5689981967
 20
344.5974058976
 30
0.0
 11
2439.5689981967
 21
304.8670971877
 31
0.0
  0
LINE
  5
8F
330
1F
100
AcDbEntity
  8
0
  6
Continuous
 62
   179
370
     0
100
AcDbLine
 10
2439.5689981967
 20
344.5974058976
 30
0.0
 11
2472.0715260016
 21
344.5974058976
 31
0.0
  0
LINE
  5
90
330
1F
100
AcDbEntity
  8
0
  6
Continuous
 62
   179
370
     0
100
AcDbLine
 10
2472.0715260017
 20
304.8670971877
 30
0.0
 11
2439.5689981967
 21
304.8670971877
 31
0.0
  0
LINE
  5
91
330
1F
100
AcDbEntity
  8
0
  6
Continuous
 62
   179
370
     0
100
AcDbLine
 10
2455.8223063032
 20
324.7322515403
 30
0.0
 11
2455.8223063032
 21
313.8967128022
 31
0.0
  0
LINE
  5
92
330
1F
100
AcDbEntity
  8
0
  6
Continuous
 62
   179
370
     0
100
AcDbLine
 10
2455.8223063032
 20
313.8967128022
 30
0.0
 11
2472.947172768
 21
313.8967128022
 31
0.0
  0
LINE
  5
93
330
1F
100
AcDbEntity
  8
0
  6
Continuous
 62
   179
370
     0
100
AcDbLine
 10
2455.8223063032
 20
324.7322515403
 30
0.0
 11
2455.8223063032
 21
335.5677902827
 31
0.0
  0
LINE
  5
94
330
1F
100
AcDbEntity
  8
0
  6
Continuous
 62
   179
370
     0
100
AcDbLine
 10
2455.8223063032
 20
335.5677902827
 30
0.0
 11
2472.947172768
 21
335.5677902827
 31
0.0
  0
LINE
  5
95
330
1F
100
AcDbEntity
  8
0
  6
Continuous
 62
   179
370
     0
100
AcDbLine
 10
2504.5822306294
 20
344.5974059005
 30
0.0
 11
2504.5822306294
 21
304.8670971929
 31
0.0
  0
LINE
  5
96
330
1F
100
AcDbEntity
  8
0
  6
Continuous
 62
     7
370
     0
100
AcDbLine
 10
2728.7989947508
 20
280.0000000004
 30
0.0
 11
2728.7989947508
 21
190.0000000002
 31
0.0
  0
LINE
  5
97
330
1F
100
AcDbEntity
  8
0
  6
Continuous
 62
   179
370
     0
100
AcDbLine
 10
2504.5822306294
 20
304.8670971929
 30
0.0
 11
2520.8355387383
 21
304.8670971929
 31
0.0
  0
LINE
  5
98
330
1F
100
AcDbEntity
  8
0
  6
Continuous
 62
   179
370
     0
100
AcDbLine
 10
2520.8355387383
 20
304.8670971929
 30
0.0
 11
2520.8355387383
 21
319.3144821759
 31
0.0
  0
LINE
  5
99
330
1F
100
AcDbEntity
  8
0
  6
Continuous
 62
   179
370
     0
100
AcDbLine
 10
2520.8355387383
 20
319.3144821759
 30
0.0
 11
2538.8947699699
 21
319.3144821759
 31
0.0
  0
LINE
  5
9A
330
1F
100
AcDbEntity
  8
0
  6
Continuous
 62
   179
370
     0
100
AcDbLine
 10
2546.1184624631
 20
312.0907896827
 30
0.0
 11
2546.1184624631
 21
304.8670971919
 31
0.0
  0
LINE
  5
9B
330
1F
100
AcDbEntity
  8
0
  6
Continuous
 62
   179
370
     0
100
AcDbLine
 10
2520.8355387377
 20
326.5381746672
 30
0.0
 11
2520.8355387377
 21
337.3737134069
 31
0.0
  0
LINE
  5
9C
330
1F
100
AcDbEntity
  8
0
  6
Continuous
 62
   179
370
     0
100
AcDbLine
 10
2520.8355387377
 20
337.3737134069
 30
0.0
 11
2538.4781724187
 21
337.3737134069
 31
0.0
  0
LINE
  5
9D
330
1F
100
AcDbEntity
  8
0
  6
Continuous
 62
   179
370
     0
100
AcDbLine
 10
2520.8355387377
 20
326.5381746672
 30
0.0
 11
2538.4781724187
 21
326.5381746672
 31
0.0
  0
LINE
  5
9E
330
1F
100
AcDbEntity
  8
0
  6
Continuous
 62
   179
370
     0
100
AcDbLine
 10
2558.8702021926
 20
314.7709579587
 30
0.0
 11
2560.3555346507
 21
308.9676544183
 31
0.0
  0
LINE
  5
9F
330
1F
100
AcDbEntity
  8
0
  6
Continuous
 62
     7
370
    15
100
AcDbLine
 10
2870.0
 20
2000.0
 30
0.0
 11
100.0
 21
2000.0
 31
0.0
  0
LINE
  5
A0
330
1F
100
AcDbEntity
  8
0
  6
Continuous
 62
     7
370
     0
100
AcDbLine
 10
2728.7989947508
 20
190.0000000002
 30
0.0
 11
2728.7989947508
 21
100.0
 31
0.0
  0
LINE
  5
A1
330
1F
100
AcDbEntity
  8
0
  6
Continuous
 62
     7
370
    15
100
AcDbLine
 10
100.0
 20
2000.0
 30
0.0
 11
100.0
 21
100.0
 31
0.0
  0
LINE
  5
A2
330
1F
100
AcDbEntity
  8
0
  6
Continuous
 62
     7
370
    15
100
AcDbLine
 10
2150.0
 20
370.0000000006
 30
0.0
 11
2870.0
 21
370.0000000006
 31
0.0
  0
LINE
  5
A3
330
1F
100
AcDbEntity
  8
0
  6
Continuous
 62
    19
370
     0
100
AcDbLine
 10
2795.2884126839
 20
160.2788043096
 30
0.0
 11
2763.4182663121
 21
154.0818314039
 31
0.0
  0
LINE
  5
A4
330
1F
100
AcDbEntity
  8
0
  6
Continuous
 62
    19
370
     0
100
AcDbLine
 10
2821.3505851521
 20
165.4881573907
 30
0.0
 11
2821.3505851521
 21
124.881030118
 31
0.0
  0
LINE
  5
A5
330
1F
100
AcDbEntity
  8
0
  6
Continuous
 62
    19
370
     0
100
AcDbLine
 10
2795.2884126839
 20
160.2788043096
 30
0.0
 11
2795.2884126839
 21
130.0903831992
 31
0.0
  0
LINE
  5
A6
330
1F
100
AcDbEntity
  8
0
  6
Continuous
 62
     7
370
    15
100
AcDbLine
 10
100.0
 20
100.0
 30
0.0
 11
2870.0
 21
100.0
 31
0.0
  0
LINE
  5
A7
330
1F
100
AcDbEntity
  8
0
  6
Continuous
 62
    19
370
     0
100
AcDbLine
 10
2763.4182663121
 20
154.0818314039
 30
0.0
 11
2763.4182663121
 21
136.2873561048
 31
0.0
  0
LINE
  5
A8
330
1F
100
AcDbEntity
  8
0
  6
Continuous
 62
   179
370
     0
100
AcDbLine
 10
2546.1184624631
 20
304.8670971919
 30
0.0
 11
2576.8191555592
 21
304.8670971919
 31
0.0
  0
LINE
  5
A9
330
1F
100
AcDbEntity
  8
0
  6
Continuous
 62
    19
370
     0
100
AcDbLine
 10
2795.2884126839
 20
130.0903831992
 30
0.0
 11
2763.4182663121
 21
136.2873561048
 31
0.0
  0
LINE
  5
AA
330
1F
100
AcDbEntity
  8
0
  6
CENTERX2
 62
    19
370
     0
100
AcDbLine
 10
2838.9207124248
 20
145.1845937544
 30
0.0
 11
2759.4518690643
 21
145.1845937544
 31
0.0
  0
LINE
  5
AB
330
1F
100
AcDbEntity
  8
0
  6
Continuous
 62
   179
370
     0
100
AcDbLine
 10
2504.5822306294
 20
344.5974059005
 30
0.0
 11
2542.0192583058
 21
344.5974059005
 31
0.0
  0
LINE
  5
AC
330
1F
100
AcDbEntity
  8
0
  6
Continuous
 62
   179
370
     0
100
AcDbLine
 10
2381.7794582538
 20
344.5974058975
 30
0.0
 11
2381.7794582538
 21
304.8670971899
 31
0.0
  0
LINE
  5
AD
330
1F
100
AcDbEntity
  8
0
  6
Continuous
 62
   179
370
     0
100
AcDbLine
 10
2584.0428480525
 20
344.5974058996
 30
0.0
 11
2602.1020792839
 21
344.5974058996
 31
0.0
  0
LINE
  5
AE
330
1F
100
AcDbEntity
  8
0
  6
Continuous
 62
   179
370
     0
100
AcDbLine
 10
2584.0428480525
 20
344.5974058996
 30
0.0
 11
2560.7076448779
 21
307.9278009142
 31
0.0
  0
LINE
  5
AF
330
1F
100
AcDbEntity
  8
0
  6
Continuous
 62
   179
370
     0
100
AcDbLine
 10
2576.8191555592
 20
304.8670971919
 30
0.0
 11
2580.8824825864
 21
312.0907896817
 31
0.0
  0
LINE
  5
B0
330
1F
100
AcDbEntity
  8
0
  6
Continuous
 62
   179
370
     0
100
AcDbLine
 10
2593.0724636674
 20
333.7618671594
 30
0.0
 11
2601.1991177219
 21
319.3144821729
 31
0.0
  0
LINE
  5
B1
330
1F
100
AcDbEntity
  8
0
  6
Continuous
 62
   179
370
     0
100
AcDbLine
 10
2584.9458096129
 20
319.3144821729
 30
0.0
 11
2593.0724636674
 21
333.7618671594
 31
0.0
  0
LINE
  5
B2
330
1F
100
AcDbEntity
  8
0
  6
Continuous
 62
   179
370
     0
100
AcDbLine
 10
2584.9458096129
 20
319.3144821729
 30
0.0
 11
2601.1991177219
 21
319.3144821729
 31
0.0
  0
LINE
  5
B3
330
1F
100
AcDbEntity
  8
0
  6
Continuous
 62
   179
370
     0
100
AcDbLine
 10
2580.8824825864
 20
312.0907896817
 30
0.0
 11
2605.26244475
 21
312.0907896817
 31
0.0
  0
LINE
  5
B4
330
1F
100
AcDbEntity
  8
0
  6
Continuous
 62
   179
370
     0
100
AcDbLine
 10
2605.26244475
 20
312.0907896817
 30
0.0
 11
2609.3257717771
 21
304.8670971919
 31
0.0
  0
LINE
  5
B5
330
1F
100
AcDbEntity
  8
0
  6
Continuous
 62
   179
370
     0
100
AcDbLine
 10
2627.3850030087
 20
344.5974058996
 30
0.0
 11
2627.3850030087
 21
304.8670971919
 31
0.0
  0
LINE
  5
B6
330
1F
100
AcDbEntity
  8
0
  6
Continuous
 62
   179
370
     0
100
AcDbLine
 10
2602.1020792839
 20
344.5974058996
 30
0.0
 11
2627.3850030087
 21
304.8670971919
 31
0.0
  0
LINE
  5
B7
330
1F
100
AcDbEntity
  8
0
  6
Continuous
 62
   179
370
     0
100
AcDbLine
 10
2609.3257717771
 20
304.8670971919
 30
0.0
 11
2627.3850030087
 21
304.8670971919
 31
0.0
  0
LINE
  5
B8
330
1F
100
AcDbEntity
  8
0
  6
Continuous
 62
   179
370
     0
100
AcDbLine
 10
2627.3850030087
 20
304.8670971919
 30
0.0
 11
2676.1449273357
 21
304.8670971919
 31
0.0
  0
LINE
  5
B9
330
1F
100
AcDbEntity
  8
0
  6
Continuous
 62
   179
370
     0
100
AcDbLine
 10
2676.1449273357
 20
304.8670971919
 30
0.0
 11
2676.1449273357
 21
313.8967128076
 31
0.0
  0
LINE
  5
BA
330
1F
100
AcDbEntity
  8
0
  6
Continuous
 62
   179
370
     0
100
AcDbLine
 10
2676.1449273357
 20
313.8967128076
 30
0.0
 11
2645.44423424
 21
313.8967128076
 31
0.0
  0
LINE
  5
BB
330
1F
100
AcDbEntity
  8
0
  6
Continuous
 62
   179
370
     0
100
AcDbLine
 10
2645.44423424
 20
313.8967128076
 30
0.0
 11
2645.44423424
 21
344.5974058996
 31
0.0
  0
LINE
  5
BC
330
1F
100
AcDbEntity
  8
0
  6
Continuous
 62
   179
370
     0
100
AcDbLine
 10
2627.3850030087
 20
344.5974058996
 30
0.0
 11
2645.44423424
 21
344.5974058996
 31
0.0
  0
LINE
  5
BD
330
1F
100
AcDbEntity
  8
0
  6
Continuous
 62
   179
370
     0
100
AcDbLine
 10
2677.9508504573
 20
344.5974058992
 30
0.0
 11
2677.9508504573
 21
304.8670971915
 31
0.0
  0
LINE
  5
BE
330
1F
100
AcDbEntity
  8
0
  6
Continuous
 62
   179
370
     0
100
AcDbLine
 10
2696.0100816887
 20
344.5974058992
 30
0.0
 11
2696.0100816887
 21
304.8670971915
 31
0.0
  0
LINE
  5
BF
330
1F
100
AcDbEntity
  8
0
  6
Continuous
 62
   179
370
     0
100
AcDbLine
 10
2677.9508504573
 20
344.5974058992
 30
0.0
 11
2696.0100816887
 21
344.5974058992
 31
0.0
  0
LINE
  5
C0
330
1F
100
AcDbEntity
  8
0
  6
Continuous
 62
   179
370
     0
100
AcDbLine
 10
2677.9508504573
 20
304.8670971915
 30
0.0
 11
2696.0100816887
 21
304.8670971915
 31
0.0
  0
LINE
  5
C1
330
1F
100
AcDbEntity
  8
0
  6
Continuous
 62
   179
370
     0
100
AcDbLine
 10
2704.1151644241
 20
341.2930554229
 30
0.0
 11
2708.2866879839
 21
341.2930554229
 31
0.0
  0
LINE
  5
C2
330
1F
100
AcDbEntity
  8
0
  6
Continuous
 62
   179
370
     0
100
AcDbLine
 10
2708.2866879839
 20
338.5841707372
 30
0.0
 11
2704.1151644241
 21
338.5841707372
 31
0.0
  0
LINE
  5
C3
330
1F
100
AcDbEntity
  8
0
  6
Continuous
 62
   179
370
     0
100
AcDbLine
 10
2704.1151644241
 20
338.5841707372
 30
0.0
 11
2704.1151644241
 21
341.2930554229
 31
0.0
  0
LINE
  5
C4
330
1F
100
AcDbEntity
  8
0
  6
Continuous
 62
   179
370
     0
100
AcDbLine
 10
2704.1151644241
 20
338.5841707372
 30
0.0
 11
2706.8240491077
 21
338.5841707372
 31
0.0
  0
LINE
  5
C5
330
1F
100
AcDbEntity
  8
0
  6
Continuous
 62
   179
370
     0
100
AcDbLine
 10
2704.1151644241
 20
338.5841707372
 30
0.0
 11
2704.1151644241
 21
334.5208437117
 31
0.0
  0
LINE
  5
C6
330
1F
100
AcDbEntity
  8
0
  6
Continuous
 62
   179
370
     0
100
AcDbLine
 10
2709.5329337914
 20
334.5208437117
 30
0.0
 11
2706.8240491077
 21
338.5841707372
 31
0.0
  0
LINE
  5
C7
330
1F
100
AcDbEntity
  8
0
  6
Continuous
 62
     7
370
     0
100
AcDbLine
 10
2150.0
 20
190.0000000002
 30
0.0
 11
2870.0
 21
190.0000000002
 31
0.0
  0
LINE
  5
C8
330
1F
100
AcDbEntity
  8
0
  6
Continuous
 62
     7
370
     0
100
AcDbLine
 10
2870.0
 20
280.0000000004
 30
0.0
 11
2150.0
 21
280.0000000004
 31
0.0
  0
LINE
  5
C9
330
1F
100
AcDbEntity
  8
0
  6
Continuous
 62
     7
370
     0
100
AcDbLine
 10
100.0
 20
550.0
 30
0.0
 11
100.0
 21
650.0
 31
0.0
  0
LINE
  5
CA
330
1F
100
AcDbEntity
  8
0
  6
Continuous
 62
     7
370
     0
100
AcDbLine
 10
100.0
 20
650.0
 30
0.0
 11
100.0
 21
750.0
 31
0.0
  0
LINE
  5
CB
330
1F
100
AcDbEntity
  8
0
  6
Continuous
 62
     7
370
     0
100
AcDbLine
 10
100.0
 20
750.0
 30
0.0
 11
100.0
 21
850.0
 31
0.0
  0
LINE
  5
CC
330
1F
100
AcDbEntity
  8
0
  6
Continuous
 62
     7
370
     0
100
AcDbLine
 10
100.0
 20
850.0
 30
0.0
 11
100.0
 21
950.0
 31
0.0
  0
LINE
  5
CD
330
1F
100
AcDbEntity
  8
0
  6
Continuous
 62
     7
370
     0
100
AcDbLine
 10
100.0
 20
950.0
 30
0.0
 11
100.0
 21
1050.0
 31
0.0
  0
LINE
  5
CE
330
1F
100
AcDbEntity
  8
0
  6
Continuous
 62
     7
370
     0
100
AcDbLine
 10
100.0
 20
1050.0
 30
0.0
 11
100.0
 21
1150.0
 31
0.0
  0
LINE
  5
CF
330
1F
100
AcDbEntity
  8
0
  6
Continuous
 62
     7
370
     0
100
AcDbLine
 10
100.0
 20
1150.0
 30
0.0
 11
100.0
 21
1250.0
 31
0.0
  0
LINE
  5
D0
330
1F
100
AcDbEntity
  8
0
  6
Continuous
 62
     7
370
     0
100
AcDbLine
 10
100.0
 20
1250.0
 30
0.0
 11
100.0
 21
1350.0
 31
0.0
  0
LINE
  5
D1
330
1F
100
AcDbEntity
  8
0
  6
Continuous
 62
     7
370
     0
100
AcDbLine
 10
100.0
 20
1350.0
 30
0.0
 11
100.0
 21
1450.0
 31
0.0
  0
LINE
  5
D2
330
1F
100
AcDbEntity
  8
0
  6
Continuous
 62
     7
370
     0
100
AcDbLine
 10
100.0
 20
1450.0
 30
0.0
 11
100.0
 21
1550.0
 31
0.0
  0
LINE
  5
D3
330
1F
100
AcDbEntity
  8
0
  6
Continuous
 62
     7
370
    15
100
AcDbLine
 10
2150.0
 20
370.0000000006
 30
0.0
 11
2150.0
 21
100.0
 31
0.0
  0
ARC
  5
D4
330
1F
100
AcDbEntity
  8
0
  6
Continuous
 62
   179
370
     0
100
AcDbCircle
 10
2352.923880981
 20
330.1500209155
 30
0.0
 40
7.223692490816169
100
AcDbArc
 50
69.991210111
 51
90.0
  0
ARC
  5
D5
330
1F
100
AcDbEntity
  8
0
  6
Continuous
 62
   179
370
     0
100
AcDbCircle
 10
2352.9238809804
 20
333.7618671601
 30
0.0
 40
7.223692492544103
100
AcDbArc
 50
270.0
 51
290.0087898887
  0
ARC
  5
D6
330
1F
100
AcDbEntity
  8
0
  6
Continuous
 62
   179
370
     0
100
AcDbCircle
 10
2472.947172768
 20
324.7322515422
 30
0.0
 40
10.8355387405187
100
AcDbArc
 50
56.1685552524
 51
90.0
  0
ARC
  5
D7
330
1F
100
AcDbEntity
  8
0
  6
Continuous
 62
   179
370
     0
100
AcDbCircle
 10
2472.947172768
 20
324.7322515422
 30
0.0
 40
10.83553873998012
100
AcDbArc
 50
270.0
 51
303.830934914
  0
ARC
  5
D8
330
1F
100
AcDbEntity
  8
0
  6
Continuous
 62
   179
370
     0
100
AcDbCircle
 10
2538.8947699699
 20
312.0907896827
 30
0.0
 40
7.223692493244471
100
AcDbArc
 50
0.0
 51
90.0
  0
ARC
  5
D9
330
1F
100
AcDbEntity
  8
0
  6
Continuous
 62
   179
370
     0
100
AcDbCircle
 10
2538.4781724187
 20
331.9559440374
 30
0.0
 40
5.417769369443558
100
AcDbArc
 50
54.413089495
 51
90.0
  0
ARC
  5
DA
330
1F
100
AcDbEntity
  8
0
  6
Continuous
 62
   179
370
     0
100
AcDbCircle
 10
2538.4781724187
 20
331.9559440374
 30
0.0
 40
5.417769370214614
100
AcDbArc
 50
270.0
 51
305.5869104966
  0
ARC
  5
DB
330
1F
100
AcDbEntity
  8
0
  6
Continuous
 62
   179
370
     0
100
AcDbCircle
 10
2549.0375849296
 20
312.9627960708
 30
0.0
 40
9.997490267756625
100
AcDbArc
 50
10.4199484279
 51
80.7321727594
  0
ARC
  5
DC
330
1F
100
AcDbEntity
  8
0
  6
Continuous
 62
   179
370
     0
100
AcDbCircle
 10
2565.4535666376
 20
310.1143839674
 30
0.0
 40
5.225410873593643
100
AcDbArc
 50
192.6768785101
 51
204.7368873207
  0
CIRCLE
  5
DD
330
1F
100
AcDbEntity
  8
0
  6
Continuous
 62
   179
370
     0
100
AcDbCircle
 10
2706.2864208618
 20
337.8675697335
 30
0.0
 40
5.930102145230649
  0
CIRCLE
  5
DE
330
1F
100
AcDbEntity
  8
0
  6
Continuous
 62
    19
370
     0
100
AcDbCircle
 10
2821.3505851521
 20
145.1845937544
 30
0.0
 40
8.587078762764193
  0
CIRCLE
  5
DF
330
1F
100
AcDbEntity
  8
0
  6
Continuous
 62
    19
370
     0
100
AcDbCircle
 10
2821.3505851521
 20
145.1845937544
 30
0.0
 40
16.77593581663705
  0
ELLIPSE
  5
E0
330
1F
100
AcDbEntity
  8
0
  6
Continuous
 62
   179
370
     0
100
AcDbEllipse
 10
2350.175803597
 20
331.955944037
 30
0.0
 11
9.932577177642086
 21
0.0
 31
0.0
210
0.0
220
0.0
230
1.0
 40
0.5895245511
 41
5.265715075739357
 42
7.300655538615938
  0
ELLIPSE
  5
E1
330
1F
100
AcDbEntity
  8
0
  6
Continuous
 62
   179
370
     0
100
AcDbEllipse
 10
2462.1430372376
 20
324.7322515426
 30
0.0
 11
22.57403904004605
 21
0.0
 31
0.0
210
0.0
220
0.0
230
1.0
 40
0.5985848325
 41
5.554193105221712
 42
7.012172182744729
  0
ELLIPSE
  5
E2
330
1F
100
AcDbEntity
  8
0
  6
Continuous
 62
   179
370
     0
100
AcDbEllipse
 10
2532.5740390411
 20
331.955944037
 30
0.0
 11
11.73850030081758
 21
0.0
 31
0.0
210
0.0
220
0.0
230
1.0
 40
0.5900077182
 41
5.593675727225931
 42
6.97269488710657
  0
ELLIPSE
  5
E3
330
1F
100
AcDbEntity
  8
0
  6
Continuous
 62
   179
370
     0
100
AcDbEllipse
 10
2538.0299477069
 20
332.9364020823
 30
0.0
 11
24.3266662253518
 21
0.0
 31
0.0
210
0.0
220
0.0
230
1.0
 40
0.485929116
 41
5.257694056962849
 42
7.689248379254996
  0
ELLIPSE
  5
E4
330
1F
100
AcDbEntity
  8
0
  6
Continuous
 62
   179
370
     0
100
AcDbEllipse
 10
2468.4637681651
 20
324.7322515426
 30
0.0
 11
28.89476997115571
 21
0.0
 31
0.0
210
0.0
220
0.0
230
1.0
 40
0.6929224243
 41
4.837574201223028
 42
7.72879641314261
  0
ELLIPSE
  5
E5
330
1F
100
AcDbEntity
  8
0
  6
Continuous
 62
   179
370
     0
100
AcDbEllipse
 10
2351.0787651571
 20
331.955944037
 30
0.0
 11
27.0888468479834
 21
0.0
 31
0.0
210
0.0
220
0.0
230
1.0
 40
0.4768529109
 41
4.919453630382234
 42
7.646916983963972
  0
ELLIPSE
  5
E6
330
1F
100
AcDbEntity
  8
0
  6
Continuous
 62
   179
370
     0
100
AcDbEllipse
 10
2708.0427484413
 20
339.93861308
 30
0.0
 11
1.490185355941776
 21
0.0
 31
0.0
210
0.0
220
0.0
230
1.0
 40
0.9213369296
 41
4.876826485633947
 42
7.68954412872528
  0
MTEXT
  5
E8
330
1F
100
AcDbEntity
  8
0
  6
Continuous
 62
     7
370
     0
100
AcDbMText
 10
2231.444945447
 20
165.6379924371
 30
0.0
 40
37.0416666667
 41
0.0
 71
     1
 72
     1
  1
4903
  7
SLDTEXTSTYLE0
 73
     1
 44
1.0
  0
MTEXT
  5
E9
330
1F
100
AcDbEntity
  8
0
  6
Continuous
 62
     7
370
     0
100
AcDbMText
 10
2158.8845987823
 20
146.3871334973
 30
0.0
 40
18.0
 41
0.0
 71
     1
 72
     1
  1
COD.
  7
SLDTEXTSTYLE0
 73
     1
 44
1.0
  0
MTEXT
  5
EA
330
1F
100
AcDbEntity
  8
0
  6
Continuous
 62
     7
370
     0
100
AcDbMText
 10
107.0855178468
 20
74.7215172182
 30
0.0
 40
18.0
 41
0.0
 71
     1
 72
     1
  1
This document is the property of PEDRALI S.p.A. who willsafeguard its rights according to the civil and penal prevision of the Law.
  7
SLDTEXTSTYLE0
 73
     1
 44
1.0
  0
INSERT
  5
F0
330
1F
100
AcDbEntity
  8
0
  6
Continuous
 62
     7
370
     0
100
AcDbBlockReference
  2
SW_NOTE_0
 10
1440.8605986612
 20
53.5813398756
 30
0.0
  0
MTEXT
  5
F1
330
1F
100
AcDbEntity
  8
0
  6
Continuous
 62
     7
370
     0
100
AcDbMText
 10
2158.8845987823
 20
234.3102099637
 30
0.0
 40
18.0
 41
0.0
 71
     1
 72
     1
  1
SERIE:
  7
SLDTEXTSTYLE0
 73
     1
 44
1.0
  0
MTEXT
  5
F2
330
1F
100
AcDbEntity
  8
0
  6
Continuous
 62
     7
370
     0
100
AcDbMText
 10
2231.444945447
 20
253.5610689035
 30
0.0
 40
37.0416666667
 41
0.0
 71
     1
 72
     1
  1
INOX
  7
SLDTEXTSTYLE0
 73
     1
 44
1.0
  0
INSERT
  5
F8
330
1F
100
AcDbEntity
  8
0
  6
Continuous
 62
     7
370
     0
100
AcDbBlockReference
  2
SW_NOTE_1
 10
2766.9883061954
 20
242.6632128381
 30
0.0
  0
LINE
  5
F9
330
1F
100
AcDbEntity
  8
0
  6
Continuous
 62
     7
370
    15
100
AcDbLine
 10
1266.8628150795
 20
1149.7930985627
 30
0.0
 11
1266.8628150795
 21
1154.7930985627
 31
0.0
  0
LINE
  5
FA
330
1F
100
AcDbEntity
  8
0
  6
Continuous
 62
     7
370
    15
100
AcDbLine
 10
1248.8628150795
 20
1154.7930985627
 30
0.0
 11
1248.8628150795
 21
1149.7930985627
 31
0.0
  0
LINE
  5
FB
330
1F
100
AcDbEntity
  8
0
  6
Continuous
 62
     7
370
    15
100
AcDbLine
 10
1426.8628150795
 20
1149.7930985627
 30
0.0
 11
1426.8628150795
 21
1154.7930985627
 31
0.0
  0
LINE
  5
FC
330
1F
100
AcDbEntity
  8
0
  6
Continuous
 62
     7
370
    15
100
AcDbLine
 10
1408.8628150795
 20
1154.7930985627
 30
0.0
 11
1408.8628150795
 21
1149.7930985627
 31
0.0
  0
LINE
  5
FD
330
1F
100
AcDbEntity
  8
0
  6
Continuous
 62
     7
370
    15
100
AcDbLine
 10
1106.8628150795
 20
1149.7930985627
 30
0.0
 11
1106.8628150795
 21
1154.7930985627
 31
0.0
  0
LINE
  5
FE
330
1F
100
AcDbEntity
  8
0
  6
Continuous
 62
     7
370
    15
100
AcDbLine
 10
1088.8628150795
 20
1154.7930985627
 30
0.0
 11
1088.8628150795
 21
1149.7930985627
 31
0.0
  0
LINE
  5
FF
330
1F
100
AcDbEntity
  8
0
  6
Continuous
 62
     7
370
    15
100
AcDbLine
 10
946.8628150795
 20
1149.7930985627
 30
0.0
 11
946.8628150795
 21
1154.7930985627
 31
0.0
  0
LINE
  5
100
330
1F
100
AcDbEntity
  8
0
  6
Continuous
 62
     7
370
    15
100
AcDbLine
 10
928.8628150795
 20
1154.7930985627
 30
0.0
 11
928.8628150795
 21
1149.7930985627
 31
0.0
  0
LINE
  5
101
330
1F
100
AcDbEntity
  8
0
  6
Continuous
 62
     7
370
    15
100
AcDbLine
 10
1015.6988181551
 20
1550.7930985627
 30
0.0
 11
1016.9636856674
 21
1541.7930985627
 31
0.0
  0
LINE
  5
102
330
1F
100
AcDbEntity
  8
0
  6
Continuous
 62
     7
370
    15
100
AcDbLine
 10
1338.7619444916
 20
1541.7930985627
 30
0.0
 11
1340.0268120039
 21
1550.7930985627
 31
0.0
  0
LINE
  5
103
330
1F
100
AcDbEntity
  8
0
  6
Continuous
 62
     7
370
    15
100
AcDbLine
 10
1229.9898350466
 20
1526.7930985627
 30
0.0
 11
1230.0596904506
 21
1527.2901455891
 31
0.0
  0
LINE
  5
104
330
1F
100
AcDbEntity
  8
0
  6
Continuous
 62
     7
370
    15
100
AcDbLine
 10
1125.6659397084
 20
1527.2901455891
 30
0.0
 11
1125.7357951123
 21
1526.7930985627
 31
0.0
  0
LINE
  5
105
330
1F
100
AcDbEntity
  8
0
  6
Continuous
 62
     7
370
    15
100
AcDbLine
 10
1147.8628150795
 20
1526.7930985627
 30
0.0
 11
1147.8628150795
 21
1165.7930985627
 31
0.0
  0
LINE
  5
106
330
1F
100
AcDbEntity
  8
0
  6
Continuous
 62
     7
370
    15
100
AcDbLine
 10
1207.8628150795
 20
1165.7930985627
 30
0.0
 11
1207.8628150795
 21
1526.7930985627
 31
0.0
  0
LINE
  5
107
330
1F
100
AcDbEntity
  8
0
  6
Continuous
 62
     7
370
    15
100
AcDbLine
 10
1478.8628150795
 20
1154.7930985627
 30
0.0
 11
1478.8628150795
 21
1165.7930985627
 31
0.0
  0
LINE
  5
108
330
1F
100
AcDbEntity
  8
0
  6
Continuous
 62
     7
370
    15
100
AcDbLine
 10
876.8628150795
 20
1165.7930985627
 30
0.0
 11
876.8628150795
 21
1154.7930985627
 31
0.0
  0
LINE
  5
109
330
1F
100
AcDbEntity
  8
0
  6
Continuous
 62
     7
370
    15
100
AcDbLine
 10
1266.8628150795
 20
1149.7930985627
 30
0.0
 11
1248.8628150795
 21
1149.7930985627
 31
0.0
  0
LINE
  5
10A
330
1F
100
AcDbEntity
  8
0
  6
Continuous
 62
     7
370
    15
100
AcDbLine
 10
1426.8628150795
 20
1149.7930985627
 30
0.0
 11
1408.8628150795
 21
1149.7930985627
 31
0.0
  0
LINE
  5
10B
330
1F
100
AcDbEntity
  8
0
  6
Continuous
 62
     7
370
    15
100
AcDbLine
 10
1106.8628150795
 20
1149.7930985627
 30
0.0
 11
1088.8628150795
 21
1149.7930985627
 31
0.0
  0
LINE
  5
10C
330
1F
100
AcDbEntity
  8
0
  6
Continuous
 62
     7
370
    15
100
AcDbLine
 10
946.8628150795
 20
1149.7930985627
 30
0.0
 11
928.8628150795
 21
1149.7930985627
 31
0.0
  0
LINE
  5
10D
330
1F
100
AcDbEntity
  8
0
  6
Continuous
 62
     7
370
    15
100
AcDbLine
 10
1042.6189816213
 20
1541.7930985627
 30
0.0
 11
1016.9636856674
 21
1541.7930985627
 31
0.0
  0
LINE
  5
10E
330
1F
100
AcDbEntity
  8
0
  6
Continuous
 62
     7
370
    15
100
AcDbLine
 10
1043.4840956105
 20
1550.7930985627
 30
0.0
 11
1015.6988181551
 21
1550.7930985627
 31
0.0
  0
LINE
  5
10F
330
1F
100
AcDbEntity
  8
0
  6
Continuous
 62
     7
370
    15
100
AcDbLine
 10
1338.7619444916
 20
1541.7930985627
 30
0.0
 11
1313.1066485377
 21
1541.7930985627
 31
0.0
  0
LINE
  5
110
330
1F
100
AcDbEntity
  8
0
  6
Continuous
 62
     7
370
    15
100
AcDbLine
 10
1340.0268120039
 20
1550.7930985627
 30
0.0
 11
1312.2415345485
 21
1550.7930985627
 31
0.0
  0
LINE
  5
111
330
1F
100
AcDbEntity
  8
0
  6
Continuous
 62
     7
370
    15
100
AcDbLine
 10
1156.6171885269
 20
1541.7930985627
 30
0.0
 11
1156.8855058447
 21
1550.7930985627
 31
0.0
  0
LINE
  5
112
330
1F
100
AcDbEntity
  8
0
  6
Continuous
 62
     7
370
    15
100
AcDbLine
 10
1156.6171885269
 20
1541.7930985627
 30
0.0
 11
1042.6189816213
 21
1541.7930985627
 31
0.0
  0
LINE
  5
113
330
1F
100
AcDbEntity
  8
0
  6
Continuous
 62
     7
370
    15
100
AcDbLine
 10
1156.8855058447
 20
1550.7930985627
 30
0.0
 11
1043.4840956105
 21
1550.7930985627
 31
0.0
  0
LINE
  5
114
330
1F
100
AcDbEntity
  8
0
  6
Continuous
 62
     7
370
    15
100
AcDbLine
 10
1198.8401243142
 20
1550.7930985627
 30
0.0
 11
1199.1084416321
 21
1541.7930985627
 31
0.0
  0
LINE
  5
115
330
1F
100
AcDbEntity
  8
0
  6
Continuous
 62
     7
370
    15
100
AcDbLine
 10
1313.1066485377
 20
1541.7930985627
 30
0.0
 11
1199.1084416321
 21
1541.7930985627
 31
0.0
  0
LINE
  5
116
330
1F
100
AcDbEntity
  8
0
  6
Continuous
 62
     7
370
    15
100
AcDbLine
 10
1312.2415345485
 20
1550.7930985627
 30
0.0
 11
1198.8401243142
 21
1550.7930985627
 31
0.0
  0
LINE
  5
117
330
1F
100
AcDbEntity
  8
0
  6
Continuous
 62
     7
370
    15
100
AcDbLine
 10
1135.6299792353
 20
1526.8288711109
 30
0.0
 11
1136.4916436225
 21
1541.7930985627
 31
0.0
  0
ELLIPSE
  5
118
330
1F
100
AcDbEntity
  8
0
  6
Continuous
 62
     7
370
    15
100
AcDbEllipse
 10
1147.4701984866
 20
1626.7930985627
 30
0.0
 11
19.60733431093399
 21
99.05688260925785
 31
0.0
210
0.0
220
0.0
230
1.0
 40
0.6988000414
 41
3.225604728451088
 42
3.252292373625867
  0
LINE
  5
119
330
1F
100
AcDbEntity
  8
0
  6
Continuous
 62
     7
370
    15
100
AcDbLine
 10
1048.5244248842
 20
1533.3806634105
 30
0.0
 11
1133.7405755346
 21
1526.9358368091
 31
0.0
  0
ELLIPSE
  5
11A
330
1F
100
AcDbEntity
  8
0
  6
Continuous
 62
     7
370
    15
100
AcDbEllipse
 10
1049.6227947203
 20
1541.3692443508
 30
0.0
 11
1.568586744874665
 21
7.924550608740675
 31
0.0
210
0.0
220
0.0
230
1.0
 40
0.6988000414
 41
1.847871099546709
 42
3.225604728451084
  0
LINE
  5
11B
330
1F
100
AcDbEntity
  8
0
  6
Continuous
 62
     7
370
    15
100
AcDbLine
 10
1043.8672507229
 20
1540.2558595431
 30
0.0
 11
1043.8660800446
 21
1541.7930985627
 31
0.0
  0
ELLIPSE
  5
11C
330
1F
100
AcDbEntity
  8
0
  6
Continuous
 62
     7
370
    15
100
AcDbEllipse
 10
1208.2554316724
 20
1626.7930985627
 30
0.0
 11
-19.60733431093399
 21
99.05688260925785
 31
0.0
210
0.0
220
0.0
230
1.0
 40
0.6988000414
 41
3.030892933553752
 42
3.057580578728521
  0
LINE
  5
11D
330
1F
100
AcDbEntity
  8
0
  6
Continuous
 62
     7
370
    15
100
AcDbLine
 10
1219.2339865365
 20
1541.7930985627
 30
0.0
 11
1220.0956509237
 21
1526.8288711109
 31
0.0
  0
LINE
  5
11E
330
1F
100
AcDbEntity
  8
0
  6
Continuous
 62
     7
370
    15
100
AcDbLine
 10
1311.8583794361
 20
1540.2558595431
 30
0.0
 11
1311.8595501143
 21
1541.7930985627
 31
0.0
  0
ELLIPSE
  5
11F
330
1F
100
AcDbEntity
  8
0
  6
Continuous
 62
     7
370
    15
100
AcDbEllipse
 10
1306.1028354386
 20
1541.3692443508
 30
0.0
 11
-1.568586744874892
 21
7.924550608740674
 31
0.0
210
0.0
220
0.0
230
1.0
 40
0.6988000414
 41
3.057580578728481
 42
4.435314207632873
  0
LINE
  5
120
330
1F
100
AcDbEntity
  8
0
  6
Continuous
 62
     7
370
    15
100
AcDbLine
 10
1221.9850546243
 20
1526.9358368091
 30
0.0
 11
1307.2012052748
 21
1533.3806634105
 31
0.0
  0
LINE
  5
121
330
1F
100
AcDbEntity
  8
0
  6
Continuous
 62
     7
370
    15
100
AcDbLine
 10
1039.220695462
 20
1540.2558595431
 30
0.0
 11
1038.9163325763
 21
1541.7930985627
 31
0.0
  0
LINE
  5
122
330
1F
100
AcDbEntity
  8
0
  6
Continuous
 62
     7
370
    15
100
AcDbLine
 10
1316.5049346969
 20
1540.2558595431
 30
0.0
 11
1316.8092975826
 21
1541.7930985627
 31
0.0
  0
ELLIPSE
  5
123
330
1F
100
AcDbEntity
  8
0
  6
Continuous
 62
     7
370
    15
100
AcDbEllipse
 10
1044.6687557302
 20
1541.3692443508
 30
0.0
 11
-1.524813188785402
 21
7.930814065535742
 31
0.0
210
0.0
220
0.0
230
1.0
 40
0.688511582
 41
1.578811603715082
 42
2.956545232619417
  0
ELLIPSE
  5
124
330
1F
100
AcDbEntity
  8
0
  6
Continuous
 62
     7
370
    15
100
AcDbEllipse
 10
1311.0568744288
 20
1541.3692443508
 30
0.0
 11
1.524813188785175
 21
7.930814065535743
 31
0.0
210
0.0
220
0.0
230
1.0
 40
0.688511582
 41
3.326640074560111
 42
4.704373703464495
  0
LINE
  5
125
330
1F
100
AcDbEntity
  8
0
  6
Continuous
 62
     7
370
    15
100
AcDbLine
 10
1130.3491131891
 20
1526.9358368091
 30
0.0
 11
1045.1628498668
 21
1533.3806634105
 31
0.0
  0
LINE
  5
126
330
1F
100
AcDbEntity
  8
0
  6
Continuous
 62
     7
370
    15
100
AcDbLine
 10
1310.5627802922
 20
1533.3806634105
 30
0.0
 11
1225.3765169698
 21
1526.9358368091
 31
0.0
  0
LINE
  5
127
330
1F
100
AcDbEntity
  8
0
  6
Continuous
 62
     7
370
    15
100
AcDbLine
 10
1203.069981909
 20
1526.7930985627
 30
0.0
 11
1203.6078480439
 21
1541.7930985627
 31
0.0
  0
LINE
  5
128
330
1F
100
AcDbEntity
  8
0
  6
Continuous
 62
     7
370
    15
100
AcDbLine
 10
1152.6556482499
 20
1526.7930985627
 30
0.0
 11
1152.1177821151
 21
1541.7930985627
 31
0.0
  0
LINE
  5
129
330
1F
100
AcDbEntity
  8
0
  6
Continuous
 62
     7
370
    15
100
AcDbLine
 10
1203.069981909
 20
1526.7930985627
 30
0.0
 11
1152.6556482499
 21
1526.7930985627
 31
0.0
  0
LINE
  5
12A
330
1F
100
AcDbEntity
  8
0
  6
Continuous
 62
     7
370
    15
100
AcDbLine
 10
1198.8401243142
 20
1550.7930985627
 30
0.0
 11
1156.8855058447
 21
1550.7930985627
 31
0.0
  0
ELLIPSE
  5
12B
330
1F
100
AcDbEntity
  8
0
  6
Continuous
 62
     7
370
    15
100
AcDbEllipse
 10
1202.2642068334
 20
1626.7930985627
 30
0.0
 11
141.4962048075658
 21
-19.14385769769478
 31
0.0
210
0.0
220
0.0
230
1.0
 40
0.6936614286
 41
4.905016603419325
 42
4.931765315975571
  0
LINE
  5
12C
330
1F
100
AcDbEntity
  8
0
  6
Continuous
 62
     7
370
    15
100
AcDbLine
 10
1216.3182903036
 20
1526.7930985627
 30
0.0
 11
1203.069981909
 21
1526.7930985627
 31
0.0
  0
ELLIPSE
  5
12D
330
1F
100
AcDbEntity
  8
0
  6
Continuous
 62
     7
370
    15
100
AcDbEllipse
 10
1153.4614233256
 20
1626.7930985627
 30
0.0
 11
141.4962048075654
 21
19.143857697695
 31
0.0
210
0.0
220
0.0
230
1.0
 40
0.6936614286
 41
4.493012644793835
 42
4.519761357350072
  0
LINE
  5
12E
330
1F
100
AcDbEntity
  8
0
  6
Continuous
 62
     7
370
    15
100
AcDbLine
 10
1152.6556482499
 20
1526.7930985627
 30
0.0
 11
1139.4073398554
 21
1526.7930985627
 31
0.0
  0
LINE
  5
12F
330
1F
100
AcDbEntity
  8
0
  6
Continuous
 62
     7
370
    15
100
AcDbLine
 10
1223.4948625504
 20
1526.8288711109
 30
0.0
 11
1223.4898350466
 21
1526.7930985627
 31
0.0
  0
LINE
  5
130
330
1F
100
AcDbEntity
  8
0
  6
Continuous
 62
     7
370
    15
100
AcDbLine
 10
1223.4898350466
 20
1526.7930985627
 30
0.0
 11
1216.3182903036
 21
1526.7930985627
 31
0.0
  0
ELLIPSE
  5
131
330
1F
100
AcDbEntity
  8
0
  6
Continuous
 62
     7
370
    15
100
AcDbEllipse
 10
1231.5526936779
 20
1626.7930985627
 30
0.0
 11
19.06016485981672
 21
99.13517581919496
 31
0.0
210
0.0
220
0.0
230
1.0
 40
0.688511582
 41
3.299952429385403
 42
3.326640074560174
  0
LINE
  5
132
330
1F
100
AcDbEntity
  8
0
  6
Continuous
 62
     7
370
    15
100
AcDbLine
 10
1132.2357951123
 20
1526.7930985627
 30
0.0
 11
1132.2307676086
 21
1526.8288711109
 31
0.0
  0
LINE
  5
133
330
1F
100
AcDbEntity
  8
0
  6
Continuous
 62
     7
370
    15
100
AcDbLine
 10
1139.4073398554
 20
1526.7930985627
 30
0.0
 11
1132.2357951123
 21
1526.7930985627
 31
0.0
  0
ELLIPSE
  5
134
330
1F
100
AcDbEntity
  8
0
  6
Continuous
 62
     7
370
    15
100
AcDbEllipse
 10
1124.1729364811
 20
1626.7930985627
 30
0.0
 11
-19.06016485981695
 21
99.13517581919497
 31
0.0
210
0.0
220
0.0
230
1.0
 40
0.688511582
 41
2.956545232619429
 42
2.98323287779419
  0
LINE
  5
135
330
1F
100
AcDbEntity
  8
0
  6
Continuous
 62
     7
370
    15
100
AcDbLine
 10
1229.9898350466
 20
1526.7930985627
 30
0.0
 11
1223.4898350466
 21
1526.7930985627
 31
0.0
  0
LINE
  5
136
330
1F
100
AcDbEntity
  8
0
  6
Continuous
 62
     7
370
    15
100
AcDbLine
 10
1132.2357951123
 20
1526.7930985627
 30
0.0
 11
1125.7357951123
 21
1526.7930985627
 31
0.0
  0
SPLINE
  5
137
330
1F
100
AcDbEntity
  8
0
  6
Continuous
 62
     7
370
    15
100
AcDbSpline
210
0.0
220
0.0
230
1.0
 70
    24
 71
     3
 72
   137
 73
   133
 74
     0
 42
0.000000001
 43
0.00000001
 40
0.0
 40
0.0
 40
0.0
 40
0.0
 40
0.0058165929263487
 40
0.0116369804985388
 40
0.0174649072114748
 40
0.023304062777212
 40
0.0291580806780038
 40
0.0350305370837181
 40
0.0405875033486889
 40
0.0461668901210555
 40
0.051771552203157
 40
0.0574042661232391
 40
0.0630676698411049
 40
0.0687642825337813
 40
0.0744965115262026
 40
0.0802666558601417
 40
0.0860769101926388
 40
0.0919293689692472
 40
0.0977203412095769
 40
0.1035557595800934
 40
0.1094373035950623
 40
0.1153664486972973
 40
0.1214536830659857
 40
0.1275929474710003
 40
0.1337854170124252
 40
0.1400321570496743
 40
0.1463341304380964
 40
0.1525781763265134
 40
0.1588770760655533
 40
0.1652314464052458
 40
0.171641672924923
 40
0.1793460069388765
 40
0.1871301175827319
 40
0.1949940850355905
 40
0.2029378307883859
 40
0.2109611333679094
 40
0.2190636432616532
 40
0.2264815977472774
 40
0.2339636231145805
 40
0.2415088961550439
 40
0.2491165011788719
 40
0.2567854390725796
 40
0.264514635888509
 40
0.2736997977933544
 40
0.2829651041695893
 40
0.2923084448929798
 40
0.3017273388043448
 40
0.311413511641623
 40
0.3211725176891261
 40
0.3310012407577302
 40
0.34089647403281
 40
0.3508549361753896
 40
0.3608732678100184
 40
0.3709478572217313
 40
0.3810748951339999
 40
0.3912504926132362
 40
0.4014706972896339
 40
0.4117315075958852
 40
0.4220288865078262
 40
0.4323587686957145
 40
0.4427169753285152
 40
0.4522332348154143
 40
0.4617663453113408
 40
0.4713129453999249
 40
0.4808696611880098
 40
0.4904331145269524
 40
0.4999999311754621
 40
0.510413552110659
 40
0.5208228342143512
 40
0.5312234243196963
 40
0.54161096580064
 40
0.551981111063106
 40
0.5621449614931409
 40
0.5722837924867271
 40
0.5823935971495477
 40
0.5924705052489571
 40
0.6027151903994221
 40
0.6129176278597309
 40
0.6230738345018351
 40
0.6331798821546404
 40
0.6432319120735376
 40
0.6532261683657867
 40
0.6631591648937099
 40
0.6730275821792411
 40
0.6828281674765426
 40
0.6925577490513738
 40
0.7022132526296309
 40
0.7117917187724635
 40
0.7212903370063374
 40
0.7307066661412707
 40
0.7392641993716101
 40
0.7477492010146627
 40
0.756160189966829
 40
0.7644957906610617
 40
0.7727547467931857
 40
0.7809359358714782
 40
0.7882891440484374
 40
0.7955772079777118
 40
0.8027998541452195
 40
0.8099568938970967
 40
0.817048232494052
 40
0.8240738786068104
 40
0.8306380157115373
 40
0.8371440643376032
 40
0.8435923342888724
 40
0.8499833229780812
 40
0.8563177485520571
 40
0.8625964262774536
 40
0.8688202627942101
 40
0.8749902631120581
 40
0.8811075377663807
 40
0.8871733101069841
 40
0.8930819398596261
 40
0.8989435789553645
 40
0.9047597856595735
 40
0.9105323085004174
 40
0.9163668027753726
 40
0.922159959841887
 40
0.9279139156865046
 40
0.9336309082890795
 40
0.9393132816871608
 40
0.9448628681960066
 40
0.9503838587374803
 40
0.9558788039508326
 40
0.9613503714699636
 40
0.9669123198010048
 40
0.9724556958378601
 40
0.9779834826709258
 40
0.9834987095286088
 40
0.9890044511684285
 40
0.9945038270085171
 40
1.0
 40
1.0
 40
1.0
 40
1.0
 10
1478.86281507949
 20
1165.793098562679
 30
0.0
 10
1478.847384341363
 20
1165.793098562679
 30
0.0
 10
1478.816512798358
 20
1165.793098562679
 30
0.0
 10
1478.56723533713
 20
1165.793098562679
 30
0.0
 10
1478.169885791307
 20
1165.793098562679
 30
0.0
 10
1477.610233118202
 20
1165.793098562679
 30
0.0
 10
1476.892599950733
 20
1165.793098562679
 30
0.0
 10
1476.033102656417
 20
1165.793098562679
 30
0.0
 10
1475.042776539166
 20
1165.793098562679
 30
0.0
 10
1473.931806737184
 20
1165.793098562679
 30
0.0
 10
1472.681002014867
 20
1165.793098562679
 30
0.0
 10
1471.290867117522
 20
1165.793098562679
 30
0.0
 10
1469.762410007103
 20
1165.793098562679
 30
0.0
 10
1468.096557385085
 20
1165.793098562679
 30
0.0
 10
1466.294258259815
 20
1165.793098562679
 30
0.0
 10
1464.356454937611
 20
1165.793098562679
 30
0.0
 10
1462.284091966936
 20
1165.793098562679
 30
0.0
 10
1460.091386930395
 20
1165.793098562679
 30
0.0
 10
1457.781931203309
 20
1165.793098562679
 30
0.0
 10
1455.35913639773
 20
1165.793098562679
 30
0.0
 10
1452.810254234974
 20
1165.793098562679
 30
0.0
 10
1450.120314006258
 20
1165.793098562679
 30
0.0
 10
1447.288237523497
 20
1165.793098562679
 30
0.0
 10
1444.313111741452
 20
1165.793098562679
 30
0.0
 10
1441.213158869653
 20
1165.793098562679
 30
0.0
 10
1437.989859099552
 20
1165.793098562679
 30
0.0
 10
1434.66486375773
 20
1165.793098562679
 30
0.0
 10
1431.24191650865
 20
1165.793098562679
 30
0.0
 10
1427.724593336835
 20
1165.793098562679
 30
0.0
 10
1424.09401201853
 20
1165.793098562679
 30
0.0
 10
1420.111135408071
 20
1165.793098562679
 30
0.0
 10
1415.754922563964
 20
1165.793098562679
 30
0.0
 10
1411.004976249825
 20
1165.793098562679
 30
0.0
 10
1406.106005665769
 20
1165.793098562679
 30
0.0
 10
1401.061140650895
 20
1165.793098562679
 30
0.0
 10
1395.873505747521
 20
1165.793098562679
 30
0.0
 10
1390.713500401693
 20
1165.793098562679
 30
0.0
 10
1385.596432362203
 20
1165.793098562679
 30
0.0
 10
1380.536545252166
 20
1165.793098562679
 30
0.0
 10
1375.369974535695
 20
1165.793098562679
 30
0.0
 10
1370.099540678185
 20
1165.793098562679
 30
0.0
 10
1364.728062412943
 20
1165.793098562679
 30
0.0
 10
1358.928862301521
 20
1165.793098562679
 30
0.0
 10
1352.687585473953
 20
1165.793098562679
 30
0.0
 10
1345.990947736217
 20
1165.793098562679
 30
0.0
 10
1339.171138005061
 20
1165.793098562679
 30
0.0
 10
1332.185541501297
 20
1165.793098562679
 30
0.0
 10
1325.037264125696
 20
1165.793098562679
 30
0.0
 10
1317.729714093651
 20
1165.793098562679
 30
0.0
 10
1310.315885946671
 20
1165.793098562679
 30
0.0
 10
1302.80136633393
 20
1165.793098562679
 30
0.0
 10
1295.19175309695
 20
1165.793098562679
 30
0.0
 10
1287.492675767906
 20
1165.793098562679
 30
0.0
 10
1279.710047231682
 20
1165.793098562679
 30
0.0
 10
1271.849913730099
 20
1165.793098562679
 30
0.0
 10
1263.918331071024
 20
1165.793098562679
 30
0.0
 10
1255.921360576184
 20
1165.793098562679
 30
0.0
 10
1247.865061794557
 20
1165.793098562679
 30
0.0
 10
1239.755499001181
 20
1165.793098562679
 30
0.0
 10
1231.598755933265
 20
1165.793098562679
 30
0.0
 10
1223.629520231739
 20
1165.793098562679
 30
0.0
 10
1215.856365123923
 20
1165.793098562679
 30
0.0
 10
1208.286801753947
 20
1165.793098562679
 30
0.0
 10
1200.697811135333
 20
1165.793098562679
 30
0.0
 10
1193.094246340449
 20
1165.793098562679
 30
0.0
 10
1185.480961110083
 20
1165.793098562679
 30
0.0
 10
1177.638020762533
 20
1165.793098562679
 30
0.0
 10
1169.570509736375
 20
1165.793098562679
 30
0.0
 10
1161.284480651088
 20
1165.793098562679
 30
0.0
 10
1153.01098284412
 20
1165.793098562679
 30
0.0
 10
1144.756281583928
 20
1165.793098562679
 30
0.0
 10
1136.575466361422
 20
1165.793098562679
 30
0.0
 10
1128.474254466515
 20
1165.793098562679
 30
0.0
 10
1120.458128382813
 20
1165.793098562679
 30
0.0
 10
1112.484050597071
 20
1165.793098562679
 30
0.0
 10
1104.50418069902
 20
1165.793098562679
 30
0.0
 10
1096.525266380764
 20
1165.793098562679
 30
0.0
 10
1088.554313555815
 20
1165.793098562679
 30
0.0
 10
1080.651227036789
 20
1165.793098562679
 30
0.0
 10
1072.822069593874
 20
1165.793098562679
 30
0.0
 10
1065.072889200558
 20
1165.793098562679
 30
0.0
 10
1057.409718603867
 20
1165.793098562679
 30
0.0
 10
1049.838330246657
 20
1165.793098562679
 30
0.0
 10
1042.364327028743
 20
1165.793098562679
 30
0.0
 10
1034.993301060549
 20
1165.793098562679
 30
0.0
 10
1027.730837620855
 20
1165.793098562679
 30
0.0
 10
1020.582527307909
 20
1165.793098562679
 30
0.0
 10
1013.55394065782
 20
1165.793098562679
 30
0.0
 10
1006.650649456989
 20
1165.793098562679
 30
0.0
 10
1000.063521841848
 20
1165.793098562679
 30
0.0
 10
993.7871761092084
 20
1165.793098562679
 30
0.0
 10
987.8153052172183
 20
1165.793098562679
 30
0.0
 10
981.9648147510513
 20
1165.793098562679
 30
0.0
 10
976.2394813707295
 20
1165.793098562679
 30
0.0
 10
970.643090314162
 20
1165.793098562679
 30
0.0
 10
965.3462020234931
 20
1165.793098562679
 30
0.0
 10
960.3406919500759
 20
1165.793098562679
 30
0.0
 10
955.6172400203546
 20
1165.793098562679
 30
0.0
 10
951.010801829672
 20
1165.793098562679
 30
0.0
 10
946.5237059111098
 20
1165.793098562679
 30
0.0
 10
942.1582866294806
 20
1165.793098562679
 30
0.0
 10
937.9965442731399
 20
1165.793098562679
 30
0.0
 10
934.0337562220733
 20
1165.793098562679
 30
0.0
 10
930.264744290884
 20
1165.793098562679
 30
0.0
 10
926.6119656015959
 20
1165.793098562679
 30
0.0
 10
923.0772356892707
 20
1165.793098562679
 30
0.0
 10
919.6620294292707
 20
1165.793098562679
 30
0.0
 10
916.3678362885953
 20
1165.793098562679
 30
0.0
 10
913.1961321619515
 20
1165.793098562679
 30
0.0
 10
910.1483963672914
 20
1165.793098562679
 30
0.0
 10
907.2261079434018
 20
1165.793098562679
 30
0.0
 10
904.4471792389711
 20
1165.793098562679
 30
0.0
 10
901.8106705811794
 20
1165.793098562679
 30
0.0
 10
899.3155126000096
 20
1165.793098562679
 30
0.0
 10
896.9469383361296
 20
1165.793098562679
 30
0.0
 10
894.6923898338945
 20
1165.793098562679
 30
0.0
 10
892.5553192942598
 20
1165.793098562679
 30
0.0
 10
890.5393239829988
 20
1165.793098562679
 30
0.0
 10
888.6582847755593
 20
1165.793098562679
 30
0.0
 10
886.9131456089199
 20
1165.793098562679
 30
0.0
 10
885.3143415172323
 20
1165.793098562679
 30
0.0
 10
883.8600751367936
 20
1165.793098562679
 30
0.0
 10
882.5484513007519
 20
1165.793098562679
 30
0.0
 10
881.3715017215303
 20
1165.793098562679
 30
0.0
 10
880.3224726964651
 20
1165.793098562679
 30
0.0
 10
879.4048742871115
 20
1165.793098562679
 30
0.0
 10
878.6222325974139
 20
1165.793098562679
 30
0.0
 10
877.9813264034793
 20
1165.793098562679
 30
0.0
 10
877.4815464386567
 20
1165.793098562679
 30
0.0
 10
877.1267298892226
 20
1165.793098562679
 30
0.0
 10
876.9041539393438
 20
1165.793098562679
 30
0.0
 10
876.8765920233085
 20
1165.793098562679
 30
0.0
 10
876.8628150794899
 20
1165.793098562679
 30
0.0
  0
SPLINE
  5
138
330
1F
100
AcDbEntity
  8
0
  6
Continuous
 62
     7
370
    15
100
AcDbSpline
210
0.0
220
0.0
230
1.0
 70
    24
 71
     3
 72
   137
 73
   133
 74
     0
 42
0.000000001
 43
0.00000001
 40
0.0
 40
0.0
 40
0.0
 40
0.0
 40
0.0058165929263487
 40
0.0116369804985388
 40
0.0174649072114748
 40
0.023304062777212
 40
0.0291580806780038
 40
0.0350305370837181
 40
0.0405875033486889
 40
0.0461668901210555
 40
0.051771552203157
 40
0.0574042661232391
 40
0.0630676698411049
 40
0.0687642825337813
 40
0.0744965115262026
 40
0.0802666558601417
 40
0.0860769101926388
 40
0.0919293689692472
 40
0.0977203412095769
 40
0.1035557595800934
 40
0.1094373035950623
 40
0.1153664486972973
 40
0.1214536830659857
 40
0.1275929474710003
 40
0.1337854170124252
 40
0.1400321570496743
 40
0.1463341304380964
 40
0.1525781763265134
 40
0.1588770760655533
 40
0.1652314464052458
 40
0.171641672924923
 40
0.1793460069388765
 40
0.1871301175827319
 40
0.1949940850355905
 40
0.2029378307883859
 40
0.2109611333679094
 40
0.2190636432616532
 40
0.2264815977472774
 40
0.2339636231145805
 40
0.2415088961550439
 40
0.2491165011788719
 40
0.2567854390725796
 40
0.264514635888509
 40
0.2736997977933544
 40
0.2829651041695893
 40
0.2923084448929798
 40
0.3017273388043448
 40
0.311413511641623
 40
0.3211725176891261
 40
0.3310012407577302
 40
0.34089647403281
 40
0.3508549361753896
 40
0.3608732678100184
 40
0.3709478572217313
 40
0.3810748951339999
 40
0.3912504926132362
 40
0.4014706972896339
 40
0.4117315075958852
 40
0.4220288865078262
 40
0.4323587686957145
 40
0.4427169753285152
 40
0.4522332348154143
 40
0.4617663453113408
 40
0.4713129453999249
 40
0.4808696611880098
 40
0.4904331145269524
 40
0.4999999311754621
 40
0.510413552110659
 40
0.5208228342143512
 40
0.5312234243196963
 40
0.54161096580064
 40
0.551981111063106
 40
0.5621449614931409
 40
0.5722837924867271
 40
0.5823935971495477
 40
0.5924705052489571
 40
0.6027151903994221
 40
0.6129176278597309
 40
0.6230738345018351
 40
0.6331798821546404
 40
0.6432319120735376
 40
0.6532261683657867
 40
0.6631591648937099
 40
0.6730275821792411
 40
0.6828281674765426
 40
0.6925577490513738
 40
0.7022132526296309
 40
0.7117917187724635
 40
0.7212903370063374
 40
0.7307066661412707
 40
0.7392641993716101
 40
0.7477492010146627
 40
0.756160189966829
 40
0.7644957906610617
 40
0.7727547467931857
 40
0.7809359358714782
 40
0.7882891440484374
 40
0.7955772079777118
 40
0.8027998541452195
 40
0.8099568938970967
 40
0.817048232494052
 40
0.8240738786068104
 40
0.8306380157115373
 40
0.8371440643376032
 40
0.8435923342888724
 40
0.8499833229780812
 40
0.8563177485520571
 40
0.8625964262774536
 40
0.8688202627942101
 40
0.8749902631120581
 40
0.8811075377663807
 40
0.8871733101069841
 40
0.8930819398596261
 40
0.8989435789553645
 40
0.9047597856595735
 40
0.9105323085004174
 40
0.9163668027753726
 40
0.922159959841887
 40
0.9279139156865046
 40
0.9336309082890795
 40
0.9393132816871608
 40
0.9448628681960066
 40
0.9503838587374803
 40
0.9558788039508326
 40
0.9613503714699636
 40
0.9669123198010048
 40
0.9724556958378601
 40
0.9779834826709258
 40
0.9834987095286088
 40
0.9890044511684285
 40
0.9945038270085171
 40
1.0
 40
1.0
 40
1.0
 40
1.0
 10
1478.86281507949
 20
1154.793098562679
 30
0.0
 10
1478.847384341363
 20
1154.793098562679
 30
0.0
 10
1478.816512798358
 20
1154.793098562679
 30
0.0
 10
1478.56723533713
 20
1154.793098562679
 30
0.0
 10
1478.169885791307
 20
1154.793098562679
 30
0.0
 10
1477.610233118202
 20
1154.793098562679
 30
0.0
 10
1476.892599950733
 20
1154.793098562679
 30
0.0
 10
1476.033102656417
 20
1154.793098562679
 30
0.0
 10
1475.042776539166
 20
1154.793098562679
 30
0.0
 10
1473.931806737184
 20
1154.793098562679
 30
0.0
 10
1472.681002014867
 20
1154.793098562679
 30
0.0
 10
1471.290867117522
 20
1154.793098562679
 30
0.0
 10
1469.762410007103
 20
1154.793098562679
 30
0.0
 10
1468.096557385085
 20
1154.793098562679
 30
0.0
 10
1466.294258259815
 20
1154.793098562679
 30
0.0
 10
1464.356454937611
 20
1154.793098562679
 30
0.0
 10
1462.284091966936
 20
1154.793098562679
 30
0.0
 10
1460.091386930395
 20
1154.793098562679
 30
0.0
 10
1457.781931203309
 20
1154.793098562679
 30
0.0
 10
1455.35913639773
 20
1154.793098562679
 30
0.0
 10
1452.810254234974
 20
1154.793098562679
 30
0.0
 10
1450.120314006258
 20
1154.793098562679
 30
0.0
 10
1447.288237523497
 20
1154.793098562679
 30
0.0
 10
1444.313111741452
 20
1154.793098562679
 30
0.0
 10
1441.213158869653
 20
1154.793098562679
 30
0.0
 10
1437.989859099552
 20
1154.793098562679
 30
0.0
 10
1434.66486375773
 20
1154.793098562679
 30
0.0
 10
1431.24191650865
 20
1154.793098562679
 30
0.0
 10
1427.724593336835
 20
1154.793098562679
 30
0.0
 10
1424.09401201853
 20
1154.793098562679
 30
0.0
 10
1420.111135408071
 20
1154.793098562679
 30
0.0
 10
1415.754922563964
 20
1154.793098562679
 30
0.0
 10
1411.004976249825
 20
1154.793098562679
 30
0.0
 10
1406.106005665769
 20
1154.793098562679
 30
0.0
 10
1401.061140650895
 20
1154.793098562679
 30
0.0
 10
1395.873505747521
 20
1154.793098562679
 30
0.0
 10
1390.713500401693
 20
1154.793098562679
 30
0.0
 10
1385.596432362203
 20
1154.793098562679
 30
0.0
 10
1380.536545252166
 20
1154.793098562679
 30
0.0
 10
1375.369974535695
 20
1154.793098562679
 30
0.0
 10
1370.099540678185
 20
1154.793098562679
 30
0.0
 10
1364.728062412943
 20
1154.793098562679
 30
0.0
 10
1358.928862301521
 20
1154.793098562679
 30
0.0
 10
1352.687585473953
 20
1154.793098562679
 30
0.0
 10
1345.990947736217
 20
1154.793098562679
 30
0.0
 10
1339.171138005061
 20
1154.793098562679
 30
0.0
 10
1332.185541501297
 20
1154.793098562679
 30
0.0
 10
1325.037264125696
 20
1154.793098562679
 30
0.0
 10
1317.729714093651
 20
1154.793098562679
 30
0.0
 10
1310.315885946671
 20
1154.793098562679
 30
0.0
 10
1302.80136633393
 20
1154.793098562679
 30
0.0
 10
1295.19175309695
 20
1154.793098562679
 30
0.0
 10
1287.492675767906
 20
1154.793098562679
 30
0.0
 10
1279.710047231682
 20
1154.793098562679
 30
0.0
 10
1271.849913730099
 20
1154.793098562679
 30
0.0
 10
1263.918331071024
 20
1154.793098562679
 30
0.0
 10
1255.921360576184
 20
1154.793098562679
 30
0.0
 10
1247.865061794557
 20
1154.793098562679
 30
0.0
 10
1239.755499001181
 20
1154.793098562679
 30
0.0
 10
1231.598755933265
 20
1154.793098562679
 30
0.0
 10
1223.629520231739
 20
1154.793098562679
 30
0.0
 10
1215.856365123923
 20
1154.793098562679
 30
0.0
 10
1208.286801753947
 20
1154.793098562679
 30
0.0
 10
1200.697811135333
 20
1154.793098562679
 30
0.0
 10
1193.094246340449
 20
1154.793098562679
 30
0.0
 10
1185.480961110083
 20
1154.793098562679
 30
0.0
 10
1177.638020762533
 20
1154.793098562679
 30
0.0
 10
1169.570509736375
 20
1154.793098562679
 30
0.0
 10
1161.284480651088
 20
1154.793098562679
 30
0.0
 10
1153.01098284412
 20
1154.793098562679
 30
0.0
 10
1144.756281583928
 20
1154.793098562679
 30
0.0
 10
1136.575466361422
 20
1154.793098562679
 30
0.0
 10
1128.474254466515
 20
1154.793098562679
 30
0.0
 10
1120.458128382813
 20
1154.793098562679
 30
0.0
 10
1112.484050597071
 20
1154.793098562679
 30
0.0
 10
1104.50418069902
 20
1154.793098562679
 30
0.0
 10
1096.525266380764
 20
1154.793098562679
 30
0.0
 10
1088.554313555815
 20
1154.793098562679
 30
0.0
 10
1080.651227036789
 20
1154.793098562679
 30
0.0
 10
1072.822069593874
 20
1154.793098562679
 30
0.0
 10
1065.072889200558
 20
1154.793098562679
 30
0.0
 10
1057.409718603867
 20
1154.793098562679
 30
0.0
 10
1049.838330246657
 20
1154.793098562679
 30
0.0
 10
1042.364327028743
 20
1154.793098562679
 30
0.0
 10
1034.993301060549
 20
1154.793098562679
 30
0.0
 10
1027.730837620855
 20
1154.793098562679
 30
0.0
 10
1020.582527307909
 20
1154.793098562679
 30
0.0
 10
1013.55394065782
 20
1154.793098562679
 30
0.0
 10
1006.650649456989
 20
1154.793098562679
 30
0.0
 10
1000.063521841848
 20
1154.793098562679
 30
0.0
 10
993.7871761092084
 20
1154.793098562679
 30
0.0
 10
987.8153052172183
 20
1154.793098562679
 30
0.0
 10
981.9648147510513
 20
1154.793098562679
 30
0.0
 10
976.2394813707295
 20
1154.793098562679
 30
0.0
 10
970.643090314162
 20
1154.793098562679
 30
0.0
 10
965.3462020234931
 20
1154.793098562679
 30
0.0
 10
960.3406919500759
 20
1154.793098562679
 30
0.0
 10
955.6172400203546
 20
1154.793098562679
 30
0.0
 10
951.010801829672
 20
1154.793098562679
 30
0.0
 10
946.5237059111098
 20
1154.793098562679
 30
0.0
 10
942.1582866294806
 20
1154.793098562679
 30
0.0
 10
937.9965442731399
 20
1154.793098562679
 30
0.0
 10
934.0337562220733
 20
1154.793098562679
 30
0.0
 10
930.264744290884
 20
1154.793098562679
 30
0.0
 10
926.6119656015959
 20
1154.793098562679
 30
0.0
 10
923.0772356892707
 20
1154.793098562679
 30
0.0
 10
919.6620294292707
 20
1154.793098562679
 30
0.0
 10
916.3678362885953
 20
1154.793098562679
 30
0.0
 10
913.1961321619515
 20
1154.793098562679
 30
0.0
 10
910.1483963672914
 20
1154.793098562679
 30
0.0
 10
907.2261079434018
 20
1154.793098562679
 30
0.0
 10
904.4471792389711
 20
1154.793098562679
 30
0.0
 10
901.8106705811794
 20
1154.793098562679
 30
0.0
 10
899.3155126000096
 20
1154.793098562679
 30
0.0
 10
896.9469383361296
 20
1154.793098562679
 30
0.0
 10
894.6923898338945
 20
1154.793098562679
 30
0.0
 10
892.5553192942598
 20
1154.793098562679
 30
0.0
 10
890.5393239829988
 20
1154.793098562679
 30
0.0
 10
888.6582847755593
 20
1154.793098562679
 30
0.0
 10
886.9131456089199
 20
1154.793098562679
 30
0.0
 10
885.3143415172323
 20
1154.793098562679
 30
0.0
 10
883.8600751367936
 20
1154.793098562679
 30
0.0
 10
882.5484513007519
 20
1154.793098562679
 30
0.0
 10
881.3715017215303
 20
1154.793098562679
 30
0.0
 10
880.3224726964651
 20
1154.793098562679
 30
0.0
 10
879.4048742871115
 20
1154.793098562679
 30
0.0
 10
878.6222325974139
 20
1154.793098562679
 30
0.0
 10
877.9813264034793
 20
1154.793098562679
 30
0.0
 10
877.4815464386567
 20
1154.793098562679
 30
0.0
 10
877.1267298892226
 20
1154.793098562679
 30
0.0
 10
876.9041539393438
 20
1154.793098562679
 30
0.0
 10
876.8765920233085
 20
1154.793098562679
 30
0.0
 10
876.8628150794899
 20
1154.793098562679
 30
0.0
  0
LINE
  5
139
330
1F
100
AcDbEntity
  8
0
  6
Continuous
 62
     7
370
    15
100
AcDbLine
 10
1714.1904645334
 20
1149.7930985627
 30
0.0
 11
1714.1904645334
 21
1154.7930985627
 31
0.0
  0
LINE
  5
13A
330
1F
100
AcDbEntity
  8
0
  6
Continuous
 62
     7
370
    15
100
AcDbLine
 10
1696.1904645334
 20
1154.7930985627
 30
0.0
 11
1696.1904645334
 21
1149.7930985627
 31
0.0
  0
LINE
  5
13B
330
1F
100
AcDbEntity
  8
0
  6
Continuous
 62
     7
370
    15
100
AcDbLine
 10
1792.3404645334
 20
1149.7930985627
 30
0.0
 11
1792.3404645334
 21
1154.7930985627
 31
0.0
  0
LINE
  5
13C
330
1F
100
AcDbEntity
  8
0
  6
Continuous
 62
     7
370
    15
100
AcDbLine
 10
1774.3404645334
 20
1154.7930985627
 30
0.0
 11
1774.3404645334
 21
1149.7930985627
 31
0.0
  0
LINE
  5
13D
330
1F
100
AcDbEntity
  8
0
  6
Continuous
 62
     7
370
    15
100
AcDbLine
 10
2069.1904645334
 20
1149.7930985627
 30
0.0
 11
2069.1904645334
 21
1154.7930985627
 31
0.0
  0
LINE
  5
13E
330
1F
100
AcDbEntity
  8
0
  6
Continuous
 62
     7
370
    15
100
AcDbLine
 10
2051.1904645334
 20
1154.7930985627
 30
0.0
 11
2051.1904645334
 21
1149.7930985627
 31
0.0
  0
LINE
  5
13F
330
1F
100
AcDbEntity
  8
0
  6
Continuous
 62
     7
370
    15
100
AcDbLine
 10
1991.0404645334
 20
1149.7930985627
 30
0.0
 11
1991.0404645334
 21
1154.7930985627
 31
0.0
  0
LINE
  5
140
330
1F
100
AcDbEntity
  8
0
  6
Continuous
 62
     7
370
    15
100
AcDbLine
 10
1973.0404645334
 20
1154.7930985627
 30
0.0
 11
1973.0404645334
 21
1149.7930985627
 31
0.0
  0
LINE
  5
141
330
1F
100
AcDbEntity
  8
0
  6
Continuous
 62
     7
370
    15
100
AcDbLine
 10
1720.526467609
 20
1550.7930985627
 30
0.0
 11
1721.7913351213
 21
1541.7930985627
 31
0.0
  0
LINE
  5
142
330
1F
100
AcDbEntity
  8
0
  6
Continuous
 62
     7
370
    15
100
AcDbLine
 10
2043.5895939455
 20
1541.7930985627
 30
0.0
 11
2044.8544614578
 21
1550.7930985627
 31
0.0
  0
LINE
  5
143
330
1F
100
AcDbEntity
  8
0
  6
Continuous
 62
     7
370
    15
100
AcDbLine
 10
1830.4935891623
 20
1527.2901455891
 30
0.0
 11
1830.5634445663
 21
1526.7930985627
 31
0.0
  0
LINE
  5
144
330
1F
100
AcDbEntity
  8
0
  6
Continuous
 62
     7
370
    15
100
AcDbLine
 10
1934.8174845005
 20
1526.7930985627
 30
0.0
 11
1934.8873399045
 21
1527.2901455891
 31
0.0
  0
LINE
  5
145
330
1F
100
AcDbEntity
  8
0
  6
Continuous
 62
     7
370
    15
100
AcDbLine
 10
1852.6904645334
 20
1526.7930985627
 30
0.0
 11
1852.6904645334
 21
1165.7930985627
 31
0.0
  0
LINE
  5
146
330
1F
100
AcDbEntity
  8
0
  6
Continuous
 62
     7
370
    15
100
AcDbLine
 10
1912.6904645334
 20
1165.7930985627
 30
0.0
 11
1912.6904645334
 21
1526.7930985627
 31
0.0
  0
LINE
  5
147
330
1F
100
AcDbEntity
  8
0
  6
Continuous
 62
     7
370
    15
100
AcDbLine
 10
1681.6904645334
 20
1165.7930985627
 30
0.0
 11
1681.6904645334
 21
1154.7930985627
 31
0.0
  0
LINE
  5
148
330
1F
100
AcDbEntity
  8
0
  6
Continuous
 62
     7
370
    15
100
AcDbLine
 10
2083.6904645334
 20
1154.7930985627
 30
0.0
 11
2083.6904645334
 21
1165.7930985627
 31
0.0
  0
LINE
  5
149
330
1F
100
AcDbEntity
  8
0
  6
Continuous
 62
     7
370
    15
100
AcDbLine
 10
1714.1904645334
 20
1149.7930985627
 30
0.0
 11
1696.1904645334
 21
1149.7930985627
 31
0.0
  0
LINE
  5
14A
330
1F
100
AcDbEntity
  8
0
  6
Continuous
 62
     7
370
    15
100
AcDbLine
 10
1792.3404645334
 20
1149.7930985627
 30
0.0
 11
1774.3404645334
 21
1149.7930985627
 31
0.0
  0
LINE
  5
14B
330
1F
100
AcDbEntity
  8
0
  6
Continuous
 62
     7
370
    15
100
AcDbLine
 10
2069.1904645334
 20
1149.7930985627
 30
0.0
 11
2051.1904645334
 21
1149.7930985627
 31
0.0
  0
LINE
  5
14C
330
1F
100
AcDbEntity
  8
0
  6
Continuous
 62
     7
370
    15
100
AcDbLine
 10
1991.0404645334
 20
1149.7930985627
 30
0.0
 11
1973.0404645334
 21
1149.7930985627
 31
0.0
  0
LINE
  5
14D
330
1F
100
AcDbEntity
  8
0
  6
Continuous
 62
     7
370
    15
100
AcDbLine
 10
1747.4466310752
 20
1541.7930985627
 30
0.0
 11
1721.7913351213
 21
1541.7930985627
 31
0.0
  0
LINE
  5
14E
330
1F
100
AcDbEntity
  8
0
  6
Continuous
 62
     7
370
    15
100
AcDbLine
 10
1748.3117450644
 20
1550.7930985627
 30
0.0
 11
1720.526467609
 21
1550.7930985627
 31
0.0
  0
LINE
  5
14F
330
1F
100
AcDbEntity
  8
0
  6
Continuous
 62
     7
370
    15
100
AcDbLine
 10
2043.5895939455
 20
1541.7930985627
 30
0.0
 11
2017.9342979916
 21
1541.7930985627
 31
0.0
  0
LINE
  5
150
330
1F
100
AcDbEntity
  8
0
  6
Continuous
 62
     7
370
    15
100
AcDbLine
 10
2044.8544614578
 20
1550.7930985627
 30
0.0
 11
2017.0691840024
 21
1550.7930985627
 31
0.0
  0
LINE
  5
151
330
1F
100
AcDbEntity
  8
0
  6
Continuous
 62
     7
370
    15
100
AcDbLine
 10
1861.4448379808
 20
1541.7930985627
 30
0.0
 11
1861.7131552987
 21
1550.7930985627
 31
0.0
  0
LINE
  5
152
330
1F
100
AcDbEntity
  8
0
  6
Continuous
 62
     7
370
    15
100
AcDbLine
 10
1861.4448379808
 20
1541.7930985627
 30
0.0
 11
1747.4466310752
 21
1541.7930985627
 31
0.0
  0
LINE
  5
153
330
1F
100
AcDbEntity
  8
0
  6
Continuous
 62
     7
370
    15
100
AcDbLine
 10
1861.7131552987
 20
1550.7930985627
 30
0.0
 11
1748.3117450644
 21
1550.7930985627
 31
0.0
  0
LINE
  5
154
330
1F
100
AcDbEntity
  8
0
  6
Continuous
 62
     7
370
    15
100
AcDbLine
 10
1903.6677737681
 20
1550.7930985627
 30
0.0
 11
1903.936091086
 21
1541.7930985627
 31
0.0
  0
LINE
  5
155
330
1F
100
AcDbEntity
  8
0
  6
Continuous
 62
     7
370
    15
100
AcDbLine
 10
2017.9342979916
 20
1541.7930985627
 30
0.0
 11
1903.936091086
 21
1541.7930985627
 31
0.0
  0
LINE
  5
156
330
1F
100
AcDbEntity
  8
0
  6
Continuous
 62
     7
370
    15
100
AcDbLine
 10
2017.0691840024
 20
1550.7930985627
 30
0.0
 11
1903.6677737681
 21
1550.7930985627
 31
0.0
  0
LINE
  5
157
330
1F
100
AcDbEntity
  8
0
  6
Continuous
 62
     7
370
    15
100
AcDbLine
 10
1840.4576286892
 20
1526.8288711109
 30
0.0
 11
1841.3192930764
 21
1541.7930985627
 31
0.0
  0
ELLIPSE
  5
158
330
1F
100
AcDbEntity
  8
0
  6
Continuous
 62
     7
370
    15
100
AcDbEllipse
 10
1852.2978479405
 20
1626.7930985627
 30
0.0
 11
19.60733431093377
 21
99.05688260925785
 31
0.0
210
0.0
220
0.0
230
1.0
 40
0.6988000414
 41
3.225604728451081
 42
3.25229237362586
  0
LINE
  5
159
330
1F
100
AcDbEntity
  8
0
  6
Continuous
 62
     7
370
    15
100
AcDbLine
 10
1753.3520743381
 20
1533.3806634105
 30
0.0
 11
1838.5682249885
 21
1526.9358368091
 31
0.0
  0
ELLIPSE
  5
15A
330
1F
100
AcDbEntity
  8
0
  6
Continuous
 62
     7
370
    15
100
AcDbEllipse
 10
1754.4504441743
 20
1541.3692443508
 30
0.0
 11
1.568586744874665
 21
7.924550608740675
 31
0.0
210
0.0
220
0.0
230
1.0
 40
0.6988000414
 41
1.847871099546714
 42
3.225604728451041
  0
LINE
  5
15B
330
1F
100
AcDbEntity
  8
0
  6
Continuous
 62
     7
370
    15
100
AcDbLine
 10
1748.6949001768
 20
1540.2558595431
 30
0.0
 11
1748.6937294986
 21
1541.7930985627
 31
0.0
  0
ELLIPSE
  5
15C
330
1F
100
AcDbEntity
  8
0
  6
Continuous
 62
     7
370
    15
100
AcDbEllipse
 10
1913.0830811263
 20
1626.7930985627
 30
0.0
 11
-19.60733431093377
 21
99.05688260925785
 31
0.0
210
0.0
220
0.0
230
1.0
 40
0.6988000414
 41
3.030892933553765
 42
3.057580578728528
  0
LINE
  5
15D
330
1F
100
AcDbEntity
  8
0
  6
Continuous
 62
     7
370
    15
100
AcDbLine
 10
1924.0616359904
 20
1541.7930985627
 30
0.0
 11
1924.9233003776
 21
1526.8288711109
 31
0.0
  0
LINE
  5
15E
330
1F
100
AcDbEntity
  8
0
  6
Continuous
 62
     7
370
    15
100
AcDbLine
 10
2016.68602889
 20
1540.2558595431
 30
0.0
 11
2016.6871995683
 21
1541.7930985627
 31
0.0
  0
ELLIPSE
  5
15F
330
1F
100
AcDbEntity
  8
0
  6
Continuous
 62
     7
370
    15
100
AcDbEllipse
 10
2010.9304848926
 20
1541.3692443508
 30
0.0
 11
-1.568586744874892
 21
7.924550608740674
 31
0.0
210
0.0
220
0.0
230
1.0
 40
0.6988000414
 41
3.057580578728481
 42
4.435314207632873
  0
LINE
  5
160
330
1F
100
AcDbEntity
  8
0
  6
Continuous
 62
     7
370
    15
100
AcDbLine
 10
1926.8127040783
 20
1526.9358368091
 30
0.0
 11
2012.0288547287
 21
1533.3806634105
 31
0.0
  0
LINE
  5
161
330
1F
100
AcDbEntity
  8
0
  6
Continuous
 62
     7
370
    15
100
AcDbLine
 10
1744.0483449159
 20
1540.2558595431
 30
0.0
 11
1743.7439820302
 21
1541.7930985627
 31
0.0
  0
LINE
  5
162
330
1F
100
AcDbEntity
  8
0
  6
Continuous
 62
     7
370
    15
100
AcDbLine
 10
2021.3325841509
 20
1540.2558595431
 30
0.0
 11
2021.6369470366
 21
1541.7930985627
 31
0.0
  0
ELLIPSE
  5
163
330
1F
100
AcDbEntity
  8
0
  6
Continuous
 62
     7
370
    15
100
AcDbEllipse
 10
1749.4964051841
 20
1541.3692443508
 30
0.0
 11
-1.524813188785629
 21
7.930814065535744
 31
0.0
210
0.0
220
0.0
230
1.0
 40
0.688511582
 41
1.578811603715063
 42
2.956545232619375
  0
ELLIPSE
  5
164
330
1F
100
AcDbEntity
  8
0
  6
Continuous
 62
     7
370
    15
100
AcDbEllipse
 10
2015.8845238827
 20
1541.3692443508
 30
0.0
 11
1.524813188785402
 21
7.930814065535742
 31
0.0
210
0.0
220
0.0
230
1.0
 40
0.688511582
 41
3.326640074560152
 42
4.704373703464514
  0
LINE
  5
165
330
1F
100
AcDbEntity
  8
0
  6
Continuous
 62
     7
370
    15
100
AcDbLine
 10
1835.1767626431
 20
1526.9358368091
 30
0.0
 11
1749.9904993207
 21
1533.3806634105
 31
0.0
  0
LINE
  5
166
330
1F
100
AcDbEntity
  8
0
  6
Continuous
 62
     7
370
    15
100
AcDbLine
 10
2015.3904297461
 20
1533.3806634105
 30
0.0
 11
1930.2041664237
 21
1526.9358368091
 31
0.0
  0
LINE
  5
167
330
1F
100
AcDbEntity
  8
0
  6
Continuous
 62
     7
370
    15
100
AcDbLine
 10
1907.897631363
 20
1526.7930985627
 30
0.0
 11
1908.4354974978
 21
1541.7930985627
 31
0.0
  0
LINE
  5
168
330
1F
100
AcDbEntity
  8
0
  6
Continuous
 62
     7
370
    15
100
AcDbLine
 10
1857.4832977038
 20
1526.7930985627
 30
0.0
 11
1856.945431569
 21
1541.7930985627
 31
0.0
  0
LINE
  5
169
330
1F
100
AcDbEntity
  8
0
  6
Continuous
 62
     7
370
    15
100
AcDbLine
 10
1907.897631363
 20
1526.7930985627
 30
0.0
 11
1857.4832977038
 21
1526.7930985627
 31
0.0
  0
LINE
  5
16A
330
1F
100
AcDbEntity
  8
0
  6
Continuous
 62
     7
370
    15
100
AcDbLine
 10
1903.6677737681
 20
1550.7930985627
 30
0.0
 11
1861.7131552987
 21
1550.7930985627
 31
0.0
  0
ELLIPSE
  5
16B
330
1F
100
AcDbEntity
  8
0
  6
Continuous
 62
     7
370
    15
100
AcDbEllipse
 10
1907.0918562873
 20
1626.7930985627
 30
0.0
 11
141.4962048075654
 21
-19.14385769769478
 31
0.0
210
0.0
220
0.0
230
1.0
 40
0.6936614286
 41
4.905016603419327
 42
4.93176531597558
  0
LINE
  5
16C
330
1F
100
AcDbEntity
  8
0
  6
Continuous
 62
     7
370
    15
100
AcDbLine
 10
1921.1459397575
 20
1526.7930985627
 30
0.0
 11
1907.897631363
 21
1526.7930985627
 31
0.0
  0
ELLIPSE
  5
16D
330
1F
100
AcDbEntity
  8
0
  6
Continuous
 62
     7
370
    15
100
AcDbEllipse
 10
1858.2890727795
 20
1626.7930985627
 30
0.0
 11
141.4962048075654
 21
19.143857697695
 31
0.0
210
0.0
220
0.0
230
1.0
 40
0.6936614286
 41
4.493012644793835
 42
4.519761357350072
  0
LINE
  5
16E
330
1F
100
AcDbEntity
  8
0
  6
Continuous
 62
     7
370
    15
100
AcDbLine
 10
1857.4832977038
 20
1526.7930985627
 30
0.0
 11
1844.2349893093
 21
1526.7930985627
 31
0.0
  0
LINE
  5
16F
330
1F
100
AcDbEntity
  8
0
  6
Continuous
 62
     7
370
    15
100
AcDbLine
 10
1837.0634445663
 20
1526.7930985627
 30
0.0
 11
1837.0584170625
 21
1526.8288711109
 31
0.0
  0
LINE
  5
170
330
1F
100
AcDbEntity
  8
0
  6
Continuous
 62
     7
370
    15
100
AcDbLine
 10
1844.2349893093
 20
1526.7930985627
 30
0.0
 11
1837.0634445663
 21
1526.7930985627
 31
0.0
  0
ELLIPSE
  5
171
330
1F
100
AcDbEntity
  8
0
  6
Continuous
 62
     7
370
    15
100
AcDbEllipse
 10
1829.000585935
 20
1626.7930985627
 30
0.0
 11
-19.06016485981672
 21
99.13517581919496
 31
0.0
210
0.0
220
0.0
230
1.0
 40
0.688511582
 41
2.956545232619433
 42
2.983232877794198
  0
LINE
  5
172
330
1F
100
AcDbEntity
  8
0
  6
Continuous
 62
     7
370
    15
100
AcDbLine
 10
1928.3225120043
 20
1526.8288711109
 30
0.0
 11
1928.3174845005
 21
1526.7930985627
 31
0.0
  0
LINE
  5
173
330
1F
100
AcDbEntity
  8
0
  6
Continuous
 62
     7
370
    15
100
AcDbLine
 10
1928.3174845005
 20
1526.7930985627
 30
0.0
 11
1921.1459397575
 21
1526.7930985627
 31
0.0
  0
ELLIPSE
  5
174
330
1F
100
AcDbEntity
  8
0
  6
Continuous
 62
     7
370
    15
100
AcDbEllipse
 10
1936.3803431318
 20
1626.7930985627
 30
0.0
 11
19.06016485981672
 21
99.13517581919496
 31
0.0
210
0.0
220
0.0
230
1.0
 40
0.688511582
 41
3.299952429385394
 42
3.326640074560174
  0
LINE
  5
175
330
1F
100
AcDbEntity
  8
0
  6
Continuous
 62
     7
370
    15
100
AcDbLine
 10
1837.0634445663
 20
1526.7930985627
 30
0.0
 11
1830.5634445663
 21
1526.7930985627
 31
0.0
  0
LINE
  5
176
330
1F
100
AcDbEntity
  8
0
  6
Continuous
 62
     7
370
    15
100
AcDbLine
 10
1934.8174845005
 20
1526.7930985627
 30
0.0
 11
1928.3174845005
 21
1526.7930985627
 31
0.0
  0
LINE
  5
177
330
1F
100
AcDbEntity
  8
0
  6
Continuous
 62
     7
370
    15
100
AcDbLine
 10
2083.6904645334
 20
1165.7930985627
 30
0.0
 11
1681.6904645334
 21
1165.7930985627
 31
0.0
  0
LINE
  5
178
330
1F
100
AcDbEntity
  8
0
  6
Continuous
 62
     7
370
    15
100
AcDbLine
 10
2083.6904645334
 20
1154.7930985627
 30
0.0
 11
1681.6904645334
 21
1154.7930985627
 31
0.0
  0
LINE
  5
179
330
1F
100
AcDbEntity
  8
0
  6
Continuous
 62
     7
370
    15
100
AcDbLine
 10
1198.8401243142
 20
777.5025328314
 30
0.0
 11
1312.2415345485
 21
883.8207595165
 31
0.0
  0
ARC
  5
17A
330
1F
100
AcDbEntity
  8
0
  6
Continuous
 62
     7
370
    15
100
AcDbCircle
 10
1323.5268120039
 20
871.78362893
 30
0.0
 40
16.50000000000012
100
AcDbArc
 50
316.846425872
 51
133.153574128
  0
LINE
  5
17B
330
1F
100
AcDbEntity
  8
0
  6
Continuous
 62
     7
370
    15
100
AcDbLine
 10
1335.5639425904
 20
860.4983514747
 30
0.0
 11
1229.2457159053
 21
747.0969412404
 31
0.0
  0
ARC
  5
17C
330
1F
100
AcDbEntity
  8
0
  6
Continuous
 62
     7
370
    15
100
AcDbCircle
 10
1177.8628150795
 20
726.1196320056
 30
0.0
 40
55.50000000000006
100
AcDbArc
 50
337.792032385
 51
22.207967615
  0
LINE
  5
17D
330
1F
100
AcDbEntity
  8
0
  6
Continuous
 62
     7
370
    15
100
AcDbLine
 10
1229.2457159053
 20
705.1423227709
 30
0.0
 11
1335.5639425904
 21
591.7409125366
 31
0.0
  0
ARC
  5
17E
330
1F
100
AcDbEntity
  8
0
  6
Continuous
 62
     7
370
    15
100
AcDbCircle
 10
1323.5268120039
 20
580.4556350812
 30
0.0
 40
16.50000000000027
100
AcDbArc
 50
226.846425872
 51
43.153574128
  0
LINE
  5
17F
330
1F
100
AcDbEntity
  8
0
  6
Continuous
 62
     7
370
    15
100
AcDbLine
 10
1312.2415345485
 20
568.4185044948
 30
0.0
 11
1198.8401243142
 21
674.7367311799
 31
0.0
  0
ARC
  5
180
330
1F
100
AcDbEntity
  8
0
  6
Continuous
 62
     7
370
    15
100
AcDbCircle
 10
1177.8628150795
 20
726.1196320056
 30
0.0
 40
55.50000000000021
100
AcDbArc
 50
247.792032385
 51
292.207967615
  0
LINE
  5
181
330
1F
100
AcDbEntity
  8
0
  6
Continuous
 62
     7
370
    15
100
AcDbLine
 10
1156.8855058447
 20
674.7367311799
 30
0.0
 11
1043.4840956105
 21
568.4185044948
 31
0.0
  0
ARC
  5
182
330
1F
100
AcDbEntity
  8
0
  6
Continuous
 62
     7
370
    15
100
AcDbCircle
 10
1032.1988181551
 20
580.4556350812
 30
0.0
 40
16.5000000000002
100
AcDbArc
 50
136.846425872
 51
313.153574128
  0
LINE
  5
183
330
1F
100
AcDbEntity
  8
0
  6
Continuous
 62
     7
370
    15
100
AcDbLine
 10
1020.1616875686
 20
591.7409125366
 30
0.0
 11
1126.4799142537
 21
705.1423227709
 31
0.0
  0
ARC
  5
184
330
1F
100
AcDbEntity
  8
0
  6
Continuous
 62
     7
370
    15
100
AcDbCircle
 10
1177.8628150795
 20
726.1196320056
 30
0.0
 40
55.50000000000026
100
AcDbArc
 50
157.792032385
 51
202.207967615
  0
LINE
  5
185
330
1F
100
AcDbEntity
  8
0
  6
Continuous
 62
     7
370
    15
100
AcDbLine
 10
1126.4799142537
 20
747.0969412404
 30
0.0
 11
1020.1616875686
 21
860.4983514747
 31
0.0
  0
ARC
  5
186
330
1F
100
AcDbEntity
  8
0
  6
Continuous
 62
     7
370
    15
100
AcDbCircle
 10
1032.1988181551
 20
871.78362893
 30
0.0
 40
16.50000000000012
100
AcDbArc
 50
46.846425872
 51
223.153574128
  0
LINE
  5
187
330
1F
100
AcDbEntity
  8
0
  6
Continuous
 62
     7
370
    15
100
AcDbLine
 10
1043.4840956105
 20
883.8207595165
 30
0.0
 11
1156.8855058447
 21
777.5025328314
 31
0.0
  0
ARC
  5
188
330
1F
100
AcDbEntity
  8
0
  6
Continuous
 62
     7
370
    15
100
AcDbCircle
 10
1177.8628150795
 20
726.1196320056
 30
0.0
 40
55.50000000000021
100
AcDbArc
 50
67.792032385
 51
112.207967615
  0
SPLINE
  5
189
330
1F
100
AcDbEntity
  8
0
  6
Continuous
 62
     7
370
    15
100
AcDbSpline
210
0.0
220
0.0
230
1.0
 70
    11
 71
     3
 72
   267
 73
   263
 74
     0
 42
0.000000001
 43
0.00000001
 40
0.0
 40
0.0
 40
0.0
 40
0.0
 40
0.0029082964631743
 40
0.0058184902492694
 40
0.0087324536057374
 40
0.011652031388606
 40
0.0145790403390019
 40
0.017515268541859
 40
0.0202937516743444
 40
0.0230834450605278
 40
0.0258857761015785
 40
0.0287021330616195
 40
0.0315338349205524
 40
0.0343821412668906
 40
0.0372482557631013
 40
0.0401333279300708
 40
0.0430384550963194
 40
0.0459646844846236
 40
0.0488601706047884
 40
0.0517778797900466
 40
0.0547186517975311
 40
0.0576832243486486
 40
0.0607268415329928
 40
0.0637964737355001
 40
0.0668927085062125
 40
0.0700160785248371
 40
0.0731670652190482
 40
0.0762890881632567
 40
0.0794385380327766
 40
0.0826157232026228
 40
0.0858208364624615
 40
0.0896730034694381
 40
0.0935650587913659
 40
0.0974970425177951
 40
0.1014689153941929
 40
0.1054805666839546
 40
0.1095318216308265
 40
0.1132407988736386
 40
0.1169818115572901
 40
0.1207544480775218
 40
0.1245582505894358
 40
0.1283927195362897
 40
0.1322573179442544
 40
0.1368498988966771
 40
0.1414825520847945
 40
0.1461542224464898
 40
0.1508636694021723
 40
0.1557067558208113
 40
0.1605862588445629
 40
0.165500620378865
 40
0.1704482370164049
 40
0.1754274680876946
 40
0.1804366339050091
 40
0.1854739286108655
 40
0.1905374475669998
 40
0.1956252463066179
 40
0.2007353486448168
 40
0.2058657537979424
 40
0.2110144432539129
 40
0.2161793843478571
 40
0.2213584876642574
 40
0.2261166174077069
 40
0.2308831726556702
 40
0.2356564726999623
 40
0.2404348305940047
 40
0.245216557263476
 40
0.2499999655877308
 40
0.2552067760553293
 40
0.2604114171071753
 40
0.2656117121598479
 40
0.2708054829003198
 40
0.2759905555315528
 40
0.2810724807465702
 40
0.2861418962433633
 40
0.2911967985747736
 40
0.2962352526244783
 40
0.3013575951997108
 40
0.3064588139298652
 40
0.3115369172509173
 40
0.3165899410773199
 40
0.3216159560367685
 40
0.3266130841828931
 40
0.3315795824468546
 40
0.3365137910896203
 40
0.341414083738271
 40
0.3462788745256866
 40
0.3511066263148151
 40
0.3558958593862315
 40
0.3606451685031684
 40
0.365353333070635
 40
0.3696320996858047
 40
0.373874600507331
 40
0.3780800949834142
 40
0.3822478953305305
 40
0.3863773733965925
 40
0.3904679679357388
 40
0.3941445720242183
 40
0.3977886039888556
 40
0.4013999270726094
 40
0.404978446948548
 40
0.4085241162470256
 40
0.4120369393034048
 40
0.4153190078557683
 40
0.4185720321688013
 40
0.4217961671444359
 40
0.4249916614890402
 40
0.4281588742760282
 40
0.4312982131387265
 40
0.4344101313971047
 40
0.4374951315560286
 40
0.44055376888319
 40
0.4435866550534917
 40
0.4465409699298127
 40
0.4494717894776818
 40
0.4523798928297864
 40
0.4552661542502083
 40
0.4581834013876859
 40
0.4610799799209431
 40
0.4639569578432519
 40
0.4668154541445393
 40
0.46965664084358
 40
0.4724314340980029
 40
0.4751919293687398
 40
0.4779394019754158
 40
0.4806751857349814
 40
0.483456159900502
 40
0.4862278479189296
 40
0.4889917413354625
 40
0.491749354764304
 40
0.4945022255842139
 40
0.4972519135042582
 40
0.4999999999999996
 40
0.5029082964631739
 40
0.505818490249269
 40
0.508732453605737
 40
0.5116520313886056
 40
0.5145790403390016
 40
0.5175152685418587
 40
0.5202937516743441
 40
0.5230834450605274
 40
0.5258857761015782
 40
0.5287021330616192
 40
0.5315338349205521
 40
0.5343821412668902
 40
0.537248255763101
 40
0.5401333279300705
 40
0.5430384550963191
 40
0.5459646844846232
 40
0.548860170604788
 40
0.5517778797900462
 40
0.5547186517975307
 40
0.5576832243486483
 40
0.5607268415329925
 40
0.5637964737354998
 40
0.5668927085062123
 40
0.5700160785248368
 40
0.5731670652190478
 40
0.5762890881632563
 40
0.5794385380327762
 40
0.5826157232026223
 40
0.5858208364624611
 40
0.5896730034694379
 40
0.5935650587913656
 40
0.5974970425177948
 40
0.6014689153941926
 40
0.6054805666839543
 40
0.6095318216308261
 40
0.6132407988736382
 40
0.6169818115572898
 40
0.6207544480775216
 40
0.6245582505894356
 40
0.6283927195362894
 40
0.6322573179442542
 40
0.6368498988966768
 40
0.6414825520847941
 40
0.6461542224464893
 40
0.6508636694021721
 40
0.6557067558208111
 40
0.6605862588445626
 40
0.6655006203788647
 40
0.6704482370164044
 40
0.6754274680876942
 40
0.6804366339050085
 40
0.6854739286108652
 40
0.6905374475669995
 40
0.6956252463066176
 40
0.7007353486448165
 40
0.705865753797942
 40
0.7110144432539125
 40
0.7161793843478567
 40
0.7213584876642571
 40
0.7261166174077066
 40
0.7308831726556698
 40
0.7356564726999619
 40
0.7404348305940044
 40
0.7452165572634757
 40
0.7499999655877307
 40
0.7552067760553292
 40
0.7604114171071753
 40
0.7656117121598479
 40
0.7708054829003198
 40
0.7759905555315526
 40
0.7810724807465701
 40
0.7861418962433633
 40
0.7911967985747737
 40
0.7962352526244781
 40
0.8013575951997107
 40
0.8064588139298651
 40
0.8115369172509171
 40
0.8165899410773197
 40
0.8216159560367683
 40
0.8266130841828927
 40
0.8315795824468546
 40
0.8365137910896202
 40
0.841414083738271
 40
0.8462788745256866
 40
0.851106626314815
 40
0.8558958593862315
 40
0.8606451685031683
 40
0.8653533330706351
 40
0.8696320996858047
 40
0.8738746005073309
 40
0.8780800949834139
 40
0.88224789533053
 40
0.8863773733965921
 40
0.8904679679357385
 40
0.8941445720242179
 40
0.8977886039888552
 40
0.9013999270726091
 40
0.9049784469485478
 40
0.9085241162470256
 40
0.9120369393034046
 40
0.9153190078557679
 40
0.9185720321688009
 40
0.9217961671444355
 40
0.9249916614890398
 40
0.928158874276028
 40
0.9312982131387262
 40
0.9344101313971043
 40
0.9374951315560283
 40
0.9405537688831895
 40
0.9435866550534915
 40
0.9465409699298126
 40
0.9494717894776818
 40
0.9523798928297863
 40
0.9552661542502083
 40
0.9581834013876859
 40
0.9610799799209431
 40
0.963956957843252
 40
0.9668154541445393
 40
0.9696566408435803
 40
0.9724314340980031
 40
0.97519192936874
 40
0.9779394019754161
 40
0.9806751857349817
 40
0.9834561599005023
 40
0.9862278479189298
 40
0.9889917413354626
 40
0.9917493547643041
 40
0.9945022255842139
 40
0.9972519135042582
 40
1.0
 40
1.0
 40
1.0
 40
1.0
 10
1478.86281507949
 20
726.1196320056151
 30
0.0
 10
1478.847384341363
 20
724.5754567878038
 30
0.0
 10
1478.816512798358
 20
721.486098958653
 30
0.0
 10
1478.56723533713
 20
716.8550942755594
 30
0.0
 10
1478.169885791307
 20
712.2291247640543
 30
0.0
 10
1477.610233118202
 20
707.6106967214706
 30
0.0
 10
1476.892599950733
 20
703.0023202762616
 30
0.0
 10
1476.033102656417
 20
698.4944991531576
 30
0.0
 10
1475.042776539166
 20
694.0884470138244
 30
0.0
 10
1473.931806737184
 20
689.7846469605136
 30
0.0
 10
1472.681002014867
 20
685.4984482703061
 30
0.0
 10
1471.290867117522
 20
681.2319390393013
 30
0.0
 10
1469.762410007103
 20
676.9870693512432
 30
0.0
 10
1468.096557385085
 20
672.7658153154354
 30
0.0
 10
1466.294258259815
 20
668.5701481133013
 30
0.0
 10
1464.356454937611
 20
664.4020398661567
 30
0.0
 10
1462.284091966936
 20
660.2634625757388
 30
0.0
 10
1460.091386930395
 20
656.1811062825187
 30
0.0
 10
1457.781931203309
 20
652.155988749195
 30
0.0
 10
1455.35913639773
 20
648.189021565067
 30
0.0
 10
1452.810254234974
 20
644.2580965491017
 30
0.0
 10
1450.120314006258
 20
640.3409691194701
 30
0.0
 10
1447.288237523497
 20
636.4404565812088
 30
0.0
 10
1444.313111741451
 20
632.5594865879344
 30
0.0
 10
1441.213158869653
 20
628.7229022715177
 30
0.0
 10
1437.989859099552
 20
624.9324869503714
 30
0.0
 10
1434.66486375773
 20
621.2125927923928
 30
0.0
 10
1431.24191650865
 20
617.5636683364352
 30
0.0
 10
1427.724593336835
 20
613.986112123871
 30
0.0
 10
1424.09401201853
 20
610.4599435541218
 30
0.0
 10
1420.111135408071
 20
606.763002286801
 30
0.0
 10
1415.754922563964
 20
602.9125443934006
 30
0.0
 10
1411.004976249825
 20
598.927969673009
 30
0.0
 10
1406.106005665769
 20
595.0252963687115
 30
0.0
 10
1401.061140650895
 20
591.2070110925636
 30
0.0
 10
1395.873505747521
 20
587.4755959575208
 30
0.0
 10
1390.713500401693
 20
583.9478948898942
 30
0.0
 10
1385.596432362203
 20
580.6149594997115
 30
0.0
 10
1380.536545252166
 20
577.4676814183617
 30
0.0
 10
1375.369974535695
 20
574.3990126457868
 30
0.0
 10
1370.099540678185
 20
571.4104726696064
 30
0.0
 10
1364.728062412943
 20
568.5035813138636
 30
0.0
 10
1358.928862301521
 20
565.5097564149667
 30
0.0
 10
1352.687585473953
 20
562.4513075802786
 30
0.0
 10
1345.990947736217
 20
559.352490783589
 30
0.0
 10
1339.171138005061
 20
556.3763797016071
 30
0.0
 10
1332.185541501297
 20
553.5052517688728
 30
0.0
 10
1325.037264125696
 20
550.7442236572291
 30
0.0
 10
1317.729714093651
 20
548.0984951996272
 30
0.0
 10
1310.315885946671
 20
545.588343764773
 30
0.0
 10
1302.80136633393
 20
543.2157466574744
 30
0.0
 10
1295.19175309695
 20
540.9826537632504
 30
0.0
 10
1287.492675767906
 20
538.8911374995287
 30
0.0
 10
1279.710047231682
 20
536.9425998748093
 30
0.0
 10
1271.849913730099
 20
535.1381951898501
 30
0.0
 10
1263.918331071024
 20
533.4791530764451
 30
0.0
 10
1255.921360576185
 20
531.9666834078622
 30
0.0
 10
1247.865061794557
 20
530.6020092373792
 30
0.0
 10
1239.755499001181
 20
529.3863229430434
 30
0.0
 10
1231.598755933265
 20
528.3209333349527
 30
0.0
 10
1223.629520231739
 20
527.4320380343106
 30
0.0
 10
1215.856365123923
 20
526.7054636343771
 30
0.0
 10
1208.286801753947
 20
526.1277048465686
 30
0.0
 10
1200.697811135333
 20
525.6777733108603
 30
0.0
 10
1193.094246340449
 20
525.3559866226866
 30
0.0
 10
1185.480961110083
 20
525.1626610560646
 30
0.0
 10
1177.638020762533
 20
525.0962091823153
 30
0.0
 10
1169.570509736375
 20
525.1706131747975
 30
0.0
 10
1161.284480651088
 20
525.3996354088308
 30
0.0
 10
1153.01098284412
 20
525.7807944051748
 30
0.0
 10
1144.756281583928
 20
526.3136819636451
 30
0.0
 10
1136.575466361422
 20
526.9938290831358
 30
0.0
 10
1128.474254466515
 20
527.8177055640841
 30
0.0
 10
1120.458128382813
 20
528.7817787071367
 30
0.0
 10
1112.484050597071
 20
529.8907028942351
 30
0.0
 10
1104.50418069902
 20
531.1518976308395
 30
0.0
 10
1096.525266380764
 20
532.5676270804898
 30
0.0
 10
1088.554313555815
 20
534.1402052751283
 30
0.0
 10
1080.651227036789
 20
535.8588592065183
 30
0.0
 10
1072.822069593874
 20
537.7223802546944
 30
0.0
 10
1065.072889200558
 20
539.7295313614093
 30
0.0
 10
1057.409718603867
 20
541.8791995693243
 30
0.0
 10
1049.838330246657
 20
544.1696033839034
 30
0.0
 10
1042.364327028743
 20
546.5987102813185
 30
0.0
 10
1034.993301060548
 20
549.1645637486374
 30
0.0
 10
1027.730837620855
 20
551.8651880473197
 30
0.0
 10
1020.582527307909
 20
554.698620903715
 30
0.0
 10
1013.55394065782
 20
557.6628709932197
 30
0.0
 10
1006.650649456989
 20
560.7560847603766
 30
0.0
 10
1000.063521841848
 20
563.8876019145415
 30
0.0
 10
993.7871761092084
 20
567.0419189414386
 30
0.0
 10
987.8153052172183
 20
570.2043454574941
 30
0.0
 10
981.9648147510512
 20
573.46675563747
 30
0.0
 10
976.2394813707295
 20
576.8271152030745
 30
0.0
 10
970.643090314162
 20
580.2833839963112
 30
0.0
 10
965.3462020234932
 20
583.7251553930603
 30
0.0
 10
960.3406919500758
 20
587.1393116449775
 30
0.0
 10
955.6172400203549
 20
590.5130130151629
 30
0.0
 10
951.0108018296721
 20
593.9585680984345
 30
0.0
 10
946.5237059111098
 20
597.4741259566522
 30
0.0
 10
942.1582866294806
 20
601.0578316516351
 30
0.0
 10
937.9965442731399
 20
604.6392720566596
 30
0.0
 10
934.0337562220734
 20
608.2114442883639
 30
0.0
 10
930.264744290884
 20
611.7676748661843
 30
0.0
 10
926.6119656015959
 20
615.3781192865497
 30
0.0
 10
923.0772356892705
 20
619.041178355767
 30
0.0
 10
919.6620294292707
 20
622.7550005545313
 30
0.0
 10
916.3678362885955
 20
626.5178104208886
 30
0.0
 10
913.1961321619514
 20
630.327822578254
 30
0.0
 10
910.1483963672914
 20
634.183255484821
 30
0.0
 10
907.2261079434019
 20
638.0823256546485
 30
0.0
 10
904.4471792389711
 20
642.0000872146475
 30
0.0
 10
901.8106705811796
 20
645.9336225117839
 30
0.0
 10
899.3155126000082
 20
649.8801580758501
 30
0.0
 10
896.9469383361345
 20
653.8619706651181
 30
0.0
 10
894.6923898338762
 20
657.9012006678047
 30
0.0
 10
892.5553192943282
 20
661.9969444628425
 30
0.0
 10
890.5393239827457
 20
666.148157285437
 30
0.0
 10
888.6582847764946
 20
670.3280740345576
 30
0.0
 10
886.9131456054627
 20
674.5347210700442
 30
0.0
 10
885.3143415299243
 20
678.7411579027348
 30
0.0
 10
883.8600750907473
 20
682.9446850531226
 30
0.0
 10
882.5484514714097
 20
687.1427958246205
 30
0.0
 10
881.3715010889647
 20
691.3591457962455
 30
0.0
 10
880.3224750628602
 20
695.6203356859461
 30
0.0
 10
879.4048653043545
 20
699.924937881536
 30
0.0
 10
878.6222659394455
 20
704.2712943043018
 30
0.0
 10
877.9812024688787
 20
708.6282406283642
 30
0.0
 10
877.4820075094203
 20
712.993662005613
 30
0.0
 10
877.1250131408353
 20
717.3654435925368
 30
0.0
 10
876.9105515151705
 20
721.7414739294069
 30
0.0
 10
876.8375623647154
 20
726.2046892209419
 30
0.0
 10
876.9162831402022
 20
730.7531670030002
 30
0.0
 10
877.1564715928554
 20
735.3841692121955
 30
0.0
 10
877.5562610405178
 20
740.0101393878069
 30
0.0
 10
878.1152580897865
 20
744.6285672519396
 30
0.0
 10
878.8330676790134
 20
749.2369437451677
 30
0.0
 10
879.6925180498043
 20
753.7447648554999
 30
0.0
 10
880.6828561040525
 20
758.1508169980821
 30
0.0
 10
881.7938227517716
 20
762.4546170505345
 30
0.0
 10
883.0446283249554
 20
766.7408157409734
 30
0.0
 10
884.4347629926144
 20
771.0073249719159
 30
0.0
 10
885.9632201650777
 20
775.2521946599907
 30
0.0
 10
887.6290727703251
 20
779.4734486957941
 30
0.0
 10
889.4313719001302
 20
783.669115897929
 30
0.0
 10
891.3691752211076
 20
787.8372241450737
 30
0.0
 10
893.4415381921151
 20
791.9758014354915
 30
0.0
 10
895.6342432285662
 20
796.0581577287115
 30
0.0
 10
897.9436989556758
 20
800.0832752620353
 30
0.0
 10
900.3664937612486
 20
804.050242446163
 30
0.0
 10
902.9153759240066
 20
807.9811674621286
 30
0.0
 10
905.6053161527216
 20
811.8982948917602
 30
0.0
 10
908.4373926354824
 20
815.7988074300215
 30
0.0
 10
911.4125184175281
 20
819.679777423296
 30
0.0
 10
914.5124712893274
 20
823.5163617397126
 30
0.0
 10
917.7357710594279
 20
827.306777060859
 30
0.0
 10
921.0607664012499
 20
831.0266712188376
 30
0.0
 10
924.4837136503297
 20
834.6755956747951
 30
0.0
 10
928.0010368221443
 20
838.2531518873593
 30
0.0
 10
931.63161814045
 20
841.7793204571085
 30
0.0
 10
935.6144947509094
 20
845.4762617244293
 30
0.0
 10
939.970707595016
 20
849.3267196178296
 30
0.0
 10
944.720653909155
 20
853.3112943382214
 30
0.0
 10
949.6196244932115
 20
857.213967642519
 30
0.0
 10
954.6644895080851
 20
861.0322529186666
 30
0.0
 10
959.8521244114594
 20
864.7636680537096
 30
0.0
 10
965.012129757287
 20
868.291369121336
 30
0.0
 10
970.1291977967767
 20
871.6243045115187
 30
0.0
 10
975.1890849068135
 20
874.7715825928684
 30
0.0
 10
980.3556556232851
 20
877.8402513654435
 30
0.0
 10
985.6260894807947
 20
880.8287913416237
 30
0.0
 10
990.9975677460374
 20
883.7356826973667
 30
0.0
 10
996.7967678574589
 20
886.7295075962636
 30
0.0
 10
1003.038044685027
 20
889.7879564309519
 30
0.0
 10
1009.734682422763
 20
892.886773227641
 30
0.0
 10
1016.554492153919
 20
895.862884309623
 30
0.0
 10
1023.540088657682
 20
898.7340122423574
 30
0.0
 10
1030.688366033284
 20
901.4950403540013
 30
0.0
 10
1037.995916065329
 20
904.1407688116029
 30
0.0
 10
1045.409744212309
 20
906.6509202464572
 30
0.0
 10
1052.924263825049
 20
909.0235173537559
 30
0.0
 10
1060.53387706203
 20
911.2566102479797
 30
0.0
 10
1068.232954391074
 20
913.3481265117016
 30
0.0
 10
1076.015582927298
 20
915.296664136421
 30
0.0
 10
1083.875716428881
 20
917.1010688213802
 30
0.0
 10
1091.807299087956
 20
918.7601109347851
 30
0.0
 10
1099.804269582795
 20
920.272580603368
 30
0.0
 10
1107.860568364423
 20
921.637254773851
 30
0.0
 10
1115.970131157799
 20
922.8529410681869
 30
0.0
 10
1124.126874225715
 20
923.9183306762774
 30
0.0
 10
1132.096109927241
 20
924.8072259769198
 30
0.0
 10
1139.869265035057
 20
925.5338003768532
 30
0.0
 10
1147.438828405033
 20
926.1115591646618
 30
0.0
 10
1155.027819023647
 20
926.56149070037
 30
0.0
 10
1162.63138381853
 20
926.8832773885435
 30
0.0
 10
1170.244669048896
 20
927.0766029551658
 30
0.0
 10
1178.087609396446
 20
927.1430548289148
 30
0.0
 10
1186.155120422605
 20
927.0686508364325
 30
0.0
 10
1194.441149507892
 20
926.8396286023994
 30
0.0
 10
1202.71464731486
 20
926.4584696060555
 30
0.0
 10
1210.969348575052
 20
925.9255820475853
 30
0.0
 10
1219.150163797558
 20
925.2454349280945
 30
0.0
 10
1227.251375692465
 20
924.421558447146
 30
0.0
 10
1235.267501776167
 20
923.4574853040936
 30
0.0
 10
1243.241579561909
 20
922.348561116995
 30
0.0
 10
1251.22144945996
 20
921.0873663803908
 30
0.0
 10
1259.200363778216
 20
919.6716369307403
 30
0.0
 10
1267.171316603165
 20
918.099058736102
 30
0.0
 10
1275.074403122191
 20
916.3804048047118
 30
0.0
 10
1282.903560565105
 20
914.516883756536
 30
0.0
 10
1290.652740958421
 20
912.5097326498211
 30
0.0
 10
1298.315911555112
 20
910.360064441906
 30
0.0
 10
1305.887299912323
 20
908.0696606273268
 30
0.0
 10
1313.361303130237
 20
905.6405537299117
 30
0.0
 10
1320.732329098431
 20
903.0747002625928
 30
0.0
 10
1327.994792538124
 20
900.3740759639105
 30
0.0
 10
1335.143102851071
 20
897.5406431075153
 30
0.0
 10
1342.17168950116
 20
894.5763930180107
 30
0.0
 10
1349.074980701991
 20
891.4831792508536
 30
0.0
 10
1355.662108317132
 20
888.3516620966888
 30
0.0
 10
1361.938454049772
 20
885.1973450697916
 30
0.0
 10
1367.910324941761
 20
882.0349185537362
 30
0.0
 10
1373.760815407928
 20
878.7725083737602
 30
0.0
 10
1379.48614878825
 20
875.412148808156
 30
0.0
 10
1385.082539844817
 20
871.9558800149193
 30
0.0
 10
1390.379428135486
 20
868.51410861817
 30
0.0
 10
1395.384938208904
 20
865.099952366253
 30
0.0
 10
1400.108390138625
 20
861.7262509960674
 30
0.0
 10
1404.714828329308
 20
858.2806959127957
 30
0.0
 10
1409.20192424787
 20
854.7651380545778
 30
0.0
 10
1413.567343529499
 20
851.1814323595951
 30
0.0
 10
1417.729085885841
 20
847.5999919545707
 30
0.0
 10
1421.691873936906
 20
844.0278197228662
 30
0.0
 10
1425.460885868096
 20
840.4715891450461
 30
0.0
 10
1429.113664557384
 20
836.8611447246807
 30
0.0
 10
1432.648394469709
 20
833.1980856554633
 30
0.0
 10
1436.063600729709
 20
829.484263456699
 30
0.0
 10
1439.357793870385
 20
825.7214535903418
 30
0.0
 10
1442.529497997028
 20
821.9114414329763
 30
0.0
 10
1445.577233791688
 20
818.0560085264098
 30
0.0
 10
1448.499522215578
 20
814.156938356582
 30
0.0
 10
1451.278450920008
 20
810.2391767965828
 30
0.0
 10
1453.914959577801
 20
806.3056414994463
 30
0.0
 10
1456.41011755897
 20
802.3591059353803
 30
0.0
 10
1458.77869182285
 20
798.3772933461121
 30
0.0
 10
1461.033240325085
 20
794.3380633434259
 30
0.0
 10
1463.17031086472
 20
790.2423195483877
 30
0.0
 10
1465.186306175981
 20
786.0911067257933
 30
0.0
 10
1467.06734538342
 20
781.9111899766731
 30
0.0
 10
1468.81248455006
 20
777.7045429411852
 30
0.0
 10
1470.411288641747
 20
773.4981061084991
 30
0.0
 10
1471.865555022186
 20
769.2945789580951
 30
0.0
 10
1473.177178858228
 20
765.0964681866562
 30
0.0
 10
1474.35412843745
 20
760.8801182148126
 30
0.0
 10
1475.403157462515
 20
756.6189283259286
 30
0.0
 10
1476.320755871868
 20
752.3143261272494
 30
0.0
 10
1477.103397561566
 20
747.9679697160038
 30
0.0
 10
1477.7443037555
 20
743.611023349133
 30
0.0
 10
1478.244083720323
 20
739.2456021311145
 30
0.0
 10
1478.598900269757
 20
734.8738199514194
 30
0.0
 10
1478.821476219636
 20
730.4977918231527
 30
0.0
 10
1478.849038135671
 20
727.5787351847572
 30
0.0
 10
1478.86281507949
 20
726.1196320056151
 30
0.0
  0
ENDSEC
  0
SECTION
  2
OBJECTS
  0
DICTIONARY
  5
C
330
0
100
AcDbDictionary
281
     1
  3
ACAD_GROUP
350
D
  3
ACAD_LAYOUT
350
1A
  3
ACAD_MLINESTYLE
350
17
  3
ACAD_PLOTSETTINGS
350
19
  3
ACAD_PLOTSTYLENAME
350
E
  3
ACAD_SCALELIST
350
47
  0
DICTIONARY
  5
D
102
{ACAD_REACTORS
330
C
102
}
330
C
100
AcDbDictionary
281
     1
  0
DICTIONARY
  5
1A
102
{ACAD_REACTORS
330
C
102
}
330
C
100
AcDbDictionary
281
     1
  3
Layout1
350
1E
  3
Layout2
350
26
  3
Model
350
22
  0
DICTIONARY
  5
17
102
{ACAD_REACTORS
330
C
102
}
330
C
100
AcDbDictionary
281
     1
  3
Standard
350
18
  0
DICTIONARY
  5
19
102
{ACAD_REACTORS
330
C
102
}
330
C
100
AcDbDictionary
281
     1
  0
ACDBDICTIONARYWDFLT
  5
E
102
{ACAD_REACTORS
330
C
102
}
330
C
100
AcDbDictionary
281
     1
  3
Normal
350
F
100
AcDbDictionaryWithDefault
340
F
  0
DICTIONARY
  5
47
102
{ACAD_REACTORS
330
C
102
}
330
C
100
AcDbDictionary
281
     1
  3
A0
350
48
  3
A1
350
49
  3
A2
350
4A
  3
A3
350
4B
  3
A4
350
4C
  3
A5
350
4D
  3
A6
350
4E
  3
A7
350
4F
  3
A8
350
50
  3
A9
350
51
  3
B0
350
52
  3
B1
350
53
  3
B2
350
54
  3
B3
350
55
  3
B4
350
56
  3
B5
350
57
  3
B6
350
58
  3
B7
350
59
  3
B8
350
5A
  3
B9
350
5B
  3
C0
350
5C
  3
C1
350
5D
  3
C2
350
5E
  3
C3
350
5F
  3
C4
350
60
  3
C5
350
61
  3
C6
350
62
  3
C7
350
63
  3
C8
350
64
  3
C9
350
65
  3
D0
350
66
  3
D1
350
67
  3
D2
350
68
  0
LAYOUT
  5
1E
102
{ACAD_REACTORS
330
1A
102
}
330
1A
100
AcDbPlotSettings
  1

  2
none_device
  4

  6

 40
0.0
 41
0.0
 42
0.0
 43
0.0
 44
0.0
 45
0.0
 46
0.0
 47
0.0
 48
0.0
 49
0.0
140
0.0
141
0.0
142
1.0
143
1.0
 70
   688
 72
     1
 73
     0
 74
     5
  7

 75
    16
147
1.0
148
0.0
149
0.0
100
AcDbLayout
  1
Layout1
 70
     1
 71
     1
 10
0.0
 20
0.0
 11
420.0
 21
297.0
 12
0.0
 22
0.0
 32
0.0
 14
1.0000000000E+20
 24
1.0000000000E+20
 34
1.0000000000E+20
 15
-1.0000000000E+20
 25
-1.0000000000E+20
 35
-1.0000000000E+20
146
0.0
 13
0.0
 23
0.0
 33
0.0
 16
1.0
 26
0.0
 36
0.0
 17
0.0
 27
1.0
 37
0.0
 76
     0
330
1B
  0
LAYOUT
  5
26
102
{ACAD_REACTORS
330
1A
102
}
330
1A
100
AcDbPlotSettings
  1

  2
none_device
  4

  6

 40
0.0
 41
0.0
 42
0.0
 43
0.0
 44
0.0
 45
0.0
 46
0.0
 47
0.0
 48
0.0
 49
0.0
140
0.0
141
0.0
142
1.0
143
1.0
 70
   688
 72
     1
 73
     0
 74
     5
  7

 75
    16
147
1.0
148
0.0
149
0.0
100
AcDbLayout
  1
Layout2
 70
     1
 71
     2
 10
0.0
 20
0.0
 11
0.0
 21
0.0
 12
0.0
 22
0.0
 32
0.0
 14
0.0
 24
0.0
 34
0.0
 15
0.0
 25
0.0
 35
0.0
146
0.0
 13
0.0
 23
0.0
 33
0.0
 16
1.0
 26
0.0
 36
0.0
 17
0.0
 27
1.0
 37
0.0
 76
     0
330
23
  0
LAYOUT
  5
22
102
{ACAD_REACTORS
330
1A
102
}
330
1A
100
AcDbPlotSettings
  1

  2
none_device
  4
Letter_(8.50_x_11.00_Inches)
  6

 40
6.35
 41
6.35
 42
6.35000508
 43
6.35000508
 44
215.9
 45
279.4
 46
0.0
 47
0.0
 48
0.0
 49
0.0
140
0.0
141
0.0
142
1.0
143
1.0
 70
  1712
 72
     1
 73
     0
 74
     0
  7

 75
     0
147
1.0
148
0.0
149
0.0
100
AcDbLayout
  1
Model
 70
     1
 71
     0
 10
0.0
 20
0.0
 11
2970.0
 21
2100.0
 12
0.0
 22
0.0
 32
0.0
 14
0.0
 24
0.0
 34
0.0
 15
2970.0
 25
2100.0
 35
0.0
146
0.0
 13
0.0
 23
0.0
 33
0.0
 16
1.0
 26
0.0
 36
0.0
 17
0.0
 27
1.0
 37
0.0
 76
     0
330
1F
331
29
  0
MLINESTYLE
  5
18
102
{ACAD_REACTORS
330
17
102
}
330
17
100
AcDbMlineStyle
  2
Standard
 70
     0
  3

 62
   256
 51
90.0
 52
90.0
 71
     2
 49
0.5
 62
   256
  6
BYLAYER
 49
-0.5
 62
   256
  6
BYLAYER
  0
ACDBPLACEHOLDER
  5
F
102
{ACAD_REACTORS
330
E
102
}
330
E
  0
SCALE
  5
48
102
{ACAD_REACTORS
330
47
102
}
330
47
100
AcDbScale
 70
     0
300
1:1
140
1.0
141
1.0
290
     1
  0
SCALE
  5
49
102
{ACAD_REACTORS
330
47
102
}
330
47
100
AcDbScale
 70
     0
300
1:2
140
1.0
141
2.0
290
     0
  0
SCALE
  5
4A
102
{ACAD_REACTORS
330
47
102
}
330
47
100
AcDbScale
 70
     0
300
1:4
140
1.0
141
4.0
290
     0
  0
SCALE
  5
4B
102
{ACAD_REACTORS
330
47
102
}
330
47
100
AcDbScale
 70
     0
300
1:5
140
1.0
141
5.0
290
     0
  0
SCALE
  5
4C
102
{ACAD_REACTORS
330
47
102
}
330
47
100
AcDbScale
 70
     0
300
1:8
140
1.0
141
8.0
290
     0
  0
SCALE
  5
4D
102
{ACAD_REACTORS
330
47
102
}
330
47
100
AcDbScale
 70
     0
300
1:10
140
1.0
141
10.0
290
     0
  0
SCALE
  5
4E
102
{ACAD_REACTORS
330
47
102
}
330
47
100
AcDbScale
 70
     0
300
1:16
140
1.0
141
16.0
290
     0
  0
SCALE
  5
4F
102
{ACAD_REACTORS
330
47
102
}
330
47
100
AcDbScale
 70
     0
300
1:20
140
1.0
141
20.0
290
     0
  0
SCALE
  5
50
102
{ACAD_REACTORS
330
47
102
}
330
47
100
AcDbScale
 70
     0
300
1:30
140
1.0
141
30.0
290
     0
  0
SCALE
  5
51
102
{ACAD_REACTORS
330
47
102
}
330
47
100
AcDbScale
 70
     0
300
1:40
140
1.0
141
40.0
290
     0
  0
SCALE
  5
52
102
{ACAD_REACTORS
330
47
102
}
330
47
100
AcDbScale
 70
     0
300
1:50
140
1.0
141
50.0
290
     0
  0
SCALE
  5
53
102
{ACAD_REACTORS
330
47
102
}
330
47
100
AcDbScale
 70
     0
300
1:100
140
1.0
141
100.0
290
     0
  0
SCALE
  5
54
102
{ACAD_REACTORS
330
47
102
}
330
47
100
AcDbScale
 70
     0
300
2:1
140
2.0
141
1.0
290
     0
  0
SCALE
  5
55
102
{ACAD_REACTORS
330
47
102
}
330
47
100
AcDbScale
 70
     0
300
4:1
140
4.0
141
1.0
290
     0
  0
SCALE
  5
56
102
{ACAD_REACTORS
330
47
102
}
330
47
100
AcDbScale
 70
     0
300
8:1
140
8.0
141
1.0
290
     0
  0
SCALE
  5
57
102
{ACAD_REACTORS
330
47
102
}
330
47
100
AcDbScale
 70
     0
300
10:1
140
10.0
141
1.0
290
     0
  0
SCALE
  5
58
102
{ACAD_REACTORS
330
47
102
}
330
47
100
AcDbScale
 70
     0
300
100:1
140
100.0
141
1.0
290
     0
  0
SCALE
  5
59
102
{ACAD_REACTORS
330
47
102
}
330
47
100
AcDbScale
 70
     0
300
1/128" = 1'-0"
140
0.0078125
141
12.0
290
     0
  0
SCALE
  5
5A
102
{ACAD_REACTORS
330
47
102
}
330
47
100
AcDbScale
 70
     0
300
1/64" = 1'-0"
140
0.015625
141
12.0
290
     0
  0
SCALE
  5
5B
102
{ACAD_REACTORS
330
47
102
}
330
47
100
AcDbScale
 70
     0
300
1/32" = 1'-0"
140
0.03125
141
12.0
290
     0
  0
SCALE
  5
5C
102
{ACAD_REACTORS
330
47
102
}
330
47
100
AcDbScale
 70
     0
300
1/16" = 1'-0"
140
0.0625
141
12.0
290
     0
  0
SCALE
  5
5D
102
{ACAD_REACTORS
330
47
102
}
330
47
100
AcDbScale
 70
     0
300
3/32" = 1'-0"
140
0.09375
141
12.0
290
     0
  0
SCALE
  5
5E
102
{ACAD_REACTORS
330
47
102
}
330
47
100
AcDbScale
 70
     0
300
1/8" = 1'-0"
140
0.125
141
12.0
290
     0
  0
SCALE
  5
5F
102
{ACAD_REACTORS
330
47
102
}
330
47
100
AcDbScale
 70
     0
300
3/16" = 1'-0"
140
0.1875
141
12.0
290
     0
  0
SCALE
  5
60
102
{ACAD_REACTORS
330
47
102
}
330
47
100
AcDbScale
 70
     0
300
1/4" = 1'-0"
140
0.25
141
12.0
290
     0
  0
SCALE
  5
61
102
{ACAD_REACTORS
330
47
102
}
330
47
100
AcDbScale
 70
     0
300
3/8" = 1'-0"
140
0.375
141
12.0
290
     0
  0
SCALE
  5
62
102
{ACAD_REACTORS
330
47
102
}
330
47
100
AcDbScale
 70
     0
300
1/2" = 1'-0"
140
0.5
141
12.0
290
     0
  0
SCALE
  5
63
102
{ACAD_REACTORS
330
47
102
}
330
47
100
AcDbScale
 70
     0
300
3/4" = 1'-0"
140
0.75
141
12.0
290
     0
  0
SCALE
  5
64
102
{ACAD_REACTORS
330
47
102
}
330
47
100
AcDbScale
 70
     0
300
1" = 1'-0"
140
1.0
141
12.0
290
     0
  0
SCALE
  5
65
102
{ACAD_REACTORS
330
47
102
}
330
47
100
AcDbScale
 70
     0
300
1-1/2" = 1'-0"
140
1.5
141
12.0
290
     0
  0
SCALE
  5
66
102
{ACAD_REACTORS
330
47
102
}
330
47
100
AcDbScale
 70
     0
300
3" = 1'-0"
140
3.0
141
12.0
290
     0
  0
SCALE
  5
67
102
{ACAD_REACTORS
330
47
102
}
330
47
100
AcDbScale
 70
     0
300
6" = 1'-0"
140
6.0
141
12.0
290
     0
  0
SCALE
  5
68
102
{ACAD_REACTORS
330
47
102
}
330
47
100
AcDbScale
 70
     0
300
1'-0" = 1'-0"
140
12.0
141
12.0
290
     0
  0
ENDSEC
  0
EOF
