  0
SECTION
  2
HEADER
  9
$ACADVER
  1
AC1021
  9
$ACADMAINTVER
 70
    50
  9
$DWGCODEPAGE
  3
ANSI_1252
  9
$INSBASE
 10
0.0
 20
0.0
 30
0.0
  9
$EXTMIN
 10
1.000000000000000E+20
 20
1.000000000000000E+20
 30
1.000000000000000E+20
  9
$EXTMAX
 10
-1.000000000000000E+20
 20
-1.000000000000000E+20
 30
-1.000000000000000E+20
  9
$LIMMIN
 10
0.0
 20
0.0
  9
$LIMMAX
 10
12.0
 20
9.0
  9
$ORTHOMODE
 70
     0
  9
$REGENMODE
 70
     1
  9
$FILLMODE
 70
     1
  9
$QTEXTMODE
 70
     0
  9
$MIRRTEXT
 70
     0
  9
$LTSCALE
 40
1.0
  9
$ATTMODE
 70
     1
  9
$TEXTSIZE
 40
0.2
  9
$TRACEWID
 40
0.05
  9
$TEXTSTYLE
  7
Standard
  9
$CLAYER
  8
0
  9
$CELTYPE
  6
ByLayer
  9
$CECOLOR
 62
   256
  9
$CELTSCALE
 40
1.0
  9
$DISPSILH
 70
     0
  9
$DIMSCALE
 40
1.0
  9
$DIMASZ
 40
0.18
  9
$DIMEXO
 40
0.0625
  9
$DIMDLI
 40
0.38
  9
$DIMRND
 40
0.0
  9
$DIMDLE
 40
0.0
  9
$DIMEXE
 40
0.18
  9
$DIMTP
 40
0.0
  9
$DIMTM
 40
0.0
  9
$DIMTXT
 40
0.18
  9
$DIMCEN
 40
0.09
  9
$DIMTSZ
 40
0.0
  9
$DIMTOL
 70
     0
  9
$DIMLIM
 70
     0
  9
$DIMTIH
 70
     1
  9
$DIMTOH
 70
     1
  9
$DIMSE1
 70
     0
  9
$DIMSE2
 70
     0
  9
$DIMTAD
 70
     0
  9
$DIMZIN
 70
     0
  9
$DIMBLK
  1

  9
$DIMASO
 70
     1
  9
$DIMSHO
 70
     1
  9
$DIMPOST
  1

  9
$DIMAPOST
  1

  9
$DIMALT
 70
     0
  9
$DIMALTD
 70
     2
  9
$DIMALTF
 40
25.4
  9
$DIMLFAC
 40
1.0
  9
$DIMTOFL
 70
     0
  9
$DIMTVP
 40
0.0
  9
$DIMTIX
 70
     0
  9
$DIMSOXD
 70
     0
  9
$DIMSAH
 70
     0
  9
$DIMBLK1
  1

  9
$DIMBLK2
  1

  9
$DIMSTYLE
  2
Standard
  9
$DIMCLRD
 70
     0
  9
$DIMCLRE
 70
     0
  9
$DIMCLRT
 70
     0
  9
$DIMTFAC
 40
1.0
  9
$DIMGAP
 40
0.09
  9
$DIMJUST
 70
     0
  9
$DIMSD1
 70
     0
  9
$DIMSD2
 70
     0
  9
$DIMTOLJ
 70
     1
  9
$DIMTZIN
 70
     0
  9
$DIMALTZ
 70
     0
  9
$DIMALTTZ
 70
     0
  9
$DIMUPT
 70
     0
  9
$DIMDEC
 70
     4
  9
$DIMTDEC
 70
     4
  9
$DIMALTU
 70
     2
  9
$DIMALTTD
 70
     2
  9
$DIMTXSTY
  7
Standard
  9
$DIMAUNIT
 70
     0
  9
$DIMADEC
 70
     0
  9
$DIMALTRND
 40
0.0
  9
$DIMAZIN
 70
     0
  9
$DIMDSEP
 70
    46
  9
$DIMATFIT
 70
     3
  9
$DIMFRAC
 70
     0
  9
$DIMLDRBLK
  1

  9
$DIMLUNIT
 70
     2
  9
$DIMLWD
 70
    -2
  9
$DIMLWE
 70
    -2
  9
$DIMTMOVE
 70
     0
  9
$DIMFXL
 40
1.0
  9
$DIMFXLON
 70
     0
  9
$DIMJOGANG
 40
0.7853981633974483
  9
$DIMTFILL
 70
     0
  9
$DIMTFILLCLR
 70
     0
  9
$DIMARCSYM
 70
     0
  9
$DIMLTYPE
  6

  9
$DIMLTEX1
  6

  9
$DIMLTEX2
  6

  9
$LUNITS
 70
     2
  9
$LUPREC
 70
     4
  9
$SKETCHINC
 40
0.1
  9
$FILLETRAD
 40
0.0
  9
$AUNITS
 70
     0
  9
$AUPREC
 70
     0
  9
$MENU
  1
.
  9
$ELEVATION
 40
0.0
  9
$PELEVATION
 40
0.0
  9
$THICKNESS
 40
0.0
  9
$LIMCHECK
 70
     0
  9
$CHAMFERA
 40
0.0
  9
$CHAMFERB
 40
0.0
  9
$CHAMFERC
 40
0.0
  9
$CHAMFERD
 40
0.0
  9
$SKPOLY
 70
     0
  9
$TDCREATE
 40
2460692.477280093
  9
$TDUCREATE
 40
2460692.435613426
  9
$TDUPDATE
 40
2460692.477280093
  9
$TDUUPDATE
 40
2460692.435613426
  9
$TDINDWG
 40
0.0000000000
  9
$TDUSRTIMER
 40
0.0000000000
  9
$USRTIMER
 70
     1
  9
$ANGBASE
 50
0.0
  9
$ANGDIR
 70
     0
  9
$PDMODE
 70
     0
  9
$PDSIZE
 40
0.0
  9
$PLINEWID
 40
0.0
  9
$SPLFRAME
 70
     0
  9
$SPLINETYPE
 70
     6
  9
$SPLINESEGS
 70
     8
  9
$HANDSEED
  5
1DA
  9
$SURFTAB1
 70
     6
  9
$SURFTAB2
 70
     6
  9
$SURFTYPE
 70
     6
  9
$SURFU
 70
     6
  9
$SURFV
 70
     6
  9
$UCSBASE
  2

  9
$UCSNAME
  2

  9
$UCSORG
 10
0.0
 20
0.0
 30
0.0
  9
$UCSXDIR
 10
1.0
 20
0.0
 30
0.0
  9
$UCSYDIR
 10
0.0
 20
1.0
 30
0.0
  9
$UCSORTHOREF
  2

  9
$UCSORTHOVIEW
 70
     0
  9
$UCSORGTOP
 10
0.0
 20
0.0
 30
0.0
  9
$UCSORGBOTTOM
 10
0.0
 20
0.0
 30
0.0
  9
$UCSORGLEFT
 10
0.0
 20
0.0
 30
0.0
  9
$UCSORGRIGHT
 10
0.0
 20
0.0
 30
0.0
  9
$UCSORGFRONT
 10
0.0
 20
0.0
 30
0.0
  9
$UCSORGBACK
 10
0.0
 20
0.0
 30
0.0
  9
$PUCSBASE
  2

  9
$PUCSNAME
  2

  9
$PUCSORG
 10
0.0
 20
0.0
 30
0.0
  9
$PUCSXDIR
 10
1.0
 20
0.0
 30
0.0
  9
$PUCSYDIR
 10
0.0
 20
1.0
 30
0.0
  9
$PUCSORTHOREF
  2

  9
$PUCSORTHOVIEW
 70
     0
  9
$PUCSORGTOP
 10
0.0
 20
0.0
 30
0.0
  9
$PUCSORGBOTTOM
 10
0.0
 20
0.0
 30
0.0
  9
$PUCSORGLEFT
 10
0.0
 20
0.0
 30
0.0
  9
$PUCSORGRIGHT
 10
0.0
 20
0.0
 30
0.0
  9
$PUCSORGFRONT
 10
0.0
 20
0.0
 30
0.0
  9
$PUCSORGBACK
 10
0.0
 20
0.0
 30
0.0
  9
$USERI1
 70
     0
  9
$USERI2
 70
     0
  9
$USERI3
 70
     0
  9
$USERI4
 70
     0
  9
$USERI5
 70
     0
  9
$USERR1
 40
0.0
  9
$USERR2
 40
0.0
  9
$USERR3
 40
0.0
  9
$USERR4
 40
0.0
  9
$USERR5
 40
0.0
  9
$WORLDVIEW
 70
     1
  9
$SHADEDGE
 70
     3
  9
$SHADEDIF
 70
    70
  9
$TILEMODE
 70
     1
  9
$MAXACTVP
 70
    64
  9
$PINSBASE
 10
0.0
 20
0.0
 30
0.0
  9
$PLIMCHECK
 70
     0
  9
$PEXTMIN
 10
1.000000000000000E+20
 20
1.000000000000000E+20
 30
1.000000000000000E+20
  9
$PEXTMAX
 10
-1.000000000000000E+20
 20
-1.000000000000000E+20
 30
-1.000000000000000E+20
  9
$PLIMMIN
 10
0.0
 20
0.0
  9
$PLIMMAX
 10
12.0
 20
9.0
  9
$UNITMODE
 70
     0
  9
$VISRETAIN
 70
     1
  9
$PLINEGEN
 70
     0
  9
$PSLTSCALE
 70
     1
  9
$TREEDEPTH
 70
  3020
  9
$CMLSTYLE
  2
Standard
  9
$CMLJUST
 70
     0
  9
$CMLSCALE
 40
1.0
  9
$PROXYGRAPHICS
 70
     1
  9
$MEASUREMENT
 70
     0
  9
$CELWEIGHT
370
    -1
  9
$ENDCAPS
280
     0
  9
$JOINSTYLE
280
     0
  9
$LWDISPLAY
290
     1
  9
$INSUNITS
 70
     4
  9
$HYPERLINKBASE
  1

  9
$STYLESHEET
  1

  9
$XEDIT
290
     1
  9
$CEPSNTYPE
380
     0
  9
$PSTYLEMODE
290
     1
  9
$FINGERPRINTGUID
  2
{3E921514-9EB6-3F4B-8417-39C56769D7B7}
  9
$VERSIONGUID
  2
{62E6EEA6-DD00-FD49-A059-9AEA06DC212B}
  9
$EXTNAMES
290
     1
  9
$PSVPSCALE
 40
0.0
  9
$OLESTARTUP
290
     0
  9
$SORTENTS
280
   127
  9
$INDEXCTL
280
     0
  9
$HIDETEXT
280
     1
  9
$XCLIPFRAME
290
     0
  9
$HALOGAP
280
     0
  9
$OBSCOLOR
 70
   257
  9
$OBSLTYPE
280
     0
  9
$INTERSECTIONDISPLAY
280
     0
  9
$INTERSECTIONCOLOR
 70
   257
  9
$DIMASSOC
280
     2
  9
$PROJECTNAME
  1

  9
$CAMERADISPLAY
290
     0
  9
$LENSLENGTH
 40
50.0
  9
$CAMERAHEIGHT
 40
0.0
  9
$STEPSPERSEC
 40
2.0
  9
$STEPSIZE
 40
6.0
  9
$3DDWFPREC
 40
2.0
  9
$PSOLWIDTH
 40
0.25
  9
$PSOLHEIGHT
 40
4.0
  9
$LOFTANG1
 40
1.570796326794896
  9
$LOFTANG2
 40
1.570796326794896
  9
$LOFTMAG1
 40
0.0
  9
$LOFTMAG2
 40
0.0
  9
$LOFTPARAM
 70
     7
  9
$LOFTNORMALS
280
     1
  9
$LATITUDE
 40
37.795
  9
$LONGITUDE
 40
-122.394
  9
$NORTHDIRECTION
 40
0.0
  9
$TIMEZONE
 70
 -8000
  9
$LIGHTGLYPHDISPLAY
280
     1
  9
$TILEMODELIGHTSYNCH
280
     1
  9
$CMATERIAL
347
11
  9
$SOLIDHIST
280
     0
  9
$SHOWHIST
280
     1
  9
$DWFFRAME
280
     2
  9
$DGNFRAME
280
     0
  9
$REALWORLDSCALE
290
     1
  9
$INTERFERECOLOR
 62
     1
  9
$INTERFEREOBJVS
345
33
  9
$INTERFEREVPVS
346
30
  9
$CSHADOW
280
     0
  9
$SHADOWPLANELOCATION
 40
0.0
  0
ENDSEC
  0
SECTION
  2
CLASSES
  0
CLASS
  1
ACDBDICTIONARYWDFLT
  2
AcDbDictionaryWithDefault
  3
ObjectDBX Classes
 90
        0
 91
        1
280
     0
281
     0
  0
CLASS
  1
MATERIAL
  2
AcDbMaterial
  3
ObjectDBX Classes
 90
     1153
 91
        3
280
     0
281
     0
  0
CLASS
  1
VISUALSTYLE
  2
AcDbVisualStyle
  3
ObjectDBX Classes
 90
     4095
 91
       24
280
     0
281
     0
  0
CLASS
  1
SCALE
  2
AcDbScale
  3
ObjectDBX Classes
 90
     1153
 91
       17
280
     0
281
     0
  0
CLASS
  1
TABLESTYLE
  2
AcDbTableStyle
  3
ObjectDBX Classes
 90
     4095
 91
        1
280
     0
281
     0
  0
CLASS
  1
MLEADERSTYLE
  2
AcDbMLeaderStyle
  3
ACDB_MLEADERSTYLE_CLASS
 90
     4095
 91
        1
280
     0
281
     0
  0
CLASS
  1
ACDBSECTIONVIEWSTYLE
  2
AcDbSectionViewStyle
  3
ObjectDBX Classes
 90
     1025
 91
        1
280
     0
281
     0
  0
CLASS
  1
ACDBDETAILVIEWSTYLE
  2
AcDbDetailViewStyle
  3
ObjectDBX Classes
 90
     1025
 91
        1
280
     0
281
     0
  0
CLASS
  1
DICTIONARYVAR
  2
AcDbDictionaryVar
  3
ObjectDBX Classes
 90
        0
 91
        6
280
     0
281
     0
  0
CLASS
  1
CELLSTYLEMAP
  2
AcDbCellStyleMap
  3
ObjectDBX Classes
 90
     1152
 91
        1
280
     0
281
     0
  0
ENDSEC
  0
SECTION
  2
TABLES
  0
TABLE
  2
VPORT
  5
8
330
0
100
AcDbSymbolTable
 70
     1
  0
VPORT
  5
57
330
8
100
AcDbSymbolTableRecord
100
AcDbViewportTableRecord
  2
*Active
 70
     0
 10
0.0
 20
0.0
 11
1.0
 21
1.0
 12
0.0
 22
0.0
 13
0.0
 23
0.0
 14
1.0
 24
1.0
 15
0.0
 25
0.0
 16
0.0
 26
0.0
 36
1.0
 17
74.93068922643996
 27
39.79561380238035
 37
0.0
 40
41.06120725698136
 41
0.9989585508168884
 42
50.0
 43
0.0
 44
0.0
 50
0.0
 51
0.0
 71
     0
 72
   100
 73
     1
 74
     1
 75
     0
 76
     0
 77
     0
 78
     0
281
     0
 65
     1
110
0.0
120
0.0
130
0.0
111
1.0
121
0.0
131
0.0
112
0.0
122
1.0
132
0.0
 79
     0
146
0.0
 60
     3
 61
     5
292
     1
282
     1
141
0.0
142
0.0
 63
   250
421
  3355443
  0
ENDTAB
  0
TABLE
  2
LTYPE
  5
5
330
0
100
AcDbSymbolTable
 70
     1
  0
LTYPE
  5
5B
330
5
100
AcDbSymbolTableRecord
100
AcDbLinetypeTableRecord
  2
ByBlock
 70
     0
  3

 72
    65
 73
     0
 40
0.0
  0
LTYPE
  5
5C
330
5
100
AcDbSymbolTableRecord
100
AcDbLinetypeTableRecord
  2
ByLayer
 70
     0
  3

 72
    65
 73
     0
 40
0.0
  0
LTYPE
  5
5D
330
5
100
AcDbSymbolTableRecord
100
AcDbLinetypeTableRecord
  2
Continuous
 70
     0
  3
Solid line
 72
    65
 73
     0
 40
0.0
  0
ENDTAB
  0
TABLE
  2
LAYER
  5
2
330
0
100
AcDbSymbolTable
 70
     6
  0
LAYER
  5
54
330
2
100
AcDbSymbolTableRecord
100
AcDbLayerTableRecord
  2
0
 70
     0
 62
     7
  6
Continuous
370
    -3
390
F
347
21
  0
LAYER
  5
78
330
2
100
AcDbSymbolTableRecord
100
AcDbLayerTableRecord
  2
REFERENCIAS
 70
     0
 62
     7
  6
Continuous
370
     0
390
F
347
21
  0
LAYER
  5
7A
330
2
100
AcDbSymbolTableRecord
100
AcDbLayerTableRecord
  2
MÁRGENES
 70
     4
 62
     7
  6
Continuous
370
     0
390
F
347
21
  0
LAYER
  5
80
330
2
100
AcDbSymbolTableRecord
100
AcDbLayerTableRecord
  2
DIBUJOS
 70
     0
 62
     7
  6
Continuous
370
     0
390
F
347
21
  0
LAYER
  5
18D
330
2
100
AcDbSymbolTableRecord
100
AcDbLayerTableRecord
  2
COTAS LINEA
 70
     0
 62
     7
  6
Continuous
370
     0
390
F
347
21
  0
LAYER
  5
192
330
2
100
AcDbSymbolTableRecord
100
AcDbLayerTableRecord
  2
COTAS NÚMERO
 70
     0
 62
     7
  6
Continuous
370
     0
390
F
347
21
  0
ENDTAB
  0
TABLE
  2
STYLE
  5
3
330
0
100
AcDbSymbolTable
 70
     2
  0
STYLE
  5
55
330
3
100
AcDbSymbolTableRecord
100
AcDbTextStyleTableRecord
  2
Standard
 70
     0
 40
0.0
 41
1.0
 50
0.0
 71
     0
 42
0.2
  3
txt
  4

  0
STYLE
  5
5A
330
3
100
AcDbSymbolTableRecord
100
AcDbTextStyleTableRecord
  2
Annotative
 70
     0
 40
0.0
 41
1.0
 50
0.0
 71
     0
 42
0.2
  3
txt
  4

1001
AcadAnnotative
1000
AnnotativeData
1002
{
1070
     1
1070
     1
1002
}
  0
ENDTAB
  0
TABLE
  2
VIEW
  5
6
330
0
100
AcDbSymbolTable
 70
     0
  0
ENDTAB
  0
TABLE
  2
UCS
  5
7
330
0
100
AcDbSymbolTable
 70
     0
  0
ENDTAB
  0
TABLE
  2
APPID
  5
9
330
0
100
AcDbSymbolTable
 70
     3
  0
APPID
  5
56
330
9
100
AcDbSymbolTableRecord
100
AcDbRegAppTableRecord
  2
ACAD
 70
     0
  0
APPID
  5
5E
330
9
100
AcDbSymbolTableRecord
100
AcDbRegAppTableRecord
  2
AcadAnnotative
 70
     0
  0
APPID
  5
1D3
330
9
100
AcDbSymbolTableRecord
100
AcDbRegAppTableRecord
  2
ACAD_MLEADERVER
 70
     0
  0
ENDTAB
  0
TABLE
  2
DIMSTYLE
  5
A
330
0
100
AcDbSymbolTable
 70
     2
100
AcDbDimStyleTable
 71
     0
  0
DIMSTYLE
105
58
330
A
100
AcDbSymbolTableRecord
100
AcDbDimStyleTableRecord
  2
Standard
 70
     0
340
55
  0
DIMSTYLE
105
59
330
A
100
AcDbSymbolTableRecord
100
AcDbDimStyleTableRecord
  2
Annotative
 70
     0
340
55
1001
AcadAnnotative
1000
AnnotativeData
1002
{
1070
     1
1070
     1
1002
}
  0
ENDTAB
  0
TABLE
  2
BLOCK_RECORD
  5
1
330
0
100
AcDbSymbolTable
 70
     4
  0
BLOCK_RECORD
  5
70
330
1
100
AcDbSymbolTableRecord
100
AcDbBlockTableRecord
  2
*Model_Space
340
73
 70
     0
280
     1
281
     0
  0
BLOCK_RECORD
  5
6C
330
1
100
AcDbSymbolTableRecord
100
AcDbBlockTableRecord
  2
*Paper_Space
340
6F
 70
     0
280
     1
281
     0
  0
BLOCK_RECORD
  5
74
330
1
100
AcDbSymbolTableRecord
100
AcDbBlockTableRecord
  2
*Paper_Space0
340
77
 70
     0
280
     1
281
     0
  0
BLOCK_RECORD
  5
88
330
1
100
AcDbSymbolTableRecord
100
AcDbBlockTableRecord
  2
Block_0
340
0
102
{BLKREFS
331
89
102
}
 70
     0
280
     1
281
     0
  0
BLOCK_RECORD
  5
103
330
1
100
AcDbSymbolTableRecord
100
AcDbBlockTableRecord
  2
Block_1
340
0
102
{BLKREFS
331
104
102
}
 70
     0
280
     1
281
     0
  0
BLOCK_RECORD
  5
12F
330
1
100
AcDbSymbolTableRecord
100
AcDbBlockTableRecord
  2
Block_2
340
0
102
{BLKREFS
331
130
102
}
 70
     0
280
     1
281
     0
  0
ENDTAB
  0
ENDSEC
  0
SECTION
  2
BLOCKS
  0
BLOCK
  5
71
330
70
100
AcDbEntity
  8
0
100
AcDbBlockBegin
  2
*Model_Space
 70
     0
 10
0.0
 20
0.0
 30
0.0
  3
*Model_Space
  1

  0
ENDBLK
  5
72
330
70
100
AcDbEntity
  8
0
100
AcDbBlockEnd
  0
BLOCK
  5
6D
330
6C
100
AcDbEntity
 67
     1
  8
0
100
AcDbBlockBegin
  2
*Paper_Space
 70
     0
 10
0.0
 20
0.0
 30
0.0
  3
*Paper_Space
  1

  0
ENDBLK
  5
6E
330
6C
100
AcDbEntity
 67
     1
  8
0
100
AcDbBlockEnd
  0
BLOCK
  5
75
330
74
100
AcDbEntity
 67
     1
  8
0
100
AcDbBlockBegin
  2
*Paper_Space0
 70
     0
 10
0.0
 20
0.0
 30
0.0
  3
*Paper_Space0
  1

  0
ENDBLK
  5
76
330
74
100
AcDbEntity
 67
     1
  8
0
100
AcDbBlockEnd
  0
BLOCK
  5
8A
330
88
100
AcDbEntity
  8
0
100
AcDbBlockBegin
  2
Block_0
 70
     0
 10
0.0
 20
0.0
 30
0.0
  3
Block_0
  1

  0
LINE
  5
8C
330
88
100
AcDbEntity
  8
DIBUJOS
 62
     7
370
    18
100
AcDbLine
 10
62.8415135345965
 20
47.99033828546607
 30
0.0
 11
62.83559442772021
 21
47.99033828546607
 31
0.0
  0
LINE
  5
8D
330
88
100
AcDbEntity
  8
DIBUJOS
 62
     7
370
    18
100
AcDbLine
 10
66.42298426601285
 20
47.99033828546607
 30
0.0
 11
66.41706515913623
 21
47.99033828546607
 31
0.0
  0
LWPOLYLINE
  5
8E
330
88
100
AcDbEntity
  8
DIBUJOS
 62
     7
370
    18
100
AcDbPolyline
 90
       67
 70
     0
 43
0.0
 10
66.42298426601285
 20
47.99033828546607
 10
66.4294259750574
 20
47.99416914553676
 10
66.6186924048655
 20
48.02337546973495
 10
66.65350121453577
 20
48.02834730144024
 10
66.9089293975179
 20
48.07705850386778
 10
67.03923419366056
 20
48.11289393700625
 10
67.30444045440805
 20
48.20525845922218
 10
67.34146235679841
 20
48.22579594865164
 10
67.37015130388171
 20
48.24492475243134
 10
67.42934874584264
 20
48.30413098165752
 10
67.45776364544783
 20
48.34616845614181
 10
67.46013128819841
 20
48.35090444454824
 10
67.50453016631897
 20
48.43497939351681
 10
67.50808163044436
 20
48.44563696096723
 10
67.55002045445492
 20
48.59970956361996
 10
67.57989322291432
 20
48.7893084534658
 10
67.59185093411391
 20
48.92555895169727
 10
67.6306206858288
 20
49.34616953983805
 10
67.6306206858288
 20
49.51786983554375
 10
67.61638137004073
 20
49.61219759386892
 10
67.58611983655429
 20
49.72386620880268
 10
67.52998471583572
 20
49.81390098167437
 10
67.50166860078697
 20
49.83905016371793
 10
67.45766326759248
 20
49.87756273700579
 10
67.3929195507898
 20
49.91910621539101
 10
67.33403917538836
 20
49.94238139933028
 10
67.3056242757835
 20
49.95185337614344
 10
67.1575605657124
 20
49.99361038832623
 10
67.13388095160872
 20
49.99953196737053
 10
66.91397218978273
 20
50.04232159075375
 10
66.87916338011214
 20
50.04729342245905
 10
66.76612357511686
 20
50.05985367165859
 10
66.69550377051892
 20
50.06528762874701
 10
66.33429326082503
 20
50.08317984874398
 10
66.17445825557178
 20
50.08909824071622
 10
65.8842834015914
 20
50.0921737648159
 10
65.07921476123748
 20
50.08331370575059
 10
64.13202701047771
 20
50.08329139624992
 10
63.09606380966729
 20
50.0921737648159
 10
62.58126721455057
 20
50.06579437313245
 10
62.42141786960342
 20
50.0539320926146
 10
62.15429646310496
 20
50.00545354641452
 10
61.97663243875431
 20
49.95777495518775
 10
61.8715798431188
 20
49.91910621539101
 10
61.85791889497402
 20
49.90999756474078
 10
61.79963122691042
 20
49.87310721090056
 10
61.72859397789701
 20
49.80206101065751
 10
61.71812042498976
 20
49.78338795811774
 10
61.71538791670057
 20
49.77928938403225
 10
61.68301127840163
 20
49.72450043605218
 10
61.67945981427592
 20
49.71384286860177
 10
61.64923651997214
 20
49.58931760680853
 10
61.63979701830631
 20
49.52378822751629
 10
61.63979701830631
 20
49.34616953983805
 10
61.67798441912995
 20
48.93196496562538
 10
61.68984971897044
 20
48.78985025563861
 10
61.72681744918469
 20
48.5640494194196
 10
61.76648104180376
 20
48.42965060979145
 10
61.82780872492023
 20
48.32082804980168
 10
61.88842738985101
 20
48.25084633147564
 10
61.94881024648665
 20
48.21176964651368
 10
61.97781626012976
 20
48.1993368801782
 10
62.2145391094024
 20
48.1167598548643
 10
62.35556840309111
 20
48.07705850386778
 10
62.56955805804047
 20
48.03426888048423
 10
62.82915112537609
 20
47.99416914553676
 10
62.83559442772021
 20
47.99033828546607
  0
LINE
  5
8F
330
88
100
AcDbEntity
  8
DIBUJOS
 62
     7
370
    18
100
AcDbLine
 10
62.8415135345965
 20
47.98441670642208
 30
0.0
 11
62.8415135345965
 21
47.99033828546607
 31
0.0
  0
LINE
  5
90
330
88
100
AcDbEntity
  8
DIBUJOS
 62
     7
370
    18
100
AcDbLine
 10
66.42298426601285
 20
47.98441670642208
 30
0.0
 11
66.42298426601285
 21
47.99033828546607
 31
0.0
  0
LWPOLYLINE
  5
91
330
88
100
AcDbEntity
  8
DIBUJOS
 62
     7
370
    18
100
AcDbPolyline
 90
        4
 70
     0
 43
0.0
 10
62.98950873279792
 20
47.9784951273781
 10
62.98323272687991
 20
47.98193079056928
 10
62.84743423477205
 20
47.99625667743862
 10
62.8415135345965
 20
47.99033828546607
  0
LINE
  5
92
330
88
100
AcDbEntity
  8
DIBUJOS
 62
     7
370
    18
100
AcDbLine
 10
62.99542783967421
 20
47.9784951273781
 30
0.0
 11
62.98950873279792
 21
47.9784951273781
 31
0.0
  0
LINE
  5
93
330
88
100
AcDbEntity
  8
DIBUJOS
 62
     7
370
    18
100
AcDbLine
 10
63.00134694655051
 20
47.9784951273781
 30
0.0
 11
62.99542783967421
 21
47.9784951273781
 31
0.0
  0
LINE
  5
94
330
88
100
AcDbEntity
  8
DIBUJOS
 62
     7
370
    18
100
AcDbLine
 10
66.26315085405884
 20
47.9784951273781
 30
0.0
 11
66.2572301538833
 21
47.9784951273781
 31
0.0
  0
LINE
  5
95
330
88
100
AcDbEntity
  8
DIBUJOS
 62
     7
370
    18
100
AcDbLine
 10
66.26906996093514
 20
47.9784951273781
 30
0.0
 11
66.26315085405884
 21
47.9784951273781
 31
0.0
  0
LWPOLYLINE
  5
96
330
88
100
AcDbEntity
  8
DIBUJOS
 62
     7
370
    18
100
AcDbPolyline
 90
        4
 70
     0
 43
0.0
 10
66.26906996093514
 20
47.9784951273781
 10
66.27530932096975
 20
47.98186704913709
 10
66.411144458961
 20
47.99625667743862
 10
66.41706515913623
 20
47.99033828546607
  0
LINE
  5
97
330
88
100
AcDbEntity
  8
DIBUJOS
 62
     7
370
    18
100
AcDbLine
 10
62.99542783967421
 20
47.97257354833411
 30
0.0
 11
62.99542783967421
 21
47.9784951273781
 31
0.0
  0
LINE
  5
98
330
88
100
AcDbEntity
  8
DIBUJOS
 62
     7
370
    18
100
AcDbLine
 10
66.26315085405884
 20
47.97257354833411
 30
0.0
 11
66.26315085405884
 21
47.9784951273781
 31
0.0
  0
LWPOLYLINE
  5
99
330
88
100
AcDbEntity
  8
DIBUJOS
 62
     7
370
    18
100
AcDbPolyline
 90
        6
 70
     0
 43
0.0
 10
63.00134694655051
 20
47.9784951273781
 10
63.00726764672606
 20
47.98441670642208
 10
64.13794611735401
 20
47.96665515636124
 10
65.10882463531285
 20
47.9696478165995
 10
66.25131104700701
 20
47.98441670642208
 10
66.2572301538833
 20
47.9784951273781
  0
LWPOLYLINE
  5
9A
330
88
100
AcDbEntity
  8
DIBUJOS
 62
     7
370
    18
100
AcDbPolyline
 90
        4
 70
     0
 43
0.0
 10
62.72903775755126
 20
47.06671218573823
 10
62.75535428198654
 20
47.39208670014572
 10
62.80951530487964
 20
47.78943485263394
 10
62.8415135345965
 20
47.98441670642208
  0
LWPOLYLINE
  5
9B
330
88
100
AcDbEntity
  8
DIBUJOS
 62
     7
370
    18
100
AcDbPolyline
 90
        4
 70
     0
 43
0.0
 10
66.52954093618148
 20
47.06671218573823
 10
66.50326265092949
 20
47.40982275363381
 10
66.44906338885341
 20
47.80127482365016
 10
66.42298426601285
 20
47.98441670642208
  0
LINE
  5
9C
330
88
100
AcDbEntity
  8
DIBUJOS
 62
     7
370
    18
100
AcDbLine
 10
62.72903775755126
 20
47.06079379376569
 30
0.0
 11
62.72311705737571
 21
47.06079379376569
 31
0.0
  0
LINE
  5
9D
330
88
100
AcDbEntity
  8
DIBUJOS
 62
     7
370
    18
100
AcDbLine
 10
62.72903775755126
 20
47.06079379376569
 30
0.0
 11
62.72903775755126
 21
47.06671218573823
 31
0.0
  0
LINE
  5
9E
330
88
100
AcDbEntity
  8
DIBUJOS
 62
     7
370
    18
100
AcDbLine
 10
62.73495686442756
 20
47.06079379376569
 30
0.0
 11
62.72903775755126
 21
47.06079379376569
 31
0.0
  0
LINE
  5
9F
330
88
100
AcDbEntity
  8
DIBUJOS
 62
     7
370
    18
100
AcDbLine
 10
66.52954093618148
 20
47.06079379376569
 30
0.0
 11
66.52954093618148
 21
47.06671218573823
 31
0.0
  0
LINE
  5
A0
330
88
100
AcDbEntity
  8
DIBUJOS
 62
     7
370
    18
100
AcDbLine
 10
66.53546004305809
 20
47.06079379376569
 30
0.0
 11
66.52954093618148
 21
47.06079379376569
 31
0.0
  0
LWPOLYLINE
  5
A1
330
88
100
AcDbEntity
  8
DIBUJOS
 62
     7
370
    18
100
AcDbPolyline
 90
        4
 70
     0
 43
0.0
 10
62.88295206262898
 20
47.03118908561656
 10
62.91514945475758
 20
47.42166272465068
 10
62.96822862743014
 20
47.79455647670461
 10
62.99542783967421
 20
47.97257354833411
  0
LINE
  5
A2
330
88
100
AcDbEntity
  8
DIBUJOS
 62
     7
370
    18
100
AcDbLine
 10
62.87703295575267
 20
47.02526750657257
 30
0.0
 11
62.73495686442756
 21
47.06079379376569
 31
0.0
  0
LINE
  5
A3
330
88
100
AcDbEntity
  8
DIBUJOS
 62
     7
370
    18
100
AcDbLine
 10
62.88295206262898
 20
47.02526750657257
 30
0.0
 11
62.87703295575267
 21
47.02526750657257
 31
0.0
  0
LINE
  5
A4
330
88
100
AcDbEntity
  8
DIBUJOS
 62
     7
370
    18
100
AcDbLine
 10
62.88295206262898
 20
47.02526750657257
 30
0.0
 11
62.88295206262898
 21
47.03118908561656
 31
0.0
  0
LINE
  5
A5
330
88
100
AcDbEntity
  8
DIBUJOS
 62
     7
370
    18
100
AcDbLine
 10
62.88887116950527
 20
47.02526750657257
 30
0.0
 11
62.88295206262898
 21
47.02526750657257
 31
0.0
  0
LWPOLYLINE
  5
A6
330
88
100
AcDbEntity
  8
DIBUJOS
 62
     7
370
    18
100
AcDbPolyline
 90
        5
 70
     0
 43
0.0
 10
66.37562663110408
 20
47.02526750657257
 10
66.37295785478683
 20
47.0842315183567
 10
66.34931010666912
 20
47.39208670014572
 10
66.29026243484158
 20
47.81236264576809
 10
66.26315085405884
 20
47.97257354833411
  0
LINE
  5
A7
330
88
100
AcDbEntity
  8
DIBUJOS
 62
     7
370
    18
100
AcDbLine
 10
66.37562663110408
 20
47.01934911460035
 30
0.0
 11
66.36970593092822
 21
47.01934911460035
 31
0.0
  0
LINE
  5
A8
330
88
100
AcDbEntity
  8
DIBUJOS
 62
     7
370
    18
100
AcDbLine
 10
66.37562663110408
 20
47.01934911460035
 30
0.0
 11
66.37562663110408
 21
47.02526750657257
 31
0.0
  0
LINE
  5
A9
330
88
100
AcDbEntity
  8
DIBUJOS
 62
     7
370
    18
100
AcDbLine
 10
66.38154573798039
 20
47.01934911460035
 30
0.0
 11
66.37562663110408
 21
47.01934911460035
 31
0.0
  0
LWPOLYLINE
  5
AA
330
88
100
AcDbEntity
  8
DIBUJOS
 62
     7
370
    18
100
AcDbPolyline
 90
        3
 70
     0
 43
0.0
 10
66.38154573798039
 20
47.01934911460035
 10
66.52302912196766
 20
47.05664741360613
 10
66.52954093618148
 20
47.06079379376569
  0
LWPOLYLINE
  5
AB
330
88
100
AcDbEntity
  8
DIBUJOS
 62
     7
370
    18
100
AcDbPolyline
 90
        8
 70
     0
 43
0.0
 10
62.88887116950527
 20
47.02526750657257
 10
62.89538298371907
 20
47.02112431348477
 10
63.04906148050131
 20
46.98039035128749
 10
63.08387029017223
 20
46.97541533251043
 10
63.09014470279099
 20
46.97198285639069
 10
66.19803271192236
 20
46.97198285639069
 10
66.35253972433726
 20
47.01165233667192
 10
66.36970593092822
 20
47.01934911460035
  0
LINE
  5
AC
330
88
100
AcDbEntity
  8
DIBUJOS
 62
     7
370
    18
100
AcDbLine
 10
62.85927244852496
 20
46.72923636044227
 30
0.0
 11
62.78231609263589
 21
46.75883788151933
 31
0.0
  0
LINE
  5
AD
330
88
100
AcDbEntity
  8
DIBUJOS
 62
     7
370
    18
100
AcDbLine
 10
62.86519314870051
 20
46.72923636044227
 30
0.0
 11
62.85927244852496
 21
46.72923636044227
 31
0.0
  0
LINE
  5
AE
330
88
100
AcDbEntity
  8
DIBUJOS
 62
     7
370
    18
100
AcDbLine
 10
62.87111225557713
 20
46.72923636044227
 30
0.0
 11
62.86519314870051
 21
46.72923636044227
 31
0.0
  0
LINE
  5
AF
330
88
100
AcDbEntity
  8
DIBUJOS
 62
     7
370
    18
100
AcDbLine
 10
66.39338554503254
 20
46.72923636044227
 30
0.0
 11
66.38746643815625
 21
46.72923636044227
 31
0.0
  0
LINE
  5
B0
330
88
100
AcDbEntity
  8
DIBUJOS
 62
     7
370
    18
100
AcDbLine
 10
66.39930624520809
 20
46.72923636044227
 30
0.0
 11
66.39338554503254
 21
46.72923636044227
 31
0.0
  0
LINE
  5
B1
330
88
100
AcDbEntity
  8
DIBUJOS
 62
     7
370
    18
100
AcDbLine
 10
66.39930624520809
 20
46.72923636044227
 30
0.0
 11
66.48218170797377
 21
46.75883788151933
 31
0.0
  0
LINE
  5
B2
330
88
100
AcDbEntity
  8
DIBUJOS
 62
     7
370
    18
100
AcDbLine
 10
62.86519314870051
 20
46.72331478139797
 30
0.0
 11
62.86519314870051
 21
46.72923636044227
 31
0.0
  0
LINE
  5
B3
330
88
100
AcDbEntity
  8
DIBUJOS
 62
     7
370
    18
100
AcDbLine
 10
62.88295206262898
 20
46.72331478139797
 30
0.0
 11
62.87111225557713
 21
46.72923636044227
 31
0.0
  0
LINE
  5
B4
330
88
100
AcDbEntity
  8
DIBUJOS
 62
     7
370
    18
100
AcDbLine
 10
62.88887116950527
 20
46.72331478139797
 30
0.0
 11
62.88295206262898
 21
46.72331478139797
 31
0.0
  0
LINE
  5
B5
330
88
100
AcDbEntity
  8
DIBUJOS
 62
     7
370
    18
100
AcDbLine
 10
66.38154573798039
 20
46.72331478139797
 30
0.0
 11
66.37562663110408
 21
46.72331478139797
 31
0.0
  0
LINE
  5
B6
330
88
100
AcDbEntity
  8
DIBUJOS
 62
     7
370
    18
100
AcDbLine
 10
66.38154573798039
 20
46.72331478139797
 30
0.0
 11
66.38746643815625
 21
46.72923636044227
 31
0.0
  0
LINE
  5
B7
330
88
100
AcDbEntity
  8
DIBUJOS
 62
     7
370
    18
100
AcDbLine
 10
66.39338554503254
 20
46.72331478139797
 30
0.0
 11
66.39338554503254
 21
46.72923636044227
 31
0.0
  0
LINE
  5
B8
330
88
100
AcDbEntity
  8
DIBUJOS
 62
     7
370
    18
100
AcDbLine
 10
62.88295206262898
 20
46.71739320235398
 30
0.0
 11
62.88295206262898
 21
46.72331478139797
 31
0.0
  0
LINE
  5
B9
330
88
100
AcDbEntity
  8
DIBUJOS
 62
     7
370
    18
100
AcDbLine
 10
66.38154573798039
 20
46.71739320235398
 30
0.0
 11
66.38154573798039
 21
46.72331478139797
 31
0.0
  0
LWPOLYLINE
  5
BA
330
88
100
AcDbEntity
  8
DIBUJOS
 62
     7
370
    18
100
AcDbPolyline
 90
       17
 70
     0
 43
0.0
 10
66.55322055028548
 20
46.71739320235398
 10
66.54729985011025
 20
46.77659943157985
 10
66.77757939703877
 20
46.86067438054875
 10
66.80244283251791
 20
46.8701463573616
 10
66.92616570927812
 20
46.92461659818103
 10
66.94392621650583
 20
46.94237814824155
 10
66.94392621650583
 20
46.97790443543468
 10
66.9359167009559
 20
47.00106488479625
 10
66.91432749552553
 20
47.04895063567771
 10
66.89656698829782
 20
47.06671218573823
 10
66.88413606720772
 20
47.07144817414466
 10
66.87940078170655
 20
47.07381935541979
 10
66.84892096621671
 20
47.08779785148401
 10
66.80214010565231
 20
47.09299596527324
 10
66.72489376929165
 20
47.09631689388705
 10
66.57143514781207
 20
47.06443661661156
 10
66.53546004305809
 20
47.06079379376569
  0
LWPOLYLINE
  5
BB
330
88
100
AcDbEntity
  8
DIBUJOS
 62
     7
370
    18
100
AcDbPolyline
 90
       20
 70
     0
 43
0.0
 10
62.70535814344725
 20
46.71147162330968
 10
62.71127884362313
 20
46.72923636044227
 10
62.71127884362313
 20
46.77659943157985
 10
62.69943903657096
 20
46.78844258966814
 10
62.68819034355673
 20
46.79021778855289
 10
62.48691840357026
 20
46.86067438054875
 10
62.45613586121482
 20
46.8760679364059
 10
62.34425119820752
 20
46.93053817722502
 10
62.33833209133123
 20
46.93645975626933
 10
62.33833209133123
 20
46.98382282740722
 10
62.34247626279445
 20
46.99033720177015
 10
62.36793081231185
 20
47.04895063567771
 10
62.38568972623999
 20
47.06671218573823
 10
62.39812224062935
 20
47.07144817414466
 10
62.40285752613051
 20
47.07381935541979
 10
62.43336761430676
 20
47.08784565755807
 10
62.47416722932248
 20
47.09294497212774
 10
62.55736453854542
 20
47.09631689388705
 10
62.71087892550004
 20
47.06431232081893
 10
62.72311705737571
 20
47.06079379376569
  0
LINE
  5
BC
330
88
100
AcDbEntity
  8
DIBUJOS
 62
     7
370
    18
100
AcDbLine
 10
62.86519314870051
 20
46.71147162330968
 30
0.0
 11
62.86519314870051
 21
46.72331478139797
 31
0.0
  0
LINE
  5
BD
330
88
100
AcDbEntity
  8
DIBUJOS
 62
     7
370
    18
100
AcDbLine
 10
62.87703295575267
 20
46.71147162330968
 30
0.0
 11
62.88295206262898
 21
46.71739320235398
 31
0.0
  0
LINE
  5
BE
330
88
100
AcDbEntity
  8
DIBUJOS
 62
     7
370
    18
100
AcDbLine
 10
62.90071097655712
 20
46.71147162330968
 30
0.0
 11
62.88887116950527
 21
46.72331478139797
 31
0.0
  0
LWPOLYLINE
  5
BF
330
88
100
AcDbEntity
  8
DIBUJOS
 62
     7
370
    18
100
AcDbPolyline
 90
        3
 70
     0
 43
0.0
 10
66.35786612387637
 20
46.71147162330968
 10
66.36970593092822
 20
46.72331478139797
 10
66.37562663110408
 20
46.72331478139797
  0
LINE
  5
C0
330
88
100
AcDbEntity
  8
DIBUJOS
 62
     7
370
    18
100
AcDbLine
 10
66.38746643815625
 20
46.71147162330968
 30
0.0
 11
66.38154573798039
 21
46.71739320235398
 31
0.0
  0
LINE
  5
C1
330
88
100
AcDbEntity
  8
DIBUJOS
 62
     7
370
    18
100
AcDbLine
 10
66.39930624520809
 20
46.71147162330968
 30
0.0
 11
66.39338554503254
 21
46.72331478139797
 31
0.0
  0
LINE
  5
C2
330
88
100
AcDbEntity
  8
DIBUJOS
 62
     7
370
    18
100
AcDbLine
 10
66.55322055028548
 20
46.71147162330968
 30
0.0
 11
66.54729985011025
 21
46.71147162330968
 31
0.0
  0
LINE
  5
C3
330
88
100
AcDbEntity
  8
DIBUJOS
 62
     7
370
    18
100
AcDbLine
 10
66.55322055028548
 20
46.71147162330968
 30
0.0
 11
66.55322055028548
 21
46.71739320235398
 31
0.0
  0
LINE
  5
C4
330
88
100
AcDbEntity
  8
DIBUJOS
 62
     7
370
    18
100
AcDbLine
 10
66.55913965716209
 20
46.71147162330968
 30
0.0
 11
66.55322055028548
 21
46.71147162330968
 31
0.0
  0
LINE
  5
C5
330
88
100
AcDbEntity
  8
DIBUJOS
 62
     7
370
    18
100
AcDbLine
 10
62.70535814344725
 20
46.70555323133713
 30
0.0
 11
62.69943903657096
 21
46.70555323133713
 31
0.0
  0
LINE
  5
C6
330
88
100
AcDbEntity
  8
DIBUJOS
 62
     7
370
    18
100
AcDbLine
 10
62.70535814344725
 20
46.70555323133713
 30
0.0
 11
62.70535814344725
 21
46.71147162330968
 31
0.0
  0
LINE
  5
C7
330
88
100
AcDbEntity
  8
DIBUJOS
 62
     7
370
    18
100
AcDbLine
 10
62.71127884362313
 20
46.70555323133713
 30
0.0
 11
62.70535814344725
 21
46.70555323133713
 31
0.0
  0
LINE
  5
C8
330
88
100
AcDbEntity
  8
DIBUJOS
 62
     7
370
    18
100
AcDbLine
 10
62.85927244852496
 20
46.70555323133713
 30
0.0
 11
62.71127884362313
 21
46.70555323133713
 31
0.0
  0
LINE
  5
C9
330
88
100
AcDbEntity
  8
DIBUJOS
 62
     7
370
    18
100
AcDbLine
 10
62.86519314870051
 20
46.70555323133713
 30
0.0
 11
62.85927244852496
 21
46.70555323133713
 31
0.0
  0
LINE
  5
CA
330
88
100
AcDbEntity
  8
DIBUJOS
 62
     7
370
    18
100
AcDbLine
 10
62.86519314870051
 20
46.70555323133713
 30
0.0
 11
62.86519314870051
 21
46.71147162330968
 31
0.0
  0
LINE
  5
CB
330
88
100
AcDbEntity
  8
DIBUJOS
 62
     7
370
    18
100
AcDbLine
 10
62.87111225557713
 20
46.70555323133713
 30
0.0
 11
62.86519314870051
 21
46.70555323133713
 31
0.0
  0
LINE
  5
CC
330
88
100
AcDbEntity
  8
DIBUJOS
 62
     7
370
    18
100
AcDbLine
 10
62.87703295575267
 20
46.70555323133713
 30
0.0
 11
62.87111225557713
 21
46.70555323133713
 31
0.0
  0
LINE
  5
CD
330
88
100
AcDbEntity
  8
DIBUJOS
 62
     7
370
    18
100
AcDbLine
 10
62.87703295575267
 20
46.70555323133713
 30
0.0
 11
62.87703295575267
 21
46.71147162330968
 31
0.0
  0
LINE
  5
CE
330
88
100
AcDbEntity
  8
DIBUJOS
 62
     7
370
    18
100
AcDbLine
 10
66.38746643815625
 20
46.70555323133713
 30
0.0
 11
66.38746643815625
 21
46.71147162330968
 31
0.0
  0
LINE
  5
CF
330
88
100
AcDbEntity
  8
DIBUJOS
 62
     7
370
    18
100
AcDbLine
 10
66.39338554503254
 20
46.70555323133713
 30
0.0
 11
66.38746643815625
 21
46.70555323133713
 31
0.0
  0
LINE
  5
D0
330
88
100
AcDbEntity
  8
DIBUJOS
 62
     7
370
    18
100
AcDbLine
 10
66.39930624520809
 20
46.70555323133713
 30
0.0
 11
66.39338554503254
 21
46.70555323133713
 31
0.0
  0
LINE
  5
D1
330
88
100
AcDbEntity
  8
DIBUJOS
 62
     7
370
    18
100
AcDbLine
 10
66.39930624520809
 20
46.70555323133713
 30
0.0
 11
66.39930624520809
 21
46.71147162330968
 31
0.0
  0
LINE
  5
D2
330
88
100
AcDbEntity
  8
DIBUJOS
 62
     7
370
    18
100
AcDbLine
 10
66.40522535208439
 20
46.70555323133713
 30
0.0
 11
66.39930624520809
 21
46.70555323133713
 31
0.0
  0
LWPOLYLINE
  5
D3
330
88
100
AcDbEntity
  8
DIBUJOS
 62
     7
370
    18
100
AcDbPolyline
 90
        3
 70
     0
 43
0.0
 10
66.40522535208439
 20
46.70555323133713
 10
66.54138074323363
 20
46.70555323133713
 10
66.54729985011025
 20
46.71147162330968
  0
LWPOLYLINE
  5
D4
330
88
100
AcDbEntity
  8
DIBUJOS
 62
     7
370
    18
100
AcDbPolyline
 90
        4
 70
     0
 43
0.0
 10
62.87703295575267
 20
46.70555323133713
 10
62.88295206262898
 20
46.69963165229314
 10
62.88887116950527
 20
46.69963165229314
 10
62.90071097655712
 20
46.71147162330968
  0
LWPOLYLINE
  5
D5
330
88
100
AcDbEntity
  8
DIBUJOS
 62
     7
370
    18
100
AcDbPolyline
 90
        4
 70
     0
 43
0.0
 10
66.35786612387637
 20
46.71147162330968
 10
66.36970593092822
 20
46.69963165229314
 10
66.38154573798039
 20
46.69963165229314
 10
66.38746643815625
 20
46.70555323133713
  0
LWPOLYLINE
  5
D6
330
88
100
AcDbEntity
  8
DIBUJOS
 62
     7
370
    18
100
AcDbPolyline
 90
        7
 70
     0
 43
0.0
 10
62.90071097655712
 20
46.71147162330968
 10
62.90603896939579
 20
46.71028921974388
 10
62.93038298930518
 20
46.70251595209625
 10
63.16111025333557
 20
46.69674735248971
 10
66.15668978184749
 20
46.69677284906214
 10
66.32817339823772
 20
46.70249045552383
 10
66.35786612387637
 20
46.71147162330968
  0
LINE
  5
D7
330
88
100
AcDbEntity
  8
DIBUJOS
 62
     7
370
    18
100
AcDbLine
 10
62.75863647853157
 20
46.54569609371941
 30
0.0
 11
62.75271737165527
 21
46.54569609371941
 31
0.0
  0
LINE
  5
D8
330
88
100
AcDbEntity
  8
DIBUJOS
 62
     7
370
    18
100
AcDbLine
 10
62.76455558540818
 20
46.54569609371941
 30
0.0
 11
62.75863647853157
 21
46.54569609371941
 31
0.0
  0
LINE
  5
D9
330
88
100
AcDbEntity
  8
DIBUJOS
 62
     7
370
    18
100
AcDbLine
 10
66.5650587640384
 20
46.54569609371941
 30
0.0
 11
66.55913965716209
 21
46.54569609371941
 31
0.0
  0
LINE
  5
DA
330
88
100
AcDbEntity
  8
DIBUJOS
 62
     7
370
    18
100
AcDbLine
 10
66.57097946421394
 20
46.54569609371941
 30
0.0
 11
66.5650587640384
 21
46.54569609371941
 31
0.0
  0
LWPOLYLINE
  5
DB
330
88
100
AcDbEntity
  8
DIBUJOS
 62
     7
370
    18
100
AcDbPolyline
 90
        4
 70
     0
 43
0.0
 10
62.69351833639509
 20
46.53977451467542
 10
62.70476702940932
 20
46.54687849728554
 10
62.71127884362313
 20
46.55161448569196
 10
62.75271737165527
 20
46.54569609371941
  0
LINE
  5
DC
330
88
100
AcDbEntity
  8
DIBUJOS
 62
     7
370
    18
100
AcDbLine
 10
62.75863647853157
 20
46.53977451467542
 30
0.0
 11
62.75863647853157
 21
46.54569609371941
 31
0.0
  0
LINE
  5
DD
330
88
100
AcDbEntity
  8
DIBUJOS
 62
     7
370
    18
100
AcDbLine
 10
66.5650587640384
 20
46.53977451467542
 30
0.0
 11
66.5650587640384
 21
46.54569609371941
 31
0.0
  0
LINE
  5
DE
330
88
100
AcDbEntity
  8
DIBUJOS
 62
     7
370
    18
100
AcDbLine
 10
62.69351833639509
 20
46.53385293563144
 30
0.0
 11
62.68759922951911
 21
46.53385293563144
 31
0.0
  0
LINE
  5
DF
330
88
100
AcDbEntity
  8
DIBUJOS
 62
     7
370
    18
100
AcDbLine
 10
62.69351833639509
 20
46.53385293563144
 30
0.0
 11
62.69351833639509
 21
46.53977451467542
 31
0.0
  0
LINE
  5
E0
330
88
100
AcDbEntity
  8
DIBUJOS
 62
     7
370
    18
100
AcDbLine
 10
62.75863647853157
 20
46.53385293563144
 30
0.0
 11
62.75863647853157
 21
46.53977451467542
 31
0.0
  0
LINE
  5
E1
330
88
100
AcDbEntity
  8
DIBUJOS
 62
     7
370
    18
100
AcDbLine
 10
63.46901056195918
 20
46.53385293563144
 30
0.0
 11
63.45717075490702
 21
46.53977451467542
 31
0.0
  0
LINE
  5
E2
330
88
100
AcDbEntity
  8
DIBUJOS
 62
     7
370
    18
100
AcDbLine
 10
63.47493126213473
 20
46.53385293563144
 30
0.0
 11
63.46901056195918
 21
46.53385293563144
 31
0.0
  0
LINE
  5
E3
330
88
100
AcDbEntity
  8
DIBUJOS
 62
     7
370
    18
100
AcDbLine
 10
63.48085036901102
 20
46.53385293563144
 30
0.0
 11
63.47493126213473
 21
46.53385293563144
 31
0.0
  0
LWPOLYLINE
  5
E4
330
88
100
AcDbEntity
  8
DIBUJOS
 62
     7
370
    18
100
AcDbPolyline
 90
        4
 70
     0
 43
0.0
 10
65.78956813177388
 20
46.53385293563144
 10
65.78364743159832
 20
46.53977451467542
 10
63.48677106918689
 20
46.53977451467542
 10
63.48085036901102
 20
46.53385293563144
  0
LINE
  5
E5
330
88
100
AcDbEntity
  8
DIBUJOS
 62
     7
370
    18
100
AcDbLine
 10
65.79548723865016
 20
46.53385293563144
 30
0.0
 11
65.78956813177388
 21
46.53385293563144
 31
0.0
  0
LWPOLYLINE
  5
E6
330
88
100
AcDbEntity
  8
DIBUJOS
 62
     7
370
    18
100
AcDbPolyline
 90
        3
 70
     0
 43
0.0
 10
65.79548723865016
 20
46.53385293563144
 10
65.80140634552678
 20
46.53977451467542
 10
65.81916685275418
 20
46.53977451467542
  0
LINE
  5
E7
330
88
100
AcDbEntity
  8
DIBUJOS
 62
     7
370
    18
100
AcDbLine
 10
62.69351833639509
 20
46.52793135658746
 30
0.0
 11
62.69351833639509
 21
46.53385293563144
 31
0.0
  0
LWPOLYLINE
  5
E8
330
88
100
AcDbEntity
  8
DIBUJOS
 62
     7
370
    18
100
AcDbPolyline
 90
        4
 70
     0
 43
0.0
 10
63.273657728849
 20
46.52793135658746
 10
63.26864839586939
 20
46.52929861030632
 10
62.90651855248299
 20
46.54285641291861
 10
62.76455558540818
 20
46.54569609371941
  0
LINE
  5
E9
330
88
100
AcDbEntity
  8
DIBUJOS
 62
     7
370
    18
100
AcDbLine
 10
63.47493126213473
 20
46.52793135658746
 30
0.0
 11
63.47493126213473
 21
46.53385293563144
 31
0.0
  0
LINE
  5
EA
330
88
100
AcDbEntity
  8
DIBUJOS
 62
     7
370
    18
100
AcDbLine
 10
65.79548723865016
 20
46.52793135658746
 30
0.0
 11
65.79548723865016
 21
46.53385293563144
 31
0.0
  0
LWPOLYLINE
  5
EB
330
88
100
AcDbEntity
  8
DIBUJOS
 62
     7
370
    18
100
AcDbPolyline
 90
        4
 70
     0
 43
0.0
 10
66.00267987881219
 20
46.52793135658746
 10
66.01511079990261
 20
46.53267053206564
 10
66.36979356238956
 20
46.54282772927411
 10
66.55913965716209
 20
46.54569609371941
  0
LINE
  5
EC
330
88
100
AcDbEntity
  8
DIBUJOS
 62
     7
370
    18
100
AcDbLine
 10
63.46901056195918
 20
46.50425141455406
 30
0.0
 11
63.47493126213473
 21
46.52793135658746
 31
0.0
  0
LINE
  5
ED
330
88
100
AcDbEntity
  8
DIBUJOS
 62
     7
370
    18
100
AcDbLine
 10
65.79548723865016
 20
46.50425141455406
 30
0.0
 11
65.79548723865016
 21
46.52793135658746
 31
0.0
  0
LINE
  5
EE
330
88
100
AcDbEntity
  8
DIBUJOS
 62
     7
370
    18
100
AcDbLine
 10
62.73495686442756
 20
46.44504199825644
 30
0.0
 11
62.73495686442756
 21
46.45096357730042
 31
0.0
  0
LINE
  5
EF
330
88
100
AcDbEntity
  8
DIBUJOS
 62
     7
370
    18
100
AcDbLine
 10
66.52362023600592
 20
46.44504199825644
 30
0.0
 11
66.52362023600592
 21
46.45096357730042
 31
0.0
  0
LINE
  5
F0
330
88
100
AcDbEntity
  8
DIBUJOS
 62
     7
370
    18
100
AcDbLine
 10
62.78823519951219
 20
46.42136205622305
 30
0.0
 11
62.78231609263589
 21
46.42136205622305
 31
0.0
  0
LINE
  5
F1
330
88
100
AcDbEntity
  8
DIBUJOS
 62
     7
370
    18
100
AcDbLine
 10
66.47626260109716
 20
46.42136205622305
 30
0.0
 11
66.47034349422087
 21
46.42136205622305
 31
0.0
  0
LINE
  5
F2
330
88
100
AcDbEntity
  8
DIBUJOS
 62
     7
370
    18
100
AcDbLine
 10
62.83559442772021
 20
46.40951889813508
 30
0.0
 11
62.82375462066804
 21
46.41544047717906
 31
0.0
  0
LINE
  5
F3
330
88
100
AcDbEntity
  8
DIBUJOS
 62
     7
370
    18
100
AcDbLine
 10
62.8415135345965
 20
46.40951889813508
 30
0.0
 11
62.83559442772021
 21
46.40951889813508
 31
0.0
  0
LINE
  5
F4
330
88
100
AcDbEntity
  8
DIBUJOS
 62
     7
370
    18
100
AcDbLine
 10
62.84743423477205
 20
46.40951889813508
 30
0.0
 11
62.8415135345965
 21
46.40951889813508
 31
0.0
  0
LWPOLYLINE
  5
F5
330
88
100
AcDbEntity
  8
DIBUJOS
 62
     7
370
    18
100
AcDbPolyline
 90
        8
 70
     0
 43
0.0
 10
66.411144458961
 20
46.40951889813508
 10
66.3106725987949
 20
46.41821641654799
 10
65.842253759521
 20
46.44326679937202
 10
65.8250859596308
 20
46.45096357730042
 10
63.43941184097856
 20
46.45096357730042
 10
63.41625482904312
 20
46.44295446635426
 10
62.85351585817638
 20
46.41266453781045
 10
62.84743423477205
 20
46.40951889813508
  0
LINE
  5
F6
330
88
100
AcDbEntity
  8
DIBUJOS
 62
     7
370
    18
100
AcDbLine
 10
66.41706515913623
 20
46.40951889813508
 30
0.0
 11
66.411144458961
 21
46.40951889813508
 31
0.0
  0
LINE
  5
F7
330
88
100
AcDbEntity
  8
DIBUJOS
 62
     7
370
    18
100
AcDbLine
 10
66.42298426601285
 20
46.40951889813508
 30
0.0
 11
66.41706515913623
 21
46.40951889813508
 31
0.0
  0
LINE
  5
F8
330
88
100
AcDbEntity
  8
DIBUJOS
 62
     7
370
    18
100
AcDbLine
 10
66.42298426601285
 20
46.40951889813508
 30
0.0
 11
66.43482407306469
 21
46.41544047717906
 31
0.0
  0
LINE
  5
F9
330
88
100
AcDbEntity
  8
DIBUJOS
 62
     7
370
    18
100
AcDbLine
 10
62.8415135345965
 20
46.4035973190911
 30
0.0
 11
62.8415135345965
 21
46.40951889813508
 31
0.0
  0
LINE
  5
FA
330
88
100
AcDbEntity
  8
DIBUJOS
 62
     7
370
    18
100
AcDbLine
 10
66.41706515913623
 20
46.4035973190911
 30
0.0
 11
66.41706515913623
 21
46.40951889813508
 31
0.0
  0
LWPOLYLINE
  5
FB
330
88
100
AcDbEntity
  8
DIBUJOS
 62
     7
370
    18
100
AcDbPolyline
 90
       10
 70
     0
 43
0.0
 10
62.34425119820752
 20
42.51372065011863
 10
62.34543501958266
 20
42.51904943384399
 10
62.38292535196547
 20
43.02899204556699
 10
62.38845410051451
 20
43.11745718567258
 10
62.61416247176978
 20
46.40992046915745
 10
62.62662525884554
 20
46.46339634363591
 10
62.64616070148665
 20
46.51016980652662
 10
62.66984031559033
 20
46.53385293563144
 10
62.6816801226425
 20
46.53681372515343
 10
62.68759922951911
 20
46.53385293563144
  0
LWPOLYLINE
  5
FC
330
88
100
AcDbEntity
  8
DIBUJOS
 62
     7
370
    18
100
AcDbPolyline
 90
        9
 70
     0
 43
0.0
 10
66.94392621650583
 20
42.51372065011863
 10
66.8938328867097
 20
43.21216420551913
 10
66.67401494294357
 20
46.40399889011315
 10
66.65800069174178
 20
46.46813233204233
 10
66.65504034165401
 20
46.47523950172387
 10
66.64201671322671
 20
46.50425141455406
 10
66.60649888537012
 20
46.53977451467542
 10
66.57689857109024
 20
46.54865369616997
 10
66.57097946421394
 20
46.54569609371941
  0
LWPOLYLINE
  5
FD
330
88
100
AcDbEntity
  8
DIBUJOS
 62
     7
370
    18
100
AcDbPolyline
 90
       13
 70
     0
 43
0.0
 10
62.33833209133123
 20
42.50780066461036
 10
62.20217670018198
 20
42.51372065011863
 10
62.19033689313014
 20
42.52556221467088
 10
62.27637027509578
 20
43.81644094971082
 10
62.28778785783504
 20
43.98777154511038
 10
62.45432746651653
 20
46.42176044017431
 10
62.46473649080237
 20
46.474124026662
 10
62.48751111090777
 20
46.5391817193568
 10
62.4969816819101
 20
46.55812886005489
 10
62.54552473149325
 20
46.63450384402298
 10
62.59403750838999
 20
46.67450477975089
 10
62.64656061960908
 20
46.69723178737384
 10
62.69943903657096
 20
46.70555323133713
  0
LWPOLYLINE
  5
FE
330
88
100
AcDbEntity
  8
DIBUJOS
 62
     7
370
    18
100
AcDbPolyline
 90
        3
 70
     0
 43
0.0
 10
62.33833209133123
 20
42.50780066461036
 10
62.34425119820752
 20
42.50780066461036
 10
62.34425119820752
 20
42.51372065011863
  0
LWPOLYLINE
  5
FF
330
88
100
AcDbEntity
  8
DIBUJOS
 62
     7
370
    18
100
AcDbPolyline
 90
        9
 70
     0
 43
0.0
 10
62.69351833639509
 20
46.52793135658746
 10
62.69080335439894
 20
46.45709231599911
 10
62.43304895444801
 20
42.60253158749363
 10
62.43304895444801
 20
42.52556221467088
 10
62.47448748248015
 20
42.50780066461036
 10
62.5751234524742
 20
42.50780066461036
 10
62.58696325952572
 20
42.51964222916261
 10
62.83884475827957
 20
46.34463330730665
 10
62.8415135345965
 20
46.4035973190911
  0
LWPOLYLINE
  5
100
330
88
100
AcDbEntity
  8
DIBUJOS
 62
     7
370
    18
100
AcDbPolyline
 90
        9
 70
     0
 43
0.0
 10
66.41706515913623
 20
46.4035973190911
 10
66.4261533383082
 20
46.26132006845227
 10
66.66569632733104
 20
42.52556221467088
 10
66.68345524125918
 20
42.50780066461036
 10
66.77817210437597
 20
42.50780066461036
 10
66.80132911631204
 20
42.51581136909193
 10
66.80836353269377
 20
42.51845823206109
 10
66.82552973928505
 20
42.53148379371519
 10
66.5650587640384
 20
46.53977451467542
  0
LWPOLYLINE
  5
101
330
88
100
AcDbEntity
  8
DIBUJOS
 62
     7
370
    18
100
AcDbPolyline
 90
        3
 70
     0
 43
0.0
 10
66.94984532338214
 20
42.50780066461036
 10
66.94392621650583
 20
42.50780066461036
 10
66.94392621650583
 20
42.51372065011863
  0
LWPOLYLINE
  5
102
330
88
100
AcDbEntity
  8
DIBUJOS
 62
     7
370
    18
100
AcDbPolyline
 90
       17
 70
     0
 43
0.0
 10
66.94984532338214
 20
42.50780066461036
 10
67.00923874115599
 20
42.51098614268025
 10
67.08600071453138
 20
42.51372065011863
 10
67.09784052158322
 20
42.52556221467088
 10
67.09784052158322
 20
42.60253158749363
 10
67.01813253781395
 20
43.73319463935973
 10
67.00630866375494
 20
43.89896060773507
 10
66.83393598635859
 20
46.40987585015483
 10
66.82344092391066
 20
46.4682024476177
 10
66.80303553985574
 20
46.52852415190607
 10
66.79119573280326
 20
46.55812886005489
 10
66.75449249027227
 20
46.61674229396213
 10
66.7071348553635
 20
46.66410855217178
 10
66.68846457423912
 20
46.67458445654088
 10
66.68404794859637
 20
46.67713411382588
 10
66.63564192275228
 20
46.69735608316647
 10
66.55913965716209
 20
46.71147162330968
  0
ENDBLK
  5
8B
330
88
100
AcDbEntity
  8
0
100
AcDbBlockEnd
  0
BLOCK
  5
105
330
103
100
AcDbEntity
  8
0
100
AcDbBlockBegin
  2
Block_1
 70
     0
 10
0.0
 20
0.0
 30
0.0
  3
Block_1
  1

  0
LINE
  5
107
330
103
100
AcDbEntity
  8
DIBUJOS
 62
     7
370
    18
100
AcDbLine
 10
80.64671602342079
 20
49.83758411077919
 30
0.0
 11
80.64079532324525
 21
49.83758411077919
 31
0.0
  0
LINE
  5
108
330
103
100
AcDbEntity
  8
DIBUJOS
 62
     7
370
    18
100
AcDbLine
 10
80.64671602342079
 20
49.83758411077919
 30
0.0
 11
80.64671602342079
 21
49.84350568982318
 31
0.0
  0
LINE
  5
109
330
103
100
AcDbEntity
  8
DIBUJOS
 62
     7
370
    18
100
AcDbLine
 10
80.65263672359632
 20
49.83758411077919
 30
0.0
 11
80.64671602342079
 21
49.83758411077919
 31
0.0
  0
LWPOLYLINE
  5
10A
330
103
100
AcDbEntity
  8
DIBUJOS
 62
     7
370
    18
100
AcDbPolyline
 90
        7
 70
     0
 43
0.0
 10
81.20317580177037
 20
47.98441670642208
 10
81.15964686506428
 20
48.15559432238486
 10
80.77280654293126
 20
49.69015973949662
 10
80.76037562184083
 20
49.72568283961798
 10
80.74143129323832
 20
49.77837788155301
 10
80.6940752516288
 20
49.82574413976266
 10
80.65263672359632
 20
49.83758411077919
  0
LINE
  5
10B
330
103
100
AcDbEntity
  8
DIBUJOS
 62
     7
370
    18
100
AcDbLine
 10
81.20317580177037
 20
47.9784951273781
 30
0.0
 11
81.20317580177037
 21
47.98441670642208
 31
0.0
  0
LINE
  5
10C
330
103
100
AcDbEntity
  8
DIBUJOS
 62
     7
370
    18
100
AcDbLine
 10
81.20909650194592
 20
47.9784951273781
 30
0.0
 11
81.20317580177037
 21
47.9784951273781
 31
0.0
  0
LWPOLYLINE
  5
10D
330
103
100
AcDbEntity
  8
DIBUJOS
 62
     7
370
    18
100
AcDbPolyline
 90
       39
 70
     0
 43
0.0
 10
81.20909650194592
 20
47.9784951273781
 10
81.21560672286015
 20
47.98323111578453
 10
81.49370118159545
 20
48.04134417944984
 10
81.51646942850353
 20
48.04589850477496
 10
81.74727476419912
 20
48.10491988384808
 10
81.94374131351516
 20
48.16618177426021
 10
82.12015141132175
 20
48.22834879300806
 10
82.12725433957318
 20
48.23189919077725
 10
82.17887405009291
 20
48.25818934445607
 10
82.19876479847647
 20
48.27310802664372
 10
82.28057753061262
 20
48.34557566082288
 10
82.29691522157155
 20
48.37032645891582
 10
82.34154990798694
 20
48.43971538192324
 10
82.3474706081625
 20
48.4574769319844
 10
82.3786642217364
 20
48.56496092189916
 10
82.39897241453512
 20
48.77778400253815
 10
82.36017239013255
 20
49.36419561684195
 10
82.34205339056355
 20
49.47688090761802
 10
82.32675134414625
 20
49.52911701124135
 10
82.29419386637742
 20
49.60727038116593
 10
82.27915630764341
 20
49.64113620405198
 10
82.26423983965499
 20
49.66102990501732
 10
82.20953868830092
 20
49.74285478143165
 10
82.17994156061955
 20
49.77245630250902
 10
82.06095396936113
 20
49.8541632572739
 10
82.03253906975565
 20
49.86837122249381
 10
81.90230278548268
 20
49.92224866799464
 10
81.86678495762642
 20
49.93409182608292
 10
81.68814424080832
 20
49.97740412920971
 10
81.61209606551668
 20
49.99379842555104
 10
81.33305518700161
 20
50.04824316979775
 10
81.19754508206609
 20
50.06516970709758
 10
80.84798796340693
 20
50.0921737648159
 10
80.74114449936555
 20
50.08885283620241
 10
80.60527749538833
 20
50.06849063571107
 10
80.59343928163572
 20
50.05665066469454
 10
80.59343928163572
 20
50.03888592756226
 10
80.61889383115312
 20
49.95066778550588
 10
80.64671602342079
 20
49.84350568982318
  0
LINE
  5
10E
330
103
100
AcDbEntity
  8
DIBUJOS
 62
     7
370
    18
100
AcDbLine
 10
81.20317580177037
 20
47.97257354833411
 30
0.0
 11
81.20317580177037
 21
47.9784951273781
 31
0.0
  0
LINE
  5
10F
330
103
100
AcDbEntity
  8
DIBUJOS
 62
     7
370
    18
100
AcDbLine
 10
85.14575347842614
 20
46.70555323133713
 30
0.0
 11
85.13983596484973
 21
46.70555323133713
 31
0.0
  0
LINE
  5
110
330
103
100
AcDbEntity
  8
DIBUJOS
 62
     7
370
    18
100
AcDbLine
 10
85.15167417860167
 20
46.70555323133713
 30
0.0
 11
85.14575347842614
 21
46.70555323133713
 31
0.0
  0
LINE
  5
111
330
103
100
AcDbEntity
  8
DIBUJOS
 62
     7
370
    18
100
AcDbLine
 10
85.14575347842614
 20
46.69963165229314
 30
0.0
 11
85.14575347842614
 21
46.70555323133713
 31
0.0
  0
LINE
  5
112
330
103
100
AcDbEntity
  8
DIBUJOS
 62
     7
370
    18
100
AcDbLine
 10
84.69585037024517
 20
46.69371007324916
 30
0.0
 11
84.68992967007025
 21
46.69371007324916
 31
0.0
  0
LINE
  5
113
330
103
100
AcDbEntity
  8
DIBUJOS
 62
     7
370
    18
100
AcDbLine
 10
84.70177107042136
 20
46.69371007324916
 30
0.0
 11
84.69585037024517
 21
46.69371007324916
 31
0.0
  0
LWPOLYLINE
  5
114
330
103
100
AcDbEntity
  8
DIBUJOS
 62
     7
370
    18
100
AcDbPolyline
 90
        3
 70
     0
 43
0.0
 10
84.70177107042136
 20
46.69371007324916
 10
84.74884031815745
 20
46.69631072367965
 10
85.13983596484973
 20
46.70555323133713
  0
LINE
  5
115
330
103
100
AcDbEntity
  8
DIBUJOS
 62
     7
370
    18
100
AcDbLine
 10
84.69585037024517
 20
46.68779168127661
 30
0.0
 11
84.69585037024517
 21
46.69371007324916
 31
0.0
  0
LWPOLYLINE
  5
116
330
103
100
AcDbEntity
  8
DIBUJOS
 62
     7
370
    18
100
AcDbPolyline
 90
        3
 70
     0
 43
0.0
 10
84.67809145631703
 20
46.66410855217178
 10
84.69585037024517
 20
46.6818701022323
 10
84.69585037024517
 20
46.68779168127661
  0
LWPOLYLINE
  5
117
330
103
100
AcDbEntity
  8
DIBUJOS
 62
     7
370
    18
100
AcDbPolyline
 90
       30
 70
     0
 43
0.0
 10
81.35117099997147
 20
46.58713758581332
 10
81.35531357813544
 20
46.69430286856779
 10
81.36892991390025
 20
46.7351547524145
 10
81.42753783512217
 20
46.78962499323396
 10
81.55777093279661
 20
46.85475280150412
 10
81.60513016100464
 20
46.87843593060895
 10
81.72944574510204
 20
46.92639179706547
 10
81.84797765276263
 20
46.95649687545685
 10
82.06186533655674
 20
46.99311314113908
 10
82.15002258648125
 20
47.00413722182418
 10
82.38697805745086
 20
47.02213461518389
 10
82.50538887436587
 20
47.02807531665744
 10
83.79595492912329
 20
47.07549894215609
 10
84.14521888071268
 20
47.08733572610087
 10
84.66033254238888
 20
47.09631689388705
 10
84.84363525294007
 20
47.08175835079059
 10
85.05735723360766
 20
47.05727207964101
 10
85.08615771164201
 20
47.05247234980208
 10
85.2043613996487
 20
47.02408510300677
 10
85.21146432790011
 20
47.02112431348477
 10
85.36952280444074
 20
46.96369328314333
 10
85.38345780006396
 20
46.95558537297761
 10
85.48318240286141
 20
46.8950150771043
 10
85.50686201696576
 20
46.87133194799883
 10
85.52798916560099
 20
46.82364698262921
 10
85.53645914464649
 20
46.74107633145849
 10
85.52462093089388
 20
46.72923636044227
 10
85.41796228957002
 20
46.72024563144116
 10
85.15775739530525
 20
46.70869568394075
 10
85.15167417860167
 20
46.70555323133713
  0
LINE
  5
118
330
103
100
AcDbEntity
  8
DIBUJOS
 62
     7
370
    18
100
AcDbLine
 10
84.66625005596593
 20
46.58713758581332
 30
0.0
 11
84.66033254238888
 21
46.63450384402298
 31
0.0
  0
LWPOLYLINE
  5
119
330
103
100
AcDbEntity
  8
DIBUJOS
 62
     7
370
    18
100
AcDbPolyline
 90
        7
 70
     0
 43
0.0
 10
81.19133758801778
 20
46.58121919384077
 10
81.30609018975375
 20
47.21427360109948
 10
81.32157068569224
 20
47.32130183977495
 10
81.32157068569224
 20
47.45155745631529
 10
81.30724692504101
 20
47.55185141268707
 10
81.21884749362402
 20
47.91876621840867
 10
81.20317580177037
 20
47.97257354833411
  0
LINE
  5
11A
330
103
100
AcDbEntity
  8
DIBUJOS
 62
     7
370
    18
100
AcDbLine
 10
81.35117099997147
 20
46.58121919384077
 30
0.0
 11
81.34525029979592
 21
46.58121919384077
 31
0.0
  0
LINE
  5
11B
330
103
100
AcDbEntity
  8
DIBUJOS
 62
     7
370
    18
100
AcDbLine
 10
81.35117099997147
 20
46.58121919384077
 30
0.0
 11
81.35117099997147
 21
46.58713758581332
 31
0.0
  0
LINE
  5
11C
330
103
100
AcDbEntity
  8
DIBUJOS
 62
     7
370
    18
100
AcDbLine
 10
81.35709170014701
 20
46.58121919384077
 30
0.0
 11
81.35117099997147
 21
46.58121919384077
 31
0.0
  0
LINE
  5
11D
330
103
100
AcDbEntity
  8
DIBUJOS
 62
     7
370
    18
100
AcDbLine
 10
81.35709170014701
 20
46.58121919384077
 30
0.0
 11
84.68992967007025
 21
46.69371007324916
 31
0.0
  0
LINE
  5
11E
330
103
100
AcDbEntity
  8
DIBUJOS
 62
     7
370
    18
100
AcDbLine
 10
81.19133758801778
 20
46.57529761479678
 30
0.0
 11
81.19133758801778
 21
46.58121919384077
 31
0.0
  0
LINE
  5
11F
330
103
100
AcDbEntity
  8
DIBUJOS
 62
     7
370
    18
100
AcDbLine
 10
81.19725510159483
 20
46.57529761479678
 30
0.0
 11
81.19133758801778
 21
46.57529761479678
 31
0.0
  0
LINE
  5
120
330
103
100
AcDbEntity
  8
DIBUJOS
 62
     7
370
    18
100
AcDbLine
 10
81.19725510159483
 20
46.57529761479678
 30
0.0
 11
81.34525029979592
 21
46.58121919384077
 31
0.0
  0
LINE
  5
121
330
103
100
AcDbEntity
  8
DIBUJOS
 62
     7
370
    18
100
AcDbLine
 10
81.19133758801778
 20
46.56937603575248
 30
0.0
 11
81.19133758801778
 21
46.57529761479678
 31
0.0
  0
LWPOLYLINE
  5
122
330
103
100
AcDbEntity
  8
DIBUJOS
 62
     7
370
    18
100
AcDbPolyline
 90
        3
 70
     0
 43
0.0
 10
81.1854168878416
 20
46.54569609371941
 10
81.1854168878416
 20
46.56345764378025
 10
81.19133758801778
 20
46.56937603575248
  0
LINE
  5
123
330
103
100
AcDbEntity
  8
DIBUJOS
 62
     7
370
    18
100
AcDbLine
 10
81.15581657356235
 20
46.48648667742179
 30
0.0
 11
81.14989905998532
 21
46.48648667742179
 31
0.0
  0
LINE
  5
124
330
103
100
AcDbEntity
  8
DIBUJOS
 62
     7
370
    18
100
AcDbLine
 10
81.15581657356235
 20
46.46872512736127
 30
0.0
 11
81.14989905998532
 21
46.46872512736127
 31
0.0
  0
LINE
  5
125
330
103
100
AcDbEntity
  8
DIBUJOS
 62
     7
370
    18
100
AcDbLine
 10
81.16173727373791
 20
46.42136205622305
 30
0.0
 11
81.16173727373791
 21
46.4332020272399
 31
0.0
  0
LINE
  5
126
330
103
100
AcDbEntity
  8
DIBUJOS
 62
     7
370
    18
100
AcDbLine
 10
81.16173727373791
 20
46.41544047717906
 30
0.0
 11
81.16173727373791
 21
46.42136205622305
 31
0.0
  0
LINE
  5
127
330
103
100
AcDbEntity
  8
DIBUJOS
 62
     7
370
    18
100
AcDbLine
 10
81.16765797391344
 20
46.41544047717906
 30
0.0
 11
81.16173727373791
 21
46.41544047717906
 31
0.0
  0
LINE
  5
128
330
103
100
AcDbEntity
  8
DIBUJOS
 62
     7
370
    18
100
AcDbLine
 10
81.16173727373791
 20
46.40951889813508
 30
0.0
 11
81.16173727373791
 21
46.41544047717906
 31
0.0
  0
LWPOLYLINE
  5
129
330
103
100
AcDbEntity
  8
DIBUJOS
 62
     7
370
    18
100
AcDbPolyline
 90
       20
 70
     0
 43
0.0
 10
80.29152818505735
 20
42.54332376473172
 10
80.9095881007026
 20
45.93546749330353
 10
81.15312389775603
 20
47.2800802556221
 10
81.16173727373791
 20
47.35090654792375
 10
81.15238460688331
 20
47.49335590042895
 10
81.14741032648817
 20
47.52816828358225
 10
81.1063701232792
 20
47.69970285156476
 10
81.08861120935108
 20
47.77074905180748
 10
80.63073204490573
 20
49.60134880212162
 10
80.61830112381594
 20
49.6427934812873
 10
80.61119819556386
 20
49.65996542310095
 10
80.59343928163572
 20
49.67772697316147
 10
80.54608005342771
 20
49.68364855220546
 10
80.51647973914784
 20
49.71325007328283
 10
80.5046415253946
 20
49.75469475244818
 10
80.51647973914784
 20
49.79613943161385
 10
80.54608005342771
 20
49.82574413976266
 10
80.55732874644162
 20
49.82751933864708
 10
80.58778306914216
 20
49.83494521548926
 10
80.64079532324525
 20
49.83758411077919
  0
LWPOLYLINE
  5
12A
330
103
100
AcDbEntity
  8
DIBUJOS
 62
     7
370
    18
100
AcDbPolyline
 90
        3
 70
     0
 43
0.0
 10
80.29744888523291
 20
42.53740377922345
 10
80.29152818505735
 20
42.53740377922345
 10
80.29152818505735
 20
42.54332376473172
  0
LWPOLYLINE
  5
12B
330
103
100
AcDbEntity
  8
DIBUJOS
 62
     7
370
    18
100
AcDbPolyline
 90
       10
 70
     0
 43
0.0
 10
85.5601387587508
 20
42.51372065011863
 10
85.36745470195723
 20
44.5269890030709
 10
85.18491677506743
 20
46.40314475492291
 10
85.17061850720484
 20
46.45155637261937
 10
85.15167417860167
 20
46.49240825646578
 10
85.11023565056921
 20
46.53385293563144
 10
85.08615771164201
 20
46.54329304172867
 10
85.05735723360766
 20
46.54809595863904
 10
82.58257466535308
 20
46.4658599499874
 10
81.16765797391344
 20
46.41544047717906
  0
LWPOLYLINE
  5
12C
330
103
100
AcDbEntity
  8
DIBUJOS
 62
     7
370
    18
100
AcDbPolyline
 90
        5
 70
     0
 43
0.0
 10
80.29744888523291
 20
42.53740377922345
 10
80.43952338325844
 20
42.50780066461036
 10
80.45136478360955
 20
42.51964222916261
 10
81.12381993714443
 20
46.20861546530263
 10
81.16173727373791
 20
46.40951889813508
  0
LWPOLYLINE
  5
12D
330
103
100
AcDbEntity
  8
DIBUJOS
 62
     7
370
    18
100
AcDbPolyline
 90
        3
 70
     0
 43
0.0
 10
85.56605945892572
 20
42.50780066461036
 10
85.5601387587508
 20
42.50780066461036
 10
85.5601387587508
 20
42.51372065011863
  0
LWPOLYLINE
  5
12E
330
103
100
AcDbEntity
  8
DIBUJOS
 62
     7
370
    18
100
AcDbPolyline
 90
       15
 70
     0
 43
0.0
 10
85.56605945892572
 20
42.50780066461036
 10
85.57789767267896
 20
42.50188067910209
 10
85.64322613032194
 20
42.51100526511013
 10
85.71405465712745
 20
42.51372065011863
 10
85.72589287088005
 20
42.52556221467088
 10
85.68712471246376
 20
42.94617280281135
 10
85.66341323237443
 20
43.19486159376999
 10
85.35054660985192
 20
46.42688206424498
 10
85.34288284024894
 20
46.46339634363591
 10
85.31287464135006
 20
46.540686017155
 10
85.30677230505483
 20
46.55220728101091
 10
85.28637488749552
 20
46.58592649860302
 10
85.24638944841985
 20
46.63450384402298
 10
85.16884038519327
 20
46.68601329532011
 10
85.14575347842614
 20
46.69963165229314
  0
ENDBLK
  5
106
330
103
100
AcDbEntity
  8
0
100
AcDbBlockEnd
  0
BLOCK
  5
131
330
12F
100
AcDbEntity
  8
0
100
AcDbBlockBegin
  2
Block_2
 70
     0
 10
0.0
 20
0.0
 30
0.0
  3
Block_2
  1

  0
LINE
  5
133
330
12F
100
AcDbEntity
  8
DIBUJOS
 62
     7
370
    18
100
AcDbLine
 10
63.04278706788223
 20
33.24342563739032
 30
0.0
 11
63.03686636770668
 21
33.24342563739032
 31
0.0
  0
LINE
  5
134
330
12F
100
AcDbEntity
  8
DIBUJOS
 62
     7
370
    18
100
AcDbLine
 10
63.04278706788223
 20
33.24342563739032
 30
0.0
 11
63.04278706788223
 21
33.24934562289795
 31
0.0
  0
LWPOLYLINE
  5
135
330
12F
100
AcDbEntity
  8
DIBUJOS
 62
     7
370
    18
100
AcDbPolyline
 90
       20
 70
     0
 43
0.0
 10
66.22171232602638
 20
33.24342563739032
 10
66.17435309781837
 20
33.33223498122928
 10
66.13883526996112
 20
33.36775808135096
 10
66.12640275557239
 20
33.37249566329278
 10
66.1083251817852
 20
33.38415397122801
 10
66.05536550655964
 20
33.40742756163156
 10
66.0447095208826
 20
33.41097955293613
 10
65.9253666238814
 20
33.43631995927628
 10
65.70099503073379
 20
33.45926368776854
 10
65.21549602303103
 20
33.49488877418121
 10
64.9016001291655
 20
33.50985526244292
 10
64.4043377927762
 20
33.50985526244292
 10
64.1144401728731
 20
33.49524891327303
 10
63.919098492858
 20
33.48342169054223
 10
63.38642348636551
 20
33.43620681823399
 10
63.30957706812793
 20
33.4245644456572
 10
63.19137338012126
 20
33.39558599707931
 10
63.11883364987462
 20
33.35728377051662
 10
63.0842255959147
 20
33.32631340218465
 10
63.04278706788223
 20
33.24934562289795
  0
LINE
  5
136
330
12F
100
AcDbEntity
  8
DIBUJOS
 62
     7
370
    18
100
AcDbLine
 10
63.04870617475884
 20
33.23750405834633
 30
0.0
 11
63.04278706788223
 21
33.24342563739032
 31
0.0
  0
LINE
  5
137
330
12F
100
AcDbEntity
  8
DIBUJOS
 62
     7
370
    18
100
AcDbLine
 10
66.22171232602638
 20
33.23750405834633
 30
0.0
 11
66.21579162585082
 21
33.23750405834633
 31
0.0
  0
LINE
  5
138
330
12F
100
AcDbEntity
  8
DIBUJOS
 62
     7
370
    18
100
AcDbLine
 10
66.22171232602638
 20
33.23750405834633
 30
0.0
 11
66.22171232602638
 21
33.24342563739032
 31
0.0
  0
LINE
  5
139
330
12F
100
AcDbEntity
  8
DIBUJOS
 62
     7
370
    18
100
AcDbLine
 10
66.22763143290267
 20
33.23750405834633
 30
0.0
 11
66.22171232602638
 21
33.23750405834633
 31
0.0
  0
LINE
  5
13A
330
12F
100
AcDbEntity
  8
DIBUJOS
 62
     7
370
    18
100
AcDbLine
 10
63.03094726083006
 20
33.23158407283807
 30
0.0
 11
63.03686636770668
 21
33.24342563739032
 31
0.0
  0
LINE
  5
13B
330
12F
100
AcDbEntity
  8
DIBUJOS
 62
     7
370
    18
100
AcDbLine
 10
63.04870617475884
 20
33.23158407283807
 30
0.0
 11
63.04870617475884
 21
33.23750405834633
 31
0.0
  0
LINE
  5
13C
330
12F
100
AcDbEntity
  8
DIBUJOS
 62
     7
370
    18
100
AcDbLine
 10
63.05462528163514
 20
33.23158407283807
 30
0.0
 11
63.04870617475884
 21
33.23158407283807
 31
0.0
  0
LWPOLYLINE
  5
13D
330
12F
100
AcDbEntity
  8
DIBUJOS
 62
     7
370
    18
100
AcDbPolyline
 90
       16
 70
     0
 43
0.0
 10
63.05462528163514
 20
33.23158407283807
 10
63.09697517686323
 20
33.25981993373165
 10
63.18545267994571
 20
33.30144786951434
 10
63.22570738660305
 20
33.31624863005319
 10
63.33917578910856
 20
33.3475966663705
 10
63.52202600266012
 20
33.37039697663993
 10
64.00753935005645
 20
33.406047559626
 10
64.44569506254435
 20
33.42392065719245
 10
64.87792051506118
 20
33.42696590411287
 10
65.31582926615818
 20
33.4064156663964
 10
65.75431319830065
 20
33.37631696214884
 10
65.93118694620162
 20
33.35364094767107
 10
66.05536550655964
 20
33.31861662425624
 10
66.08614804891506
 20
33.30440706550094
 10
66.16752262374614
 20
33.26574151277564
 10
66.21579162585082
 20
33.23750405834633
  0
LINE
  5
13E
330
12F
100
AcDbEntity
  8
DIBUJOS
 62
     7
370
    18
100
AcDbLine
 10
63.03094726083006
 20
33.22566249379344
 30
0.0
 11
63.03094726083006
 21
33.23158407283807
 31
0.0
  0
LINE
  5
13F
330
12F
100
AcDbEntity
  8
DIBUJOS
 62
     7
370
    18
100
AcDbLine
 10
63.03686636770668
 20
33.22566249379344
 30
0.0
 11
63.03094726083006
 21
33.22566249379344
 31
0.0
  0
LINE
  5
140
330
12F
100
AcDbEntity
  8
DIBUJOS
 62
     7
370
    18
100
AcDbLine
 10
63.03686636770668
 20
33.22566249379344
 30
0.0
 11
63.04870617475884
 21
33.23158407283807
 31
0.0
  0
LWPOLYLINE
  5
141
330
12F
100
AcDbEntity
  8
DIBUJOS
 62
     7
370
    18
100
AcDbPolyline
 90
        4
 70
     0
 43
0.0
 10
66.45850368716903
 20
33.10132845629708
 10
66.45199187295522
 20
33.10606603823954
 10
66.24645626405885
 20
33.22116234868558
 10
66.22763143290267
 20
33.23750405834633
  0
LINE
  5
142
330
12F
100
AcDbEntity
  8
DIBUJOS
 62
     7
370
    18
100
AcDbLine
 10
66.46442279404531
 20
33.10132845629708
 30
0.0
 11
66.45850368716903
 21
33.10132845629708
 31
0.0
  0
LINE
  5
143
330
12F
100
AcDbEntity
  8
DIBUJOS
 62
     7
370
    18
100
AcDbLine
 10
66.46442279404531
 20
33.10132845629708
 30
0.0
 11
66.46442279404531
 21
33.10725003534171
 31
0.0
  0
LINE
  5
144
330
12F
100
AcDbEntity
  8
DIBUJOS
 62
     7
370
    18
100
AcDbLine
 10
62.79415589968774
 20
33.08948689174483
 30
0.0
 11
62.79415589968774
 21
33.09540847078881
 31
0.0
  0
LINE
  5
145
330
12F
100
AcDbEntity
  8
DIBUJOS
 62
     7
370
    18
100
AcDbLine
 10
62.80007500656403
 20
33.08948689174483
 30
0.0
 11
62.79415589968774
 21
33.08948689174483
 31
0.0
  0
LINE
  5
146
330
12F
100
AcDbEntity
  8
DIBUJOS
 62
     7
370
    18
100
AcDbLine
 10
62.80007500656403
 20
33.08948689174483
 30
0.0
 11
63.03094726083006
 21
33.22566249379344
 31
0.0
  0
LWPOLYLINE
  5
147
330
12F
100
AcDbEntity
  8
DIBUJOS
 62
     7
370
    18
100
AcDbPolyline
 90
       12
 70
     0
 43
0.0
 10
66.60649888537012
 20
33.02436067701037
 10
66.62011362783502
 20
33.06521256085742
 10
66.82552973928505
 20
33.63418929993928
 10
66.82552973928505
 20
33.67563397910558
 10
66.80777082535659
 20
33.70523709371772
 10
66.77876321841423
 20
33.72418264088105
 10
66.77225140420041
 20
33.72891862928714
 10
66.71897466241535
 20
33.72891862928714
 10
66.68345524125918
 20
33.70523709371772
 10
66.67616908358883
 20
33.68838545260137
 10
66.49224657961223
 20
33.17888903090241
 10
66.46442279404531
 20
33.10725003534171
  0
LWPOLYLINE
  5
148
330
12F
100
AcDbEntity
  8
DIBUJOS
 62
     7
370
    18
100
AcDbPolyline
 90
        3
 70
     0
 43
0.0
 10
66.60057818519456
 20
33.01843909796639
 10
66.48324762520117
 20
33.08498834017268
 10
66.46442279404531
 20
33.10132845629708
  0
LINE
  5
149
330
12F
100
AcDbEntity
  8
DIBUJOS
 62
     7
370
    18
100
AcDbLine
 10
66.60649888537012
 20
33.01843909796639
 30
0.0
 11
66.60057818519456
 21
33.01843909796639
 31
0.0
  0
LINE
  5
14A
330
12F
100
AcDbEntity
  8
DIBUJOS
 62
     7
370
    18
100
AcDbLine
 10
66.60649888537012
 20
33.01843909796639
 30
0.0
 11
66.60649888537012
 21
33.02436067701037
 31
0.0
  0
LWPOLYLINE
  5
14B
330
12F
100
AcDbEntity
  8
DIBUJOS
 62
     7
370
    18
100
AcDbPolyline
 90
       12
 70
     0
 43
0.0
 10
62.65800050853849
 20
33.0065975334135
 10
62.644384172774
 20
33.035609446244
 10
62.43304895444801
 20
33.61050617083478
 10
62.43304895444801
 20
33.66971240006096
 10
62.46264767542863
 20
33.70523709371772
 10
62.467655415109
 20
33.70660275390119
 10
62.4804065893571
 20
33.71707865827061
 10
62.53368492444108
 20
33.71707865827061
 10
62.569202752298
 20
33.69339552916546
 10
62.57967710185504
 20
33.6747224766257
 10
62.76869975687109
 20
33.15994348374037
 10
62.79415589968774
 20
33.09540847078881
  0
LWPOLYLINE
  5
14C
330
12F
100
AcDbEntity
  8
DIBUJOS
 62
     7
370
    18
100
AcDbPolyline
 90
        3
 70
     0
 43
0.0
 10
62.65800050853849
 20
33.0065975334135
 10
62.77533106853188
 20
33.07314677562042
 10
62.79415589968774
 20
33.08948689174483
  0
LINE
  5
14D
330
12F
100
AcDbEntity
  8
DIBUJOS
 62
     7
370
    18
100
AcDbLine
 10
66.03227859979281
 20
32.60991388535563
 30
0.0
 11
66.0263594929162
 21
32.60991388535563
 31
0.0
  0
LINE
  5
14E
330
12F
100
AcDbEntity
  8
DIBUJOS
 62
     7
370
    18
100
AcDbLine
 10
66.03819929996837
 20
32.60991388535563
 30
0.0
 11
66.03227859979281
 21
32.60991388535563
 31
0.0
  0
LINE
  5
14F
330
12F
100
AcDbEntity
  8
DIBUJOS
 62
     7
370
    18
100
AcDbLine
 10
66.01451968586435
 20
32.60399230631165
 30
0.0
 11
66.0263594929162
 21
32.60991388535563
 31
0.0
  0
LINE
  5
150
330
12F
100
AcDbEntity
  8
DIBUJOS
 62
     7
370
    18
100
AcDbLine
 10
66.03227859979281
 20
32.60399230631165
 30
0.0
 11
66.03227859979281
 21
32.60991388535563
 31
0.0
  0
LWPOLYLINE
  5
151
330
12F
100
AcDbEntity
  8
DIBUJOS
 62
     7
370
    18
100
AcDbPolyline
 90
        3
 70
     0
 43
0.0
 10
66.07963623470158
 20
32.60399230631165
 10
66.07371712782529
 20
32.60991388535563
 10
66.03819929996837
 20
32.60991388535563
  0
LINE
  5
152
330
12F
100
AcDbEntity
  8
DIBUJOS
 62
     7
370
    18
100
AcDbLine
 10
66.08555693487713
 20
32.60399230631165
 30
0.0
 11
66.07963623470158
 21
32.60399230631165
 31
0.0
  0
LINE
  5
153
330
12F
100
AcDbEntity
  8
DIBUJOS
 62
     7
370
    18
100
AcDbLine
 10
66.09147604175342
 20
32.60399230631165
 30
0.0
 11
66.08555693487713
 21
32.60399230631165
 31
0.0
  0
LINE
  5
154
330
12F
100
AcDbEntity
  8
DIBUJOS
 62
     7
370
    18
100
AcDbLine
 10
63.24997970804393
 20
32.59807232080337
 30
0.0
 11
63.24405900786902
 21
32.59807232080337
 31
0.0
  0
LINE
  5
155
330
12F
100
AcDbEntity
  8
DIBUJOS
 62
     7
370
    18
100
AcDbLine
 10
63.25589881492054
 20
32.59807232080337
 30
0.0
 11
63.24997970804393
 21
32.59807232080337
 31
0.0
  0
LWPOLYLINE
  5
156
330
12F
100
AcDbEntity
  8
DIBUJOS
 62
     7
370
    18
100
AcDbPolyline
 90
        8
 70
     0
 43
0.0
 10
63.25589881492054
 20
32.59807232080337
 10
63.36219099740654
 20
32.61255118710952
 10
63.98979796242039
 20
32.65414565864089
 10
64.4338727817849
 20
32.66609399009192
 10
64.97263737817796
 20
32.66912011458181
 10
65.35138055330033
 20
32.65445321105085
 10
65.93204254792218
 20
32.6182337357832
 10
66.01451968586435
 20
32.60399230631165
  0
LINE
  5
157
330
12F
100
AcDbEntity
  8
DIBUJOS
 62
     7
370
    18
100
AcDbLine
 10
66.02043879274065
 20
32.59807232080337
 30
0.0
 11
66.01451968586435
 21
32.60399230631165
 31
0.0
  0
LINE
  5
158
330
12F
100
AcDbEntity
  8
DIBUJOS
 62
     7
370
    18
100
AcDbLine
 10
66.0263594929162
 20
32.59807232080337
 30
0.0
 11
66.02043879274065
 21
32.59807232080337
 31
0.0
  0
LINE
  5
159
330
12F
100
AcDbEntity
  8
DIBUJOS
 62
     7
370
    18
100
AcDbLine
 10
66.0263594929162
 20
32.59807232080337
 30
0.0
 11
66.03227859979281
 21
32.60399230631165
 31
0.0
  0
LINE
  5
15A
330
12F
100
AcDbEntity
  8
DIBUJOS
 62
     7
370
    18
100
AcDbLine
 10
66.08555693487713
 20
32.59807232080337
 30
0.0
 11
66.08555693487713
 21
32.60399230631165
 31
0.0
  0
LINE
  5
15B
330
12F
100
AcDbEntity
  8
DIBUJOS
 62
     7
370
    18
100
AcDbLine
 10
63.17894086573222
 20
32.59215074175939
 30
0.0
 11
63.17302175885593
 21
32.59215074175939
 31
0.0
  0
LINE
  5
15C
330
12F
100
AcDbEntity
  8
DIBUJOS
 62
     7
370
    18
100
AcDbLine
 10
63.18486156590777
 20
32.59215074175939
 30
0.0
 11
63.17894086573222
 21
32.59215074175939
 31
0.0
  0
LWPOLYLINE
  5
15D
330
12F
100
AcDbEntity
  8
DIBUJOS
 62
     7
370
    18
100
AcDbPolyline
 90
        4
 70
     0
 43
0.0
 10
63.18486156590777
 20
32.59215074175939
 10
63.19118059090683
 20
32.59567245588407
 10
63.23221920081621
 20
32.60399230631165
 10
63.24405900786902
 20
32.59807232080337
  0
LINE
  5
15E
330
12F
100
AcDbEntity
  8
DIBUJOS
 62
     7
370
    18
100
AcDbLine
 10
63.24997970804393
 20
32.59215074175939
 30
0.0
 11
63.24997970804393
 21
32.59807232080337
 31
0.0
  0
LINE
  5
15F
330
12F
100
AcDbEntity
  8
DIBUJOS
 62
     7
370
    18
100
AcDbLine
 10
66.0263594929162
 20
32.59215074175939
 30
0.0
 11
66.0263594929162
 21
32.59807232080337
 31
0.0
  0
LINE
  5
160
330
12F
100
AcDbEntity
  8
DIBUJOS
 62
     7
370
    18
100
AcDbLine
 10
63.17894086573222
 20
32.58623075625113
 30
0.0
 11
63.17894086573222
 21
32.59215074175939
 31
0.0
  0
LINE
  5
161
330
12F
100
AcDbEntity
  8
DIBUJOS
 62
     7
370
    18
100
AcDbLine
 10
66.06779802094898
 20
32.58031077074285
 30
0.0
 11
66.08555693487713
 21
32.59807232080337
 31
0.0
  0
LINE
  5
162
330
12F
100
AcDbEntity
  8
DIBUJOS
 62
     7
370
    18
100
AcDbLine
 10
66.06187732077312
 20
32.57438919169887
 30
0.0
 11
66.0263594929162
 21
32.59215074175939
 31
0.0
  0
LINE
  5
163
330
12F
100
AcDbEntity
  8
DIBUJOS
 62
     7
370
    18
100
AcDbLine
 10
66.06779802094898
 20
32.57438919169887
 30
0.0
 11
66.06187732077312
 21
32.57438919169887
 31
0.0
  0
LINE
  5
164
330
12F
100
AcDbEntity
  8
DIBUJOS
 62
     7
370
    18
100
AcDbLine
 10
66.06779802094898
 20
32.57438919169887
 30
0.0
 11
66.06779802094898
 21
32.58031077074285
 31
0.0
  0
LINE
  5
165
330
12F
100
AcDbEntity
  8
DIBUJOS
 62
     7
370
    18
100
AcDbLine
 10
66.07371712782529
 20
32.57438919169887
 30
0.0
 11
66.06779802094898
 21
32.57438919169887
 31
0.0
  0
LWPOLYLINE
  5
166
330
12F
100
AcDbEntity
  8
DIBUJOS
 62
     7
370
    18
100
AcDbPolyline
 90
        4
 70
     0
 43
0.0
 10
66.26906996093514
 20
32.57438919169887
 10
66.25190216104463
 20
32.58208596962729
 10
66.13912365713378
 20
32.60067137769815
 10
66.09147604175342
 20
32.60399230631165
  0
LINE
  5
167
330
12F
100
AcDbEntity
  8
DIBUJOS
 62
     7
370
    18
100
AcDbLine
 10
66.27499066111069
 20
32.57438919169887
 30
0.0
 11
66.26906996093514
 21
32.57438919169887
 31
0.0
  0
LINE
  5
168
330
12F
100
AcDbEntity
  8
DIBUJOS
 62
     7
370
    18
100
AcDbLine
 10
66.28090976798731
 20
32.57438919169887
 30
0.0
 11
66.27499066111069
 21
32.57438919169887
 31
0.0
  0
LINE
  5
169
330
12F
100
AcDbEntity
  8
DIBUJOS
 62
     7
370
    18
100
AcDbLine
 10
63.00134694655051
 20
32.5684692061906
 30
0.0
 11
62.99542783967421
 21
32.5684692061906
 31
0.0
  0
LINE
  5
16A
330
12F
100
AcDbEntity
  8
DIBUJOS
 62
     7
370
    18
100
AcDbLine
 10
63.00726764672606
 20
32.5684692061906
 30
0.0
 11
63.00134694655051
 21
32.5684692061906
 31
0.0
  0
LWPOLYLINE
  5
16B
330
12F
100
AcDbEntity
  8
DIBUJOS
 62
     7
370
    18
100
AcDbPolyline
 90
        4
 70
     0
 43
0.0
 10
63.00726764672606
 20
32.5684692061906
 10
63.03042465866181
 20
32.57647991067249
 10
63.16089356463142
 20
32.59475139218988
 10
63.17302175885593
 20
32.59215074175939
  0
LINE
  5
16C
330
12F
100
AcDbEntity
  8
DIBUJOS
 62
     7
370
    18
100
AcDbLine
 10
63.19078067278407
 20
32.5684692061906
 30
0.0
 11
63.17894086573222
 21
32.58623075625113
 31
0.0
  0
LWPOLYLINE
  5
16D
330
12F
100
AcDbEntity
  8
DIBUJOS
 62
     7
370
    18
100
AcDbPolyline
 90
        4
 70
     0
 43
0.0
 10
63.19078067278407
 20
32.5684692061906
 10
63.20202777249872
 20
32.57024440507503
 10
63.24346789383076
 20
32.58741475335265
 10
63.24997970804393
 20
32.59215074175939
  0
LINE
  5
16E
330
12F
100
AcDbEntity
  8
DIBUJOS
 62
     7
370
    18
100
AcDbLine
 10
66.27499066111069
 20
32.5684692061906
 30
0.0
 11
66.27499066111069
 21
32.57438919169887
 31
0.0
  0
LINE
  5
16F
330
12F
100
AcDbEntity
  8
DIBUJOS
 62
     7
370
    18
100
AcDbLine
 10
62.98950873279792
 20
32.56254762714597
 30
0.0
 11
62.99542783967421
 21
32.5684692061906
 31
0.0
  0
LINE
  5
170
330
12F
100
AcDbEntity
  8
DIBUJOS
 62
     7
370
    18
100
AcDbLine
 10
63.00134694655051
 20
32.56254762714597
 30
0.0
 11
63.00134694655051
 21
32.5684692061906
 31
0.0
  0
LINE
  5
171
330
12F
100
AcDbEntity
  8
DIBUJOS
 62
     7
370
    18
100
AcDbLine
 10
62.99542783967421
 20
32.55662764163771
 30
0.0
 11
62.98950873279792
 21
32.56254762714597
 31
0.0
  0
LINE
  5
172
330
12F
100
AcDbEntity
  8
DIBUJOS
 62
     7
370
    18
100
AcDbLine
 10
62.99542783967421
 20
32.55662764163771
 30
0.0
 11
63.00134694655051
 21
32.56254762714597
 31
0.0
  0
LINE
  5
173
330
12F
100
AcDbEntity
  8
DIBUJOS
 62
     7
370
    18
100
AcDbLine
 10
66.19803271192236
 20
32.49149983336753
 30
0.0
 11
66.07371712782529
 21
32.57438919169887
 31
0.0
  0
LINE
  5
174
330
12F
100
AcDbEntity
  8
DIBUJOS
 62
     7
370
    18
100
AcDbLine
 10
66.20395181879867
 20
32.49149983336753
 30
0.0
 11
66.19803271192236
 21
32.49149983336753
 31
0.0
  0
LINE
  5
175
330
12F
100
AcDbEntity
  8
DIBUJOS
 62
     7
370
    18
100
AcDbLine
 10
66.20395181879867
 20
32.49149983336753
 30
0.0
 11
66.27499066111069
 21
32.5684692061906
 31
0.0
  0
LWPOLYLINE
  5
176
330
12F
100
AcDbEntity
  8
DIBUJOS
 62
     7
370
    18
100
AcDbPolyline
 90
        3
 70
     0
 43
0.0
 10
63.05462528163514
 20
32.48557984785927
 10
62.99679489046827
 20
32.55161756507297
 10
62.99542783967421
 20
32.55662764163771
  0
LINE
  5
177
330
12F
100
AcDbEntity
  8
DIBUJOS
 62
     7
370
    18
100
AcDbLine
 10
66.20395181879867
 20
32.48557984785927
 30
0.0
 11
66.20395181879867
 21
32.49149983336753
 31
0.0
  0
LINE
  5
178
330
12F
100
AcDbEntity
  8
DIBUJOS
 62
     7
370
    18
100
AcDbLine
 10
63.05462528163514
 20
32.47965826881529
 30
0.0
 11
63.05462528163514
 21
32.48557984785927
 31
0.0
  0
LINE
  5
179
330
12F
100
AcDbEntity
  8
DIBUJOS
 62
     7
370
    18
100
AcDbLine
 10
63.06054598181101
 20
32.47965826881529
 30
0.0
 11
63.05462528163514
 21
32.47965826881529
 31
0.0
  0
LINE
  5
17A
330
12F
100
AcDbEntity
  8
DIBUJOS
 62
     7
370
    18
100
AcDbLine
 10
63.06054598181101
 20
32.47965826881529
 30
0.0
 11
63.19078067278407
 21
32.5684692061906
 31
0.0
  0
LINE
  5
17B
330
12F
100
AcDbEntity
  8
DIBUJOS
 62
     7
370
    18
100
AcDbLine
 10
63.05462528163514
 20
32.47373828330766
 30
0.0
 11
63.05462528163514
 21
32.47965826881529
 31
0.0
  0
LWPOLYLINE
  5
17C
330
12F
100
AcDbEntity
  8
DIBUJOS
 62
     7
370
    18
100
AcDbPolyline
 90
       31
 70
     0
 43
0.0
 10
66.28090976798731
 20
32.57438919169887
 10
66.28623776082534
 20
32.5732051945967
 10
66.39397825236973
 20
32.52820852412646
 10
66.40581805942158
 20
32.52228694508248
 10
66.50479540485007
 20
32.460475284818
 10
66.7141198794672
 20
32.30938100058175
 10
66.94518014304991
 20
32.11996058674577
 10
67.091919821408
 20
31.98824369787383
 10
67.24727924894463
 20
31.81177873011689
 10
67.34647168977803
 20
31.69221095820782
 10
67.42934874584264
 20
31.6389247144899
 10
67.48262708092728
 20
31.6389247144899
 10
67.51104198053245
 20
31.65313427324584
 10
67.52497538285611
 20
31.66124058987586
 10
67.6010219648485
 20
31.71589249377661
 10
67.6306206858288
 20
31.74549560838938
 10
67.6306206858288
 20
31.78102030204678
 10
67.62261276357875
 20
31.80418075140804
 10
67.61650405408622
 20
31.83385079452476
 10
67.57023942249275
 20
31.95212780243417
 10
67.5524805085646
 20
31.98765090255521
 10
67.43053256721809
 20
32.23158298914119
 10
67.40685295311377
 20
32.27302766830685
 10
67.33913135993124
 20
32.37202129946372
 10
67.32421329864388
 20
32.39191500042841
 10
67.22068389713315
 20
32.51385873422041
 10
67.1703499791441
 20
32.56979343444288
 10
67.08600071453138
 20
32.65727855002957
 10
66.88347484800051
 20
32.83343596537653
 10
66.75950182325189
 20
32.9164225293917
 10
66.60649888537012
 20
33.01843909796639
  0
LWPOLYLINE
  5
17D
330
12F
100
AcDbEntity
  8
DIBUJOS
 62
     7
370
    18
100
AcDbPolyline
 90
       32
 70
     0
 43
0.0
 10
62.65800050853849
 20
33.0065975334135
 10
62.52685445036886
 20
32.919153849758
 10
62.38105322529523
 20
32.82158962021713
 10
62.21861158239743
 20
32.67651252717234
 10
62.12966724262205
 20
32.59347656354802
 10
61.97869576133972
 20
32.42504779684509
 10
61.87203393341737
 20
32.27744494955298
 10
61.85427501948923
 20
32.24784183493956
 10
61.73273735271077
 20
32.00659804325361
 10
61.7214902529958
 20
31.98291491414847
 10
61.65933246094741
 20
31.83371375044608
 10
61.65578020017192
 20
31.82305777653107
 10
61.63979701830631
 20
31.76325875198626
 10
61.63979701830631
 20
31.72181407282059
 10
61.7472642590214
 20
31.64029037467273
 10
61.75168088466382
 20
31.63774071738837
 10
61.78187231298164
 20
31.62116316442938
 10
61.84106975494225
 20
31.62116316442938
 10
61.85199819479816
 20
31.62844881012048
 10
61.86565914294327
 20
31.63755746077071
 10
61.90618789707873
 20
31.66260784359441
 10
61.95946463886411
 20
31.71589249377661
 10
62.08824464758241
 20
31.87696390567607
 10
62.26137414214291
 20
32.05337150614401
 10
62.32783224898522
 20
32.11110371475287
 10
62.36918473885593
 20
32.14663956316028
 10
62.56813842836987
 20
32.30938100058175
 10
62.75970239575928
 20
32.44863531380147
 10
62.85868133448702
 20
32.51044697406594
 10
62.86578426273845
 20
32.51399896537052
 10
62.9652364113564
 20
32.5584044340585
 10
62.98950873279792
 20
32.56254762714597
  0
LWPOLYLINE
  5
17E
330
12F
100
AcDbEntity
  8
DIBUJOS
 62
     7
370
    18
100
AcDbPolyline
 90
       20
 70
     0
 43
0.0
 10
66.73081287616795
 20
28.91541825089042
 10
66.79137736892293
 20
29.00923767129476
 10
66.84210483183773
 20
29.09955131293159
 10
66.87407278886851
 20
29.1694151096085
 10
66.9122370868519
 20
29.28302146407876
 10
66.92202313111447
 20
29.31743147944184
 10
66.94641176340415
 20
29.48344763293845
 10
66.94107580406923
 20
29.65539970730115
 10
66.92299663698277
 20
30.00500393359373
 10
66.87607397278124
 20
30.64997798865961
 10
66.79848189047394
 20
31.49122625504902
 10
66.76970212533047
 20
31.72149536565997
 10
66.73258940488058
 20
31.86450245569674
 10
66.70239797656309
 20
31.94147023498344
 10
66.64065125573222
 20
32.05837998917303
 10
66.61970414991741
 20
32.08980610874493
 10
66.54284339198561
 20
32.19079962733444
 10
66.48810240814933
 20
32.25467332292772
 10
66.35301293422746
 20
32.37450721531621
 10
66.20395181879867
 20
32.48557984785927
  0
LINE
  5
17F
330
12F
100
AcDbEntity
  8
DIBUJOS
 62
     7
370
    18
100
AcDbLine
 10
66.73081287616795
 20
28.90949746861398
 30
0.0
 11
66.72489376929165
 21
28.90949746861398
 31
0.0
  0
LINE
  5
180
330
12F
100
AcDbEntity
  8
DIBUJOS
 62
     7
370
    18
100
AcDbLine
 10
66.73081287616795
 20
28.90949746861398
 30
0.0
 11
66.73081287616795
 21
28.91541825089042
 31
0.0
  0
LWPOLYLINE
  5
181
330
12F
100
AcDbEntity
  8
DIBUJOS
 62
     7
370
    18
100
AcDbPolyline
 90
       22
 70
     0
 43
0.0
 10
62.55736453854542
 20
28.90357668633817
 10
62.49087934561488
 20
28.99739690351005
 10
62.44015188269976
 20
29.08770974837933
 10
62.40818551896887
 20
29.15757354505625
 10
62.37001962768559
 20
29.27118069629404
 10
62.36584199693747
 20
29.28789768363626
 10
62.33241139115568
 20
29.47196142687023
 10
62.33241139115568
 20
29.48972297693011
 10
62.35926007755504
 20
30.0464486127594
 10
62.40024610858789
 20
30.64996364683752
 10
62.46596811115662
 20
31.43791132768756
 10
62.50071637545475
 20
31.72741535116823
 10
62.52362164610189
 20
31.81595220038492
 10
62.52567540889147
 20
31.82298766095569
 10
62.55262765974499
 20
31.90476154422452
 10
62.55617912387103
 20
31.91186712037003
 10
62.6239023103525
 20
32.04638385164793
 10
62.63882037164017
 20
32.06627755261326
 10
62.71274945887102
 20
32.1704597363441
 10
62.76455558540818
 20
32.23099178735829
 10
62.89964505932972
 20
32.35674566525568
 10
63.05462528163514
 20
32.47373828330766
  0
LINE
  5
182
330
12F
100
AcDbEntity
  8
DIBUJOS
 62
     7
370
    18
100
AcDbLine
 10
66.73081287616795
 20
28.90357668633817
 30
0.0
 11
66.73081287616795
 21
28.90949746861398
 31
0.0
  0
LINE
  5
183
330
12F
100
AcDbEntity
  8
DIBUJOS
 62
     7
370
    18
100
AcDbLine
 10
62.55736453854542
 20
28.8976567008299
 30
0.0
 11
62.55736453854542
 21
28.90357668633817
 31
0.0
  0
LINE
  5
184
330
12F
100
AcDbEntity
  8
DIBUJOS
 62
     7
370
    18
100
AcDbLine
 10
62.56328364542139
 20
28.8976567008299
 30
0.0
 11
62.55736453854542
 21
28.8976567008299
 31
0.0
  0
LWPOLYLINE
  5
185
330
12F
100
AcDbEntity
  8
DIBUJOS
 62
     7
370
    18
100
AcDbPolyline
 90
        3
 70
     0
 43
0.0
 10
66.64201671322671
 20
28.81476654573103
 10
66.71897466241535
 20
28.90949746861398
 10
66.72489376929165
 20
28.90949746861398
  0
LINE
  5
186
330
12F
100
AcDbEntity
  8
DIBUJOS
 62
     7
370
    18
100
AcDbLine
 10
62.64616070148665
 20
28.79700499566986
 30
0.0
 11
62.56328364542139
 21
28.8976567008299
 31
0.0
  0
LINE
  5
187
330
12F
100
AcDbEntity
  8
DIBUJOS
 62
     7
370
    18
100
AcDbLine
 10
62.66391961541543
 20
28.77332266333354
 30
0.0
 11
62.65207980836294
 21
28.78516343111762
 31
0.0
  0
LWPOLYLINE
  5
188
330
12F
100
AcDbEntity
  8
DIBUJOS
 62
     7
370
    18
100
AcDbPolyline
 90
       24
 70
     0
 43
0.0
 10
66.95576602355767
 20
28.33519274257429
 10
66.73223409913813
 20
28.65005390452109
 10
66.65385652027921
 20
28.75556031650484
 10
66.62425779929858
 20
28.78516343111762
 10
66.42996929011655
 20
28.61796407728765
 10
66.41008013503254
 20
28.60304380156429
 10
66.35135590296245
 20
28.56728326460737
 10
66.28742158220079
 20
28.53531135902402
 10
66.20349772850011
 20
28.5091694041742
 10
66.14457114741913
 20
28.49780191652359
 10
65.55277517733198
 20
28.48320990917516
 10
65.546856070456
 20
28.4891306914516
 10
65.53500670360802
 20
28.48616034071435
 10
63.72357199012472
 20
28.48025868086779
 10
63.68804300917304
 20
28.48320990917516
 10
63.68212390229675
 20
28.47728912689871
 10
63.14894222662949
 20
28.48673002976412
 10
63.11336863329687
 20
28.49277351429715
 10
63.00075583251256
 20
28.52346979447112
 10
62.94155839055164
 20
28.55307370585207
 10
62.88401797985637
 20
28.58528145473495
 10
62.86412723147312
 20
28.60020173045959
 10
62.76594653569132
 20
28.68006894813936
 10
62.66391961541543
 20
28.77332266333354
  0
LWPOLYLINE
  5
189
330
12F
100
AcDbEntity
  8
DIBUJOS
 62
     7
370
    18
100
AcDbPolyline
 90
        3
 70
     0
 43
0.0
 10
66.96168513043429
 20
28.32927275706602
 10
66.95576602355767
 20
28.32927275706602
 10
66.95576602355767
 20
28.33519274257429
  0
LWPOLYLINE
  5
18A
330
12F
100
AcDbEntity
  8
DIBUJOS
 62
     7
370
    18
100
AcDbPolyline
 90
       13
 70
     0
 43
0.0
 10
66.96168513043429
 20
28.32927275706602
 10
66.96653991338213
 20
28.32785132312927
 10
67.00312365846676
 20
28.30558962796088
 10
67.03864307962229
 20
28.30558962796088
 10
67.04515489383609
 20
28.30973441458472
 10
67.05640199355075
 20
28.31151041023733
 10
67.09784052158322
 20
28.3588758716788
 10
67.09784052158322
 20
28.40624133312027
 10
67.08718453590652
 20
28.42459488173187
 10
66.88614840421583
 20
28.70926093051546
 10
66.86838949028737
 20
28.73294326285243
 10
66.80630817660492
 20
28.81943401209812
 10
66.73081287616795
 20
28.90357668633817
  0
LWPOLYLINE
  5
18B
330
12F
100
AcDbEntity
  8
DIBUJOS
 62
     7
370
    18
100
AcDbPolyline
 90
       14
 70
     0
 43
0.0
 10
62.55736453854542
 20
28.8976567008299
 10
62.45817050441277
 20
28.77808733538447
 10
62.20040017146934
 20
28.40683333167135
 10
62.19033689313014
 20
28.38847898629221
 10
62.19033689313014
 20
28.35295508940235
 10
62.20099287880685
 20
28.3286799617474
 10
62.22585631428599
 20
28.29966884568507
 10
62.25545503526629
 20
28.28782728113218
 10
62.27965565823962
 20
28.29165893797072
 10
62.30873337035093
 20
28.29966884568507
 10
62.34425119820752
 20
28.33519274257429
 10
62.55599748775136
 20
28.638057766996
 10
62.62394851603204
 20
28.73059359431044
 10
62.66391961541543
 20
28.77332266333354
  0
ENDBLK
  5
132
330
12F
100
AcDbEntity
  8
0
100
AcDbBlockEnd
  0
ENDSEC
  0
SECTION
  2
ENTITIES
  0
MTEXT
  5
79
330
70
100
AcDbEntity
  8
REFERENCIAS
100
AcDbMText
 10
61.49112712594395
 20
54.85563098807645
 30
0.0
 40
0.2
 41
0.0
 46
0.0
 71
     7
 72
     1
  1
\C255;\FMyriad Pro|b0|i0|c1;\H1.498600;\W0.999980;JADE WIDE_2331__CHAIR
 73
     1
 44
1.0
  0
MTEXT
  5
7B
330
70
100
AcDbEntity
  8
MÁRGENES
100
AcDbMText
 10
90.14127864703391
 20
23.7555119243149
 30
0.0
 40
0.2
 41
0.0
 46
0.0
 71
     7
 72
     1
  1
\C255;\FMyriad Pro|b0|i0|c1;\H1.748367;\W0.999980;400
 73
     1
 44
1.0
  0
MTEXT
  5
7C
330
70
100
AcDbEntity
  8
MÁRGENES
100
AcDbMText
 10
84.21176331851954
 20
20.50332059082737
 30
0.0
 40
0.2
 41
0.0
 46
0.0
 71
     7
 72
     1
  1
\C255;\FMyriad Pro|b0|i0|c1;\H1.748367;\W0.999980;400
 73
     1
 44
1.0
  0
LINE
  5
7D
330
70
100
AcDbEntity
  8
MÁRGENES
 62
   255
370
    18
100
AcDbLine
 10
84.41666477502158
 20
24.76314475783758
 30
0.0
 11
94.99999810570907
 21
19.74726776251925
 31
0.0
  0
LINE
  5
7E
330
70
100
AcDbEntity
  8
MÁRGENES
 62
   254
370
    35
100
AcDbLine
 10
54.99999767595828
 20
20.88258920325216
 30
0.0
 11
54.99999767595828
 21
19.74726776251925
 31
0.0
  0
LINE
  5
7F
330
70
100
AcDbEntity
  8
MÁRGENES
 62
   255
370
    35
100
AcDbLine
 10
94.99999797321169
 20
59.74726768656563
 30
0.0
 11
93.86467653247878
 21
59.74726768651462
 31
0.0
  0
LINE
  5
81
330
70
100
AcDbEntity
  8
DIBUJOS
 62
     7
370
     0
100
AcDbLine
 10
56.03004076593276
 20
59.74432283235075
 30
0.0
 11
56.02412086240668
 21
59.74432283235075
 31
0.0
  0
LINE
  5
82
330
70
100
AcDbEntity
  8
DIBUJOS
 62
     7
370
     0
100
AcDbLine
 10
56.03596066945885
 20
59.74432283235075
 30
0.0
 11
56.03004076593276
 21
59.74432283235075
 31
0.0
  0
LWPOLYLINE
  5
83
330
70
100
AcDbEntity
  8
DIBUJOS
 62
     7
370
     0
100
AcDbPolyline
 90
        3
 70
     0
 43
0.0
 10
56.39706761469858
 20
59.74432283235075
 10
56.26695481112122
 20
59.74714976486517
 10
56.03596066945885
 20
59.74432283235075
  0
LINE
  5
84
330
70
100
AcDbEntity
  8
DIBUJOS
 62
     7
370
     0
100
AcDbLine
 10
56.03004076593276
 20
59.7384044403782
 30
0.0
 11
56.03004076593276
 21
59.74432283235075
 31
0.0
  0
LINE
  5
85
330
70
100
AcDbEntity
  8
DIBUJOS
 62
   250
370
     0
100
AcDbLine
 10
56.02412086240668
 20
59.7324828613339
 30
0.0
 11
56.03004076593276
 21
59.7384044403782
 31
0.0
  0
LINE
  5
86
330
70
100
AcDbEntity
  8
DIBUJOS
 62
     7
370
     0
100
AcDbLine
 10
94.99999810570907
 20
58.6312380739275
 30
0.0
 11
94.99999810570907
 21
59.7384044403782
 31
0.0
  0
LWPOLYLINE
  5
87
330
70
100
AcDbEntity
  8
DIBUJOS
 62
     7
370
     0
100
AcDbPolyline
 90
       38
 70
     0
 43
0.0
 10
55.01183727570059
 20
58.62531968195527
 10
55.00591777049955
 20
58.71412743225851
 10
55.01183727570059
 20
58.80293836963383
 10
55.00591777049955
 20
58.8088599486775
 10
55.00591777049955
 20
58.83254307778233
 10
55.01183727570059
 20
58.83846146975519
 10
55.00591777049955
 20
58.85030462784317
 10
55.01183727570059
 20
58.86214459885938
 10
55.00591777049955
 20
58.91542924904157
 10
55.01183727570059
 20
58.92135082808557
 10
55.00591777049955
 20
58.93319398617386
 10
55.01183727570059
 20
58.98055705731175
 10
55.00591777049955
 20
58.98647863635574
 10
55.00591777049955
 20
58.99831860737259
 10
55.01183727570059
 20
59.00424018641658
 10
55.00591777049955
 20
59.0220017364771
 10
55.00591777049955
 20
59.05160644462591
 10
55.01183727570059
 20
59.05752802367022
 10
55.01183727570059
 20
59.08120796570329
 10
55.00591777049955
 20
59.0871295447476
 10
55.01183727570059
 20
59.12265264486896
 10
55.00591777049955
 20
59.12857422391294
 10
55.01183727570059
 20
59.19962361122774
 10
55.00591777049955
 20
59.20554200319965
 10
55.01183727570059
 20
59.246986682365
 10
55.00591777049955
 20
59.2529082614093
 10
55.01183727570059
 20
59.32987604069633
 10
55.00591777049955
 20
59.33579761973999
 10
55.01183727570059
 20
59.507497915446
 10
55.00591777049955
 20
59.51341949449062
 10
55.01183727570059
 20
59.58446569473335
 10
55.00591777049955
 20
59.59038727377702
 10
55.00591777049955
 20
59.61998879485471
 10
55.01183727570059
 20
59.72063970324561
 10
55.00591777049955
 20
59.7324828613339
 10
55.01775717922667
 20
59.74432283235075
 10
56.0122639273875
 20
59.74726768651462
 10
56.02412086240668
 20
59.74432283235075
  0
INSERT
  5
89
330
70
100
AcDbEntity
  8
DIBUJOS
100
AcDbBlockReference
  2
Block_0
 10
0.0
 20
0.0
 30
0.0
  0
INSERT
  5
104
330
70
100
AcDbEntity
  8
DIBUJOS
100
AcDbBlockReference
  2
Block_1
 10
0.0
 20
0.0
 30
0.0
  0
INSERT
  5
130
330
70
100
AcDbEntity
  8
DIBUJOS
100
AcDbBlockReference
  2
Block_2
 10
0.0
 20
0.0
 30
0.0
  0
LWPOLYLINE
  5
18C
330
70
100
AcDbEntity
  8
DIBUJOS
 62
     7
370
     0
100
AcDbPolyline
 90
        4
 70
     0
 43
0.0
 10
54.99999786697348
 20
19.75614853754983
 10
55.13603017575218
 20
19.74740161952649
 10
56.36746849539354
 20
19.74726776251925
 10
56.39706761469858
 20
19.75022775527338
  0
LINE
  5
18E
330
70
100
AcDbEntity
  8
COTAS LINEA
 62
     7
370
    18
100
AcDbLine
 10
69.50282335904508
 20
51.31461787828187
 30
0.0
 11
69.50282335990848
 21
42.33144090531743
 31
0.0
  0
LINE
  5
18F
330
70
100
AcDbEntity
  8
COTAS LINEA
 62
     7
370
    18
100
AcDbLine
 10
88.56763180939003
 20
45.949318484247
 30
0.0
 11
88.56763181069652
 21
42.33143791450131
 31
0.0
  0
LINE
  5
190
330
70
100
AcDbEntity
  8
COTAS LINEA
 62
     7
370
    18
100
AcDbLine
 10
79.26793728705994
 20
38.66119575631178
 30
0.0
 11
87.25892328953054
 21
38.66119575631178
 31
0.0
  0
LINE
  5
191
330
70
100
AcDbEntity
  8
COTAS LINEA
 62
     7
370
    18
100
AcDbLine
 10
61.60456795805398
 20
38.66119575631178
 30
0.0
 11
67.80351820943931
 21
38.66119575631178
 31
0.0
  0
MTEXT
  5
193
330
70
100
AcDbEntity
  8
COTAS NÚMERO
100
AcDbMText
 10
89.32618520410889
 20
43.35631136340137
 30
0.0
 40
0.2
 41
0.0
 46
0.0
 71
     7
 72
     1
  1
\C7;\FMyriad Pro|b0|i0|c1;\H1.998533;\W0.999980;46
 73
     1
 44
1.0
  0
MTEXT
  5
194
330
70
100
AcDbEntity
  8
COTAS NÚMERO
100
AcDbMText
 10
70.26136860680397
 20
44.06186691878054
 30
0.0
 40
0.2
 41
0.0
 46
0.0
 71
     7
 72
     1
  1
\C7;\FMyriad Pro|b0|i0|c1;\H1.998533;\W0.999980;78
 73
     1
 44
1.0
  0
MTEXT
  5
195
330
70
100
AcDbEntity
  8
COTAS NÚMERO
100
AcDbMText
 10
81.68668596556738
 20
39.21634011877664
 30
0.0
 40
0.2
 41
0.0
 46
0.0
 71
     7
 72
     1
  1
\C7;\FMyriad Pro|b0|i0|c1;\H1.998533;\W0.999980;53
 73
     1
 44
1.0
  0
MTEXT
  5
196
330
70
100
AcDbEntity
  8
COTAS NÚMERO
100
AcDbMText
 10
63.19841417216156
 20
39.21616786400239
 30
0.0
 40
0.2
 41
0.0
 46
0.0
 71
     7
 72
     1
  1
\C7;\FMyriad Pro|b0|i0|c1;\H1.998533;\W0.999980;55
 73
     1
 44
1.0
  0
ENDSEC
  0
SECTION
  2
OBJECTS
  0
DICTIONARY
  5
C
330
0
100
AcDbDictionary
281
     1
  3
ACAD_COLOR
350
63
  3
ACAD_DETAILVIEWSTYLE
350
6A
  3
ACAD_GROUP
350
D
  3
ACAD_LAYOUT
350
62
  3
ACAD_MATERIAL
350
10
  3
ACAD_MLEADERSTYLE
350
66
  3
ACAD_MLINESTYLE
350
5F
  3
ACAD_PLOTSETTINGS
350
61
  3
ACAD_PLOTSTYLENAME
350
E
  3
ACAD_SCALELIST
350
42
  3
ACAD_SECTIONVIEWSTYLE
350
68
  3
ACAD_TABLESTYLE
350
64
  3
ACAD_VISUALSTYLE
350
29
  3
ACDB_RECOMPOSE_DATA
350
1A2
  3
AcDbVariableDictionary
350
197
  0
DICTIONARY
  5
63
102
{ACAD_REACTORS
330
C
102
}
330
C
100
AcDbDictionary
281
     1
  0
DICTIONARY
  5
6A
102
{ACAD_REACTORS
330
C
102
}
330
C
100
AcDbDictionary
281
     1
  3
Imperial24
350
6B
  0
DICTIONARY
  5
D
102
{ACAD_REACTORS
330
C
102
}
330
C
100
AcDbDictionary
281
     1
  0
DICTIONARY
  5
62
102
{ACAD_REACTORS
330
C
102
}
330
C
100
AcDbDictionary
281
     1
  3
Layout1
350
6F
  3
Layout2
350
77
  3
Model
350
73
  0
DICTIONARY
  5
10
102
{ACAD_REACTORS
330
C
102
}
330
C
100
AcDbDictionary
281
     1
  3
ByBlock
350
19
  3
ByLayer
350
11
  3
Global
350
21
  0
DICTIONARY
  5
66
102
{ACAD_REACTORS
330
C
102
}
330
C
100
AcDbDictionary
281
     1
  3
Standard
350
67
  0
DICTIONARY
  5
5F
102
{ACAD_REACTORS
330
C
102
}
330
C
100
AcDbDictionary
281
     1
  3
Standard
350
60
  0
DICTIONARY
  5
61
102
{ACAD_REACTORS
330
C
102
}
330
C
100
AcDbDictionary
281
     1
  0
ACDBDICTIONARYWDFLT
  5
E
102
{ACAD_REACTORS
330
C
102
}
330
C
100
AcDbDictionary
281
     1
  3
Normal
350
F
100
AcDbDictionaryWithDefault
340
F
  0
DICTIONARY
  5
42
102
{ACAD_REACTORS
330
C
102
}
330
C
100
AcDbDictionary
281
     1
  3
A0
350
43
  3
A1
350
44
  3
A2
350
45
  3
A3
350
46
  3
A4
350
47
  3
A5
350
48
  3
A6
350
49
  3
A7
350
4A
  3
A8
350
4B
  3
A9
350
4C
  3
B0
350
4D
  3
B1
350
4E
  3
B2
350
4F
  3
B3
350
50
  3
B4
350
51
  3
B5
350
52
  3
B6
350
53
  0
DICTIONARY
  5
68
102
{ACAD_REACTORS
330
C
102
}
330
C
100
AcDbDictionary
281
     1
  3
Imperial24
350
69
  0
DICTIONARY
  5
64
102
{ACAD_REACTORS
330
C
102
}
330
C
100
AcDbDictionary
281
     1
  3
Standard
350
65
  0
DICTIONARY
  5
29
102
{ACAD_REACTORS
330
C
102
}
330
C
100
AcDbDictionary
281
     1
  3
2dWireframe
350
2F
  3
Basic
350
2E
  3
Brighten
350
35
  3
ColorChange
350
39
  3
Conceptual
350
32
  3
Dim
350
34
  3
EdgeColorOff
350
41
  3
Facepattern
350
38
  3
Flat
350
2A
  3
FlatWithEdges
350
2B
  3
Gouraud
350
2C
  3
GouraudWithEdges
350
2D
  3
Hidden
350
31
  3
JitterOff
350
3F
  3
Linepattern
350
37
  3
OverhangOff
350
40
  3
Realistic
350
33
  3
Shaded
350
3E
  3
Shaded with edges
350
3D
  3
Shades of Gray
350
3A
  3
Sketchy
350
3B
  3
Thicken
350
36
  3
Wireframe
350
30
  3
X-Ray
350
3C
  0
XRECORD
  5
1A2
102
{ACAD_REACTORS
330
C
102
}
330
C
100
AcDbXrecord
280
     1
 90
        1
330
65
  0
DICTIONARY
  5
197
102
{ACAD_REACTORS
330
C
102
}
330
C
100
AcDbDictionary
281
     1
  3
CANNOSCALE
350
19C
  3
CMLEADERSTYLE
350
199
  3
CTABLESTYLE
350
198
  3
CVIEWDETAILSTYLE
350
19A
  3
CVIEWSECTIONSTYLE
350
19B
  3
XCLIPFRAME
350
19D
  0
ACDBDETAILVIEWSTYLE
  5
6B
102
{ACAD_XDICTIONARY
360
1D8
102
}
102
{ACAD_REACTORS
330
6A
102
}
330
6A
100
AcDbModelDocViewStyle
 70
     0
  3
Imperial24
290
     0
100
AcDbDetailViewStyle
 70
     0
 71
     0
 90
        3
 71
     1
340
55
 62
   256
 40
0.24
340
0
 62
   256
 40
0.24
300

 40
0.36
280
     3
 71
     2
340
5D
 90
       25
 62
   256
 71
     3
340
55
 62
   256
 40
0.24
 90
        1
 40
0.75
 90
        1
300
%<\AcVar ViewType \f "%tc1">% %<\AcVar ViewDetailId>%\PSCALE %<\AcVar ViewScale \f "%sn">%
 71
     4
340
5D
 90
       25
 62
   256
340
5D
 90
       25
 62
   256
280
     0
  0
LAYOUT
  5
6F
102
{ACAD_REACTORS
330
62
102
}
330
62
100
AcDbPlotSettings
  1

  2

  4

  6

 40
0.0
 41
0.0
 42
0.0
 43
0.0
 44
0.0
 45
0.0
 46
0.0
 47
0.0
 48
0.0
 49
0.0
140
0.0
141
0.0
142
1.0
143
1.0
 70
   688
 72
     0
 73
     0
 74
     5
  7

 75
    16
147
1.0
 76
     0
 77
     2
 78
   300
148
0.0
149
0.0
100
AcDbLayout
  1
Layout1
 70
     1
 71
     1
 10
0.0
 20
0.0
 11
12.0
 21
9.0
 12
0.0
 22
0.0
 32
0.0
 14
0.0
 24
0.0
 34
0.0
 15
0.0
 25
0.0
 35
0.0
146
0.0
 13
0.0
 23
0.0
 33
0.0
 16
1.0
 26
0.0
 36
0.0
 17
0.0
 27
1.0
 37
0.0
 76
     0
330
6C
  0
LAYOUT
  5
77
102
{ACAD_REACTORS
330
62
102
}
330
62
100
AcDbPlotSettings
  1

  2

  4

  6

 40
0.0
 41
0.0
 42
0.0
 43
0.0
 44
0.0
 45
0.0
 46
0.0
 47
0.0
 48
0.0
 49
0.0
140
0.0
141
0.0
142
1.0
143
1.0
 70
   688
 72
     0
 73
     0
 74
     5
  7

 75
    16
147
1.0
 76
     0
 77
     2
 78
   300
148
0.0
149
0.0
100
AcDbLayout
  1
Layout2
 70
     1
 71
     2
 10
0.0
 20
0.0
 11
12.0
 21
9.0
 12
0.0
 22
0.0
 32
0.0
 14
0.0
 24
0.0
 34
0.0
 15
0.0
 25
0.0
 35
0.0
146
0.0
 13
0.0
 23
0.0
 33
0.0
 16
1.0
 26
0.0
 36
0.0
 17
0.0
 27
1.0
 37
0.0
 76
     0
330
74
  0
LAYOUT
  5
73
102
{ACAD_REACTORS
330
62
102
}
330
62
100
AcDbPlotSettings
  1

  2

  4

  6

 40
0.0
 41
0.0
 42
0.0
 43
0.0
 44
0.0
 45
0.0
 46
0.0
 47
0.0
 48
0.0
 49
0.0
140
0.0
141
0.0
142
1.0
143
1.0
 70
  1712
 72
     0
 73
     0
 74
     0
  7

 75
     0
147
1.0
 76
     0
 77
     2
 78
   300
148
0.0
149
0.0
100
AcDbLayout
  1
Model
 70
     1
 71
     0
 10
0.0
 20
0.0
 11
12.0
 21
9.0
 12
0.0
 22
0.0
 32
0.0
 14
0.0
 24
0.0
 34
0.0
 15
0.0
 25
0.0
 35
0.0
146
0.0
 13
0.0
 23
0.0
 33
0.0
 16
1.0
 26
0.0
 36
0.0
 17
0.0
 27
1.0
 37
0.0
 76
     0
330
70
  0
MATERIAL
  5
19
102
{ACAD_XDICTIONARY
360
1A
102
}
102
{ACAD_REACTORS
330
10
102
}
330
10
100
AcDbMaterial
  1
ByBlock
 72
     0
 43
0.0208333333333333
 43
0.0
 43
0.0
 43
0.0
 43
0.0
 43
0.0208333333333333
 43
0.0
 43
0.0
 43
0.0
 43
0.0
 43
1.0
 43
0.0
 43
0.0
 43
0.0
 43
0.0
 43
1.0
 77
     0
 47
0.0208333333333333
 47
0.0
 47
0.0
 47
0.0
 47
0.0
 47
0.0208333333333333
 47
0.0
 47
0.0
 47
0.0
 47
0.0
 47
1.0
 47
0.0
 47
0.0
 47
0.0
 47
0.0
 47
1.0
171
     0
 49
0.0208333333333333
 49
0.0
 49
0.0
 49
0.0
 49
0.0
 49
0.0208333333333333
 49
0.0
 49
0.0
 49
0.0
 49
0.0
 49
1.0
 49
0.0
 49
0.0
 49
0.0
 49
0.0
 49
1.0
175
     0
142
0.0208333333333333
142
0.0
142
0.0
142
0.0
142
0.0
142
0.0208333333333333
142
0.0
142
0.0
142
0.0
142
0.0
142
1.0
142
0.0
142
0.0
142
0.0
142
0.0
142
1.0
179
     0
144
0.0208333333333333
144
0.0
144
0.0
144
0.0
144
0.0
144
0.0208333333333333
144
0.0
144
0.0
144
0.0
144
0.0
144
1.0
144
0.0
144
0.0
144
0.0
144
0.0
144
1.0
147
0.0208333333333333
147
0.0
147
0.0
147
0.0
147
0.0
147
0.0208333333333333
147
0.0
147
0.0
147
0.0
147
0.0
147
1.0
147
0.0
147
0.0
147
0.0
147
0.0
147
1.0
  0
MATERIAL
  5
11
102
{ACAD_XDICTIONARY
360
12
102
}
102
{ACAD_REACTORS
330
10
102
}
330
10
100
AcDbMaterial
  1
ByLayer
 72
     0
 43
0.0208333333333333
 43
0.0
 43
0.0
 43
0.0
 43
0.0
 43
0.0208333333333333
 43
0.0
 43
0.0
 43
0.0
 43
0.0
 43
1.0
 43
0.0
 43
0.0
 43
0.0
 43
0.0
 43
1.0
 77
     0
 47
0.0208333333333333
 47
0.0
 47
0.0
 47
0.0
 47
0.0
 47
0.0208333333333333
 47
0.0
 47
0.0
 47
0.0
 47
0.0
 47
1.0
 47
0.0
 47
0.0
 47
0.0
 47
0.0
 47
1.0
171
     0
 49
0.0208333333333333
 49
0.0
 49
0.0
 49
0.0
 49
0.0
 49
0.0208333333333333
 49
0.0
 49
0.0
 49
0.0
 49
0.0
 49
1.0
 49
0.0
 49
0.0
 49
0.0
 49
0.0
 49
1.0
175
     0
142
0.0208333333333333
142
0.0
142
0.0
142
0.0
142
0.0
142
0.0208333333333333
142
0.0
142
0.0
142
0.0
142
0.0
142
1.0
142
0.0
142
0.0
142
0.0
142
0.0
142
1.0
179
     0
144
0.0208333333333333
144
0.0
144
0.0
144
0.0
144
0.0
144
0.0208333333333333
144
0.0
144
0.0
144
0.0
144
0.0
144
1.0
144
0.0
144
0.0
144
0.0
144
0.0
144
1.0
147
0.0208333333333333
147
0.0
147
0.0
147
0.0
147
0.0
147
0.0208333333333333
147
0.0
147
0.0
147
0.0
147
0.0
147
1.0
147
0.0
147
0.0
147
0.0
147
0.0
147
1.0
  0
MATERIAL
  5
21
102
{ACAD_XDICTIONARY
360
22
102
}
102
{ACAD_REACTORS
330
10
102
}
330
10
100
AcDbMaterial
  1
Global
 72
     0
 43
0.0208333333333333
 43
0.0
 43
0.0
 43
0.0
 43
0.0
 43
0.0208333333333333
 43
0.0
 43
0.0
 43
0.0
 43
0.0
 43
1.0
 43
0.0
 43
0.0
 43
0.0
 43
0.0
 43
1.0
 77
     0
 47
0.0208333333333333
 47
0.0
 47
0.0
 47
0.0
 47
0.0
 47
0.0208333333333333
 47
0.0
 47
0.0
 47
0.0
 47
0.0
 47
1.0
 47
0.0
 47
0.0
 47
0.0
 47
0.0
 47
1.0
171
     0
 49
0.0208333333333333
 49
0.0
 49
0.0
 49
0.0
 49
0.0
 49
0.0208333333333333
 49
0.0
 49
0.0
 49
0.0
 49
0.0
 49
1.0
 49
0.0
 49
0.0
 49
0.0
 49
0.0
 49
1.0
175
     0
142
0.0208333333333333
142
0.0
142
0.0
142
0.0
142
0.0
142
0.0208333333333333
142
0.0
142
0.0
142
0.0
142
0.0
142
1.0
142
0.0
142
0.0
142
0.0
142
0.0
142
1.0
179
     0
144
0.0208333333333333
144
0.0
144
0.0
144
0.0
144
0.0
144
0.0208333333333333
144
0.0
144
0.0
144
0.0
144
0.0
144
1.0
144
0.0
144
0.0
144
0.0
144
0.0
144
1.0
147
0.0208333333333333
147
0.0
147
0.0
147
0.0
147
0.0
147
0.0208333333333333
147
0.0
147
0.0
147
0.0
147
0.0
147
1.0
147
0.0
147
0.0
147
0.0
147
0.0
147
1.0
  0
MLEADERSTYLE
  5
67
102
{ACAD_XDICTIONARY
360
1D4
102
}
102
{ACAD_REACTORS
330
66
102
}
330
66
100
AcDbMLeaderStyle
170
     2
171
     1
172
     0
 90
        2
 40
0.0
 41
0.0
173
     1
 91
-1056964608
340
5B
 92
       -2
290
     1
 42
0.09
291
     1
 43
0.36
  3
Standard
 44
0.18
300

342
55
174
     1
178
     6
175
     1
176
     0
 93
-1056964608
 45
0.18
292
     0
297
     0
 46
0.18
 94
-1056964608
 47
1.0
 49
1.0
140
1.0
293
     1
141
0.0
294
     1
177
     0
142
1.0
295
     0
296
     0
143
0.125
1001
ACAD_MLEADERVER
1070
     2
  0
MLINESTYLE
  5
60
102
{ACAD_REACTORS
330
5F
102
}
330
5F
100
AcDbMlineStyle
  2
STANDARD
 70
     0
  3

 62
   256
 51
90.0
 52
90.0
 71
     2
 49
0.5
 62
   256
  6
BYLAYER
 49
-0.5
 62
   256
  6
BYLAYER
  0
ACDBPLACEHOLDER
  5
F
102
{ACAD_REACTORS
330
E
102
}
330
E
  0
SCALE
  5
43
102
{ACAD_REACTORS
330
42
102
}
330
42
100
AcDbScale
 70
     0
300
1:1
140
1.0
141
1.0
290
     1
  0
SCALE
  5
44
102
{ACAD_REACTORS
330
42
102
}
330
42
100
AcDbScale
 70
     0
300
1/128" = 1'-0"
140
0.0078125
141
12.0
290
     0
  0
SCALE
  5
45
102
{ACAD_REACTORS
330
42
102
}
330
42
100
AcDbScale
 70
     0
300
1/64" = 1'-0"
140
0.015625
141
12.0
290
     0
  0
SCALE
  5
46
102
{ACAD_REACTORS
330
42
102
}
330
42
100
AcDbScale
 70
     0
300
1/32" = 1'-0"
140
0.03125
141
12.0
290
     0
  0
SCALE
  5
47
102
{ACAD_REACTORS
330
42
102
}
330
42
100
AcDbScale
 70
     0
300
1/16" = 1'-0"
140
0.0625
141
12.0
290
     0
  0
SCALE
  5
48
102
{ACAD_REACTORS
330
42
102
}
330
42
100
AcDbScale
 70
     0
300
3/32" = 1'-0"
140
0.09375
141
12.0
290
     0
  0
SCALE
  5
49
102
{ACAD_REACTORS
330
42
102
}
330
42
100
AcDbScale
 70
     0
300
1/8" = 1'-0"
140
0.125
141
12.0
290
     0
  0
SCALE
  5
4A
102
{ACAD_REACTORS
330
42
102
}
330
42
100
AcDbScale
 70
     0
300
3/16" = 1'-0"
140
0.1875
141
12.0
290
     0
  0
SCALE
  5
4B
102
{ACAD_REACTORS
330
42
102
}
330
42
100
AcDbScale
 70
     0
300
1/4" = 1'-0"
140
0.25
141
12.0
290
     0
  0
SCALE
  5
4C
102
{ACAD_REACTORS
330
42
102
}
330
42
100
AcDbScale
 70
     0
300
3/8" = 1'-0"
140
0.375
141
12.0
290
     0
  0
SCALE
  5
4D
102
{ACAD_REACTORS
330
42
102
}
330
42
100
AcDbScale
 70
     0
300
1/2" = 1'-0"
140
0.5
141
12.0
290
     0
  0
SCALE
  5
4E
102
{ACAD_REACTORS
330
42
102
}
330
42
100
AcDbScale
 70
     0
300
3/4" = 1'-0"
140
0.75
141
12.0
290
     0
  0
SCALE
  5
4F
102
{ACAD_REACTORS
330
42
102
}
330
42
100
AcDbScale
 70
     0
300
1" = 1'-0"
140
1.0
141
12.0
290
     0
  0
SCALE
  5
50
102
{ACAD_REACTORS
330
42
102
}
330
42
100
AcDbScale
 70
     0
300
1-1/2" = 1'-0"
140
1.5
141
12.0
290
     0
  0
SCALE
  5
51
102
{ACAD_REACTORS
330
42
102
}
330
42
100
AcDbScale
 70
     0
300
3" = 1'-0"
140
3.0
141
12.0
290
     0
  0
SCALE
  5
52
102
{ACAD_REACTORS
330
42
102
}
330
42
100
AcDbScale
 70
     0
300
6" = 1'-0"
140
6.0
141
12.0
290
     0
  0
SCALE
  5
53
102
{ACAD_REACTORS
330
42
102
}
330
42
100
AcDbScale
 70
     0
300
1'-0" = 1'-0"
140
12.0
141
12.0
290
     0
  0
ACDBSECTIONVIEWSTYLE
  5
69
102
{ACAD_XDICTIONARY
360
1D6
102
}
102
{ACAD_REACTORS
330
68
102
}
330
68
100
AcDbModelDocViewStyle
 70
     0
  3
Imperial24
290
     0
100
AcDbSectionViewStyle
 70
     0
 71
     0
 90
       78
 71
     1
340
55
 62
   256
 40
0.24
340
0
340
0
 62
   256
 40
0.24
300
I, O, Q, S, X, Z
 40
0.48
 90
        3
 40
0.18
 90
        1
 71
     2
340
5D
 90
       25
 62
   256
340
5D
 90
       50
 62
   256
 40
0.24
 40
0.0
 40
0.24
 71
     3
340
55
 62
   256
 40
0.24
 90
        1
 40
0.75
 90
        1
300
%<\AcVar ViewType \f "%tc1">% %<\AcVar ViewSectionStartId>%-%<\AcVar ViewSectionEndId>%\PSCALE %<\AcVar ViewScale \f "%sn">%
 71
     4
 62
   256
 62
   257
300
ANSI31
 40
1.0
 90
        0
290
     0
290
     0
 90
        6
 40
0.0
 40
1.570796326794896
 40
0.2617993877991494
 40
1.308996938995747
 40
-0.2617993877991494
 40
1.832595714594046
  0
TABLESTYLE
  5
65
102
{ACAD_XDICTIONARY
360
19E
102
}
102
{ACAD_REACTORS
330
64
102
}
330
64
100
AcDbTableStyle
  3
Standard
 70
     0
 71
     0
 40
0.06
 41
0.06
280
     0
281
     0
  7
Standard
140
0.18
170
     2
 62
     0
 63
     7
283
     0
 90
      512
 91
        0
  1

274
    -2
284
     1
 64
     0
275
    -2
285
     1
 65
     0
276
    -2
286
     1
 66
     0
277
    -2
287
     1
 67
     0
278
    -2
288
     1
 68
     0
279
    -2
289
     1
 69
     0
  7
Standard
140
0.25
170
     5
 62
     0
 63
     7
283
     0
 90
      512
 91
        0
  1

274
    -2
284
     1
 64
     0
275
    -2
285
     1
 65
     0
276
    -2
286
     1
 66
     0
277
    -2
287
     1
 67
     0
278
    -2
288
     1
 68
     0
279
    -2
289
     1
 69
     0
  7
Standard
140
0.18
170
     5
 62
     0
 63
     7
283
     0
 90
      512
 91
        0
  1

274
    -2
284
     1
 64
     0
275
    -2
285
     1
 65
     0
276
    -2
286
     1
 66
     0
277
    -2
287
     1
 67
     0
278
    -2
288
     1
 68
     0
279
    -2
289
     1
 69
     0
  0
VISUALSTYLE
  5
2F
102
{ACAD_XDICTIONARY
360
1AD
102
}
102
{ACAD_REACTORS
330
29
102
}
330
29
100
AcDbVisualStyle
  2
2dWireframe
 70
     4
 71
     0
 72
     2
 73
     0
 90
        0
 40
-0.6
 41
-30.0
 62
     5
 63
     7
421
 16777215
 74
     1
 91
        4
 64
     7
 65
   257
 75
     1
175
     1
 42
1.0
 92
        0
 66
   257
 43
1.0
 76
     1
 77
     6
 78
     2
 67
     7
 79
     5
170
     0
171
     0
290
     0
174
     0
 93
        1
 44
0.0
173
     0
291
     0
 45
0.0
1001
ACAD
1000
AcDbSavedByObjectVersion
1070
     0
  0
VISUALSTYLE
  5
2E
102
{ACAD_XDICTIONARY
360
1AB
102
}
102
{ACAD_REACTORS
330
29
102
}
330
29
100
AcDbVisualStyle
  2
Basic
 70
     7
 71
     1
 72
     0
 73
     1
 90
        0
 40
-0.6
 41
-30.0
 62
     5
 63
     7
421
 16777215
 74
     0
 91
        4
 64
     7
 65
   257
 75
     1
175
     1
 42
1.0
 92
        8
 66
     7
 43
1.0
 76
     1
 77
     6
 78
     2
 67
     7
 79
     5
170
     0
171
     0
290
     0
174
     0
 93
        1
 44
0.0
173
     0
291
     1
 45
0.0
1001
ACAD
1000
AcDbSavedByObjectVersion
1070
     0
  0
VISUALSTYLE
  5
35
102
{ACAD_XDICTIONARY
360
1B9
102
}
102
{ACAD_REACTORS
330
29
102
}
330
29
100
AcDbVisualStyle
  2
Brighten
 70
    12
 71
     2
 72
     2
 73
     0
 90
        0
 40
-0.6
 41
-30.0
 62
     5
 63
     7
421
 16777215
 74
     1
 91
        4
 64
     7
 65
   257
 75
     1
175
     1
 42
1.0
 92
        8
 66
     7
 43
1.0
 76
     1
 77
     6
 78
     2
 67
     7
 79
     5
170
     0
171
     0
290
     0
174
     0
 93
        1
 44
50.0
173
     0
291
     1
 45
0.0
1001
ACAD
1000
AcDbSavedByObjectVersion
1070
     0
  0
VISUALSTYLE
  5
39
102
{ACAD_XDICTIONARY
360
1C1
102
}
102
{ACAD_REACTORS
330
29
102
}
330
29
100
AcDbVisualStyle
  2
ColorChange
 70
    16
 71
     2
 72
     2
 73
     3
 90
        0
 40
-0.6
 41
-30.0
 62
     5
 63
     8
421
  8421504
 74
     1
 91
        4
 64
     7
 65
   257
 75
     1
175
     1
 42
1.0
 92
        8
 66
     8
424
  8421504
 43
1.0
 76
     1
 77
     6
 78
     2
 67
     7
 79
     5
170
     0
171
     0
290
     0
174
     0
 93
        1
 44
0.0
173
     0
291
     1
 45
0.0
1001
ACAD
1000
AcDbSavedByObjectVersion
1070
     0
  0
VISUALSTYLE
  5
32
102
{ACAD_XDICTIONARY
360
1B3
102
}
102
{ACAD_REACTORS
330
29
102
}
330
29
100
AcDbVisualStyle
  2
Conceptual
 70
     9
 71
     3
 72
     2
 73
     0
 90
        0
 40
-0.6
 41
-30.0
 62
     5
 63
     7
421
 16777215
 74
     2
 91
        2
 64
     7
 65
   257
 75
     1
175
     1
 42
179.0
 92
        8
 66
     7
 43
1.0
 76
     1
 77
     6
 78
     2
 67
     7
 79
     3
170
     0
171
     0
290
     0
174
     0
 93
        1
 44
0.0
173
     0
291
     0
 45
0.0
1001
ACAD
1000
AcDbSavedByObjectVersion
1070
     0
  0
VISUALSTYLE
  5
34
102
{ACAD_XDICTIONARY
360
1B7
102
}
102
{ACAD_REACTORS
330
29
102
}
330
29
100
AcDbVisualStyle
  2
Dim
 70
    11
 71
     2
 72
     2
 73
     0
 90
        0
 40
-0.6
 41
-30.0
 62
     5
 63
     7
421
 16777215
 74
     1
 91
        4
 64
     7
 65
   257
 75
     1
175
     1
 42
1.0
 92
        8
 66
     7
 43
1.0
 76
     1
 77
     6
 78
     2
 67
     7
 79
     5
170
     0
171
     0
290
     0
174
     0
 93
        1
 44
-50.0
173
     0
291
     1
 45
0.0
1001
ACAD
1000
AcDbSavedByObjectVersion
1070
     0
  0
VISUALSTYLE
  5
41
102
{ACAD_XDICTIONARY
360
1D1
102
}
102
{ACAD_REACTORS
330
29
102
}
330
29
100
AcDbVisualStyle
  2
EdgeColorOff
 70
    22
 71
     2
 72
     2
 73
     0
 90
        0
 40
-0.6
 41
-30.0
 62
     5
 63
     7
421
 16777215
 74
     1
 91
        4
 64
     7
 65
   257
 75
     1
175
     1
 42
1.0
 92
        8
 66
     7
 43
1.0
 76
     1
 77
     6
 78
     2
 67
     7
 79
     5
170
     0
171
     0
290
     0
174
     0
 93
        1
 44
0.0
173
     0
291
     1
 45
0.0
1001
ACAD
1000
AcDbSavedByObjectVersion
1070
     0
  0
VISUALSTYLE
  5
38
102
{ACAD_XDICTIONARY
360
1BF
102
}
102
{ACAD_REACTORS
330
29
102
}
330
29
100
AcDbVisualStyle
  2
Facepattern
 70
    15
 71
     2
 72
     2
 73
     0
 90
        0
 40
-0.6
 41
-30.0
 62
     5
 63
     7
421
 16777215
 74
     1
 91
        4
 64
     7
 65
   257
 75
     1
175
     1
 42
1.0
 92
        8
 66
     7
 43
1.0
 76
     1
 77
     6
 78
     2
 67
     7
 79
     5
170
     0
171
     0
290
     0
174
     0
 93
        1
 44
0.0
173
     0
291
     1
 45
0.0
1001
ACAD
1000
AcDbSavedByObjectVersion
1070
     0
  0
VISUALSTYLE
  5
2A
102
{ACAD_XDICTIONARY
360
1A3
102
}
102
{ACAD_REACTORS
330
29
102
}
330
29
100
AcDbVisualStyle
  2
Flat
 70
     0
 71
     2
 72
     1
 73
     1
 90
        2
 40
-0.6
 41
30.0
 62
     5
 63
     7
421
 16777215
 74
     0
 91
        0
 64
     7
 65
   257
 75
     1
175
     1
 42
1.0
 92
        8
 66
     7
 43
1.0
 76
     1
 77
     6
 78
     2
 67
     7
 79
     5
170
     0
171
     0
290
     0
174
     0
 93
       13
 44
0.0
173
     0
291
     1
 45
0.0
1001
ACAD
1000
AcDbSavedByObjectVersion
1070
     0
  0
VISUALSTYLE
  5
2B
102
{ACAD_XDICTIONARY
360
1A5
102
}
102
{ACAD_REACTORS
330
29
102
}
330
29
100
AcDbVisualStyle
  2
FlatWithEdges
 70
     1
 71
     2
 72
     1
 73
     1
 90
        2
 40
-0.6
 41
30.0
 62
     5
 63
     7
421
 16777215
 74
     1
 91
        0
 64
     7
 65
   257
 75
     1
175
     1
 42
1.0
 92
        0
 66
   257
 43
1.0
 76
     1
 77
     6
 78
     2
 67
     7
 79
     5
170
     0
171
     0
290
     0
174
     0
 93
       13
 44
0.0
173
     0
291
     1
 45
0.0
1001
ACAD
1000
AcDbSavedByObjectVersion
1070
     0
  0
VISUALSTYLE
  5
2C
102
{ACAD_XDICTIONARY
360
1A7
102
}
102
{ACAD_REACTORS
330
29
102
}
330
29
100
AcDbVisualStyle
  2
Gouraud
 70
     2
 71
     2
 72
     2
 73
     1
 90
        2
 40
-0.6
 41
30.0
 62
     5
 63
     7
421
 16777215
 74
     0
 91
        0
 64
     7
 65
   257
 75
     1
175
     1
 42
1.0
 92
        0
 66
     7
 43
1.0
 76
     1
 77
     6
 78
     2
 67
     7
 79
     5
170
     0
171
     0
290
     0
174
     0
 93
       13
 44
0.0
173
     0
291
     1
 45
0.0
1001
ACAD
1000
AcDbSavedByObjectVersion
1070
     0
  0
VISUALSTYLE
  5
2D
102
{ACAD_XDICTIONARY
360
1A9
102
}
102
{ACAD_REACTORS
330
29
102
}
330
29
100
AcDbVisualStyle
  2
GouraudWithEdges
 70
     3
 71
     2
 72
     2
 73
     1
 90
        2
 40
-0.6
 41
30.0
 62
     5
 63
     7
421
 16777215
 74
     1
 91
        0
 64
     7
 65
   257
 75
     1
175
     1
 42
1.0
 92
        0
 66
   257
 43
1.0
 76
     1
 77
     6
 78
     2
 67
     7
 79
     5
170
     0
171
     0
290
     0
174
     0
 93
       13
 44
0.0
173
     0
291
     1
 45
0.0
1001
ACAD
1000
AcDbSavedByObjectVersion
1070
     0
  0
VISUALSTYLE
  5
31
102
{ACAD_XDICTIONARY
360
1B1
102
}
102
{ACAD_REACTORS
330
29
102
}
330
29
100
AcDbVisualStyle
  2
Hidden
 70
     6
 71
     1
 72
     2
 73
     2
 90
        0
 40
-0.6
 41
-30.0
 62
     5
 63
     7
421
 16777215
 74
     2
 91
        2
 64
     7
 65
   257
 75
     2
175
     1
 42
40.0
 92
        0
 66
   257
 43
1.0
 76
     1
 77
     6
 78
     2
 67
     7
 79
     3
170
     0
171
     0
290
     0
174
     0
 93
        1
 44
0.0
173
     0
291
     0
 45
0.0
1001
ACAD
1000
AcDbSavedByObjectVersion
1070
     0
  0
VISUALSTYLE
  5
3F
102
{ACAD_XDICTIONARY
360
1CD
102
}
102
{ACAD_REACTORS
330
29
102
}
330
29
100
AcDbVisualStyle
  2
JitterOff
 70
    20
 71
     2
 72
     2
 73
     0
 90
        0
 40
-0.6
 41
-30.0
 62
     5
 63
     7
421
 16777215
 74
     1
 91
        4
 64
     7
 65
   257
 75
     1
175
     1
 42
1.0
 92
       10
 66
     7
 43
1.0
 76
     1
 77
     6
 78
     2
 67
     7
 79
     5
170
     0
171
     0
290
     0
174
     0
 93
        1
 44
0.0
173
     0
291
     1
 45
0.0
1001
ACAD
1000
AcDbSavedByObjectVersion
1070
     0
  0
VISUALSTYLE
  5
37
102
{ACAD_XDICTIONARY
360
1BD
102
}
102
{ACAD_REACTORS
330
29
102
}
330
29
100
AcDbVisualStyle
  2
Linepattern
 70
    14
 71
     2
 72
     2
 73
     0
 90
        0
 40
-0.6
 41
-30.0
 62
     5
 63
     7
421
 16777215
 74
     1
 91
        4
 64
     7
 65
   257
 75
     7
175
     7
 42
1.0
 92
        8
 66
     7
 43
1.0
 76
     1
 77
     6
 78
     2
 67
     7
 79
     5
170
     0
171
     0
290
     0
174
     0
 93
        1
 44
0.0
173
     0
291
     1
 45
0.0
1001
ACAD
1000
AcDbSavedByObjectVersion
1070
     0
  0
VISUALSTYLE
  5
40
102
{ACAD_XDICTIONARY
360
1CF
102
}
102
{ACAD_REACTORS
330
29
102
}
330
29
100
AcDbVisualStyle
  2
OverhangOff
 70
    21
 71
     2
 72
     2
 73
     0
 90
        0
 40
-0.6
 41
-30.0
 62
     5
 63
     7
421
 16777215
 74
     1
 91
        4
 64
     7
 65
   257
 75
     1
175
     1
 42
1.0
 92
        9
 66
     7
 43
1.0
 76
     1
 77
     6
 78
     2
 67
     7
 79
     5
170
     0
171
     0
290
     0
174
     0
 93
        1
 44
0.0
173
     0
291
     1
 45
0.0
1001
ACAD
1000
AcDbSavedByObjectVersion
1070
     0
  0
VISUALSTYLE
  5
33
102
{ACAD_XDICTIONARY
360
1B5
102
}
102
{ACAD_REACTORS
330
29
102
}
330
29
100
AcDbVisualStyle
  2
Realistic
 70
     8
 71
     2
 72
     3
 73
     0
 90
        2
 40
-0.6
 41
30.0
 62
     5
 63
     7
421
 16777215
 74
     0
 91
        0
 64
     7
 65
   257
 75
     1
175
     1
 42
1.0
 92
        8
 66
   257
 43
1.0
 76
     1
 77
     6
 78
     2
 67
     7
 79
     3
170
     0
171
     0
290
     0
174
     0
 93
       13
 44
0.0
173
     0
291
     0
 45
0.0
1001
ACAD
1000
AcDbSavedByObjectVersion
1070
     0
  0
VISUALSTYLE
  5
3E
102
{ACAD_XDICTIONARY
360
1CB
102
}
102
{ACAD_REACTORS
330
29
102
}
330
29
100
AcDbVisualStyle
  2
Shaded
 70
    27
 71
     2
 72
     2
 73
     1
 90
        2
 40
-0.6
 41
30.0
 62
     5
 63
     7
421
 16777215
 74
     0
 91
        4
 64
     7
 65
   257
 75
     1
175
     1
 42
1.0
 92
        8
 66
   257
 43
1.0
 76
     1
 77
     6
 78
     2
 67
     8
425
  7895160
 79
     3
170
     0
171
     0
290
     0
174
     0
 93
        5
 44
0.0
173
     0
291
     0
 45
0.0
1001
ACAD
1000
AcDbSavedByObjectVersion
1070
     0
  0
VISUALSTYLE
  5
3D
102
{ACAD_XDICTIONARY
360
1C9
102
}
102
{ACAD_REACTORS
330
29
102
}
330
29
100
AcDbVisualStyle
  2
Shaded with edges
 70
    26
 71
     2
 72
     2
 73
     1
 90
        2
 40
-0.6
 41
30.0
 62
     5
 63
     7
421
 16777215
 74
     1
 91
        2
 64
     7
 65
   257
 75
     2
175
     1
 42
1.0
 92
        8
 66
   257
 43
1.0
 76
     1
 77
     6
 78
     2
 67
     7
 79
     3
170
     0
171
     0
290
     0
174
     0
 93
        5
 44
0.0
173
     0
291
     0
 45
0.0
1001
ACAD
1000
AcDbSavedByObjectVersion
1070
     0
  0
VISUALSTYLE
  5
3A
102
{ACAD_XDICTIONARY
360
1C3
102
}
102
{ACAD_REACTORS
330
29
102
}
330
29
100
AcDbVisualStyle
  2
Shades of Gray
 70
    23
 71
     2
 72
     2
 73
     3
 90
        0
 40
-0.6
 41
-30.0
 62
     5
 63
     7
421
 16777215
 74
     2
 91
        2
 64
     7
 65
     7
 75
     1
175
     1
 42
40.0
 92
        8
 66
     7
 43
1.0
 76
     1
 77
     6
 78
     2
 67
     7
 79
     3
170
     0
171
     0
290
     0
174
     0
 93
        1
 44
0.0
173
     0
291
     0
 45
0.0
1001
ACAD
1000
AcDbSavedByObjectVersion
1070
     0
  0
VISUALSTYLE
  5
3B
102
{ACAD_XDICTIONARY
360
1C5
102
}
102
{ACAD_REACTORS
330
29
102
}
330
29
100
AcDbVisualStyle
  2
Sketchy
 70
    24
 71
     1
 72
     2
 73
     2
 90
        0
 40
-0.6
 41
-30.0
 62
     5
 63
     7
421
 16777215
 74
     2
 91
        2
 64
     7
 65
     7
 75
     1
175
     1
 42
40.0
 92
       11
 66
     7
 43
1.0
 76
     1
 77
     6
 78
     2
 67
     7
 79
     6
170
     0
171
     0
290
     0
174
     0
 93
        1
 44
0.0
173
     0
291
     0
 45
0.0
1001
ACAD
1000
AcDbSavedByObjectVersion
1070
     0
  0
VISUALSTYLE
  5
36
102
{ACAD_XDICTIONARY
360
1BB
102
}
102
{ACAD_REACTORS
330
29
102
}
330
29
100
AcDbVisualStyle
  2
Thicken
 70
    13
 71
     2
 72
     2
 73
     0
 90
        0
 40
-0.6
 41
-30.0
 62
     5
 63
     7
421
 16777215
 74
     1
 91
        4
 64
     7
 65
   257
 75
     1
175
     1
 42
1.0
 92
       12
 66
     7
 43
1.0
 76
     1
 77
     6
 78
     2
 67
     7
 79
     5
170
     0
171
     0
290
     0
174
     0
 93
        1
 44
0.0
173
     0
291
     1
 45
0.0
1001
ACAD
1000
AcDbSavedByObjectVersion
1070
     0
  0
VISUALSTYLE
  5
30
102
{ACAD_XDICTIONARY
360
1AF
102
}
102
{ACAD_REACTORS
330
29
102
}
330
29
100
AcDbVisualStyle
  2
Wireframe
 70
     5
 71
     0
 72
     2
 73
     0
 90
        0
 40
-0.6
 41
-30.0
 62
     5
 63
     7
421
 16777215
 74
     1
 91
        4
 64
     7
 65
   257
 75
     1
175
     1
 42
1.0
 92
        0
 66
   257
 43
1.0
 76
     1
 77
     6
 78
     2
 67
     7
 79
     3
170
     0
171
     0
290
     0
174
     0
 93
        1
 44
0.0
173
     0
291
     0
 45
0.0
1001
ACAD
1000
AcDbSavedByObjectVersion
1070
     0
  0
VISUALSTYLE
  5
3C
102
{ACAD_XDICTIONARY
360
1C7
102
}
102
{ACAD_REACTORS
330
29
102
}
330
29
100
AcDbVisualStyle
  2
X-Ray
 70
    25
 71
     2
 72
     2
 73
     1
 90
        1
 40
0.5
 41
-30.0
 62
     5
 63
     7
421
 16777215
 74
     1
 91
        0
 64
     7
 65
   257
 75
     1
175
     1
 42
1.0
 92
        8
 66
     7
 43
1.0
 76
     1
 77
     6
 78
     2
 67
     7
 79
     3
170
     0
171
     0
290
     0
174
     0
 93
       13
 44
0.0
173
     0
291
     0
 45
0.0
1001
ACAD
1000
AcDbSavedByObjectVersion
1070
     0
  0
DICTIONARYVAR
  5
19C
102
{ACAD_REACTORS
330
197
102
}
330
197
100
DictionaryVariables
280
     0
  1
1:1
  0
DICTIONARYVAR
  5
199
102
{ACAD_REACTORS
330
197
102
}
330
197
100
DictionaryVariables
280
     0
  1
STANDARD
  0
DICTIONARYVAR
  5
198
102
{ACAD_REACTORS
330
197
102
}
330
197
100
DictionaryVariables
280
     0
  1
STANDARD
  0
DICTIONARYVAR
  5
19A
102
{ACAD_REACTORS
330
197
102
}
330
197
100
DictionaryVariables
280
     0
  1
Imperial24
  0
DICTIONARYVAR
  5
19B
102
{ACAD_REACTORS
330
197
102
}
330
197
100
DictionaryVariables
280
     0
  1
Imperial24
  0
DICTIONARYVAR
  5
19D
102
{ACAD_REACTORS
330
197
102
}
330
197
100
DictionaryVariables
280
     0
  1
2
  0
DICTIONARY
  5
1D8
330
6B
100
AcDbDictionary
280
     1
281
     1
  3
ACAD_XREC_ROUNDTRIP
360
1D9
  0
DICTIONARY
  5
1A
330
19
100
AcDbDictionary
280
     1
281
     1
  3
BUMPTILE
360
1C
  3
DIFFUSETILE
360
1B
  3
OPACITYTILE
360
1F
  3
REFLECTIONTILE
360
1E
  3
REFRACTIONTILE
360
20
  3
SPECULARTILE
360
1D
  0
DICTIONARY
  5
12
330
11
100
AcDbDictionary
280
     1
281
     1
  3
BUMPTILE
360
14
  3
DIFFUSETILE
360
13
  3
OPACITYTILE
360
17
  3
REFLECTIONTILE
360
16
  3
REFRACTIONTILE
360
18
  3
SPECULARTILE
360
15
  0
DICTIONARY
  5
22
330
21
100
AcDbDictionary
280
     1
281
     1
  3
BUMPTILE
360
24
  3
DIFFUSETILE
360
23
  3
OPACITYTILE
360
27
  3
REFLECTIONTILE
360
26
  3
REFRACTIONTILE
360
28
  3
SPECULARTILE
360
25
  0
DICTIONARY
  5
1D4
330
67
100
AcDbDictionary
280
     1
281
     1
  3
ACAD_XREC_ROUNDTRIP
360
1D5
  0
DICTIONARY
  5
1D6
330
69
100
AcDbDictionary
280
     1
281
     1
  3
ACAD_XREC_ROUNDTRIP
360
1D7
  0
DICTIONARY
  5
19E
330
65
100
AcDbDictionary
280
     1
281
     1
  3
ACAD_ROUNDTRIP_2008_TABLESTYLE_CELLSTYLEMAP
360
19F
  0
DICTIONARY
  5
1AD
330
2F
100
AcDbDictionary
280
     1
281
     1
  3
ACAD_XREC_ROUNDTRIP
360
1AE
  0
DICTIONARY
  5
1AB
330
2E
100
AcDbDictionary
280
     1
281
     1
  3
ACAD_XREC_ROUNDTRIP
360
1AC
  0
DICTIONARY
  5
1B9
330
35
100
AcDbDictionary
280
     1
281
     1
  3
ACAD_XREC_ROUNDTRIP
360
1BA
  0
DICTIONARY
  5
1C1
330
39
100
AcDbDictionary
280
     1
281
     1
  3
ACAD_XREC_ROUNDTRIP
360
1C2
  0
DICTIONARY
  5
1B3
330
32
100
AcDbDictionary
280
     1
281
     1
  3
ACAD_XREC_ROUNDTRIP
360
1B4
  0
DICTIONARY
  5
1B7
330
34
100
AcDbDictionary
280
     1
281
     1
  3
ACAD_XREC_ROUNDTRIP
360
1B8
  0
DICTIONARY
  5
1D1
330
41
100
AcDbDictionary
280
     1
281
     1
  3
ACAD_XREC_ROUNDTRIP
360
1D2
  0
DICTIONARY
  5
1BF
330
38
100
AcDbDictionary
280
     1
281
     1
  3
ACAD_XREC_ROUNDTRIP
360
1C0
  0
DICTIONARY
  5
1A3
330
2A
100
AcDbDictionary
280
     1
281
     1
  3
ACAD_XREC_ROUNDTRIP
360
1A4
  0
DICTIONARY
  5
1A5
330
2B
100
AcDbDictionary
280
     1
281
     1
  3
ACAD_XREC_ROUNDTRIP
360
1A6
  0
DICTIONARY
  5
1A7
330
2C
100
AcDbDictionary
280
     1
281
     1
  3
ACAD_XREC_ROUNDTRIP
360
1A8
  0
DICTIONARY
  5
1A9
330
2D
100
AcDbDictionary
280
     1
281
     1
  3
ACAD_XREC_ROUNDTRIP
360
1AA
  0
DICTIONARY
  5
1B1
330
31
100
AcDbDictionary
280
     1
281
     1
  3
ACAD_XREC_ROUNDTRIP
360
1B2
  0
DICTIONARY
  5
1CD
330
3F
100
AcDbDictionary
280
     1
281
     1
  3
ACAD_XREC_ROUNDTRIP
360
1CE
  0
DICTIONARY
  5
1BD
330
37
100
AcDbDictionary
280
     1
281
     1
  3
ACAD_XREC_ROUNDTRIP
360
1BE
  0
DICTIONARY
  5
1CF
330
40
100
AcDbDictionary
280
     1
281
     1
  3
ACAD_XREC_ROUNDTRIP
360
1D0
  0
DICTIONARY
  5
1B5
330
33
100
AcDbDictionary
280
     1
281
     1
  3
ACAD_XREC_ROUNDTRIP
360
1B6
  0
DICTIONARY
  5
1CB
330
3E
100
AcDbDictionary
280
     1
281
     1
  3
ACAD_XREC_ROUNDTRIP
360
1CC
  0
DICTIONARY
  5
1C9
330
3D
100
AcDbDictionary
280
     1
281
     1
  3
ACAD_XREC_ROUNDTRIP
360
1CA
  0
DICTIONARY
  5
1C3
330
3A
100
AcDbDictionary
280
     1
281
     1
  3
ACAD_XREC_ROUNDTRIP
360
1C4
  0
DICTIONARY
  5
1C5
330
3B
100
AcDbDictionary
280
     1
281
     1
  3
ACAD_XREC_ROUNDTRIP
360
1C6
  0
DICTIONARY
  5
1BB
330
36
100
AcDbDictionary
280
     1
281
     1
  3
ACAD_XREC_ROUNDTRIP
360
1BC
  0
DICTIONARY
  5
1AF
330
30
100
AcDbDictionary
280
     1
281
     1
  3
ACAD_XREC_ROUNDTRIP
360
1B0
  0
DICTIONARY
  5
1C7
330
3C
100
AcDbDictionary
280
     1
281
     1
  3
ACAD_XREC_ROUNDTRIP
360
1C8
  0
XRECORD
  5
1D9
102
{ACAD_REACTORS
330
1D8
102
}
330
1D8
100
AcDbXrecord
280
     1
102
DISPLAYNAME
  1
Imperial24
102
FLAGS
 90
        0
  0
XRECORD
  5
1C
102
{ACAD_REACTORS
330
1A
102
}
330
1A
100
AcDbXrecord
280
     1
270
     1
271
     1
  0
XRECORD
  5
1B
102
{ACAD_REACTORS
330
1A
102
}
330
1A
100
AcDbXrecord
280
     1
270
     1
271
     1
  0
XRECORD
  5
1F
102
{ACAD_REACTORS
330
1A
102
}
330
1A
100
AcDbXrecord
280
     1
270
     1
271
     1
  0
XRECORD
  5
1E
102
{ACAD_REACTORS
330
1A
102
}
330
1A
100
AcDbXrecord
280
     1
270
     1
271
     1
  0
XRECORD
  5
20
102
{ACAD_REACTORS
330
1A
102
}
330
1A
100
AcDbXrecord
280
     1
270
     1
271
     1
  0
XRECORD
  5
1D
102
{ACAD_REACTORS
330
1A
102
}
330
1A
100
AcDbXrecord
280
     1
270
     1
271
     1
  0
XRECORD
  5
14
102
{ACAD_REACTORS
330
12
102
}
330
12
100
AcDbXrecord
280
     1
270
     1
271
     1
  0
XRECORD
  5
13
102
{ACAD_REACTORS
330
12
102
}
330
12
100
AcDbXrecord
280
     1
270
     1
271
     1
  0
XRECORD
  5
17
102
{ACAD_REACTORS
330
12
102
}
330
12
100
AcDbXrecord
280
     1
270
     1
271
     1
  0
XRECORD
  5
16
102
{ACAD_REACTORS
330
12
102
}
330
12
100
AcDbXrecord
280
     1
270
     1
271
     1
  0
XRECORD
  5
18
102
{ACAD_REACTORS
330
12
102
}
330
12
100
AcDbXrecord
280
     1
270
     1
271
     1
  0
XRECORD
  5
15
102
{ACAD_REACTORS
330
12
102
}
330
12
100
AcDbXrecord
280
     1
270
     1
271
     1
  0
XRECORD
  5
24
102
{ACAD_REACTORS
330
22
102
}
330
22
100
AcDbXrecord
280
     1
270
     1
271
     1
  0
XRECORD
  5
23
102
{ACAD_REACTORS
330
22
102
}
330
22
100
AcDbXrecord
280
     1
270
     1
271
     1
  0
XRECORD
  5
27
102
{ACAD_REACTORS
330
22
102
}
330
22
100
AcDbXrecord
280
     1
270
     1
271
     1
  0
XRECORD
  5
26
102
{ACAD_REACTORS
330
22
102
}
330
22
100
AcDbXrecord
280
     1
270
     1
271
     1
  0
XRECORD
  5
28
102
{ACAD_REACTORS
330
22
102
}
330
22
100
AcDbXrecord
280
     1
270
     1
271
     1
  0
XRECORD
  5
25
102
{ACAD_REACTORS
330
22
102
}
330
22
100
AcDbXrecord
280
     1
270
     1
271
     1
  0
XRECORD
  5
1D5
102
{ACAD_REACTORS
330
1D4
102
}
330
1D4
100
AcDbXrecord
280
     1
102
ACAD_ROUNDTRIP_2012_MLEADER_STYLE
298
     1
  0
XRECORD
  5
1D7
102
{ACAD_REACTORS
330
1D6
102
}
330
1D6
100
AcDbXrecord
280
     1
102
DISPLAYNAME
  1
Imperial24
102
FLAGS
 90
        0
  0
CELLSTYLEMAP
  5
19F
102
{ACAD_REACTORS
330
19E
102
}
330
19E
100
AcDbCellStyleMap
 90
        3
300
CELLSTYLE
  1
TABLEFORMAT_BEGIN
 90
        5
170
     1
 91
        0
 92
    32768
 62
   257
 93
        1
300
CONTENTFORMAT
  1
CONTENTFORMAT_BEGIN
 90
        0
 91
        0
 92
      512
 93
        0
300

 40
0.0
140
1.0
 94
        5
 62
     0
340
55
144
0.25
309
CONTENTFORMAT_END
171
     0
 94
        0
309
TABLEFORMAT_END
  1
CELLSTYLE_BEGIN
 90
        1
 91
        1
300
_TITLE
309
CELLSTYLE_END
300
CELLSTYLE
  1
TABLEFORMAT_BEGIN
 90
        5
170
     1
 91
        0
 92
        0
 62
   257
 93
        1
300
CONTENTFORMAT
  1
CONTENTFORMAT_BEGIN
 90
        0
 91
        0
 92
      512
 93
        0
300

 40
0.0
140
1.0
 94
        5
 62
     0
340
55
144
0.18
309
CONTENTFORMAT_END
171
     0
 94
        0
309
TABLEFORMAT_END
  1
CELLSTYLE_BEGIN
 90
        2
 91
        1
300
_HEADER
309
CELLSTYLE_END
300
CELLSTYLE
  1
TABLEFORMAT_BEGIN
 90
        5
170
     1
 91
        0
 92
        0
 62
   257
 93
        1
300
CONTENTFORMAT
  1
CONTENTFORMAT_BEGIN
 90
        0
 91
        0
 92
      512
 93
        0
300

 40
0.0
140
1.0
 94
        2
 62
     0
340
55
144
0.18
309
CONTENTFORMAT_END
171
     0
 94
        0
309
TABLEFORMAT_END
  1
CELLSTYLE_BEGIN
 90
        3
 91
        2
300
_DATA
309
CELLSTYLE_END
  0
XRECORD
  5
1AE
102
{ACAD_REACTORS
330
1AD
102
}
330
1AD
100
AcDbXrecord
280
     1
102
RTVSPost2010Prop28
280
     1
102
RTVSPost2010PropOp28
 70
     1
102
RTVSPost2010Prop29
280
     1
102
RTVSPost2010PropOp29
 70
     1
102
RTVSPost2010Prop30
280
     0
102
RTVSPost2010PropOp30
 70
     1
102
RTVSPost2010Prop31
280
     0
102
RTVSPost2010PropOp31
 70
     1
102
RTVSPost2010Prop32
280
     0
102
RTVSPost2010PropOp32
 70
     1
102
RTVSPost2010Prop33
280
     0
102
RTVSPost2010PropOp33
 70
     1
102
RTVSPost2010Prop34
280
     0
102
RTVSPost2010PropOp34
 70
     1
102
RTVSPost2010Prop35
280
     0
102
RTVSPost2010PropOp35
 70
     1
102
RTVSPost2010Prop36
280
     0
102
RTVSPost2010PropOp36
 70
     1
102
RTVSPost2010Prop37
 90
       50
102
RTVSPost2010PropOp37
 70
     1
102
RTVSPost2010Prop38
140
0.0
102
RTVSPost2010PropOp38
 70
     1
102
RTVSPost2010Prop39
140
1.0
102
RTVSPost2010PropOp39
 70
     1
102
RTVSPost2010Prop40
 90
        0
102
RTVSPost2010PropOp40
 70
     1
102
RTVSPost2010Prop41ColorIndex
 90
       18
102
RTVSPost2010Prop41ColorRGB
 90
        0
102
RTVSPost2010PropOp41
 70
     1
102
RTVSPost2010Prop42
 90
       50
102
RTVSPost2010PropOp42
 70
     1
102
RTVSPost2010Prop43
 90
        3
102
RTVSPost2010PropOp43
 70
     1
102
RTVSPost2010Prop44ColorIndex
 90
        5
102
RTVSPost2010Prop44ColorRGB
 90
      255
102
RTVSPost2010PropOp44
 70
     1
102
RTVSPost2010Prop45
280
     0
102
RTVSPost2010PropOp45
 70
     1
102
RTVSPost2010Prop46
 90
       50
102
RTVSPost2010PropOp46
 70
     1
102
RTVSPost2010Prop47
 90
       50
102
RTVSPost2010PropOp47
 70
     1
102
RTVSPost2010Prop48
 90
       50
102
RTVSPost2010PropOp48
 70
     1
102
RTVSPost2010Prop49
280
     0
102
RTVSPost2010PropOp49
 70
     1
102
RTVSPost2010Prop50
 90
       50
102
RTVSPost2010PropOp50
 70
     1
102
RTVSPost2010Prop51ColorIndex
 90
      256
102
RTVSPost2010Prop51ColorRGB
 90
-16777216
102
RTVSPost2010PropOp51
 70
     0
102
RTVSPost2010Prop52
140
1.0
102
RTVSPost2010PropOp52
 70
     0
102
RTVSPost2010Prop53
 90
        2
102
RTVSPost2010PropOp53
 70
     1
102
RTVSPost2010Prop54
  1
strokes_ogs.tif
102
RTVSPost2010PropOp54
 70
     1
102
RTVSPost2010Prop55
280
     0
102
RTVSPost2010PropOp55
 70
     1
102
RTVSPost2010Prop56
140
1.0
102
RTVSPost2010PropOp56
 70
     1
102
RTVSPost2010Prop57
140
1.0
102
RTVSPost2010PropOp57
 70
     1
102
RTVSPropertyOp0
 70
     1
102
RTVSPropertyOp1
 70
     1
102
RTVSPropertyOp2
 70
     1
102
RTVSPropertyOp3
 70
     1
102
RTVSPropertyOp4
 70
     1
102
RTVSPropertyOp5
 70
     1
102
RTVSPropertyOp6
 70
     1
102
RTVSPropertyOp7
 70
     1
102
RTVSPropertyOp8
 70
     1
102
RTVSPropertyOp9
 70
     1
102
RTVSPropertyOp10
 70
     1
102
RTVSPropertyOp11
 70
     1
102
RTVSPropertyOp12
 70
     1
102
RTVSPropertyOp13
 70
     1
102
RTVSPropertyOp14
 70
     1
102
RTVSPropertyOp15
 70
     1
102
RTVSPropertyOp16
 70
     1
102
RTVSPropertyOp17
 70
     1
102
RTVSPropertyOp18
 70
     1
102
RTVSPropertyOp19
 70
     1
102
RTVSPropertyOp20
 70
     1
102
RTVSPropertyOp21
 70
     1
102
RTVSPropertyOp22
 70
     1
102
RTVSPropertyOp23
 70
     1
102
RTVSPropertyOp24
 70
     1
102
RTVSPropertyOp25
 70
     1
102
RTVSPropertyOp26
 70
     1
102
RTVSPropertyOp27
 70
     1
102
RTVSPropertyOp28
 70
     1
102
RTVSPropertyOp29
 70
     1
102
RTVSPropertyOp30
 70
     1
102
RTVSPropertyOp31
 70
     1
102
RTVSPropertyOp32
 70
     1
102
RTVSPropertyOp33
 70
     1
102
RTVSPropertyOp34
 70
     1
102
RTVSPropertyOp35
 70
     1
102
RTVSPropertyOp36
 70
     1
102
RTVSPropertyOp37
 70
     1
102
RTVSPropertyOp38
 70
     1
102
RTVSPropertyOp39
 70
     1
102
RTVSPropertyOp40
 70
     1
102
RTVSPropertyOp41
 70
     1
102
RTVSPropertyOp42
 70
     1
102
RTVSPropertyOp43
 70
     1
102
RTVSPropertyOp44
 70
     1
102
RTVSPropertyOp45
 70
     1
102
RTVSPropertyOp46
 70
     1
102
RTVSPropertyOp47
 70
     1
102
RTVSPropertyOp48
 70
     1
102
RTVSPropertyOp49
 70
     1
102
RTVSPropertyOp50
 70
     1
102
RTVSPropertyOp51
 70
     0
102
RTVSPropertyOp52
 70
     0
102
RTVSPropertyOp53
 70
     1
102
RTVSPropertyOp54
 70
     1
102
RTVSPropertyOp55
 70
     1
102
RTVSPropertyOp56
 70
     1
102
RTVSPropertyOp57
 70
     1
102
RTVSPropertyOp58
 70
     1
102
RTVSPropertyOp59
 70
     1
102
RTVSPropertyOp60
 70
     1
102
RTVSPropertyOp61
 70
     1
102
RTVSPropertyOp62
 70
     1
  0
XRECORD
  5
1AC
102
{ACAD_REACTORS
330
1AB
102
}
330
1AB
100
AcDbXrecord
280
     1
102
RTVSPost2010Prop28
280
     0
102
RTVSPost2010PropOp28
 70
     1
102
RTVSPost2010Prop29
280
     1
102
RTVSPost2010PropOp29
 70
     1
102
RTVSPost2010Prop30
280
     1
102
RTVSPost2010PropOp30
 70
     1
102
RTVSPost2010Prop31
280
     0
102
RTVSPost2010PropOp31
 70
     1
102
RTVSPost2010Prop32
280
     0
102
RTVSPost2010PropOp32
 70
     1
102
RTVSPost2010Prop33
280
     0
102
RTVSPost2010PropOp33
 70
     1
102
RTVSPost2010Prop34
280
     0
102
RTVSPost2010PropOp34
 70
     1
102
RTVSPost2010Prop35
280
     0
102
RTVSPost2010PropOp35
 70
     1
102
RTVSPost2010Prop36
280
     0
102
RTVSPost2010PropOp36
 70
     1
102
RTVSPost2010Prop37
 90
       50
102
RTVSPost2010PropOp37
 70
     1
102
RTVSPost2010Prop38
140
0.0
102
RTVSPost2010PropOp38
 70
     1
102
RTVSPost2010Prop39
140
1.0
102
RTVSPost2010PropOp39
 70
     1
102
RTVSPost2010Prop40
 90
        0
102
RTVSPost2010PropOp40
 70
     1
102
RTVSPost2010Prop41ColorIndex
 90
       18
102
RTVSPost2010Prop41ColorRGB
 90
        0
102
RTVSPost2010PropOp41
 70
     1
102
RTVSPost2010Prop42
 90
       50
102
RTVSPost2010PropOp42
 70
     1
102
RTVSPost2010Prop43
 90
        3
102
RTVSPost2010PropOp43
 70
     1
102
RTVSPost2010Prop44ColorIndex
 90
        5
102
RTVSPost2010Prop44ColorRGB
 90
      255
102
RTVSPost2010PropOp44
 70
     1
102
RTVSPost2010Prop45
280
     0
102
RTVSPost2010PropOp45
 70
     1
102
RTVSPost2010Prop46
 90
       50
102
RTVSPost2010PropOp46
 70
     1
102
RTVSPost2010Prop47
 90
       50
102
RTVSPost2010PropOp47
 70
     1
102
RTVSPost2010Prop48
 90
       50
102
RTVSPost2010PropOp48
 70
     1
102
RTVSPost2010Prop49
280
     0
102
RTVSPost2010PropOp49
 70
     1
102
RTVSPost2010Prop50
 90
       50
102
RTVSPost2010PropOp50
 70
     1
102
RTVSPost2010Prop51ColorIndex
 90
      256
102
RTVSPost2010Prop51ColorRGB
 90
-16777216
102
RTVSPost2010PropOp51
 70
     0
102
RTVSPost2010Prop52
140
1.0
102
RTVSPost2010PropOp52
 70
     0
102
RTVSPost2010Prop53
 90
        2
102
RTVSPost2010PropOp53
 70
     1
102
RTVSPost2010Prop54
  1
strokes_ogs.tif
102
RTVSPost2010PropOp54
 70
     1
102
RTVSPost2010Prop55
280
     0
102
RTVSPost2010PropOp55
 70
     1
102
RTVSPost2010Prop56
140
1.0
102
RTVSPost2010PropOp56
 70
     1
102
RTVSPost2010Prop57
140
1.0
102
RTVSPost2010PropOp57
 70
     1
102
RTVSPropertyOp0
 70
     1
102
RTVSPropertyOp1
 70
     1
102
RTVSPropertyOp2
 70
     1
102
RTVSPropertyOp3
 70
     1
102
RTVSPropertyOp4
 70
     1
102
RTVSPropertyOp5
 70
     1
102
RTVSPropertyOp6
 70
     1
102
RTVSPropertyOp7
 70
     1
102
RTVSPropertyOp8
 70
     1
102
RTVSPropertyOp9
 70
     1
102
RTVSPropertyOp10
 70
     1
102
RTVSPropertyOp11
 70
     1
102
RTVSPropertyOp12
 70
     1
102
RTVSPropertyOp13
 70
     1
102
RTVSPropertyOp14
 70
     1
102
RTVSPropertyOp15
 70
     1
102
RTVSPropertyOp16
 70
     1
102
RTVSPropertyOp17
 70
     1
102
RTVSPropertyOp18
 70
     1
102
RTVSPropertyOp19
 70
     1
102
RTVSPropertyOp20
 70
     1
102
RTVSPropertyOp21
 70
     1
102
RTVSPropertyOp22
 70
     1
102
RTVSPropertyOp23
 70
     1
102
RTVSPropertyOp24
 70
     1
102
RTVSPropertyOp25
 70
     1
102
RTVSPropertyOp26
 70
     1
102
RTVSPropertyOp27
 70
     1
102
RTVSPropertyOp28
 70
     1
102
RTVSPropertyOp29
 70
     1
102
RTVSPropertyOp30
 70
     1
102
RTVSPropertyOp31
 70
     1
102
RTVSPropertyOp32
 70
     1
102
RTVSPropertyOp33
 70
     1
102
RTVSPropertyOp34
 70
     1
102
RTVSPropertyOp35
 70
     1
102
RTVSPropertyOp36
 70
     1
102
RTVSPropertyOp37
 70
     1
102
RTVSPropertyOp38
 70
     1
102
RTVSPropertyOp39
 70
     1
102
RTVSPropertyOp40
 70
     1
102
RTVSPropertyOp41
 70
     1
102
RTVSPropertyOp42
 70
     1
102
RTVSPropertyOp43
 70
     1
102
RTVSPropertyOp44
 70
     1
102
RTVSPropertyOp45
 70
     1
102
RTVSPropertyOp46
 70
     1
102
RTVSPropertyOp47
 70
     1
102
RTVSPropertyOp48
 70
     1
102
RTVSPropertyOp49
 70
     1
102
RTVSPropertyOp50
 70
     1
102
RTVSPropertyOp51
 70
     0
102
RTVSPropertyOp52
 70
     0
102
RTVSPropertyOp53
 70
     1
102
RTVSPropertyOp54
 70
     1
102
RTVSPropertyOp55
 70
     1
102
RTVSPropertyOp56
 70
     1
102
RTVSPropertyOp57
 70
     1
102
RTVSPropertyOp58
 70
     1
102
RTVSPropertyOp59
 70
     1
102
RTVSPropertyOp60
 70
     1
102
RTVSPropertyOp61
 70
     1
102
RTVSPropertyOp62
 70
     1
  0
XRECORD
  5
1BA
102
{ACAD_REACTORS
330
1B9
102
}
330
1B9
100
AcDbXrecord
280
     1
102
RTVSPost2010Prop28
280
     0
102
RTVSPost2010PropOp28
 70
     1
102
RTVSPost2010Prop29
280
     1
102
RTVSPost2010PropOp29
 70
     1
102
RTVSPost2010Prop30
280
     1
102
RTVSPost2010PropOp30
 70
     1
102
RTVSPost2010Prop31
280
     0
102
RTVSPost2010PropOp31
 70
     1
102
RTVSPost2010Prop32
280
     0
102
RTVSPost2010PropOp32
 70
     1
102
RTVSPost2010Prop33
280
     0
102
RTVSPost2010PropOp33
 70
     1
102
RTVSPost2010Prop34
280
     0
102
RTVSPost2010PropOp34
 70
     1
102
RTVSPost2010Prop35
280
     0
102
RTVSPost2010PropOp35
 70
     1
102
RTVSPost2010Prop36
280
     0
102
RTVSPost2010PropOp36
 70
     1
102
RTVSPost2010Prop37
 90
       50
102
RTVSPost2010PropOp37
 70
     1
102
RTVSPost2010Prop38
140
0.0
102
RTVSPost2010PropOp38
 70
     1
102
RTVSPost2010Prop39
140
1.0
102
RTVSPost2010PropOp39
 70
     1
102
RTVSPost2010Prop40
 90
        0
102
RTVSPost2010PropOp40
 70
     1
102
RTVSPost2010Prop41ColorIndex
 90
       18
102
RTVSPost2010Prop41ColorRGB
 90
        0
102
RTVSPost2010PropOp41
 70
     1
102
RTVSPost2010Prop42
 90
       50
102
RTVSPost2010PropOp42
 70
     1
102
RTVSPost2010Prop43
 90
        3
102
RTVSPost2010PropOp43
 70
     1
102
RTVSPost2010Prop44ColorIndex
 90
        5
102
RTVSPost2010Prop44ColorRGB
 90
      255
102
RTVSPost2010PropOp44
 70
     1
102
RTVSPost2010Prop45
280
     0
102
RTVSPost2010PropOp45
 70
     1
102
RTVSPost2010Prop46
 90
       50
102
RTVSPost2010PropOp46
 70
     1
102
RTVSPost2010Prop47
 90
       50
102
RTVSPost2010PropOp47
 70
     1
102
RTVSPost2010Prop48
 90
       50
102
RTVSPost2010PropOp48
 70
     1
102
RTVSPost2010Prop49
280
     0
102
RTVSPost2010PropOp49
 70
     1
102
RTVSPost2010Prop50
 90
       50
102
RTVSPost2010PropOp50
 70
     1
102
RTVSPost2010Prop51ColorIndex
 90
      256
102
RTVSPost2010Prop51ColorRGB
 90
-16777216
102
RTVSPost2010PropOp51
 70
     0
102
RTVSPost2010Prop52
140
1.0
102
RTVSPost2010PropOp52
 70
     0
102
RTVSPost2010Prop53
 90
        2
102
RTVSPost2010PropOp53
 70
     1
102
RTVSPost2010Prop54
  1
strokes_ogs.tif
102
RTVSPost2010PropOp54
 70
     1
102
RTVSPost2010Prop55
280
     0
102
RTVSPost2010PropOp55
 70
     1
102
RTVSPost2010Prop56
140
1.0
102
RTVSPost2010PropOp56
 70
     1
102
RTVSPost2010Prop57
140
1.0
102
RTVSPost2010PropOp57
 70
     1
102
RTVSPropertyOp0
 70
     1
102
RTVSPropertyOp1
 70
     1
102
RTVSPropertyOp2
 70
     1
102
RTVSPropertyOp3
 70
     1
102
RTVSPropertyOp4
 70
     1
102
RTVSPropertyOp5
 70
     1
102
RTVSPropertyOp6
 70
     1
102
RTVSPropertyOp7
 70
     1
102
RTVSPropertyOp8
 70
     1
102
RTVSPropertyOp9
 70
     1
102
RTVSPropertyOp10
 70
     1
102
RTVSPropertyOp11
 70
     1
102
RTVSPropertyOp12
 70
     1
102
RTVSPropertyOp13
 70
     1
102
RTVSPropertyOp14
 70
     1
102
RTVSPropertyOp15
 70
     1
102
RTVSPropertyOp16
 70
     1
102
RTVSPropertyOp17
 70
     1
102
RTVSPropertyOp18
 70
     1
102
RTVSPropertyOp19
 70
     1
102
RTVSPropertyOp20
 70
     1
102
RTVSPropertyOp21
 70
     1
102
RTVSPropertyOp22
 70
     1
102
RTVSPropertyOp23
 70
     1
102
RTVSPropertyOp24
 70
     1
102
RTVSPropertyOp25
 70
     1
102
RTVSPropertyOp26
 70
     1
102
RTVSPropertyOp27
 70
     1
102
RTVSPropertyOp28
 70
     1
102
RTVSPropertyOp29
 70
     1
102
RTVSPropertyOp30
 70
     1
102
RTVSPropertyOp31
 70
     1
102
RTVSPropertyOp32
 70
     1
102
RTVSPropertyOp33
 70
     1
102
RTVSPropertyOp34
 70
     1
102
RTVSPropertyOp35
 70
     1
102
RTVSPropertyOp36
 70
     1
102
RTVSPropertyOp37
 70
     1
102
RTVSPropertyOp38
 70
     1
102
RTVSPropertyOp39
 70
     1
102
RTVSPropertyOp40
 70
     1
102
RTVSPropertyOp41
 70
     1
102
RTVSPropertyOp42
 70
     1
102
RTVSPropertyOp43
 70
     1
102
RTVSPropertyOp44
 70
     1
102
RTVSPropertyOp45
 70
     1
102
RTVSPropertyOp46
 70
     1
102
RTVSPropertyOp47
 70
     1
102
RTVSPropertyOp48
 70
     1
102
RTVSPropertyOp49
 70
     1
102
RTVSPropertyOp50
 70
     1
102
RTVSPropertyOp51
 70
     0
102
RTVSPropertyOp52
 70
     0
102
RTVSPropertyOp53
 70
     1
102
RTVSPropertyOp54
 70
     1
102
RTVSPropertyOp55
 70
     1
102
RTVSPropertyOp56
 70
     1
102
RTVSPropertyOp57
 70
     1
102
RTVSPropertyOp58
 70
     1
102
RTVSPropertyOp59
 70
     1
102
RTVSPropertyOp60
 70
     1
102
RTVSPropertyOp61
 70
     1
102
RTVSPropertyOp62
 70
     1
  0
XRECORD
  5
1C2
102
{ACAD_REACTORS
330
1C1
102
}
330
1C1
100
AcDbXrecord
280
     1
102
RTVSPost2010Prop28
280
     0
102
RTVSPost2010PropOp28
 70
     1
102
RTVSPost2010Prop29
280
     1
102
RTVSPost2010PropOp29
 70
     1
102
RTVSPost2010Prop30
280
     1
102
RTVSPost2010PropOp30
 70
     1
102
RTVSPost2010Prop31
280
     0
102
RTVSPost2010PropOp31
 70
     1
102
RTVSPost2010Prop32
280
     0
102
RTVSPost2010PropOp32
 70
     1
102
RTVSPost2010Prop33
280
     0
102
RTVSPost2010PropOp33
 70
     1
102
RTVSPost2010Prop34
280
     0
102
RTVSPost2010PropOp34
 70
     1
102
RTVSPost2010Prop35
280
     0
102
RTVSPost2010PropOp35
 70
     1
102
RTVSPost2010Prop36
280
     0
102
RTVSPost2010PropOp36
 70
     1
102
RTVSPost2010Prop37
 90
       50
102
RTVSPost2010PropOp37
 70
     1
102
RTVSPost2010Prop38
140
0.0
102
RTVSPost2010PropOp38
 70
     1
102
RTVSPost2010Prop39
140
1.0
102
RTVSPost2010PropOp39
 70
     1
102
RTVSPost2010Prop40
 90
        0
102
RTVSPost2010PropOp40
 70
     1
102
RTVSPost2010Prop41ColorIndex
 90
       18
102
RTVSPost2010Prop41ColorRGB
 90
        0
102
RTVSPost2010PropOp41
 70
     1
102
RTVSPost2010Prop42
 90
       50
102
RTVSPost2010PropOp42
 70
     1
102
RTVSPost2010Prop43
 90
        3
102
RTVSPost2010PropOp43
 70
     1
102
RTVSPost2010Prop44ColorIndex
 90
        5
102
RTVSPost2010Prop44ColorRGB
 90
      255
102
RTVSPost2010PropOp44
 70
     1
102
RTVSPost2010Prop45
280
     0
102
RTVSPost2010PropOp45
 70
     1
102
RTVSPost2010Prop46
 90
       50
102
RTVSPost2010PropOp46
 70
     1
102
RTVSPost2010Prop47
 90
       50
102
RTVSPost2010PropOp47
 70
     1
102
RTVSPost2010Prop48
 90
       50
102
RTVSPost2010PropOp48
 70
     1
102
RTVSPost2010Prop49
280
     0
102
RTVSPost2010PropOp49
 70
     1
102
RTVSPost2010Prop50
 90
       50
102
RTVSPost2010PropOp50
 70
     1
102
RTVSPost2010Prop51ColorIndex
 90
      256
102
RTVSPost2010Prop51ColorRGB
 90
-16777216
102
RTVSPost2010PropOp51
 70
     0
102
RTVSPost2010Prop52
140
1.0
102
RTVSPost2010PropOp52
 70
     0
102
RTVSPost2010Prop53
 90
        2
102
RTVSPost2010PropOp53
 70
     1
102
RTVSPost2010Prop54
  1
strokes_ogs.tif
102
RTVSPost2010PropOp54
 70
     1
102
RTVSPost2010Prop55
280
     0
102
RTVSPost2010PropOp55
 70
     1
102
RTVSPost2010Prop56
140
1.0
102
RTVSPost2010PropOp56
 70
     1
102
RTVSPost2010Prop57
140
1.0
102
RTVSPost2010PropOp57
 70
     1
102
RTVSPropertyOp0
 70
     1
102
RTVSPropertyOp1
 70
     1
102
RTVSPropertyOp2
 70
     1
102
RTVSPropertyOp3
 70
     1
102
RTVSPropertyOp4
 70
     1
102
RTVSPropertyOp5
 70
     1
102
RTVSPropertyOp6
 70
     1
102
RTVSPropertyOp7
 70
     1
102
RTVSPropertyOp8
 70
     1
102
RTVSPropertyOp9
 70
     1
102
RTVSPropertyOp10
 70
     1
102
RTVSPropertyOp11
 70
     1
102
RTVSPropertyOp12
 70
     1
102
RTVSPropertyOp13
 70
     1
102
RTVSPropertyOp14
 70
     1
102
RTVSPropertyOp15
 70
     1
102
RTVSPropertyOp16
 70
     1
102
RTVSPropertyOp17
 70
     1
102
RTVSPropertyOp18
 70
     1
102
RTVSPropertyOp19
 70
     1
102
RTVSPropertyOp20
 70
     1
102
RTVSPropertyOp21
 70
     1
102
RTVSPropertyOp22
 70
     1
102
RTVSPropertyOp23
 70
     1
102
RTVSPropertyOp24
 70
     1
102
RTVSPropertyOp25
 70
     1
102
RTVSPropertyOp26
 70
     1
102
RTVSPropertyOp27
 70
     1
102
RTVSPropertyOp28
 70
     1
102
RTVSPropertyOp29
 70
     1
102
RTVSPropertyOp30
 70
     1
102
RTVSPropertyOp31
 70
     1
102
RTVSPropertyOp32
 70
     1
102
RTVSPropertyOp33
 70
     1
102
RTVSPropertyOp34
 70
     1
102
RTVSPropertyOp35
 70
     1
102
RTVSPropertyOp36
 70
     1
102
RTVSPropertyOp37
 70
     1
102
RTVSPropertyOp38
 70
     1
102
RTVSPropertyOp39
 70
     1
102
RTVSPropertyOp40
 70
     1
102
RTVSPropertyOp41
 70
     1
102
RTVSPropertyOp42
 70
     1
102
RTVSPropertyOp43
 70
     1
102
RTVSPropertyOp44
 70
     1
102
RTVSPropertyOp45
 70
     1
102
RTVSPropertyOp46
 70
     1
102
RTVSPropertyOp47
 70
     1
102
RTVSPropertyOp48
 70
     1
102
RTVSPropertyOp49
 70
     1
102
RTVSPropertyOp50
 70
     1
102
RTVSPropertyOp51
 70
     0
102
RTVSPropertyOp52
 70
     0
102
RTVSPropertyOp53
 70
     1
102
RTVSPropertyOp54
 70
     1
102
RTVSPropertyOp55
 70
     1
102
RTVSPropertyOp56
 70
     1
102
RTVSPropertyOp57
 70
     1
102
RTVSPropertyOp58
 70
     1
102
RTVSPropertyOp59
 70
     1
102
RTVSPropertyOp60
 70
     1
102
RTVSPropertyOp61
 70
     1
102
RTVSPropertyOp62
 70
     1
  0
XRECORD
  5
1B4
102
{ACAD_REACTORS
330
1B3
102
}
330
1B3
100
AcDbXrecord
280
     1
102
RTVSPost2010Prop28
280
     0
102
RTVSPost2010PropOp28
 70
     1
102
RTVSPost2010Prop29
280
     1
102
RTVSPost2010PropOp29
 70
     1
102
RTVSPost2010Prop30
280
     1
102
RTVSPost2010PropOp30
 70
     1
102
RTVSPost2010Prop31
280
     0
102
RTVSPost2010PropOp31
 70
     1
102
RTVSPost2010Prop32
280
     0
102
RTVSPost2010PropOp32
 70
     1
102
RTVSPost2010Prop33
280
     0
102
RTVSPost2010PropOp33
 70
     1
102
RTVSPost2010Prop34
280
     0
102
RTVSPost2010PropOp34
 70
     1
102
RTVSPost2010Prop35
280
     0
102
RTVSPost2010PropOp35
 70
     1
102
RTVSPost2010Prop36
280
     0
102
RTVSPost2010PropOp36
 70
     1
102
RTVSPost2010Prop37
 90
       50
102
RTVSPost2010PropOp37
 70
     1
102
RTVSPost2010Prop38
140
0.0
102
RTVSPost2010PropOp38
 70
     1
102
RTVSPost2010Prop39
140
1.0
102
RTVSPost2010PropOp39
 70
     1
102
RTVSPost2010Prop40
 90
        0
102
RTVSPost2010PropOp40
 70
     1
102
RTVSPost2010Prop41ColorIndex
 90
       18
102
RTVSPost2010Prop41ColorRGB
 90
        0
102
RTVSPost2010PropOp41
 70
     1
102
RTVSPost2010Prop42
 90
       50
102
RTVSPost2010PropOp42
 70
     1
102
RTVSPost2010Prop43
 90
        3
102
RTVSPost2010PropOp43
 70
     1
102
RTVSPost2010Prop44ColorIndex
 90
        5
102
RTVSPost2010Prop44ColorRGB
 90
      255
102
RTVSPost2010PropOp44
 70
     1
102
RTVSPost2010Prop45
280
     0
102
RTVSPost2010PropOp45
 70
     1
102
RTVSPost2010Prop46
 90
       50
102
RTVSPost2010PropOp46
 70
     1
102
RTVSPost2010Prop47
 90
       50
102
RTVSPost2010PropOp47
 70
     1
102
RTVSPost2010Prop48
 90
       50
102
RTVSPost2010PropOp48
 70
     1
102
RTVSPost2010Prop49
280
     0
102
RTVSPost2010PropOp49
 70
     1
102
RTVSPost2010Prop50
 90
       50
102
RTVSPost2010PropOp50
 70
     1
102
RTVSPost2010Prop51ColorIndex
 90
      256
102
RTVSPost2010Prop51ColorRGB
 90
-16777216
102
RTVSPost2010PropOp51
 70
     0
102
RTVSPost2010Prop52
140
1.0
102
RTVSPost2010PropOp52
 70
     0
102
RTVSPost2010Prop53
 90
        2
102
RTVSPost2010PropOp53
 70
     1
102
RTVSPost2010Prop54
  1
strokes_ogs.tif
102
RTVSPost2010PropOp54
 70
     1
102
RTVSPost2010Prop55
280
     0
102
RTVSPost2010PropOp55
 70
     1
102
RTVSPost2010Prop56
140
1.0
102
RTVSPost2010PropOp56
 70
     1
102
RTVSPost2010Prop57
140
1.0
102
RTVSPost2010PropOp57
 70
     1
102
RTVSPropertyOp0
 70
     1
102
RTVSPropertyOp1
 70
     1
102
RTVSPropertyOp2
 70
     1
102
RTVSPropertyOp3
 70
     1
102
RTVSPropertyOp4
 70
     1
102
RTVSPropertyOp5
 70
     1
102
RTVSPropertyOp6
 70
     1
102
RTVSPropertyOp7
 70
     1
102
RTVSPropertyOp8
 70
     1
102
RTVSPropertyOp9
 70
     1
102
RTVSPropertyOp10
 70
     1
102
RTVSPropertyOp11
 70
     1
102
RTVSPropertyOp12
 70
     1
102
RTVSPropertyOp13
 70
     1
102
RTVSPropertyOp14
 70
     1
102
RTVSPropertyOp15
 70
     1
102
RTVSPropertyOp16
 70
     1
102
RTVSPropertyOp17
 70
     1
102
RTVSPropertyOp18
 70
     1
102
RTVSPropertyOp19
 70
     1
102
RTVSPropertyOp20
 70
     1
102
RTVSPropertyOp21
 70
     1
102
RTVSPropertyOp22
 70
     1
102
RTVSPropertyOp23
 70
     1
102
RTVSPropertyOp24
 70
     1
102
RTVSPropertyOp25
 70
     1
102
RTVSPropertyOp26
 70
     1
102
RTVSPropertyOp27
 70
     1
102
RTVSPropertyOp28
 70
     1
102
RTVSPropertyOp29
 70
     1
102
RTVSPropertyOp30
 70
     1
102
RTVSPropertyOp31
 70
     1
102
RTVSPropertyOp32
 70
     1
102
RTVSPropertyOp33
 70
     1
102
RTVSPropertyOp34
 70
     1
102
RTVSPropertyOp35
 70
     1
102
RTVSPropertyOp36
 70
     1
102
RTVSPropertyOp37
 70
     1
102
RTVSPropertyOp38
 70
     1
102
RTVSPropertyOp39
 70
     1
102
RTVSPropertyOp40
 70
     1
102
RTVSPropertyOp41
 70
     1
102
RTVSPropertyOp42
 70
     1
102
RTVSPropertyOp43
 70
     1
102
RTVSPropertyOp44
 70
     1
102
RTVSPropertyOp45
 70
     1
102
RTVSPropertyOp46
 70
     1
102
RTVSPropertyOp47
 70
     1
102
RTVSPropertyOp48
 70
     1
102
RTVSPropertyOp49
 70
     1
102
RTVSPropertyOp50
 70
     1
102
RTVSPropertyOp51
 70
     0
102
RTVSPropertyOp52
 70
     0
102
RTVSPropertyOp53
 70
     1
102
RTVSPropertyOp54
 70
     1
102
RTVSPropertyOp55
 70
     1
102
RTVSPropertyOp56
 70
     1
102
RTVSPropertyOp57
 70
     1
102
RTVSPropertyOp58
 70
     1
102
RTVSPropertyOp59
 70
     1
102
RTVSPropertyOp60
 70
     1
102
RTVSPropertyOp61
 70
     1
102
RTVSPropertyOp62
 70
     1
  0
XRECORD
  5
1B8
102
{ACAD_REACTORS
330
1B7
102
}
330
1B7
100
AcDbXrecord
280
     1
102
RTVSPost2010Prop28
280
     0
102
RTVSPost2010PropOp28
 70
     1
102
RTVSPost2010Prop29
280
     1
102
RTVSPost2010PropOp29
 70
     1
102
RTVSPost2010Prop30
280
     1
102
RTVSPost2010PropOp30
 70
     1
102
RTVSPost2010Prop31
280
     0
102
RTVSPost2010PropOp31
 70
     1
102
RTVSPost2010Prop32
280
     0
102
RTVSPost2010PropOp32
 70
     1
102
RTVSPost2010Prop33
280
     0
102
RTVSPost2010PropOp33
 70
     1
102
RTVSPost2010Prop34
280
     0
102
RTVSPost2010PropOp34
 70
     1
102
RTVSPost2010Prop35
280
     0
102
RTVSPost2010PropOp35
 70
     1
102
RTVSPost2010Prop36
280
     0
102
RTVSPost2010PropOp36
 70
     1
102
RTVSPost2010Prop37
 90
       50
102
RTVSPost2010PropOp37
 70
     1
102
RTVSPost2010Prop38
140
0.0
102
RTVSPost2010PropOp38
 70
     1
102
RTVSPost2010Prop39
140
1.0
102
RTVSPost2010PropOp39
 70
     1
102
RTVSPost2010Prop40
 90
        0
102
RTVSPost2010PropOp40
 70
     1
102
RTVSPost2010Prop41ColorIndex
 90
       18
102
RTVSPost2010Prop41ColorRGB
 90
        0
102
RTVSPost2010PropOp41
 70
     1
102
RTVSPost2010Prop42
 90
       50
102
RTVSPost2010PropOp42
 70
     1
102
RTVSPost2010Prop43
 90
        3
102
RTVSPost2010PropOp43
 70
     1
102
RTVSPost2010Prop44ColorIndex
 90
        5
102
RTVSPost2010Prop44ColorRGB
 90
      255
102
RTVSPost2010PropOp44
 70
     1
102
RTVSPost2010Prop45
280
     0
102
RTVSPost2010PropOp45
 70
     1
102
RTVSPost2010Prop46
 90
       50
102
RTVSPost2010PropOp46
 70
     1
102
RTVSPost2010Prop47
 90
       50
102
RTVSPost2010PropOp47
 70
     1
102
RTVSPost2010Prop48
 90
       50
102
RTVSPost2010PropOp48
 70
     1
102
RTVSPost2010Prop49
280
     0
102
RTVSPost2010PropOp49
 70
     1
102
RTVSPost2010Prop50
 90
       50
102
RTVSPost2010PropOp50
 70
     1
102
RTVSPost2010Prop51ColorIndex
 90
      256
102
RTVSPost2010Prop51ColorRGB
 90
-16777216
102
RTVSPost2010PropOp51
 70
     0
102
RTVSPost2010Prop52
140
1.0
102
RTVSPost2010PropOp52
 70
     0
102
RTVSPost2010Prop53
 90
        2
102
RTVSPost2010PropOp53
 70
     1
102
RTVSPost2010Prop54
  1
strokes_ogs.tif
102
RTVSPost2010PropOp54
 70
     1
102
RTVSPost2010Prop55
280
     0
102
RTVSPost2010PropOp55
 70
     1
102
RTVSPost2010Prop56
140
1.0
102
RTVSPost2010PropOp56
 70
     1
102
RTVSPost2010Prop57
140
1.0
102
RTVSPost2010PropOp57
 70
     1
102
RTVSPropertyOp0
 70
     1
102
RTVSPropertyOp1
 70
     1
102
RTVSPropertyOp2
 70
     1
102
RTVSPropertyOp3
 70
     1
102
RTVSPropertyOp4
 70
     1
102
RTVSPropertyOp5
 70
     1
102
RTVSPropertyOp6
 70
     1
102
RTVSPropertyOp7
 70
     1
102
RTVSPropertyOp8
 70
     1
102
RTVSPropertyOp9
 70
     1
102
RTVSPropertyOp10
 70
     1
102
RTVSPropertyOp11
 70
     1
102
RTVSPropertyOp12
 70
     1
102
RTVSPropertyOp13
 70
     1
102
RTVSPropertyOp14
 70
     1
102
RTVSPropertyOp15
 70
     1
102
RTVSPropertyOp16
 70
     1
102
RTVSPropertyOp17
 70
     1
102
RTVSPropertyOp18
 70
     1
102
RTVSPropertyOp19
 70
     1
102
RTVSPropertyOp20
 70
     1
102
RTVSPropertyOp21
 70
     1
102
RTVSPropertyOp22
 70
     1
102
RTVSPropertyOp23
 70
     1
102
RTVSPropertyOp24
 70
     1
102
RTVSPropertyOp25
 70
     1
102
RTVSPropertyOp26
 70
     1
102
RTVSPropertyOp27
 70
     1
102
RTVSPropertyOp28
 70
     1
102
RTVSPropertyOp29
 70
     1
102
RTVSPropertyOp30
 70
     1
102
RTVSPropertyOp31
 70
     1
102
RTVSPropertyOp32
 70
     1
102
RTVSPropertyOp33
 70
     1
102
RTVSPropertyOp34
 70
     1
102
RTVSPropertyOp35
 70
     1
102
RTVSPropertyOp36
 70
     1
102
RTVSPropertyOp37
 70
     1
102
RTVSPropertyOp38
 70
     1
102
RTVSPropertyOp39
 70
     1
102
RTVSPropertyOp40
 70
     1
102
RTVSPropertyOp41
 70
     1
102
RTVSPropertyOp42
 70
     1
102
RTVSPropertyOp43
 70
     1
102
RTVSPropertyOp44
 70
     1
102
RTVSPropertyOp45
 70
     1
102
RTVSPropertyOp46
 70
     1
102
RTVSPropertyOp47
 70
     1
102
RTVSPropertyOp48
 70
     1
102
RTVSPropertyOp49
 70
     1
102
RTVSPropertyOp50
 70
     1
102
RTVSPropertyOp51
 70
     0
102
RTVSPropertyOp52
 70
     0
102
RTVSPropertyOp53
 70
     1
102
RTVSPropertyOp54
 70
     1
102
RTVSPropertyOp55
 70
     1
102
RTVSPropertyOp56
 70
     1
102
RTVSPropertyOp57
 70
     1
102
RTVSPropertyOp58
 70
     1
102
RTVSPropertyOp59
 70
     1
102
RTVSPropertyOp60
 70
     1
102
RTVSPropertyOp61
 70
     1
102
RTVSPropertyOp62
 70
     1
  0
XRECORD
  5
1D2
102
{ACAD_REACTORS
330
1D1
102
}
330
1D1
100
AcDbXrecord
280
     1
102
RTVSPost2010Prop28
280
     0
102
RTVSPost2010PropOp28
 70
     0
102
RTVSPost2010Prop29
280
     1
102
RTVSPost2010PropOp29
 70
     0
102
RTVSPost2010Prop30
280
     1
102
RTVSPost2010PropOp30
 70
     0
102
RTVSPost2010Prop31
280
     0
102
RTVSPost2010PropOp31
 70
     0
102
RTVSPost2010Prop32
280
     0
102
RTVSPost2010PropOp32
 70
     0
102
RTVSPost2010Prop33
280
     0
102
RTVSPost2010PropOp33
 70
     0
102
RTVSPost2010Prop34
280
     0
102
RTVSPost2010PropOp34
 70
     0
102
RTVSPost2010Prop35
280
     0
102
RTVSPost2010PropOp35
 70
     0
102
RTVSPost2010Prop36
280
     0
102
RTVSPost2010PropOp36
 70
     0
102
RTVSPost2010Prop37
 90
       50
102
RTVSPost2010PropOp37
 70
     0
102
RTVSPost2010Prop38
140
0.0
102
RTVSPost2010PropOp38
 70
     0
102
RTVSPost2010Prop39
140
1.0
102
RTVSPost2010PropOp39
 70
     0
102
RTVSPost2010Prop40
 90
        0
102
RTVSPost2010PropOp40
 70
     0
102
RTVSPost2010Prop41ColorIndex
 90
       18
102
RTVSPost2010Prop41ColorRGB
 90
        0
102
RTVSPost2010PropOp41
 70
     0
102
RTVSPost2010Prop42
 90
       50
102
RTVSPost2010PropOp42
 70
     0
102
RTVSPost2010Prop43
 90
        3
102
RTVSPost2010PropOp43
 70
     0
102
RTVSPost2010Prop44ColorIndex
 90
        5
102
RTVSPost2010Prop44ColorRGB
 90
      255
102
RTVSPost2010PropOp44
 70
     0
102
RTVSPost2010Prop45
280
     0
102
RTVSPost2010PropOp45
 70
     0
102
RTVSPost2010Prop46
 90
       50
102
RTVSPost2010PropOp46
 70
     0
102
RTVSPost2010Prop47
 90
       50
102
RTVSPost2010PropOp47
 70
     0
102
RTVSPost2010Prop48
 90
       50
102
RTVSPost2010PropOp48
 70
     0
102
RTVSPost2010Prop49
280
     0
102
RTVSPost2010PropOp49
 70
     0
102
RTVSPost2010Prop50
 90
       50
102
RTVSPost2010PropOp50
 70
     0
102
RTVSPost2010Prop51ColorIndex
 90
      256
102
RTVSPost2010Prop51ColorRGB
 90
-16777216
102
RTVSPost2010PropOp51
 70
     0
102
RTVSPost2010Prop52
140
1.0
102
RTVSPost2010PropOp52
 70
     0
102
RTVSPost2010Prop53
 90
        2
102
RTVSPost2010PropOp53
 70
     0
102
RTVSPost2010Prop54
  1
strokes_ogs.tif
102
RTVSPost2010PropOp54
 70
     0
102
RTVSPost2010Prop55
280
     0
102
RTVSPost2010PropOp55
 70
     0
102
RTVSPost2010Prop56
140
1.0
102
RTVSPost2010PropOp56
 70
     0
102
RTVSPost2010Prop57
140
1.0
102
RTVSPost2010PropOp57
 70
     0
102
RTVSPropertyOp0
 70
     0
102
RTVSPropertyOp1
 70
     0
102
RTVSPropertyOp2
 70
     0
102
RTVSPropertyOp3
 70
     0
102
RTVSPropertyOp4
 70
     0
102
RTVSPropertyOp5
 70
     0
102
RTVSPropertyOp6
 70
     0
102
RTVSPropertyOp7
 70
     0
102
RTVSPropertyOp8
 70
     0
102
RTVSPropertyOp9
 70
     0
102
RTVSPropertyOp10
 70
     0
102
RTVSPropertyOp11
 70
     0
102
RTVSPropertyOp12
 70
     0
102
RTVSPropertyOp13
 70
     0
102
RTVSPropertyOp14
 70
     2
102
RTVSPropertyOp15
 70
     0
102
RTVSPropertyOp16
 70
     0
102
RTVSPropertyOp17
 70
     0
102
RTVSPropertyOp18
 70
     0
102
RTVSPropertyOp19
 70
     0
102
RTVSPropertyOp20
 70
     0
102
RTVSPropertyOp21
 70
     0
102
RTVSPropertyOp22
 70
     0
102
RTVSPropertyOp23
 70
     0
102
RTVSPropertyOp24
 70
     0
102
RTVSPropertyOp25
 70
     0
102
RTVSPropertyOp26
 70
     0
102
RTVSPropertyOp27
 70
     0
102
RTVSPropertyOp28
 70
     0
102
RTVSPropertyOp29
 70
     0
102
RTVSPropertyOp30
 70
     0
102
RTVSPropertyOp31
 70
     0
102
RTVSPropertyOp32
 70
     0
102
RTVSPropertyOp33
 70
     0
102
RTVSPropertyOp34
 70
     0
102
RTVSPropertyOp35
 70
     0
102
RTVSPropertyOp36
 70
     0
102
RTVSPropertyOp37
 70
     0
102
RTVSPropertyOp38
 70
     0
102
RTVSPropertyOp39
 70
     0
102
RTVSPropertyOp40
 70
     0
102
RTVSPropertyOp41
 70
     0
102
RTVSPropertyOp42
 70
     0
102
RTVSPropertyOp43
 70
     0
102
RTVSPropertyOp44
 70
     0
102
RTVSPropertyOp45
 70
     0
102
RTVSPropertyOp46
 70
     0
102
RTVSPropertyOp47
 70
     0
102
RTVSPropertyOp48
 70
     0
102
RTVSPropertyOp49
 70
     0
102
RTVSPropertyOp50
 70
     0
102
RTVSPropertyOp51
 70
     0
102
RTVSPropertyOp52
 70
     0
102
RTVSPropertyOp53
 70
     0
102
RTVSPropertyOp54
 70
     0
102
RTVSPropertyOp55
 70
     0
102
RTVSPropertyOp56
 70
     0
102
RTVSPropertyOp57
 70
     0
102
RTVSPropertyOp58
 70
     0
102
RTVSPropertyOp59
 70
     0
102
RTVSPropertyOp60
 70
     0
102
RTVSPropertyOp61
 70
     0
102
RTVSPropertyOp62
 70
     0
  0
XRECORD
  5
1C0
102
{ACAD_REACTORS
330
1BF
102
}
330
1BF
100
AcDbXrecord
280
     1
102
RTVSPost2010Prop28
280
     0
102
RTVSPost2010PropOp28
 70
     1
102
RTVSPost2010Prop29
280
     1
102
RTVSPost2010PropOp29
 70
     1
102
RTVSPost2010Prop30
280
     1
102
RTVSPost2010PropOp30
 70
     1
102
RTVSPost2010Prop31
280
     0
102
RTVSPost2010PropOp31
 70
     1
102
RTVSPost2010Prop32
280
     0
102
RTVSPost2010PropOp32
 70
     1
102
RTVSPost2010Prop33
280
     0
102
RTVSPost2010PropOp33
 70
     1
102
RTVSPost2010Prop34
280
     0
102
RTVSPost2010PropOp34
 70
     1
102
RTVSPost2010Prop35
280
     0
102
RTVSPost2010PropOp35
 70
     1
102
RTVSPost2010Prop36
280
     0
102
RTVSPost2010PropOp36
 70
     1
102
RTVSPost2010Prop37
 90
       50
102
RTVSPost2010PropOp37
 70
     1
102
RTVSPost2010Prop38
140
0.0
102
RTVSPost2010PropOp38
 70
     1
102
RTVSPost2010Prop39
140
1.0
102
RTVSPost2010PropOp39
 70
     1
102
RTVSPost2010Prop40
 90
        0
102
RTVSPost2010PropOp40
 70
     1
102
RTVSPost2010Prop41ColorIndex
 90
       18
102
RTVSPost2010Prop41ColorRGB
 90
        0
102
RTVSPost2010PropOp41
 70
     1
102
RTVSPost2010Prop42
 90
       50
102
RTVSPost2010PropOp42
 70
     1
102
RTVSPost2010Prop43
 90
        3
102
RTVSPost2010PropOp43
 70
     1
102
RTVSPost2010Prop44ColorIndex
 90
        5
102
RTVSPost2010Prop44ColorRGB
 90
      255
102
RTVSPost2010PropOp44
 70
     1
102
RTVSPost2010Prop45
280
     0
102
RTVSPost2010PropOp45
 70
     1
102
RTVSPost2010Prop46
 90
       50
102
RTVSPost2010PropOp46
 70
     1
102
RTVSPost2010Prop47
 90
       50
102
RTVSPost2010PropOp47
 70
     1
102
RTVSPost2010Prop48
 90
       50
102
RTVSPost2010PropOp48
 70
     1
102
RTVSPost2010Prop49
280
     0
102
RTVSPost2010PropOp49
 70
     1
102
RTVSPost2010Prop50
 90
       50
102
RTVSPost2010PropOp50
 70
     1
102
RTVSPost2010Prop51ColorIndex
 90
      256
102
RTVSPost2010Prop51ColorRGB
 90
-16777216
102
RTVSPost2010PropOp51
 70
     0
102
RTVSPost2010Prop52
140
1.0
102
RTVSPost2010PropOp52
 70
     0
102
RTVSPost2010Prop53
 90
        2
102
RTVSPost2010PropOp53
 70
     1
102
RTVSPost2010Prop54
  1
strokes_ogs.tif
102
RTVSPost2010PropOp54
 70
     1
102
RTVSPost2010Prop55
280
     0
102
RTVSPost2010PropOp55
 70
     1
102
RTVSPost2010Prop56
140
1.0
102
RTVSPost2010PropOp56
 70
     1
102
RTVSPost2010Prop57
140
1.0
102
RTVSPost2010PropOp57
 70
     1
102
RTVSPropertyOp0
 70
     1
102
RTVSPropertyOp1
 70
     1
102
RTVSPropertyOp2
 70
     1
102
RTVSPropertyOp3
 70
     1
102
RTVSPropertyOp4
 70
     1
102
RTVSPropertyOp5
 70
     1
102
RTVSPropertyOp6
 70
     1
102
RTVSPropertyOp7
 70
     1
102
RTVSPropertyOp8
 70
     1
102
RTVSPropertyOp9
 70
     1
102
RTVSPropertyOp10
 70
     1
102
RTVSPropertyOp11
 70
     1
102
RTVSPropertyOp12
 70
     1
102
RTVSPropertyOp13
 70
     1
102
RTVSPropertyOp14
 70
     1
102
RTVSPropertyOp15
 70
     1
102
RTVSPropertyOp16
 70
     1
102
RTVSPropertyOp17
 70
     1
102
RTVSPropertyOp18
 70
     1
102
RTVSPropertyOp19
 70
     1
102
RTVSPropertyOp20
 70
     1
102
RTVSPropertyOp21
 70
     1
102
RTVSPropertyOp22
 70
     1
102
RTVSPropertyOp23
 70
     1
102
RTVSPropertyOp24
 70
     1
102
RTVSPropertyOp25
 70
     1
102
RTVSPropertyOp26
 70
     1
102
RTVSPropertyOp27
 70
     1
102
RTVSPropertyOp28
 70
     1
102
RTVSPropertyOp29
 70
     1
102
RTVSPropertyOp30
 70
     1
102
RTVSPropertyOp31
 70
     1
102
RTVSPropertyOp32
 70
     1
102
RTVSPropertyOp33
 70
     1
102
RTVSPropertyOp34
 70
     1
102
RTVSPropertyOp35
 70
     1
102
RTVSPropertyOp36
 70
     1
102
RTVSPropertyOp37
 70
     1
102
RTVSPropertyOp38
 70
     1
102
RTVSPropertyOp39
 70
     1
102
RTVSPropertyOp40
 70
     1
102
RTVSPropertyOp41
 70
     1
102
RTVSPropertyOp42
 70
     1
102
RTVSPropertyOp43
 70
     1
102
RTVSPropertyOp44
 70
     1
102
RTVSPropertyOp45
 70
     1
102
RTVSPropertyOp46
 70
     1
102
RTVSPropertyOp47
 70
     1
102
RTVSPropertyOp48
 70
     1
102
RTVSPropertyOp49
 70
     1
102
RTVSPropertyOp50
 70
     1
102
RTVSPropertyOp51
 70
     0
102
RTVSPropertyOp52
 70
     0
102
RTVSPropertyOp53
 70
     1
102
RTVSPropertyOp54
 70
     1
102
RTVSPropertyOp55
 70
     1
102
RTVSPropertyOp56
 70
     1
102
RTVSPropertyOp57
 70
     1
102
RTVSPropertyOp58
 70
     1
102
RTVSPropertyOp59
 70
     1
102
RTVSPropertyOp60
 70
     1
102
RTVSPropertyOp61
 70
     1
102
RTVSPropertyOp62
 70
     1
  0
XRECORD
  5
1A4
102
{ACAD_REACTORS
330
1A3
102
}
330
1A3
100
AcDbXrecord
280
     1
102
RTVSPost2010Prop28
280
     0
102
RTVSPost2010PropOp28
 70
     1
102
RTVSPost2010Prop29
280
     1
102
RTVSPost2010PropOp29
 70
     1
102
RTVSPost2010Prop30
280
     1
102
RTVSPost2010PropOp30
 70
     1
102
RTVSPost2010Prop31
280
     0
102
RTVSPost2010PropOp31
 70
     1
102
RTVSPost2010Prop32
280
     0
102
RTVSPost2010PropOp32
 70
     1
102
RTVSPost2010Prop33
280
     0
102
RTVSPost2010PropOp33
 70
     1
102
RTVSPost2010Prop34
280
     0
102
RTVSPost2010PropOp34
 70
     1
102
RTVSPost2010Prop35
280
     0
102
RTVSPost2010PropOp35
 70
     1
102
RTVSPost2010Prop36
280
     0
102
RTVSPost2010PropOp36
 70
     1
102
RTVSPost2010Prop37
 90
       50
102
RTVSPost2010PropOp37
 70
     1
102
RTVSPost2010Prop38
140
0.0
102
RTVSPost2010PropOp38
 70
     1
102
RTVSPost2010Prop39
140
1.0
102
RTVSPost2010PropOp39
 70
     1
102
RTVSPost2010Prop40
 90
        0
102
RTVSPost2010PropOp40
 70
     1
102
RTVSPost2010Prop41ColorIndex
 90
       18
102
RTVSPost2010Prop41ColorRGB
 90
        0
102
RTVSPost2010PropOp41
 70
     1
102
RTVSPost2010Prop42
 90
       50
102
RTVSPost2010PropOp42
 70
     1
102
RTVSPost2010Prop43
 90
        3
102
RTVSPost2010PropOp43
 70
     1
102
RTVSPost2010Prop44ColorIndex
 90
        5
102
RTVSPost2010Prop44ColorRGB
 90
      255
102
RTVSPost2010PropOp44
 70
     1
102
RTVSPost2010Prop45
280
     0
102
RTVSPost2010PropOp45
 70
     1
102
RTVSPost2010Prop46
 90
       50
102
RTVSPost2010PropOp46
 70
     1
102
RTVSPost2010Prop47
 90
       50
102
RTVSPost2010PropOp47
 70
     1
102
RTVSPost2010Prop48
 90
       50
102
RTVSPost2010PropOp48
 70
     1
102
RTVSPost2010Prop49
280
     0
102
RTVSPost2010PropOp49
 70
     1
102
RTVSPost2010Prop50
 90
       50
102
RTVSPost2010PropOp50
 70
     1
102
RTVSPost2010Prop51ColorIndex
 90
      256
102
RTVSPost2010Prop51ColorRGB
 90
-16777216
102
RTVSPost2010PropOp51
 70
     0
102
RTVSPost2010Prop52
140
1.0
102
RTVSPost2010PropOp52
 70
     0
102
RTVSPost2010Prop53
 90
        2
102
RTVSPost2010PropOp53
 70
     1
102
RTVSPost2010Prop54
  1
strokes_ogs.tif
102
RTVSPost2010PropOp54
 70
     1
102
RTVSPost2010Prop55
280
     0
102
RTVSPost2010PropOp55
 70
     1
102
RTVSPost2010Prop56
140
1.0
102
RTVSPost2010PropOp56
 70
     1
102
RTVSPost2010Prop57
140
1.0
102
RTVSPost2010PropOp57
 70
     1
102
RTVSPropertyOp0
 70
     1
102
RTVSPropertyOp1
 70
     1
102
RTVSPropertyOp2
 70
     1
102
RTVSPropertyOp3
 70
     1
102
RTVSPropertyOp4
 70
     1
102
RTVSPropertyOp5
 70
     1
102
RTVSPropertyOp6
 70
     1
102
RTVSPropertyOp7
 70
     1
102
RTVSPropertyOp8
 70
     1
102
RTVSPropertyOp9
 70
     1
102
RTVSPropertyOp10
 70
     1
102
RTVSPropertyOp11
 70
     1
102
RTVSPropertyOp12
 70
     1
102
RTVSPropertyOp13
 70
     1
102
RTVSPropertyOp14
 70
     1
102
RTVSPropertyOp15
 70
     1
102
RTVSPropertyOp16
 70
     1
102
RTVSPropertyOp17
 70
     1
102
RTVSPropertyOp18
 70
     1
102
RTVSPropertyOp19
 70
     1
102
RTVSPropertyOp20
 70
     1
102
RTVSPropertyOp21
 70
     1
102
RTVSPropertyOp22
 70
     1
102
RTVSPropertyOp23
 70
     1
102
RTVSPropertyOp24
 70
     1
102
RTVSPropertyOp25
 70
     1
102
RTVSPropertyOp26
 70
     1
102
RTVSPropertyOp27
 70
     1
102
RTVSPropertyOp28
 70
     1
102
RTVSPropertyOp29
 70
     1
102
RTVSPropertyOp30
 70
     1
102
RTVSPropertyOp31
 70
     1
102
RTVSPropertyOp32
 70
     1
102
RTVSPropertyOp33
 70
     1
102
RTVSPropertyOp34
 70
     1
102
RTVSPropertyOp35
 70
     1
102
RTVSPropertyOp36
 70
     1
102
RTVSPropertyOp37
 70
     1
102
RTVSPropertyOp38
 70
     1
102
RTVSPropertyOp39
 70
     1
102
RTVSPropertyOp40
 70
     1
102
RTVSPropertyOp41
 70
     1
102
RTVSPropertyOp42
 70
     1
102
RTVSPropertyOp43
 70
     1
102
RTVSPropertyOp44
 70
     1
102
RTVSPropertyOp45
 70
     1
102
RTVSPropertyOp46
 70
     1
102
RTVSPropertyOp47
 70
     1
102
RTVSPropertyOp48
 70
     1
102
RTVSPropertyOp49
 70
     1
102
RTVSPropertyOp50
 70
     1
102
RTVSPropertyOp51
 70
     0
102
RTVSPropertyOp52
 70
     0
102
RTVSPropertyOp53
 70
     1
102
RTVSPropertyOp54
 70
     1
102
RTVSPropertyOp55
 70
     1
102
RTVSPropertyOp56
 70
     1
102
RTVSPropertyOp57
 70
     1
102
RTVSPropertyOp58
 70
     1
102
RTVSPropertyOp59
 70
     1
102
RTVSPropertyOp60
 70
     1
102
RTVSPropertyOp61
 70
     1
102
RTVSPropertyOp62
 70
     1
  0
XRECORD
  5
1A6
102
{ACAD_REACTORS
330
1A5
102
}
330
1A5
100
AcDbXrecord
280
     1
102
RTVSPost2010Prop28
280
     0
102
RTVSPost2010PropOp28
 70
     1
102
RTVSPost2010Prop29
280
     1
102
RTVSPost2010PropOp29
 70
     1
102
RTVSPost2010Prop30
280
     1
102
RTVSPost2010PropOp30
 70
     1
102
RTVSPost2010Prop31
280
     0
102
RTVSPost2010PropOp31
 70
     1
102
RTVSPost2010Prop32
280
     0
102
RTVSPost2010PropOp32
 70
     1
102
RTVSPost2010Prop33
280
     0
102
RTVSPost2010PropOp33
 70
     1
102
RTVSPost2010Prop34
280
     0
102
RTVSPost2010PropOp34
 70
     1
102
RTVSPost2010Prop35
280
     0
102
RTVSPost2010PropOp35
 70
     1
102
RTVSPost2010Prop36
280
     0
102
RTVSPost2010PropOp36
 70
     1
102
RTVSPost2010Prop37
 90
       50
102
RTVSPost2010PropOp37
 70
     1
102
RTVSPost2010Prop38
140
0.0
102
RTVSPost2010PropOp38
 70
     1
102
RTVSPost2010Prop39
140
1.0
102
RTVSPost2010PropOp39
 70
     1
102
RTVSPost2010Prop40
 90
        0
102
RTVSPost2010PropOp40
 70
     1
102
RTVSPost2010Prop41ColorIndex
 90
       18
102
RTVSPost2010Prop41ColorRGB
 90
        0
102
RTVSPost2010PropOp41
 70
     1
102
RTVSPost2010Prop42
 90
       50
102
RTVSPost2010PropOp42
 70
     1
102
RTVSPost2010Prop43
 90
        3
102
RTVSPost2010PropOp43
 70
     1
102
RTVSPost2010Prop44ColorIndex
 90
        5
102
RTVSPost2010Prop44ColorRGB
 90
      255
102
RTVSPost2010PropOp44
 70
     1
102
RTVSPost2010Prop45
280
     0
102
RTVSPost2010PropOp45
 70
     1
102
RTVSPost2010Prop46
 90
       50
102
RTVSPost2010PropOp46
 70
     1
102
RTVSPost2010Prop47
 90
       50
102
RTVSPost2010PropOp47
 70
     1
102
RTVSPost2010Prop48
 90
       50
102
RTVSPost2010PropOp48
 70
     1
102
RTVSPost2010Prop49
280
     0
102
RTVSPost2010PropOp49
 70
     1
102
RTVSPost2010Prop50
 90
       50
102
RTVSPost2010PropOp50
 70
     1
102
RTVSPost2010Prop51ColorIndex
 90
      256
102
RTVSPost2010Prop51ColorRGB
 90
-16777216
102
RTVSPost2010PropOp51
 70
     0
102
RTVSPost2010Prop52
140
1.0
102
RTVSPost2010PropOp52
 70
     0
102
RTVSPost2010Prop53
 90
        2
102
RTVSPost2010PropOp53
 70
     1
102
RTVSPost2010Prop54
  1
strokes_ogs.tif
102
RTVSPost2010PropOp54
 70
     1
102
RTVSPost2010Prop55
280
     0
102
RTVSPost2010PropOp55
 70
     1
102
RTVSPost2010Prop56
140
1.0
102
RTVSPost2010PropOp56
 70
     1
102
RTVSPost2010Prop57
140
1.0
102
RTVSPost2010PropOp57
 70
     1
102
RTVSPropertyOp0
 70
     1
102
RTVSPropertyOp1
 70
     1
102
RTVSPropertyOp2
 70
     1
102
RTVSPropertyOp3
 70
     1
102
RTVSPropertyOp4
 70
     1
102
RTVSPropertyOp5
 70
     1
102
RTVSPropertyOp6
 70
     1
102
RTVSPropertyOp7
 70
     1
102
RTVSPropertyOp8
 70
     1
102
RTVSPropertyOp9
 70
     1
102
RTVSPropertyOp10
 70
     1
102
RTVSPropertyOp11
 70
     1
102
RTVSPropertyOp12
 70
     1
102
RTVSPropertyOp13
 70
     1
102
RTVSPropertyOp14
 70
     1
102
RTVSPropertyOp15
 70
     1
102
RTVSPropertyOp16
 70
     1
102
RTVSPropertyOp17
 70
     1
102
RTVSPropertyOp18
 70
     1
102
RTVSPropertyOp19
 70
     1
102
RTVSPropertyOp20
 70
     1
102
RTVSPropertyOp21
 70
     1
102
RTVSPropertyOp22
 70
     1
102
RTVSPropertyOp23
 70
     1
102
RTVSPropertyOp24
 70
     1
102
RTVSPropertyOp25
 70
     1
102
RTVSPropertyOp26
 70
     1
102
RTVSPropertyOp27
 70
     1
102
RTVSPropertyOp28
 70
     1
102
RTVSPropertyOp29
 70
     1
102
RTVSPropertyOp30
 70
     1
102
RTVSPropertyOp31
 70
     1
102
RTVSPropertyOp32
 70
     1
102
RTVSPropertyOp33
 70
     1
102
RTVSPropertyOp34
 70
     1
102
RTVSPropertyOp35
 70
     1
102
RTVSPropertyOp36
 70
     1
102
RTVSPropertyOp37
 70
     1
102
RTVSPropertyOp38
 70
     1
102
RTVSPropertyOp39
 70
     1
102
RTVSPropertyOp40
 70
     1
102
RTVSPropertyOp41
 70
     1
102
RTVSPropertyOp42
 70
     1
102
RTVSPropertyOp43
 70
     1
102
RTVSPropertyOp44
 70
     1
102
RTVSPropertyOp45
 70
     1
102
RTVSPropertyOp46
 70
     1
102
RTVSPropertyOp47
 70
     1
102
RTVSPropertyOp48
 70
     1
102
RTVSPropertyOp49
 70
     1
102
RTVSPropertyOp50
 70
     1
102
RTVSPropertyOp51
 70
     0
102
RTVSPropertyOp52
 70
     0
102
RTVSPropertyOp53
 70
     1
102
RTVSPropertyOp54
 70
     1
102
RTVSPropertyOp55
 70
     1
102
RTVSPropertyOp56
 70
     1
102
RTVSPropertyOp57
 70
     1
102
RTVSPropertyOp58
 70
     1
102
RTVSPropertyOp59
 70
     1
102
RTVSPropertyOp60
 70
     1
102
RTVSPropertyOp61
 70
     1
102
RTVSPropertyOp62
 70
     1
  0
XRECORD
  5
1A8
102
{ACAD_REACTORS
330
1A7
102
}
330
1A7
100
AcDbXrecord
280
     1
102
RTVSPost2010Prop28
280
     0
102
RTVSPost2010PropOp28
 70
     1
102
RTVSPost2010Prop29
280
     1
102
RTVSPost2010PropOp29
 70
     1
102
RTVSPost2010Prop30
280
     1
102
RTVSPost2010PropOp30
 70
     1
102
RTVSPost2010Prop31
280
     0
102
RTVSPost2010PropOp31
 70
     1
102
RTVSPost2010Prop32
280
     0
102
RTVSPost2010PropOp32
 70
     1
102
RTVSPost2010Prop33
280
     0
102
RTVSPost2010PropOp33
 70
     1
102
RTVSPost2010Prop34
280
     0
102
RTVSPost2010PropOp34
 70
     1
102
RTVSPost2010Prop35
280
     0
102
RTVSPost2010PropOp35
 70
     1
102
RTVSPost2010Prop36
280
     0
102
RTVSPost2010PropOp36
 70
     1
102
RTVSPost2010Prop37
 90
       50
102
RTVSPost2010PropOp37
 70
     1
102
RTVSPost2010Prop38
140
0.0
102
RTVSPost2010PropOp38
 70
     1
102
RTVSPost2010Prop39
140
1.0
102
RTVSPost2010PropOp39
 70
     1
102
RTVSPost2010Prop40
 90
        0
102
RTVSPost2010PropOp40
 70
     1
102
RTVSPost2010Prop41ColorIndex
 90
       18
102
RTVSPost2010Prop41ColorRGB
 90
        0
102
RTVSPost2010PropOp41
 70
     1
102
RTVSPost2010Prop42
 90
       50
102
RTVSPost2010PropOp42
 70
     1
102
RTVSPost2010Prop43
 90
        3
102
RTVSPost2010PropOp43
 70
     1
102
RTVSPost2010Prop44ColorIndex
 90
        5
102
RTVSPost2010Prop44ColorRGB
 90
      255
102
RTVSPost2010PropOp44
 70
     1
102
RTVSPost2010Prop45
280
     0
102
RTVSPost2010PropOp45
 70
     1
102
RTVSPost2010Prop46
 90
       50
102
RTVSPost2010PropOp46
 70
     1
102
RTVSPost2010Prop47
 90
       50
102
RTVSPost2010PropOp47
 70
     1
102
RTVSPost2010Prop48
 90
       50
102
RTVSPost2010PropOp48
 70
     1
102
RTVSPost2010Prop49
280
     0
102
RTVSPost2010PropOp49
 70
     1
102
RTVSPost2010Prop50
 90
       50
102
RTVSPost2010PropOp50
 70
     1
102
RTVSPost2010Prop51ColorIndex
 90
      256
102
RTVSPost2010Prop51ColorRGB
 90
-16777216
102
RTVSPost2010PropOp51
 70
     0
102
RTVSPost2010Prop52
140
1.0
102
RTVSPost2010PropOp52
 70
     0
102
RTVSPost2010Prop53
 90
        2
102
RTVSPost2010PropOp53
 70
     1
102
RTVSPost2010Prop54
  1
strokes_ogs.tif
102
RTVSPost2010PropOp54
 70
     1
102
RTVSPost2010Prop55
280
     0
102
RTVSPost2010PropOp55
 70
     1
102
RTVSPost2010Prop56
140
1.0
102
RTVSPost2010PropOp56
 70
     1
102
RTVSPost2010Prop57
140
1.0
102
RTVSPost2010PropOp57
 70
     1
102
RTVSPropertyOp0
 70
     1
102
RTVSPropertyOp1
 70
     1
102
RTVSPropertyOp2
 70
     1
102
RTVSPropertyOp3
 70
     1
102
RTVSPropertyOp4
 70
     1
102
RTVSPropertyOp5
 70
     1
102
RTVSPropertyOp6
 70
     1
102
RTVSPropertyOp7
 70
     1
102
RTVSPropertyOp8
 70
     1
102
RTVSPropertyOp9
 70
     1
102
RTVSPropertyOp10
 70
     1
102
RTVSPropertyOp11
 70
     1
102
RTVSPropertyOp12
 70
     1
102
RTVSPropertyOp13
 70
     1
102
RTVSPropertyOp14
 70
     1
102
RTVSPropertyOp15
 70
     1
102
RTVSPropertyOp16
 70
     1
102
RTVSPropertyOp17
 70
     1
102
RTVSPropertyOp18
 70
     1
102
RTVSPropertyOp19
 70
     1
102
RTVSPropertyOp20
 70
     1
102
RTVSPropertyOp21
 70
     1
102
RTVSPropertyOp22
 70
     1
102
RTVSPropertyOp23
 70
     1
102
RTVSPropertyOp24
 70
     1
102
RTVSPropertyOp25
 70
     1
102
RTVSPropertyOp26
 70
     1
102
RTVSPropertyOp27
 70
     1
102
RTVSPropertyOp28
 70
     1
102
RTVSPropertyOp29
 70
     1
102
RTVSPropertyOp30
 70
     1
102
RTVSPropertyOp31
 70
     1
102
RTVSPropertyOp32
 70
     1
102
RTVSPropertyOp33
 70
     1
102
RTVSPropertyOp34
 70
     1
102
RTVSPropertyOp35
 70
     1
102
RTVSPropertyOp36
 70
     1
102
RTVSPropertyOp37
 70
     1
102
RTVSPropertyOp38
 70
     1
102
RTVSPropertyOp39
 70
     1
102
RTVSPropertyOp40
 70
     1
102
RTVSPropertyOp41
 70
     1
102
RTVSPropertyOp42
 70
     1
102
RTVSPropertyOp43
 70
     1
102
RTVSPropertyOp44
 70
     1
102
RTVSPropertyOp45
 70
     1
102
RTVSPropertyOp46
 70
     1
102
RTVSPropertyOp47
 70
     1
102
RTVSPropertyOp48
 70
     1
102
RTVSPropertyOp49
 70
     1
102
RTVSPropertyOp50
 70
     1
102
RTVSPropertyOp51
 70
     0
102
RTVSPropertyOp52
 70
     0
102
RTVSPropertyOp53
 70
     1
102
RTVSPropertyOp54
 70
     1
102
RTVSPropertyOp55
 70
     1
102
RTVSPropertyOp56
 70
     1
102
RTVSPropertyOp57
 70
     1
102
RTVSPropertyOp58
 70
     1
102
RTVSPropertyOp59
 70
     1
102
RTVSPropertyOp60
 70
     1
102
RTVSPropertyOp61
 70
     1
102
RTVSPropertyOp62
 70
     1
  0
XRECORD
  5
1AA
102
{ACAD_REACTORS
330
1A9
102
}
330
1A9
100
AcDbXrecord
280
     1
102
RTVSPost2010Prop28
280
     0
102
RTVSPost2010PropOp28
 70
     1
102
RTVSPost2010Prop29
280
     1
102
RTVSPost2010PropOp29
 70
     1
102
RTVSPost2010Prop30
280
     1
102
RTVSPost2010PropOp30
 70
     1
102
RTVSPost2010Prop31
280
     0
102
RTVSPost2010PropOp31
 70
     1
102
RTVSPost2010Prop32
280
     0
102
RTVSPost2010PropOp32
 70
     1
102
RTVSPost2010Prop33
280
     0
102
RTVSPost2010PropOp33
 70
     1
102
RTVSPost2010Prop34
280
     0
102
RTVSPost2010PropOp34
 70
     1
102
RTVSPost2010Prop35
280
     0
102
RTVSPost2010PropOp35
 70
     1
102
RTVSPost2010Prop36
280
     0
102
RTVSPost2010PropOp36
 70
     1
102
RTVSPost2010Prop37
 90
       50
102
RTVSPost2010PropOp37
 70
     1
102
RTVSPost2010Prop38
140
0.0
102
RTVSPost2010PropOp38
 70
     1
102
RTVSPost2010Prop39
140
1.0
102
RTVSPost2010PropOp39
 70
     1
102
RTVSPost2010Prop40
 90
        0
102
RTVSPost2010PropOp40
 70
     1
102
RTVSPost2010Prop41ColorIndex
 90
       18
102
RTVSPost2010Prop41ColorRGB
 90
        0
102
RTVSPost2010PropOp41
 70
     1
102
RTVSPost2010Prop42
 90
       50
102
RTVSPost2010PropOp42
 70
     1
102
RTVSPost2010Prop43
 90
        3
102
RTVSPost2010PropOp43
 70
     1
102
RTVSPost2010Prop44ColorIndex
 90
        5
102
RTVSPost2010Prop44ColorRGB
 90
      255
102
RTVSPost2010PropOp44
 70
     1
102
RTVSPost2010Prop45
280
     0
102
RTVSPost2010PropOp45
 70
     1
102
RTVSPost2010Prop46
 90
       50
102
RTVSPost2010PropOp46
 70
     1
102
RTVSPost2010Prop47
 90
       50
102
RTVSPost2010PropOp47
 70
     1
102
RTVSPost2010Prop48
 90
       50
102
RTVSPost2010PropOp48
 70
     1
102
RTVSPost2010Prop49
280
     0
102
RTVSPost2010PropOp49
 70
     1
102
RTVSPost2010Prop50
 90
       50
102
RTVSPost2010PropOp50
 70
     1
102
RTVSPost2010Prop51ColorIndex
 90
      256
102
RTVSPost2010Prop51ColorRGB
 90
-16777216
102
RTVSPost2010PropOp51
 70
     0
102
RTVSPost2010Prop52
140
1.0
102
RTVSPost2010PropOp52
 70
     0
102
RTVSPost2010Prop53
 90
        2
102
RTVSPost2010PropOp53
 70
     1
102
RTVSPost2010Prop54
  1
strokes_ogs.tif
102
RTVSPost2010PropOp54
 70
     1
102
RTVSPost2010Prop55
280
     0
102
RTVSPost2010PropOp55
 70
     1
102
RTVSPost2010Prop56
140
1.0
102
RTVSPost2010PropOp56
 70
     1
102
RTVSPost2010Prop57
140
1.0
102
RTVSPost2010PropOp57
 70
     1
102
RTVSPropertyOp0
 70
     1
102
RTVSPropertyOp1
 70
     1
102
RTVSPropertyOp2
 70
     1
102
RTVSPropertyOp3
 70
     1
102
RTVSPropertyOp4
 70
     1
102
RTVSPropertyOp5
 70
     1
102
RTVSPropertyOp6
 70
     1
102
RTVSPropertyOp7
 70
     1
102
RTVSPropertyOp8
 70
     1
102
RTVSPropertyOp9
 70
     1
102
RTVSPropertyOp10
 70
     1
102
RTVSPropertyOp11
 70
     1
102
RTVSPropertyOp12
 70
     1
102
RTVSPropertyOp13
 70
     1
102
RTVSPropertyOp14
 70
     1
102
RTVSPropertyOp15
 70
     1
102
RTVSPropertyOp16
 70
     1
102
RTVSPropertyOp17
 70
     1
102
RTVSPropertyOp18
 70
     1
102
RTVSPropertyOp19
 70
     1
102
RTVSPropertyOp20
 70
     1
102
RTVSPropertyOp21
 70
     1
102
RTVSPropertyOp22
 70
     1
102
RTVSPropertyOp23
 70
     1
102
RTVSPropertyOp24
 70
     1
102
RTVSPropertyOp25
 70
     1
102
RTVSPropertyOp26
 70
     1
102
RTVSPropertyOp27
 70
     1
102
RTVSPropertyOp28
 70
     1
102
RTVSPropertyOp29
 70
     1
102
RTVSPropertyOp30
 70
     1
102
RTVSPropertyOp31
 70
     1
102
RTVSPropertyOp32
 70
     1
102
RTVSPropertyOp33
 70
     1
102
RTVSPropertyOp34
 70
     1
102
RTVSPropertyOp35
 70
     1
102
RTVSPropertyOp36
 70
     1
102
RTVSPropertyOp37
 70
     1
102
RTVSPropertyOp38
 70
     1
102
RTVSPropertyOp39
 70
     1
102
RTVSPropertyOp40
 70
     1
102
RTVSPropertyOp41
 70
     1
102
RTVSPropertyOp42
 70
     1
102
RTVSPropertyOp43
 70
     1
102
RTVSPropertyOp44
 70
     1
102
RTVSPropertyOp45
 70
     1
102
RTVSPropertyOp46
 70
     1
102
RTVSPropertyOp47
 70
     1
102
RTVSPropertyOp48
 70
     1
102
RTVSPropertyOp49
 70
     1
102
RTVSPropertyOp50
 70
     1
102
RTVSPropertyOp51
 70
     0
102
RTVSPropertyOp52
 70
     0
102
RTVSPropertyOp53
 70
     1
102
RTVSPropertyOp54
 70
     1
102
RTVSPropertyOp55
 70
     1
102
RTVSPropertyOp56
 70
     1
102
RTVSPropertyOp57
 70
     1
102
RTVSPropertyOp58
 70
     1
102
RTVSPropertyOp59
 70
     1
102
RTVSPropertyOp60
 70
     1
102
RTVSPropertyOp61
 70
     1
102
RTVSPropertyOp62
 70
     1
  0
XRECORD
  5
1B2
102
{ACAD_REACTORS
330
1B1
102
}
330
1B1
100
AcDbXrecord
280
     1
102
RTVSPost2010Prop28
280
     0
102
RTVSPost2010PropOp28
 70
     1
102
RTVSPost2010Prop29
280
     1
102
RTVSPost2010PropOp29
 70
     1
102
RTVSPost2010Prop30
280
     1
102
RTVSPost2010PropOp30
 70
     1
102
RTVSPost2010Prop31
280
     0
102
RTVSPost2010PropOp31
 70
     1
102
RTVSPost2010Prop32
280
     0
102
RTVSPost2010PropOp32
 70
     1
102
RTVSPost2010Prop33
280
     0
102
RTVSPost2010PropOp33
 70
     1
102
RTVSPost2010Prop34
280
     0
102
RTVSPost2010PropOp34
 70
     1
102
RTVSPost2010Prop35
280
     0
102
RTVSPost2010PropOp35
 70
     1
102
RTVSPost2010Prop36
280
     0
102
RTVSPost2010PropOp36
 70
     1
102
RTVSPost2010Prop37
 90
       50
102
RTVSPost2010PropOp37
 70
     1
102
RTVSPost2010Prop38
140
0.0
102
RTVSPost2010PropOp38
 70
     1
102
RTVSPost2010Prop39
140
1.0
102
RTVSPost2010PropOp39
 70
     1
102
RTVSPost2010Prop40
 90
        0
102
RTVSPost2010PropOp40
 70
     1
102
RTVSPost2010Prop41ColorIndex
 90
       18
102
RTVSPost2010Prop41ColorRGB
 90
        0
102
RTVSPost2010PropOp41
 70
     1
102
RTVSPost2010Prop42
 90
       50
102
RTVSPost2010PropOp42
 70
     1
102
RTVSPost2010Prop43
 90
        3
102
RTVSPost2010PropOp43
 70
     1
102
RTVSPost2010Prop44ColorIndex
 90
        5
102
RTVSPost2010Prop44ColorRGB
 90
      255
102
RTVSPost2010PropOp44
 70
     1
102
RTVSPost2010Prop45
280
     0
102
RTVSPost2010PropOp45
 70
     1
102
RTVSPost2010Prop46
 90
       50
102
RTVSPost2010PropOp46
 70
     1
102
RTVSPost2010Prop47
 90
       50
102
RTVSPost2010PropOp47
 70
     1
102
RTVSPost2010Prop48
 90
       50
102
RTVSPost2010PropOp48
 70
     1
102
RTVSPost2010Prop49
280
     0
102
RTVSPost2010PropOp49
 70
     1
102
RTVSPost2010Prop50
 90
       50
102
RTVSPost2010PropOp50
 70
     1
102
RTVSPost2010Prop51ColorIndex
 90
      256
102
RTVSPost2010Prop51ColorRGB
 90
-16777216
102
RTVSPost2010PropOp51
 70
     0
102
RTVSPost2010Prop52
140
1.0
102
RTVSPost2010PropOp52
 70
     0
102
RTVSPost2010Prop53
 90
        2
102
RTVSPost2010PropOp53
 70
     1
102
RTVSPost2010Prop54
  1
strokes_ogs.tif
102
RTVSPost2010PropOp54
 70
     1
102
RTVSPost2010Prop55
280
     0
102
RTVSPost2010PropOp55
 70
     1
102
RTVSPost2010Prop56
140
1.0
102
RTVSPost2010PropOp56
 70
     1
102
RTVSPost2010Prop57
140
1.0
102
RTVSPost2010PropOp57
 70
     1
102
RTVSPropertyOp0
 70
     1
102
RTVSPropertyOp1
 70
     1
102
RTVSPropertyOp2
 70
     1
102
RTVSPropertyOp3
 70
     1
102
RTVSPropertyOp4
 70
     1
102
RTVSPropertyOp5
 70
     1
102
RTVSPropertyOp6
 70
     1
102
RTVSPropertyOp7
 70
     1
102
RTVSPropertyOp8
 70
     1
102
RTVSPropertyOp9
 70
     1
102
RTVSPropertyOp10
 70
     1
102
RTVSPropertyOp11
 70
     1
102
RTVSPropertyOp12
 70
     1
102
RTVSPropertyOp13
 70
     1
102
RTVSPropertyOp14
 70
     1
102
RTVSPropertyOp15
 70
     1
102
RTVSPropertyOp16
 70
     1
102
RTVSPropertyOp17
 70
     1
102
RTVSPropertyOp18
 70
     1
102
RTVSPropertyOp19
 70
     1
102
RTVSPropertyOp20
 70
     1
102
RTVSPropertyOp21
 70
     1
102
RTVSPropertyOp22
 70
     1
102
RTVSPropertyOp23
 70
     1
102
RTVSPropertyOp24
 70
     1
102
RTVSPropertyOp25
 70
     1
102
RTVSPropertyOp26
 70
     1
102
RTVSPropertyOp27
 70
     1
102
RTVSPropertyOp28
 70
     1
102
RTVSPropertyOp29
 70
     1
102
RTVSPropertyOp30
 70
     1
102
RTVSPropertyOp31
 70
     1
102
RTVSPropertyOp32
 70
     1
102
RTVSPropertyOp33
 70
     1
102
RTVSPropertyOp34
 70
     1
102
RTVSPropertyOp35
 70
     1
102
RTVSPropertyOp36
 70
     1
102
RTVSPropertyOp37
 70
     1
102
RTVSPropertyOp38
 70
     1
102
RTVSPropertyOp39
 70
     1
102
RTVSPropertyOp40
 70
     1
102
RTVSPropertyOp41
 70
     1
102
RTVSPropertyOp42
 70
     1
102
RTVSPropertyOp43
 70
     1
102
RTVSPropertyOp44
 70
     1
102
RTVSPropertyOp45
 70
     1
102
RTVSPropertyOp46
 70
     1
102
RTVSPropertyOp47
 70
     1
102
RTVSPropertyOp48
 70
     1
102
RTVSPropertyOp49
 70
     1
102
RTVSPropertyOp50
 70
     1
102
RTVSPropertyOp51
 70
     0
102
RTVSPropertyOp52
 70
     0
102
RTVSPropertyOp53
 70
     1
102
RTVSPropertyOp54
 70
     1
102
RTVSPropertyOp55
 70
     1
102
RTVSPropertyOp56
 70
     1
102
RTVSPropertyOp57
 70
     1
102
RTVSPropertyOp58
 70
     1
102
RTVSPropertyOp59
 70
     1
102
RTVSPropertyOp60
 70
     1
102
RTVSPropertyOp61
 70
     1
102
RTVSPropertyOp62
 70
     1
  0
XRECORD
  5
1CE
102
{ACAD_REACTORS
330
1CD
102
}
330
1CD
100
AcDbXrecord
280
     1
102
RTVSPost2010Prop28
280
     0
102
RTVSPost2010PropOp28
 70
     0
102
RTVSPost2010Prop29
280
     1
102
RTVSPost2010PropOp29
 70
     0
102
RTVSPost2010Prop30
280
     1
102
RTVSPost2010PropOp30
 70
     0
102
RTVSPost2010Prop31
280
     0
102
RTVSPost2010PropOp31
 70
     0
102
RTVSPost2010Prop32
280
     0
102
RTVSPost2010PropOp32
 70
     0
102
RTVSPost2010Prop33
280
     0
102
RTVSPost2010PropOp33
 70
     0
102
RTVSPost2010Prop34
280
     0
102
RTVSPost2010PropOp34
 70
     0
102
RTVSPost2010Prop35
280
     0
102
RTVSPost2010PropOp35
 70
     0
102
RTVSPost2010Prop36
280
     0
102
RTVSPost2010PropOp36
 70
     0
102
RTVSPost2010Prop37
 90
       50
102
RTVSPost2010PropOp37
 70
     0
102
RTVSPost2010Prop38
140
0.0
102
RTVSPost2010PropOp38
 70
     0
102
RTVSPost2010Prop39
140
1.0
102
RTVSPost2010PropOp39
 70
     0
102
RTVSPost2010Prop40
 90
        0
102
RTVSPost2010PropOp40
 70
     0
102
RTVSPost2010Prop41ColorIndex
 90
       18
102
RTVSPost2010Prop41ColorRGB
 90
        0
102
RTVSPost2010PropOp41
 70
     0
102
RTVSPost2010Prop42
 90
       50
102
RTVSPost2010PropOp42
 70
     0
102
RTVSPost2010Prop43
 90
        3
102
RTVSPost2010PropOp43
 70
     0
102
RTVSPost2010Prop44ColorIndex
 90
        5
102
RTVSPost2010Prop44ColorRGB
 90
      255
102
RTVSPost2010PropOp44
 70
     0
102
RTVSPost2010Prop45
280
     0
102
RTVSPost2010PropOp45
 70
     0
102
RTVSPost2010Prop46
 90
       50
102
RTVSPost2010PropOp46
 70
     0
102
RTVSPost2010Prop47
 90
       50
102
RTVSPost2010PropOp47
 70
     0
102
RTVSPost2010Prop48
 90
       50
102
RTVSPost2010PropOp48
 70
     0
102
RTVSPost2010Prop49
280
     0
102
RTVSPost2010PropOp49
 70
     0
102
RTVSPost2010Prop50
 90
       50
102
RTVSPost2010PropOp50
 70
     0
102
RTVSPost2010Prop51ColorIndex
 90
      256
102
RTVSPost2010Prop51ColorRGB
 90
-16777216
102
RTVSPost2010PropOp51
 70
     0
102
RTVSPost2010Prop52
140
1.0
102
RTVSPost2010PropOp52
 70
     0
102
RTVSPost2010Prop53
 90
        2
102
RTVSPost2010PropOp53
 70
     0
102
RTVSPost2010Prop54
  1
strokes_ogs.tif
102
RTVSPost2010PropOp54
 70
     0
102
RTVSPost2010Prop55
280
     0
102
RTVSPost2010PropOp55
 70
     0
102
RTVSPost2010Prop56
140
1.0
102
RTVSPost2010PropOp56
 70
     0
102
RTVSPost2010Prop57
140
1.0
102
RTVSPost2010PropOp57
 70
     0
102
RTVSPropertyOp0
 70
     0
102
RTVSPropertyOp1
 70
     0
102
RTVSPropertyOp2
 70
     0
102
RTVSPropertyOp3
 70
     0
102
RTVSPropertyOp4
 70
     0
102
RTVSPropertyOp5
 70
     0
102
RTVSPropertyOp6
 70
     0
102
RTVSPropertyOp7
 70
     0
102
RTVSPropertyOp8
 70
     0
102
RTVSPropertyOp9
 70
     0
102
RTVSPropertyOp10
 70
     0
102
RTVSPropertyOp11
 70
     0
102
RTVSPropertyOp12
 70
     0
102
RTVSPropertyOp13
 70
     0
102
RTVSPropertyOp14
 70
     2
102
RTVSPropertyOp15
 70
     0
102
RTVSPropertyOp16
 70
     0
102
RTVSPropertyOp17
 70
     0
102
RTVSPropertyOp18
 70
     0
102
RTVSPropertyOp19
 70
     0
102
RTVSPropertyOp20
 70
     0
102
RTVSPropertyOp21
 70
     0
102
RTVSPropertyOp22
 70
     0
102
RTVSPropertyOp23
 70
     0
102
RTVSPropertyOp24
 70
     0
102
RTVSPropertyOp25
 70
     0
102
RTVSPropertyOp26
 70
     0
102
RTVSPropertyOp27
 70
     0
102
RTVSPropertyOp28
 70
     0
102
RTVSPropertyOp29
 70
     0
102
RTVSPropertyOp30
 70
     0
102
RTVSPropertyOp31
 70
     0
102
RTVSPropertyOp32
 70
     0
102
RTVSPropertyOp33
 70
     0
102
RTVSPropertyOp34
 70
     0
102
RTVSPropertyOp35
 70
     0
102
RTVSPropertyOp36
 70
     0
102
RTVSPropertyOp37
 70
     0
102
RTVSPropertyOp38
 70
     0
102
RTVSPropertyOp39
 70
     0
102
RTVSPropertyOp40
 70
     0
102
RTVSPropertyOp41
 70
     0
102
RTVSPropertyOp42
 70
     0
102
RTVSPropertyOp43
 70
     0
102
RTVSPropertyOp44
 70
     0
102
RTVSPropertyOp45
 70
     0
102
RTVSPropertyOp46
 70
     0
102
RTVSPropertyOp47
 70
     0
102
RTVSPropertyOp48
 70
     0
102
RTVSPropertyOp49
 70
     0
102
RTVSPropertyOp50
 70
     0
102
RTVSPropertyOp51
 70
     0
102
RTVSPropertyOp52
 70
     0
102
RTVSPropertyOp53
 70
     0
102
RTVSPropertyOp54
 70
     0
102
RTVSPropertyOp55
 70
     0
102
RTVSPropertyOp56
 70
     0
102
RTVSPropertyOp57
 70
     0
102
RTVSPropertyOp58
 70
     0
102
RTVSPropertyOp59
 70
     0
102
RTVSPropertyOp60
 70
     0
102
RTVSPropertyOp61
 70
     0
102
RTVSPropertyOp62
 70
     0
  0
XRECORD
  5
1BE
102
{ACAD_REACTORS
330
1BD
102
}
330
1BD
100
AcDbXrecord
280
     1
102
RTVSPost2010Prop28
280
     0
102
RTVSPost2010PropOp28
 70
     1
102
RTVSPost2010Prop29
280
     1
102
RTVSPost2010PropOp29
 70
     1
102
RTVSPost2010Prop30
280
     1
102
RTVSPost2010PropOp30
 70
     1
102
RTVSPost2010Prop31
280
     0
102
RTVSPost2010PropOp31
 70
     1
102
RTVSPost2010Prop32
280
     0
102
RTVSPost2010PropOp32
 70
     1
102
RTVSPost2010Prop33
280
     0
102
RTVSPost2010PropOp33
 70
     1
102
RTVSPost2010Prop34
280
     0
102
RTVSPost2010PropOp34
 70
     1
102
RTVSPost2010Prop35
280
     0
102
RTVSPost2010PropOp35
 70
     1
102
RTVSPost2010Prop36
280
     0
102
RTVSPost2010PropOp36
 70
     1
102
RTVSPost2010Prop37
 90
       50
102
RTVSPost2010PropOp37
 70
     1
102
RTVSPost2010Prop38
140
0.0
102
RTVSPost2010PropOp38
 70
     1
102
RTVSPost2010Prop39
140
1.0
102
RTVSPost2010PropOp39
 70
     1
102
RTVSPost2010Prop40
 90
        0
102
RTVSPost2010PropOp40
 70
     1
102
RTVSPost2010Prop41ColorIndex
 90
       18
102
RTVSPost2010Prop41ColorRGB
 90
        0
102
RTVSPost2010PropOp41
 70
     1
102
RTVSPost2010Prop42
 90
       50
102
RTVSPost2010PropOp42
 70
     1
102
RTVSPost2010Prop43
 90
        3
102
RTVSPost2010PropOp43
 70
     1
102
RTVSPost2010Prop44ColorIndex
 90
        5
102
RTVSPost2010Prop44ColorRGB
 90
      255
102
RTVSPost2010PropOp44
 70
     1
102
RTVSPost2010Prop45
280
     0
102
RTVSPost2010PropOp45
 70
     1
102
RTVSPost2010Prop46
 90
       50
102
RTVSPost2010PropOp46
 70
     1
102
RTVSPost2010Prop47
 90
       50
102
RTVSPost2010PropOp47
 70
     1
102
RTVSPost2010Prop48
 90
       50
102
RTVSPost2010PropOp48
 70
     1
102
RTVSPost2010Prop49
280
     0
102
RTVSPost2010PropOp49
 70
     1
102
RTVSPost2010Prop50
 90
       50
102
RTVSPost2010PropOp50
 70
     1
102
RTVSPost2010Prop51ColorIndex
 90
      256
102
RTVSPost2010Prop51ColorRGB
 90
-16777216
102
RTVSPost2010PropOp51
 70
     0
102
RTVSPost2010Prop52
140
1.0
102
RTVSPost2010PropOp52
 70
     0
102
RTVSPost2010Prop53
 90
        2
102
RTVSPost2010PropOp53
 70
     1
102
RTVSPost2010Prop54
  1
strokes_ogs.tif
102
RTVSPost2010PropOp54
 70
     1
102
RTVSPost2010Prop55
280
     0
102
RTVSPost2010PropOp55
 70
     1
102
RTVSPost2010Prop56
140
1.0
102
RTVSPost2010PropOp56
 70
     1
102
RTVSPost2010Prop57
140
1.0
102
RTVSPost2010PropOp57
 70
     1
102
RTVSPropertyOp0
 70
     1
102
RTVSPropertyOp1
 70
     1
102
RTVSPropertyOp2
 70
     1
102
RTVSPropertyOp3
 70
     1
102
RTVSPropertyOp4
 70
     1
102
RTVSPropertyOp5
 70
     1
102
RTVSPropertyOp6
 70
     1
102
RTVSPropertyOp7
 70
     1
102
RTVSPropertyOp8
 70
     1
102
RTVSPropertyOp9
 70
     1
102
RTVSPropertyOp10
 70
     1
102
RTVSPropertyOp11
 70
     1
102
RTVSPropertyOp12
 70
     1
102
RTVSPropertyOp13
 70
     1
102
RTVSPropertyOp14
 70
     1
102
RTVSPropertyOp15
 70
     1
102
RTVSPropertyOp16
 70
     1
102
RTVSPropertyOp17
 70
     1
102
RTVSPropertyOp18
 70
     1
102
RTVSPropertyOp19
 70
     1
102
RTVSPropertyOp20
 70
     1
102
RTVSPropertyOp21
 70
     1
102
RTVSPropertyOp22
 70
     1
102
RTVSPropertyOp23
 70
     1
102
RTVSPropertyOp24
 70
     1
102
RTVSPropertyOp25
 70
     1
102
RTVSPropertyOp26
 70
     1
102
RTVSPropertyOp27
 70
     1
102
RTVSPropertyOp28
 70
     1
102
RTVSPropertyOp29
 70
     1
102
RTVSPropertyOp30
 70
     1
102
RTVSPropertyOp31
 70
     1
102
RTVSPropertyOp32
 70
     1
102
RTVSPropertyOp33
 70
     1
102
RTVSPropertyOp34
 70
     1
102
RTVSPropertyOp35
 70
     1
102
RTVSPropertyOp36
 70
     1
102
RTVSPropertyOp37
 70
     1
102
RTVSPropertyOp38
 70
     1
102
RTVSPropertyOp39
 70
     1
102
RTVSPropertyOp40
 70
     1
102
RTVSPropertyOp41
 70
     1
102
RTVSPropertyOp42
 70
     1
102
RTVSPropertyOp43
 70
     1
102
RTVSPropertyOp44
 70
     1
102
RTVSPropertyOp45
 70
     1
102
RTVSPropertyOp46
 70
     1
102
RTVSPropertyOp47
 70
     1
102
RTVSPropertyOp48
 70
     1
102
RTVSPropertyOp49
 70
     1
102
RTVSPropertyOp50
 70
     1
102
RTVSPropertyOp51
 70
     0
102
RTVSPropertyOp52
 70
     0
102
RTVSPropertyOp53
 70
     1
102
RTVSPropertyOp54
 70
     1
102
RTVSPropertyOp55
 70
     1
102
RTVSPropertyOp56
 70
     1
102
RTVSPropertyOp57
 70
     1
102
RTVSPropertyOp58
 70
     1
102
RTVSPropertyOp59
 70
     1
102
RTVSPropertyOp60
 70
     1
102
RTVSPropertyOp61
 70
     1
102
RTVSPropertyOp62
 70
     1
  0
XRECORD
  5
1D0
102
{ACAD_REACTORS
330
1CF
102
}
330
1CF
100
AcDbXrecord
280
     1
102
RTVSPost2010Prop28
280
     0
102
RTVSPost2010PropOp28
 70
     0
102
RTVSPost2010Prop29
280
     1
102
RTVSPost2010PropOp29
 70
     0
102
RTVSPost2010Prop30
280
     1
102
RTVSPost2010PropOp30
 70
     0
102
RTVSPost2010Prop31
280
     0
102
RTVSPost2010PropOp31
 70
     0
102
RTVSPost2010Prop32
280
     0
102
RTVSPost2010PropOp32
 70
     0
102
RTVSPost2010Prop33
280
     0
102
RTVSPost2010PropOp33
 70
     0
102
RTVSPost2010Prop34
280
     0
102
RTVSPost2010PropOp34
 70
     0
102
RTVSPost2010Prop35
280
     0
102
RTVSPost2010PropOp35
 70
     0
102
RTVSPost2010Prop36
280
     0
102
RTVSPost2010PropOp36
 70
     0
102
RTVSPost2010Prop37
 90
       50
102
RTVSPost2010PropOp37
 70
     0
102
RTVSPost2010Prop38
140
0.0
102
RTVSPost2010PropOp38
 70
     0
102
RTVSPost2010Prop39
140
1.0
102
RTVSPost2010PropOp39
 70
     0
102
RTVSPost2010Prop40
 90
        0
102
RTVSPost2010PropOp40
 70
     0
102
RTVSPost2010Prop41ColorIndex
 90
       18
102
RTVSPost2010Prop41ColorRGB
 90
        0
102
RTVSPost2010PropOp41
 70
     0
102
RTVSPost2010Prop42
 90
       50
102
RTVSPost2010PropOp42
 70
     0
102
RTVSPost2010Prop43
 90
        3
102
RTVSPost2010PropOp43
 70
     0
102
RTVSPost2010Prop44ColorIndex
 90
        5
102
RTVSPost2010Prop44ColorRGB
 90
      255
102
RTVSPost2010PropOp44
 70
     0
102
RTVSPost2010Prop45
280
     0
102
RTVSPost2010PropOp45
 70
     0
102
RTVSPost2010Prop46
 90
       50
102
RTVSPost2010PropOp46
 70
     0
102
RTVSPost2010Prop47
 90
       50
102
RTVSPost2010PropOp47
 70
     0
102
RTVSPost2010Prop48
 90
       50
102
RTVSPost2010PropOp48
 70
     0
102
RTVSPost2010Prop49
280
     0
102
RTVSPost2010PropOp49
 70
     0
102
RTVSPost2010Prop50
 90
       50
102
RTVSPost2010PropOp50
 70
     0
102
RTVSPost2010Prop51ColorIndex
 90
      256
102
RTVSPost2010Prop51ColorRGB
 90
-16777216
102
RTVSPost2010PropOp51
 70
     0
102
RTVSPost2010Prop52
140
1.0
102
RTVSPost2010PropOp52
 70
     0
102
RTVSPost2010Prop53
 90
        2
102
RTVSPost2010PropOp53
 70
     0
102
RTVSPost2010Prop54
  1
strokes_ogs.tif
102
RTVSPost2010PropOp54
 70
     0
102
RTVSPost2010Prop55
280
     0
102
RTVSPost2010PropOp55
 70
     0
102
RTVSPost2010Prop56
140
1.0
102
RTVSPost2010PropOp56
 70
     0
102
RTVSPost2010Prop57
140
1.0
102
RTVSPost2010PropOp57
 70
     0
102
RTVSPropertyOp0
 70
     0
102
RTVSPropertyOp1
 70
     0
102
RTVSPropertyOp2
 70
     0
102
RTVSPropertyOp3
 70
     0
102
RTVSPropertyOp4
 70
     0
102
RTVSPropertyOp5
 70
     0
102
RTVSPropertyOp6
 70
     0
102
RTVSPropertyOp7
 70
     0
102
RTVSPropertyOp8
 70
     0
102
RTVSPropertyOp9
 70
     0
102
RTVSPropertyOp10
 70
     0
102
RTVSPropertyOp11
 70
     0
102
RTVSPropertyOp12
 70
     0
102
RTVSPropertyOp13
 70
     0
102
RTVSPropertyOp14
 70
     2
102
RTVSPropertyOp15
 70
     0
102
RTVSPropertyOp16
 70
     0
102
RTVSPropertyOp17
 70
     0
102
RTVSPropertyOp18
 70
     0
102
RTVSPropertyOp19
 70
     0
102
RTVSPropertyOp20
 70
     0
102
RTVSPropertyOp21
 70
     0
102
RTVSPropertyOp22
 70
     0
102
RTVSPropertyOp23
 70
     0
102
RTVSPropertyOp24
 70
     0
102
RTVSPropertyOp25
 70
     0
102
RTVSPropertyOp26
 70
     0
102
RTVSPropertyOp27
 70
     0
102
RTVSPropertyOp28
 70
     0
102
RTVSPropertyOp29
 70
     0
102
RTVSPropertyOp30
 70
     0
102
RTVSPropertyOp31
 70
     0
102
RTVSPropertyOp32
 70
     0
102
RTVSPropertyOp33
 70
     0
102
RTVSPropertyOp34
 70
     0
102
RTVSPropertyOp35
 70
     0
102
RTVSPropertyOp36
 70
     0
102
RTVSPropertyOp37
 70
     0
102
RTVSPropertyOp38
 70
     0
102
RTVSPropertyOp39
 70
     0
102
RTVSPropertyOp40
 70
     0
102
RTVSPropertyOp41
 70
     0
102
RTVSPropertyOp42
 70
     0
102
RTVSPropertyOp43
 70
     0
102
RTVSPropertyOp44
 70
     0
102
RTVSPropertyOp45
 70
     0
102
RTVSPropertyOp46
 70
     0
102
RTVSPropertyOp47
 70
     0
102
RTVSPropertyOp48
 70
     0
102
RTVSPropertyOp49
 70
     0
102
RTVSPropertyOp50
 70
     0
102
RTVSPropertyOp51
 70
     0
102
RTVSPropertyOp52
 70
     0
102
RTVSPropertyOp53
 70
     0
102
RTVSPropertyOp54
 70
     0
102
RTVSPropertyOp55
 70
     0
102
RTVSPropertyOp56
 70
     0
102
RTVSPropertyOp57
 70
     0
102
RTVSPropertyOp58
 70
     0
102
RTVSPropertyOp59
 70
     0
102
RTVSPropertyOp60
 70
     0
102
RTVSPropertyOp61
 70
     0
102
RTVSPropertyOp62
 70
     0
  0
XRECORD
  5
1B6
102
{ACAD_REACTORS
330
1B5
102
}
330
1B5
100
AcDbXrecord
280
     1
102
RTVSPost2010Prop28
280
     0
102
RTVSPost2010PropOp28
 70
     1
102
RTVSPost2010Prop29
280
     1
102
RTVSPost2010PropOp29
 70
     1
102
RTVSPost2010Prop30
280
     1
102
RTVSPost2010PropOp30
 70
     1
102
RTVSPost2010Prop31
280
     0
102
RTVSPost2010PropOp31
 70
     1
102
RTVSPost2010Prop32
280
     0
102
RTVSPost2010PropOp32
 70
     1
102
RTVSPost2010Prop33
280
     0
102
RTVSPost2010PropOp33
 70
     1
102
RTVSPost2010Prop34
280
     0
102
RTVSPost2010PropOp34
 70
     1
102
RTVSPost2010Prop35
280
     0
102
RTVSPost2010PropOp35
 70
     1
102
RTVSPost2010Prop36
280
     0
102
RTVSPost2010PropOp36
 70
     1
102
RTVSPost2010Prop37
 90
       50
102
RTVSPost2010PropOp37
 70
     1
102
RTVSPost2010Prop38
140
0.0
102
RTVSPost2010PropOp38
 70
     1
102
RTVSPost2010Prop39
140
1.0
102
RTVSPost2010PropOp39
 70
     1
102
RTVSPost2010Prop40
 90
        0
102
RTVSPost2010PropOp40
 70
     1
102
RTVSPost2010Prop41ColorIndex
 90
       18
102
RTVSPost2010Prop41ColorRGB
 90
        0
102
RTVSPost2010PropOp41
 70
     1
102
RTVSPost2010Prop42
 90
       50
102
RTVSPost2010PropOp42
 70
     1
102
RTVSPost2010Prop43
 90
        3
102
RTVSPost2010PropOp43
 70
     1
102
RTVSPost2010Prop44ColorIndex
 90
        5
102
RTVSPost2010Prop44ColorRGB
 90
      255
102
RTVSPost2010PropOp44
 70
     1
102
RTVSPost2010Prop45
280
     0
102
RTVSPost2010PropOp45
 70
     1
102
RTVSPost2010Prop46
 90
       50
102
RTVSPost2010PropOp46
 70
     1
102
RTVSPost2010Prop47
 90
       50
102
RTVSPost2010PropOp47
 70
     1
102
RTVSPost2010Prop48
 90
       50
102
RTVSPost2010PropOp48
 70
     1
102
RTVSPost2010Prop49
280
     0
102
RTVSPost2010PropOp49
 70
     1
102
RTVSPost2010Prop50
 90
       50
102
RTVSPost2010PropOp50
 70
     1
102
RTVSPost2010Prop51ColorIndex
 90
      256
102
RTVSPost2010Prop51ColorRGB
 90
-16777216
102
RTVSPost2010PropOp51
 70
     0
102
RTVSPost2010Prop52
140
1.0
102
RTVSPost2010PropOp52
 70
     0
102
RTVSPost2010Prop53
 90
        2
102
RTVSPost2010PropOp53
 70
     1
102
RTVSPost2010Prop54
  1
strokes_ogs.tif
102
RTVSPost2010PropOp54
 70
     1
102
RTVSPost2010Prop55
280
     0
102
RTVSPost2010PropOp55
 70
     1
102
RTVSPost2010Prop56
140
1.0
102
RTVSPost2010PropOp56
 70
     1
102
RTVSPost2010Prop57
140
1.0
102
RTVSPost2010PropOp57
 70
     1
102
RTVSPropertyOp0
 70
     1
102
RTVSPropertyOp1
 70
     1
102
RTVSPropertyOp2
 70
     1
102
RTVSPropertyOp3
 70
     1
102
RTVSPropertyOp4
 70
     1
102
RTVSPropertyOp5
 70
     1
102
RTVSPropertyOp6
 70
     1
102
RTVSPropertyOp7
 70
     1
102
RTVSPropertyOp8
 70
     1
102
RTVSPropertyOp9
 70
     1
102
RTVSPropertyOp10
 70
     1
102
RTVSPropertyOp11
 70
     1
102
RTVSPropertyOp12
 70
     1
102
RTVSPropertyOp13
 70
     1
102
RTVSPropertyOp14
 70
     1
102
RTVSPropertyOp15
 70
     1
102
RTVSPropertyOp16
 70
     1
102
RTVSPropertyOp17
 70
     1
102
RTVSPropertyOp18
 70
     1
102
RTVSPropertyOp19
 70
     1
102
RTVSPropertyOp20
 70
     1
102
RTVSPropertyOp21
 70
     1
102
RTVSPropertyOp22
 70
     1
102
RTVSPropertyOp23
 70
     1
102
RTVSPropertyOp24
 70
     1
102
RTVSPropertyOp25
 70
     1
102
RTVSPropertyOp26
 70
     1
102
RTVSPropertyOp27
 70
     1
102
RTVSPropertyOp28
 70
     1
102
RTVSPropertyOp29
 70
     1
102
RTVSPropertyOp30
 70
     1
102
RTVSPropertyOp31
 70
     1
102
RTVSPropertyOp32
 70
     1
102
RTVSPropertyOp33
 70
     1
102
RTVSPropertyOp34
 70
     1
102
RTVSPropertyOp35
 70
     1
102
RTVSPropertyOp36
 70
     1
102
RTVSPropertyOp37
 70
     1
102
RTVSPropertyOp38
 70
     1
102
RTVSPropertyOp39
 70
     1
102
RTVSPropertyOp40
 70
     1
102
RTVSPropertyOp41
 70
     1
102
RTVSPropertyOp42
 70
     1
102
RTVSPropertyOp43
 70
     1
102
RTVSPropertyOp44
 70
     1
102
RTVSPropertyOp45
 70
     1
102
RTVSPropertyOp46
 70
     1
102
RTVSPropertyOp47
 70
     1
102
RTVSPropertyOp48
 70
     1
102
RTVSPropertyOp49
 70
     1
102
RTVSPropertyOp50
 70
     1
102
RTVSPropertyOp51
 70
     0
102
RTVSPropertyOp52
 70
     0
102
RTVSPropertyOp53
 70
     1
102
RTVSPropertyOp54
 70
     1
102
RTVSPropertyOp55
 70
     1
102
RTVSPropertyOp56
 70
     1
102
RTVSPropertyOp57
 70
     1
102
RTVSPropertyOp58
 70
     1
102
RTVSPropertyOp59
 70
     1
102
RTVSPropertyOp60
 70
     1
102
RTVSPropertyOp61
 70
     1
102
RTVSPropertyOp62
 70
     1
  0
XRECORD
  5
1CC
102
{ACAD_REACTORS
330
1CB
102
}
330
1CB
100
AcDbXrecord
280
     1
102
RTVSPost2010Prop28
280
     0
102
RTVSPost2010PropOp28
 70
     1
102
RTVSPost2010Prop29
280
     1
102
RTVSPost2010PropOp29
 70
     1
102
RTVSPost2010Prop30
280
     1
102
RTVSPost2010PropOp30
 70
     1
102
RTVSPost2010Prop31
280
     0
102
RTVSPost2010PropOp31
 70
     1
102
RTVSPost2010Prop32
280
     0
102
RTVSPost2010PropOp32
 70
     1
102
RTVSPost2010Prop33
280
     0
102
RTVSPost2010PropOp33
 70
     1
102
RTVSPost2010Prop34
280
     0
102
RTVSPost2010PropOp34
 70
     1
102
RTVSPost2010Prop35
280
     0
102
RTVSPost2010PropOp35
 70
     1
102
RTVSPost2010Prop36
280
     0
102
RTVSPost2010PropOp36
 70
     1
102
RTVSPost2010Prop37
 90
       50
102
RTVSPost2010PropOp37
 70
     1
102
RTVSPost2010Prop38
140
0.0
102
RTVSPost2010PropOp38
 70
     1
102
RTVSPost2010Prop39
140
1.0
102
RTVSPost2010PropOp39
 70
     1
102
RTVSPost2010Prop40
 90
        0
102
RTVSPost2010PropOp40
 70
     1
102
RTVSPost2010Prop41ColorIndex
 90
       18
102
RTVSPost2010Prop41ColorRGB
 90
        0
102
RTVSPost2010PropOp41
 70
     1
102
RTVSPost2010Prop42
 90
       50
102
RTVSPost2010PropOp42
 70
     1
102
RTVSPost2010Prop43
 90
        3
102
RTVSPost2010PropOp43
 70
     1
102
RTVSPost2010Prop44ColorIndex
 90
        5
102
RTVSPost2010Prop44ColorRGB
 90
      255
102
RTVSPost2010PropOp44
 70
     1
102
RTVSPost2010Prop45
280
     0
102
RTVSPost2010PropOp45
 70
     1
102
RTVSPost2010Prop46
 90
       50
102
RTVSPost2010PropOp46
 70
     1
102
RTVSPost2010Prop47
 90
       50
102
RTVSPost2010PropOp47
 70
     1
102
RTVSPost2010Prop48
 90
       50
102
RTVSPost2010PropOp48
 70
     1
102
RTVSPost2010Prop49
280
     0
102
RTVSPost2010PropOp49
 70
     1
102
RTVSPost2010Prop50
 90
       50
102
RTVSPost2010PropOp50
 70
     1
102
RTVSPost2010Prop51ColorIndex
 90
      256
102
RTVSPost2010Prop51ColorRGB
 90
-16777216
102
RTVSPost2010PropOp51
 70
     0
102
RTVSPost2010Prop52
140
1.0
102
RTVSPost2010PropOp52
 70
     0
102
RTVSPost2010Prop53
 90
        2
102
RTVSPost2010PropOp53
 70
     1
102
RTVSPost2010Prop54
  1
strokes_ogs.tif
102
RTVSPost2010PropOp54
 70
     1
102
RTVSPost2010Prop55
280
     0
102
RTVSPost2010PropOp55
 70
     1
102
RTVSPost2010Prop56
140
1.0
102
RTVSPost2010PropOp56
 70
     1
102
RTVSPost2010Prop57
140
1.0
102
RTVSPost2010PropOp57
 70
     1
102
RTVSPropertyOp0
 70
     1
102
RTVSPropertyOp1
 70
     1
102
RTVSPropertyOp2
 70
     1
102
RTVSPropertyOp3
 70
     1
102
RTVSPropertyOp4
 70
     1
102
RTVSPropertyOp5
 70
     1
102
RTVSPropertyOp6
 70
     1
102
RTVSPropertyOp7
 70
     1
102
RTVSPropertyOp8
 70
     1
102
RTVSPropertyOp9
 70
     1
102
RTVSPropertyOp10
 70
     1
102
RTVSPropertyOp11
 70
     1
102
RTVSPropertyOp12
 70
     1
102
RTVSPropertyOp13
 70
     1
102
RTVSPropertyOp14
 70
     1
102
RTVSPropertyOp15
 70
     1
102
RTVSPropertyOp16
 70
     1
102
RTVSPropertyOp17
 70
     1
102
RTVSPropertyOp18
 70
     1
102
RTVSPropertyOp19
 70
     1
102
RTVSPropertyOp20
 70
     1
102
RTVSPropertyOp21
 70
     1
102
RTVSPropertyOp22
 70
     1
102
RTVSPropertyOp23
 70
     1
102
RTVSPropertyOp24
 70
     1
102
RTVSPropertyOp25
 70
     1
102
RTVSPropertyOp26
 70
     1
102
RTVSPropertyOp27
 70
     1
102
RTVSPropertyOp28
 70
     1
102
RTVSPropertyOp29
 70
     1
102
RTVSPropertyOp30
 70
     1
102
RTVSPropertyOp31
 70
     1
102
RTVSPropertyOp32
 70
     1
102
RTVSPropertyOp33
 70
     1
102
RTVSPropertyOp34
 70
     1
102
RTVSPropertyOp35
 70
     1
102
RTVSPropertyOp36
 70
     1
102
RTVSPropertyOp37
 70
     1
102
RTVSPropertyOp38
 70
     1
102
RTVSPropertyOp39
 70
     1
102
RTVSPropertyOp40
 70
     1
102
RTVSPropertyOp41
 70
     1
102
RTVSPropertyOp42
 70
     1
102
RTVSPropertyOp43
 70
     1
102
RTVSPropertyOp44
 70
     1
102
RTVSPropertyOp45
 70
     1
102
RTVSPropertyOp46
 70
     1
102
RTVSPropertyOp47
 70
     1
102
RTVSPropertyOp48
 70
     1
102
RTVSPropertyOp49
 70
     1
102
RTVSPropertyOp50
 70
     1
102
RTVSPropertyOp51
 70
     0
102
RTVSPropertyOp52
 70
     0
102
RTVSPropertyOp53
 70
     1
102
RTVSPropertyOp54
 70
     1
102
RTVSPropertyOp55
 70
     1
102
RTVSPropertyOp56
 70
     1
102
RTVSPropertyOp57
 70
     1
102
RTVSPropertyOp58
 70
     1
102
RTVSPropertyOp59
 70
     1
102
RTVSPropertyOp60
 70
     1
102
RTVSPropertyOp61
 70
     1
102
RTVSPropertyOp62
 70
     1
  0
XRECORD
  5
1CA
102
{ACAD_REACTORS
330
1C9
102
}
330
1C9
100
AcDbXrecord
280
     1
102
RTVSPost2010Prop28
280
     0
102
RTVSPost2010PropOp28
 70
     1
102
RTVSPost2010Prop29
280
     1
102
RTVSPost2010PropOp29
 70
     1
102
RTVSPost2010Prop30
280
     1
102
RTVSPost2010PropOp30
 70
     1
102
RTVSPost2010Prop31
280
     0
102
RTVSPost2010PropOp31
 70
     1
102
RTVSPost2010Prop32
280
     0
102
RTVSPost2010PropOp32
 70
     1
102
RTVSPost2010Prop33
280
     0
102
RTVSPost2010PropOp33
 70
     1
102
RTVSPost2010Prop34
280
     0
102
RTVSPost2010PropOp34
 70
     1
102
RTVSPost2010Prop35
280
     0
102
RTVSPost2010PropOp35
 70
     1
102
RTVSPost2010Prop36
280
     0
102
RTVSPost2010PropOp36
 70
     1
102
RTVSPost2010Prop37
 90
       50
102
RTVSPost2010PropOp37
 70
     1
102
RTVSPost2010Prop38
140
0.0
102
RTVSPost2010PropOp38
 70
     1
102
RTVSPost2010Prop39
140
1.0
102
RTVSPost2010PropOp39
 70
     1
102
RTVSPost2010Prop40
 90
        0
102
RTVSPost2010PropOp40
 70
     1
102
RTVSPost2010Prop41ColorIndex
 90
       18
102
RTVSPost2010Prop41ColorRGB
 90
        0
102
RTVSPost2010PropOp41
 70
     1
102
RTVSPost2010Prop42
 90
       50
102
RTVSPost2010PropOp42
 70
     1
102
RTVSPost2010Prop43
 90
        3
102
RTVSPost2010PropOp43
 70
     1
102
RTVSPost2010Prop44ColorIndex
 90
        5
102
RTVSPost2010Prop44ColorRGB
 90
      255
102
RTVSPost2010PropOp44
 70
     1
102
RTVSPost2010Prop45
280
     0
102
RTVSPost2010PropOp45
 70
     1
102
RTVSPost2010Prop46
 90
       50
102
RTVSPost2010PropOp46
 70
     1
102
RTVSPost2010Prop47
 90
       50
102
RTVSPost2010PropOp47
 70
     1
102
RTVSPost2010Prop48
 90
       50
102
RTVSPost2010PropOp48
 70
     1
102
RTVSPost2010Prop49
280
     0
102
RTVSPost2010PropOp49
 70
     1
102
RTVSPost2010Prop50
 90
       50
102
RTVSPost2010PropOp50
 70
     1
102
RTVSPost2010Prop51ColorIndex
 90
      256
102
RTVSPost2010Prop51ColorRGB
 90
-16777216
102
RTVSPost2010PropOp51
 70
     0
102
RTVSPost2010Prop52
140
1.0
102
RTVSPost2010PropOp52
 70
     0
102
RTVSPost2010Prop53
 90
        2
102
RTVSPost2010PropOp53
 70
     1
102
RTVSPost2010Prop54
  1
strokes_ogs.tif
102
RTVSPost2010PropOp54
 70
     1
102
RTVSPost2010Prop55
280
     0
102
RTVSPost2010PropOp55
 70
     1
102
RTVSPost2010Prop56
140
1.0
102
RTVSPost2010PropOp56
 70
     1
102
RTVSPost2010Prop57
140
1.0
102
RTVSPost2010PropOp57
 70
     1
102
RTVSPropertyOp0
 70
     1
102
RTVSPropertyOp1
 70
     1
102
RTVSPropertyOp2
 70
     1
102
RTVSPropertyOp3
 70
     1
102
RTVSPropertyOp4
 70
     1
102
RTVSPropertyOp5
 70
     1
102
RTVSPropertyOp6
 70
     1
102
RTVSPropertyOp7
 70
     1
102
RTVSPropertyOp8
 70
     1
102
RTVSPropertyOp9
 70
     1
102
RTVSPropertyOp10
 70
     1
102
RTVSPropertyOp11
 70
     1
102
RTVSPropertyOp12
 70
     1
102
RTVSPropertyOp13
 70
     1
102
RTVSPropertyOp14
 70
     1
102
RTVSPropertyOp15
 70
     1
102
RTVSPropertyOp16
 70
     1
102
RTVSPropertyOp17
 70
     1
102
RTVSPropertyOp18
 70
     1
102
RTVSPropertyOp19
 70
     1
102
RTVSPropertyOp20
 70
     1
102
RTVSPropertyOp21
 70
     1
102
RTVSPropertyOp22
 70
     1
102
RTVSPropertyOp23
 70
     1
102
RTVSPropertyOp24
 70
     1
102
RTVSPropertyOp25
 70
     1
102
RTVSPropertyOp26
 70
     1
102
RTVSPropertyOp27
 70
     1
102
RTVSPropertyOp28
 70
     1
102
RTVSPropertyOp29
 70
     1
102
RTVSPropertyOp30
 70
     1
102
RTVSPropertyOp31
 70
     1
102
RTVSPropertyOp32
 70
     1
102
RTVSPropertyOp33
 70
     1
102
RTVSPropertyOp34
 70
     1
102
RTVSPropertyOp35
 70
     1
102
RTVSPropertyOp36
 70
     1
102
RTVSPropertyOp37
 70
     1
102
RTVSPropertyOp38
 70
     1
102
RTVSPropertyOp39
 70
     1
102
RTVSPropertyOp40
 70
     1
102
RTVSPropertyOp41
 70
     1
102
RTVSPropertyOp42
 70
     1
102
RTVSPropertyOp43
 70
     1
102
RTVSPropertyOp44
 70
     1
102
RTVSPropertyOp45
 70
     1
102
RTVSPropertyOp46
 70
     1
102
RTVSPropertyOp47
 70
     1
102
RTVSPropertyOp48
 70
     1
102
RTVSPropertyOp49
 70
     1
102
RTVSPropertyOp50
 70
     1
102
RTVSPropertyOp51
 70
     0
102
RTVSPropertyOp52
 70
     0
102
RTVSPropertyOp53
 70
     1
102
RTVSPropertyOp54
 70
     1
102
RTVSPropertyOp55
 70
     1
102
RTVSPropertyOp56
 70
     1
102
RTVSPropertyOp57
 70
     1
102
RTVSPropertyOp58
 70
     1
102
RTVSPropertyOp59
 70
     1
102
RTVSPropertyOp60
 70
     1
102
RTVSPropertyOp61
 70
     1
102
RTVSPropertyOp62
 70
     1
  0
XRECORD
  5
1C4
102
{ACAD_REACTORS
330
1C3
102
}
330
1C3
100
AcDbXrecord
280
     1
102
RTVSPost2010Prop28
280
     0
102
RTVSPost2010PropOp28
 70
     1
102
RTVSPost2010Prop29
280
     1
102
RTVSPost2010PropOp29
 70
     1
102
RTVSPost2010Prop30
280
     1
102
RTVSPost2010PropOp30
 70
     1
102
RTVSPost2010Prop31
280
     0
102
RTVSPost2010PropOp31
 70
     1
102
RTVSPost2010Prop32
280
     0
102
RTVSPost2010PropOp32
 70
     1
102
RTVSPost2010Prop33
280
     0
102
RTVSPost2010PropOp33
 70
     1
102
RTVSPost2010Prop34
280
     0
102
RTVSPost2010PropOp34
 70
     1
102
RTVSPost2010Prop35
280
     0
102
RTVSPost2010PropOp35
 70
     1
102
RTVSPost2010Prop36
280
     0
102
RTVSPost2010PropOp36
 70
     1
102
RTVSPost2010Prop37
 90
       50
102
RTVSPost2010PropOp37
 70
     1
102
RTVSPost2010Prop38
140
0.0
102
RTVSPost2010PropOp38
 70
     1
102
RTVSPost2010Prop39
140
1.0
102
RTVSPost2010PropOp39
 70
     1
102
RTVSPost2010Prop40
 90
        0
102
RTVSPost2010PropOp40
 70
     1
102
RTVSPost2010Prop41ColorIndex
 90
       18
102
RTVSPost2010Prop41ColorRGB
 90
        0
102
RTVSPost2010PropOp41
 70
     1
102
RTVSPost2010Prop42
 90
       50
102
RTVSPost2010PropOp42
 70
     1
102
RTVSPost2010Prop43
 90
        3
102
RTVSPost2010PropOp43
 70
     1
102
RTVSPost2010Prop44ColorIndex
 90
        5
102
RTVSPost2010Prop44ColorRGB
 90
      255
102
RTVSPost2010PropOp44
 70
     1
102
RTVSPost2010Prop45
280
     0
102
RTVSPost2010PropOp45
 70
     1
102
RTVSPost2010Prop46
 90
       50
102
RTVSPost2010PropOp46
 70
     1
102
RTVSPost2010Prop47
 90
       50
102
RTVSPost2010PropOp47
 70
     1
102
RTVSPost2010Prop48
 90
       50
102
RTVSPost2010PropOp48
 70
     1
102
RTVSPost2010Prop49
280
     0
102
RTVSPost2010PropOp49
 70
     1
102
RTVSPost2010Prop50
 90
       50
102
RTVSPost2010PropOp50
 70
     1
102
RTVSPost2010Prop51ColorIndex
 90
      256
102
RTVSPost2010Prop51ColorRGB
 90
-16777216
102
RTVSPost2010PropOp51
 70
     0
102
RTVSPost2010Prop52
140
1.0
102
RTVSPost2010PropOp52
 70
     0
102
RTVSPost2010Prop53
 90
        2
102
RTVSPost2010PropOp53
 70
     1
102
RTVSPost2010Prop54
  1
strokes_ogs.tif
102
RTVSPost2010PropOp54
 70
     1
102
RTVSPost2010Prop55
280
     0
102
RTVSPost2010PropOp55
 70
     1
102
RTVSPost2010Prop56
140
1.0
102
RTVSPost2010PropOp56
 70
     1
102
RTVSPost2010Prop57
140
1.0
102
RTVSPost2010PropOp57
 70
     1
102
RTVSPropertyOp0
 70
     1
102
RTVSPropertyOp1
 70
     1
102
RTVSPropertyOp2
 70
     1
102
RTVSPropertyOp3
 70
     1
102
RTVSPropertyOp4
 70
     1
102
RTVSPropertyOp5
 70
     1
102
RTVSPropertyOp6
 70
     1
102
RTVSPropertyOp7
 70
     1
102
RTVSPropertyOp8
 70
     1
102
RTVSPropertyOp9
 70
     1
102
RTVSPropertyOp10
 70
     1
102
RTVSPropertyOp11
 70
     1
102
RTVSPropertyOp12
 70
     1
102
RTVSPropertyOp13
 70
     1
102
RTVSPropertyOp14
 70
     1
102
RTVSPropertyOp15
 70
     1
102
RTVSPropertyOp16
 70
     1
102
RTVSPropertyOp17
 70
     1
102
RTVSPropertyOp18
 70
     1
102
RTVSPropertyOp19
 70
     1
102
RTVSPropertyOp20
 70
     1
102
RTVSPropertyOp21
 70
     1
102
RTVSPropertyOp22
 70
     1
102
RTVSPropertyOp23
 70
     1
102
RTVSPropertyOp24
 70
     1
102
RTVSPropertyOp25
 70
     1
102
RTVSPropertyOp26
 70
     1
102
RTVSPropertyOp27
 70
     1
102
RTVSPropertyOp28
 70
     1
102
RTVSPropertyOp29
 70
     1
102
RTVSPropertyOp30
 70
     1
102
RTVSPropertyOp31
 70
     1
102
RTVSPropertyOp32
 70
     1
102
RTVSPropertyOp33
 70
     1
102
RTVSPropertyOp34
 70
     1
102
RTVSPropertyOp35
 70
     1
102
RTVSPropertyOp36
 70
     1
102
RTVSPropertyOp37
 70
     1
102
RTVSPropertyOp38
 70
     1
102
RTVSPropertyOp39
 70
     1
102
RTVSPropertyOp40
 70
     1
102
RTVSPropertyOp41
 70
     1
102
RTVSPropertyOp42
 70
     1
102
RTVSPropertyOp43
 70
     1
102
RTVSPropertyOp44
 70
     1
102
RTVSPropertyOp45
 70
     1
102
RTVSPropertyOp46
 70
     1
102
RTVSPropertyOp47
 70
     1
102
RTVSPropertyOp48
 70
     1
102
RTVSPropertyOp49
 70
     1
102
RTVSPropertyOp50
 70
     1
102
RTVSPropertyOp51
 70
     0
102
RTVSPropertyOp52
 70
     0
102
RTVSPropertyOp53
 70
     1
102
RTVSPropertyOp54
 70
     1
102
RTVSPropertyOp55
 70
     1
102
RTVSPropertyOp56
 70
     1
102
RTVSPropertyOp57
 70
     1
102
RTVSPropertyOp58
 70
     1
102
RTVSPropertyOp59
 70
     1
102
RTVSPropertyOp60
 70
     1
102
RTVSPropertyOp61
 70
     1
102
RTVSPropertyOp62
 70
     1
  0
XRECORD
  5
1C6
102
{ACAD_REACTORS
330
1C5
102
}
330
1C5
100
AcDbXrecord
280
     1
102
RTVSPost2010Prop28
280
     0
102
RTVSPost2010PropOp28
 70
     1
102
RTVSPost2010Prop29
280
     1
102
RTVSPost2010PropOp29
 70
     1
102
RTVSPost2010Prop30
280
     1
102
RTVSPost2010PropOp30
 70
     1
102
RTVSPost2010Prop31
280
     0
102
RTVSPost2010PropOp31
 70
     1
102
RTVSPost2010Prop32
280
     0
102
RTVSPost2010PropOp32
 70
     1
102
RTVSPost2010Prop33
280
     0
102
RTVSPost2010PropOp33
 70
     1
102
RTVSPost2010Prop34
280
     0
102
RTVSPost2010PropOp34
 70
     1
102
RTVSPost2010Prop35
280
     0
102
RTVSPost2010PropOp35
 70
     1
102
RTVSPost2010Prop36
280
     0
102
RTVSPost2010PropOp36
 70
     1
102
RTVSPost2010Prop37
 90
       50
102
RTVSPost2010PropOp37
 70
     1
102
RTVSPost2010Prop38
140
0.0
102
RTVSPost2010PropOp38
 70
     1
102
RTVSPost2010Prop39
140
1.0
102
RTVSPost2010PropOp39
 70
     1
102
RTVSPost2010Prop40
 90
        0
102
RTVSPost2010PropOp40
 70
     1
102
RTVSPost2010Prop41ColorIndex
 90
       18
102
RTVSPost2010Prop41ColorRGB
 90
        0
102
RTVSPost2010PropOp41
 70
     1
102
RTVSPost2010Prop42
 90
       50
102
RTVSPost2010PropOp42
 70
     1
102
RTVSPost2010Prop43
 90
        3
102
RTVSPost2010PropOp43
 70
     1
102
RTVSPost2010Prop44ColorIndex
 90
        5
102
RTVSPost2010Prop44ColorRGB
 90
      255
102
RTVSPost2010PropOp44
 70
     1
102
RTVSPost2010Prop45
280
     0
102
RTVSPost2010PropOp45
 70
     1
102
RTVSPost2010Prop46
 90
       50
102
RTVSPost2010PropOp46
 70
     1
102
RTVSPost2010Prop47
 90
       50
102
RTVSPost2010PropOp47
 70
     1
102
RTVSPost2010Prop48
 90
       50
102
RTVSPost2010PropOp48
 70
     1
102
RTVSPost2010Prop49
280
     0
102
RTVSPost2010PropOp49
 70
     1
102
RTVSPost2010Prop50
 90
       50
102
RTVSPost2010PropOp50
 70
     1
102
RTVSPost2010Prop51ColorIndex
 90
      256
102
RTVSPost2010Prop51ColorRGB
 90
-16777216
102
RTVSPost2010PropOp51
 70
     0
102
RTVSPost2010Prop52
140
1.0
102
RTVSPost2010PropOp52
 70
     0
102
RTVSPost2010Prop53
 90
        2
102
RTVSPost2010PropOp53
 70
     1
102
RTVSPost2010Prop54
  1
strokes_ogs.tif
102
RTVSPost2010PropOp54
 70
     1
102
RTVSPost2010Prop55
280
     0
102
RTVSPost2010PropOp55
 70
     1
102
RTVSPost2010Prop56
140
1.0
102
RTVSPost2010PropOp56
 70
     1
102
RTVSPost2010Prop57
140
1.0
102
RTVSPost2010PropOp57
 70
     1
102
RTVSPropertyOp0
 70
     1
102
RTVSPropertyOp1
 70
     1
102
RTVSPropertyOp2
 70
     1
102
RTVSPropertyOp3
 70
     1
102
RTVSPropertyOp4
 70
     1
102
RTVSPropertyOp5
 70
     1
102
RTVSPropertyOp6
 70
     1
102
RTVSPropertyOp7
 70
     1
102
RTVSPropertyOp8
 70
     1
102
RTVSPropertyOp9
 70
     1
102
RTVSPropertyOp10
 70
     1
102
RTVSPropertyOp11
 70
     1
102
RTVSPropertyOp12
 70
     1
102
RTVSPropertyOp13
 70
     1
102
RTVSPropertyOp14
 70
     1
102
RTVSPropertyOp15
 70
     1
102
RTVSPropertyOp16
 70
     1
102
RTVSPropertyOp17
 70
     1
102
RTVSPropertyOp18
 70
     1
102
RTVSPropertyOp19
 70
     1
102
RTVSPropertyOp20
 70
     1
102
RTVSPropertyOp21
 70
     1
102
RTVSPropertyOp22
 70
     1
102
RTVSPropertyOp23
 70
     1
102
RTVSPropertyOp24
 70
     1
102
RTVSPropertyOp25
 70
     1
102
RTVSPropertyOp26
 70
     1
102
RTVSPropertyOp27
 70
     1
102
RTVSPropertyOp28
 70
     1
102
RTVSPropertyOp29
 70
     1
102
RTVSPropertyOp30
 70
     1
102
RTVSPropertyOp31
 70
     1
102
RTVSPropertyOp32
 70
     1
102
RTVSPropertyOp33
 70
     1
102
RTVSPropertyOp34
 70
     1
102
RTVSPropertyOp35
 70
     1
102
RTVSPropertyOp36
 70
     1
102
RTVSPropertyOp37
 70
     1
102
RTVSPropertyOp38
 70
     1
102
RTVSPropertyOp39
 70
     1
102
RTVSPropertyOp40
 70
     1
102
RTVSPropertyOp41
 70
     1
102
RTVSPropertyOp42
 70
     1
102
RTVSPropertyOp43
 70
     1
102
RTVSPropertyOp44
 70
     1
102
RTVSPropertyOp45
 70
     1
102
RTVSPropertyOp46
 70
     1
102
RTVSPropertyOp47
 70
     1
102
RTVSPropertyOp48
 70
     1
102
RTVSPropertyOp49
 70
     1
102
RTVSPropertyOp50
 70
     1
102
RTVSPropertyOp51
 70
     0
102
RTVSPropertyOp52
 70
     0
102
RTVSPropertyOp53
 70
     1
102
RTVSPropertyOp54
 70
     1
102
RTVSPropertyOp55
 70
     1
102
RTVSPropertyOp56
 70
     1
102
RTVSPropertyOp57
 70
     1
102
RTVSPropertyOp58
 70
     1
102
RTVSPropertyOp59
 70
     1
102
RTVSPropertyOp60
 70
     1
102
RTVSPropertyOp61
 70
     1
102
RTVSPropertyOp62
 70
     1
  0
XRECORD
  5
1BC
102
{ACAD_REACTORS
330
1BB
102
}
330
1BB
100
AcDbXrecord
280
     1
102
RTVSPost2010Prop28
280
     0
102
RTVSPost2010PropOp28
 70
     1
102
RTVSPost2010Prop29
280
     1
102
RTVSPost2010PropOp29
 70
     1
102
RTVSPost2010Prop30
280
     1
102
RTVSPost2010PropOp30
 70
     1
102
RTVSPost2010Prop31
280
     0
102
RTVSPost2010PropOp31
 70
     1
102
RTVSPost2010Prop32
280
     0
102
RTVSPost2010PropOp32
 70
     1
102
RTVSPost2010Prop33
280
     0
102
RTVSPost2010PropOp33
 70
     1
102
RTVSPost2010Prop34
280
     0
102
RTVSPost2010PropOp34
 70
     1
102
RTVSPost2010Prop35
280
     0
102
RTVSPost2010PropOp35
 70
     1
102
RTVSPost2010Prop36
280
     0
102
RTVSPost2010PropOp36
 70
     1
102
RTVSPost2010Prop37
 90
       50
102
RTVSPost2010PropOp37
 70
     1
102
RTVSPost2010Prop38
140
0.0
102
RTVSPost2010PropOp38
 70
     1
102
RTVSPost2010Prop39
140
1.0
102
RTVSPost2010PropOp39
 70
     1
102
RTVSPost2010Prop40
 90
        0
102
RTVSPost2010PropOp40
 70
     1
102
RTVSPost2010Prop41ColorIndex
 90
       18
102
RTVSPost2010Prop41ColorRGB
 90
        0
102
RTVSPost2010PropOp41
 70
     1
102
RTVSPost2010Prop42
 90
       50
102
RTVSPost2010PropOp42
 70
     1
102
RTVSPost2010Prop43
 90
        3
102
RTVSPost2010PropOp43
 70
     1
102
RTVSPost2010Prop44ColorIndex
 90
        5
102
RTVSPost2010Prop44ColorRGB
 90
      255
102
RTVSPost2010PropOp44
 70
     1
102
RTVSPost2010Prop45
280
     0
102
RTVSPost2010PropOp45
 70
     1
102
RTVSPost2010Prop46
 90
       50
102
RTVSPost2010PropOp46
 70
     1
102
RTVSPost2010Prop47
 90
       50
102
RTVSPost2010PropOp47
 70
     1
102
RTVSPost2010Prop48
 90
       50
102
RTVSPost2010PropOp48
 70
     1
102
RTVSPost2010Prop49
280
     0
102
RTVSPost2010PropOp49
 70
     1
102
RTVSPost2010Prop50
 90
       50
102
RTVSPost2010PropOp50
 70
     1
102
RTVSPost2010Prop51ColorIndex
 90
      256
102
RTVSPost2010Prop51ColorRGB
 90
-16777216
102
RTVSPost2010PropOp51
 70
     0
102
RTVSPost2010Prop52
140
1.0
102
RTVSPost2010PropOp52
 70
     0
102
RTVSPost2010Prop53
 90
        2
102
RTVSPost2010PropOp53
 70
     1
102
RTVSPost2010Prop54
  1
strokes_ogs.tif
102
RTVSPost2010PropOp54
 70
     1
102
RTVSPost2010Prop55
280
     0
102
RTVSPost2010PropOp55
 70
     1
102
RTVSPost2010Prop56
140
1.0
102
RTVSPost2010PropOp56
 70
     1
102
RTVSPost2010Prop57
140
1.0
102
RTVSPost2010PropOp57
 70
     1
102
RTVSPropertyOp0
 70
     1
102
RTVSPropertyOp1
 70
     1
102
RTVSPropertyOp2
 70
     1
102
RTVSPropertyOp3
 70
     1
102
RTVSPropertyOp4
 70
     1
102
RTVSPropertyOp5
 70
     1
102
RTVSPropertyOp6
 70
     1
102
RTVSPropertyOp7
 70
     1
102
RTVSPropertyOp8
 70
     1
102
RTVSPropertyOp9
 70
     1
102
RTVSPropertyOp10
 70
     1
102
RTVSPropertyOp11
 70
     1
102
RTVSPropertyOp12
 70
     1
102
RTVSPropertyOp13
 70
     1
102
RTVSPropertyOp14
 70
     1
102
RTVSPropertyOp15
 70
     1
102
RTVSPropertyOp16
 70
     1
102
RTVSPropertyOp17
 70
     1
102
RTVSPropertyOp18
 70
     1
102
RTVSPropertyOp19
 70
     1
102
RTVSPropertyOp20
 70
     1
102
RTVSPropertyOp21
 70
     1
102
RTVSPropertyOp22
 70
     1
102
RTVSPropertyOp23
 70
     1
102
RTVSPropertyOp24
 70
     1
102
RTVSPropertyOp25
 70
     1
102
RTVSPropertyOp26
 70
     1
102
RTVSPropertyOp27
 70
     1
102
RTVSPropertyOp28
 70
     1
102
RTVSPropertyOp29
 70
     1
102
RTVSPropertyOp30
 70
     1
102
RTVSPropertyOp31
 70
     1
102
RTVSPropertyOp32
 70
     1
102
RTVSPropertyOp33
 70
     1
102
RTVSPropertyOp34
 70
     1
102
RTVSPropertyOp35
 70
     1
102
RTVSPropertyOp36
 70
     1
102
RTVSPropertyOp37
 70
     1
102
RTVSPropertyOp38
 70
     1
102
RTVSPropertyOp39
 70
     1
102
RTVSPropertyOp40
 70
     1
102
RTVSPropertyOp41
 70
     1
102
RTVSPropertyOp42
 70
     1
102
RTVSPropertyOp43
 70
     1
102
RTVSPropertyOp44
 70
     1
102
RTVSPropertyOp45
 70
     1
102
RTVSPropertyOp46
 70
     1
102
RTVSPropertyOp47
 70
     1
102
RTVSPropertyOp48
 70
     1
102
RTVSPropertyOp49
 70
     1
102
RTVSPropertyOp50
 70
     1
102
RTVSPropertyOp51
 70
     0
102
RTVSPropertyOp52
 70
     0
102
RTVSPropertyOp53
 70
     1
102
RTVSPropertyOp54
 70
     1
102
RTVSPropertyOp55
 70
     1
102
RTVSPropertyOp56
 70
     1
102
RTVSPropertyOp57
 70
     1
102
RTVSPropertyOp58
 70
     1
102
RTVSPropertyOp59
 70
     1
102
RTVSPropertyOp60
 70
     1
102
RTVSPropertyOp61
 70
     1
102
RTVSPropertyOp62
 70
     1
  0
XRECORD
  5
1B0
102
{ACAD_REACTORS
330
1AF
102
}
330
1AF
100
AcDbXrecord
280
     1
102
RTVSPost2010Prop28
280
     0
102
RTVSPost2010PropOp28
 70
     1
102
RTVSPost2010Prop29
280
     1
102
RTVSPost2010PropOp29
 70
     1
102
RTVSPost2010Prop30
280
     1
102
RTVSPost2010PropOp30
 70
     1
102
RTVSPost2010Prop31
280
     0
102
RTVSPost2010PropOp31
 70
     1
102
RTVSPost2010Prop32
280
     0
102
RTVSPost2010PropOp32
 70
     1
102
RTVSPost2010Prop33
280
     0
102
RTVSPost2010PropOp33
 70
     1
102
RTVSPost2010Prop34
280
     0
102
RTVSPost2010PropOp34
 70
     1
102
RTVSPost2010Prop35
280
     0
102
RTVSPost2010PropOp35
 70
     1
102
RTVSPost2010Prop36
280
     0
102
RTVSPost2010PropOp36
 70
     1
102
RTVSPost2010Prop37
 90
       50
102
RTVSPost2010PropOp37
 70
     1
102
RTVSPost2010Prop38
140
0.0
102
RTVSPost2010PropOp38
 70
     1
102
RTVSPost2010Prop39
140
1.0
102
RTVSPost2010PropOp39
 70
     1
102
RTVSPost2010Prop40
 90
        0
102
RTVSPost2010PropOp40
 70
     1
102
RTVSPost2010Prop41ColorIndex
 90
       18
102
RTVSPost2010Prop41ColorRGB
 90
        0
102
RTVSPost2010PropOp41
 70
     1
102
RTVSPost2010Prop42
 90
       50
102
RTVSPost2010PropOp42
 70
     1
102
RTVSPost2010Prop43
 90
        3
102
RTVSPost2010PropOp43
 70
     1
102
RTVSPost2010Prop44ColorIndex
 90
        5
102
RTVSPost2010Prop44ColorRGB
 90
      255
102
RTVSPost2010PropOp44
 70
     1
102
RTVSPost2010Prop45
280
     0
102
RTVSPost2010PropOp45
 70
     1
102
RTVSPost2010Prop46
 90
       50
102
RTVSPost2010PropOp46
 70
     1
102
RTVSPost2010Prop47
 90
       50
102
RTVSPost2010PropOp47
 70
     1
102
RTVSPost2010Prop48
 90
       50
102
RTVSPost2010PropOp48
 70
     1
102
RTVSPost2010Prop49
280
     0
102
RTVSPost2010PropOp49
 70
     1
102
RTVSPost2010Prop50
 90
       50
102
RTVSPost2010PropOp50
 70
     1
102
RTVSPost2010Prop51ColorIndex
 90
      256
102
RTVSPost2010Prop51ColorRGB
 90
-16777216
102
RTVSPost2010PropOp51
 70
     0
102
RTVSPost2010Prop52
140
1.0
102
RTVSPost2010PropOp52
 70
     0
102
RTVSPost2010Prop53
 90
        2
102
RTVSPost2010PropOp53
 70
     1
102
RTVSPost2010Prop54
  1
strokes_ogs.tif
102
RTVSPost2010PropOp54
 70
     1
102
RTVSPost2010Prop55
280
     0
102
RTVSPost2010PropOp55
 70
     1
102
RTVSPost2010Prop56
140
1.0
102
RTVSPost2010PropOp56
 70
     1
102
RTVSPost2010Prop57
140
1.0
102
RTVSPost2010PropOp57
 70
     1
102
RTVSPropertyOp0
 70
     1
102
RTVSPropertyOp1
 70
     1
102
RTVSPropertyOp2
 70
     1
102
RTVSPropertyOp3
 70
     1
102
RTVSPropertyOp4
 70
     1
102
RTVSPropertyOp5
 70
     1
102
RTVSPropertyOp6
 70
     1
102
RTVSPropertyOp7
 70
     1
102
RTVSPropertyOp8
 70
     1
102
RTVSPropertyOp9
 70
     1
102
RTVSPropertyOp10
 70
     1
102
RTVSPropertyOp11
 70
     1
102
RTVSPropertyOp12
 70
     1
102
RTVSPropertyOp13
 70
     1
102
RTVSPropertyOp14
 70
     1
102
RTVSPropertyOp15
 70
     1
102
RTVSPropertyOp16
 70
     1
102
RTVSPropertyOp17
 70
     1
102
RTVSPropertyOp18
 70
     1
102
RTVSPropertyOp19
 70
     1
102
RTVSPropertyOp20
 70
     1
102
RTVSPropertyOp21
 70
     1
102
RTVSPropertyOp22
 70
     1
102
RTVSPropertyOp23
 70
     1
102
RTVSPropertyOp24
 70
     1
102
RTVSPropertyOp25
 70
     1
102
RTVSPropertyOp26
 70
     1
102
RTVSPropertyOp27
 70
     1
102
RTVSPropertyOp28
 70
     1
102
RTVSPropertyOp29
 70
     1
102
RTVSPropertyOp30
 70
     1
102
RTVSPropertyOp31
 70
     1
102
RTVSPropertyOp32
 70
     1
102
RTVSPropertyOp33
 70
     1
102
RTVSPropertyOp34
 70
     1
102
RTVSPropertyOp35
 70
     1
102
RTVSPropertyOp36
 70
     1
102
RTVSPropertyOp37
 70
     1
102
RTVSPropertyOp38
 70
     1
102
RTVSPropertyOp39
 70
     1
102
RTVSPropertyOp40
 70
     1
102
RTVSPropertyOp41
 70
     1
102
RTVSPropertyOp42
 70
     1
102
RTVSPropertyOp43
 70
     1
102
RTVSPropertyOp44
 70
     1
102
RTVSPropertyOp45
 70
     1
102
RTVSPropertyOp46
 70
     1
102
RTVSPropertyOp47
 70
     1
102
RTVSPropertyOp48
 70
     1
102
RTVSPropertyOp49
 70
     1
102
RTVSPropertyOp50
 70
     1
102
RTVSPropertyOp51
 70
     0
102
RTVSPropertyOp52
 70
     0
102
RTVSPropertyOp53
 70
     1
102
RTVSPropertyOp54
 70
     1
102
RTVSPropertyOp55
 70
     1
102
RTVSPropertyOp56
 70
     1
102
RTVSPropertyOp57
 70
     1
102
RTVSPropertyOp58
 70
     1
102
RTVSPropertyOp59
 70
     1
102
RTVSPropertyOp60
 70
     1
102
RTVSPropertyOp61
 70
     1
102
RTVSPropertyOp62
 70
     1
  0
XRECORD
  5
1C8
102
{ACAD_REACTORS
330
1C7
102
}
330
1C7
100
AcDbXrecord
280
     1
102
RTVSPost2010Prop28
280
     0
102
RTVSPost2010PropOp28
 70
     1
102
RTVSPost2010Prop29
280
     1
102
RTVSPost2010PropOp29
 70
     1
102
RTVSPost2010Prop30
280
     1
102
RTVSPost2010PropOp30
 70
     1
102
RTVSPost2010Prop31
280
     0
102
RTVSPost2010PropOp31
 70
     1
102
RTVSPost2010Prop32
280
     0
102
RTVSPost2010PropOp32
 70
     1
102
RTVSPost2010Prop33
280
     0
102
RTVSPost2010PropOp33
 70
     1
102
RTVSPost2010Prop34
280
     0
102
RTVSPost2010PropOp34
 70
     1
102
RTVSPost2010Prop35
280
     0
102
RTVSPost2010PropOp35
 70
     1
102
RTVSPost2010Prop36
280
     0
102
RTVSPost2010PropOp36
 70
     1
102
RTVSPost2010Prop37
 90
       50
102
RTVSPost2010PropOp37
 70
     1
102
RTVSPost2010Prop38
140
0.0
102
RTVSPost2010PropOp38
 70
     1
102
RTVSPost2010Prop39
140
1.0
102
RTVSPost2010PropOp39
 70
     1
102
RTVSPost2010Prop40
 90
        0
102
RTVSPost2010PropOp40
 70
     1
102
RTVSPost2010Prop41ColorIndex
 90
       18
102
RTVSPost2010Prop41ColorRGB
 90
        0
102
RTVSPost2010PropOp41
 70
     1
102
RTVSPost2010Prop42
 90
       50
102
RTVSPost2010PropOp42
 70
     1
102
RTVSPost2010Prop43
 90
        3
102
RTVSPost2010PropOp43
 70
     1
102
RTVSPost2010Prop44ColorIndex
 90
        5
102
RTVSPost2010Prop44ColorRGB
 90
      255
102
RTVSPost2010PropOp44
 70
     1
102
RTVSPost2010Prop45
280
     0
102
RTVSPost2010PropOp45
 70
     1
102
RTVSPost2010Prop46
 90
       50
102
RTVSPost2010PropOp46
 70
     1
102
RTVSPost2010Prop47
 90
       50
102
RTVSPost2010PropOp47
 70
     1
102
RTVSPost2010Prop48
 90
       50
102
RTVSPost2010PropOp48
 70
     1
102
RTVSPost2010Prop49
280
     0
102
RTVSPost2010PropOp49
 70
     1
102
RTVSPost2010Prop50
 90
       50
102
RTVSPost2010PropOp50
 70
     1
102
RTVSPost2010Prop51ColorIndex
 90
      256
102
RTVSPost2010Prop51ColorRGB
 90
-16777216
102
RTVSPost2010PropOp51
 70
     0
102
RTVSPost2010Prop52
140
1.0
102
RTVSPost2010PropOp52
 70
     0
102
RTVSPost2010Prop53
 90
        2
102
RTVSPost2010PropOp53
 70
     1
102
RTVSPost2010Prop54
  1
strokes_ogs.tif
102
RTVSPost2010PropOp54
 70
     1
102
RTVSPost2010Prop55
280
     0
102
RTVSPost2010PropOp55
 70
     1
102
RTVSPost2010Prop56
140
1.0
102
RTVSPost2010PropOp56
 70
     1
102
RTVSPost2010Prop57
140
1.0
102
RTVSPost2010PropOp57
 70
     1
102
RTVSPropertyOp0
 70
     1
102
RTVSPropertyOp1
 70
     1
102
RTVSPropertyOp2
 70
     1
102
RTVSPropertyOp3
 70
     1
102
RTVSPropertyOp4
 70
     1
102
RTVSPropertyOp5
 70
     1
102
RTVSPropertyOp6
 70
     1
102
RTVSPropertyOp7
 70
     1
102
RTVSPropertyOp8
 70
     1
102
RTVSPropertyOp9
 70
     1
102
RTVSPropertyOp10
 70
     1
102
RTVSPropertyOp11
 70
     1
102
RTVSPropertyOp12
 70
     1
102
RTVSPropertyOp13
 70
     1
102
RTVSPropertyOp14
 70
     1
102
RTVSPropertyOp15
 70
     1
102
RTVSPropertyOp16
 70
     1
102
RTVSPropertyOp17
 70
     1
102
RTVSPropertyOp18
 70
     1
102
RTVSPropertyOp19
 70
     1
102
RTVSPropertyOp20
 70
     1
102
RTVSPropertyOp21
 70
     1
102
RTVSPropertyOp22
 70
     1
102
RTVSPropertyOp23
 70
     1
102
RTVSPropertyOp24
 70
     1
102
RTVSPropertyOp25
 70
     1
102
RTVSPropertyOp26
 70
     1
102
RTVSPropertyOp27
 70
     1
102
RTVSPropertyOp28
 70
     1
102
RTVSPropertyOp29
 70
     1
102
RTVSPropertyOp30
 70
     1
102
RTVSPropertyOp31
 70
     1
102
RTVSPropertyOp32
 70
     1
102
RTVSPropertyOp33
 70
     1
102
RTVSPropertyOp34
 70
     1
102
RTVSPropertyOp35
 70
     1
102
RTVSPropertyOp36
 70
     1
102
RTVSPropertyOp37
 70
     1
102
RTVSPropertyOp38
 70
     1
102
RTVSPropertyOp39
 70
     1
102
RTVSPropertyOp40
 70
     1
102
RTVSPropertyOp41
 70
     1
102
RTVSPropertyOp42
 70
     1
102
RTVSPropertyOp43
 70
     1
102
RTVSPropertyOp44
 70
     1
102
RTVSPropertyOp45
 70
     1
102
RTVSPropertyOp46
 70
     1
102
RTVSPropertyOp47
 70
     1
102
RTVSPropertyOp48
 70
     1
102
RTVSPropertyOp49
 70
     1
102
RTVSPropertyOp50
 70
     1
102
RTVSPropertyOp51
 70
     0
102
RTVSPropertyOp52
 70
     0
102
RTVSPropertyOp53
 70
     1
102
RTVSPropertyOp54
 70
     1
102
RTVSPropertyOp55
 70
     1
102
RTVSPropertyOp56
 70
     1
102
RTVSPropertyOp57
 70
     1
102
RTVSPropertyOp58
 70
     1
102
RTVSPropertyOp59
 70
     1
102
RTVSPropertyOp60
 70
     1
102
RTVSPropertyOp61
 70
     1
102
RTVSPropertyOp62
 70
     1
  0
ENDSEC
  0
EOF
