  0
SECTION
  2
HEADER
  9
$ACADVER
  1
AC1014
  9
$ACADMAINTVER
 70
     9
  9
$DWGCODEPAGE
  3
ANSI_1252
  9
$INSBASE
 10
0.0
 20
0.0
 30
0.0
  9
$EXTMIN
 10
1.000000000000000E+20
 20
1.000000000000000E+20
 30
1.000000000000000E+20
  9
$EXTMAX
 10
-1.000000000000000E+20
 20
-1.000000000000000E+20
 30
-1.000000000000000E+20
  9
$LIMMIN
 10
0.0
 20
0.0
  9
$LIMMAX
 10
12.0
 20
9.0
  9
$ORTHOMODE
 70
     0
  9
$REGENMODE
 70
     1
  9
$FILLMODE
 70
     1
  9
$QTEXTMODE
 70
     0
  9
$MIRRTEXT
 70
     1
  9
$DRAGMODE
 70
     2
  9
$LTSCALE
 40
1.0
  9
$OSMODE
 70
    37
  9
$ATTMODE
 70
     1
  9
$TEXTSIZE
 40
0.2
  9
$TRACEWID
 40
0.05
  9
$TEXTSTYLE
  7
STANDARD
  9
$CLAYER
  8
0
  9
$CELTYPE
  6
BYLAYER
  9
$CECOLOR
 62
   256
  9
$CELTSCALE
 40
1.0
  9
$DELOBJ
 70
     1
  9
$DISPSILH
 70
     0
  9
$DIMSCALE
 40
1.0
  9
$DIMASZ
 40
0.18
  9
$DIMEXO
 40
0.0625
  9
$DIMDLI
 40
0.38
  9
$DIMRND
 40
0.0
  9
$DIMDLE
 40
0.0
  9
$DIMEXE
 40
0.18
  9
$DIMTP
 40
0.0
  9
$DIMTM
 40
0.0
  9
$DIMTXT
 40
0.18
  9
$DIMCEN
 40
0.09
  9
$DIMTSZ
 40
0.0
  9
$DIMTOL
 70
     0
  9
$DIMLIM
 70
     0
  9
$DIMTIH
 70
     1
  9
$DIMTOH
 70
     1
  9
$DIMSE1
 70
     0
  9
$DIMSE2
 70
     0
  9
$DIMTAD
 70
     0
  9
$DIMZIN
 70
     0
  9
$DIMBLK
  1

  9
$DIMASO
 70
     1
  9
$DIMSHO
 70
     1
  9
$DIMPOST
  1

  9
$DIMAPOST
  1

  9
$DIMALT
 70
     0
  9
$DIMALTD
 70
     2
  9
$DIMALTF
 40
25.4
  9
$DIMLFAC
 40
1.0
  9
$DIMTOFL
 70
     0
  9
$DIMTVP
 40
0.0
  9
$DIMTIX
 70
     0
  9
$DIMSOXD
 70
     0
  9
$DIMSAH
 70
     0
  9
$DIMBLK1
  1

  9
$DIMBLK2
  1

  9
$DIMSTYLE
  2
STANDARD
  9
$DIMCLRD
 70
     0
  9
$DIMCLRE
 70
     0
  9
$DIMCLRT
 70
     0
  9
$DIMTFAC
 40
1.0
  9
$DIMGAP
 40
0.09
  9
$DIMJUST
 70
     0
  9
$DIMSD1
 70
     0
  9
$DIMSD2
 70
     0
  9
$DIMTOLJ
 70
     1
  9
$DIMTZIN
 70
     0
  9
$DIMALTZ
 70
     0
  9
$DIMALTTZ
 70
     0
  9
$DIMFIT
 70
     3
  9
$DIMUPT
 70
     0
  9
$DIMUNIT
 70
     2
  9
$DIMDEC
 70
     4
  9
$DIMTDEC
 70
     4
  9
$DIMALTU
 70
     2
  9
$DIMALTTD
 70
     2
  9
$DIMTXSTY
  7
STANDARD
  9
$DIMAUNIT
 70
     0
  9
$LUNITS
 70
     2
  9
$LUPREC
 70
     4
  9
$SKETCHINC
 40
0.1
  9
$FILLETRAD
 40
0.5
  9
$AUNITS
 70
     0
  9
$AUPREC
 70
     0
  9
$MENU
  1
.
  9
$ELEVATION
 40
0.0
  9
$PELEVATION
 40
0.0
  9
$THICKNESS
 40
0.0
  9
$LIMCHECK
 70
     0
  9
$CHAMFERA
 40
0.5
  9
$CHAMFERB
 40
0.5
  9
$CHAMFERC
 40
1.0
  9
$CHAMFERD
 40
0.0
  9
$SKPOLY
 70
     0
  9
$TDCREATE
 40
2460489.669834132
  9
$TDUPDATE
 40
2460489.669834294
  9
$TDINDWG
 40
0.0000000116
  9
$TDUSRTIMER
 40
0.0000000116
  9
$USRTIMER
 70
     1
  9
$ANGBASE
 50
0.0
  9
$ANGDIR
 70
     0
  9
$PDMODE
 70
     0
  9
$PDSIZE
 40
0.0
  9
$PLINEWID
 40
0.0
  9
$COORDS
 70
     1
  9
$SPLFRAME
 70
     0
  9
$SPLINETYPE
 70
     6
  9
$SPLINESEGS
 70
     8
  9
$ATTDIA
 70
     0
  9
$ATTREQ
 70
     1
  9
$HANDLING
 70
     1
  9
$HANDSEED
  5
9B2
  9
$SURFTAB1
 70
     6
  9
$SURFTAB2
 70
     6
  9
$SURFTYPE
 70
     6
  9
$SURFU
 70
     6
  9
$SURFV
 70
     6
  9
$UCSNAME
  2

  9
$UCSORG
 10
0.0
 20
0.0
 30
0.0
  9
$UCSXDIR
 10
1.0
 20
0.0
 30
0.0
  9
$UCSYDIR
 10
0.0
 20
1.0
 30
0.0
  9
$PUCSNAME
  2

  9
$PUCSORG
 10
0.0
 20
0.0
 30
0.0
  9
$PUCSXDIR
 10
1.0
 20
0.0
 30
0.0
  9
$PUCSYDIR
 10
0.0
 20
1.0
 30
0.0
  9
$USERI1
 70
     0
  9
$USERI2
 70
     0
  9
$USERI3
 70
     0
  9
$USERI4
 70
     0
  9
$USERI5
 70
     0
  9
$USERR1
 40
0.0
  9
$USERR2
 40
0.0
  9
$USERR3
 40
0.0
  9
$USERR4
 40
0.0
  9
$USERR5
 40
0.0
  9
$WORLDVIEW
 70
     1
  9
$SHADEDGE
 70
     3
  9
$SHADEDIF
 70
    70
  9
$TILEMODE
 70
     1
  9
$MAXACTVP
 70
    64
  9
$PINSBASE
 10
0.0
 20
0.0
 30
0.0
  9
$PLIMCHECK
 70
     0
  9
$PEXTMIN
 10
1.000000000000000E+20
 20
1.000000000000000E+20
 30
1.000000000000000E+20
  9
$PEXTMAX
 10
-1.000000000000000E+20
 20
-1.000000000000000E+20
 30
-1.000000000000000E+20
  9
$PLIMMIN
 10
0.0
 20
0.0
  9
$PLIMMAX
 10
12.0
 20
9.0
  9
$UNITMODE
 70
     0
  9
$VISRETAIN
 70
     1
  9
$PLINEGEN
 70
     0
  9
$PSLTSCALE
 70
     1
  9
$TREEDEPTH
 70
  3020
  9
$PICKSTYLE
 70
     1
  9
$CMLSTYLE
  2
STANDARD
  9
$CMLJUST
 70
     0
  9
$CMLSCALE
 40
1.0
  9
$PROXYGRAPHICS
 70
     1
  9
$MEASUREMENT
 70
     0
  0
ENDSEC
  0
SECTION
  2
CLASSES
  0
CLASS
  1
ACDBDICTIONARYWDFLT
  2
AcDbDictionaryWithDefault
  3
ObjectDBX Classes
 90
        0
280
     0
281
     0
  0
CLASS
  1
VISUALSTYLE
  2
AcDbVisualStyle
  3
ObjectDBX Classes
 90
     4095
280
     0
281
     0
  0
CLASS
  1
MATERIAL
  2
AcDbMaterial
  3
ObjectDBX Classes
 90
     1153
280
     0
281
     0
  0
CLASS
  1
SUN
  2
AcDbSun
  3
SCENEOE
 90
     1024
280
     0
281
     0
  0
CLASS
  1
DICTIONARYVAR
  2
AcDbDictionaryVar
  3
ObjectDBX Classes
 90
        0
280
     0
281
     0
  0
CLASS
  1
XRECORD
  2
AcDbXrecord
  3
AutoCAD 2000
 90
        0
280
     0
281
     0
  0
CLASS
  1
LWPOLYLINE
  2
AcDbPolyline
  3
AutoCAD 2000
 90
        0
280
     0
281
     1
  0
CLASS
  1
HATCH
  2
AcDbHatch
  3
AutoCAD 2000
 90
        0
280
     0
281
     1
  0
CLASS
  1
ACDBPLACEHOLDER
  2
AcDbPlaceHolder
  3
ObjectDBX Classes
 90
        0
280
     0
281
     0
  0
CLASS
  1
LAYOUT
  2
AcDbLayout
  3
ObjectDBX Classes
 90
        0
280
     0
281
     0
  0
ENDSEC
  0
SECTION
  2
TABLES
  0
TABLE
  2
VPORT
  5
8
330
0
100
AcDbSymbolTable
 70
     1
  0
VPORT
  5
29
330
8
100
AcDbSymbolTableRecord
100
AcDbViewportTableRecord
  2
*ACTIVE
 70
     0
 10
0.0
 20
0.0
 11
1.0
 21
1.0
 12
0.0
 22
0.0
 13
0.0
 23
0.0
 14
0.5
 24
0.5
 15
0.5
 25
0.5
 16
0.0
 26
0.0
 36
1.0
 17
74.99999786197358
 27
39.74999886684608
 37
0.0
 40
39.99999998999989
 41
1.000000000000008
 42
50.0
 43
0.0
 44
0.0
 50
0.0
 51
0.0
 71
     0
 72
   100
 73
     1
 74
     3
 75
     0
 76
     0
 77
     0
 78
     0
  0
ENDTAB
  0
TABLE
  2
LTYPE
  5
5
330
0
100
AcDbSymbolTable
 70
     1
  0
LTYPE
  5
14
330
5
100
AcDbSymbolTableRecord
100
AcDbLinetypeTableRecord
  2
BYBLOCK
 70
     0
  3

 72
    65
 73
     0
 40
0.0
  0
LTYPE
  5
15
330
5
100
AcDbSymbolTableRecord
100
AcDbLinetypeTableRecord
  2
BYLAYER
 70
     0
  3

 72
    65
 73
     0
 40
0.0
  0
LTYPE
  5
16
330
5
100
AcDbSymbolTableRecord
100
AcDbLinetypeTableRecord
  2
CONTINUOUS
 70
     0
  3
Solid line
 72
    65
 73
     0
 40
0.0
  0
ENDTAB
  0
TABLE
  2
LAYER
  5
2
330
0
100
AcDbSymbolTable
 70
     6
  0
LAYER
  5
10
330
2
100
AcDbSymbolTableRecord
100
AcDbLayerTableRecord
  2
0
 70
     0
 62
     7
  6
CONTINUOUS
  0
LAYER
  5
40
330
2
100
AcDbSymbolTableRecord
100
AcDbLayerTableRecord
  2
REFERENCIAS
 70
     0
 62
     7
  6
CONTINUOUS
  0
LAYER
  5
42
330
2
100
AcDbSymbolTableRecord
100
AcDbLayerTableRecord
  2
M_U_00C1RGENES
 70
     0
 62
     7
  6
CONTINUOUS
  0
LAYER
  5
51
330
2
100
AcDbSymbolTableRecord
100
AcDbLayerTableRecord
  2
DIBUJOS
 70
     0
 62
     7
  6
CONTINUOUS
  0
LAYER
  5
971
330
2
100
AcDbSymbolTableRecord
100
AcDbLayerTableRecord
  2
COTAS_LINEA
 70
     0
 62
     7
  6
CONTINUOUS
  0
LAYER
  5
982
330
2
100
AcDbSymbolTableRecord
100
AcDbLayerTableRecord
  2
COTAS_N_U_00DAMERO
 70
     0
 62
     7
  6
CONTINUOUS
  0
ENDTAB
  0
TABLE
  2
STYLE
  5
3
330
0
100
AcDbSymbolTable
 70
     1
  0
STYLE
  5
11
330
3
100
AcDbSymbolTableRecord
100
AcDbTextStyleTableRecord
  2
STANDARD
 70
     0
 40
0.0
 41
1.0
 50
0.0
 71
     0
 42
0.2
  3
txt
  4

  0
ENDTAB
  0
TABLE
  2
VIEW
  5
6
330
0
100
AcDbSymbolTable
 70
     0
  0
ENDTAB
  0
TABLE
  2
UCS
  5
7
330
0
100
AcDbSymbolTable
 70
     0
  0
ENDTAB
  0
TABLE
  2
APPID
  5
9
330
0
100
AcDbSymbolTable
 70
     1
  0
APPID
  5
12
330
9
100
AcDbSymbolTableRecord
100
AcDbRegAppTableRecord
  2
ACAD
 70
     0
  0
ENDTAB
  0
TABLE
  2
DIMSTYLE
  5
A
330
0
100
AcDbSymbolTable
 70
     1
  0
DIMSTYLE
105
27
330
A
100
AcDbSymbolTableRecord
100
AcDbDimStyleTableRecord
  2
STANDARD
 70
     0
  3

  4

  5

  6

  7

 40
1.0
 41
0.18
 42
0.0625
 43
0.38
 44
0.18
 45
0.0
 46
0.0
 47
0.0
 48
0.0
140
0.18
141
0.09
142
0.0
143
25.4
144
1.0
145
0.0
146
1.0
147
0.09
 71
     0
 72
     0
 73
     1
 74
     1
 75
     0
 76
     0
 77
     0
 78
     0
170
     0
171
     2
172
     0
173
     0
174
     0
175
     0
176
     0
177
     0
178
     0
270
     2
271
     4
272
     4
273
     2
274
     2
340
11
275
     0
280
     0
281
     0
282
     0
283
     1
284
     0
285
     0
286
     0
287
     3
288
     0
  0
ENDTAB
  0
TABLE
  2
BLOCK_RECORD
  5
1
330
0
100
AcDbSymbolTable
 70
     3
  0
BLOCK_RECORD
  5
1F
330
1
100
AcDbSymbolTableRecord
100
AcDbBlockTableRecord
  2
*MODEL_SPACE
  0
BLOCK_RECORD
  5
1B
330
1
100
AcDbSymbolTableRecord
100
AcDbBlockTableRecord
  2
*PAPER_SPACE
  0
BLOCK_RECORD
  5
48C
330
1
100
AcDbSymbolTableRecord
100
AcDbBlockTableRecord
  2
BLOCK_2
  0
BLOCK_RECORD
  5
6A3
330
1
100
AcDbSymbolTableRecord
100
AcDbBlockTableRecord
  2
BLOCK_3
  0
ENDTAB
  0
ENDSEC
  0
SECTION
  2
BLOCKS
  0
BLOCK
  5
20
330
1F
100
AcDbEntity
  8
0
100
AcDbBlockBegin
  2
*MODEL_SPACE
 70
     0
 10
0.0
 20
0.0
 30
0.0
  3
*MODEL_SPACE
  1

  0
ENDBLK
  5
21
330
1F
100
AcDbEntity
  8
0
100
AcDbBlockEnd
  0
BLOCK
  5
1C
330
1B
100
AcDbEntity
 67
     1
  8
0
100
AcDbBlockBegin
  2
*PAPER_SPACE
 70
     0
 10
0.0
 20
0.0
 30
0.0
  3
*PAPER_SPACE
  1

  0
ENDBLK
  5
1D
330
1B
100
AcDbEntity
 67
     1
  8
0
100
AcDbBlockEnd
  0
BLOCK
  5
48E
330
48C
100
AcDbEntity
  8
0
100
AcDbBlockBegin
  2
BLOCK_2
 70
     0
 10
0.0
 20
0.0
 30
0.0
  3
BLOCK_2
  1

  0
POLYLINE
  5
490
330
48C
100
AcDbEntity
  8
DIBUJOS
 62
    29
100
AcDb2dPolyline
 66
     1
 10
0.0
 20
0.0
 30
0.0
  0
VERTEX
  5
491
330
490
100
AcDbEntity
  8
DIBUJOS
 62
    29
100
AcDbVertex
100
AcDb2dVertex
 10
84.47009647655587
 20
47.3590062200862
 30
0.0
  0
VERTEX
  5
492
330
490
100
AcDbEntity
  8
DIBUJOS
 62
    29
100
AcDbVertex
100
AcDb2dVertex
 10
84.46431570351268
 20
47.3590062200862
 30
0.0
  0
SEQEND
  5
493
330
490
100
AcDbEntity
  8
DIBUJOS
 62
    29
  0
POLYLINE
  5
494
330
48C
100
AcDbEntity
  8
DIBUJOS
 62
    29
100
AcDb2dPolyline
 66
     1
 10
0.0
 20
0.0
 30
0.0
  0
VERTEX
  5
495
330
494
100
AcDbEntity
  8
DIBUJOS
 62
    29
100
AcDbVertex
100
AcDb2dVertex
 10
84.52211410008425
 20
47.34744778528724
 30
0.0
  0
VERTEX
  5
496
330
494
100
AcDbEntity
  8
DIBUJOS
 62
    29
100
AcDbVertex
100
AcDb2dVertex
 10
84.51055566528466
 20
47.34744778528724
 30
0.0
  0
SEQEND
  5
497
330
494
100
AcDbEntity
  8
DIBUJOS
 62
    29
  0
POLYLINE
  5
498
330
48C
100
AcDbEntity
  8
DIBUJOS
 62
    29
100
AcDb2dPolyline
 66
     1
 10
0.0
 20
0.0
 30
0.0
  0
VERTEX
  5
499
330
498
100
AcDbEntity
  8
DIBUJOS
 62
    29
100
AcDbVertex
100
AcDb2dVertex
 10
84.54523408097025
 20
47.34166701224405
 30
0.0
  0
VERTEX
  5
49A
330
498
100
AcDbEntity
  8
DIBUJOS
 62
    29
100
AcDbVertex
100
AcDb2dVertex
 10
84.53945330792705
 20
47.34166701224405
 30
0.0
  0
SEQEND
  5
49B
330
498
100
AcDbEntity
  8
DIBUJOS
 62
    29
  0
POLYLINE
  5
49C
330
48C
100
AcDbEntity
  8
DIBUJOS
 62
    29
100
AcDb2dPolyline
 66
     1
 10
0.0
 20
0.0
 30
0.0
  0
VERTEX
  5
49D
330
49C
100
AcDbEntity
  8
DIBUJOS
 62
    29
100
AcDbVertex
100
AcDb2dVertex
 10
84.57413172361264
 20
47.33588935048827
 30
0.0
  0
VERTEX
  5
49E
330
49C
100
AcDbEntity
  8
DIBUJOS
 62
    29
100
AcDbVertex
100
AcDb2dVertex
 10
84.56257328881304
 20
47.33588935048827
 30
0.0
  0
SEQEND
  5
49F
330
49C
100
AcDbEntity
  8
DIBUJOS
 62
    29
  0
POLYLINE
  5
4A0
330
48C
100
AcDbEntity
  8
DIBUJOS
 62
    29
100
AcDb2dPolyline
 66
     1
 10
0.0
 20
0.0
 30
0.0
  0
VERTEX
  5
4A1
330
4A0
100
AcDbEntity
  8
DIBUJOS
 62
    29
100
AcDbVertex
100
AcDb2dVertex
 10
84.61459091234143
 20
47.32432780440125
 30
0.0
  0
VERTEX
  5
4A2
330
4A0
100
AcDbEntity
  8
DIBUJOS
 62
    29
100
AcDbVertex
100
AcDb2dVertex
 10
84.60303247754182
 20
47.32432780440125
 30
0.0
  0
SEQEND
  5
4A3
330
4A0
100
AcDbEntity
  8
DIBUJOS
 62
    29
  0
POLYLINE
  5
4A4
330
48C
100
AcDbEntity
  8
DIBUJOS
 62
    29
100
AcDb2dPolyline
 66
     1
 10
0.0
 20
0.0
 30
0.0
  0
VERTEX
  5
4A5
330
4A4
100
AcDbEntity
  8
DIBUJOS
 62
    29
100
AcDbVertex
100
AcDb2dVertex
 10
84.64349166627188
 20
47.31854703135742
 30
0.0
  0
VERTEX
  5
4A6
330
4A4
100
AcDbEntity
  8
DIBUJOS
 62
    29
100
AcDbVertex
100
AcDb2dVertex
 10
84.63193323147227
 20
47.31854703135742
 30
0.0
  0
SEQEND
  5
4A7
330
4A4
100
AcDbEntity
  8
DIBUJOS
 62
    29
  0
POLYLINE
  5
4A8
330
48C
100
AcDbEntity
  8
DIBUJOS
 62
    29
100
AcDb2dPolyline
 66
     1
 10
0.0
 20
0.0
 30
0.0
  0
VERTEX
  5
4A9
330
4A8
100
AcDbEntity
  8
DIBUJOS
 62
    29
100
AcDbVertex
100
AcDb2dVertex
 10
81.6841932273016
 20
47.17983025732764
 30
0.0
  0
VERTEX
  5
4AA
330
4A8
100
AcDbEntity
  8
DIBUJOS
 62
    29
100
AcDbVertex
100
AcDb2dVertex
 10
81.67841245425842
 20
47.17983025732764
 30
0.0
  0
SEQEND
  5
4AB
330
4A8
100
AcDbEntity
  8
DIBUJOS
 62
    29
  0
POLYLINE
  5
4AC
330
48C
100
AcDbEntity
  8
DIBUJOS
 62
    29
100
AcDb2dPolyline
 66
     1
 10
0.0
 20
0.0
 30
0.0
  0
VERTEX
  5
4AD
330
4AC
100
AcDbEntity
  8
DIBUJOS
 62
    29
100
AcDbVertex
100
AcDb2dVertex
 10
81.67841245425842
 20
47.1740525955725
 30
0.0
  0
VERTEX
  5
4AE
330
4AC
100
AcDbEntity
  8
DIBUJOS
 62
    29
100
AcDbVertex
100
AcDb2dVertex
 10
81.67841245425842
 20
47.17983025732764
 30
0.0
  0
SEQEND
  5
4AF
330
4AC
100
AcDbEntity
  8
DIBUJOS
 62
    29
  0
POLYLINE
  5
4B0
330
48C
100
AcDbEntity
  8
DIBUJOS
 62
    29
100
AcDb2dPolyline
 66
     1
 10
0.0
 20
0.0
 30
0.0
  0
VERTEX
  5
4B1
330
4B0
100
AcDbEntity
  8
DIBUJOS
 62
    29
100
AcDbVertex
100
AcDb2dVertex
 10
85.37175706339251
 20
47.05845269114129
 30
0.0
  0
VERTEX
  5
4B2
330
4B0
100
AcDbEntity
  8
DIBUJOS
 62
    29
100
AcDbVertex
100
AcDb2dVertex
 10
85.16310164714169
 20
47.15497728904366
 30
0.0
  0
VERTEX
  5
4B3
330
4B0
100
AcDbEntity
  8
DIBUJOS
 62
    29
100
AcDbVertex
100
AcDb2dVertex
 10
84.97930231046418
 20
47.22202554474246
 30
0.0
  0
VERTEX
  5
4B4
330
4B0
100
AcDbEntity
  8
DIBUJOS
 62
    29
100
AcDbVertex
100
AcDb2dVertex
 10
84.6550501010702
 20
47.31276936960165
 30
0.0
  0
SEQEND
  5
4B5
330
4B0
100
AcDbEntity
  8
DIBUJOS
 62
    29
  0
POLYLINE
  5
4B6
330
48C
100
AcDbEntity
  8
DIBUJOS
 62
    29
100
AcDb2dPolyline
 66
     1
 10
0.0
 20
0.0
 30
0.0
  0
VERTEX
  5
4B7
330
4B6
100
AcDbEntity
  8
DIBUJOS
 62
    29
100
AcDbVertex
100
AcDb2dVertex
 10
84.69550928979899
 20
46.71743997346697
 30
0.0
  0
VERTEX
  5
4B8
330
4B6
100
AcDbEntity
  8
DIBUJOS
 62
    29
100
AcDbVertex
100
AcDb2dVertex
 10
84.69550928979899
 20
46.72322074651016
 30
0.0
  0
SEQEND
  5
4B9
330
4B6
100
AcDbEntity
  8
DIBUJOS
 62
    29
  0
POLYLINE
  5
4BA
330
48C
100
AcDbEntity
  8
DIBUJOS
 62
    29
100
AcDb2dPolyline
 66
     1
 10
0.0
 20
0.0
 30
0.0
  0
VERTEX
  5
4BB
330
4BA
100
AcDbEntity
  8
DIBUJOS
 62
    29
100
AcDbVertex
100
AcDb2dVertex
 10
84.70129006284346
 20
46.71743997346697
 30
0.0
  0
VERTEX
  5
4BC
330
4BA
100
AcDbEntity
  8
DIBUJOS
 62
    29
100
AcDbVertex
100
AcDb2dVertex
 10
84.69550928979899
 20
46.71743997346697
 30
0.0
  0
SEQEND
  5
4BD
330
4BA
100
AcDbEntity
  8
DIBUJOS
 62
    29
  0
POLYLINE
  5
4BE
330
48C
100
AcDbEntity
  8
DIBUJOS
 62
    29
100
AcDb2dPolyline
 66
     1
 10
0.0
 20
0.0
 30
0.0
  0
VERTEX
  5
4BF
330
4BE
100
AcDbEntity
  8
DIBUJOS
 62
    29
100
AcDbVertex
100
AcDb2dVertex
 10
84.70129006284346
 20
46.71743997346697
 30
0.0
  0
VERTEX
  5
4C0
330
4BE
100
AcDbEntity
  8
DIBUJOS
 62
    29
100
AcDbVertex
100
AcDb2dVertex
 10
84.70741618885103
 20
46.72079394189536
 30
0.0
  0
VERTEX
  5
4C1
330
4BE
100
AcDbEntity
  8
DIBUJOS
 62
    29
100
AcDbVertex
100
AcDb2dVertex
 10
85.09455997321908
 20
46.74373346807965
 30
0.0
  0
VERTEX
  5
4C2
330
4BE
100
AcDbEntity
  8
DIBUJOS
 62
    29
100
AcDbVertex
100
AcDb2dVertex
 10
85.15188545401968
 20
46.74894487542522
 30
0.0
  0
VERTEX
  5
4C3
330
4BE
100
AcDbEntity
  8
DIBUJOS
 62
    29
100
AcDbVertex
100
AcDb2dVertex
 10
85.302842034913
 20
46.76723613738609
 30
0.0
  0
VERTEX
  5
4C4
330
4BE
100
AcDbEntity
  8
DIBUJOS
 62
    29
100
AcDbVertex
100
AcDb2dVertex
 10
85.42435338648205
 20
46.79662536352654
 30
0.0
  0
VERTEX
  5
4C5
330
4BE
100
AcDbEntity
  8
DIBUJOS
 62
    29
100
AcDbVertex
100
AcDb2dVertex
 10
85.52781304526445
 20
46.84459831269714
 30
0.0
  0
VERTEX
  5
4C6
330
4BE
100
AcDbEntity
  8
DIBUJOS
 62
    29
100
AcDbVertex
100
AcDb2dVertex
 10
85.53937148006405
 20
46.8561567474961
 30
0.0
  0
VERTEX
  5
4C7
330
4BE
100
AcDbEntity
  8
DIBUJOS
 62
    29
100
AcDbVertex
100
AcDb2dVertex
 10
85.56827223399323
 20
46.91395825535574
 30
0.0
  0
VERTEX
  5
4C8
330
4BE
100
AcDbEntity
  8
DIBUJOS
 62
    29
100
AcDbVertex
100
AcDb2dVertex
 10
85.559955761257
 20
46.96569275167902
 30
0.0
  0
VERTEX
  5
4C9
330
4BE
100
AcDbEntity
  8
DIBUJOS
 62
    29
100
AcDbVertex
100
AcDb2dVertex
 10
85.54977562702683
 20
46.99429793325214
 30
0.0
  0
VERTEX
  5
4CA
330
4BE
100
AcDbEntity
  8
DIBUJOS
 62
    29
100
AcDbVertex
100
AcDb2dVertex
 10
85.54630965223085
 20
47.00123299413152
 30
0.0
  0
VERTEX
  5
4CB
330
4BE
100
AcDbEntity
  8
DIBUJOS
 62
    29
100
AcDbVertex
100
AcDb2dVertex
 10
85.51625461046612
 20
47.05845269114129
 30
0.0
  0
VERTEX
  5
4CC
330
4BE
100
AcDbEntity
  8
DIBUJOS
 62
    29
100
AcDbVertex
100
AcDb2dVertex
 10
85.47001464869287
 20
47.10469265291326
 30
0.0
  0
VERTEX
  5
4CD
330
4BE
100
AcDbEntity
  8
DIBUJOS
 62
    29
100
AcDbVertex
100
AcDb2dVertex
 10
85.43475753344612
 20
47.12087757292051
 30
0.0
  0
VERTEX
  5
4CE
330
4BE
100
AcDbEntity
  8
DIBUJOS
 62
    29
100
AcDbVertex
100
AcDb2dVertex
 10
85.26714000548652
 20
47.17809726993029
 30
0.0
  0
VERTEX
  5
4CF
330
4BE
100
AcDbEntity
  8
DIBUJOS
 62
    29
100
AcDbVertex
100
AcDb2dVertex
 10
85.04288148007895
 20
47.26826239522702
 30
0.0
  0
VERTEX
  5
4D0
330
4BE
100
AcDbEntity
  8
DIBUJOS
 62
    29
100
AcDbVertex
100
AcDb2dVertex
 10
84.82889331625272
 20
47.32655237529794
 30
0.0
  0
VERTEX
  5
4D1
330
4BE
100
AcDbEntity
  8
DIBUJOS
 62
    29
100
AcDbVertex
100
AcDb2dVertex
 10
84.44080370034271
 20
47.40868415506289
 30
0.0
  0
VERTEX
  5
4D2
330
4BE
100
AcDbEntity
  8
DIBUJOS
 62
    29
100
AcDbVertex
100
AcDb2dVertex
 10
84.31442940567986
 20
47.43070896258455
 30
0.0
  0
VERTEX
  5
4D3
330
4BE
100
AcDbEntity
  8
DIBUJOS
 62
    29
100
AcDbVertex
100
AcDb2dVertex
 10
83.98432797490794
 20
47.47781075112407
 30
0.0
  0
VERTEX
  5
4D4
330
4BE
100
AcDbEntity
  8
DIBUJOS
 62
    29
100
AcDbVertex
100
AcDb2dVertex
 10
83.73043754289768
 20
47.5004235920717
 30
0.0
  0
VERTEX
  5
4D5
330
4BE
100
AcDbEntity
  8
DIBUJOS
 62
    29
100
AcDbVertex
100
AcDb2dVertex
 10
83.58577198627525
 20
47.50928454020301
 30
0.0
  0
VERTEX
  5
4D6
330
4BE
100
AcDbEntity
  8
DIBUJOS
 62
    29
100
AcDbVertex
100
AcDb2dVertex
 10
83.27944079557328
 20
47.50928454020301
 30
0.0
  0
VERTEX
  5
4D7
330
4BE
100
AcDbEntity
  8
DIBUJOS
 62
    29
100
AcDbVertex
100
AcDb2dVertex
 10
82.90393633949182
 20
47.48349507424061
 30
0.0
  0
VERTEX
  5
4D8
330
4BE
100
AcDbEntity
  8
DIBUJOS
 62
    29
100
AcDbVertex
100
AcDb2dVertex
 10
82.60358504426503
 20
47.44336257074848
 30
0.0
  0
VERTEX
  5
4D9
330
4BE
100
AcDbEntity
  8
DIBUJOS
 62
    29
100
AcDbVertex
100
AcDb2dVertex
 10
82.48804114301633
 20
47.42036393009298
 30
0.0
  0
VERTEX
  5
4DA
330
4BE
100
AcDbEntity
  8
DIBUJOS
 62
    29
100
AcDbVertex
100
AcDb2dVertex
 10
82.25690978248993
 20
47.36852676126693
 30
0.0
  0
VERTEX
  5
4DB
330
4BE
100
AcDbEntity
  8
DIBUJOS
 62
    29
100
AcDbVertex
100
AcDb2dVertex
 10
82.06046306022397
 20
47.31681404395943
 30
0.0
  0
VERTEX
  5
4DC
330
4BE
100
AcDbEntity
  8
DIBUJOS
 62
    29
100
AcDbVertex
100
AcDb2dVertex
 10
81.81077286696998
 20
47.23300527997963
 30
0.0
  0
VERTEX
  5
4DD
330
4BE
100
AcDbEntity
  8
DIBUJOS
 62
    29
100
AcDbVertex
100
AcDb2dVertex
 10
81.6841932273016
 20
47.17983025732764
 30
0.0
  0
SEQEND
  5
4DE
330
4BE
100
AcDbEntity
  8
DIBUJOS
 62
    29
  0
POLYLINE
  5
4DF
330
48C
100
AcDbEntity
  8
DIBUJOS
 62
    29
100
AcDb2dPolyline
 66
     1
 10
0.0
 20
0.0
 30
0.0
  0
VERTEX
  5
4E0
330
4DF
100
AcDbEntity
  8
DIBUJOS
 62
    29
100
AcDbVertex
100
AcDb2dVertex
 10
84.69550928979899
 20
46.71166231171119
 30
0.0
  0
VERTEX
  5
4E1
330
4DF
100
AcDbEntity
  8
DIBUJOS
 62
    29
100
AcDbVertex
100
AcDb2dVertex
 10
84.69550928979899
 20
46.71743997346697
 30
0.0
  0
SEQEND
  5
4E2
330
4DF
100
AcDbEntity
  8
DIBUJOS
 62
    29
  0
POLYLINE
  5
4E3
330
48C
100
AcDbEntity
  8
DIBUJOS
 62
    29
100
AcDb2dPolyline
 66
     1
 10
0.0
 20
0.0
 30
0.0
  0
VERTEX
  5
4E4
330
4E3
100
AcDbEntity
  8
DIBUJOS
 62
    29
100
AcDbVertex
100
AcDb2dVertex
 10
81.97896598320396
 20
46.65386080385156
 30
0.0
  0
VERTEX
  5
4E5
330
4E3
100
AcDbEntity
  8
DIBUJOS
 62
    29
100
AcDbVertex
100
AcDb2dVertex
 10
82.03040801845796
 20
46.68391895690498
 30
0.0
  0
VERTEX
  5
4E6
330
4E3
100
AcDbEntity
  8
DIBUJOS
 62
    29
100
AcDbVertex
100
AcDb2dVertex
 10
82.1412476522988
 20
46.7267769486573
 30
0.0
  0
VERTEX
  5
4E7
330
4E3
100
AcDbEntity
  8
DIBUJOS
 62
    29
100
AcDbVertex
100
AcDb2dVertex
 10
82.25017695532739
 20
46.7485621870054
 30
0.0
  0
VERTEX
  5
4E8
330
4E3
100
AcDbEntity
  8
DIBUJOS
 62
    29
100
AcDbVertex
100
AcDb2dVertex
 10
83.88032695201855
 20
46.88190887800306
 30
0.0
  0
VERTEX
  5
4E9
330
4E3
100
AcDbEntity
  8
DIBUJOS
 62
    29
100
AcDbVertex
100
AcDb2dVertex
 10
83.88654641666534
 20
46.88242535180559
 30
0.0
  0
VERTEX
  5
4EA
330
4E3
100
AcDbEntity
  8
DIBUJOS
 62
    29
100
AcDbVertex
100
AcDb2dVertex
 10
84.18688215545312
 20
46.90817748231255
 30
0.0
  0
VERTEX
  5
4EB
330
4E3
100
AcDbEntity
  8
DIBUJOS
 62
    29
100
AcDbVertex
100
AcDb2dVertex
 10
84.25602119666652
 20
46.89976767093645
 30
0.0
  0
VERTEX
  5
4EC
330
4E3
100
AcDbEntity
  8
DIBUJOS
 62
    29
100
AcDbVertex
100
AcDb2dVertex
 10
84.3076810220783
 20
46.88390010230231
 30
0.0
  0
VERTEX
  5
4ED
330
4E3
100
AcDbEntity
  8
DIBUJOS
 62
    29
100
AcDbVertex
100
AcDb2dVertex
 10
84.31923945687791
 20
46.87812244054654
 30
0.0
  0
VERTEX
  5
4EE
330
4E3
100
AcDbEntity
  8
DIBUJOS
 62
    29
100
AcDbVertex
100
AcDb2dVertex
 10
84.37632225721626
 20
46.84316089765585
 30
0.0
  0
VERTEX
  5
4EF
330
4E3
100
AcDbEntity
  8
DIBUJOS
 62
    29
100
AcDbVertex
100
AcDb2dVertex
 10
84.42963728782709
 20
46.79258068916875
 30
0.0
  0
SEQEND
  5
4F0
330
4E3
100
AcDbEntity
  8
DIBUJOS
 62
    29
  0
POLYLINE
  5
4F1
330
48C
100
AcDbEntity
  8
DIBUJOS
 62
    29
100
AcDb2dPolyline
 66
     1
 10
0.0
 20
0.0
 30
0.0
  0
VERTEX
  5
4F2
330
4F1
100
AcDbEntity
  8
DIBUJOS
 62
    29
100
AcDbVertex
100
AcDb2dVertex
 10
81.56859332287038
 20
46.59028474552421
 30
0.0
  0
VERTEX
  5
4F3
330
4F1
100
AcDbEntity
  8
DIBUJOS
 62
    29
100
AcDbVertex
100
AcDb2dVertex
 10
81.60531274346292
 20
46.71692972223991
 30
0.0
  0
VERTEX
  5
4F4
330
4F1
100
AcDbEntity
  8
DIBUJOS
 62
    29
100
AcDbVertex
100
AcDb2dVertex
 10
81.64038007014443
 20
46.90205135630434
 30
0.0
  0
VERTEX
  5
4F5
330
4F1
100
AcDbEntity
  8
DIBUJOS
 62
    29
100
AcDbVertex
100
AcDb2dVertex
 10
81.67841245425842
 20
47.1740525955725
 30
0.0
  0
SEQEND
  5
4F6
330
4F1
100
AcDbEntity
  8
DIBUJOS
 62
    29
  0
POLYLINE
  5
4F7
330
48C
100
AcDbEntity
  8
DIBUJOS
 62
    29
100
AcDb2dPolyline
 66
     1
 10
0.0
 20
0.0
 30
0.0
  0
VERTEX
  5
4F8
330
4F7
100
AcDbEntity
  8
DIBUJOS
 62
    29
100
AcDbVertex
100
AcDb2dVertex
 10
81.58593564200125
 20
46.56138399159439
 30
0.0
  0
VERTEX
  5
4F9
330
4F7
100
AcDbEntity
  8
DIBUJOS
 62
    29
100
AcDbVertex
100
AcDb2dVertex
 10
81.58015486895806
 20
46.56138399159439
 30
0.0
  0
SEQEND
  5
4FA
330
4F7
100
AcDbEntity
  8
DIBUJOS
 62
    29
  0
POLYLINE
  5
4FB
330
48C
100
AcDbEntity
  8
DIBUJOS
 62
    29
100
AcDb2dPolyline
 66
     1
 10
0.0
 20
0.0
 30
0.0
  0
VERTEX
  5
4FC
330
4FB
100
AcDbEntity
  8
DIBUJOS
 62
    29
100
AcDbVertex
100
AcDb2dVertex
 10
81.58593564200125
 20
46.56138399159439
 30
0.0
  0
VERTEX
  5
4FD
330
4FB
100
AcDbEntity
  8
DIBUJOS
 62
    29
100
AcDbVertex
100
AcDb2dVertex
 10
81.59615933426169
 20
46.57383225475215
 30
0.0
  0
VERTEX
  5
4FE
330
4FB
100
AcDbEntity
  8
DIBUJOS
 62
    29
100
AcDbVertex
100
AcDb2dVertex
 10
81.66685401945881
 20
46.67120312298241
 30
0.0
  0
VERTEX
  5
4FF
330
4FB
100
AcDbEntity
  8
DIBUJOS
 62
    29
100
AcDbVertex
100
AcDb2dVertex
 10
81.74777239691637
 20
46.75212150043998
 30
0.0
  0
VERTEX
  5
500
330
4FB
100
AcDbEntity
  8
DIBUJOS
 62
    29
100
AcDbVertex
100
AcDb2dVertex
 10
81.8165505287264
 20
46.80529652309197
 30
0.0
  0
VERTEX
  5
501
330
4FB
100
AcDbEntity
  8
DIBUJOS
 62
    29
100
AcDbVertex
100
AcDb2dVertex
 10
81.89138011563182
 20
46.84593305523502
 30
0.0
  0
VERTEX
  5
502
330
4FB
100
AcDbEntity
  8
DIBUJOS
 62
    29
100
AcDbVertex
100
AcDb2dVertex
 10
81.95064392883594
 20
46.87754374098474
 30
0.0
  0
VERTEX
  5
503
330
4FB
100
AcDbEntity
  8
DIBUJOS
 62
    29
100
AcDbVertex
100
AcDb2dVertex
 10
82.0361856802131
 20
46.90933177014809
 30
0.0
  0
VERTEX
  5
504
330
4FB
100
AcDbEntity
  8
DIBUJOS
 62
    29
100
AcDbVertex
100
AcDb2dVertex
 10
82.13457705089617
 20
46.93351892280716
 30
0.0
  0
VERTEX
  5
505
330
4FB
100
AcDbEntity
  8
DIBUJOS
 62
    29
100
AcDbVertex
100
AcDb2dVertex
 10
82.32544834512449
 20
46.96268724750242
 30
0.0
  0
VERTEX
  5
506
330
4FB
100
AcDbEntity
  8
DIBUJOS
 62
    29
100
AcDbVertex
100
AcDb2dVertex
 10
83.93810979215111
 20
47.1072999122304
 30
0.0
  0
VERTEX
  5
507
330
4FB
100
AcDbEntity
  8
DIBUJOS
 62
    29
100
AcDbVertex
100
AcDb2dVertex
 10
83.9443292567979
 20
47.10781949732099
 30
0.0
  0
VERTEX
  5
508
330
4FB
100
AcDbEntity
  8
DIBUJOS
 62
    29
100
AcDbVertex
100
AcDb2dVertex
 10
84.19844059025273
 20
47.12781263379989
 30
0.0
  0
VERTEX
  5
509
330
4FB
100
AcDbEntity
  8
DIBUJOS
 62
    29
100
AcDbVertex
100
AcDb2dVertex
 10
84.28495928605243
 20
47.11934681924064
 30
0.0
  0
VERTEX
  5
50A
330
4FB
100
AcDbEntity
  8
DIBUJOS
 62
    29
100
AcDbVertex
100
AcDb2dVertex
 10
84.3886678478719
 20
47.09109321320801
 30
0.0
  0
VERTEX
  5
50B
330
4FB
100
AcDbEntity
  8
DIBUJOS
 62
    29
100
AcDbVertex
100
AcDb2dVertex
 10
84.44755208394427
 20
47.0596100902649
 30
0.0
  0
VERTEX
  5
50C
330
4FB
100
AcDbEntity
  8
DIBUJOS
 62
    29
100
AcDbVertex
100
AcDb2dVertex
 10
84.49196260839224
 20
47.0339015177895
 30
0.0
  0
VERTEX
  5
50D
330
4FB
100
AcDbEntity
  8
DIBUJOS
 62
    29
100
AcDbVertex
100
AcDb2dVertex
 10
84.58569326969902
 20
46.94863667104133
 30
0.0
  0
VERTEX
  5
50E
330
4FB
100
AcDbEntity
  8
DIBUJOS
 62
    29
100
AcDbVertex
100
AcDb2dVertex
 10
84.6132592810916
 20
46.90728765395374
 30
0.0
  0
VERTEX
  5
50F
330
4FB
100
AcDbEntity
  8
DIBUJOS
 62
    29
100
AcDbVertex
100
AcDb2dVertex
 10
84.63054559703866
 20
46.88401833124474
 30
0.0
  0
VERTEX
  5
510
330
4FB
100
AcDbEntity
  8
DIBUJOS
 62
    29
100
AcDbVertex
100
AcDb2dVertex
 10
84.67123502107745
 20
46.79778276265078
 30
0.0
  0
VERTEX
  5
511
330
4FB
100
AcDbEntity
  8
DIBUJOS
 62
    29
100
AcDbVertex
100
AcDb2dVertex
 10
84.69550928979899
 20
46.72322074651016
 30
0.0
  0
SEQEND
  5
512
330
4FB
100
AcDbEntity
  8
DIBUJOS
 62
    29
  0
POLYLINE
  5
513
330
48C
100
AcDbEntity
  8
DIBUJOS
 62
    29
100
AcDb2dPolyline
 66
     1
 10
0.0
 20
0.0
 30
0.0
  0
VERTEX
  5
514
330
513
100
AcDbEntity
  8
DIBUJOS
 62
    29
100
AcDbVertex
100
AcDb2dVertex
 10
81.58593564200125
 20
46.55560321855056
 30
0.0
  0
VERTEX
  5
515
330
513
100
AcDbEntity
  8
DIBUJOS
 62
    29
100
AcDbVertex
100
AcDb2dVertex
 10
81.58593564200125
 20
46.56138399159439
 30
0.0
  0
SEQEND
  5
516
330
513
100
AcDbEntity
  8
DIBUJOS
 62
    29
  0
POLYLINE
  5
517
330
48C
100
AcDbEntity
  8
DIBUJOS
 62
    29
100
AcDb2dPolyline
 66
     1
 10
0.0
 20
0.0
 30
0.0
  0
VERTEX
  5
518
330
517
100
AcDbEntity
  8
DIBUJOS
 62
    29
100
AcDbVertex
100
AcDb2dVertex
 10
84.48743568439866
 20
46.54982555679543
 30
0.0
  0
VERTEX
  5
519
330
517
100
AcDbEntity
  8
DIBUJOS
 62
    29
100
AcDbVertex
100
AcDb2dVertex
 10
84.48165491135548
 20
46.54982555679543
 30
0.0
  0
SEQEND
  5
51A
330
517
100
AcDbEntity
  8
DIBUJOS
 62
    29
  0
POLYLINE
  5
51B
330
48C
100
AcDbEntity
  8
DIBUJOS
 62
    29
100
AcDb2dPolyline
 66
     1
 10
0.0
 20
0.0
 30
0.0
  0
VERTEX
  5
51C
330
51B
100
AcDbEntity
  8
DIBUJOS
 62
    29
100
AcDbVertex
100
AcDb2dVertex
 10
84.48743568439866
 20
46.54982555679543
 30
0.0
  0
VERTEX
  5
51D
330
51B
100
AcDbEntity
  8
DIBUJOS
 62
    29
100
AcDbVertex
100
AcDb2dVertex
 10
84.48743568439866
 20
46.55560321855056
 30
0.0
  0
SEQEND
  5
51E
330
51B
100
AcDbEntity
  8
DIBUJOS
 62
    29
  0
POLYLINE
  5
51F
330
48C
100
AcDbEntity
  8
DIBUJOS
 62
    29
100
AcDb2dPolyline
 66
     1
 10
0.0
 20
0.0
 30
0.0
  0
VERTEX
  5
520
330
51F
100
AcDbEntity
  8
DIBUJOS
 62
    29
100
AcDbVertex
100
AcDb2dVertex
 10
84.48743568439866
 20
46.54404478375159
 30
0.0
  0
VERTEX
  5
521
330
51F
100
AcDbEntity
  8
DIBUJOS
 62
    29
100
AcDbVertex
100
AcDb2dVertex
 10
84.48743568439866
 20
46.54982555679543
 30
0.0
  0
SEQEND
  5
522
330
51F
100
AcDbEntity
  8
DIBUJOS
 62
    29
  0
POLYLINE
  5
523
330
48C
100
AcDbEntity
  8
DIBUJOS
 62
    29
100
AcDb2dPolyline
 66
     1
 10
0.0
 20
0.0
 30
0.0
  0
VERTEX
  5
524
330
523
100
AcDbEntity
  8
DIBUJOS
 62
    29
100
AcDbVertex
100
AcDb2dVertex
 10
81.54547645327247
 20
46.53248323766457
 30
0.0
  0
VERTEX
  5
525
330
523
100
AcDbEntity
  8
DIBUJOS
 62
    29
100
AcDbVertex
100
AcDb2dVertex
 10
81.5524115141512
 20
46.54346608418979
 30
0.0
  0
VERTEX
  5
526
330
523
100
AcDbEntity
  8
DIBUJOS
 62
    29
100
AcDbVertex
100
AcDb2dVertex
 10
81.56859332287038
 20
46.56716476463822
 30
0.0
  0
VERTEX
  5
527
330
523
100
AcDbEntity
  8
DIBUJOS
 62
    29
100
AcDbVertex
100
AcDb2dVertex
 10
81.58015486895806
 20
46.56138399159439
 30
0.0
  0
SEQEND
  5
528
330
523
100
AcDbEntity
  8
DIBUJOS
 62
    29
  0
POLYLINE
  5
529
330
48C
100
AcDbEntity
  8
DIBUJOS
 62
    29
100
AcDb2dPolyline
 66
     1
 10
0.0
 20
0.0
 30
0.0
  0
VERTEX
  5
52A
330
529
100
AcDbEntity
  8
DIBUJOS
 62
    29
100
AcDbVertex
100
AcDb2dVertex
 10
81.54547645327247
 20
46.5267055759088
 30
0.0
  0
VERTEX
  5
52B
330
529
100
AcDbEntity
  8
DIBUJOS
 62
    29
100
AcDbVertex
100
AcDb2dVertex
 10
81.54547645327247
 20
46.53248323766457
 30
0.0
  0
SEQEND
  5
52C
330
529
100
AcDbEntity
  8
DIBUJOS
 62
    29
  0
POLYLINE
  5
52D
330
48C
100
AcDbEntity
  8
DIBUJOS
 62
    29
100
AcDb2dPolyline
 66
     1
 10
0.0
 20
0.0
 30
0.0
  0
VERTEX
  5
52E
330
52D
100
AcDbEntity
  8
DIBUJOS
 62
    29
100
AcDbVertex
100
AcDb2dVertex
 10
81.55125411502759
 20
46.5267055759088
 30
0.0
  0
VERTEX
  5
52F
330
52D
100
AcDbEntity
  8
DIBUJOS
 62
    29
100
AcDbVertex
100
AcDb2dVertex
 10
81.54547645327247
 20
46.5267055759088
 30
0.0
  0
SEQEND
  5
530
330
52D
100
AcDbEntity
  8
DIBUJOS
 62
    29
  0
POLYLINE
  5
531
330
48C
100
AcDbEntity
  8
DIBUJOS
 62
    29
100
AcDb2dPolyline
 66
     1
 10
0.0
 20
0.0
 30
0.0
  0
VERTEX
  5
532
330
531
100
AcDbEntity
  8
DIBUJOS
 62
    29
100
AcDbVertex
100
AcDb2dVertex
 10
81.539695680228
 20
46.52092480286561
 30
0.0
  0
VERTEX
  5
533
330
531
100
AcDbEntity
  8
DIBUJOS
 62
    29
100
AcDbVertex
100
AcDb2dVertex
 10
81.54547645327247
 20
46.5267055759088
 30
0.0
  0
SEQEND
  5
534
330
531
100
AcDbEntity
  8
DIBUJOS
 62
    29
  0
POLYLINE
  5
535
330
48C
100
AcDbEntity
  8
DIBUJOS
 62
    29
100
AcDb2dPolyline
 66
     1
 10
0.0
 20
0.0
 30
0.0
  0
VERTEX
  5
536
330
535
100
AcDbEntity
  8
DIBUJOS
 62
    29
100
AcDbVertex
100
AcDb2dVertex
 10
81.55703488807079
 20
46.52092480286561
 30
0.0
  0
VERTEX
  5
537
330
535
100
AcDbEntity
  8
DIBUJOS
 62
    29
100
AcDbVertex
100
AcDb2dVertex
 10
81.55125411502759
 20
46.5267055759088
 30
0.0
  0
SEQEND
  5
538
330
535
100
AcDbEntity
  8
DIBUJOS
 62
    29
  0
POLYLINE
  5
539
330
48C
100
AcDbEntity
  8
DIBUJOS
 62
    29
100
AcDb2dPolyline
 66
     1
 10
0.0
 20
0.0
 30
0.0
  0
VERTEX
  5
53A
330
539
100
AcDbEntity
  8
DIBUJOS
 62
    29
100
AcDbVertex
100
AcDb2dVertex
 10
81.56281566111527
 20
46.52092480286561
 30
0.0
  0
VERTEX
  5
53B
330
539
100
AcDbEntity
  8
DIBUJOS
 62
    29
100
AcDbVertex
100
AcDb2dVertex
 10
81.55703488807079
 20
46.52092480286561
 30
0.0
  0
SEQEND
  5
53C
330
539
100
AcDbEntity
  8
DIBUJOS
 62
    29
  0
POLYLINE
  5
53D
330
48C
100
AcDbEntity
  8
DIBUJOS
 62
    29
100
AcDb2dPolyline
 66
     1
 10
0.0
 20
0.0
 30
0.0
  0
VERTEX
  5
53E
330
53D
100
AcDbEntity
  8
DIBUJOS
 62
    29
100
AcDbVertex
100
AcDb2dVertex
 10
81.56281566111527
 20
46.52092480286561
 30
0.0
  0
VERTEX
  5
53F
330
53D
100
AcDbEntity
  8
DIBUJOS
 62
    29
100
AcDbVertex
100
AcDb2dVertex
 10
81.58593564200125
 20
46.55560321855056
 30
0.0
  0
SEQEND
  5
540
330
53D
100
AcDbEntity
  8
DIBUJOS
 62
    29
  0
POLYLINE
  5
541
330
48C
100
AcDbEntity
  8
DIBUJOS
 62
    29
100
AcDb2dPolyline
 66
     1
 10
0.0
 20
0.0
 30
0.0
  0
VERTEX
  5
542
330
541
100
AcDbEntity
  8
DIBUJOS
 62
    29
100
AcDbVertex
100
AcDb2dVertex
 10
81.539695680228
 20
46.51514402982178
 30
0.0
  0
VERTEX
  5
543
330
541
100
AcDbEntity
  8
DIBUJOS
 62
    29
100
AcDbVertex
100
AcDb2dVertex
 10
81.539695680228
 20
46.52092480286561
 30
0.0
  0
SEQEND
  5
544
330
541
100
AcDbEntity
  8
DIBUJOS
 62
    29
  0
POLYLINE
  5
545
330
48C
100
AcDbEntity
  8
DIBUJOS
 62
    29
100
AcDb2dPolyline
 66
     1
 10
0.0
 20
0.0
 30
0.0
  0
VERTEX
  5
546
330
545
100
AcDbEntity
  8
DIBUJOS
 62
    29
100
AcDbVertex
100
AcDb2dVertex
 10
81.54547645327247
 20
46.51514402982178
 30
0.0
  0
VERTEX
  5
547
330
545
100
AcDbEntity
  8
DIBUJOS
 62
    29
100
AcDbVertex
100
AcDb2dVertex
 10
81.539695680228
 20
46.51514402982178
 30
0.0
  0
SEQEND
  5
548
330
545
100
AcDbEntity
  8
DIBUJOS
 62
    29
  0
POLYLINE
  5
549
330
48C
100
AcDbEntity
  8
DIBUJOS
 62
    29
100
AcDb2dPolyline
 66
     1
 10
0.0
 20
0.0
 30
0.0
  0
VERTEX
  5
54A
330
549
100
AcDbEntity
  8
DIBUJOS
 62
    29
100
AcDbVertex
100
AcDb2dVertex
 10
81.56281566111527
 20
46.51514402982178
 30
0.0
  0
VERTEX
  5
54B
330
549
100
AcDbEntity
  8
DIBUJOS
 62
    29
100
AcDbVertex
100
AcDb2dVertex
 10
81.56281566111527
 20
46.52092480286561
 30
0.0
  0
SEQEND
  5
54C
330
549
100
AcDbEntity
  8
DIBUJOS
 62
    29
  0
POLYLINE
  5
54D
330
48C
100
AcDbEntity
  8
DIBUJOS
 62
    29
100
AcDb2dPolyline
 66
     1
 10
0.0
 20
0.0
 30
0.0
  0
VERTEX
  5
54E
330
54D
100
AcDbEntity
  8
DIBUJOS
 62
    29
100
AcDbVertex
100
AcDb2dVertex
 10
81.55125411502759
 20
46.509366368066
 30
0.0
  0
VERTEX
  5
54F
330
54D
100
AcDbEntity
  8
DIBUJOS
 62
    29
100
AcDbVertex
100
AcDb2dVertex
 10
81.54547645327247
 20
46.51514402982178
 30
0.0
  0
SEQEND
  5
550
330
54D
100
AcDbEntity
  8
DIBUJOS
 62
    29
  0
POLYLINE
  5
551
330
48C
100
AcDbEntity
  8
DIBUJOS
 62
    29
100
AcDb2dPolyline
 66
     1
 10
0.0
 20
0.0
 30
0.0
  0
VERTEX
  5
552
330
551
100
AcDbEntity
  8
DIBUJOS
 62
    29
100
AcDbVertex
100
AcDb2dVertex
 10
81.55703488807079
 20
46.509366368066
 30
0.0
  0
VERTEX
  5
553
330
551
100
AcDbEntity
  8
DIBUJOS
 62
    29
100
AcDbVertex
100
AcDb2dVertex
 10
81.55125411502759
 20
46.509366368066
 30
0.0
  0
SEQEND
  5
554
330
551
100
AcDbEntity
  8
DIBUJOS
 62
    29
  0
POLYLINE
  5
555
330
48C
100
AcDbEntity
  8
DIBUJOS
 62
    29
100
AcDb2dPolyline
 66
     1
 10
0.0
 20
0.0
 30
0.0
  0
VERTEX
  5
556
330
555
100
AcDbEntity
  8
DIBUJOS
 62
    29
100
AcDbVertex
100
AcDb2dVertex
 10
81.55703488807079
 20
46.509366368066
 30
0.0
  0
VERTEX
  5
557
330
555
100
AcDbEntity
  8
DIBUJOS
 62
    29
100
AcDbVertex
100
AcDb2dVertex
 10
81.56281566111527
 20
46.51514402982178
 30
0.0
  0
SEQEND
  5
558
330
555
100
AcDbEntity
  8
DIBUJOS
 62
    29
  0
POLYLINE
  5
559
330
48C
100
AcDbEntity
  8
DIBUJOS
 62
    29
100
AcDb2dPolyline
 66
     1
 10
0.0
 20
0.0
 30
0.0
  0
VERTEX
  5
55A
330
559
100
AcDbEntity
  8
DIBUJOS
 62
    29
100
AcDbVertex
100
AcDb2dVertex
 10
81.55703488807079
 20
46.50358559502281
 30
0.0
  0
VERTEX
  5
55B
330
559
100
AcDbEntity
  8
DIBUJOS
 62
    29
100
AcDbVertex
100
AcDb2dVertex
 10
81.55703488807079
 20
46.509366368066
 30
0.0
  0
SEQEND
  5
55C
330
559
100
AcDbEntity
  8
DIBUJOS
 62
    29
  0
POLYLINE
  5
55D
330
48C
100
AcDbEntity
  8
DIBUJOS
 62
    29
100
AcDb2dPolyline
 66
     1
 10
0.0
 20
0.0
 30
0.0
  0
VERTEX
  5
55E
330
55D
100
AcDbEntity
  8
DIBUJOS
 62
    29
100
AcDbVertex
100
AcDb2dVertex
 10
83.59155275931843
 20
46.50358559502281
 30
0.0
  0
VERTEX
  5
55F
330
55D
100
AcDbEntity
  8
DIBUJOS
 62
    29
100
AcDbVertex
100
AcDb2dVertex
 10
83.58577198627525
 20
46.509366368066
 30
0.0
  0
SEQEND
  5
560
330
55D
100
AcDbEntity
  8
DIBUJOS
 62
    29
  0
POLYLINE
  5
561
330
48C
100
AcDbEntity
  8
DIBUJOS
 62
    29
100
AcDb2dPolyline
 66
     1
 10
0.0
 20
0.0
 30
0.0
  0
VERTEX
  5
562
330
561
100
AcDbEntity
  8
DIBUJOS
 62
    29
100
AcDbVertex
100
AcDb2dVertex
 10
83.59155275931843
 20
46.49780482197898
 30
0.0
  0
VERTEX
  5
563
330
561
100
AcDbEntity
  8
DIBUJOS
 62
    29
100
AcDbVertex
100
AcDb2dVertex
 10
83.59155275931843
 20
46.50358559502281
 30
0.0
  0
SEQEND
  5
564
330
561
100
AcDbEntity
  8
DIBUJOS
 62
    29
  0
POLYLINE
  5
565
330
48C
100
AcDbEntity
  8
DIBUJOS
 62
    29
100
AcDb2dPolyline
 66
     1
 10
0.0
 20
0.0
 30
0.0
  0
VERTEX
  5
566
330
565
100
AcDbEntity
  8
DIBUJOS
 62
    29
100
AcDbVertex
100
AcDb2dVertex
 10
83.59733353236163
 20
46.49780482197898
 30
0.0
  0
VERTEX
  5
567
330
565
100
AcDbEntity
  8
DIBUJOS
 62
    29
100
AcDbVertex
100
AcDb2dVertex
 10
83.59155275931843
 20
46.49780482197898
 30
0.0
  0
SEQEND
  5
568
330
565
100
AcDbEntity
  8
DIBUJOS
 62
    29
  0
POLYLINE
  5
569
330
48C
100
AcDbEntity
  8
DIBUJOS
 62
    29
100
AcDb2dPolyline
 66
     1
 10
0.0
 20
0.0
 30
0.0
  0
VERTEX
  5
56A
330
569
100
AcDbEntity
  8
DIBUJOS
 62
    29
100
AcDbVertex
100
AcDb2dVertex
 10
83.59733353236163
 20
46.49780482197898
 30
0.0
  0
VERTEX
  5
56B
330
569
100
AcDbEntity
  8
DIBUJOS
 62
    29
100
AcDbVertex
100
AcDb2dVertex
 10
83.6315016968208
 20
46.5056265999291
 30
0.0
  0
VERTEX
  5
56C
330
569
100
AcDbEntity
  8
DIBUJOS
 62
    29
100
AcDbVertex
100
AcDb2dVertex
 10
84.39481886418395
 20
46.54678271716339
 30
0.0
  0
VERTEX
  5
56D
330
569
100
AcDbEntity
  8
DIBUJOS
 62
    29
100
AcDbVertex
100
AcDb2dVertex
 10
84.48165491135548
 20
46.54982555679543
 30
0.0
  0
SEQEND
  5
56E
330
569
100
AcDbEntity
  8
DIBUJOS
 62
    29
  0
POLYLINE
  5
56F
330
48C
100
AcDbEntity
  8
DIBUJOS
 62
    29
100
AcDb2dPolyline
 66
     1
 10
0.0
 20
0.0
 30
0.0
  0
VERTEX
  5
570
330
56F
100
AcDbEntity
  8
DIBUJOS
 62
    29
100
AcDbVertex
100
AcDb2dVertex
 10
81.49345571845602
 20
46.43422565236421
 30
0.0
  0
VERTEX
  5
571
330
56F
100
AcDbEntity
  8
DIBUJOS
 62
    29
100
AcDbVertex
100
AcDb2dVertex
 10
81.539695680228
 20
46.51514402982178
 30
0.0
  0
SEQEND
  5
572
330
56F
100
AcDbEntity
  8
DIBUJOS
 62
    29
  0
POLYLINE
  5
573
330
48C
100
AcDbEntity
  8
DIBUJOS
 62
    29
100
AcDb2dPolyline
 66
     1
 10
0.0
 20
0.0
 30
0.0
  0
VERTEX
  5
574
330
573
100
AcDbEntity
  8
DIBUJOS
 62
    29
100
AcDbVertex
100
AcDb2dVertex
 10
81.49345571845602
 20
46.42844799060844
 30
0.0
  0
VERTEX
  5
575
330
573
100
AcDbEntity
  8
DIBUJOS
 62
    29
100
AcDbVertex
100
AcDb2dVertex
 10
81.49345571845602
 20
46.43422565236421
 30
0.0
  0
SEQEND
  5
576
330
573
100
AcDbEntity
  8
DIBUJOS
 62
    29
  0
POLYLINE
  5
577
330
48C
100
AcDbEntity
  8
DIBUJOS
 62
    29
100
AcDb2dPolyline
 66
     1
 10
0.0
 20
0.0
 30
0.0
  0
VERTEX
  5
578
330
577
100
AcDbEntity
  8
DIBUJOS
 62
    29
100
AcDbVertex
100
AcDb2dVertex
 10
81.4992364914992
 20
46.42844799060844
 30
0.0
  0
VERTEX
  5
579
330
577
100
AcDbEntity
  8
DIBUJOS
 62
    29
100
AcDbVertex
100
AcDb2dVertex
 10
81.49345571845602
 20
46.42844799060844
 30
0.0
  0
SEQEND
  5
57A
330
577
100
AcDbEntity
  8
DIBUJOS
 62
    29
  0
POLYLINE
  5
57B
330
48C
100
AcDbEntity
  8
DIBUJOS
 62
    29
100
AcDb2dPolyline
 66
     1
 10
0.0
 20
0.0
 30
0.0
  0
VERTEX
  5
57C
330
57B
100
AcDbEntity
  8
DIBUJOS
 62
    29
100
AcDbVertex
100
AcDb2dVertex
 10
81.48767494541283
 20
46.42266721756461
 30
0.0
  0
VERTEX
  5
57D
330
57B
100
AcDbEntity
  8
DIBUJOS
 62
    29
100
AcDbVertex
100
AcDb2dVertex
 10
81.49345571845602
 20
46.42844799060844
 30
0.0
  0
SEQEND
  5
57E
330
57B
100
AcDbEntity
  8
DIBUJOS
 62
    29
  0
POLYLINE
  5
57F
330
48C
100
AcDbEntity
  8
DIBUJOS
 62
    29
100
AcDb2dPolyline
 66
     1
 10
0.0
 20
0.0
 30
0.0
  0
VERTEX
  5
580
330
57F
100
AcDbEntity
  8
DIBUJOS
 62
    29
100
AcDbVertex
100
AcDb2dVertex
 10
81.50501726454368
 20
46.42266721756461
 30
0.0
  0
VERTEX
  5
581
330
57F
100
AcDbEntity
  8
DIBUJOS
 62
    29
100
AcDbVertex
100
AcDb2dVertex
 10
81.4992364914992
 20
46.42844799060844
 30
0.0
  0
SEQEND
  5
582
330
57F
100
AcDbEntity
  8
DIBUJOS
 62
    29
  0
POLYLINE
  5
583
330
48C
100
AcDbEntity
  8
DIBUJOS
 62
    29
100
AcDb2dPolyline
 66
     1
 10
0.0
 20
0.0
 30
0.0
  0
VERTEX
  5
584
330
583
100
AcDbEntity
  8
DIBUJOS
 62
    29
100
AcDbVertex
100
AcDb2dVertex
 10
81.51079492629881
 20
46.42266721756461
 30
0.0
  0
VERTEX
  5
585
330
583
100
AcDbEntity
  8
DIBUJOS
 62
    29
100
AcDbVertex
100
AcDb2dVertex
 10
81.50501726454368
 20
46.42266721756461
 30
0.0
  0
SEQEND
  5
586
330
583
100
AcDbEntity
  8
DIBUJOS
 62
    29
  0
POLYLINE
  5
587
330
48C
100
AcDbEntity
  8
DIBUJOS
 62
    29
100
AcDb2dPolyline
 66
     1
 10
0.0
 20
0.0
 30
0.0
  0
VERTEX
  5
588
330
587
100
AcDbEntity
  8
DIBUJOS
 62
    29
100
AcDbVertex
100
AcDb2dVertex
 10
81.51079492629881
 20
46.42266721756461
 30
0.0
  0
VERTEX
  5
589
330
587
100
AcDbEntity
  8
DIBUJOS
 62
    29
100
AcDbVertex
100
AcDb2dVertex
 10
81.55703488807079
 20
46.50358559502281
 30
0.0
  0
SEQEND
  5
58A
330
587
100
AcDbEntity
  8
DIBUJOS
 62
    29
  0
POLYLINE
  5
58B
330
48C
100
AcDbEntity
  8
DIBUJOS
 62
    29
100
AcDb2dPolyline
 66
     1
 10
0.0
 20
0.0
 30
0.0
  0
VERTEX
  5
58C
330
58B
100
AcDbEntity
  8
DIBUJOS
 62
    29
100
AcDbVertex
100
AcDb2dVertex
 10
81.48767494541283
 20
46.41688644452142
 30
0.0
  0
VERTEX
  5
58D
330
58B
100
AcDbEntity
  8
DIBUJOS
 62
    29
100
AcDbVertex
100
AcDb2dVertex
 10
81.48767494541283
 20
46.42266721756461
 30
0.0
  0
SEQEND
  5
58E
330
58B
100
AcDbEntity
  8
DIBUJOS
 62
    29
  0
POLYLINE
  5
58F
330
48C
100
AcDbEntity
  8
DIBUJOS
 62
    29
100
AcDb2dPolyline
 66
     1
 10
0.0
 20
0.0
 30
0.0
  0
VERTEX
  5
590
330
58F
100
AcDbEntity
  8
DIBUJOS
 62
    29
100
AcDbVertex
100
AcDb2dVertex
 10
81.49345571845602
 20
46.41688644452142
 30
0.0
  0
VERTEX
  5
591
330
58F
100
AcDbEntity
  8
DIBUJOS
 62
    29
100
AcDbVertex
100
AcDb2dVertex
 10
81.48767494541283
 20
46.41688644452142
 30
0.0
  0
SEQEND
  5
592
330
58F
100
AcDbEntity
  8
DIBUJOS
 62
    29
  0
POLYLINE
  5
593
330
48C
100
AcDbEntity
  8
DIBUJOS
 62
    29
100
AcDb2dPolyline
 66
     1
 10
0.0
 20
0.0
 30
0.0
  0
VERTEX
  5
594
330
593
100
AcDbEntity
  8
DIBUJOS
 62
    29
100
AcDbVertex
100
AcDb2dVertex
 10
81.51079492629881
 20
46.41688644452142
 30
0.0
  0
VERTEX
  5
595
330
593
100
AcDbEntity
  8
DIBUJOS
 62
    29
100
AcDbVertex
100
AcDb2dVertex
 10
81.51079492629881
 20
46.42266721756461
 30
0.0
  0
SEQEND
  5
596
330
593
100
AcDbEntity
  8
DIBUJOS
 62
    29
  0
POLYLINE
  5
597
330
48C
100
AcDbEntity
  8
DIBUJOS
 62
    29
100
AcDb2dPolyline
 66
     1
 10
0.0
 20
0.0
 30
0.0
  0
VERTEX
  5
598
330
597
100
AcDbEntity
  8
DIBUJOS
 62
    29
100
AcDbVertex
100
AcDb2dVertex
 10
81.4992364914992
 20
46.41110878276564
 30
0.0
  0
VERTEX
  5
599
330
597
100
AcDbEntity
  8
DIBUJOS
 62
    29
100
AcDbVertex
100
AcDb2dVertex
 10
81.49345571845602
 20
46.41688644452142
 30
0.0
  0
SEQEND
  5
59A
330
597
100
AcDbEntity
  8
DIBUJOS
 62
    29
  0
POLYLINE
  5
59B
330
48C
100
AcDbEntity
  8
DIBUJOS
 62
    29
100
AcDb2dPolyline
 66
     1
 10
0.0
 20
0.0
 30
0.0
  0
VERTEX
  5
59C
330
59B
100
AcDbEntity
  8
DIBUJOS
 62
    29
100
AcDbVertex
100
AcDb2dVertex
 10
81.50501726454368
 20
46.41110878276564
 30
0.0
  0
VERTEX
  5
59D
330
59B
100
AcDbEntity
  8
DIBUJOS
 62
    29
100
AcDbVertex
100
AcDb2dVertex
 10
81.4992364914992
 20
46.41110878276564
 30
0.0
  0
SEQEND
  5
59E
330
59B
100
AcDbEntity
  8
DIBUJOS
 62
    29
  0
POLYLINE
  5
59F
330
48C
100
AcDbEntity
  8
DIBUJOS
 62
    29
100
AcDb2dPolyline
 66
     1
 10
0.0
 20
0.0
 30
0.0
  0
VERTEX
  5
5A0
330
59F
100
AcDbEntity
  8
DIBUJOS
 62
    29
100
AcDbVertex
100
AcDb2dVertex
 10
81.50501726454368
 20
46.41110878276564
 30
0.0
  0
VERTEX
  5
5A1
330
59F
100
AcDbEntity
  8
DIBUJOS
 62
    29
100
AcDbVertex
100
AcDb2dVertex
 10
81.51079492629881
 20
46.41688644452142
 30
0.0
  0
SEQEND
  5
5A2
330
59F
100
AcDbEntity
  8
DIBUJOS
 62
    29
  0
POLYLINE
  5
5A3
330
48C
100
AcDbEntity
  8
DIBUJOS
 62
    29
100
AcDb2dPolyline
 66
     1
 10
0.0
 20
0.0
 30
0.0
  0
VERTEX
  5
5A4
330
5A3
100
AcDbEntity
  8
DIBUJOS
 62
    29
100
AcDbVertex
100
AcDb2dVertex
 10
81.75933083171597
 20
46.41110878276564
 30
0.0
  0
VERTEX
  5
5A5
330
5A3
100
AcDbEntity
  8
DIBUJOS
 62
    29
100
AcDbVertex
100
AcDb2dVertex
 10
81.76048511955152
 20
46.41630774495962
 30
0.0
  0
VERTEX
  5
5A6
330
5A3
100
AcDbEntity
  8
DIBUJOS
 62
    29
100
AcDbVertex
100
AcDb2dVertex
 10
81.83446843613035
 20
46.5267055759088
 30
0.0
  0
VERTEX
  5
5A7
330
5A3
100
AcDbEntity
  8
DIBUJOS
 62
    29
100
AcDbVertex
100
AcDb2dVertex
 10
81.89226683270192
 20
46.58450397248038
 30
0.0
  0
VERTEX
  5
5A8
330
5A3
100
AcDbEntity
  8
DIBUJOS
 62
    29
100
AcDbVertex
100
AcDb2dVertex
 10
84.25060444431479
 20
46.70893060087551
 30
0.0
  0
VERTEX
  5
5A9
330
5A3
100
AcDbEntity
  8
DIBUJOS
 62
    29
100
AcDbVertex
100
AcDb2dVertex
 10
84.45853493046948
 20
46.72322074651016
 30
0.0
  0
VERTEX
  5
5AA
330
5A3
100
AcDbEntity
  8
DIBUJOS
 62
    29
100
AcDbVertex
100
AcDb2dVertex
 10
84.47009647655587
 20
46.71166231171119
 30
0.0
  0
VERTEX
  5
5AB
330
5A3
100
AcDbEntity
  8
DIBUJOS
 62
    29
100
AcDbVertex
100
AcDb2dVertex
 10
84.47330110316253
 20
46.69406486696713
 30
0.0
  0
VERTEX
  5
5AC
330
5A3
100
AcDbEntity
  8
DIBUJOS
 62
    29
100
AcDbVertex
100
AcDb2dVertex
 10
84.48743568439866
 20
46.55560321855056
 30
0.0
  0
SEQEND
  5
5AD
330
5A3
100
AcDbEntity
  8
DIBUJOS
 62
    29
  0
POLYLINE
  5
5AE
330
48C
100
AcDbEntity
  8
DIBUJOS
 62
    29
100
AcDb2dPolyline
 66
     1
 10
0.0
 20
0.0
 30
0.0
  0
VERTEX
  5
5AF
330
5AE
100
AcDbEntity
  8
DIBUJOS
 62
    29
100
AcDbVertex
100
AcDb2dVertex
 10
81.50501726454368
 20
46.40532800972181
 30
0.0
  0
VERTEX
  5
5B0
330
5AE
100
AcDbEntity
  8
DIBUJOS
 62
    29
100
AcDbVertex
100
AcDb2dVertex
 10
81.50501726454368
 20
46.41110878276564
 30
0.0
  0
SEQEND
  5
5B1
330
5AE
100
AcDbEntity
  8
DIBUJOS
 62
    29
  0
POLYLINE
  5
5B2
330
48C
100
AcDbEntity
  8
DIBUJOS
 62
    29
100
AcDb2dPolyline
 66
     1
 10
0.0
 20
0.0
 30
0.0
  0
VERTEX
  5
5B3
330
5B2
100
AcDbEntity
  8
DIBUJOS
 62
    29
100
AcDbVertex
100
AcDb2dVertex
 10
81.75933083171597
 20
46.40532800972181
 30
0.0
  0
VERTEX
  5
5B4
330
5B2
100
AcDbEntity
  8
DIBUJOS
 62
    29
100
AcDbVertex
100
AcDb2dVertex
 10
81.75933083171597
 20
46.41110878276564
 30
0.0
  0
SEQEND
  5
5B5
330
5B2
100
AcDbEntity
  8
DIBUJOS
 62
    29
  0
POLYLINE
  5
5B6
330
48C
100
AcDbEntity
  8
DIBUJOS
 62
    29
100
AcDb2dPolyline
 66
     1
 10
0.0
 20
0.0
 30
0.0
  0
VERTEX
  5
5B7
330
5B6
100
AcDbEntity
  8
DIBUJOS
 62
    29
100
AcDbVertex
100
AcDb2dVertex
 10
81.76511160475917
 20
46.40532800972181
 30
0.0
  0
VERTEX
  5
5B8
330
5B6
100
AcDbEntity
  8
DIBUJOS
 62
    29
100
AcDbVertex
100
AcDb2dVertex
 10
81.75933083171597
 20
46.40532800972181
 30
0.0
  0
SEQEND
  5
5B9
330
5B6
100
AcDbEntity
  8
DIBUJOS
 62
    29
  0
POLYLINE
  5
5BA
330
48C
100
AcDbEntity
  8
DIBUJOS
 62
    29
100
AcDb2dPolyline
 66
     1
 10
0.0
 20
0.0
 30
0.0
  0
VERTEX
  5
5BB
330
5BA
100
AcDbEntity
  8
DIBUJOS
 62
    29
100
AcDbVertex
100
AcDb2dVertex
 10
81.76511160475917
 20
46.40532800972181
 30
0.0
  0
VERTEX
  5
5BC
330
5BA
100
AcDbEntity
  8
DIBUJOS
 62
    29
100
AcDbVertex
100
AcDb2dVertex
 10
81.93865924758498
 20
46.41416717883798
 30
0.0
  0
VERTEX
  5
5BD
330
5BA
100
AcDbEntity
  8
DIBUJOS
 62
    29
100
AcDbVertex
100
AcDb2dVertex
 10
83.53375436274686
 20
46.50358559502281
 30
0.0
  0
VERTEX
  5
5BE
330
5BA
100
AcDbEntity
  8
DIBUJOS
 62
    29
100
AcDbVertex
100
AcDb2dVertex
 10
83.55051487102722
 20
46.49607183458163
 30
0.0
  0
VERTEX
  5
5BF
330
5BA
100
AcDbEntity
  8
DIBUJOS
 62
    29
100
AcDbVertex
100
AcDb2dVertex
 10
83.55687434363284
 20
46.49202404893579
 30
0.0
  0
VERTEX
  5
5C0
330
5BA
100
AcDbEntity
  8
DIBUJOS
 62
    29
100
AcDbVertex
100
AcDb2dVertex
 10
83.58577198627525
 20
46.49202404893579
 30
0.0
  0
VERTEX
  5
5C1
330
5BA
100
AcDbEntity
  8
DIBUJOS
 62
    29
100
AcDbVertex
100
AcDb2dVertex
 10
83.59155275931843
 20
46.49780482197898
 30
0.0
  0
SEQEND
  5
5C2
330
5BA
100
AcDbEntity
  8
DIBUJOS
 62
    29
  0
POLYLINE
  5
5C3
330
48C
100
AcDbEntity
  8
DIBUJOS
 62
    29
100
AcDb2dPolyline
 66
     1
 10
0.0
 20
0.0
 30
0.0
  0
VERTEX
  5
5C4
330
5C3
100
AcDbEntity
  8
DIBUJOS
 62
    29
100
AcDbVertex
100
AcDb2dVertex
 10
81.47611651061322
 20
46.39954723667862
 30
0.0
  0
VERTEX
  5
5C5
330
5C3
100
AcDbEntity
  8
DIBUJOS
 62
    29
100
AcDbVertex
100
AcDb2dVertex
 10
81.48767494541283
 20
46.41688644452142
 30
0.0
  0
SEQEND
  5
5C6
330
5C3
100
AcDbEntity
  8
DIBUJOS
 62
    29
  0
POLYLINE
  5
5C7
330
48C
100
AcDbEntity
  8
DIBUJOS
 62
    29
100
AcDb2dPolyline
 66
     1
 10
0.0
 20
0.0
 30
0.0
  0
VERTEX
  5
5C8
330
5C7
100
AcDbEntity
  8
DIBUJOS
 62
    29
100
AcDbVertex
100
AcDb2dVertex
 10
81.47611651061322
 20
46.39376646363479
 30
0.0
  0
VERTEX
  5
5C9
330
5C7
100
AcDbEntity
  8
DIBUJOS
 62
    29
100
AcDbVertex
100
AcDb2dVertex
 10
81.47611651061322
 20
46.39954723667862
 30
0.0
  0
SEQEND
  5
5CA
330
5C7
100
AcDbEntity
  8
DIBUJOS
 62
    29
  0
POLYLINE
  5
5CB
330
48C
100
AcDbEntity
  8
DIBUJOS
 62
    29
100
AcDb2dPolyline
 66
     1
 10
0.0
 20
0.0
 30
0.0
  0
VERTEX
  5
5CC
330
5CB
100
AcDbEntity
  8
DIBUJOS
 62
    29
100
AcDbVertex
100
AcDb2dVertex
 10
81.48189728365641
 20
46.39376646363479
 30
0.0
  0
VERTEX
  5
5CD
330
5CB
100
AcDbEntity
  8
DIBUJOS
 62
    29
100
AcDbVertex
100
AcDb2dVertex
 10
81.47611651061322
 20
46.39376646363479
 30
0.0
  0
SEQEND
  5
5CE
330
5CB
100
AcDbEntity
  8
DIBUJOS
 62
    29
  0
POLYLINE
  5
5CF
330
48C
100
AcDbEntity
  8
DIBUJOS
 62
    29
100
AcDb2dPolyline
 66
     1
 10
0.0
 20
0.0
 30
0.0
  0
VERTEX
  5
5D0
330
5CF
100
AcDbEntity
  8
DIBUJOS
 62
    29
100
AcDbVertex
100
AcDb2dVertex
 10
81.49345571845602
 20
46.38220802883583
 30
0.0
  0
VERTEX
  5
5D1
330
5CF
100
AcDbEntity
  8
DIBUJOS
 62
    29
100
AcDbVertex
100
AcDb2dVertex
 10
81.48189728365641
 20
46.39376646363479
 30
0.0
  0
SEQEND
  5
5D2
330
5CF
100
AcDbEntity
  8
DIBUJOS
 62
    29
  0
POLYLINE
  5
5D3
330
48C
100
AcDbEntity
  8
DIBUJOS
 62
    29
100
AcDb2dPolyline
 66
     1
 10
0.0
 20
0.0
 30
0.0
  0
VERTEX
  5
5D4
330
5D3
100
AcDbEntity
  8
DIBUJOS
 62
    29
100
AcDbVertex
100
AcDb2dVertex
 10
81.49345571845602
 20
46.38220802883583
 30
0.0
  0
VERTEX
  5
5D5
330
5D3
100
AcDbEntity
  8
DIBUJOS
 62
    29
100
AcDbVertex
100
AcDb2dVertex
 10
81.50501726454368
 20
46.40532800972181
 30
0.0
  0
SEQEND
  5
5D6
330
5D3
100
AcDbEntity
  8
DIBUJOS
 62
    29
  0
POLYLINE
  5
5D7
330
48C
100
AcDbEntity
  8
DIBUJOS
 62
    29
100
AcDb2dPolyline
 66
     1
 10
0.0
 20
0.0
 30
0.0
  0
VERTEX
  5
5D8
330
5D7
100
AcDbEntity
  8
DIBUJOS
 62
    29
100
AcDbVertex
100
AcDb2dVertex
 10
81.22180294344093
 20
46.06431529204748
 30
0.0
  0
VERTEX
  5
5D9
330
5D7
100
AcDbEntity
  8
DIBUJOS
 62
    29
100
AcDbVertex
100
AcDb2dVertex
 10
81.22353593083892
 20
46.07529502728465
 30
0.0
  0
VERTEX
  5
5DA
330
5D7
100
AcDbEntity
  8
DIBUJOS
 62
    29
100
AcDbVertex
100
AcDb2dVertex
 10
81.25212244468304
 20
46.11514751486037
 30
0.0
  0
VERTEX
  5
5DB
330
5D7
100
AcDbEntity
  8
DIBUJOS
 62
    29
100
AcDbVertex
100
AcDb2dVertex
 10
81.27817948141151
 20
46.14641595893313
 30
0.0
  0
VERTEX
  5
5DC
330
5D7
100
AcDbEntity
  8
DIBUJOS
 62
    29
100
AcDbVertex
100
AcDb2dVertex
 10
81.41965285657953
 20
46.31773903086226
 30
0.0
  0
VERTEX
  5
5DD
330
5D7
100
AcDbEntity
  8
DIBUJOS
 62
    29
100
AcDbVertex
100
AcDb2dVertex
 10
81.42854491759014
 20
46.33107712237882
 30
0.0
  0
VERTEX
  5
5DE
330
5D7
100
AcDbEntity
  8
DIBUJOS
 62
    29
100
AcDbVertex
100
AcDb2dVertex
 10
81.47611651061322
 20
46.39376646363479
 30
0.0
  0
SEQEND
  5
5DF
330
5D7
100
AcDbEntity
  8
DIBUJOS
 62
    29
  0
POLYLINE
  5
5E0
330
48C
100
AcDbEntity
  8
DIBUJOS
 62
    29
100
AcDb2dPolyline
 66
     1
 10
0.0
 20
0.0
 30
0.0
  0
VERTEX
  5
5E1
330
5E0
100
AcDbEntity
  8
DIBUJOS
 62
    29
100
AcDbVertex
100
AcDb2dVertex
 10
81.22180294344093
 20
46.05853451900429
 30
0.0
  0
VERTEX
  5
5E2
330
5E0
100
AcDbEntity
  8
DIBUJOS
 62
    29
100
AcDbVertex
100
AcDb2dVertex
 10
81.21602217039646
 20
46.05853451900429
 30
0.0
  0
SEQEND
  5
5E3
330
5E0
100
AcDbEntity
  8
DIBUJOS
 62
    29
  0
POLYLINE
  5
5E4
330
48C
100
AcDbEntity
  8
DIBUJOS
 62
    29
100
AcDb2dPolyline
 66
     1
 10
0.0
 20
0.0
 30
0.0
  0
VERTEX
  5
5E5
330
5E4
100
AcDbEntity
  8
DIBUJOS
 62
    29
100
AcDbVertex
100
AcDb2dVertex
 10
81.22180294344093
 20
46.05853451900429
 30
0.0
  0
VERTEX
  5
5E6
330
5E4
100
AcDbEntity
  8
DIBUJOS
 62
    29
100
AcDbVertex
100
AcDb2dVertex
 10
81.22180294344093
 20
46.06431529204748
 30
0.0
  0
SEQEND
  5
5E7
330
5E4
100
AcDbEntity
  8
DIBUJOS
 62
    29
  0
POLYLINE
  5
5E8
330
48C
100
AcDbEntity
  8
DIBUJOS
 62
    29
100
AcDb2dPolyline
 66
     1
 10
0.0
 20
0.0
 30
0.0
  0
VERTEX
  5
5E9
330
5E8
100
AcDbEntity
  8
DIBUJOS
 62
    29
100
AcDbVertex
100
AcDb2dVertex
 10
81.22180294344093
 20
46.05275374596046
 30
0.0
  0
VERTEX
  5
5EA
330
5E8
100
AcDbEntity
  8
DIBUJOS
 62
    29
100
AcDbVertex
100
AcDb2dVertex
 10
81.22180294344093
 20
46.05853451900429
 30
0.0
  0
SEQEND
  5
5EB
330
5E8
100
AcDbEntity
  8
DIBUJOS
 62
    29
  0
POLYLINE
  5
5EC
330
48C
100
AcDbEntity
  8
DIBUJOS
 62
    29
100
AcDb2dPolyline
 66
     1
 10
0.0
 20
0.0
 30
0.0
  0
VERTEX
  5
5ED
330
5EC
100
AcDbEntity
  8
DIBUJOS
 62
    29
100
AcDbVertex
100
AcDb2dVertex
 10
81.1466622277385
 20
45.99495534938888
 30
0.0
  0
VERTEX
  5
5EE
330
5EC
100
AcDbEntity
  8
DIBUJOS
 62
    29
100
AcDbVertex
100
AcDb2dVertex
 10
81.21024139735327
 20
46.05853451900429
 30
0.0
  0
VERTEX
  5
5EF
330
5EC
100
AcDbEntity
  8
DIBUJOS
 62
    29
100
AcDbVertex
100
AcDb2dVertex
 10
81.21602217039646
 20
46.05853451900429
 30
0.0
  0
SEQEND
  5
5F0
330
5EC
100
AcDbEntity
  8
DIBUJOS
 62
    29
  0
POLYLINE
  5
5F1
330
48C
100
AcDbEntity
  8
DIBUJOS
 62
    29
100
AcDb2dPolyline
 66
     1
 10
0.0
 20
0.0
 30
0.0
  0
VERTEX
  5
5F2
330
5F1
100
AcDbEntity
  8
DIBUJOS
 62
    29
100
AcDbVertex
100
AcDb2dVertex
 10
81.67841245425842
 20
47.17983025732764
 30
0.0
  0
VERTEX
  5
5F3
330
5F1
100
AcDbEntity
  8
DIBUJOS
 62
    29
100
AcDbVertex
100
AcDb2dVertex
 10
81.67263168121522
 20
47.18561103037147
 30
0.0
  0
VERTEX
  5
5F4
330
5F1
100
AcDbEntity
  8
DIBUJOS
 62
    29
100
AcDbVertex
100
AcDb2dVertex
 10
81.67263168121522
 20
47.20295023821426
 30
0.0
  0
VERTEX
  5
5F5
330
5F1
100
AcDbEntity
  8
DIBUJOS
 62
    29
100
AcDbVertex
100
AcDb2dVertex
 10
81.67841245425842
 20
47.20873101125746
 30
0.0
  0
VERTEX
  5
5F6
330
5F1
100
AcDbEntity
  8
DIBUJOS
 62
    29
100
AcDbVertex
100
AcDb2dVertex
 10
81.67841245425842
 20
47.41680772794584
 30
0.0
  0
VERTEX
  5
5F7
330
5F1
100
AcDbEntity
  8
DIBUJOS
 62
    29
100
AcDbVertex
100
AcDb2dVertex
 10
81.64702266995452
 20
47.73438933593718
 30
0.0
  0
VERTEX
  5
5F8
330
5F1
100
AcDbEntity
  8
DIBUJOS
 62
    29
100
AcDbVertex
100
AcDb2dVertex
 10
81.63561046568988
 20
47.80366838510879
 30
0.0
  0
VERTEX
  5
5F9
330
5F1
100
AcDbEntity
  8
DIBUJOS
 62
    29
100
AcDbVertex
100
AcDb2dVertex
 10
81.55481031717474
 20
48.22554658834623
 30
0.0
  0
VERTEX
  5
5FA
330
5F1
100
AcDbEntity
  8
DIBUJOS
 62
    29
100
AcDbVertex
100
AcDb2dVertex
 10
81.50297625963675
 20
48.44511640278624
 30
0.0
  0
VERTEX
  5
5FB
330
5F1
100
AcDbEntity
  8
DIBUJOS
 62
    29
100
AcDbVertex
100
AcDb2dVertex
 10
81.46282197712885
 20
48.58376472848063
 30
0.0
  0
VERTEX
  5
5FC
330
5F1
100
AcDbEntity
  8
DIBUJOS
 62
    29
100
AcDbVertex
100
AcDb2dVertex
 10
81.41427032839644
 20
48.72363890163402
 30
0.0
  0
VERTEX
  5
5FD
330
5F1
100
AcDbEntity
  8
DIBUJOS
 62
    29
100
AcDbVertex
100
AcDb2dVertex
 10
81.32699558962003
 20
48.92593484527857
 30
0.0
  0
VERTEX
  5
5FE
330
5F1
100
AcDbEntity
  8
DIBUJOS
 62
    29
100
AcDbVertex
100
AcDb2dVertex
 10
81.27497796609292
 20
49.02997009233469
 30
0.0
  0
VERTEX
  5
5FF
330
5F1
100
AcDbEntity
  8
DIBUJOS
 62
    29
100
AcDbVertex
100
AcDb2dVertex
 10
81.17417534723405
 20
49.19596975055131
 30
0.0
  0
VERTEX
  5
600
330
5F1
100
AcDbEntity
  8
DIBUJOS
 62
    29
100
AcDbVertex
100
AcDb2dVertex
 10
81.1596114082585
 20
49.21539041004389
 30
0.0
  0
VERTEX
  5
601
330
5F1
100
AcDbEntity
  8
DIBUJOS
 62
    29
100
AcDbVertex
100
AcDb2dVertex
 10
81.05852566219518
 20
49.35175816165845
 30
0.0
  0
VERTEX
  5
602
330
5F1
100
AcDbEntity
  8
DIBUJOS
 62
    29
100
AcDbVertex
100
AcDb2dVertex
 10
81.00360520699424
 20
49.41217315141069
 30
0.0
  0
VERTEX
  5
603
330
5F1
100
AcDbEntity
  8
DIBUJOS
 62
    29
100
AcDbVertex
100
AcDb2dVertex
 10
80.83584144849968
 20
49.57991824217689
 30
0.0
  0
VERTEX
  5
604
330
5F1
100
AcDbEntity
  8
DIBUJOS
 62
    29
100
AcDbVertex
100
AcDb2dVertex
 10
80.78123834467057
 20
49.62906414691076
 30
0.0
  0
VERTEX
  5
605
330
5F1
100
AcDbEntity
  8
DIBUJOS
 62
    29
100
AcDbVertex
100
AcDb2dVertex
 10
80.5383307591868
 20
49.84296519467389
 30
0.0
  0
VERTEX
  5
606
330
5F1
100
AcDbEntity
  8
DIBUJOS
 62
    29
100
AcDbVertex
100
AcDb2dVertex
 10
80.3909428255916
 20
49.99602500623404
 30
0.0
  0
VERTEX
  5
607
330
5F1
100
AcDbEntity
  8
DIBUJOS
 62
    29
100
AcDbVertex
100
AcDb2dVertex
 10
80.37997864679474
 20
50.02982292742436
 30
0.0
  0
VERTEX
  5
608
330
5F1
100
AcDbEntity
  8
DIBUJOS
 62
    29
100
AcDbVertex
100
AcDb2dVertex
 10
80.37589974826894
 20
50.04614163281369
 30
0.0
  0
VERTEX
  5
609
330
5F1
100
AcDbEntity
  8
DIBUJOS
 62
    29
100
AcDbVertex
100
AcDb2dVertex
 10
80.35597506012543
 20
50.09924820713029
 30
0.0
  0
VERTEX
  5
60A
330
5F1
100
AcDbEntity
  8
DIBUJOS
 62
    29
100
AcDbVertex
100
AcDb2dVertex
 10
80.35019428708223
 20
50.11080975321732
 30
0.0
  0
VERTEX
  5
60B
330
5F1
100
AcDbEntity
  8
DIBUJOS
 62
    29
100
AcDbVertex
100
AcDb2dVertex
 10
80.3143615835611
 20
50.19114943111372
 30
0.0
  0
VERTEX
  5
60C
330
5F1
100
AcDbEntity
  8
DIBUJOS
 62
    29
100
AcDbVertex
100
AcDb2dVertex
 10
80.23922086785866
 20
50.26628703552809
 30
0.0
  0
VERTEX
  5
60D
330
5F1
100
AcDbEntity
  8
DIBUJOS
 62
    29
100
AcDbVertex
100
AcDb2dVertex
 10
80.18720324433028
 20
50.28940701641408
 30
0.0
  0
VERTEX
  5
60E
330
5F1
100
AcDbEntity
  8
DIBUJOS
 62
    29
100
AcDbVertex
100
AcDb2dVertex
 10
80.1467440556015
 20
50.28940701641408
 30
0.0
  0
VERTEX
  5
60F
330
5F1
100
AcDbEntity
  8
DIBUJOS
 62
    29
100
AcDbVertex
100
AcDb2dVertex
 10
80.12413432594192
 20
50.28158834975202
 30
0.0
  0
VERTEX
  5
610
330
5F1
100
AcDbEntity
  8
DIBUJOS
 62
    29
100
AcDbVertex
100
AcDb2dVertex
 10
80.11726771339794
 20
50.2790028694513
 30
0.0
  0
VERTEX
  5
611
330
5F1
100
AcDbEntity
  8
DIBUJOS
 62
    29
100
AcDbVertex
100
AcDb2dVertex
 10
80.07738411294226
 20
50.26050937377232
 30
0.0
  0
VERTEX
  5
612
330
5F1
100
AcDbEntity
  8
DIBUJOS
 62
    29
100
AcDbVertex
100
AcDb2dVertex
 10
80.02536648941387
 20
50.20848863895652
 30
0.0
  0
VERTEX
  5
613
330
5F1
100
AcDbEntity
  8
DIBUJOS
 62
    29
100
AcDbVertex
100
AcDb2dVertex
 10
79.98721898764552
 20
50.1321936354179
 30
0.0
  0
VERTEX
  5
614
330
5F1
100
AcDbEntity
  8
DIBUJOS
 62
    29
100
AcDbVertex
100
AcDb2dVertex
 10
79.96005433240111
 20
50.05878901840151
 30
0.0
  0
VERTEX
  5
615
330
5F1
100
AcDbEntity
  8
DIBUJOS
 62
    29
100
AcDbVertex
100
AcDb2dVertex
 10
79.93492757077557
 20
49.97678480144316
 30
0.0
  0
VERTEX
  5
616
330
5F1
100
AcDbEntity
  8
DIBUJOS
 62
    29
100
AcDbVertex
100
AcDb2dVertex
 10
79.92506789920658
 20
49.93734611516719
 30
0.0
  0
VERTEX
  5
617
330
5F1
100
AcDbEntity
  8
DIBUJOS
 62
    29
100
AcDbVertex
100
AcDb2dVertex
 10
79.90156211861273
 20
49.78690600807641
 30
0.0
  0
VERTEX
  5
618
330
5F1
100
AcDbEntity
  8
DIBUJOS
 62
    29
100
AcDbVertex
100
AcDb2dVertex
 10
79.89515908797554
 20
49.69393761232055
 30
0.0
  0
VERTEX
  5
619
330
5F1
100
AcDbEntity
  8
DIBUJOS
 62
    29
100
AcDbVertex
100
AcDb2dVertex
 10
79.88664971538473
 20
49.54958318449385
 30
0.0
  0
VERTEX
  5
61A
330
5F1
100
AcDbEntity
  8
DIBUJOS
 62
    29
100
AcDbVertex
100
AcDb2dVertex
 10
79.89522442502351
 20
49.36471356475456
 30
0.0
  0
VERTEX
  5
61B
330
5F1
100
AcDbEntity
  8
DIBUJOS
 62
    29
100
AcDbVertex
100
AcDb2dVertex
 10
79.91872398304125
 20
49.04071648097443
 30
0.0
  0
VERTEX
  5
61C
330
5F1
100
AcDbEntity
  8
DIBUJOS
 62
    29
100
AcDbVertex
100
AcDb2dVertex
 10
79.92973794244578
 20
48.91401550107557
 30
0.0
  0
VERTEX
  5
61D
330
5F1
100
AcDbEntity
  8
DIBUJOS
 62
    29
100
AcDbVertex
100
AcDb2dVertex
 10
79.970057123217
 20
48.5788737837956
 30
0.0
  0
VERTEX
  5
61E
330
5F1
100
AcDbEntity
  8
DIBUJOS
 62
    29
100
AcDbVertex
100
AcDb2dVertex
 10
80.0047355389026
 20
48.31877944357883
 30
0.0
  0
VERTEX
  5
61F
330
5F1
100
AcDbEntity
  8
DIBUJOS
 62
    29
100
AcDbVertex
100
AcDb2dVertex
 10
80.07382791079512
 20
47.93744132255845
 30
0.0
  0
VERTEX
  5
620
330
5F1
100
AcDbEntity
  8
DIBUJOS
 62
    29
100
AcDbVertex
100
AcDb2dVertex
 10
80.10406029597539
 20
47.77471473928388
 30
0.0
  0
VERTEX
  5
621
330
5F1
100
AcDbEntity
  8
DIBUJOS
 62
    29
100
AcDbVertex
100
AcDb2dVertex
 10
80.20658345708
 20
47.3132796208287
 30
0.0
  0
VERTEX
  5
622
330
5F1
100
AcDbEntity
  8
DIBUJOS
 62
    29
100
AcDbVertex
100
AcDb2dVertex
 10
80.2369994082494
 20
47.18516611619239
 30
0.0
  0
VERTEX
  5
623
330
5F1
100
AcDbEntity
  8
DIBUJOS
 62
    29
100
AcDbVertex
100
AcDb2dVertex
 10
80.31262548487504
 20
46.91916032883777
 30
0.0
  0
VERTEX
  5
624
330
5F1
100
AcDbEntity
  8
DIBUJOS
 62
    29
100
AcDbVertex
100
AcDb2dVertex
 10
80.34530023110915
 20
46.80464937519477
 30
0.0
  0
VERTEX
  5
625
330
5F1
100
AcDbEntity
  8
DIBUJOS
 62
    29
100
AcDbVertex
100
AcDb2dVertex
 10
80.47504093935262
 20
46.42786929104664
 30
0.0
  0
VERTEX
  5
626
330
5F1
100
AcDbEntity
  8
DIBUJOS
 62
    29
100
AcDbVertex
100
AcDb2dVertex
 10
80.5010513067602
 20
46.36544752055483
 30
0.0
  0
VERTEX
  5
627
330
5F1
100
AcDbEntity
  8
DIBUJOS
 62
    29
100
AcDbVertex
100
AcDb2dVertex
 10
80.60451096554259
 20
46.1400315960243
 30
0.0
  0
VERTEX
  5
628
330
5F1
100
AcDbEntity
  8
DIBUJOS
 62
    29
100
AcDbVertex
100
AcDb2dVertex
 10
80.62780828984285
 20
46.09410276304804
 30
0.0
  0
VERTEX
  5
629
330
5F1
100
AcDbEntity
  8
DIBUJOS
 62
    29
100
AcDbVertex
100
AcDb2dVertex
 10
80.74347975389816
 20
45.90360482337601
 30
0.0
  0
VERTEX
  5
62A
330
5F1
100
AcDbEntity
  8
DIBUJOS
 62
    29
100
AcDbVertex
100
AcDb2dVertex
 10
80.78690088877134
 20
45.84933151607162
 30
0.0
  0
VERTEX
  5
62B
330
5F1
100
AcDbEntity
  8
DIBUJOS
 62
    29
100
AcDbVertex
100
AcDb2dVertex
 10
80.83336486327849
 20
45.80279909323037
 30
0.0
  0
VERTEX
  5
62C
330
5F1
100
AcDbEntity
  8
DIBUJOS
 62
    29
100
AcDbVertex
100
AcDb2dVertex
 10
80.86540179547957
 20
45.77805502002464
 30
0.0
  0
VERTEX
  5
62D
330
5F1
100
AcDbEntity
  8
DIBUJOS
 62
    29
100
AcDbVertex
100
AcDb2dVertex
 10
80.88136581403971
 20
45.77127552354376
 30
0.0
  0
VERTEX
  5
62E
330
5F1
100
AcDbEntity
  8
DIBUJOS
 62
    29
100
AcDbVertex
100
AcDb2dVertex
 10
80.89176996100376
 20
45.76780643746036
 30
0.0
  0
VERTEX
  5
62F
330
5F1
100
AcDbEntity
  8
DIBUJOS
 62
    29
100
AcDbVertex
100
AcDb2dVertex
 10
80.9501470571365
 20
45.75220021701556
 30
0.0
  0
VERTEX
  5
630
330
5F1
100
AcDbEntity
  8
DIBUJOS
 62
    29
100
AcDbVertex
100
AcDb2dVertex
 10
80.9848254728221
 20
45.75220021701556
 30
0.0
  0
VERTEX
  5
631
330
5F1
100
AcDbEntity
  8
DIBUJOS
 62
    29
100
AcDbVertex
100
AcDb2dVertex
 10
81.04262386939367
 20
45.77532019790154
 30
0.0
  0
VERTEX
  5
632
330
5F1
100
AcDbEntity
  8
DIBUJOS
 62
    29
100
AcDbVertex
100
AcDb2dVertex
 10
81.08886383116692
 20
45.82156015967416
 30
0.0
  0
VERTEX
  5
633
330
5F1
100
AcDbEntity
  8
DIBUJOS
 62
    29
100
AcDbVertex
100
AcDb2dVertex
 10
81.09909063471542
 20
45.83978919587511
 30
0.0
  0
VERTEX
  5
634
330
5F1
100
AcDbEntity
  8
DIBUJOS
 62
    29
100
AcDbVertex
100
AcDb2dVertex
 10
81.10736043813333
 20
45.8556598757973
 30
0.0
  0
VERTEX
  5
635
330
5F1
100
AcDbEntity
  8
DIBUJOS
 62
    29
100
AcDbVertex
100
AcDb2dVertex
 10
81.12111544223772
 20
45.88548468225394
 30
0.0
  0
VERTEX
  5
636
330
5F1
100
AcDbEntity
  8
DIBUJOS
 62
    29
100
AcDbVertex
100
AcDb2dVertex
 10
81.12932301989571
 20
45.94293772586114
 30
0.0
  0
VERTEX
  5
637
330
5F1
100
AcDbEntity
  8
DIBUJOS
 62
    29
100
AcDbVertex
100
AcDb2dVertex
 10
81.15733394546672
 20
45.96161167624182
 30
0.0
  0
VERTEX
  5
638
330
5F1
100
AcDbEntity
  8
DIBUJOS
 62
    29
100
AcDbVertex
100
AcDb2dVertex
 10
81.17067203698265
 20
45.97050373725244
 30
0.0
  0
VERTEX
  5
639
330
5F1
100
AcDbEntity
  8
DIBUJOS
 62
    29
100
AcDbVertex
100
AcDb2dVertex
 10
81.19868296255366
 20
45.99495534938888
 30
0.0
  0
VERTEX
  5
63A
330
5F1
100
AcDbEntity
  8
DIBUJOS
 62
    29
100
AcDbVertex
100
AcDb2dVertex
 10
81.21398116549081
 20
46.02436635454576
 30
0.0
  0
VERTEX
  5
63B
330
5F1
100
AcDbEntity
  8
DIBUJOS
 62
    29
100
AcDbVertex
100
AcDb2dVertex
 10
81.22180294344093
 20
46.05275374596046
 30
0.0
  0
SEQEND
  5
63C
330
5F1
100
AcDbEntity
  8
DIBUJOS
 62
    29
  0
POLYLINE
  5
63D
330
48C
100
AcDbEntity
  8
DIBUJOS
 62
    29
100
AcDb2dPolyline
 66
     1
 10
0.0
 20
0.0
 30
0.0
  0
VERTEX
  5
63E
330
63D
100
AcDbEntity
  8
DIBUJOS
 62
    29
100
AcDbVertex
100
AcDb2dVertex
 10
80.383718414931
 20
42.61950503268652
 30
0.0
  0
VERTEX
  5
63F
330
63D
100
AcDbEntity
  8
DIBUJOS
 62
    29
100
AcDbVertex
100
AcDb2dVertex
 10
80.38545140232898
 20
42.63048632356771
 30
0.0
  0
VERTEX
  5
640
330
63D
100
AcDbEntity
  8
DIBUJOS
 62
    29
100
AcDbVertex
100
AcDb2dVertex
 10
81.49345571845602
 20
46.38220802883583
 30
0.0
  0
SEQEND
  5
641
330
63D
100
AcDbEntity
  8
DIBUJOS
 62
    29
  0
POLYLINE
  5
642
330
48C
100
AcDbEntity
  8
DIBUJOS
 62
    29
100
AcDb2dPolyline
 66
     1
 10
0.0
 20
0.0
 30
0.0
  0
VERTEX
  5
643
330
642
100
AcDbEntity
  8
DIBUJOS
 62
    29
100
AcDbVertex
100
AcDb2dVertex
 10
80.383718414931
 20
42.61372581528735
 30
0.0
  0
VERTEX
  5
644
330
642
100
AcDbEntity
  8
DIBUJOS
 62
    29
100
AcDbVertex
100
AcDb2dVertex
 10
80.383718414931
 20
42.61950503268652
 30
0.0
  0
SEQEND
  5
645
330
642
100
AcDbEntity
  8
DIBUJOS
 62
    29
  0
POLYLINE
  5
646
330
48C
100
AcDbEntity
  8
DIBUJOS
 62
    29
100
AcDb2dPolyline
 66
     1
 10
0.0
 20
0.0
 30
0.0
  0
VERTEX
  5
647
330
646
100
AcDbEntity
  8
DIBUJOS
 62
    29
100
AcDbVertex
100
AcDb2dVertex
 10
80.38949918797547
 20
42.61372581528735
 30
0.0
  0
VERTEX
  5
648
330
646
100
AcDbEntity
  8
DIBUJOS
 62
    29
100
AcDbVertex
100
AcDb2dVertex
 10
80.383718414931
 20
42.61372581528735
 30
0.0
  0
SEQEND
  5
649
330
646
100
AcDbEntity
  8
DIBUJOS
 62
    29
  0
POLYLINE
  5
64A
330
48C
100
AcDbEntity
  8
DIBUJOS
 62
    29
100
AcDb2dPolyline
 66
     1
 10
0.0
 20
0.0
 30
0.0
  0
VERTEX
  5
64B
330
64A
100
AcDbEntity
  8
DIBUJOS
 62
    29
100
AcDbVertex
100
AcDb2dVertex
 10
80.383718414931
 20
42.60794504224352
 30
0.0
  0
VERTEX
  5
64C
330
64A
100
AcDbEntity
  8
DIBUJOS
 62
    29
100
AcDbVertex
100
AcDb2dVertex
 10
80.383718414931
 20
42.61372581528735
 30
0.0
  0
SEQEND
  5
64D
330
64A
100
AcDbEntity
  8
DIBUJOS
 62
    29
  0
POLYLINE
  5
64E
330
48C
100
AcDbEntity
  8
DIBUJOS
 62
    29
100
AcDb2dPolyline
 66
     1
 10
0.0
 20
0.0
 30
0.0
  0
VERTEX
  5
64F
330
64E
100
AcDbEntity
  8
DIBUJOS
 62
    29
100
AcDbVertex
100
AcDb2dVertex
 10
84.92670598737463
 20
42.59060583440073
 30
0.0
  0
VERTEX
  5
650
330
64E
100
AcDbEntity
  8
DIBUJOS
 62
    29
100
AcDbVertex
100
AcDb2dVertex
 10
84.92365692516584
 20
42.67166733110519
 30
0.0
  0
VERTEX
  5
651
330
64E
100
AcDbEntity
  8
DIBUJOS
 62
    29
100
AcDbVertex
100
AcDb2dVertex
 10
84.69871391640564
 20
46.69406486696713
 30
0.0
  0
VERTEX
  5
652
330
64E
100
AcDbEntity
  8
DIBUJOS
 62
    29
100
AcDbVertex
100
AcDb2dVertex
 10
84.69550928979899
 20
46.71166231171119
 30
0.0
  0
SEQEND
  5
653
330
64E
100
AcDbEntity
  8
DIBUJOS
 62
    29
  0
POLYLINE
  5
654
330
48C
100
AcDbEntity
  8
DIBUJOS
 62
    29
100
AcDb2dPolyline
 66
     1
 10
0.0
 20
0.0
 30
0.0
  0
VERTEX
  5
655
330
654
100
AcDbEntity
  8
DIBUJOS
 62
    29
100
AcDbVertex
100
AcDb2dVertex
 10
84.92670598737463
 20
42.58482506135753
 30
0.0
  0
VERTEX
  5
656
330
654
100
AcDbEntity
  8
DIBUJOS
 62
    29
100
AcDbVertex
100
AcDb2dVertex
 10
84.92092521433017
 20
42.58482506135753
 30
0.0
  0
SEQEND
  5
657
330
654
100
AcDbEntity
  8
DIBUJOS
 62
    29
  0
POLYLINE
  5
658
330
48C
100
AcDbEntity
  8
DIBUJOS
 62
    29
100
AcDb2dPolyline
 66
     1
 10
0.0
 20
0.0
 30
0.0
  0
VERTEX
  5
659
330
658
100
AcDbEntity
  8
DIBUJOS
 62
    29
100
AcDbVertex
100
AcDb2dVertex
 10
84.92670598737463
 20
42.58482506135753
 30
0.0
  0
VERTEX
  5
65A
330
658
100
AcDbEntity
  8
DIBUJOS
 62
    29
100
AcDbVertex
100
AcDb2dVertex
 10
84.92670598737463
 20
42.59060583440073
 30
0.0
  0
SEQEND
  5
65B
330
658
100
AcDbEntity
  8
DIBUJOS
 62
    29
  0
POLYLINE
  5
65C
330
48C
100
AcDbEntity
  8
DIBUJOS
 62
    29
100
AcDb2dPolyline
 66
     1
 10
0.0
 20
0.0
 30
0.0
  0
VERTEX
  5
65D
330
65C
100
AcDbEntity
  8
DIBUJOS
 62
    29
100
AcDbVertex
100
AcDb2dVertex
 10
84.92670598737463
 20
42.57904584395774
 30
0.0
  0
VERTEX
  5
65E
330
65C
100
AcDbEntity
  8
DIBUJOS
 62
    29
100
AcDbVertex
100
AcDb2dVertex
 10
84.92670598737463
 20
42.58482506135753
 30
0.0
  0
SEQEND
  5
65F
330
65C
100
AcDbEntity
  8
DIBUJOS
 62
    29
  0
POLYLINE
  5
660
330
48C
100
AcDbEntity
  8
DIBUJOS
 62
    29
100
AcDb2dPolyline
 66
     1
 10
0.0
 20
0.0
 30
0.0
  0
VERTEX
  5
661
330
660
100
AcDbEntity
  8
DIBUJOS
 62
    29
100
AcDbVertex
100
AcDb2dVertex
 10
84.71284849764179
 20
42.57326662655793
 30
0.0
  0
VERTEX
  5
662
330
660
100
AcDbEntity
  8
DIBUJOS
 62
    29
100
AcDbVertex
100
AcDb2dVertex
 10
84.48743568439866
 20
46.54404478375159
 30
0.0
  0
SEQEND
  5
663
330
660
100
AcDbEntity
  8
DIBUJOS
 62
    29
  0
POLYLINE
  5
664
330
48C
100
AcDbEntity
  8
DIBUJOS
 62
    29
100
AcDb2dPolyline
 66
     1
 10
0.0
 20
0.0
 30
0.0
  0
VERTEX
  5
665
330
664
100
AcDbEntity
  8
DIBUJOS
 62
    29
100
AcDbVertex
100
AcDb2dVertex
 10
84.71862927068625
 20
42.57326662655793
 30
0.0
  0
VERTEX
  5
666
330
664
100
AcDbEntity
  8
DIBUJOS
 62
    29
100
AcDbVertex
100
AcDb2dVertex
 10
84.71284849764179
 20
42.57326662655793
 30
0.0
  0
SEQEND
  5
667
330
664
100
AcDbEntity
  8
DIBUJOS
 62
    29
  0
POLYLINE
  5
668
330
48C
100
AcDbEntity
  8
DIBUJOS
 62
    29
100
AcDb2dPolyline
 66
     1
 10
0.0
 20
0.0
 30
0.0
  0
VERTEX
  5
669
330
668
100
AcDbEntity
  8
DIBUJOS
 62
    29
100
AcDbVertex
100
AcDb2dVertex
 10
84.71862927068625
 20
42.57326662655793
 30
0.0
  0
VERTEX
  5
66A
330
668
100
AcDbEntity
  8
DIBUJOS
 62
    29
100
AcDbVertex
100
AcDb2dVertex
 10
84.723831344167
 20
42.57442247003815
 30
0.0
  0
VERTEX
  5
66B
330
668
100
AcDbEntity
  8
DIBUJOS
 62
    29
100
AcDbVertex
100
AcDb2dVertex
 10
84.79388821533111
 20
42.58206690457399
 30
0.0
  0
VERTEX
  5
66C
330
668
100
AcDbEntity
  8
DIBUJOS
 62
    29
100
AcDbVertex
100
AcDb2dVertex
 10
84.92092521433017
 20
42.58482506135753
 30
0.0
  0
SEQEND
  5
66D
330
668
100
AcDbEntity
  8
DIBUJOS
 62
    29
  0
POLYLINE
  5
66E
330
48C
100
AcDbEntity
  8
DIBUJOS
 62
    29
100
AcDb2dPolyline
 66
     1
 10
0.0
 20
0.0
 30
0.0
  0
VERTEX
  5
66F
330
66E
100
AcDbEntity
  8
DIBUJOS
 62
    29
100
AcDbVertex
100
AcDb2dVertex
 10
84.71284849764179
 20
42.56748585351474
 30
0.0
  0
VERTEX
  5
670
330
66E
100
AcDbEntity
  8
DIBUJOS
 62
    29
100
AcDbVertex
100
AcDb2dVertex
 10
84.71284849764179
 20
42.57326662655793
 30
0.0
  0
SEQEND
  5
671
330
66E
100
AcDbEntity
  8
DIBUJOS
 62
    29
  0
POLYLINE
  5
672
330
48C
100
AcDbEntity
  8
DIBUJOS
 62
    29
100
AcDb2dPolyline
 66
     1
 10
0.0
 20
0.0
 30
0.0
  0
VERTEX
  5
673
330
672
100
AcDbEntity
  8
DIBUJOS
 62
    29
100
AcDbVertex
100
AcDb2dVertex
 10
80.580233585533
 20
42.56170663611494
 30
0.0
  0
VERTEX
  5
674
330
672
100
AcDbEntity
  8
DIBUJOS
 62
    29
100
AcDbVertex
100
AcDb2dVertex
 10
80.56809645117222
 20
42.56575286611675
 30
0.0
  0
VERTEX
  5
675
330
672
100
AcDbEntity
  8
DIBUJOS
 62
    29
100
AcDbVertex
100
AcDb2dVertex
 10
80.4004820345007
 20
42.61199127224533
 30
0.0
  0
VERTEX
  5
676
330
672
100
AcDbEntity
  8
DIBUJOS
 62
    29
100
AcDbVertex
100
AcDb2dVertex
 10
80.38949918797547
 20
42.61372581528735
 30
0.0
  0
SEQEND
  5
677
330
672
100
AcDbEntity
  8
DIBUJOS
 62
    29
  0
POLYLINE
  5
678
330
48C
100
AcDbEntity
  8
DIBUJOS
 62
    29
100
AcDb2dPolyline
 66
     1
 10
0.0
 20
0.0
 30
0.0
  0
VERTEX
  5
679
330
678
100
AcDbEntity
  8
DIBUJOS
 62
    29
100
AcDbVertex
100
AcDb2dVertex
 10
80.5860143585762
 20
42.56170663611494
 30
0.0
  0
VERTEX
  5
67A
330
678
100
AcDbEntity
  8
DIBUJOS
 62
    29
100
AcDbVertex
100
AcDb2dVertex
 10
80.580233585533
 20
42.56170663611494
 30
0.0
  0
SEQEND
  5
67B
330
678
100
AcDbEntity
  8
DIBUJOS
 62
    29
  0
POLYLINE
  5
67C
330
48C
100
AcDbEntity
  8
DIBUJOS
 62
    29
100
AcDb2dPolyline
 66
     1
 10
0.0
 20
0.0
 30
0.0
  0
VERTEX
  5
67D
330
67C
100
AcDbEntity
  8
DIBUJOS
 62
    29
100
AcDbVertex
100
AcDb2dVertex
 10
80.59179513161938
 20
42.56170663611494
 30
0.0
  0
VERTEX
  5
67E
330
67C
100
AcDbEntity
  8
DIBUJOS
 62
    29
100
AcDbVertex
100
AcDb2dVertex
 10
80.5860143585762
 20
42.56170663611494
 30
0.0
  0
SEQEND
  5
67F
330
67C
100
AcDbEntity
  8
DIBUJOS
 62
    29
  0
POLYLINE
  5
680
330
48C
100
AcDbEntity
  8
DIBUJOS
 62
    29
100
AcDb2dPolyline
 66
     1
 10
0.0
 20
0.0
 30
0.0
  0
VERTEX
  5
681
330
680
100
AcDbEntity
  8
DIBUJOS
 62
    29
100
AcDbVertex
100
AcDb2dVertex
 10
80.59179513161938
 20
42.56170663611494
 30
0.0
  0
VERTEX
  5
682
330
680
100
AcDbEntity
  8
DIBUJOS
 62
    29
100
AcDbVertex
100
AcDb2dVertex
 10
80.65363820254937
 20
42.7645797236779
 30
0.0
  0
VERTEX
  5
683
330
680
100
AcDbEntity
  8
DIBUJOS
 62
    29
100
AcDbVertex
100
AcDb2dVertex
 10
81.68592621469959
 20
46.2544709900432
 30
0.0
  0
VERTEX
  5
684
330
680
100
AcDbEntity
  8
DIBUJOS
 62
    29
100
AcDbVertex
100
AcDb2dVertex
 10
81.69779266700814
 20
46.28922096535225
 30
0.0
  0
VERTEX
  5
685
330
680
100
AcDbEntity
  8
DIBUJOS
 62
    29
100
AcDbVertex
100
AcDb2dVertex
 10
81.73736824995359
 20
46.37584855623019
 30
0.0
  0
VERTEX
  5
686
330
680
100
AcDbEntity
  8
DIBUJOS
 62
    29
100
AcDbVertex
100
AcDb2dVertex
 10
81.75933083171597
 20
46.40532800972181
 30
0.0
  0
SEQEND
  5
687
330
680
100
AcDbEntity
  8
DIBUJOS
 62
    29
  0
POLYLINE
  5
688
330
48C
100
AcDbEntity
  8
DIBUJOS
 62
    29
100
AcDb2dPolyline
 66
     1
 10
0.0
 20
0.0
 30
0.0
  0
VERTEX
  5
689
330
688
100
AcDbEntity
  8
DIBUJOS
 62
    29
100
AcDbVertex
100
AcDb2dVertex
 10
80.5860143585762
 20
42.55592586307175
 30
0.0
  0
VERTEX
  5
68A
330
688
100
AcDbEntity
  8
DIBUJOS
 62
    29
100
AcDbVertex
100
AcDb2dVertex
 10
80.5860143585762
 20
42.56170663611494
 30
0.0
  0
SEQEND
  5
68B
330
688
100
AcDbEntity
  8
DIBUJOS
 62
    29
  0
POLYLINE
  5
68C
330
48C
100
AcDbEntity
  8
DIBUJOS
 62
    29
100
AcDb2dPolyline
 66
     1
 10
0.0
 20
0.0
 30
0.0
  0
VERTEX
  5
68D
330
68C
100
AcDbEntity
  8
DIBUJOS
 62
    29
100
AcDbVertex
100
AcDb2dVertex
 10
80.383718414931
 20
42.60794504224352
 30
0.0
  0
VERTEX
  5
68E
330
68C
100
AcDbEntity
  8
DIBUJOS
 62
    29
100
AcDbVertex
100
AcDb2dVertex
 10
80.37215998013268
 20
42.59060583440073
 30
0.0
  0
VERTEX
  5
68F
330
68C
100
AcDbEntity
  8
DIBUJOS
 62
    29
100
AcDbVertex
100
AcDb2dVertex
 10
80.37215998013268
 20
42.55014664567194
 30
0.0
  0
VERTEX
  5
690
330
68C
100
AcDbEntity
  8
DIBUJOS
 62
    29
100
AcDbVertex
100
AcDb2dVertex
 10
80.37793764188781
 20
42.53858665522895
 30
0.0
  0
VERTEX
  5
691
330
68C
100
AcDbEntity
  8
DIBUJOS
 62
    29
100
AcDbVertex
100
AcDb2dVertex
 10
80.39527996101866
 20
42.52124744738616
 30
0.0
  0
VERTEX
  5
692
330
68C
100
AcDbEntity
  8
DIBUJOS
 62
    29
100
AcDbVertex
100
AcDb2dVertex
 10
80.413773456697
 20
42.51199914390295
 30
0.0
  0
VERTEX
  5
693
330
68C
100
AcDbEntity
  8
DIBUJOS
 62
    29
100
AcDbVertex
100
AcDb2dVertex
 10
80.49353754631902
 20
42.48656747605654
 30
0.0
  0
VERTEX
  5
694
330
68C
100
AcDbEntity
  8
DIBUJOS
 62
    29
100
AcDbVertex
100
AcDb2dVertex
 10
80.5513359428906
 20
42.48656747605654
 30
0.0
  0
VERTEX
  5
695
330
68C
100
AcDbEntity
  8
DIBUJOS
 62
    29
100
AcDbVertex
100
AcDb2dVertex
 10
80.580233585533
 20
42.51546667434233
 30
0.0
  0
VERTEX
  5
696
330
68C
100
AcDbEntity
  8
DIBUJOS
 62
    29
100
AcDbVertex
100
AcDb2dVertex
 10
80.59179513161938
 20
42.54436587262811
 30
0.0
  0
VERTEX
  5
697
330
68C
100
AcDbEntity
  8
DIBUJOS
 62
    29
100
AcDbVertex
100
AcDb2dVertex
 10
80.5860143585762
 20
42.55592586307175
 30
0.0
  0
SEQEND
  5
698
330
68C
100
AcDbEntity
  8
DIBUJOS
 62
    29
  0
POLYLINE
  5
699
330
48C
100
AcDbEntity
  8
DIBUJOS
 62
    29
100
AcDb2dPolyline
 66
     1
 10
0.0
 20
0.0
 30
0.0
  0
VERTEX
  5
69A
330
699
100
AcDbEntity
  8
DIBUJOS
 62
    29
100
AcDbVertex
100
AcDb2dVertex
 10
84.71284849764179
 20
42.56748585351474
 30
0.0
  0
VERTEX
  5
69B
330
699
100
AcDbEntity
  8
DIBUJOS
 62
    29
100
AcDbVertex
100
AcDb2dVertex
 10
84.71747498284942
 20
42.52066874782435
 30
0.0
  0
VERTEX
  5
69C
330
699
100
AcDbEntity
  8
DIBUJOS
 62
    29
100
AcDbVertex
100
AcDb2dVertex
 10
84.74753002461543
 20
42.48656747605654
 30
0.0
  0
VERTEX
  5
69D
330
699
100
AcDbEntity
  8
DIBUJOS
 62
    29
100
AcDbVertex
100
AcDb2dVertex
 10
84.86890759080178
 20
42.48656747605654
 30
0.0
  0
VERTEX
  5
69E
330
699
100
AcDbEntity
  8
DIBUJOS
 62
    29
100
AcDbVertex
100
AcDb2dVertex
 10
84.89780523344417
 20
42.49812746649953
 30
0.0
  0
VERTEX
  5
69F
330
699
100
AcDbEntity
  8
DIBUJOS
 62
    29
100
AcDbVertex
100
AcDb2dVertex
 10
84.92670598737463
 20
42.52702666478596
 30
0.0
  0
VERTEX
  5
6A0
330
699
100
AcDbEntity
  8
DIBUJOS
 62
    29
100
AcDbVertex
100
AcDb2dVertex
 10
84.92843897477134
 20
42.56806455307655
 30
0.0
  0
VERTEX
  5
6A1
330
699
100
AcDbEntity
  8
DIBUJOS
 62
    29
100
AcDbVertex
100
AcDb2dVertex
 10
84.92670598737463
 20
42.57904584395774
 30
0.0
  0
SEQEND
  5
6A2
330
699
100
AcDbEntity
  8
DIBUJOS
 62
    29
  0
ENDBLK
  5
48F
330
48C
100
AcDbEntity
  8
0
100
AcDbBlockEnd
  0
BLOCK
  5
6A5
330
6A3
100
AcDbEntity
  8
0
100
AcDbBlockBegin
  2
BLOCK_3
 70
     0
 10
0.0
 20
0.0
 30
0.0
  3
BLOCK_3
  1

  0
POLYLINE
  5
6A7
330
6A3
100
AcDbEntity
  8
DIBUJOS
 62
    29
100
AcDb2dPolyline
 66
     1
 10
0.0
 20
0.0
 30
0.0
  0
VERTEX
  5
6A8
330
6A7
100
AcDbEntity
  8
DIBUJOS
 62
    29
100
AcDbVertex
100
AcDb2dVertex
 10
64.1510913118953
 20
32.53094173398842
 30
0.0
  0
VERTEX
  5
6A9
330
6A7
100
AcDbEntity
  8
DIBUJOS
 62
    29
100
AcDbVertex
100
AcDb2dVertex
 10
64.1279728866527
 20
32.53094173398842
 30
0.0
  0
SEQEND
  5
6AA
330
6A7
100
AcDbEntity
  8
DIBUJOS
 62
    29
  0
POLYLINE
  5
6AB
330
6A3
100
AcDbEntity
  8
DIBUJOS
 62
    29
100
AcDb2dPolyline
 66
     1
 10
0.0
 20
0.0
 30
0.0
  0
VERTEX
  5
6AC
330
6AB
100
AcDbEntity
  8
DIBUJOS
 62
    29
100
AcDbVertex
100
AcDb2dVertex
 10
64.19155050062473
 20
32.53094173398842
 30
0.0
  0
VERTEX
  5
6AD
330
6AB
100
AcDbEntity
  8
DIBUJOS
 62
    29
100
AcDbVertex
100
AcDb2dVertex
 10
64.16843207538213
 20
32.53094173398842
 30
0.0
  0
SEQEND
  5
6AE
330
6AB
100
AcDbEntity
  8
DIBUJOS
 62
    29
  0
POLYLINE
  5
6AF
330
6A3
100
AcDbEntity
  8
DIBUJOS
 62
    29
100
AcDb2dPolyline
 66
     1
 10
0.0
 20
0.0
 30
0.0
  0
VERTEX
  5
6B0
330
6AF
100
AcDbEntity
  8
DIBUJOS
 62
    29
100
AcDbVertex
100
AcDb2dVertex
 10
64.2551296702395
 20
32.53094173398842
 30
0.0
  0
VERTEX
  5
6B1
330
6AF
100
AcDbEntity
  8
DIBUJOS
 62
    29
100
AcDbVertex
100
AcDb2dVertex
 10
64.20311049106708
 20
32.53094173398842
 30
0.0
  0
SEQEND
  5
6B2
330
6AF
100
AcDbEntity
  8
DIBUJOS
 62
    29
  0
POLYLINE
  5
6B3
330
6A3
100
AcDbEntity
  8
DIBUJOS
 62
    29
100
AcDb2dPolyline
 66
     1
 10
0.0
 20
0.0
 30
0.0
  0
VERTEX
  5
6B4
330
6B3
100
AcDbEntity
  8
DIBUJOS
 62
    29
100
AcDbVertex
100
AcDb2dVertex
 10
64.94293587863199
 20
32.53094173398842
 30
0.0
  0
VERTEX
  5
6B5
330
6B3
100
AcDbEntity
  8
DIBUJOS
 62
    29
100
AcDbVertex
100
AcDb2dVertex
 10
64.931375888189
 20
32.53094173398842
 30
0.0
  0
SEQEND
  5
6B6
330
6B3
100
AcDbEntity
  8
DIBUJOS
 62
    29
  0
POLYLINE
  5
6B7
330
6A3
100
AcDbEntity
  8
DIBUJOS
 62
    29
100
AcDb2dPolyline
 66
     1
 10
0.0
 20
0.0
 30
0.0
  0
VERTEX
  5
6B8
330
6B7
100
AcDbEntity
  8
DIBUJOS
 62
    29
100
AcDbVertex
100
AcDb2dVertex
 10
65.01807348304635
 20
32.53094173398842
 30
0.0
  0
VERTEX
  5
6B9
330
6B7
100
AcDbEntity
  8
DIBUJOS
 62
    29
100
AcDbVertex
100
AcDb2dVertex
 10
64.97761429431694
 20
32.53094173398842
 30
0.0
  0
SEQEND
  5
6BA
330
6B7
100
AcDbEntity
  8
DIBUJOS
 62
    29
  0
POLYLINE
  5
6BB
330
6A3
100
AcDbEntity
  8
DIBUJOS
 62
    29
100
AcDb2dPolyline
 66
     1
 10
0.0
 20
0.0
 30
0.0
  0
VERTEX
  5
6BC
330
6BB
100
AcDbEntity
  8
DIBUJOS
 62
    29
100
AcDbVertex
100
AcDb2dVertex
 10
65.03541424653254
 20
32.53094173398842
 30
0.0
  0
VERTEX
  5
6BD
330
6BB
100
AcDbEntity
  8
DIBUJOS
 62
    29
100
AcDbVertex
100
AcDb2dVertex
 10
65.02963347348935
 20
32.53094173398842
 30
0.0
  0
SEQEND
  5
6BE
330
6BB
100
AcDbEntity
  8
DIBUJOS
 62
    29
  0
POLYLINE
  5
6BF
330
6A3
100
AcDbEntity
  8
DIBUJOS
 62
    29
100
AcDb2dPolyline
 66
     1
 10
0.0
 20
0.0
 30
0.0
  0
VERTEX
  5
6C0
330
6BF
100
AcDbEntity
  8
DIBUJOS
 62
    29
100
AcDbVertex
100
AcDb2dVertex
 10
65.05275345437533
 20
32.53094173398842
 30
0.0
  0
VERTEX
  5
6C1
330
6BF
100
AcDbEntity
  8
DIBUJOS
 62
    29
100
AcDbVertex
100
AcDb2dVertex
 10
65.04697268133215
 20
32.53094173398842
 30
0.0
  0
SEQEND
  5
6C2
330
6BF
100
AcDbEntity
  8
DIBUJOS
 62
    29
  0
POLYLINE
  5
6C3
330
6A3
100
AcDbEntity
  8
DIBUJOS
 62
    29
100
AcDb2dPolyline
 66
     1
 10
0.0
 20
0.0
 30
0.0
  0
VERTEX
  5
6C4
330
6C3
100
AcDbEntity
  8
DIBUJOS
 62
    29
100
AcDbVertex
100
AcDb2dVertex
 10
65.07009266221813
 20
32.53094173398842
 30
0.0
  0
VERTEX
  5
6C5
330
6C3
100
AcDbEntity
  8
DIBUJOS
 62
    29
100
AcDbVertex
100
AcDb2dVertex
 10
65.06431344481896
 20
32.53094173398842
 30
0.0
  0
SEQEND
  5
6C6
330
6C3
100
AcDbEntity
  8
DIBUJOS
 62
    29
  0
POLYLINE
  5
6C7
330
6A3
100
AcDbEntity
  8
DIBUJOS
 62
    29
100
AcDb2dPolyline
 66
     1
 10
0.0
 20
0.0
 30
0.0
  0
VERTEX
  5
6C8
330
6C7
100
AcDbEntity
  8
DIBUJOS
 62
    29
100
AcDbVertex
100
AcDb2dVertex
 10
62.01831585534794
 20
32.28818660161509
 30
0.0
  0
VERTEX
  5
6C9
330
6C7
100
AcDbEntity
  8
DIBUJOS
 62
    29
100
AcDbVertex
100
AcDb2dVertex
 10
62.01253586012612
 20
32.28818660161509
 30
0.0
  0
SEQEND
  5
6CA
330
6C7
100
AcDbEntity
  8
DIBUJOS
 62
    29
  0
POLYLINE
  5
6CB
330
6A3
100
AcDbEntity
  8
DIBUJOS
 62
    29
100
AcDb2dPolyline
 66
     1
 10
0.0
 20
0.0
 30
0.0
  0
VERTEX
  5
6CC
330
6CB
100
AcDbEntity
  8
DIBUJOS
 62
    29
100
AcDbVertex
100
AcDb2dVertex
 10
62.01831585534794
 20
32.28818660161509
 30
0.0
  0
VERTEX
  5
6CD
330
6CB
100
AcDbEntity
  8
DIBUJOS
 62
    29
100
AcDbVertex
100
AcDb2dVertex
 10
62.01831585534794
 20
32.29396737465828
 30
0.0
  0
SEQEND
  5
6CE
330
6CB
100
AcDbEntity
  8
DIBUJOS
 62
    29
  0
POLYLINE
  5
6CF
330
6A3
100
AcDbEntity
  8
DIBUJOS
 62
    29
100
AcDb2dPolyline
 66
     1
 10
0.0
 20
0.0
 30
0.0
  0
VERTEX
  5
6D0
330
6CF
100
AcDbEntity
  8
DIBUJOS
 62
    29
100
AcDbVertex
100
AcDb2dVertex
 10
62.01831585534794
 20
32.28240738421529
 30
0.0
  0
VERTEX
  5
6D1
330
6CF
100
AcDbEntity
  8
DIBUJOS
 62
    29
100
AcDbVertex
100
AcDb2dVertex
 10
62.01831585534794
 20
32.28818660161509
 30
0.0
  0
SEQEND
  5
6D2
330
6CF
100
AcDbEntity
  8
DIBUJOS
 62
    29
  0
POLYLINE
  5
6D3
330
6A3
100
AcDbEntity
  8
DIBUJOS
 62
    29
100
AcDb2dPolyline
 66
     1
 10
0.0
 20
0.0
 30
0.0
  0
VERTEX
  5
6D4
330
6D3
100
AcDbEntity
  8
DIBUJOS
 62
    29
100
AcDbVertex
100
AcDb2dVertex
 10
62.01253586012612
 20
32.27662661117146
 30
0.0
  0
VERTEX
  5
6D5
330
6D3
100
AcDbEntity
  8
DIBUJOS
 62
    29
100
AcDbVertex
100
AcDb2dVertex
 10
62.01831585534794
 20
32.28240738421529
 30
0.0
  0
SEQEND
  5
6D6
330
6D3
100
AcDbEntity
  8
DIBUJOS
 62
    29
  0
POLYLINE
  5
6D7
330
6A3
100
AcDbEntity
  8
DIBUJOS
 62
    29
100
AcDb2dPolyline
 66
     1
 10
0.0
 20
0.0
 30
0.0
  0
VERTEX
  5
6D8
330
6D7
100
AcDbEntity
  8
DIBUJOS
 62
    29
100
AcDbVertex
100
AcDb2dVertex
 10
64.52678400089926
 20
31.76221714813837
 30
0.0
  0
VERTEX
  5
6D9
330
6D7
100
AcDbEntity
  8
DIBUJOS
 62
    29
100
AcDbVertex
100
AcDb2dVertex
 10
64.53490757378219
 20
31.80228587022719
 30
0.0
  0
VERTEX
  5
6DA
330
6D7
100
AcDbEntity
  8
DIBUJOS
 62
    29
100
AcDbVertex
100
AcDb2dVertex
 10
64.54701359526365
 20
32.08011144057074
 30
0.0
  0
VERTEX
  5
6DB
330
6D7
100
AcDbEntity
  8
DIBUJOS
 62
    29
100
AcDbVertex
100
AcDb2dVertex
 10
64.54133705036725
 20
32.24763096295902
 30
0.0
  0
VERTEX
  5
6DC
330
6D7
100
AcDbEntity
  8
DIBUJOS
 62
    29
100
AcDbVertex
100
AcDb2dVertex
 10
64.51857642324062
 20
32.51325561753722
 30
0.0
  0
VERTEX
  5
6DD
330
6D7
100
AcDbEntity
  8
DIBUJOS
 62
    29
100
AcDbVertex
100
AcDb2dVertex
 10
64.51300099520296
 20
32.54205681025233
 30
0.0
  0
VERTEX
  5
6DE
330
6D7
100
AcDbEntity
  8
DIBUJOS
 62
    29
100
AcDbVertex
100
AcDb2dVertex
 10
64.48632481216983
 20
32.60030012100363
 30
0.0
  0
VERTEX
  5
6DF
330
6D7
100
AcDbEntity
  8
DIBUJOS
 62
    29
100
AcDbVertex
100
AcDb2dVertex
 10
64.44008640604189
 20
32.6465400827756
 30
0.0
  0
VERTEX
  5
6E0
330
6D7
100
AcDbEntity
  8
DIBUJOS
 62
    29
100
AcDbVertex
100
AcDb2dVertex
 10
64.35281011162208
 20
32.696824718906
 30
0.0
  0
VERTEX
  5
6E1
330
6D7
100
AcDbEntity
  8
DIBUJOS
 62
    29
100
AcDbVertex
100
AcDb2dVertex
 10
64.34240596465867
 20
32.70029224934601
 30
0.0
  0
VERTEX
  5
6E2
330
6D7
100
AcDbEntity
  8
DIBUJOS
 62
    29
100
AcDbVertex
100
AcDb2dVertex
 10
64.23739999575675
 20
32.73089487779386
 30
0.0
  0
VERTEX
  5
6E3
330
6D7
100
AcDbEntity
  8
DIBUJOS
 62
    29
100
AcDbVertex
100
AcDb2dVertex
 10
64.20928173075087
 20
32.73558047747272
 30
0.0
  0
VERTEX
  5
6E4
330
6D7
100
AcDbEntity
  8
DIBUJOS
 62
    29
100
AcDbVertex
100
AcDb2dVertex
 10
64.07576236327102
 20
32.75368817344383
 30
0.0
  0
VERTEX
  5
6E5
330
6D7
100
AcDbEntity
  8
DIBUJOS
 62
    29
100
AcDbVertex
100
AcDb2dVertex
 10
63.9085057447161
 20
32.76483591823109
 30
0.0
  0
VERTEX
  5
6E6
330
6D7
100
AcDbEntity
  8
DIBUJOS
 62
    29
100
AcDbVertex
100
AcDb2dVertex
 10
63.54998425400485
 20
32.78525685680538
 30
0.0
  0
VERTEX
  5
6E7
330
6D7
100
AcDbEntity
  8
DIBUJOS
 62
    29
100
AcDbVertex
100
AcDb2dVertex
 10
63.28988991378808
 20
32.78525685680538
 30
0.0
  0
VERTEX
  5
6E8
330
6D7
100
AcDbEntity
  8
DIBUJOS
 62
    29
100
AcDbVertex
100
AcDb2dVertex
 10
63.13971893310614
 20
32.77670237053899
 30
0.0
  0
VERTEX
  5
6E9
330
6D7
100
AcDbEntity
  8
DIBUJOS
 62
    29
100
AcDbVertex
100
AcDb2dVertex
 10
62.83871271176136
 20
32.75300524573459
 30
0.0
  0
VERTEX
  5
6EA
330
6D7
100
AcDbEntity
  8
DIBUJOS
 62
    29
100
AcDbVertex
100
AcDb2dVertex
 10
62.66521796083128
 20
32.72390070244327
 30
0.0
  0
VERTEX
  5
6EB
330
6D7
100
AcDbEntity
  8
DIBUJOS
 62
    29
100
AcDbVertex
100
AcDb2dVertex
 10
62.53908323534263
 20
32.69104550150684
 30
0.0
  0
VERTEX
  5
6EC
330
6D7
100
AcDbEntity
  8
DIBUJOS
 62
    29
100
AcDbVertex
100
AcDb2dVertex
 10
62.45122824136102
 20
32.65983306061658
 30
0.0
  0
VERTEX
  5
6ED
330
6D7
100
AcDbEntity
  8
DIBUJOS
 62
    29
100
AcDbVertex
100
AcDb2dVertex
 10
62.35443762833724
 20
32.61630614195193
 30
0.0
  0
VERTEX
  5
6EE
330
6D7
100
AcDbEntity
  8
DIBUJOS
 62
    29
100
AcDbVertex
100
AcDb2dVertex
 10
62.34109953682066
 20
32.60741408094067
 30
0.0
  0
VERTEX
  5
6EF
330
6D7
100
AcDbEntity
  8
DIBUJOS
 62
    29
100
AcDbVertex
100
AcDb2dVertex
 10
62.23907884872296
 20
32.54109231098266
 30
0.0
  0
VERTEX
  5
6F0
330
6D7
100
AcDbEntity
  8
DIBUJOS
 62
    29
100
AcDbVertex
100
AcDb2dVertex
 10
62.21370396188298
 20
32.52079271263885
 30
0.0
  0
VERTEX
  5
6F1
330
6D7
100
AcDbEntity
  8
DIBUJOS
 62
    29
100
AcDbVertex
100
AcDb2dVertex
 10
62.13969342153428
 20
32.45580412957405
 30
0.0
  0
VERTEX
  5
6F2
330
6D7
100
AcDbEntity
  8
DIBUJOS
 62
    29
100
AcDbVertex
100
AcDb2dVertex
 10
62.08911087958178
 20
32.39671143720808
 30
0.0
  0
VERTEX
  5
6F3
330
6D7
100
AcDbEntity
  8
DIBUJOS
 62
    29
100
AcDbVertex
100
AcDb2dVertex
 10
62.03120903268478
 20
32.31041675414227
 30
0.0
  0
VERTEX
  5
6F4
330
6D7
100
AcDbEntity
  8
DIBUJOS
 62
    29
100
AcDbVertex
100
AcDb2dVertex
 10
62.01831585534794
 20
32.29396737465828
 30
0.0
  0
SEQEND
  5
6F5
330
6D7
100
AcDbEntity
  8
DIBUJOS
 62
    29
  0
POLYLINE
  5
6F6
330
6A3
100
AcDbEntity
  8
DIBUJOS
 62
    29
100
AcDb2dPolyline
 66
     1
 10
0.0
 20
0.0
 30
0.0
  0
VERTEX
  5
6F7
330
6F6
100
AcDbEntity
  8
DIBUJOS
 62
    29
100
AcDbVertex
100
AcDb2dVertex
 10
64.52678400089926
 20
31.75643793073857
 30
0.0
  0
VERTEX
  5
6F8
330
6F6
100
AcDbEntity
  8
DIBUJOS
 62
    29
100
AcDbVertex
100
AcDb2dVertex
 10
64.52100478349945
 20
31.75643793073857
 30
0.0
  0
SEQEND
  5
6F9
330
6F6
100
AcDbEntity
  8
DIBUJOS
 62
    29
  0
POLYLINE
  5
6FA
330
6A3
100
AcDbEntity
  8
DIBUJOS
 62
    29
100
AcDb2dPolyline
 66
     1
 10
0.0
 20
0.0
 30
0.0
  0
VERTEX
  5
6FB
330
6FA
100
AcDbEntity
  8
DIBUJOS
 62
    29
100
AcDbVertex
100
AcDb2dVertex
 10
64.52678400089926
 20
31.75643793073857
 30
0.0
  0
VERTEX
  5
6FC
330
6FA
100
AcDbEntity
  8
DIBUJOS
 62
    29
100
AcDbVertex
100
AcDb2dVertex
 10
64.52678400089926
 20
31.76221714813837
 30
0.0
  0
SEQEND
  5
6FD
330
6FA
100
AcDbEntity
  8
DIBUJOS
 62
    29
  0
POLYLINE
  5
6FE
330
6A3
100
AcDbEntity
  8
DIBUJOS
 62
    29
100
AcDb2dPolyline
 66
     1
 10
0.0
 20
0.0
 30
0.0
  0
VERTEX
  5
6FF
330
6FE
100
AcDbEntity
  8
DIBUJOS
 62
    29
100
AcDbVertex
100
AcDb2dVertex
 10
64.53256477394308
 20
31.75643793073857
 30
0.0
  0
VERTEX
  5
700
330
6FE
100
AcDbEntity
  8
DIBUJOS
 62
    29
100
AcDbVertex
100
AcDb2dVertex
 10
64.52678400089926
 20
31.75643793073857
 30
0.0
  0
SEQEND
  5
701
330
6FE
100
AcDbEntity
  8
DIBUJOS
 62
    29
  0
POLYLINE
  5
702
330
6A3
100
AcDbEntity
  8
DIBUJOS
 62
    29
100
AcDb2dPolyline
 66
     1
 10
0.0
 20
0.0
 30
0.0
  0
VERTEX
  5
703
330
702
100
AcDbEntity
  8
DIBUJOS
 62
    29
100
AcDbVertex
100
AcDb2dVertex
 10
64.67706076537138
 20
31.75643793073857
 30
0.0
  0
VERTEX
  5
704
330
702
100
AcDbEntity
  8
DIBUJOS
 62
    29
100
AcDbVertex
100
AcDb2dVertex
 10
64.53256477394308
 20
31.75643793073857
 30
0.0
  0
SEQEND
  5
705
330
702
100
AcDbEntity
  8
DIBUJOS
 62
    29
  0
POLYLINE
  5
706
330
6A3
100
AcDbEntity
  8
DIBUJOS
 62
    29
100
AcDb2dPolyline
 66
     1
 10
0.0
 20
0.0
 30
0.0
  0
VERTEX
  5
707
330
706
100
AcDbEntity
  8
DIBUJOS
 62
    29
100
AcDbVertex
100
AcDb2dVertex
 10
64.68284153841586
 20
31.75643793073857
 30
0.0
  0
VERTEX
  5
708
330
706
100
AcDbEntity
  8
DIBUJOS
 62
    29
100
AcDbVertex
100
AcDb2dVertex
 10
64.67706076537138
 20
31.75643793073857
 30
0.0
  0
SEQEND
  5
709
330
706
100
AcDbEntity
  8
DIBUJOS
 62
    29
  0
POLYLINE
  5
70A
330
6A3
100
AcDbEntity
  8
DIBUJOS
 62
    29
100
AcDb2dPolyline
 66
     1
 10
0.0
 20
0.0
 30
0.0
  0
VERTEX
  5
70B
330
70A
100
AcDbEntity
  8
DIBUJOS
 62
    29
100
AcDbVertex
100
AcDb2dVertex
 10
64.68284153841586
 20
31.75643793073857
 30
0.0
  0
VERTEX
  5
70C
330
70A
100
AcDbEntity
  8
DIBUJOS
 62
    29
100
AcDbVertex
100
AcDb2dVertex
 10
64.68284153841586
 20
31.76221714813837
 30
0.0
  0
SEQEND
  5
70D
330
70A
100
AcDbEntity
  8
DIBUJOS
 62
    29
  0
POLYLINE
  5
70E
330
6A3
100
AcDbEntity
  8
DIBUJOS
 62
    29
100
AcDb2dPolyline
 66
     1
 10
0.0
 20
0.0
 30
0.0
  0
VERTEX
  5
70F
330
70E
100
AcDbEntity
  8
DIBUJOS
 62
    29
100
AcDbVertex
100
AcDb2dVertex
 10
64.68862075581502
 20
31.75643793073857
 30
0.0
  0
VERTEX
  5
710
330
70E
100
AcDbEntity
  8
DIBUJOS
 62
    29
100
AcDbVertex
100
AcDb2dVertex
 10
64.68284153841586
 20
31.75643793073857
 30
0.0
  0
SEQEND
  5
711
330
70E
100
AcDbEntity
  8
DIBUJOS
 62
    29
  0
POLYLINE
  5
712
330
6A3
100
AcDbEntity
  8
DIBUJOS
 62
    29
100
AcDb2dPolyline
 66
     1
 10
0.0
 20
0.0
 30
0.0
  0
VERTEX
  5
713
330
712
100
AcDbEntity
  8
DIBUJOS
 62
    29
100
AcDbVertex
100
AcDb2dVertex
 10
64.42274564255506
 20
31.687079543724
 30
0.0
  0
VERTEX
  5
714
330
712
100
AcDbEntity
  8
DIBUJOS
 62
    29
100
AcDbVertex
100
AcDb2dVertex
 10
64.43341736028329
 20
31.69419350366168
 30
0.0
  0
VERTEX
  5
715
330
712
100
AcDbEntity
  8
DIBUJOS
 62
    29
100
AcDbVertex
100
AcDb2dVertex
 10
64.50366402001262
 20
31.73909872289577
 30
0.0
  0
VERTEX
  5
716
330
712
100
AcDbEntity
  8
DIBUJOS
 62
    29
100
AcDbVertex
100
AcDb2dVertex
 10
64.50366402001262
 20
31.74487794029557
 30
0.0
  0
VERTEX
  5
717
330
712
100
AcDbEntity
  8
DIBUJOS
 62
    29
100
AcDbVertex
100
AcDb2dVertex
 10
64.51522401045627
 20
31.75643793073857
 30
0.0
  0
VERTEX
  5
718
330
712
100
AcDbEntity
  8
DIBUJOS
 62
    29
100
AcDbVertex
100
AcDb2dVertex
 10
64.52100478349945
 20
31.75643793073857
 30
0.0
  0
SEQEND
  5
719
330
712
100
AcDbEntity
  8
DIBUJOS
 62
    29
  0
POLYLINE
  5
71A
330
6A3
100
AcDbEntity
  8
DIBUJOS
 62
    29
100
AcDb2dPolyline
 66
     1
 10
0.0
 20
0.0
 30
0.0
  0
VERTEX
  5
71B
330
71A
100
AcDbEntity
  8
DIBUJOS
 62
    29
100
AcDbVertex
100
AcDb2dVertex
 10
64.42274564255506
 20
31.68129877068016
 30
0.0
  0
VERTEX
  5
71C
330
71A
100
AcDbEntity
  8
DIBUJOS
 62
    29
100
AcDbVertex
100
AcDb2dVertex
 10
64.41696642515527
 20
31.68129877068016
 30
0.0
  0
SEQEND
  5
71D
330
71A
100
AcDbEntity
  8
DIBUJOS
 62
    29
  0
POLYLINE
  5
71E
330
6A3
100
AcDbEntity
  8
DIBUJOS
 62
    29
100
AcDb2dPolyline
 66
     1
 10
0.0
 20
0.0
 30
0.0
  0
VERTEX
  5
71F
330
71E
100
AcDbEntity
  8
DIBUJOS
 62
    29
100
AcDbVertex
100
AcDb2dVertex
 10
64.42274564255506
 20
31.68129877068016
 30
0.0
  0
VERTEX
  5
720
330
71E
100
AcDbEntity
  8
DIBUJOS
 62
    29
100
AcDbVertex
100
AcDb2dVertex
 10
64.42274564255506
 20
31.687079543724
 30
0.0
  0
SEQEND
  5
721
330
71E
100
AcDbEntity
  8
DIBUJOS
 62
    29
  0
POLYLINE
  5
722
330
6A3
100
AcDbEntity
  8
DIBUJOS
 62
    29
100
AcDb2dPolyline
 66
     1
 10
0.0
 20
0.0
 30
0.0
  0
VERTEX
  5
723
330
722
100
AcDbEntity
  8
DIBUJOS
 62
    29
100
AcDbVertex
100
AcDb2dVertex
 10
64.7926591141592
 20
31.68129877068016
 30
0.0
  0
VERTEX
  5
724
330
722
100
AcDbEntity
  8
DIBUJOS
 62
    29
100
AcDbVertex
100
AcDb2dVertex
 10
64.77620817903119
 20
31.69419350366168
 30
0.0
  0
VERTEX
  5
725
330
722
100
AcDbEntity
  8
DIBUJOS
 62
    29
100
AcDbVertex
100
AcDb2dVertex
 10
64.70595996365782
 20
31.73909872289577
 30
0.0
  0
VERTEX
  5
726
330
722
100
AcDbEntity
  8
DIBUJOS
 62
    29
100
AcDbVertex
100
AcDb2dVertex
 10
64.70595996365782
 20
31.74487794029557
 30
0.0
  0
VERTEX
  5
727
330
722
100
AcDbEntity
  8
DIBUJOS
 62
    29
100
AcDbVertex
100
AcDb2dVertex
 10
64.69440152885821
 20
31.75643793073857
 30
0.0
  0
VERTEX
  5
728
330
722
100
AcDbEntity
  8
DIBUJOS
 62
    29
100
AcDbVertex
100
AcDb2dVertex
 10
64.68862075581502
 20
31.75643793073857
 30
0.0
  0
SEQEND
  5
729
330
722
100
AcDbEntity
  8
DIBUJOS
 62
    29
  0
POLYLINE
  5
72A
330
6A3
100
AcDbEntity
  8
DIBUJOS
 62
    29
100
AcDb2dPolyline
 66
     1
 10
0.0
 20
0.0
 30
0.0
  0
VERTEX
  5
72B
330
72A
100
AcDbEntity
  8
DIBUJOS
 62
    29
100
AcDbVertex
100
AcDb2dVertex
 10
64.54412320874141
 20
31.53680277925122
 30
0.0
  0
VERTEX
  5
72C
330
72A
100
AcDbEntity
  8
DIBUJOS
 62
    29
100
AcDbVertex
100
AcDb2dVertex
 10
64.51077797995094
 20
31.60704943898056
 30
0.0
  0
VERTEX
  5
72D
330
72A
100
AcDbEntity
  8
DIBUJOS
 62
    29
100
AcDbVertex
100
AcDb2dVertex
 10
64.46898560432703
 20
31.65239957239438
 30
0.0
  0
VERTEX
  5
72E
330
72A
100
AcDbEntity
  8
DIBUJOS
 62
    29
100
AcDbVertex
100
AcDb2dVertex
 10
64.43519546135686
 20
31.67107352277505
 30
0.0
  0
VERTEX
  5
72F
330
72A
100
AcDbEntity
  8
DIBUJOS
 62
    29
100
AcDbVertex
100
AcDb2dVertex
 10
64.42274564255506
 20
31.68129877068016
 30
0.0
  0
SEQEND
  5
730
330
72A
100
AcDbEntity
  8
DIBUJOS
 62
    29
  0
POLYLINE
  5
731
330
6A3
100
AcDbEntity
  8
DIBUJOS
 62
    29
100
AcDb2dPolyline
 66
     1
 10
0.0
 20
0.0
 30
0.0
  0
VERTEX
  5
732
330
731
100
AcDbEntity
  8
DIBUJOS
 62
    29
100
AcDbVertex
100
AcDb2dVertex
 10
64.67706076537138
 20
31.53680277925122
 30
0.0
  0
VERTEX
  5
733
330
731
100
AcDbEntity
  8
DIBUJOS
 62
    29
100
AcDbVertex
100
AcDb2dVertex
 10
64.70151393315251
 20
31.593711347464
 30
0.0
  0
VERTEX
  5
734
330
731
100
AcDbEntity
  8
DIBUJOS
 62
    29
100
AcDbVertex
100
AcDb2dVertex
 10
64.7348591619436
 20
31.64083958195138
 30
0.0
  0
VERTEX
  5
735
330
731
100
AcDbEntity
  8
DIBUJOS
 62
    29
100
AcDbVertex
100
AcDb2dVertex
 10
64.7742791804912
 20
31.66534719727099
 30
0.0
  0
VERTEX
  5
736
330
731
100
AcDbEntity
  8
DIBUJOS
 62
    29
100
AcDbVertex
100
AcDb2dVertex
 10
64.7926591141592
 20
31.68129877068016
 30
0.0
  0
SEQEND
  5
737
330
731
100
AcDbEntity
  8
DIBUJOS
 62
    29
  0
POLYLINE
  5
738
330
6A3
100
AcDbEntity
  8
DIBUJOS
 62
    29
100
AcDb2dPolyline
 66
     1
 10
0.0
 20
0.0
 30
0.0
  0
VERTEX
  5
739
330
738
100
AcDbEntity
  8
DIBUJOS
 62
    29
100
AcDbVertex
100
AcDb2dVertex
 10
64.54412320874141
 20
31.53102200620803
 30
0.0
  0
VERTEX
  5
73A
330
738
100
AcDbEntity
  8
DIBUJOS
 62
    29
100
AcDbVertex
100
AcDb2dVertex
 10
64.54412320874141
 20
31.53680277925122
 30
0.0
  0
SEQEND
  5
73B
330
738
100
AcDbEntity
  8
DIBUJOS
 62
    29
  0
POLYLINE
  5
73C
330
6A3
100
AcDbEntity
  8
DIBUJOS
 62
    29
100
AcDb2dPolyline
 66
     1
 10
0.0
 20
0.0
 30
0.0
  0
VERTEX
  5
73D
330
73C
100
AcDbEntity
  8
DIBUJOS
 62
    29
100
AcDbVertex
100
AcDb2dVertex
 10
64.54990398178523
 20
31.53102200620803
 30
0.0
  0
VERTEX
  5
73E
330
73C
100
AcDbEntity
  8
DIBUJOS
 62
    29
100
AcDbVertex
100
AcDb2dVertex
 10
64.54412320874141
 20
31.53102200620803
 30
0.0
  0
SEQEND
  5
73F
330
73C
100
AcDbEntity
  8
DIBUJOS
 62
    29
  0
POLYLINE
  5
740
330
6A3
100
AcDbEntity
  8
DIBUJOS
 62
    29
100
AcDb2dPolyline
 66
     1
 10
0.0
 20
0.0
 30
0.0
  0
VERTEX
  5
741
330
740
100
AcDbEntity
  8
DIBUJOS
 62
    29
100
AcDbVertex
100
AcDb2dVertex
 10
64.67128154797223
 20
31.53102200620803
 30
0.0
  0
VERTEX
  5
742
330
740
100
AcDbEntity
  8
DIBUJOS
 62
    29
100
AcDbVertex
100
AcDb2dVertex
 10
64.66550077492903
 20
31.53680277925122
 30
0.0
  0
VERTEX
  5
743
330
740
100
AcDbEntity
  8
DIBUJOS
 62
    29
100
AcDbVertex
100
AcDb2dVertex
 10
64.55568319918504
 20
31.53680277925122
 30
0.0
  0
VERTEX
  5
744
330
740
100
AcDbEntity
  8
DIBUJOS
 62
    29
100
AcDbVertex
100
AcDb2dVertex
 10
64.54990398178523
 20
31.53102200620803
 30
0.0
  0
SEQEND
  5
745
330
740
100
AcDbEntity
  8
DIBUJOS
 62
    29
  0
POLYLINE
  5
746
330
6A3
100
AcDbEntity
  8
DIBUJOS
 62
    29
100
AcDb2dPolyline
 66
     1
 10
0.0
 20
0.0
 30
0.0
  0
VERTEX
  5
747
330
746
100
AcDbEntity
  8
DIBUJOS
 62
    29
100
AcDbVertex
100
AcDb2dVertex
 10
64.67706076537138
 20
31.53102200620803
 30
0.0
  0
VERTEX
  5
748
330
746
100
AcDbEntity
  8
DIBUJOS
 62
    29
100
AcDbVertex
100
AcDb2dVertex
 10
64.67128154797223
 20
31.53102200620803
 30
0.0
  0
SEQEND
  5
749
330
746
100
AcDbEntity
  8
DIBUJOS
 62
    29
  0
POLYLINE
  5
74A
330
6A3
100
AcDbEntity
  8
DIBUJOS
 62
    29
100
AcDb2dPolyline
 66
     1
 10
0.0
 20
0.0
 30
0.0
  0
VERTEX
  5
74B
330
74A
100
AcDbEntity
  8
DIBUJOS
 62
    29
100
AcDbVertex
100
AcDb2dVertex
 10
64.67706076537138
 20
31.53102200620803
 30
0.0
  0
VERTEX
  5
74C
330
74A
100
AcDbEntity
  8
DIBUJOS
 62
    29
100
AcDbVertex
100
AcDb2dVertex
 10
64.67706076537138
 20
31.53680277925122
 30
0.0
  0
SEQEND
  5
74D
330
74A
100
AcDbEntity
  8
DIBUJOS
 62
    29
  0
POLYLINE
  5
74E
330
6A3
100
AcDbEntity
  8
DIBUJOS
 62
    29
100
AcDb2dPolyline
 66
     1
 10
0.0
 20
0.0
 30
0.0
  0
VERTEX
  5
74F
330
74E
100
AcDbEntity
  8
DIBUJOS
 62
    29
100
AcDbVertex
100
AcDb2dVertex
 10
64.54412320874141
 20
31.52524278880823
 30
0.0
  0
VERTEX
  5
750
330
74E
100
AcDbEntity
  8
DIBUJOS
 62
    29
100
AcDbVertex
100
AcDb2dVertex
 10
64.54412320874141
 20
31.53102200620803
 30
0.0
  0
SEQEND
  5
751
330
74E
100
AcDbEntity
  8
DIBUJOS
 62
    29
  0
POLYLINE
  5
752
330
6A3
100
AcDbEntity
  8
DIBUJOS
 62
    29
100
AcDb2dPolyline
 66
     1
 10
0.0
 20
0.0
 30
0.0
  0
VERTEX
  5
753
330
752
100
AcDbEntity
  8
DIBUJOS
 62
    29
100
AcDbVertex
100
AcDb2dVertex
 10
64.67706076537138
 20
31.52524278880823
 30
0.0
  0
VERTEX
  5
754
330
752
100
AcDbEntity
  8
DIBUJOS
 62
    29
100
AcDbVertex
100
AcDb2dVertex
 10
64.67706076537138
 20
31.53102200620803
 30
0.0
  0
SEQEND
  5
755
330
752
100
AcDbEntity
  8
DIBUJOS
 62
    29
  0
POLYLINE
  5
756
330
6A3
100
AcDbEntity
  8
DIBUJOS
 62
    29
100
AcDb2dPolyline
 66
     1
 10
0.0
 20
0.0
 30
0.0
  0
VERTEX
  5
757
330
756
100
AcDbEntity
  8
DIBUJOS
 62
    29
100
AcDbVertex
100
AcDb2dVertex
 10
64.56146397222822
 20
31.45588440179366
 30
0.0
  0
VERTEX
  5
758
330
756
100
AcDbEntity
  8
DIBUJOS
 62
    29
100
AcDbVertex
100
AcDb2dVertex
 10
64.54412320874141
 20
31.52524278880823
 30
0.0
  0
SEQEND
  5
759
330
756
100
AcDbEntity
  8
DIBUJOS
 62
    29
  0
POLYLINE
  5
75A
330
6A3
100
AcDbEntity
  8
DIBUJOS
 62
    29
100
AcDb2dPolyline
 66
     1
 10
0.0
 20
0.0
 30
0.0
  0
VERTEX
  5
75B
330
75A
100
AcDbEntity
  8
DIBUJOS
 62
    29
100
AcDbVertex
100
AcDb2dVertex
 10
64.56724318962803
 20
31.45588440179366
 30
0.0
  0
VERTEX
  5
75C
330
75A
100
AcDbEntity
  8
DIBUJOS
 62
    29
100
AcDbVertex
100
AcDb2dVertex
 10
64.56146397222822
 20
31.45588440179366
 30
0.0
  0
SEQEND
  5
75D
330
75A
100
AcDbEntity
  8
DIBUJOS
 62
    29
  0
POLYLINE
  5
75E
330
6A3
100
AcDbEntity
  8
DIBUJOS
 62
    29
100
AcDb2dPolyline
 66
     1
 10
0.0
 20
0.0
 30
0.0
  0
VERTEX
  5
75F
330
75E
100
AcDbEntity
  8
DIBUJOS
 62
    29
100
AcDbVertex
100
AcDb2dVertex
 10
64.6539407844854
 20
31.45588440179366
 30
0.0
  0
VERTEX
  5
760
330
75E
100
AcDbEntity
  8
DIBUJOS
 62
    29
100
AcDbVertex
100
AcDb2dVertex
 10
64.56724318962803
 20
31.45588440179366
 30
0.0
  0
SEQEND
  5
761
330
75E
100
AcDbEntity
  8
DIBUJOS
 62
    29
  0
POLYLINE
  5
762
330
6A3
100
AcDbEntity
  8
DIBUJOS
 62
    29
100
AcDb2dPolyline
 66
     1
 10
0.0
 20
0.0
 30
0.0
  0
VERTEX
  5
763
330
762
100
AcDbEntity
  8
DIBUJOS
 62
    29
100
AcDbVertex
100
AcDb2dVertex
 10
64.65972155752922
 20
31.45588440179366
 30
0.0
  0
VERTEX
  5
764
330
762
100
AcDbEntity
  8
DIBUJOS
 62
    29
100
AcDbVertex
100
AcDb2dVertex
 10
64.6539407844854
 20
31.45588440179366
 30
0.0
  0
SEQEND
  5
765
330
762
100
AcDbEntity
  8
DIBUJOS
 62
    29
  0
POLYLINE
  5
766
330
6A3
100
AcDbEntity
  8
DIBUJOS
 62
    29
100
AcDb2dPolyline
 66
     1
 10
0.0
 20
0.0
 30
0.0
  0
VERTEX
  5
767
330
766
100
AcDbEntity
  8
DIBUJOS
 62
    29
100
AcDbVertex
100
AcDb2dVertex
 10
64.65972155752922
 20
31.45588440179366
 30
0.0
  0
VERTEX
  5
768
330
766
100
AcDbEntity
  8
DIBUJOS
 62
    29
100
AcDbVertex
100
AcDb2dVertex
 10
64.67706076537138
 20
31.52524278880823
 30
0.0
  0
SEQEND
  5
769
330
766
100
AcDbEntity
  8
DIBUJOS
 62
    29
  0
POLYLINE
  5
76A
330
6A3
100
AcDbEntity
  8
DIBUJOS
 62
    29
100
AcDb2dPolyline
 66
     1
 10
0.0
 20
0.0
 30
0.0
  0
VERTEX
  5
76B
330
76A
100
AcDbEntity
  8
DIBUJOS
 62
    29
100
AcDbVertex
100
AcDb2dVertex
 10
64.56146397222822
 20
31.45010362874983
 30
0.0
  0
VERTEX
  5
76C
330
76A
100
AcDbEntity
  8
DIBUJOS
 62
    29
100
AcDbVertex
100
AcDb2dVertex
 10
64.56146397222822
 20
31.45588440179366
 30
0.0
  0
SEQEND
  5
76D
330
76A
100
AcDbEntity
  8
DIBUJOS
 62
    29
  0
POLYLINE
  5
76E
330
6A3
100
AcDbEntity
  8
DIBUJOS
 62
    29
100
AcDb2dPolyline
 66
     1
 10
0.0
 20
0.0
 30
0.0
  0
VERTEX
  5
76F
330
76E
100
AcDbEntity
  8
DIBUJOS
 62
    29
100
AcDbVertex
100
AcDb2dVertex
 10
64.65972155752922
 20
31.45010362874983
 30
0.0
  0
VERTEX
  5
770
330
76E
100
AcDbEntity
  8
DIBUJOS
 62
    29
100
AcDbVertex
100
AcDb2dVertex
 10
64.65972155752922
 20
31.45588440179366
 30
0.0
  0
SEQEND
  5
771
330
76E
100
AcDbEntity
  8
DIBUJOS
 62
    29
  0
POLYLINE
  5
772
330
6A3
100
AcDbEntity
  8
DIBUJOS
 62
    29
100
AcDb2dPolyline
 66
     1
 10
0.0
 20
0.0
 30
0.0
  0
VERTEX
  5
773
330
772
100
AcDbEntity
  8
DIBUJOS
 62
    29
100
AcDbVertex
100
AcDb2dVertex
 10
61.89115829393914
 20
31.24780768510528
 30
0.0
  0
VERTEX
  5
774
330
772
100
AcDbEntity
  8
DIBUJOS
 62
    29
100
AcDbVertex
100
AcDb2dVertex
 10
61.8991613044136
 20
31.29360273269817
 30
0.0
  0
VERTEX
  5
775
330
772
100
AcDbEntity
  8
DIBUJOS
 62
    29
100
AcDbVertex
100
AcDb2dVertex
 10
61.96833690325979
 20
31.59409092459639
 30
0.0
  0
VERTEX
  5
776
330
772
100
AcDbEntity
  8
DIBUJOS
 62
    29
100
AcDbVertex
100
AcDb2dVertex
 10
61.97411689848161
 20
31.61721090548237
 30
0.0
  0
VERTEX
  5
777
330
772
100
AcDbEntity
  8
DIBUJOS
 62
    29
100
AcDbVertex
100
AcDb2dVertex
 10
62.03449921971051
 20
31.80903425382876
 30
0.0
  0
VERTEX
  5
778
330
772
100
AcDbEntity
  8
DIBUJOS
 62
    29
100
AcDbVertex
100
AcDb2dVertex
 10
62.1165734406483
 20
32.01653227095533
 30
0.0
  0
SEQEND
  5
779
330
772
100
AcDbEntity
  8
DIBUJOS
 62
    29
  0
POLYLINE
  5
77A
330
6A3
100
AcDbEntity
  8
DIBUJOS
 62
    29
100
AcDb2dPolyline
 66
     1
 10
0.0
 20
0.0
 30
0.0
  0
VERTEX
  5
77B
330
77A
100
AcDbEntity
  8
DIBUJOS
 62
    29
100
AcDbVertex
100
AcDb2dVertex
 10
67.3242472405965
 20
31.21890848681949
 30
0.0
  0
VERTEX
  5
77C
330
77A
100
AcDbEntity
  8
DIBUJOS
 62
    29
100
AcDbVertex
100
AcDb2dVertex
 10
67.32220623569022
 20
31.23573899907926
 30
0.0
  0
VERTEX
  5
77D
330
77A
100
AcDbEntity
  8
DIBUJOS
 62
    29
100
AcDbVertex
100
AcDb2dVertex
 10
67.24128785823201
 20
31.59409092459639
 30
0.0
  0
VERTEX
  5
77E
330
77A
100
AcDbEntity
  8
DIBUJOS
 62
    29
100
AcDbVertex
100
AcDb2dVertex
 10
67.23958909500205
 20
31.60089064444901
 30
0.0
  0
VERTEX
  5
77F
330
77A
100
AcDbEntity
  8
DIBUJOS
 62
    29
100
AcDbVertex
100
AcDb2dVertex
 10
67.17859385004397
 20
31.79631841990554
 30
0.0
  0
VERTEX
  5
780
330
77A
100
AcDbEntity
  8
DIBUJOS
 62
    29
100
AcDbVertex
100
AcDb2dVertex
 10
67.09305209866618
 20
32.02231304399852
 30
0.0
  0
SEQEND
  5
781
330
77A
100
AcDbEntity
  8
DIBUJOS
 62
    29
  0
POLYLINE
  5
782
330
6A3
100
AcDbEntity
  8
DIBUJOS
 62
    29
100
AcDb2dPolyline
 66
     1
 10
0.0
 20
0.0
 30
0.0
  0
VERTEX
  5
783
330
782
100
AcDbEntity
  8
DIBUJOS
 62
    29
100
AcDbVertex
100
AcDb2dVertex
 10
61.87959830349614
 20
31.20735005201989
 30
0.0
  0
VERTEX
  5
784
330
782
100
AcDbEntity
  8
DIBUJOS
 62
    29
100
AcDbVertex
100
AcDb2dVertex
 10
61.88537829871796
 20
31.21312926941969
 30
0.0
  0
VERTEX
  5
785
330
782
100
AcDbEntity
  8
DIBUJOS
 62
    29
100
AcDbVertex
100
AcDb2dVertex
 10
61.88537829871796
 20
31.23624925030568
 30
0.0
  0
SEQEND
  5
786
330
782
100
AcDbEntity
  8
DIBUJOS
 62
    29
  0
POLYLINE
  5
787
330
6A3
100
AcDbEntity
  8
DIBUJOS
 62
    29
100
AcDb2dPolyline
 66
     1
 10
0.0
 20
0.0
 30
0.0
  0
VERTEX
  5
788
330
787
100
AcDbEntity
  8
DIBUJOS
 62
    29
100
AcDbVertex
100
AcDb2dVertex
 10
66.9485545515932
 20
31.1842300711339
 30
0.0
  0
VERTEX
  5
789
330
787
100
AcDbEntity
  8
DIBUJOS
 62
    29
100
AcDbVertex
100
AcDb2dVertex
 10
66.93699456115021
 20
31.23046847726248
 30
0.0
  0
SEQEND
  5
78A
330
787
100
AcDbEntity
  8
DIBUJOS
 62
    29
  0
POLYLINE
  5
78B
330
6A3
100
AcDbEntity
  8
DIBUJOS
 62
    29
100
AcDb2dPolyline
 66
     1
 10
0.0
 20
0.0
 30
0.0
  0
VERTEX
  5
78C
330
78B
100
AcDbEntity
  8
DIBUJOS
 62
    29
100
AcDbVertex
100
AcDb2dVertex
 10
62.26685098294308
 20
31.14955009980428
 30
0.0
  0
VERTEX
  5
78D
330
78B
100
AcDbEntity
  8
DIBUJOS
 62
    29
100
AcDbVertex
100
AcDb2dVertex
 10
62.28418941296386
 20
31.23624925030568
 30
0.0
  0
SEQEND
  5
78E
330
78B
100
AcDbEntity
  8
DIBUJOS
 62
    29
  0
POLYLINE
  5
78F
330
6A3
100
AcDbEntity
  8
DIBUJOS
 62
    29
100
AcDb2dPolyline
 66
     1
 10
0.0
 20
0.0
 30
0.0
  0
VERTEX
  5
790
330
78F
100
AcDbEntity
  8
DIBUJOS
 62
    29
100
AcDbVertex
100
AcDb2dVertex
 10
62.16281262459889
 20
31.11487168411869
 30
0.0
  0
VERTEX
  5
791
330
78F
100
AcDbEntity
  8
DIBUJOS
 62
    29
100
AcDbVertex
100
AcDb2dVertex
 10
62.21309803855066
 20
31.2021479785385
 30
0.0
  0
VERTEX
  5
792
330
78F
100
AcDbEntity
  8
DIBUJOS
 62
    29
100
AcDbVertex
100
AcDb2dVertex
 10
62.21656556899067
 20
31.21255056985789
 30
0.0
  0
VERTEX
  5
793
330
78F
100
AcDbEntity
  8
DIBUJOS
 62
    29
100
AcDbVertex
100
AcDb2dVertex
 10
62.27974338245856
 20
31.34517699769087
 30
0.0
  0
VERTEX
  5
794
330
78F
100
AcDbEntity
  8
DIBUJOS
 62
    29
100
AcDbVertex
100
AcDb2dVertex
 10
62.2886369991132
 20
31.35851508920743
 30
0.0
  0
VERTEX
  5
795
330
78F
100
AcDbEntity
  8
DIBUJOS
 62
    29
100
AcDbVertex
100
AcDb2dVertex
 10
62.35932857302227
 20
31.46166361919282
 30
0.0
  0
VERTEX
  5
796
330
78F
100
AcDbEntity
  8
DIBUJOS
 62
    29
100
AcDbVertex
100
AcDb2dVertex
 10
62.39978776175104
 20
31.5021228079216
 30
0.0
  0
VERTEX
  5
797
330
78F
100
AcDbEntity
  8
DIBUJOS
 62
    29
100
AcDbVertex
100
AcDb2dVertex
 10
62.47027399065394
 20
31.55851179104443
 30
0.0
  0
VERTEX
  5
798
330
78F
100
AcDbEntity
  8
DIBUJOS
 62
    29
100
AcDbVertex
100
AcDb2dVertex
 10
62.49715707433727
 20
31.57281593747469
 30
0.0
  0
VERTEX
  5
799
330
78F
100
AcDbEntity
  8
DIBUJOS
 62
    29
100
AcDbVertex
100
AcDb2dVertex
 10
62.55642244318543
 20
31.60442662322441
 30
0.0
  0
VERTEX
  5
79A
330
78F
100
AcDbEntity
  8
DIBUJOS
 62
    29
100
AcDbVertex
100
AcDb2dVertex
 10
62.59572578843463
 20
31.61945414410678
 30
0.0
  0
VERTEX
  5
79B
330
78F
100
AcDbEntity
  8
DIBUJOS
 62
    29
100
AcDbVertex
100
AcDb2dVertex
 10
62.70078620487568
 20
31.65017655714172
 30
0.0
  0
VERTEX
  5
79C
330
78F
100
AcDbEntity
  8
DIBUJOS
 62
    29
100
AcDbVertex
100
AcDb2dVertex
 10
62.7230163574035
 20
31.65462258764767
 30
0.0
  0
VERTEX
  5
79D
330
78F
100
AcDbEntity
  8
DIBUJOS
 62
    29
100
AcDbVertex
100
AcDb2dVertex
 10
62.85657772727087
 20
31.67283451176494
 30
0.0
  0
VERTEX
  5
79E
330
78F
100
AcDbEntity
  8
DIBUJOS
 62
    29
100
AcDbVertex
100
AcDb2dVertex
 10
62.93713830661245
 20
31.67820459479707
 30
0.0
  0
VERTEX
  5
79F
330
78F
100
AcDbEntity
  8
DIBUJOS
 62
    29
100
AcDbVertex
100
AcDb2dVertex
 10
64.27245643293006
 20
31.68417671205016
 30
0.0
  0
VERTEX
  5
7A0
330
78F
100
AcDbEntity
  8
DIBUJOS
 62
    29
100
AcDbVertex
100
AcDb2dVertex
 10
64.3418272650975
 20
31.6928587611238
 30
0.0
  0
VERTEX
  5
7A1
330
78F
100
AcDbEntity
  8
DIBUJOS
 62
    29
100
AcDbVertex
100
AcDb2dVertex
 10
64.37701748765353
 20
31.6891189929869
 30
0.0
  0
VERTEX
  5
7A2
330
78F
100
AcDbEntity
  8
DIBUJOS
 62
    29
100
AcDbVertex
100
AcDb2dVertex
 10
64.41696642515527
 20
31.68129877068016
 30
0.0
  0
SEQEND
  5
7A3
330
78F
100
AcDbEntity
  8
DIBUJOS
 62
    29
  0
POLYLINE
  5
7A4
330
6A3
100
AcDbEntity
  8
DIBUJOS
 62
    29
100
AcDb2dPolyline
 66
     1
 10
0.0
 20
0.0
 30
0.0
  0
VERTEX
  5
7A5
330
7A4
100
AcDbEntity
  8
DIBUJOS
 62
    29
100
AcDbVertex
100
AcDb2dVertex
 10
66.9601145420362
 20
31.11487168411869
 30
0.0
  0
VERTEX
  5
7A6
330
7A4
100
AcDbEntity
  8
DIBUJOS
 62
    29
100
AcDbVertex
100
AcDb2dVertex
 10
66.95211075373972
 20
31.16644594911202
 30
0.0
  0
VERTEX
  5
7A7
330
7A4
100
AcDbEntity
  8
DIBUJOS
 62
    29
100
AcDbVertex
100
AcDb2dVertex
 10
66.9485545515932
 20
31.17267008069091
 30
0.0
  0
SEQEND
  5
7A8
330
7A4
100
AcDbEntity
  8
DIBUJOS
 62
    29
  0
POLYLINE
  5
7A9
330
6A3
100
AcDbEntity
  8
DIBUJOS
 62
    29
100
AcDb2dPolyline
 66
     1
 10
0.0
 20
0.0
 30
0.0
  0
VERTEX
  5
7AA
330
7A9
100
AcDbEntity
  8
DIBUJOS
 62
    29
100
AcDbVertex
100
AcDb2dVertex
 10
62.16281262459889
 20
31.1090909110755
 30
0.0
  0
VERTEX
  5
7AB
330
7A9
100
AcDbEntity
  8
DIBUJOS
 62
    29
100
AcDbVertex
100
AcDb2dVertex
 10
62.15703262937708
 20
31.1090909110755
 30
0.0
  0
SEQEND
  5
7AC
330
7A9
100
AcDbEntity
  8
DIBUJOS
 62
    29
  0
POLYLINE
  5
7AD
330
6A3
100
AcDbEntity
  8
DIBUJOS
 62
    29
100
AcDb2dPolyline
 66
     1
 10
0.0
 20
0.0
 30
0.0
  0
VERTEX
  5
7AE
330
7AD
100
AcDbEntity
  8
DIBUJOS
 62
    29
100
AcDbVertex
100
AcDb2dVertex
 10
62.16281262459889
 20
31.1090909110755
 30
0.0
  0
VERTEX
  5
7AF
330
7AD
100
AcDbEntity
  8
DIBUJOS
 62
    29
100
AcDbVertex
100
AcDb2dVertex
 10
62.16281262459889
 20
31.11487168411869
 30
0.0
  0
SEQEND
  5
7B0
330
7AD
100
AcDbEntity
  8
DIBUJOS
 62
    29
  0
POLYLINE
  5
7B1
330
6A3
100
AcDbEntity
  8
DIBUJOS
 62
    29
100
AcDb2dPolyline
 66
     1
 10
0.0
 20
0.0
 30
0.0
  0
VERTEX
  5
7B2
330
7B1
100
AcDbEntity
  8
DIBUJOS
 62
    29
100
AcDbVertex
100
AcDb2dVertex
 10
62.16281262459889
 20
31.1033116936757
 30
0.0
  0
VERTEX
  5
7B3
330
7B1
100
AcDbEntity
  8
DIBUJOS
 62
    29
100
AcDbVertex
100
AcDb2dVertex
 10
62.16281262459889
 20
31.1090909110755
 30
0.0
  0
SEQEND
  5
7B4
330
7B1
100
AcDbEntity
  8
DIBUJOS
 62
    29
  0
POLYLINE
  5
7B5
330
6A3
100
AcDbEntity
  8
DIBUJOS
 62
    29
100
AcDb2dPolyline
 66
     1
 10
0.0
 20
0.0
 30
0.0
  0
VERTEX
  5
7B6
330
7B5
100
AcDbEntity
  8
DIBUJOS
 62
    29
100
AcDbVertex
100
AcDb2dVertex
 10
62.25529099250009
 20
31.0975309206325
 30
0.0
  0
VERTEX
  5
7B7
330
7B5
100
AcDbEntity
  8
DIBUJOS
 62
    29
100
AcDbVertex
100
AcDb2dVertex
 10
62.26107098772191
 20
31.13799010936129
 30
0.0
  0
SEQEND
  5
7B8
330
7B5
100
AcDbEntity
  8
DIBUJOS
 62
    29
  0
POLYLINE
  5
7B9
330
6A3
100
AcDbEntity
  8
DIBUJOS
 62
    29
100
AcDb2dPolyline
 66
     1
 10
0.0
 20
0.0
 30
0.0
  0
VERTEX
  5
7BA
330
7B9
100
AcDbEntity
  8
DIBUJOS
 62
    29
100
AcDbVertex
100
AcDb2dVertex
 10
67.06415134473636
 20
31.0975309206325
 30
0.0
  0
VERTEX
  5
7BB
330
7B9
100
AcDbEntity
  8
DIBUJOS
 62
    29
100
AcDbVertex
100
AcDb2dVertex
 10
67.03666155989997
 20
31.1333387338498
 30
0.0
  0
VERTEX
  5
7BC
330
7B9
100
AcDbEntity
  8
DIBUJOS
 62
    29
100
AcDbVertex
100
AcDb2dVertex
 10
67.0132895646882
 20
31.17324722460868
 30
0.0
  0
VERTEX
  5
7BD
330
7B9
100
AcDbEntity
  8
DIBUJOS
 62
    29
100
AcDbVertex
100
AcDb2dVertex
 10
67.007508791645
 20
31.18480721505167
 30
0.0
  0
VERTEX
  5
7BE
330
7B9
100
AcDbEntity
  8
DIBUJOS
 62
    29
100
AcDbVertex
100
AcDb2dVertex
 10
66.92410138381273
 20
31.35673698813386
 30
0.0
  0
VERTEX
  5
7BF
330
7B9
100
AcDbEntity
  8
DIBUJOS
 62
    29
100
AcDbVertex
100
AcDb2dVertex
 10
66.91520932280211
 20
31.37007507965043
 30
0.0
  0
VERTEX
  5
7C0
330
7B9
100
AcDbEntity
  8
DIBUJOS
 62
    29
100
AcDbVertex
100
AcDb2dVertex
 10
66.86185695673583
 20
31.45010362874983
 30
0.0
  0
VERTEX
  5
7C1
330
7B9
100
AcDbEntity
  8
DIBUJOS
 62
    29
100
AcDbVertex
100
AcDb2dVertex
 10
66.78671779667744
 20
31.52524278880823
 30
0.0
  0
VERTEX
  5
7C2
330
7B9
100
AcDbEntity
  8
DIBUJOS
 62
    29
100
AcDbVertex
100
AcDb2dVertex
 10
66.72225035434725
 20
31.57014800804232
 30
0.0
  0
VERTEX
  5
7C3
330
7B9
100
AcDbEntity
  8
DIBUJOS
 62
    29
100
AcDbVertex
100
AcDb2dVertex
 10
66.61274390740026
 20
31.62176583106721
 30
0.0
  0
VERTEX
  5
7C4
330
7B9
100
AcDbEntity
  8
DIBUJOS
 62
    29
100
AcDbVertex
100
AcDb2dVertex
 10
66.479940136153
 20
31.65595733018555
 30
0.0
  0
VERTEX
  5
7C5
330
7B9
100
AcDbEntity
  8
DIBUJOS
 62
    29
100
AcDbVertex
100
AcDb2dVertex
 10
66.45770842798115
 20
31.66040336069086
 30
0.0
  0
VERTEX
  5
7C6
330
7B9
100
AcDbEntity
  8
DIBUJOS
 62
    29
100
AcDbVertex
100
AcDb2dVertex
 10
66.353035366892
 20
31.6728500682046
 30
0.0
  0
VERTEX
  5
7C7
330
7B9
100
AcDbEntity
  8
DIBUJOS
 62
    29
100
AcDbVertex
100
AcDb2dVertex
 10
66.27827889525341
 20
31.67818903835677
 30
0.0
  0
VERTEX
  5
7C8
330
7B9
100
AcDbEntity
  8
DIBUJOS
 62
    29
100
AcDbVertex
100
AcDb2dVertex
 10
64.93115654238719
 20
31.6844489497477
 30
0.0
  0
VERTEX
  5
7C9
330
7B9
100
AcDbEntity
  8
DIBUJOS
 62
    29
100
AcDbVertex
100
AcDb2dVertex
 10
64.86201750117378
 20
31.6928587611238
 30
0.0
  0
VERTEX
  5
7CA
330
7B9
100
AcDbEntity
  8
DIBUJOS
 62
    29
100
AcDbVertex
100
AcDb2dVertex
 10
64.81533418086612
 20
31.68352178593346
 30
0.0
  0
VERTEX
  5
7CB
330
7B9
100
AcDbEntity
  8
DIBUJOS
 62
    29
100
AcDbVertex
100
AcDb2dVertex
 10
64.7926591141592
 20
31.68129877068016
 30
0.0
  0
SEQEND
  5
7CC
330
7B9
100
AcDbEntity
  8
DIBUJOS
 62
    29
  0
POLYLINE
  5
7CD
330
6A3
100
AcDbEntity
  8
DIBUJOS
 62
    29
100
AcDb2dPolyline
 66
     1
 10
0.0
 20
0.0
 30
0.0
  0
VERTEX
  5
7CE
330
7CD
100
AcDbEntity
  8
DIBUJOS
 62
    29
100
AcDbVertex
100
AcDb2dVertex
 10
67.06993211778018
 20
31.0975309206325
 30
0.0
  0
VERTEX
  5
7CF
330
7CD
100
AcDbEntity
  8
DIBUJOS
 62
    29
100
AcDbVertex
100
AcDb2dVertex
 10
67.06415134473636
 20
31.0975309206325
 30
0.0
  0
SEQEND
  5
7D0
330
7CD
100
AcDbEntity
  8
DIBUJOS
 62
    29
  0
POLYLINE
  5
7D1
330
6A3
100
AcDbEntity
  8
DIBUJOS
 62
    29
100
AcDb2dPolyline
 66
     1
 10
0.0
 20
0.0
 30
0.0
  0
VERTEX
  5
7D2
330
7D1
100
AcDbEntity
  8
DIBUJOS
 62
    29
100
AcDbVertex
100
AcDb2dVertex
 10
67.06415134473636
 20
31.0917517032327
 30
0.0
  0
VERTEX
  5
7D3
330
7D1
100
AcDbEntity
  8
DIBUJOS
 62
    29
100
AcDbVertex
100
AcDb2dVertex
 10
67.06415134473636
 20
31.0975309206325
 30
0.0
  0
SEQEND
  5
7D4
330
7D1
100
AcDbEntity
  8
DIBUJOS
 62
    29
  0
POLYLINE
  5
7D5
330
6A3
100
AcDbEntity
  8
DIBUJOS
 62
    29
100
AcDb2dPolyline
 66
     1
 10
0.0
 20
0.0
 30
0.0
  0
VERTEX
  5
7D6
330
7D5
100
AcDbEntity
  8
DIBUJOS
 62
    29
100
AcDbVertex
100
AcDb2dVertex
 10
66.96589375943536
 20
31.08597093018887
 30
0.0
  0
VERTEX
  5
7D7
330
7D5
100
AcDbEntity
  8
DIBUJOS
 62
    29
100
AcDbVertex
100
AcDb2dVertex
 10
66.96589375943536
 20
31.1033116936757
 30
0.0
  0
SEQEND
  5
7D8
330
7D5
100
AcDbEntity
  8
DIBUJOS
 62
    29
  0
POLYLINE
  5
7D9
330
6A3
100
AcDbEntity
  8
DIBUJOS
 62
    29
100
AcDb2dPolyline
 66
     1
 10
0.0
 20
0.0
 30
0.0
  0
VERTEX
  5
7DA
330
7D9
100
AcDbEntity
  8
DIBUJOS
 62
    29
100
AcDbVertex
100
AcDb2dVertex
 10
62.0876742423625
 20
31.05129251450392
 30
0.0
  0
VERTEX
  5
7DB
330
7D9
100
AcDbEntity
  8
DIBUJOS
 62
    29
100
AcDbVertex
100
AcDb2dVertex
 10
62.15703262937708
 20
31.1090909110755
 30
0.0
  0
SEQEND
  5
7DC
330
7D9
100
AcDbEntity
  8
DIBUJOS
 62
    29
  0
POLYLINE
  5
7DD
330
6A3
100
AcDbEntity
  8
DIBUJOS
 62
    29
100
AcDb2dPolyline
 66
     1
 10
0.0
 20
0.0
 30
0.0
  0
VERTEX
  5
7DE
330
7DD
100
AcDbEntity
  8
DIBUJOS
 62
    29
100
AcDbVertex
100
AcDb2dVertex
 10
67.11617052390814
 20
31.05129251450392
 30
0.0
  0
VERTEX
  5
7DF
330
7DD
100
AcDbEntity
  8
DIBUJOS
 62
    29
100
AcDbVertex
100
AcDb2dVertex
 10
67.11039130650897
 20
31.06285250494691
 30
0.0
  0
VERTEX
  5
7E0
330
7DD
100
AcDbEntity
  8
DIBUJOS
 62
    29
100
AcDbVertex
100
AcDb2dVertex
 10
67.10001516113745
 20
31.07005358094771
 30
0.0
  0
VERTEX
  5
7E1
330
7DD
100
AcDbEntity
  8
DIBUJOS
 62
    29
100
AcDbVertex
100
AcDb2dVertex
 10
67.06993211778018
 20
31.0975309206325
 30
0.0
  0
SEQEND
  5
7E2
330
7DD
100
AcDbEntity
  8
DIBUJOS
 62
    29
  0
POLYLINE
  5
7E3
330
6A3
100
AcDbEntity
  8
DIBUJOS
 62
    29
100
AcDb2dPolyline
 66
     1
 10
0.0
 20
0.0
 30
0.0
  0
VERTEX
  5
7E4
330
7E3
100
AcDbEntity
  8
DIBUJOS
 62
    29
100
AcDbVertex
100
AcDb2dVertex
 10
67.12195129695196
 20
31.05129251450392
 30
0.0
  0
VERTEX
  5
7E5
330
7E3
100
AcDbEntity
  8
DIBUJOS
 62
    29
100
AcDbVertex
100
AcDb2dVertex
 10
67.11617052390814
 20
31.05129251450392
 30
0.0
  0
SEQEND
  5
7E6
330
7E3
100
AcDbEntity
  8
DIBUJOS
 62
    29
  0
POLYLINE
  5
7E7
330
6A3
100
AcDbEntity
  8
DIBUJOS
 62
    29
100
AcDb2dPolyline
 66
     1
 10
0.0
 20
0.0
 30
0.0
  0
VERTEX
  5
7E8
330
7E7
100
AcDbEntity
  8
DIBUJOS
 62
    29
100
AcDbVertex
100
AcDb2dVertex
 10
62.0876742423625
 20
31.04551329710412
 30
0.0
  0
VERTEX
  5
7E9
330
7E7
100
AcDbEntity
  8
DIBUJOS
 62
    29
100
AcDbVertex
100
AcDb2dVertex
 10
62.08189424714133
 20
31.04551329710412
 30
0.0
  0
SEQEND
  5
7EA
330
7E7
100
AcDbEntity
  8
DIBUJOS
 62
    29
  0
POLYLINE
  5
7EB
330
6A3
100
AcDbEntity
  8
DIBUJOS
 62
    29
100
AcDb2dPolyline
 66
     1
 10
0.0
 20
0.0
 30
0.0
  0
VERTEX
  5
7EC
330
7EB
100
AcDbEntity
  8
DIBUJOS
 62
    29
100
AcDbVertex
100
AcDb2dVertex
 10
62.0876742423625
 20
31.04551329710412
 30
0.0
  0
VERTEX
  5
7ED
330
7EB
100
AcDbEntity
  8
DIBUJOS
 62
    29
100
AcDbVertex
100
AcDb2dVertex
 10
62.0876742423625
 20
31.05129251450392
 30
0.0
  0
SEQEND
  5
7EE
330
7EB
100
AcDbEntity
  8
DIBUJOS
 62
    29
  0
POLYLINE
  5
7EF
330
6A3
100
AcDbEntity
  8
DIBUJOS
 62
    29
100
AcDb2dPolyline
 66
     1
 10
0.0
 20
0.0
 30
0.0
  0
VERTEX
  5
7F0
330
7EF
100
AcDbEntity
  8
DIBUJOS
 62
    29
100
AcDbVertex
100
AcDb2dVertex
 10
62.24373100205646
 20
31.04551329710412
 30
0.0
  0
VERTEX
  5
7F1
330
7EF
100
AcDbEntity
  8
DIBUJOS
 62
    29
100
AcDbVertex
100
AcDb2dVertex
 10
62.24951099727827
 20
31.08597093018887
 30
0.0
  0
SEQEND
  5
7F2
330
7EF
100
AcDbEntity
  8
DIBUJOS
 62
    29
  0
POLYLINE
  5
7F3
330
6A3
100
AcDbEntity
  8
DIBUJOS
 62
    29
100
AcDb2dPolyline
 66
     1
 10
0.0
 20
0.0
 30
0.0
  0
VERTEX
  5
7F4
330
7F3
100
AcDbEntity
  8
DIBUJOS
 62
    29
100
AcDbVertex
100
AcDb2dVertex
 10
66.97745374987899
 20
31.04551329710412
 30
0.0
  0
VERTEX
  5
7F5
330
7F3
100
AcDbEntity
  8
DIBUJOS
 62
    29
100
AcDbVertex
100
AcDb2dVertex
 10
66.97167453247984
 20
31.05129251450392
 30
0.0
  0
VERTEX
  5
7F6
330
7F3
100
AcDbEntity
  8
DIBUJOS
 62
    29
100
AcDbVertex
100
AcDb2dVertex
 10
66.97167453247984
 20
31.07441249538991
 30
0.0
  0
SEQEND
  5
7F7
330
7F3
100
AcDbEntity
  8
DIBUJOS
 62
    29
  0
POLYLINE
  5
7F8
330
6A3
100
AcDbEntity
  8
DIBUJOS
 62
    29
100
AcDb2dPolyline
 66
     1
 10
0.0
 20
0.0
 30
0.0
  0
VERTEX
  5
7F9
330
7F8
100
AcDbEntity
  8
DIBUJOS
 62
    29
100
AcDbVertex
100
AcDb2dVertex
 10
67.11617052390814
 20
31.04551329710412
 30
0.0
  0
VERTEX
  5
7FA
330
7F8
100
AcDbEntity
  8
DIBUJOS
 62
    29
100
AcDbVertex
100
AcDb2dVertex
 10
67.11617052390814
 20
31.05129251450392
 30
0.0
  0
SEQEND
  5
7FB
330
7F8
100
AcDbEntity
  8
DIBUJOS
 62
    29
  0
POLYLINE
  5
7FC
330
6A3
100
AcDbEntity
  8
DIBUJOS
 62
    29
100
AcDb2dPolyline
 66
     1
 10
0.0
 20
0.0
 30
0.0
  0
VERTEX
  5
7FD
330
7FC
100
AcDbEntity
  8
DIBUJOS
 62
    29
100
AcDbVertex
100
AcDb2dVertex
 10
61.87959830349614
 20
31.03973252406093
 30
0.0
  0
VERTEX
  5
7FE
330
7FC
100
AcDbEntity
  8
DIBUJOS
 62
    29
100
AcDbVertex
100
AcDb2dVertex
 10
61.87381830827432
 20
31.04551329710412
 30
0.0
  0
VERTEX
  5
7FF
330
7FC
100
AcDbEntity
  8
DIBUJOS
 62
    29
100
AcDbVertex
100
AcDb2dVertex
 10
61.87381830827432
 20
31.05707173190308
 30
0.0
  0
SEQEND
  5
800
330
7FC
100
AcDbEntity
  8
DIBUJOS
 62
    29
  0
POLYLINE
  5
801
330
6A3
100
AcDbEntity
  8
DIBUJOS
 62
    29
100
AcDb2dPolyline
 66
     1
 10
0.0
 20
0.0
 30
0.0
  0
VERTEX
  5
802
330
801
100
AcDbEntity
  8
DIBUJOS
 62
    29
100
AcDbVertex
100
AcDb2dVertex
 10
62.0876742423625
 20
31.03973252406093
 30
0.0
  0
VERTEX
  5
803
330
801
100
AcDbEntity
  8
DIBUJOS
 62
    29
100
AcDbVertex
100
AcDb2dVertex
 10
62.0876742423625
 20
31.04551329710412
 30
0.0
  0
SEQEND
  5
804
330
801
100
AcDbEntity
  8
DIBUJOS
 62
    29
  0
POLYLINE
  5
805
330
6A3
100
AcDbEntity
  8
DIBUJOS
 62
    29
100
AcDb2dPolyline
 66
     1
 10
0.0
 20
0.0
 30
0.0
  0
VERTEX
  5
806
330
805
100
AcDbEntity
  8
DIBUJOS
 62
    29
100
AcDbVertex
100
AcDb2dVertex
 10
67.33002645799631
 20
31.03395330666113
 30
0.0
  0
VERTEX
  5
807
330
805
100
AcDbEntity
  8
DIBUJOS
 62
    29
100
AcDbVertex
100
AcDb2dVertex
 10
67.33580567539612
 20
31.05707173190308
 30
0.0
  0
SEQEND
  5
808
330
805
100
AcDbEntity
  8
DIBUJOS
 62
    29
  0
POLYLINE
  5
809
330
6A3
100
AcDbEntity
  8
DIBUJOS
 62
    29
100
AcDb2dPolyline
 66
     1
 10
0.0
 20
0.0
 30
0.0
  0
VERTEX
  5
80A
330
809
100
AcDbEntity
  8
DIBUJOS
 62
    29
100
AcDbVertex
100
AcDb2dVertex
 10
67.08149210822319
 20
31.00505410837534
 30
0.0
  0
VERTEX
  5
80B
330
809
100
AcDbEntity
  8
DIBUJOS
 62
    29
100
AcDbVertex
100
AcDb2dVertex
 10
67.08033626474297
 20
31.0102546262127
 30
0.0
  0
VERTEX
  5
80C
330
809
100
AcDbEntity
  8
DIBUJOS
 62
    29
100
AcDbVertex
100
AcDb2dVertex
 10
67.06649570021949
 20
31.06324297158687
 30
0.0
  0
VERTEX
  5
80D
330
809
100
AcDbEntity
  8
DIBUJOS
 62
    29
100
AcDbVertex
100
AcDb2dVertex
 10
67.06415134473636
 20
31.0917517032327
 30
0.0
  0
SEQEND
  5
80E
330
809
100
AcDbEntity
  8
DIBUJOS
 62
    29
  0
POLYLINE
  5
80F
330
6A3
100
AcDbEntity
  8
DIBUJOS
 62
    29
100
AcDb2dPolyline
 66
     1
 10
0.0
 20
0.0
 30
0.0
  0
VERTEX
  5
810
330
80F
100
AcDbEntity
  8
DIBUJOS
 62
    29
100
AcDbVertex
100
AcDb2dVertex
 10
62.13969342153428
 20
30.99927333533151
 30
0.0
  0
VERTEX
  5
811
330
80F
100
AcDbEntity
  8
DIBUJOS
 62
    29
100
AcDbVertex
100
AcDb2dVertex
 10
62.16058960934624
 20
31.08063662696879
 30
0.0
  0
VERTEX
  5
812
330
80F
100
AcDbEntity
  8
DIBUJOS
 62
    29
100
AcDbVertex
100
AcDb2dVertex
 10
62.16281262459889
 20
31.1033116936757
 30
0.0
  0
SEQEND
  5
813
330
80F
100
AcDbEntity
  8
DIBUJOS
 62
    29
  0
POLYLINE
  5
814
330
6A3
100
AcDbEntity
  8
DIBUJOS
 62
    29
100
AcDb2dPolyline
 66
     1
 10
0.0
 20
0.0
 30
0.0
  0
VERTEX
  5
815
330
814
100
AcDbEntity
  8
DIBUJOS
 62
    29
100
AcDbVertex
100
AcDb2dVertex
 10
62.01253586012612
 20
32.28818660161509
 30
0.0
  0
VERTEX
  5
816
330
814
100
AcDbEntity
  8
DIBUJOS
 62
    29
100
AcDbVertex
100
AcDb2dVertex
 10
61.98363666184033
 20
32.29974659205809
 30
0.0
  0
VERTEX
  5
817
330
814
100
AcDbEntity
  8
DIBUJOS
 62
    29
100
AcDbVertex
100
AcDb2dVertex
 10
61.92525956570695
 20
32.28414037161328
 30
0.0
  0
VERTEX
  5
818
330
814
100
AcDbEntity
  8
DIBUJOS
 62
    29
100
AcDbVertex
100
AcDb2dVertex
 10
61.91427749700311
 20
32.28240738421529
 30
0.0
  0
VERTEX
  5
819
330
814
100
AcDbEntity
  8
DIBUJOS
 62
    29
100
AcDbVertex
100
AcDb2dVertex
 10
61.88537829871796
 20
32.2535081859295
 30
0.0
  0
VERTEX
  5
81A
330
814
100
AcDbEntity
  8
DIBUJOS
 62
    29
100
AcDbVertex
100
AcDb2dVertex
 10
61.88133206871615
 20
32.24136949592406
 30
0.0
  0
VERTEX
  5
81B
330
814
100
AcDbEntity
  8
DIBUJOS
 62
    29
100
AcDbVertex
100
AcDb2dVertex
 10
61.86803831305315
 20
32.20148900675709
 30
0.0
  0
VERTEX
  5
81C
330
814
100
AcDbEntity
  8
DIBUJOS
 62
    29
100
AcDbVertex
100
AcDb2dVertex
 10
61.87159529302167
 20
32.17792411169202
 30
0.0
  0
VERTEX
  5
81D
330
814
100
AcDbEntity
  8
DIBUJOS
 62
    29
100
AcDbVertex
100
AcDb2dVertex
 10
61.88315528346466
 20
32.11434649772064
 30
0.0
  0
VERTEX
  5
81E
330
814
100
AcDbEntity
  8
DIBUJOS
 62
    29
100
AcDbVertex
100
AcDb2dVertex
 10
61.89693828916095
 20
32.03387147879813
 30
0.0
  0
VERTEX
  5
81F
330
814
100
AcDbEntity
  8
DIBUJOS
 62
    29
100
AcDbVertex
100
AcDb2dVertex
 10
61.89289205915914
 20
32.02751511748055
 30
0.0
  0
VERTEX
  5
820
330
814
100
AcDbEntity
  8
DIBUJOS
 62
    29
100
AcDbVertex
100
AcDb2dVertex
 10
61.82961935140864
 20
31.81950684912756
 30
0.0
  0
VERTEX
  5
821
330
814
100
AcDbEntity
  8
DIBUJOS
 62
    29
100
AcDbVertex
100
AcDb2dVertex
 10
61.82553967506146
 20
31.8031865880942
 30
0.0
  0
VERTEX
  5
822
330
814
100
AcDbEntity
  8
DIBUJOS
 62
    29
100
AcDbVertex
100
AcDb2dVertex
 10
61.77220831018896
 20
31.55379507848561
 30
0.0
  0
VERTEX
  5
823
330
814
100
AcDbEntity
  8
DIBUJOS
 62
    29
100
AcDbVertex
100
AcDb2dVertex
 10
61.76735314531598
 20
31.5198089243728
 30
0.0
  0
VERTEX
  5
824
330
814
100
AcDbEntity
  8
DIBUJOS
 62
    29
100
AcDbVertex
100
AcDb2dVertex
 10
61.75244074208798
 20
31.42120443046404
 30
0.0
  0
VERTEX
  5
825
330
814
100
AcDbEntity
  8
DIBUJOS
 62
    29
100
AcDbVertex
100
AcDb2dVertex
 10
61.75244074208798
 20
31.28248765643426
 30
0.0
  0
VERTEX
  5
826
330
814
100
AcDbEntity
  8
DIBUJOS
 62
    29
100
AcDbVertex
100
AcDb2dVertex
 10
61.78018487471557
 20
31.14897295588651
 30
0.0
  0
VERTEX
  5
827
330
814
100
AcDbEntity
  8
DIBUJOS
 62
    29
100
AcDbVertex
100
AcDb2dVertex
 10
61.80330407777954
 20
31.09695377671409
 30
0.0
  0
VERTEX
  5
828
330
814
100
AcDbEntity
  8
DIBUJOS
 62
    29
100
AcDbVertex
100
AcDb2dVertex
 10
61.81601991170275
 20
31.06863172234672
 30
0.0
  0
VERTEX
  5
829
330
814
100
AcDbEntity
  8
DIBUJOS
 62
    29
100
AcDbVertex
100
AcDb2dVertex
 10
61.86225909565334
 20
31.02239331621814
 30
0.0
  0
VERTEX
  5
82A
330
814
100
AcDbEntity
  8
DIBUJOS
 62
    29
100
AcDbVertex
100
AcDb2dVertex
 10
61.92583748744674
 20
30.99349411793235
 30
0.0
  0
VERTEX
  5
82B
330
814
100
AcDbEntity
  8
DIBUJOS
 62
    29
100
AcDbVertex
100
AcDb2dVertex
 10
61.96629667617552
 20
30.99349411793235
 30
0.0
  0
VERTEX
  5
82C
330
814
100
AcDbEntity
  8
DIBUJOS
 62
    29
100
AcDbVertex
100
AcDb2dVertex
 10
62.01134034772442
 20
31.00804250046825
 30
0.0
  0
VERTEX
  5
82D
330
814
100
AcDbEntity
  8
DIBUJOS
 62
    29
100
AcDbVertex
100
AcDb2dVertex
 10
62.08189424714133
 20
31.04551329710412
 30
0.0
  0
SEQEND
  5
82E
330
814
100
AcDbEntity
  8
DIBUJOS
 62
    29
  0
POLYLINE
  5
82F
330
6A3
100
AcDbEntity
  8
DIBUJOS
 62
    29
100
AcDb2dPolyline
 66
     1
 10
0.0
 20
0.0
 30
0.0
  0
VERTEX
  5
830
330
82F
100
AcDbEntity
  8
DIBUJOS
 62
    29
100
AcDbVertex
100
AcDb2dVertex
 10
67.12195129695196
 20
31.05129251450392
 30
0.0
  0
VERTEX
  5
831
330
82F
100
AcDbEntity
  8
DIBUJOS
 62
    29
100
AcDbVertex
100
AcDb2dVertex
 10
67.19073098440538
 20
31.00967748229492
 30
0.0
  0
VERTEX
  5
832
330
82F
100
AcDbEntity
  8
DIBUJOS
 62
    29
100
AcDbVertex
100
AcDb2dVertex
 10
67.24332886313896
 20
30.99349411793235
 30
0.0
  0
VERTEX
  5
833
330
82F
100
AcDbEntity
  8
DIBUJOS
 62
    29
100
AcDbVertex
100
AcDb2dVertex
 10
67.28378805186773
 20
30.99349411793235
 30
0.0
  0
VERTEX
  5
834
330
82F
100
AcDbEntity
  8
DIBUJOS
 62
    29
100
AcDbVertex
100
AcDb2dVertex
 10
67.35314643888294
 20
31.02817253361729
 30
0.0
  0
VERTEX
  5
835
330
82F
100
AcDbEntity
  8
DIBUJOS
 62
    29
100
AcDbVertex
100
AcDb2dVertex
 10
67.39360562761172
 20
31.06863172234672
 30
0.0
  0
VERTEX
  5
836
330
82F
100
AcDbEntity
  8
DIBUJOS
 62
    29
100
AcDbVertex
100
AcDb2dVertex
 10
67.42655105589932
 20
31.13856880892309
 30
0.0
  0
VERTEX
  5
837
330
82F
100
AcDbEntity
  8
DIBUJOS
 62
    29
100
AcDbVertex
100
AcDb2dVertex
 10
67.43001858633933
 20
31.14897295588651
 30
0.0
  0
VERTEX
  5
838
330
82F
100
AcDbEntity
  8
DIBUJOS
 62
    29
100
AcDbVertex
100
AcDb2dVertex
 10
67.45718324158246
 20
31.27092766599127
 30
0.0
  0
VERTEX
  5
839
330
82F
100
AcDbEntity
  8
DIBUJOS
 62
    29
100
AcDbVertex
100
AcDb2dVertex
 10
67.45718324158246
 20
31.43276442090703
 30
0.0
  0
VERTEX
  5
83A
330
82F
100
AcDbEntity
  8
DIBUJOS
 62
    29
100
AcDbVertex
100
AcDb2dVertex
 10
67.44891499380923
 20
31.47869169823862
 30
0.0
  0
VERTEX
  5
83B
330
82F
100
AcDbEntity
  8
DIBUJOS
 62
    29
100
AcDbVertex
100
AcDb2dVertex
 10
67.42028181064485
 20
31.64617544081549
 30
0.0
  0
VERTEX
  5
83C
330
82F
100
AcDbEntity
  8
DIBUJOS
 62
    29
100
AcDbVertex
100
AcDb2dVertex
 10
67.36066019932412
 20
31.89573340433015
 30
0.0
  0
VERTEX
  5
83D
330
82F
100
AcDbEntity
  8
DIBUJOS
 62
    29
100
AcDbVertex
100
AcDb2dVertex
 10
67.33407268799813
 20
31.97549593830814
 30
0.0
  0
VERTEX
  5
83E
330
82F
100
AcDbEntity
  8
DIBUJOS
 62
    29
100
AcDbVertex
100
AcDb2dVertex
 10
67.30690647711033
 20
32.04543146924112
 30
0.0
  0
VERTEX
  5
83F
330
82F
100
AcDbEntity
  8
DIBUJOS
 62
    29
100
AcDbVertex
100
AcDb2dVertex
 10
67.33224947324896
 20
32.18370488473521
 30
0.0
  0
VERTEX
  5
840
330
82F
100
AcDbEntity
  8
DIBUJOS
 62
    29
100
AcDbVertex
100
AcDb2dVertex
 10
67.33580567539612
 20
32.18992901631409
 30
0.0
  0
VERTEX
  5
841
330
82F
100
AcDbEntity
  8
DIBUJOS
 62
    29
100
AcDbVertex
100
AcDb2dVertex
 10
67.32540308407673
 20
32.22518613156149
 30
0.0
  0
VERTEX
  5
842
330
82F
100
AcDbEntity
  8
DIBUJOS
 62
    29
100
AcDbVertex
100
AcDb2dVertex
 10
67.31846646755332
 20
32.24772741288567
 30
0.0
  0
VERTEX
  5
843
330
82F
100
AcDbEntity
  8
DIBUJOS
 62
    29
100
AcDbVertex
100
AcDb2dVertex
 10
67.28378805186773
 20
32.28240738421529
 30
0.0
  0
VERTEX
  5
844
330
82F
100
AcDbEntity
  8
DIBUJOS
 62
    29
100
AcDbVertex
100
AcDb2dVertex
 10
67.22020888225296
 20
32.29974659205809
 30
0.0
  0
VERTEX
  5
845
330
82F
100
AcDbEntity
  8
DIBUJOS
 62
    29
100
AcDbVertex
100
AcDb2dVertex
 10
67.19130968396654
 20
32.29396737465828
 30
0.0
  0
VERTEX
  5
846
330
82F
100
AcDbEntity
  8
DIBUJOS
 62
    29
100
AcDbVertex
100
AcDb2dVertex
 10
67.17841650662969
 20
32.31041675414227
 30
0.0
  0
VERTEX
  5
847
330
82F
100
AcDbEntity
  8
DIBUJOS
 62
    29
100
AcDbVertex
100
AcDb2dVertex
 10
67.15796445517543
 20
32.34109560914567
 30
0.0
  0
VERTEX
  5
848
330
82F
100
AcDbEntity
  8
DIBUJOS
 62
    29
100
AcDbVertex
100
AcDb2dVertex
 10
67.12051077062326
 20
32.39668499126022
 30
0.0
  0
VERTEX
  5
849
330
82F
100
AcDbEntity
  8
DIBUJOS
 62
    29
100
AcDbVertex
100
AcDb2dVertex
 10
67.02947292905141
 20
32.49626331830347
 30
0.0
  0
VERTEX
  5
84A
330
82F
100
AcDbEntity
  8
DIBUJOS
 62
    29
100
AcDbVertex
100
AcDb2dVertex
 10
66.95329459881182
 20
32.55267408044143
 30
0.0
  0
VERTEX
  5
84B
330
82F
100
AcDbEntity
  8
DIBUJOS
 62
    29
100
AcDbVertex
100
AcDb2dVertex
 10
66.90142631710582
 20
32.58740694366615
 30
0.0
  0
VERTEX
  5
84C
330
82F
100
AcDbEntity
  8
DIBUJOS
 62
    29
100
AcDbVertex
100
AcDb2dVertex
 10
66.79191987015882
 20
32.64538423929603
 30
0.0
  0
VERTEX
  5
84D
330
82F
100
AcDbEntity
  8
DIBUJOS
 62
    29
100
AcDbVertex
100
AcDb2dVertex
 10
66.75839574230942
 20
32.65925591669881
 30
0.0
  0
VERTEX
  5
84E
330
82F
100
AcDbEntity
  8
DIBUJOS
 62
    29
100
AcDbVertex
100
AcDb2dVertex
 10
66.63593078097826
 20
32.70229903008492
 30
0.0
  0
VERTEX
  5
84F
330
82F
100
AcDbEntity
  8
DIBUJOS
 62
    29
100
AcDbVertex
100
AcDb2dVertex
 10
66.52135293464389
 20
32.72949790949671
 30
0.0
  0
VERTEX
  5
850
330
82F
100
AcDbEntity
  8
DIBUJOS
 62
    29
100
AcDbVertex
100
AcDb2dVertex
 10
66.37032946105857
 20
32.75375195484713
 30
0.0
  0
VERTEX
  5
851
330
82F
100
AcDbEntity
  8
DIBUJOS
 62
    29
100
AcDbVertex
100
AcDb2dVertex
 10
66.31300398025797
 20
32.75896336219206
 30
0.0
  0
VERTEX
  5
852
330
82F
100
AcDbEntity
  8
DIBUJOS
 62
    29
100
AcDbVertex
100
AcDb2dVertex
 10
66.06989727234479
 20
32.77671170440253
 30
0.0
  0
VERTEX
  5
853
330
82F
100
AcDbEntity
  8
DIBUJOS
 62
    29
100
AcDbVertex
100
AcDb2dVertex
 10
65.93718995102354
 20
32.78224201876525
 30
0.0
  0
VERTEX
  5
854
330
82F
100
AcDbEntity
  8
DIBUJOS
 62
    29
100
AcDbVertex
100
AcDb2dVertex
 10
65.66542050270942
 20
32.78525685680538
 30
0.0
  0
VERTEX
  5
855
330
82F
100
AcDbEntity
  8
DIBUJOS
 62
    29
100
AcDbVertex
100
AcDb2dVertex
 10
65.12807151349205
 20
32.75367261700353
 30
0.0
  0
VERTEX
  5
856
330
82F
100
AcDbEntity
  8
DIBUJOS
 62
    29
100
AcDbVertex
100
AcDb2dVertex
 10
64.94929379559295
 20
32.72572391719179
 30
0.0
  0
VERTEX
  5
857
330
82F
100
AcDbEntity
  8
DIBUJOS
 62
    29
100
AcDbVertex
100
AcDb2dVertex
 10
64.8568154276924
 20
32.696824718906
 30
0.0
  0
VERTEX
  5
858
330
82F
100
AcDbEntity
  8
DIBUJOS
 62
    29
100
AcDbVertex
100
AcDb2dVertex
 10
64.79369983998443
 20
32.66249165618478
 30
0.0
  0
VERTEX
  5
859
330
82F
100
AcDbEntity
  8
DIBUJOS
 62
    29
100
AcDbVertex
100
AcDb2dVertex
 10
64.7742791804912
 20
32.64792616156519
 30
0.0
  0
VERTEX
  5
85A
330
82F
100
AcDbEntity
  8
DIBUJOS
 62
    29
100
AcDbVertex
100
AcDb2dVertex
 10
64.72330072714465
 20
32.60030012100363
 30
0.0
  0
VERTEX
  5
85B
330
82F
100
AcDbEntity
  8
DIBUJOS
 62
    29
100
AcDbVertex
100
AcDb2dVertex
 10
64.70711580713738
 20
32.56504300575624
 30
0.0
  0
VERTEX
  5
85C
330
82F
100
AcDbEntity
  8
DIBUJOS
 62
    29
100
AcDbVertex
100
AcDb2dVertex
 10
64.69844620321663
 20
32.54308042399386
 30
0.0
  0
VERTEX
  5
85D
330
82F
100
AcDbEntity
  8
DIBUJOS
 62
    29
100
AcDbVertex
100
AcDb2dVertex
 10
64.68547213239216
 20
32.45558478377225
 30
0.0
  0
VERTEX
  5
85E
330
82F
100
AcDbEntity
  8
DIBUJOS
 62
    29
100
AcDbVertex
100
AcDb2dVertex
 10
64.66550077492903
 20
32.23038820504287
 30
0.0
  0
VERTEX
  5
85F
330
82F
100
AcDbEntity
  8
DIBUJOS
 62
    29
100
AcDbVertex
100
AcDb2dVertex
 10
64.66550077492903
 20
31.87781549692555
 30
0.0
  0
VERTEX
  5
860
330
82F
100
AcDbEntity
  8
DIBUJOS
 62
    29
100
AcDbVertex
100
AcDb2dVertex
 10
64.68284153841586
 20
31.76221714813837
 30
0.0
  0
SEQEND
  5
861
330
82F
100
AcDbEntity
  8
DIBUJOS
 62
    29
  0
POLYLINE
  5
862
330
6A3
100
AcDbEntity
  8
DIBUJOS
 62
    29
100
AcDb2dPolyline
 66
     1
 10
0.0
 20
0.0
 30
0.0
  0
VERTEX
  5
863
330
862
100
AcDbEntity
  8
DIBUJOS
 62
    29
100
AcDbVertex
100
AcDb2dVertex
 10
62.12235343587011
 20
30.90679496743095
 30
0.0
  0
VERTEX
  5
864
330
862
100
AcDbEntity
  8
DIBUJOS
 62
    29
100
AcDbVertex
100
AcDb2dVertex
 10
62.12235343587011
 20
30.92413573091713
 30
0.0
  0
SEQEND
  5
865
330
862
100
AcDbEntity
  8
DIBUJOS
 62
    29
  0
POLYLINE
  5
866
330
6A3
100
AcDbEntity
  8
DIBUJOS
 62
    29
100
AcDb2dPolyline
 66
     1
 10
0.0
 20
0.0
 30
0.0
  0
VERTEX
  5
867
330
866
100
AcDbEntity
  8
DIBUJOS
 62
    29
100
AcDbVertex
100
AcDb2dVertex
 10
64.56146397222822
 20
29.21328981385763
 30
0.0
  0
VERTEX
  5
868
330
866
100
AcDbEntity
  8
DIBUJOS
 62
    29
100
AcDbVertex
100
AcDb2dVertex
 10
64.56433880231081
 20
30.36347230531581
 30
0.0
  0
VERTEX
  5
869
330
866
100
AcDbEntity
  8
DIBUJOS
 62
    29
100
AcDbVertex
100
AcDb2dVertex
 10
64.5641847935557
 20
31.35199694091588
 30
0.0
  0
VERTEX
  5
86A
330
866
100
AcDbEntity
  8
DIBUJOS
 62
    29
100
AcDbVertex
100
AcDb2dVertex
 10
64.56146397222822
 20
31.45010362874983
 30
0.0
  0
SEQEND
  5
86B
330
866
100
AcDbEntity
  8
DIBUJOS
 62
    29
  0
POLYLINE
  5
86C
330
6A3
100
AcDbEntity
  8
DIBUJOS
 62
    29
100
AcDb2dPolyline
 66
     1
 10
0.0
 20
0.0
 30
0.0
  0
VERTEX
  5
86D
330
86C
100
AcDbEntity
  8
DIBUJOS
 62
    29
100
AcDbVertex
100
AcDb2dVertex
 10
64.65972155752922
 20
29.21328981385763
 30
0.0
  0
VERTEX
  5
86E
330
86C
100
AcDbEntity
  8
DIBUJOS
 62
    29
100
AcDbVertex
100
AcDb2dVertex
 10
64.6539407844854
 20
31.35184604344947
 30
0.0
  0
VERTEX
  5
86F
330
86C
100
AcDbEntity
  8
DIBUJOS
 62
    29
100
AcDbVertex
100
AcDb2dVertex
 10
64.66239104260563
 20
31.43257307669713
 30
0.0
  0
VERTEX
  5
870
330
86C
100
AcDbEntity
  8
DIBUJOS
 62
    29
100
AcDbVertex
100
AcDb2dVertex
 10
64.66550077492903
 20
31.43854519395087
 30
0.0
  0
VERTEX
  5
871
330
86C
100
AcDbEntity
  8
DIBUJOS
 62
    29
100
AcDbVertex
100
AcDb2dVertex
 10
64.65972155752922
 20
31.45010362874983
 30
0.0
  0
SEQEND
  5
872
330
86C
100
AcDbEntity
  8
DIBUJOS
 62
    29
  0
POLYLINE
  5
873
330
6A3
100
AcDbEntity
  8
DIBUJOS
 62
    29
100
AcDb2dPolyline
 66
     1
 10
0.0
 20
0.0
 30
0.0
  0
VERTEX
  5
874
330
873
100
AcDbEntity
  8
DIBUJOS
 62
    29
100
AcDbVertex
100
AcDb2dVertex
 10
64.56146397222822
 20
29.20751059645847
 30
0.0
  0
VERTEX
  5
875
330
873
100
AcDbEntity
  8
DIBUJOS
 62
    29
100
AcDbVertex
100
AcDb2dVertex
 10
64.56146397222822
 20
29.21328981385763
 30
0.0
  0
SEQEND
  5
876
330
873
100
AcDbEntity
  8
DIBUJOS
 62
    29
  0
POLYLINE
  5
877
330
6A3
100
AcDbEntity
  8
DIBUJOS
 62
    29
100
AcDb2dPolyline
 66
     1
 10
0.0
 20
0.0
 30
0.0
  0
VERTEX
  5
878
330
877
100
AcDbEntity
  8
DIBUJOS
 62
    29
100
AcDbVertex
100
AcDb2dVertex
 10
64.56724318962803
 20
29.20751059645847
 30
0.0
  0
VERTEX
  5
879
330
877
100
AcDbEntity
  8
DIBUJOS
 62
    29
100
AcDbVertex
100
AcDb2dVertex
 10
64.56146397222822
 20
29.20751059645847
 30
0.0
  0
SEQEND
  5
87A
330
877
100
AcDbEntity
  8
DIBUJOS
 62
    29
  0
POLYLINE
  5
87B
330
6A3
100
AcDbEntity
  8
DIBUJOS
 62
    29
100
AcDb2dPolyline
 66
     1
 10
0.0
 20
0.0
 30
0.0
  0
VERTEX
  5
87C
330
87B
100
AcDbEntity
  8
DIBUJOS
 62
    29
100
AcDbVertex
100
AcDb2dVertex
 10
64.6539407844854
 20
29.20751059645847
 30
0.0
  0
VERTEX
  5
87D
330
87B
100
AcDbEntity
  8
DIBUJOS
 62
    29
100
AcDbVertex
100
AcDb2dVertex
 10
64.56724318962803
 20
29.20751059645847
 30
0.0
  0
SEQEND
  5
87E
330
87B
100
AcDbEntity
  8
DIBUJOS
 62
    29
  0
POLYLINE
  5
87F
330
6A3
100
AcDbEntity
  8
DIBUJOS
 62
    29
100
AcDb2dPolyline
 66
     1
 10
0.0
 20
0.0
 30
0.0
  0
VERTEX
  5
880
330
87F
100
AcDbEntity
  8
DIBUJOS
 62
    29
100
AcDbVertex
100
AcDb2dVertex
 10
64.65972155752922
 20
29.20751059645847
 30
0.0
  0
VERTEX
  5
881
330
87F
100
AcDbEntity
  8
DIBUJOS
 62
    29
100
AcDbVertex
100
AcDb2dVertex
 10
64.6539407844854
 20
29.20751059645847
 30
0.0
  0
SEQEND
  5
882
330
87F
100
AcDbEntity
  8
DIBUJOS
 62
    29
  0
POLYLINE
  5
883
330
6A3
100
AcDbEntity
  8
DIBUJOS
 62
    29
100
AcDb2dPolyline
 66
     1
 10
0.0
 20
0.0
 30
0.0
  0
VERTEX
  5
884
330
883
100
AcDbEntity
  8
DIBUJOS
 62
    29
100
AcDbVertex
100
AcDb2dVertex
 10
64.65972155752922
 20
29.20751059645847
 30
0.0
  0
VERTEX
  5
885
330
883
100
AcDbEntity
  8
DIBUJOS
 62
    29
100
AcDbVertex
100
AcDb2dVertex
 10
64.65972155752922
 20
29.21328981385763
 30
0.0
  0
SEQEND
  5
886
330
883
100
AcDbEntity
  8
DIBUJOS
 62
    29
  0
POLYLINE
  5
887
330
6A3
100
AcDbEntity
  8
DIBUJOS
 62
    29
100
AcDb2dPolyline
 66
     1
 10
0.0
 20
0.0
 30
0.0
  0
VERTEX
  5
888
330
887
100
AcDbEntity
  8
DIBUJOS
 62
    29
100
AcDbVertex
100
AcDb2dVertex
 10
64.56146397222822
 20
29.20172982341463
 30
0.0
  0
VERTEX
  5
889
330
887
100
AcDbEntity
  8
DIBUJOS
 62
    29
100
AcDbVertex
100
AcDb2dVertex
 10
64.56146397222822
 20
29.20751059645847
 30
0.0
  0
SEQEND
  5
88A
330
887
100
AcDbEntity
  8
DIBUJOS
 62
    29
  0
POLYLINE
  5
88B
330
6A3
100
AcDbEntity
  8
DIBUJOS
 62
    29
100
AcDb2dPolyline
 66
     1
 10
0.0
 20
0.0
 30
0.0
  0
VERTEX
  5
88C
330
88B
100
AcDbEntity
  8
DIBUJOS
 62
    29
100
AcDbVertex
100
AcDb2dVertex
 10
64.65972155752922
 20
29.20172982341463
 30
0.0
  0
VERTEX
  5
88D
330
88B
100
AcDbEntity
  8
DIBUJOS
 62
    29
100
AcDbVertex
100
AcDb2dVertex
 10
64.65972155752922
 20
29.20751059645847
 30
0.0
  0
SEQEND
  5
88E
330
88B
100
AcDbEntity
  8
DIBUJOS
 62
    29
  0
POLYLINE
  5
88F
330
6A3
100
AcDbEntity
  8
DIBUJOS
 62
    29
100
AcDb2dPolyline
 66
     1
 10
0.0
 20
0.0
 30
0.0
  0
VERTEX
  5
890
330
88F
100
AcDbEntity
  8
DIBUJOS
 62
    29
100
AcDbVertex
100
AcDb2dVertex
 10
64.56146397222822
 20
28.99365466237029
 30
0.0
  0
VERTEX
  5
891
330
88F
100
AcDbEntity
  8
DIBUJOS
 62
    29
100
AcDbVertex
100
AcDb2dVertex
 10
64.56146397222822
 20
29.20172982341463
 30
0.0
  0
SEQEND
  5
892
330
88F
100
AcDbEntity
  8
DIBUJOS
 62
    29
  0
POLYLINE
  5
893
330
6A3
100
AcDbEntity
  8
DIBUJOS
 62
    29
100
AcDb2dPolyline
 66
     1
 10
0.0
 20
0.0
 30
0.0
  0
VERTEX
  5
894
330
893
100
AcDbEntity
  8
DIBUJOS
 62
    29
100
AcDbVertex
100
AcDb2dVertex
 10
64.65972155752922
 20
28.99365466237029
 30
0.0
  0
VERTEX
  5
895
330
893
100
AcDbEntity
  8
DIBUJOS
 62
    29
100
AcDbVertex
100
AcDb2dVertex
 10
64.65972155752922
 20
29.20172982341463
 30
0.0
  0
SEQEND
  5
896
330
893
100
AcDbEntity
  8
DIBUJOS
 62
    29
  0
POLYLINE
  5
897
330
6A3
100
AcDbEntity
  8
DIBUJOS
 62
    29
100
AcDb2dPolyline
 66
     1
 10
0.0
 20
0.0
 30
0.0
  0
VERTEX
  5
898
330
897
100
AcDbEntity
  8
DIBUJOS
 62
    29
100
AcDbVertex
100
AcDb2dVertex
 10
64.56146397222822
 20
28.98787466714911
 30
0.0
  0
VERTEX
  5
899
330
897
100
AcDbEntity
  8
DIBUJOS
 62
    29
100
AcDbVertex
100
AcDb2dVertex
 10
64.56146397222822
 20
28.99365466237029
 30
0.0
  0
SEQEND
  5
89A
330
897
100
AcDbEntity
  8
DIBUJOS
 62
    29
  0
POLYLINE
  5
89B
330
6A3
100
AcDbEntity
  8
DIBUJOS
 62
    29
100
AcDb2dPolyline
 66
     1
 10
0.0
 20
0.0
 30
0.0
  0
VERTEX
  5
89C
330
89B
100
AcDbEntity
  8
DIBUJOS
 62
    29
100
AcDbVertex
100
AcDb2dVertex
 10
64.56724318962803
 20
28.98787466714911
 30
0.0
  0
VERTEX
  5
89D
330
89B
100
AcDbEntity
  8
DIBUJOS
 62
    29
100
AcDbVertex
100
AcDb2dVertex
 10
64.56146397222822
 20
28.98787466714911
 30
0.0
  0
SEQEND
  5
89E
330
89B
100
AcDbEntity
  8
DIBUJOS
 62
    29
  0
POLYLINE
  5
89F
330
6A3
100
AcDbEntity
  8
DIBUJOS
 62
    29
100
AcDb2dPolyline
 66
     1
 10
0.0
 20
0.0
 30
0.0
  0
VERTEX
  5
8A0
330
89F
100
AcDbEntity
  8
DIBUJOS
 62
    29
100
AcDbVertex
100
AcDb2dVertex
 10
64.6539407844854
 20
28.98787466714911
 30
0.0
  0
VERTEX
  5
8A1
330
89F
100
AcDbEntity
  8
DIBUJOS
 62
    29
100
AcDbVertex
100
AcDb2dVertex
 10
64.56724318962803
 20
28.98787466714911
 30
0.0
  0
SEQEND
  5
8A2
330
89F
100
AcDbEntity
  8
DIBUJOS
 62
    29
  0
POLYLINE
  5
8A3
330
6A3
100
AcDbEntity
  8
DIBUJOS
 62
    29
100
AcDb2dPolyline
 66
     1
 10
0.0
 20
0.0
 30
0.0
  0
VERTEX
  5
8A4
330
8A3
100
AcDbEntity
  8
DIBUJOS
 62
    29
100
AcDbVertex
100
AcDb2dVertex
 10
64.65972155752922
 20
28.98787466714911
 30
0.0
  0
VERTEX
  5
8A5
330
8A3
100
AcDbEntity
  8
DIBUJOS
 62
    29
100
AcDbVertex
100
AcDb2dVertex
 10
64.6539407844854
 20
28.98787466714911
 30
0.0
  0
SEQEND
  5
8A6
330
8A3
100
AcDbEntity
  8
DIBUJOS
 62
    29
  0
POLYLINE
  5
8A7
330
6A3
100
AcDbEntity
  8
DIBUJOS
 62
    29
100
AcDb2dPolyline
 66
     1
 10
0.0
 20
0.0
 30
0.0
  0
VERTEX
  5
8A8
330
8A7
100
AcDbEntity
  8
DIBUJOS
 62
    29
100
AcDbVertex
100
AcDb2dVertex
 10
64.65972155752922
 20
28.98787466714911
 30
0.0
  0
VERTEX
  5
8A9
330
8A7
100
AcDbEntity
  8
DIBUJOS
 62
    29
100
AcDbVertex
100
AcDb2dVertex
 10
64.65972155752922
 20
28.99365466237029
 30
0.0
  0
SEQEND
  5
8AA
330
8A7
100
AcDbEntity
  8
DIBUJOS
 62
    29
  0
POLYLINE
  5
8AB
330
6A3
100
AcDbEntity
  8
DIBUJOS
 62
    29
100
AcDb2dPolyline
 66
     1
 10
0.0
 20
0.0
 30
0.0
  0
VERTEX
  5
8AC
330
8AB
100
AcDbEntity
  8
DIBUJOS
 62
    29
100
AcDbVertex
100
AcDb2dVertex
 10
64.56146397222822
 20
28.98209467192729
 30
0.0
  0
VERTEX
  5
8AD
330
8AB
100
AcDbEntity
  8
DIBUJOS
 62
    29
100
AcDbVertex
100
AcDb2dVertex
 10
64.56146397222822
 20
28.98787466714911
 30
0.0
  0
SEQEND
  5
8AE
330
8AB
100
AcDbEntity
  8
DIBUJOS
 62
    29
  0
POLYLINE
  5
8AF
330
6A3
100
AcDbEntity
  8
DIBUJOS
 62
    29
100
AcDb2dPolyline
 66
     1
 10
0.0
 20
0.0
 30
0.0
  0
VERTEX
  5
8B0
330
8AF
100
AcDbEntity
  8
DIBUJOS
 62
    29
100
AcDbVertex
100
AcDb2dVertex
 10
64.65972155752922
 20
28.98209467192729
 30
0.0
  0
VERTEX
  5
8B1
330
8AF
100
AcDbEntity
  8
DIBUJOS
 62
    29
100
AcDbVertex
100
AcDb2dVertex
 10
64.65972155752922
 20
28.98787466714911
 30
0.0
  0
SEQEND
  5
8B2
330
8AF
100
AcDbEntity
  8
DIBUJOS
 62
    29
  0
POLYLINE
  5
8B3
330
6A3
100
AcDbEntity
  8
DIBUJOS
 62
    29
100
AcDb2dPolyline
 66
     1
 10
0.0
 20
0.0
 30
0.0
  0
VERTEX
  5
8B4
330
8B3
100
AcDbEntity
  8
DIBUJOS
 62
    29
100
AcDbVertex
100
AcDb2dVertex
 10
62.07611425191951
 20
28.65842116209576
 30
0.0
  0
VERTEX
  5
8B5
330
8B3
100
AcDbEntity
  8
DIBUJOS
 62
    29
100
AcDbVertex
100
AcDb2dVertex
 10
62.08189424714133
 20
28.68154114298175
 30
0.0
  0
VERTEX
  5
8B6
330
8B3
100
AcDbEntity
  8
DIBUJOS
 62
    29
100
AcDbVertex
100
AcDb2dVertex
 10
62.07302007603577
 20
28.77997840516242
 30
0.0
  0
VERTEX
  5
8B7
330
8B3
100
AcDbEntity
  8
DIBUJOS
 62
    29
100
AcDbVertex
100
AcDb2dVertex
 10
62.06455503929853
 20
28.86649710096212
 30
0.0
  0
SEQEND
  5
8B8
330
8B3
100
AcDbEntity
  8
DIBUJOS
 62
    29
  0
POLYLINE
  5
8B9
330
6A3
100
AcDbEntity
  8
DIBUJOS
 62
    29
100
AcDb2dPolyline
 66
     1
 10
0.0
 20
0.0
 30
0.0
  0
VERTEX
  5
8BA
330
8B9
100
AcDbEntity
  8
DIBUJOS
 62
    29
100
AcDbVertex
100
AcDb2dVertex
 10
67.13929050479476
 20
28.64108195425296
 30
0.0
  0
VERTEX
  5
8BB
330
8B9
100
AcDbEntity
  8
DIBUJOS
 62
    29
100
AcDbVertex
100
AcDb2dVertex
 10
67.13929050479476
 20
28.65842116209576
 30
0.0
  0
VERTEX
  5
8BC
330
8B9
100
AcDbEntity
  8
DIBUJOS
 62
    29
100
AcDbVertex
100
AcDb2dVertex
 10
67.14506972219456
 20
28.66420115731693
 30
0.0
  0
SEQEND
  5
8BD
330
8B9
100
AcDbEntity
  8
DIBUJOS
 62
    29
  0
POLYLINE
  5
8BE
330
6A3
100
AcDbEntity
  8
DIBUJOS
 62
    29
100
AcDb2dPolyline
 66
     1
 10
0.0
 20
0.0
 30
0.0
  0
VERTEX
  5
8BF
330
8BE
100
AcDbEntity
  8
DIBUJOS
 62
    29
100
AcDbVertex
100
AcDb2dVertex
 10
67.12195129695196
 20
28.50814439762298
 30
0.0
  0
VERTEX
  5
8C0
330
8BE
100
AcDbEntity
  8
DIBUJOS
 62
    29
100
AcDbVertex
100
AcDb2dVertex
 10
67.13351128739495
 20
28.53704437373079
 30
0.0
  0
SEQEND
  5
8C1
330
8BE
100
AcDbEntity
  8
DIBUJOS
 62
    29
  0
POLYLINE
  5
8C2
330
6A3
100
AcDbEntity
  8
DIBUJOS
 62
    29
100
AcDb2dPolyline
 66
     1
 10
0.0
 20
0.0
 30
0.0
  0
VERTEX
  5
8C3
330
8C2
100
AcDbEntity
  8
DIBUJOS
 62
    29
100
AcDbVertex
100
AcDb2dVertex
 10
62.0992342328055
 20
28.49658440717999
 30
0.0
  0
VERTEX
  5
8C4
330
8C2
100
AcDbEntity
  8
DIBUJOS
 62
    29
100
AcDbVertex
100
AcDb2dVertex
 10
62.0876742423625
 20
28.5254843832878
 30
0.0
  0
SEQEND
  5
8C5
330
8C2
100
AcDbEntity
  8
DIBUJOS
 62
    29
  0
POLYLINE
  5
8C6
330
6A3
100
AcDbEntity
  8
DIBUJOS
 62
    29
100
AcDb2dPolyline
 66
     1
 10
0.0
 20
0.0
 30
0.0
  0
VERTEX
  5
8C7
330
8C6
100
AcDbEntity
  8
DIBUJOS
 62
    29
100
AcDbVertex
100
AcDb2dVertex
 10
67.01213372120861
 20
28.24805005740622
 30
0.0
  0
VERTEX
  5
8C8
330
8C6
100
AcDbEntity
  8
DIBUJOS
 62
    29
100
AcDbVertex
100
AcDb2dVertex
 10
67.01213372120861
 20
28.27116926047083
 30
0.0
  0
SEQEND
  5
8C9
330
8C6
100
AcDbEntity
  8
DIBUJOS
 62
    29
  0
POLYLINE
  5
8CA
330
6A3
100
AcDbEntity
  8
DIBUJOS
 62
    29
100
AcDb2dPolyline
 66
     1
 10
0.0
 20
0.0
 30
0.0
  0
VERTEX
  5
8CB
330
8CA
100
AcDbEntity
  8
DIBUJOS
 62
    29
100
AcDbVertex
100
AcDb2dVertex
 10
62.21483180377131
 20
28.20759086867744
 30
0.0
  0
VERTEX
  5
8CC
330
8CA
100
AcDbEntity
  8
DIBUJOS
 62
    29
100
AcDbVertex
100
AcDb2dVertex
 10
62.20905180854949
 20
28.26538926524901
 30
0.0
  0
SEQEND
  5
8CD
330
8CA
100
AcDbEntity
  8
DIBUJOS
 62
    29
  0
POLYLINE
  5
8CE
330
6A3
100
AcDbEntity
  8
DIBUJOS
 62
    29
100
AcDb2dPolyline
 66
     1
 10
0.0
 20
0.0
 30
0.0
  0
VERTEX
  5
8CF
330
8CE
100
AcDbEntity
  8
DIBUJOS
 62
    29
100
AcDbVertex
100
AcDb2dVertex
 10
62.1859318276635
 20
27.98795493936808
 30
0.0
  0
VERTEX
  5
8D0
330
8CE
100
AcDbEntity
  8
DIBUJOS
 62
    29
100
AcDbVertex
100
AcDb2dVertex
 10
62.1665523927358
 20
28.06258384819943
 30
0.0
  0
VERTEX
  5
8D1
330
8CE
100
AcDbEntity
  8
DIBUJOS
 62
    29
100
AcDbVertex
100
AcDb2dVertex
 10
62.11911147380802
 20
28.30613080336088
 30
0.0
  0
VERTEX
  5
8D2
330
8CE
100
AcDbEntity
  8
DIBUJOS
 62
    29
100
AcDbVertex
100
AcDb2dVertex
 10
62.09701121755285
 20
28.47302106775831
 30
0.0
  0
VERTEX
  5
8D3
330
8CE
100
AcDbEntity
  8
DIBUJOS
 62
    29
100
AcDbVertex
100
AcDb2dVertex
 10
62.09345423758368
 20
28.4792451993372
 30
0.0
  0
SEQEND
  5
8D4
330
8CE
100
AcDbEntity
  8
DIBUJOS
 62
    29
  0
POLYLINE
  5
8D5
330
6A3
100
AcDbEntity
  8
DIBUJOS
 62
    29
100
AcDb2dPolyline
 66
     1
 10
0.0
 20
0.0
 30
0.0
  0
VERTEX
  5
8D6
330
8D5
100
AcDbEntity
  8
DIBUJOS
 62
    29
100
AcDbVertex
100
AcDb2dVertex
 10
67.03525214645057
 20
27.98795493936808
 30
0.0
  0
VERTEX
  5
8D7
330
8D5
100
AcDbEntity
  8
DIBUJOS
 62
    29
100
AcDbVertex
100
AcDb2dVertex
 10
67.0546323592003
 20
28.06258384819943
 30
0.0
  0
VERTEX
  5
8D8
330
8D5
100
AcDbEntity
  8
DIBUJOS
 62
    29
100
AcDbVertex
100
AcDb2dVertex
 10
67.11281811112377
 20
28.3690807149848
 30
0.0
  0
VERTEX
  5
8D9
330
8D5
100
AcDbEntity
  8
DIBUJOS
 62
    29
100
AcDbVertex
100
AcDb2dVertex
 10
67.12484012783017
 20
28.49080518978019
 30
0.0
  0
VERTEX
  5
8DA
330
8D5
100
AcDbEntity
  8
DIBUJOS
 62
    29
100
AcDbVertex
100
AcDb2dVertex
 10
67.12195129695196
 20
28.49658440717999
 30
0.0
  0
SEQEND
  5
8DB
330
8D5
100
AcDbEntity
  8
DIBUJOS
 62
    29
  0
POLYLINE
  5
8DC
330
6A3
100
AcDbEntity
  8
DIBUJOS
 62
    29
100
AcDb2dPolyline
 66
     1
 10
0.0
 20
0.0
 30
0.0
  0
VERTEX
  5
8DD
330
8DC
100
AcDbEntity
  8
DIBUJOS
 62
    29
100
AcDbVertex
100
AcDb2dVertex
 10
62.1859318276635
 20
27.98217572196828
 30
0.0
  0
VERTEX
  5
8DE
330
8DC
100
AcDbEntity
  8
DIBUJOS
 62
    29
100
AcDbVertex
100
AcDb2dVertex
 10
62.18015261026306
 20
27.98217572196828
 30
0.0
  0
SEQEND
  5
8DF
330
8DC
100
AcDbEntity
  8
DIBUJOS
 62
    29
  0
POLYLINE
  5
8E0
330
6A3
100
AcDbEntity
  8
DIBUJOS
 62
    29
100
AcDb2dPolyline
 66
     1
 10
0.0
 20
0.0
 30
0.0
  0
VERTEX
  5
8E1
330
8E0
100
AcDbEntity
  8
DIBUJOS
 62
    29
100
AcDbVertex
100
AcDb2dVertex
 10
62.1859318276635
 20
27.98217572196828
 30
0.0
  0
VERTEX
  5
8E2
330
8E0
100
AcDbEntity
  8
DIBUJOS
 62
    29
100
AcDbVertex
100
AcDb2dVertex
 10
62.1859318276635
 20
27.98795493936808
 30
0.0
  0
SEQEND
  5
8E3
330
8E0
100
AcDbEntity
  8
DIBUJOS
 62
    29
  0
POLYLINE
  5
8E4
330
6A3
100
AcDbEntity
  8
DIBUJOS
 62
    29
100
AcDb2dPolyline
 66
     1
 10
0.0
 20
0.0
 30
0.0
  0
VERTEX
  5
8E5
330
8E4
100
AcDbEntity
  8
DIBUJOS
 62
    29
100
AcDbVertex
100
AcDb2dVertex
 10
67.03525214645057
 20
27.98217572196828
 30
0.0
  0
VERTEX
  5
8E6
330
8E4
100
AcDbEntity
  8
DIBUJOS
 62
    29
100
AcDbVertex
100
AcDb2dVertex
 10
67.03525214645057
 20
27.98795493936808
 30
0.0
  0
SEQEND
  5
8E7
330
8E4
100
AcDbEntity
  8
DIBUJOS
 62
    29
  0
POLYLINE
  5
8E8
330
6A3
100
AcDbEntity
  8
DIBUJOS
 62
    29
100
AcDb2dPolyline
 66
     1
 10
0.0
 20
0.0
 30
0.0
  0
VERTEX
  5
8E9
330
8E8
100
AcDbEntity
  8
DIBUJOS
 62
    29
100
AcDbVertex
100
AcDb2dVertex
 10
67.04103291949376
 20
27.98217572196828
 30
0.0
  0
VERTEX
  5
8EA
330
8E8
100
AcDbEntity
  8
DIBUJOS
 62
    29
100
AcDbVertex
100
AcDb2dVertex
 10
67.03525214645057
 20
27.98217572196828
 30
0.0
  0
SEQEND
  5
8EB
330
8E8
100
AcDbEntity
  8
DIBUJOS
 62
    29
  0
POLYLINE
  5
8EC
330
6A3
100
AcDbEntity
  8
DIBUJOS
 62
    29
100
AcDb2dPolyline
 66
     1
 10
0.0
 20
0.0
 30
0.0
  0
VERTEX
  5
8ED
330
8EC
100
AcDbEntity
  8
DIBUJOS
 62
    29
100
AcDbVertex
100
AcDb2dVertex
 10
62.1859318276635
 20
27.9763957267471
 30
0.0
  0
VERTEX
  5
8EE
330
8EC
100
AcDbEntity
  8
DIBUJOS
 62
    29
100
AcDbVertex
100
AcDb2dVertex
 10
62.1859318276635
 20
27.98217572196828
 30
0.0
  0
SEQEND
  5
8EF
330
8EC
100
AcDbEntity
  8
DIBUJOS
 62
    29
  0
POLYLINE
  5
8F0
330
6A3
100
AcDbEntity
  8
DIBUJOS
 62
    29
100
AcDb2dPolyline
 66
     1
 10
0.0
 20
0.0
 30
0.0
  0
VERTEX
  5
8F1
330
8F0
100
AcDbEntity
  8
DIBUJOS
 62
    29
100
AcDbVertex
100
AcDb2dVertex
 10
62.0876742423625
 20
31.03973252406093
 30
0.0
  0
VERTEX
  5
8F2
330
8F0
100
AcDbEntity
  8
DIBUJOS
 62
    29
100
AcDbVertex
100
AcDb2dVertex
 10
62.10501422802731
 20
30.91257574047414
 30
0.0
  0
VERTEX
  5
8F3
330
8F0
100
AcDbEntity
  8
DIBUJOS
 62
    29
100
AcDbVertex
100
AcDb2dVertex
 10
62.10501422802731
 20
30.75073898555837
 30
0.0
  0
VERTEX
  5
8F4
330
8F0
100
AcDbEntity
  8
DIBUJOS
 62
    29
100
AcDbVertex
100
AcDb2dVertex
 10
62.084525618939
 20
30.57712289439781
 30
0.0
  0
VERTEX
  5
8F5
330
8F0
100
AcDbEntity
  8
DIBUJOS
 62
    29
100
AcDbVertex
100
AcDb2dVertex
 10
62.0618559969862
 20
30.27695672080417
 30
0.0
  0
VERTEX
  5
8F6
330
8F0
100
AcDbEntity
  8
DIBUJOS
 62
    29
100
AcDbVertex
100
AcDb2dVertex
 10
62.04721505363308
 20
29.99935360755112
 30
0.0
  0
VERTEX
  5
8F7
330
8F0
100
AcDbEntity
  8
DIBUJOS
 62
    29
100
AcDbVertex
100
AcDb2dVertex
 10
62.04721505363308
 20
29.37512656877404
 30
0.0
  0
VERTEX
  5
8F8
330
8F0
100
AcDbEntity
  8
DIBUJOS
 62
    29
100
AcDbVertex
100
AcDb2dVertex
 10
62.05581232010966
 20
29.13822065777865
 30
0.0
  0
VERTEX
  5
8F9
330
8F0
100
AcDbEntity
  8
DIBUJOS
 62
    29
100
AcDbVertex
100
AcDb2dVertex
 10
62.05877504407672
 20
29.13237221422208
 30
0.0
  0
VERTEX
  5
8FA
330
8F0
100
AcDbEntity
  8
DIBUJOS
 62
    29
100
AcDbVertex
100
AcDb2dVertex
 10
62.02085311068501
 20
28.29400689197373
 30
0.0
  0
VERTEX
  5
8FB
330
8F0
100
AcDbEntity
  8
DIBUJOS
 62
    29
100
AcDbVertex
100
AcDb2dVertex
 10
62.01004605193003
 20
28.20212200225262
 30
0.0
  0
VERTEX
  5
8FC
330
8F0
100
AcDbEntity
  8
DIBUJOS
 62
    29
100
AcDbVertex
100
AcDb2dVertex
 10
61.9979866997682
 20
28.14520798928574
 30
0.0
  0
VERTEX
  5
8FD
330
8F0
100
AcDbEntity
  8
DIBUJOS
 62
    29
100
AcDbVertex
100
AcDb2dVertex
 10
61.990749843956
 20
28.13156343590427
 30
0.0
  0
VERTEX
  5
8FE
330
8F0
100
AcDbEntity
  8
DIBUJOS
 62
    29
100
AcDbVertex
100
AcDb2dVertex
 10
61.85069910521035
 20
27.98795493936808
 30
0.0
  0
VERTEX
  5
8FF
330
8F0
100
AcDbEntity
  8
DIBUJOS
 62
    29
100
AcDbVertex
100
AcDb2dVertex
 10
61.84491910998918
 20
27.98795493936808
 30
0.0
  0
VERTEX
  5
900
330
8F0
100
AcDbEntity
  8
DIBUJOS
 62
    29
100
AcDbVertex
100
AcDb2dVertex
 10
61.78018487471557
 20
27.9191744740933
 30
0.0
  0
VERTEX
  5
901
330
8F0
100
AcDbEntity
  8
DIBUJOS
 62
    29
100
AcDbVertex
100
AcDb2dVertex
 10
61.75822073730915
 20
27.86657815100311
 30
0.0
  0
VERTEX
  5
902
330
8F0
100
AcDbEntity
  8
DIBUJOS
 62
    29
100
AcDbVertex
100
AcDb2dVertex
 10
61.76804696253279
 20
27.81976104531272
 30
0.0
  0
VERTEX
  5
903
330
8F0
100
AcDbEntity
  8
DIBUJOS
 62
    29
100
AcDbVertex
100
AcDb2dVertex
 10
61.78134071819579
 20
27.79143976876672
 30
0.0
  0
VERTEX
  5
904
330
8F0
100
AcDbEntity
  8
DIBUJOS
 62
    29
100
AcDbVertex
100
AcDb2dVertex
 10
61.81023991648093
 20
27.76253979265892
 30
0.0
  0
VERTEX
  5
905
330
8F0
100
AcDbEntity
  8
DIBUJOS
 62
    29
100
AcDbVertex
100
AcDb2dVertex
 10
61.82237782866435
 20
27.75849434047912
 30
0.0
  0
VERTEX
  5
906
330
8F0
100
AcDbEntity
  8
DIBUJOS
 62
    29
100
AcDbVertex
100
AcDb2dVertex
 10
61.85647910043153
 20
27.74520058481612
 30
0.0
  0
VERTEX
  5
907
330
8F0
100
AcDbEntity
  8
DIBUJOS
 62
    29
100
AcDbVertex
100
AcDb2dVertex
 10
61.88004321767586
 20
27.74875678696327
 30
0.0
  0
VERTEX
  5
908
330
8F0
100
AcDbEntity
  8
DIBUJOS
 62
    29
100
AcDbVertex
100
AcDb2dVertex
 10
61.90907620134373
 20
27.75560395395753
 30
0.0
  0
VERTEX
  5
909
330
8F0
100
AcDbEntity
  8
DIBUJOS
 62
    29
100
AcDbVertex
100
AcDb2dVertex
 10
61.9591150457251
 20
27.79288340638349
 30
0.0
  0
VERTEX
  5
90A
330
8F0
100
AcDbEntity
  8
DIBUJOS
 62
    29
100
AcDbVertex
100
AcDb2dVertex
 10
62.15125263415526
 20
27.98217572196828
 30
0.0
  0
VERTEX
  5
90B
330
8F0
100
AcDbEntity
  8
DIBUJOS
 62
    29
100
AcDbVertex
100
AcDb2dVertex
 10
62.18015261026306
 20
27.98217572196828
 30
0.0
  0
SEQEND
  5
90C
330
8F0
100
AcDbEntity
  8
DIBUJOS
 62
    29
  0
POLYLINE
  5
90D
330
6A3
100
AcDbEntity
  8
DIBUJOS
 62
    29
100
AcDb2dPolyline
 66
     1
 10
0.0
 20
0.0
 30
0.0
  0
VERTEX
  5
90E
330
90D
100
AcDbEntity
  8
DIBUJOS
 62
    29
100
AcDbVertex
100
AcDb2dVertex
 10
67.04103291949376
 20
27.98217572196828
 30
0.0
  0
VERTEX
  5
90F
330
90D
100
AcDbEntity
  8
DIBUJOS
 62
    29
100
AcDbVertex
100
AcDb2dVertex
 10
67.04985808781366
 20
27.97929000237877
 30
0.0
  0
VERTEX
  5
910
330
90D
100
AcDbEntity
  8
DIBUJOS
 62
    29
100
AcDbVertex
100
AcDb2dVertex
 10
67.26207281749905
 20
27.77554419854069
 30
0.0
  0
VERTEX
  5
911
330
90D
100
AcDbEntity
  8
DIBUJOS
 62
    29
100
AcDbVertex
100
AcDb2dVertex
 10
67.29573850895132
 20
27.75332337987705
 30
0.0
  0
VERTEX
  5
912
330
90D
100
AcDbEntity
  8
DIBUJOS
 62
    29
100
AcDbVertex
100
AcDb2dVertex
 10
67.33002645799631
 20
27.74520058481612
 30
0.0
  0
VERTEX
  5
913
330
90D
100
AcDbEntity
  8
DIBUJOS
 62
    29
100
AcDbVertex
100
AcDb2dVertex
 10
67.35372358280071
 20
27.74924603699592
 30
0.0
  0
VERTEX
  5
914
330
90D
100
AcDbEntity
  8
DIBUJOS
 62
    29
100
AcDbVertex
100
AcDb2dVertex
 10
67.3710643462869
 20
27.75560395395753
 30
0.0
  0
VERTEX
  5
915
330
90D
100
AcDbEntity
  8
DIBUJOS
 62
    29
100
AcDbVertex
100
AcDb2dVertex
 10
67.39360562761172
 20
27.76253979265892
 30
0.0
  0
VERTEX
  5
916
330
90D
100
AcDbEntity
  8
DIBUJOS
 62
    29
100
AcDbVertex
100
AcDb2dVertex
 10
67.40658592101232
 20
27.77869515543024
 30
0.0
  0
VERTEX
  5
917
330
90D
100
AcDbEntity
  8
DIBUJOS
 62
    29
100
AcDbVertex
100
AcDb2dVertex
 10
67.4398440337403
 20
27.83767817489531
 30
0.0
  0
VERTEX
  5
918
330
90D
100
AcDbEntity
  8
DIBUJOS
 62
    29
100
AcDbVertex
100
AcDb2dVertex
 10
67.4398440337403
 20
27.87813736362409
 30
0.0
  0
VERTEX
  5
919
330
90D
100
AcDbEntity
  8
DIBUJOS
 62
    29
100
AcDbVertex
100
AcDb2dVertex
 10
67.42105963263671
 20
27.91718947237016
 30
0.0
  0
VERTEX
  5
91A
330
90D
100
AcDbEntity
  8
DIBUJOS
 62
    29
100
AcDbVertex
100
AcDb2dVertex
 10
67.20575539399967
 20
28.1409743041841
 30
0.0
  0
VERTEX
  5
91B
330
90D
100
AcDbEntity
  8
DIBUJOS
 62
    29
100
AcDbVertex
100
AcDb2dVertex
 10
67.19943170120608
 20
28.15596215614562
 30
0.0
  0
VERTEX
  5
91C
330
90D
100
AcDbEntity
  8
DIBUJOS
 62
    29
100
AcDbVertex
100
AcDb2dVertex
 10
67.19474610152723
 20
28.18408042115149
 30
0.0
  0
VERTEX
  5
91D
330
90D
100
AcDbEntity
  8
DIBUJOS
 62
    29
100
AcDbVertex
100
AcDb2dVertex
 10
67.17714398985107
 20
28.34029118959991
 30
0.0
  0
VERTEX
  5
91E
330
90D
100
AcDbEntity
  8
DIBUJOS
 62
    29
100
AcDbVertex
100
AcDb2dVertex
 10
67.15662971263755
 20
28.75089952999696
 30
0.0
  0
VERTEX
  5
91F
330
90D
100
AcDbEntity
  8
DIBUJOS
 62
    29
100
AcDbVertex
100
AcDb2dVertex
 10
67.15662971263755
 20
28.9531954736415
 30
0.0
  0
VERTEX
  5
920
330
90D
100
AcDbEntity
  8
DIBUJOS
 62
    29
100
AcDbVertex
100
AcDb2dVertex
 10
67.16537243182579
 20
29.13244066255747
 30
0.0
  0
VERTEX
  5
921
330
90D
100
AcDbEntity
  8
DIBUJOS
 62
    29
100
AcDbVertex
100
AcDb2dVertex
 10
67.17396892047971
 20
29.36934735137423
 30
0.0
  0
VERTEX
  5
922
330
90D
100
AcDbEntity
  8
DIBUJOS
 62
    29
100
AcDbVertex
100
AcDb2dVertex
 10
67.17096030501568
 20
30.01102404871703
 30
0.0
  0
VERTEX
  5
923
330
90D
100
AcDbEntity
  8
DIBUJOS
 62
    29
100
AcDbVertex
100
AcDb2dVertex
 10
67.15393067032586
 20
30.36331829656134
 30
0.0
  0
VERTEX
  5
924
330
90D
100
AcDbEntity
  8
DIBUJOS
 62
    29
100
AcDbVertex
100
AcDb2dVertex
 10
67.11941404161425
 20
30.74467664095347
 30
0.0
  0
VERTEX
  5
925
330
90D
100
AcDbEntity
  8
DIBUJOS
 62
    29
100
AcDbVertex
100
AcDb2dVertex
 10
67.10212150309107
 20
30.88336541339135
 30
0.0
  0
VERTEX
  5
926
330
90D
100
AcDbEntity
  8
DIBUJOS
 62
    29
100
AcDbVertex
100
AcDb2dVertex
 10
67.09883131606598
 20
30.93569416571674
 30
0.0
  0
VERTEX
  5
927
330
90D
100
AcDbEntity
  8
DIBUJOS
 62
    29
100
AcDbVertex
100
AcDb2dVertex
 10
67.11617052390814
 20
31.04551329710412
 30
0.0
  0
SEQEND
  5
928
330
90D
100
AcDbEntity
  8
DIBUJOS
 62
    29
  0
POLYLINE
  5
929
330
6A3
100
AcDbEntity
  8
DIBUJOS
 62
    29
100
AcDb2dPolyline
 66
     1
 10
0.0
 20
0.0
 30
0.0
  0
VERTEX
  5
92A
330
929
100
AcDbEntity
  8
DIBUJOS
 62
    29
100
AcDbVertex
100
AcDb2dVertex
 10
62.41712696959384
 20
27.60070303774315
 30
0.0
  0
VERTEX
  5
92B
330
929
100
AcDbEntity
  8
DIBUJOS
 62
    29
100
AcDbVertex
100
AcDb2dVertex
 10
62.32927353125626
 20
27.77352186136212
 30
0.0
  0
VERTEX
  5
92C
330
929
100
AcDbEntity
  8
DIBUJOS
 62
    29
100
AcDbVertex
100
AcDb2dVertex
 10
62.28793073674415
 20
27.9123070837273
 30
0.0
  0
VERTEX
  5
92D
330
929
100
AcDbEntity
  8
DIBUJOS
 62
    29
100
AcDbVertex
100
AcDb2dVertex
 10
62.26481075585817
 20
27.99322546118486
 30
0.0
  0
VERTEX
  5
92E
330
929
100
AcDbEntity
  8
DIBUJOS
 62
    29
100
AcDbVertex
100
AcDb2dVertex
 10
62.24607457971822
 20
28.06348456606644
 30
0.0
  0
VERTEX
  5
92F
330
929
100
AcDbEntity
  8
DIBUJOS
 62
    29
100
AcDbVertex
100
AcDb2dVertex
 10
62.22061179899249
 20
28.19603087823445
 30
0.0
  0
SEQEND
  5
930
330
929
100
AcDbEntity
  8
DIBUJOS
 62
    29
  0
POLYLINE
  5
931
330
6A3
100
AcDbEntity
  8
DIBUJOS
 62
    29
100
AcDb2dPolyline
 66
     1
 10
0.0
 20
0.0
 30
0.0
  0
VERTEX
  5
932
330
931
100
AcDbEntity
  8
DIBUJOS
 62
    29
100
AcDbVertex
100
AcDb2dVertex
 10
66.80405700452023
 20
27.59492304252133
 30
0.0
  0
VERTEX
  5
933
330
931
100
AcDbEntity
  8
DIBUJOS
 62
    29
100
AcDbVertex
100
AcDb2dVertex
 10
66.8919119985012
 20
27.77352186136212
 30
0.0
  0
VERTEX
  5
934
330
931
100
AcDbEntity
  8
DIBUJOS
 62
    29
100
AcDbVertex
100
AcDb2dVertex
 10
66.91761434840049
 20
27.84974841656535
 30
0.0
  0
VERTEX
  5
935
330
931
100
AcDbEntity
  8
DIBUJOS
 62
    29
100
AcDbVertex
100
AcDb2dVertex
 10
66.94450832159139
 20
27.94113861149971
 30
0.0
  0
VERTEX
  5
936
330
931
100
AcDbEntity
  8
DIBUJOS
 62
    29
100
AcDbVertex
100
AcDb2dVertex
 10
66.98100995202614
 20
28.08665743884816
 30
0.0
  0
VERTEX
  5
937
330
931
100
AcDbEntity
  8
DIBUJOS
 62
    29
100
AcDbVertex
100
AcDb2dVertex
 10
67.00635294816477
 20
28.23649006696323
 30
0.0
  0
SEQEND
  5
938
330
931
100
AcDbEntity
  8
DIBUJOS
 62
    29
  0
POLYLINE
  5
939
330
6A3
100
AcDbEntity
  8
DIBUJOS
 62
    29
100
AcDb2dPolyline
 66
     1
 10
0.0
 20
0.0
 30
0.0
  0
VERTEX
  5
93A
330
939
100
AcDbEntity
  8
DIBUJOS
 62
    29
100
AcDbVertex
100
AcDb2dVertex
 10
62.1859318276635
 20
27.9763957267471
 30
0.0
  0
VERTEX
  5
93B
330
939
100
AcDbEntity
  8
DIBUJOS
 62
    29
100
AcDbVertex
100
AcDb2dVertex
 10
62.19518013114671
 20
27.96367989282389
 30
0.0
  0
VERTEX
  5
93C
330
939
100
AcDbEntity
  8
DIBUJOS
 62
    29
100
AcDbVertex
100
AcDb2dVertex
 10
62.22465725117228
 20
27.87177944666248
 30
0.0
  0
VERTEX
  5
93D
330
939
100
AcDbEntity
  8
DIBUJOS
 62
    29
100
AcDbVertex
100
AcDb2dVertex
 10
62.2281255594343
 20
27.86137607752172
 30
0.0
  0
VERTEX
  5
93E
330
939
100
AcDbEntity
  8
DIBUJOS
 62
    29
100
AcDbVertex
100
AcDb2dVertex
 10
62.25662417939394
 20
27.79232881930351
 30
0.0
  0
VERTEX
  5
93F
330
939
100
AcDbEntity
  8
DIBUJOS
 62
    29
100
AcDbVertex
100
AcDb2dVertex
 10
62.29459355992664
 20
27.72150268219035
 30
0.0
  0
VERTEX
  5
940
330
939
100
AcDbEntity
  8
DIBUJOS
 62
    29
100
AcDbVertex
100
AcDb2dVertex
 10
62.34342989150818
 20
27.6309408676769
 30
0.0
  0
VERTEX
  5
941
330
939
100
AcDbEntity
  8
DIBUJOS
 62
    29
100
AcDbVertex
100
AcDb2dVertex
 10
62.52694454533783
 20
27.43308628760557
 30
0.0
  0
VERTEX
  5
942
330
939
100
AcDbEntity
  8
DIBUJOS
 62
    29
100
AcDbVertex
100
AcDb2dVertex
 10
62.71710335462097
 20
27.31055287793901
 30
0.0
  0
VERTEX
  5
943
330
939
100
AcDbEntity
  8
DIBUJOS
 62
    29
100
AcDbVertex
100
AcDb2dVertex
 10
62.76334176074955
 20
27.29321367009621
 30
0.0
  0
VERTEX
  5
944
330
939
100
AcDbEntity
  8
DIBUJOS
 62
    29
100
AcDbVertex
100
AcDb2dVertex
 10
62.94258617184351
 20
27.22875089469812
 30
0.0
  0
VERTEX
  5
945
330
939
100
AcDbEntity
  8
DIBUJOS
 62
    29
100
AcDbVertex
100
AcDb2dVertex
 10
63.09870904640681
 20
27.19388813520076
 30
0.0
  0
VERTEX
  5
946
330
939
100
AcDbEntity
  8
DIBUJOS
 62
    29
100
AcDbVertex
100
AcDb2dVertex
 10
63.35378021219985
 20
27.15236255252092
 30
0.0
  0
VERTEX
  5
947
330
939
100
AcDbEntity
  8
DIBUJOS
 62
    29
100
AcDbVertex
100
AcDb2dVertex
 10
63.46306731334504
 20
27.14146215512671
 30
0.0
  0
VERTEX
  5
948
330
939
100
AcDbEntity
  8
DIBUJOS
 62
    29
100
AcDbVertex
100
AcDb2dVertex
 10
63.69461247517248
 20
27.12371925767035
 30
0.0
  0
VERTEX
  5
949
330
939
100
AcDbEntity
  8
DIBUJOS
 62
    29
100
AcDbVertex
100
AcDb2dVertex
 10
64.00073054264747
 20
27.1123933916468
 30
0.0
  0
VERTEX
  5
94A
330
939
100
AcDbEntity
  8
DIBUJOS
 62
    29
100
AcDbVertex
100
AcDb2dVertex
 10
64.2551296702395
 20
27.10941355559605
 30
0.0
  0
VERTEX
  5
94B
330
939
100
AcDbEntity
  8
DIBUJOS
 62
    29
100
AcDbVertex
100
AcDb2dVertex
 10
64.3366267472595
 20
27.11923900299702
 30
0.0
  0
VERTEX
  5
94C
330
939
100
AcDbEntity
  8
DIBUJOS
 62
    29
100
AcDbVertex
100
AcDb2dVertex
 10
64.42121644451858
 20
27.14664244959297
 30
0.0
  0
VERTEX
  5
94D
330
939
100
AcDbEntity
  8
DIBUJOS
 62
    29
100
AcDbVertex
100
AcDb2dVertex
 10
64.47476482172748
 20
27.18455193783244
 30
0.0
  0
VERTEX
  5
94E
330
939
100
AcDbEntity
  8
DIBUJOS
 62
    29
100
AcDbVertex
100
AcDb2dVertex
 10
64.51637985393583
 20
27.2475524078854
 30
0.0
  0
VERTEX
  5
94F
330
939
100
AcDbEntity
  8
DIBUJOS
 62
    29
100
AcDbVertex
100
AcDb2dVertex
 10
64.52504945785724
 20
27.26604823703043
 30
0.0
  0
VERTEX
  5
950
330
939
100
AcDbEntity
  8
DIBUJOS
 62
    29
100
AcDbVertex
100
AcDb2dVertex
 10
64.55292504240214
 20
27.40430687390688
 30
0.0
  0
VERTEX
  5
951
330
939
100
AcDbEntity
  8
DIBUJOS
 62
    29
100
AcDbVertex
100
AcDb2dVertex
 10
64.55844291161198
 20
27.53122486614149
 30
0.0
  0
VERTEX
  5
952
330
939
100
AcDbEntity
  8
DIBUJOS
 62
    29
100
AcDbVertex
100
AcDb2dVertex
 10
64.56146397222822
 20
28.98209467192729
 30
0.0
  0
SEQEND
  5
953
330
939
100
AcDbEntity
  8
DIBUJOS
 62
    29
  0
POLYLINE
  5
954
330
6A3
100
AcDbEntity
  8
DIBUJOS
 62
    29
100
AcDb2dPolyline
 66
     1
 10
0.0
 20
0.0
 30
0.0
  0
VERTEX
  5
955
330
954
100
AcDbEntity
  8
DIBUJOS
 62
    29
100
AcDbVertex
100
AcDb2dVertex
 10
64.65972155752922
 20
28.98209467192729
 30
0.0
  0
VERTEX
  5
956
330
954
100
AcDbEntity
  8
DIBUJOS
 62
    29
100
AcDbVertex
100
AcDb2dVertex
 10
64.66259949889923
 20
27.54869552590096
 30
0.0
  0
VERTEX
  5
957
330
954
100
AcDbEntity
  8
DIBUJOS
 62
    29
100
AcDbVertex
100
AcDb2dVertex
 10
64.6738188033093
 20
27.36979024519526
 30
0.0
  0
VERTEX
  5
958
330
954
100
AcDbEntity
  8
DIBUJOS
 62
    29
100
AcDbVertex
100
AcDb2dVertex
 10
64.6961345162562
 20
27.26604823703043
 30
0.0
  0
VERTEX
  5
959
330
954
100
AcDbEntity
  8
DIBUJOS
 62
    29
100
AcDbVertex
100
AcDb2dVertex
 10
64.71058489322142
 20
27.23599241744241
 30
0.0
  0
VERTEX
  5
95A
330
954
100
AcDbEntity
  8
DIBUJOS
 62
    29
100
AcDbVertex
100
AcDb2dVertex
 10
64.7290799445438
 20
27.20189114567523
 30
0.0
  0
VERTEX
  5
95B
330
954
100
AcDbEntity
  8
DIBUJOS
 62
    29
100
AcDbVertex
100
AcDb2dVertex
 10
64.75219992542979
 20
27.17877194261062
 30
0.0
  0
VERTEX
  5
95C
330
954
100
AcDbEntity
  8
DIBUJOS
 62
    29
100
AcDbVertex
100
AcDb2dVertex
 10
64.79959417503859
 20
27.14640443606345
 30
0.0
  0
VERTEX
  5
95D
330
954
100
AcDbEntity
  8
DIBUJOS
 62
    29
100
AcDbVertex
100
AcDb2dVertex
 10
64.86830696980063
 20
27.12301299530194
 30
0.0
  0
VERTEX
  5
95E
330
954
100
AcDbEntity
  8
DIBUJOS
 62
    29
100
AcDbVertex
100
AcDb2dVertex
 10
64.88462723083336
 20
27.11893331895477
 30
0.0
  0
VERTEX
  5
95F
330
954
100
AcDbEntity
  8
DIBUJOS
 62
    29
100
AcDbVertex
100
AcDb2dVertex
 10
64.96605585951797
 20
27.10941355559605
 30
0.0
  0
VERTEX
  5
960
330
954
100
AcDbEntity
  8
DIBUJOS
 62
    29
100
AcDbVertex
100
AcDb2dVertex
 10
65.2088094362479
 20
27.10941355559605
 30
0.0
  0
VERTEX
  5
961
330
954
100
AcDbEntity
  8
DIBUJOS
 62
    29
100
AcDbVertex
100
AcDb2dVertex
 10
65.40524371336228
 20
27.11799604345434
 30
0.0
  0
VERTEX
  5
962
330
954
100
AcDbEntity
  8
DIBUJOS
 62
    29
100
AcDbVertex
100
AcDb2dVertex
 10
65.51500061899038
 20
27.12370370123069
 30
0.0
  0
VERTEX
  5
963
330
954
100
AcDbEntity
  8
DIBUJOS
 62
    29
100
AcDbVertex
100
AcDb2dVertex
 10
65.8276041662336
 20
27.14744516188866
 30
0.0
  0
VERTEX
  5
964
330
954
100
AcDbEntity
  8
DIBUJOS
 62
    29
100
AcDbVertex
100
AcDb2dVertex
 10
65.90786450628704
 20
27.15814254774273
 30
0.0
  0
VERTEX
  5
965
330
954
100
AcDbEntity
  8
DIBUJOS
 62
    29
100
AcDbVertex
100
AcDb2dVertex
 10
66.1158074375927
 20
27.19255494830691
 30
0.0
  0
VERTEX
  5
966
330
954
100
AcDbEntity
  8
DIBUJOS
 62
    29
100
AcDbVertex
100
AcDb2dVertex
 10
66.29498340035062
 20
27.23301413703569
 30
0.0
  0
VERTEX
  5
967
330
954
100
AcDbEntity
  8
DIBUJOS
 62
    29
100
AcDbVertex
100
AcDb2dVertex
 10
66.4624671429275
 20
27.295525357056
 30
0.0
  0
VERTEX
  5
968
330
954
100
AcDbEntity
  8
DIBUJOS
 62
    29
100
AcDbVertex
100
AcDb2dVertex
 10
66.50408217513649
 20
27.31055287793901
 30
0.0
  0
VERTEX
  5
969
330
954
100
AcDbEntity
  8
DIBUJOS
 62
    29
100
AcDbVertex
100
AcDb2dVertex
 10
66.69423942877624
 20
27.43308628760557
 30
0.0
  0
VERTEX
  5
96A
330
954
100
AcDbEntity
  8
DIBUJOS
 62
    29
100
AcDbVertex
100
AcDb2dVertex
 10
66.87775252696123
 20
27.63096498015872
 30
0.0
  0
VERTEX
  5
96B
330
954
100
AcDbEntity
  8
DIBUJOS
 62
    29
100
AcDbVertex
100
AcDb2dVertex
 10
66.93583871767
 20
27.73999851133474
 30
0.0
  0
VERTEX
  5
96C
330
954
100
AcDbEntity
  8
DIBUJOS
 62
    29
100
AcDbVertex
100
AcDb2dVertex
 10
66.9703397899413
 20
27.80388803192449
 30
0.0
  0
VERTEX
  5
96D
330
954
100
AcDbEntity
  8
DIBUJOS
 62
    29
100
AcDbVertex
100
AcDb2dVertex
 10
67.00431349890252
 20
27.89598682269393
 30
0.0
  0
VERTEX
  5
96E
330
954
100
AcDbEntity
  8
DIBUJOS
 62
    29
100
AcDbVertex
100
AcDb2dVertex
 10
67.03062877253099
 20
27.97581780500667
 30
0.0
  0
VERTEX
  5
96F
330
954
100
AcDbEntity
  8
DIBUJOS
 62
    29
100
AcDbVertex
100
AcDb2dVertex
 10
67.03525214645057
 20
27.98217572196828
 30
0.0
  0
SEQEND
  5
970
330
954
100
AcDbEntity
  8
DIBUJOS
 62
    29
  0
ENDBLK
  5
6A6
330
6A3
100
AcDbEntity
  8
0
100
AcDbBlockEnd
  0
ENDSEC
  0
SECTION
  2
ENTITIES
  0
MTEXT
  5
41
330
1F
100
AcDbEntity
  8
REFERENCIAS
 62
   255
100
AcDbMText
 10
61.49112712594395
 20
54.85563098807646
 30
0.0
 40
1.49859999962535
 41
0.0
 71
     7
 72
     1
  1
\fMyriad Pro|b0|i0|c0|p34;\W1;MERY_2328-06__CHAIR
  0
MTEXT
  5
43
330
1F
100
AcDbEntity
  8
M_U_00C1RGENES
 62
   255
100
AcDbMText
 10
90.14127864703391
 20
23.7555119243149
 30
0.0
 40
1.748366666229575
 41
0.0
 71
     7
 72
     1
  1
\fMyriad Pro|b0|i0|c0|p34;\W1;400
  0
MTEXT
  5
44
330
1F
100
AcDbEntity
  8
M_U_00C1RGENES
 62
   255
100
AcDbMText
 10
84.21176331851954
 20
20.50332059082737
 30
0.0
 40
1.748366666229575
 41
0.0
 71
     7
 72
     1
  1
\fMyriad Pro|b0|i0|c0|p34;\W1;400
  0
POLYLINE
  5
45
330
1F
100
AcDbEntity
  8
M_U_00C1RGENES
 62
   255
100
AcDb2dPolyline
 66
     1
 10
0.0
 20
0.0
 30
0.0
  0
VERTEX
  5
46
330
45
100
AcDbEntity
  8
M_U_00C1RGENES
 62
   255
100
AcDbVertex
100
AcDb2dVertex
 10
84.41666477502157
 20
24.76314475783758
 30
0.0
  0
VERTEX
  5
47
330
45
100
AcDbEntity
  8
M_U_00C1RGENES
 62
   255
100
AcDbVertex
100
AcDb2dVertex
 10
94.99999810570907
 20
19.74726776251925
 30
0.0
  0
SEQEND
  5
48
330
45
100
AcDbEntity
  8
M_U_00C1RGENES
 62
   255
  0
POLYLINE
  5
49
330
1F
100
AcDbEntity
  8
M_U_00C1RGENES
 62
   254
100
AcDb2dPolyline
 66
     1
 10
0.0
 20
0.0
 30
0.0
  0
VERTEX
  5
4A
330
49
100
AcDbEntity
  8
M_U_00C1RGENES
 62
   254
100
AcDbVertex
100
AcDb2dVertex
 10
54.99999767595828
 20
20.88258920325216
 30
0.0
  0
VERTEX
  5
4B
330
49
100
AcDbEntity
  8
M_U_00C1RGENES
 62
   254
100
AcDbVertex
100
AcDb2dVertex
 10
54.99999767595828
 20
19.74726776251925
 30
0.0
  0
SEQEND
  5
4C
330
49
100
AcDbEntity
  8
M_U_00C1RGENES
 62
   254
  0
POLYLINE
  5
4D
330
1F
100
AcDbEntity
  8
M_U_00C1RGENES
 62
   255
100
AcDb2dPolyline
 66
     1
 10
0.0
 20
0.0
 30
0.0
  0
VERTEX
  5
4E
330
4D
100
AcDbEntity
  8
M_U_00C1RGENES
 62
   255
100
AcDbVertex
100
AcDb2dVertex
 10
94.99999797321169
 20
59.74726768656564
 30
0.0
  0
VERTEX
  5
4F
330
4D
100
AcDbEntity
  8
M_U_00C1RGENES
 62
   255
100
AcDbVertex
100
AcDb2dVertex
 10
93.86467653247878
 20
59.74726768651462
 30
0.0
  0
SEQEND
  5
50
330
4D
100
AcDbEntity
  8
M_U_00C1RGENES
 62
   255
  0
POLYLINE
  5
52
330
1F
100
AcDbEntity
  8
DIBUJOS
 62
    29
100
AcDb2dPolyline
 66
     1
 10
0.0
 20
0.0
 30
0.0
  0
VERTEX
  5
53
330
52
100
AcDbEntity
  8
DIBUJOS
 62
    29
100
AcDbVertex
100
AcDb2dVertex
 10
67.24332886313896
 20
49.29526650603285
 30
0.0
  0
VERTEX
  5
54
330
52
100
AcDbEntity
  8
DIBUJOS
 62
    29
100
AcDbVertex
100
AcDb2dVertex
 10
67.24110584788629
 20
49.31794157273976
 30
0.0
  0
VERTEX
  5
55
330
52
100
AcDbEntity
  8
DIBUJOS
 62
    29
100
AcDbVertex
100
AcDb2dVertex
 10
67.19535591396898
 20
49.48542531531663
 30
0.0
  0
VERTEX
  5
56
330
52
100
AcDbEntity
  8
DIBUJOS
 62
    29
100
AcDbVertex
100
AcDb2dVertex
 10
67.19130968396654
 20
49.49178478792227
 30
0.0
  0
SEQEND
  5
57
330
52
100
AcDbEntity
  8
DIBUJOS
 62
    29
  0
POLYLINE
  5
58
330
1F
100
AcDbEntity
  8
DIBUJOS
 62
    29
100
AcDb2dPolyline
 66
     1
 10
0.0
 20
0.0
 30
0.0
  0
VERTEX
  5
59
330
58
100
AcDbEntity
  8
DIBUJOS
 62
    29
100
AcDbVertex
100
AcDb2dVertex
 10
61.94317747311091
 20
49.19123125897672
 30
0.0
  0
VERTEX
  5
5A
330
58
100
AcDbEntity
  8
DIBUJOS
 62
    29
100
AcDbVertex
100
AcDb2dVertex
 10
61.962739696207
 20
49.289043930098
 30
0.0
  0
VERTEX
  5
5B
330
58
100
AcDbEntity
  8
DIBUJOS
 62
    29
100
AcDbVertex
100
AcDb2dVertex
 10
61.99346210924131
 20
49.41722277178164
 30
0.0
  0
VERTEX
  5
5C
330
58
100
AcDbEntity
  8
DIBUJOS
 62
    29
100
AcDbVertex
100
AcDb2dVertex
 10
62.01831585534794
 20
49.49756244967804
 30
0.0
  0
SEQEND
  5
5D
330
58
100
AcDbEntity
  8
DIBUJOS
 62
    29
  0
POLYLINE
  5
5E
330
1F
100
AcDbEntity
  8
DIBUJOS
 62
    29
100
AcDb2dPolyline
 66
     1
 10
0.0
 20
0.0
 30
0.0
  0
VERTEX
  5
5F
330
5E
100
AcDbEntity
  8
DIBUJOS
 62
    29
100
AcDbVertex
100
AcDb2dVertex
 10
67.2664472883809
 20
49.18545048593289
 30
0.0
  0
VERTEX
  5
60
330
5E
100
AcDbEntity
  8
DIBUJOS
 62
    29
100
AcDbVertex
100
AcDb2dVertex
 10
67.24910808053811
 20
49.28370807123389
 30
0.0
  0
SEQEND
  5
61
330
5E
100
AcDbEntity
  8
DIBUJOS
 62
    29
  0
POLYLINE
  5
62
330
1F
100
AcDbEntity
  8
DIBUJOS
 62
    29
100
AcDb2dPolyline
 66
     1
 10
0.0
 20
0.0
 30
0.0
  0
VERTEX
  5
63
330
62
100
AcDbEntity
  8
DIBUJOS
 62
    29
100
AcDbVertex
100
AcDb2dVertex
 10
62.16281262459889
 20
47.47460612451805
 30
0.0
  0
VERTEX
  5
64
330
62
100
AcDbEntity
  8
DIBUJOS
 62
    29
100
AcDbVertex
100
AcDb2dVertex
 10
62.15703262937708
 20
47.47460612451805
 30
0.0
  0
SEQEND
  5
65
330
62
100
AcDbEntity
  8
DIBUJOS
 62
    29
  0
POLYLINE
  5
66
330
1F
100
AcDbEntity
  8
DIBUJOS
 62
    29
100
AcDb2dPolyline
 66
     1
 10
0.0
 20
0.0
 30
0.0
  0
VERTEX
  5
67
330
66
100
AcDbEntity
  8
DIBUJOS
 62
    29
100
AcDbVertex
100
AcDb2dVertex
 10
62.16281262459889
 20
47.47460612451805
 30
0.0
  0
VERTEX
  5
68
330
66
100
AcDbEntity
  8
DIBUJOS
 62
    29
100
AcDbVertex
100
AcDb2dVertex
 10
62.1737946933021
 20
47.48154118539743
 30
0.0
  0
VERTEX
  5
69
330
66
100
AcDbEntity
  8
DIBUJOS
 62
    29
100
AcDbVertex
100
AcDb2dVertex
 10
62.23166153820907
 20
47.5055447720661
 30
0.0
  0
VERTEX
  5
6A
330
66
100
AcDbEntity
  8
DIBUJOS
 62
    29
100
AcDbVertex
100
AcDb2dVertex
 10
62.27841019556406
 20
47.50928454020301
 30
0.0
  0
SEQEND
  5
6B
330
66
100
AcDbEntity
  8
DIBUJOS
 62
    29
  0
POLYLINE
  5
6C
330
1F
100
AcDbEntity
  8
DIBUJOS
 62
    29
100
AcDb2dPolyline
 66
     1
 10
0.0
 20
0.0
 30
0.0
  0
VERTEX
  5
6D
330
6C
100
AcDbEntity
  8
DIBUJOS
 62
    29
100
AcDbVertex
100
AcDb2dVertex
 10
67.05837212733655
 20
47.47460612451805
 30
0.0
  0
VERTEX
  5
6E
330
6C
100
AcDbEntity
  8
DIBUJOS
 62
    29
100
AcDbVertex
100
AcDb2dVertex
 10
67.04739083645536
 20
47.48154118539743
 30
0.0
  0
VERTEX
  5
6F
330
6C
100
AcDbEntity
  8
DIBUJOS
 62
    29
100
AcDbVertex
100
AcDb2dVertex
 10
66.98952399154904
 20
47.5055447720661
 30
0.0
  0
VERTEX
  5
70
330
6C
100
AcDbEntity
  8
DIBUJOS
 62
    29
100
AcDbVertex
100
AcDb2dVertex
 10
66.9485545515932
 20
47.50928454020301
 30
0.0
  0
SEQEND
  5
71
330
6C
100
AcDbEntity
  8
DIBUJOS
 62
    29
  0
POLYLINE
  5
72
330
1F
100
AcDbEntity
  8
DIBUJOS
 62
    29
100
AcDb2dPolyline
 66
     1
 10
0.0
 20
0.0
 30
0.0
  0
VERTEX
  5
73
330
72
100
AcDbEntity
  8
DIBUJOS
 62
    29
100
AcDbVertex
100
AcDb2dVertex
 10
67.06415134473636
 20
47.47460612451805
 30
0.0
  0
VERTEX
  5
74
330
72
100
AcDbEntity
  8
DIBUJOS
 62
    29
100
AcDbVertex
100
AcDb2dVertex
 10
67.05837212733655
 20
47.47460612451805
 30
0.0
  0
SEQEND
  5
75
330
72
100
AcDbEntity
  8
DIBUJOS
 62
    29
  0
POLYLINE
  5
76
330
1F
100
AcDbEntity
  8
DIBUJOS
 62
    29
100
AcDb2dPolyline
 66
     1
 10
0.0
 20
0.0
 30
0.0
  0
VERTEX
  5
77
330
76
100
AcDbEntity
  8
DIBUJOS
 62
    29
100
AcDbVertex
100
AcDb2dVertex
 10
62.16281262459889
 20
47.46882535147422
 30
0.0
  0
VERTEX
  5
78
330
76
100
AcDbEntity
  8
DIBUJOS
 62
    29
100
AcDbVertex
100
AcDb2dVertex
 10
62.16281262459889
 20
47.47460612451805
 30
0.0
  0
SEQEND
  5
79
330
76
100
AcDbEntity
  8
DIBUJOS
 62
    29
  0
POLYLINE
  5
7A
330
1F
100
AcDbEntity
  8
DIBUJOS
 62
    29
100
AcDb2dPolyline
 66
     1
 10
0.0
 20
0.0
 30
0.0
  0
VERTEX
  5
7B
330
7A
100
AcDbEntity
  8
DIBUJOS
 62
    29
100
AcDbVertex
100
AcDb2dVertex
 10
67.05837212733655
 20
47.46882535147422
 30
0.0
  0
VERTEX
  5
7C
330
7A
100
AcDbEntity
  8
DIBUJOS
 62
    29
100
AcDbVertex
100
AcDb2dVertex
 10
67.05837212733655
 20
47.47460612451805
 30
0.0
  0
SEQEND
  5
7D
330
7A
100
AcDbEntity
  8
DIBUJOS
 62
    29
  0
POLYLINE
  5
7E
330
1F
100
AcDbEntity
  8
DIBUJOS
 62
    29
100
AcDb2dPolyline
 66
     1
 10
0.0
 20
0.0
 30
0.0
  0
VERTEX
  5
7F
330
7E
100
AcDbEntity
  8
DIBUJOS
 62
    29
100
AcDbVertex
100
AcDb2dVertex
 10
65.08743342570496
 20
47.14515184164269
 30
0.0
  0
VERTEX
  5
80
330
7E
100
AcDbEntity
  8
DIBUJOS
 62
    29
100
AcDbVertex
100
AcDb2dVertex
 10
65.6480517376307
 20
47.14801111528433
 30
0.0
  0
VERTEX
  5
81
330
7E
100
AcDbEntity
  8
DIBUJOS
 62
    29
100
AcDbVertex
100
AcDb2dVertex
 10
66.13927432708708
 20
47.16527876350431
 30
0.0
  0
VERTEX
  5
82
330
7E
100
AcDbEntity
  8
DIBUJOS
 62
    29
100
AcDbVertex
100
AcDb2dVertex
 10
66.36455024365942
 20
47.18243751664477
 30
0.0
  0
VERTEX
  5
83
330
7E
100
AcDbEntity
  8
DIBUJOS
 62
    29
100
AcDbVertex
100
AcDb2dVertex
 10
66.43941405473223
 20
47.19921047007736
 30
0.0
  0
VERTEX
  5
84
330
7E
100
AcDbEntity
  8
DIBUJOS
 62
    29
100
AcDbVertex
100
AcDb2dVertex
 10
66.56765978910786
 20
47.23647436606367
 30
0.0
  0
VERTEX
  5
85
330
7E
100
AcDbEntity
  8
DIBUJOS
 62
    29
100
AcDbVertex
100
AcDb2dVertex
 10
66.58962392651428
 20
47.2451455256291
 30
0.0
  0
VERTEX
  5
86
330
7E
100
AcDbEntity
  8
DIBUJOS
 62
    29
100
AcDbVertex
100
AcDb2dVertex
 10
66.68788151181464
 20
47.29080367655185
 30
0.0
  0
VERTEX
  5
87
330
7E
100
AcDbEntity
  8
DIBUJOS
 62
    29
100
AcDbVertex
100
AcDb2dVertex
 10
66.9485545515932
 20
47.50928454020301
 30
0.0
  0
SEQEND
  5
88
330
7E
100
AcDbEntity
  8
DIBUJOS
 62
    29
  0
POLYLINE
  5
89
330
1F
100
AcDbEntity
  8
DIBUJOS
 62
    29
100
AcDb2dPolyline
 66
     1
 10
0.0
 20
0.0
 30
0.0
  0
VERTEX
  5
8A
330
89
100
AcDbEntity
  8
DIBUJOS
 62
    29
100
AcDbVertex
100
AcDb2dVertex
 10
62.30153017645069
 20
47.49194533236053
 30
0.0
  0
VERTEX
  5
8B
330
89
100
AcDbEntity
  8
DIBUJOS
 62
    29
100
AcDbVertex
100
AcDb2dVertex
 10
62.53939436413963
 20
47.28520335821035
 30
0.0
  0
VERTEX
  5
8C
330
89
100
AcDbEntity
  8
DIBUJOS
 62
    29
100
AcDbVertex
100
AcDb2dVertex
 10
62.63156160324382
 20
47.2451455256291
 30
0.0
  0
VERTEX
  5
8D
330
89
100
AcDbEntity
  8
DIBUJOS
 62
    29
100
AcDbVertex
100
AcDb2dVertex
 10
62.66046080152897
 20
47.23300527997963
 30
0.0
  0
VERTEX
  5
8E
330
89
100
AcDbEntity
  8
DIBUJOS
 62
    29
100
AcDbVertex
100
AcDb2dVertex
 10
62.78176991938057
 20
47.19921047007736
 30
0.0
  0
VERTEX
  5
8F
330
89
100
AcDbEntity
  8
DIBUJOS
 62
    29
100
AcDbVertex
100
AcDb2dVertex
 10
62.81536093992133
 20
47.18965570472925
 30
0.0
  0
VERTEX
  5
90
330
89
100
AcDbEntity
  8
DIBUJOS
 62
    29
100
AcDbVertex
100
AcDb2dVertex
 10
62.91396076689929
 20
47.17722610929921
 30
0.0
  0
VERTEX
  5
91
330
89
100
AcDbEntity
  8
DIBUJOS
 62
    29
100
AcDbVertex
100
AcDb2dVertex
 10
62.97173894009848
 20
47.17147644913533
 30
0.0
  0
VERTEX
  5
92
330
89
100
AcDbEntity
  8
DIBUJOS
 62
    29
100
AcDbVertex
100
AcDb2dVertex
 10
63.38804015965422
 20
47.15393811886248
 30
0.0
  0
VERTEX
  5
93
330
89
100
AcDbEntity
  8
DIBUJOS
 62
    29
100
AcDbVertex
100
AcDb2dVertex
 10
63.39402005512747
 20
47.15372343999277
 30
0.0
  0
VERTEX
  5
94
330
89
100
AcDbEntity
  8
DIBUJOS
 62
    29
100
AcDbVertex
100
AcDb2dVertex
 10
64.12219211360951
 20
47.13937106859886
 30
0.0
  0
VERTEX
  5
95
330
89
100
AcDbEntity
  8
DIBUJOS
 62
    29
100
AcDbVertex
100
AcDb2dVertex
 10
64.13375210405314
 20
47.14515184164269
 30
0.0
  0
SEQEND
  5
96
330
89
100
AcDbEntity
  8
DIBUJOS
 62
    29
  0
POLYLINE
  5
97
330
1F
100
AcDbEntity
  8
DIBUJOS
 62
    29
100
AcDb2dPolyline
 66
     1
 10
0.0
 20
0.0
 30
0.0
  0
VERTEX
  5
98
330
97
100
AcDbEntity
  8
DIBUJOS
 62
    29
100
AcDbVertex
100
AcDb2dVertex
 10
64.18577128322492
 20
47.13937106859886
 30
0.0
  0
VERTEX
  5
99
330
97
100
AcDbEntity
  8
DIBUJOS
 62
    29
100
AcDbVertex
100
AcDb2dVertex
 10
64.1453120944955
 20
47.14515184164269
 30
0.0
  0
SEQEND
  5
9A
330
97
100
AcDbEntity
  8
DIBUJOS
 62
    29
  0
POLYLINE
  5
9B
330
1F
100
AcDbEntity
  8
DIBUJOS
 62
    29
100
AcDb2dPolyline
 66
     1
 10
0.0
 20
0.0
 30
0.0
  0
VERTEX
  5
9C
330
9B
100
AcDbEntity
  8
DIBUJOS
 62
    29
100
AcDbVertex
100
AcDb2dVertex
 10
65.06431344481896
 20
47.13937106859886
 30
0.0
  0
VERTEX
  5
9D
330
9B
100
AcDbEntity
  8
DIBUJOS
 62
    29
100
AcDbVertex
100
AcDb2dVertex
 10
65.04119346393234
 20
47.13937106859886
 30
0.0
  0
SEQEND
  5
9E
330
9B
100
AcDbEntity
  8
DIBUJOS
 62
    29
  0
POLYLINE
  5
9F
330
1F
100
AcDbEntity
  8
DIBUJOS
 62
    29
100
AcDb2dPolyline
 66
     1
 10
0.0
 20
0.0
 30
0.0
  0
VERTEX
  5
A0
330
9F
100
AcDbEntity
  8
DIBUJOS
 62
    29
100
AcDbVertex
100
AcDb2dVertex
 10
62.0876742423625
 20
47.11625419900093
 30
0.0
  0
VERTEX
  5
A1
330
9F
100
AcDbEntity
  8
DIBUJOS
 62
    29
100
AcDbVertex
100
AcDb2dVertex
 10
62.04721505363308
 20
47.27231018087286
 30
0.0
  0
VERTEX
  5
A2
330
9F
100
AcDbEntity
  8
DIBUJOS
 62
    29
100
AcDbVertex
100
AcDb2dVertex
 10
62.04721505363308
 20
47.33010857744444
 30
0.0
  0
VERTEX
  5
A3
330
9F
100
AcDbEntity
  8
DIBUJOS
 62
    29
100
AcDbVertex
100
AcDb2dVertex
 10
62.06081449333961
 20
47.3873967227896
 30
0.0
  0
VERTEX
  5
A4
330
9F
100
AcDbEntity
  8
DIBUJOS
 62
    29
100
AcDbVertex
100
AcDb2dVertex
 10
62.0633984179963
 20
47.39426644662165
 30
0.0
  0
VERTEX
  5
A5
330
9F
100
AcDbEntity
  8
DIBUJOS
 62
    29
100
AcDbVertex
100
AcDb2dVertex
 10
62.11079344542647
 20
47.45148614363143
 30
0.0
  0
VERTEX
  5
A6
330
9F
100
AcDbEntity
  8
DIBUJOS
 62
    29
100
AcDbVertex
100
AcDb2dVertex
 10
62.13449134805289
 20
47.46189029059484
 30
0.0
  0
VERTEX
  5
A7
330
9F
100
AcDbEntity
  8
DIBUJOS
 62
    29
100
AcDbVertex
100
AcDb2dVertex
 10
62.15703262937708
 20
47.47460612451805
 30
0.0
  0
SEQEND
  5
A8
330
9F
100
AcDbEntity
  8
DIBUJOS
 62
    29
  0
POLYLINE
  5
A9
330
1F
100
AcDbEntity
  8
DIBUJOS
 62
    29
100
AcDb2dPolyline
 66
     1
 10
0.0
 20
0.0
 30
0.0
  0
VERTEX
  5
AA
330
A9
100
AcDbEntity
  8
DIBUJOS
 62
    29
100
AcDbVertex
100
AcDb2dVertex
 10
62.09345423758368
 20
47.11625419900093
 30
0.0
  0
VERTEX
  5
AB
330
A9
100
AcDbEntity
  8
DIBUJOS
 62
    29
100
AcDbVertex
100
AcDb2dVertex
 10
62.0876742423625
 20
47.11625419900093
 30
0.0
  0
SEQEND
  5
AC
330
A9
100
AcDbEntity
  8
DIBUJOS
 62
    29
  0
POLYLINE
  5
AD
330
1F
100
AcDbEntity
  8
DIBUJOS
 62
    29
100
AcDb2dPolyline
 66
     1
 10
0.0
 20
0.0
 30
0.0
  0
VERTEX
  5
AE
330
AD
100
AcDbEntity
  8
DIBUJOS
 62
    29
100
AcDbVertex
100
AcDb2dVertex
 10
62.0876742423625
 20
47.1104734259571
 30
0.0
  0
VERTEX
  5
AF
330
AD
100
AcDbEntity
  8
DIBUJOS
 62
    29
100
AcDbVertex
100
AcDb2dVertex
 10
62.0876742423625
 20
47.11625419900093
 30
0.0
  0
SEQEND
  5
B0
330
AD
100
AcDbEntity
  8
DIBUJOS
 62
    29
  0
POLYLINE
  5
B1
330
1F
100
AcDbEntity
  8
DIBUJOS
 62
    29
100
AcDb2dPolyline
 66
     1
 10
0.0
 20
0.0
 30
0.0
  0
VERTEX
  5
B2
330
B1
100
AcDbEntity
  8
DIBUJOS
 62
    29
100
AcDbVertex
100
AcDb2dVertex
 10
67.13351128739495
 20
47.10469265291326
 30
0.0
  0
VERTEX
  5
B3
330
B1
100
AcDbEntity
  8
DIBUJOS
 62
    29
100
AcDbVertex
100
AcDb2dVertex
 10
67.1704127183332
 20
47.26608449364995
 30
0.0
  0
VERTEX
  5
B4
330
B1
100
AcDbEntity
  8
DIBUJOS
 62
    29
100
AcDbVertex
100
AcDb2dVertex
 10
67.17396892047971
 20
47.27231018087286
 30
0.0
  0
VERTEX
  5
B5
330
B1
100
AcDbEntity
  8
DIBUJOS
 62
    29
100
AcDbVertex
100
AcDb2dVertex
 10
67.17396892047971
 20
47.33588935048827
 30
0.0
  0
VERTEX
  5
B6
330
B1
100
AcDbEntity
  8
DIBUJOS
 62
    29
100
AcDbVertex
100
AcDb2dVertex
 10
67.16036948077446
 20
47.3873967227896
 30
0.0
  0
VERTEX
  5
B7
330
B1
100
AcDbEntity
  8
DIBUJOS
 62
    29
100
AcDbVertex
100
AcDb2dVertex
 10
67.15778555611777
 20
47.39426644662165
 30
0.0
  0
VERTEX
  5
B8
330
B1
100
AcDbEntity
  8
DIBUJOS
 62
    29
100
AcDbVertex
100
AcDb2dVertex
 10
67.10461053346577
 20
47.45148614363143
 30
0.0
  0
VERTEX
  5
B9
330
B1
100
AcDbEntity
  8
DIBUJOS
 62
    29
100
AcDbVertex
100
AcDb2dVertex
 10
67.06415134473636
 20
47.47460612451805
 30
0.0
  0
SEQEND
  5
BA
330
B1
100
AcDbEntity
  8
DIBUJOS
 62
    29
  0
POLYLINE
  5
BB
330
1F
100
AcDbEntity
  8
DIBUJOS
 62
    29
100
AcDb2dPolyline
 66
     1
 10
0.0
 20
0.0
 30
0.0
  0
VERTEX
  5
BC
330
BB
100
AcDbEntity
  8
DIBUJOS
 62
    29
100
AcDbVertex
100
AcDb2dVertex
 10
67.13351128739495
 20
47.09891187987007
 30
0.0
  0
VERTEX
  5
BD
330
BB
100
AcDbEntity
  8
DIBUJOS
 62
    29
100
AcDbVertex
100
AcDb2dVertex
 10
67.12773051435177
 20
47.09891187987007
 30
0.0
  0
SEQEND
  5
BE
330
BB
100
AcDbEntity
  8
DIBUJOS
 62
    29
  0
POLYLINE
  5
BF
330
1F
100
AcDbEntity
  8
DIBUJOS
 62
    29
100
AcDb2dPolyline
 66
     1
 10
0.0
 20
0.0
 30
0.0
  0
VERTEX
  5
C0
330
BF
100
AcDbEntity
  8
DIBUJOS
 62
    29
100
AcDbVertex
100
AcDb2dVertex
 10
67.13351128739495
 20
47.09891187987007
 30
0.0
  0
VERTEX
  5
C1
330
BF
100
AcDbEntity
  8
DIBUJOS
 62
    29
100
AcDbVertex
100
AcDb2dVertex
 10
67.13351128739495
 20
47.10469265291326
 30
0.0
  0
SEQEND
  5
C2
330
BF
100
AcDbEntity
  8
DIBUJOS
 62
    29
  0
POLYLINE
  5
C3
330
1F
100
AcDbEntity
  8
DIBUJOS
 62
    29
100
AcDb2dPolyline
 66
     1
 10
0.0
 20
0.0
 30
0.0
  0
VERTEX
  5
C4
330
C3
100
AcDbEntity
  8
DIBUJOS
 62
    29
100
AcDbVertex
100
AcDb2dVertex
 10
67.13351128739495
 20
47.0931342181143
 30
0.0
  0
VERTEX
  5
C5
330
C3
100
AcDbEntity
  8
DIBUJOS
 62
    29
100
AcDbVertex
100
AcDb2dVertex
 10
67.13351128739495
 20
47.09891187987007
 30
0.0
  0
SEQEND
  5
C6
330
C3
100
AcDbEntity
  8
DIBUJOS
 62
    29
  0
POLYLINE
  5
C7
330
1F
100
AcDbEntity
  8
DIBUJOS
 62
    29
100
AcDb2dPolyline
 66
     1
 10
0.0
 20
0.0
 30
0.0
  0
VERTEX
  5
C8
330
C7
100
AcDbEntity
  8
DIBUJOS
 62
    29
100
AcDbVertex
100
AcDb2dVertex
 10
64.53834399134224
 20
47.07579501027151
 30
0.0
  0
VERTEX
  5
C9
330
C7
100
AcDbEntity
  8
DIBUJOS
 62
    29
100
AcDbVertex
100
AcDb2dVertex
 10
64.48112273868844
 20
47.10642564031126
 30
0.0
  0
VERTEX
  5
CA
330
C7
100
AcDbEntity
  8
DIBUJOS
 62
    29
100
AcDbVertex
100
AcDb2dVertex
 10
64.45716737698342
 20
47.11367805256375
 30
0.0
  0
VERTEX
  5
CB
330
C7
100
AcDbEntity
  8
DIBUJOS
 62
    29
100
AcDbVertex
100
AcDb2dVertex
 10
64.40566467161354
 20
47.11882723415005
 30
0.0
  0
VERTEX
  5
CC
330
C7
100
AcDbEntity
  8
DIBUJOS
 62
    29
100
AcDbVertex
100
AcDb2dVertex
 10
64.37631589221658
 20
47.12514314872349
 30
0.0
  0
VERTEX
  5
CD
330
C7
100
AcDbEntity
  8
DIBUJOS
 62
    29
100
AcDbVertex
100
AcDb2dVertex
 10
64.30136963201211
 20
47.12781263379989
 30
0.0
  0
SEQEND
  5
CE
330
C7
100
AcDbEntity
  8
DIBUJOS
 62
    29
  0
POLYLINE
  5
CF
330
1F
100
AcDbEntity
  8
DIBUJOS
 62
    29
100
AcDb2dPolyline
 66
     1
 10
0.0
 20
0.0
 30
0.0
  0
VERTEX
  5
D0
330
CF
100
AcDbEntity
  8
DIBUJOS
 62
    29
100
AcDbVertex
100
AcDb2dVertex
 10
64.54412320874141
 20
47.07579501027151
 30
0.0
  0
VERTEX
  5
D1
330
CF
100
AcDbEntity
  8
DIBUJOS
 62
    29
100
AcDbVertex
100
AcDb2dVertex
 10
64.53834399134224
 20
47.07579501027151
 30
0.0
  0
SEQEND
  5
D2
330
CF
100
AcDbEntity
  8
DIBUJOS
 62
    29
  0
POLYLINE
  5
D3
330
1F
100
AcDbEntity
  8
DIBUJOS
 62
    29
100
AcDb2dPolyline
 66
     1
 10
0.0
 20
0.0
 30
0.0
  0
VERTEX
  5
D4
330
D3
100
AcDbEntity
  8
DIBUJOS
 62
    29
100
AcDbVertex
100
AcDb2dVertex
 10
64.54412320874141
 20
47.07579501027151
 30
0.0
  0
VERTEX
  5
D5
330
D3
100
AcDbEntity
  8
DIBUJOS
 62
    29
100
AcDbVertex
100
AcDb2dVertex
 10
64.54412320874141
 20
47.08157267202728
 30
0.0
  0
SEQEND
  5
D6
330
D3
100
AcDbEntity
  8
DIBUJOS
 62
    29
  0
POLYLINE
  5
D7
330
1F
100
AcDbEntity
  8
DIBUJOS
 62
    29
100
AcDb2dPolyline
 66
     1
 10
0.0
 20
0.0
 30
0.0
  0
VERTEX
  5
D8
330
D7
100
AcDbEntity
  8
DIBUJOS
 62
    29
100
AcDbVertex
100
AcDb2dVertex
 10
64.69440152885821
 20
47.07579501027151
 30
0.0
  0
VERTEX
  5
D9
330
D7
100
AcDbEntity
  8
DIBUJOS
 62
    29
100
AcDbVertex
100
AcDb2dVertex
 10
64.69440152885821
 20
47.08157267202728
 30
0.0
  0
VERTEX
  5
DA
330
D7
100
AcDbEntity
  8
DIBUJOS
 62
    29
100
AcDbVertex
100
AcDb2dVertex
 10
64.7227220275822
 20
47.10006927899368
 30
0.0
  0
VERTEX
  5
DB
330
D7
100
AcDbEntity
  8
DIBUJOS
 62
    29
100
AcDbVertex
100
AcDb2dVertex
 10
64.76401659713066
 20
47.11367805256375
 30
0.0
  0
VERTEX
  5
DC
330
D7
100
AcDbEntity
  8
DIBUJOS
 62
    29
100
AcDbVertex
100
AcDb2dVertex
 10
64.91981589774535
 20
47.13359340684308
 30
0.0
  0
SEQEND
  5
DD
330
D7
100
AcDbEntity
  8
DIBUJOS
 62
    29
  0
POLYLINE
  5
DE
330
1F
100
AcDbEntity
  8
DIBUJOS
 62
    29
100
AcDb2dPolyline
 66
     1
 10
0.0
 20
0.0
 30
0.0
  0
VERTEX
  5
DF
330
DE
100
AcDbEntity
  8
DIBUJOS
 62
    29
100
AcDbVertex
100
AcDb2dVertex
 10
62.72346127158258
 20
47.07001423722831
 30
0.0
  0
VERTEX
  5
E0
330
DE
100
AcDbEntity
  8
DIBUJOS
 62
    29
100
AcDbVertex
100
AcDb2dVertex
 10
62.67202079197261
 20
47.08330877071333
 30
0.0
  0
VERTEX
  5
E1
330
DE
100
AcDbEntity
  8
DIBUJOS
 62
    29
100
AcDbVertex
100
AcDb2dVertex
 10
62.52752324489899
 20
47.13474769467927
 30
0.0
  0
VERTEX
  5
E2
330
DE
100
AcDbEntity
  8
DIBUJOS
 62
    29
100
AcDbVertex
100
AcDb2dVertex
 10
62.49746820313363
 20
47.14977521556227
 30
0.0
  0
VERTEX
  5
E3
330
DE
100
AcDbEntity
  8
DIBUJOS
 62
    29
100
AcDbVertex
100
AcDb2dVertex
 10
62.39489681706601
 20
47.20428498075215
 30
0.0
  0
VERTEX
  5
E4
330
DE
100
AcDbEntity
  8
DIBUJOS
 62
    29
100
AcDbVertex
100
AcDb2dVertex
 10
62.38155872555009
 20
47.21317704176341
 30
0.0
  0
VERTEX
  5
E5
330
DE
100
AcDbEntity
  8
DIBUJOS
 62
    29
100
AcDbVertex
100
AcDb2dVertex
 10
62.28997018600705
 20
47.2780909539167
 30
0.0
  0
VERTEX
  5
E6
330
DE
100
AcDbEntity
  8
DIBUJOS
 62
    29
100
AcDbVertex
100
AcDb2dVertex
 10
62.23795100683528
 20
47.33010857744444
 30
0.0
  0
VERTEX
  5
E7
330
DE
100
AcDbEntity
  8
DIBUJOS
 62
    29
100
AcDbVertex
100
AcDb2dVertex
 10
62.19864766158607
 20
47.38848567357847
 30
0.0
  0
VERTEX
  5
E8
330
DE
100
AcDbEntity
  8
DIBUJOS
 62
    29
100
AcDbVertex
100
AcDb2dVertex
 10
62.16281262459889
 20
47.46882535147422
 30
0.0
  0
SEQEND
  5
E9
330
DE
100
AcDbEntity
  8
DIBUJOS
 62
    29
  0
POLYLINE
  5
EA
330
1F
100
AcDbEntity
  8
DIBUJOS
 62
    29
100
AcDb2dPolyline
 66
     1
 10
0.0
 20
0.0
 30
0.0
  0
VERTEX
  5
EB
330
EA
100
AcDbEntity
  8
DIBUJOS
 62
    29
100
AcDbVertex
100
AcDb2dVertex
 10
64.54412320874141
 20
47.07001423722831
 30
0.0
  0
VERTEX
  5
EC
330
EA
100
AcDbEntity
  8
DIBUJOS
 62
    29
100
AcDbVertex
100
AcDb2dVertex
 10
64.54412320874141
 20
47.07579501027151
 30
0.0
  0
SEQEND
  5
ED
330
EA
100
AcDbEntity
  8
DIBUJOS
 62
    29
  0
POLYLINE
  5
EE
330
1F
100
AcDbEntity
  8
DIBUJOS
 62
    29
100
AcDb2dPolyline
 66
     1
 10
0.0
 20
0.0
 30
0.0
  0
VERTEX
  5
EF
330
EE
100
AcDbEntity
  8
DIBUJOS
 62
    29
100
AcDbVertex
100
AcDb2dVertex
 10
62.75236046986836
 20
47.06423346418448
 30
0.0
  0
VERTEX
  5
F0
330
EE
100
AcDbEntity
  8
DIBUJOS
 62
    29
100
AcDbVertex
100
AcDb2dVertex
 10
62.73502126202622
 20
47.06423346418448
 30
0.0
  0
SEQEND
  5
F1
330
EE
100
AcDbEntity
  8
DIBUJOS
 62
    29
  0
POLYLINE
  5
F2
330
1F
100
AcDbEntity
  8
DIBUJOS
 62
    29
100
AcDb2dPolyline
 66
     1
 10
0.0
 20
0.0
 30
0.0
  0
VERTEX
  5
F3
330
F2
100
AcDbEntity
  8
DIBUJOS
 62
    29
100
AcDbVertex
100
AcDb2dVertex
 10
62.78704044119799
 20
47.05845269114129
 30
0.0
  0
VERTEX
  5
F4
330
F2
100
AcDbEntity
  8
DIBUJOS
 62
    29
100
AcDbVertex
100
AcDb2dVertex
 10
62.76392046031136
 20
47.05845269114129
 30
0.0
  0
SEQEND
  5
F5
330
F2
100
AcDbEntity
  8
DIBUJOS
 62
    29
  0
POLYLINE
  5
F6
330
1F
100
AcDbEntity
  8
DIBUJOS
 62
    29
100
AcDb2dPolyline
 66
     1
 10
0.0
 20
0.0
 30
0.0
  0
VERTEX
  5
F7
330
F6
100
AcDbEntity
  8
DIBUJOS
 62
    29
100
AcDbVertex
100
AcDb2dVertex
 10
66.43414508855948
 20
47.05845269114129
 30
0.0
  0
VERTEX
  5
F8
330
F6
100
AcDbEntity
  8
DIBUJOS
 62
    29
100
AcDbVertex
100
AcDb2dVertex
 10
66.51455321479062
 20
47.07205213084654
 30
0.0
  0
VERTEX
  5
F9
330
F6
100
AcDbEntity
  8
DIBUJOS
 62
    29
100
AcDbVertex
100
AcDb2dVertex
 10
66.67632152137165
 20
47.12896692163608
 30
0.0
  0
VERTEX
  5
FA
330
F6
100
AcDbEntity
  8
DIBUJOS
 62
    29
100
AcDbVertex
100
AcDb2dVertex
 10
66.70637811878103
 20
47.1439975538065
 30
0.0
  0
VERTEX
  5
FB
330
F6
100
AcDbEntity
  8
DIBUJOS
 62
    29
100
AcDbVertex
100
AcDb2dVertex
 10
66.79738795876163
 20
47.18694577290935
 30
0.0
  0
VERTEX
  5
FC
330
F6
100
AcDbEntity
  8
DIBUJOS
 62
    29
100
AcDbVertex
100
AcDb2dVertex
 10
66.81072605027819
 20
47.19583783392061
 30
0.0
  0
VERTEX
  5
FD
330
F6
100
AcDbEntity
  8
DIBUJOS
 62
    29
100
AcDbVertex
100
AcDb2dVertex
 10
66.89528307901456
 20
47.25062139245205
 30
0.0
  0
VERTEX
  5
FE
330
F6
100
AcDbEntity
  8
DIBUJOS
 62
    29
100
AcDbVertex
100
AcDb2dVertex
 10
66.94277377854937
 20
47.28964938871566
 30
0.0
  0
VERTEX
  5
FF
330
F6
100
AcDbEntity
  8
DIBUJOS
 62
    29
100
AcDbVertex
100
AcDb2dVertex
 10
67.00195980955456
 20
47.35796704990566
 30
0.0
  0
VERTEX
  5
100
330
F6
100
AcDbEntity
  8
DIBUJOS
 62
    29
100
AcDbVertex
100
AcDb2dVertex
 10
67.01906878208734
 20
47.38155061269844
 30
0.0
  0
VERTEX
  5
101
330
F6
100
AcDbEntity
  8
DIBUJOS
 62
    29
100
AcDbVertex
100
AcDb2dVertex
 10
67.05055190503046
 20
47.44621562181464
 30
0.0
  0
VERTEX
  5
102
330
F6
100
AcDbEntity
  8
DIBUJOS
 62
    29
100
AcDbVertex
100
AcDb2dVertex
 10
67.05837212733655
 20
47.46882535147422
 30
0.0
  0
SEQEND
  5
103
330
F6
100
AcDbEntity
  8
DIBUJOS
 62
    29
  0
POLYLINE
  5
104
330
1F
100
AcDbEntity
  8
DIBUJOS
 62
    29
100
AcDb2dPolyline
 66
     1
 10
0.0
 20
0.0
 30
0.0
  0
VERTEX
  5
105
330
104
100
AcDbEntity
  8
DIBUJOS
 62
    29
100
AcDbVertex
100
AcDb2dVertex
 10
62.81593963948378
 20
47.05267502938552
 30
0.0
  0
VERTEX
  5
106
330
104
100
AcDbEntity
  8
DIBUJOS
 62
    29
100
AcDbVertex
100
AcDb2dVertex
 10
62.79860043164098
 20
47.05267502938552
 30
0.0
  0
SEQEND
  5
107
330
104
100
AcDbEntity
  8
DIBUJOS
 62
    29
  0
POLYLINE
  5
108
330
1F
100
AcDbEntity
  8
DIBUJOS
 62
    29
100
AcDb2dPolyline
 66
     1
 10
0.0
 20
0.0
 30
0.0
  0
VERTEX
  5
109
330
108
100
AcDbEntity
  8
DIBUJOS
 62
    29
100
AcDbVertex
100
AcDb2dVertex
 10
66.42258509811712
 20
47.05267502938552
 30
0.0
  0
VERTEX
  5
10A
330
108
100
AcDbEntity
  8
DIBUJOS
 62
    29
100
AcDbVertex
100
AcDb2dVertex
 10
66.40524589027433
 20
47.05267502938552
 30
0.0
  0
SEQEND
  5
10B
330
108
100
AcDbEntity
  8
DIBUJOS
 62
    29
  0
POLYLINE
  5
10C
330
1F
100
AcDbEntity
  8
DIBUJOS
 62
    29
100
AcDb2dPolyline
 66
     1
 10
0.0
 20
0.0
 30
0.0
  0
VERTEX
  5
10D
330
10C
100
AcDbEntity
  8
DIBUJOS
 62
    29
100
AcDbVertex
100
AcDb2dVertex
 10
62.85061805516937
 20
47.04689425634169
 30
0.0
  0
VERTEX
  5
10E
330
10C
100
AcDbEntity
  8
DIBUJOS
 62
    29
100
AcDbVertex
100
AcDb2dVertex
 10
62.83327884732658
 20
47.04689425634169
 30
0.0
  0
SEQEND
  5
10F
330
10C
100
AcDbEntity
  8
DIBUJOS
 62
    29
  0
POLYLINE
  5
110
330
1F
100
AcDbEntity
  8
DIBUJOS
 62
    29
100
AcDb2dPolyline
 66
     1
 10
0.0
 20
0.0
 30
0.0
  0
VERTEX
  5
111
330
110
100
AcDbEntity
  8
DIBUJOS
 62
    29
100
AcDbVertex
100
AcDb2dVertex
 10
66.3879051267875
 20
47.04689425634169
 30
0.0
  0
VERTEX
  5
112
330
110
100
AcDbEntity
  8
DIBUJOS
 62
    29
100
AcDbVertex
100
AcDb2dVertex
 10
66.3705659189447
 20
47.04689425634169
 30
0.0
  0
SEQEND
  5
113
330
110
100
AcDbEntity
  8
DIBUJOS
 62
    29
  0
POLYLINE
  5
114
330
1F
100
AcDbEntity
  8
DIBUJOS
 62
    29
100
AcDb2dPolyline
 66
     1
 10
0.0
 20
0.0
 30
0.0
  0
VERTEX
  5
115
330
114
100
AcDbEntity
  8
DIBUJOS
 62
    29
100
AcDbVertex
100
AcDb2dVertex
 10
62.88529802649899
 20
47.0411134832985
 30
0.0
  0
VERTEX
  5
116
330
114
100
AcDbEntity
  8
DIBUJOS
 62
    29
100
AcDbVertex
100
AcDb2dVertex
 10
62.86217804561236
 20
47.0411134832985
 30
0.0
  0
SEQEND
  5
117
330
114
100
AcDbEntity
  8
DIBUJOS
 62
    29
  0
POLYLINE
  5
118
330
1F
100
AcDbEntity
  8
DIBUJOS
 62
    29
100
AcDb2dPolyline
 66
     1
 10
0.0
 20
0.0
 30
0.0
  0
VERTEX
  5
119
330
118
100
AcDbEntity
  8
DIBUJOS
 62
    29
100
AcDbVertex
100
AcDb2dVertex
 10
66.35900592850108
 20
47.0411134832985
 30
0.0
  0
VERTEX
  5
11A
330
118
100
AcDbEntity
  8
DIBUJOS
 62
    29
100
AcDbVertex
100
AcDb2dVertex
 10
66.33588750325912
 20
47.0411134832985
 30
0.0
  0
SEQEND
  5
11B
330
118
100
AcDbEntity
  8
DIBUJOS
 62
    29
  0
POLYLINE
  5
11C
330
1F
100
AcDbEntity
  8
DIBUJOS
 62
    29
100
AcDb2dPolyline
 66
     1
 10
0.0
 20
0.0
 30
0.0
  0
VERTEX
  5
11D
330
11C
100
AcDbEntity
  8
DIBUJOS
 62
    29
100
AcDbVertex
100
AcDb2dVertex
 10
62.91997644218394
 20
47.03533582154272
 30
0.0
  0
VERTEX
  5
11E
330
11C
100
AcDbEntity
  8
DIBUJOS
 62
    29
100
AcDbVertex
100
AcDb2dVertex
 10
62.89685801694134
 20
47.03533582154272
 30
0.0
  0
SEQEND
  5
11F
330
11C
100
AcDbEntity
  8
DIBUJOS
 62
    29
  0
POLYLINE
  5
120
330
1F
100
AcDbEntity
  8
DIBUJOS
 62
    29
100
AcDb2dPolyline
 66
     1
 10
0.0
 20
0.0
 30
0.0
  0
VERTEX
  5
121
330
120
100
AcDbEntity
  8
DIBUJOS
 62
    29
100
AcDbVertex
100
AcDb2dVertex
 10
66.32432751281613
 20
47.03533582154272
 30
0.0
  0
VERTEX
  5
122
330
120
100
AcDbEntity
  8
DIBUJOS
 62
    29
100
AcDbVertex
100
AcDb2dVertex
 10
66.30120753192949
 20
47.03533582154272
 30
0.0
  0
SEQEND
  5
123
330
120
100
AcDbEntity
  8
DIBUJOS
 62
    29
  0
POLYLINE
  5
124
330
1F
100
AcDbEntity
  8
DIBUJOS
 62
    29
100
AcDb2dPolyline
 66
     1
 10
0.0
 20
0.0
 30
0.0
  0
VERTEX
  5
125
330
124
100
AcDbEntity
  8
DIBUJOS
 62
    29
100
AcDbVertex
100
AcDb2dVertex
 10
67.27222806142474
 20
47.02955504849889
 30
0.0
  0
VERTEX
  5
126
330
124
100
AcDbEntity
  8
DIBUJOS
 62
    29
100
AcDbVertex
100
AcDb2dVertex
 10
67.27222806142474
 20
47.03533582154272
 30
0.0
  0
SEQEND
  5
127
330
124
100
AcDbEntity
  8
DIBUJOS
 62
    29
  0
POLYLINE
  5
128
330
1F
100
AcDbEntity
  8
DIBUJOS
 62
    29
100
AcDb2dPolyline
 66
     1
 10
0.0
 20
0.0
 30
0.0
  0
VERTEX
  5
129
330
128
100
AcDbEntity
  8
DIBUJOS
 62
    29
100
AcDbVertex
100
AcDb2dVertex
 10
67.2664472883809
 20
46.98909585977011
 30
0.0
  0
VERTEX
  5
12A
330
128
100
AcDbEntity
  8
DIBUJOS
 62
    29
100
AcDbVertex
100
AcDb2dVertex
 10
67.2664472883809
 20
46.99487663281394
 30
0.0
  0
SEQEND
  5
12B
330
128
100
AcDbEntity
  8
DIBUJOS
 62
    29
  0
POLYLINE
  5
12C
330
1F
100
AcDbEntity
  8
DIBUJOS
 62
    29
100
AcDb2dPolyline
 66
     1
 10
0.0
 20
0.0
 30
0.0
  0
VERTEX
  5
12D
330
12C
100
AcDbEntity
  8
DIBUJOS
 62
    29
100
AcDbVertex
100
AcDb2dVertex
 10
61.94317747311091
 20
46.98331508672692
 30
0.0
  0
VERTEX
  5
12E
330
12C
100
AcDbEntity
  8
DIBUJOS
 62
    29
100
AcDbVertex
100
AcDb2dVertex
 10
61.94317747311091
 20
47.00065429456971
 30
0.0
  0
SEQEND
  5
12F
330
12C
100
AcDbEntity
  8
DIBUJOS
 62
    29
  0
POLYLINE
  5
130
330
1F
100
AcDbEntity
  8
DIBUJOS
 62
    29
100
AcDb2dPolyline
 66
     1
 10
0.0
 20
0.0
 30
0.0
  0
VERTEX
  5
131
330
130
100
AcDbEntity
  8
DIBUJOS
 62
    29
100
AcDbVertex
100
AcDb2dVertex
 10
61.94895746833272
 20
46.9428558979975
 30
0.0
  0
VERTEX
  5
132
330
130
100
AcDbEntity
  8
DIBUJOS
 62
    29
100
AcDbVertex
100
AcDb2dVertex
 10
61.94895746833272
 20
46.96019510584029
 30
0.0
  0
SEQEND
  5
133
330
130
100
AcDbEntity
  8
DIBUJOS
 62
    29
  0
POLYLINE
  5
134
330
1F
100
AcDbEntity
  8
DIBUJOS
 62
    29
100
AcDb2dPolyline
 66
     1
 10
0.0
 20
0.0
 30
0.0
  0
VERTEX
  5
135
330
134
100
AcDbEntity
  8
DIBUJOS
 62
    29
100
AcDbVertex
100
AcDb2dVertex
 10
67.25488885358195
 20
46.90817748231255
 30
0.0
  0
VERTEX
  5
136
330
134
100
AcDbEntity
  8
DIBUJOS
 62
    29
100
AcDbVertex
100
AcDb2dVertex
 10
67.25488885358195
 20
46.91973591711151
 30
0.0
  0
SEQEND
  5
137
330
134
100
AcDbEntity
  8
DIBUJOS
 62
    29
  0
POLYLINE
  5
138
330
1F
100
AcDbEntity
  8
DIBUJOS
 62
    29
100
AcDb2dPolyline
 66
     1
 10
0.0
 20
0.0
 30
0.0
  0
VERTEX
  5
139
330
138
100
AcDbEntity
  8
DIBUJOS
 62
    29
100
AcDbVertex
100
AcDb2dVertex
 10
67.24910808053811
 20
46.87349906662696
 30
0.0
  0
VERTEX
  5
13A
330
138
100
AcDbEntity
  8
DIBUJOS
 62
    29
100
AcDbVertex
100
AcDb2dVertex
 10
67.24910808053811
 20
46.87927672838273
 30
0.0
  0
SEQEND
  5
13B
330
138
100
AcDbEntity
  8
DIBUJOS
 62
    29
  0
POLYLINE
  5
13C
330
1F
100
AcDbEntity
  8
DIBUJOS
 62
    29
100
AcDb2dPolyline
 66
     1
 10
0.0
 20
0.0
 30
0.0
  0
VERTEX
  5
13D
330
13C
100
AcDbEntity
  8
DIBUJOS
 62
    29
100
AcDbVertex
100
AcDb2dVertex
 10
67.24332886313896
 20
46.82725910485434
 30
0.0
  0
VERTEX
  5
13E
330
13C
100
AcDbEntity
  8
DIBUJOS
 62
    29
100
AcDbVertex
100
AcDb2dVertex
 10
67.24332886313896
 20
46.84459831269714
 30
0.0
  0
SEQEND
  5
13F
330
13C
100
AcDbEntity
  8
DIBUJOS
 62
    29
  0
POLYLINE
  5
140
330
1F
100
AcDbEntity
  8
DIBUJOS
 62
    29
100
AcDb2dPolyline
 66
     1
 10
0.0
 20
0.0
 30
0.0
  0
VERTEX
  5
141
330
140
100
AcDbEntity
  8
DIBUJOS
 62
    29
100
AcDbVertex
100
AcDb2dVertex
 10
61.96629667617552
 20
46.82147833181116
 30
0.0
  0
VERTEX
  5
142
330
140
100
AcDbEntity
  8
DIBUJOS
 62
    29
100
AcDbVertex
100
AcDb2dVertex
 10
61.96629667617552
 20
46.83881753965331
 30
0.0
  0
SEQEND
  5
143
330
140
100
AcDbEntity
  8
DIBUJOS
 62
    29
  0
POLYLINE
  5
144
330
1F
100
AcDbEntity
  8
DIBUJOS
 62
    29
100
AcDb2dPolyline
 66
     1
 10
0.0
 20
0.0
 30
0.0
  0
VERTEX
  5
145
330
144
100
AcDbEntity
  8
DIBUJOS
 62
    29
100
AcDbVertex
100
AcDb2dVertex
 10
61.97207667139734
 20
46.78679991612557
 30
0.0
  0
VERTEX
  5
146
330
144
100
AcDbEntity
  8
DIBUJOS
 62
    29
100
AcDbVertex
100
AcDb2dVertex
 10
61.97207667139734
 20
46.80413912396836
 30
0.0
  0
SEQEND
  5
147
330
144
100
AcDbEntity
  8
DIBUJOS
 62
    29
  0
POLYLINE
  5
148
330
1F
100
AcDbEntity
  8
DIBUJOS
 62
    29
100
AcDb2dPolyline
 66
     1
 10
0.0
 20
0.0
 30
0.0
  0
VERTEX
  5
149
330
148
100
AcDbEntity
  8
DIBUJOS
 62
    29
100
AcDbVertex
100
AcDb2dVertex
 10
66.92543457070657
 20
46.78679991612557
 30
0.0
  0
VERTEX
  5
14A
330
148
100
AcDbEntity
  8
DIBUJOS
 62
    29
100
AcDbVertex
100
AcDb2dVertex
 10
66.95789152678354
 20
46.96064002002002
 30
0.0
  0
VERTEX
  5
14B
330
148
100
AcDbEntity
  8
DIBUJOS
 62
    29
100
AcDbVertex
100
AcDb2dVertex
 10
67.01657975171392
 20
47.05356174645626
 30
0.0
  0
VERTEX
  5
14C
330
148
100
AcDbEntity
  8
DIBUJOS
 62
    29
100
AcDbVertex
100
AcDb2dVertex
 10
67.0468121368942
 20
47.09891187987007
 30
0.0
  0
VERTEX
  5
14D
330
148
100
AcDbEntity
  8
DIBUJOS
 62
    29
100
AcDbVertex
100
AcDb2dVertex
 10
67.06993211778018
 20
47.12203186075606
 30
0.0
  0
VERTEX
  5
14E
330
148
100
AcDbEntity
  8
DIBUJOS
 62
    29
100
AcDbVertex
100
AcDb2dVertex
 10
67.08149210822319
 20
47.12203186075606
 30
0.0
  0
VERTEX
  5
14F
330
148
100
AcDbEntity
  8
DIBUJOS
 62
    29
100
AcDbVertex
100
AcDb2dVertex
 10
67.12773051435177
 20
47.09891187987007
 30
0.0
  0
SEQEND
  5
150
330
148
100
AcDbEntity
  8
DIBUJOS
 62
    29
  0
POLYLINE
  5
151
330
1F
100
AcDbEntity
  8
DIBUJOS
 62
    29
100
AcDb2dPolyline
 66
     1
 10
0.0
 20
0.0
 30
0.0
  0
VERTEX
  5
152
330
151
100
AcDbEntity
  8
DIBUJOS
 62
    29
100
AcDbVertex
100
AcDb2dVertex
 10
67.23754809009576
 20
46.78679991612557
 30
0.0
  0
VERTEX
  5
153
330
151
100
AcDbEntity
  8
DIBUJOS
 62
    29
100
AcDbVertex
100
AcDb2dVertex
 10
67.23754809009576
 20
46.80991989701155
 30
0.0
  0
SEQEND
  5
154
330
151
100
AcDbEntity
  8
DIBUJOS
 62
    29
  0
POLYLINE
  5
155
330
1F
100
AcDbEntity
  8
DIBUJOS
 62
    29
100
AcDb2dPolyline
 66
     1
 10
0.0
 20
0.0
 30
0.0
  0
VERTEX
  5
156
330
155
100
AcDbEntity
  8
DIBUJOS
 62
    29
100
AcDbVertex
100
AcDb2dVertex
 10
62.28997018600705
 20
46.78101914308173
 30
0.0
  0
VERTEX
  5
157
330
155
100
AcDbEntity
  8
DIBUJOS
 62
    29
100
AcDbVertex
100
AcDb2dVertex
 10
62.25155122436254
 20
46.96648613011054
 30
0.0
  0
VERTEX
  5
158
330
155
100
AcDbEntity
  8
DIBUJOS
 62
    29
100
AcDbVertex
100
AcDb2dVertex
 10
62.24106307262472
 20
46.99887774914017
 30
0.0
  0
VERTEX
  5
159
330
155
100
AcDbEntity
  8
DIBUJOS
 62
    29
100
AcDbVertex
100
AcDb2dVertex
 10
62.21038577326536
 20
47.0420033116573
 30
0.0
  0
VERTEX
  5
15A
330
155
100
AcDbEntity
  8
DIBUJOS
 62
    29
100
AcDbVertex
100
AcDb2dVertex
 10
62.15125263415526
 20
47.12203186075606
 30
0.0
  0
VERTEX
  5
15B
330
155
100
AcDbEntity
  8
DIBUJOS
 62
    29
100
AcDbVertex
100
AcDb2dVertex
 10
62.09345423758368
 20
47.11625419900093
 30
0.0
  0
SEQEND
  5
15C
330
155
100
AcDbEntity
  8
DIBUJOS
 62
    29
  0
POLYLINE
  5
15D
330
1F
100
AcDbEntity
  8
DIBUJOS
 62
    29
100
AcDb2dPolyline
 66
     1
 10
0.0
 20
0.0
 30
0.0
  0
VERTEX
  5
15E
330
15D
100
AcDbEntity
  8
DIBUJOS
 62
    29
100
AcDbVertex
100
AcDb2dVertex
 10
66.92543457070657
 20
46.78101914308173
 30
0.0
  0
VERTEX
  5
15F
330
15D
100
AcDbEntity
  8
DIBUJOS
 62
    29
100
AcDbVertex
100
AcDb2dVertex
 10
66.91965535330742
 20
46.78101914308173
 30
0.0
  0
SEQEND
  5
160
330
15D
100
AcDbEntity
  8
DIBUJOS
 62
    29
  0
POLYLINE
  5
161
330
1F
100
AcDbEntity
  8
DIBUJOS
 62
    29
100
AcDb2dPolyline
 66
     1
 10
0.0
 20
0.0
 30
0.0
  0
VERTEX
  5
162
330
161
100
AcDbEntity
  8
DIBUJOS
 62
    29
100
AcDbVertex
100
AcDb2dVertex
 10
66.92543457070657
 20
46.78101914308173
 30
0.0
  0
VERTEX
  5
163
330
161
100
AcDbEntity
  8
DIBUJOS
 62
    29
100
AcDbVertex
100
AcDb2dVertex
 10
66.92543457070657
 20
46.78679991612557
 30
0.0
  0
SEQEND
  5
164
330
161
100
AcDbEntity
  8
DIBUJOS
 62
    29
  0
POLYLINE
  5
165
330
1F
100
AcDbEntity
  8
DIBUJOS
 62
    29
100
AcDb2dPolyline
 66
     1
 10
0.0
 20
0.0
 30
0.0
  0
VERTEX
  5
166
330
165
100
AcDbEntity
  8
DIBUJOS
 62
    29
100
AcDbVertex
100
AcDb2dVertex
 10
67.00057373076498
 20
46.77523837003854
 30
0.0
  0
VERTEX
  5
167
330
165
100
AcDbEntity
  8
DIBUJOS
 62
    29
100
AcDbVertex
100
AcDb2dVertex
 10
66.93121534375041
 20
46.77523837003854
 30
0.0
  0
VERTEX
  5
168
330
165
100
AcDbEntity
  8
DIBUJOS
 62
    29
100
AcDbVertex
100
AcDb2dVertex
 10
66.92543457070657
 20
46.78101914308173
 30
0.0
  0
SEQEND
  5
169
330
165
100
AcDbEntity
  8
DIBUJOS
 62
    29
  0
POLYLINE
  5
16A
330
1F
100
AcDbEntity
  8
DIBUJOS
 62
    29
100
AcDb2dPolyline
 66
     1
 10
0.0
 20
0.0
 30
0.0
  0
VERTEX
  5
16B
330
16A
100
AcDbEntity
  8
DIBUJOS
 62
    29
100
AcDbVertex
100
AcDb2dVertex
 10
62.20327181332767
 20
46.76946070828277
 30
0.0
  0
VERTEX
  5
16C
330
16A
100
AcDbEntity
  8
DIBUJOS
 62
    29
100
AcDbVertex
100
AcDb2dVertex
 10
62.28997018600705
 20
46.78101914308173
 30
0.0
  0
SEQEND
  5
16D
330
16A
100
AcDbEntity
  8
DIBUJOS
 62
    29
  0
POLYLINE
  5
16E
330
1F
100
AcDbEntity
  8
DIBUJOS
 62
    29
100
AcDb2dPolyline
 66
     1
 10
0.0
 20
0.0
 30
0.0
  0
VERTEX
  5
16F
330
16E
100
AcDbEntity
  8
DIBUJOS
 62
    29
100
AcDbVertex
100
AcDb2dVertex
 10
67.23176887269595
 20
46.75212150043998
 30
0.0
  0
VERTEX
  5
170
330
16E
100
AcDbEntity
  8
DIBUJOS
 62
    29
100
AcDbVertex
100
AcDb2dVertex
 10
67.23176887269595
 20
46.77523837003854
 30
0.0
  0
SEQEND
  5
171
330
16E
100
AcDbEntity
  8
DIBUJOS
 62
    29
  0
POLYLINE
  5
172
330
1F
100
AcDbEntity
  8
DIBUJOS
 62
    29
100
AcDb2dPolyline
 66
     1
 10
0.0
 20
0.0
 30
0.0
  0
VERTEX
  5
173
330
172
100
AcDbEntity
  8
DIBUJOS
 62
    29
100
AcDbVertex
100
AcDb2dVertex
 10
61.98363666184033
 20
46.74055995435295
 30
0.0
  0
VERTEX
  5
174
330
172
100
AcDbEntity
  8
DIBUJOS
 62
    29
100
AcDbVertex
100
AcDb2dVertex
 10
61.97785666661915
 20
46.74634072739678
 30
0.0
  0
VERTEX
  5
175
330
172
100
AcDbEntity
  8
DIBUJOS
 62
    29
100
AcDbVertex
100
AcDb2dVertex
 10
61.97785666661915
 20
46.76946070828277
 30
0.0
  0
SEQEND
  5
176
330
172
100
AcDbEntity
  8
DIBUJOS
 62
    29
  0
POLYLINE
  5
177
330
1F
100
AcDbEntity
  8
DIBUJOS
 62
    29
100
AcDb2dPolyline
 66
     1
 10
0.0
 20
0.0
 30
0.0
  0
VERTEX
  5
178
330
177
100
AcDbEntity
  8
DIBUJOS
 62
    29
100
AcDbVertex
100
AcDb2dVertex
 10
61.9894166570615
 20
46.74055995435295
 30
0.0
  0
VERTEX
  5
179
330
177
100
AcDbEntity
  8
DIBUJOS
 62
    29
100
AcDbVertex
100
AcDb2dVertex
 10
61.98363666184033
 20
46.74055995435295
 30
0.0
  0
SEQEND
  5
17A
330
177
100
AcDbEntity
  8
DIBUJOS
 62
    29
  0
POLYLINE
  5
17B
330
1F
100
AcDbEntity
  8
DIBUJOS
 62
    29
100
AcDb2dPolyline
 66
     1
 10
0.0
 20
0.0
 30
0.0
  0
VERTEX
  5
17C
330
17B
100
AcDbEntity
  8
DIBUJOS
 62
    29
100
AcDbVertex
100
AcDb2dVertex
 10
61.9894166570615
 20
46.74055995435295
 30
0.0
  0
VERTEX
  5
17D
330
17B
100
AcDbEntity
  8
DIBUJOS
 62
    29
100
AcDbVertex
100
AcDb2dVertex
 10
62.01496344256229
 20
46.93672977198993
 30
0.0
  0
VERTEX
  5
17E
330
17B
100
AcDbEntity
  8
DIBUJOS
 62
    29
100
AcDbVertex
100
AcDb2dVertex
 10
62.03160961101094
 20
47.01741791413813
 30
0.0
  0
VERTEX
  5
17F
330
17B
100
AcDbEntity
  8
DIBUJOS
 62
    29
100
AcDbVertex
100
AcDb2dVertex
 10
62.03361561392783
 20
47.02428452668212
 30
0.0
  0
VERTEX
  5
180
330
17B
100
AcDbEntity
  8
DIBUJOS
 62
    29
100
AcDbVertex
100
AcDb2dVertex
 10
62.04864702392091
 20
47.06876038817742
 30
0.0
  0
VERTEX
  5
181
330
17B
100
AcDbEntity
  8
DIBUJOS
 62
    29
100
AcDbVertex
100
AcDb2dVertex
 10
62.0876742423625
 20
47.1104734259571
 30
0.0
  0
SEQEND
  5
182
330
17B
100
AcDbEntity
  8
DIBUJOS
 62
    29
  0
POLYLINE
  5
183
330
1F
100
AcDbEntity
  8
DIBUJOS
 62
    29
100
AcDb2dPolyline
 66
     1
 10
0.0
 20
0.0
 30
0.0
  0
VERTEX
  5
184
330
183
100
AcDbEntity
  8
DIBUJOS
 62
    29
100
AcDbVertex
100
AcDb2dVertex
 10
61.9894166570615
 20
46.73477918130911
 30
0.0
  0
VERTEX
  5
185
330
183
100
AcDbEntity
  8
DIBUJOS
 62
    29
100
AcDbVertex
100
AcDb2dVertex
 10
61.9894166570615
 20
46.74055995435295
 30
0.0
  0
SEQEND
  5
186
330
183
100
AcDbEntity
  8
DIBUJOS
 62
    29
  0
POLYLINE
  5
187
330
1F
100
AcDbEntity
  8
DIBUJOS
 62
    29
100
AcDb2dPolyline
 66
     1
 10
0.0
 20
0.0
 30
0.0
  0
VERTEX
  5
188
330
187
100
AcDbEntity
  8
DIBUJOS
 62
    29
100
AcDbVertex
100
AcDb2dVertex
 10
64.56146397222822
 20
46.71743997346697
 30
0.0
  0
VERTEX
  5
189
330
187
100
AcDbEntity
  8
DIBUJOS
 62
    29
100
AcDbVertex
100
AcDb2dVertex
 10
64.56724318962803
 20
46.78679991612557
 30
0.0
  0
VERTEX
  5
18A
330
187
100
AcDbEntity
  8
DIBUJOS
 62
    29
100
AcDbVertex
100
AcDb2dVertex
 10
64.56424235238352
 20
46.8620401930427
 30
0.0
  0
VERTEX
  5
18B
330
187
100
AcDbEntity
  8
DIBUJOS
 62
    29
100
AcDbVertex
100
AcDb2dVertex
 10
64.55868403642955
 20
47.01211316815333
 30
0.0
  0
VERTEX
  5
18C
330
187
100
AcDbEntity
  8
DIBUJOS
 62
    29
100
AcDbVertex
100
AcDb2dVertex
 10
64.55364374992214
 20
47.03482557031631
 30
0.0
  0
VERTEX
  5
18D
330
187
100
AcDbEntity
  8
DIBUJOS
 62
    29
100
AcDbVertex
100
AcDb2dVertex
 10
64.54412320874141
 20
47.07001423722831
 30
0.0
  0
SEQEND
  5
18E
330
187
100
AcDbEntity
  8
DIBUJOS
 62
    29
  0
POLYLINE
  5
18F
330
1F
100
AcDbEntity
  8
DIBUJOS
 62
    29
100
AcDb2dPolyline
 66
     1
 10
0.0
 20
0.0
 30
0.0
  0
VERTEX
  5
190
330
18F
100
AcDbEntity
  8
DIBUJOS
 62
    29
100
AcDbVertex
100
AcDb2dVertex
 10
67.22598809965213
 20
46.71743997346697
 30
0.0
  0
VERTEX
  5
191
330
18F
100
AcDbEntity
  8
DIBUJOS
 62
    29
100
AcDbVertex
100
AcDb2dVertex
 10
67.22598809965213
 20
46.74055995435295
 30
0.0
  0
SEQEND
  5
192
330
18F
100
AcDbEntity
  8
DIBUJOS
 62
    29
  0
POLYLINE
  5
193
330
1F
100
AcDbEntity
  8
DIBUJOS
 62
    29
100
AcDb2dPolyline
 66
     1
 10
0.0
 20
0.0
 30
0.0
  0
VERTEX
  5
194
330
193
100
AcDbEntity
  8
DIBUJOS
 62
    29
100
AcDbVertex
100
AcDb2dVertex
 10
62.15125263415526
 20
46.71166231171119
 30
0.0
  0
VERTEX
  5
195
330
193
100
AcDbEntity
  8
DIBUJOS
 62
    29
100
AcDbVertex
100
AcDb2dVertex
 10
62.14547263893408
 20
46.71166231171119
 30
0.0
  0
SEQEND
  5
196
330
193
100
AcDbEntity
  8
DIBUJOS
 62
    29
  0
POLYLINE
  5
197
330
1F
100
AcDbEntity
  8
DIBUJOS
 62
    29
100
AcDb2dPolyline
 66
     1
 10
0.0
 20
0.0
 30
0.0
  0
VERTEX
  5
198
330
197
100
AcDbEntity
  8
DIBUJOS
 62
    29
100
AcDbVertex
100
AcDb2dVertex
 10
64.56146397222822
 20
46.71166231171119
 30
0.0
  0
VERTEX
  5
199
330
197
100
AcDbEntity
  8
DIBUJOS
 62
    29
100
AcDbVertex
100
AcDb2dVertex
 10
64.55568319918504
 20
46.71166231171119
 30
0.0
  0
SEQEND
  5
19A
330
197
100
AcDbEntity
  8
DIBUJOS
 62
    29
  0
POLYLINE
  5
19B
330
1F
100
AcDbEntity
  8
DIBUJOS
 62
    29
100
AcDb2dPolyline
 66
     1
 10
0.0
 20
0.0
 30
0.0
  0
VERTEX
  5
19C
330
19B
100
AcDbEntity
  8
DIBUJOS
 62
    29
100
AcDbVertex
100
AcDb2dVertex
 10
64.56146397222822
 20
46.71166231171119
 30
0.0
  0
VERTEX
  5
19D
330
19B
100
AcDbEntity
  8
DIBUJOS
 62
    29
100
AcDbVertex
100
AcDb2dVertex
 10
64.56146397222822
 20
46.71743997346697
 30
0.0
  0
SEQEND
  5
19E
330
19B
100
AcDbEntity
  8
DIBUJOS
 62
    29
  0
POLYLINE
  5
19F
330
1F
100
AcDbEntity
  8
DIBUJOS
 62
    29
100
AcDb2dPolyline
 66
     1
 10
0.0
 20
0.0
 30
0.0
  0
VERTEX
  5
1A0
330
19F
100
AcDbEntity
  8
DIBUJOS
 62
    29
100
AcDbVertex
100
AcDb2dVertex
 10
64.56724318962803
 20
46.71166231171119
 30
0.0
  0
VERTEX
  5
1A1
330
19F
100
AcDbEntity
  8
DIBUJOS
 62
    29
100
AcDbVertex
100
AcDb2dVertex
 10
64.56146397222822
 20
46.71166231171119
 30
0.0
  0
SEQEND
  5
1A2
330
19F
100
AcDbEntity
  8
DIBUJOS
 62
    29
  0
POLYLINE
  5
1A3
330
1F
100
AcDbEntity
  8
DIBUJOS
 62
    29
100
AcDb2dPolyline
 66
     1
 10
0.0
 20
0.0
 30
0.0
  0
VERTEX
  5
1A4
330
1A3
100
AcDbEntity
  8
DIBUJOS
 62
    29
100
AcDbVertex
100
AcDb2dVertex
 10
64.6539407844854
 20
46.71166231171119
 30
0.0
  0
VERTEX
  5
1A5
330
1A3
100
AcDbEntity
  8
DIBUJOS
 62
    29
100
AcDbVertex
100
AcDb2dVertex
 10
64.56724318962803
 20
46.71166231171119
 30
0.0
  0
SEQEND
  5
1A6
330
1A3
100
AcDbEntity
  8
DIBUJOS
 62
    29
  0
POLYLINE
  5
1A7
330
1F
100
AcDbEntity
  8
DIBUJOS
 62
    29
100
AcDb2dPolyline
 66
     1
 10
0.0
 20
0.0
 30
0.0
  0
VERTEX
  5
1A8
330
1A7
100
AcDbEntity
  8
DIBUJOS
 62
    29
100
AcDbVertex
100
AcDb2dVertex
 10
64.65972155752922
 20
46.71166231171119
 30
0.0
  0
VERTEX
  5
1A9
330
1A7
100
AcDbEntity
  8
DIBUJOS
 62
    29
100
AcDbVertex
100
AcDb2dVertex
 10
64.6539407844854
 20
46.71166231171119
 30
0.0
  0
SEQEND
  5
1AA
330
1A7
100
AcDbEntity
  8
DIBUJOS
 62
    29
  0
POLYLINE
  5
1AB
330
1F
100
AcDbEntity
  8
DIBUJOS
 62
    29
100
AcDb2dPolyline
 66
     1
 10
0.0
 20
0.0
 30
0.0
  0
VERTEX
  5
1AC
330
1AB
100
AcDbEntity
  8
DIBUJOS
 62
    29
100
AcDbVertex
100
AcDb2dVertex
 10
64.65972155752922
 20
46.71166231171119
 30
0.0
  0
VERTEX
  5
1AD
330
1AB
100
AcDbEntity
  8
DIBUJOS
 62
    29
100
AcDbVertex
100
AcDb2dVertex
 10
64.65972155752922
 20
46.71743997346697
 30
0.0
  0
SEQEND
  5
1AE
330
1AB
100
AcDbEntity
  8
DIBUJOS
 62
    29
  0
POLYLINE
  5
1AF
330
1F
100
AcDbEntity
  8
DIBUJOS
 62
    29
100
AcDb2dPolyline
 66
     1
 10
0.0
 20
0.0
 30
0.0
  0
VERTEX
  5
1B0
330
1AF
100
AcDbEntity
  8
DIBUJOS
 62
    29
100
AcDbVertex
100
AcDb2dVertex
 10
64.66550077492903
 20
46.71166231171119
 30
0.0
  0
VERTEX
  5
1B1
330
1AF
100
AcDbEntity
  8
DIBUJOS
 62
    29
100
AcDbVertex
100
AcDb2dVertex
 10
64.65972155752922
 20
46.71166231171119
 30
0.0
  0
SEQEND
  5
1B2
330
1AF
100
AcDbEntity
  8
DIBUJOS
 62
    29
  0
POLYLINE
  5
1B3
330
1F
100
AcDbEntity
  8
DIBUJOS
 62
    29
100
AcDb2dPolyline
 66
     1
 10
0.0
 20
0.0
 30
0.0
  0
VERTEX
  5
1B4
330
1B3
100
AcDbEntity
  8
DIBUJOS
 62
    29
100
AcDbVertex
100
AcDb2dVertex
 10
67.05837212733655
 20
46.71166231171119
 30
0.0
  0
VERTEX
  5
1B5
330
1B3
100
AcDbEntity
  8
DIBUJOS
 62
    29
100
AcDbVertex
100
AcDb2dVertex
 10
67.05259290993739
 20
46.71166231171119
 30
0.0
  0
SEQEND
  5
1B6
330
1B3
100
AcDbEntity
  8
DIBUJOS
 62
    29
  0
POLYLINE
  5
1B7
330
1F
100
AcDbEntity
  8
DIBUJOS
 62
    29
100
AcDb2dPolyline
 66
     1
 10
0.0
 20
0.0
 30
0.0
  0
VERTEX
  5
1B8
330
1B7
100
AcDbEntity
  8
DIBUJOS
 62
    29
100
AcDbVertex
100
AcDb2dVertex
 10
65.91395640812722
 20
46.67698078473754
 30
0.0
  0
VERTEX
  5
1B9
330
1B7
100
AcDbEntity
  8
DIBUJOS
 62
    29
100
AcDbVertex
100
AcDb2dVertex
 10
65.91973562552639
 20
46.70010076562417
 30
0.0
  0
VERTEX
  5
1BA
330
1B7
100
AcDbEntity
  8
DIBUJOS
 62
    29
100
AcDbVertex
100
AcDb2dVertex
 10
65.93129561597001
 20
46.71166231171119
 30
0.0
  0
VERTEX
  5
1BB
330
1B7
100
AcDbEntity
  8
DIBUJOS
 62
    29
100
AcDbVertex
100
AcDb2dVertex
 10
66.44027121456769
 20
46.76703079237991
 30
0.0
  0
VERTEX
  5
1BC
330
1B7
100
AcDbEntity
  8
DIBUJOS
 62
    29
100
AcDbVertex
100
AcDb2dVertex
 10
66.91965535330742
 20
46.78101914308173
 30
0.0
  0
SEQEND
  5
1BD
330
1B7
100
AcDbEntity
  8
DIBUJOS
 62
    29
  0
POLYLINE
  5
1BE
330
1F
100
AcDbEntity
  8
DIBUJOS
 62
    29
100
AcDb2dPolyline
 66
     1
 10
0.0
 20
0.0
 30
0.0
  0
VERTEX
  5
1BF
330
1BE
100
AcDbEntity
  8
DIBUJOS
 62
    29
100
AcDbVertex
100
AcDb2dVertex
 10
63.28988991378808
 20
46.67120312298241
 30
0.0
  0
VERTEX
  5
1C0
330
1BE
100
AcDbEntity
  8
DIBUJOS
 62
    29
100
AcDbVertex
100
AcDb2dVertex
 10
63.2841091407449
 20
46.70010076562417
 30
0.0
  0
VERTEX
  5
1C1
330
1BE
100
AcDbEntity
  8
DIBUJOS
 62
    29
100
AcDbVertex
100
AcDb2dVertex
 10
63.27254915030126
 20
46.71166231171119
 30
0.0
  0
VERTEX
  5
1C2
330
1BE
100
AcDbEntity
  8
DIBUJOS
 62
    29
100
AcDbVertex
100
AcDb2dVertex
 10
62.78091275954575
 20
46.76703079237991
 30
0.0
  0
VERTEX
  5
1C3
330
1BE
100
AcDbEntity
  8
DIBUJOS
 62
    29
100
AcDbVertex
100
AcDb2dVertex
 10
62.28997018600705
 20
46.78101914308173
 30
0.0
  0
SEQEND
  5
1C4
330
1BE
100
AcDbEntity
  8
DIBUJOS
 62
    29
  0
POLYLINE
  5
1C5
330
1F
100
AcDbEntity
  8
DIBUJOS
 62
    29
100
AcDb2dPolyline
 66
     1
 10
0.0
 20
0.0
 30
0.0
  0
VERTEX
  5
1C6
330
1C5
100
AcDbEntity
  8
DIBUJOS
 62
    29
100
AcDbVertex
100
AcDb2dVertex
 10
65.9081756350834
 20
46.67120312298241
 30
0.0
  0
VERTEX
  5
1C7
330
1C5
100
AcDbEntity
  8
DIBUJOS
 62
    29
100
AcDbVertex
100
AcDb2dVertex
 10
64.94295299071567
 20
46.67407484177629
 30
0.0
  0
VERTEX
  5
1C8
330
1C5
100
AcDbEntity
  8
DIBUJOS
 62
    29
100
AcDbVertex
100
AcDb2dVertex
 10
64.81027989356308
 20
46.68530036876248
 30
0.0
  0
VERTEX
  5
1C9
330
1C5
100
AcDbEntity
  8
DIBUJOS
 62
    29
100
AcDbVertex
100
AcDb2dVertex
 10
64.7585578423914
 20
46.70183375302216
 30
0.0
  0
VERTEX
  5
1CA
330
1C5
100
AcDbEntity
  8
DIBUJOS
 62
    29
100
AcDbVertex
100
AcDb2dVertex
 10
64.73465537258146
 20
46.70900838307509
 30
0.0
  0
VERTEX
  5
1CB
330
1C5
100
AcDbEntity
  8
DIBUJOS
 62
    29
100
AcDbVertex
100
AcDb2dVertex
 10
64.66550077492903
 20
46.71166231171119
 30
0.0
  0
SEQEND
  5
1CC
330
1C5
100
AcDbEntity
  8
DIBUJOS
 62
    29
  0
POLYLINE
  5
1CD
330
1F
100
AcDbEntity
  8
DIBUJOS
 62
    29
100
AcDb2dPolyline
 66
     1
 10
0.0
 20
0.0
 30
0.0
  0
VERTEX
  5
1CE
330
1CD
100
AcDbEntity
  8
DIBUJOS
 62
    29
100
AcDbVertex
100
AcDb2dVertex
 10
65.91395640812722
 20
46.67120312298241
 30
0.0
  0
VERTEX
  5
1CF
330
1CD
100
AcDbEntity
  8
DIBUJOS
 62
    29
100
AcDbVertex
100
AcDb2dVertex
 10
65.9081756350834
 20
46.67120312298241
 30
0.0
  0
SEQEND
  5
1D0
330
1CD
100
AcDbEntity
  8
DIBUJOS
 62
    29
  0
POLYLINE
  5
1D1
330
1F
100
AcDbEntity
  8
DIBUJOS
 62
    29
100
AcDb2dPolyline
 66
     1
 10
0.0
 20
0.0
 30
0.0
  0
VERTEX
  5
1D2
330
1D1
100
AcDbEntity
  8
DIBUJOS
 62
    29
100
AcDbVertex
100
AcDb2dVertex
 10
65.91395640812722
 20
46.67120312298241
 30
0.0
  0
VERTEX
  5
1D3
330
1D1
100
AcDbEntity
  8
DIBUJOS
 62
    29
100
AcDbVertex
100
AcDb2dVertex
 10
65.91395640812722
 20
46.67698078473754
 30
0.0
  0
SEQEND
  5
1D4
330
1D1
100
AcDbEntity
  8
DIBUJOS
 62
    29
  0
POLYLINE
  5
1D5
330
1F
100
AcDbEntity
  8
DIBUJOS
 62
    29
100
AcDb2dPolyline
 66
     1
 10
0.0
 20
0.0
 30
0.0
  0
VERTEX
  5
1D6
330
1D5
100
AcDbEntity
  8
DIBUJOS
 62
    29
100
AcDbVertex
100
AcDb2dVertex
 10
63.28988991378808
 20
46.66542234993858
 30
0.0
  0
VERTEX
  5
1D7
330
1D5
100
AcDbEntity
  8
DIBUJOS
 62
    29
100
AcDbVertex
100
AcDb2dVertex
 10
63.28988991378808
 20
46.67120312298241
 30
0.0
  0
SEQEND
  5
1D8
330
1D5
100
AcDbEntity
  8
DIBUJOS
 62
    29
  0
POLYLINE
  5
1D9
330
1F
100
AcDbEntity
  8
DIBUJOS
 62
    29
100
AcDb2dPolyline
 66
     1
 10
0.0
 20
0.0
 30
0.0
  0
VERTEX
  5
1DA
330
1D9
100
AcDbEntity
  8
DIBUJOS
 62
    29
100
AcDbVertex
100
AcDb2dVertex
 10
63.29566913118725
 20
46.66542234993858
 30
0.0
  0
VERTEX
  5
1DB
330
1D9
100
AcDbEntity
  8
DIBUJOS
 62
    29
100
AcDbVertex
100
AcDb2dVertex
 10
63.28988991378808
 20
46.66542234993858
 30
0.0
  0
SEQEND
  5
1DC
330
1D9
100
AcDbEntity
  8
DIBUJOS
 62
    29
  0
POLYLINE
  5
1DD
330
1F
100
AcDbEntity
  8
DIBUJOS
 62
    29
100
AcDb2dPolyline
 66
     1
 10
0.0
 20
0.0
 30
0.0
  0
VERTEX
  5
1DE
330
1DD
100
AcDbEntity
  8
DIBUJOS
 62
    29
100
AcDbVertex
100
AcDb2dVertex
 10
63.29566913118725
 20
46.66542234993858
 30
0.0
  0
VERTEX
  5
1DF
330
1DD
100
AcDbEntity
  8
DIBUJOS
 62
    29
100
AcDbVertex
100
AcDb2dVertex
 10
64.2724517659986
 20
46.67407484177629
 30
0.0
  0
VERTEX
  5
1E0
330
1DD
100
AcDbEntity
  8
DIBUJOS
 62
    29
100
AcDbVertex
100
AcDb2dVertex
 10
64.35898912952602
 20
46.6796658262536
 30
0.0
  0
VERTEX
  5
1E1
330
1DD
100
AcDbEntity
  8
DIBUJOS
 62
    29
100
AcDbVertex
100
AcDb2dVertex
 10
64.41090408055099
 20
46.68530036876248
 30
0.0
  0
VERTEX
  5
1E2
330
1DD
100
AcDbEntity
  8
DIBUJOS
 62
    29
100
AcDbVertex
100
AcDb2dVertex
 10
64.44528847952327
 20
46.69605609126639
 30
0.0
  0
VERTEX
  5
1E3
330
1DD
100
AcDbEntity
  8
DIBUJOS
 62
    29
100
AcDbVertex
100
AcDb2dVertex
 10
64.48652860153197
 20
46.70900838307509
 30
0.0
  0
VERTEX
  5
1E4
330
1DD
100
AcDbEntity
  8
DIBUJOS
 62
    29
100
AcDbVertex
100
AcDb2dVertex
 10
64.55568319918504
 20
46.71166231171119
 30
0.0
  0
SEQEND
  5
1E5
330
1DD
100
AcDbEntity
  8
DIBUJOS
 62
    29
  0
POLYLINE
  5
1E6
330
1F
100
AcDbEntity
  8
DIBUJOS
 62
    29
100
AcDb2dPolyline
 66
     1
 10
0.0
 20
0.0
 30
0.0
  0
VERTEX
  5
1E7
330
1E6
100
AcDbEntity
  8
DIBUJOS
 62
    29
100
AcDbVertex
100
AcDb2dVertex
 10
65.91395640812722
 20
46.66542234993858
 30
0.0
  0
VERTEX
  5
1E8
330
1E6
100
AcDbEntity
  8
DIBUJOS
 62
    29
100
AcDbVertex
100
AcDb2dVertex
 10
65.91395640812722
 20
46.67120312298241
 30
0.0
  0
SEQEND
  5
1E9
330
1E6
100
AcDbEntity
  8
DIBUJOS
 62
    29
  0
POLYLINE
  5
1EA
330
1F
100
AcDbEntity
  8
DIBUJOS
 62
    29
100
AcDb2dPolyline
 66
     1
 10
0.0
 20
0.0
 30
0.0
  0
VERTEX
  5
1EB
330
1EA
100
AcDbEntity
  8
DIBUJOS
 62
    29
100
AcDbVertex
100
AcDb2dVertex
 10
63.28988991378808
 20
46.65964157689475
 30
0.0
  0
VERTEX
  5
1EC
330
1EA
100
AcDbEntity
  8
DIBUJOS
 62
    29
100
AcDbVertex
100
AcDb2dVertex
 10
63.28988991378808
 20
46.66542234993858
 30
0.0
  0
SEQEND
  5
1ED
330
1EA
100
AcDbEntity
  8
DIBUJOS
 62
    29
  0
POLYLINE
  5
1EE
330
1F
100
AcDbEntity
  8
DIBUJOS
 62
    29
100
AcDb2dPolyline
 66
     1
 10
0.0
 20
0.0
 30
0.0
  0
VERTEX
  5
1EF
330
1EE
100
AcDbEntity
  8
DIBUJOS
 62
    29
100
AcDbVertex
100
AcDb2dVertex
 10
62.14547263893408
 20
46.65386080385156
 30
0.0
  0
VERTEX
  5
1F0
330
1EE
100
AcDbEntity
  8
DIBUJOS
 62
    29
100
AcDbVertex
100
AcDb2dVertex
 10
62.13969342153428
 20
46.65386080385156
 30
0.0
  0
SEQEND
  5
1F1
330
1EE
100
AcDbEntity
  8
DIBUJOS
 62
    29
  0
POLYLINE
  5
1F2
330
1F
100
AcDbEntity
  8
DIBUJOS
 62
    29
100
AcDb2dPolyline
 66
     1
 10
0.0
 20
0.0
 30
0.0
  0
VERTEX
  5
1F3
330
1F2
100
AcDbEntity
  8
DIBUJOS
 62
    29
100
AcDbVertex
100
AcDb2dVertex
 10
67.05837212733655
 20
46.65386080385156
 30
0.0
  0
VERTEX
  5
1F4
330
1F2
100
AcDbEntity
  8
DIBUJOS
 62
    29
100
AcDbVertex
100
AcDb2dVertex
 10
67.05259290993739
 20
46.65386080385156
 30
0.0
  0
SEQEND
  5
1F5
330
1F2
100
AcDbEntity
  8
DIBUJOS
 62
    29
  0
POLYLINE
  5
1F6
330
1F
100
AcDbEntity
  8
DIBUJOS
 62
    29
100
AcDb2dPolyline
 66
     1
 10
0.0
 20
0.0
 30
0.0
  0
VERTEX
  5
1F7
330
1F6
100
AcDbEntity
  8
DIBUJOS
 62
    29
100
AcDbVertex
100
AcDb2dVertex
 10
62.1859318276635
 20
46.58450397248038
 30
0.0
  0
VERTEX
  5
1F8
330
1F6
100
AcDbEntity
  8
DIBUJOS
 62
    29
100
AcDbVertex
100
AcDb2dVertex
 10
62.18015261026306
 20
46.58450397248038
 30
0.0
  0
SEQEND
  5
1F9
330
1F6
100
AcDbEntity
  8
DIBUJOS
 62
    29
  0
POLYLINE
  5
1FA
330
1F
100
AcDbEntity
  8
DIBUJOS
 62
    29
100
AcDb2dPolyline
 66
     1
 10
0.0
 20
0.0
 30
0.0
  0
VERTEX
  5
1FB
330
1FA
100
AcDbEntity
  8
DIBUJOS
 62
    29
100
AcDbVertex
100
AcDb2dVertex
 10
67.0236937116516
 20
46.58450397248038
 30
0.0
  0
VERTEX
  5
1FC
330
1FA
100
AcDbEntity
  8
DIBUJOS
 62
    29
100
AcDbVertex
100
AcDb2dVertex
 10
67.01213372120861
 20
46.58450397248038
 30
0.0
  0
SEQEND
  5
1FD
330
1FA
100
AcDbEntity
  8
DIBUJOS
 62
    29
  0
POLYLINE
  5
1FE
330
1F
100
AcDbEntity
  8
DIBUJOS
 62
    29
100
AcDb2dPolyline
 66
     1
 10
0.0
 20
0.0
 30
0.0
  0
VERTEX
  5
1FF
330
1FE
100
AcDbEntity
  8
DIBUJOS
 62
    29
100
AcDbVertex
100
AcDb2dVertex
 10
63.2841091407449
 20
46.57294242639335
 30
0.0
  0
VERTEX
  5
200
330
1FE
100
AcDbEntity
  8
DIBUJOS
 62
    29
100
AcDbVertex
100
AcDb2dVertex
 10
63.28988991378808
 20
46.65964157689475
 30
0.0
  0
SEQEND
  5
201
330
1FE
100
AcDbEntity
  8
DIBUJOS
 62
    29
  0
POLYLINE
  5
202
330
1F
100
AcDbEntity
  8
DIBUJOS
 62
    29
100
AcDb2dPolyline
 66
     1
 10
0.0
 20
0.0
 30
0.0
  0
VERTEX
  5
203
330
202
100
AcDbEntity
  8
DIBUJOS
 62
    29
100
AcDbVertex
100
AcDb2dVertex
 10
65.92551484292555
 20
46.57294242639335
 30
0.0
  0
VERTEX
  5
204
330
202
100
AcDbEntity
  8
DIBUJOS
 62
    29
100
AcDbVertex
100
AcDb2dVertex
 10
65.91662589320299
 20
46.59047453409008
 30
0.0
  0
VERTEX
  5
205
330
202
100
AcDbEntity
  8
DIBUJOS
 62
    29
100
AcDbVertex
100
AcDb2dVertex
 10
65.91395640812722
 20
46.66542234993858
 30
0.0
  0
SEQEND
  5
206
330
202
100
AcDbEntity
  8
DIBUJOS
 62
    29
  0
POLYLINE
  5
207
330
1F
100
AcDbEntity
  8
DIBUJOS
 62
    29
100
AcDb2dPolyline
 66
     1
 10
0.0
 20
0.0
 30
0.0
  0
VERTEX
  5
208
330
207
100
AcDbEntity
  8
DIBUJOS
 62
    29
100
AcDbVertex
100
AcDb2dVertex
 10
62.20327181332767
 20
46.55560321855056
 30
0.0
  0
VERTEX
  5
209
330
207
100
AcDbEntity
  8
DIBUJOS
 62
    29
100
AcDbVertex
100
AcDb2dVertex
 10
62.19171182288468
 20
46.56716476463822
 30
0.0
  0
SEQEND
  5
20A
330
207
100
AcDbEntity
  8
DIBUJOS
 62
    29
  0
POLYLINE
  5
20B
330
1F
100
AcDbEntity
  8
DIBUJOS
 62
    29
100
AcDb2dPolyline
 66
     1
 10
0.0
 20
0.0
 30
0.0
  0
VERTEX
  5
20C
330
20B
100
AcDbEntity
  8
DIBUJOS
 62
    29
100
AcDbVertex
100
AcDb2dVertex
 10
62.20905180854949
 20
46.55560321855056
 30
0.0
  0
VERTEX
  5
20D
330
20B
100
AcDbEntity
  8
DIBUJOS
 62
    29
100
AcDbVertex
100
AcDb2dVertex
 10
62.20327181332767
 20
46.55560321855056
 30
0.0
  0
SEQEND
  5
20E
330
20B
100
AcDbEntity
  8
DIBUJOS
 62
    29
  0
POLYLINE
  5
20F
330
1F
100
AcDbEntity
  8
DIBUJOS
 62
    29
100
AcDb2dPolyline
 66
     1
 10
0.0
 20
0.0
 30
0.0
  0
VERTEX
  5
210
330
20F
100
AcDbEntity
  8
DIBUJOS
 62
    29
100
AcDbVertex
100
AcDb2dVertex
 10
66.8734153915348
 20
46.55560321855056
 30
0.0
  0
VERTEX
  5
211
330
20F
100
AcDbEntity
  8
DIBUJOS
 62
    29
100
AcDbVertex
100
AcDb2dVertex
 10
66.13359155961393
 20
46.55560321855056
 30
0.0
  0
SEQEND
  5
212
330
20F
100
AcDbEntity
  8
DIBUJOS
 62
    29
  0
POLYLINE
  5
213
330
1F
100
AcDbEntity
  8
DIBUJOS
 62
    29
100
AcDb2dPolyline
 66
     1
 10
0.0
 20
0.0
 30
0.0
  0
VERTEX
  5
214
330
213
100
AcDbEntity
  8
DIBUJOS
 62
    29
100
AcDbVertex
100
AcDb2dVertex
 10
66.87919616457863
 20
46.55560321855056
 30
0.0
  0
VERTEX
  5
215
330
213
100
AcDbEntity
  8
DIBUJOS
 62
    29
100
AcDbVertex
100
AcDb2dVertex
 10
66.8734153915348
 20
46.55560321855056
 30
0.0
  0
SEQEND
  5
216
330
213
100
AcDbEntity
  8
DIBUJOS
 62
    29
  0
POLYLINE
  5
217
330
1F
100
AcDbEntity
  8
DIBUJOS
 62
    29
100
AcDb2dPolyline
 66
     1
 10
0.0
 20
0.0
 30
0.0
  0
VERTEX
  5
218
330
217
100
AcDbEntity
  8
DIBUJOS
 62
    29
100
AcDbVertex
100
AcDb2dVertex
 10
66.8849753819778
 20
46.55560321855056
 30
0.0
  0
VERTEX
  5
219
330
217
100
AcDbEntity
  8
DIBUJOS
 62
    29
100
AcDbVertex
100
AcDb2dVertex
 10
66.87919616457863
 20
46.55560321855056
 30
0.0
  0
SEQEND
  5
21A
330
217
100
AcDbEntity
  8
DIBUJOS
 62
    29
  0
POLYLINE
  5
21B
330
1F
100
AcDbEntity
  8
DIBUJOS
 62
    29
100
AcDb2dPolyline
 66
     1
 10
0.0
 20
0.0
 30
0.0
  0
VERTEX
  5
21C
330
21B
100
AcDbEntity
  8
DIBUJOS
 62
    29
100
AcDbVertex
100
AcDb2dVertex
 10
67.00057373076498
 20
46.55560321855056
 30
0.0
  0
VERTEX
  5
21D
330
21B
100
AcDbEntity
  8
DIBUJOS
 62
    29
100
AcDbVertex
100
AcDb2dVertex
 10
67.00635294816477
 20
46.56716476463822
 30
0.0
  0
SEQEND
  5
21E
330
21B
100
AcDbEntity
  8
DIBUJOS
 62
    29
  0
POLYLINE
  5
21F
330
1F
100
AcDbEntity
  8
DIBUJOS
 62
    29
100
AcDb2dPolyline
 66
     1
 10
0.0
 20
0.0
 30
0.0
  0
VERTEX
  5
220
330
21F
100
AcDbEntity
  8
DIBUJOS
 62
    29
100
AcDbVertex
100
AcDb2dVertex
 10
62.20327181332767
 20
46.54982555679543
 30
0.0
  0
VERTEX
  5
221
330
21F
100
AcDbEntity
  8
DIBUJOS
 62
    29
100
AcDbVertex
100
AcDb2dVertex
 10
62.20327181332767
 20
46.55560321855056
 30
0.0
  0
SEQEND
  5
222
330
21F
100
AcDbEntity
  8
DIBUJOS
 62
    29
  0
POLYLINE
  5
223
330
1F
100
AcDbEntity
  8
DIBUJOS
 62
    29
100
AcDb2dPolyline
 66
     1
 10
0.0
 20
0.0
 30
0.0
  0
VERTEX
  5
224
330
223
100
AcDbEntity
  8
DIBUJOS
 62
    29
100
AcDbVertex
100
AcDb2dVertex
 10
62.31886938429349
 20
46.54982555679543
 30
0.0
  0
VERTEX
  5
225
330
223
100
AcDbEntity
  8
DIBUJOS
 62
    29
100
AcDbVertex
100
AcDb2dVertex
 10
62.31309016689368
 20
46.55560321855056
 30
0.0
  0
VERTEX
  5
226
330
223
100
AcDbEntity
  8
DIBUJOS
 62
    29
100
AcDbVertex
100
AcDb2dVertex
 10
62.20905180854949
 20
46.55560321855056
 30
0.0
  0
SEQEND
  5
227
330
223
100
AcDbEntity
  8
DIBUJOS
 62
    29
  0
POLYLINE
  5
228
330
1F
100
AcDbEntity
  8
DIBUJOS
 62
    29
100
AcDb2dPolyline
 66
     1
 10
0.0
 20
0.0
 30
0.0
  0
VERTEX
  5
229
330
228
100
AcDbEntity
  8
DIBUJOS
 62
    29
100
AcDbVertex
100
AcDb2dVertex
 10
62.32464860169264
 20
46.54982555679543
 30
0.0
  0
VERTEX
  5
22A
330
228
100
AcDbEntity
  8
DIBUJOS
 62
    29
100
AcDbVertex
100
AcDb2dVertex
 10
62.31886938429349
 20
46.54982555679543
 30
0.0
  0
SEQEND
  5
22B
330
228
100
AcDbEntity
  8
DIBUJOS
 62
    29
  0
POLYLINE
  5
22C
330
1F
100
AcDbEntity
  8
DIBUJOS
 62
    29
100
AcDb2dPolyline
 66
     1
 10
0.0
 20
0.0
 30
0.0
  0
VERTEX
  5
22D
330
22C
100
AcDbEntity
  8
DIBUJOS
 62
    29
100
AcDbVertex
100
AcDb2dVertex
 10
66.12781078657073
 20
46.54982555679543
 30
0.0
  0
VERTEX
  5
22E
330
22C
100
AcDbEntity
  8
DIBUJOS
 62
    29
100
AcDbVertex
100
AcDb2dVertex
 10
66.12781078657073
 20
46.55560321855056
 30
0.0
  0
VERTEX
  5
22F
330
22C
100
AcDbEntity
  8
DIBUJOS
 62
    29
100
AcDbVertex
100
AcDb2dVertex
 10
66.13359155961393
 20
46.55560321855056
 30
0.0
  0
SEQEND
  5
230
330
22C
100
AcDbEntity
  8
DIBUJOS
 62
    29
  0
POLYLINE
  5
231
330
1F
100
AcDbEntity
  8
DIBUJOS
 62
    29
100
AcDb2dPolyline
 66
     1
 10
0.0
 20
0.0
 30
0.0
  0
VERTEX
  5
232
330
231
100
AcDbEntity
  8
DIBUJOS
 62
    29
100
AcDbVertex
100
AcDb2dVertex
 10
66.87919616457863
 20
46.54982555679543
 30
0.0
  0
VERTEX
  5
233
330
231
100
AcDbEntity
  8
DIBUJOS
 62
    29
100
AcDbVertex
100
AcDb2dVertex
 10
66.87919616457863
 20
46.55560321855056
 30
0.0
  0
SEQEND
  5
234
330
231
100
AcDbEntity
  8
DIBUJOS
 62
    29
  0
POLYLINE
  5
235
330
1F
100
AcDbEntity
  8
DIBUJOS
 62
    29
100
AcDb2dPolyline
 66
     1
 10
0.0
 20
0.0
 30
0.0
  0
VERTEX
  5
236
330
235
100
AcDbEntity
  8
DIBUJOS
 62
    29
100
AcDbVertex
100
AcDb2dVertex
 10
66.99479295772178
 20
46.54982555679543
 30
0.0
  0
VERTEX
  5
237
330
235
100
AcDbEntity
  8
DIBUJOS
 62
    29
100
AcDbVertex
100
AcDb2dVertex
 10
66.98901374032198
 20
46.55560321855056
 30
0.0
  0
VERTEX
  5
238
330
235
100
AcDbEntity
  8
DIBUJOS
 62
    29
100
AcDbVertex
100
AcDb2dVertex
 10
66.8849753819778
 20
46.55560321855056
 30
0.0
  0
SEQEND
  5
239
330
235
100
AcDbEntity
  8
DIBUJOS
 62
    29
  0
POLYLINE
  5
23A
330
1F
100
AcDbEntity
  8
DIBUJOS
 62
    29
100
AcDb2dPolyline
 66
     1
 10
0.0
 20
0.0
 30
0.0
  0
VERTEX
  5
23B
330
23A
100
AcDbEntity
  8
DIBUJOS
 62
    29
100
AcDbVertex
100
AcDb2dVertex
 10
67.00057373076498
 20
46.54982555679543
 30
0.0
  0
VERTEX
  5
23C
330
23A
100
AcDbEntity
  8
DIBUJOS
 62
    29
100
AcDbVertex
100
AcDb2dVertex
 10
66.99479295772178
 20
46.54982555679543
 30
0.0
  0
SEQEND
  5
23D
330
23A
100
AcDbEntity
  8
DIBUJOS
 62
    29
  0
POLYLINE
  5
23E
330
1F
100
AcDbEntity
  8
DIBUJOS
 62
    29
100
AcDb2dPolyline
 66
     1
 10
0.0
 20
0.0
 30
0.0
  0
VERTEX
  5
23F
330
23E
100
AcDbEntity
  8
DIBUJOS
 62
    29
100
AcDbVertex
100
AcDb2dVertex
 10
67.00057373076498
 20
46.54982555679543
 30
0.0
  0
VERTEX
  5
240
330
23E
100
AcDbEntity
  8
DIBUJOS
 62
    29
100
AcDbVertex
100
AcDb2dVertex
 10
67.00057373076498
 20
46.55560321855056
 30
0.0
  0
SEQEND
  5
241
330
23E
100
AcDbEntity
  8
DIBUJOS
 62
    29
  0
POLYLINE
  5
242
330
1F
100
AcDbEntity
  8
DIBUJOS
 62
    29
100
AcDb2dPolyline
 66
     1
 10
0.0
 20
0.0
 30
0.0
  0
VERTEX
  5
243
330
242
100
AcDbEntity
  8
DIBUJOS
 62
    29
100
AcDbVertex
100
AcDb2dVertex
 10
62.31886938429349
 20
46.54404478375159
 30
0.0
  0
VERTEX
  5
244
330
242
100
AcDbEntity
  8
DIBUJOS
 62
    29
100
AcDbVertex
100
AcDb2dVertex
 10
62.31886938429349
 20
46.54982555679543
 30
0.0
  0
SEQEND
  5
245
330
242
100
AcDbEntity
  8
DIBUJOS
 62
    29
  0
POLYLINE
  5
246
330
1F
100
AcDbEntity
  8
DIBUJOS
 62
    29
100
AcDb2dPolyline
 66
     1
 10
0.0
 20
0.0
 30
0.0
  0
VERTEX
  5
247
330
246
100
AcDbEntity
  8
DIBUJOS
 62
    29
100
AcDbVertex
100
AcDb2dVertex
 10
67.00057373076498
 20
46.54404478375159
 30
0.0
  0
VERTEX
  5
248
330
246
100
AcDbEntity
  8
DIBUJOS
 62
    29
100
AcDbVertex
100
AcDb2dVertex
 10
67.00057373076498
 20
46.54982555679543
 30
0.0
  0
SEQEND
  5
249
330
246
100
AcDbEntity
  8
DIBUJOS
 62
    29
  0
POLYLINE
  5
24A
330
1F
100
AcDbEntity
  8
DIBUJOS
 62
    29
100
AcDb2dPolyline
 66
     1
 10
0.0
 20
0.0
 30
0.0
  0
VERTEX
  5
24B
330
24A
100
AcDbEntity
  8
DIBUJOS
 62
    29
100
AcDbVertex
100
AcDb2dVertex
 10
61.97785666661915
 20
46.48624638718002
 30
0.0
  0
VERTEX
  5
24C
330
24A
100
AcDbEntity
  8
DIBUJOS
 62
    29
100
AcDbVertex
100
AcDb2dVertex
 10
61.9894166570615
 20
46.73477918130911
 30
0.0
  0
SEQEND
  5
24D
330
24A
100
AcDbEntity
  8
DIBUJOS
 62
    29
  0
POLYLINE
  5
24E
330
1F
100
AcDbEntity
  8
DIBUJOS
 62
    29
100
AcDb2dPolyline
 66
     1
 10
0.0
 20
0.0
 30
0.0
  0
VERTEX
  5
24F
330
24E
100
AcDbEntity
  8
DIBUJOS
 62
    29
100
AcDbVertex
100
AcDb2dVertex
 10
65.91395640812722
 20
46.48624638718002
 30
0.0
  0
VERTEX
  5
250
330
24E
100
AcDbEntity
  8
DIBUJOS
 62
    29
100
AcDbVertex
100
AcDb2dVertex
 10
65.90239641768359
 20
46.49202404893579
 30
0.0
  0
VERTEX
  5
251
330
24E
100
AcDbEntity
  8
DIBUJOS
 62
    29
100
AcDbVertex
100
AcDb2dVertex
 10
63.38236828168928
 20
46.48913677370161
 30
0.0
  0
VERTEX
  5
252
330
24E
100
AcDbEntity
  8
DIBUJOS
 62
    29
100
AcDbVertex
100
AcDb2dVertex
 10
63.29566913118725
 20
46.49202404893579
 30
0.0
  0
SEQEND
  5
253
330
24E
100
AcDbEntity
  8
DIBUJOS
 62
    29
  0
POLYLINE
  5
254
330
1F
100
AcDbEntity
  8
DIBUJOS
 62
    29
100
AcDb2dPolyline
 66
     1
 10
0.0
 20
0.0
 30
0.0
  0
VERTEX
  5
255
330
254
100
AcDbEntity
  8
DIBUJOS
 62
    29
100
AcDbVertex
100
AcDb2dVertex
 10
67.23754809009576
 20
46.4573456332502
 30
0.0
  0
VERTEX
  5
256
330
254
100
AcDbEntity
  8
DIBUJOS
 62
    29
100
AcDbVertex
100
AcDb2dVertex
 10
67.23067525497565
 20
46.46968811261713
 30
0.0
  0
VERTEX
  5
257
330
254
100
AcDbEntity
  8
DIBUJOS
 62
    29
100
AcDbVertex
100
AcDb2dVertex
 10
67.20547537808262
 20
46.77547793921209
 30
0.0
  0
VERTEX
  5
258
330
254
100
AcDbEntity
  8
DIBUJOS
 62
    29
100
AcDbVertex
100
AcDb2dVertex
 10
67.20026397073707
 20
46.83280030872463
 30
0.0
  0
VERTEX
  5
259
330
254
100
AcDbEntity
  8
DIBUJOS
 62
    29
100
AcDbVertex
100
AcDb2dVertex
 10
67.17752667827088
 20
46.98865094559103
 30
0.0
  0
VERTEX
  5
25A
330
254
100
AcDbEntity
  8
DIBUJOS
 62
    29
100
AcDbVertex
100
AcDb2dVertex
 10
67.17600992538664
 20
46.9953837727523
 30
0.0
  0
VERTEX
  5
25B
330
254
100
AcDbEntity
  8
DIBUJOS
 62
    29
100
AcDbVertex
100
AcDb2dVertex
 10
67.15396178320518
 20
47.06823458051071
 30
0.0
  0
VERTEX
  5
25C
330
254
100
AcDbEntity
  8
DIBUJOS
 62
    29
100
AcDbVertex
100
AcDb2dVertex
 10
67.13351128739495
 20
47.0931342181143
 30
0.0
  0
SEQEND
  5
25D
330
254
100
AcDbEntity
  8
DIBUJOS
 62
    29
  0
POLYLINE
  5
25E
330
1F
100
AcDbEntity
  8
DIBUJOS
 62
    29
100
AcDb2dPolyline
 66
     1
 10
0.0
 20
0.0
 30
0.0
  0
VERTEX
  5
25F
330
25E
100
AcDbEntity
  8
DIBUJOS
 62
    29
100
AcDbVertex
100
AcDb2dVertex
 10
67.24332886313896
 20
46.4573456332502
 30
0.0
  0
VERTEX
  5
260
330
25E
100
AcDbEntity
  8
DIBUJOS
 62
    29
100
AcDbVertex
100
AcDb2dVertex
 10
67.23754809009576
 20
46.4573456332502
 30
0.0
  0
SEQEND
  5
261
330
25E
100
AcDbEntity
  8
DIBUJOS
 62
    29
  0
POLYLINE
  5
262
330
1F
100
AcDbEntity
  8
DIBUJOS
 62
    29
100
AcDb2dPolyline
 66
     1
 10
0.0
 20
0.0
 30
0.0
  0
VERTEX
  5
263
330
262
100
AcDbEntity
  8
DIBUJOS
 62
    29
100
AcDbVertex
100
AcDb2dVertex
 10
67.24332886313896
 20
46.4573456332502
 30
0.0
  0
VERTEX
  5
264
330
262
100
AcDbEntity
  8
DIBUJOS
 62
    29
100
AcDbVertex
100
AcDb2dVertex
 10
67.25951222750217
 20
46.49260274849759
 30
0.0
  0
VERTEX
  5
265
330
262
100
AcDbEntity
  8
DIBUJOS
 62
    29
100
AcDbVertex
100
AcDb2dVertex
 10
67.31472669941641
 20
46.64179211782554
 30
0.0
  0
VERTEX
  5
266
330
262
100
AcDbEntity
  8
DIBUJOS
 62
    29
100
AcDbVertex
100
AcDb2dVertex
 10
67.33176100103833
 20
46.70530283910556
 30
0.0
  0
VERTEX
  5
267
330
262
100
AcDbEntity
  8
DIBUJOS
 62
    29
100
AcDbVertex
100
AcDb2dVertex
 10
67.37282844656484
 20
46.90778546002856
 30
0.0
  0
VERTEX
  5
268
330
262
100
AcDbEntity
  8
DIBUJOS
 62
    29
100
AcDbVertex
100
AcDb2dVertex
 10
67.39603243222652
 20
47.05810733817692
 30
0.0
  0
VERTEX
  5
269
330
262
100
AcDbEntity
  8
DIBUJOS
 62
    29
100
AcDbVertex
100
AcDb2dVertex
 10
67.43141244334842
 20
47.35921156509237
 30
0.0
  0
VERTEX
  5
26A
330
262
100
AcDbEntity
  8
DIBUJOS
 62
    29
100
AcDbVertex
100
AcDb2dVertex
 10
67.43671563368919
 20
47.42816081773927
 30
0.0
  0
VERTEX
  5
26B
330
262
100
AcDbEntity
  8
DIBUJOS
 62
    29
100
AcDbVertex
100
AcDb2dVertex
 10
67.45718324158246
 20
47.75782044562016
 30
0.0
  0
VERTEX
  5
26C
330
262
100
AcDbEntity
  8
DIBUJOS
 62
    29
100
AcDbVertex
100
AcDb2dVertex
 10
67.45718324158246
 20
48.39938669224004
 30
0.0
  0
VERTEX
  5
26D
330
262
100
AcDbEntity
  8
DIBUJOS
 62
    29
100
AcDbVertex
100
AcDb2dVertex
 10
67.4371745486639
 20
48.70552809437549
 30
0.0
  0
VERTEX
  5
26E
330
262
100
AcDbEntity
  8
DIBUJOS
 62
    29
100
AcDbVertex
100
AcDb2dVertex
 10
67.41429724823888
 20
48.91923001970856
 30
0.0
  0
VERTEX
  5
26F
330
262
100
AcDbEntity
  8
DIBUJOS
 62
    29
100
AcDbVertex
100
AcDb2dVertex
 10
67.38408508643099
 20
49.09348081361471
 30
0.0
  0
VERTEX
  5
270
330
262
100
AcDbEntity
  8
DIBUJOS
 62
    29
100
AcDbVertex
100
AcDb2dVertex
 10
67.36096666118902
 20
49.19174151020313
 30
0.0
  0
VERTEX
  5
271
330
262
100
AcDbEntity
  8
DIBUJOS
 62
    29
100
AcDbVertex
100
AcDb2dVertex
 10
67.30517348971235
 20
49.37560929521667
 30
0.0
  0
VERTEX
  5
272
330
262
100
AcDbEntity
  8
DIBUJOS
 62
    29
100
AcDbVertex
100
AcDb2dVertex
 10
67.22425511225413
 20
49.56056603101906
 30
0.0
  0
VERTEX
  5
273
330
262
100
AcDbEntity
  8
DIBUJOS
 62
    29
100
AcDbVertex
100
AcDb2dVertex
 10
67.14946286080414
 20
49.68726078834244
 30
0.0
  0
VERTEX
  5
274
330
262
100
AcDbEntity
  8
DIBUJOS
 62
    29
100
AcDbVertex
100
AcDb2dVertex
 10
67.13489736618455
 20
49.70668144783502
 30
0.0
  0
VERTEX
  5
275
330
262
100
AcDbEntity
  8
DIBUJOS
 62
    29
100
AcDbVertex
100
AcDb2dVertex
 10
67.05259290993739
 20
49.8154582977538
 30
0.0
  0
VERTEX
  5
276
330
262
100
AcDbEntity
  8
DIBUJOS
 62
    29
100
AcDbVertex
100
AcDb2dVertex
 10
66.9601145420362
 20
49.90793511001097
 30
0.0
  0
VERTEX
  5
277
330
262
100
AcDbEntity
  8
DIBUJOS
 62
    29
100
AcDbVertex
100
AcDb2dVertex
 10
66.9184310614918
 20
49.94118544451945
 30
0.0
  0
VERTEX
  5
278
330
262
100
AcDbEntity
  8
DIBUJOS
 62
    29
100
AcDbVertex
100
AcDb2dVertex
 10
66.83206793009126
 20
49.99908029101767
 30
0.0
  0
VERTEX
  5
279
330
262
100
AcDbEntity
  8
DIBUJOS
 62
    29
100
AcDbVertex
100
AcDb2dVertex
 10
66.6890373552942
 20
50.06572719056895
 30
0.0
  0
VERTEX
  5
27A
330
262
100
AcDbEntity
  8
DIBUJOS
 62
    29
100
AcDbVertex
100
AcDb2dVertex
 10
66.4694022038075
 20
50.13508402193949
 30
0.0
  0
VERTEX
  5
27B
330
262
100
AcDbEntity
  8
DIBUJOS
 62
    29
100
AcDbVertex
100
AcDb2dVertex
 10
66.24385404953765
 20
50.18759322896657
 30
0.0
  0
VERTEX
  5
27C
330
262
100
AcDbEntity
  8
DIBUJOS
 62
    29
100
AcDbVertex
100
AcDb2dVertex
 10
66.05889731373524
 20
50.22227164465216
 30
0.0
  0
VERTEX
  5
27D
330
262
100
AcDbEntity
  8
DIBUJOS
 62
    29
100
AcDbVertex
100
AcDb2dVertex
 10
65.89689721620083
 20
50.24570586562321
 30
0.0
  0
VERTEX
  5
27E
330
262
100
AcDbEntity
  8
DIBUJOS
 62
    29
100
AcDbVertex
100
AcDb2dVertex
 10
65.85068836730818
 20
50.25143685805936
 30
0.0
  0
VERTEX
  5
27F
330
262
100
AcDbEntity
  8
DIBUJOS
 62
    29
100
AcDbVertex
100
AcDb2dVertex
 10
65.69996357736827
 20
50.26932987516012
 30
0.0
  0
VERTEX
  5
280
330
262
100
AcDbEntity
  8
DIBUJOS
 62
    29
100
AcDbVertex
100
AcDb2dVertex
 10
65.45746512625216
 20
50.28060829404205
 30
0.0
  0
VERTEX
  5
281
330
262
100
AcDbEntity
  8
DIBUJOS
 62
    29
100
AcDbVertex
100
AcDb2dVertex
 10
65.26660938846352
 20
50.28940701641408
 30
0.0
  0
VERTEX
  5
282
330
262
100
AcDbEntity
  8
DIBUJOS
 62
    29
100
AcDbVertex
100
AcDb2dVertex
 10
64.81577753940181
 20
50.28940701641408
 30
0.0
  0
VERTEX
  5
283
330
262
100
AcDbEntity
  8
DIBUJOS
 62
    29
100
AcDbVertex
100
AcDb2dVertex
 10
64.74063993498744
 20
50.2316086198425
 30
0.0
  0
VERTEX
  5
284
330
262
100
AcDbEntity
  8
DIBUJOS
 62
    29
100
AcDbVertex
100
AcDb2dVertex
 10
64.71751995410081
 20
50.20848863895652
 30
0.0
  0
VERTEX
  5
285
330
262
100
AcDbEntity
  8
DIBUJOS
 62
    29
100
AcDbVertex
100
AcDb2dVertex
 10
64.6978379464189
 20
50.06438311416689
 30
0.0
  0
VERTEX
  5
286
330
262
100
AcDbEntity
  8
DIBUJOS
 62
    29
100
AcDbVertex
100
AcDb2dVertex
 10
64.69140846983385
 20
50.01765779147171
 30
0.0
  0
VERTEX
  5
287
330
262
100
AcDbEntity
  8
DIBUJOS
 62
    29
100
AcDbVertex
100
AcDb2dVertex
 10
64.67990292692998
 20
49.43393972203108
 30
0.0
  0
VERTEX
  5
288
330
262
100
AcDbEntity
  8
DIBUJOS
 62
    29
100
AcDbVertex
100
AcDb2dVertex
 10
64.65694162173055
 20
46.8620401930427
 30
0.0
  0
VERTEX
  5
289
330
262
100
AcDbEntity
  8
DIBUJOS
 62
    29
100
AcDbVertex
100
AcDb2dVertex
 10
64.6539407844854
 20
46.8561567474961
 30
0.0
  0
VERTEX
  5
28A
330
262
100
AcDbEntity
  8
DIBUJOS
 62
    29
100
AcDbVertex
100
AcDb2dVertex
 10
64.65709096355229
 20
46.78080135292396
 30
0.0
  0
VERTEX
  5
28B
330
262
100
AcDbEntity
  8
DIBUJOS
 62
    29
100
AcDbVertex
100
AcDb2dVertex
 10
64.65972155752922
 20
46.71743997346697
 30
0.0
  0
SEQEND
  5
28C
330
262
100
AcDbEntity
  8
DIBUJOS
 62
    29
  0
POLYLINE
  5
28D
330
1F
100
AcDbEntity
  8
DIBUJOS
 62
    29
100
AcDb2dPolyline
 66
     1
 10
0.0
 20
0.0
 30
0.0
  0
VERTEX
  5
28E
330
28D
100
AcDbEntity
  8
DIBUJOS
 62
    29
100
AcDbVertex
100
AcDb2dVertex
 10
67.24332886313896
 20
46.45156797149443
 30
0.0
  0
VERTEX
  5
28F
330
28D
100
AcDbEntity
  8
DIBUJOS
 62
    29
100
AcDbVertex
100
AcDb2dVertex
 10
67.24332886313896
 20
46.4573456332502
 30
0.0
  0
SEQEND
  5
290
330
28D
100
AcDbEntity
  8
DIBUJOS
 62
    29
  0
POLYLINE
  5
291
330
1F
100
AcDbEntity
  8
DIBUJOS
 62
    29
100
AcDb2dPolyline
 66
     1
 10
0.0
 20
0.0
 30
0.0
  0
VERTEX
  5
292
330
291
100
AcDbEntity
  8
DIBUJOS
 62
    29
100
AcDbVertex
100
AcDb2dVertex
 10
65.72899967232483
 20
46.38220802883583
 30
0.0
  0
VERTEX
  5
293
330
291
100
AcDbEntity
  8
DIBUJOS
 62
    29
100
AcDbVertex
100
AcDb2dVertex
 10
65.68275971055222
 20
46.16835365039167
 30
0.0
  0
SEQEND
  5
294
330
291
100
AcDbEntity
  8
DIBUJOS
 62
    29
  0
POLYLINE
  5
295
330
1F
100
AcDbEntity
  8
DIBUJOS
 62
    29
100
AcDb2dPolyline
 66
     1
 10
0.0
 20
0.0
 30
0.0
  0
VERTEX
  5
296
330
295
100
AcDbEntity
  8
DIBUJOS
 62
    29
100
AcDbVertex
100
AcDb2dVertex
 10
63.51530428267523
 20
46.19147051999024
 30
0.0
  0
VERTEX
  5
297
330
295
100
AcDbEntity
  8
DIBUJOS
 62
    29
100
AcDbVertex
100
AcDb2dVertex
 10
63.47484509394645
 20
46.38220802883583
 30
0.0
  0
SEQEND
  5
298
330
295
100
AcDbEntity
  8
DIBUJOS
 62
    29
  0
POLYLINE
  5
299
330
1F
100
AcDbEntity
  8
DIBUJOS
 62
    29
100
AcDb2dPolyline
 66
     1
 10
0.0
 20
0.0
 30
0.0
  0
VERTEX
  5
29A
330
299
100
AcDbEntity
  8
DIBUJOS
 62
    29
100
AcDbVertex
100
AcDb2dVertex
 10
63.37658750864545
 20
46.02963376507447
 30
0.0
  0
VERTEX
  5
29B
330
299
100
AcDbEntity
  8
DIBUJOS
 62
    29
100
AcDbVertex
100
AcDb2dVertex
 10
63.31878911207387
 20
46.32865443570365
 30
0.0
  0
SEQEND
  5
29C
330
299
100
AcDbEntity
  8
DIBUJOS
 62
    29
  0
POLYLINE
  5
29D
330
1F
100
AcDbEntity
  8
DIBUJOS
 62
    29
100
AcDb2dPolyline
 66
     1
 10
0.0
 20
0.0
 30
0.0
  0
VERTEX
  5
29E
330
29D
100
AcDbEntity
  8
DIBUJOS
 62
    29
100
AcDbVertex
100
AcDb2dVertex
 10
65.83303803065554
 20
46.02963376507608
 30
0.0
  0
VERTEX
  5
29F
330
29D
100
AcDbEntity
  8
DIBUJOS
 62
    29
100
AcDbVertex
100
AcDb2dVertex
 10
65.8908364272406
 20
46.32865443570238
 30
0.0
  0
SEQEND
  5
2A0
330
29D
100
AcDbEntity
  8
DIBUJOS
 62
    29
  0
POLYLINE
  5
2A1
330
1F
100
AcDbEntity
  8
DIBUJOS
 62
    29
100
AcDb2dPolyline
 66
     1
 10
0.0
 20
0.0
 30
0.0
  0
VERTEX
  5
2A2
330
2A1
100
AcDbEntity
  8
DIBUJOS
 62
    29
100
AcDbVertex
100
AcDb2dVertex
 10
62.32464860169264
 20
46.54982555679543
 30
0.0
  0
VERTEX
  5
2A3
330
2A1
100
AcDbEntity
  8
DIBUJOS
 62
    29
100
AcDbVertex
100
AcDb2dVertex
 10
62.33042937473584
 20
46.55560321855056
 30
0.0
  0
VERTEX
  5
2A4
330
2A1
100
AcDbEntity
  8
DIBUJOS
 62
    29
100
AcDbVertex
100
AcDb2dVertex
 10
63.06447398925691
 20
46.55560321855056
 30
0.0
  0
VERTEX
  5
2A5
330
2A1
100
AcDbEntity
  8
DIBUJOS
 62
    29
100
AcDbVertex
100
AcDb2dVertex
 10
63.07603397970054
 20
46.54404478375159
 30
0.0
  0
VERTEX
  5
2A6
330
2A1
100
AcDbEntity
  8
DIBUJOS
 62
    29
100
AcDbVertex
100
AcDb2dVertex
 10
63.07871902121597
 20
46.46330374970766
 30
0.0
  0
VERTEX
  5
2A7
330
2A1
100
AcDbEntity
  8
DIBUJOS
 62
    29
100
AcDbVertex
100
AcDb2dVertex
 10
63.08874981362311
 20
46.43480435192601
 30
0.0
  0
VERTEX
  5
2A8
330
2A1
100
AcDbEntity
  8
DIBUJOS
 62
    29
100
AcDbVertex
100
AcDb2dVertex
 10
63.09221734406312
 20
46.42786929104664
 30
0.0
  0
VERTEX
  5
2A9
330
2A1
100
AcDbEntity
  8
DIBUJOS
 62
    29
100
AcDbVertex
100
AcDb2dVertex
 10
63.12227238582849
 20
46.39376646363479
 30
0.0
  0
VERTEX
  5
2AA
330
2A1
100
AcDbEntity
  8
DIBUJOS
 62
    29
100
AcDbVertex
100
AcDb2dVertex
 10
63.14597106627691
 20
46.38336542796007
 30
0.0
  0
VERTEX
  5
2AB
330
2A1
100
AcDbEntity
  8
DIBUJOS
 62
    29
100
AcDbVertex
100
AcDb2dVertex
 10
63.18608801332938
 20
46.37325374206529
 30
0.0
  0
VERTEX
  5
2AC
330
2A1
100
AcDbEntity
  8
DIBUJOS
 62
    29
100
AcDbVertex
100
AcDb2dVertex
 10
63.25565485663819
 20
46.36842502314018
 30
0.0
  0
VERTEX
  5
2AD
330
2A1
100
AcDbEntity
  8
DIBUJOS
 62
    29
100
AcDbVertex
100
AcDb2dVertex
 10
63.30633929327207
 20
46.39510120617332
 30
0.0
  0
VERTEX
  5
2AE
330
2A1
100
AcDbEntity
  8
DIBUJOS
 62
    29
100
AcDbVertex
100
AcDb2dVertex
 10
63.31878911207387
 20
46.40532800972181
 30
0.0
  0
SEQEND
  5
2AF
330
2A1
100
AcDbEntity
  8
DIBUJOS
 62
    29
  0
POLYLINE
  5
2B0
330
1F
100
AcDbEntity
  8
DIBUJOS
 62
    29
100
AcDb2dPolyline
 66
     1
 10
0.0
 20
0.0
 30
0.0
  0
VERTEX
  5
2B1
330
2B0
100
AcDbEntity
  8
DIBUJOS
 62
    29
100
AcDbVertex
100
AcDb2dVertex
 10
65.8908364272406
 20
46.39954723667862
 30
0.0
  0
VERTEX
  5
2B2
330
2B0
100
AcDbEntity
  8
DIBUJOS
 62
    29
100
AcDbVertex
100
AcDb2dVertex
 10
65.91915692596459
 20
46.37527296795645
 30
0.0
  0
VERTEX
  5
2B3
330
2B0
100
AcDbEntity
  8
DIBUJOS
 62
    29
100
AcDbVertex
100
AcDb2dVertex
 10
65.96043127214129
 20
46.36804233471973
 30
0.0
  0
VERTEX
  5
2B4
330
2B0
100
AcDbEntity
  8
DIBUJOS
 62
    29
100
AcDbVertex
100
AcDb2dVertex
 10
66.0242826794536
 20
46.37438936217377
 30
0.0
  0
VERTEX
  5
2B5
330
2B0
100
AcDbEntity
  8
DIBUJOS
 62
    29
100
AcDbVertex
100
AcDb2dVertex
 10
66.07001238999916
 20
46.38798880187966
 30
0.0
  0
VERTEX
  5
2B6
330
2B0
100
AcDbEntity
  8
DIBUJOS
 62
    29
100
AcDbVertex
100
AcDb2dVertex
 10
66.11047157872794
 20
46.42844799060844
 30
0.0
  0
VERTEX
  5
2B7
330
2B0
100
AcDbEntity
  8
DIBUJOS
 62
    29
100
AcDbVertex
100
AcDb2dVertex
 10
66.12514130149498
 20
46.47487774094693
 30
0.0
  0
VERTEX
  5
2B8
330
2B0
100
AcDbEntity
  8
DIBUJOS
 62
    29
100
AcDbVertex
100
AcDb2dVertex
 10
66.12781078657073
 20
46.54982555679543
 30
0.0
  0
SEQEND
  5
2B9
330
2B0
100
AcDbEntity
  8
DIBUJOS
 62
    29
  0
POLYLINE
  5
2BA
330
1F
100
AcDbEntity
  8
DIBUJOS
 62
    29
100
AcDb2dPolyline
 66
     1
 10
0.0
 20
0.0
 30
0.0
  0
VERTEX
  5
2BB
330
2BA
100
AcDbEntity
  8
DIBUJOS
 62
    29
100
AcDbVertex
100
AcDb2dVertex
 10
64.52678400089926
 20
46.35908804794984
 30
0.0
  0
VERTEX
  5
2BC
330
2BA
100
AcDbEntity
  8
DIBUJOS
 62
    29
100
AcDbVertex
100
AcDb2dVertex
 10
64.341915936804
 20
46.36766586887604
 30
0.0
  0
VERTEX
  5
2BD
330
2BA
100
AcDbEntity
  8
DIBUJOS
 62
    29
100
AcDbVertex
100
AcDb2dVertex
 10
64.29009121312954
 20
46.3731852937299
 30
0.0
  0
VERTEX
  5
2BE
330
2BA
100
AcDbEntity
  8
DIBUJOS
 62
    29
100
AcDbVertex
100
AcDb2dVertex
 10
64.28402886852528
 20
46.37642725579263
 30
0.0
  0
SEQEND
  5
2BF
330
2BA
100
AcDbEntity
  8
DIBUJOS
 62
    29
  0
POLYLINE
  5
2C0
330
1F
100
AcDbEntity
  8
DIBUJOS
 62
    29
100
AcDb2dPolyline
 66
     1
 10
0.0
 20
0.0
 30
0.0
  0
VERTEX
  5
2C1
330
2C0
100
AcDbEntity
  8
DIBUJOS
 62
    29
100
AcDbVertex
100
AcDb2dVertex
 10
64.53256477394308
 20
46.35908804794984
 30
0.0
  0
VERTEX
  5
2C2
330
2C0
100
AcDbEntity
  8
DIBUJOS
 62
    29
100
AcDbVertex
100
AcDb2dVertex
 10
64.52678400089926
 20
46.35908804794984
 30
0.0
  0
SEQEND
  5
2C3
330
2C0
100
AcDbEntity
  8
DIBUJOS
 62
    29
  0
POLYLINE
  5
2C4
330
1F
100
AcDbEntity
  8
DIBUJOS
 62
    29
100
AcDb2dPolyline
 66
     1
 10
0.0
 20
0.0
 30
0.0
  0
VERTEX
  5
2C5
330
2C4
100
AcDbEntity
  8
DIBUJOS
 62
    29
100
AcDbVertex
100
AcDb2dVertex
 10
64.53834399134224
 20
46.35908804794984
 30
0.0
  0
VERTEX
  5
2C6
330
2C4
100
AcDbEntity
  8
DIBUJOS
 62
    29
100
AcDbVertex
100
AcDb2dVertex
 10
64.53256477394308
 20
46.35908804794984
 30
0.0
  0
SEQEND
  5
2C7
330
2C4
100
AcDbEntity
  8
DIBUJOS
 62
    29
  0
POLYLINE
  5
2C8
330
1F
100
AcDbEntity
  8
DIBUJOS
 62
    29
100
AcDb2dPolyline
 66
     1
 10
0.0
 20
0.0
 30
0.0
  0
VERTEX
  5
2C9
330
2C8
100
AcDbEntity
  8
DIBUJOS
 62
    29
100
AcDbVertex
100
AcDb2dVertex
 10
64.67128154797223
 20
46.35908804794984
 30
0.0
  0
VERTEX
  5
2CA
330
2C8
100
AcDbEntity
  8
DIBUJOS
 62
    29
100
AcDbVertex
100
AcDb2dVertex
 10
64.66550077492903
 20
46.36486882099303
 30
0.0
  0
VERTEX
  5
2CB
330
2C8
100
AcDbEntity
  8
DIBUJOS
 62
    29
100
AcDbVertex
100
AcDb2dVertex
 10
64.54412320874141
 20
46.36486882099303
 30
0.0
  0
VERTEX
  5
2CC
330
2C8
100
AcDbEntity
  8
DIBUJOS
 62
    29
100
AcDbVertex
100
AcDb2dVertex
 10
64.53834399134224
 20
46.35908804794984
 30
0.0
  0
SEQEND
  5
2CD
330
2C8
100
AcDbEntity
  8
DIBUJOS
 62
    29
  0
POLYLINE
  5
2CE
330
1F
100
AcDbEntity
  8
DIBUJOS
 62
    29
100
AcDb2dPolyline
 66
     1
 10
0.0
 20
0.0
 30
0.0
  0
VERTEX
  5
2CF
330
2CE
100
AcDbEntity
  8
DIBUJOS
 62
    29
100
AcDbVertex
100
AcDb2dVertex
 10
64.67706076537138
 20
46.35908804794984
 30
0.0
  0
VERTEX
  5
2D0
330
2CE
100
AcDbEntity
  8
DIBUJOS
 62
    29
100
AcDbVertex
100
AcDb2dVertex
 10
64.67128154797223
 20
46.35908804794984
 30
0.0
  0
SEQEND
  5
2D1
330
2CE
100
AcDbEntity
  8
DIBUJOS
 62
    29
  0
POLYLINE
  5
2D2
330
1F
100
AcDbEntity
  8
DIBUJOS
 62
    29
100
AcDb2dPolyline
 66
     1
 10
0.0
 20
0.0
 30
0.0
  0
VERTEX
  5
2D3
330
2D2
100
AcDbEntity
  8
DIBUJOS
 62
    29
100
AcDbVertex
100
AcDb2dVertex
 10
64.68284153841586
 20
46.35908804794984
 30
0.0
  0
VERTEX
  5
2D4
330
2D2
100
AcDbEntity
  8
DIBUJOS
 62
    29
100
AcDbVertex
100
AcDb2dVertex
 10
64.67706076537138
 20
46.35908804794984
 30
0.0
  0
SEQEND
  5
2D5
330
2D2
100
AcDbEntity
  8
DIBUJOS
 62
    29
  0
POLYLINE
  5
2D6
330
1F
100
AcDbEntity
  8
DIBUJOS
 62
    29
100
AcDb2dPolyline
 66
     1
 10
0.0
 20
0.0
 30
0.0
  0
VERTEX
  5
2D7
330
2D6
100
AcDbEntity
  8
DIBUJOS
 62
    29
100
AcDbVertex
100
AcDb2dVertex
 10
64.68284153841586
 20
46.35908804794984
 30
0.0
  0
VERTEX
  5
2D8
330
2D6
100
AcDbEntity
  8
DIBUJOS
 62
    29
100
AcDbVertex
100
AcDb2dVertex
 10
64.86770960251047
 20
46.36766586887604
 30
0.0
  0
VERTEX
  5
2D9
330
2D6
100
AcDbEntity
  8
DIBUJOS
 62
    29
100
AcDbVertex
100
AcDb2dVertex
 10
64.91953432618493
 20
46.3731852937299
 30
0.0
  0
VERTEX
  5
2DA
330
2D6
100
AcDbEntity
  8
DIBUJOS
 62
    29
100
AcDbVertex
100
AcDb2dVertex
 10
64.92559667078919
 20
46.37642725579263
 30
0.0
  0
SEQEND
  5
2DB
330
2D6
100
AcDbEntity
  8
DIBUJOS
 62
    29
  0
POLYLINE
  5
2DC
330
1F
100
AcDbEntity
  8
DIBUJOS
 62
    29
100
AcDb2dPolyline
 66
     1
 10
0.0
 20
0.0
 30
0.0
  0
VERTEX
  5
2DD
330
2DC
100
AcDbEntity
  8
DIBUJOS
 62
    29
100
AcDbVertex
100
AcDb2dVertex
 10
64.53256477394308
 20
46.35330727490601
 30
0.0
  0
VERTEX
  5
2DE
330
2DC
100
AcDbEntity
  8
DIBUJOS
 62
    29
100
AcDbVertex
100
AcDb2dVertex
 10
64.53256477394308
 20
46.35908804794984
 30
0.0
  0
SEQEND
  5
2DF
330
2DC
100
AcDbEntity
  8
DIBUJOS
 62
    29
  0
POLYLINE
  5
2E0
330
1F
100
AcDbEntity
  8
DIBUJOS
 62
    29
100
AcDb2dPolyline
 66
     1
 10
0.0
 20
0.0
 30
0.0
  0
VERTEX
  5
2E1
330
2E0
100
AcDbEntity
  8
DIBUJOS
 62
    29
100
AcDbVertex
100
AcDb2dVertex
 10
64.67706076537138
 20
46.35330727490601
 30
0.0
  0
VERTEX
  5
2E2
330
2E0
100
AcDbEntity
  8
DIBUJOS
 62
    29
100
AcDbVertex
100
AcDb2dVertex
 10
64.67706076537138
 20
46.35908804794984
 30
0.0
  0
SEQEND
  5
2E3
330
2E0
100
AcDbEntity
  8
DIBUJOS
 62
    29
  0
POLYLINE
  5
2E4
330
1F
100
AcDbEntity
  8
DIBUJOS
 62
    29
100
AcDb2dPolyline
 66
     1
 10
0.0
 20
0.0
 30
0.0
  0
VERTEX
  5
2E5
330
2E4
100
AcDbEntity
  8
DIBUJOS
 62
    29
100
AcDbVertex
100
AcDb2dVertex
 10
64.52678400089926
 20
46.17991208519128
 30
0.0
  0
VERTEX
  5
2E6
330
2E4
100
AcDbEntity
  8
DIBUJOS
 62
    29
100
AcDbVertex
100
AcDb2dVertex
 10
64.53256477394308
 20
46.35330727490601
 30
0.0
  0
SEQEND
  5
2E7
330
2E4
100
AcDbEntity
  8
DIBUJOS
 62
    29
  0
POLYLINE
  5
2E8
330
1F
100
AcDbEntity
  8
DIBUJOS
 62
    29
100
AcDb2dPolyline
 66
     1
 10
0.0
 20
0.0
 30
0.0
  0
VERTEX
  5
2E9
330
2E8
100
AcDbEntity
  8
DIBUJOS
 62
    29
100
AcDbVertex
100
AcDb2dVertex
 10
64.68284153841586
 20
46.17991208519128
 30
0.0
  0
VERTEX
  5
2EA
330
2E8
100
AcDbEntity
  8
DIBUJOS
 62
    29
100
AcDbVertex
100
AcDb2dVertex
 10
64.67706076537138
 20
46.35330727490601
 30
0.0
  0
SEQEND
  5
2EB
330
2E8
100
AcDbEntity
  8
DIBUJOS
 62
    29
  0
POLYLINE
  5
2EC
330
1F
100
AcDbEntity
  8
DIBUJOS
 62
    29
100
AcDb2dPolyline
 66
     1
 10
0.0
 20
0.0
 30
0.0
  0
VERTEX
  5
2ED
330
2EC
100
AcDbEntity
  8
DIBUJOS
 62
    29
100
AcDbVertex
100
AcDb2dVertex
 10
64.52678400089926
 20
46.17413131214744
 30
0.0
  0
VERTEX
  5
2EE
330
2EC
100
AcDbEntity
  8
DIBUJOS
 62
    29
100
AcDbVertex
100
AcDb2dVertex
 10
64.52100478349945
 20
46.17413131214744
 30
0.0
  0
SEQEND
  5
2EF
330
2EC
100
AcDbEntity
  8
DIBUJOS
 62
    29
  0
POLYLINE
  5
2F0
330
1F
100
AcDbEntity
  8
DIBUJOS
 62
    29
100
AcDb2dPolyline
 66
     1
 10
0.0
 20
0.0
 30
0.0
  0
VERTEX
  5
2F1
330
2F0
100
AcDbEntity
  8
DIBUJOS
 62
    29
100
AcDbVertex
100
AcDb2dVertex
 10
64.52678400089926
 20
46.17413131214744
 30
0.0
  0
VERTEX
  5
2F2
330
2F0
100
AcDbEntity
  8
DIBUJOS
 62
    29
100
AcDbVertex
100
AcDb2dVertex
 10
64.52678400089926
 20
46.17991208519128
 30
0.0
  0
SEQEND
  5
2F3
330
2F0
100
AcDbEntity
  8
DIBUJOS
 62
    29
  0
POLYLINE
  5
2F4
330
1F
100
AcDbEntity
  8
DIBUJOS
 62
    29
100
AcDb2dPolyline
 66
     1
 10
0.0
 20
0.0
 30
0.0
  0
VERTEX
  5
2F5
330
2F4
100
AcDbEntity
  8
DIBUJOS
 62
    29
100
AcDbVertex
100
AcDb2dVertex
 10
64.53256477394308
 20
46.17413131214744
 30
0.0
  0
VERTEX
  5
2F6
330
2F4
100
AcDbEntity
  8
DIBUJOS
 62
    29
100
AcDbVertex
100
AcDb2dVertex
 10
64.52678400089926
 20
46.17413131214744
 30
0.0
  0
SEQEND
  5
2F7
330
2F4
100
AcDbEntity
  8
DIBUJOS
 62
    29
  0
POLYLINE
  5
2F8
330
1F
100
AcDbEntity
  8
DIBUJOS
 62
    29
100
AcDb2dPolyline
 66
     1
 10
0.0
 20
0.0
 30
0.0
  0
VERTEX
  5
2F9
330
2F8
100
AcDbEntity
  8
DIBUJOS
 62
    29
100
AcDbVertex
100
AcDb2dVertex
 10
64.68284153841586
 20
46.17413131214744
 30
0.0
  0
VERTEX
  5
2FA
330
2F8
100
AcDbEntity
  8
DIBUJOS
 62
    29
100
AcDbVertex
100
AcDb2dVertex
 10
64.67706076537138
 20
46.17413131214744
 30
0.0
  0
SEQEND
  5
2FB
330
2F8
100
AcDbEntity
  8
DIBUJOS
 62
    29
  0
POLYLINE
  5
2FC
330
1F
100
AcDbEntity
  8
DIBUJOS
 62
    29
100
AcDb2dPolyline
 66
     1
 10
0.0
 20
0.0
 30
0.0
  0
VERTEX
  5
2FD
330
2FC
100
AcDbEntity
  8
DIBUJOS
 62
    29
100
AcDbVertex
100
AcDb2dVertex
 10
64.68284153841586
 20
46.17413131214744
 30
0.0
  0
VERTEX
  5
2FE
330
2FC
100
AcDbEntity
  8
DIBUJOS
 62
    29
100
AcDbVertex
100
AcDb2dVertex
 10
64.68284153841586
 20
46.17991208519128
 30
0.0
  0
SEQEND
  5
2FF
330
2FC
100
AcDbEntity
  8
DIBUJOS
 62
    29
  0
POLYLINE
  5
300
330
1F
100
AcDbEntity
  8
DIBUJOS
 62
    29
100
AcDb2dPolyline
 66
     1
 10
0.0
 20
0.0
 30
0.0
  0
VERTEX
  5
301
330
300
100
AcDbEntity
  8
DIBUJOS
 62
    29
100
AcDbVertex
100
AcDb2dVertex
 10
64.68862075581502
 20
46.17413131214744
 30
0.0
  0
VERTEX
  5
302
330
300
100
AcDbEntity
  8
DIBUJOS
 62
    29
100
AcDbVertex
100
AcDb2dVertex
 10
64.68284153841586
 20
46.17413131214744
 30
0.0
  0
SEQEND
  5
303
330
300
100
AcDbEntity
  8
DIBUJOS
 62
    29
  0
POLYLINE
  5
304
330
1F
100
AcDbEntity
  8
DIBUJOS
 62
    29
100
AcDb2dPolyline
 66
     1
 10
0.0
 20
0.0
 30
0.0
  0
VERTEX
  5
305
330
304
100
AcDbEntity
  8
DIBUJOS
 62
    29
100
AcDbVertex
100
AcDb2dVertex
 10
63.51530428267523
 20
46.19147051999024
 30
0.0
  0
VERTEX
  5
306
330
304
100
AcDbEntity
  8
DIBUJOS
 62
    29
100
AcDbVertex
100
AcDb2dVertex
 10
63.53206634659961
 20
46.17875468606703
 30
0.0
  0
VERTEX
  5
307
330
304
100
AcDbEntity
  8
DIBUJOS
 62
    29
100
AcDbVertex
100
AcDb2dVertex
 10
63.55576347140401
 20
46.16835365039167
 30
0.0
  0
VERTEX
  5
308
330
304
100
AcDbEntity
  8
DIBUJOS
 62
    29
100
AcDbVertex
100
AcDb2dVertex
 10
64.51522401045627
 20
46.16835365039167
 30
0.0
  0
VERTEX
  5
309
330
304
100
AcDbEntity
  8
DIBUJOS
 62
    29
100
AcDbVertex
100
AcDb2dVertex
 10
64.52100478349945
 20
46.17413131214744
 30
0.0
  0
SEQEND
  5
30A
330
304
100
AcDbEntity
  8
DIBUJOS
 62
    29
  0
POLYLINE
  5
30B
330
1F
100
AcDbEntity
  8
DIBUJOS
 62
    29
100
AcDb2dPolyline
 66
     1
 10
0.0
 20
0.0
 30
0.0
  0
VERTEX
  5
30C
330
30B
100
AcDbEntity
  8
DIBUJOS
 62
    29
100
AcDbVertex
100
AcDb2dVertex
 10
64.53256477394308
 20
46.17413131214744
 30
0.0
  0
VERTEX
  5
30D
330
30B
100
AcDbEntity
  8
DIBUJOS
 62
    29
100
AcDbVertex
100
AcDb2dVertex
 10
64.53834399134224
 20
46.16835365039167
 30
0.0
  0
VERTEX
  5
30E
330
30B
100
AcDbEntity
  8
DIBUJOS
 62
    29
100
AcDbVertex
100
AcDb2dVertex
 10
64.67128154797223
 20
46.16835365039167
 30
0.0
  0
VERTEX
  5
30F
330
30B
100
AcDbEntity
  8
DIBUJOS
 62
    29
100
AcDbVertex
100
AcDb2dVertex
 10
64.67706076537138
 20
46.17413131214744
 30
0.0
  0
SEQEND
  5
310
330
30B
100
AcDbEntity
  8
DIBUJOS
 62
    29
  0
POLYLINE
  5
311
330
1F
100
AcDbEntity
  8
DIBUJOS
 62
    29
100
AcDb2dPolyline
 66
     1
 10
0.0
 20
0.0
 30
0.0
  0
VERTEX
  5
312
330
311
100
AcDbEntity
  8
DIBUJOS
 62
    29
100
AcDbVertex
100
AcDb2dVertex
 10
64.68862075581502
 20
46.17413131214744
 30
0.0
  0
VERTEX
  5
313
330
311
100
AcDbEntity
  8
DIBUJOS
 62
    29
100
AcDbVertex
100
AcDb2dVertex
 10
64.69440152885821
 20
46.16835365039167
 30
0.0
  0
VERTEX
  5
314
330
311
100
AcDbEntity
  8
DIBUJOS
 62
    29
100
AcDbVertex
100
AcDb2dVertex
 10
65.64808129486727
 20
46.16835365039167
 30
0.0
  0
VERTEX
  5
315
330
311
100
AcDbEntity
  8
DIBUJOS
 62
    29
100
AcDbVertex
100
AcDb2dVertex
 10
65.6642646592292
 20
46.17644299910724
 30
0.0
  0
VERTEX
  5
316
330
311
100
AcDbEntity
  8
DIBUJOS
 62
    29
100
AcDbVertex
100
AcDb2dVertex
 10
65.68275971055222
 20
46.18569285823447
 30
0.0
  0
SEQEND
  5
317
330
311
100
AcDbEntity
  8
DIBUJOS
 62
    29
  0
POLYLINE
  5
318
330
1F
100
AcDbEntity
  8
DIBUJOS
 62
    29
100
AcDb2dPolyline
 66
     1
 10
0.0
 20
0.0
 30
0.0
  0
VERTEX
  5
319
330
318
100
AcDbEntity
  8
DIBUJOS
 62
    29
100
AcDbVertex
100
AcDb2dVertex
 10
62.29574940340686
 20
46.04697608420533
 30
0.0
  0
VERTEX
  5
31A
330
318
100
AcDbEntity
  8
DIBUJOS
 62
    29
100
AcDbVertex
100
AcDb2dVertex
 10
62.28997018600705
 20
46.05275374596046
 30
0.0
  0
VERTEX
  5
31B
330
318
100
AcDbEntity
  8
DIBUJOS
 62
    29
100
AcDbVertex
100
AcDb2dVertex
 10
62.31638035391877
 20
46.50389672381981
 30
0.0
  0
VERTEX
  5
31C
330
318
100
AcDbEntity
  8
DIBUJOS
 62
    29
100
AcDbVertex
100
AcDb2dVertex
 10
62.31886938429349
 20
46.54404478375159
 30
0.0
  0
SEQEND
  5
31D
330
318
100
AcDbEntity
  8
DIBUJOS
 62
    29
  0
POLYLINE
  5
31E
330
1F
100
AcDbEntity
  8
DIBUJOS
 62
    29
100
AcDb2dPolyline
 66
     1
 10
0.0
 20
0.0
 30
0.0
  0
VERTEX
  5
31F
330
31E
100
AcDbEntity
  8
DIBUJOS
 62
    29
100
AcDbVertex
100
AcDb2dVertex
 10
62.30153017645069
 20
46.04697608420533
 30
0.0
  0
VERTEX
  5
320
330
31E
100
AcDbEntity
  8
DIBUJOS
 62
    29
100
AcDbVertex
100
AcDb2dVertex
 10
62.29574940340686
 20
46.04697608420533
 30
0.0
  0
SEQEND
  5
321
330
31E
100
AcDbEntity
  8
DIBUJOS
 62
    29
  0
POLYLINE
  5
322
330
1F
100
AcDbEntity
  8
DIBUJOS
 62
    29
100
AcDb2dPolyline
 66
     1
 10
0.0
 20
0.0
 30
0.0
  0
VERTEX
  5
323
330
322
100
AcDbEntity
  8
DIBUJOS
 62
    29
100
AcDbVertex
100
AcDb2dVertex
 10
66.91387458026358
 20
46.04697608420533
 30
0.0
  0
VERTEX
  5
324
330
322
100
AcDbEntity
  8
DIBUJOS
 62
    29
100
AcDbVertex
100
AcDb2dVertex
 10
66.87919616457863
 20
46.54982555679543
 30
0.0
  0
SEQEND
  5
325
330
322
100
AcDbEntity
  8
DIBUJOS
 62
    29
  0
POLYLINE
  5
326
330
1F
100
AcDbEntity
  8
DIBUJOS
 62
    29
100
AcDb2dPolyline
 66
     1
 10
0.0
 20
0.0
 30
0.0
  0
VERTEX
  5
327
330
326
100
AcDbEntity
  8
DIBUJOS
 62
    29
100
AcDbVertex
100
AcDb2dVertex
 10
62.29574940340686
 20
46.04119531116149
 30
0.0
  0
VERTEX
  5
328
330
326
100
AcDbEntity
  8
DIBUJOS
 62
    29
100
AcDbVertex
100
AcDb2dVertex
 10
62.29574940340686
 20
46.04697608420533
 30
0.0
  0
SEQEND
  5
329
330
326
100
AcDbEntity
  8
DIBUJOS
 62
    29
  0
POLYLINE
  5
32A
330
1F
100
AcDbEntity
  8
DIBUJOS
 62
    29
100
AcDb2dPolyline
 66
     1
 10
0.0
 20
0.0
 30
0.0
  0
VERTEX
  5
32B
330
32A
100
AcDbEntity
  8
DIBUJOS
 62
    29
100
AcDbVertex
100
AcDb2dVertex
 10
66.91387458026358
 20
46.04119531116149
 30
0.0
  0
VERTEX
  5
32C
330
32A
100
AcDbEntity
  8
DIBUJOS
 62
    29
100
AcDbVertex
100
AcDb2dVertex
 10
66.90809536286378
 20
46.04119531116149
 30
0.0
  0
SEQEND
  5
32D
330
32A
100
AcDbEntity
  8
DIBUJOS
 62
    29
  0
POLYLINE
  5
32E
330
1F
100
AcDbEntity
  8
DIBUJOS
 62
    29
100
AcDb2dPolyline
 66
     1
 10
0.0
 20
0.0
 30
0.0
  0
VERTEX
  5
32F
330
32E
100
AcDbEntity
  8
DIBUJOS
 62
    29
100
AcDbVertex
100
AcDb2dVertex
 10
66.91387458026358
 20
46.04119531116149
 30
0.0
  0
VERTEX
  5
330
330
32E
100
AcDbEntity
  8
DIBUJOS
 62
    29
100
AcDbVertex
100
AcDb2dVertex
 10
66.91387458026358
 20
46.04697608420533
 30
0.0
  0
SEQEND
  5
331
330
32E
100
AcDbEntity
  8
DIBUJOS
 62
    29
  0
POLYLINE
  5
332
330
1F
100
AcDbEntity
  8
DIBUJOS
 62
    29
100
AcDb2dPolyline
 66
     1
 10
0.0
 20
0.0
 30
0.0
  0
VERTEX
  5
333
330
332
100
AcDbEntity
  8
DIBUJOS
 62
    29
100
AcDbVertex
100
AcDb2dVertex
 10
66.91387458026358
 20
46.03541453811766
 30
0.0
  0
VERTEX
  5
334
330
332
100
AcDbEntity
  8
DIBUJOS
 62
    29
100
AcDbVertex
100
AcDb2dVertex
 10
66.91387458026358
 20
46.04119531116149
 30
0.0
  0
SEQEND
  5
335
330
332
100
AcDbEntity
  8
DIBUJOS
 62
    29
  0
POLYLINE
  5
336
330
1F
100
AcDbEntity
  8
DIBUJOS
 62
    29
100
AcDb2dPolyline
 66
     1
 10
0.0
 20
0.0
 30
0.0
  0
VERTEX
  5
337
330
336
100
AcDbEntity
  8
DIBUJOS
 62
    29
100
AcDbVertex
100
AcDb2dVertex
 10
63.47484509394645
 20
45.96222679652189
 30
0.0
  0
VERTEX
  5
338
330
336
100
AcDbEntity
  8
DIBUJOS
 62
    29
100
AcDbVertex
100
AcDb2dVertex
 10
63.37658750864545
 20
46.02963376507447
 30
0.0
  0
SEQEND
  5
339
330
336
100
AcDbEntity
  8
DIBUJOS
 62
    29
  0
POLYLINE
  5
33A
330
1F
100
AcDbEntity
  8
DIBUJOS
 62
    29
100
AcDb2dPolyline
 66
     1
 10
0.0
 20
0.0
 30
0.0
  0
VERTEX
  5
33B
330
33A
100
AcDbEntity
  8
DIBUJOS
 62
    29
100
AcDbVertex
100
AcDb2dVertex
 10
65.79835805934005
 20
46.01229455723168
 30
0.0
  0
VERTEX
  5
33C
330
33A
100
AcDbEntity
  8
DIBUJOS
 62
    29
100
AcDbVertex
100
AcDb2dVertex
 10
65.73189083666811
 20
45.95800665090196
 30
0.0
  0
VERTEX
  5
33D
330
33A
100
AcDbEntity
  8
DIBUJOS
 62
    29
100
AcDbVertex
100
AcDb2dVertex
 10
65.83303803065554
 20
46.02963376507608
 30
0.0
  0
SEQEND
  5
33E
330
33A
100
AcDbEntity
  8
DIBUJOS
 62
    29
  0
POLYLINE
  5
33F
330
1F
100
AcDbEntity
  8
DIBUJOS
 62
    29
100
AcDb2dPolyline
 66
     1
 10
0.0
 20
0.0
 30
0.0
  0
VERTEX
  5
340
330
33F
100
AcDbEntity
  8
DIBUJOS
 62
    29
100
AcDbVertex
100
AcDb2dVertex
 10
64.49210558521366
 20
45.95800665090196
 30
0.0
  0
VERTEX
  5
341
330
33F
100
AcDbEntity
  8
DIBUJOS
 62
    29
100
AcDbVertex
100
AcDb2dVertex
 10
63.47484509394645
 20
45.96222679652189
 30
0.0
  0
SEQEND
  5
342
330
33F
100
AcDbEntity
  8
DIBUJOS
 62
    29
  0
POLYLINE
  5
343
330
1F
100
AcDbEntity
  8
DIBUJOS
 62
    29
100
AcDb2dPolyline
 66
     1
 10
0.0
 20
0.0
 30
0.0
  0
VERTEX
  5
344
330
343
100
AcDbEntity
  8
DIBUJOS
 62
    29
100
AcDbVertex
100
AcDb2dVertex
 10
65.73189083666811
 20
45.95800665090196
 30
0.0
  0
VERTEX
  5
345
330
343
100
AcDbEntity
  8
DIBUJOS
 62
    29
100
AcDbVertex
100
AcDb2dVertex
 10
64.7146303454009
 20
45.96222679652189
 30
0.0
  0
SEQEND
  5
346
330
343
100
AcDbEntity
  8
DIBUJOS
 62
    29
  0
POLYLINE
  5
347
330
1F
100
AcDbEntity
  8
DIBUJOS
 62
    29
100
AcDb2dPolyline
 66
     1
 10
0.0
 20
0.0
 30
0.0
  0
VERTEX
  5
348
330
347
100
AcDbEntity
  8
DIBUJOS
 62
    29
100
AcDbVertex
100
AcDb2dVertex
 10
64.49788480261347
 20
45.94871538761627
 30
0.0
  0
VERTEX
  5
349
330
347
100
AcDbEntity
  8
DIBUJOS
 62
    29
100
AcDbVertex
100
AcDb2dVertex
 10
64.49210558521366
 20
45.94871538761627
 30
0.0
  0
SEQEND
  5
34A
330
347
100
AcDbEntity
  8
DIBUJOS
 62
    29
  0
POLYLINE
  5
34B
330
1F
100
AcDbEntity
  8
DIBUJOS
 62
    29
100
AcDb2dPolyline
 66
     1
 10
0.0
 20
0.0
 30
0.0
  0
VERTEX
  5
34C
330
34B
100
AcDbEntity
  8
DIBUJOS
 62
    29
100
AcDbVertex
100
AcDb2dVertex
 10
64.50366402001262
 20
45.94871538761627
 30
0.0
  0
VERTEX
  5
34D
330
34B
100
AcDbEntity
  8
DIBUJOS
 62
    29
100
AcDbVertex
100
AcDb2dVertex
 10
64.49788480261347
 20
45.94871538761627
 30
0.0
  0
SEQEND
  5
34E
330
34B
100
AcDbEntity
  8
DIBUJOS
 62
    29
  0
POLYLINE
  5
34F
330
1F
100
AcDbEntity
  8
DIBUJOS
 62
    29
100
AcDb2dPolyline
 66
     1
 10
0.0
 20
0.0
 30
0.0
  0
VERTEX
  5
350
330
34F
100
AcDbEntity
  8
DIBUJOS
 62
    29
100
AcDbVertex
100
AcDb2dVertex
 10
64.70595996365782
 20
45.94871538761627
 30
0.0
  0
VERTEX
  5
351
330
34F
100
AcDbEntity
  8
DIBUJOS
 62
    29
100
AcDbVertex
100
AcDb2dVertex
 10
64.50366402001262
 20
45.94871538761627
 30
0.0
  0
SEQEND
  5
352
330
34F
100
AcDbEntity
  8
DIBUJOS
 62
    29
  0
POLYLINE
  5
353
330
1F
100
AcDbEntity
  8
DIBUJOS
 62
    29
100
AcDb2dPolyline
 66
     1
 10
0.0
 20
0.0
 30
0.0
  0
VERTEX
  5
354
330
353
100
AcDbEntity
  8
DIBUJOS
 62
    29
100
AcDbVertex
100
AcDb2dVertex
 10
64.711740736701
 20
45.94871538761627
 30
0.0
  0
VERTEX
  5
355
330
353
100
AcDbEntity
  8
DIBUJOS
 62
    29
100
AcDbVertex
100
AcDb2dVertex
 10
64.70595996365782
 20
45.94871538761627
 30
0.0
  0
SEQEND
  5
356
330
353
100
AcDbEntity
  8
DIBUJOS
 62
    29
  0
POLYLINE
  5
357
330
1F
100
AcDbEntity
  8
DIBUJOS
 62
    29
100
AcDb2dPolyline
 66
     1
 10
0.0
 20
0.0
 30
0.0
  0
VERTEX
  5
358
330
357
100
AcDbEntity
  8
DIBUJOS
 62
    29
100
AcDbVertex
100
AcDb2dVertex
 10
64.71751995410081
 20
45.94871538761627
 30
0.0
  0
VERTEX
  5
359
330
357
100
AcDbEntity
  8
DIBUJOS
 62
    29
100
AcDbVertex
100
AcDb2dVertex
 10
64.711740736701
 20
45.94871538761627
 30
0.0
  0
SEQEND
  5
35A
330
357
100
AcDbEntity
  8
DIBUJOS
 62
    29
  0
POLYLINE
  5
35B
330
1F
100
AcDbEntity
  8
DIBUJOS
 62
    29
100
AcDb2dPolyline
 66
     1
 10
0.0
 20
0.0
 30
0.0
  0
VERTEX
  5
35C
330
35B
100
AcDbEntity
  8
DIBUJOS
 62
    29
100
AcDbVertex
100
AcDb2dVertex
 10
64.71751995410081
 20
45.94871538761627
 30
0.0
  0
VERTEX
  5
35D
330
35B
100
AcDbEntity
  8
DIBUJOS
 62
    29
100
AcDbVertex
100
AcDb2dVertex
 10
64.9140366803462
 20
45.95449616066011
 30
0.0
  0
SEQEND
  5
35E
330
35B
100
AcDbEntity
  8
DIBUJOS
 62
    29
  0
POLYLINE
  5
35F
330
1F
100
AcDbEntity
  8
DIBUJOS
 62
    29
100
AcDb2dPolyline
 66
     1
 10
0.0
 20
0.0
 30
0.0
  0
VERTEX
  5
360
330
35F
100
AcDbEntity
  8
DIBUJOS
 62
    29
100
AcDbVertex
100
AcDb2dVertex
 10
64.49788480261347
 20
45.94293772586114
 30
0.0
  0
VERTEX
  5
361
330
35F
100
AcDbEntity
  8
DIBUJOS
 62
    29
100
AcDbVertex
100
AcDb2dVertex
 10
64.49788480261347
 20
45.94871538761627
 30
0.0
  0
SEQEND
  5
362
330
35F
100
AcDbEntity
  8
DIBUJOS
 62
    29
  0
POLYLINE
  5
363
330
1F
100
AcDbEntity
  8
DIBUJOS
 62
    29
100
AcDb2dPolyline
 66
     1
 10
0.0
 20
0.0
 30
0.0
  0
VERTEX
  5
364
330
363
100
AcDbEntity
  8
DIBUJOS
 62
    29
100
AcDbVertex
100
AcDb2dVertex
 10
64.711740736701
 20
45.94293772586114
 30
0.0
  0
VERTEX
  5
365
330
363
100
AcDbEntity
  8
DIBUJOS
 62
    29
100
AcDbVertex
100
AcDb2dVertex
 10
64.711740736701
 20
45.94871538761627
 30
0.0
  0
SEQEND
  5
366
330
363
100
AcDbEntity
  8
DIBUJOS
 62
    29
  0
POLYLINE
  5
367
330
1F
100
AcDbEntity
  8
DIBUJOS
 62
    29
100
AcDb2dPolyline
 66
     1
 10
0.0
 20
0.0
 30
0.0
  0
VERTEX
  5
368
330
367
100
AcDbEntity
  8
DIBUJOS
 62
    29
100
AcDbVertex
100
AcDb2dVertex
 10
62.30153017645069
 20
46.04697608420533
 30
0.0
  0
VERTEX
  5
369
330
367
100
AcDbEntity
  8
DIBUJOS
 62
    29
100
AcDbVertex
100
AcDb2dVertex
 10
62.31991011011805
 20
46.03102139950809
 30
0.0
  0
VERTEX
  5
36A
330
367
100
AcDbEntity
  8
DIBUJOS
 62
    29
100
AcDbVertex
100
AcDb2dVertex
 10
62.40614567871265
 20
45.97877354067034
 30
0.0
  0
VERTEX
  5
36B
330
367
100
AcDbEntity
  8
DIBUJOS
 62
    29
100
AcDbVertex
100
AcDb2dVertex
 10
62.53214661881922
 20
45.92386241933229
 30
0.0
  0
VERTEX
  5
36C
330
367
100
AcDbEntity
  8
DIBUJOS
 62
    29
100
AcDbVertex
100
AcDb2dVertex
 10
62.67093184118375
 20
45.88309832438264
 30
0.0
  0
VERTEX
  5
36D
330
367
100
AcDbEntity
  8
DIBUJOS
 62
    29
100
AcDbVertex
100
AcDb2dVertex
 10
62.86252495422077
 20
45.8413261721311
 30
0.0
  0
VERTEX
  5
36E
330
367
100
AcDbEntity
  8
DIBUJOS
 62
    29
100
AcDbVertex
100
AcDb2dVertex
 10
62.93114596598697
 20
45.83077579463337
 30
0.0
  0
VERTEX
  5
36F
330
367
100
AcDbEntity
  8
DIBUJOS
 62
    29
100
AcDbVertex
100
AcDb2dVertex
 10
63.27853371270724
 20
45.78953256133661
 30
0.0
  0
VERTEX
  5
370
330
367
100
AcDbEntity
  8
DIBUJOS
 62
    29
100
AcDbVertex
100
AcDb2dVertex
 10
63.42262212541253
 20
45.77844704230863
 30
0.0
  0
VERTEX
  5
371
330
367
100
AcDbEntity
  8
DIBUJOS
 62
    29
100
AcDbVertex
100
AcDb2dVertex
 10
63.75795363125773
 20
45.76098649423535
 30
0.0
  0
VERTEX
  5
372
330
367
100
AcDbEntity
  8
DIBUJOS
 62
    29
100
AcDbVertex
100
AcDb2dVertex
 10
64.02393452830916
 20
45.75220021701556
 30
0.0
  0
VERTEX
  5
373
330
367
100
AcDbEntity
  8
DIBUJOS
 62
    29
100
AcDbVertex
100
AcDb2dVertex
 10
64.2379055800517
 20
45.75521505505569
 30
0.0
  0
VERTEX
  5
374
330
367
100
AcDbEntity
  8
DIBUJOS
 62
    29
100
AcDbVertex
100
AcDb2dVertex
 10
64.37708593598828
 20
45.76260436397833
 30
0.0
  0
VERTEX
  5
375
330
367
100
AcDbEntity
  8
DIBUJOS
 62
    29
100
AcDbVertex
100
AcDb2dVertex
 10
64.44586562344105
 20
45.81577938663033
 30
0.0
  0
VERTEX
  5
376
330
367
100
AcDbEntity
  8
DIBUJOS
 62
    29
100
AcDbVertex
100
AcDb2dVertex
 10
64.48054559477067
 20
45.85045780231592
 30
0.0
  0
VERTEX
  5
377
330
367
100
AcDbEntity
  8
DIBUJOS
 62
    29
100
AcDbVertex
100
AcDb2dVertex
 10
64.49584535335056
 20
45.9261056579567
 30
0.0
  0
VERTEX
  5
378
330
367
100
AcDbEntity
  8
DIBUJOS
 62
    29
100
AcDbVertex
100
AcDb2dVertex
 10
64.49788480261347
 20
45.94293772586114
 30
0.0
  0
SEQEND
  5
379
330
367
100
AcDbEntity
  8
DIBUJOS
 62
    29
  0
POLYLINE
  5
37A
330
1F
100
AcDbEntity
  8
DIBUJOS
 62
    29
100
AcDb2dPolyline
 66
     1
 10
0.0
 20
0.0
 30
0.0
  0
VERTEX
  5
37B
330
37A
100
AcDbEntity
  8
DIBUJOS
 62
    29
100
AcDbVertex
100
AcDb2dVertex
 10
64.711740736701
 20
45.94293772586114
 30
0.0
  0
VERTEX
  5
37C
330
37A
100
AcDbEntity
  8
DIBUJOS
 62
    29
100
AcDbVertex
100
AcDb2dVertex
 10
64.7290799445438
 20
45.84468014056014
 30
0.0
  0
VERTEX
  5
37D
330
37A
100
AcDbEntity
  8
DIBUJOS
 62
    29
100
AcDbVertex
100
AcDb2dVertex
 10
64.83253960332618
 20
45.76260436397833
 30
0.0
  0
VERTEX
  5
37E
330
37A
100
AcDbEntity
  8
DIBUJOS
 62
    29
100
AcDbVertex
100
AcDb2dVertex
 10
64.96593451928749
 20
45.75522127763181
 30
0.0
  0
VERTEX
  5
37F
330
37A
100
AcDbEntity
  8
DIBUJOS
 62
    29
100
AcDbVertex
100
AcDb2dVertex
 10
65.20303021884811
 20
45.75220021701556
 30
0.0
  0
VERTEX
  5
380
330
37A
100
AcDbEntity
  8
DIBUJOS
 62
    29
100
AcDbVertex
100
AcDb2dVertex
 10
65.44571845853072
 20
45.76079981695753
 30
0.0
  0
VERTEX
  5
381
330
37A
100
AcDbEntity
  8
DIBUJOS
 62
    29
100
AcDbVertex
100
AcDb2dVertex
 10
65.78700185825791
 20
45.77844704230863
 30
0.0
  0
VERTEX
  5
382
330
37A
100
AcDbEntity
  8
DIBUJOS
 62
    29
100
AcDbVertex
100
AcDb2dVertex
 10
65.98885755465547
 20
45.79526666506083
 30
0.0
  0
VERTEX
  5
383
330
37A
100
AcDbEntity
  8
DIBUJOS
 62
    29
100
AcDbVertex
100
AcDb2dVertex
 10
66.26613709396055
 20
45.82968373255709
 30
0.0
  0
VERTEX
  5
384
330
37A
100
AcDbEntity
  8
DIBUJOS
 62
    29
100
AcDbVertex
100
AcDb2dVertex
 10
66.34710058509435
 20
45.8413261721311
 30
0.0
  0
VERTEX
  5
385
330
37A
100
AcDbEntity
  8
DIBUJOS
 62
    29
100
AcDbVertex
100
AcDb2dVertex
 10
66.53189242263342
 20
45.88139956115202
 30
0.0
  0
VERTEX
  5
386
330
37A
100
AcDbEntity
  8
DIBUJOS
 62
    29
100
AcDbVertex
100
AcDb2dVertex
 10
66.67061075230723
 20
45.92185874988144
 30
0.0
  0
VERTEX
  5
387
330
37A
100
AcDbEntity
  8
DIBUJOS
 62
    29
100
AcDbVertex
100
AcDb2dVertex
 10
66.80347986060181
 20
45.97877354067034
 30
0.0
  0
VERTEX
  5
388
330
37A
100
AcDbEntity
  8
DIBUJOS
 62
    29
100
AcDbVertex
100
AcDb2dVertex
 10
66.90809536286378
 20
46.04119531116149
 30
0.0
  0
SEQEND
  5
389
330
37A
100
AcDbEntity
  8
DIBUJOS
 62
    29
  0
POLYLINE
  5
38A
330
1F
100
AcDbEntity
  8
DIBUJOS
 62
    29
100
AcDb2dPolyline
 66
     1
 10
0.0
 20
0.0
 30
0.0
  0
VERTEX
  5
38B
330
38A
100
AcDbEntity
  8
DIBUJOS
 62
    29
100
AcDbVertex
100
AcDb2dVertex
 10
61.76400073253033
 20
42.59060583440073
 30
0.0
  0
VERTEX
  5
38C
330
38A
100
AcDbEntity
  8
DIBUJOS
 62
    29
100
AcDbVertex
100
AcDb2dVertex
 10
61.81874073303022
 20
43.63083385344413
 30
0.0
  0
VERTEX
  5
38D
330
38A
100
AcDbEntity
  8
DIBUJOS
 62
    29
100
AcDbVertex
100
AcDb2dVertex
 10
61.97207667139734
 20
46.35330727490601
 30
0.0
  0
VERTEX
  5
38E
330
38A
100
AcDbEntity
  8
DIBUJOS
 62
    29
100
AcDbVertex
100
AcDb2dVertex
 10
61.97207667139734
 20
46.44578719845124
 30
0.0
  0
VERTEX
  5
38F
330
38A
100
AcDbEntity
  8
DIBUJOS
 62
    29
100
AcDbVertex
100
AcDb2dVertex
 10
61.91890164874535
 20
46.57236683811961
 30
0.0
  0
VERTEX
  5
390
330
38A
100
AcDbEntity
  8
DIBUJOS
 62
    29
100
AcDbVertex
100
AcDb2dVertex
 10
61.87755885423324
 20
46.71115206048414
 30
0.0
  0
VERTEX
  5
391
330
38A
100
AcDbEntity
  8
DIBUJOS
 62
    29
100
AcDbVertex
100
AcDb2dVertex
 10
61.83679631492761
 20
46.91356623307176
 30
0.0
  0
VERTEX
  5
392
330
38A
100
AcDbEntity
  8
DIBUJOS
 62
    29
100
AcDbVertex
100
AcDb2dVertex
 10
61.79543796397649
 20
47.20323336541936
 30
0.0
  0
VERTEX
  5
393
330
38A
100
AcDbEntity
  8
DIBUJOS
 62
    29
100
AcDbVertex
100
AcDb2dVertex
 10
61.78463090522151
 20
47.29511903296249
 30
0.0
  0
VERTEX
  5
394
330
38A
100
AcDbEntity
  8
DIBUJOS
 62
    29
100
AcDbVertex
100
AcDb2dVertex
 10
61.76098589449019
 20
47.64233565884395
 30
0.0
  0
VERTEX
  5
395
330
38A
100
AcDbEntity
  8
DIBUJOS
 62
    29
100
AcDbVertex
100
AcDb2dVertex
 10
61.75545635795013
 20
47.7750445358086
 30
0.0
  0
VERTEX
  5
396
330
38A
100
AcDbEntity
  8
DIBUJOS
 62
    29
100
AcDbVertex
100
AcDb2dVertex
 10
61.75244074208798
 20
48.35892750351126
 30
0.0
  0
VERTEX
  5
397
330
38A
100
AcDbEntity
  8
DIBUJOS
 62
    29
100
AcDbVertex
100
AcDb2dVertex
 10
61.76099600617638
 20
48.50909692854918
 30
0.0
  0
VERTEX
  5
398
330
38A
100
AcDbEntity
  8
DIBUJOS
 62
    29
100
AcDbVertex
100
AcDb2dVertex
 10
61.77246576926821
 20
48.69398210472812
 30
0.0
  0
VERTEX
  5
399
330
38A
100
AcDbEntity
  8
DIBUJOS
 62
    29
100
AcDbVertex
100
AcDb2dVertex
 10
61.79538973901285
 20
48.91348347083274
 30
0.0
  0
VERTEX
  5
39A
330
38A
100
AcDbEntity
  8
DIBUJOS
 62
    29
100
AcDbVertex
100
AcDb2dVertex
 10
61.80688750369657
 20
48.98858685107974
 30
0.0
  0
VERTEX
  5
39B
330
38A
100
AcDbEntity
  8
DIBUJOS
 62
    29
100
AcDbVertex
100
AcDb2dVertex
 10
61.83709966550446
 20
49.13972077538732
 30
0.0
  0
VERTEX
  5
39C
330
38A
100
AcDbEntity
  8
DIBUJOS
 62
    29
100
AcDbVertex
100
AcDb2dVertex
 10
61.88711206393732
 20
49.32358856040086
 30
0.0
  0
VERTEX
  5
39D
330
38A
100
AcDbEntity
  8
DIBUJOS
 62
    29
100
AcDbVertex
100
AcDb2dVertex
 10
61.93277332614813
 20
49.44496612658785
 30
0.0
  0
VERTEX
  5
39E
330
38A
100
AcDbEntity
  8
DIBUJOS
 62
    29
100
AcDbVertex
100
AcDb2dVertex
 10
61.96225044617435
 20
49.50854529620262
 30
0.0
  0
VERTEX
  5
39F
330
38A
100
AcDbEntity
  8
DIBUJOS
 62
    29
100
AcDbVertex
100
AcDb2dVertex
 10
62.03120903268478
 20
49.64117016839221
 30
0.0
  0
VERTEX
  5
3A0
330
38A
100
AcDbEntity
  8
DIBUJOS
 62
    29
100
AcDbVertex
100
AcDb2dVertex
 10
62.09206660315071
 20
49.72979831743359
 30
0.0
  0
VERTEX
  5
3A1
330
38A
100
AcDbEntity
  8
DIBUJOS
 62
    29
100
AcDbVertex
100
AcDb2dVertex
 10
62.15703262937708
 20
49.8154582977538
 30
0.0
  0
VERTEX
  5
3A2
330
38A
100
AcDbEntity
  8
DIBUJOS
 62
    29
100
AcDbVertex
100
AcDb2dVertex
 10
62.24951099727827
 20
49.90793511001097
 30
0.0
  0
VERTEX
  5
3A3
330
38A
100
AcDbEntity
  8
DIBUJOS
 62
    29
100
AcDbVertex
100
AcDb2dVertex
 10
62.35265952726366
 20
49.98440745696323
 30
0.0
  0
VERTEX
  5
3A4
330
38A
100
AcDbEntity
  8
DIBUJOS
 62
    29
100
AcDbVertex
100
AcDb2dVertex
 10
62.37030986390346
 20
49.99578854834855
 30
0.0
  0
VERTEX
  5
3A5
330
38A
100
AcDbEntity
  8
DIBUJOS
 62
    29
100
AcDbVertex
100
AcDb2dVertex
 10
62.48012743964745
 20
50.04838798272615
 30
0.0
  0
VERTEX
  5
3A6
330
38A
100
AcDbEntity
  8
DIBUJOS
 62
    29
100
AcDbVertex
100
AcDb2dVertex
 10
62.5668265901482
 20
50.08248769884995
 30
0.0
  0
VERTEX
  5
3A7
330
38A
100
AcDbEntity
  8
DIBUJOS
 62
    29
100
AcDbVertex
100
AcDb2dVertex
 10
62.77020992893821
 20
50.14287157572224
 30
0.0
  0
VERTEX
  5
3A8
330
38A
100
AcDbEntity
  8
DIBUJOS
 62
    29
100
AcDbVertex
100
AcDb2dVertex
 10
62.88485311231926
 20
50.17025402112377
 30
0.0
  0
VERTEX
  5
3A9
330
38A
100
AcDbEntity
  8
DIBUJOS
 62
    29
100
AcDbVertex
100
AcDb2dVertex
 10
63.22084265556988
 20
50.23490036251226
 30
0.0
  0
VERTEX
  5
3AA
330
38A
100
AcDbEntity
  8
DIBUJOS
 62
    29
100
AcDbVertex
100
AcDb2dVertex
 10
63.45141553990749
 20
50.26299840414639
 30
0.0
  0
VERTEX
  5
3AB
330
38A
100
AcDbEntity
  8
DIBUJOS
 62
    29
100
AcDbVertex
100
AcDb2dVertex
 10
63.62524319864971
 20
50.27508886918818
 30
0.0
  0
VERTEX
  5
3AC
330
38A
100
AcDbEntity
  8
DIBUJOS
 62
    29
100
AcDbVertex
100
AcDb2dVertex
 10
63.75216041306231
 20
50.28060829404205
 30
0.0
  0
VERTEX
  5
3AD
330
38A
100
AcDbEntity
  8
DIBUJOS
 62
    29
100
AcDbVertex
100
AcDb2dVertex
 10
63.93723693345115
 20
50.28940701641408
 30
0.0
  0
VERTEX
  5
3AE
330
38A
100
AcDbEntity
  8
DIBUJOS
 62
    29
100
AcDbVertex
100
AcDb2dVertex
 10
64.39384644426927
 20
50.28940701641408
 30
0.0
  0
VERTEX
  5
3AF
330
38A
100
AcDbEntity
  8
DIBUJOS
 62
    29
100
AcDbVertex
100
AcDb2dVertex
 10
64.49210558521366
 20
50.20848863895652
 30
0.0
  0
VERTEX
  5
3B0
330
38A
100
AcDbEntity
  8
DIBUJOS
 62
    29
100
AcDbVertex
100
AcDb2dVertex
 10
64.5060083754964
 20
50.11062307593951
 30
0.0
  0
VERTEX
  5
3B1
330
38A
100
AcDbEntity
  8
DIBUJOS
 62
    29
100
AcDbVertex
100
AcDb2dVertex
 10
64.52393094983309
 20
49.95414084761556
 30
0.0
  0
VERTEX
  5
3B2
330
38A
100
AcDbEntity
  8
DIBUJOS
 62
    29
100
AcDbVertex
100
AcDb2dVertex
 10
64.52963860760944
 20
49.49181901208964
 30
0.0
  0
VERTEX
  5
3B3
330
38A
100
AcDbEntity
  8
DIBUJOS
 62
    29
100
AcDbVertex
100
AcDb2dVertex
 10
64.54699026060383
 20
47.8155970631766
 30
0.0
  0
VERTEX
  5
3B4
330
38A
100
AcDbEntity
  8
DIBUJOS
 62
    29
100
AcDbVertex
100
AcDb2dVertex
 10
64.54412320874141
 20
47.08157267202728
 30
0.0
  0
SEQEND
  5
3B5
330
38A
100
AcDbEntity
  8
DIBUJOS
 62
    29
  0
POLYLINE
  5
3B6
330
1F
100
AcDbEntity
  8
DIBUJOS
 62
    29
100
AcDb2dPolyline
 66
     1
 10
0.0
 20
0.0
 30
0.0
  0
VERTEX
  5
3B7
330
3B6
100
AcDbEntity
  8
DIBUJOS
 62
    29
100
AcDbVertex
100
AcDb2dVertex
 10
61.76400073253033
 20
42.58482506135753
 30
0.0
  0
VERTEX
  5
3B8
330
3B6
100
AcDbEntity
  8
DIBUJOS
 62
    29
100
AcDbVertex
100
AcDb2dVertex
 10
61.76400073253033
 20
42.59060583440073
 30
0.0
  0
SEQEND
  5
3B9
330
3B6
100
AcDbEntity
  8
DIBUJOS
 62
    29
  0
POLYLINE
  5
3BA
330
1F
100
AcDbEntity
  8
DIBUJOS
 62
    29
100
AcDb2dPolyline
 66
     1
 10
0.0
 20
0.0
 30
0.0
  0
VERTEX
  5
3BB
330
3BA
100
AcDbEntity
  8
DIBUJOS
 62
    29
100
AcDbVertex
100
AcDb2dVertex
 10
61.76978072775215
 20
42.58482506135753
 30
0.0
  0
VERTEX
  5
3BC
330
3BA
100
AcDbEntity
  8
DIBUJOS
 62
    29
100
AcDbVertex
100
AcDb2dVertex
 10
61.76400073253033
 20
42.58482506135753
 30
0.0
  0
SEQEND
  5
3BD
330
3BA
100
AcDbEntity
  8
DIBUJOS
 62
    29
  0
POLYLINE
  5
3BE
330
1F
100
AcDbEntity
  8
DIBUJOS
 62
    29
100
AcDb2dPolyline
 66
     1
 10
0.0
 20
0.0
 30
0.0
  0
VERTEX
  5
3BF
330
3BE
100
AcDbEntity
  8
DIBUJOS
 62
    29
100
AcDbVertex
100
AcDb2dVertex
 10
67.43406481634051
 20
42.58482506135753
 30
0.0
  0
VERTEX
  5
3C0
330
3BE
100
AcDbEntity
  8
DIBUJOS
 62
    29
100
AcDbVertex
100
AcDb2dVertex
 10
67.42828404329731
 20
42.58482506135753
 30
0.0
  0
SEQEND
  5
3C1
330
3BE
100
AcDbEntity
  8
DIBUJOS
 62
    29
  0
POLYLINE
  5
3C2
330
1F
100
AcDbEntity
  8
DIBUJOS
 62
    29
100
AcDb2dPolyline
 66
     1
 10
0.0
 20
0.0
 30
0.0
  0
VERTEX
  5
3C3
330
3C2
100
AcDbEntity
  8
DIBUJOS
 62
    29
100
AcDbVertex
100
AcDb2dVertex
 10
67.43406481634051
 20
42.58482506135753
 30
0.0
  0
VERTEX
  5
3C4
330
3C2
100
AcDbEntity
  8
DIBUJOS
 62
    29
100
AcDbVertex
100
AcDb2dVertex
 10
67.4398440337403
 20
42.59060583440073
 30
0.0
  0
VERTEX
  5
3C5
330
3C2
100
AcDbEntity
  8
DIBUJOS
 62
    29
100
AcDbVertex
100
AcDb2dVertex
 10
67.43678563766797
 20
42.66589589192554
 30
0.0
  0
VERTEX
  5
3C6
330
3C2
100
AcDbEntity
  8
DIBUJOS
 62
    29
100
AcDbVertex
100
AcDb2dVertex
 10
67.43134399501304
 20
42.76385168229372
 30
0.0
  0
VERTEX
  5
3C7
330
3C2
100
AcDbEntity
  8
DIBUJOS
 62
    29
100
AcDbVertex
100
AcDb2dVertex
 10
67.23176887269595
 20
46.31862885922042
 30
0.0
  0
VERTEX
  5
3C8
330
3C2
100
AcDbEntity
  8
DIBUJOS
 62
    29
100
AcDbVertex
100
AcDb2dVertex
 10
67.23176887269595
 20
46.43422565236421
 30
0.0
  0
VERTEX
  5
3C9
330
3C2
100
AcDbEntity
  8
DIBUJOS
 62
    29
100
AcDbVertex
100
AcDb2dVertex
 10
67.23870393357534
 20
46.44520849888944
 30
0.0
  0
VERTEX
  5
3CA
330
3C2
100
AcDbEntity
  8
DIBUJOS
 62
    29
100
AcDbVertex
100
AcDb2dVertex
 10
67.24332886313896
 20
46.45156797149443
 30
0.0
  0
SEQEND
  5
3CB
330
3C2
100
AcDbEntity
  8
DIBUJOS
 62
    29
  0
POLYLINE
  5
3CC
330
1F
100
AcDbEntity
  8
DIBUJOS
 62
    29
100
AcDb2dPolyline
 66
     1
 10
0.0
 20
0.0
 30
0.0
  0
VERTEX
  5
3CD
330
3CC
100
AcDbEntity
  8
DIBUJOS
 62
    29
100
AcDbVertex
100
AcDb2dVertex
 10
61.76400073253033
 20
42.57904584395774
 30
0.0
  0
VERTEX
  5
3CE
330
3CC
100
AcDbEntity
  8
DIBUJOS
 62
    29
100
AcDbVertex
100
AcDb2dVertex
 10
61.76400073253033
 20
42.58482506135753
 30
0.0
  0
SEQEND
  5
3CF
330
3CC
100
AcDbEntity
  8
DIBUJOS
 62
    29
  0
POLYLINE
  5
3D0
330
1F
100
AcDbEntity
  8
DIBUJOS
 62
    29
100
AcDb2dPolyline
 66
     1
 10
0.0
 20
0.0
 30
0.0
  0
VERTEX
  5
3D1
330
3D0
100
AcDbEntity
  8
DIBUJOS
 62
    29
100
AcDbVertex
100
AcDb2dVertex
 10
61.97785666661915
 20
42.57904584395774
 30
0.0
  0
VERTEX
  5
3D2
330
3D0
100
AcDbEntity
  8
DIBUJOS
 62
    29
100
AcDbVertex
100
AcDb2dVertex
 10
62.20327181332767
 20
46.54982555679543
 30
0.0
  0
SEQEND
  5
3D3
330
3D0
100
AcDbEntity
  8
DIBUJOS
 62
    29
  0
POLYLINE
  5
3D4
330
1F
100
AcDbEntity
  8
DIBUJOS
 62
    29
100
AcDb2dPolyline
 66
     1
 10
0.0
 20
0.0
 30
0.0
  0
VERTEX
  5
3D5
330
3D4
100
AcDbEntity
  8
DIBUJOS
 62
    29
100
AcDbVertex
100
AcDb2dVertex
 10
62.0876742423625
 20
42.57904584395774
 30
0.0
  0
VERTEX
  5
3D6
330
3D4
100
AcDbEntity
  8
DIBUJOS
 62
    29
100
AcDbVertex
100
AcDb2dVertex
 10
62.29219320126035
 20
46.03496962393859
 30
0.0
  0
VERTEX
  5
3D7
330
3D4
100
AcDbEntity
  8
DIBUJOS
 62
    29
100
AcDbVertex
100
AcDb2dVertex
 10
62.29574940340686
 20
46.04119531116149
 30
0.0
  0
SEQEND
  5
3D8
330
3D4
100
AcDbEntity
  8
DIBUJOS
 62
    29
  0
POLYLINE
  5
3D9
330
1F
100
AcDbEntity
  8
DIBUJOS
 62
    29
100
AcDb2dPolyline
 66
     1
 10
0.0
 20
0.0
 30
0.0
  0
VERTEX
  5
3DA
330
3D9
100
AcDbEntity
  8
DIBUJOS
 62
    29
100
AcDbVertex
100
AcDb2dVertex
 10
67.11617052390814
 20
42.57904584395774
 30
0.0
  0
VERTEX
  5
3DB
330
3D9
100
AcDbEntity
  8
DIBUJOS
 62
    29
100
AcDbVertex
100
AcDb2dVertex
 10
67.11501468042856
 20
42.58424791743912
 30
0.0
  0
VERTEX
  5
3DC
330
3D9
100
AcDbEntity
  8
DIBUJOS
 62
    29
100
AcDbVertex
100
AcDb2dVertex
 10
66.91387458026358
 20
46.03541453811766
 30
0.0
  0
SEQEND
  5
3DD
330
3D9
100
AcDbEntity
  8
DIBUJOS
 62
    29
  0
POLYLINE
  5
3DE
330
1F
100
AcDbEntity
  8
DIBUJOS
 62
    29
100
AcDb2dPolyline
 66
     1
 10
0.0
 20
0.0
 30
0.0
  0
VERTEX
  5
3DF
330
3DE
100
AcDbEntity
  8
DIBUJOS
 62
    29
100
AcDbVertex
100
AcDb2dVertex
 10
67.43406481634051
 20
42.57904584395774
 30
0.0
  0
VERTEX
  5
3E0
330
3DE
100
AcDbEntity
  8
DIBUJOS
 62
    29
100
AcDbVertex
100
AcDb2dVertex
 10
67.43406481634051
 20
42.58482506135753
 30
0.0
  0
SEQEND
  5
3E1
330
3DE
100
AcDbEntity
  8
DIBUJOS
 62
    29
  0
POLYLINE
  5
3E2
330
1F
100
AcDbEntity
  8
DIBUJOS
 62
    29
100
AcDb2dPolyline
 66
     1
 10
0.0
 20
0.0
 30
0.0
  0
VERTEX
  5
3E3
330
3E2
100
AcDbEntity
  8
DIBUJOS
 62
    29
100
AcDbVertex
100
AcDb2dVertex
 10
61.97207667139734
 20
42.57326662655793
 30
0.0
  0
VERTEX
  5
3E4
330
3E2
100
AcDbEntity
  8
DIBUJOS
 62
    29
100
AcDbVertex
100
AcDb2dVertex
 10
61.96109460269413
 20
42.57499961395592
 30
0.0
  0
VERTEX
  5
3E5
330
3E2
100
AcDbEntity
  8
DIBUJOS
 62
    29
100
AcDbVertex
100
AcDb2dVertex
 10
61.89103306459857
 20
42.58207312715011
 30
0.0
  0
VERTEX
  5
3E6
330
3E2
100
AcDbEntity
  8
DIBUJOS
 62
    29
100
AcDbVertex
100
AcDb2dVertex
 10
61.76978072775215
 20
42.58482506135753
 30
0.0
  0
SEQEND
  5
3E7
330
3E2
100
AcDbEntity
  8
DIBUJOS
 62
    29
  0
POLYLINE
  5
3E8
330
1F
100
AcDbEntity
  8
DIBUJOS
 62
    29
100
AcDb2dPolyline
 66
     1
 10
0.0
 20
0.0
 30
0.0
  0
VERTEX
  5
3E9
330
3E8
100
AcDbEntity
  8
DIBUJOS
 62
    29
100
AcDbVertex
100
AcDb2dVertex
 10
61.97785666661915
 20
42.57326662655793
 30
0.0
  0
VERTEX
  5
3EA
330
3E8
100
AcDbEntity
  8
DIBUJOS
 62
    29
100
AcDbVertex
100
AcDb2dVertex
 10
61.97207667139734
 20
42.57326662655793
 30
0.0
  0
SEQEND
  5
3EB
330
3E8
100
AcDbEntity
  8
DIBUJOS
 62
    29
  0
POLYLINE
  5
3EC
330
1F
100
AcDbEntity
  8
DIBUJOS
 62
    29
100
AcDb2dPolyline
 66
     1
 10
0.0
 20
0.0
 30
0.0
  0
VERTEX
  5
3ED
330
3EC
100
AcDbEntity
  8
DIBUJOS
 62
    29
100
AcDbVertex
100
AcDb2dVertex
 10
61.97785666661915
 20
42.57326662655793
 30
0.0
  0
VERTEX
  5
3EE
330
3EC
100
AcDbEntity
  8
DIBUJOS
 62
    29
100
AcDbVertex
100
AcDb2dVertex
 10
61.97785666661915
 20
42.57904584395774
 30
0.0
  0
SEQEND
  5
3EF
330
3EC
100
AcDbEntity
  8
DIBUJOS
 62
    29
  0
POLYLINE
  5
3F0
330
1F
100
AcDbEntity
  8
DIBUJOS
 62
    29
100
AcDb2dPolyline
 66
     1
 10
0.0
 20
0.0
 30
0.0
  0
VERTEX
  5
3F1
330
3F0
100
AcDbEntity
  8
DIBUJOS
 62
    29
100
AcDbVertex
100
AcDb2dVertex
 10
62.0876742423625
 20
42.57326662655793
 30
0.0
  0
VERTEX
  5
3F2
330
3F0
100
AcDbEntity
  8
DIBUJOS
 62
    29
100
AcDbVertex
100
AcDb2dVertex
 10
62.08189424714133
 20
42.57326662655793
 30
0.0
  0
SEQEND
  5
3F3
330
3F0
100
AcDbEntity
  8
DIBUJOS
 62
    29
  0
POLYLINE
  5
3F4
330
1F
100
AcDbEntity
  8
DIBUJOS
 62
    29
100
AcDb2dPolyline
 66
     1
 10
0.0
 20
0.0
 30
0.0
  0
VERTEX
  5
3F5
330
3F4
100
AcDbEntity
  8
DIBUJOS
 62
    29
100
AcDbVertex
100
AcDb2dVertex
 10
62.0876742423625
 20
42.57326662655793
 30
0.0
  0
VERTEX
  5
3F6
330
3F4
100
AcDbEntity
  8
DIBUJOS
 62
    29
100
AcDbVertex
100
AcDb2dVertex
 10
62.0876742423625
 20
42.57904584395774
 30
0.0
  0
SEQEND
  5
3F7
330
3F4
100
AcDbEntity
  8
DIBUJOS
 62
    29
  0
POLYLINE
  5
3F8
330
1F
100
AcDbEntity
  8
DIBUJOS
 62
    29
100
AcDb2dPolyline
 66
     1
 10
0.0
 20
0.0
 30
0.0
  0
VERTEX
  5
3F9
330
3F8
100
AcDbEntity
  8
DIBUJOS
 62
    29
100
AcDbVertex
100
AcDb2dVertex
 10
67.11617052390814
 20
42.57326662655793
 30
0.0
  0
VERTEX
  5
3FA
330
3F8
100
AcDbEntity
  8
DIBUJOS
 62
    29
100
AcDbVertex
100
AcDb2dVertex
 10
67.11617052390814
 20
42.57904584395774
 30
0.0
  0
SEQEND
  5
3FB
330
3F8
100
AcDbEntity
  8
DIBUJOS
 62
    29
  0
POLYLINE
  5
3FC
330
1F
100
AcDbEntity
  8
DIBUJOS
 62
    29
100
AcDb2dPolyline
 66
     1
 10
0.0
 20
0.0
 30
0.0
  0
VERTEX
  5
3FD
330
3FC
100
AcDbEntity
  8
DIBUJOS
 62
    29
100
AcDbVertex
100
AcDb2dVertex
 10
67.12195129695196
 20
42.57326662655793
 30
0.0
  0
VERTEX
  5
3FE
330
3FC
100
AcDbEntity
  8
DIBUJOS
 62
    29
100
AcDbVertex
100
AcDb2dVertex
 10
67.11617052390814
 20
42.57326662655793
 30
0.0
  0
SEQEND
  5
3FF
330
3FC
100
AcDbEntity
  8
DIBUJOS
 62
    29
  0
POLYLINE
  5
400
330
1F
100
AcDbEntity
  8
DIBUJOS
 62
    29
100
AcDb2dPolyline
 66
     1
 10
0.0
 20
0.0
 30
0.0
  0
VERTEX
  5
401
330
400
100
AcDbEntity
  8
DIBUJOS
 62
    29
100
AcDbVertex
100
AcDb2dVertex
 10
67.22598809965213
 20
42.57326662655793
 30
0.0
  0
VERTEX
  5
402
330
400
100
AcDbEntity
  8
DIBUJOS
 62
    29
100
AcDbVertex
100
AcDb2dVertex
 10
67.00057373076498
 20
46.54404478375159
 30
0.0
  0
SEQEND
  5
403
330
400
100
AcDbEntity
  8
DIBUJOS
 62
    29
  0
POLYLINE
  5
404
330
1F
100
AcDbEntity
  8
DIBUJOS
 62
    29
100
AcDb2dPolyline
 66
     1
 10
0.0
 20
0.0
 30
0.0
  0
VERTEX
  5
405
330
404
100
AcDbEntity
  8
DIBUJOS
 62
    29
100
AcDbVertex
100
AcDb2dVertex
 10
67.23176887269595
 20
42.57326662655793
 30
0.0
  0
VERTEX
  5
406
330
404
100
AcDbEntity
  8
DIBUJOS
 62
    29
100
AcDbVertex
100
AcDb2dVertex
 10
67.22598809965213
 20
42.57326662655793
 30
0.0
  0
SEQEND
  5
407
330
404
100
AcDbEntity
  8
DIBUJOS
 62
    29
  0
POLYLINE
  5
408
330
1F
100
AcDbEntity
  8
DIBUJOS
 62
    29
100
AcDb2dPolyline
 66
     1
 10
0.0
 20
0.0
 30
0.0
  0
VERTEX
  5
409
330
408
100
AcDbEntity
  8
DIBUJOS
 62
    29
100
AcDbVertex
100
AcDb2dVertex
 10
67.23176887269595
 20
42.57326662655793
 30
0.0
  0
VERTEX
  5
40A
330
408
100
AcDbEntity
  8
DIBUJOS
 62
    29
100
AcDbVertex
100
AcDb2dVertex
 10
67.23697094617735
 20
42.57442247003815
 30
0.0
  0
VERTEX
  5
40B
330
408
100
AcDbEntity
  8
DIBUJOS
 62
    29
100
AcDbVertex
100
AcDb2dVertex
 10
67.3070324842729
 20
42.58207312715011
 30
0.0
  0
VERTEX
  5
40C
330
408
100
AcDbEntity
  8
DIBUJOS
 62
    29
100
AcDbVertex
100
AcDb2dVertex
 10
67.42828404329731
 20
42.58482506135753
 30
0.0
  0
SEQEND
  5
40D
330
408
100
AcDbEntity
  8
DIBUJOS
 62
    29
  0
POLYLINE
  5
40E
330
1F
100
AcDbEntity
  8
DIBUJOS
 62
    29
100
AcDb2dPolyline
 66
     1
 10
0.0
 20
0.0
 30
0.0
  0
VERTEX
  5
40F
330
40E
100
AcDbEntity
  8
DIBUJOS
 62
    29
100
AcDbVertex
100
AcDb2dVertex
 10
61.97785666661915
 20
42.56748585351474
 30
0.0
  0
VERTEX
  5
410
330
40E
100
AcDbEntity
  8
DIBUJOS
 62
    29
100
AcDbVertex
100
AcDb2dVertex
 10
61.97785666661915
 20
42.57326662655793
 30
0.0
  0
SEQEND
  5
411
330
40E
100
AcDbEntity
  8
DIBUJOS
 62
    29
  0
POLYLINE
  5
412
330
1F
100
AcDbEntity
  8
DIBUJOS
 62
    29
100
AcDb2dPolyline
 66
     1
 10
0.0
 20
0.0
 30
0.0
  0
VERTEX
  5
413
330
412
100
AcDbEntity
  8
DIBUJOS
 62
    29
100
AcDbVertex
100
AcDb2dVertex
 10
62.0876742423625
 20
42.56748585351474
 30
0.0
  0
VERTEX
  5
414
330
412
100
AcDbEntity
  8
DIBUJOS
 62
    29
100
AcDbVertex
100
AcDb2dVertex
 10
62.0876742423625
 20
42.57326662655793
 30
0.0
  0
SEQEND
  5
415
330
412
100
AcDbEntity
  8
DIBUJOS
 62
    29
  0
POLYLINE
  5
416
330
1F
100
AcDbEntity
  8
DIBUJOS
 62
    29
100
AcDb2dPolyline
 66
     1
 10
0.0
 20
0.0
 30
0.0
  0
VERTEX
  5
417
330
416
100
AcDbEntity
  8
DIBUJOS
 62
    29
100
AcDbVertex
100
AcDb2dVertex
 10
67.11617052390814
 20
42.56748585351474
 30
0.0
  0
VERTEX
  5
418
330
416
100
AcDbEntity
  8
DIBUJOS
 62
    29
100
AcDbVertex
100
AcDb2dVertex
 10
67.11617052390814
 20
42.57326662655793
 30
0.0
  0
SEQEND
  5
419
330
416
100
AcDbEntity
  8
DIBUJOS
 62
    29
  0
POLYLINE
  5
41A
330
1F
100
AcDbEntity
  8
DIBUJOS
 62
    29
100
AcDb2dPolyline
 66
     1
 10
0.0
 20
0.0
 30
0.0
  0
VERTEX
  5
41B
330
41A
100
AcDbEntity
  8
DIBUJOS
 62
    29
100
AcDbVertex
100
AcDb2dVertex
 10
67.22598809965213
 20
42.56748585351474
 30
0.0
  0
VERTEX
  5
41C
330
41A
100
AcDbEntity
  8
DIBUJOS
 62
    29
100
AcDbVertex
100
AcDb2dVertex
 10
67.22598809965213
 20
42.57326662655793
 30
0.0
  0
SEQEND
  5
41D
330
41A
100
AcDbEntity
  8
DIBUJOS
 62
    29
  0
POLYLINE
  5
41E
330
1F
100
AcDbEntity
  8
DIBUJOS
 62
    29
100
AcDb2dPolyline
 66
     1
 10
0.0
 20
0.0
 30
0.0
  0
VERTEX
  5
41F
330
41E
100
AcDbEntity
  8
DIBUJOS
 62
    29
100
AcDbVertex
100
AcDb2dVertex
 10
61.97785666661915
 20
42.56170663611494
 30
0.0
  0
VERTEX
  5
420
330
41E
100
AcDbEntity
  8
DIBUJOS
 62
    29
100
AcDbVertex
100
AcDb2dVertex
 10
61.97785666661915
 20
42.56748585351474
 30
0.0
  0
SEQEND
  5
421
330
41E
100
AcDbEntity
  8
DIBUJOS
 62
    29
  0
POLYLINE
  5
422
330
1F
100
AcDbEntity
  8
DIBUJOS
 62
    29
100
AcDb2dPolyline
 66
     1
 10
0.0
 20
0.0
 30
0.0
  0
VERTEX
  5
423
330
422
100
AcDbEntity
  8
DIBUJOS
 62
    29
100
AcDbVertex
100
AcDb2dVertex
 10
67.22020888225296
 20
42.56170663611494
 30
0.0
  0
VERTEX
  5
424
330
422
100
AcDbEntity
  8
DIBUJOS
 62
    29
100
AcDbVertex
100
AcDb2dVertex
 10
67.22598809965213
 20
42.56748585351474
 30
0.0
  0
SEQEND
  5
425
330
422
100
AcDbEntity
  8
DIBUJOS
 62
    29
  0
POLYLINE
  5
426
330
1F
100
AcDbEntity
  8
DIBUJOS
 62
    29
100
AcDb2dPolyline
 66
     1
 10
0.0
 20
0.0
 30
0.0
  0
VERTEX
  5
427
330
426
100
AcDbEntity
  8
DIBUJOS
 62
    29
100
AcDbVertex
100
AcDb2dVertex
 10
61.97785666661915
 20
42.55592586307175
 30
0.0
  0
VERTEX
  5
428
330
426
100
AcDbEntity
  8
DIBUJOS
 62
    29
100
AcDbVertex
100
AcDb2dVertex
 10
61.97785666661915
 20
42.56170663611494
 30
0.0
  0
SEQEND
  5
429
330
426
100
AcDbEntity
  8
DIBUJOS
 62
    29
  0
POLYLINE
  5
42A
330
1F
100
AcDbEntity
  8
DIBUJOS
 62
    29
100
AcDb2dPolyline
 66
     1
 10
0.0
 20
0.0
 30
0.0
  0
VERTEX
  5
42B
330
42A
100
AcDbEntity
  8
DIBUJOS
 62
    29
100
AcDbVertex
100
AcDb2dVertex
 10
61.98363666184033
 20
42.55592586307175
 30
0.0
  0
VERTEX
  5
42C
330
42A
100
AcDbEntity
  8
DIBUJOS
 62
    29
100
AcDbVertex
100
AcDb2dVertex
 10
61.97785666661915
 20
42.55592586307175
 30
0.0
  0
SEQEND
  5
42D
330
42A
100
AcDbEntity
  8
DIBUJOS
 62
    29
  0
POLYLINE
  5
42E
330
1F
100
AcDbEntity
  8
DIBUJOS
 62
    29
100
AcDb2dPolyline
 66
     1
 10
0.0
 20
0.0
 30
0.0
  0
VERTEX
  5
42F
330
42E
100
AcDbEntity
  8
DIBUJOS
 62
    29
100
AcDbVertex
100
AcDb2dVertex
 10
61.98363666184033
 20
42.55592586307175
 30
0.0
  0
VERTEX
  5
430
330
42E
100
AcDbEntity
  8
DIBUJOS
 62
    29
100
AcDbVertex
100
AcDb2dVertex
 10
62.02959349640784
 20
42.55846467405285
 30
0.0
  0
VERTEX
  5
431
330
42E
100
AcDbEntity
  8
DIBUJOS
 62
    29
100
AcDbVertex
100
AcDb2dVertex
 10
62.08189424714133
 20
42.57326662655793
 30
0.0
  0
SEQEND
  5
432
330
42E
100
AcDbEntity
  8
DIBUJOS
 62
    29
  0
POLYLINE
  5
433
330
1F
100
AcDbEntity
  8
DIBUJOS
 62
    29
100
AcDb2dPolyline
 66
     1
 10
0.0
 20
0.0
 30
0.0
  0
VERTEX
  5
434
330
433
100
AcDbEntity
  8
DIBUJOS
 62
    29
100
AcDbVertex
100
AcDb2dVertex
 10
67.21442966485316
 20
42.55592586307175
 30
0.0
  0
VERTEX
  5
435
330
433
100
AcDbEntity
  8
DIBUJOS
 62
    29
100
AcDbVertex
100
AcDb2dVertex
 10
67.16847127464162
 20
42.55846467405285
 30
0.0
  0
VERTEX
  5
436
330
433
100
AcDbEntity
  8
DIBUJOS
 62
    29
100
AcDbVertex
100
AcDb2dVertex
 10
67.12830921391357
 20
42.56922039655676
 30
0.0
  0
VERTEX
  5
437
330
433
100
AcDbEntity
  8
DIBUJOS
 62
    29
100
AcDbVertex
100
AcDb2dVertex
 10
67.12195129695196
 20
42.57326662655793
 30
0.0
  0
SEQEND
  5
438
330
433
100
AcDbEntity
  8
DIBUJOS
 62
    29
  0
POLYLINE
  5
439
330
1F
100
AcDbEntity
  8
DIBUJOS
 62
    29
100
AcDb2dPolyline
 66
     1
 10
0.0
 20
0.0
 30
0.0
  0
VERTEX
  5
43A
330
439
100
AcDbEntity
  8
DIBUJOS
 62
    29
100
AcDbVertex
100
AcDb2dVertex
 10
67.22020888225296
 20
42.55592586307175
 30
0.0
  0
VERTEX
  5
43B
330
439
100
AcDbEntity
  8
DIBUJOS
 62
    29
100
AcDbVertex
100
AcDb2dVertex
 10
67.21442966485316
 20
42.55592586307175
 30
0.0
  0
SEQEND
  5
43C
330
439
100
AcDbEntity
  8
DIBUJOS
 62
    29
  0
POLYLINE
  5
43D
330
1F
100
AcDbEntity
  8
DIBUJOS
 62
    29
100
AcDb2dPolyline
 66
     1
 10
0.0
 20
0.0
 30
0.0
  0
VERTEX
  5
43E
330
43D
100
AcDbEntity
  8
DIBUJOS
 62
    29
100
AcDbVertex
100
AcDb2dVertex
 10
67.22020888225296
 20
42.55592586307175
 30
0.0
  0
VERTEX
  5
43F
330
43D
100
AcDbEntity
  8
DIBUJOS
 62
    29
100
AcDbVertex
100
AcDb2dVertex
 10
67.22020888225296
 20
42.56170663611494
 30
0.0
  0
SEQEND
  5
440
330
43D
100
AcDbEntity
  8
DIBUJOS
 62
    29
  0
POLYLINE
  5
441
330
1F
100
AcDbEntity
  8
DIBUJOS
 62
    29
100
AcDb2dPolyline
 66
     1
 10
0.0
 20
0.0
 30
0.0
  0
VERTEX
  5
442
330
441
100
AcDbEntity
  8
DIBUJOS
 62
    29
100
AcDbVertex
100
AcDb2dVertex
 10
61.97785666661915
 20
42.55014664567194
 30
0.0
  0
VERTEX
  5
443
330
441
100
AcDbEntity
  8
DIBUJOS
 62
    29
100
AcDbVertex
100
AcDb2dVertex
 10
61.97785666661915
 20
42.55592586307175
 30
0.0
  0
SEQEND
  5
444
330
441
100
AcDbEntity
  8
DIBUJOS
 62
    29
  0
POLYLINE
  5
445
330
1F
100
AcDbEntity
  8
DIBUJOS
 62
    29
100
AcDb2dPolyline
 66
     1
 10
0.0
 20
0.0
 30
0.0
  0
VERTEX
  5
446
330
445
100
AcDbEntity
  8
DIBUJOS
 62
    29
100
AcDbVertex
100
AcDb2dVertex
 10
67.22020888225296
 20
42.55014664567194
 30
0.0
  0
VERTEX
  5
447
330
445
100
AcDbEntity
  8
DIBUJOS
 62
    29
100
AcDbVertex
100
AcDb2dVertex
 10
67.22020888225296
 20
42.55592586307175
 30
0.0
  0
SEQEND
  5
448
330
445
100
AcDbEntity
  8
DIBUJOS
 62
    29
  0
POLYLINE
  5
449
330
1F
100
AcDbEntity
  8
DIBUJOS
 62
    29
100
AcDb2dPolyline
 66
     1
 10
0.0
 20
0.0
 30
0.0
  0
VERTEX
  5
44A
330
449
100
AcDbEntity
  8
DIBUJOS
 62
    29
100
AcDbVertex
100
AcDb2dVertex
 10
67.24332886313896
 20
42.49812746649953
 30
0.0
  0
VERTEX
  5
44B
330
449
100
AcDbEntity
  8
DIBUJOS
 62
    29
100
AcDbVertex
100
AcDb2dVertex
 10
67.22020888225296
 20
42.55014664567194
 30
0.0
  0
SEQEND
  5
44C
330
449
100
AcDbEntity
  8
DIBUJOS
 62
    29
  0
POLYLINE
  5
44D
330
1F
100
AcDbEntity
  8
DIBUJOS
 62
    29
100
AcDb2dPolyline
 66
     1
 10
0.0
 20
0.0
 30
0.0
  0
VERTEX
  5
44E
330
44D
100
AcDbEntity
  8
DIBUJOS
 62
    29
100
AcDbVertex
100
AcDb2dVertex
 10
61.95473668573253
 20
42.49234824910037
 30
0.0
  0
VERTEX
  5
44F
330
44D
100
AcDbEntity
  8
DIBUJOS
 62
    29
100
AcDbVertex
100
AcDb2dVertex
 10
61.9561243201655
 20
42.49708674067496
 30
0.0
  0
VERTEX
  5
450
330
44D
100
AcDbEntity
  8
DIBUJOS
 62
    29
100
AcDbVertex
100
AcDb2dVertex
 10
61.9758164395336
 20
42.53331613341217
 30
0.0
  0
VERTEX
  5
451
330
44D
100
AcDbEntity
  8
DIBUJOS
 62
    29
100
AcDbVertex
100
AcDb2dVertex
 10
61.97785666661915
 20
42.55014664567194
 30
0.0
  0
SEQEND
  5
452
330
44D
100
AcDbEntity
  8
DIBUJOS
 62
    29
  0
POLYLINE
  5
453
330
1F
100
AcDbEntity
  8
DIBUJOS
 62
    29
100
AcDb2dPolyline
 66
     1
 10
0.0
 20
0.0
 30
0.0
  0
VERTEX
  5
454
330
453
100
AcDbEntity
  8
DIBUJOS
 62
    29
100
AcDbVertex
100
AcDb2dVertex
 10
67.24332886313896
 20
42.49234824910037
 30
0.0
  0
VERTEX
  5
455
330
453
100
AcDbEntity
  8
DIBUJOS
 62
    29
100
AcDbVertex
100
AcDb2dVertex
 10
67.24332886313896
 20
42.49812746649953
 30
0.0
  0
SEQEND
  5
456
330
453
100
AcDbEntity
  8
DIBUJOS
 62
    29
  0
POLYLINE
  5
457
330
1F
100
AcDbEntity
  8
DIBUJOS
 62
    29
100
AcDb2dPolyline
 66
     1
 10
0.0
 20
0.0
 30
0.0
  0
VERTEX
  5
458
330
457
100
AcDbEntity
  8
DIBUJOS
 62
    29
100
AcDbVertex
100
AcDb2dVertex
 10
67.24910808053811
 20
42.49234824910037
 30
0.0
  0
VERTEX
  5
459
330
457
100
AcDbEntity
  8
DIBUJOS
 62
    29
100
AcDbVertex
100
AcDb2dVertex
 10
67.24332886313896
 20
42.49234824910037
 30
0.0
  0
SEQEND
  5
45A
330
457
100
AcDbEntity
  8
DIBUJOS
 62
    29
  0
POLYLINE
  5
45B
330
1F
100
AcDbEntity
  8
DIBUJOS
 62
    29
100
AcDb2dPolyline
 66
     1
 10
0.0
 20
0.0
 30
0.0
  0
VERTEX
  5
45C
330
45B
100
AcDbEntity
  8
DIBUJOS
 62
    29
100
AcDbVertex
100
AcDb2dVertex
 10
61.94895746833272
 20
42.48656747605654
 30
0.0
  0
VERTEX
  5
45D
330
45B
100
AcDbEntity
  8
DIBUJOS
 62
    29
100
AcDbVertex
100
AcDb2dVertex
 10
61.93739747788973
 20
42.48656747605654
 30
0.0
  0
VERTEX
  5
45E
330
45B
100
AcDbEntity
  8
DIBUJOS
 62
    29
100
AcDbVertex
100
AcDb2dVertex
 10
61.81601991170275
 20
42.48656747605654
 30
0.0
  0
VERTEX
  5
45F
330
45B
100
AcDbEntity
  8
DIBUJOS
 62
    29
100
AcDbVertex
100
AcDb2dVertex
 10
61.79232200907698
 20
42.49697162301995
 30
0.0
  0
VERTEX
  5
460
330
45B
100
AcDbEntity
  8
DIBUJOS
 62
    29
100
AcDbVertex
100
AcDb2dVertex
 10
61.76978072775215
 20
42.51546667434233
 30
0.0
  0
VERTEX
  5
461
330
45B
100
AcDbEntity
  8
DIBUJOS
 62
    29
100
AcDbVertex
100
AcDb2dVertex
 10
61.76862488427257
 20
42.52066874782435
 30
0.0
  0
VERTEX
  5
462
330
45B
100
AcDbEntity
  8
DIBUJOS
 62
    29
100
AcDbVertex
100
AcDb2dVertex
 10
61.75822073730915
 20
42.54436587262811
 30
0.0
  0
VERTEX
  5
463
330
45B
100
AcDbEntity
  8
DIBUJOS
 62
    29
100
AcDbVertex
100
AcDb2dVertex
 10
61.75822073730915
 20
42.57326662655793
 30
0.0
  0
VERTEX
  5
464
330
45B
100
AcDbEntity
  8
DIBUJOS
 62
    29
100
AcDbVertex
100
AcDb2dVertex
 10
61.76400073253033
 20
42.57904584395774
 30
0.0
  0
SEQEND
  5
465
330
45B
100
AcDbEntity
  8
DIBUJOS
 62
    29
  0
POLYLINE
  5
466
330
1F
100
AcDbEntity
  8
DIBUJOS
 62
    29
100
AcDb2dPolyline
 66
     1
 10
0.0
 20
0.0
 30
0.0
  0
VERTEX
  5
467
330
466
100
AcDbEntity
  8
DIBUJOS
 62
    29
100
AcDbVertex
100
AcDb2dVertex
 10
61.95473668573253
 20
42.48656747605654
 30
0.0
  0
VERTEX
  5
468
330
466
100
AcDbEntity
  8
DIBUJOS
 62
    29
100
AcDbVertex
100
AcDb2dVertex
 10
61.94895746833272
 20
42.48656747605654
 30
0.0
  0
SEQEND
  5
469
330
466
100
AcDbEntity
  8
DIBUJOS
 62
    29
  0
POLYLINE
  5
46A
330
1F
100
AcDbEntity
  8
DIBUJOS
 62
    29
100
AcDb2dPolyline
 66
     1
 10
0.0
 20
0.0
 30
0.0
  0
VERTEX
  5
46B
330
46A
100
AcDbEntity
  8
DIBUJOS
 62
    29
100
AcDbVertex
100
AcDb2dVertex
 10
61.95473668573253
 20
42.48656747605654
 30
0.0
  0
VERTEX
  5
46C
330
46A
100
AcDbEntity
  8
DIBUJOS
 62
    29
100
AcDbVertex
100
AcDb2dVertex
 10
61.95473668573253
 20
42.49234824910037
 30
0.0
  0
SEQEND
  5
46D
330
46A
100
AcDbEntity
  8
DIBUJOS
 62
    29
  0
POLYLINE
  5
46E
330
1F
100
AcDbEntity
  8
DIBUJOS
 62
    29
100
AcDb2dPolyline
 66
     1
 10
0.0
 20
0.0
 30
0.0
  0
VERTEX
  5
46F
330
46E
100
AcDbEntity
  8
DIBUJOS
 62
    29
100
AcDbVertex
100
AcDb2dVertex
 10
61.9605166809537
 20
42.48656747605654
 30
0.0
  0
VERTEX
  5
470
330
46E
100
AcDbEntity
  8
DIBUJOS
 62
    29
100
AcDbVertex
100
AcDb2dVertex
 10
61.95473668573253
 20
42.48656747605654
 30
0.0
  0
SEQEND
  5
471
330
46E
100
AcDbEntity
  8
DIBUJOS
 62
    29
  0
POLYLINE
  5
472
330
1F
100
AcDbEntity
  8
DIBUJOS
 62
    29
100
AcDb2dPolyline
 66
     1
 10
0.0
 20
0.0
 30
0.0
  0
VERTEX
  5
473
330
472
100
AcDbEntity
  8
DIBUJOS
 62
    29
100
AcDbVertex
100
AcDb2dVertex
 10
61.9605166809537
 20
42.48656747605654
 30
0.0
  0
VERTEX
  5
474
330
472
100
AcDbEntity
  8
DIBUJOS
 62
    29
100
AcDbVertex
100
AcDb2dVertex
 10
62.04721505363308
 20
42.49234824910037
 30
0.0
  0
VERTEX
  5
475
330
472
100
AcDbEntity
  8
DIBUJOS
 62
    29
100
AcDbVertex
100
AcDb2dVertex
 10
62.08189424714133
 20
42.52702666478596
 30
0.0
  0
VERTEX
  5
476
330
472
100
AcDbEntity
  8
DIBUJOS
 62
    29
100
AcDbVertex
100
AcDb2dVertex
 10
62.0876742423625
 20
42.56748585351474
 30
0.0
  0
SEQEND
  5
477
330
472
100
AcDbEntity
  8
DIBUJOS
 62
    29
  0
POLYLINE
  5
478
330
1F
100
AcDbEntity
  8
DIBUJOS
 62
    29
100
AcDb2dPolyline
 66
     1
 10
0.0
 20
0.0
 30
0.0
  0
VERTEX
  5
479
330
478
100
AcDbEntity
  8
DIBUJOS
 62
    29
100
AcDbVertex
100
AcDb2dVertex
 10
67.11617052390814
 20
42.56748585351474
 30
0.0
  0
VERTEX
  5
47A
330
478
100
AcDbEntity
  8
DIBUJOS
 62
    29
100
AcDbVertex
100
AcDb2dVertex
 10
67.11851487939191
 20
42.53897712186891
 30
0.0
  0
VERTEX
  5
47B
330
478
100
AcDbEntity
  8
DIBUJOS
 62
    29
100
AcDbVertex
100
AcDb2dVertex
 10
67.12773051435177
 20
42.51546667434233
 30
0.0
  0
VERTEX
  5
47C
330
478
100
AcDbEntity
  8
DIBUJOS
 62
    29
100
AcDbVertex
100
AcDb2dVertex
 10
67.15027179567595
 20
42.49697162301995
 30
0.0
  0
VERTEX
  5
47D
330
478
100
AcDbEntity
  8
DIBUJOS
 62
    29
100
AcDbVertex
100
AcDb2dVertex
 10
67.16761255916278
 20
42.49061370605835
 30
0.0
  0
VERTEX
  5
47E
330
478
100
AcDbEntity
  8
DIBUJOS
 62
    29
100
AcDbVertex
100
AcDb2dVertex
 10
67.17396892047971
 20
42.48656747605654
 30
0.0
  0
VERTEX
  5
47F
330
478
100
AcDbEntity
  8
DIBUJOS
 62
    29
100
AcDbVertex
100
AcDb2dVertex
 10
67.23754809009576
 20
42.48656747605654
 30
0.0
  0
VERTEX
  5
480
330
478
100
AcDbEntity
  8
DIBUJOS
 62
    29
100
AcDbVertex
100
AcDb2dVertex
 10
67.24332886313896
 20
42.49234824910037
 30
0.0
  0
SEQEND
  5
481
330
478
100
AcDbEntity
  8
DIBUJOS
 62
    29
  0
POLYLINE
  5
482
330
1F
100
AcDbEntity
  8
DIBUJOS
 62
    29
100
AcDb2dPolyline
 66
     1
 10
0.0
 20
0.0
 30
0.0
  0
VERTEX
  5
483
330
482
100
AcDbEntity
  8
DIBUJOS
 62
    29
100
AcDbVertex
100
AcDb2dVertex
 10
67.24910808053811
 20
42.49234824910037
 30
0.0
  0
VERTEX
  5
484
330
482
100
AcDbEntity
  8
DIBUJOS
 62
    29
100
AcDbVertex
100
AcDb2dVertex
 10
67.2664472883809
 20
42.48656747605654
 30
0.0
  0
VERTEX
  5
485
330
482
100
AcDbEntity
  8
DIBUJOS
 62
    29
100
AcDbVertex
100
AcDb2dVertex
 10
67.38204563716809
 20
42.48656747605654
 30
0.0
  0
VERTEX
  5
486
330
482
100
AcDbEntity
  8
DIBUJOS
 62
    29
100
AcDbVertex
100
AcDb2dVertex
 10
67.42828404329731
 20
42.50968745694316
 30
0.0
  0
VERTEX
  5
487
330
482
100
AcDbEntity
  8
DIBUJOS
 62
    29
100
AcDbVertex
100
AcDb2dVertex
 10
67.4296187858352
 20
42.51457840162755
 30
0.0
  0
VERTEX
  5
488
330
482
100
AcDbEntity
  8
DIBUJOS
 62
    29
100
AcDbVertex
100
AcDb2dVertex
 10
67.4398440337403
 20
42.52702666478596
 30
0.0
  0
VERTEX
  5
489
330
482
100
AcDbEntity
  8
DIBUJOS
 62
    29
100
AcDbVertex
100
AcDb2dVertex
 10
67.4398440337403
 20
42.57326662655793
 30
0.0
  0
VERTEX
  5
48A
330
482
100
AcDbEntity
  8
DIBUJOS
 62
    29
100
AcDbVertex
100
AcDb2dVertex
 10
67.43406481634051
 20
42.57904584395774
 30
0.0
  0
SEQEND
  5
48B
330
482
100
AcDbEntity
  8
DIBUJOS
 62
    29
  0
INSERT
  5
48D
330
1F
100
AcDbEntity
  8
DIBUJOS
100
AcDbBlockReference
  2
BLOCK_2
 10
0.0
 20
0.0
 30
0.0
  0
INSERT
  5
6A4
330
1F
100
AcDbEntity
  8
DIBUJOS
100
AcDbBlockReference
  2
BLOCK_3
 10
0.0
 20
0.0
 30
0.0
  0
POLYLINE
  5
972
330
1F
100
AcDbEntity
  8
COTAS_LINEA
 62
     7
100
AcDb2dPolyline
 66
     1
 10
0.0
 20
0.0
 30
0.0
  0
VERTEX
  5
973
330
972
100
AcDbEntity
  8
COTAS_LINEA
 62
     7
100
AcDbVertex
100
AcDb2dVertex
 10
88.21485403170044
 20
45.949318484247
 30
0.0
  0
VERTEX
  5
974
330
972
100
AcDbEntity
  8
COTAS_LINEA
 62
     7
100
AcDbVertex
100
AcDb2dVertex
 10
88.21485403300694
 20
42.33143791450131
 30
0.0
  0
SEQEND
  5
975
330
972
100
AcDbEntity
  8
COTAS_LINEA
 62
     7
  0
POLYLINE
  5
976
330
1F
100
AcDbEntity
  8
COTAS_LINEA
 62
     7
100
AcDb2dPolyline
 66
     1
 10
0.0
 20
0.0
 30
0.0
  0
VERTEX
  5
977
330
976
100
AcDbEntity
  8
COTAS_LINEA
 62
     7
100
AcDbVertex
100
AcDb2dVertex
 10
69.50282335947695
 20
51.31461787828187
 30
0.0
  0
VERTEX
  5
978
330
976
100
AcDbEntity
  8
COTAS_LINEA
 62
     7
100
AcDbVertex
100
AcDb2dVertex
 10
69.50282336078345
 20
42.33145573149524
 30
0.0
  0
SEQEND
  5
979
330
976
100
AcDbEntity
  8
COTAS_LINEA
 62
     7
  0
POLYLINE
  5
97A
330
1F
100
AcDbEntity
  8
COTAS_LINEA
 62
     7
100
AcDb2dPolyline
 66
     1
 10
0.0
 20
0.0
 30
0.0
  0
VERTEX
  5
97B
330
97A
100
AcDbEntity
  8
COTAS_LINEA
 62
     7
100
AcDbVertex
100
AcDb2dVertex
 10
78.91515950937034
 20
38.66119575631178
 30
0.0
  0
VERTEX
  5
97C
330
97A
100
AcDbEntity
  8
COTAS_LINEA
 62
     7
100
AcDbVertex
100
AcDb2dVertex
 10
86.90614551184096
 20
38.66119575631178
 30
0.0
  0
SEQEND
  5
97D
330
97A
100
AcDbEntity
  8
COTAS_LINEA
 62
     7
  0
POLYLINE
  5
97E
330
1F
100
AcDbEntity
  8
COTAS_LINEA
 62
     7
100
AcDb2dPolyline
 66
     1
 10
0.0
 20
0.0
 30
0.0
  0
VERTEX
  5
97F
330
97E
100
AcDbEntity
  8
COTAS_LINEA
 62
     7
100
AcDbVertex
100
AcDb2dVertex
 10
61.60456795805398
 20
38.66119575631178
 30
0.0
  0
VERTEX
  5
980
330
97E
100
AcDbEntity
  8
COTAS_LINEA
 62
     7
100
AcDbVertex
100
AcDb2dVertex
 10
67.80351820943932
 20
38.66119575631178
 30
0.0
  0
SEQEND
  5
981
330
97E
100
AcDbEntity
  8
COTAS_LINEA
 62
     7
  0
MTEXT
  5
983
330
1F
100
AcDbEntity
  8
COTAS_N_U_00DAMERO
 62
     7
100
AcDbMText
 10
88.9734074264193
 20
43.35631136340137
 30
0.0
 40
1.998533025814148
 41
0.0
 71
     7
 72
     1
  1
\fMyriad Pro|b0|i0|c0|p34;\W1;46
  0
MTEXT
  5
984
330
1F
100
AcDbEntity
  8
COTAS_N_U_00DAMERO
 62
     7
100
AcDbMText
 10
70.26136860680397
 20
44.06186691878055
 30
0.0
 40
1.998533025814148
 41
0.0
 71
     7
 72
     1
  1
\fMyriad Pro|b0|i0|c0|p34;\W1;80
  0
MTEXT
  5
985
330
1F
100
AcDbEntity
  8
COTAS_N_U_00DAMERO
 62
     7
100
AcDbMText
 10
81.3339081878778
 20
39.21634011877664
 30
0.0
 40
1.998533025814148
 41
0.0
 71
     7
 72
     1
  1
\fMyriad Pro|b0|i0|c0|p34;\W1;55
  0
MTEXT
  5
986
330
1F
100
AcDbEntity
  8
COTAS_N_U_00DAMERO
 62
     7
100
AcDbMText
 10
63.19841417216156
 20
39.21616786400239
 30
0.0
 40
1.998533025814148
 41
0.0
 71
     7
 72
     1
  1
\fMyriad Pro|b0|i0|c0|p34;\W1;57
  0
ENDSEC
  0
SECTION
  2
OBJECTS
  0
DICTIONARY
  5
C
330
0
100
AcDbDictionary
  3
ACAD_GROUP
350
D
  3
ACAD_LAYOUT
350
1A
  3
ACAD_MATERIAL
350
3B
  3
ACAD_MLEADERSTYLE
350
9A9
  3
ACAD_MLINESTYLE
350
17
  3
ACAD_PLOTSETTINGS
350
19
  3
ACAD_VISUALSTYLE
350
2A
  3
ACDBHEADERROUNDTRIPXREC
350
987
  3
ACDBVARIABLEDICTIONARY
350
9A7
  0
DICTIONARY
  5
D
102
{ACAD_REACTORS
330
C
102
}
330
C
100
AcDbDictionary
  0
DICTIONARY
  5
1A
102
{ACAD_REACTORS
330
C
102
}
330
C
100
AcDbDictionary
  0
DICTIONARY
  5
3B
102
{ACAD_REACTORS
330
C
102
}
330
C
100
AcDbDictionary
  3
BYBLOCK
350
3D
  3
BYLAYER
350
3C
  3
GLOBAL
350
3E
  0
DICTIONARY
  5
9A9
102
{ACAD_REACTORS
330
C
102
}
330
C
100
AcDbDictionary
  0
DICTIONARY
  5
17
102
{ACAD_REACTORS
330
C
102
}
330
C
100
AcDbDictionary
  3
STANDARD
350
18
  0
DICTIONARY
  5
19
102
{ACAD_REACTORS
330
C
102
}
330
C
100
AcDbDictionary
  0
DICTIONARY
  5
2A
102
{ACAD_REACTORS
330
C
102
}
330
C
100
AcDbDictionary
  3
2DWIREFRAME
350
2F
  3
3D_HIDDEN
350
31
  3
3DWIREFRAME
350
30
  3
BASIC
350
32
  3
BRIGHTEN
350
36
  3
COLORCHANGE
350
3A
  3
CONCEPTUAL
350
34
  3
DIM
350
35
  3
FACEPATTERN
350
39
  3
FLAT
350
2B
  3
FLATWITHEDGES
350
2C
  3
GOURAUD
350
2D
  3
GOURAUDWITHEDGES
350
2E
  3
LINEPATTERN
350
38
  3
REALISTIC
350
33
  3
THICKEN
350
37
  0
DICTIONARY
  5
987
102
{ACAD_REACTORS
330
C
102
}
330
C
100
AcDbDictionary
  3
CEPSNTYPE
350
990
  3
DIMSTYLEDATA
350
9A6
  3
FINGERPRINTGUID
350
991
  3
HYPERLINKBASE
350
98A
  3
INSUNITS
350
98F
  3
LAYOUTDICT
350
98C
  3
LWETCUNION
350
98E
  3
PLOTSETDICT
350
98D
  3
PSVPSCALE
350
993
  3
PUCSBASE
350
996
  3
PUCSORGBACK
350
99C
  3
PUCSORGBOTTOM
350
998
  3
PUCSORGFRONT
350
99B
  3
PUCSORGLEFT
350
999
  3
PUCSORGRIGHT
350
99A
  3
PUCSORGTOP
350
997
  3
PUCSORTHOREF
350
994
  3
PUCSORTHOVIEW
350
995
  3
STYLESHEET
350
98B
  3
TSTACKALIGN
350
988
  3
TSTACKSIZE
350
989
  3
UCSBASE
350
99F
  3
UCSORGBACK
350
9A5
  3
UCSORGBOTTOM
350
9A1
  3
UCSORGFRONT
350
9A4
  3
UCSORGLEFT
350
9A2
  3
UCSORGRIGHT
350
9A3
  3
UCSORGTOP
350
9A0
  3
UCSORTHOREF
350
99D
  3
UCSORTHOVIEW
350
99E
  3
VERSIONGUID
350
992
  0
DICTIONARY
  5
9A7
102
{ACAD_REACTORS
330
C
102
}
330
C
100
AcDbDictionary
  3
DIMASSOC
350
9AA
  3
HIDETEXT
350
9AB
  0
MATERIAL
  5
3D
102
{ACAD_REACTORS
330
3B
102
}
102
{ACAD_XDICTIONARY
360
9AE
102
}
330
3B
100
AcDbMaterial
  1
ByBlock
  0
MATERIAL
  5
3C
102
{ACAD_REACTORS
330
3B
102
}
102
{ACAD_XDICTIONARY
360
9AC
102
}
330
3B
100
AcDbMaterial
  1
ByLayer
  0
MATERIAL
  5
3E
102
{ACAD_REACTORS
330
3B
102
}
102
{ACAD_XDICTIONARY
360
9B0
102
}
330
3B
100
AcDbMaterial
  1
Global
  0
MLINESTYLE
  5
18
102
{ACAD_REACTORS
330
17
102
}
330
17
100
AcDbMlineStyle
  2
Standard
 70
     0
  3

 62
   256
 51
90.0
 52
90.0
 71
     2
 49
0.5
 62
   256
  6
BYLAYER
 49
-0.5
 62
   256
  6
BYLAYER
  0
ACAD_PROXY_OBJECT
  5
2F
102
{ACAD_REACTORS
330
2A
102
}
330
2A
100
AcDbProxyObject
 90
      499
 91
      501
 93
      436
310
42CC9915DA5C99599C985B595049028333333333333E3BF0000000000000FB0107901411070040501600405405064090741402480A0340
1001
ACAD
1000
AcDbSavedByObjectVersion
1070
     0
  0
ACAD_PROXY_OBJECT
  5
31
102
{ACAD_REACTORS
330
2A
102
}
330
2A
100
AcDbProxyObject
 90
      499
 91
      501
 93
      500
310
424CD108121A5919195B90640502408333333333333E3BF0000000000000FB01079024090700405020000000000001110200405405064090740C02480A0340
1001
ACAD
1000
AcDbSavedByObjectVersion
1070
     0
  0
ACAD_PROXY_OBJECT
  5
30
102
{ACAD_REACTORS
330
2A
102
}
330
2A
100
AcDbProxyObject
 90
      499
 91
      501
 93
      436
310
42CCD915DA5C99599C985B595059028333333333333E3BF0000000000000FB0107901411070040501600405405064090741402480A0340
1001
ACAD
1000
AcDbSavedByObjectVersion
1070
     0
  0
ACAD_PROXY_OBJECT
  5
32
102
{ACAD_REACTORS
330
2A
102
}
330
2A
100
AcDbProxyObject
 90
      499
 91
      501
 93
      388
310
4150985CDA58D07406404333333333333E3BF0000000000000FB0107A41107004050150841D405064090741402480A0350
1001
ACAD
1000
AcDbSavedByObjectVersion
1070
     0
  0
ACAD_PROXY_OBJECT
  5
36
102
{ACAD_REACTORS
330
2A
102
}
330
2A
100
AcDbProxyObject
 90
      499
 91
      501
 93
      428
310
42109C9A59DA1D195B90C409028333333333333E3BF0000000000000FB010790141107004050150841D405064090741402480A029950
1001
ACAD
1000
AcDbSavedByObjectVersion
1070
     0
  0
ACAD_PROXY_OBJECT
  5
3A
102
{ACAD_REACTORS
330
2A
102
}
330
2A
100
AcDbProxyObject
 90
      499
 91
      501
 93
      452
310
42D0DBDB1BDC90DA185B99D95104090240C333333333333E3BF0000000000000FB0108901411070040501508421405064090741402480A0350
1001
ACAD
1000
AcDbSavedByObjectVersion
1070
     0
  0
ACAD_PROXY_OBJECT
  5
34
102
{ACAD_REACTORS
330
2A
102
}
330
2A
100
AcDbProxyObject
 90
      499
 91
      501
 93
      500
310
4290DBDB98D95C1D1D585B10940D028333333333333E3BF0000000000000FB0107902409070040501000000000000111010841D405064090740C02480A0340
1001
ACAD
1000
AcDbSavedByObjectVersion
1070
     0
  0
ACAD_PROXY_OBJECT
  5
35
102
{ACAD_REACTORS
330
2A
102
}
330
2A
100
AcDbProxyObject
 90
      499
 91
      501
 93
      412
310
40D11A5B50B409028333333333333E3BF0000000000000FB010790141107004050150841D405064090741402480A02677FFFFFD0
1001
ACAD
1000
AcDbSavedByObjectVersion
1070
     0
  0
ACAD_PROXY_OBJECT
  5
39
102
{ACAD_REACTORS
330
2A
102
}
330
2A
100
AcDbProxyObject
 90
      499
 91
      501
 93
      444
310
42D19858D95C185D1D195C9B90F409028333333333333E3BF0000000000000FB010790141107004050150841D405064090741402480A0350
1001
ACAD
1000
AcDbSavedByObjectVersion
1070
     0
  0
ACAD_PROXY_OBJECT
  5
2B
102
{ACAD_REACTORS
330
2A
102
}
330
2A
100
AcDbProxyObject
 90
      499
 91
      501
 93
      388
310
41119B185D240901404333333333333E3BF0000000000000F9010740A41107004050150841D405064090741402480A1B50
1001
ACAD
1000
AcDbSavedByObjectVersion
1070
     0
  0
ACAD_PROXY_OBJECT
  5
2C
102
{ACAD_REACTORS
330
2A
102
}
330
2A
100
AcDbProxyObject
 90
      499
 91
      501
 93
      476
310
43519B185D15DA5D1A115919D95CD0140901404333333333333E3BF0000000000000F9010740901411070040501600405405064090741402480A1B50
1001
ACAD
1000
AcDbSavedByObjectVersion
1070
     0
  0
ACAD_PROXY_OBJECT
  5
2D
102
{ACAD_REACTORS
330
2A
102
}
330
2A
100
AcDbProxyObject
 90
      499
 91
      501
 93
      412
310
41D1DBDD5C985D5910240902404333333333333E3BF0000000000000F9010740A411070040501641D405064090741402480A1B50
1001
ACAD
1000
AcDbSavedByObjectVersion
1070
     0
  0
ACAD_PROXY_OBJECT
  5
2E
102
{ACAD_REACTORS
330
2A
102
}
330
2A
100
AcDbProxyObject
 90
      499
 91
      501
 93
      500
310
4411DBDD5C985D5915DA5D1A115919D95CD0340902404333333333333E3BF0000000000000F9010740901411070040501600405405064090741402480A1B50
1001
ACAD
1000
AcDbSavedByObjectVersion
1070
     0
  0
ACAD_PROXY_OBJECT
  5
38
102
{ACAD_REACTORS
330
2A
102
}
330
2A
100
AcDbProxyObject
 90
      499
 91
      501
 93
      444
310
42D31A5B995C185D1D195C9B90E409028333333333333E3BF0000000000000FB010790141107004050750841D405064090741402483A0350
1001
ACAD
1000
AcDbSavedByObjectVersion
1070
     0
  0
ACAD_PROXY_OBJECT
  5
33
102
{ACAD_REACTORS
330
2A
102
}
330
2A
100
AcDbProxyObject
 90
      499
 91
      501
 93
      420
310
425499585B1A5CDD1A58D08409028333333333333E3BF0000000000000FB01079019070040501508421405064090741402480A1B40
1001
ACAD
1000
AcDbSavedByObjectVersion
1070
     0
  0
ACAD_PROXY_OBJECT
  5
37
102
{ACAD_REACTORS
330
2A
102
}
330
2A
100
AcDbProxyObject
 90
      499
 91
      501
 93
      412
310
41D51A1A58DAD95B90D409028333333333333E3BF0000000000000FB010790141107004050150C41D405064090741402480A0350
1001
ACAD
1000
AcDbSavedByObjectVersion
1070
     0
  0
XRECORD
  5
990
102
{ACAD_REACTORS
330
987
102
}
330
987
100
AcDbXrecord
 90
        0
  0
XRECORD
  5
9A6
102
{ACAD_REACTORS
330
987
102
}
330
987
100
AcDbXrecord
1000
DSTYLE
1002
{
1070
   340
340
11
1002
}
  0
XRECORD
  5
991
102
{ACAD_REACTORS
330
987
102
}
330
987
100
AcDbXrecord
  1
{6E082FF6-93CE-44DE-A2E8-8F56B53ED8DB}
  0
XRECORD
  5
98A
102
{ACAD_REACTORS
330
987
102
}
330
987
100
AcDbXrecord
  1

  0
XRECORD
  5
98F
102
{ACAD_REACTORS
330
987
102
}
330
987
100
AcDbXrecord
 90
        1
  0
XRECORD
  5
98C
102
{ACAD_REACTORS
330
987
102
}
330
987
100
AcDbXrecord
340
1A
  0
XRECORD
  5
98E
102
{ACAD_REACTORS
330
987
102
}
330
987
100
AcDbXrecord
 90
    10269
  0
XRECORD
  5
98D
102
{ACAD_REACTORS
330
987
102
}
330
987
100
AcDbXrecord
340
19
  0
XRECORD
  5
993
102
{ACAD_REACTORS
330
987
102
}
330
987
100
AcDbXrecord
 40
0.0
  0
XRECORD
  5
996
102
{ACAD_REACTORS
330
987
102
}
330
987
100
AcDbXrecord
340
0
  0
XRECORD
  5
99C
102
{ACAD_REACTORS
330
987
102
}
330
987
100
AcDbXrecord
 10
0.0
 20
0.0
 30
0.0
  0
XRECORD
  5
998
102
{ACAD_REACTORS
330
987
102
}
330
987
100
AcDbXrecord
 10
0.0
 20
0.0
 30
0.0
  0
XRECORD
  5
99B
102
{ACAD_REACTORS
330
987
102
}
330
987
100
AcDbXrecord
 10
0.0
 20
0.0
 30
0.0
  0
XRECORD
  5
999
102
{ACAD_REACTORS
330
987
102
}
330
987
100
AcDbXrecord
 10
0.0
 20
0.0
 30
0.0
  0
XRECORD
  5
99A
102
{ACAD_REACTORS
330
987
102
}
330
987
100
AcDbXrecord
 10
0.0
 20
0.0
 30
0.0
  0
XRECORD
  5
997
102
{ACAD_REACTORS
330
987
102
}
330
987
100
AcDbXrecord
 10
0.0
 20
0.0
 30
0.0
  0
XRECORD
  5
994
102
{ACAD_REACTORS
330
987
102
}
330
987
100
AcDbXrecord
340
0
  0
XRECORD
  5
995
102
{ACAD_REACTORS
330
987
102
}
330
987
100
AcDbXrecord
 70
     0
  0
XRECORD
  5
98B
102
{ACAD_REACTORS
330
987
102
}
330
987
100
AcDbXrecord
  1

  0
XRECORD
  5
988
102
{ACAD_REACTORS
330
987
102
}
330
987
100
AcDbXrecord
 90
        1
  0
XRECORD
  5
989
102
{ACAD_REACTORS
330
987
102
}
330
987
100
AcDbXrecord
 90
       70
  0
XRECORD
  5
99F
102
{ACAD_REACTORS
330
987
102
}
330
987
100
AcDbXrecord
340
0
  0
XRECORD
  5
9A5
102
{ACAD_REACTORS
330
987
102
}
330
987
100
AcDbXrecord
 10
0.0
 20
0.0
 30
0.0
  0
XRECORD
  5
9A1
102
{ACAD_REACTORS
330
987
102
}
330
987
100
AcDbXrecord
 10
0.0
 20
0.0
 30
0.0
  0
XRECORD
  5
9A4
102
{ACAD_REACTORS
330
987
102
}
330
987
100
AcDbXrecord
 10
0.0
 20
0.0
 30
0.0
  0
XRECORD
  5
9A2
102
{ACAD_REACTORS
330
987
102
}
330
987
100
AcDbXrecord
 10
0.0
 20
0.0
 30
0.0
  0
XRECORD
  5
9A3
102
{ACAD_REACTORS
330
987
102
}
330
987
100
AcDbXrecord
 10
0.0
 20
0.0
 30
0.0
  0
XRECORD
  5
9A0
102
{ACAD_REACTORS
330
987
102
}
330
987
100
AcDbXrecord
 10
0.0
 20
0.0
 30
0.0
  0
XRECORD
  5
99D
102
{ACAD_REACTORS
330
987
102
}
330
987
100
AcDbXrecord
340
0
  0
XRECORD
  5
99E
102
{ACAD_REACTORS
330
987
102
}
330
987
100
AcDbXrecord
 70
     0
  0
XRECORD
  5
992
102
{ACAD_REACTORS
330
987
102
}
330
987
100
AcDbXrecord
  1
{FAEB1C32-E019-11D5-929B-00C0DF256EC4}
  0
DICTIONARYVAR
  5
9AA
102
{ACAD_REACTORS
330
9A7
102
}
330
9A7
100
DictionaryVariables
280
     0
  1
2
  0
DICTIONARYVAR
  5
9AB
102
{ACAD_REACTORS
330
9A7
102
}
330
9A7
100
DictionaryVariables
280
     0
  1
1
  0
DICTIONARY
  5
9AE
330
3D
100
AcDbDictionary
280
     1
  3
ACAD_XREC_ROUNDTRIP
360
9AF
  0
DICTIONARY
  5
9AC
330
3C
100
AcDbDictionary
280
     1
  3
ACAD_XREC_ROUNDTRIP
360
9AD
  0
DICTIONARY
  5
9B0
330
3E
100
AcDbDictionary
280
     1
  3
ACAD_XREC_ROUNDTRIP
360
9B1
  0
XRECORD
  5
9AF
102
{ACAD_REACTORS
330
9AE
102
}
330
9AE
100
AcDbXrecord
102
MATERIAL
148
0.0
149
0.0
149
0.0
 93
        0
 94
      127
282
     0
 72
     1
 77
     1
171
     1
175
     1
179
     1
273
     0
  0
XRECORD
  5
9AD
102
{ACAD_REACTORS
330
9AC
102
}
330
9AC
100
AcDbXrecord
102
MATERIAL
148
0.0
149
0.0
149
0.0
 93
        0
 94
      127
282
     0
 72
     1
 77
     1
171
     1
175
     1
179
     1
273
     0
  0
XRECORD
  5
9B1
102
{ACAD_REACTORS
330
9B0
102
}
330
9B0
100
AcDbXrecord
102
MATERIAL
148
0.0
149
0.0
149
0.0
 93
        0
 94
      127
282
     0
 72
     1
 77
     1
171
     1
175
     1
179
     1
273
     0
  0
ENDSEC
  0
EOF
