  0
SECTION
  2
HEADER
  9
$ACADVER
  1
AC1014
  9
$ACADMAINTVER
 70
     9
  9
$DWGCODEPAGE
  3
ANSI_1252
  9
$INSBASE
 10
0.0
 20
0.0
 30
0.0
  9
$EXTMIN
 10
1.000000000000000E+20
 20
1.000000000000000E+20
 30
1.000000000000000E+20
  9
$EXTMAX
 10
-1.000000000000000E+20
 20
-1.000000000000000E+20
 30
-1.000000000000000E+20
  9
$LIMMIN
 10
0.0
 20
0.0
  9
$LIMMAX
 10
12.0
 20
9.0
  9
$ORTHOMODE
 70
     0
  9
$REGENMODE
 70
     1
  9
$FILLMODE
 70
     1
  9
$QTEXTMODE
 70
     0
  9
$MIRRTEXT
 70
     1
  9
$DRAGMODE
 70
     2
  9
$LTSCALE
 40
1.0
  9
$OSMODE
 70
    37
  9
$ATTMODE
 70
     1
  9
$TEXTSIZE
 40
0.2
  9
$TRACEWID
 40
0.05
  9
$TEXTSTYLE
  7
STANDARD
  9
$CLAYER
  8
0
  9
$CELTYPE
  6
BYLAYER
  9
$CECOLOR
 62
   256
  9
$CELTSCALE
 40
1.0
  9
$DELOBJ
 70
     1
  9
$DISPSILH
 70
     0
  9
$DIMSCALE
 40
1.0
  9
$DIMASZ
 40
0.18
  9
$DIMEXO
 40
0.0625
  9
$DIMDLI
 40
0.38
  9
$DIMRND
 40
0.0
  9
$DIMDLE
 40
0.0
  9
$DIMEXE
 40
0.18
  9
$DIMTP
 40
0.0
  9
$DIMTM
 40
0.0
  9
$DIMTXT
 40
0.18
  9
$DIMCEN
 40
0.09
  9
$DIMTSZ
 40
0.0
  9
$DIMTOL
 70
     0
  9
$DIMLIM
 70
     0
  9
$DIMTIH
 70
     1
  9
$DIMTOH
 70
     1
  9
$DIMSE1
 70
     0
  9
$DIMSE2
 70
     0
  9
$DIMTAD
 70
     0
  9
$DIMZIN
 70
     0
  9
$DIMBLK
  1

  9
$DIMASO
 70
     1
  9
$DIMSHO
 70
     1
  9
$DIMPOST
  1

  9
$DIMAPOST
  1

  9
$DIMALT
 70
     0
  9
$DIMALTD
 70
     2
  9
$DIMALTF
 40
25.4
  9
$DIMLFAC
 40
1.0
  9
$DIMTOFL
 70
     0
  9
$DIMTVP
 40
0.0
  9
$DIMTIX
 70
     0
  9
$DIMSOXD
 70
     0
  9
$DIMSAH
 70
     0
  9
$DIMBLK1
  1

  9
$DIMBLK2
  1

  9
$DIMSTYLE
  2
STANDARD
  9
$DIMCLRD
 70
     0
  9
$DIMCLRE
 70
     0
  9
$DIMCLRT
 70
     0
  9
$DIMTFAC
 40
1.0
  9
$DIMGAP
 40
0.09
  9
$DIMJUST
 70
     0
  9
$DIMSD1
 70
     0
  9
$DIMSD2
 70
     0
  9
$DIMTOLJ
 70
     1
  9
$DIMTZIN
 70
     0
  9
$DIMALTZ
 70
     0
  9
$DIMALTTZ
 70
     0
  9
$DIMFIT
 70
     3
  9
$DIMUPT
 70
     0
  9
$DIMUNIT
 70
     2
  9
$DIMDEC
 70
     4
  9
$DIMTDEC
 70
     4
  9
$DIMALTU
 70
     2
  9
$DIMALTTD
 70
     2
  9
$DIMTXSTY
  7
STANDARD
  9
$DIMAUNIT
 70
     0
  9
$LUNITS
 70
     2
  9
$LUPREC
 70
     4
  9
$SKETCHINC
 40
0.1
  9
$FILLETRAD
 40
0.5
  9
$AUNITS
 70
     0
  9
$AUPREC
 70
     0
  9
$MENU
  1
.
  9
$ELEVATION
 40
0.0
  9
$PELEVATION
 40
0.0
  9
$THICKNESS
 40
0.0
  9
$LIMCHECK
 70
     0
  9
$CHAMFERA
 40
0.5
  9
$CHAMFERB
 40
0.5
  9
$CHAMFERC
 40
1.0
  9
$CHAMFERD
 40
0.0
  9
$SKPOLY
 70
     0
  9
$TDCREATE
 40
2459871.578479467
  9
$TDUPDATE
 40
2459871.578479699
  9
$TDINDWG
 40
0.0000000116
  9
$TDUSRTIMER
 40
0.0000000116
  9
$USRTIMER
 70
     1
  9
$ANGBASE
 50
0.0
  9
$ANGDIR
 70
     0
  9
$PDMODE
 70
     0
  9
$PDSIZE
 40
0.0
  9
$PLINEWID
 40
0.0
  9
$COORDS
 70
     1
  9
$SPLFRAME
 70
     0
  9
$SPLINETYPE
 70
     6
  9
$SPLINESEGS
 70
     8
  9
$ATTDIA
 70
     0
  9
$ATTREQ
 70
     1
  9
$HANDLING
 70
     1
  9
$HANDSEED
  5
82C
  9
$SURFTAB1
 70
     6
  9
$SURFTAB2
 70
     6
  9
$SURFTYPE
 70
     6
  9
$SURFU
 70
     6
  9
$SURFV
 70
     6
  9
$UCSNAME
  2

  9
$UCSORG
 10
0.0
 20
0.0
 30
0.0
  9
$UCSXDIR
 10
1.0
 20
0.0
 30
0.0
  9
$UCSYDIR
 10
0.0
 20
1.0
 30
0.0
  9
$PUCSNAME
  2

  9
$PUCSORG
 10
0.0
 20
0.0
 30
0.0
  9
$PUCSXDIR
 10
1.0
 20
0.0
 30
0.0
  9
$PUCSYDIR
 10
0.0
 20
1.0
 30
0.0
  9
$USERI1
 70
     0
  9
$USERI2
 70
     0
  9
$USERI3
 70
     0
  9
$USERI4
 70
     0
  9
$USERI5
 70
     0
  9
$USERR1
 40
0.0
  9
$USERR2
 40
0.0
  9
$USERR3
 40
0.0
  9
$USERR4
 40
0.0
  9
$USERR5
 40
0.0
  9
$WORLDVIEW
 70
     1
  9
$SHADEDGE
 70
     3
  9
$SHADEDIF
 70
    70
  9
$TILEMODE
 70
     1
  9
$MAXACTVP
 70
    64
  9
$PINSBASE
 10
0.0
 20
0.0
 30
0.0
  9
$PLIMCHECK
 70
     0
  9
$PEXTMIN
 10
1.000000000000000E+20
 20
1.000000000000000E+20
 30
1.000000000000000E+20
  9
$PEXTMAX
 10
-1.000000000000000E+20
 20
-1.000000000000000E+20
 30
-1.000000000000000E+20
  9
$PLIMMIN
 10
0.0
 20
0.0
  9
$PLIMMAX
 10
12.0
 20
9.0
  9
$UNITMODE
 70
     0
  9
$VISRETAIN
 70
     1
  9
$PLINEGEN
 70
     0
  9
$PSLTSCALE
 70
     1
  9
$TREEDEPTH
 70
  3020
  9
$PICKSTYLE
 70
     1
  9
$CMLSTYLE
  2
STANDARD
  9
$CMLJUST
 70
     0
  9
$CMLSCALE
 40
1.0
  9
$PROXYGRAPHICS
 70
     1
  9
$MEASUREMENT
 70
     0
  0
ENDSEC
  0
SECTION
  2
CLASSES
  0
CLASS
  1
ACDBDICTIONARYWDFLT
  2
AcDbDictionaryWithDefault
  3
ObjectDBX Classes
 90
        0
280
     0
281
     0
  0
CLASS
  1
VISUALSTYLE
  2
AcDbVisualStyle
  3
ObjectDBX Classes
 90
     4095
280
     0
281
     0
  0
CLASS
  1
MATERIAL
  2
AcDbMaterial
  3
ObjectDBX Classes
 90
     1153
280
     0
281
     0
  0
CLASS
  1
SUN
  2
AcDbSun
  3
SCENEOE
 90
     1024
280
     0
281
     0
  0
CLASS
  1
DICTIONARYVAR
  2
AcDbDictionaryVar
  3
ObjectDBX Classes
 90
        0
280
     0
281
     0
  0
CLASS
  1
XRECORD
  2
AcDbXrecord
  3
AutoCAD 2000
 90
        0
280
     0
281
     0
  0
CLASS
  1
LWPOLYLINE
  2
AcDbPolyline
  3
AutoCAD 2000
 90
        0
280
     0
281
     1
  0
CLASS
  1
HATCH
  2
AcDbHatch
  3
AutoCAD 2000
 90
        0
280
     0
281
     1
  0
CLASS
  1
ACDBPLACEHOLDER
  2
AcDbPlaceHolder
  3
ObjectDBX Classes
 90
        0
280
     0
281
     0
  0
CLASS
  1
LAYOUT
  2
AcDbLayout
  3
ObjectDBX Classes
 90
        0
280
     0
281
     0
  0
ENDSEC
  0
SECTION
  2
TABLES
  0
TABLE
  2
VPORT
  5
8
330
0
100
AcDbSymbolTable
 70
     1
  0
VPORT
  5
29
330
8
100
AcDbSymbolTableRecord
100
AcDbViewportTableRecord
  2
*ACTIVE
 70
     0
 10
0.0
 20
0.0
 11
1.0
 21
1.0
 12
0.0
 22
0.0
 13
0.0
 23
0.0
 14
0.5
 24
0.5
 15
0.5
 25
0.5
 16
0.0
 26
0.0
 36
1.0
 17
74.99999786197358
 27
39.74999886684608
 37
0.0
 40
39.99999998999989
 41
3.000000000000008
 42
50.0
 43
0.0
 44
0.0
 50
0.0
 51
0.0
 71
     0
 72
   100
 73
     1
 74
     3
 75
     0
 76
     0
 77
     0
 78
     0
  0
ENDTAB
  0
TABLE
  2
LTYPE
  5
5
330
0
100
AcDbSymbolTable
 70
     1
  0
LTYPE
  5
14
330
5
100
AcDbSymbolTableRecord
100
AcDbLinetypeTableRecord
  2
BYBLOCK
 70
     0
  3

 72
    65
 73
     0
 40
0.0
  0
LTYPE
  5
15
330
5
100
AcDbSymbolTableRecord
100
AcDbLinetypeTableRecord
  2
BYLAYER
 70
     0
  3

 72
    65
 73
     0
 40
0.0
  0
LTYPE
  5
16
330
5
100
AcDbSymbolTableRecord
100
AcDbLinetypeTableRecord
  2
CONTINUOUS
 70
     0
  3
Solid line
 72
    65
 73
     0
 40
0.0
  0
ENDTAB
  0
TABLE
  2
LAYER
  5
2
330
0
100
AcDbSymbolTable
 70
     6
  0
LAYER
  5
10
330
2
100
AcDbSymbolTableRecord
100
AcDbLayerTableRecord
  2
0
 70
     0
 62
     7
  6
CONTINUOUS
  0
LAYER
  5
40
330
2
100
AcDbSymbolTableRecord
100
AcDbLayerTableRecord
  2
REFERENCIAS
 70
     0
 62
     7
  6
CONTINUOUS
  0
LAYER
  5
42
330
2
100
AcDbSymbolTableRecord
100
AcDbLayerTableRecord
  2
M_U_00C1RGENES
 70
     4
 62
     7
  6
CONTINUOUS
  0
LAYER
  5
5B
330
2
100
AcDbSymbolTableRecord
100
AcDbLayerTableRecord
  2
DIBUJOS
 70
     4
 62
     7
  6
CONTINUOUS
  0
LAYER
  5
7E1
330
2
100
AcDbSymbolTableRecord
100
AcDbLayerTableRecord
  2
COTAS_LINEA
 70
     0
 62
     7
  6
CONTINUOUS
  0
LAYER
  5
7FA
330
2
100
AcDbSymbolTableRecord
100
AcDbLayerTableRecord
  2
COTAS_N_U_00DAMERO
 70
     0
 62
     7
  6
CONTINUOUS
  0
ENDTAB
  0
TABLE
  2
STYLE
  5
3
330
0
100
AcDbSymbolTable
 70
     1
  0
STYLE
  5
11
330
3
100
AcDbSymbolTableRecord
100
AcDbTextStyleTableRecord
  2
STANDARD
 70
     0
 40
0.0
 41
1.0
 50
0.0
 71
     0
 42
0.2
  3
txt
  4

  0
ENDTAB
  0
TABLE
  2
VIEW
  5
6
330
0
100
AcDbSymbolTable
 70
     0
  0
ENDTAB
  0
TABLE
  2
UCS
  5
7
330
0
100
AcDbSymbolTable
 70
     0
  0
ENDTAB
  0
TABLE
  2
APPID
  5
9
330
0
100
AcDbSymbolTable
 70
     1
  0
APPID
  5
12
330
9
100
AcDbSymbolTableRecord
100
AcDbRegAppTableRecord
  2
ACAD
 70
     0
  0
ENDTAB
  0
TABLE
  2
DIMSTYLE
  5
A
330
0
100
AcDbSymbolTable
 70
     1
  0
DIMSTYLE
105
27
330
A
100
AcDbSymbolTableRecord
100
AcDbDimStyleTableRecord
  2
STANDARD
 70
     0
  3

  4

  5

  6

  7

 40
1.0
 41
0.18
 42
0.0625
 43
0.38
 44
0.18
 45
0.0
 46
0.0
 47
0.0
 48
0.0
140
0.18
141
0.09
142
0.0
143
25.4
144
1.0
145
0.0
146
1.0
147
0.09
 71
     0
 72
     0
 73
     1
 74
     1
 75
     0
 76
     0
 77
     0
 78
     0
170
     0
171
     2
172
     0
173
     0
174
     0
175
     0
176
     0
177
     0
178
     0
270
     2
271
     4
272
     4
273
     2
274
     2
340
11
275
     0
280
     0
281
     0
282
     0
283
     1
284
     0
285
     0
286
     0
287
     3
288
     0
  0
ENDTAB
  0
TABLE
  2
BLOCK_RECORD
  5
1
330
0
100
AcDbSymbolTable
 70
     1
  0
BLOCK_RECORD
  5
1F
330
1
100
AcDbSymbolTableRecord
100
AcDbBlockTableRecord
  2
*MODEL_SPACE
  0
BLOCK_RECORD
  5
1B
330
1
100
AcDbSymbolTableRecord
100
AcDbBlockTableRecord
  2
*PAPER_SPACE
  0
ENDTAB
  0
ENDSEC
  0
SECTION
  2
BLOCKS
  0
BLOCK
  5
20
330
1F
100
AcDbEntity
  8
0
100
AcDbBlockBegin
  2
*MODEL_SPACE
 70
     0
 10
0.0
 20
0.0
 30
0.0
  3
*MODEL_SPACE
  1

  0
ENDBLK
  5
21
330
1F
100
AcDbEntity
  8
0
100
AcDbBlockEnd
  0
BLOCK
  5
1C
330
1B
100
AcDbEntity
 67
     1
  8
0
100
AcDbBlockBegin
  2
*PAPER_SPACE
 70
     0
 10
0.0
 20
0.0
 30
0.0
  3
*PAPER_SPACE
  1

  0
ENDBLK
  5
1D
330
1B
100
AcDbEntity
 67
     1
  8
0
100
AcDbBlockEnd
  0
ENDSEC
  0
SECTION
  2
ENTITIES
  0
MTEXT
  5
41
330
1F
100
AcDbEntity
  8
REFERENCIAS
 62
   255
100
AcDbMText
 10
20.93094777802549
 20
54.85563098807646
 30
0.0
 40
1.49859999962535
 41
0.0
 71
     7
 72
     1
  1
\fMyriad Pro|b0|i0|c0|p34;\W1;MIAMI_954-1PL_954-2PL_954-3PL__SOFA
  0
MTEXT
  5
43
330
1F
100
AcDbEntity
  8
M_U_00C1RGENES
 62
   255
100
AcDbMText
 10
130.1412810953944
 20
23.75824243163504
 30
0.0
 40
1.748366666229575
 41
0.0
 71
     7
 72
     1
  1
\fMyriad Pro|b0|i0|c0|p34;\W1;400
  0
MTEXT
  5
44
330
1F
100
AcDbEntity
  8
M_U_00C1RGENES
 62
   255
100
AcDbMText
 10
122.9448319021794
 20
20.50605109814752
 30
0.0
 40
1.748366666229575
 41
0.0
 71
     7
 72
     1
  1
\fMyriad Pro|b0|i0|c0|p34;\W1;1200
  0
MTEXT
  5
45
330
1F
100
AcDbEntity
  8
M_U_00C1RGENES
 62
   255
100
AcDbMText
 10
90.34437779181278
 20
20.50605109814752
 30
0.0
 40
1.748366666229575
 41
0.0
 71
     7
 72
     1
  1
\fMyriad Pro|b0|i0|c0|p34;\W1;800
  0
MTEXT
  5
46
330
1F
100
AcDbEntity
  8
M_U_00C1RGENES
 62
   255
100
AcDbMText
 10
50.13266345996033
 20
20.50605109814752
 30
0.0
 40
1.748366666229575
 41
0.0
 71
     7
 72
     1
  1
\fMyriad Pro|b0|i0|c0|p34;\W1;400
  0
POLYLINE
  5
47
330
1F
100
AcDbEntity
  8
M_U_00C1RGENES
 62
   255
100
AcDb2dPolyline
 66
     1
 10
0.0
 20
0.0
 30
0.0
  0
VERTEX
  5
48
330
47
100
AcDbEntity
  8
M_U_00C1RGENES
 62
   255
100
AcDbVertex
100
AcDb2dVertex
 10
94.98398320590292
 20
20.88532038344252
 30
0.0
  0
VERTEX
  5
49
330
47
100
AcDbEntity
  8
M_U_00C1RGENES
 62
   255
100
AcDbVertex
100
AcDb2dVertex
 10
94.98398320590292
 20
19.74999894270961
 30
0.0
  0
SEQEND
  5
4A
330
47
100
AcDbEntity
  8
M_U_00C1RGENES
 62
   255
  0
POLYLINE
  5
4B
330
1F
100
AcDbEntity
  8
M_U_00C1RGENES
 62
   255
100
AcDb2dPolyline
 66
     1
 10
0.0
 20
0.0
 30
0.0
  0
VERTEX
  5
4C
330
4B
100
AcDbEntity
  8
M_U_00C1RGENES
 62
   255
100
AcDbVertex
100
AcDb2dVertex
 10
55.00283188940081
 20
20.88532038344252
 30
0.0
  0
VERTEX
  5
4D
330
4B
100
AcDbEntity
  8
M_U_00C1RGENES
 62
   255
100
AcDbVertex
100
AcDb2dVertex
 10
55.00283188940081
 20
19.74999894270961
 30
0.0
  0
SEQEND
  5
4E
330
4B
100
AcDbEntity
  8
M_U_00C1RGENES
 62
   255
  0
POLYLINE
  5
4F
330
1F
100
AcDbEntity
  8
M_U_00C1RGENES
 62
   255
100
AcDb2dPolyline
 66
     1
 10
0.0
 20
0.0
 30
0.0
  0
VERTEX
  5
50
330
4F
100
AcDbEntity
  8
M_U_00C1RGENES
 62
   255
100
AcDbVertex
100
AcDb2dVertex
 10
124.4166645319012
 20
24.76587593802794
 30
0.0
  0
VERTEX
  5
51
330
4F
100
AcDbEntity
  8
M_U_00C1RGENES
 62
   255
100
AcDbVertex
100
AcDb2dVertex
 10
134.9999978625887
 20
19.74999894270961
 30
0.0
  0
SEQEND
  5
52
330
4F
100
AcDbEntity
  8
M_U_00C1RGENES
 62
   255
  0
POLYLINE
  5
53
330
1F
100
AcDbEntity
  8
M_U_00C1RGENES
 62
   254
100
AcDb2dPolyline
 66
     1
 10
0.0
 20
0.0
 30
0.0
  0
VERTEX
  5
54
330
53
100
AcDbEntity
  8
M_U_00C1RGENES
 62
   254
100
AcDbVertex
100
AcDb2dVertex
 10
14.99999791907867
 20
20.88258920325216
 30
0.0
  0
VERTEX
  5
55
330
53
100
AcDbEntity
  8
M_U_00C1RGENES
 62
   254
100
AcDbVertex
100
AcDb2dVertex
 10
14.99999791907867
 20
19.74726776251925
 30
0.0
  0
SEQEND
  5
56
330
53
100
AcDbEntity
  8
M_U_00C1RGENES
 62
   254
  0
POLYLINE
  5
57
330
1F
100
AcDbEntity
  8
M_U_00C1RGENES
 62
   255
100
AcDb2dPolyline
 66
     1
 10
0.0
 20
0.0
 30
0.0
  0
VERTEX
  5
58
330
57
100
AcDbEntity
  8
M_U_00C1RGENES
 62
   255
100
AcDbVertex
100
AcDb2dVertex
 10
134.9999977300913
 20
59.74999886675599
 30
0.0
  0
VERTEX
  5
59
330
57
100
AcDbEntity
  8
M_U_00C1RGENES
 62
   255
100
AcDbVertex
100
AcDb2dVertex
 10
133.8646762893584
 20
59.7499988667053
 30
0.0
  0
SEQEND
  5
5A
330
57
100
AcDbEntity
  8
M_U_00C1RGENES
 62
   255
  0
POLYLINE
  5
5C
330
1F
100
AcDbEntity
  8
DIBUJOS
 62
     7
100
AcDb2dPolyline
 66
     1
 10
0.0
 20
0.0
 30
0.0
  0
VERTEX
  5
5D
330
5C
100
AcDbEntity
  8
DIBUJOS
 62
     7
100
AcDbVertex
100
AcDb2dVertex
 10
31.12177240253347
 20
49.16448240866193
 30
0.0
  0
VERTEX
  5
5E
330
5C
100
AcDbEntity
  8
DIBUJOS
 62
     7
100
AcDbVertex
100
AcDb2dVertex
 10
31.11702905447211
 20
49.16577728382456
 30
0.0
  0
VERTEX
  5
5F
330
5C
100
AcDbEntity
  8
DIBUJOS
 62
     7
100
AcDbVertex
100
AcDb2dVertex
 10
30.97278645059014
 20
49.29518227934287
 30
0.0
  0
VERTEX
  5
60
330
5C
100
AcDbEntity
  8
DIBUJOS
 62
     7
100
AcDbVertex
100
AcDb2dVertex
 10
30.75730126449905
 20
49.32709035654928
 30
0.0
  0
VERTEX
  5
61
330
5C
100
AcDbEntity
  8
DIBUJOS
 62
     7
100
AcDbVertex
100
AcDb2dVertex
 10
29.28820351602168
 20
49.36073598228211
 30
0.0
  0
VERTEX
  5
62
330
5C
100
AcDbEntity
  8
DIBUJOS
 62
     7
100
AcDbVertex
100
AcDb2dVertex
 10
28.1387195926845
 20
49.36634107127351
 30
0.0
  0
VERTEX
  5
63
330
5C
100
AcDbEntity
  8
DIBUJOS
 62
     7
100
AcDbVertex
100
AcDb2dVertex
 10
28.13311299451481
 20
49.37194917862179
 30
0.0
  0
VERTEX
  5
64
330
5C
100
AcDbEntity
  8
DIBUJOS
 62
     7
100
AcDbVertex
100
AcDb2dVertex
 10
25.85096494235045
 20
49.36634107127351
 30
0.0
  0
VERTEX
  5
65
330
5C
100
AcDbEntity
  8
DIBUJOS
 62
     7
100
AcDbVertex
100
AcDb2dVertex
 10
24.76876698835414
 20
49.35232382125952
 30
0.0
  0
VERTEX
  5
66
330
5C
100
AcDbEntity
  8
DIBUJOS
 62
     7
100
AcDbVertex
100
AcDb2dVertex
 10
23.74809446932086
 20
49.32411425652521
 30
0.0
  0
VERTEX
  5
67
330
5C
100
AcDbEntity
  8
DIBUJOS
 62
     7
100
AcDbVertex
100
AcDb2dVertex
 10
23.65868771594965
 20
49.31885326023431
 30
0.0
  0
VERTEX
  5
68
330
5C
100
AcDbEntity
  8
DIBUJOS
 62
     7
100
AcDbVertex
100
AcDb2dVertex
 10
23.46536345782008
 20
49.22352429324967
 30
0.0
  0
VERTEX
  5
69
330
5C
100
AcDbEntity
  8
DIBUJOS
 62
     7
100
AcDbVertex
100
AcDb2dVertex
 10
23.45919544524396
 20
49.21903599635672
 30
0.0
  0
SEQEND
  5
6A
330
5C
100
AcDbEntity
  8
DIBUJOS
 62
     7
  0
POLYLINE
  5
6B
330
1F
100
AcDbEntity
  8
DIBUJOS
 62
     7
100
AcDb2dPolyline
 66
     1
 10
0.0
 20
0.0
 30
0.0
  0
VERTEX
  5
6C
330
6B
100
AcDbEntity
  8
DIBUJOS
 62
     7
100
AcDbVertex
100
AcDb2dVertex
 10
51.18031453593059
 20
49.26541023078912
 30
0.0
  0
VERTEX
  5
6D
330
6B
100
AcDbEntity
  8
DIBUJOS
 62
     7
100
AcDbVertex
100
AcDb2dVertex
 10
51.08454810431231
 20
49.31640235433149
 30
0.0
  0
VERTEX
  5
6E
330
6B
100
AcDbEntity
  8
DIBUJOS
 62
     7
100
AcDbVertex
100
AcDb2dVertex
 10
49.98036368317293
 20
49.35512787493382
 30
0.0
  0
VERTEX
  5
6F
330
6B
100
AcDbEntity
  8
DIBUJOS
 62
     7
100
AcDbVertex
100
AcDb2dVertex
 10
48.90377308193592
 20
49.36634107127351
 30
0.0
  0
VERTEX
  5
70
330
6B
100
AcDbEntity
  8
DIBUJOS
 62
     7
100
AcDbVertex
100
AcDb2dVertex
 10
46.5767375333072
 20
49.36911494137737
 30
0.0
  0
VERTEX
  5
71
330
6B
100
AcDbEntity
  8
DIBUJOS
 62
     7
100
AcDbVertex
100
AcDb2dVertex
 10
44.97312670411007
 20
49.35235702318685
 30
0.0
  0
VERTEX
  5
72
330
6B
100
AcDbEntity
  8
DIBUJOS
 62
     7
100
AcDbVertex
100
AcDb2dVertex
 10
43.86299008292221
 20
49.31882005830698
 30
0.0
  0
VERTEX
  5
73
330
6B
100
AcDbEntity
  8
DIBUJOS
 62
     7
100
AcDbVertex
100
AcDb2dVertex
 10
43.7675405787912
 20
49.26541023078912
 30
0.0
  0
SEQEND
  5
74
330
6B
100
AcDbEntity
  8
DIBUJOS
 62
     7
  0
POLYLINE
  5
75
330
1F
100
AcDbEntity
  8
DIBUJOS
 62
     7
100
AcDb2dPolyline
 66
     1
 10
0.0
 20
0.0
 30
0.0
  0
VERTEX
  5
76
330
75
100
AcDbEntity
  8
DIBUJOS
 62
     7
100
AcDbVertex
100
AcDb2dVertex
 10
58.85662728144174
 20
49.26541023078912
 30
0.0
  0
VERTEX
  5
77
330
75
100
AcDbEntity
  8
DIBUJOS
 62
     7
100
AcDbVertex
100
AcDb2dVertex
 10
58.85158058849956
 20
49.26653305960166
 30
0.0
  0
VERTEX
  5
78
330
75
100
AcDbEntity
  8
DIBUJOS
 62
     7
100
AcDbVertex
100
AcDb2dVertex
 10
58.75555759653426
 20
49.31883515009204
 30
0.0
  0
VERTEX
  5
79
330
75
100
AcDbEntity
  8
DIBUJOS
 62
     7
100
AcDbVertex
100
AcDb2dVertex
 10
58.65490746325292
 20
49.32413236666715
 30
0.0
  0
VERTEX
  5
7A
330
75
100
AcDbEntity
  8
DIBUJOS
 62
     7
100
AcDbVertex
100
AcDb2dVertex
 10
57.67350075072925
 20
49.35512787493382
 30
0.0
  0
VERTEX
  5
7B
330
75
100
AcDbEntity
  8
DIBUJOS
 62
     7
100
AcDbVertex
100
AcDb2dVertex
 10
57.66789264338065
 20
49.34951976758553
 30
0.0
  0
VERTEX
  5
7C
330
75
100
AcDbEntity
  8
DIBUJOS
 62
     7
100
AcDbVertex
100
AcDb2dVertex
 10
56.65298216790379
 20
49.36634107127351
 30
0.0
  0
VERTEX
  5
7D
330
75
100
AcDbEntity
  8
DIBUJOS
 62
     7
100
AcDbVertex
100
AcDb2dVertex
 10
54.26426951187212
 20
49.36911795973425
 30
0.0
  0
VERTEX
  5
7E
330
75
100
AcDbEntity
  8
DIBUJOS
 62
     7
100
AcDbVertex
100
AcDb2dVertex
 10
52.63822927163873
 20
49.35236004154405
 30
0.0
  0
VERTEX
  5
7F
330
75
100
AcDbEntity
  8
DIBUJOS
 62
     7
100
AcDbVertex
100
AcDb2dVertex
 10
51.53930282843271
 20
49.31882005830698
 30
0.0
  0
VERTEX
  5
80
330
75
100
AcDbEntity
  8
DIBUJOS
 62
     7
100
AcDbVertex
100
AcDb2dVertex
 10
51.44385332430234
 20
49.26541023078912
 30
0.0
  0
SEQEND
  5
81
330
75
100
AcDbEntity
  8
DIBUJOS
 62
     7
  0
POLYLINE
  5
82
330
1F
100
AcDbEntity
  8
DIBUJOS
 62
     7
100
AcDb2dPolyline
 66
     1
 10
0.0
 20
0.0
 30
0.0
  0
VERTEX
  5
83
330
82
100
AcDbEntity
  8
DIBUJOS
 62
     7
100
AcDbVertex
100
AcDb2dVertex
 10
58.90709421086221
 20
45.94592380129026
 30
0.0
  0
VERTEX
  5
84
330
82
100
AcDbEntity
  8
DIBUJOS
 62
     7
100
AcDbVertex
100
AcDb2dVertex
 10
58.91569049166308
 20
48.69363682325255
 30
0.0
  0
VERTEX
  5
85
330
82
100
AcDbEntity
  8
DIBUJOS
 62
     7
100
AcDbVertex
100
AcDb2dVertex
 10
58.9183074072019
 20
49.18493922381488
 30
0.0
  0
SEQEND
  5
86
330
82
100
AcDbEntity
  8
DIBUJOS
 62
     7
  0
POLYLINE
  5
87
330
1F
100
AcDbEntity
  8
DIBUJOS
 62
     7
100
AcDb2dPolyline
 66
     1
 10
0.0
 20
0.0
 30
0.0
  0
VERTEX
  5
88
330
87
100
AcDbEntity
  8
DIBUJOS
 62
     7
100
AcDbVertex
100
AcDb2dVertex
 10
51.30927987644233
 20
47.03933570621524
 30
0.0
  0
VERTEX
  5
89
330
87
100
AcDbEntity
  8
DIBUJOS
 62
     7
100
AcDbVertex
100
AcDb2dVertex
 10
51.30927987644233
 20
49.18691181969818
 30
0.0
  0
SEQEND
  5
8A
330
87
100
AcDbEntity
  8
DIBUJOS
 62
     7
  0
POLYLINE
  5
8B
330
1F
100
AcDbEntity
  8
DIBUJOS
 62
     7
100
AcDb2dPolyline
 66
     1
 10
0.0
 20
0.0
 30
0.0
  0
VERTEX
  5
8C
330
8B
100
AcDbEntity
  8
DIBUJOS
 62
     7
100
AcDbVertex
100
AcDb2dVertex
 10
23.42302873680779
 20
47.02812250987555
 30
0.0
  0
VERTEX
  5
8D
330
8B
100
AcDbEntity
  8
DIBUJOS
 62
     7
100
AcDbVertex
100
AcDb2dVertex
 10
24.30897311718393
 20
47.03933570621524
 30
0.0
  0
VERTEX
  5
8E
330
8B
100
AcDbEntity
  8
DIBUJOS
 62
     7
100
AcDbVertex
100
AcDb2dVertex
 10
30.18536335650476
 20
47.03933570621524
 30
0.0
  0
VERTEX
  5
8F
330
8B
100
AcDbEntity
  8
DIBUJOS
 62
     7
100
AcDbVertex
100
AcDb2dVertex
 10
31.05537429684285
 20
47.02812250987555
 30
0.0
  0
VERTEX
  5
90
330
8B
100
AcDbEntity
  8
DIBUJOS
 62
     7
100
AcDbVertex
100
AcDb2dVertex
 10
31.06098089501253
 20
47.03373061722384
 30
0.0
  0
SEQEND
  5
91
330
8B
100
AcDbEntity
  8
DIBUJOS
 62
     7
  0
POLYLINE
  5
92
330
1F
100
AcDbEntity
  8
DIBUJOS
 62
     7
100
AcDb2dPolyline
 66
     1
 10
0.0
 20
0.0
 30
0.0
  0
VERTEX
  5
93
330
92
100
AcDbEntity
  8
DIBUJOS
 62
     7
100
AcDbVertex
100
AcDb2dVertex
 10
51.23546005663558
 20
46.95802950214939
 30
0.0
  0
VERTEX
  5
94
330
92
100
AcDbEntity
  8
DIBUJOS
 62
     7
100
AcDbVertex
100
AcDb2dVertex
 10
50.8937065844988
 20
47.03933570621524
 30
0.0
  0
VERTEX
  5
95
330
92
100
AcDbEntity
  8
DIBUJOS
 62
     7
100
AcDbVertex
100
AcDb2dVertex
 10
44.51890924753973
 20
47.03933570621524
 30
0.0
  0
VERTEX
  5
96
330
92
100
AcDbEntity
  8
DIBUJOS
 62
     7
100
AcDbVertex
100
AcDb2dVertex
 10
43.67221482729821
 20
46.99868260418215
 30
0.0
  0
SEQEND
  5
97
330
92
100
AcDbEntity
  8
DIBUJOS
 62
     7
  0
POLYLINE
  5
98
330
1F
100
AcDbEntity
  8
DIBUJOS
 62
     7
100
AcDb2dPolyline
 66
     1
 10
0.0
 20
0.0
 30
0.0
  0
VERTEX
  5
99
330
98
100
AcDbEntity
  8
DIBUJOS
 62
     7
100
AcDbVertex
100
AcDb2dVertex
 10
51.30927987644233
 20
46.95802950214939
 30
0.0
  0
VERTEX
  5
9A
330
98
100
AcDbEntity
  8
DIBUJOS
 62
     7
100
AcDbVertex
100
AcDb2dVertex
 10
51.6122836828867
 20
47.02556897983418
 30
0.0
  0
VERTEX
  5
9B
330
98
100
AcDbEntity
  8
DIBUJOS
 62
     7
100
AcDbVertex
100
AcDb2dVertex
 10
52.16157938567461
 20
47.03933570621524
 30
0.0
  0
VERTEX
  5
9C
330
98
100
AcDbEntity
  8
DIBUJOS
 62
     7
100
AcDbVertex
100
AcDb2dVertex
 10
58.07722109430897
 20
47.03933570621524
 30
0.0
  0
VERTEX
  5
9D
330
98
100
AcDbEntity
  8
DIBUJOS
 62
     7
100
AcDbVertex
100
AcDb2dVertex
 10
58.9183074072019
 20
46.99868260418215
 30
0.0
  0
SEQEND
  5
9E
330
98
100
AcDbEntity
  8
DIBUJOS
 62
     7
  0
POLYLINE
  5
9F
330
1F
100
AcDbEntity
  8
DIBUJOS
 62
     7
100
AcDb2dPolyline
 66
     1
 10
0.0
 20
0.0
 30
0.0
  0
VERTEX
  5
A0
330
9F
100
AcDbEntity
  8
DIBUJOS
 62
     7
100
AcDbVertex
100
AcDb2dVertex
 10
43.67221482729821
 20
49.26793210312398
 30
0.0
  0
VERTEX
  5
A1
330
9F
100
AcDbEntity
  8
DIBUJOS
 62
     7
100
AcDbVertex
100
AcDb2dVertex
 10
43.67221482729821
 20
49.27354021047227
 30
0.0
  0
SEQEND
  5
A2
330
9F
100
AcDbEntity
  8
DIBUJOS
 62
     7
  0
POLYLINE
  5
A3
330
1F
100
AcDbEntity
  8
DIBUJOS
 62
     7
100
AcDb2dPolyline
 66
     1
 10
0.0
 20
0.0
 30
0.0
  0
VERTEX
  5
A4
330
A3
100
AcDbEntity
  8
DIBUJOS
 62
     7
100
AcDbVertex
100
AcDb2dVertex
 10
43.67782293464649
 20
49.26793210312398
 30
0.0
  0
VERTEX
  5
A5
330
A3
100
AcDbEntity
  8
DIBUJOS
 62
     7
100
AcDbVertex
100
AcDb2dVertex
 10
43.67221482729821
 20
49.26793210312398
 30
0.0
  0
SEQEND
  5
A6
330
A3
100
AcDbEntity
  8
DIBUJOS
 62
     7
  0
POLYLINE
  5
A7
330
1F
100
AcDbEntity
  8
DIBUJOS
 62
     7
100
AcDb2dPolyline
 66
     1
 10
0.0
 20
0.0
 30
0.0
  0
VERTEX
  5
A8
330
A7
100
AcDbEntity
  8
DIBUJOS
 62
     7
100
AcDbVertex
100
AcDb2dVertex
 10
43.67782293464649
 20
49.26793210312398
 30
0.0
  0
VERTEX
  5
A9
330
A7
100
AcDbEntity
  8
DIBUJOS
 62
     7
100
AcDbVertex
100
AcDb2dVertex
 10
43.68343104199477
 20
49.27354021047227
 30
0.0
  0
SEQEND
  5
AA
330
A7
100
AcDbEntity
  8
DIBUJOS
 62
     7
  0
POLYLINE
  5
AB
330
1F
100
AcDbEntity
  8
DIBUJOS
 62
     7
100
AcDb2dPolyline
 66
     1
 10
0.0
 20
0.0
 30
0.0
  0
VERTEX
  5
AC
330
AB
100
AcDbEntity
  8
DIBUJOS
 62
     7
100
AcDbVertex
100
AcDb2dVertex
 10
43.67221482729821
 20
49.2623270141329
 30
0.0
  0
VERTEX
  5
AD
330
AB
100
AcDbEntity
  8
DIBUJOS
 62
     7
100
AcDbVertex
100
AcDb2dVertex
 10
43.67221482729821
 20
49.26793210312398
 30
0.0
  0
SEQEND
  5
AE
330
AB
100
AcDbEntity
  8
DIBUJOS
 62
     7
  0
POLYLINE
  5
AF
330
1F
100
AcDbEntity
  8
DIBUJOS
 62
     7
100
AcDb2dPolyline
 66
     1
 10
0.0
 20
0.0
 30
0.0
  0
VERTEX
  5
B0
330
AF
100
AcDbEntity
  8
DIBUJOS
 62
     7
100
AcDbVertex
100
AcDb2dVertex
 10
21.2698479116281
 20
46.0076039270501
 30
0.0
  0
VERTEX
  5
B1
330
AF
100
AcDbEntity
  8
DIBUJOS
 62
     7
100
AcDbVertex
100
AcDb2dVertex
 10
21.32548905957528
 20
45.99423260543946
 30
0.0
  0
VERTEX
  5
B2
330
AF
100
AcDbEntity
  8
DIBUJOS
 62
     7
100
AcDbVertex
100
AcDb2dVertex
 10
21.35956366929987
 20
45.98517451601416
 30
0.0
  0
VERTEX
  5
B3
330
AF
100
AcDbEntity
  8
DIBUJOS
 62
     7
100
AcDbVertex
100
AcDb2dVertex
 10
22.05486182881449
 20
45.98517451601416
 30
0.0
  0
VERTEX
  5
B4
330
AF
100
AcDbEntity
  8
DIBUJOS
 62
     7
100
AcDbVertex
100
AcDb2dVertex
 10
22.06046918157348
 20
45.99078262336245
 30
0.0
  0
VERTEX
  5
B5
330
AF
100
AcDbEntity
  8
DIBUJOS
 62
     7
100
AcDbVertex
100
AcDb2dVertex
 10
22.08289783802043
 20
45.99078262336245
 30
0.0
  0
VERTEX
  5
B6
330
AF
100
AcDbEntity
  8
DIBUJOS
 62
     7
100
AcDbVertex
100
AcDb2dVertex
 10
22.08850519077941
 20
45.98517451601416
 30
0.0
  0
VERTEX
  5
B7
330
AF
100
AcDbEntity
  8
DIBUJOS
 62
     7
100
AcDbVertex
100
AcDb2dVertex
 10
22.11093384722637
 20
45.99078262336245
 30
0.0
  0
VERTEX
  5
B8
330
AF
100
AcDbEntity
  8
DIBUJOS
 62
     7
100
AcDbVertex
100
AcDb2dVertex
 10
23.31137895594651
 20
45.98880258115536
 30
0.0
  0
VERTEX
  5
B9
330
AF
100
AcDbEntity
  8
DIBUJOS
 62
     7
100
AcDbVertex
100
AcDb2dVertex
 10
23.3725633165656
 20
46.00199581970214
 30
0.0
  0
VERTEX
  5
BA
330
AF
100
AcDbEntity
  8
DIBUJOS
 62
     7
100
AcDbVertex
100
AcDb2dVertex
 10
23.38740608722508
 20
46.02492024128984
 30
0.0
  0
VERTEX
  5
BB
330
AF
100
AcDbEntity
  8
DIBUJOS
 62
     7
100
AcDbVertex
100
AcDb2dVertex
 10
23.40287290319916
 20
46.09694125821009
 30
0.0
  0
VERTEX
  5
BC
330
AF
100
AcDbEntity
  8
DIBUJOS
 62
     7
100
AcDbVertex
100
AcDb2dVertex
 10
23.40060008036084
 20
48.66543631358856
 30
0.0
  0
VERTEX
  5
BD
330
AF
100
AcDbEntity
  8
DIBUJOS
 62
     7
100
AcDbVertex
100
AcDb2dVertex
 10
23.40620743311982
 20
48.67104442093717
 30
0.0
  0
VERTEX
  5
BE
330
AF
100
AcDbEntity
  8
DIBUJOS
 62
     7
100
AcDbVertex
100
AcDb2dVertex
 10
23.40060008036084
 20
48.83365538718173
 30
0.0
  0
VERTEX
  5
BF
330
AF
100
AcDbEntity
  8
DIBUJOS
 62
     7
100
AcDbVertex
100
AcDb2dVertex
 10
23.40309777079713
 20
49.05258587711389
 30
0.0
  0
VERTEX
  5
C0
330
AF
100
AcDbEntity
  8
DIBUJOS
 62
     7
100
AcDbVertex
100
AcDb2dVertex
 10
23.39810163533524
 20
49.10255175926883
 30
0.0
  0
VERTEX
  5
C1
330
AF
100
AcDbEntity
  8
DIBUJOS
 62
     7
100
AcDbVertex
100
AcDb2dVertex
 10
23.36583539876198
 20
49.16952910160378
 30
0.0
  0
VERTEX
  5
C2
330
AF
100
AcDbEntity
  8
DIBUJOS
 62
     7
100
AcDbVertex
100
AcDb2dVertex
 10
23.36134936563693
 20
49.17569560500129
 30
0.0
  0
SEQEND
  5
C3
330
AF
100
AcDbEntity
  8
DIBUJOS
 62
     7
  0
POLYLINE
  5
C4
330
1F
100
AcDbEntity
  8
DIBUJOS
 62
     7
100
AcDb2dPolyline
 66
     1
 10
0.0
 20
0.0
 30
0.0
  0
VERTEX
  5
C5
330
C4
100
AcDbEntity
  8
DIBUJOS
 62
     7
100
AcDbVertex
100
AcDb2dVertex
 10
31.3013782279947
 20
49.22355467395488
 30
0.0
  0
VERTEX
  5
C6
330
C4
100
AcDbEntity
  8
DIBUJOS
 62
     7
100
AcDbVertex
100
AcDb2dVertex
 10
31.2114885374999
 20
49.20933821237723
 30
0.0
  0
VERTEX
  5
C7
330
C4
100
AcDbEntity
  8
DIBUJOS
 62
     7
100
AcDbVertex
100
AcDb2dVertex
 10
31.14980841173941
 20
49.09719417555348
 30
0.0
  0
VERTEX
  5
C8
330
C4
100
AcDbEntity
  8
DIBUJOS
 62
     7
100
AcDbVertex
100
AcDb2dVertex
 10
31.14980841173941
 20
46.07489216015887
 30
0.0
  0
VERTEX
  5
C9
330
C4
100
AcDbEntity
  8
DIBUJOS
 62
     7
100
AcDbVertex
100
AcDb2dVertex
 10
31.16270585129775
 20
46.03619984148386
 30
0.0
  0
VERTEX
  5
CA
330
C4
100
AcDbEntity
  8
DIBUJOS
 62
     7
100
AcDbVertex
100
AcDb2dVertex
 10
31.1646511823989
 20
46.02953832753459
 30
0.0
  0
VERTEX
  5
CB
330
C4
100
AcDbEntity
  8
DIBUJOS
 62
     7
100
AcDbVertex
100
AcDb2dVertex
 10
31.16662971542739
 20
46.01321203439871
 30
0.0
  0
VERTEX
  5
CC
330
C4
100
AcDbEntity
  8
DIBUJOS
 62
     7
100
AcDbVertex
100
AcDb2dVertex
 10
31.17784442094568
 20
46.00199581970214
 30
0.0
  0
VERTEX
  5
CD
330
C4
100
AcDbEntity
  8
DIBUJOS
 62
     7
100
AcDbVertex
100
AcDb2dVertex
 10
31.21759014622135
 20
45.99276266556922
 30
0.0
  0
VERTEX
  5
CE
330
C4
100
AcDbEntity
  8
DIBUJOS
 62
     7
100
AcDbVertex
100
AcDb2dVertex
 10
31.23342293798439
 20
45.98880258115536
 30
0.0
  0
VERTEX
  5
CF
330
C4
100
AcDbEntity
  8
DIBUJOS
 62
     7
100
AcDbVertex
100
AcDb2dVertex
 10
32.31611514794285
 20
45.99078262336245
 30
0.0
  0
VERTEX
  5
D0
330
C4
100
AcDbEntity
  8
DIBUJOS
 62
     7
100
AcDbVertex
100
AcDb2dVertex
 10
33.1908440682114
 20
45.98517451601416
 30
0.0
  0
SEQEND
  5
D1
330
C4
100
AcDbEntity
  8
DIBUJOS
 62
     7
  0
POLYLINE
  5
D2
330
1F
100
AcDbEntity
  8
DIBUJOS
 62
     7
100
AcDb2dPolyline
 66
     1
 10
0.0
 20
0.0
 30
0.0
  0
VERTEX
  5
D3
330
D2
100
AcDbEntity
  8
DIBUJOS
 62
     7
100
AcDbVertex
100
AcDb2dVertex
 10
43.6273590235829
 20
45.96835321232619
 30
0.0
  0
VERTEX
  5
D4
330
D2
100
AcDbEntity
  8
DIBUJOS
 62
     7
100
AcDbVertex
100
AcDb2dVertex
 10
43.66268285582028
 20
46.06872263840415
 30
0.0
  0
VERTEX
  5
D5
330
D2
100
AcDbEntity
  8
DIBUJOS
 62
     7
100
AcDbVertex
100
AcDb2dVertex
 10
43.67221482729821
 20
46.63000725528659
 30
0.0
  0
VERTEX
  5
D6
330
D2
100
AcDbEntity
  8
DIBUJOS
 62
     7
100
AcDbVertex
100
AcDb2dVertex
 10
43.6666097383068
 20
46.63561536263519
 30
0.0
  0
VERTEX
  5
D7
330
D2
100
AcDbEntity
  8
DIBUJOS
 62
     7
100
AcDbVertex
100
AcDb2dVertex
 10
43.67109501684287
 20
49.25728028614851
 30
0.0
  0
VERTEX
  5
D8
330
D2
100
AcDbEntity
  8
DIBUJOS
 62
     7
100
AcDbVertex
100
AcDb2dVertex
 10
43.67221482729821
 20
49.26232697909068
 30
0.0
  0
SEQEND
  5
D9
330
D2
100
AcDbEntity
  8
DIBUJOS
 62
     7
  0
POLYLINE
  5
DA
330
1F
100
AcDbEntity
  8
DIBUJOS
 62
     7
100
AcDb2dPolyline
 66
     1
 10
0.0
 20
0.0
 30
0.0
  0
VERTEX
  5
DB
330
DA
100
AcDbEntity
  8
DIBUJOS
 62
     7
100
AcDbVertex
100
AcDb2dVertex
 10
43.6273590235829
 20
45.96274510497791
 30
0.0
  0
VERTEX
  5
DC
330
DA
100
AcDbEntity
  8
DIBUJOS
 62
     7
100
AcDbVertex
100
AcDb2dVertex
 10
43.62175091623461
 20
45.96274510497791
 30
0.0
  0
SEQEND
  5
DD
330
DA
100
AcDbEntity
  8
DIBUJOS
 62
     7
  0
POLYLINE
  5
DE
330
1F
100
AcDbEntity
  8
DIBUJOS
 62
     7
100
AcDb2dPolyline
 66
     1
 10
0.0
 20
0.0
 30
0.0
  0
VERTEX
  5
DF
330
DE
100
AcDbEntity
  8
DIBUJOS
 62
     7
100
AcDbVertex
100
AcDb2dVertex
 10
43.6273590235829
 20
45.96274510497791
 30
0.0
  0
VERTEX
  5
E0
330
DE
100
AcDbEntity
  8
DIBUJOS
 62
     7
100
AcDbVertex
100
AcDb2dVertex
 10
43.6273590235829
 20
45.96835321232619
 30
0.0
  0
SEQEND
  5
E1
330
DE
100
AcDbEntity
  8
DIBUJOS
 62
     7
  0
POLYLINE
  5
E2
330
1F
100
AcDbEntity
  8
DIBUJOS
 62
     7
100
AcDb2dPolyline
 66
     1
 10
0.0
 20
0.0
 30
0.0
  0
VERTEX
  5
E3
330
E2
100
AcDbEntity
  8
DIBUJOS
 62
     7
100
AcDbVertex
100
AcDb2dVertex
 10
43.6273590235829
 20
45.95714001598682
 30
0.0
  0
VERTEX
  5
E4
330
E2
100
AcDbEntity
  8
DIBUJOS
 62
     7
100
AcDbVertex
100
AcDb2dVertex
 10
43.6273590235829
 20
45.96274510497791
 30
0.0
  0
SEQEND
  5
E5
330
E2
100
AcDbEntity
  8
DIBUJOS
 62
     7
  0
POLYLINE
  5
E6
330
1F
100
AcDbEntity
  8
DIBUJOS
 62
     7
100
AcDb2dPolyline
 66
     1
 10
0.0
 20
0.0
 30
0.0
  0
VERTEX
  5
E7
330
E6
100
AcDbEntity
  8
DIBUJOS
 62
     7
100
AcDbVertex
100
AcDb2dVertex
 10
43.54885759413476
 20
45.93471060495057
 30
0.0
  0
VERTEX
  5
E8
330
E6
100
AcDbEntity
  8
DIBUJOS
 62
     7
100
AcDbVertex
100
AcDb2dVertex
 10
43.62175091623461
 20
45.96274510497791
 30
0.0
  0
SEQEND
  5
E9
330
E6
100
AcDbEntity
  8
DIBUJOS
 62
     7
  0
POLYLINE
  5
EA
330
1F
100
AcDbEntity
  8
DIBUJOS
 62
     7
100
AcDb2dPolyline
 66
     1
 10
0.0
 20
0.0
 30
0.0
  0
VERTEX
  5
EB
330
EA
100
AcDbEntity
  8
DIBUJOS
 62
     7
100
AcDbVertex
100
AcDb2dVertex
 10
43.67221482729821
 20
45.93471060495057
 30
0.0
  0
VERTEX
  5
EC
330
EA
100
AcDbEntity
  8
DIBUJOS
 62
     7
100
AcDbVertex
100
AcDb2dVertex
 10
43.6273590235829
 20
45.95714001598682
 30
0.0
  0
SEQEND
  5
ED
330
EA
100
AcDbEntity
  8
DIBUJOS
 62
     7
  0
POLYLINE
  5
EE
330
1F
100
AcDbEntity
  8
DIBUJOS
 62
     7
100
AcDb2dPolyline
 66
     1
 10
0.0
 20
0.0
 30
0.0
  0
VERTEX
  5
EF
330
EE
100
AcDbEntity
  8
DIBUJOS
 62
     7
100
AcDbVertex
100
AcDb2dVertex
 10
59.03886209586965
 20
45.93471060495057
 30
0.0
  0
VERTEX
  5
F0
330
EE
100
AcDbEntity
  8
DIBUJOS
 62
     7
100
AcDbVertex
100
AcDb2dVertex
 10
43.78436188247917
 20
45.94592380129026
 30
0.0
  0
VERTEX
  5
F1
330
EE
100
AcDbEntity
  8
DIBUJOS
 62
     7
100
AcDbVertex
100
AcDb2dVertex
 10
43.77258425337617
 20
45.94143852275419
 30
0.0
  0
VERTEX
  5
F2
330
EE
100
AcDbEntity
  8
DIBUJOS
 62
     7
100
AcDbVertex
100
AcDb2dVertex
 10
43.76193247144291
 20
45.93471060495057
 30
0.0
  0
SEQEND
  5
F3
330
EE
100
AcDbEntity
  8
DIBUJOS
 62
     7
  0
POLYLINE
  5
F4
330
1F
100
AcDbEntity
  8
DIBUJOS
 62
     7
100
AcDb2dPolyline
 66
     1
 10
0.0
 20
0.0
 30
0.0
  0
VERTEX
  5
F5
330
F4
100
AcDbEntity
  8
DIBUJOS
 62
     7
100
AcDbVertex
100
AcDb2dVertex
 10
59.09493406768551
 20
45.93471060495057
 30
0.0
  0
VERTEX
  5
F6
330
F4
100
AcDbEntity
  8
DIBUJOS
 62
     7
100
AcDbVertex
100
AcDb2dVertex
 10
59.08932596033755
 20
45.94031569394165
 30
0.0
  0
VERTEX
  5
F7
330
F4
100
AcDbEntity
  8
DIBUJOS
 62
     7
100
AcDbVertex
100
AcDb2dVertex
 10
59.06689654930129
 20
45.94031569394165
 30
0.0
  0
VERTEX
  5
F8
330
F4
100
AcDbEntity
  8
DIBUJOS
 62
     7
100
AcDbVertex
100
AcDb2dVertex
 10
59.06129146030989
 20
45.93471060495057
 30
0.0
  0
SEQEND
  5
F9
330
F4
100
AcDbEntity
  8
DIBUJOS
 62
     7
  0
POLYLINE
  5
FA
330
1F
100
AcDbEntity
  8
DIBUJOS
 62
     7
100
AcDb2dPolyline
 66
     1
 10
0.0
 20
0.0
 30
0.0
  0
VERTEX
  5
FB
330
FA
100
AcDbEntity
  8
DIBUJOS
 62
     7
100
AcDbVertex
100
AcDb2dVertex
 10
51.30927987644233
 20
45.93471060495057
 30
0.0
  0
VERTEX
  5
FC
330
FA
100
AcDbEntity
  8
DIBUJOS
 62
     7
100
AcDbVertex
100
AcDb2dVertex
 10
51.30927987644233
 20
46.84308213259474
 30
0.0
  0
SEQEND
  5
FD
330
FA
100
AcDbEntity
  8
DIBUJOS
 62
     7
  0
POLYLINE
  5
FE
330
1F
100
AcDbEntity
  8
DIBUJOS
 62
     7
100
AcDb2dPolyline
 66
     1
 10
0.0
 20
0.0
 30
0.0
  0
VERTEX
  5
FF
330
FE
100
AcDbEntity
  8
DIBUJOS
 62
     7
100
AcDbVertex
100
AcDb2dVertex
 10
43.54885759413476
 20
45.92910249760261
 30
0.0
  0
VERTEX
  5
100
330
FE
100
AcDbEntity
  8
DIBUJOS
 62
     7
100
AcDbVertex
100
AcDb2dVertex
 10
43.54324948678647
 20
45.92910249760261
 30
0.0
  0
SEQEND
  5
101
330
FE
100
AcDbEntity
  8
DIBUJOS
 62
     7
  0
POLYLINE
  5
102
330
1F
100
AcDbEntity
  8
DIBUJOS
 62
     7
100
AcDb2dPolyline
 66
     1
 10
0.0
 20
0.0
 30
0.0
  0
VERTEX
  5
103
330
102
100
AcDbEntity
  8
DIBUJOS
 62
     7
100
AcDbVertex
100
AcDb2dVertex
 10
43.54885759413476
 20
45.92910249760261
 30
0.0
  0
VERTEX
  5
104
330
102
100
AcDbEntity
  8
DIBUJOS
 62
     7
100
AcDbVertex
100
AcDb2dVertex
 10
43.54885759413476
 20
45.93471060495057
 30
0.0
  0
SEQEND
  5
105
330
102
100
AcDbEntity
  8
DIBUJOS
 62
     7
  0
POLYLINE
  5
106
330
1F
100
AcDbEntity
  8
DIBUJOS
 62
     7
100
AcDb2dPolyline
 66
     1
 10
0.0
 20
0.0
 30
0.0
  0
VERTEX
  5
107
330
106
100
AcDbEntity
  8
DIBUJOS
 62
     7
100
AcDbVertex
100
AcDb2dVertex
 10
43.67221482729821
 20
45.92910249760261
 30
0.0
  0
VERTEX
  5
108
330
106
100
AcDbEntity
  8
DIBUJOS
 62
     7
100
AcDbVertex
100
AcDb2dVertex
 10
43.67221482729821
 20
45.93471060495057
 30
0.0
  0
SEQEND
  5
109
330
106
100
AcDbEntity
  8
DIBUJOS
 62
     7
  0
POLYLINE
  5
10A
330
1F
100
AcDbEntity
  8
DIBUJOS
 62
     7
100
AcDb2dPolyline
 66
     1
 10
0.0
 20
0.0
 30
0.0
  0
VERTEX
  5
10B
330
10A
100
AcDbEntity
  8
DIBUJOS
 62
     7
100
AcDbVertex
100
AcDb2dVertex
 10
43.67782293464649
 20
45.92910249760261
 30
0.0
  0
VERTEX
  5
10C
330
10A
100
AcDbEntity
  8
DIBUJOS
 62
     7
100
AcDbVertex
100
AcDb2dVertex
 10
43.67221482729821
 20
45.92910249760261
 30
0.0
  0
SEQEND
  5
10D
330
10A
100
AcDbEntity
  8
DIBUJOS
 62
     7
  0
POLYLINE
  5
10E
330
1F
100
AcDbEntity
  8
DIBUJOS
 62
     7
100
AcDb2dPolyline
 66
     1
 10
0.0
 20
0.0
 30
0.0
  0
VERTEX
  5
10F
330
10E
100
AcDbEntity
  8
DIBUJOS
 62
     7
100
AcDbVertex
100
AcDb2dVertex
 10
43.67782293464649
 20
45.92910249760261
 30
0.0
  0
VERTEX
  5
110
330
10E
100
AcDbEntity
  8
DIBUJOS
 62
     7
100
AcDbVertex
100
AcDb2dVertex
 10
43.76193247144291
 20
45.93471060495057
 30
0.0
  0
SEQEND
  5
111
330
10E
100
AcDbEntity
  8
DIBUJOS
 62
     7
  0
POLYLINE
  5
112
330
1F
100
AcDbEntity
  8
DIBUJOS
 62
     7
100
AcDb2dPolyline
 66
     1
 10
0.0
 20
0.0
 30
0.0
  0
VERTEX
  5
113
330
112
100
AcDbEntity
  8
DIBUJOS
 62
     7
100
AcDbVertex
100
AcDb2dVertex
 10
59.03886209586965
 20
45.92910249760261
 30
0.0
  0
VERTEX
  5
114
330
112
100
AcDbEntity
  8
DIBUJOS
 62
     7
100
AcDbVertex
100
AcDb2dVertex
 10
43.79557507881854
 20
45.92910249760261
 30
0.0
  0
SEQEND
  5
115
330
112
100
AcDbEntity
  8
DIBUJOS
 62
     7
  0
POLYLINE
  5
116
330
1F
100
AcDbEntity
  8
DIBUJOS
 62
     7
100
AcDb2dPolyline
 66
     1
 10
0.0
 20
0.0
 30
0.0
  0
VERTEX
  5
117
330
116
100
AcDbEntity
  8
DIBUJOS
 62
     7
100
AcDbVertex
100
AcDb2dVertex
 10
59.03886204927363
 20
45.92910249760261
 30
0.0
  0
VERTEX
  5
118
330
116
100
AcDbEntity
  8
DIBUJOS
 62
     7
100
AcDbVertex
100
AcDb2dVertex
 10
59.03886204927363
 20
45.93471060495057
 30
0.0
  0
SEQEND
  5
119
330
116
100
AcDbEntity
  8
DIBUJOS
 62
     7
  0
POLYLINE
  5
11A
330
1F
100
AcDbEntity
  8
DIBUJOS
 62
     7
100
AcDb2dPolyline
 66
     1
 10
0.0
 20
0.0
 30
0.0
  0
VERTEX
  5
11B
330
11A
100
AcDbEntity
  8
DIBUJOS
 62
     7
100
AcDbVertex
100
AcDb2dVertex
 10
59.04447015662224
 20
45.92910249760261
 30
0.0
  0
VERTEX
  5
11C
330
11A
100
AcDbEntity
  8
DIBUJOS
 62
     7
100
AcDbVertex
100
AcDb2dVertex
 10
59.03886204927363
 20
45.92910249760261
 30
0.0
  0
SEQEND
  5
11D
330
11A
100
AcDbEntity
  8
DIBUJOS
 62
     7
  0
POLYLINE
  5
11E
330
1F
100
AcDbEntity
  8
DIBUJOS
 62
     7
100
AcDb2dPolyline
 66
     1
 10
0.0
 20
0.0
 30
0.0
  0
VERTEX
  5
11F
330
11E
100
AcDbEntity
  8
DIBUJOS
 62
     7
100
AcDbVertex
100
AcDb2dVertex
 10
59.04447015662224
 20
45.92910249760261
 30
0.0
  0
VERTEX
  5
120
330
11E
100
AcDbEntity
  8
DIBUJOS
 62
     7
100
AcDbVertex
100
AcDb2dVertex
 10
59.06129146030989
 20
45.93471060495057
 30
0.0
  0
SEQEND
  5
121
330
11E
100
AcDbEntity
  8
DIBUJOS
 62
     7
  0
POLYLINE
  5
122
330
1F
100
AcDbEntity
  8
DIBUJOS
 62
     7
100
AcDb2dPolyline
 66
     1
 10
0.0
 20
0.0
 30
0.0
  0
VERTEX
  5
123
330
122
100
AcDbEntity
  8
DIBUJOS
 62
     7
100
AcDbVertex
100
AcDb2dVertex
 10
59.09493406768551
 20
45.92910249760261
 30
0.0
  0
VERTEX
  5
124
330
122
100
AcDbEntity
  8
DIBUJOS
 62
     7
100
AcDbVertex
100
AcDb2dVertex
 10
59.08932596033755
 20
45.92910249760261
 30
0.0
  0
SEQEND
  5
125
330
122
100
AcDbEntity
  8
DIBUJOS
 62
     7
  0
POLYLINE
  5
126
330
1F
100
AcDbEntity
  8
DIBUJOS
 62
     7
100
AcDb2dPolyline
 66
     1
 10
0.0
 20
0.0
 30
0.0
  0
VERTEX
  5
127
330
126
100
AcDbEntity
  8
DIBUJOS
 62
     7
100
AcDbVertex
100
AcDb2dVertex
 10
59.09493406768551
 20
45.92910249760261
 30
0.0
  0
VERTEX
  5
128
330
126
100
AcDbEntity
  8
DIBUJOS
 62
     7
100
AcDbVertex
100
AcDb2dVertex
 10
59.09493406768551
 20
45.93471060495057
 30
0.0
  0
SEQEND
  5
129
330
126
100
AcDbEntity
  8
DIBUJOS
 62
     7
  0
POLYLINE
  5
12A
330
1F
100
AcDbEntity
  8
DIBUJOS
 62
     7
100
AcDb2dPolyline
 66
     1
 10
0.0
 20
0.0
 30
0.0
  0
VERTEX
  5
12B
330
12A
100
AcDbEntity
  8
DIBUJOS
 62
     7
100
AcDbVertex
100
AcDb2dVertex
 10
59.10054217503379
 20
45.92910249760261
 30
0.0
  0
VERTEX
  5
12C
330
12A
100
AcDbEntity
  8
DIBUJOS
 62
     7
100
AcDbVertex
100
AcDb2dVertex
 10
59.09493406768551
 20
45.92910249760261
 30
0.0
  0
SEQEND
  5
12D
330
12A
100
AcDbEntity
  8
DIBUJOS
 62
     7
  0
POLYLINE
  5
12E
330
1F
100
AcDbEntity
  8
DIBUJOS
 62
     7
100
AcDb2dPolyline
 66
     1
 10
0.0
 20
0.0
 30
0.0
  0
VERTEX
  5
12F
330
12E
100
AcDbEntity
  8
DIBUJOS
 62
     7
100
AcDbVertex
100
AcDb2dVertex
 10
21.36517102205886
 20
45.923494390254
 30
0.0
  0
VERTEX
  5
130
330
12E
100
AcDbEntity
  8
DIBUJOS
 62
     7
100
AcDbVertex
100
AcDb2dVertex
 10
21.2412508653107
 20
45.96106388011614
 30
0.0
  0
VERTEX
  5
131
330
12E
100
AcDbEntity
  8
DIBUJOS
 62
     7
100
AcDbVertex
100
AcDb2dVertex
 10
21.23059719690419
 20
45.96274510497791
 30
0.0
  0
VERTEX
  5
132
330
12E
100
AcDbEntity
  8
DIBUJOS
 62
     7
100
AcDbVertex
100
AcDb2dVertex
 10
21.21209315917617
 20
46.00704251264399
 30
0.0
  0
VERTEX
  5
133
330
12E
100
AcDbEntity
  8
DIBUJOS
 62
     7
100
AcDbVertex
100
AcDb2dVertex
 10
21.17284244445194
 20
46.1023652457801
 30
0.0
  0
VERTEX
  5
134
330
12E
100
AcDbEntity
  8
DIBUJOS
 62
     7
100
AcDbVertex
100
AcDb2dVertex
 10
21.14920719978547
 20
46.75344598408975
 30
0.0
  0
VERTEX
  5
135
330
12E
100
AcDbEntity
  8
DIBUJOS
 62
     7
100
AcDbVertex
100
AcDb2dVertex
 10
21.14088106193809
 20
47.11783713566273
 30
0.0
  0
VERTEX
  5
136
330
12E
100
AcDbEntity
  8
DIBUJOS
 62
     7
100
AcDbVertex
100
AcDb2dVertex
 10
21.14373680497631
 20
48.01504677903745
 30
0.0
  0
VERTEX
  5
137
330
12E
100
AcDbEntity
  8
DIBUJOS
 62
     7
100
AcDbVertex
100
AcDb2dVertex
 10
21.15484850906076
 20
48.63174541250087
 30
0.0
  0
VERTEX
  5
138
330
12E
100
AcDbEntity
  8
DIBUJOS
 62
     7
100
AcDbVertex
100
AcDb2dVertex
 10
21.1756461208316
 20
49.11906217218331
 30
0.0
  0
VERTEX
  5
139
330
12E
100
AcDbEntity
  8
DIBUJOS
 62
     7
100
AcDbVertex
100
AcDb2dVertex
 10
21.17844979721125
 20
49.12579008998692
 30
0.0
  0
VERTEX
  5
13A
330
12E
100
AcDbEntity
  8
DIBUJOS
 62
     7
100
AcDbVertex
100
AcDb2dVertex
 10
21.22498984414521
 20
49.24298383811006
 30
0.0
  0
VERTEX
  5
13B
330
12E
100
AcDbEntity
  8
DIBUJOS
 62
     7
100
AcDbVertex
100
AcDb2dVertex
 10
21.23620417236852
 20
49.25419703444943
 30
0.0
  0
VERTEX
  5
13C
330
12E
100
AcDbEntity
  8
DIBUJOS
 62
     7
100
AcDbVertex
100
AcDb2dVertex
 10
21.30405193341015
 20
49.26933711327563
 30
0.0
  0
VERTEX
  5
13D
330
12E
100
AcDbEntity
  8
DIBUJOS
 62
     7
100
AcDbVertex
100
AcDb2dVertex
 10
21.36597843256241
 20
49.31143715702935
 30
0.0
  0
VERTEX
  5
13E
330
12E
100
AcDbEntity
  8
DIBUJOS
 62
     7
100
AcDbVertex
100
AcDb2dVertex
 10
21.78022831461629
 20
49.34684852162023
 30
0.0
  0
VERTEX
  5
13F
330
12E
100
AcDbEntity
  8
DIBUJOS
 62
     7
100
AcDbVertex
100
AcDb2dVertex
 10
22.02670885827392
 20
49.35780515761289
 30
0.0
  0
VERTEX
  5
140
330
12E
100
AcDbEntity
  8
DIBUJOS
 62
     7
100
AcDbVertex
100
AcDb2dVertex
 10
22.1501845619506
 20
49.36634107127351
 30
0.0
  0
VERTEX
  5
141
330
12E
100
AcDbEntity
  8
DIBUJOS
 62
     7
100
AcDbVertex
100
AcDb2dVertex
 10
22.40251090857196
 20
49.36634107127351
 30
0.0
  0
VERTEX
  5
142
330
12E
100
AcDbEntity
  8
DIBUJOS
 62
     7
100
AcDbVertex
100
AcDb2dVertex
 10
23.16532518715053
 20
49.31840352503772
 30
0.0
  0
VERTEX
  5
143
330
12E
100
AcDbEntity
  8
DIBUJOS
 62
     7
100
AcDbVertex
100
AcDb2dVertex
 10
23.22093841529485
 20
49.31334777702457
 30
0.0
  0
VERTEX
  5
144
330
12E
100
AcDbEntity
  8
DIBUJOS
 62
     7
100
AcDbVertex
100
AcDb2dVertex
 10
23.27077073515149
 20
49.28093967767134
 30
0.0
  0
VERTEX
  5
145
330
12E
100
AcDbEntity
  8
DIBUJOS
 62
     7
100
AcDbVertex
100
AcDb2dVertex
 10
23.28400773987484
 20
49.27391897923616
 30
0.0
  0
VERTEX
  5
146
330
12E
100
AcDbEntity
  8
DIBUJOS
 62
     7
100
AcDbVertex
100
AcDb2dVertex
 10
23.3618436215994
 20
49.25617707665651
 30
0.0
  0
VERTEX
  5
147
330
12E
100
AcDbEntity
  8
DIBUJOS
 62
     7
100
AcDbVertex
100
AcDb2dVertex
 10
23.3781706693249
 20
49.25419703444943
 30
0.0
  0
VERTEX
  5
148
330
12E
100
AcDbEntity
  8
DIBUJOS
 62
     7
100
AcDbVertex
100
AcDb2dVertex
 10
23.39611404723579
 20
49.22672093047132
 30
0.0
  0
VERTEX
  5
149
330
12E
100
AcDbEntity
  8
DIBUJOS
 62
     7
100
AcDbVertex
100
AcDb2dVertex
 10
23.42302873680779
 20
49.18130371234957
 30
0.0
  0
SEQEND
  5
14A
330
12E
100
AcDbEntity
  8
DIBUJOS
 62
     7
  0
POLYLINE
  5
14B
330
1F
100
AcDbEntity
  8
DIBUJOS
 62
     7
100
AcDb2dPolyline
 66
     1
 10
0.0
 20
0.0
 30
0.0
  0
VERTEX
  5
14C
330
14B
100
AcDbEntity
  8
DIBUJOS
 62
     7
100
AcDbVertex
100
AcDb2dVertex
 10
23.2502604108541
 20
45.98937154254088
 30
0.0
  0
VERTEX
  5
14D
330
14B
100
AcDbEntity
  8
DIBUJOS
 62
     7
100
AcDbVertex
100
AcDb2dVertex
 10
31.23342293798439
 20
45.98880258115536
 30
0.0
  0
SEQEND
  5
14E
330
14B
100
AcDbEntity
  8
DIBUJOS
 62
     7
  0
POLYLINE
  5
14F
330
1F
100
AcDbEntity
  8
DIBUJOS
 62
     7
100
AcDb2dPolyline
 66
     1
 10
0.0
 20
0.0
 30
0.0
  0
VERTEX
  5
150
330
14F
100
AcDbEntity
  8
DIBUJOS
 62
     7
100
AcDbVertex
100
AcDb2dVertex
 10
33.16841616635374
 20
45.923494390254
 30
0.0
  0
VERTEX
  5
151
330
14F
100
AcDbEntity
  8
DIBUJOS
 62
     7
100
AcDbVertex
100
AcDb2dVertex
 10
33.31981091790173
 20
45.96274510497791
 30
0.0
  0
VERTEX
  5
152
330
14F
100
AcDbEntity
  8
DIBUJOS
 62
     7
100
AcDbVertex
100
AcDb2dVertex
 10
33.33775505040192
 20
46.00143742365291
 30
0.0
  0
VERTEX
  5
153
330
14F
100
AcDbEntity
  8
DIBUJOS
 62
     7
100
AcDbVertex
100
AcDb2dVertex
 10
33.37700576512615
 20
46.0967601567887
 30
0.0
  0
VERTEX
  5
154
330
14F
100
AcDbEntity
  8
DIBUJOS
 62
     7
100
AcDbVertex
100
AcDb2dVertex
 10
33.39559431685077
 20
46.46747778468175
 30
0.0
  0
VERTEX
  5
155
330
14F
100
AcDbEntity
  8
DIBUJOS
 62
     7
100
AcDbVertex
100
AcDb2dVertex
 10
33.39831234734987
 20
46.66925797001081
 30
0.0
  0
VERTEX
  5
156
330
14F
100
AcDbEntity
  8
DIBUJOS
 62
     7
100
AcDbVertex
100
AcDb2dVertex
 10
33.40952705286784
 20
46.86551154363099
 30
0.0
  0
VERTEX
  5
157
330
14F
100
AcDbEntity
  8
DIBUJOS
 62
     7
100
AcDbVertex
100
AcDb2dVertex
 10
33.40672299919385
 20
48.11592630745225
 30
0.0
  0
VERTEX
  5
158
330
14F
100
AcDbEntity
  8
DIBUJOS
 62
     7
100
AcDbVertex
100
AcDb2dVertex
 10
33.38982170904476
 20
48.81690652406218
 30
0.0
  0
VERTEX
  5
159
330
14F
100
AcDbEntity
  8
DIBUJOS
 62
     7
100
AcDbVertex
100
AcDb2dVertex
 10
33.3792182208239
 20
49.11363818461329
 30
0.0
  0
VERTEX
  5
15A
330
14F
100
AcDbEntity
  8
DIBUJOS
 62
     7
100
AcDbVertex
100
AcDb2dVertex
 10
33.34494779518719
 20
49.19696596694079
 30
0.0
  0
VERTEX
  5
15B
330
14F
100
AcDbEntity
  8
DIBUJOS
 62
     7
100
AcDbVertex
100
AcDb2dVertex
 10
33.33887637003586
 20
49.21046104118977
 30
0.0
  0
VERTEX
  5
15C
330
14F
100
AcDbEntity
  8
DIBUJOS
 62
     7
100
AcDbVertex
100
AcDb2dVertex
 10
33.32541902525001
 20
49.24298383811006
 30
0.0
  0
VERTEX
  5
15D
330
14F
100
AcDbEntity
  8
DIBUJOS
 62
     7
100
AcDbVertex
100
AcDb2dVertex
 10
33.31420431973205
 20
49.25419703444943
 30
0.0
  0
VERTEX
  5
15E
330
14F
100
AcDbEntity
  8
DIBUJOS
 62
     7
100
AcDbVertex
100
AcDb2dVertex
 10
33.2687855924317
 20
49.26372900592735
 30
0.0
  0
VERTEX
  5
15F
330
14F
100
AcDbEntity
  8
DIBUJOS
 62
     7
100
AcDbVertex
100
AcDb2dVertex
 10
33.20876103549867
 20
49.29481506490504
 30
0.0
  0
VERTEX
  5
160
330
14F
100
AcDbEntity
  8
DIBUJOS
 62
     7
100
AcDbVertex
100
AcDb2dVertex
 10
33.18523747004171
 20
49.3158771602096
 30
0.0
  0
VERTEX
  5
161
330
14F
100
AcDbEntity
  8
DIBUJOS
 62
     7
100
AcDbVertex
100
AcDb2dVertex
 10
33.11773795194143
 20
49.31893173751683
 30
0.0
  0
VERTEX
  5
162
330
14F
100
AcDbEntity
  8
DIBUJOS
 62
     7
100
AcDbVertex
100
AcDb2dVertex
 10
33.05648341452149
 20
49.32403577924205
 30
0.0
  0
VERTEX
  5
163
330
14F
100
AcDbEntity
  8
DIBUJOS
 62
     7
100
AcDbVertex
100
AcDb2dVertex
 10
32.39461657739099
 20
49.36634107127351
 30
0.0
  0
VERTEX
  5
164
330
14F
100
AcDbEntity
  8
DIBUJOS
 62
     7
100
AcDbVertex
100
AcDb2dVertex
 10
32.1535041816983
 20
49.36634107127351
 30
0.0
  0
VERTEX
  5
165
330
14F
100
AcDbEntity
  8
DIBUJOS
 62
     7
100
AcDbVertex
100
AcDb2dVertex
 10
31.60941816313167
 20
49.33528821422315
 30
0.0
  0
VERTEX
  5
166
330
14F
100
AcDbEntity
  8
DIBUJOS
 62
     7
100
AcDbVertex
100
AcDb2dVertex
 10
31.45238662984388
 20
49.32403577924205
 30
0.0
  0
VERTEX
  5
167
330
14F
100
AcDbEntity
  8
DIBUJOS
 62
     7
100
AcDbVertex
100
AcDb2dVertex
 10
31.31888771708369
 20
49.30897417769867
 30
0.0
  0
VERTEX
  5
168
330
14F
100
AcDbEntity
  8
DIBUJOS
 62
     7
100
AcDbVertex
100
AcDb2dVertex
 10
31.26587782187141
 20
49.27438380621781
 30
0.0
  0
VERTEX
  5
169
330
14F
100
AcDbEntity
  8
DIBUJOS
 62
     7
100
AcDbVertex
100
AcDb2dVertex
 10
31.17223782277567
 20
49.25419703444943
 30
0.0
  0
VERTEX
  5
16A
330
14F
100
AcDbEntity
  8
DIBUJOS
 62
     7
100
AcDbVertex
100
AcDb2dVertex
 10
31.12177240253347
 20
49.16448240866193
 30
0.0
  0
SEQEND
  5
16B
330
14F
100
AcDbEntity
  8
DIBUJOS
 62
     7
  0
POLYLINE
  5
16C
330
1F
100
AcDbEntity
  8
DIBUJOS
 62
     7
100
AcDb2dPolyline
 66
     1
 10
0.0
 20
0.0
 30
0.0
  0
VERTEX
  5
16D
330
16C
100
AcDbEntity
  8
DIBUJOS
 62
     7
100
AcDbVertex
100
AcDb2dVertex
 10
41.56950055424466
 20
45.923494390254
 30
0.0
  0
VERTEX
  5
16E
330
16C
100
AcDbEntity
  8
DIBUJOS
 62
     7
100
AcDbVertex
100
AcDb2dVertex
 10
41.44053219537572
 20
45.96274510497791
 30
0.0
  0
VERTEX
  5
16F
330
16C
100
AcDbEntity
  8
DIBUJOS
 62
     7
100
AcDbVertex
100
AcDb2dVertex
 10
41.41081647048662
 20
46.02947192368025
 30
0.0
  0
VERTEX
  5
170
330
16C
100
AcDbEntity
  8
DIBUJOS
 62
     7
100
AcDbVertex
100
AcDb2dVertex
 10
41.37773225916023
 20
46.10797335312839
 30
0.0
  0
VERTEX
  5
171
330
16C
100
AcDbEntity
  8
DIBUJOS
 62
     7
100
AcDbVertex
100
AcDb2dVertex
 10
41.36475936067626
 20
46.43943422958311
 30
0.0
  0
VERTEX
  5
172
330
16C
100
AcDbEntity
  8
DIBUJOS
 62
     7
100
AcDbVertex
100
AcDb2dVertex
 10
41.35370010054504
 20
46.854222888366
 30
0.0
  0
VERTEX
  5
173
330
16C
100
AcDbEntity
  8
DIBUJOS
 62
     7
100
AcDbVertex
100
AcDb2dVertex
 10
41.35081756958822
 20
48.14396382583679
 30
0.0
  0
VERTEX
  5
174
330
16C
100
AcDbEntity
  8
DIBUJOS
 62
     7
100
AcDbVertex
100
AcDb2dVertex
 10
41.35917841854121
 20
48.46913444625631
 30
0.0
  0
VERTEX
  5
175
330
16C
100
AcDbEntity
  8
DIBUJOS
 62
     7
100
AcDbVertex
100
AcDb2dVertex
 10
41.37687504576568
 20
49.09768918610493
 30
0.0
  0
VERTEX
  5
176
330
16C
100
AcDbEntity
  8
DIBUJOS
 62
     7
100
AcDbVertex
100
AcDb2dVertex
 10
41.40576977754477
 20
49.17625701940772
 30
0.0
  0
VERTEX
  5
177
330
16C
100
AcDbEntity
  8
DIBUJOS
 62
     7
100
AcDbVertex
100
AcDb2dVertex
 10
41.42931899903635
 20
49.23737573076178
 30
0.0
  0
VERTEX
  5
178
330
16C
100
AcDbEntity
  8
DIBUJOS
 62
     7
100
AcDbVertex
100
AcDb2dVertex
 10
41.44614030272401
 20
49.25419703444943
 30
0.0
  0
VERTEX
  5
179
330
16C
100
AcDbEntity
  8
DIBUJOS
 62
     7
100
AcDbVertex
100
AcDb2dVertex
 10
41.52903344164032
 20
49.27801488971622
 30
0.0
  0
VERTEX
  5
17A
330
16C
100
AcDbEntity
  8
DIBUJOS
 62
     7
100
AcDbVertex
100
AcDb2dVertex
 10
41.56950055424466
 20
49.3158771602096
 30
0.0
  0
VERTEX
  5
17B
330
16C
100
AcDbEntity
  8
DIBUJOS
 62
     7
100
AcDbVertex
100
AcDb2dVertex
 10
41.84448495244676
 20
49.33577718806083
 30
0.0
  0
VERTEX
  5
17C
330
16C
100
AcDbEntity
  8
DIBUJOS
 62
     7
100
AcDbVertex
100
AcDb2dVertex
 10
42.46651098605476
 20
49.36898213366837
 30
0.0
  0
VERTEX
  5
17D
330
16C
100
AcDbEntity
  8
DIBUJOS
 62
     7
100
AcDbVertex
100
AcDb2dVertex
 10
43.15656173188591
 20
49.33525199393894
 30
0.0
  0
VERTEX
  5
17E
330
16C
100
AcDbEntity
  8
DIBUJOS
 62
     7
100
AcDbVertex
100
AcDb2dVertex
 10
43.29634486396722
 20
49.32450060622369
 30
0.0
  0
VERTEX
  5
17F
330
16C
100
AcDbEntity
  8
DIBUJOS
 62
     7
100
AcDbVertex
100
AcDb2dVertex
 10
43.44318189641071
 20
49.30595582067598
 30
0.0
  0
VERTEX
  5
180
330
16C
100
AcDbEntity
  8
DIBUJOS
 62
     7
100
AcDbVertex
100
AcDb2dVertex
 10
43.48258051062901
 20
49.27797263271791
 30
0.0
  0
VERTEX
  5
181
330
16C
100
AcDbEntity
  8
DIBUJOS
 62
     7
100
AcDbVertex
100
AcDb2dVertex
 10
43.5380730044925
 20
49.2619602487121
 30
0.0
  0
VERTEX
  5
182
330
16C
100
AcDbEntity
  8
DIBUJOS
 62
     7
100
AcDbVertex
100
AcDb2dVertex
 10
43.5825002015107
 20
49.25419703444943
 30
0.0
  0
VERTEX
  5
183
330
16C
100
AcDbEntity
  8
DIBUJOS
 62
     7
100
AcDbVertex
100
AcDb2dVertex
 10
43.59932150519835
 20
49.23737573076178
 30
0.0
  0
VERTEX
  5
184
330
16C
100
AcDbEntity
  8
DIBUJOS
 62
     7
100
AcDbVertex
100
AcDb2dVertex
 10
43.61502299843067
 20
49.20317170897972
 30
0.0
  0
VERTEX
  5
185
330
16C
100
AcDbEntity
  8
DIBUJOS
 62
     7
100
AcDbVertex
100
AcDb2dVertex
 10
43.6273590235829
 20
49.18130371234957
 30
0.0
  0
SEQEND
  5
186
330
16C
100
AcDbEntity
  8
DIBUJOS
 62
     7
  0
POLYLINE
  5
187
330
1F
100
AcDbEntity
  8
DIBUJOS
 62
     7
100
AcDb2dPolyline
 66
     1
 10
0.0
 20
0.0
 30
0.0
  0
VERTEX
  5
188
330
187
100
AcDbEntity
  8
DIBUJOS
 62
     7
100
AcDbVertex
100
AcDb2dVertex
 10
41.57510866159294
 20
45.923494390254
 30
0.0
  0
VERTEX
  5
189
330
187
100
AcDbEntity
  8
DIBUJOS
 62
     7
100
AcDbVertex
100
AcDb2dVertex
 10
41.56950055424466
 20
45.923494390254
 30
0.0
  0
SEQEND
  5
18A
330
187
100
AcDbEntity
  8
DIBUJOS
 62
     7
  0
POLYLINE
  5
18B
330
1F
100
AcDbEntity
  8
DIBUJOS
 62
     7
100
AcDb2dPolyline
 66
     1
 10
0.0
 20
0.0
 30
0.0
  0
VERTEX
  5
18C
330
18B
100
AcDbEntity
  8
DIBUJOS
 62
     7
100
AcDbVertex
100
AcDb2dVertex
 10
41.57510866159294
 20
45.923494390254
 30
0.0
  0
VERTEX
  5
18D
330
18B
100
AcDbEntity
  8
DIBUJOS
 62
     7
100
AcDbVertex
100
AcDb2dVertex
 10
43.54324948678647
 20
45.92910249760261
 30
0.0
  0
SEQEND
  5
18E
330
18B
100
AcDbEntity
  8
DIBUJOS
 62
     7
  0
POLYLINE
  5
18F
330
1F
100
AcDbEntity
  8
DIBUJOS
 62
     7
100
AcDb2dPolyline
 66
     1
 10
0.0
 20
0.0
 30
0.0
  0
VERTEX
  5
190
330
18F
100
AcDbEntity
  8
DIBUJOS
 62
     7
100
AcDbVertex
100
AcDb2dVertex
 10
43.54885759413476
 20
45.92910249760261
 30
0.0
  0
VERTEX
  5
191
330
18F
100
AcDbEntity
  8
DIBUJOS
 62
     7
100
AcDbVertex
100
AcDb2dVertex
 10
43.55446268312616
 20
45.923494390254
 30
0.0
  0
VERTEX
  5
192
330
18F
100
AcDbEntity
  8
DIBUJOS
 62
     7
100
AcDbVertex
100
AcDb2dVertex
 10
43.6666097383068
 20
45.923494390254
 30
0.0
  0
VERTEX
  5
193
330
18F
100
AcDbEntity
  8
DIBUJOS
 62
     7
100
AcDbVertex
100
AcDb2dVertex
 10
43.67221482729821
 20
45.92910249760261
 30
0.0
  0
SEQEND
  5
194
330
18F
100
AcDbEntity
  8
DIBUJOS
 62
     7
  0
POLYLINE
  5
195
330
1F
100
AcDbEntity
  8
DIBUJOS
 62
     7
100
AcDb2dPolyline
 66
     1
 10
0.0
 20
0.0
 30
0.0
  0
VERTEX
  5
196
330
195
100
AcDbEntity
  8
DIBUJOS
 62
     7
100
AcDbVertex
100
AcDb2dVertex
 10
43.76193247144291
 20
45.93471060495057
 30
0.0
  0
VERTEX
  5
197
330
195
100
AcDbEntity
  8
DIBUJOS
 62
     7
100
AcDbVertex
100
AcDb2dVertex
 10
43.77314566778227
 20
45.923494390254
 30
0.0
  0
VERTEX
  5
198
330
195
100
AcDbEntity
  8
DIBUJOS
 62
     7
100
AcDbVertex
100
AcDb2dVertex
 10
43.79557507881854
 20
45.92910249760261
 30
0.0
  0
SEQEND
  5
199
330
195
100
AcDbEntity
  8
DIBUJOS
 62
     7
  0
POLYLINE
  5
19A
330
1F
100
AcDbEntity
  8
DIBUJOS
 62
     7
100
AcDb2dPolyline
 66
     1
 10
0.0
 20
0.0
 30
0.0
  0
VERTEX
  5
19B
330
19A
100
AcDbEntity
  8
DIBUJOS
 62
     7
100
AcDbVertex
100
AcDb2dVertex
 10
59.06129146030989
 20
45.93471060495057
 30
0.0
  0
VERTEX
  5
19C
330
19A
100
AcDbEntity
  8
DIBUJOS
 62
     7
100
AcDbVertex
100
AcDb2dVertex
 10
59.07250465664958
 20
45.923494390254
 30
0.0
  0
VERTEX
  5
19D
330
19A
100
AcDbEntity
  8
DIBUJOS
 62
     7
100
AcDbVertex
100
AcDb2dVertex
 10
59.08932596033755
 20
45.92910249760261
 30
0.0
  0
SEQEND
  5
19E
330
19A
100
AcDbEntity
  8
DIBUJOS
 62
     7
  0
POLYLINE
  5
19F
330
1F
100
AcDbEntity
  8
DIBUJOS
 62
     7
100
AcDb2dPolyline
 66
     1
 10
0.0
 20
0.0
 30
0.0
  0
VERTEX
  5
1A0
330
19F
100
AcDbEntity
  8
DIBUJOS
 62
     7
100
AcDbVertex
100
AcDb2dVertex
 10
61.01541659126404
 20
45.923494390254
 30
0.0
  0
VERTEX
  5
1A1
330
19F
100
AcDbEntity
  8
DIBUJOS
 62
     7
100
AcDbVertex
100
AcDb2dVertex
 10
59.06970215874957
 20
45.92910249760261
 30
0.0
  0
SEQEND
  5
1A2
330
19F
100
AcDbEntity
  8
DIBUJOS
 62
     7
  0
POLYLINE
  5
1A3
330
1F
100
AcDbEntity
  8
DIBUJOS
 62
     7
100
AcDb2dPolyline
 66
     1
 10
0.0
 20
0.0
 30
0.0
  0
VERTEX
  5
1A4
330
1A3
100
AcDbEntity
  8
DIBUJOS
 62
     7
100
AcDbVertex
100
AcDb2dVertex
 10
61.02102469861265
 20
45.923494390254
 30
0.0
  0
VERTEX
  5
1A5
330
1A3
100
AcDbEntity
  8
DIBUJOS
 62
     7
100
AcDbVertex
100
AcDb2dVertex
 10
61.17241945016032
 20
45.96274510497791
 30
0.0
  0
VERTEX
  5
1A6
330
1A3
100
AcDbEntity
  8
DIBUJOS
 62
     7
100
AcDbVertex
100
AcDb2dVertex
 10
61.19092197870973
 20
46.00143742365291
 30
0.0
  0
VERTEX
  5
1A7
330
1A3
100
AcDbEntity
  8
DIBUJOS
 62
     7
100
AcDbVertex
100
AcDb2dVertex
 10
61.23017269343396
 20
46.0967601567887
 30
0.0
  0
VERTEX
  5
1A8
330
1A3
100
AcDbEntity
  8
DIBUJOS
 62
     7
100
AcDbVertex
100
AcDb2dVertex
 10
61.26213407594814
 20
46.8206527215588
 30
0.0
  0
VERTEX
  5
1A9
330
1A3
100
AcDbEntity
  8
DIBUJOS
 62
     7
100
AcDbVertex
100
AcDb2dVertex
 10
61.26213407594814
 20
48.18321454056071
 30
0.0
  0
VERTEX
  5
1AA
330
1A3
100
AcDbEntity
  8
DIBUJOS
 62
     7
100
AcDbVertex
100
AcDb2dVertex
 10
61.24818322978849
 20
48.78873317961176
 30
0.0
  0
VERTEX
  5
1AB
330
1A3
100
AcDbEntity
  8
DIBUJOS
 62
     7
100
AcDbVertex
100
AcDb2dVertex
 10
61.22961429738474
 20
49.12018500099584
 30
0.0
  0
VERTEX
  5
1AC
330
1A3
100
AcDbEntity
  8
DIBUJOS
 62
     7
100
AcDbVertex
100
AcDb2dVertex
 10
61.19092197870973
 20
49.21550773413163
 30
0.0
  0
VERTEX
  5
1AD
330
1A3
100
AcDbEntity
  8
DIBUJOS
 62
     7
100
AcDbVertex
100
AcDb2dVertex
 10
61.18363264650001
 20
49.23737573076178
 30
0.0
  0
VERTEX
  5
1AE
330
1A3
100
AcDbEntity
  8
DIBUJOS
 62
     7
100
AcDbVertex
100
AcDb2dVertex
 10
61.16681134281203
 20
49.25419703444943
 30
0.0
  0
VERTEX
  5
1AF
330
1A3
100
AcDbEntity
  8
DIBUJOS
 62
     7
100
AcDbVertex
100
AcDb2dVertex
 10
61.09042276327998
 20
49.27373787781477
 30
0.0
  0
VERTEX
  5
1B0
330
1A3
100
AcDbEntity
  8
DIBUJOS
 62
     7
100
AcDbVertex
100
AcDb2dVertex
 10
61.04401250569781
 20
49.31139188167385
 30
0.0
  0
VERTEX
  5
1B1
330
1A3
100
AcDbEntity
  8
DIBUJOS
 62
     7
100
AcDbVertex
100
AcDb2dVertex
 10
60.61717456568049
 20
49.34685757669153
 30
0.0
  0
VERTEX
  5
1B2
330
1A3
100
AcDbEntity
  8
DIBUJOS
 62
     7
100
AcDbVertex
100
AcDb2dVertex
 10
60.50528407084655
 20
49.35218497683675
 30
0.0
  0
VERTEX
  5
1B3
330
1A3
100
AcDbEntity
  8
DIBUJOS
 62
     7
100
AcDbVertex
100
AcDb2dVertex
 10
60.2360104041316
 20
49.36634107127351
 30
0.0
  0
VERTEX
  5
1B4
330
1A3
100
AcDbEntity
  8
DIBUJOS
 62
     7
100
AcDbVertex
100
AcDb2dVertex
 10
60.01171931212689
 20
49.36634107127351
 30
0.0
  0
VERTEX
  5
1B5
330
1A3
100
AcDbEntity
  8
DIBUJOS
 62
     7
100
AcDbVertex
100
AcDb2dVertex
 10
59.53490643488333
 20
49.34087821142917
 30
0.0
  0
VERTEX
  5
1B6
330
1A3
100
AcDbEntity
  8
DIBUJOS
 62
     7
100
AcDbVertex
100
AcDb2dVertex
 10
59.31660678156914
 20
49.32450060622369
 30
0.0
  0
VERTEX
  5
1B7
330
1A3
100
AcDbEntity
  8
DIBUJOS
 62
     7
100
AcDbVertex
100
AcDb2dVertex
 10
59.17164414883666
 20
49.3089228656294
 30
0.0
  0
VERTEX
  5
1B8
330
1A3
100
AcDbEntity
  8
DIBUJOS
 62
     7
100
AcDbVertex
100
AcDb2dVertex
 10
59.13224553461837
 20
49.28093967767134
 30
0.0
  0
VERTEX
  5
1B9
330
1A3
100
AcDbEntity
  8
DIBUJOS
 62
     7
100
AcDbVertex
100
AcDb2dVertex
 10
59.07574189115217
 20
49.26325512387473
 30
0.0
  0
VERTEX
  5
1BA
330
1A3
100
AcDbEntity
  8
DIBUJOS
 62
     7
100
AcDbVertex
100
AcDb2dVertex
 10
59.02484635503426
 20
49.25419703444943
 30
0.0
  0
VERTEX
  5
1BB
330
1A3
100
AcDbEntity
  8
DIBUJOS
 62
     7
100
AcDbVertex
100
AcDb2dVertex
 10
59.00112206883537
 20
49.21020146248555
 30
0.0
  0
VERTEX
  5
1BC
330
1A3
100
AcDbEntity
  8
DIBUJOS
 62
     7
100
AcDbVertex
100
AcDb2dVertex
 10
58.98559564031035
 20
49.18691181969818
 30
0.0
  0
SEQEND
  5
1BD
330
1A3
100
AcDbEntity
  8
DIBUJOS
 62
     7
  0
POLYLINE
  5
1BE
330
1F
100
AcDbEntity
  8
DIBUJOS
 62
     7
100
AcDb2dPolyline
 66
     1
 10
0.0
 20
0.0
 30
0.0
  0
VERTEX
  5
1BF
330
1BE
100
AcDbEntity
  8
DIBUJOS
 62
     7
100
AcDbVertex
100
AcDb2dVertex
 10
41.56950055424466
 20
45.9178893012626
 30
0.0
  0
VERTEX
  5
1C0
330
1BE
100
AcDbEntity
  8
DIBUJOS
 62
     7
100
AcDbVertex
100
AcDb2dVertex
 10
41.56950055424466
 20
45.923494390254
 30
0.0
  0
SEQEND
  5
1C1
330
1BE
100
AcDbEntity
  8
DIBUJOS
 62
     7
  0
POLYLINE
  5
1C2
330
1F
100
AcDbEntity
  8
DIBUJOS
 62
     7
100
AcDb2dPolyline
 66
     1
 10
0.0
 20
0.0
 30
0.0
  0
VERTEX
  5
1C3
330
1C2
100
AcDbEntity
  8
DIBUJOS
 62
     7
100
AcDbVertex
100
AcDb2dVertex
 10
41.79378862789218
 20
45.58145417243411
 30
0.0
  0
VERTEX
  5
1C4
330
1C2
100
AcDbEntity
  8
DIBUJOS
 62
     7
100
AcDbVertex
100
AcDb2dVertex
 10
41.79939673524078
 20
45.58706227978272
 30
0.0
  0
SEQEND
  5
1C5
330
1C2
100
AcDbEntity
  8
DIBUJOS
 62
     7
  0
POLYLINE
  5
1C6
330
1F
100
AcDbEntity
  8
DIBUJOS
 62
     7
100
AcDb2dPolyline
 66
     1
 10
0.0
 20
0.0
 30
0.0
  0
VERTEX
  5
1C7
330
1C6
100
AcDbEntity
  8
DIBUJOS
 62
     7
100
AcDbVertex
100
AcDb2dVertex
 10
21.36517102205886
 20
45.923494390254
 30
0.0
  0
VERTEX
  5
1C8
330
1C6
100
AcDbEntity
  8
DIBUJOS
 62
     7
100
AcDbVertex
100
AcDb2dVertex
 10
21.35758475897674
 20
45.90155998976952
 30
0.0
  0
VERTEX
  5
1C9
330
1C6
100
AcDbEntity
  8
DIBUJOS
 62
     7
100
AcDbVertex
100
AcDb2dVertex
 10
21.35956366929987
 20
45.56463286874614
 30
0.0
  0
VERTEX
  5
1CA
330
1C6
100
AcDbEntity
  8
DIBUJOS
 62
     7
100
AcDbVertex
100
AcDb2dVertex
 10
21.35395631654089
 20
45.55902476139786
 30
0.0
  0
VERTEX
  5
1CB
330
1C6
100
AcDbEntity
  8
DIBUJOS
 62
     7
100
AcDbVertex
100
AcDb2dVertex
 10
21.36807430422018
 20
44.11787096223713
 30
0.0
  0
VERTEX
  5
1CC
330
1C6
100
AcDbEntity
  8
DIBUJOS
 62
     7
100
AcDbVertex
100
AcDb2dVertex
 10
21.37348169082653
 20
43.96105524147633
 30
0.0
  0
VERTEX
  5
1CD
330
1C6
100
AcDbEntity
  8
DIBUJOS
 62
     7
100
AcDbVertex
100
AcDb2dVertex
 10
21.38760005580046
 20
43.42827296996009
 30
0.0
  0
VERTEX
  5
1CE
330
1C6
100
AcDbEntity
  8
DIBUJOS
 62
     7
100
AcDbVertex
100
AcDb2dVertex
 10
21.39881438402378
 20
43.4170567552632
 30
0.0
  0
VERTEX
  5
1CF
330
1C6
100
AcDbEntity
  8
DIBUJOS
 62
     7
100
AcDbVertex
100
AcDb2dVertex
 10
21.53899518464278
 20
43.4170567552632
 30
0.0
  0
VERTEX
  5
1D0
330
1C6
100
AcDbEntity
  8
DIBUJOS
 62
     7
100
AcDbVertex
100
AcDb2dVertex
 10
21.54460253740208
 20
43.42266486261148
 30
0.0
  0
VERTEX
  5
1D1
330
1C6
100
AcDbEntity
  8
DIBUJOS
 62
     7
100
AcDbVertex
100
AcDb2dVertex
 10
21.56703194843802
 20
43.8880653319517
 30
0.0
  0
VERTEX
  5
1D2
330
1C6
100
AcDbEntity
  8
DIBUJOS
 62
     7
100
AcDbVertex
100
AcDb2dVertex
 10
21.56703194843802
 20
43.89928154664827
 30
0.0
  0
VERTEX
  5
1D3
330
1C6
100
AcDbEntity
  8
DIBUJOS
 62
     7
100
AcDbVertex
100
AcDb2dVertex
 10
21.58104995304099
 20
44.68429584112931
 30
0.0
  0
VERTEX
  5
1D4
330
1C6
100
AcDbEntity
  8
DIBUJOS
 62
     7
100
AcDbVertex
100
AcDb2dVertex
 10
21.58385325212599
 20
45.57584606508583
 30
0.0
  0
VERTEX
  5
1D5
330
1C6
100
AcDbEntity
  8
DIBUJOS
 62
     7
100
AcDbVertex
100
AcDb2dVertex
 10
21.59506795764396
 20
45.58706227978272
 30
0.0
  0
VERTEX
  5
1D6
330
1C6
100
AcDbEntity
  8
DIBUJOS
 62
     7
100
AcDbVertex
100
AcDb2dVertex
 10
32.93291187800966
 20
45.58706227978272
 30
0.0
  0
VERTEX
  5
1D7
330
1C6
100
AcDbEntity
  8
DIBUJOS
 62
     7
100
AcDbVertex
100
AcDb2dVertex
 10
32.94412658352762
 20
45.57584606508583
 30
0.0
  0
VERTEX
  5
1D8
330
1C6
100
AcDbEntity
  8
DIBUJOS
 62
     7
100
AcDbVertex
100
AcDb2dVertex
 10
32.94692912802332
 20
45.28426975832954
 30
0.0
  0
VERTEX
  5
1D9
330
1C6
100
AcDbEntity
  8
DIBUJOS
 62
     7
100
AcDbVertex
100
AcDb2dVertex
 10
32.94412658352762
 20
45.27866165098126
 30
0.0
  0
VERTEX
  5
1DA
330
1C6
100
AcDbEntity
  8
DIBUJOS
 62
     7
100
AcDbVertex
100
AcDb2dVertex
 10
32.95808648475793
 20
44.12923507642775
 30
0.0
  0
VERTEX
  5
1DB
330
1C6
100
AcDbEntity
  8
DIBUJOS
 62
     7
100
AcDbVertex
100
AcDb2dVertex
 10
32.98337729825153
 20
43.42266486261148
 30
0.0
  0
VERTEX
  5
1DC
330
1C6
100
AcDbEntity
  8
DIBUJOS
 62
     7
100
AcDbVertex
100
AcDb2dVertex
 10
32.98898389642154
 20
43.4170567552632
 30
0.0
  0
VERTEX
  5
1DD
330
1C6
100
AcDbEntity
  8
DIBUJOS
 62
     7
100
AcDbVertex
100
AcDb2dVertex
 10
33.12916545162984
 20
43.4170567552632
 30
0.0
  0
VERTEX
  5
1DE
330
1C6
100
AcDbEntity
  8
DIBUJOS
 62
     7
100
AcDbVertex
100
AcDb2dVertex
 10
33.1403801571478
 20
43.42827296996009
 30
0.0
  0
VERTEX
  5
1DF
330
1C6
100
AcDbEntity
  8
DIBUJOS
 62
     7
100
AcDbVertex
100
AcDb2dVertex
 10
33.14887834134528
 20
43.68628816497984
 30
0.0
  0
VERTEX
  5
1E0
330
1C6
100
AcDbEntity
  8
DIBUJOS
 62
     7
100
AcDbVertex
100
AcDb2dVertex
 10
33.15439740716148
 20
43.87124402826404
 30
0.0
  0
VERTEX
  5
1E1
330
1C6
100
AcDbEntity
  8
DIBUJOS
 62
     7
100
AcDbVertex
100
AcDb2dVertex
 10
33.1656377687144
 20
44.29181284074499
 30
0.0
  0
VERTEX
  5
1E2
330
1C6
100
AcDbEntity
  8
DIBUJOS
 62
     7
100
AcDbVertex
100
AcDb2dVertex
 10
33.17119305481481
 20
44.89173846423282
 30
0.0
  0
VERTEX
  5
1E3
330
1C6
100
AcDbEntity
  8
DIBUJOS
 62
     7
100
AcDbVertex
100
AcDb2dVertex
 10
33.16841616635374
 20
45.9178893012626
 30
0.0
  0
SEQEND
  5
1E4
330
1C6
100
AcDbEntity
  8
DIBUJOS
 62
     7
  0
POLYLINE
  5
1E5
330
1F
100
AcDbEntity
  8
DIBUJOS
 62
     7
100
AcDb2dPolyline
 66
     1
 10
0.0
 20
0.0
 30
0.0
  0
VERTEX
  5
1E6
330
1E5
100
AcDbEntity
  8
DIBUJOS
 62
     7
100
AcDbVertex
100
AcDb2dVertex
 10
41.56950055424466
 20
45.9178893012626
 30
0.0
  0
VERTEX
  5
1E7
330
1E5
100
AcDbEntity
  8
DIBUJOS
 62
     7
100
AcDbVertex
100
AcDb2dVertex
 10
41.56389244689669
 20
44.9254052184648
 30
0.0
  0
VERTEX
  5
1E8
330
1E5
100
AcDbEntity
  8
DIBUJOS
 62
     7
100
AcDbVertex
100
AcDb2dVertex
 10
41.5807137505837
 20
43.88246024296062
 30
0.0
  0
VERTEX
  5
1E9
330
1E5
100
AcDbEntity
  8
DIBUJOS
 62
     7
100
AcDbVertex
100
AcDb2dVertex
 10
41.58920740724633
 20
43.69734138839728
 30
0.0
  0
VERTEX
  5
1EA
330
1E5
100
AcDbEntity
  8
DIBUJOS
 62
     7
100
AcDbVertex
100
AcDb2dVertex
 10
41.59753505427199
 20
43.42266486261148
 30
0.0
  0
VERTEX
  5
1EB
330
1E5
100
AcDbEntity
  8
DIBUJOS
 62
     7
100
AcDbVertex
100
AcDb2dVertex
 10
41.60314316162028
 20
43.4170567552632
 30
0.0
  0
VERTEX
  5
1EC
330
1E5
100
AcDbEntity
  8
DIBUJOS
 62
     7
100
AcDbVertex
100
AcDb2dVertex
 10
41.74332471682858
 20
43.4170567552632
 30
0.0
  0
VERTEX
  5
1ED
330
1E5
100
AcDbEntity
  8
DIBUJOS
 62
     7
100
AcDbVertex
100
AcDb2dVertex
 10
41.75453791316827
 20
43.42827296996009
 30
0.0
  0
VERTEX
  5
1EE
330
1E5
100
AcDbEntity
  8
DIBUJOS
 62
     7
100
AcDbVertex
100
AcDb2dVertex
 10
41.75714275527892
 20
43.50659933470061
 30
0.0
  0
VERTEX
  5
1EF
330
1E5
100
AcDbEntity
  8
DIBUJOS
 62
     7
100
AcDbVertex
100
AcDb2dVertex
 10
41.78537948522679
 20
44.409540838061
 30
0.0
  0
VERTEX
  5
1F0
330
1E5
100
AcDbEntity
  8
DIBUJOS
 62
     7
100
AcDbVertex
100
AcDb2dVertex
 10
41.79378862789218
 20
45.58145417243411
 30
0.0
  0
SEQEND
  5
1F1
330
1E5
100
AcDbEntity
  8
DIBUJOS
 62
     7
  0
POLYLINE
  5
1F2
330
1F
100
AcDbEntity
  8
DIBUJOS
 62
     7
100
AcDb2dPolyline
 66
     1
 10
0.0
 20
0.0
 30
0.0
  0
VERTEX
  5
1F3
330
1F2
100
AcDbEntity
  8
DIBUJOS
 62
     7
100
AcDbVertex
100
AcDb2dVertex
 10
41.79939673524078
 20
45.58706227978272
 30
0.0
  0
VERTEX
  5
1F4
330
1F2
100
AcDbEntity
  8
DIBUJOS
 62
     7
100
AcDbVertex
100
AcDb2dVertex
 10
60.79112549925932
 20
45.58706227978272
 30
0.0
  0
VERTEX
  5
1F5
330
1F2
100
AcDbEntity
  8
DIBUJOS
 62
     7
100
AcDbVertex
100
AcDb2dVertex
 10
60.80234171395557
 20
45.57584606508583
 30
0.0
  0
VERTEX
  5
1F6
330
1F2
100
AcDbEntity
  8
DIBUJOS
 62
     7
100
AcDbVertex
100
AcDb2dVertex
 10
60.79673360660761
 20
45.53659535036192
 30
0.0
  0
VERTEX
  5
1F7
330
1F2
100
AcDbEntity
  8
DIBUJOS
 62
     7
100
AcDbVertex
100
AcDb2dVertex
 10
60.79673360660761
 20
45.52538215402224
 30
0.0
  0
VERTEX
  5
1F8
330
1F2
100
AcDbEntity
  8
DIBUJOS
 62
     7
100
AcDbVertex
100
AcDb2dVertex
 10
60.81086253583144
 20
44.15710960353318
 30
0.0
  0
VERTEX
  5
1F9
330
1F2
100
AcDbEntity
  8
DIBUJOS
 62
     7
100
AcDbVertex
100
AcDb2dVertex
 10
60.83598432133184
 20
43.55163322148042
 30
0.0
  0
VERTEX
  5
1FA
330
1F2
100
AcDbEntity
  8
DIBUJOS
 62
     7
100
AcDbVertex
100
AcDb2dVertex
 10
60.83037621398355
 20
43.54602511413214
 30
0.0
  0
VERTEX
  5
1FB
330
1F2
100
AcDbEntity
  8
DIBUJOS
 62
     7
100
AcDbVertex
100
AcDb2dVertex
 10
60.83598432133184
 20
43.42827296996009
 30
0.0
  0
VERTEX
  5
1FC
330
1F2
100
AcDbEntity
  8
DIBUJOS
 62
     7
100
AcDbVertex
100
AcDb2dVertex
 10
60.84720053602841
 20
43.4170567552632
 30
0.0
  0
VERTEX
  5
1FD
330
1F2
100
AcDbEntity
  8
DIBUJOS
 62
     7
100
AcDbVertex
100
AcDb2dVertex
 10
60.98737907287983
 20
43.4170567552632
 30
0.0
  0
VERTEX
  5
1FE
330
1F2
100
AcDbEntity
  8
DIBUJOS
 62
     7
100
AcDbVertex
100
AcDb2dVertex
 10
60.99298718022811
 20
43.42266486261148
 30
0.0
  0
VERTEX
  5
1FF
330
1F2
100
AcDbEntity
  8
DIBUJOS
 62
     7
100
AcDbVertex
100
AcDb2dVertex
 10
60.99579123390241
 20
43.45630746998775
 30
0.0
  0
VERTEX
  5
200
330
1F2
100
AcDbEntity
  8
DIBUJOS
 62
     7
100
AcDbVertex
100
AcDb2dVertex
 10
61.02662978760373
 20
44.77961857426542
 30
0.0
  0
VERTEX
  5
201
330
1F2
100
AcDbEntity
  8
DIBUJOS
 62
     7
100
AcDbVertex
100
AcDb2dVertex
 10
61.02102469861265
 20
45.9178893012626
 30
0.0
  0
SEQEND
  5
202
330
1F2
100
AcDbEntity
  8
DIBUJOS
 62
     7
  0
POLYLINE
  5
203
330
1F
100
AcDbEntity
  8
DIBUJOS
 62
     7
100
AcDb2dPolyline
 66
     1
 10
0.0
 20
0.0
 30
0.0
  0
VERTEX
  5
204
330
203
100
AcDbEntity
  8
DIBUJOS
 62
     7
100
AcDbVertex
100
AcDb2dVertex
 10
23.45667209877272
 20
35.49211039658252
 30
0.0
  0
VERTEX
  5
205
330
203
100
AcDbEntity
  8
DIBUJOS
 62
     7
100
AcDbVertex
100
AcDb2dVertex
 10
23.48414744816185
 20
35.51566112725271
 30
0.0
  0
VERTEX
  5
206
330
203
100
AcDbEntity
  8
DIBUJOS
 62
     7
100
AcDbVertex
100
AcDb2dVertex
 10
23.50713751901491
 20
35.53136111130642
 30
0.0
  0
VERTEX
  5
207
330
203
100
AcDbEntity
  8
DIBUJOS
 62
     7
100
AcDbVertex
100
AcDb2dVertex
 10
23.50713751901491
 20
35.57061182603034
 30
0.0
  0
VERTEX
  5
208
330
203
100
AcDbEntity
  8
DIBUJOS
 62
     7
100
AcDbVertex
100
AcDb2dVertex
 10
23.5183522245332
 20
35.58182653154894
 30
0.0
  0
VERTEX
  5
209
330
203
100
AcDbEntity
  8
DIBUJOS
 62
     7
100
AcDbVertex
100
AcDb2dVertex
 10
23.56320953742679
 20
35.55379052234301
 30
0.0
  0
VERTEX
  5
20A
330
203
100
AcDbEntity
  8
DIBUJOS
 62
     7
100
AcDbVertex
100
AcDb2dVertex
 10
23.61966111423441
 20
35.57394711054094
 30
0.0
  0
VERTEX
  5
20B
330
203
100
AcDbEntity
  8
DIBUJOS
 62
     7
100
AcDbVertex
100
AcDb2dVertex
 10
24.09032182527622
 20
35.58466227797165
 30
0.0
  0
VERTEX
  5
20C
330
203
100
AcDbEntity
  8
DIBUJOS
 62
     7
100
AcDbVertex
100
AcDb2dVertex
 10
26.02476495807834
 20
35.60142774205454
 30
0.0
  0
VERTEX
  5
20D
330
203
100
AcDbEntity
  8
DIBUJOS
 62
     7
100
AcDbVertex
100
AcDb2dVertex
 10
29.3162410344059
 20
35.59864783523627
 30
0.0
  0
VERTEX
  5
20E
330
203
100
AcDbEntity
  8
DIBUJOS
 62
     7
100
AcDbVertex
100
AcDb2dVertex
 10
29.93861870660775
 20
35.59026283942725
 30
0.0
  0
VERTEX
  5
20F
330
203
100
AcDbEntity
  8
DIBUJOS
 62
     7
100
AcDbVertex
100
AcDb2dVertex
 10
30.47693966326105
 20
35.58743463889691
 30
0.0
  0
VERTEX
  5
210
330
203
100
AcDbEntity
  8
DIBUJOS
 62
     7
100
AcDbVertex
100
AcDb2dVertex
 10
30.48254626143073
 20
35.58182653154894
 30
0.0
  0
VERTEX
  5
211
330
203
100
AcDbEntity
  8
DIBUJOS
 62
     7
100
AcDbVertex
100
AcDb2dVertex
 10
30.49376096694903
 20
35.58743463889691
 30
0.0
  0
VERTEX
  5
212
330
203
100
AcDbEntity
  8
DIBUJOS
 62
     7
100
AcDbVertex
100
AcDb2dVertex
 10
30.9147991339471
 20
35.57259186823742
 30
0.0
  0
VERTEX
  5
213
330
203
100
AcDbEntity
  8
DIBUJOS
 62
     7
100
AcDbVertex
100
AcDb2dVertex
 10
30.96981623657938
 20
35.55266920270875
 30
0.0
  0
VERTEX
  5
214
330
203
100
AcDbEntity
  8
DIBUJOS
 62
     7
100
AcDbVertex
100
AcDb2dVertex
 10
30.97598424915549
 20
35.548183924173
 30
0.0
  0
VERTEX
  5
215
330
203
100
AcDbEntity
  8
DIBUJOS
 62
     7
100
AcDbVertex
100
AcDb2dVertex
 10
30.98719895467346
 20
35.57061182603034
 30
0.0
  0
VERTEX
  5
216
330
203
100
AcDbEntity
  8
DIBUJOS
 62
     7
100
AcDbVertex
100
AcDb2dVertex
 10
31.00402025836143
 20
35.58182653154894
 30
0.0
  0
VERTEX
  5
217
330
203
100
AcDbEntity
  8
DIBUJOS
 62
     7
100
AcDbVertex
100
AcDb2dVertex
 10
31.01579486910722
 20
35.57734125301256
 30
0.0
  0
VERTEX
  5
218
330
203
100
AcDbEntity
  8
DIBUJOS
 62
     7
100
AcDbVertex
100
AcDb2dVertex
 10
31.0208415620494
 20
35.57621993337894
 30
0.0
  0
VERTEX
  5
219
330
203
100
AcDbEntity
  8
DIBUJOS
 62
     7
100
AcDbVertex
100
AcDb2dVertex
 10
31.02644966939769
 20
35.57061182603034
 30
0.0
  0
VERTEX
  5
21A
330
203
100
AcDbEntity
  8
DIBUJOS
 62
     7
100
AcDbVertex
100
AcDb2dVertex
 10
31.02644966939769
 20
35.52575451313707
 30
0.0
  0
SEQEND
  5
21B
330
203
100
AcDbEntity
  8
DIBUJOS
 62
     7
  0
POLYLINE
  5
21C
330
1F
100
AcDbEntity
  8
DIBUJOS
 62
     7
100
AcDb2dPolyline
 66
     1
 10
0.0
 20
0.0
 30
0.0
  0
VERTEX
  5
21D
330
21C
100
AcDbEntity
  8
DIBUJOS
 62
     7
100
AcDbVertex
100
AcDb2dVertex
 10
61.21167016488423
 20
35.43603837817064
 30
0.0
  0
VERTEX
  5
21E
330
21C
100
AcDbEntity
  8
DIBUJOS
 62
     7
100
AcDbVertex
100
AcDb2dVertex
 10
61.23970466491188
 20
35.46407438737658
 30
0.0
  0
VERTEX
  5
21F
330
21C
100
AcDbEntity
  8
DIBUJOS
 62
     7
100
AcDbVertex
100
AcDb2dVertex
 10
61.23970466491188
 20
35.48650379841251
 30
0.0
  0
VERTEX
  5
220
330
21C
100
AcDbEntity
  8
DIBUJOS
 62
     7
100
AcDbVertex
100
AcDb2dVertex
 10
61.2284914685722
 20
35.49771850393049
 30
0.0
  0
VERTEX
  5
221
330
21C
100
AcDbEntity
  8
DIBUJOS
 62
     7
100
AcDbVertex
100
AcDb2dVertex
 10
61.18924075384829
 20
35.49771850393049
 30
0.0
  0
VERTEX
  5
222
330
21C
100
AcDbEntity
  8
DIBUJOS
 62
     7
100
AcDbVertex
100
AcDb2dVertex
 10
61.17353926061566
 20
35.52631441836457
 30
0.0
  0
VERTEX
  5
223
330
21C
100
AcDbEntity
  8
DIBUJOS
 62
     7
100
AcDbVertex
100
AcDb2dVertex
 10
61.12756062808781
 20
35.57621993337894
 30
0.0
  0
VERTEX
  5
224
330
21C
100
AcDbEntity
  8
DIBUJOS
 62
     7
100
AcDbVertex
100
AcDb2dVertex
 10
61.08887132777033
 20
35.59416255670052
 30
0.0
  0
VERTEX
  5
225
330
21C
100
AcDbEntity
  8
DIBUJOS
 62
     7
100
AcDbVertex
100
AcDb2dVertex
 10
61.03761660716653
 20
35.61854937226644
 30
0.0
  0
VERTEX
  5
226
330
21C
100
AcDbEntity
  8
DIBUJOS
 62
     7
100
AcDbVertex
100
AcDb2dVertex
 10
60.9820033790222
 20
35.62360512027927
 30
0.0
  0
VERTEX
  5
227
330
21C
100
AcDbEntity
  8
DIBUJOS
 62
     7
100
AcDbVertex
100
AcDb2dVertex
 10
60.30879204702161
 20
35.66325274895188
 30
0.0
  0
VERTEX
  5
228
330
21C
100
AcDbEntity
  8
DIBUJOS
 62
     7
100
AcDbVertex
100
AcDb2dVertex
 10
60.18005006492957
 20
35.66861787855961
 30
0.0
  0
VERTEX
  5
229
330
21C
100
AcDbEntity
  8
DIBUJOS
 62
     7
100
AcDbVertex
100
AcDb2dVertex
 10
59.8098606495153
 20
35.66032796099676
 30
0.0
  0
VERTEX
  5
22A
330
21C
100
AcDbEntity
  8
DIBUJOS
 62
     7
100
AcDbVertex
100
AcDb2dVertex
 10
59.1820333337088
 20
35.61848749594694
 30
0.0
  0
VERTEX
  5
22B
330
21C
100
AcDbEntity
  8
DIBUJOS
 62
     7
100
AcDbVertex
100
AcDb2dVertex
 10
59.10390618053162
 20
35.58631181008469
 30
0.0
  0
VERTEX
  5
22C
330
21C
100
AcDbEntity
  8
DIBUJOS
 62
     7
100
AcDbVertex
100
AcDb2dVertex
 10
59.06914376270034
 20
35.5717331456646
 30
0.0
  0
VERTEX
  5
22D
330
21C
100
AcDbEntity
  8
DIBUJOS
 62
     7
100
AcDbVertex
100
AcDb2dVertex
 10
59.05288085506191
 20
35.56500522786097
 30
0.0
  0
VERTEX
  5
22E
330
21C
100
AcDbEntity
  8
DIBUJOS
 62
     7
100
AcDbVertex
100
AcDb2dVertex
 10
58.99680883665004
 20
35.49771850393049
 30
0.0
  0
VERTEX
  5
22F
330
21C
100
AcDbEntity
  8
DIBUJOS
 62
     7
100
AcDbVertex
100
AcDb2dVertex
 10
58.95755812192581
 20
35.49771850393049
 30
0.0
  0
SEQEND
  5
230
330
21C
100
AcDbEntity
  8
DIBUJOS
 62
     7
  0
POLYLINE
  5
231
330
1F
100
AcDbEntity
  8
DIBUJOS
 62
     7
100
AcDb2dPolyline
 66
     1
 10
0.0
 20
0.0
 30
0.0
  0
VERTEX
  5
232
330
231
100
AcDbEntity
  8
DIBUJOS
 62
     7
100
AcDbVertex
100
AcDb2dVertex
 10
51.30927987644233
 20
35.43043178000064
 30
0.0
  0
VERTEX
  5
233
330
231
100
AcDbEntity
  8
DIBUJOS
 62
     7
100
AcDbVertex
100
AcDb2dVertex
 10
51.27692912587213
 20
35.49297364669115
 30
0.0
  0
VERTEX
  5
234
330
231
100
AcDbEntity
  8
DIBUJOS
 62
     7
100
AcDbVertex
100
AcDb2dVertex
 10
51.25376927243655
 20
35.51566112725271
 30
0.0
  0
VERTEX
  5
235
330
231
100
AcDbEntity
  8
DIBUJOS
 62
     7
100
AcDbVertex
100
AcDb2dVertex
 10
51.23077844699419
 20
35.53136111130642
 30
0.0
  0
VERTEX
  5
236
330
231
100
AcDbEntity
  8
DIBUJOS
 62
     7
100
AcDbVertex
100
AcDb2dVertex
 10
51.23077844699419
 20
35.57061182603034
 30
0.0
  0
VERTEX
  5
237
330
231
100
AcDbEntity
  8
DIBUJOS
 62
     7
100
AcDbVertex
100
AcDb2dVertex
 10
51.21395714330654
 20
35.58182653154894
 30
0.0
  0
VERTEX
  5
238
330
231
100
AcDbEntity
  8
DIBUJOS
 62
     7
100
AcDbVertex
100
AcDb2dVertex
 10
51.18031453593059
 20
35.55379052234301
 30
0.0
  0
VERTEX
  5
239
330
231
100
AcDbEntity
  8
DIBUJOS
 62
     7
100
AcDbVertex
100
AcDb2dVertex
 10
51.08494954579619
 20
35.57906624405123
 30
0.0
  0
VERTEX
  5
23A
330
231
100
AcDbEntity
  8
DIBUJOS
 62
     7
100
AcDbVertex
100
AcDb2dVertex
 10
49.47571249910881
 20
35.59864783523627
 30
0.0
  0
VERTEX
  5
23B
330
231
100
AcDbEntity
  8
DIBUJOS
 62
     7
100
AcDbVertex
100
AcDb2dVertex
 10
46.25152465588938
 20
35.60142925123314
 30
0.0
  0
VERTEX
  5
23C
330
231
100
AcDbEntity
  8
DIBUJOS
 62
     7
100
AcDbVertex
100
AcDb2dVertex
 10
44.74880542853521
 20
35.59304123706691
 30
0.0
  0
VERTEX
  5
23D
330
231
100
AcDbEntity
  8
DIBUJOS
 62
     7
100
AcDbVertex
100
AcDb2dVertex
 10
43.82964931124847
 20
35.57406331728627
 30
0.0
  0
VERTEX
  5
23E
330
231
100
AcDbEntity
  8
DIBUJOS
 62
     7
100
AcDbVertex
100
AcDb2dVertex
 10
43.76193247144291
 20
35.55379052234301
 30
0.0
  0
VERTEX
  5
23F
330
231
100
AcDbEntity
  8
DIBUJOS
 62
     7
100
AcDbVertex
100
AcDb2dVertex
 10
43.74006447481276
 20
35.57734125301256
 30
0.0
  0
VERTEX
  5
240
330
231
100
AcDbEntity
  8
DIBUJOS
 62
     7
100
AcDbVertex
100
AcDb2dVertex
 10
43.73389495305837
 20
35.58182653154894
 30
0.0
  0
VERTEX
  5
241
330
231
100
AcDbEntity
  8
DIBUJOS
 62
     7
100
AcDbVertex
100
AcDb2dVertex
 10
43.72268175671869
 20
35.58182653154894
 30
0.0
  0
VERTEX
  5
242
330
231
100
AcDbEntity
  8
DIBUJOS
 62
     7
100
AcDbVertex
100
AcDb2dVertex
 10
43.71146554202211
 20
35.57061182603034
 30
0.0
  0
VERTEX
  5
243
330
231
100
AcDbEntity
  8
DIBUJOS
 62
     7
100
AcDbVertex
100
AcDb2dVertex
 10
43.71146554202211
 20
35.5425758168244
 30
0.0
  0
VERTEX
  5
244
330
231
100
AcDbEntity
  8
DIBUJOS
 62
     7
100
AcDbVertex
100
AcDb2dVertex
 10
43.7170736493704
 20
35.53696921865503
 30
0.0
  0
VERTEX
  5
245
330
231
100
AcDbEntity
  8
DIBUJOS
 62
     7
100
AcDbVertex
100
AcDb2dVertex
 10
43.69013179458516
 20
35.5131724918874
 30
0.0
  0
VERTEX
  5
246
330
231
100
AcDbEntity
  8
DIBUJOS
 62
     7
100
AcDbVertex
100
AcDb2dVertex
 10
43.6666097383068
 20
35.49211039658252
 30
0.0
  0
SEQEND
  5
247
330
231
100
AcDbEntity
  8
DIBUJOS
 62
     7
  0
POLYLINE
  5
248
330
1F
100
AcDbEntity
  8
DIBUJOS
 62
     7
100
AcDb2dPolyline
 66
     1
 10
0.0
 20
0.0
 30
0.0
  0
VERTEX
  5
249
330
248
100
AcDbEntity
  8
DIBUJOS
 62
     7
100
AcDbVertex
100
AcDb2dVertex
 10
51.30927987644233
 20
35.43043178000064
 30
0.0
  0
VERTEX
  5
24A
330
248
100
AcDbEntity
  8
DIBUJOS
 62
     7
100
AcDbVertex
100
AcDb2dVertex
 10
51.33282909793392
 20
35.47472918766704
 30
0.0
  0
VERTEX
  5
24B
330
248
100
AcDbEntity
  8
DIBUJOS
 62
     7
100
AcDbVertex
100
AcDb2dVertex
 10
51.39338941323874
 20
35.53696921865503
 30
0.0
  0
VERTEX
  5
24C
330
248
100
AcDbEntity
  8
DIBUJOS
 62
     7
100
AcDbVertex
100
AcDb2dVertex
 10
51.38778130589046
 20
35.548183924173
 30
0.0
  0
VERTEX
  5
24D
330
248
100
AcDbEntity
  8
DIBUJOS
 62
     7
100
AcDbVertex
100
AcDb2dVertex
 10
51.39338941323874
 20
35.57621993337894
 30
0.0
  0
VERTEX
  5
24E
330
248
100
AcDbEntity
  8
DIBUJOS
 62
     7
100
AcDbVertex
100
AcDb2dVertex
 10
51.39899450222983
 20
35.58182653154894
 30
0.0
  0
VERTEX
  5
24F
330
248
100
AcDbEntity
  8
DIBUJOS
 62
     7
100
AcDbVertex
100
AcDb2dVertex
 10
51.41637722032391
 20
35.57734125301256
 30
0.0
  0
VERTEX
  5
250
330
248
100
AcDbEntity
  8
DIBUJOS
 62
     7
100
AcDbVertex
100
AcDb2dVertex
 10
51.42815484942658
 20
35.56556513308848
 30
0.0
  0
VERTEX
  5
251
330
248
100
AcDbEntity
  8
DIBUJOS
 62
     7
100
AcDbVertex
100
AcDb2dVertex
 10
51.43824521695405
 20
35.548183924173
 30
0.0
  0
VERTEX
  5
252
330
248
100
AcDbEntity
  8
DIBUJOS
 62
     7
100
AcDbVertex
100
AcDb2dVertex
 10
51.47693753562842
 20
35.56668645272273
 30
0.0
  0
VERTEX
  5
253
330
248
100
AcDbEntity
  8
DIBUJOS
 62
     7
100
AcDbVertex
100
AcDb2dVertex
 10
51.49375883931671
 20
35.5722945600707
 30
0.0
  0
VERTEX
  5
254
330
248
100
AcDbEntity
  8
DIBUJOS
 62
     7
100
AcDbVertex
100
AcDb2dVertex
 10
51.53921529607955
 20
35.57906322569466
 30
0.0
  0
VERTEX
  5
255
330
248
100
AcDbEntity
  8
DIBUJOS
 62
     7
100
AcDbVertex
100
AcDb2dVertex
 10
52.48680131816373
 20
35.59304123706691
 30
0.0
  0
VERTEX
  5
256
330
248
100
AcDbEntity
  8
DIBUJOS
 62
     7
100
AcDbVertex
100
AcDb2dVertex
 10
54.06804310346486
 20
35.60425594258488
 30
0.0
  0
VERTEX
  5
257
330
248
100
AcDbEntity
  8
DIBUJOS
 62
     7
100
AcDbVertex
100
AcDb2dVertex
 10
56.16515228752733
 20
35.60425594258488
 30
0.0
  0
VERTEX
  5
258
330
248
100
AcDbEntity
  8
DIBUJOS
 62
     7
100
AcDbVertex
100
AcDb2dVertex
 10
57.80246609124066
 20
35.59304123706691
 30
0.0
  0
VERTEX
  5
259
330
248
100
AcDbEntity
  8
DIBUJOS
 62
     7
100
AcDbVertex
100
AcDb2dVertex
 10
58.7888470561384
 20
35.57423989117186
 30
0.0
  0
VERTEX
  5
25A
330
248
100
AcDbEntity
  8
DIBUJOS
 62
     7
100
AcDbVertex
100
AcDb2dVertex
 10
58.79544216623302
 20
35.57259186823742
 30
0.0
  0
VERTEX
  5
25B
330
248
100
AcDbEntity
  8
DIBUJOS
 62
     7
100
AcDbVertex
100
AcDb2dVertex
 10
58.85046077804422
 20
35.55266920270875
 30
0.0
  0
VERTEX
  5
25C
330
248
100
AcDbEntity
  8
DIBUJOS
 62
     7
100
AcDbVertex
100
AcDb2dVertex
 10
58.85662728144174
 20
35.548183924173
 30
0.0
  0
VERTEX
  5
25D
330
248
100
AcDbEntity
  8
DIBUJOS
 62
     7
100
AcDbVertex
100
AcDb2dVertex
 10
58.89027290717424
 20
35.58182653154894
 30
0.0
  0
VERTEX
  5
25E
330
248
100
AcDbEntity
  8
DIBUJOS
 62
     7
100
AcDbVertex
100
AcDb2dVertex
 10
58.89587799616564
 20
35.58182653154894
 30
0.0
  0
VERTEX
  5
25F
330
248
100
AcDbEntity
  8
DIBUJOS
 62
     7
100
AcDbVertex
100
AcDb2dVertex
 10
58.91269929985361
 20
35.56500522786097
 30
0.0
  0
VERTEX
  5
260
330
248
100
AcDbEntity
  8
DIBUJOS
 62
     7
100
AcDbVertex
100
AcDb2dVertex
 10
58.90709421086221
 20
35.55939712051237
 30
0.0
  0
VERTEX
  5
261
330
248
100
AcDbEntity
  8
DIBUJOS
 62
     7
100
AcDbVertex
100
AcDb2dVertex
 10
58.90709421086221
 20
35.53136111130642
 30
0.0
  0
VERTEX
  5
262
330
248
100
AcDbEntity
  8
DIBUJOS
 62
     7
100
AcDbVertex
100
AcDb2dVertex
 10
58.92335410014375
 20
35.5190250861542
 30
0.0
  0
VERTEX
  5
263
330
248
100
AcDbEntity
  8
DIBUJOS
 62
     7
100
AcDbVertex
100
AcDb2dVertex
 10
58.95195001457753
 20
35.49771850393049
 30
0.0
  0
SEQEND
  5
264
330
248
100
AcDbEntity
  8
DIBUJOS
 62
     7
  0
POLYLINE
  5
265
330
1F
100
AcDbEntity
  8
DIBUJOS
 62
     7
100
AcDb2dPolyline
 66
     1
 10
0.0
 20
0.0
 30
0.0
  0
VERTEX
  5
266
330
265
100
AcDbEntity
  8
DIBUJOS
 62
     7
100
AcDbVertex
100
AcDb2dVertex
 10
31.06009227677331
 20
32.79502729531983
 30
0.0
  0
VERTEX
  5
267
330
265
100
AcDbEntity
  8
DIBUJOS
 62
     7
100
AcDbVertex
100
AcDb2dVertex
 10
31.06283294495016
 20
33.04168441286303
 30
0.0
  0
VERTEX
  5
268
330
265
100
AcDbEntity
  8
DIBUJOS
 62
     7
100
AcDbVertex
100
AcDb2dVertex
 10
31.07950483996547
 20
33.26024364488209
 30
0.0
  0
VERTEX
  5
269
330
265
100
AcDbEntity
  8
DIBUJOS
 62
     7
100
AcDbVertex
100
AcDb2dVertex
 10
31.1013230337043
 20
33.36086359459298
 30
0.0
  0
VERTEX
  5
26A
330
265
100
AcDbEntity
  8
DIBUJOS
 62
     7
100
AcDbVertex
100
AcDb2dVertex
 10
31.11915397781637
 20
33.4456311332203
 30
0.0
  0
VERTEX
  5
26B
330
265
100
AcDbEntity
  8
DIBUJOS
 62
     7
100
AcDbVertex
100
AcDb2dVertex
 10
31.14420181356973
 20
34.03422735362279
 30
0.0
  0
VERTEX
  5
26C
330
265
100
AcDbEntity
  8
DIBUJOS
 62
     7
100
AcDbVertex
100
AcDb2dVertex
 10
31.13859370622145
 20
34.0398354609714
 30
0.0
  0
VERTEX
  5
26D
330
265
100
AcDbEntity
  8
DIBUJOS
 62
     7
100
AcDbVertex
100
AcDb2dVertex
 10
31.14420181356973
 20
34.05665676465937
 30
0.0
  0
VERTEX
  5
26E
330
265
100
AcDbEntity
  8
DIBUJOS
 62
     7
100
AcDbVertex
100
AcDb2dVertex
 10
31.14420181356973
 20
34.76316962969228
 30
0.0
  0
VERTEX
  5
26F
330
265
100
AcDbEntity
  8
DIBUJOS
 62
     7
100
AcDbVertex
100
AcDb2dVertex
 10
31.11919925317155
 20
35.37976865737339
 30
0.0
  0
VERTEX
  5
270
330
265
100
AcDbEntity
  8
DIBUJOS
 62
     7
100
AcDbVertex
100
AcDb2dVertex
 10
31.1105576970155
 20
35.43043178000064
 30
0.0
  0
SEQEND
  5
271
330
265
100
AcDbEntity
  8
DIBUJOS
 62
     7
  0
POLYLINE
  5
272
330
1F
100
AcDbEntity
  8
DIBUJOS
 62
     7
100
AcDb2dPolyline
 66
     1
 10
0.0
 20
0.0
 30
0.0
  0
VERTEX
  5
273
330
272
100
AcDbEntity
  8
DIBUJOS
 62
     7
100
AcDbVertex
100
AcDb2dVertex
 10
23.50153016625593
 20
32.73334716955998
 30
0.0
  0
VERTEX
  5
274
330
272
100
AcDbEntity
  8
DIBUJOS
 62
     7
100
AcDbVertex
100
AcDb2dVertex
 10
23.47096628304325
 20
33.24337706583861
 30
0.0
  0
VERTEX
  5
275
330
272
100
AcDbEntity
  8
DIBUJOS
 62
     7
100
AcDbVertex
100
AcDb2dVertex
 10
23.44890812992107
 20
33.31046155984792
 30
0.0
  0
VERTEX
  5
276
330
272
100
AcDbEntity
  8
DIBUJOS
 62
     7
100
AcDbVertex
100
AcDb2dVertex
 10
23.41506631098179
 20
33.47877420250834
 30
0.0
  0
VERTEX
  5
277
330
272
100
AcDbEntity
  8
DIBUJOS
 62
     7
100
AcDbVertex
100
AcDb2dVertex
 10
23.39499272760185
 20
34.42112790269379
 30
0.0
  0
VERTEX
  5
278
330
272
100
AcDbEntity
  8
DIBUJOS
 62
     7
100
AcDbVertex
100
AcDb2dVertex
 10
23.40060008036084
 20
34.49402122479364
 30
0.0
  0
VERTEX
  5
279
330
272
100
AcDbEntity
  8
DIBUJOS
 62
     7
100
AcDbVertex
100
AcDb2dVertex
 10
23.39499272760185
 20
34.49962933214161
 30
0.0
  0
VERTEX
  5
27A
330
272
100
AcDbEntity
  8
DIBUJOS
 62
     7
100
AcDbVertex
100
AcDb2dVertex
 10
23.41486936318604
 20
35.34092843920497
 30
0.0
  0
VERTEX
  5
27B
330
272
100
AcDbEntity
  8
DIBUJOS
 62
     7
100
AcDbVertex
100
AcDb2dVertex
 10
23.41997340491158
 20
35.40218297662458
 30
0.0
  0
VERTEX
  5
27C
330
272
100
AcDbEntity
  8
DIBUJOS
 62
     7
100
AcDbVertex
100
AcDb2dVertex
 10
23.45451548268005
 20
35.47011261060058
 30
0.0
  0
VERTEX
  5
27D
330
272
100
AcDbEntity
  8
DIBUJOS
 62
     7
100
AcDbVertex
100
AcDb2dVertex
 10
23.45667209877272
 20
35.49211039658252
 30
0.0
  0
SEQEND
  5
27E
330
272
100
AcDbEntity
  8
DIBUJOS
 62
     7
  0
POLYLINE
  5
27F
330
1F
100
AcDbEntity
  8
DIBUJOS
 62
     7
100
AcDb2dPolyline
 66
     1
 10
0.0
 20
0.0
 30
0.0
  0
VERTEX
  5
280
330
27F
100
AcDbEntity
  8
DIBUJOS
 62
     7
100
AcDbVertex
100
AcDb2dVertex
 10
43.70586045303103
 20
26.01306731826058
 30
0.0
  0
VERTEX
  5
281
330
27F
100
AcDbEntity
  8
DIBUJOS
 62
     7
100
AcDbVertex
100
AcDb2dVertex
 10
43.6975146958631
 20
33.01925500182709
 30
0.0
  0
VERTEX
  5
282
330
27F
100
AcDbEntity
  8
DIBUJOS
 62
     7
100
AcDbVertex
100
AcDb2dVertex
 10
43.68646449080254
 20
33.14808602545155
 30
0.0
  0
VERTEX
  5
283
330
27F
100
AcDbEntity
  8
DIBUJOS
 62
     7
100
AcDbVertex
100
AcDb2dVertex
 10
43.68085638345425
 20
33.2209793475514
 30
0.0
  0
VERTEX
  5
284
330
27F
100
AcDbEntity
  8
DIBUJOS
 62
     7
100
AcDbVertex
100
AcDb2dVertex
 10
43.6364171130082
 20
33.40578580216231
 30
0.0
  0
VERTEX
  5
285
330
27F
100
AcDbEntity
  8
DIBUJOS
 62
     7
100
AcDbVertex
100
AcDb2dVertex
 10
43.6309870887241
 20
33.42815031852282
 30
0.0
  0
VERTEX
  5
286
330
27F
100
AcDbEntity
  8
DIBUJOS
 62
     7
100
AcDbVertex
100
AcDb2dVertex
 10
43.62444630905595
 20
33.46799564958017
 30
0.0
  0
VERTEX
  5
287
330
27F
100
AcDbEntity
  8
DIBUJOS
 62
     7
100
AcDbVertex
100
AcDb2dVertex
 10
43.61342628756583
 20
33.80425118616587
 30
0.0
  0
VERTEX
  5
288
330
27F
100
AcDbEntity
  8
DIBUJOS
 62
     7
100
AcDbVertex
100
AcDb2dVertex
 10
43.60492961254664
 20
34.66223878920788
 30
0.0
  0
VERTEX
  5
289
330
27F
100
AcDbEntity
  8
DIBUJOS
 62
     7
100
AcDbVertex
100
AcDb2dVertex
 10
43.61329046149963
 20
35.02666163352959
 30
0.0
  0
VERTEX
  5
28A
330
27F
100
AcDbEntity
  8
DIBUJOS
 62
     7
100
AcDbVertex
100
AcDb2dVertex
 10
43.62567478036425
 20
35.39734907785284
 30
0.0
  0
VERTEX
  5
28B
330
27F
100
AcDbEntity
  8
DIBUJOS
 62
     7
100
AcDbVertex
100
AcDb2dVertex
 10
43.62904024844466
 20
35.40744095455859
 30
0.0
  0
VERTEX
  5
28C
330
27F
100
AcDbEntity
  8
DIBUJOS
 62
     7
100
AcDbVertex
100
AcDb2dVertex
 10
43.65884350568725
 20
35.46450601243058
 30
0.0
  0
VERTEX
  5
28D
330
27F
100
AcDbEntity
  8
DIBUJOS
 62
     7
100
AcDbVertex
100
AcDb2dVertex
 10
43.66100163095884
 20
35.48650379841251
 30
0.0
  0
SEQEND
  5
28E
330
27F
100
AcDbEntity
  8
DIBUJOS
 62
     7
  0
POLYLINE
  5
28F
330
1F
100
AcDbEntity
  8
DIBUJOS
 62
     7
100
AcDb2dPolyline
 66
     1
 10
0.0
 20
0.0
 30
0.0
  0
VERTEX
  5
290
330
28F
100
AcDbEntity
  8
DIBUJOS
 62
     7
100
AcDbVertex
100
AcDb2dVertex
 10
58.91269929985361
 20
26.00746072009057
 30
0.0
  0
VERTEX
  5
291
330
28F
100
AcDbEntity
  8
DIBUJOS
 62
     7
100
AcDbVertex
100
AcDb2dVertex
 10
58.91269929985361
 20
32.89595813580422
 30
0.0
  0
VERTEX
  5
292
330
28F
100
AcDbEntity
  8
DIBUJOS
 62
     7
100
AcDbVertex
100
AcDb2dVertex
 10
58.9213257642246
 20
33.06435981999705
 30
0.0
  0
VERTEX
  5
293
330
28F
100
AcDbEntity
  8
DIBUJOS
 62
     7
100
AcDbVertex
100
AcDb2dVertex
 10
58.93209526208179
 20
33.20976464203279
 30
0.0
  0
VERTEX
  5
294
330
28F
100
AcDbEntity
  8
DIBUJOS
 62
     7
100
AcDbVertex
100
AcDb2dVertex
 10
58.9424180430996
 20
33.24865315391456
 30
0.0
  0
VERTEX
  5
295
330
28F
100
AcDbEntity
  8
DIBUJOS
 62
     7
100
AcDbVertex
100
AcDb2dVertex
 10
58.98343751503909
 20
33.40664754309234
 30
0.0
  0
VERTEX
  5
296
330
28F
100
AcDbEntity
  8
DIBUJOS
 62
     7
100
AcDbVertex
100
AcDb2dVertex
 10
58.98775074722474
 20
33.42821370402028
 30
0.0
  0
VERTEX
  5
297
330
28F
100
AcDbEntity
  8
DIBUJOS
 62
     7
100
AcDbVertex
100
AcDb2dVertex
 10
59.00802505134661
 20
33.84918848552058
 30
0.0
  0
VERTEX
  5
298
330
28F
100
AcDbEntity
  8
DIBUJOS
 62
     7
100
AcDbVertex
100
AcDb2dVertex
 10
59.00802505134661
 20
33.86040319103919
 30
0.0
  0
VERTEX
  5
299
330
28F
100
AcDbEntity
  8
DIBUJOS
 62
     7
100
AcDbVertex
100
AcDb2dVertex
 10
59.00802505134661
 20
34.23608903459158
 30
0.0
  0
VERTEX
  5
29A
330
28F
100
AcDbEntity
  8
DIBUJOS
 62
     7
100
AcDbVertex
100
AcDb2dVertex
 10
59.01363014033769
 20
34.24169563276158
 30
0.0
  0
VERTEX
  5
29B
330
28F
100
AcDbEntity
  8
DIBUJOS
 62
     7
100
AcDbVertex
100
AcDb2dVertex
 10
58.99948611932911
 20
35.26793702050173
 30
0.0
  0
VERTEX
  5
29C
330
28F
100
AcDbEntity
  8
DIBUJOS
 62
     7
100
AcDbVertex
100
AcDb2dVertex
 10
58.99413155397064
 20
35.39106485853139
 30
0.0
  0
VERTEX
  5
29D
330
28F
100
AcDbEntity
  8
DIBUJOS
 62
     7
100
AcDbVertex
100
AcDb2dVertex
 10
58.95557807971937
 20
35.48600878786107
 30
0.0
  0
VERTEX
  5
29E
330
28F
100
AcDbEntity
  8
DIBUJOS
 62
     7
100
AcDbVertex
100
AcDb2dVertex
 10
58.95195001457753
 20
35.49211039658252
 30
0.0
  0
SEQEND
  5
29F
330
28F
100
AcDbEntity
  8
DIBUJOS
 62
     7
  0
POLYLINE
  5
2A0
330
1F
100
AcDbEntity
  8
DIBUJOS
 62
     7
100
AcDb2dPolyline
 66
     1
 10
0.0
 20
0.0
 30
0.0
  0
VERTEX
  5
2A1
330
2A0
100
AcDbEntity
  8
DIBUJOS
 62
     7
100
AcDbVertex
100
AcDb2dVertex
 10
31.06009227677331
 20
32.69409645483543
 30
0.0
  0
VERTEX
  5
2A2
330
2A0
100
AcDbEntity
  8
DIBUJOS
 62
     7
100
AcDbVertex
100
AcDb2dVertex
 10
23.50153016625593
 20
32.69970456218404
 30
0.0
  0
SEQEND
  5
2A3
330
2A0
100
AcDbEntity
  8
DIBUJOS
 62
     7
  0
POLYLINE
  5
2A4
330
1F
100
AcDbEntity
  8
DIBUJOS
 62
     7
100
AcDb2dPolyline
 66
     1
 10
0.0
 20
0.0
 30
0.0
  0
VERTEX
  5
2A5
330
2A4
100
AcDbEntity
  8
DIBUJOS
 62
     7
100
AcDbVertex
100
AcDb2dVertex
 10
43.70586045303103
 20
32.69409645483543
 30
0.0
  0
VERTEX
  5
2A6
330
2A4
100
AcDbEntity
  8
DIBUJOS
 62
     7
100
AcDbVertex
100
AcDb2dVertex
 10
51.30927987644233
 20
32.69970456218404
 30
0.0
  0
SEQEND
  5
2A7
330
2A4
100
AcDbEntity
  8
DIBUJOS
 62
     7
  0
POLYLINE
  5
2A8
330
1F
100
AcDbEntity
  8
DIBUJOS
 62
     7
100
AcDb2dPolyline
 66
     1
 10
0.0
 20
0.0
 30
0.0
  0
VERTEX
  5
2A9
330
2A8
100
AcDbEntity
  8
DIBUJOS
 62
     7
100
AcDbVertex
100
AcDb2dVertex
 10
51.31488798379061
 20
32.69409645483543
 30
0.0
  0
VERTEX
  5
2AA
330
2A8
100
AcDbEntity
  8
DIBUJOS
 62
     7
100
AcDbVertex
100
AcDb2dVertex
 10
58.91269929985361
 20
32.69970456218404
 30
0.0
  0
SEQEND
  5
2AB
330
2A8
100
AcDbEntity
  8
DIBUJOS
 62
     7
  0
POLYLINE
  5
2AC
330
1F
100
AcDbEntity
  8
DIBUJOS
 62
     7
100
AcDb2dPolyline
 66
     1
 10
0.0
 20
0.0
 30
0.0
  0
VERTEX
  5
2AD
330
2AC
100
AcDbEntity
  8
DIBUJOS
 62
     7
100
AcDbVertex
100
AcDb2dVertex
 10
51.30927987644233
 20
25.99904931365793
 30
0.0
  0
VERTEX
  5
2AE
330
2AC
100
AcDbEntity
  8
DIBUJOS
 62
     7
100
AcDbVertex
100
AcDb2dVertex
 10
51.31169456206061
 20
35.31476817863425
 30
0.0
  0
VERTEX
  5
2AF
330
2AC
100
AcDbEntity
  8
DIBUJOS
 62
     7
100
AcDbVertex
100
AcDb2dVertex
 10
51.30927987644233
 20
35.35371554847767
 30
0.0
  0
SEQEND
  5
2B0
330
2AC
100
AcDbEntity
  8
DIBUJOS
 62
     7
  0
POLYLINE
  5
2B1
330
1F
100
AcDbEntity
  8
DIBUJOS
 62
     7
100
AcDb2dPolyline
 66
     1
 10
0.0
 20
0.0
 30
0.0
  0
VERTEX
  5
2B2
330
2B1
100
AcDbEntity
  8
DIBUJOS
 62
     7
100
AcDbVertex
100
AcDb2dVertex
 10
51.30927987644233
 20
25.94297742877784
 30
0.0
  0
VERTEX
  5
2B3
330
2B1
100
AcDbEntity
  8
DIBUJOS
 62
     7
100
AcDbVertex
100
AcDb2dVertex
 10
51.31488798379061
 20
25.98222814350175
 30
0.0
  0
SEQEND
  5
2B4
330
2B1
100
AcDbEntity
  8
DIBUJOS
 62
     7
  0
POLYLINE
  5
2B5
330
1F
100
AcDbEntity
  8
DIBUJOS
 62
     7
100
AcDb2dPolyline
 66
     1
 10
0.0
 20
0.0
 30
0.0
  0
VERTEX
  5
2B6
330
2B5
100
AcDbEntity
  8
DIBUJOS
 62
     7
100
AcDbVertex
100
AcDb2dVertex
 10
23.47910150980897
 20
26.38594986272893
 30
0.0
  0
VERTEX
  5
2B7
330
2B5
100
AcDbEntity
  8
DIBUJOS
 62
     7
100
AcDbVertex
100
AcDb2dVertex
 10
23.47635178656115
 20
26.67747410282632
 30
0.0
  0
VERTEX
  5
2B8
330
2B5
100
AcDbEntity
  8
DIBUJOS
 62
     7
100
AcDbVertex
100
AcDb2dVertex
 10
23.48753329015211
 20
27.96160542377023
 30
0.0
  0
VERTEX
  5
2B9
330
2B5
100
AcDbEntity
  8
DIBUJOS
 62
     7
100
AcDbVertex
100
AcDb2dVertex
 10
23.49309838591279
 20
28.70171939376944
 30
0.0
  0
VERTEX
  5
2BA
330
2B5
100
AcDbEntity
  8
DIBUJOS
 62
     7
100
AcDbVertex
100
AcDb2dVertex
 10
23.50153016625593
 20
31.61189925542874
 30
0.0
  0
VERTEX
  5
2BB
330
2B5
100
AcDbEntity
  8
DIBUJOS
 62
     7
100
AcDbVertex
100
AcDb2dVertex
 10
23.49592281349695
 20
31.61750585359874
 30
0.0
  0
VERTEX
  5
2BC
330
2B5
100
AcDbEntity
  8
DIBUJOS
 62
     7
100
AcDbVertex
100
AcDb2dVertex
 10
23.49592281349695
 20
32.59877372169964
 30
0.0
  0
SEQEND
  5
2BD
330
2B5
100
AcDbEntity
  8
DIBUJOS
 62
     7
  0
POLYLINE
  5
2BE
330
1F
100
AcDbEntity
  8
DIBUJOS
 62
     7
100
AcDb2dPolyline
 66
     1
 10
0.0
 20
0.0
 30
0.0
  0
VERTEX
  5
2BF
330
2BE
100
AcDbEntity
  8
DIBUJOS
 62
     7
100
AcDbVertex
100
AcDb2dVertex
 10
23.47349415704999
 20
26.37473515721032
 30
0.0
  0
VERTEX
  5
2C0
330
2BE
100
AcDbEntity
  8
DIBUJOS
 62
     7
100
AcDbVertex
100
AcDb2dVertex
 10
23.47910150980897
 20
26.38594986272893
 30
0.0
  0
SEQEND
  5
2C1
330
2BE
100
AcDbEntity
  8
DIBUJOS
 62
     7
  0
POLYLINE
  5
2C2
330
1F
100
AcDbEntity
  8
DIBUJOS
 62
     7
100
AcDb2dPolyline
 66
     1
 10
0.0
 20
0.0
 30
0.0
  0
VERTEX
  5
2C3
330
2C2
100
AcDbEntity
  8
DIBUJOS
 62
     7
100
AcDbVertex
100
AcDb2dVertex
 10
23.49031546073796
 20
26.37473515721032
 30
0.0
  0
VERTEX
  5
2C4
330
2C2
100
AcDbEntity
  8
DIBUJOS
 62
     7
100
AcDbVertex
100
AcDb2dVertex
 10
23.47910150980897
 20
26.38594986272893
 30
0.0
  0
SEQEND
  5
2C5
330
2C2
100
AcDbEntity
  8
DIBUJOS
 62
     7
  0
POLYLINE
  5
2C6
330
1F
100
AcDbEntity
  8
DIBUJOS
 62
     7
100
AcDb2dPolyline
 66
     1
 10
0.0
 20
0.0
 30
0.0
  0
VERTEX
  5
2C7
330
2C6
100
AcDbEntity
  8
DIBUJOS
 62
     7
100
AcDbVertex
100
AcDb2dVertex
 10
23.47349415704999
 20
26.36912780445166
 30
0.0
  0
VERTEX
  5
2C8
330
2C6
100
AcDbEntity
  8
DIBUJOS
 62
     7
100
AcDbVertex
100
AcDb2dVertex
 10
23.47349415704999
 20
26.37473515721032
 30
0.0
  0
SEQEND
  5
2C9
330
2C6
100
AcDbEntity
  8
DIBUJOS
 62
     7
  0
POLYLINE
  5
2CA
330
1F
100
AcDbEntity
  8
DIBUJOS
 62
     7
100
AcDb2dPolyline
 66
     1
 10
0.0
 20
0.0
 30
0.0
  0
VERTEX
  5
2CB
330
2CA
100
AcDbEntity
  8
DIBUJOS
 62
     7
100
AcDbVertex
100
AcDb2dVertex
 10
23.47910150980897
 20
26.36912780445166
 30
0.0
  0
VERTEX
  5
2CC
330
2CA
100
AcDbEntity
  8
DIBUJOS
 62
     7
100
AcDbVertex
100
AcDb2dVertex
 10
23.47349415704999
 20
26.36912780445166
 30
0.0
  0
SEQEND
  5
2CD
330
2CA
100
AcDbEntity
  8
DIBUJOS
 62
     7
  0
POLYLINE
  5
2CE
330
1F
100
AcDbEntity
  8
DIBUJOS
 62
     7
100
AcDb2dPolyline
 66
     1
 10
0.0
 20
0.0
 30
0.0
  0
VERTEX
  5
2CF
330
2CE
100
AcDbEntity
  8
DIBUJOS
 62
     7
100
AcDbVertex
100
AcDb2dVertex
 10
23.48470810797865
 20
26.36912780445166
 30
0.0
  0
VERTEX
  5
2D0
330
2CE
100
AcDbEntity
  8
DIBUJOS
 62
     7
100
AcDbVertex
100
AcDb2dVertex
 10
23.47910150980897
 20
26.36912780445166
 30
0.0
  0
SEQEND
  5
2D1
330
2CE
100
AcDbEntity
  8
DIBUJOS
 62
     7
  0
POLYLINE
  5
2D2
330
1F
100
AcDbEntity
  8
DIBUJOS
 62
     7
100
AcDb2dPolyline
 66
     1
 10
0.0
 20
0.0
 30
0.0
  0
VERTEX
  5
2D3
330
2D2
100
AcDbEntity
  8
DIBUJOS
 62
     7
100
AcDbVertex
100
AcDb2dVertex
 10
23.49031546073796
 20
26.36912780445166
 30
0.0
  0
VERTEX
  5
2D4
330
2D2
100
AcDbEntity
  8
DIBUJOS
 62
     7
100
AcDbVertex
100
AcDb2dVertex
 10
23.48470810797865
 20
26.36912780445166
 30
0.0
  0
SEQEND
  5
2D5
330
2D2
100
AcDbEntity
  8
DIBUJOS
 62
     7
  0
POLYLINE
  5
2D6
330
1F
100
AcDbEntity
  8
DIBUJOS
 62
     7
100
AcDb2dPolyline
 66
     1
 10
0.0
 20
0.0
 30
0.0
  0
VERTEX
  5
2D7
330
2D6
100
AcDbEntity
  8
DIBUJOS
 62
     7
100
AcDbVertex
100
AcDb2dVertex
 10
23.49031546073796
 20
26.36912780445166
 30
0.0
  0
VERTEX
  5
2D8
330
2D6
100
AcDbEntity
  8
DIBUJOS
 62
     7
100
AcDbVertex
100
AcDb2dVertex
 10
23.49031546073796
 20
26.37473515721032
 30
0.0
  0
SEQEND
  5
2D9
330
2D6
100
AcDbEntity
  8
DIBUJOS
 62
     7
  0
POLYLINE
  5
2DA
330
1F
100
AcDbEntity
  8
DIBUJOS
 62
     7
100
AcDb2dPolyline
 66
     1
 10
0.0
 20
0.0
 30
0.0
  0
VERTEX
  5
2DB
330
2DA
100
AcDbEntity
  8
DIBUJOS
 62
     7
100
AcDbVertex
100
AcDb2dVertex
 10
23.47349415704999
 20
26.36352045169235
 30
0.0
  0
VERTEX
  5
2DC
330
2DA
100
AcDbEntity
  8
DIBUJOS
 62
     7
100
AcDbVertex
100
AcDb2dVertex
 10
23.47349415704999
 20
26.36912780445166
 30
0.0
  0
SEQEND
  5
2DD
330
2DA
100
AcDbEntity
  8
DIBUJOS
 62
     7
  0
POLYLINE
  5
2DE
330
1F
100
AcDbEntity
  8
DIBUJOS
 62
     7
100
AcDb2dPolyline
 66
     1
 10
0.0
 20
0.0
 30
0.0
  0
VERTEX
  5
2DF
330
2DE
100
AcDbEntity
  8
DIBUJOS
 62
     7
100
AcDbVertex
100
AcDb2dVertex
 10
23.49031546073796
 20
26.36352045169235
 30
0.0
  0
VERTEX
  5
2E0
330
2DE
100
AcDbEntity
  8
DIBUJOS
 62
     7
100
AcDbVertex
100
AcDb2dVertex
 10
23.49031546073796
 20
26.36912780445166
 30
0.0
  0
SEQEND
  5
2E1
330
2DE
100
AcDbEntity
  8
DIBUJOS
 62
     7
  0
POLYLINE
  5
2E2
330
1F
100
AcDbEntity
  8
DIBUJOS
 62
     7
100
AcDb2dPolyline
 66
     1
 10
0.0
 20
0.0
 30
0.0
  0
VERTEX
  5
2E3
330
2E2
100
AcDbEntity
  8
DIBUJOS
 62
     7
100
AcDbVertex
100
AcDb2dVertex
 10
23.47349415704999
 20
26.32426973696844
 30
0.0
  0
VERTEX
  5
2E4
330
2E2
100
AcDbEntity
  8
DIBUJOS
 62
     7
100
AcDbVertex
100
AcDb2dVertex
 10
23.47349415704999
 20
26.36352045169235
 30
0.0
  0
SEQEND
  5
2E5
330
2E2
100
AcDbEntity
  8
DIBUJOS
 62
     7
  0
POLYLINE
  5
2E6
330
1F
100
AcDbEntity
  8
DIBUJOS
 62
     7
100
AcDb2dPolyline
 66
     1
 10
0.0
 20
0.0
 30
0.0
  0
VERTEX
  5
2E7
330
2E6
100
AcDbEntity
  8
DIBUJOS
 62
     7
100
AcDbVertex
100
AcDb2dVertex
 10
23.47349415704999
 20
26.31866238420914
 30
0.0
  0
VERTEX
  5
2E8
330
2E6
100
AcDbEntity
  8
DIBUJOS
 62
     7
100
AcDbVertex
100
AcDb2dVertex
 10
23.47349415704999
 20
26.32426973696844
 30
0.0
  0
SEQEND
  5
2E9
330
2E6
100
AcDbEntity
  8
DIBUJOS
 62
     7
  0
POLYLINE
  5
2EA
330
1F
100
AcDbEntity
  8
DIBUJOS
 62
     7
100
AcDb2dPolyline
 66
     1
 10
0.0
 20
0.0
 30
0.0
  0
VERTEX
  5
2EB
330
2EA
100
AcDbEntity
  8
DIBUJOS
 62
     7
100
AcDbVertex
100
AcDb2dVertex
 10
23.47910150980897
 20
26.31866238420914
 30
0.0
  0
VERTEX
  5
2EC
330
2EA
100
AcDbEntity
  8
DIBUJOS
 62
     7
100
AcDbVertex
100
AcDb2dVertex
 10
23.47349415704999
 20
26.31866238420914
 30
0.0
  0
SEQEND
  5
2ED
330
2EA
100
AcDbEntity
  8
DIBUJOS
 62
     7
  0
POLYLINE
  5
2EE
330
1F
100
AcDbEntity
  8
DIBUJOS
 62
     7
100
AcDb2dPolyline
 66
     1
 10
0.0
 20
0.0
 30
0.0
  0
VERTEX
  5
2EF
330
2EE
100
AcDbEntity
  8
DIBUJOS
 62
     7
100
AcDbVertex
100
AcDb2dVertex
 10
23.47910150980897
 20
26.31866238420914
 30
0.0
  0
VERTEX
  5
2F0
330
2EE
100
AcDbEntity
  8
DIBUJOS
 62
     7
100
AcDbVertex
100
AcDb2dVertex
 10
23.49031546073796
 20
26.32987708972775
 30
0.0
  0
VERTEX
  5
2F1
330
2EE
100
AcDbEntity
  8
DIBUJOS
 62
     7
100
AcDbVertex
100
AcDb2dVertex
 10
23.49031546073796
 20
26.36352045169235
 30
0.0
  0
SEQEND
  5
2F2
330
2EE
100
AcDbEntity
  8
DIBUJOS
 62
     7
  0
POLYLINE
  5
2F3
330
1F
100
AcDbEntity
  8
DIBUJOS
 62
     7
100
AcDb2dPolyline
 66
     1
 10
0.0
 20
0.0
 30
0.0
  0
VERTEX
  5
2F4
330
2F3
100
AcDbEntity
  8
DIBUJOS
 62
     7
100
AcDbVertex
100
AcDb2dVertex
 10
23.47349415704999
 20
26.31305503145047
 30
0.0
  0
VERTEX
  5
2F5
330
2F3
100
AcDbEntity
  8
DIBUJOS
 62
     7
100
AcDbVertex
100
AcDb2dVertex
 10
23.47349415704999
 20
26.31866238420914
 30
0.0
  0
SEQEND
  5
2F6
330
2F3
100
AcDbEntity
  8
DIBUJOS
 62
     7
  0
POLYLINE
  5
2F7
330
1F
100
AcDbEntity
  8
DIBUJOS
 62
     7
100
AcDb2dPolyline
 66
     1
 10
0.0
 20
0.0
 30
0.0
  0
VERTEX
  5
2F8
330
2F7
100
AcDbEntity
  8
DIBUJOS
 62
     7
100
AcDbVertex
100
AcDb2dVertex
 10
23.49031546073796
 20
26.29623372776251
 30
0.0
  0
VERTEX
  5
2F9
330
2F7
100
AcDbEntity
  8
DIBUJOS
 62
     7
100
AcDbVertex
100
AcDb2dVertex
 10
23.49592281349695
 20
26.30744767869117
 30
0.0
  0
SEQEND
  5
2FA
330
2F7
100
AcDbEntity
  8
DIBUJOS
 62
     7
  0
POLYLINE
  5
2FB
330
1F
100
AcDbEntity
  8
DIBUJOS
 62
     7
100
AcDb2dPolyline
 66
     1
 10
0.0
 20
0.0
 30
0.0
  0
VERTEX
  5
2FC
330
2FB
100
AcDbEntity
  8
DIBUJOS
 62
     7
100
AcDbVertex
100
AcDb2dVertex
 10
31.08252168780957
 20
25.95419200076402
 30
0.0
  0
VERTEX
  5
2FD
330
2FB
100
AcDbEntity
  8
DIBUJOS
 62
     7
100
AcDbVertex
100
AcDb2dVertex
 10
31.06009227677331
 20
28.16905257440923
 30
0.0
  0
VERTEX
  5
2FE
330
2FB
100
AcDbEntity
  8
DIBUJOS
 62
     7
100
AcDbVertex
100
AcDb2dVertex
 10
31.05448567860363
 20
32.32401871863165
 30
0.0
  0
VERTEX
  5
2FF
330
2FB
100
AcDbEntity
  8
DIBUJOS
 62
     7
100
AcDbVertex
100
AcDb2dVertex
 10
31.05728973227761
 20
32.32962682597961
 30
0.0
  0
VERTEX
  5
300
330
2FB
100
AcDbEntity
  8
DIBUJOS
 62
     7
100
AcDbVertex
100
AcDb2dVertex
 10
31.05448567860363
 20
32.60438031986965
 30
0.0
  0
SEQEND
  5
301
330
2FB
100
AcDbEntity
  8
DIBUJOS
 62
     7
  0
POLYLINE
  5
302
330
1F
100
AcDbEntity
  8
DIBUJOS
 62
     7
100
AcDb2dPolyline
 66
     1
 10
0.0
 20
0.0
 30
0.0
  0
VERTEX
  5
303
330
302
100
AcDbEntity
  8
DIBUJOS
 62
     7
100
AcDbVertex
100
AcDb2dVertex
 10
23.49031546073796
 20
26.23455435659132
 30
0.0
  0
VERTEX
  5
304
330
302
100
AcDbEntity
  8
DIBUJOS
 62
     7
100
AcDbVertex
100
AcDb2dVertex
 10
23.49031546073796
 20
26.24576830752063
 30
0.0
  0
SEQEND
  5
305
330
302
100
AcDbEntity
  8
DIBUJOS
 62
     7
  0
POLYLINE
  5
306
330
1F
100
AcDbEntity
  8
DIBUJOS
 62
     7
100
AcDb2dPolyline
 66
     1
 10
0.0
 20
0.0
 30
0.0
  0
VERTEX
  5
307
330
306
100
AcDbEntity
  8
DIBUJOS
 62
     7
100
AcDbVertex
100
AcDb2dVertex
 10
23.49592281349695
 20
26.20091024003742
 30
0.0
  0
VERTEX
  5
308
330
306
100
AcDbEntity
  8
DIBUJOS
 62
     7
100
AcDbVertex
100
AcDb2dVertex
 10
23.49031546073796
 20
26.21212494555538
 30
0.0
  0
SEQEND
  5
309
330
306
100
AcDbEntity
  8
DIBUJOS
 62
     7
  0
POLYLINE
  5
30A
330
1F
100
AcDbEntity
  8
DIBUJOS
 62
     7
100
AcDb2dPolyline
 66
     1
 10
0.0
 20
0.0
 30
0.0
  0
VERTEX
  5
30B
330
30A
100
AcDbEntity
  8
DIBUJOS
 62
     7
100
AcDbVertex
100
AcDb2dVertex
 10
23.49592281349695
 20
26.16726687807217
 30
0.0
  0
VERTEX
  5
30C
330
30A
100
AcDbEntity
  8
DIBUJOS
 62
     7
100
AcDbVertex
100
AcDb2dVertex
 10
23.49592281349695
 20
26.18969628910811
 30
0.0
  0
SEQEND
  5
30D
330
30A
100
AcDbEntity
  8
DIBUJOS
 62
     7
  0
POLYLINE
  5
30E
330
1F
100
AcDbEntity
  8
DIBUJOS
 62
     7
100
AcDb2dPolyline
 66
     1
 10
0.0
 20
0.0
 30
0.0
  0
VERTEX
  5
30F
330
30E
100
AcDbEntity
  8
DIBUJOS
 62
     7
100
AcDbVertex
100
AcDb2dVertex
 10
23.47349415704999
 20
26.12240881058896
 30
0.0
  0
VERTEX
  5
310
330
30E
100
AcDbEntity
  8
DIBUJOS
 62
     7
100
AcDbVertex
100
AcDb2dVertex
 10
23.47083724828077
 20
26.22881419612334
 30
0.0
  0
VERTEX
  5
311
330
30E
100
AcDbEntity
  8
DIBUJOS
 62
     7
100
AcDbVertex
100
AcDb2dVertex
 10
23.47349415704999
 20
26.31305503145047
 30
0.0
  0
SEQEND
  5
312
330
30E
100
AcDbEntity
  8
DIBUJOS
 62
     7
  0
POLYLINE
  5
313
330
1F
100
AcDbEntity
  8
DIBUJOS
 62
     7
100
AcDb2dPolyline
 66
     1
 10
0.0
 20
0.0
 30
0.0
  0
VERTEX
  5
314
330
313
100
AcDbEntity
  8
DIBUJOS
 62
     7
100
AcDbVertex
100
AcDb2dVertex
 10
23.47349415704999
 20
26.1168022124196
 30
0.0
  0
VERTEX
  5
315
330
313
100
AcDbEntity
  8
DIBUJOS
 62
     7
100
AcDbVertex
100
AcDb2dVertex
 10
23.46788680429101
 20
26.1168022124196
 30
0.0
  0
SEQEND
  5
316
330
313
100
AcDbEntity
  8
DIBUJOS
 62
     7
  0
POLYLINE
  5
317
330
1F
100
AcDbEntity
  8
DIBUJOS
 62
     7
100
AcDb2dPolyline
 66
     1
 10
0.0
 20
0.0
 30
0.0
  0
VERTEX
  5
318
330
317
100
AcDbEntity
  8
DIBUJOS
 62
     7
100
AcDbVertex
100
AcDb2dVertex
 10
23.47349415704999
 20
26.1168022124196
 30
0.0
  0
VERTEX
  5
319
330
317
100
AcDbEntity
  8
DIBUJOS
 62
     7
100
AcDbVertex
100
AcDb2dVertex
 10
23.47349415704999
 20
26.12240881058896
 30
0.0
  0
SEQEND
  5
31A
330
317
100
AcDbEntity
  8
DIBUJOS
 62
     7
  0
POLYLINE
  5
31B
330
1F
100
AcDbEntity
  8
DIBUJOS
 62
     7
100
AcDb2dPolyline
 66
     1
 10
0.0
 20
0.0
 30
0.0
  0
VERTEX
  5
31C
330
31B
100
AcDbEntity
  8
DIBUJOS
 62
     7
100
AcDbVertex
100
AcDb2dVertex
 10
23.44545739325475
 20
26.03830078297114
 30
0.0
  0
VERTEX
  5
31D
330
31B
100
AcDbEntity
  8
DIBUJOS
 62
     7
100
AcDbVertex
100
AcDb2dVertex
 10
23.46788680429101
 20
26.1168022124196
 30
0.0
  0
SEQEND
  5
31E
330
31B
100
AcDbEntity
  8
DIBUJOS
 62
     7
  0
POLYLINE
  5
31F
330
1F
100
AcDbEntity
  8
DIBUJOS
 62
     7
100
AcDb2dPolyline
 66
     1
 10
0.0
 20
0.0
 30
0.0
  0
VERTEX
  5
320
330
31F
100
AcDbEntity
  8
DIBUJOS
 62
     7
100
AcDbVertex
100
AcDb2dVertex
 10
23.43424344232608
 20
26.02708607745317
 30
0.0
  0
VERTEX
  5
321
330
31F
100
AcDbEntity
  8
DIBUJOS
 62
     7
100
AcDbVertex
100
AcDb2dVertex
 10
23.44545739325475
 20
26.03830078297114
 30
0.0
  0
SEQEND
  5
322
330
31F
100
AcDbEntity
  8
DIBUJOS
 62
     7
  0
POLYLINE
  5
323
330
1F
100
AcDbEntity
  8
DIBUJOS
 62
     7
100
AcDb2dPolyline
 66
     1
 10
0.0
 20
0.0
 30
0.0
  0
VERTEX
  5
324
330
323
100
AcDbEntity
  8
DIBUJOS
 62
     7
100
AcDbVertex
100
AcDb2dVertex
 10
23.43424344232608
 20
26.02147872469386
 30
0.0
  0
VERTEX
  5
325
330
323
100
AcDbEntity
  8
DIBUJOS
 62
     7
100
AcDbVertex
100
AcDb2dVertex
 10
23.42863608956678
 20
26.02147872469386
 30
0.0
  0
SEQEND
  5
326
330
323
100
AcDbEntity
  8
DIBUJOS
 62
     7
  0
POLYLINE
  5
327
330
1F
100
AcDbEntity
  8
DIBUJOS
 62
     7
100
AcDb2dPolyline
 66
     1
 10
0.0
 20
0.0
 30
0.0
  0
VERTEX
  5
328
330
327
100
AcDbEntity
  8
DIBUJOS
 62
     7
100
AcDbVertex
100
AcDb2dVertex
 10
23.43424344232608
 20
26.02147872469386
 30
0.0
  0
VERTEX
  5
329
330
327
100
AcDbEntity
  8
DIBUJOS
 62
     7
100
AcDbVertex
100
AcDb2dVertex
 10
23.43424344232608
 20
26.02708607745317
 30
0.0
  0
SEQEND
  5
32A
330
327
100
AcDbEntity
  8
DIBUJOS
 62
     7
  0
POLYLINE
  5
32B
330
1F
100
AcDbEntity
  8
DIBUJOS
 62
     7
100
AcDb2dPolyline
 66
     1
 10
0.0
 20
0.0
 30
0.0
  0
VERTEX
  5
32C
330
32B
100
AcDbEntity
  8
DIBUJOS
 62
     7
100
AcDbVertex
100
AcDb2dVertex
 10
41.42931899903635
 20
26.02147872469386
 30
0.0
  0
VERTEX
  5
32D
330
32B
100
AcDbEntity
  8
DIBUJOS
 62
     7
100
AcDbVertex
100
AcDb2dVertex
 10
41.42371089168807
 20
26.02147872469386
 30
0.0
  0
SEQEND
  5
32E
330
32B
100
AcDbEntity
  8
DIBUJOS
 62
     7
  0
POLYLINE
  5
32F
330
1F
100
AcDbEntity
  8
DIBUJOS
 62
     7
100
AcDb2dPolyline
 66
     1
 10
0.0
 20
0.0
 30
0.0
  0
VERTEX
  5
330
330
32F
100
AcDbEntity
  8
DIBUJOS
 62
     7
100
AcDbVertex
100
AcDb2dVertex
 10
23.3725633165656
 20
26.0158713719352
 30
0.0
  0
VERTEX
  5
331
330
32F
100
AcDbEntity
  8
DIBUJOS
 62
     7
100
AcDbVertex
100
AcDb2dVertex
 10
21.23620417236852
 20
26.0158713719352
 30
0.0
  0
SEQEND
  5
332
330
32F
100
AcDbEntity
  8
DIBUJOS
 62
     7
  0
POLYLINE
  5
333
330
1F
100
AcDbEntity
  8
DIBUJOS
 62
     7
100
AcDb2dPolyline
 66
     1
 10
0.0
 20
0.0
 30
0.0
  0
VERTEX
  5
334
330
333
100
AcDbEntity
  8
DIBUJOS
 62
     7
100
AcDbVertex
100
AcDb2dVertex
 10
23.39499272760185
 20
26.0158713719352
 30
0.0
  0
VERTEX
  5
335
330
333
100
AcDbEntity
  8
DIBUJOS
 62
     7
100
AcDbVertex
100
AcDb2dVertex
 10
23.38938537484287
 20
26.02147872469386
 30
0.0
  0
SEQEND
  5
336
330
333
100
AcDbEntity
  8
DIBUJOS
 62
     7
  0
POLYLINE
  5
337
330
1F
100
AcDbEntity
  8
DIBUJOS
 62
     7
100
AcDb2dPolyline
 66
     1
 10
0.0
 20
0.0
 30
0.0
  0
VERTEX
  5
338
330
337
100
AcDbEntity
  8
DIBUJOS
 62
     7
100
AcDbVertex
100
AcDb2dVertex
 10
23.41742138404881
 20
26.0158713719352
 30
0.0
  0
VERTEX
  5
339
330
337
100
AcDbEntity
  8
DIBUJOS
 62
     7
100
AcDbVertex
100
AcDb2dVertex
 10
23.42863608956678
 20
26.02147872469386
 30
0.0
  0
SEQEND
  5
33A
330
337
100
AcDbEntity
  8
DIBUJOS
 62
     7
  0
POLYLINE
  5
33B
330
1F
100
AcDbEntity
  8
DIBUJOS
 62
     7
100
AcDb2dPolyline
 66
     1
 10
0.0
 20
0.0
 30
0.0
  0
VERTEX
  5
33C
330
33B
100
AcDbEntity
  8
DIBUJOS
 62
     7
100
AcDbVertex
100
AcDb2dVertex
 10
33.31420431973205
 20
26.0158713719352
 30
0.0
  0
VERTEX
  5
33D
330
33B
100
AcDbEntity
  8
DIBUJOS
 62
     7
100
AcDbVertex
100
AcDb2dVertex
 10
31.17784442094568
 20
26.0158713719352
 30
0.0
  0
VERTEX
  5
33E
330
33B
100
AcDbEntity
  8
DIBUJOS
 62
     7
100
AcDbVertex
100
AcDb2dVertex
 10
31.17223782277567
 20
26.02147872469386
 30
0.0
  0
SEQEND
  5
33F
330
33B
100
AcDbEntity
  8
DIBUJOS
 62
     7
  0
POLYLINE
  5
340
330
1F
100
AcDbEntity
  8
DIBUJOS
 62
     7
100
AcDb2dPolyline
 66
     1
 10
0.0
 20
0.0
 30
0.0
  0
VERTEX
  5
341
330
340
100
AcDbEntity
  8
DIBUJOS
 62
     7
100
AcDbVertex
100
AcDb2dVertex
 10
59.03045144402566
 20
26.0158713719352
 30
0.0
  0
VERTEX
  5
342
330
340
100
AcDbEntity
  8
DIBUJOS
 62
     7
100
AcDbVertex
100
AcDb2dVertex
 10
61.16681134281203
 20
26.0158713719352
 30
0.0
  0
VERTEX
  5
343
330
340
100
AcDbEntity
  8
DIBUJOS
 62
     7
100
AcDbVertex
100
AcDb2dVertex
 10
61.17241945016032
 20
26.02147872469386
 30
0.0
  0
SEQEND
  5
344
330
340
100
AcDbEntity
  8
DIBUJOS
 62
     7
  0
POLYLINE
  5
345
330
1F
100
AcDbEntity
  8
DIBUJOS
 62
     7
100
AcDb2dPolyline
 66
     1
 10
0.0
 20
0.0
 30
0.0
  0
VERTEX
  5
346
330
345
100
AcDbEntity
  8
DIBUJOS
 62
     7
100
AcDbVertex
100
AcDb2dVertex
 10
23.45106474601373
 20
26.0102640191759
 30
0.0
  0
VERTEX
  5
347
330
345
100
AcDbEntity
  8
DIBUJOS
 62
     7
100
AcDbVertex
100
AcDb2dVertex
 10
23.43424344232608
 20
26.02147872469386
 30
0.0
  0
SEQEND
  5
348
330
345
100
AcDbEntity
  8
DIBUJOS
 62
     7
  0
POLYLINE
  5
349
330
1F
100
AcDbEntity
  8
DIBUJOS
 62
     7
100
AcDb2dPolyline
 66
     1
 10
0.0
 20
0.0
 30
0.0
  0
VERTEX
  5
34A
330
349
100
AcDbEntity
  8
DIBUJOS
 62
     7
100
AcDbVertex
100
AcDb2dVertex
 10
23.45106474601373
 20
26.0102640191759
 30
0.0
  0
VERTEX
  5
34B
330
349
100
AcDbEntity
  8
DIBUJOS
 62
     7
100
AcDbVertex
100
AcDb2dVertex
 10
23.45667209877272
 20
26.0158713719352
 30
0.0
  0
VERTEX
  5
34C
330
349
100
AcDbEntity
  8
DIBUJOS
 62
     7
100
AcDbVertex
100
AcDb2dVertex
 10
23.45667209877272
 20
26.02708607745317
 30
0.0
  0
VERTEX
  5
34D
330
349
100
AcDbEntity
  8
DIBUJOS
 62
     7
100
AcDbVertex
100
AcDb2dVertex
 10
23.44545739325475
 20
26.03830078297114
 30
0.0
  0
SEQEND
  5
34E
330
349
100
AcDbEntity
  8
DIBUJOS
 62
     7
  0
POLYLINE
  5
34F
330
1F
100
AcDbEntity
  8
DIBUJOS
 62
     7
100
AcDb2dPolyline
 66
     1
 10
0.0
 20
0.0
 30
0.0
  0
VERTEX
  5
350
330
34F
100
AcDbEntity
  8
DIBUJOS
 62
     7
100
AcDbVertex
100
AcDb2dVertex
 10
41.44614030272401
 20
26.0102640191759
 30
0.0
  0
VERTEX
  5
351
330
34F
100
AcDbEntity
  8
DIBUJOS
 62
     7
100
AcDbVertex
100
AcDb2dVertex
 10
41.45174841007229
 20
26.0158713719352
 30
0.0
  0
VERTEX
  5
352
330
34F
100
AcDbEntity
  8
DIBUJOS
 62
     7
100
AcDbVertex
100
AcDb2dVertex
 10
43.5825002015107
 20
26.0158713719352
 30
0.0
  0
SEQEND
  5
353
330
34F
100
AcDbEntity
  8
DIBUJOS
 62
     7
  0
POLYLINE
  5
354
330
1F
100
AcDbEntity
  8
DIBUJOS
 62
     7
100
AcDb2dPolyline
 66
     1
 10
0.0
 20
0.0
 30
0.0
  0
VERTEX
  5
355
330
354
100
AcDbEntity
  8
DIBUJOS
 62
     7
100
AcDbVertex
100
AcDb2dVertex
 10
23.50713751901491
 20
26.00465666641723
 30
0.0
  0
VERTEX
  5
356
330
354
100
AcDbEntity
  8
DIBUJOS
 62
     7
100
AcDbVertex
100
AcDb2dVertex
 10
23.47349415704999
 20
26.1168022124196
 30
0.0
  0
SEQEND
  5
357
330
354
100
AcDbEntity
  8
DIBUJOS
 62
     7
  0
POLYLINE
  5
358
330
1F
100
AcDbEntity
  8
DIBUJOS
 62
     7
100
AcDb2dPolyline
 66
     1
 10
0.0
 20
0.0
 30
0.0
  0
VERTEX
  5
359
330
358
100
AcDbEntity
  8
DIBUJOS
 62
     7
100
AcDbVertex
100
AcDb2dVertex
 10
23.53517352822085
 20
25.9766206572113
 30
0.0
  0
VERTEX
  5
35A
330
358
100
AcDbEntity
  8
DIBUJOS
 62
     7
100
AcDbVertex
100
AcDb2dVertex
 10
23.52395957729219
 20
25.98783536272926
 30
0.0
  0
SEQEND
  5
35B
330
358
100
AcDbEntity
  8
DIBUJOS
 62
     7
  0
POLYLINE
  5
35C
330
1F
100
AcDbEntity
  8
DIBUJOS
 62
     7
100
AcDb2dPolyline
 66
     1
 10
0.0
 20
0.0
 30
0.0
  0
VERTEX
  5
35D
330
35C
100
AcDbEntity
  8
DIBUJOS
 62
     7
100
AcDbVertex
100
AcDb2dVertex
 10
23.45667209877272
 20
25.97101330445199
 30
0.0
  0
VERTEX
  5
35E
330
35C
100
AcDbEntity
  8
DIBUJOS
 62
     7
100
AcDbVertex
100
AcDb2dVertex
 10
23.46227945153202
 20
25.9766206572113
 30
0.0
  0
VERTEX
  5
35F
330
35C
100
AcDbEntity
  8
DIBUJOS
 62
     7
100
AcDbVertex
100
AcDb2dVertex
 10
23.45106474601373
 20
26.0102640191759
 30
0.0
  0
SEQEND
  5
360
330
35C
100
AcDbEntity
  8
DIBUJOS
 62
     7
  0
POLYLINE
  5
361
330
1F
100
AcDbEntity
  8
DIBUJOS
 62
     7
100
AcDb2dPolyline
 66
     1
 10
0.0
 20
0.0
 30
0.0
  0
VERTEX
  5
362
330
361
100
AcDbEntity
  8
DIBUJOS
 62
     7
100
AcDbVertex
100
AcDb2dVertex
 10
21.27545488709275
 20
25.96540670628199
 30
0.0
  0
VERTEX
  5
363
330
361
100
AcDbEntity
  8
DIBUJOS
 62
     7
100
AcDbVertex
100
AcDb2dVertex
 10
21.26424055886912
 20
25.96540670628199
 30
0.0
  0
SEQEND
  5
364
330
361
100
AcDbEntity
  8
DIBUJOS
 62
     7
  0
POLYLINE
  5
365
330
1F
100
AcDbEntity
  8
DIBUJOS
 62
     7
100
AcDb2dPolyline
 66
     1
 10
0.0
 20
0.0
 30
0.0
  0
VERTEX
  5
366
330
365
100
AcDbEntity
  8
DIBUJOS
 62
     7
100
AcDbVertex
100
AcDb2dVertex
 10
21.28666959261072
 20
25.96540670628199
 30
0.0
  0
VERTEX
  5
367
330
365
100
AcDbEntity
  8
DIBUJOS
 62
     7
100
AcDbVertex
100
AcDb2dVertex
 10
21.28666959261072
 20
25.97101330445199
 30
0.0
  0
SEQEND
  5
368
330
365
100
AcDbEntity
  8
DIBUJOS
 62
     7
  0
POLYLINE
  5
369
330
1F
100
AcDbEntity
  8
DIBUJOS
 62
     7
100
AcDb2dPolyline
 66
     1
 10
0.0
 20
0.0
 30
0.0
  0
VERTEX
  5
36A
330
369
100
AcDbEntity
  8
DIBUJOS
 62
     7
100
AcDbVertex
100
AcDb2dVertex
 10
21.30909862635233
 20
25.96540670628199
 30
0.0
  0
VERTEX
  5
36B
330
369
100
AcDbEntity
  8
DIBUJOS
 62
     7
100
AcDbVertex
100
AcDb2dVertex
 10
21.30909862635233
 20
25.97101330445199
 30
0.0
  0
SEQEND
  5
36C
330
369
100
AcDbEntity
  8
DIBUJOS
 62
     7
  0
POLYLINE
  5
36D
330
1F
100
AcDbEntity
  8
DIBUJOS
 62
     7
100
AcDb2dPolyline
 66
     1
 10
0.0
 20
0.0
 30
0.0
  0
VERTEX
  5
36E
330
36D
100
AcDbEntity
  8
DIBUJOS
 62
     7
100
AcDbVertex
100
AcDb2dVertex
 10
23.35013466011864
 20
25.96540670628199
 30
0.0
  0
VERTEX
  5
36F
330
36D
100
AcDbEntity
  8
DIBUJOS
 62
     7
100
AcDbVertex
100
AcDb2dVertex
 10
23.34452730735966
 20
25.97101330445199
 30
0.0
  0
VERTEX
  5
370
330
36D
100
AcDbEntity
  8
DIBUJOS
 62
     7
100
AcDbVertex
100
AcDb2dVertex
 10
23.33891995460067
 20
25.96540670628199
 30
0.0
  0
SEQEND
  5
371
330
36D
100
AcDbEntity
  8
DIBUJOS
 62
     7
  0
POLYLINE
  5
372
330
1F
100
AcDbEntity
  8
DIBUJOS
 62
     7
100
AcDb2dPolyline
 66
     1
 10
0.0
 20
0.0
 30
0.0
  0
VERTEX
  5
373
330
372
100
AcDbEntity
  8
DIBUJOS
 62
     7
100
AcDbVertex
100
AcDb2dVertex
 10
23.45667209877272
 20
25.96540670628199
 30
0.0
  0
VERTEX
  5
374
330
372
100
AcDbEntity
  8
DIBUJOS
 62
     7
100
AcDbVertex
100
AcDb2dVertex
 10
23.45106474601373
 20
25.96540670628199
 30
0.0
  0
SEQEND
  5
375
330
372
100
AcDbEntity
  8
DIBUJOS
 62
     7
  0
POLYLINE
  5
376
330
1F
100
AcDbEntity
  8
DIBUJOS
 62
     7
100
AcDb2dPolyline
 66
     1
 10
0.0
 20
0.0
 30
0.0
  0
VERTEX
  5
377
330
376
100
AcDbEntity
  8
DIBUJOS
 62
     7
100
AcDbVertex
100
AcDb2dVertex
 10
23.45667209877272
 20
25.96540670628199
 30
0.0
  0
VERTEX
  5
378
330
376
100
AcDbEntity
  8
DIBUJOS
 62
     7
100
AcDbVertex
100
AcDb2dVertex
 10
23.45667209877272
 20
25.97101330445199
 30
0.0
  0
SEQEND
  5
379
330
376
100
AcDbEntity
  8
DIBUJOS
 62
     7
  0
POLYLINE
  5
37A
330
1F
100
AcDbEntity
  8
DIBUJOS
 62
     7
100
AcDb2dPolyline
 66
     1
 10
0.0
 20
0.0
 30
0.0
  0
VERTEX
  5
37B
330
37A
100
AcDbEntity
  8
DIBUJOS
 62
     7
100
AcDbVertex
100
AcDb2dVertex
 10
31.43577812032602
 20
25.96540670628199
 30
0.0
  0
VERTEX
  5
37C
330
37A
100
AcDbEntity
  8
DIBUJOS
 62
     7
100
AcDbVertex
100
AcDb2dVertex
 10
31.4413847184957
 20
25.97101330445199
 30
0.0
  0
SEQEND
  5
37D
330
37A
100
AcDbEntity
  8
DIBUJOS
 62
     7
  0
POLYLINE
  5
37E
330
1F
100
AcDbEntity
  8
DIBUJOS
 62
     7
100
AcDb2dPolyline
 66
     1
 10
0.0
 20
0.0
 30
0.0
  0
VERTEX
  5
37F
330
37E
100
AcDbEntity
  8
DIBUJOS
 62
     7
100
AcDbVertex
100
AcDb2dVertex
 10
33.00580520010919
 20
25.96540670628199
 30
0.0
  0
VERTEX
  5
380
330
37E
100
AcDbEntity
  8
DIBUJOS
 62
     7
100
AcDbVertex
100
AcDb2dVertex
 10
33.00580520010919
 20
25.97101330445199
 30
0.0
  0
SEQEND
  5
381
330
37E
100
AcDbEntity
  8
DIBUJOS
 62
     7
  0
POLYLINE
  5
382
330
1F
100
AcDbEntity
  8
DIBUJOS
 62
     7
100
AcDb2dPolyline
 66
     1
 10
0.0
 20
0.0
 30
0.0
  0
VERTEX
  5
383
330
382
100
AcDbEntity
  8
DIBUJOS
 62
     7
100
AcDbVertex
100
AcDb2dVertex
 10
33.2805602031775
 20
25.96540670628199
 30
0.0
  0
VERTEX
  5
384
330
382
100
AcDbEntity
  8
DIBUJOS
 62
     7
100
AcDbVertex
100
AcDb2dVertex
 10
33.29738301604408
 20
25.97101330445199
 30
0.0
  0
SEQEND
  5
385
330
382
100
AcDbEntity
  8
DIBUJOS
 62
     7
  0
POLYLINE
  5
386
330
1F
100
AcDbEntity
  8
DIBUJOS
 62
     7
100
AcDb2dPolyline
 66
     1
 10
0.0
 20
0.0
 30
0.0
  0
VERTEX
  5
387
330
386
100
AcDbEntity
  8
DIBUJOS
 62
     7
100
AcDbVertex
100
AcDb2dVertex
 10
41.46856971376027
 20
25.96540670628199
 30
0.0
  0
VERTEX
  5
388
330
386
100
AcDbEntity
  8
DIBUJOS
 62
     7
100
AcDbVertex
100
AcDb2dVertex
 10
41.46296160641198
 20
25.97101330445199
 30
0.0
  0
SEQEND
  5
389
330
386
100
AcDbEntity
  8
DIBUJOS
 62
     7
  0
POLYLINE
  5
38A
330
1F
100
AcDbEntity
  8
DIBUJOS
 62
     7
100
AcDb2dPolyline
 66
     1
 10
0.0
 20
0.0
 30
0.0
  0
VERTEX
  5
38B
330
38A
100
AcDbEntity
  8
DIBUJOS
 62
     7
100
AcDbVertex
100
AcDb2dVertex
 10
41.49099912479652
 20
25.96540670628199
 30
0.0
  0
VERTEX
  5
38C
330
38A
100
AcDbEntity
  8
DIBUJOS
 62
     7
100
AcDbVertex
100
AcDb2dVertex
 10
41.47978291009995
 20
25.97101330445199
 30
0.0
  0
SEQEND
  5
38D
330
38A
100
AcDbEntity
  8
DIBUJOS
 62
     7
  0
POLYLINE
  5
38E
330
1F
100
AcDbEntity
  8
DIBUJOS
 62
     7
100
AcDb2dPolyline
 66
     1
 10
0.0
 20
0.0
 30
0.0
  0
VERTEX
  5
38F
330
38E
100
AcDbEntity
  8
DIBUJOS
 62
     7
100
AcDbVertex
100
AcDb2dVertex
 10
60.95373646550388
 20
25.96540670628199
 30
0.0
  0
VERTEX
  5
390
330
38E
100
AcDbEntity
  8
DIBUJOS
 62
     7
100
AcDbVertex
100
AcDb2dVertex
 10
60.95373646550388
 20
25.97101330445199
 30
0.0
  0
SEQEND
  5
391
330
38E
100
AcDbEntity
  8
DIBUJOS
 62
     7
  0
POLYLINE
  5
392
330
1F
100
AcDbEntity
  8
DIBUJOS
 62
     7
100
AcDb2dPolyline
 66
     1
 10
0.0
 20
0.0
 30
0.0
  0
VERTEX
  5
393
330
392
100
AcDbEntity
  8
DIBUJOS
 62
     7
100
AcDbVertex
100
AcDb2dVertex
 10
61.11073932440016
 20
25.96540670628199
 30
0.0
  0
VERTEX
  5
394
330
392
100
AcDbEntity
  8
DIBUJOS
 62
     7
100
AcDbVertex
100
AcDb2dVertex
 10
61.10513121705187
 20
25.97101330445199
 30
0.0
  0
SEQEND
  5
395
330
392
100
AcDbEntity
  8
DIBUJOS
 62
     7
  0
POLYLINE
  5
396
330
1F
100
AcDbEntity
  8
DIBUJOS
 62
     7
100
AcDb2dPolyline
 66
     1
 10
0.0
 20
0.0
 30
0.0
  0
VERTEX
  5
397
330
396
100
AcDbEntity
  8
DIBUJOS
 62
     7
100
AcDbVertex
100
AcDb2dVertex
 10
61.12756062808781
 20
25.96540670628199
 30
0.0
  0
VERTEX
  5
398
330
396
100
AcDbEntity
  8
DIBUJOS
 62
     7
100
AcDbVertex
100
AcDb2dVertex
 10
61.12195252073952
 20
25.96540670628199
 30
0.0
  0
SEQEND
  5
399
330
396
100
AcDbEntity
  8
DIBUJOS
 62
     7
  0
POLYLINE
  5
39A
330
1F
100
AcDbEntity
  8
DIBUJOS
 62
     7
100
AcDb2dPolyline
 66
     1
 10
0.0
 20
0.0
 30
0.0
  0
VERTEX
  5
39B
330
39A
100
AcDbEntity
  8
DIBUJOS
 62
     7
100
AcDbVertex
100
AcDb2dVertex
 10
61.14999003912406
 20
25.96540670628199
 30
0.0
  0
VERTEX
  5
39C
330
39A
100
AcDbEntity
  8
DIBUJOS
 62
     7
100
AcDbVertex
100
AcDb2dVertex
 10
61.14438193177578
 20
25.97101330445199
 30
0.0
  0
VERTEX
  5
39D
330
39A
100
AcDbEntity
  8
DIBUJOS
 62
     7
100
AcDbVertex
100
AcDb2dVertex
 10
61.13877684278469
 20
25.96540670628199
 30
0.0
  0
SEQEND
  5
39E
330
39A
100
AcDbEntity
  8
DIBUJOS
 62
     7
  0
POLYLINE
  5
39F
330
1F
100
AcDbEntity
  8
DIBUJOS
 62
     7
100
AcDb2dPolyline
 66
     1
 10
0.0
 20
0.0
 30
0.0
  0
VERTEX
  5
3A0
330
39F
100
AcDbEntity
  8
DIBUJOS
 62
     7
100
AcDbVertex
100
AcDb2dVertex
 10
23.55199558649813
 20
25.95419200076402
 30
0.0
  0
VERTEX
  5
3A1
330
39F
100
AcDbEntity
  8
DIBUJOS
 62
     7
100
AcDbVertex
100
AcDb2dVertex
 10
23.54638823373914
 20
25.95979935352332
 30
0.0
  0
SEQEND
  5
3A2
330
39F
100
AcDbEntity
  8
DIBUJOS
 62
     7
  0
POLYLINE
  5
3A3
330
1F
100
AcDbEntity
  8
DIBUJOS
 62
     7
100
AcDb2dPolyline
 66
     1
 10
0.0
 20
0.0
 30
0.0
  0
VERTEX
  5
3A4
330
3A3
100
AcDbEntity
  8
DIBUJOS
 62
     7
100
AcDbVertex
100
AcDb2dVertex
 10
23.45667209877272
 20
25.96540670628199
 30
0.0
  0
VERTEX
  5
3A5
330
3A3
100
AcDbEntity
  8
DIBUJOS
 62
     7
100
AcDbVertex
100
AcDb2dVertex
 10
23.46900812392494
 20
25.9379306023042
 30
0.0
  0
VERTEX
  5
3A6
330
3A3
100
AcDbEntity
  8
DIBUJOS
 62
     7
100
AcDbVertex
100
AcDb2dVertex
 10
23.52395957729219
 20
25.8700832185569
 30
0.0
  0
VERTEX
  5
3A7
330
3A3
100
AcDbEntity
  8
DIBUJOS
 62
     7
100
AcDbVertex
100
AcDb2dVertex
 10
23.56825623036897
 20
25.85718653358786
 30
0.0
  0
VERTEX
  5
3A8
330
3A3
100
AcDbEntity
  8
DIBUJOS
 62
     7
100
AcDbVertex
100
AcDb2dVertex
 10
23.60826606188436
 20
25.84461960412358
 30
0.0
  0
VERTEX
  5
3A9
330
3A3
100
AcDbEntity
  8
DIBUJOS
 62
     7
100
AcDbVertex
100
AcDb2dVertex
 10
23.75928955551828
 20
25.83383425989235
 30
0.0
  0
VERTEX
  5
3AA
330
3A3
100
AcDbEntity
  8
DIBUJOS
 62
     7
100
AcDbVertex
100
AcDb2dVertex
 10
24.37070455501337
 20
25.81115357063386
 30
0.0
  0
VERTEX
  5
3AB
330
3A3
100
AcDbEntity
  8
DIBUJOS
 62
     7
100
AcDbVertex
100
AcDb2dVertex
 10
24.67344350062905
 20
25.80840384738571
 30
0.0
  0
VERTEX
  5
3AC
330
3A3
100
AcDbEntity
  8
DIBUJOS
 62
     7
100
AcDbVertex
100
AcDb2dVertex
 10
29.84892822767628
 20
25.80840384738571
 30
0.0
  0
VERTEX
  5
3AD
330
3A3
100
AcDbEntity
  8
DIBUJOS
 62
     7
100
AcDbVertex
100
AcDb2dVertex
 10
29.85453633502457
 20
25.80559979371173
 30
0.0
  0
VERTEX
  5
3AE
330
3A3
100
AcDbEntity
  8
DIBUJOS
 62
     7
100
AcDbVertex
100
AcDb2dVertex
 10
30.70703505582051
 20
25.82826010906037
 30
0.0
  0
VERTEX
  5
3AF
330
3A3
100
AcDbEntity
  8
DIBUJOS
 62
     7
100
AcDbVertex
100
AcDb2dVertex
 10
30.96988264043404
 20
25.84963309513875
 30
0.0
  0
VERTEX
  5
3B0
330
3A3
100
AcDbEntity
  8
DIBUJOS
 62
     7
100
AcDbVertex
100
AcDb2dVertex
 10
31.00458167276786
 20
25.86279388634717
 30
0.0
  0
VERTEX
  5
3B1
330
3A3
100
AcDbEntity
  8
DIBUJOS
 62
     7
100
AcDbVertex
100
AcDb2dVertex
 10
31.03205626756737
 20
25.8700832185569
 30
0.0
  0
VERTEX
  5
3B2
330
3A3
100
AcDbEntity
  8
DIBUJOS
 62
     7
100
AcDbVertex
100
AcDb2dVertex
 10
31.07691508963988
 20
25.91494128604011
 30
0.0
  0
VERTEX
  5
3B3
330
3A3
100
AcDbEntity
  8
DIBUJOS
 62
     7
100
AcDbVertex
100
AcDb2dVertex
 10
31.09934299149754
 20
25.95419200076402
 30
0.0
  0
SEQEND
  5
3B4
330
3A3
100
AcDbEntity
  8
DIBUJOS
 62
     7
  0
POLYLINE
  5
3B5
330
1F
100
AcDbEntity
  8
DIBUJOS
 62
     7
100
AcDb2dPolyline
 66
     1
 10
0.0
 20
0.0
 30
0.0
  0
VERTEX
  5
3B6
330
3B5
100
AcDbEntity
  8
DIBUJOS
 62
     7
100
AcDbVertex
100
AcDb2dVertex
 10
43.6666097383068
 20
25.95979935352332
 30
0.0
  0
VERTEX
  5
3B7
330
3B5
100
AcDbEntity
  8
DIBUJOS
 62
     7
100
AcDbVertex
100
AcDb2dVertex
 10
43.67053360243644
 20
25.95363134094721
 30
0.0
  0
VERTEX
  5
3B8
330
3B5
100
AcDbEntity
  8
DIBUJOS
 62
     7
100
AcDbVertex
100
AcDb2dVertex
 10
43.70025234568275
 20
25.90372658052214
 30
0.0
  0
VERTEX
  5
3B9
330
3B5
100
AcDbEntity
  8
DIBUJOS
 62
     7
100
AcDbVertex
100
AcDb2dVertex
 10
43.73389495305837
 20
25.8700832185569
 30
0.0
  0
VERTEX
  5
3BA
330
3B5
100
AcDbEntity
  8
DIBUJOS
 62
     7
100
AcDbVertex
100
AcDb2dVertex
 10
43.75127767115245
 20
25.86615784524866
 30
0.0
  0
VERTEX
  5
3BB
330
3B5
100
AcDbEntity
  8
DIBUJOS
 62
     7
100
AcDbVertex
100
AcDb2dVertex
 10
43.8118349681004
 20
25.8459718280699
 30
0.0
  0
VERTEX
  5
3BC
330
3B5
100
AcDbEntity
  8
DIBUJOS
 62
     7
100
AcDbVertex
100
AcDb2dVertex
 10
44.23861254097715
 20
25.82235318436644
 30
0.0
  0
VERTEX
  5
3BD
330
3B5
100
AcDbEntity
  8
DIBUJOS
 62
     7
100
AcDbVertex
100
AcDb2dVertex
 10
44.46837893262116
 20
25.81688241226296
 30
0.0
  0
VERTEX
  5
3BE
330
3B5
100
AcDbEntity
  8
DIBUJOS
 62
     7
100
AcDbVertex
100
AcDb2dVertex
 10
44.88337887639523
 20
25.80840384738571
 30
0.0
  0
VERTEX
  5
3BF
330
3B5
100
AcDbEntity
  8
DIBUJOS
 62
     7
100
AcDbVertex
100
AcDb2dVertex
 10
50.03082759423653
 20
25.80840384738571
 30
0.0
  0
VERTEX
  5
3C0
330
3B5
100
AcDbEntity
  8
DIBUJOS
 62
     7
100
AcDbVertex
100
AcDb2dVertex
 10
50.04765191628138
 20
25.80559979371173
 30
0.0
  0
VERTEX
  5
3C1
330
3B5
100
AcDbEntity
  8
DIBUJOS
 62
     7
100
AcDbVertex
100
AcDb2dVertex
 10
50.759712521522
 20
25.82236073025945
 30
0.0
  0
VERTEX
  5
3C2
330
3B5
100
AcDbEntity
  8
DIBUJOS
 62
     7
100
AcDbVertex
100
AcDb2dVertex
 10
50.76547758343564
 20
25.82252900366336
 30
0.0
  0
VERTEX
  5
3C3
330
3B5
100
AcDbEntity
  8
DIBUJOS
 62
     7
100
AcDbVertex
100
AcDb2dVertex
 10
51.15767082154562
 20
25.84459923021373
 30
0.0
  0
VERTEX
  5
3C4
330
3B5
100
AcDbEntity
  8
DIBUJOS
 62
     7
100
AcDbVertex
100
AcDb2dVertex
 10
51.21451855771264
 20
25.86279388634717
 30
0.0
  0
VERTEX
  5
3C5
330
3B5
100
AcDbEntity
  8
DIBUJOS
 62
     7
100
AcDbVertex
100
AcDb2dVertex
 10
51.24759975068216
 20
25.8756905713162
 30
0.0
  0
VERTEX
  5
3C6
330
3B5
100
AcDbEntity
  8
DIBUJOS
 62
     7
100
AcDbVertex
100
AcDb2dVertex
 10
51.30927987644233
 20
25.95979935352332
 30
0.0
  0
SEQEND
  5
3C7
330
3B5
100
AcDbEntity
  8
DIBUJOS
 62
     7
  0
POLYLINE
  5
3C8
330
1F
100
AcDbEntity
  8
DIBUJOS
 62
     7
100
AcDb2dPolyline
 66
     1
 10
0.0
 20
0.0
 30
0.0
  0
VERTEX
  5
3C9
330
3C8
100
AcDbEntity
  8
DIBUJOS
 62
     7
100
AcDbVertex
100
AcDb2dVertex
 10
51.30927987644233
 20
25.95979935352332
 30
0.0
  0
VERTEX
  5
3CA
330
3C8
100
AcDbEntity
  8
DIBUJOS
 62
     7
100
AcDbVertex
100
AcDb2dVertex
 10
51.31825043351382
 20
25.9474633283711
 30
0.0
  0
VERTEX
  5
3CB
330
3C8
100
AcDbEntity
  8
DIBUJOS
 62
     7
100
AcDbVertex
100
AcDb2dVertex
 10
51.34292248381794
 20
25.90933393328081
 30
0.0
  0
VERTEX
  5
3CC
330
3C8
100
AcDbEntity
  8
DIBUJOS
 62
     7
100
AcDbVertex
100
AcDb2dVertex
 10
51.38217319854218
 20
25.8700832185569
 30
0.0
  0
VERTEX
  5
3CD
330
3C8
100
AcDbEntity
  8
DIBUJOS
 62
     7
100
AcDbVertex
100
AcDb2dVertex
 10
51.43320154236876
 20
25.85494389431999
 30
0.0
  0
VERTEX
  5
3CE
330
3C8
100
AcDbEntity
  8
DIBUJOS
 62
     7
100
AcDbVertex
100
AcDb2dVertex
 10
51.46651213047205
 20
25.84457508335737
 30
0.0
  0
VERTEX
  5
3CF
330
3C8
100
AcDbEntity
  8
DIBUJOS
 62
     7
100
AcDbVertex
100
AcDb2dVertex
 10
51.85884723136233
 20
25.82236223943806
 30
0.0
  0
VERTEX
  5
3D0
330
3C8
100
AcDbEntity
  8
DIBUJOS
 62
     7
100
AcDbVertex
100
AcDb2dVertex
 10
52.12227434052422
 20
25.81687411178129
 30
0.0
  0
VERTEX
  5
3D1
330
3C8
100
AcDbEntity
  8
DIBUJOS
 62
     7
100
AcDbVertex
100
AcDb2dVertex
 10
52.57651594395123
 20
25.80559979371173
 30
0.0
  0
VERTEX
  5
3D2
330
3C8
100
AcDbEntity
  8
DIBUJOS
 62
     7
100
AcDbVertex
100
AcDb2dVertex
 10
52.58212405129952
 20
25.80840384738571
 30
0.0
  0
VERTEX
  5
3D3
330
3C8
100
AcDbEntity
  8
DIBUJOS
 62
     7
100
AcDbVertex
100
AcDb2dVertex
 10
57.65107133969267
 20
25.80840384738571
 30
0.0
  0
VERTEX
  5
3D4
330
3C8
100
AcDbEntity
  8
DIBUJOS
 62
     7
100
AcDbVertex
100
AcDb2dVertex
 10
57.65667944704096
 20
25.80279649462705
 30
0.0
  0
VERTEX
  5
3D5
330
3C8
100
AcDbEntity
  8
DIBUJOS
 62
     7
100
AcDbVertex
100
AcDb2dVertex
 10
58.5649483505469
 20
25.82791677094884
 30
0.0
  0
VERTEX
  5
3D6
330
3C8
100
AcDbEntity
  8
DIBUJOS
 62
     7
100
AcDbVertex
100
AcDb2dVertex
 10
58.82248966351402
 20
25.84963309513875
 30
0.0
  0
VERTEX
  5
3D7
330
3C8
100
AcDbEntity
  8
DIBUJOS
 62
     7
100
AcDbVertex
100
AcDb2dVertex
 10
58.85712229199319
 20
25.86249657818045
 30
0.0
  0
VERTEX
  5
3D8
330
3C8
100
AcDbEntity
  8
DIBUJOS
 62
     7
100
AcDbVertex
100
AcDb2dVertex
 10
58.89587799616564
 20
25.8756905713162
 30
0.0
  0
VERTEX
  5
3D9
330
3C8
100
AcDbEntity
  8
DIBUJOS
 62
     7
100
AcDbVertex
100
AcDb2dVertex
 10
58.95083020412219
 20
25.94914530782216
 30
0.0
  0
VERTEX
  5
3DA
330
3C8
100
AcDbEntity
  8
DIBUJOS
 62
     7
100
AcDbVertex
100
AcDb2dVertex
 10
58.95195001457753
 20
25.95419200076402
 30
0.0
  0
SEQEND
  5
3DB
330
3C8
100
AcDbEntity
  8
DIBUJOS
 62
     7
  0
POLYLINE
  5
3DC
330
1F
100
AcDbEntity
  8
DIBUJOS
 62
     7
100
AcDb2dPolyline
 66
     1
 10
0.0
 20
0.0
 30
0.0
  0
VERTEX
  5
3DD
330
3DC
100
AcDbEntity
  8
DIBUJOS
 62
     7
100
AcDbVertex
100
AcDb2dVertex
 10
23.45667209877272
 20
35.49211039658252
 30
0.0
  0
VERTEX
  5
3DE
330
3DC
100
AcDbEntity
  8
DIBUJOS
 62
     7
100
AcDbVertex
100
AcDb2dVertex
 10
23.40620743311982
 20
35.49771850393049
 30
0.0
  0
VERTEX
  5
3DF
330
3DC
100
AcDbEntity
  8
DIBUJOS
 62
     7
100
AcDbVertex
100
AcDb2dVertex
 10
23.38938537484287
 20
35.52575451313707
 30
0.0
  0
VERTEX
  5
3E0
330
3DC
100
AcDbEntity
  8
DIBUJOS
 62
     7
100
AcDbVertex
100
AcDb2dVertex
 10
23.35013466011864
 20
35.56500522786097
 30
0.0
  0
VERTEX
  5
3E1
330
3DC
100
AcDbEntity
  8
DIBUJOS
 62
     7
100
AcDbVertex
100
AcDb2dVertex
 10
23.27667992361268
 20
35.59696661037515
 30
0.0
  0
VERTEX
  5
3E2
330
3DC
100
AcDbEntity
  8
DIBUJOS
 62
     7
100
AcDbVertex
100
AcDb2dVertex
 10
23.22733582300474
 20
35.61659196773711
 30
0.0
  0
VERTEX
  5
3E3
330
3DC
100
AcDbEntity
  8
DIBUJOS
 62
     7
100
AcDbVertex
100
AcDb2dVertex
 10
22.7107825026103
 20
35.65205615357586
 30
0.0
  0
VERTEX
  5
3E4
330
3DC
100
AcDbEntity
  8
DIBUJOS
 62
     7
100
AcDbVertex
100
AcDb2dVertex
 10
22.24550804967569
 20
35.67154266651472
 30
0.0
  0
VERTEX
  5
3E5
330
3DC
100
AcDbEntity
  8
DIBUJOS
 62
     7
100
AcDbVertex
100
AcDb2dVertex
 10
21.58967339905509
 20
35.63534652909805
 30
0.0
  0
VERTEX
  5
3E6
330
3DC
100
AcDbEntity
  8
DIBUJOS
 62
     7
100
AcDbVertex
100
AcDb2dVertex
 10
21.35900300948274
 20
35.61659196773711
 30
0.0
  0
VERTEX
  5
3E7
330
3DC
100
AcDbEntity
  8
DIBUJOS
 62
     7
100
AcDbVertex
100
AcDb2dVertex
 10
21.2698479116281
 20
35.57061182603034
 30
0.0
  0
VERTEX
  5
3E8
330
3DC
100
AcDbEntity
  8
DIBUJOS
 62
     7
100
AcDbVertex
100
AcDb2dVertex
 10
21.23620417236852
 20
35.53696921865503
 30
0.0
  0
VERTEX
  5
3E9
330
3DC
100
AcDbEntity
  8
DIBUJOS
 62
     7
100
AcDbVertex
100
AcDb2dVertex
 10
21.23227917635526
 20
35.52519309873031
 30
0.0
  0
VERTEX
  5
3EA
330
3DC
100
AcDbEntity
  8
DIBUJOS
 62
     7
100
AcDbVertex
100
AcDb2dVertex
 10
21.23059719690419
 20
35.51453980761845
 30
0.0
  0
VERTEX
  5
3EB
330
3DC
100
AcDbEntity
  8
DIBUJOS
 62
     7
100
AcDbVertex
100
AcDb2dVertex
 10
21.21377513862692
 20
35.49771850393049
 30
0.0
  0
VERTEX
  5
3EC
330
3DC
100
AcDbEntity
  8
DIBUJOS
 62
     7
100
AcDbVertex
100
AcDb2dVertex
 10
21.17452480119766
 20
35.49771850393049
 30
0.0
  0
VERTEX
  5
3ED
330
3DC
100
AcDbEntity
  8
DIBUJOS
 62
     7
100
AcDbVertex
100
AcDb2dVertex
 10
21.16891744843868
 20
35.49211039658252
 30
0.0
  0
VERTEX
  5
3EE
330
3DC
100
AcDbEntity
  8
DIBUJOS
 62
     7
100
AcDbVertex
100
AcDb2dVertex
 10
21.16891744843868
 20
35.45846778920657
 30
0.0
  0
VERTEX
  5
3EF
330
3DC
100
AcDbEntity
  8
DIBUJOS
 62
     7
100
AcDbVertex
100
AcDb2dVertex
 10
21.19134648218028
 20
35.44164497634064
 30
0.0
  0
VERTEX
  5
3F0
330
3DC
100
AcDbEntity
  8
DIBUJOS
 62
     7
100
AcDbVertex
100
AcDb2dVertex
 10
21.19695345764462
 20
35.43603837817064
 30
0.0
  0
VERTEX
  5
3F1
330
3DC
100
AcDbEntity
  8
DIBUJOS
 62
     7
100
AcDbVertex
100
AcDb2dVertex
 10
21.19302883892568
 20
35.42987036559452
 30
0.0
  0
VERTEX
  5
3F2
330
3DC
100
AcDbEntity
  8
DIBUJOS
 62
     7
100
AcDbVertex
100
AcDb2dVertex
 10
21.17149022050595
 20
35.34612454081948
 30
0.0
  0
VERTEX
  5
3F3
330
3DC
100
AcDbEntity
  8
DIBUJOS
 62
     7
100
AcDbVertex
100
AcDb2dVertex
 10
21.16634467637141
 20
35.2792332216591
 30
0.0
  0
VERTEX
  5
3F4
330
3DC
100
AcDbEntity
  8
DIBUJOS
 62
     7
100
AcDbVertex
100
AcDb2dVertex
 10
21.14648841469707
 20
33.04735288735188
 30
0.0
  0
VERTEX
  5
3F5
330
3DC
100
AcDbEntity
  8
DIBUJOS
 62
     7
100
AcDbVertex
100
AcDb2dVertex
 10
21.14648841469707
 20
33.04174628918252
 30
0.0
  0
VERTEX
  5
3F6
330
3DC
100
AcDbEntity
  8
DIBUJOS
 62
     7
100
AcDbVertex
100
AcDb2dVertex
 10
21.14370360304899
 20
32.04928182570495
 30
0.0
  0
VERTEX
  5
3F7
330
3DC
100
AcDbEntity
  8
DIBUJOS
 62
     7
100
AcDbVertex
100
AcDb2dVertex
 10
21.14088106193809
 20
32.043657117393
 30
0.0
  0
VERTEX
  5
3F8
330
3DC
100
AcDbEntity
  8
DIBUJOS
 62
     7
100
AcDbVertex
100
AcDb2dVertex
 10
21.14648841469707
 20
28.48305829220177
 30
0.0
  0
VERTEX
  5
3F9
330
3DC
100
AcDbEntity
  8
DIBUJOS
 62
     7
100
AcDbVertex
100
AcDb2dVertex
 10
21.16331009567969
 20
26.17287423083148
 30
0.0
  0
VERTEX
  5
3FA
330
3DC
100
AcDbEntity
  8
DIBUJOS
 62
     7
100
AcDbVertex
100
AcDb2dVertex
 10
21.18125347359058
 20
26.06689745199388
 30
0.0
  0
VERTEX
  5
3FB
330
3DC
100
AcDbEntity
  8
DIBUJOS
 62
     7
100
AcDbVertex
100
AcDb2dVertex
 10
21.19695345764462
 20
26.02708607745317
 30
0.0
  0
VERTEX
  5
3FC
330
3DC
100
AcDbEntity
  8
DIBUJOS
 62
     7
100
AcDbVertex
100
AcDb2dVertex
 10
21.16891744843868
 20
25.99904931365793
 30
0.0
  0
VERTEX
  5
3FD
330
3DC
100
AcDbEntity
  8
DIBUJOS
 62
     7
100
AcDbVertex
100
AcDb2dVertex
 10
21.16331009567969
 20
25.98222800996996
 30
0.0
  0
VERTEX
  5
3FE
330
3DC
100
AcDbEntity
  8
DIBUJOS
 62
     7
100
AcDbVertex
100
AcDb2dVertex
 10
21.18013215395665
 20
25.95979935352332
 30
0.0
  0
VERTEX
  5
3FF
330
3DC
100
AcDbEntity
  8
DIBUJOS
 62
     7
100
AcDbVertex
100
AcDb2dVertex
 10
21.21938249138622
 20
25.95979935352332
 30
0.0
  0
VERTEX
  5
400
330
3DC
100
AcDbEntity
  8
DIBUJOS
 62
     7
100
AcDbVertex
100
AcDb2dVertex
 10
21.23283983617207
 20
25.9328839093617
 30
0.0
  0
VERTEX
  5
401
330
3DC
100
AcDbEntity
  8
DIBUJOS
 62
     7
100
AcDbVertex
100
AcDb2dVertex
 10
21.24051740455418
 20
25.91968538869078
 30
0.0
  0
VERTEX
  5
402
330
3DC
100
AcDbEntity
  8
DIBUJOS
 62
     7
100
AcDbVertex
100
AcDb2dVertex
 10
21.2698479116281
 20
25.88690452224487
 30
0.0
  0
VERTEX
  5
403
330
3DC
100
AcDbEntity
  8
DIBUJOS
 62
     7
100
AcDbVertex
100
AcDb2dVertex
 10
21.32648096715176
 20
25.85998983267255
 30
0.0
  0
VERTEX
  5
404
330
3DC
100
AcDbEntity
  8
DIBUJOS
 62
     7
100
AcDbVertex
100
AcDb2dVertex
 10
21.34218132850044
 20
25.85213984064601
 30
0.0
  0
VERTEX
  5
405
330
3DC
100
AcDbEntity
  8
DIBUJOS
 62
     7
100
AcDbVertex
100
AcDb2dVertex
 10
21.38778493016803
 20
25.83902960691756
 30
0.0
  0
VERTEX
  5
406
330
3DC
100
AcDbEntity
  8
DIBUJOS
 62
     7
100
AcDbVertex
100
AcDb2dVertex
 10
21.6064803655473
 20
25.82219094767694
 30
0.0
  0
VERTEX
  5
407
330
3DC
100
AcDbEntity
  8
DIBUJOS
 62
     7
100
AcDbVertex
100
AcDb2dVertex
 10
22.2736474376098
 20
25.78889016923393
 30
0.0
  0
VERTEX
  5
408
330
3DC
100
AcDbEntity
  8
DIBUJOS
 62
     7
100
AcDbVertex
100
AcDb2dVertex
 10
22.81171258850539
 20
25.81106754745865
 30
0.0
  0
VERTEX
  5
409
330
3DC
100
AcDbEntity
  8
DIBUJOS
 62
     7
100
AcDbVertex
100
AcDb2dVertex
 10
23.23200371214016
 20
25.84432003218896
 30
0.0
  0
VERTEX
  5
40A
330
3DC
100
AcDbEntity
  8
DIBUJOS
 62
     7
100
AcDbVertex
100
AcDb2dVertex
 10
23.30022989969357
 20
25.87400783727584
 30
0.0
  0
VERTEX
  5
40B
330
3DC
100
AcDbEntity
  8
DIBUJOS
 62
     7
100
AcDbVertex
100
AcDb2dVertex
 10
23.36134936563693
 20
25.90372658052214
 30
0.0
  0
VERTEX
  5
40C
330
3DC
100
AcDbEntity
  8
DIBUJOS
 62
     7
100
AcDbVertex
100
AcDb2dVertex
 10
23.39611404723579
 20
25.94802398818791
 30
0.0
  0
VERTEX
  5
40D
330
3DC
100
AcDbEntity
  8
DIBUJOS
 62
     7
100
AcDbVertex
100
AcDb2dVertex
 10
23.40620743311982
 20
25.96540670628199
 30
0.0
  0
VERTEX
  5
40E
330
3DC
100
AcDbEntity
  8
DIBUJOS
 62
     7
100
AcDbVertex
100
AcDb2dVertex
 10
23.44545739325475
 20
25.95979935352332
 30
0.0
  0
VERTEX
  5
40F
330
3DC
100
AcDbEntity
  8
DIBUJOS
 62
     7
100
AcDbVertex
100
AcDb2dVertex
 10
23.45106474601373
 20
25.96540670628199
 30
0.0
  0
SEQEND
  5
410
330
3DC
100
AcDbEntity
  8
DIBUJOS
 62
     7
  0
POLYLINE
  5
411
330
1F
100
AcDbEntity
  8
DIBUJOS
 62
     7
100
AcDb2dPolyline
 66
     1
 10
0.0
 20
0.0
 30
0.0
  0
VERTEX
  5
412
330
411
100
AcDbEntity
  8
DIBUJOS
 62
     7
100
AcDbVertex
100
AcDb2dVertex
 10
31.10495109884582
 20
25.95979935352332
 30
0.0
  0
VERTEX
  5
413
330
411
100
AcDbEntity
  8
DIBUJOS
 62
     7
100
AcDbVertex
100
AcDb2dVertex
 10
31.14980841173941
 20
25.95979935352332
 30
0.0
  0
VERTEX
  5
414
330
411
100
AcDbEntity
  8
DIBUJOS
 62
     7
100
AcDbVertex
100
AcDb2dVertex
 10
31.16662971542739
 20
25.92615523696878
 30
0.0
  0
VERTEX
  5
415
330
411
100
AcDbEntity
  8
DIBUJOS
 62
     7
100
AcDbVertex
100
AcDb2dVertex
 10
31.19466723381193
 20
25.89811922776284
 30
0.0
  0
VERTEX
  5
416
330
411
100
AcDbEntity
  8
DIBUJOS
 62
     7
100
AcDbVertex
100
AcDb2dVertex
 10
31.28494327400586
 20
25.85998983267255
 30
0.0
  0
VERTEX
  5
417
330
411
100
AcDbEntity
  8
DIBUJOS
 62
     7
100
AcDbVertex
100
AcDb2dVertex
 10
31.34002376213591
 20
25.83989059325829
 30
0.0
  0
VERTEX
  5
418
330
411
100
AcDbEntity
  8
DIBUJOS
 62
     7
100
AcDbVertex
100
AcDb2dVertex
 10
31.86204408168766
 20
25.80547302271682
 30
0.0
  0
VERTEX
  5
419
330
411
100
AcDbEntity
  8
DIBUJOS
 62
     7
100
AcDbVertex
100
AcDb2dVertex
 10
32.26564972770066
 20
25.78597443634978
 30
0.0
  0
VERTEX
  5
41A
330
411
100
AcDbEntity
  8
DIBUJOS
 62
     7
100
AcDbVertex
100
AcDb2dVertex
 10
32.95516773351689
 20
25.82222339501497
 30
0.0
  0
VERTEX
  5
41B
330
411
100
AcDbEntity
  8
DIBUJOS
 62
     7
100
AcDbVertex
100
AcDb2dVertex
 10
33.16820337218363
 20
25.83899187745442
 30
0.0
  0
VERTEX
  5
41C
330
411
100
AcDbEntity
  8
DIBUJOS
 62
     7
100
AcDbVertex
100
AcDb2dVertex
 10
33.21271357401983
 20
25.85438323450319
 30
0.0
  0
VERTEX
  5
41D
330
411
100
AcDbEntity
  8
DIBUJOS
 62
     7
100
AcDbVertex
100
AcDb2dVertex
 10
33.21944149182377
 20
25.85774719340467
 30
0.0
  0
VERTEX
  5
41E
330
411
100
AcDbEntity
  8
DIBUJOS
 62
     7
100
AcDbVertex
100
AcDb2dVertex
 10
33.2805602031775
 20
25.88690452224487
 30
0.0
  0
VERTEX
  5
41F
330
411
100
AcDbEntity
  8
DIBUJOS
 62
     7
100
AcDbVertex
100
AcDb2dVertex
 10
33.31420431973205
 20
25.92054863879942
 30
0.0
  0
VERTEX
  5
420
330
411
100
AcDbEntity
  8
DIBUJOS
 62
     7
100
AcDbVertex
100
AcDb2dVertex
 10
33.33663373076799
 20
25.96540670628199
 30
0.0
  0
VERTEX
  5
421
330
411
100
AcDbEntity
  8
DIBUJOS
 62
     7
100
AcDbVertex
100
AcDb2dVertex
 10
33.34224032893799
 20
25.95979935352332
 30
0.0
  0
VERTEX
  5
422
330
411
100
AcDbEntity
  8
DIBUJOS
 62
     7
100
AcDbVertex
100
AcDb2dVertex
 10
33.37027633814393
 20
25.95979935352332
 30
0.0
  0
VERTEX
  5
423
330
411
100
AcDbEntity
  8
DIBUJOS
 62
     7
100
AcDbVertex
100
AcDb2dVertex
 10
33.38709764183158
 20
25.9766206572113
 30
0.0
  0
VERTEX
  5
424
330
411
100
AcDbEntity
  8
DIBUJOS
 62
     7
100
AcDbVertex
100
AcDb2dVertex
 10
33.38709764183158
 20
25.98783536272926
 30
0.0
  0
VERTEX
  5
425
330
411
100
AcDbEntity
  8
DIBUJOS
 62
     7
100
AcDbVertex
100
AcDb2dVertex
 10
33.37588444549221
 20
26.0102640191759
 30
0.0
  0
VERTEX
  5
426
330
411
100
AcDbEntity
  8
DIBUJOS
 62
     7
100
AcDbVertex
100
AcDb2dVertex
 10
33.35906163262564
 20
26.02147872469386
 30
0.0
  0
VERTEX
  5
427
330
411
100
AcDbEntity
  8
DIBUJOS
 62
     7
100
AcDbVertex
100
AcDb2dVertex
 10
33.36298700593388
 20
26.04446879554725
 30
0.0
  0
VERTEX
  5
428
330
411
100
AcDbEntity
  8
DIBUJOS
 62
     7
100
AcDbVertex
100
AcDb2dVertex
 10
33.36635096483569
 20
26.0545614268423
 30
0.0
  0
VERTEX
  5
429
330
411
100
AcDbEntity
  8
DIBUJOS
 62
     7
100
AcDbVertex
100
AcDb2dVertex
 10
33.38390572928019
 20
26.14453638592301
 30
0.0
  0
VERTEX
  5
42A
330
411
100
AcDbEntity
  8
DIBUJOS
 62
     7
100
AcDbVertex
100
AcDb2dVertex
 10
33.40392045469815
 20
28.05130043023686
 30
0.0
  0
VERTEX
  5
42B
330
411
100
AcDbEntity
  8
DIBUJOS
 62
     7
100
AcDbVertex
100
AcDb2dVertex
 10
33.40952705286784
 20
32.32401871863165
 30
0.0
  0
VERTEX
  5
42C
330
411
100
AcDbEntity
  8
DIBUJOS
 62
     7
100
AcDbVertex
100
AcDb2dVertex
 10
33.40952705286784
 20
32.32962682597961
 30
0.0
  0
VERTEX
  5
42D
330
411
100
AcDbEntity
  8
DIBUJOS
 62
     7
100
AcDbVertex
100
AcDb2dVertex
 10
33.39831234734987
 20
33.38939461435037
 30
0.0
  0
VERTEX
  5
42E
330
411
100
AcDbEntity
  8
DIBUJOS
 62
     7
100
AcDbVertex
100
AcDb2dVertex
 10
33.40392045469815
 20
33.40621742721694
 30
0.0
  0
VERTEX
  5
42F
330
411
100
AcDbEntity
  8
DIBUJOS
 62
     7
100
AcDbVertex
100
AcDb2dVertex
 10
33.38395251381397
 20
35.31295279713927
 30
0.0
  0
VERTEX
  5
430
330
411
100
AcDbEntity
  8
DIBUJOS
 62
     7
100
AcDbVertex
100
AcDb2dVertex
 10
33.37902957350982
 20
35.35726378741182
 30
0.0
  0
VERTEX
  5
431
330
411
100
AcDbEntity
  8
DIBUJOS
 62
     7
100
AcDbVertex
100
AcDb2dVertex
 10
33.3579403129917
 20
35.42987036559452
 30
0.0
  0
VERTEX
  5
432
330
411
100
AcDbEntity
  8
DIBUJOS
 62
     7
100
AcDbVertex
100
AcDb2dVertex
 10
33.35345503445595
 20
35.43603837817064
 30
0.0
  0
VERTEX
  5
433
330
411
100
AcDbEntity
  8
DIBUJOS
 62
     7
100
AcDbVertex
100
AcDb2dVertex
 10
33.3814910436619
 20
35.45846778920657
 30
0.0
  0
VERTEX
  5
434
330
411
100
AcDbEntity
  8
DIBUJOS
 62
     7
100
AcDbVertex
100
AcDb2dVertex
 10
33.38709764183158
 20
35.48650379841251
 30
0.0
  0
VERTEX
  5
435
330
411
100
AcDbEntity
  8
DIBUJOS
 62
     7
100
AcDbVertex
100
AcDb2dVertex
 10
33.37588444549221
 20
35.49771850393049
 30
0.0
  0
VERTEX
  5
436
330
411
100
AcDbEntity
  8
DIBUJOS
 62
     7
100
AcDbVertex
100
AcDb2dVertex
 10
33.33663373076799
 20
35.49771850393049
 30
0.0
  0
VERTEX
  5
437
330
411
100
AcDbEntity
  8
DIBUJOS
 62
     7
100
AcDbVertex
100
AcDb2dVertex
 10
33.32541902525001
 20
35.50893320944909
 30
0.0
  0
VERTEX
  5
438
330
411
100
AcDbEntity
  8
DIBUJOS
 62
     7
100
AcDbVertex
100
AcDb2dVertex
 10
33.31981091790173
 20
35.53136111130642
 30
0.0
  0
VERTEX
  5
439
330
411
100
AcDbEntity
  8
DIBUJOS
 62
     7
100
AcDbVertex
100
AcDb2dVertex
 10
33.2805602031775
 20
35.57061182603034
 30
0.0
  0
VERTEX
  5
43A
330
411
100
AcDbEntity
  8
DIBUJOS
 62
     7
100
AcDbVertex
100
AcDb2dVertex
 10
33.2180183364873
 20
35.60296106742225
 30
0.0
  0
VERTEX
  5
43B
330
411
100
AcDbEntity
  8
DIBUJOS
 62
     7
100
AcDbVertex
100
AcDb2dVertex
 10
33.21383489365376
 20
35.6053772622185
 30
0.0
  0
VERTEX
  5
43C
330
411
100
AcDbEntity
  8
DIBUJOS
 62
     7
100
AcDbVertex
100
AcDb2dVertex
 10
33.18456437642544
 20
35.61636710013882
 30
0.0
  0
VERTEX
  5
43D
330
411
100
AcDbEntity
  8
DIBUJOS
 62
     7
100
AcDbVertex
100
AcDb2dVertex
 10
33.1181484484966
 20
35.62365039563478
 30
0.0
  0
VERTEX
  5
43E
330
411
100
AcDbEntity
  8
DIBUJOS
 62
     7
100
AcDbVertex
100
AcDb2dVertex
 10
32.31611514794285
 20
35.67154266651472
 30
0.0
  0
VERTEX
  5
43F
330
411
100
AcDbEntity
  8
DIBUJOS
 62
     7
100
AcDbVertex
100
AcDb2dVertex
 10
31.96857397444904
 20
35.65764162324671
 30
0.0
  0
VERTEX
  5
440
330
411
100
AcDbEntity
  8
DIBUJOS
 62
     7
100
AcDbVertex
100
AcDb2dVertex
 10
31.39668134180994
 20
35.62405485547585
 30
0.0
  0
VERTEX
  5
441
330
411
100
AcDbEntity
  8
DIBUJOS
 62
     7
100
AcDbVertex
100
AcDb2dVertex
 10
31.3350766749754
 20
35.61854937226644
 30
0.0
  0
VERTEX
  5
442
330
411
100
AcDbEntity
  8
DIBUJOS
 62
     7
100
AcDbVertex
100
AcDb2dVertex
 10
31.30176457769383
 20
35.60818131589312
 30
0.0
  0
VERTEX
  5
443
330
411
100
AcDbEntity
  8
DIBUJOS
 62
     7
100
AcDbVertex
100
AcDb2dVertex
 10
31.29503665988989
 20
35.6053772622185
 30
0.0
  0
VERTEX
  5
444
330
411
100
AcDbEntity
  8
DIBUJOS
 62
     7
100
AcDbVertex
100
AcDb2dVertex
 10
31.20588043015162
 20
35.57061182603034
 30
0.0
  0
VERTEX
  5
445
330
411
100
AcDbEntity
  8
DIBUJOS
 62
     7
100
AcDbVertex
100
AcDb2dVertex
 10
31.16533634944335
 20
35.52661625406645
 30
0.0
  0
VERTEX
  5
446
330
411
100
AcDbEntity
  8
DIBUJOS
 62
     7
100
AcDbVertex
100
AcDb2dVertex
 10
31.14420181356973
 20
35.49771850393049
 30
0.0
  0
VERTEX
  5
447
330
411
100
AcDbEntity
  8
DIBUJOS
 62
     7
100
AcDbVertex
100
AcDb2dVertex
 10
31.10020624160585
 20
35.49340527174515
 30
0.0
  0
VERTEX
  5
448
330
411
100
AcDbEntity
  8
DIBUJOS
 62
     7
100
AcDbVertex
100
AcDb2dVertex
 10
31.08812828597925
 20
35.48650379841251
 30
0.0
  0
SEQEND
  5
449
330
411
100
AcDbEntity
  8
DIBUJOS
 62
     7
  0
POLYLINE
  5
44A
330
1F
100
AcDbEntity
  8
DIBUJOS
 62
     7
100
AcDb2dPolyline
 66
     1
 10
0.0
 20
0.0
 30
0.0
  0
VERTEX
  5
44B
330
44A
100
AcDbEntity
  8
DIBUJOS
 62
     7
100
AcDbVertex
100
AcDb2dVertex
 10
43.66100163095884
 20
35.49211039658252
 30
0.0
  0
VERTEX
  5
44C
330
44A
100
AcDbEntity
  8
DIBUJOS
 62
     7
100
AcDbVertex
100
AcDb2dVertex
 10
43.61053771989492
 20
35.49771850393049
 30
0.0
  0
VERTEX
  5
44D
330
44A
100
AcDbEntity
  8
DIBUJOS
 62
     7
100
AcDbVertex
100
AcDb2dVertex
 10
43.59371339785007
 20
35.53136111130642
 30
0.0
  0
VERTEX
  5
44E
330
44A
100
AcDbEntity
  8
DIBUJOS
 62
     7
100
AcDbVertex
100
AcDb2dVertex
 10
43.56567889782273
 20
35.55939712051237
 30
0.0
  0
VERTEX
  5
44F
330
44A
100
AcDbEntity
  8
DIBUJOS
 62
     7
100
AcDbVertex
100
AcDb2dVertex
 10
43.49222416131645
 20
35.59191991743266
 30
0.0
  0
VERTEX
  5
450
330
44A
100
AcDbEntity
  8
DIBUJOS
 62
     7
100
AcDbVertex
100
AcDb2dVertex
 10
43.44175723189597
 20
35.61434932846923
 30
0.0
  0
VERTEX
  5
451
330
44A
100
AcDbEntity
  8
DIBUJOS
 62
     7
100
AcDbVertex
100
AcDb2dVertex
 10
43.27390337950278
 20
35.6297188024289
 30
0.0
  0
VERTEX
  5
452
330
44A
100
AcDbEntity
  8
DIBUJOS
 62
     7
100
AcDbVertex
100
AcDb2dVertex
 10
43.03285738766475
 20
35.64645710129887
 30
0.0
  0
VERTEX
  5
453
330
44A
100
AcDbEntity
  8
DIBUJOS
 62
     7
100
AcDbVertex
100
AcDb2dVertex
 10
42.43301627817352
 20
35.67154266651472
 30
0.0
  0
VERTEX
  5
454
330
44A
100
AcDbEntity
  8
DIBUJOS
 62
     7
100
AcDbVertex
100
AcDb2dVertex
 10
42.05746324233012
 20
35.65206369946823
 30
0.0
  0
VERTEX
  5
455
330
44A
100
AcDbEntity
  8
DIBUJOS
 62
     7
100
AcDbVertex
100
AcDb2dVertex
 10
41.56893913983823
 20
35.61715187296461
 30
0.0
  0
VERTEX
  5
456
330
44A
100
AcDbEntity
  8
DIBUJOS
 62
     7
100
AcDbVertex
100
AcDb2dVertex
 10
41.49716562819403
 20
35.58070521191469
 30
0.0
  0
VERTEX
  5
457
330
44A
100
AcDbEntity
  8
DIBUJOS
 62
     7
100
AcDbVertex
100
AcDb2dVertex
 10
41.4573565174209
 20
35.55379052234301
 30
0.0
  0
VERTEX
  5
458
330
44A
100
AcDbEntity
  8
DIBUJOS
 62
     7
100
AcDbVertex
100
AcDb2dVertex
 10
41.43492710638464
 20
35.50893320944909
 30
0.0
  0
VERTEX
  5
459
330
44A
100
AcDbEntity
  8
DIBUJOS
 62
     7
100
AcDbVertex
100
AcDb2dVertex
 10
41.42371089168807
 20
35.49771850393049
 30
0.0
  0
VERTEX
  5
45A
330
44A
100
AcDbEntity
  8
DIBUJOS
 62
     7
100
AcDbVertex
100
AcDb2dVertex
 10
41.38446017696384
 20
35.49771850393049
 30
0.0
  0
VERTEX
  5
45B
330
44A
100
AcDbEntity
  8
DIBUJOS
 62
     7
100
AcDbVertex
100
AcDb2dVertex
 10
41.37324698062448
 20
35.48650379841251
 30
0.0
  0
VERTEX
  5
45C
330
44A
100
AcDbEntity
  8
DIBUJOS
 62
     7
100
AcDbVertex
100
AcDb2dVertex
 10
41.37773225916023
 20
35.46351448214907
 30
0.0
  0
VERTEX
  5
45D
330
44A
100
AcDbEntity
  8
DIBUJOS
 62
     7
100
AcDbVertex
100
AcDb2dVertex
 10
41.40128148065182
 20
35.43603837817064
 30
0.0
  0
VERTEX
  5
45E
330
44A
100
AcDbEntity
  8
DIBUJOS
 62
     7
100
AcDbVertex
100
AcDb2dVertex
 10
41.39174950917389
 20
35.40183435638858
 30
0.0
  0
VERTEX
  5
45F
330
44A
100
AcDbEntity
  8
DIBUJOS
 62
     7
100
AcDbVertex
100
AcDb2dVertex
 10
41.37649775113784
 20
35.3298374863247
 30
0.0
  0
VERTEX
  5
460
330
44A
100
AcDbEntity
  8
DIBUJOS
 62
     7
100
AcDbVertex
100
AcDb2dVertex
 10
41.3620307659279
 20
34.26973164196752
 30
0.0
  0
VERTEX
  5
461
330
44A
100
AcDbEntity
  8
DIBUJOS
 62
     7
100
AcDbVertex
100
AcDb2dVertex
 10
41.36763887327619
 20
34.26412504379752
 30
0.0
  0
VERTEX
  5
462
330
44A
100
AcDbEntity
  8
DIBUJOS
 62
     7
100
AcDbVertex
100
AcDb2dVertex
 10
41.3564256769365
 20
33.54079087507664
 30
0.0
  0
VERTEX
  5
463
330
44A
100
AcDbEntity
  8
DIBUJOS
 62
     7
100
AcDbVertex
100
AcDb2dVertex
 10
41.3564256769365
 20
33.53518276772868
 30
0.0
  0
VERTEX
  5
464
330
44A
100
AcDbEntity
  8
DIBUJOS
 62
     7
100
AcDbVertex
100
AcDb2dVertex
 10
41.35363671504759
 20
28.99890758082052
 30
0.0
  0
VERTEX
  5
465
330
44A
100
AcDbEntity
  8
DIBUJOS
 62
     7
100
AcDbVertex
100
AcDb2dVertex
 10
41.35921162046854
 20
28.05692438396015
 30
0.0
  0
VERTEX
  5
466
330
44A
100
AcDbEntity
  8
DIBUJOS
 62
     7
100
AcDbVertex
100
AcDb2dVertex
 10
41.37643738399727
 20
26.13332168040504
 30
0.0
  0
VERTEX
  5
467
330
44A
100
AcDbEntity
  8
DIBUJOS
 62
     7
100
AcDbVertex
100
AcDb2dVertex
 10
41.38248315311396
 20
26.08827043807226
 30
0.0
  0
VERTEX
  5
468
330
44A
100
AcDbEntity
  8
DIBUJOS
 62
     7
100
AcDbVertex
100
AcDb2dVertex
 10
41.40128148065182
 20
26.02147872469386
 30
0.0
  0
VERTEX
  5
469
330
44A
100
AcDbEntity
  8
DIBUJOS
 62
     7
100
AcDbVertex
100
AcDb2dVertex
 10
41.37324698062448
 20
25.99344271548793
 30
0.0
  0
VERTEX
  5
46A
330
44A
100
AcDbEntity
  8
DIBUJOS
 62
     7
100
AcDbVertex
100
AcDb2dVertex
 10
41.37885508797276
 20
25.96540670628199
 30
0.0
  0
VERTEX
  5
46B
330
44A
100
AcDbEntity
  8
DIBUJOS
 62
     7
100
AcDbVertex
100
AcDb2dVertex
 10
41.38446017696384
 20
25.95979935352332
 30
0.0
  0
VERTEX
  5
46C
330
44A
100
AcDbEntity
  8
DIBUJOS
 62
     7
100
AcDbVertex
100
AcDb2dVertex
 10
41.42371089168807
 20
25.95979935352332
 30
0.0
  0
VERTEX
  5
46D
330
44A
100
AcDbEntity
  8
DIBUJOS
 62
     7
100
AcDbVertex
100
AcDb2dVertex
 10
41.43604691683998
 20
25.94353795506286
 30
0.0
  0
VERTEX
  5
46E
330
44A
100
AcDbEntity
  8
DIBUJOS
 62
     7
100
AcDbVertex
100
AcDb2dVertex
 10
41.43885097051428
 20
25.93680928266994
 30
0.0
  0
VERTEX
  5
46F
330
44A
100
AcDbEntity
  8
DIBUJOS
 62
     7
100
AcDbVertex
100
AcDb2dVertex
 10
41.44053219537572
 20
25.92615523696878
 30
0.0
  0
VERTEX
  5
470
330
44A
100
AcDbEntity
  8
DIBUJOS
 62
     7
100
AcDbVertex
100
AcDb2dVertex
 10
41.47978291009995
 20
25.88690452224487
 30
0.0
  0
VERTEX
  5
471
330
44A
100
AcDbEntity
  8
DIBUJOS
 62
     7
100
AcDbVertex
100
AcDb2dVertex
 10
41.55324066496279
 20
25.84933654156133
 30
0.0
  0
VERTEX
  5
472
330
44A
100
AcDbEntity
  8
DIBUJOS
 62
     7
100
AcDbVertex
100
AcDb2dVertex
 10
41.56333103248994
 20
25.8459718280699
 30
0.0
  0
VERTEX
  5
473
330
44A
100
AcDbEntity
  8
DIBUJOS
 62
     7
100
AcDbVertex
100
AcDb2dVertex
 10
41.7266875329192
 20
25.82781565598889
 30
0.0
  0
VERTEX
  5
474
330
44A
100
AcDbEntity
  8
DIBUJOS
 62
     7
100
AcDbVertex
100
AcDb2dVertex
 10
41.95090920271238
 20
25.81108037547613
 30
0.0
  0
VERTEX
  5
475
330
44A
100
AcDbEntity
  8
DIBUJOS
 62
     7
100
AcDbVertex
100
AcDb2dVertex
 10
42.5060273161973
 20
25.78890526101867
 30
0.0
  0
VERTEX
  5
476
330
44A
100
AcDbEntity
  8
DIBUJOS
 62
     7
100
AcDbVertex
100
AcDb2dVertex
 10
43.02165928311044
 20
25.81108037547613
 30
0.0
  0
VERTEX
  5
477
330
44A
100
AcDbEntity
  8
DIBUJOS
 62
     7
100
AcDbVertex
100
AcDb2dVertex
 10
43.43621552840234
 20
25.84402574237944
 30
0.0
  0
VERTEX
  5
478
330
44A
100
AcDbEntity
  8
DIBUJOS
 62
     7
100
AcDbVertex
100
AcDb2dVertex
 10
43.4877388827807
 20
25.86335454616398
 30
0.0
  0
VERTEX
  5
479
330
44A
100
AcDbEntity
  8
DIBUJOS
 62
     7
100
AcDbVertex
100
AcDb2dVertex
 10
43.55446268312616
 20
25.89251187500417
 30
0.0
  0
VERTEX
  5
47A
330
44A
100
AcDbEntity
  8
DIBUJOS
 62
     7
100
AcDbVertex
100
AcDb2dVertex
 10
43.5950082730127
 20
25.93650744696805
 30
0.0
  0
VERTEX
  5
47B
330
44A
100
AcDbEntity
  8
DIBUJOS
 62
     7
100
AcDbVertex
100
AcDb2dVertex
 10
43.61053771989492
 20
25.95979935352332
 30
0.0
  0
VERTEX
  5
47C
330
44A
100
AcDbEntity
  8
DIBUJOS
 62
     7
100
AcDbVertex
100
AcDb2dVertex
 10
43.66100163095884
 20
25.96540670628199
 30
0.0
  0
SEQEND
  5
47D
330
44A
100
AcDbEntity
  8
DIBUJOS
 62
     7
  0
POLYLINE
  5
47E
330
1F
100
AcDbEntity
  8
DIBUJOS
 62
     7
100
AcDb2dPolyline
 66
     1
 10
0.0
 20
0.0
 30
0.0
  0
VERTEX
  5
47F
330
47E
100
AcDbEntity
  8
DIBUJOS
 62
     7
100
AcDbVertex
100
AcDb2dVertex
 10
58.95755812192581
 20
25.95979935352332
 30
0.0
  0
VERTEX
  5
480
330
47E
100
AcDbEntity
  8
DIBUJOS
 62
     7
100
AcDbVertex
100
AcDb2dVertex
 10
59.002416943998
 20
25.95979935352332
 30
0.0
  0
VERTEX
  5
481
330
47E
100
AcDbEntity
  8
DIBUJOS
 62
     7
100
AcDbVertex
100
AcDb2dVertex
 10
59.02372352622204
 20
25.92559457715197
 30
0.0
  0
VERTEX
  5
482
330
47E
100
AcDbEntity
  8
DIBUJOS
 62
     7
100
AcDbVertex
100
AcDb2dVertex
 10
59.02484635503426
 20
25.92054863879942
 30
0.0
  0
VERTEX
  5
483
330
47E
100
AcDbEntity
  8
DIBUJOS
 62
     7
100
AcDbVertex
100
AcDb2dVertex
 10
59.06353565535206
 20
25.89139055536992
 30
0.0
  0
VERTEX
  5
484
330
47E
100
AcDbEntity
  8
DIBUJOS
 62
     7
100
AcDbVertex
100
AcDb2dVertex
 10
59.10278637007629
 20
25.87400783727584
 30
0.0
  0
VERTEX
  5
485
330
47E
100
AcDbEntity
  8
DIBUJOS
 62
     7
100
AcDbVertex
100
AcDb2dVertex
 10
59.19323747497751
 20
25.83904469870294
 30
0.0
  0
VERTEX
  5
486
330
47E
100
AcDbEntity
  8
DIBUJOS
 62
     7
100
AcDbVertex
100
AcDb2dVertex
 10
59.33863776947841
 20
25.82828048297022
 30
0.0
  0
VERTEX
  5
487
330
47E
100
AcDbEntity
  8
DIBUJOS
 62
     7
100
AcDbVertex
100
AcDb2dVertex
 10
59.84360286267291
 20
25.79988528927871
 30
0.0
  0
VERTEX
  5
488
330
47E
100
AcDbEntity
  8
DIBUJOS
 62
     7
100
AcDbVertex
100
AcDb2dVertex
 10
60.10691527426776
 20
25.78891808903614
 30
0.0
  0
VERTEX
  5
489
330
47E
100
AcDbEntity
  8
DIBUJOS
 62
     7
100
AcDbVertex
100
AcDb2dVertex
 10
60.72963251163463
 20
25.81702804798912
 30
0.0
  0
VERTEX
  5
48A
330
47E
100
AcDbEntity
  8
DIBUJOS
 62
     7
100
AcDbVertex
100
AcDb2dVertex
 10
61.020825487049
 20
25.83901225136492
 30
0.0
  0
VERTEX
  5
48B
330
47E
100
AcDbEntity
  8
DIBUJOS
 62
     7
100
AcDbVertex
100
AcDb2dVertex
 10
61.09896471365436
 20
25.87120453819115
 30
0.0
  0
VERTEX
  5
48C
330
47E
100
AcDbEntity
  8
DIBUJOS
 62
     7
100
AcDbVertex
100
AcDb2dVertex
 10
61.13316873543641
 20
25.88690452224487
 30
0.0
  0
VERTEX
  5
48D
330
47E
100
AcDbEntity
  8
DIBUJOS
 62
     7
100
AcDbVertex
100
AcDb2dVertex
 10
61.17241945016032
 20
25.92615523696878
 30
0.0
  0
VERTEX
  5
48E
330
47E
100
AcDbEntity
  8
DIBUJOS
 62
     7
100
AcDbVertex
100
AcDb2dVertex
 10
61.17914736796394
 20
25.94802398818791
 30
0.0
  0
VERTEX
  5
48F
330
47E
100
AcDbEntity
  8
DIBUJOS
 62
     7
100
AcDbVertex
100
AcDb2dVertex
 10
61.18924075384829
 20
25.96540670628199
 30
0.0
  0
VERTEX
  5
490
330
47E
100
AcDbEntity
  8
DIBUJOS
 62
     7
100
AcDbVertex
100
AcDb2dVertex
 10
61.19484886119658
 20
25.95979935352332
 30
0.0
  0
VERTEX
  5
491
330
47E
100
AcDbEntity
  8
DIBUJOS
 62
     7
100
AcDbVertex
100
AcDb2dVertex
 10
61.22288336122391
 20
25.95979935352332
 30
0.0
  0
VERTEX
  5
492
330
47E
100
AcDbEntity
  8
DIBUJOS
 62
     7
100
AcDbVertex
100
AcDb2dVertex
 10
61.23970466491188
 20
25.9766206572113
 30
0.0
  0
VERTEX
  5
493
330
47E
100
AcDbEntity
  8
DIBUJOS
 62
     7
100
AcDbVertex
100
AcDb2dVertex
 10
61.23970466491188
 20
25.99904931365793
 30
0.0
  0
VERTEX
  5
494
330
47E
100
AcDbEntity
  8
DIBUJOS
 62
     7
100
AcDbVertex
100
AcDb2dVertex
 10
61.21167016488423
 20
26.02147872469386
 30
0.0
  0
VERTEX
  5
495
330
47E
100
AcDbEntity
  8
DIBUJOS
 62
     7
100
AcDbVertex
100
AcDb2dVertex
 10
61.23697607016322
 20
26.13369369290809
 30
0.0
  0
VERTEX
  5
496
330
47E
100
AcDbEntity
  8
DIBUJOS
 62
     7
100
AcDbVertex
100
AcDb2dVertex
 10
61.24811682593415
 20
27.14292739341441
 30
0.0
  0
VERTEX
  5
497
330
47E
100
AcDbEntity
  8
DIBUJOS
 62
     7
100
AcDbVertex
100
AcDb2dVertex
 10
61.25652898695674
 20
28.81949266644095
 30
0.0
  0
VERTEX
  5
498
330
47E
100
AcDbEntity
  8
DIBUJOS
 62
     7
100
AcDbVertex
100
AcDb2dVertex
 10
61.25652898695674
 20
33.69779373397292
 30
0.0
  0
VERTEX
  5
499
330
47E
100
AcDbEntity
  8
DIBUJOS
 62
     7
100
AcDbVertex
100
AcDb2dVertex
 10
61.24811682593415
 20
34.44916391189973
 30
0.0
  0
VERTEX
  5
49A
330
47E
100
AcDbEntity
  8
DIBUJOS
 62
     7
100
AcDbVertex
100
AcDb2dVertex
 10
61.23645389439852
 20
35.33544408449406
 30
0.0
  0
VERTEX
  5
49B
330
47E
100
AcDbEntity
  8
DIBUJOS
 62
     7
100
AcDbVertex
100
AcDb2dVertex
 10
61.23174223908588
 20
35.36841510743233
 30
0.0
  0
VERTEX
  5
49C
330
47E
100
AcDbEntity
  8
DIBUJOS
 62
     7
100
AcDbVertex
100
AcDb2dVertex
 10
61.21167016488423
 20
35.43043178000064
 30
0.0
  0
SEQEND
  5
49D
330
47E
100
AcDbEntity
  8
DIBUJOS
 62
     7
  0
POLYLINE
  5
49E
330
1F
100
AcDbEntity
  8
DIBUJOS
 62
     7
100
AcDb2dPolyline
 66
     1
 10
0.0
 20
0.0
 30
0.0
  0
VERTEX
  5
49F
330
49E
100
AcDbEntity
  8
DIBUJOS
 62
     7
100
AcDbVertex
100
AcDb2dVertex
 10
80.8136478618556
 20
49.26541023078912
 30
0.0
  0
VERTEX
  5
4A0
330
49E
100
AcDbEntity
  8
DIBUJOS
 62
     7
100
AcDbVertex
100
AcDb2dVertex
 10
80.71788143023763
 20
49.31640235433149
 30
0.0
  0
VERTEX
  5
4A1
330
49E
100
AcDbEntity
  8
DIBUJOS
 62
     7
100
AcDbVertex
100
AcDb2dVertex
 10
79.61369700909793
 20
49.35512787493382
 30
0.0
  0
VERTEX
  5
4A2
330
49E
100
AcDbEntity
  8
DIBUJOS
 62
     7
100
AcDbVertex
100
AcDb2dVertex
 10
78.53710640786124
 20
49.36634107127351
 30
0.0
  0
VERTEX
  5
4A3
330
49E
100
AcDbEntity
  8
DIBUJOS
 62
     7
100
AcDbVertex
100
AcDb2dVertex
 10
74.4461819707843
 20
49.36911494137737
 30
0.0
  0
VERTEX
  5
4A4
330
49E
100
AcDbEntity
  8
DIBUJOS
 62
     7
100
AcDbVertex
100
AcDb2dVertex
 10
72.84257114158714
 20
49.35235702318685
 30
0.0
  0
VERTEX
  5
4A5
330
49E
100
AcDbEntity
  8
DIBUJOS
 62
     7
100
AcDbVertex
100
AcDb2dVertex
 10
71.7324345203993
 20
49.31882005830698
 30
0.0
  0
VERTEX
  5
4A6
330
49E
100
AcDbEntity
  8
DIBUJOS
 62
     7
100
AcDbVertex
100
AcDb2dVertex
 10
71.6369850162686
 20
49.26541023078912
 30
0.0
  0
SEQEND
  5
4A7
330
49E
100
AcDbEntity
  8
DIBUJOS
 62
     7
  0
POLYLINE
  5
4A8
330
1F
100
AcDbEntity
  8
DIBUJOS
 62
     7
100
AcDb2dPolyline
 66
     1
 10
0.0
 20
0.0
 30
0.0
  0
VERTEX
  5
4A9
330
4A8
100
AcDbEntity
  8
DIBUJOS
 62
     7
100
AcDbVertex
100
AcDb2dVertex
 10
90.60662727350424
 20
49.26541023078912
 30
0.0
  0
VERTEX
  5
4AA
330
4A8
100
AcDbEntity
  8
DIBUJOS
 62
     7
100
AcDbVertex
100
AcDb2dVertex
 10
90.60158058056238
 20
49.26653305960166
 30
0.0
  0
VERTEX
  5
4AB
330
4A8
100
AcDbEntity
  8
DIBUJOS
 62
     7
100
AcDbVertex
100
AcDb2dVertex
 10
90.50555758859676
 20
49.31883515009204
 30
0.0
  0
VERTEX
  5
4AC
330
4A8
100
AcDbEntity
  8
DIBUJOS
 62
     7
100
AcDbVertex
100
AcDb2dVertex
 10
90.40490745531574
 20
49.32413236666715
 30
0.0
  0
VERTEX
  5
4AD
330
4A8
100
AcDbEntity
  8
DIBUJOS
 62
     7
100
AcDbVertex
100
AcDb2dVertex
 10
89.42350074279175
 20
49.35512787493382
 30
0.0
  0
VERTEX
  5
4AE
330
4A8
100
AcDbEntity
  8
DIBUJOS
 62
     7
100
AcDbVertex
100
AcDb2dVertex
 10
89.41789263544315
 20
49.34951976758553
 30
0.0
  0
VERTEX
  5
4AF
330
4A8
100
AcDbEntity
  8
DIBUJOS
 62
     7
100
AcDbVertex
100
AcDb2dVertex
 10
86.2863154938288
 20
49.36634107127351
 30
0.0
  0
VERTEX
  5
4B0
330
4A8
100
AcDbEntity
  8
DIBUJOS
 62
     7
100
AcDbVertex
100
AcDb2dVertex
 10
83.89760283779712
 20
49.36911795973425
 30
0.0
  0
VERTEX
  5
4B1
330
4A8
100
AcDbEntity
  8
DIBUJOS
 62
     7
100
AcDbVertex
100
AcDb2dVertex
 10
82.27156259756404
 20
49.35236004154405
 30
0.0
  0
VERTEX
  5
4B2
330
4A8
100
AcDbEntity
  8
DIBUJOS
 62
     7
100
AcDbVertex
100
AcDb2dVertex
 10
81.17263615435772
 20
49.31882005830698
 30
0.0
  0
VERTEX
  5
4B3
330
4A8
100
AcDbEntity
  8
DIBUJOS
 62
     7
100
AcDbVertex
100
AcDb2dVertex
 10
81.07718665022702
 20
49.26541023078912
 30
0.0
  0
SEQEND
  5
4B4
330
4A8
100
AcDbEntity
  8
DIBUJOS
 62
     7
  0
POLYLINE
  5
4B5
330
1F
100
AcDbEntity
  8
DIBUJOS
 62
     7
100
AcDb2dPolyline
 66
     1
 10
0.0
 20
0.0
 30
0.0
  0
VERTEX
  5
4B6
330
4B5
100
AcDbEntity
  8
DIBUJOS
 62
     7
100
AcDbVertex
100
AcDb2dVertex
 10
90.65709420292471
 20
45.94592380129026
 30
0.0
  0
VERTEX
  5
4B7
330
4B5
100
AcDbEntity
  8
DIBUJOS
 62
     7
100
AcDbVertex
100
AcDb2dVertex
 10
90.6656904837259
 20
48.69363682325255
 30
0.0
  0
VERTEX
  5
4B8
330
4B5
100
AcDbEntity
  8
DIBUJOS
 62
     7
100
AcDbVertex
100
AcDb2dVertex
 10
90.66830739926472
 20
49.18493922381488
 30
0.0
  0
SEQEND
  5
4B9
330
4B5
100
AcDbEntity
  8
DIBUJOS
 62
     7
  0
POLYLINE
  5
4BA
330
1F
100
AcDbEntity
  8
DIBUJOS
 62
     7
100
AcDb2dPolyline
 66
     1
 10
0.0
 20
0.0
 30
0.0
  0
VERTEX
  5
4BB
330
4BA
100
AcDbEntity
  8
DIBUJOS
 62
     7
100
AcDbVertex
100
AcDb2dVertex
 10
80.94261320236733
 20
47.03933570621524
 30
0.0
  0
VERTEX
  5
4BC
330
4BA
100
AcDbEntity
  8
DIBUJOS
 62
     7
100
AcDbVertex
100
AcDb2dVertex
 10
80.94261320236733
 20
49.18691181969818
 30
0.0
  0
SEQEND
  5
4BD
330
4BA
100
AcDbEntity
  8
DIBUJOS
 62
     7
  0
POLYLINE
  5
4BE
330
1F
100
AcDbEntity
  8
DIBUJOS
 62
     7
100
AcDb2dPolyline
 66
     1
 10
0.0
 20
0.0
 30
0.0
  0
VERTEX
  5
4BF
330
4BE
100
AcDbEntity
  8
DIBUJOS
 62
     7
100
AcDbVertex
100
AcDb2dVertex
 10
80.86879338256058
 20
46.95802950214939
 30
0.0
  0
VERTEX
  5
4C0
330
4BE
100
AcDbEntity
  8
DIBUJOS
 62
     7
100
AcDbVertex
100
AcDb2dVertex
 10
80.5270399104238
 20
47.03933570621524
 30
0.0
  0
VERTEX
  5
4C1
330
4BE
100
AcDbEntity
  8
DIBUJOS
 62
     7
100
AcDbVertex
100
AcDb2dVertex
 10
72.38835368501617
 20
47.03933570621524
 30
0.0
  0
VERTEX
  5
4C2
330
4BE
100
AcDbEntity
  8
DIBUJOS
 62
     7
100
AcDbVertex
100
AcDb2dVertex
 10
71.5416592647756
 20
46.99868260418215
 30
0.0
  0
SEQEND
  5
4C3
330
4BE
100
AcDbEntity
  8
DIBUJOS
 62
     7
  0
POLYLINE
  5
4C4
330
1F
100
AcDbEntity
  8
DIBUJOS
 62
     7
100
AcDb2dPolyline
 66
     1
 10
0.0
 20
0.0
 30
0.0
  0
VERTEX
  5
4C5
330
4C4
100
AcDbEntity
  8
DIBUJOS
 62
     7
100
AcDbVertex
100
AcDb2dVertex
 10
80.94261320236733
 20
46.95802950214939
 30
0.0
  0
VERTEX
  5
4C6
330
4C4
100
AcDbEntity
  8
DIBUJOS
 62
     7
100
AcDbVertex
100
AcDb2dVertex
 10
81.24561700881138
 20
47.02556897983418
 30
0.0
  0
VERTEX
  5
4C7
330
4C4
100
AcDbEntity
  8
DIBUJOS
 62
     7
100
AcDbVertex
100
AcDb2dVertex
 10
81.79491271159993
 20
47.03933570621524
 30
0.0
  0
VERTEX
  5
4C8
330
4C4
100
AcDbEntity
  8
DIBUJOS
 62
     7
100
AcDbVertex
100
AcDb2dVertex
 10
89.82722108637148
 20
47.03933570621524
 30
0.0
  0
VERTEX
  5
4C9
330
4C4
100
AcDbEntity
  8
DIBUJOS
 62
     7
100
AcDbVertex
100
AcDb2dVertex
 10
90.66830739926472
 20
46.99868260418215
 30
0.0
  0
SEQEND
  5
4CA
330
4C4
100
AcDbEntity
  8
DIBUJOS
 62
     7
  0
POLYLINE
  5
4CB
330
1F
100
AcDbEntity
  8
DIBUJOS
 62
     7
100
AcDb2dPolyline
 66
     1
 10
0.0
 20
0.0
 30
0.0
  0
VERTEX
  5
4CC
330
4CB
100
AcDbEntity
  8
DIBUJOS
 62
     7
100
AcDbVertex
100
AcDb2dVertex
 10
71.5416592647756
 20
49.26793210312398
 30
0.0
  0
VERTEX
  5
4CD
330
4CB
100
AcDbEntity
  8
DIBUJOS
 62
     7
100
AcDbVertex
100
AcDb2dVertex
 10
71.5416592647756
 20
49.27354021047227
 30
0.0
  0
SEQEND
  5
4CE
330
4CB
100
AcDbEntity
  8
DIBUJOS
 62
     7
  0
POLYLINE
  5
4CF
330
1F
100
AcDbEntity
  8
DIBUJOS
 62
     7
100
AcDb2dPolyline
 66
     1
 10
0.0
 20
0.0
 30
0.0
  0
VERTEX
  5
4D0
330
4CF
100
AcDbEntity
  8
DIBUJOS
 62
     7
100
AcDbVertex
100
AcDb2dVertex
 10
71.54726737212357
 20
49.26793210312398
 30
0.0
  0
VERTEX
  5
4D1
330
4CF
100
AcDbEntity
  8
DIBUJOS
 62
     7
100
AcDbVertex
100
AcDb2dVertex
 10
71.5416592647756
 20
49.26793210312398
 30
0.0
  0
SEQEND
  5
4D2
330
4CF
100
AcDbEntity
  8
DIBUJOS
 62
     7
  0
POLYLINE
  5
4D3
330
1F
100
AcDbEntity
  8
DIBUJOS
 62
     7
100
AcDb2dPolyline
 66
     1
 10
0.0
 20
0.0
 30
0.0
  0
VERTEX
  5
4D4
330
4D3
100
AcDbEntity
  8
DIBUJOS
 62
     7
100
AcDbVertex
100
AcDb2dVertex
 10
71.54726737212357
 20
49.26793210312398
 30
0.0
  0
VERTEX
  5
4D5
330
4D3
100
AcDbEntity
  8
DIBUJOS
 62
     7
100
AcDbVertex
100
AcDb2dVertex
 10
71.55287547947154
 20
49.27354021047227
 30
0.0
  0
SEQEND
  5
4D6
330
4D3
100
AcDbEntity
  8
DIBUJOS
 62
     7
  0
POLYLINE
  5
4D7
330
1F
100
AcDbEntity
  8
DIBUJOS
 62
     7
100
AcDb2dPolyline
 66
     1
 10
0.0
 20
0.0
 30
0.0
  0
VERTEX
  5
4D8
330
4D7
100
AcDbEntity
  8
DIBUJOS
 62
     7
100
AcDbVertex
100
AcDb2dVertex
 10
71.5416592647756
 20
49.2623270141329
 30
0.0
  0
VERTEX
  5
4D9
330
4D7
100
AcDbEntity
  8
DIBUJOS
 62
     7
100
AcDbVertex
100
AcDb2dVertex
 10
71.5416592647756
 20
49.26793210312398
 30
0.0
  0
SEQEND
  5
4DA
330
4D7
100
AcDbEntity
  8
DIBUJOS
 62
     7
  0
POLYLINE
  5
4DB
330
1F
100
AcDbEntity
  8
DIBUJOS
 62
     7
100
AcDb2dPolyline
 66
     1
 10
0.0
 20
0.0
 30
0.0
  0
VERTEX
  5
4DC
330
4DB
100
AcDbEntity
  8
DIBUJOS
 62
     7
100
AcDbVertex
100
AcDb2dVertex
 10
71.49680346105966
 20
45.96835321232619
 30
0.0
  0
VERTEX
  5
4DD
330
4DB
100
AcDbEntity
  8
DIBUJOS
 62
     7
100
AcDbVertex
100
AcDb2dVertex
 10
71.53212729329736
 20
46.06872263840415
 30
0.0
  0
VERTEX
  5
4DE
330
4DB
100
AcDbEntity
  8
DIBUJOS
 62
     7
100
AcDbVertex
100
AcDb2dVertex
 10
71.5416592647756
 20
46.63000725528659
 30
0.0
  0
VERTEX
  5
4DF
330
4DB
100
AcDbEntity
  8
DIBUJOS
 62
     7
100
AcDbVertex
100
AcDb2dVertex
 10
71.53605417578356
 20
46.63561536263519
 30
0.0
  0
VERTEX
  5
4E0
330
4DB
100
AcDbEntity
  8
DIBUJOS
 62
     7
100
AcDbVertex
100
AcDb2dVertex
 10
71.54053945431995
 20
49.25728028614851
 30
0.0
  0
VERTEX
  5
4E1
330
4DB
100
AcDbEntity
  8
DIBUJOS
 62
     7
100
AcDbVertex
100
AcDb2dVertex
 10
71.5416592647756
 20
49.26232697909068
 30
0.0
  0
SEQEND
  5
4E2
330
4DB
100
AcDbEntity
  8
DIBUJOS
 62
     7
  0
POLYLINE
  5
4E3
330
1F
100
AcDbEntity
  8
DIBUJOS
 62
     7
100
AcDb2dPolyline
 66
     1
 10
0.0
 20
0.0
 30
0.0
  0
VERTEX
  5
4E4
330
4E3
100
AcDbEntity
  8
DIBUJOS
 62
     7
100
AcDbVertex
100
AcDb2dVertex
 10
71.49680346105966
 20
45.96274510497791
 30
0.0
  0
VERTEX
  5
4E5
330
4E3
100
AcDbEntity
  8
DIBUJOS
 62
     7
100
AcDbVertex
100
AcDb2dVertex
 10
71.49119535371169
 20
45.96274510497791
 30
0.0
  0
SEQEND
  5
4E6
330
4E3
100
AcDbEntity
  8
DIBUJOS
 62
     7
  0
POLYLINE
  5
4E7
330
1F
100
AcDbEntity
  8
DIBUJOS
 62
     7
100
AcDb2dPolyline
 66
     1
 10
0.0
 20
0.0
 30
0.0
  0
VERTEX
  5
4E8
330
4E7
100
AcDbEntity
  8
DIBUJOS
 62
     7
100
AcDbVertex
100
AcDb2dVertex
 10
71.49680346105966
 20
45.96274510497791
 30
0.0
  0
VERTEX
  5
4E9
330
4E7
100
AcDbEntity
  8
DIBUJOS
 62
     7
100
AcDbVertex
100
AcDb2dVertex
 10
71.49680346105966
 20
45.96835321232619
 30
0.0
  0
SEQEND
  5
4EA
330
4E7
100
AcDbEntity
  8
DIBUJOS
 62
     7
  0
POLYLINE
  5
4EB
330
1F
100
AcDbEntity
  8
DIBUJOS
 62
     7
100
AcDb2dPolyline
 66
     1
 10
0.0
 20
0.0
 30
0.0
  0
VERTEX
  5
4EC
330
4EB
100
AcDbEntity
  8
DIBUJOS
 62
     7
100
AcDbVertex
100
AcDb2dVertex
 10
71.49680346105966
 20
45.95714001598682
 30
0.0
  0
VERTEX
  5
4ED
330
4EB
100
AcDbEntity
  8
DIBUJOS
 62
     7
100
AcDbVertex
100
AcDb2dVertex
 10
71.49680346105966
 20
45.96274510497791
 30
0.0
  0
SEQEND
  5
4EE
330
4EB
100
AcDbEntity
  8
DIBUJOS
 62
     7
  0
POLYLINE
  5
4EF
330
1F
100
AcDbEntity
  8
DIBUJOS
 62
     7
100
AcDb2dPolyline
 66
     1
 10
0.0
 20
0.0
 30
0.0
  0
VERTEX
  5
4F0
330
4EF
100
AcDbEntity
  8
DIBUJOS
 62
     7
100
AcDbVertex
100
AcDb2dVertex
 10
71.41830203161184
 20
45.93471060495057
 30
0.0
  0
VERTEX
  5
4F1
330
4EF
100
AcDbEntity
  8
DIBUJOS
 62
     7
100
AcDbVertex
100
AcDb2dVertex
 10
71.49119535371169
 20
45.96274510497791
 30
0.0
  0
SEQEND
  5
4F2
330
4EF
100
AcDbEntity
  8
DIBUJOS
 62
     7
  0
POLYLINE
  5
4F3
330
1F
100
AcDbEntity
  8
DIBUJOS
 62
     7
100
AcDb2dPolyline
 66
     1
 10
0.0
 20
0.0
 30
0.0
  0
VERTEX
  5
4F4
330
4F3
100
AcDbEntity
  8
DIBUJOS
 62
     7
100
AcDbVertex
100
AcDb2dVertex
 10
71.5416592647756
 20
45.93471060495057
 30
0.0
  0
VERTEX
  5
4F5
330
4F3
100
AcDbEntity
  8
DIBUJOS
 62
     7
100
AcDbVertex
100
AcDb2dVertex
 10
71.49680346105966
 20
45.95714001598682
 30
0.0
  0
SEQEND
  5
4F6
330
4F3
100
AcDbEntity
  8
DIBUJOS
 62
     7
  0
POLYLINE
  5
4F7
330
1F
100
AcDbEntity
  8
DIBUJOS
 62
     7
100
AcDb2dPolyline
 66
     1
 10
0.0
 20
0.0
 30
0.0
  0
VERTEX
  5
4F8
330
4F7
100
AcDbEntity
  8
DIBUJOS
 62
     7
100
AcDbVertex
100
AcDb2dVertex
 10
90.78886208793183
 20
45.93471060495057
 30
0.0
  0
VERTEX
  5
4F9
330
4F7
100
AcDbEntity
  8
DIBUJOS
 62
     7
100
AcDbVertex
100
AcDb2dVertex
 10
71.6538063199569
 20
45.94592380129026
 30
0.0
  0
VERTEX
  5
4FA
330
4F7
100
AcDbEntity
  8
DIBUJOS
 62
     7
100
AcDbVertex
100
AcDb2dVertex
 10
71.64202869085325
 20
45.94143852275419
 30
0.0
  0
VERTEX
  5
4FB
330
4F7
100
AcDbEntity
  8
DIBUJOS
 62
     7
100
AcDbVertex
100
AcDb2dVertex
 10
71.63137690891999
 20
45.93471060495057
 30
0.0
  0
SEQEND
  5
4FC
330
4F7
100
AcDbEntity
  8
DIBUJOS
 62
     7
  0
POLYLINE
  5
4FD
330
1F
100
AcDbEntity
  8
DIBUJOS
 62
     7
100
AcDb2dPolyline
 66
     1
 10
0.0
 20
0.0
 30
0.0
  0
VERTEX
  5
4FE
330
4FD
100
AcDbEntity
  8
DIBUJOS
 62
     7
100
AcDbVertex
100
AcDb2dVertex
 10
90.84493405974801
 20
45.93471060495057
 30
0.0
  0
VERTEX
  5
4FF
330
4FD
100
AcDbEntity
  8
DIBUJOS
 62
     7
100
AcDbVertex
100
AcDb2dVertex
 10
90.8393259523994
 20
45.94031569394165
 30
0.0
  0
VERTEX
  5
500
330
4FD
100
AcDbEntity
  8
DIBUJOS
 62
     7
100
AcDbVertex
100
AcDb2dVertex
 10
90.81689654136348
 20
45.94031569394165
 30
0.0
  0
VERTEX
  5
501
330
4FD
100
AcDbEntity
  8
DIBUJOS
 62
     7
100
AcDbVertex
100
AcDb2dVertex
 10
90.81129145237271
 20
45.93471060495057
 30
0.0
  0
SEQEND
  5
502
330
4FD
100
AcDbEntity
  8
DIBUJOS
 62
     7
  0
POLYLINE
  5
503
330
1F
100
AcDbEntity
  8
DIBUJOS
 62
     7
100
AcDb2dPolyline
 66
     1
 10
0.0
 20
0.0
 30
0.0
  0
VERTEX
  5
504
330
503
100
AcDbEntity
  8
DIBUJOS
 62
     7
100
AcDbVertex
100
AcDb2dVertex
 10
80.94261320236733
 20
45.93471060495057
 30
0.0
  0
VERTEX
  5
505
330
503
100
AcDbEntity
  8
DIBUJOS
 62
     7
100
AcDbVertex
100
AcDb2dVertex
 10
80.94261320236733
 20
46.84308213259474
 30
0.0
  0
SEQEND
  5
506
330
503
100
AcDbEntity
  8
DIBUJOS
 62
     7
  0
POLYLINE
  5
507
330
1F
100
AcDbEntity
  8
DIBUJOS
 62
     7
100
AcDb2dPolyline
 66
     1
 10
0.0
 20
0.0
 30
0.0
  0
VERTEX
  5
508
330
507
100
AcDbEntity
  8
DIBUJOS
 62
     7
100
AcDbVertex
100
AcDb2dVertex
 10
71.41830203161184
 20
45.92910249760261
 30
0.0
  0
VERTEX
  5
509
330
507
100
AcDbEntity
  8
DIBUJOS
 62
     7
100
AcDbVertex
100
AcDb2dVertex
 10
71.41269392426388
 20
45.92910249760261
 30
0.0
  0
SEQEND
  5
50A
330
507
100
AcDbEntity
  8
DIBUJOS
 62
     7
  0
POLYLINE
  5
50B
330
1F
100
AcDbEntity
  8
DIBUJOS
 62
     7
100
AcDb2dPolyline
 66
     1
 10
0.0
 20
0.0
 30
0.0
  0
VERTEX
  5
50C
330
50B
100
AcDbEntity
  8
DIBUJOS
 62
     7
100
AcDbVertex
100
AcDb2dVertex
 10
71.41830203161184
 20
45.92910249760261
 30
0.0
  0
VERTEX
  5
50D
330
50B
100
AcDbEntity
  8
DIBUJOS
 62
     7
100
AcDbVertex
100
AcDb2dVertex
 10
71.41830203161184
 20
45.93471060495057
 30
0.0
  0
SEQEND
  5
50E
330
50B
100
AcDbEntity
  8
DIBUJOS
 62
     7
  0
POLYLINE
  5
50F
330
1F
100
AcDbEntity
  8
DIBUJOS
 62
     7
100
AcDb2dPolyline
 66
     1
 10
0.0
 20
0.0
 30
0.0
  0
VERTEX
  5
510
330
50F
100
AcDbEntity
  8
DIBUJOS
 62
     7
100
AcDbVertex
100
AcDb2dVertex
 10
71.5416592647756
 20
45.92910249760261
 30
0.0
  0
VERTEX
  5
511
330
50F
100
AcDbEntity
  8
DIBUJOS
 62
     7
100
AcDbVertex
100
AcDb2dVertex
 10
71.5416592647756
 20
45.93471060495057
 30
0.0
  0
SEQEND
  5
512
330
50F
100
AcDbEntity
  8
DIBUJOS
 62
     7
  0
POLYLINE
  5
513
330
1F
100
AcDbEntity
  8
DIBUJOS
 62
     7
100
AcDb2dPolyline
 66
     1
 10
0.0
 20
0.0
 30
0.0
  0
VERTEX
  5
514
330
513
100
AcDbEntity
  8
DIBUJOS
 62
     7
100
AcDbVertex
100
AcDb2dVertex
 10
71.54726737212357
 20
45.92910249760261
 30
0.0
  0
VERTEX
  5
515
330
513
100
AcDbEntity
  8
DIBUJOS
 62
     7
100
AcDbVertex
100
AcDb2dVertex
 10
71.5416592647756
 20
45.92910249760261
 30
0.0
  0
SEQEND
  5
516
330
513
100
AcDbEntity
  8
DIBUJOS
 62
     7
  0
POLYLINE
  5
517
330
1F
100
AcDbEntity
  8
DIBUJOS
 62
     7
100
AcDb2dPolyline
 66
     1
 10
0.0
 20
0.0
 30
0.0
  0
VERTEX
  5
518
330
517
100
AcDbEntity
  8
DIBUJOS
 62
     7
100
AcDbVertex
100
AcDb2dVertex
 10
71.54726737212357
 20
45.92910249760261
 30
0.0
  0
VERTEX
  5
519
330
517
100
AcDbEntity
  8
DIBUJOS
 62
     7
100
AcDbVertex
100
AcDb2dVertex
 10
71.63137690891999
 20
45.93471060495057
 30
0.0
  0
SEQEND
  5
51A
330
517
100
AcDbEntity
  8
DIBUJOS
 62
     7
  0
POLYLINE
  5
51B
330
1F
100
AcDbEntity
  8
DIBUJOS
 62
     7
100
AcDb2dPolyline
 66
     1
 10
0.0
 20
0.0
 30
0.0
  0
VERTEX
  5
51C
330
51B
100
AcDbEntity
  8
DIBUJOS
 62
     7
100
AcDbVertex
100
AcDb2dVertex
 10
90.78886208793183
 20
45.92910249760261
 30
0.0
  0
VERTEX
  5
51D
330
51B
100
AcDbEntity
  8
DIBUJOS
 62
     7
100
AcDbVertex
100
AcDb2dVertex
 10
71.6650195162953
 20
45.92910249760261
 30
0.0
  0
SEQEND
  5
51E
330
51B
100
AcDbEntity
  8
DIBUJOS
 62
     7
  0
POLYLINE
  5
51F
330
1F
100
AcDbEntity
  8
DIBUJOS
 62
     7
100
AcDb2dPolyline
 66
     1
 10
0.0
 20
0.0
 30
0.0
  0
VERTEX
  5
520
330
51F
100
AcDbEntity
  8
DIBUJOS
 62
     7
100
AcDbVertex
100
AcDb2dVertex
 10
90.78886204133613
 20
45.92910249760261
 30
0.0
  0
VERTEX
  5
521
330
51F
100
AcDbEntity
  8
DIBUJOS
 62
     7
100
AcDbVertex
100
AcDb2dVertex
 10
90.78886204133613
 20
45.93471060495057
 30
0.0
  0
SEQEND
  5
522
330
51F
100
AcDbEntity
  8
DIBUJOS
 62
     7
  0
POLYLINE
  5
523
330
1F
100
AcDbEntity
  8
DIBUJOS
 62
     7
100
AcDb2dPolyline
 66
     1
 10
0.0
 20
0.0
 30
0.0
  0
VERTEX
  5
524
330
523
100
AcDbEntity
  8
DIBUJOS
 62
     7
100
AcDbVertex
100
AcDb2dVertex
 10
90.79447014868474
 20
45.92910249760261
 30
0.0
  0
VERTEX
  5
525
330
523
100
AcDbEntity
  8
DIBUJOS
 62
     7
100
AcDbVertex
100
AcDb2dVertex
 10
90.78886204133613
 20
45.92910249760261
 30
0.0
  0
SEQEND
  5
526
330
523
100
AcDbEntity
  8
DIBUJOS
 62
     7
  0
POLYLINE
  5
527
330
1F
100
AcDbEntity
  8
DIBUJOS
 62
     7
100
AcDb2dPolyline
 66
     1
 10
0.0
 20
0.0
 30
0.0
  0
VERTEX
  5
528
330
527
100
AcDbEntity
  8
DIBUJOS
 62
     7
100
AcDbVertex
100
AcDb2dVertex
 10
90.79447014868474
 20
45.92910249760261
 30
0.0
  0
VERTEX
  5
529
330
527
100
AcDbEntity
  8
DIBUJOS
 62
     7
100
AcDbVertex
100
AcDb2dVertex
 10
90.81129145237271
 20
45.93471060495057
 30
0.0
  0
SEQEND
  5
52A
330
527
100
AcDbEntity
  8
DIBUJOS
 62
     7
  0
POLYLINE
  5
52B
330
1F
100
AcDbEntity
  8
DIBUJOS
 62
     7
100
AcDb2dPolyline
 66
     1
 10
0.0
 20
0.0
 30
0.0
  0
VERTEX
  5
52C
330
52B
100
AcDbEntity
  8
DIBUJOS
 62
     7
100
AcDbVertex
100
AcDb2dVertex
 10
90.84493405974801
 20
45.92910249760261
 30
0.0
  0
VERTEX
  5
52D
330
52B
100
AcDbEntity
  8
DIBUJOS
 62
     7
100
AcDbVertex
100
AcDb2dVertex
 10
90.8393259523994
 20
45.92910249760261
 30
0.0
  0
SEQEND
  5
52E
330
52B
100
AcDbEntity
  8
DIBUJOS
 62
     7
  0
POLYLINE
  5
52F
330
1F
100
AcDbEntity
  8
DIBUJOS
 62
     7
100
AcDb2dPolyline
 66
     1
 10
0.0
 20
0.0
 30
0.0
  0
VERTEX
  5
530
330
52F
100
AcDbEntity
  8
DIBUJOS
 62
     7
100
AcDbVertex
100
AcDb2dVertex
 10
90.84493405974801
 20
45.92910249760261
 30
0.0
  0
VERTEX
  5
531
330
52F
100
AcDbEntity
  8
DIBUJOS
 62
     7
100
AcDbVertex
100
AcDb2dVertex
 10
90.84493405974801
 20
45.93471060495057
 30
0.0
  0
SEQEND
  5
532
330
52F
100
AcDbEntity
  8
DIBUJOS
 62
     7
  0
POLYLINE
  5
533
330
1F
100
AcDbEntity
  8
DIBUJOS
 62
     7
100
AcDb2dPolyline
 66
     1
 10
0.0
 20
0.0
 30
0.0
  0
VERTEX
  5
534
330
533
100
AcDbEntity
  8
DIBUJOS
 62
     7
100
AcDbVertex
100
AcDb2dVertex
 10
90.85054216709662
 20
45.92910249760261
 30
0.0
  0
VERTEX
  5
535
330
533
100
AcDbEntity
  8
DIBUJOS
 62
     7
100
AcDbVertex
100
AcDb2dVertex
 10
90.84493405974801
 20
45.92910249760261
 30
0.0
  0
SEQEND
  5
536
330
533
100
AcDbEntity
  8
DIBUJOS
 62
     7
  0
POLYLINE
  5
537
330
1F
100
AcDbEntity
  8
DIBUJOS
 62
     7
100
AcDb2dPolyline
 66
     1
 10
0.0
 20
0.0
 30
0.0
  0
VERTEX
  5
538
330
537
100
AcDbEntity
  8
DIBUJOS
 62
     7
100
AcDbVertex
100
AcDb2dVertex
 10
69.43894499172174
 20
45.923494390254
 30
0.0
  0
VERTEX
  5
539
330
537
100
AcDbEntity
  8
DIBUJOS
 62
     7
100
AcDbVertex
100
AcDb2dVertex
 10
69.30997663285281
 20
45.96274510497791
 30
0.0
  0
VERTEX
  5
53A
330
537
100
AcDbEntity
  8
DIBUJOS
 62
     7
100
AcDbVertex
100
AcDb2dVertex
 10
69.28026090796371
 20
46.02947192368025
 30
0.0
  0
VERTEX
  5
53B
330
537
100
AcDbEntity
  8
DIBUJOS
 62
     7
100
AcDbVertex
100
AcDb2dVertex
 10
69.24717669663731
 20
46.10797335312839
 30
0.0
  0
VERTEX
  5
53C
330
537
100
AcDbEntity
  8
DIBUJOS
 62
     7
100
AcDbVertex
100
AcDb2dVertex
 10
69.23420379815335
 20
46.43943422958311
 30
0.0
  0
VERTEX
  5
53D
330
537
100
AcDbEntity
  8
DIBUJOS
 62
     7
100
AcDbVertex
100
AcDb2dVertex
 10
69.22314453802213
 20
46.854222888366
 30
0.0
  0
VERTEX
  5
53E
330
537
100
AcDbEntity
  8
DIBUJOS
 62
     7
100
AcDbVertex
100
AcDb2dVertex
 10
69.2202620070653
 20
48.14396382583679
 30
0.0
  0
VERTEX
  5
53F
330
537
100
AcDbEntity
  8
DIBUJOS
 62
     7
100
AcDbVertex
100
AcDb2dVertex
 10
69.22862285601829
 20
48.46913444625631
 30
0.0
  0
VERTEX
  5
540
330
537
100
AcDbEntity
  8
DIBUJOS
 62
     7
100
AcDbVertex
100
AcDb2dVertex
 10
69.24631948324276
 20
49.09768918610493
 30
0.0
  0
VERTEX
  5
541
330
537
100
AcDbEntity
  8
DIBUJOS
 62
     7
100
AcDbVertex
100
AcDb2dVertex
 10
69.27521421502185
 20
49.17625701940772
 30
0.0
  0
VERTEX
  5
542
330
537
100
AcDbEntity
  8
DIBUJOS
 62
     7
100
AcDbVertex
100
AcDb2dVertex
 10
69.29876343651344
 20
49.23737573076178
 30
0.0
  0
VERTEX
  5
543
330
537
100
AcDbEntity
  8
DIBUJOS
 62
     7
100
AcDbVertex
100
AcDb2dVertex
 10
69.31558474020109
 20
49.25419703444943
 30
0.0
  0
VERTEX
  5
544
330
537
100
AcDbEntity
  8
DIBUJOS
 62
     7
100
AcDbVertex
100
AcDb2dVertex
 10
69.3984778791174
 20
49.27801488971622
 30
0.0
  0
VERTEX
  5
545
330
537
100
AcDbEntity
  8
DIBUJOS
 62
     7
100
AcDbVertex
100
AcDb2dVertex
 10
69.43894499172174
 20
49.3158771602096
 30
0.0
  0
VERTEX
  5
546
330
537
100
AcDbEntity
  8
DIBUJOS
 62
     7
100
AcDbVertex
100
AcDb2dVertex
 10
69.71392938992383
 20
49.33577718806083
 30
0.0
  0
VERTEX
  5
547
330
537
100
AcDbEntity
  8
DIBUJOS
 62
     7
100
AcDbVertex
100
AcDb2dVertex
 10
70.33595542353184
 20
49.36898213366837
 30
0.0
  0
VERTEX
  5
548
330
537
100
AcDbEntity
  8
DIBUJOS
 62
     7
100
AcDbVertex
100
AcDb2dVertex
 10
71.026006169363
 20
49.33525199393894
 30
0.0
  0
VERTEX
  5
549
330
537
100
AcDbEntity
  8
DIBUJOS
 62
     7
100
AcDbVertex
100
AcDb2dVertex
 10
71.1657893014443
 20
49.32450060622369
 30
0.0
  0
VERTEX
  5
54A
330
537
100
AcDbEntity
  8
DIBUJOS
 62
     7
100
AcDbVertex
100
AcDb2dVertex
 10
71.31262633388812
 20
49.30595582067598
 30
0.0
  0
VERTEX
  5
54B
330
537
100
AcDbEntity
  8
DIBUJOS
 62
     7
100
AcDbVertex
100
AcDb2dVertex
 10
71.35202494810609
 20
49.27797263271791
 30
0.0
  0
VERTEX
  5
54C
330
537
100
AcDbEntity
  8
DIBUJOS
 62
     7
100
AcDbVertex
100
AcDb2dVertex
 10
71.40751744196928
 20
49.2619602487121
 30
0.0
  0
VERTEX
  5
54D
330
537
100
AcDbEntity
  8
DIBUJOS
 62
     7
100
AcDbVertex
100
AcDb2dVertex
 10
71.45194463898778
 20
49.25419703444943
 30
0.0
  0
VERTEX
  5
54E
330
537
100
AcDbEntity
  8
DIBUJOS
 62
     7
100
AcDbVertex
100
AcDb2dVertex
 10
71.46876594267576
 20
49.23737573076178
 30
0.0
  0
VERTEX
  5
54F
330
537
100
AcDbEntity
  8
DIBUJOS
 62
     7
100
AcDbVertex
100
AcDb2dVertex
 10
71.48446743590743
 20
49.20317170897972
 30
0.0
  0
VERTEX
  5
550
330
537
100
AcDbEntity
  8
DIBUJOS
 62
     7
100
AcDbVertex
100
AcDb2dVertex
 10
71.49680346105966
 20
49.18130371234957
 30
0.0
  0
SEQEND
  5
551
330
537
100
AcDbEntity
  8
DIBUJOS
 62
     7
  0
POLYLINE
  5
552
330
1F
100
AcDbEntity
  8
DIBUJOS
 62
     7
100
AcDb2dPolyline
 66
     1
 10
0.0
 20
0.0
 30
0.0
  0
VERTEX
  5
553
330
552
100
AcDbEntity
  8
DIBUJOS
 62
     7
100
AcDbVertex
100
AcDb2dVertex
 10
69.44455309907003
 20
45.923494390254
 30
0.0
  0
VERTEX
  5
554
330
552
100
AcDbEntity
  8
DIBUJOS
 62
     7
100
AcDbVertex
100
AcDb2dVertex
 10
69.43894499172174
 20
45.923494390254
 30
0.0
  0
SEQEND
  5
555
330
552
100
AcDbEntity
  8
DIBUJOS
 62
     7
  0
POLYLINE
  5
556
330
1F
100
AcDbEntity
  8
DIBUJOS
 62
     7
100
AcDb2dPolyline
 66
     1
 10
0.0
 20
0.0
 30
0.0
  0
VERTEX
  5
557
330
556
100
AcDbEntity
  8
DIBUJOS
 62
     7
100
AcDbVertex
100
AcDb2dVertex
 10
69.44455309907003
 20
45.923494390254
 30
0.0
  0
VERTEX
  5
558
330
556
100
AcDbEntity
  8
DIBUJOS
 62
     7
100
AcDbVertex
100
AcDb2dVertex
 10
71.41269392426388
 20
45.92910249760261
 30
0.0
  0
SEQEND
  5
559
330
556
100
AcDbEntity
  8
DIBUJOS
 62
     7
  0
POLYLINE
  5
55A
330
1F
100
AcDbEntity
  8
DIBUJOS
 62
     7
100
AcDb2dPolyline
 66
     1
 10
0.0
 20
0.0
 30
0.0
  0
VERTEX
  5
55B
330
55A
100
AcDbEntity
  8
DIBUJOS
 62
     7
100
AcDbVertex
100
AcDb2dVertex
 10
71.41830203161184
 20
45.92910249760261
 30
0.0
  0
VERTEX
  5
55C
330
55A
100
AcDbEntity
  8
DIBUJOS
 62
     7
100
AcDbVertex
100
AcDb2dVertex
 10
71.42390712060325
 20
45.923494390254
 30
0.0
  0
VERTEX
  5
55D
330
55A
100
AcDbEntity
  8
DIBUJOS
 62
     7
100
AcDbVertex
100
AcDb2dVertex
 10
71.53605417578356
 20
45.923494390254
 30
0.0
  0
VERTEX
  5
55E
330
55A
100
AcDbEntity
  8
DIBUJOS
 62
     7
100
AcDbVertex
100
AcDb2dVertex
 10
71.5416592647756
 20
45.92910249760261
 30
0.0
  0
SEQEND
  5
55F
330
55A
100
AcDbEntity
  8
DIBUJOS
 62
     7
  0
POLYLINE
  5
560
330
1F
100
AcDbEntity
  8
DIBUJOS
 62
     7
100
AcDb2dPolyline
 66
     1
 10
0.0
 20
0.0
 30
0.0
  0
VERTEX
  5
561
330
560
100
AcDbEntity
  8
DIBUJOS
 62
     7
100
AcDbVertex
100
AcDb2dVertex
 10
71.63137690891999
 20
45.93471060495057
 30
0.0
  0
VERTEX
  5
562
330
560
100
AcDbEntity
  8
DIBUJOS
 62
     7
100
AcDbVertex
100
AcDb2dVertex
 10
71.64259010525936
 20
45.923494390254
 30
0.0
  0
VERTEX
  5
563
330
560
100
AcDbEntity
  8
DIBUJOS
 62
     7
100
AcDbVertex
100
AcDb2dVertex
 10
71.6650195162953
 20
45.92910249760261
 30
0.0
  0
SEQEND
  5
564
330
560
100
AcDbEntity
  8
DIBUJOS
 62
     7
  0
POLYLINE
  5
565
330
1F
100
AcDbEntity
  8
DIBUJOS
 62
     7
100
AcDb2dPolyline
 66
     1
 10
0.0
 20
0.0
 30
0.0
  0
VERTEX
  5
566
330
565
100
AcDbEntity
  8
DIBUJOS
 62
     7
100
AcDbVertex
100
AcDb2dVertex
 10
90.81129145237271
 20
45.93471060495057
 30
0.0
  0
VERTEX
  5
567
330
565
100
AcDbEntity
  8
DIBUJOS
 62
     7
100
AcDbVertex
100
AcDb2dVertex
 10
90.82250464871208
 20
45.923494390254
 30
0.0
  0
VERTEX
  5
568
330
565
100
AcDbEntity
  8
DIBUJOS
 62
     7
100
AcDbVertex
100
AcDb2dVertex
 10
90.8393259523994
 20
45.92910249760261
 30
0.0
  0
SEQEND
  5
569
330
565
100
AcDbEntity
  8
DIBUJOS
 62
     7
  0
POLYLINE
  5
56A
330
1F
100
AcDbEntity
  8
DIBUJOS
 62
     7
100
AcDb2dPolyline
 66
     1
 10
0.0
 20
0.0
 30
0.0
  0
VERTEX
  5
56B
330
56A
100
AcDbEntity
  8
DIBUJOS
 62
     7
100
AcDbVertex
100
AcDb2dVertex
 10
92.76541658332623
 20
45.923494390254
 30
0.0
  0
VERTEX
  5
56C
330
56A
100
AcDbEntity
  8
DIBUJOS
 62
     7
100
AcDbVertex
100
AcDb2dVertex
 10
90.81970215081239
 20
45.92910249760261
 30
0.0
  0
SEQEND
  5
56D
330
56A
100
AcDbEntity
  8
DIBUJOS
 62
     7
  0
POLYLINE
  5
56E
330
1F
100
AcDbEntity
  8
DIBUJOS
 62
     7
100
AcDb2dPolyline
 66
     1
 10
0.0
 20
0.0
 30
0.0
  0
VERTEX
  5
56F
330
56E
100
AcDbEntity
  8
DIBUJOS
 62
     7
100
AcDbVertex
100
AcDb2dVertex
 10
92.77102469067484
 20
45.923494390254
 30
0.0
  0
VERTEX
  5
570
330
56E
100
AcDbEntity
  8
DIBUJOS
 62
     7
100
AcDbVertex
100
AcDb2dVertex
 10
92.92241944222314
 20
45.96274510497791
 30
0.0
  0
VERTEX
  5
571
330
56E
100
AcDbEntity
  8
DIBUJOS
 62
     7
100
AcDbVertex
100
AcDb2dVertex
 10
92.94092197077224
 20
46.00143742365291
 30
0.0
  0
VERTEX
  5
572
330
56E
100
AcDbEntity
  8
DIBUJOS
 62
     7
100
AcDbVertex
100
AcDb2dVertex
 10
92.98017268549678
 20
46.0967601567887
 30
0.0
  0
VERTEX
  5
573
330
56E
100
AcDbEntity
  8
DIBUJOS
 62
     7
100
AcDbVertex
100
AcDb2dVertex
 10
93.01213406801097
 20
46.8206527215588
 30
0.0
  0
VERTEX
  5
574
330
56E
100
AcDbEntity
  8
DIBUJOS
 62
     7
100
AcDbVertex
100
AcDb2dVertex
 10
93.01213406801097
 20
48.18321454056071
 30
0.0
  0
VERTEX
  5
575
330
56E
100
AcDbEntity
  8
DIBUJOS
 62
     7
100
AcDbVertex
100
AcDb2dVertex
 10
92.99818322185163
 20
48.78873317961176
 30
0.0
  0
VERTEX
  5
576
330
56E
100
AcDbEntity
  8
DIBUJOS
 62
     7
100
AcDbVertex
100
AcDb2dVertex
 10
92.97961428944724
 20
49.12018500099584
 30
0.0
  0
VERTEX
  5
577
330
56E
100
AcDbEntity
  8
DIBUJOS
 62
     7
100
AcDbVertex
100
AcDb2dVertex
 10
92.94092197077224
 20
49.21550773413163
 30
0.0
  0
VERTEX
  5
578
330
56E
100
AcDbEntity
  8
DIBUJOS
 62
     7
100
AcDbVertex
100
AcDb2dVertex
 10
92.9336326385625
 20
49.23737573076178
 30
0.0
  0
VERTEX
  5
579
330
56E
100
AcDbEntity
  8
DIBUJOS
 62
     7
100
AcDbVertex
100
AcDb2dVertex
 10
92.91681133487454
 20
49.25419703444943
 30
0.0
  0
VERTEX
  5
57A
330
56E
100
AcDbEntity
  8
DIBUJOS
 62
     7
100
AcDbVertex
100
AcDb2dVertex
 10
92.84042275534247
 20
49.27373787781477
 30
0.0
  0
VERTEX
  5
57B
330
56E
100
AcDbEntity
  8
DIBUJOS
 62
     7
100
AcDbVertex
100
AcDb2dVertex
 10
92.79401249776032
 20
49.31139188167385
 30
0.0
  0
VERTEX
  5
57C
330
56E
100
AcDbEntity
  8
DIBUJOS
 62
     7
100
AcDbVertex
100
AcDb2dVertex
 10
92.367174557743
 20
49.34685757669153
 30
0.0
  0
VERTEX
  5
57D
330
56E
100
AcDbEntity
  8
DIBUJOS
 62
     7
100
AcDbVertex
100
AcDb2dVertex
 10
92.25528406290906
 20
49.35218497683675
 30
0.0
  0
VERTEX
  5
57E
330
56E
100
AcDbEntity
  8
DIBUJOS
 62
     7
100
AcDbVertex
100
AcDb2dVertex
 10
91.9860103961941
 20
49.36634107127351
 30
0.0
  0
VERTEX
  5
57F
330
56E
100
AcDbEntity
  8
DIBUJOS
 62
     7
100
AcDbVertex
100
AcDb2dVertex
 10
91.76171930418938
 20
49.36634107127351
 30
0.0
  0
VERTEX
  5
580
330
56E
100
AcDbEntity
  8
DIBUJOS
 62
     7
100
AcDbVertex
100
AcDb2dVertex
 10
91.28490642694584
 20
49.34087821142917
 30
0.0
  0
VERTEX
  5
581
330
56E
100
AcDbEntity
  8
DIBUJOS
 62
     7
100
AcDbVertex
100
AcDb2dVertex
 10
91.06660677363165
 20
49.32450060622369
 30
0.0
  0
VERTEX
  5
582
330
56E
100
AcDbEntity
  8
DIBUJOS
 62
     7
100
AcDbVertex
100
AcDb2dVertex
 10
90.92164414089947
 20
49.3089228656294
 30
0.0
  0
VERTEX
  5
583
330
56E
100
AcDbEntity
  8
DIBUJOS
 62
     7
100
AcDbVertex
100
AcDb2dVertex
 10
90.88224552668088
 20
49.28093967767134
 30
0.0
  0
VERTEX
  5
584
330
56E
100
AcDbEntity
  8
DIBUJOS
 62
     7
100
AcDbVertex
100
AcDb2dVertex
 10
90.82574188321499
 20
49.26325512387473
 30
0.0
  0
VERTEX
  5
585
330
56E
100
AcDbEntity
  8
DIBUJOS
 62
     7
100
AcDbVertex
100
AcDb2dVertex
 10
90.77484634709644
 20
49.25419703444943
 30
0.0
  0
VERTEX
  5
586
330
56E
100
AcDbEntity
  8
DIBUJOS
 62
     7
100
AcDbVertex
100
AcDb2dVertex
 10
90.75112206089787
 20
49.21020146248555
 30
0.0
  0
VERTEX
  5
587
330
56E
100
AcDbEntity
  8
DIBUJOS
 62
     7
100
AcDbVertex
100
AcDb2dVertex
 10
90.73559563237254
 20
49.18691181969818
 30
0.0
  0
SEQEND
  5
588
330
56E
100
AcDbEntity
  8
DIBUJOS
 62
     7
  0
POLYLINE
  5
589
330
1F
100
AcDbEntity
  8
DIBUJOS
 62
     7
100
AcDb2dPolyline
 66
     1
 10
0.0
 20
0.0
 30
0.0
  0
VERTEX
  5
58A
330
589
100
AcDbEntity
  8
DIBUJOS
 62
     7
100
AcDbVertex
100
AcDb2dVertex
 10
69.43894499172174
 20
45.9178893012626
 30
0.0
  0
VERTEX
  5
58B
330
589
100
AcDbEntity
  8
DIBUJOS
 62
     7
100
AcDbVertex
100
AcDb2dVertex
 10
69.43894499172174
 20
45.923494390254
 30
0.0
  0
SEQEND
  5
58C
330
589
100
AcDbEntity
  8
DIBUJOS
 62
     7
  0
POLYLINE
  5
58D
330
1F
100
AcDbEntity
  8
DIBUJOS
 62
     7
100
AcDb2dPolyline
 66
     1
 10
0.0
 20
0.0
 30
0.0
  0
VERTEX
  5
58E
330
58D
100
AcDbEntity
  8
DIBUJOS
 62
     7
100
AcDbVertex
100
AcDb2dVertex
 10
69.66323306536925
 20
45.58145417243411
 30
0.0
  0
VERTEX
  5
58F
330
58D
100
AcDbEntity
  8
DIBUJOS
 62
     7
100
AcDbVertex
100
AcDb2dVertex
 10
69.66884117271786
 20
45.58706227978272
 30
0.0
  0
SEQEND
  5
590
330
58D
100
AcDbEntity
  8
DIBUJOS
 62
     7
  0
POLYLINE
  5
591
330
1F
100
AcDbEntity
  8
DIBUJOS
 62
     7
100
AcDb2dPolyline
 66
     1
 10
0.0
 20
0.0
 30
0.0
  0
VERTEX
  5
592
330
591
100
AcDbEntity
  8
DIBUJOS
 62
     7
100
AcDbVertex
100
AcDb2dVertex
 10
69.43894499172174
 20
45.9178893012626
 30
0.0
  0
VERTEX
  5
593
330
591
100
AcDbEntity
  8
DIBUJOS
 62
     7
100
AcDbVertex
100
AcDb2dVertex
 10
69.43333688437377
 20
44.9254052184648
 30
0.0
  0
VERTEX
  5
594
330
591
100
AcDbEntity
  8
DIBUJOS
 62
     7
100
AcDbVertex
100
AcDb2dVertex
 10
69.45015818806078
 20
43.88246024296062
 30
0.0
  0
VERTEX
  5
595
330
591
100
AcDbEntity
  8
DIBUJOS
 62
     7
100
AcDbVertex
100
AcDb2dVertex
 10
69.45865184472342
 20
43.69734138839728
 30
0.0
  0
VERTEX
  5
596
330
591
100
AcDbEntity
  8
DIBUJOS
 62
     7
100
AcDbVertex
100
AcDb2dVertex
 10
69.46697949174909
 20
43.42266486261148
 30
0.0
  0
VERTEX
  5
597
330
591
100
AcDbEntity
  8
DIBUJOS
 62
     7
100
AcDbVertex
100
AcDb2dVertex
 10
69.47258759909737
 20
43.4170567552632
 30
0.0
  0
VERTEX
  5
598
330
591
100
AcDbEntity
  8
DIBUJOS
 62
     7
100
AcDbVertex
100
AcDb2dVertex
 10
69.61276915430567
 20
43.4170567552632
 30
0.0
  0
VERTEX
  5
599
330
591
100
AcDbEntity
  8
DIBUJOS
 62
     7
100
AcDbVertex
100
AcDb2dVertex
 10
69.62398235064535
 20
43.42827296996009
 30
0.0
  0
VERTEX
  5
59A
330
591
100
AcDbEntity
  8
DIBUJOS
 62
     7
100
AcDbVertex
100
AcDb2dVertex
 10
69.626587192756
 20
43.50659933470061
 30
0.0
  0
VERTEX
  5
59B
330
591
100
AcDbEntity
  8
DIBUJOS
 62
     7
100
AcDbVertex
100
AcDb2dVertex
 10
69.65482392270388
 20
44.409540838061
 30
0.0
  0
VERTEX
  5
59C
330
591
100
AcDbEntity
  8
DIBUJOS
 62
     7
100
AcDbVertex
100
AcDb2dVertex
 10
69.66323306536925
 20
45.58145417243411
 30
0.0
  0
SEQEND
  5
59D
330
591
100
AcDbEntity
  8
DIBUJOS
 62
     7
  0
POLYLINE
  5
59E
330
1F
100
AcDbEntity
  8
DIBUJOS
 62
     7
100
AcDb2dPolyline
 66
     1
 10
0.0
 20
0.0
 30
0.0
  0
VERTEX
  5
59F
330
59E
100
AcDbEntity
  8
DIBUJOS
 62
     7
100
AcDbVertex
100
AcDb2dVertex
 10
69.66884117271786
 20
45.58706227978272
 30
0.0
  0
VERTEX
  5
5A0
330
59E
100
AcDbEntity
  8
DIBUJOS
 62
     7
100
AcDbVertex
100
AcDb2dVertex
 10
92.54112549132151
 20
45.58706227978272
 30
0.0
  0
VERTEX
  5
5A1
330
59E
100
AcDbEntity
  8
DIBUJOS
 62
     7
100
AcDbVertex
100
AcDb2dVertex
 10
92.55234170601871
 20
45.57584606508583
 30
0.0
  0
VERTEX
  5
5A2
330
59E
100
AcDbEntity
  8
DIBUJOS
 62
     7
100
AcDbVertex
100
AcDb2dVertex
 10
92.54673359867012
 20
45.53659535036192
 30
0.0
  0
VERTEX
  5
5A3
330
59E
100
AcDbEntity
  8
DIBUJOS
 62
     7
100
AcDbVertex
100
AcDb2dVertex
 10
92.54673359867012
 20
45.52538215402224
 30
0.0
  0
VERTEX
  5
5A4
330
59E
100
AcDbEntity
  8
DIBUJOS
 62
     7
100
AcDbVertex
100
AcDb2dVertex
 10
92.56086252789362
 20
44.15710960353318
 30
0.0
  0
VERTEX
  5
5A5
330
59E
100
AcDbEntity
  8
DIBUJOS
 62
     7
100
AcDbVertex
100
AcDb2dVertex
 10
92.58598431339466
 20
43.55163322148042
 30
0.0
  0
VERTEX
  5
5A6
330
59E
100
AcDbEntity
  8
DIBUJOS
 62
     7
100
AcDbVertex
100
AcDb2dVertex
 10
92.58037620604605
 20
43.54602511413214
 30
0.0
  0
VERTEX
  5
5A7
330
59E
100
AcDbEntity
  8
DIBUJOS
 62
     7
100
AcDbVertex
100
AcDb2dVertex
 10
92.58598431339466
 20
43.42827296996009
 30
0.0
  0
VERTEX
  5
5A8
330
59E
100
AcDbEntity
  8
DIBUJOS
 62
     7
100
AcDbVertex
100
AcDb2dVertex
 10
92.59720052809058
 20
43.4170567552632
 30
0.0
  0
VERTEX
  5
5A9
330
59E
100
AcDbEntity
  8
DIBUJOS
 62
     7
100
AcDbVertex
100
AcDb2dVertex
 10
92.73737906494233
 20
43.4170567552632
 30
0.0
  0
VERTEX
  5
5AA
330
59E
100
AcDbEntity
  8
DIBUJOS
 62
     7
100
AcDbVertex
100
AcDb2dVertex
 10
92.74298717229028
 20
43.42266486261148
 30
0.0
  0
VERTEX
  5
5AB
330
59E
100
AcDbEntity
  8
DIBUJOS
 62
     7
100
AcDbVertex
100
AcDb2dVertex
 10
92.74579122596427
 20
43.45630746998775
 30
0.0
  0
VERTEX
  5
5AC
330
59E
100
AcDbEntity
  8
DIBUJOS
 62
     7
100
AcDbVertex
100
AcDb2dVertex
 10
92.77662977966624
 20
44.77961857426542
 30
0.0
  0
VERTEX
  5
5AD
330
59E
100
AcDbEntity
  8
DIBUJOS
 62
     7
100
AcDbVertex
100
AcDb2dVertex
 10
92.77102469067484
 20
45.9178893012626
 30
0.0
  0
SEQEND
  5
5AE
330
59E
100
AcDbEntity
  8
DIBUJOS
 62
     7
  0
POLYLINE
  5
5AF
330
1F
100
AcDbEntity
  8
DIBUJOS
 62
     7
100
AcDb2dPolyline
 66
     1
 10
0.0
 20
0.0
 30
0.0
  0
VERTEX
  5
5B0
330
5AF
100
AcDbEntity
  8
DIBUJOS
 62
     7
100
AcDbVertex
100
AcDb2dVertex
 10
92.96167015694705
 20
35.43603837817064
 30
0.0
  0
VERTEX
  5
5B1
330
5AF
100
AcDbEntity
  8
DIBUJOS
 62
     7
100
AcDbVertex
100
AcDb2dVertex
 10
92.98970465697438
 20
35.46407438737658
 30
0.0
  0
VERTEX
  5
5B2
330
5AF
100
AcDbEntity
  8
DIBUJOS
 62
     7
100
AcDbVertex
100
AcDb2dVertex
 10
92.98970465697438
 20
35.48650379841251
 30
0.0
  0
VERTEX
  5
5B3
330
5AF
100
AcDbEntity
  8
DIBUJOS
 62
     7
100
AcDbVertex
100
AcDb2dVertex
 10
92.97849146063503
 20
35.49771850393049
 30
0.0
  0
VERTEX
  5
5B4
330
5AF
100
AcDbEntity
  8
DIBUJOS
 62
     7
100
AcDbVertex
100
AcDb2dVertex
 10
92.9392407459111
 20
35.49771850393049
 30
0.0
  0
VERTEX
  5
5B5
330
5AF
100
AcDbEntity
  8
DIBUJOS
 62
     7
100
AcDbVertex
100
AcDb2dVertex
 10
92.92353925267815
 20
35.52631441836457
 30
0.0
  0
VERTEX
  5
5B6
330
5AF
100
AcDbEntity
  8
DIBUJOS
 62
     7
100
AcDbVertex
100
AcDb2dVertex
 10
92.87756062015063
 20
35.57621993337894
 30
0.0
  0
VERTEX
  5
5B7
330
5AF
100
AcDbEntity
  8
DIBUJOS
 62
     7
100
AcDbVertex
100
AcDb2dVertex
 10
92.83887131983283
 20
35.59416255670052
 30
0.0
  0
VERTEX
  5
5B8
330
5AF
100
AcDbEntity
  8
DIBUJOS
 62
     7
100
AcDbVertex
100
AcDb2dVertex
 10
92.7876165992287
 20
35.61854937226644
 30
0.0
  0
VERTEX
  5
5B9
330
5AF
100
AcDbEntity
  8
DIBUJOS
 62
     7
100
AcDbVertex
100
AcDb2dVertex
 10
92.73200337108503
 20
35.62360512027927
 30
0.0
  0
VERTEX
  5
5BA
330
5AF
100
AcDbEntity
  8
DIBUJOS
 62
     7
100
AcDbVertex
100
AcDb2dVertex
 10
92.05879203908444
 20
35.66325274895188
 30
0.0
  0
VERTEX
  5
5BB
330
5AF
100
AcDbEntity
  8
DIBUJOS
 62
     7
100
AcDbVertex
100
AcDb2dVertex
 10
91.93005005699176
 20
35.66861787855961
 30
0.0
  0
VERTEX
  5
5BC
330
5AF
100
AcDbEntity
  8
DIBUJOS
 62
     7
100
AcDbVertex
100
AcDb2dVertex
 10
91.5598606415778
 20
35.66032796099676
 30
0.0
  0
VERTEX
  5
5BD
330
5AF
100
AcDbEntity
  8
DIBUJOS
 62
     7
100
AcDbVertex
100
AcDb2dVertex
 10
90.9320333257713
 20
35.61848749594694
 30
0.0
  0
VERTEX
  5
5BE
330
5AF
100
AcDbEntity
  8
DIBUJOS
 62
     7
100
AcDbVertex
100
AcDb2dVertex
 10
90.8539061725938
 20
35.58631181008469
 30
0.0
  0
VERTEX
  5
5BF
330
5AF
100
AcDbEntity
  8
DIBUJOS
 62
     7
100
AcDbVertex
100
AcDb2dVertex
 10
90.81914375476285
 20
35.5717331456646
 30
0.0
  0
VERTEX
  5
5C0
330
5AF
100
AcDbEntity
  8
DIBUJOS
 62
     7
100
AcDbVertex
100
AcDb2dVertex
 10
90.80288084712441
 20
35.56500522786097
 30
0.0
  0
VERTEX
  5
5C1
330
5AF
100
AcDbEntity
  8
DIBUJOS
 62
     7
100
AcDbVertex
100
AcDb2dVertex
 10
90.74680882871255
 20
35.49771850393049
 30
0.0
  0
VERTEX
  5
5C2
330
5AF
100
AcDbEntity
  8
DIBUJOS
 62
     7
100
AcDbVertex
100
AcDb2dVertex
 10
90.70755811398863
 20
35.49771850393049
 30
0.0
  0
SEQEND
  5
5C3
330
5AF
100
AcDbEntity
  8
DIBUJOS
 62
     7
  0
POLYLINE
  5
5C4
330
1F
100
AcDbEntity
  8
DIBUJOS
 62
     7
100
AcDb2dPolyline
 66
     1
 10
0.0
 20
0.0
 30
0.0
  0
VERTEX
  5
5C5
330
5C4
100
AcDbEntity
  8
DIBUJOS
 62
     7
100
AcDbVertex
100
AcDb2dVertex
 10
80.94261320236733
 20
35.43043178000064
 30
0.0
  0
VERTEX
  5
5C6
330
5C4
100
AcDbEntity
  8
DIBUJOS
 62
     7
100
AcDbVertex
100
AcDb2dVertex
 10
80.91026245179681
 20
35.49297364669115
 30
0.0
  0
VERTEX
  5
5C7
330
5C4
100
AcDbEntity
  8
DIBUJOS
 62
     7
100
AcDbVertex
100
AcDb2dVertex
 10
80.88710259836155
 20
35.51566112725271
 30
0.0
  0
VERTEX
  5
5C8
330
5C4
100
AcDbEntity
  8
DIBUJOS
 62
     7
100
AcDbVertex
100
AcDb2dVertex
 10
80.86411177291951
 20
35.53136111130642
 30
0.0
  0
VERTEX
  5
5C9
330
5C4
100
AcDbEntity
  8
DIBUJOS
 62
     7
100
AcDbVertex
100
AcDb2dVertex
 10
80.86411177291951
 20
35.57061182603034
 30
0.0
  0
VERTEX
  5
5CA
330
5C4
100
AcDbEntity
  8
DIBUJOS
 62
     7
100
AcDbVertex
100
AcDb2dVertex
 10
80.84729046923154
 20
35.58182653154894
 30
0.0
  0
VERTEX
  5
5CB
330
5C4
100
AcDbEntity
  8
DIBUJOS
 62
     7
100
AcDbVertex
100
AcDb2dVertex
 10
80.8136478618556
 20
35.55379052234301
 30
0.0
  0
VERTEX
  5
5CC
330
5C4
100
AcDbEntity
  8
DIBUJOS
 62
     7
100
AcDbVertex
100
AcDb2dVertex
 10
80.7182828717215
 20
35.57906624405123
 30
0.0
  0
VERTEX
  5
5CD
330
5C4
100
AcDbEntity
  8
DIBUJOS
 62
     7
100
AcDbVertex
100
AcDb2dVertex
 10
79.10904582503382
 20
35.59864783523627
 30
0.0
  0
VERTEX
  5
5CE
330
5C4
100
AcDbEntity
  8
DIBUJOS
 62
     7
100
AcDbVertex
100
AcDb2dVertex
 10
74.12096909336614
 20
35.60142925123314
 30
0.0
  0
VERTEX
  5
5CF
330
5C4
100
AcDbEntity
  8
DIBUJOS
 62
     7
100
AcDbVertex
100
AcDb2dVertex
 10
72.6182498660123
 20
35.59304123706691
 30
0.0
  0
VERTEX
  5
5D0
330
5C4
100
AcDbEntity
  8
DIBUJOS
 62
     7
100
AcDbVertex
100
AcDb2dVertex
 10
71.69909374872589
 20
35.57406331728627
 30
0.0
  0
VERTEX
  5
5D1
330
5C4
100
AcDbEntity
  8
DIBUJOS
 62
     7
100
AcDbVertex
100
AcDb2dVertex
 10
71.63137690891999
 20
35.55379052234301
 30
0.0
  0
VERTEX
  5
5D2
330
5C4
100
AcDbEntity
  8
DIBUJOS
 62
     7
100
AcDbVertex
100
AcDb2dVertex
 10
71.60950891229017
 20
35.57734125301256
 30
0.0
  0
VERTEX
  5
5D3
330
5C4
100
AcDbEntity
  8
DIBUJOS
 62
     7
100
AcDbVertex
100
AcDb2dVertex
 10
71.60333939053545
 20
35.58182653154894
 30
0.0
  0
VERTEX
  5
5D4
330
5C4
100
AcDbEntity
  8
DIBUJOS
 62
     7
100
AcDbVertex
100
AcDb2dVertex
 10
71.59212619419544
 20
35.58182653154894
 30
0.0
  0
VERTEX
  5
5D5
330
5C4
100
AcDbEntity
  8
DIBUJOS
 62
     7
100
AcDbVertex
100
AcDb2dVertex
 10
71.58090997949952
 20
35.57061182603034
 30
0.0
  0
VERTEX
  5
5D6
330
5C4
100
AcDbEntity
  8
DIBUJOS
 62
     7
100
AcDbVertex
100
AcDb2dVertex
 10
71.58090997949952
 20
35.5425758168244
 30
0.0
  0
VERTEX
  5
5D7
330
5C4
100
AcDbEntity
  8
DIBUJOS
 62
     7
100
AcDbVertex
100
AcDb2dVertex
 10
71.58651808684748
 20
35.53696921865503
 30
0.0
  0
VERTEX
  5
5D8
330
5C4
100
AcDbEntity
  8
DIBUJOS
 62
     7
100
AcDbVertex
100
AcDb2dVertex
 10
71.55957623206224
 20
35.5131724918874
 30
0.0
  0
VERTEX
  5
5D9
330
5C4
100
AcDbEntity
  8
DIBUJOS
 62
     7
100
AcDbVertex
100
AcDb2dVertex
 10
71.53605417578356
 20
35.49211039658252
 30
0.0
  0
SEQEND
  5
5DA
330
5C4
100
AcDbEntity
  8
DIBUJOS
 62
     7
  0
POLYLINE
  5
5DB
330
1F
100
AcDbEntity
  8
DIBUJOS
 62
     7
100
AcDb2dPolyline
 66
     1
 10
0.0
 20
0.0
 30
0.0
  0
VERTEX
  5
5DC
330
5DB
100
AcDbEntity
  8
DIBUJOS
 62
     7
100
AcDbVertex
100
AcDb2dVertex
 10
80.94261320236733
 20
35.43043178000064
 30
0.0
  0
VERTEX
  5
5DD
330
5DB
100
AcDbEntity
  8
DIBUJOS
 62
     7
100
AcDbVertex
100
AcDb2dVertex
 10
80.96616242385892
 20
35.47472918766704
 30
0.0
  0
VERTEX
  5
5DE
330
5DB
100
AcDbEntity
  8
DIBUJOS
 62
     7
100
AcDbVertex
100
AcDb2dVertex
 10
81.02672273916374
 20
35.53696921865503
 30
0.0
  0
VERTEX
  5
5DF
330
5DB
100
AcDbEntity
  8
DIBUJOS
 62
     7
100
AcDbVertex
100
AcDb2dVertex
 10
81.02111463181514
 20
35.548183924173
 30
0.0
  0
VERTEX
  5
5E0
330
5DB
100
AcDbEntity
  8
DIBUJOS
 62
     7
100
AcDbVertex
100
AcDb2dVertex
 10
81.02672273916374
 20
35.57621993337894
 30
0.0
  0
VERTEX
  5
5E1
330
5DB
100
AcDbEntity
  8
DIBUJOS
 62
     7
100
AcDbVertex
100
AcDb2dVertex
 10
81.03232782815515
 20
35.58182653154894
 30
0.0
  0
VERTEX
  5
5E2
330
5DB
100
AcDbEntity
  8
DIBUJOS
 62
     7
100
AcDbVertex
100
AcDb2dVertex
 10
81.04971054624859
 20
35.57734125301256
 30
0.0
  0
VERTEX
  5
5E3
330
5DB
100
AcDbEntity
  8
DIBUJOS
 62
     7
100
AcDbVertex
100
AcDb2dVertex
 10
81.06148817535191
 20
35.56556513308848
 30
0.0
  0
VERTEX
  5
5E4
330
5DB
100
AcDbEntity
  8
DIBUJOS
 62
     7
100
AcDbVertex
100
AcDb2dVertex
 10
81.07157854287905
 20
35.548183924173
 30
0.0
  0
VERTEX
  5
5E5
330
5DB
100
AcDbEntity
  8
DIBUJOS
 62
     7
100
AcDbVertex
100
AcDb2dVertex
 10
81.11027086155342
 20
35.56668645272273
 30
0.0
  0
VERTEX
  5
5E6
330
5DB
100
AcDbEntity
  8
DIBUJOS
 62
     7
100
AcDbVertex
100
AcDb2dVertex
 10
81.1270921652414
 20
35.5722945600707
 30
0.0
  0
VERTEX
  5
5E7
330
5DB
100
AcDbEntity
  8
DIBUJOS
 62
     7
100
AcDbVertex
100
AcDb2dVertex
 10
81.17254862200454
 20
35.57906322569466
 30
0.0
  0
VERTEX
  5
5E8
330
5DB
100
AcDbEntity
  8
DIBUJOS
 62
     7
100
AcDbVertex
100
AcDb2dVertex
 10
82.12013464408841
 20
35.59304123706691
 30
0.0
  0
VERTEX
  5
5E9
330
5DB
100
AcDbEntity
  8
DIBUJOS
 62
     7
100
AcDbVertex
100
AcDb2dVertex
 10
83.70137642938987
 20
35.60425594258488
 30
0.0
  0
VERTEX
  5
5EA
330
5DB
100
AcDbEntity
  8
DIBUJOS
 62
     7
100
AcDbVertex
100
AcDb2dVertex
 10
85.79848561345266
 20
35.60425594258488
 30
0.0
  0
VERTEX
  5
5EB
330
5DB
100
AcDbEntity
  8
DIBUJOS
 62
     7
100
AcDbVertex
100
AcDb2dVertex
 10
89.55246608330349
 20
35.59304123706691
 30
0.0
  0
VERTEX
  5
5EC
330
5DB
100
AcDbEntity
  8
DIBUJOS
 62
     7
100
AcDbVertex
100
AcDb2dVertex
 10
90.5388470482009
 20
35.57423989117186
 30
0.0
  0
VERTEX
  5
5ED
330
5DB
100
AcDbEntity
  8
DIBUJOS
 62
     7
100
AcDbVertex
100
AcDb2dVertex
 10
90.54544215829584
 20
35.57259186823742
 30
0.0
  0
VERTEX
  5
5EE
330
5DB
100
AcDbEntity
  8
DIBUJOS
 62
     7
100
AcDbVertex
100
AcDb2dVertex
 10
90.60046077010672
 20
35.55266920270875
 30
0.0
  0
VERTEX
  5
5EF
330
5DB
100
AcDbEntity
  8
DIBUJOS
 62
     7
100
AcDbVertex
100
AcDb2dVertex
 10
90.60662727350424
 20
35.548183924173
 30
0.0
  0
VERTEX
  5
5F0
330
5DB
100
AcDbEntity
  8
DIBUJOS
 62
     7
100
AcDbVertex
100
AcDb2dVertex
 10
90.64027289923675
 20
35.58182653154894
 30
0.0
  0
VERTEX
  5
5F1
330
5DB
100
AcDbEntity
  8
DIBUJOS
 62
     7
100
AcDbVertex
100
AcDb2dVertex
 10
90.64587798822815
 20
35.58182653154894
 30
0.0
  0
VERTEX
  5
5F2
330
5DB
100
AcDbEntity
  8
DIBUJOS
 62
     7
100
AcDbVertex
100
AcDb2dVertex
 10
90.66269929191611
 20
35.56500522786097
 30
0.0
  0
VERTEX
  5
5F3
330
5DB
100
AcDbEntity
  8
DIBUJOS
 62
     7
100
AcDbVertex
100
AcDb2dVertex
 10
90.65709420292471
 20
35.55939712051237
 30
0.0
  0
VERTEX
  5
5F4
330
5DB
100
AcDbEntity
  8
DIBUJOS
 62
     7
100
AcDbVertex
100
AcDb2dVertex
 10
90.65709420292471
 20
35.53136111130642
 30
0.0
  0
VERTEX
  5
5F5
330
5DB
100
AcDbEntity
  8
DIBUJOS
 62
     7
100
AcDbVertex
100
AcDb2dVertex
 10
90.67335409220594
 20
35.5190250861542
 30
0.0
  0
VERTEX
  5
5F6
330
5DB
100
AcDbEntity
  8
DIBUJOS
 62
     7
100
AcDbVertex
100
AcDb2dVertex
 10
90.70195000664002
 20
35.49771850393049
 30
0.0
  0
SEQEND
  5
5F7
330
5DB
100
AcDbEntity
  8
DIBUJOS
 62
     7
  0
POLYLINE
  5
5F8
330
1F
100
AcDbEntity
  8
DIBUJOS
 62
     7
100
AcDb2dPolyline
 66
     1
 10
0.0
 20
0.0
 30
0.0
  0
VERTEX
  5
5F9
330
5F8
100
AcDbEntity
  8
DIBUJOS
 62
     7
100
AcDbVertex
100
AcDb2dVertex
 10
71.57530489050812
 20
26.01306731826058
 30
0.0
  0
VERTEX
  5
5FA
330
5F8
100
AcDbEntity
  8
DIBUJOS
 62
     7
100
AcDbVertex
100
AcDb2dVertex
 10
71.56695913334019
 20
33.01925500182709
 30
0.0
  0
VERTEX
  5
5FB
330
5F8
100
AcDbEntity
  8
DIBUJOS
 62
     7
100
AcDbVertex
100
AcDb2dVertex
 10
71.55590892827962
 20
33.14808602545155
 30
0.0
  0
VERTEX
  5
5FC
330
5F8
100
AcDbEntity
  8
DIBUJOS
 62
     7
100
AcDbVertex
100
AcDb2dVertex
 10
71.55030082093101
 20
33.2209793475514
 30
0.0
  0
VERTEX
  5
5FD
330
5F8
100
AcDbEntity
  8
DIBUJOS
 62
     7
100
AcDbVertex
100
AcDb2dVertex
 10
71.50586155048497
 20
33.40578580216231
 30
0.0
  0
VERTEX
  5
5FE
330
5F8
100
AcDbEntity
  8
DIBUJOS
 62
     7
100
AcDbVertex
100
AcDb2dVertex
 10
71.50043152620118
 20
33.42815031852282
 30
0.0
  0
VERTEX
  5
5FF
330
5F8
100
AcDbEntity
  8
DIBUJOS
 62
     7
100
AcDbVertex
100
AcDb2dVertex
 10
71.49389074653271
 20
33.46799564958017
 30
0.0
  0
VERTEX
  5
600
330
5F8
100
AcDbEntity
  8
DIBUJOS
 62
     7
100
AcDbVertex
100
AcDb2dVertex
 10
71.48287072504291
 20
33.80425118616587
 30
0.0
  0
VERTEX
  5
601
330
5F8
100
AcDbEntity
  8
DIBUJOS
 62
     7
100
AcDbVertex
100
AcDb2dVertex
 10
71.47437405002373
 20
34.66223878920788
 30
0.0
  0
VERTEX
  5
602
330
5F8
100
AcDbEntity
  8
DIBUJOS
 62
     7
100
AcDbVertex
100
AcDb2dVertex
 10
71.48273489897704
 20
35.02666163352959
 30
0.0
  0
VERTEX
  5
603
330
5F8
100
AcDbEntity
  8
DIBUJOS
 62
     7
100
AcDbVertex
100
AcDb2dVertex
 10
71.49511921784134
 20
35.39734907785284
 30
0.0
  0
VERTEX
  5
604
330
5F8
100
AcDbEntity
  8
DIBUJOS
 62
     7
100
AcDbVertex
100
AcDb2dVertex
 10
71.49848468592143
 20
35.40744095455859
 30
0.0
  0
VERTEX
  5
605
330
5F8
100
AcDbEntity
  8
DIBUJOS
 62
     7
100
AcDbVertex
100
AcDb2dVertex
 10
71.52828794316433
 20
35.46450601243058
 30
0.0
  0
VERTEX
  5
606
330
5F8
100
AcDbEntity
  8
DIBUJOS
 62
     7
100
AcDbVertex
100
AcDb2dVertex
 10
71.53044606843592
 20
35.48650379841251
 30
0.0
  0
SEQEND
  5
607
330
5F8
100
AcDbEntity
  8
DIBUJOS
 62
     7
  0
POLYLINE
  5
608
330
1F
100
AcDbEntity
  8
DIBUJOS
 62
     7
100
AcDb2dPolyline
 66
     1
 10
0.0
 20
0.0
 30
0.0
  0
VERTEX
  5
609
330
608
100
AcDbEntity
  8
DIBUJOS
 62
     7
100
AcDbVertex
100
AcDb2dVertex
 10
90.66269929191611
 20
26.00746072009057
 30
0.0
  0
VERTEX
  5
60A
330
608
100
AcDbEntity
  8
DIBUJOS
 62
     7
100
AcDbVertex
100
AcDb2dVertex
 10
90.66269929191611
 20
32.89595813580422
 30
0.0
  0
VERTEX
  5
60B
330
608
100
AcDbEntity
  8
DIBUJOS
 62
     7
100
AcDbVertex
100
AcDb2dVertex
 10
90.67132575628742
 20
33.06435981999705
 30
0.0
  0
VERTEX
  5
60C
330
608
100
AcDbEntity
  8
DIBUJOS
 62
     7
100
AcDbVertex
100
AcDb2dVertex
 10
90.68209525414397
 20
33.20976464203279
 30
0.0
  0
VERTEX
  5
60D
330
608
100
AcDbEntity
  8
DIBUJOS
 62
     7
100
AcDbVertex
100
AcDb2dVertex
 10
90.69241803516242
 20
33.24865315391456
 30
0.0
  0
VERTEX
  5
60E
330
608
100
AcDbEntity
  8
DIBUJOS
 62
     7
100
AcDbVertex
100
AcDb2dVertex
 10
90.73343750710191
 20
33.40664754309234
 30
0.0
  0
VERTEX
  5
60F
330
608
100
AcDbEntity
  8
DIBUJOS
 62
     7
100
AcDbVertex
100
AcDb2dVertex
 10
90.73775073928724
 20
33.42821370402028
 30
0.0
  0
VERTEX
  5
610
330
608
100
AcDbEntity
  8
DIBUJOS
 62
     7
100
AcDbVertex
100
AcDb2dVertex
 10
90.7580250434091
 20
33.84918848552058
 30
0.0
  0
VERTEX
  5
611
330
608
100
AcDbEntity
  8
DIBUJOS
 62
     7
100
AcDbVertex
100
AcDb2dVertex
 10
90.7580250434091
 20
33.86040319103919
 30
0.0
  0
VERTEX
  5
612
330
608
100
AcDbEntity
  8
DIBUJOS
 62
     7
100
AcDbVertex
100
AcDb2dVertex
 10
90.7580250434091
 20
34.23608903459158
 30
0.0
  0
VERTEX
  5
613
330
608
100
AcDbEntity
  8
DIBUJOS
 62
     7
100
AcDbVertex
100
AcDb2dVertex
 10
90.76363013240051
 20
34.24169563276158
 30
0.0
  0
VERTEX
  5
614
330
608
100
AcDbEntity
  8
DIBUJOS
 62
     7
100
AcDbVertex
100
AcDb2dVertex
 10
90.74948611139162
 20
35.26793702050173
 30
0.0
  0
VERTEX
  5
615
330
608
100
AcDbEntity
  8
DIBUJOS
 62
     7
100
AcDbVertex
100
AcDb2dVertex
 10
90.74413154603346
 20
35.39106485853139
 30
0.0
  0
VERTEX
  5
616
330
608
100
AcDbEntity
  8
DIBUJOS
 62
     7
100
AcDbVertex
100
AcDb2dVertex
 10
90.70557807178155
 20
35.48600878786107
 30
0.0
  0
VERTEX
  5
617
330
608
100
AcDbEntity
  8
DIBUJOS
 62
     7
100
AcDbVertex
100
AcDb2dVertex
 10
90.70195000664002
 20
35.49211039658252
 30
0.0
  0
SEQEND
  5
618
330
608
100
AcDbEntity
  8
DIBUJOS
 62
     7
  0
POLYLINE
  5
619
330
1F
100
AcDbEntity
  8
DIBUJOS
 62
     7
100
AcDb2dPolyline
 66
     1
 10
0.0
 20
0.0
 30
0.0
  0
VERTEX
  5
61A
330
619
100
AcDbEntity
  8
DIBUJOS
 62
     7
100
AcDbVertex
100
AcDb2dVertex
 10
71.57530489050812
 20
32.69409645483543
 30
0.0
  0
VERTEX
  5
61B
330
619
100
AcDbEntity
  8
DIBUJOS
 62
     7
100
AcDbVertex
100
AcDb2dVertex
 10
80.94261320236733
 20
32.69970456218404
 30
0.0
  0
SEQEND
  5
61C
330
619
100
AcDbEntity
  8
DIBUJOS
 62
     7
  0
POLYLINE
  5
61D
330
1F
100
AcDbEntity
  8
DIBUJOS
 62
     7
100
AcDb2dPolyline
 66
     1
 10
0.0
 20
0.0
 30
0.0
  0
VERTEX
  5
61E
330
61D
100
AcDbEntity
  8
DIBUJOS
 62
     7
100
AcDbVertex
100
AcDb2dVertex
 10
80.9482213097153
 20
32.69409645483543
 30
0.0
  0
VERTEX
  5
61F
330
61D
100
AcDbEntity
  8
DIBUJOS
 62
     7
100
AcDbVertex
100
AcDb2dVertex
 10
90.66269929191611
 20
32.69970456218404
 30
0.0
  0
SEQEND
  5
620
330
61D
100
AcDbEntity
  8
DIBUJOS
 62
     7
  0
POLYLINE
  5
621
330
1F
100
AcDbEntity
  8
DIBUJOS
 62
     7
100
AcDb2dPolyline
 66
     1
 10
0.0
 20
0.0
 30
0.0
  0
VERTEX
  5
622
330
621
100
AcDbEntity
  8
DIBUJOS
 62
     7
100
AcDbVertex
100
AcDb2dVertex
 10
80.94261320236733
 20
25.99904931365793
 30
0.0
  0
VERTEX
  5
623
330
621
100
AcDbEntity
  8
DIBUJOS
 62
     7
100
AcDbVertex
100
AcDb2dVertex
 10
80.94502788798562
 20
35.31476817863425
 30
0.0
  0
VERTEX
  5
624
330
621
100
AcDbEntity
  8
DIBUJOS
 62
     7
100
AcDbVertex
100
AcDb2dVertex
 10
80.94261320236733
 20
35.35371554847767
 30
0.0
  0
SEQEND
  5
625
330
621
100
AcDbEntity
  8
DIBUJOS
 62
     7
  0
POLYLINE
  5
626
330
1F
100
AcDbEntity
  8
DIBUJOS
 62
     7
100
AcDb2dPolyline
 66
     1
 10
0.0
 20
0.0
 30
0.0
  0
VERTEX
  5
627
330
626
100
AcDbEntity
  8
DIBUJOS
 62
     7
100
AcDbVertex
100
AcDb2dVertex
 10
80.94261320236733
 20
25.94297742877784
 30
0.0
  0
VERTEX
  5
628
330
626
100
AcDbEntity
  8
DIBUJOS
 62
     7
100
AcDbVertex
100
AcDb2dVertex
 10
80.9482213097153
 20
25.98222814350175
 30
0.0
  0
SEQEND
  5
629
330
626
100
AcDbEntity
  8
DIBUJOS
 62
     7
  0
POLYLINE
  5
62A
330
1F
100
AcDbEntity
  8
DIBUJOS
 62
     7
100
AcDb2dPolyline
 66
     1
 10
0.0
 20
0.0
 30
0.0
  0
VERTEX
  5
62B
330
62A
100
AcDbEntity
  8
DIBUJOS
 62
     7
100
AcDbVertex
100
AcDb2dVertex
 10
69.29876343651344
 20
26.02147872469386
 30
0.0
  0
VERTEX
  5
62C
330
62A
100
AcDbEntity
  8
DIBUJOS
 62
     7
100
AcDbVertex
100
AcDb2dVertex
 10
69.29315532916516
 20
26.02147872469386
 30
0.0
  0
SEQEND
  5
62D
330
62A
100
AcDbEntity
  8
DIBUJOS
 62
     7
  0
POLYLINE
  5
62E
330
1F
100
AcDbEntity
  8
DIBUJOS
 62
     7
100
AcDb2dPolyline
 66
     1
 10
0.0
 20
0.0
 30
0.0
  0
VERTEX
  5
62F
330
62E
100
AcDbEntity
  8
DIBUJOS
 62
     7
100
AcDbVertex
100
AcDb2dVertex
 10
90.78045143608848
 20
26.0158713719352
 30
0.0
  0
VERTEX
  5
630
330
62E
100
AcDbEntity
  8
DIBUJOS
 62
     7
100
AcDbVertex
100
AcDb2dVertex
 10
92.91681133487454
 20
26.0158713719352
 30
0.0
  0
VERTEX
  5
631
330
62E
100
AcDbEntity
  8
DIBUJOS
 62
     7
100
AcDbVertex
100
AcDb2dVertex
 10
92.92241944222314
 20
26.02147872469386
 30
0.0
  0
SEQEND
  5
632
330
62E
100
AcDbEntity
  8
DIBUJOS
 62
     7
  0
POLYLINE
  5
633
330
1F
100
AcDbEntity
  8
DIBUJOS
 62
     7
100
AcDb2dPolyline
 66
     1
 10
0.0
 20
0.0
 30
0.0
  0
VERTEX
  5
634
330
633
100
AcDbEntity
  8
DIBUJOS
 62
     7
100
AcDbVertex
100
AcDb2dVertex
 10
69.31558474020109
 20
26.0102640191759
 30
0.0
  0
VERTEX
  5
635
330
633
100
AcDbEntity
  8
DIBUJOS
 62
     7
100
AcDbVertex
100
AcDb2dVertex
 10
69.32119284754938
 20
26.0158713719352
 30
0.0
  0
VERTEX
  5
636
330
633
100
AcDbEntity
  8
DIBUJOS
 62
     7
100
AcDbVertex
100
AcDb2dVertex
 10
71.45194463898778
 20
26.0158713719352
 30
0.0
  0
SEQEND
  5
637
330
633
100
AcDbEntity
  8
DIBUJOS
 62
     7
  0
POLYLINE
  5
638
330
1F
100
AcDbEntity
  8
DIBUJOS
 62
     7
100
AcDb2dPolyline
 66
     1
 10
0.0
 20
0.0
 30
0.0
  0
VERTEX
  5
639
330
638
100
AcDbEntity
  8
DIBUJOS
 62
     7
100
AcDbVertex
100
AcDb2dVertex
 10
69.33801415123735
 20
25.96540670628199
 30
0.0
  0
VERTEX
  5
63A
330
638
100
AcDbEntity
  8
DIBUJOS
 62
     7
100
AcDbVertex
100
AcDb2dVertex
 10
69.33240604388907
 20
25.97101330445199
 30
0.0
  0
SEQEND
  5
63B
330
638
100
AcDbEntity
  8
DIBUJOS
 62
     7
  0
POLYLINE
  5
63C
330
1F
100
AcDbEntity
  8
DIBUJOS
 62
     7
100
AcDb2dPolyline
 66
     1
 10
0.0
 20
0.0
 30
0.0
  0
VERTEX
  5
63D
330
63C
100
AcDbEntity
  8
DIBUJOS
 62
     7
100
AcDbVertex
100
AcDb2dVertex
 10
69.3604435622736
 20
25.96540670628199
 30
0.0
  0
VERTEX
  5
63E
330
63C
100
AcDbEntity
  8
DIBUJOS
 62
     7
100
AcDbVertex
100
AcDb2dVertex
 10
69.34922734757704
 20
25.97101330445199
 30
0.0
  0
SEQEND
  5
63F
330
63C
100
AcDbEntity
  8
DIBUJOS
 62
     7
  0
POLYLINE
  5
640
330
1F
100
AcDbEntity
  8
DIBUJOS
 62
     7
100
AcDb2dPolyline
 66
     1
 10
0.0
 20
0.0
 30
0.0
  0
VERTEX
  5
641
330
640
100
AcDbEntity
  8
DIBUJOS
 62
     7
100
AcDbVertex
100
AcDb2dVertex
 10
92.70373645756638
 20
25.96540670628199
 30
0.0
  0
VERTEX
  5
642
330
640
100
AcDbEntity
  8
DIBUJOS
 62
     7
100
AcDbVertex
100
AcDb2dVertex
 10
92.70373645756638
 20
25.97101330445199
 30
0.0
  0
SEQEND
  5
643
330
640
100
AcDbEntity
  8
DIBUJOS
 62
     7
  0
POLYLINE
  5
644
330
1F
100
AcDbEntity
  8
DIBUJOS
 62
     7
100
AcDb2dPolyline
 66
     1
 10
0.0
 20
0.0
 30
0.0
  0
VERTEX
  5
645
330
644
100
AcDbEntity
  8
DIBUJOS
 62
     7
100
AcDbVertex
100
AcDb2dVertex
 10
92.86073931646266
 20
25.96540670628199
 30
0.0
  0
VERTEX
  5
646
330
644
100
AcDbEntity
  8
DIBUJOS
 62
     7
100
AcDbVertex
100
AcDb2dVertex
 10
92.85513120911405
 20
25.97101330445199
 30
0.0
  0
SEQEND
  5
647
330
644
100
AcDbEntity
  8
DIBUJOS
 62
     7
  0
POLYLINE
  5
648
330
1F
100
AcDbEntity
  8
DIBUJOS
 62
     7
100
AcDb2dPolyline
 66
     1
 10
0.0
 20
0.0
 30
0.0
  0
VERTEX
  5
649
330
648
100
AcDbEntity
  8
DIBUJOS
 62
     7
100
AcDbVertex
100
AcDb2dVertex
 10
92.87756062015063
 20
25.96540670628199
 30
0.0
  0
VERTEX
  5
64A
330
648
100
AcDbEntity
  8
DIBUJOS
 62
     7
100
AcDbVertex
100
AcDb2dVertex
 10
92.87195251280203
 20
25.96540670628199
 30
0.0
  0
SEQEND
  5
64B
330
648
100
AcDbEntity
  8
DIBUJOS
 62
     7
  0
POLYLINE
  5
64C
330
1F
100
AcDbEntity
  8
DIBUJOS
 62
     7
100
AcDb2dPolyline
 66
     1
 10
0.0
 20
0.0
 30
0.0
  0
VERTEX
  5
64D
330
64C
100
AcDbEntity
  8
DIBUJOS
 62
     7
100
AcDbVertex
100
AcDb2dVertex
 10
92.89999003118656
 20
25.96540670628199
 30
0.0
  0
VERTEX
  5
64E
330
64C
100
AcDbEntity
  8
DIBUJOS
 62
     7
100
AcDbVertex
100
AcDb2dVertex
 10
92.89438192383795
 20
25.97101330445199
 30
0.0
  0
VERTEX
  5
64F
330
64C
100
AcDbEntity
  8
DIBUJOS
 62
     7
100
AcDbVertex
100
AcDb2dVertex
 10
92.88877683484719
 20
25.96540670628199
 30
0.0
  0
SEQEND
  5
650
330
64C
100
AcDbEntity
  8
DIBUJOS
 62
     7
  0
POLYLINE
  5
651
330
1F
100
AcDbEntity
  8
DIBUJOS
 62
     7
100
AcDb2dPolyline
 66
     1
 10
0.0
 20
0.0
 30
0.0
  0
VERTEX
  5
652
330
651
100
AcDbEntity
  8
DIBUJOS
 62
     7
100
AcDbVertex
100
AcDb2dVertex
 10
71.53605417578356
 20
25.95979935352332
 30
0.0
  0
VERTEX
  5
653
330
651
100
AcDbEntity
  8
DIBUJOS
 62
     7
100
AcDbVertex
100
AcDb2dVertex
 10
71.53997803991385
 20
25.95363134094721
 30
0.0
  0
VERTEX
  5
654
330
651
100
AcDbEntity
  8
DIBUJOS
 62
     7
100
AcDbVertex
100
AcDb2dVertex
 10
71.56969678315951
 20
25.90372658052214
 30
0.0
  0
VERTEX
  5
655
330
651
100
AcDbEntity
  8
DIBUJOS
 62
     7
100
AcDbVertex
100
AcDb2dVertex
 10
71.60333939053545
 20
25.8700832185569
 30
0.0
  0
VERTEX
  5
656
330
651
100
AcDbEntity
  8
DIBUJOS
 62
     7
100
AcDbVertex
100
AcDb2dVertex
 10
71.62072210862954
 20
25.86615784524866
 30
0.0
  0
VERTEX
  5
657
330
651
100
AcDbEntity
  8
DIBUJOS
 62
     7
100
AcDbVertex
100
AcDb2dVertex
 10
71.6812794055778
 20
25.8459718280699
 30
0.0
  0
VERTEX
  5
658
330
651
100
AcDbEntity
  8
DIBUJOS
 62
     7
100
AcDbVertex
100
AcDb2dVertex
 10
72.10805697845423
 20
25.82235318436644
 30
0.0
  0
VERTEX
  5
659
330
651
100
AcDbEntity
  8
DIBUJOS
 62
     7
100
AcDbVertex
100
AcDb2dVertex
 10
72.33782337009825
 20
25.81688241226296
 30
0.0
  0
VERTEX
  5
65A
330
651
100
AcDbEntity
  8
DIBUJOS
 62
     7
100
AcDbVertex
100
AcDb2dVertex
 10
72.75282331387264
 20
25.80840384738571
 30
0.0
  0
VERTEX
  5
65B
330
651
100
AcDbEntity
  8
DIBUJOS
 62
     7
100
AcDbVertex
100
AcDb2dVertex
 10
79.66416092016121
 20
25.80840384738571
 30
0.0
  0
VERTEX
  5
65C
330
651
100
AcDbEntity
  8
DIBUJOS
 62
     7
100
AcDbVertex
100
AcDb2dVertex
 10
79.68098524220638
 20
25.80559979371173
 30
0.0
  0
VERTEX
  5
65D
330
651
100
AcDbEntity
  8
DIBUJOS
 62
     7
100
AcDbVertex
100
AcDb2dVertex
 10
80.393045847447
 20
25.82236073025945
 30
0.0
  0
VERTEX
  5
65E
330
651
100
AcDbEntity
  8
DIBUJOS
 62
     7
100
AcDbVertex
100
AcDb2dVertex
 10
80.39881090936065
 20
25.82252900366336
 30
0.0
  0
VERTEX
  5
65F
330
651
100
AcDbEntity
  8
DIBUJOS
 62
     7
100
AcDbVertex
100
AcDb2dVertex
 10
80.79100414747094
 20
25.84459923021373
 30
0.0
  0
VERTEX
  5
660
330
651
100
AcDbEntity
  8
DIBUJOS
 62
     7
100
AcDbVertex
100
AcDb2dVertex
 10
80.84785188363765
 20
25.86279388634717
 30
0.0
  0
VERTEX
  5
661
330
651
100
AcDbEntity
  8
DIBUJOS
 62
     7
100
AcDbVertex
100
AcDb2dVertex
 10
80.88093307660748
 20
25.8756905713162
 30
0.0
  0
VERTEX
  5
662
330
651
100
AcDbEntity
  8
DIBUJOS
 62
     7
100
AcDbVertex
100
AcDb2dVertex
 10
80.94261320236733
 20
25.95979935352332
 30
0.0
  0
SEQEND
  5
663
330
651
100
AcDbEntity
  8
DIBUJOS
 62
     7
  0
POLYLINE
  5
664
330
1F
100
AcDbEntity
  8
DIBUJOS
 62
     7
100
AcDb2dPolyline
 66
     1
 10
0.0
 20
0.0
 30
0.0
  0
VERTEX
  5
665
330
664
100
AcDbEntity
  8
DIBUJOS
 62
     7
100
AcDbVertex
100
AcDb2dVertex
 10
80.94261320236733
 20
25.95979935352332
 30
0.0
  0
VERTEX
  5
666
330
664
100
AcDbEntity
  8
DIBUJOS
 62
     7
100
AcDbVertex
100
AcDb2dVertex
 10
80.95158375943882
 20
25.9474633283711
 30
0.0
  0
VERTEX
  5
667
330
664
100
AcDbEntity
  8
DIBUJOS
 62
     7
100
AcDbVertex
100
AcDb2dVertex
 10
80.97625580974326
 20
25.90933393328081
 30
0.0
  0
VERTEX
  5
668
330
664
100
AcDbEntity
  8
DIBUJOS
 62
     7
100
AcDbVertex
100
AcDb2dVertex
 10
81.01550652446717
 20
25.8700832185569
 30
0.0
  0
VERTEX
  5
669
330
664
100
AcDbEntity
  8
DIBUJOS
 62
     7
100
AcDbVertex
100
AcDb2dVertex
 10
81.06653486829376
 20
25.85494389431999
 30
0.0
  0
VERTEX
  5
66A
330
664
100
AcDbEntity
  8
DIBUJOS
 62
     7
100
AcDbVertex
100
AcDb2dVertex
 10
81.09984545639706
 20
25.84457508335737
 30
0.0
  0
VERTEX
  5
66B
330
664
100
AcDbEntity
  8
DIBUJOS
 62
     7
100
AcDbVertex
100
AcDb2dVertex
 10
81.49218055728764
 20
25.82236223943806
 30
0.0
  0
VERTEX
  5
66C
330
664
100
AcDbEntity
  8
DIBUJOS
 62
     7
100
AcDbVertex
100
AcDb2dVertex
 10
81.75560766644891
 20
25.81687411178129
 30
0.0
  0
VERTEX
  5
66D
330
664
100
AcDbEntity
  8
DIBUJOS
 62
     7
100
AcDbVertex
100
AcDb2dVertex
 10
82.20984926987623
 20
25.80559979371173
 30
0.0
  0
VERTEX
  5
66E
330
664
100
AcDbEntity
  8
DIBUJOS
 62
     7
100
AcDbVertex
100
AcDb2dVertex
 10
82.2154573772242
 20
25.80840384738571
 30
0.0
  0
VERTEX
  5
66F
330
664
100
AcDbEntity
  8
DIBUJOS
 62
     7
100
AcDbVertex
100
AcDb2dVertex
 10
89.40107133175518
 20
25.80840384738571
 30
0.0
  0
VERTEX
  5
670
330
664
100
AcDbEntity
  8
DIBUJOS
 62
     7
100
AcDbVertex
100
AcDb2dVertex
 10
89.40667943910378
 20
25.80279649462705
 30
0.0
  0
VERTEX
  5
671
330
664
100
AcDbEntity
  8
DIBUJOS
 62
     7
100
AcDbVertex
100
AcDb2dVertex
 10
90.31494834260907
 20
25.82791677094884
 30
0.0
  0
VERTEX
  5
672
330
664
100
AcDbEntity
  8
DIBUJOS
 62
     7
100
AcDbVertex
100
AcDb2dVertex
 10
90.57248965557685
 20
25.84963309513875
 30
0.0
  0
VERTEX
  5
673
330
664
100
AcDbEntity
  8
DIBUJOS
 62
     7
100
AcDbVertex
100
AcDb2dVertex
 10
90.60712228405569
 20
25.86249657818045
 30
0.0
  0
VERTEX
  5
674
330
664
100
AcDbEntity
  8
DIBUJOS
 62
     7
100
AcDbVertex
100
AcDb2dVertex
 10
90.64587798822815
 20
25.8756905713162
 30
0.0
  0
VERTEX
  5
675
330
664
100
AcDbEntity
  8
DIBUJOS
 62
     7
100
AcDbVertex
100
AcDb2dVertex
 10
90.70083019618437
 20
25.94914530782216
 30
0.0
  0
VERTEX
  5
676
330
664
100
AcDbEntity
  8
DIBUJOS
 62
     7
100
AcDbVertex
100
AcDb2dVertex
 10
90.70195000664002
 20
25.95419200076402
 30
0.0
  0
SEQEND
  5
677
330
664
100
AcDbEntity
  8
DIBUJOS
 62
     7
  0
POLYLINE
  5
678
330
1F
100
AcDbEntity
  8
DIBUJOS
 62
     7
100
AcDb2dPolyline
 66
     1
 10
0.0
 20
0.0
 30
0.0
  0
VERTEX
  5
679
330
678
100
AcDbEntity
  8
DIBUJOS
 62
     7
100
AcDbVertex
100
AcDb2dVertex
 10
71.53044606843592
 20
35.49211039658252
 30
0.0
  0
VERTEX
  5
67A
330
678
100
AcDbEntity
  8
DIBUJOS
 62
     7
100
AcDbVertex
100
AcDb2dVertex
 10
71.4799821573717
 20
35.49771850393049
 30
0.0
  0
VERTEX
  5
67B
330
678
100
AcDbEntity
  8
DIBUJOS
 62
     7
100
AcDbVertex
100
AcDb2dVertex
 10
71.46315783532715
 20
35.53136111130642
 30
0.0
  0
VERTEX
  5
67C
330
678
100
AcDbEntity
  8
DIBUJOS
 62
     7
100
AcDbVertex
100
AcDb2dVertex
 10
71.43512333529982
 20
35.55939712051237
 30
0.0
  0
VERTEX
  5
67D
330
678
100
AcDbEntity
  8
DIBUJOS
 62
     7
100
AcDbVertex
100
AcDb2dVertex
 10
71.36166859879322
 20
35.59191991743266
 30
0.0
  0
VERTEX
  5
67E
330
678
100
AcDbEntity
  8
DIBUJOS
 62
     7
100
AcDbVertex
100
AcDb2dVertex
 10
71.31120166937338
 20
35.61434932846923
 30
0.0
  0
VERTEX
  5
67F
330
678
100
AcDbEntity
  8
DIBUJOS
 62
     7
100
AcDbVertex
100
AcDb2dVertex
 10
71.14334781697987
 20
35.6297188024289
 30
0.0
  0
VERTEX
  5
680
330
678
100
AcDbEntity
  8
DIBUJOS
 62
     7
100
AcDbVertex
100
AcDb2dVertex
 10
70.90230182514183
 20
35.64645710129887
 30
0.0
  0
VERTEX
  5
681
330
678
100
AcDbEntity
  8
DIBUJOS
 62
     7
100
AcDbVertex
100
AcDb2dVertex
 10
70.3024607156506
 20
35.67154266651472
 30
0.0
  0
VERTEX
  5
682
330
678
100
AcDbEntity
  8
DIBUJOS
 62
     7
100
AcDbVertex
100
AcDb2dVertex
 10
69.92690767980721
 20
35.65206369946823
 30
0.0
  0
VERTEX
  5
683
330
678
100
AcDbEntity
  8
DIBUJOS
 62
     7
100
AcDbVertex
100
AcDb2dVertex
 10
69.4383835773153
 20
35.61715187296461
 30
0.0
  0
VERTEX
  5
684
330
678
100
AcDbEntity
  8
DIBUJOS
 62
     7
100
AcDbVertex
100
AcDb2dVertex
 10
69.36661006567111
 20
35.58070521191469
 30
0.0
  0
VERTEX
  5
685
330
678
100
AcDbEntity
  8
DIBUJOS
 62
     7
100
AcDbVertex
100
AcDb2dVertex
 10
69.32680095489799
 20
35.55379052234301
 30
0.0
  0
VERTEX
  5
686
330
678
100
AcDbEntity
  8
DIBUJOS
 62
     7
100
AcDbVertex
100
AcDb2dVertex
 10
69.30437154386173
 20
35.50893320944909
 30
0.0
  0
VERTEX
  5
687
330
678
100
AcDbEntity
  8
DIBUJOS
 62
     7
100
AcDbVertex
100
AcDb2dVertex
 10
69.29315532916516
 20
35.49771850393049
 30
0.0
  0
VERTEX
  5
688
330
678
100
AcDbEntity
  8
DIBUJOS
 62
     7
100
AcDbVertex
100
AcDb2dVertex
 10
69.25390461444093
 20
35.49771850393049
 30
0.0
  0
VERTEX
  5
689
330
678
100
AcDbEntity
  8
DIBUJOS
 62
     7
100
AcDbVertex
100
AcDb2dVertex
 10
69.24269141810156
 20
35.48650379841251
 30
0.0
  0
VERTEX
  5
68A
330
678
100
AcDbEntity
  8
DIBUJOS
 62
     7
100
AcDbVertex
100
AcDb2dVertex
 10
69.24717669663731
 20
35.46351448214907
 30
0.0
  0
VERTEX
  5
68B
330
678
100
AcDbEntity
  8
DIBUJOS
 62
     7
100
AcDbVertex
100
AcDb2dVertex
 10
69.2707259181289
 20
35.43603837817064
 30
0.0
  0
VERTEX
  5
68C
330
678
100
AcDbEntity
  8
DIBUJOS
 62
     7
100
AcDbVertex
100
AcDb2dVertex
 10
69.26119394665098
 20
35.40183435638858
 30
0.0
  0
VERTEX
  5
68D
330
678
100
AcDbEntity
  8
DIBUJOS
 62
     7
100
AcDbVertex
100
AcDb2dVertex
 10
69.24594218861492
 20
35.3298374863247
 30
0.0
  0
VERTEX
  5
68E
330
678
100
AcDbEntity
  8
DIBUJOS
 62
     7
100
AcDbVertex
100
AcDb2dVertex
 10
69.231475203405
 20
34.26973164196752
 30
0.0
  0
VERTEX
  5
68F
330
678
100
AcDbEntity
  8
DIBUJOS
 62
     7
100
AcDbVertex
100
AcDb2dVertex
 10
69.23708331075328
 20
34.26412504379752
 30
0.0
  0
VERTEX
  5
690
330
678
100
AcDbEntity
  8
DIBUJOS
 62
     7
100
AcDbVertex
100
AcDb2dVertex
 10
69.2258701144136
 20
33.54079087507664
 30
0.0
  0
VERTEX
  5
691
330
678
100
AcDbEntity
  8
DIBUJOS
 62
     7
100
AcDbVertex
100
AcDb2dVertex
 10
69.2258701144136
 20
33.53518276772868
 30
0.0
  0
VERTEX
  5
692
330
678
100
AcDbEntity
  8
DIBUJOS
 62
     7
100
AcDbVertex
100
AcDb2dVertex
 10
69.22308115252467
 20
28.99890758082052
 30
0.0
  0
VERTEX
  5
693
330
678
100
AcDbEntity
  8
DIBUJOS
 62
     7
100
AcDbVertex
100
AcDb2dVertex
 10
69.22865605794563
 20
28.05692438396015
 30
0.0
  0
VERTEX
  5
694
330
678
100
AcDbEntity
  8
DIBUJOS
 62
     7
100
AcDbVertex
100
AcDb2dVertex
 10
69.24588182147436
 20
26.13332168040504
 30
0.0
  0
VERTEX
  5
695
330
678
100
AcDbEntity
  8
DIBUJOS
 62
     7
100
AcDbVertex
100
AcDb2dVertex
 10
69.25192759059105
 20
26.08827043807226
 30
0.0
  0
VERTEX
  5
696
330
678
100
AcDbEntity
  8
DIBUJOS
 62
     7
100
AcDbVertex
100
AcDb2dVertex
 10
69.2707259181289
 20
26.02147872469386
 30
0.0
  0
VERTEX
  5
697
330
678
100
AcDbEntity
  8
DIBUJOS
 62
     7
100
AcDbVertex
100
AcDb2dVertex
 10
69.24269141810156
 20
25.99344271548793
 30
0.0
  0
VERTEX
  5
698
330
678
100
AcDbEntity
  8
DIBUJOS
 62
     7
100
AcDbVertex
100
AcDb2dVertex
 10
69.24829952544985
 20
25.96540670628199
 30
0.0
  0
VERTEX
  5
699
330
678
100
AcDbEntity
  8
DIBUJOS
 62
     7
100
AcDbVertex
100
AcDb2dVertex
 10
69.25390461444093
 20
25.95979935352332
 30
0.0
  0
VERTEX
  5
69A
330
678
100
AcDbEntity
  8
DIBUJOS
 62
     7
100
AcDbVertex
100
AcDb2dVertex
 10
69.29315532916516
 20
25.95979935352332
 30
0.0
  0
VERTEX
  5
69B
330
678
100
AcDbEntity
  8
DIBUJOS
 62
     7
100
AcDbVertex
100
AcDb2dVertex
 10
69.30549135431706
 20
25.94353795506286
 30
0.0
  0
VERTEX
  5
69C
330
678
100
AcDbEntity
  8
DIBUJOS
 62
     7
100
AcDbVertex
100
AcDb2dVertex
 10
69.30829540799137
 20
25.93680928266994
 30
0.0
  0
VERTEX
  5
69D
330
678
100
AcDbEntity
  8
DIBUJOS
 62
     7
100
AcDbVertex
100
AcDb2dVertex
 10
69.30997663285281
 20
25.92615523696878
 30
0.0
  0
VERTEX
  5
69E
330
678
100
AcDbEntity
  8
DIBUJOS
 62
     7
100
AcDbVertex
100
AcDb2dVertex
 10
69.34922734757704
 20
25.88690452224487
 30
0.0
  0
VERTEX
  5
69F
330
678
100
AcDbEntity
  8
DIBUJOS
 62
     7
100
AcDbVertex
100
AcDb2dVertex
 10
69.42268510243989
 20
25.84933654156133
 30
0.0
  0
VERTEX
  5
6A0
330
678
100
AcDbEntity
  8
DIBUJOS
 62
     7
100
AcDbVertex
100
AcDb2dVertex
 10
69.43277546996703
 20
25.8459718280699
 30
0.0
  0
VERTEX
  5
6A1
330
678
100
AcDbEntity
  8
DIBUJOS
 62
     7
100
AcDbVertex
100
AcDb2dVertex
 10
69.59613197039629
 20
25.82781565598889
 30
0.0
  0
VERTEX
  5
6A2
330
678
100
AcDbEntity
  8
DIBUJOS
 62
     7
100
AcDbVertex
100
AcDb2dVertex
 10
69.82035364018947
 20
25.81108037547613
 30
0.0
  0
VERTEX
  5
6A3
330
678
100
AcDbEntity
  8
DIBUJOS
 62
     7
100
AcDbVertex
100
AcDb2dVertex
 10
70.37547175367439
 20
25.78890526101867
 30
0.0
  0
VERTEX
  5
6A4
330
678
100
AcDbEntity
  8
DIBUJOS
 62
     7
100
AcDbVertex
100
AcDb2dVertex
 10
70.89110372058754
 20
25.81108037547613
 30
0.0
  0
VERTEX
  5
6A5
330
678
100
AcDbEntity
  8
DIBUJOS
 62
     7
100
AcDbVertex
100
AcDb2dVertex
 10
71.30565996587879
 20
25.84402574237944
 30
0.0
  0
VERTEX
  5
6A6
330
678
100
AcDbEntity
  8
DIBUJOS
 62
     7
100
AcDbVertex
100
AcDb2dVertex
 10
71.35718332025746
 20
25.86335454616398
 30
0.0
  0
VERTEX
  5
6A7
330
678
100
AcDbEntity
  8
DIBUJOS
 62
     7
100
AcDbVertex
100
AcDb2dVertex
 10
71.42390712060325
 20
25.89251187500417
 30
0.0
  0
VERTEX
  5
6A8
330
678
100
AcDbEntity
  8
DIBUJOS
 62
     7
100
AcDbVertex
100
AcDb2dVertex
 10
71.46445271048978
 20
25.93650744696805
 30
0.0
  0
VERTEX
  5
6A9
330
678
100
AcDbEntity
  8
DIBUJOS
 62
     7
100
AcDbVertex
100
AcDb2dVertex
 10
71.4799821573717
 20
25.95979935352332
 30
0.0
  0
VERTEX
  5
6AA
330
678
100
AcDbEntity
  8
DIBUJOS
 62
     7
100
AcDbVertex
100
AcDb2dVertex
 10
71.53044606843592
 20
25.96540670628199
 30
0.0
  0
SEQEND
  5
6AB
330
678
100
AcDbEntity
  8
DIBUJOS
 62
     7
  0
POLYLINE
  5
6AC
330
1F
100
AcDbEntity
  8
DIBUJOS
 62
     7
100
AcDb2dPolyline
 66
     1
 10
0.0
 20
0.0
 30
0.0
  0
VERTEX
  5
6AD
330
6AC
100
AcDbEntity
  8
DIBUJOS
 62
     7
100
AcDbVertex
100
AcDb2dVertex
 10
90.70755811398863
 20
25.95979935352332
 30
0.0
  0
VERTEX
  5
6AE
330
6AC
100
AcDbEntity
  8
DIBUJOS
 62
     7
100
AcDbVertex
100
AcDb2dVertex
 10
90.7524169360605
 20
25.95979935352332
 30
0.0
  0
VERTEX
  5
6AF
330
6AC
100
AcDbEntity
  8
DIBUJOS
 62
     7
100
AcDbVertex
100
AcDb2dVertex
 10
90.77372351828423
 20
25.92559457715197
 30
0.0
  0
VERTEX
  5
6B0
330
6AC
100
AcDbEntity
  8
DIBUJOS
 62
     7
100
AcDbVertex
100
AcDb2dVertex
 10
90.77484634709644
 20
25.92054863879942
 30
0.0
  0
VERTEX
  5
6B1
330
6AC
100
AcDbEntity
  8
DIBUJOS
 62
     7
100
AcDbVertex
100
AcDb2dVertex
 10
90.81353564741488
 20
25.89139055536992
 30
0.0
  0
VERTEX
  5
6B2
330
6AC
100
AcDbEntity
  8
DIBUJOS
 62
     7
100
AcDbVertex
100
AcDb2dVertex
 10
90.85278636213879
 20
25.87400783727584
 30
0.0
  0
VERTEX
  5
6B3
330
6AC
100
AcDbEntity
  8
DIBUJOS
 62
     7
100
AcDbVertex
100
AcDb2dVertex
 10
90.9432374670397
 20
25.83904469870294
 30
0.0
  0
VERTEX
  5
6B4
330
6AC
100
AcDbEntity
  8
DIBUJOS
 62
     7
100
AcDbVertex
100
AcDb2dVertex
 10
91.08863776154027
 20
25.82828048297022
 30
0.0
  0
VERTEX
  5
6B5
330
6AC
100
AcDbEntity
  8
DIBUJOS
 62
     7
100
AcDbVertex
100
AcDb2dVertex
 10
91.59360285473574
 20
25.79988528927871
 30
0.0
  0
VERTEX
  5
6B6
330
6AC
100
AcDbEntity
  8
DIBUJOS
 62
     7
100
AcDbVertex
100
AcDb2dVertex
 10
91.85691526633026
 20
25.78891808903614
 30
0.0
  0
VERTEX
  5
6B7
330
6AC
100
AcDbEntity
  8
DIBUJOS
 62
     7
100
AcDbVertex
100
AcDb2dVertex
 10
92.47963250369682
 20
25.81702804798912
 30
0.0
  0
VERTEX
  5
6B8
330
6AC
100
AcDbEntity
  8
DIBUJOS
 62
     7
100
AcDbVertex
100
AcDb2dVertex
 10
92.7708254791115
 20
25.83901225136492
 30
0.0
  0
VERTEX
  5
6B9
330
6AC
100
AcDbEntity
  8
DIBUJOS
 62
     7
100
AcDbVertex
100
AcDb2dVertex
 10
92.84896470571654
 20
25.87120453819115
 30
0.0
  0
VERTEX
  5
6BA
330
6AC
100
AcDbEntity
  8
DIBUJOS
 62
     7
100
AcDbVertex
100
AcDb2dVertex
 10
92.88316872749924
 20
25.88690452224487
 30
0.0
  0
VERTEX
  5
6BB
330
6AC
100
AcDbEntity
  8
DIBUJOS
 62
     7
100
AcDbVertex
100
AcDb2dVertex
 10
92.92241944222314
 20
25.92615523696878
 30
0.0
  0
VERTEX
  5
6BC
330
6AC
100
AcDbEntity
  8
DIBUJOS
 62
     7
100
AcDbVertex
100
AcDb2dVertex
 10
92.92914736002612
 20
25.94802398818791
 30
0.0
  0
VERTEX
  5
6BD
330
6AC
100
AcDbEntity
  8
DIBUJOS
 62
     7
100
AcDbVertex
100
AcDb2dVertex
 10
92.9392407459111
 20
25.96540670628199
 30
0.0
  0
VERTEX
  5
6BE
330
6AC
100
AcDbEntity
  8
DIBUJOS
 62
     7
100
AcDbVertex
100
AcDb2dVertex
 10
92.94484885325907
 20
25.95979935352332
 30
0.0
  0
VERTEX
  5
6BF
330
6AC
100
AcDbEntity
  8
DIBUJOS
 62
     7
100
AcDbVertex
100
AcDb2dVertex
 10
92.97288335328642
 20
25.95979935352332
 30
0.0
  0
VERTEX
  5
6C0
330
6AC
100
AcDbEntity
  8
DIBUJOS
 62
     7
100
AcDbVertex
100
AcDb2dVertex
 10
92.98970465697438
 20
25.9766206572113
 30
0.0
  0
VERTEX
  5
6C1
330
6AC
100
AcDbEntity
  8
DIBUJOS
 62
     7
100
AcDbVertex
100
AcDb2dVertex
 10
92.98970465697438
 20
25.99904931365793
 30
0.0
  0
VERTEX
  5
6C2
330
6AC
100
AcDbEntity
  8
DIBUJOS
 62
     7
100
AcDbVertex
100
AcDb2dVertex
 10
92.96167015694705
 20
26.02147872469386
 30
0.0
  0
VERTEX
  5
6C3
330
6AC
100
AcDbEntity
  8
DIBUJOS
 62
     7
100
AcDbVertex
100
AcDb2dVertex
 10
92.98697606222603
 20
26.13369369290809
 30
0.0
  0
VERTEX
  5
6C4
330
6AC
100
AcDbEntity
  8
DIBUJOS
 62
     7
100
AcDbVertex
100
AcDb2dVertex
 10
92.99811681799697
 20
27.14292739341441
 30
0.0
  0
VERTEX
  5
6C5
330
6AC
100
AcDbEntity
  8
DIBUJOS
 62
     7
100
AcDbVertex
100
AcDb2dVertex
 10
93.00652897901892
 20
28.81949266644095
 30
0.0
  0
VERTEX
  5
6C6
330
6AC
100
AcDbEntity
  8
DIBUJOS
 62
     7
100
AcDbVertex
100
AcDb2dVertex
 10
93.00652897901892
 20
33.69779373397292
 30
0.0
  0
VERTEX
  5
6C7
330
6AC
100
AcDbEntity
  8
DIBUJOS
 62
     7
100
AcDbVertex
100
AcDb2dVertex
 10
92.99811681799697
 20
34.44916391189973
 30
0.0
  0
VERTEX
  5
6C8
330
6AC
100
AcDbEntity
  8
DIBUJOS
 62
     7
100
AcDbVertex
100
AcDb2dVertex
 10
92.98645388646038
 20
35.33544408449406
 30
0.0
  0
VERTEX
  5
6C9
330
6AC
100
AcDbEntity
  8
DIBUJOS
 62
     7
100
AcDbVertex
100
AcDb2dVertex
 10
92.98174223114839
 20
35.36841510743233
 30
0.0
  0
VERTEX
  5
6CA
330
6AC
100
AcDbEntity
  8
DIBUJOS
 62
     7
100
AcDbVertex
100
AcDb2dVertex
 10
92.96167015694705
 20
35.43043178000064
 30
0.0
  0
SEQEND
  5
6CB
330
6AC
100
AcDbEntity
  8
DIBUJOS
 62
     7
  0
POLYLINE
  5
6CC
330
1F
100
AcDbEntity
  8
DIBUJOS
 62
     7
100
AcDb2dPolyline
 66
     1
 10
0.0
 20
0.0
 30
0.0
  0
VERTEX
  5
6CD
330
6CC
100
AcDbEntity
  8
DIBUJOS
 62
     7
100
AcDbVertex
100
AcDb2dVertex
 10
113.4092798308027
 20
49.25419703444943
 30
0.0
  0
VERTEX
  5
6CE
330
6CC
100
AcDbEntity
  8
DIBUJOS
 62
     7
100
AcDbVertex
100
AcDb2dVertex
 10
113.3033022973765
 20
49.30578377432556
 30
0.0
  0
VERTEX
  5
6CF
330
6CC
100
AcDbEntity
  8
DIBUJOS
 62
     7
100
AcDbVertex
100
AcDb2dVertex
 10
113.2802360130088
 20
49.31315158381813
 30
0.0
  0
VERTEX
  5
6D0
330
6CC
100
AcDbEntity
  8
DIBUJOS
 62
     7
100
AcDbVertex
100
AcDb2dVertex
 10
113.0783864054682
 20
49.31874459938135
 30
0.0
  0
VERTEX
  5
6D1
330
6CC
100
AcDbEntity
  8
DIBUJOS
 62
     7
100
AcDbVertex
100
AcDb2dVertex
 10
111.8280138986455
 20
49.34673684241039
 30
0.0
  0
VERTEX
  5
6D2
330
6CC
100
AcDbEntity
  8
DIBUJOS
 62
     7
100
AcDbVertex
100
AcDb2dVertex
 10
110.3645680236927
 20
49.35790778175177
 30
0.0
  0
VERTEX
  5
6D3
330
6CC
100
AcDbEntity
  8
DIBUJOS
 62
     7
100
AcDbVertex
100
AcDb2dVertex
 10
107.0394508491678
 20
49.36073296392522
 30
0.0
  0
VERTEX
  5
6D4
330
6CC
100
AcDbEntity
  8
DIBUJOS
 62
     7
100
AcDbVertex
100
AcDb2dVertex
 10
106.3217247877955
 20
49.34951976758553
 30
0.0
  0
VERTEX
  5
6D5
330
6CC
100
AcDbEntity
  8
DIBUJOS
 62
     7
100
AcDbVertex
100
AcDb2dVertex
 10
105.3067026331092
 20
49.34683644819237
 30
0.0
  0
VERTEX
  5
6D6
330
6CC
100
AcDbEntity
  8
DIBUJOS
 62
     7
100
AcDbVertex
100
AcDb2dVertex
 10
105.1779591418385
 20
49.35220006862214
 30
0.0
  0
VERTEX
  5
6D7
330
6CC
100
AcDbEntity
  8
DIBUJOS
 62
     7
100
AcDbVertex
100
AcDb2dVertex
 10
104.8582336374879
 20
49.36073296392522
 30
0.0
  0
VERTEX
  5
6D8
330
6CC
100
AcDbEntity
  8
DIBUJOS
 62
     7
100
AcDbVertex
100
AcDb2dVertex
 10
104.6172495219687
 20
49.34685455833432
 30
0.0
  0
VERTEX
  5
6D9
330
6CC
100
AcDbEntity
  8
DIBUJOS
 62
     7
100
AcDbVertex
100
AcDb2dVertex
 10
104.4882721080288
 20
49.34123437755817
 30
0.0
  0
VERTEX
  5
6DA
330
6CC
100
AcDbEntity
  8
DIBUJOS
 62
     7
100
AcDbVertex
100
AcDb2dVertex
 10
104.0502300267431
 20
49.30578377432556
 30
0.0
  0
VERTEX
  5
6DB
330
6CC
100
AcDbEntity
  8
DIBUJOS
 62
     7
100
AcDbVertex
100
AcDb2dVertex
 10
104.0003260209073
 20
49.25980212344083
 30
0.0
  0
SEQEND
  5
6DC
330
6CC
100
AcDbEntity
  8
DIBUJOS
 62
     7
  0
POLYLINE
  5
6DD
330
1F
100
AcDbEntity
  8
DIBUJOS
 62
     7
100
AcDb2dPolyline
 66
     1
 10
0.0
 20
0.0
 30
0.0
  0
VERTEX
  5
6DE
330
6DD
100
AcDbEntity
  8
DIBUJOS
 62
     7
100
AcDbVertex
100
AcDb2dVertex
 10
113.4148849197941
 20
49.25419703444943
 30
0.0
  0
VERTEX
  5
6DF
330
6DD
100
AcDbEntity
  8
DIBUJOS
 62
     7
100
AcDbVertex
100
AcDb2dVertex
 10
113.4092798308027
 20
49.25419703444943
 30
0.0
  0
SEQEND
  5
6E0
330
6DD
100
AcDbEntity
  8
DIBUJOS
 62
     7
  0
POLYLINE
  5
6E1
330
1F
100
AcDbEntity
  8
DIBUJOS
 62
     7
100
AcDb2dPolyline
 66
     1
 10
0.0
 20
0.0
 30
0.0
  0
VERTEX
  5
6E2
330
6E1
100
AcDbEntity
  8
DIBUJOS
 62
     7
100
AcDbVertex
100
AcDb2dVertex
 10
113.4148849197941
 20
49.25419703444943
 30
0.0
  0
VERTEX
  5
6E3
330
6E1
100
AcDbEntity
  8
DIBUJOS
 62
     7
100
AcDbVertex
100
AcDb2dVertex
 10
113.4148849197941
 20
49.25980212344083
 30
0.0
  0
SEQEND
  5
6E4
330
6E1
100
AcDbEntity
  8
DIBUJOS
 62
     7
  0
POLYLINE
  5
6E5
330
1F
100
AcDbEntity
  8
DIBUJOS
 62
     7
100
AcDb2dPolyline
 66
     1
 10
0.0
 20
0.0
 30
0.0
  0
VERTEX
  5
6E6
330
6E5
100
AcDbEntity
  8
DIBUJOS
 62
     7
100
AcDbVertex
100
AcDb2dVertex
 10
103.9330392969768
 20
49.24298081975254
 30
0.0
  0
VERTEX
  5
6E7
330
6E5
100
AcDbEntity
  8
DIBUJOS
 62
     7
100
AcDbVertex
100
AcDb2dVertex
 10
103.9442540024954
 20
49.28223153447708
 30
0.0
  0
VERTEX
  5
6E8
330
6E5
100
AcDbEntity
  8
DIBUJOS
 62
     7
100
AcDbVertex
100
AcDb2dVertex
 10
103.9610753061827
 20
49.29344774917366
 30
0.0
  0
VERTEX
  5
6E9
330
6E5
100
AcDbEntity
  8
DIBUJOS
 62
     7
100
AcDbVertex
100
AcDb2dVertex
 10
103.9722900117013
 20
49.29344774917366
 30
0.0
  0
VERTEX
  5
6EA
330
6E5
100
AcDbEntity
  8
DIBUJOS
 62
     7
100
AcDbVertex
100
AcDb2dVertex
 10
103.9958407423715
 20
49.26597164519522
 30
0.0
  0
VERTEX
  5
6EB
330
6E5
100
AcDbEntity
  8
DIBUJOS
 62
     7
100
AcDbVertex
100
AcDb2dVertex
 10
104.0003260209073
 20
49.25980212344083
 30
0.0
  0
SEQEND
  5
6EC
330
6E5
100
AcDbEntity
  8
DIBUJOS
 62
     7
  0
POLYLINE
  5
6ED
330
1F
100
AcDbEntity
  8
DIBUJOS
 62
     7
100
AcDb2dPolyline
 66
     1
 10
0.0
 20
0.0
 30
0.0
  0
VERTEX
  5
6EE
330
6ED
100
AcDbEntity
  8
DIBUJOS
 62
     7
100
AcDbVertex
100
AcDb2dVertex
 10
103.9330392969768
 20
49.23737271240457
 30
0.0
  0
VERTEX
  5
6EF
330
6ED
100
AcDbEntity
  8
DIBUJOS
 62
     7
100
AcDbVertex
100
AcDb2dVertex
 10
103.9274326988074
 20
49.23737271240457
 30
0.0
  0
SEQEND
  5
6F0
330
6ED
100
AcDbEntity
  8
DIBUJOS
 62
     7
  0
POLYLINE
  5
6F1
330
1F
100
AcDbEntity
  8
DIBUJOS
 62
     7
100
AcDb2dPolyline
 66
     1
 10
0.0
 20
0.0
 30
0.0
  0
VERTEX
  5
6F2
330
6F1
100
AcDbEntity
  8
DIBUJOS
 62
     7
100
AcDbVertex
100
AcDb2dVertex
 10
103.9330392969768
 20
49.23737271240457
 30
0.0
  0
VERTEX
  5
6F3
330
6F1
100
AcDbEntity
  8
DIBUJOS
 62
     7
100
AcDbVertex
100
AcDb2dVertex
 10
103.9330392969768
 20
49.24298081975254
 30
0.0
  0
SEQEND
  5
6F4
330
6F1
100
AcDbEntity
  8
DIBUJOS
 62
     7
  0
POLYLINE
  5
6F5
330
1F
100
AcDbEntity
  8
DIBUJOS
 62
     7
100
AcDb2dPolyline
 66
     1
 10
0.0
 20
0.0
 30
0.0
  0
VERTEX
  5
6F6
330
6F5
100
AcDbEntity
  8
DIBUJOS
 62
     7
100
AcDbVertex
100
AcDb2dVertex
 10
103.9330392969768
 20
49.23176762341349
 30
0.0
  0
VERTEX
  5
6F7
330
6F5
100
AcDbEntity
  8
DIBUJOS
 62
     7
100
AcDbVertex
100
AcDb2dVertex
 10
103.9330392969768
 20
49.23737271240457
 30
0.0
  0
SEQEND
  5
6F8
330
6F5
100
AcDbEntity
  8
DIBUJOS
 62
     7
  0
POLYLINE
  5
6F9
330
1F
100
AcDbEntity
  8
DIBUJOS
 62
     7
100
AcDb2dPolyline
 66
     1
 10
0.0
 20
0.0
 30
0.0
  0
VERTEX
  5
6FA
330
6F9
100
AcDbEntity
  8
DIBUJOS
 62
     7
100
AcDbVertex
100
AcDb2dVertex
 10
103.9274326988074
 20
49.22615951606489
 30
0.0
  0
VERTEX
  5
6FB
330
6F9
100
AcDbEntity
  8
DIBUJOS
 62
     7
100
AcDbVertex
100
AcDb2dVertex
 10
103.9330392969768
 20
49.23176762341349
 30
0.0
  0
SEQEND
  5
6FC
330
6F9
100
AcDbEntity
  8
DIBUJOS
 62
     7
  0
POLYLINE
  5
6FD
330
1F
100
AcDbEntity
  8
DIBUJOS
 62
     7
100
AcDb2dPolyline
 66
     1
 10
0.0
 20
0.0
 30
0.0
  0
VERTEX
  5
6FE
330
6FD
100
AcDbEntity
  8
DIBUJOS
 62
     7
100
AcDbVertex
100
AcDb2dVertex
 10
113.470956938206
 20
49.16447939030504
 30
0.0
  0
VERTEX
  5
6FF
330
6FD
100
AcDbEntity
  8
DIBUJOS
 62
     7
100
AcDbVertex
100
AcDb2dVertex
 10
113.470956938206
 20
49.20373010502895
 30
0.0
  0
SEQEND
  5
700
330
6FD
100
AcDbEntity
  8
DIBUJOS
 62
     7
  0
POLYLINE
  5
701
330
1F
100
AcDbEntity
  8
DIBUJOS
 62
     7
100
AcDb2dPolyline
 66
     1
 10
0.0
 20
0.0
 30
0.0
  0
VERTEX
  5
702
330
701
100
AcDbEntity
  8
DIBUJOS
 62
     7
100
AcDbVertex
100
AcDb2dVertex
 10
103.9386458951468
 20
49.15326619396536
 30
0.0
  0
VERTEX
  5
703
330
701
100
AcDbEntity
  8
DIBUJOS
 62
     7
100
AcDbVertex
100
AcDb2dVertex
 10
103.9442540024954
 20
49.15887430131364
 30
0.0
  0
VERTEX
  5
704
330
701
100
AcDbEntity
  8
DIBUJOS
 62
     7
100
AcDbVertex
100
AcDb2dVertex
 10
103.9442540024954
 20
49.21494631972552
 30
0.0
  0
SEQEND
  5
705
330
701
100
AcDbEntity
  8
DIBUJOS
 62
     7
  0
POLYLINE
  5
706
330
1F
100
AcDbEntity
  8
DIBUJOS
 62
     7
100
AcDb2dPolyline
 66
     1
 10
0.0
 20
0.0
 30
0.0
  0
VERTEX
  5
707
330
706
100
AcDbEntity
  8
DIBUJOS
 62
     7
100
AcDbVertex
100
AcDb2dVertex
 10
103.9050032877709
 20
45.98517451601416
 30
0.0
  0
VERTEX
  5
708
330
706
100
AcDbEntity
  8
DIBUJOS
 62
     7
100
AcDbVertex
100
AcDb2dVertex
 10
103.8590503112783
 20
46.02305791500702
 30
0.0
  0
VERTEX
  5
709
330
706
100
AcDbEntity
  8
DIBUJOS
 62
     7
100
AcDbVertex
100
AcDb2dVertex
 10
103.7872511435991
 20
46.09171044548964
 30
0.0
  0
VERTEX
  5
70A
330
706
100
AcDbEntity
  8
DIBUJOS
 62
     7
100
AcDbVertex
100
AcDb2dVertex
 10
103.7858838278674
 20
46.09622590759583
 30
0.0
  0
VERTEX
  5
70B
330
706
100
AcDbEntity
  8
DIBUJOS
 62
     7
100
AcDbVertex
100
AcDb2dVertex
 10
103.7648217325626
 20
46.11974796387418
 30
0.0
  0
VERTEX
  5
70C
330
706
100
AcDbEntity
  8
DIBUJOS
 62
     7
100
AcDbVertex
100
AcDb2dVertex
 10
103.7648217325626
 20
49.08597796085658
 30
0.0
  0
VERTEX
  5
70D
330
706
100
AcDbEntity
  8
DIBUJOS
 62
     7
100
AcDbVertex
100
AcDb2dVertex
 10
103.826501858323
 20
49.17008749765301
 30
0.0
  0
VERTEX
  5
70E
330
706
100
AcDbEntity
  8
DIBUJOS
 62
     7
100
AcDbVertex
100
AcDb2dVertex
 10
103.843323162011
 20
49.18690880134098
 30
0.0
  0
VERTEX
  5
70F
330
706
100
AcDbEntity
  8
DIBUJOS
 62
     7
100
AcDbVertex
100
AcDb2dVertex
 10
103.9238031244873
 20
49.2396817555271
 30
0.0
  0
VERTEX
  5
710
330
706
100
AcDbEntity
  8
DIBUJOS
 62
     7
100
AcDbVertex
100
AcDb2dVertex
 10
103.9274326988074
 20
49.23737271240457
 30
0.0
  0
SEQEND
  5
711
330
706
100
AcDbEntity
  8
DIBUJOS
 62
     7
  0
POLYLINE
  5
712
330
1F
100
AcDbEntity
  8
DIBUJOS
 62
     7
100
AcDb2dPolyline
 66
     1
 10
0.0
 20
0.0
 30
0.0
  0
VERTEX
  5
713
330
712
100
AcDbEntity
  8
DIBUJOS
 62
     7
100
AcDbVertex
100
AcDb2dVertex
 10
103.9106098859409
 20
45.98517451601416
 30
0.0
  0
VERTEX
  5
714
330
712
100
AcDbEntity
  8
DIBUJOS
 62
     7
100
AcDbVertex
100
AcDb2dVertex
 10
103.9050032877709
 20
45.98517451601416
 30
0.0
  0
SEQEND
  5
715
330
712
100
AcDbEntity
  8
DIBUJOS
 62
     7
  0
POLYLINE
  5
716
330
1F
100
AcDbEntity
  8
DIBUJOS
 62
     7
100
AcDb2dPolyline
 66
     1
 10
0.0
 20
0.0
 30
0.0
  0
VERTEX
  5
717
330
716
100
AcDbEntity
  8
DIBUJOS
 62
     7
100
AcDbVertex
100
AcDb2dVertex
 10
103.9218245914588
 20
45.98517451601416
 30
0.0
  0
VERTEX
  5
718
330
716
100
AcDbEntity
  8
DIBUJOS
 62
     7
100
AcDbVertex
100
AcDb2dVertex
 10
103.9162179932895
 20
45.99077960500556
 30
0.0
  0
VERTEX
  5
719
330
716
100
AcDbEntity
  8
DIBUJOS
 62
     7
100
AcDbVertex
100
AcDb2dVertex
 10
103.9106098859409
 20
45.98517451601416
 30
0.0
  0
SEQEND
  5
71A
330
716
100
AcDbEntity
  8
DIBUJOS
 62
     7
  0
POLYLINE
  5
71B
330
1F
100
AcDbEntity
  8
DIBUJOS
 62
     7
100
AcDb2dPolyline
 66
     1
 10
0.0
 20
0.0
 30
0.0
  0
VERTEX
  5
71C
330
71B
100
AcDbEntity
  8
DIBUJOS
 62
     7
100
AcDbVertex
100
AcDb2dVertex
 10
103.9274326988074
 20
45.98517451601416
 30
0.0
  0
VERTEX
  5
71D
330
71B
100
AcDbEntity
  8
DIBUJOS
 62
     7
100
AcDbVertex
100
AcDb2dVertex
 10
103.9218245914588
 20
45.98517451601416
 30
0.0
  0
SEQEND
  5
71E
330
71B
100
AcDbEntity
  8
DIBUJOS
 62
     7
  0
POLYLINE
  5
71F
330
1F
100
AcDbEntity
  8
DIBUJOS
 62
     7
100
AcDb2dPolyline
 66
     1
 10
0.0
 20
0.0
 30
0.0
  0
VERTEX
  5
720
330
71F
100
AcDbEntity
  8
DIBUJOS
 62
     7
100
AcDbVertex
100
AcDb2dVertex
 10
103.9106098859409
 20
45.97956640866588
 30
0.0
  0
VERTEX
  5
721
330
71F
100
AcDbEntity
  8
DIBUJOS
 62
     7
100
AcDbVertex
100
AcDb2dVertex
 10
103.9106098859409
 20
45.98517451601416
 30
0.0
  0
SEQEND
  5
722
330
71F
100
AcDbEntity
  8
DIBUJOS
 62
     7
  0
POLYLINE
  5
723
330
1F
100
AcDbEntity
  8
DIBUJOS
 62
     7
100
AcDb2dPolyline
 66
     1
 10
0.0
 20
0.0
 30
0.0
  0
VERTEX
  5
724
330
723
100
AcDbEntity
  8
DIBUJOS
 62
     7
100
AcDbVertex
100
AcDb2dVertex
 10
103.9218245914588
 20
45.97956640866588
 30
0.0
  0
VERTEX
  5
725
330
723
100
AcDbEntity
  8
DIBUJOS
 62
     7
100
AcDbVertex
100
AcDb2dVertex
 10
103.9218245914588
 20
45.98517451601416
 30
0.0
  0
SEQEND
  5
726
330
723
100
AcDbEntity
  8
DIBUJOS
 62
     7
  0
POLYLINE
  5
727
330
1F
100
AcDbEntity
  8
DIBUJOS
 62
     7
100
AcDb2dPolyline
 66
     1
 10
0.0
 20
0.0
 30
0.0
  0
VERTEX
  5
728
330
727
100
AcDbEntity
  8
DIBUJOS
 62
     7
100
AcDbVertex
100
AcDb2dVertex
 10
103.9330392969768
 20
45.97956640866588
 30
0.0
  0
VERTEX
  5
729
330
727
100
AcDbEntity
  8
DIBUJOS
 62
     7
100
AcDbVertex
100
AcDb2dVertex
 10
103.9274326988074
 20
45.98517451601416
 30
0.0
  0
SEQEND
  5
72A
330
727
100
AcDbEntity
  8
DIBUJOS
 62
     7
  0
POLYLINE
  5
72B
330
1F
100
AcDbEntity
  8
DIBUJOS
 62
     7
100
AcDb2dPolyline
 66
     1
 10
0.0
 20
0.0
 30
0.0
  0
VERTEX
  5
72C
330
72B
100
AcDbEntity
  8
DIBUJOS
 62
     7
100
AcDbVertex
100
AcDb2dVertex
 10
103.9386458951468
 20
45.97956640866588
 30
0.0
  0
VERTEX
  5
72D
330
72B
100
AcDbEntity
  8
DIBUJOS
 62
     7
100
AcDbVertex
100
AcDb2dVertex
 10
103.9330392969768
 20
45.97956640866588
 30
0.0
  0
SEQEND
  5
72E
330
72B
100
AcDbEntity
  8
DIBUJOS
 62
     7
  0
POLYLINE
  5
72F
330
1F
100
AcDbEntity
  8
DIBUJOS
 62
     7
100
AcDb2dPolyline
 66
     1
 10
0.0
 20
0.0
 30
0.0
  0
VERTEX
  5
730
330
72F
100
AcDbEntity
  8
DIBUJOS
 62
     7
100
AcDbVertex
100
AcDb2dVertex
 10
103.9386458951468
 20
45.97956640866588
 30
0.0
  0
VERTEX
  5
731
330
72F
100
AcDbEntity
  8
DIBUJOS
 62
     7
100
AcDbVertex
100
AcDb2dVertex
 10
103.9442540024954
 20
45.98517451601416
 30
0.0
  0
VERTEX
  5
732
330
72F
100
AcDbEntity
  8
DIBUJOS
 62
     7
100
AcDbVertex
100
AcDb2dVertex
 10
103.9442540024954
 20
46.04124653442604
 30
0.0
  0
SEQEND
  5
733
330
72F
100
AcDbEntity
  8
DIBUJOS
 62
     7
  0
POLYLINE
  5
734
330
1F
100
AcDbEntity
  8
DIBUJOS
 62
     7
100
AcDb2dPolyline
 66
     1
 10
0.0
 20
0.0
 30
0.0
  0
VERTEX
  5
735
330
734
100
AcDbEntity
  8
DIBUJOS
 62
     7
100
AcDbVertex
100
AcDb2dVertex
 10
113.470956938206
 20
46.03563842707776
 30
0.0
  0
VERTEX
  5
736
330
734
100
AcDbEntity
  8
DIBUJOS
 62
     7
100
AcDbVertex
100
AcDb2dVertex
 10
113.470956938206
 20
45.98517451601416
 30
0.0
  0
VERTEX
  5
737
330
734
100
AcDbEntity
  8
DIBUJOS
 62
     7
100
AcDbVertex
100
AcDb2dVertex
 10
113.4765650455546
 20
45.97956640866588
 30
0.0
  0
VERTEX
  5
738
330
734
100
AcDbEntity
  8
DIBUJOS
 62
     7
100
AcDbVertex
100
AcDb2dVertex
 10
113.4933863492426
 20
45.98517451601416
 30
0.0
  0
SEQEND
  5
739
330
734
100
AcDbEntity
  8
DIBUJOS
 62
     7
  0
POLYLINE
  5
73A
330
1F
100
AcDbEntity
  8
DIBUJOS
 62
     7
100
AcDb2dPolyline
 66
     1
 10
0.0
 20
0.0
 30
0.0
  0
VERTEX
  5
73B
330
73A
100
AcDbEntity
  8
DIBUJOS
 62
     7
100
AcDbVertex
100
AcDb2dVertex
 10
103.9162179932895
 20
45.97395830131759
 30
0.0
  0
VERTEX
  5
73C
330
73A
100
AcDbEntity
  8
DIBUJOS
 62
     7
100
AcDbVertex
100
AcDb2dVertex
 10
103.9106098859409
 20
45.97956640866588
 30
0.0
  0
SEQEND
  5
73D
330
73A
100
AcDbEntity
  8
DIBUJOS
 62
     7
  0
POLYLINE
  5
73E
330
1F
100
AcDbEntity
  8
DIBUJOS
 62
     7
100
AcDb2dPolyline
 66
     1
 10
0.0
 20
0.0
 30
0.0
  0
VERTEX
  5
73F
330
73E
100
AcDbEntity
  8
DIBUJOS
 62
     7
100
AcDbVertex
100
AcDb2dVertex
 10
103.9162179932895
 20
45.97395830131759
 30
0.0
  0
VERTEX
  5
740
330
73E
100
AcDbEntity
  8
DIBUJOS
 62
     7
100
AcDbVertex
100
AcDb2dVertex
 10
103.9218245914588
 20
45.97956640866588
 30
0.0
  0
SEQEND
  5
741
330
73E
100
AcDbEntity
  8
DIBUJOS
 62
     7
  0
POLYLINE
  5
742
330
1F
100
AcDbEntity
  8
DIBUJOS
 62
     7
100
AcDb2dPolyline
 66
     1
 10
0.0
 20
0.0
 30
0.0
  0
VERTEX
  5
743
330
742
100
AcDbEntity
  8
DIBUJOS
 62
     7
100
AcDbVertex
100
AcDb2dVertex
 10
103.9386458951468
 20
45.97395830131759
 30
0.0
  0
VERTEX
  5
744
330
742
100
AcDbEntity
  8
DIBUJOS
 62
     7
100
AcDbVertex
100
AcDb2dVertex
 10
103.9386458951468
 20
45.97956640866588
 30
0.0
  0
SEQEND
  5
745
330
742
100
AcDbEntity
  8
DIBUJOS
 62
     7
  0
POLYLINE
  5
746
330
1F
100
AcDbEntity
  8
DIBUJOS
 62
     7
100
AcDb2dPolyline
 66
     1
 10
0.0
 20
0.0
 30
0.0
  0
VERTEX
  5
747
330
746
100
AcDbEntity
  8
DIBUJOS
 62
     7
100
AcDbVertex
100
AcDb2dVertex
 10
113.4148849197941
 20
45.96835321232619
 30
0.0
  0
VERTEX
  5
748
330
746
100
AcDbEntity
  8
DIBUJOS
 62
     7
100
AcDbVertex
100
AcDb2dVertex
 10
113.4232578421756
 20
46.36642620991686
 30
0.0
  0
VERTEX
  5
749
330
746
100
AcDbEntity
  8
DIBUJOS
 62
     7
100
AcDbVertex
100
AcDb2dVertex
 10
113.4232608605322
 20
48.82808048176045
 30
0.0
  0
VERTEX
  5
74A
330
746
100
AcDbEntity
  8
DIBUJOS
 62
     7
100
AcDbVertex
100
AcDb2dVertex
 10
113.4148849197941
 20
49.25419703444943
 30
0.0
  0
SEQEND
  5
74B
330
746
100
AcDbEntity
  8
DIBUJOS
 62
     7
  0
POLYLINE
  5
74C
330
1F
100
AcDbEntity
  8
DIBUJOS
 62
     7
100
AcDb2dPolyline
 66
     1
 10
0.0
 20
0.0
 30
0.0
  0
VERTEX
  5
74D
330
74C
100
AcDbEntity
  8
DIBUJOS
 62
     7
100
AcDbVertex
100
AcDb2dVertex
 10
104.0003260209073
 20
45.96274510497791
 30
0.0
  0
VERTEX
  5
74E
330
74C
100
AcDbEntity
  8
DIBUJOS
 62
     7
100
AcDbVertex
100
AcDb2dVertex
 10
103.9919832820959
 20
46.19818298946766
 30
0.0
  0
VERTEX
  5
74F
330
74C
100
AcDbEntity
  8
DIBUJOS
 62
     7
100
AcDbVertex
100
AcDb2dVertex
 10
103.9919772453821
 20
49.00192879120041
 30
0.0
  0
VERTEX
  5
750
330
74C
100
AcDbEntity
  8
DIBUJOS
 62
     7
100
AcDbVertex
100
AcDb2dVertex
 10
104.0003260209073
 20
49.25980212344083
 30
0.0
  0
SEQEND
  5
751
330
74C
100
AcDbEntity
  8
DIBUJOS
 62
     7
  0
POLYLINE
  5
752
330
1F
100
AcDbEntity
  8
DIBUJOS
 62
     7
100
AcDb2dPolyline
 66
     1
 10
0.0
 20
0.0
 30
0.0
  0
VERTEX
  5
753
330
752
100
AcDbEntity
  8
DIBUJOS
 62
     7
100
AcDbVertex
100
AcDb2dVertex
 10
104.0059341282552
 20
45.96274510497791
 30
0.0
  0
VERTEX
  5
754
330
752
100
AcDbEntity
  8
DIBUJOS
 62
     7
100
AcDbVertex
100
AcDb2dVertex
 10
104.0003260209073
 20
45.96274510497791
 30
0.0
  0
SEQEND
  5
755
330
752
100
AcDbEntity
  8
DIBUJOS
 62
     7
  0
POLYLINE
  5
756
330
1F
100
AcDbEntity
  8
DIBUJOS
 62
     7
100
AcDb2dPolyline
 66
     1
 10
0.0
 20
0.0
 30
0.0
  0
VERTEX
  5
757
330
756
100
AcDbEntity
  8
DIBUJOS
 62
     7
100
AcDbVertex
100
AcDb2dVertex
 10
113.4148849197941
 20
45.96274510497791
 30
0.0
  0
VERTEX
  5
758
330
756
100
AcDbEntity
  8
DIBUJOS
 62
     7
100
AcDbVertex
100
AcDb2dVertex
 10
113.4092798308027
 20
45.96274510497791
 30
0.0
  0
SEQEND
  5
759
330
756
100
AcDbEntity
  8
DIBUJOS
 62
     7
  0
POLYLINE
  5
75A
330
1F
100
AcDbEntity
  8
DIBUJOS
 62
     7
100
AcDb2dPolyline
 66
     1
 10
0.0
 20
0.0
 30
0.0
  0
VERTEX
  5
75B
330
75A
100
AcDbEntity
  8
DIBUJOS
 62
     7
100
AcDbVertex
100
AcDb2dVertex
 10
113.4148849197941
 20
45.96274510497791
 30
0.0
  0
VERTEX
  5
75C
330
75A
100
AcDbEntity
  8
DIBUJOS
 62
     7
100
AcDbVertex
100
AcDb2dVertex
 10
113.4148849197941
 20
45.96835321232619
 30
0.0
  0
SEQEND
  5
75D
330
75A
100
AcDbEntity
  8
DIBUJOS
 62
     7
  0
POLYLINE
  5
75E
330
1F
100
AcDbEntity
  8
DIBUJOS
 62
     7
100
AcDb2dPolyline
 66
     1
 10
0.0
 20
0.0
 30
0.0
  0
VERTEX
  5
75F
330
75E
100
AcDbEntity
  8
DIBUJOS
 62
     7
100
AcDbVertex
100
AcDb2dVertex
 10
103.9330392969768
 20
45.95713699762962
 30
0.0
  0
VERTEX
  5
760
330
75E
100
AcDbEntity
  8
DIBUJOS
 62
     7
100
AcDbVertex
100
AcDb2dVertex
 10
103.9386458951468
 20
45.97395830131759
 30
0.0
  0
SEQEND
  5
761
330
75E
100
AcDbEntity
  8
DIBUJOS
 62
     7
  0
POLYLINE
  5
762
330
1F
100
AcDbEntity
  8
DIBUJOS
 62
     7
100
AcDb2dPolyline
 66
     1
 10
0.0
 20
0.0
 30
0.0
  0
VERTEX
  5
763
330
762
100
AcDbEntity
  8
DIBUJOS
 62
     7
100
AcDbVertex
100
AcDb2dVertex
 10
104.0003260209073
 20
45.95713699762962
 30
0.0
  0
VERTEX
  5
764
330
762
100
AcDbEntity
  8
DIBUJOS
 62
     7
100
AcDbVertex
100
AcDb2dVertex
 10
104.0003260209073
 20
45.96274510497791
 30
0.0
  0
SEQEND
  5
765
330
762
100
AcDbEntity
  8
DIBUJOS
 62
     7
  0
POLYLINE
  5
766
330
1F
100
AcDbEntity
  8
DIBUJOS
 62
     7
100
AcDb2dPolyline
 66
     1
 10
0.0
 20
0.0
 30
0.0
  0
VERTEX
  5
767
330
766
100
AcDbEntity
  8
DIBUJOS
 62
     7
100
AcDbVertex
100
AcDb2dVertex
 10
113.4148849197941
 20
45.95713699762962
 30
0.0
  0
VERTEX
  5
768
330
766
100
AcDbEntity
  8
DIBUJOS
 62
     7
100
AcDbVertex
100
AcDb2dVertex
 10
113.4148849197941
 20
45.96274510497791
 30
0.0
  0
SEQEND
  5
769
330
766
100
AcDbEntity
  8
DIBUJOS
 62
     7
  0
POLYLINE
  5
76A
330
1F
100
AcDbEntity
  8
DIBUJOS
 62
     7
100
AcDb2dPolyline
 66
     1
 10
0.0
 20
0.0
 30
0.0
  0
VERTEX
  5
76B
330
76A
100
AcDbEntity
  8
DIBUJOS
 62
     7
100
AcDbVertex
100
AcDb2dVertex
 10
103.9274326988074
 20
45.95152889028134
 30
0.0
  0
VERTEX
  5
76C
330
76A
100
AcDbEntity
  8
DIBUJOS
 62
     7
100
AcDbVertex
100
AcDb2dVertex
 10
103.9162179932895
 20
45.96274510497791
 30
0.0
  0
VERTEX
  5
76D
330
76A
100
AcDbEntity
  8
DIBUJOS
 62
     7
100
AcDbVertex
100
AcDb2dVertex
 10
103.9162179932895
 20
45.97395830131759
 30
0.0
  0
SEQEND
  5
76E
330
76A
100
AcDbEntity
  8
DIBUJOS
 62
     7
  0
POLYLINE
  5
76F
330
1F
100
AcDbEntity
  8
DIBUJOS
 62
     7
100
AcDb2dPolyline
 66
     1
 10
0.0
 20
0.0
 30
0.0
  0
VERTEX
  5
770
330
76F
100
AcDbEntity
  8
DIBUJOS
 62
     7
100
AcDbVertex
100
AcDb2dVertex
 10
103.9330392969768
 20
45.95152889028134
 30
0.0
  0
VERTEX
  5
771
330
76F
100
AcDbEntity
  8
DIBUJOS
 62
     7
100
AcDbVertex
100
AcDb2dVertex
 10
103.9274326988074
 20
45.95152889028134
 30
0.0
  0
SEQEND
  5
772
330
76F
100
AcDbEntity
  8
DIBUJOS
 62
     7
  0
POLYLINE
  5
773
330
1F
100
AcDbEntity
  8
DIBUJOS
 62
     7
100
AcDb2dPolyline
 66
     1
 10
0.0
 20
0.0
 30
0.0
  0
VERTEX
  5
774
330
773
100
AcDbEntity
  8
DIBUJOS
 62
     7
100
AcDbVertex
100
AcDb2dVertex
 10
103.9330392969768
 20
45.95152889028134
 30
0.0
  0
VERTEX
  5
775
330
773
100
AcDbEntity
  8
DIBUJOS
 62
     7
100
AcDbVertex
100
AcDb2dVertex
 10
103.9330392969768
 20
45.95713699762962
 30
0.0
  0
SEQEND
  5
776
330
773
100
AcDbEntity
  8
DIBUJOS
 62
     7
  0
POLYLINE
  5
777
330
1F
100
AcDbEntity
  8
DIBUJOS
 62
     7
100
AcDb2dPolyline
 66
     1
 10
0.0
 20
0.0
 30
0.0
  0
VERTEX
  5
778
330
777
100
AcDbEntity
  8
DIBUJOS
 62
     7
100
AcDbVertex
100
AcDb2dVertex
 10
103.9947194227373
 20
45.94031569394165
 30
0.0
  0
VERTEX
  5
779
330
777
100
AcDbEntity
  8
DIBUJOS
 62
     7
100
AcDbVertex
100
AcDb2dVertex
 10
104.0003260209073
 20
45.95713699762962
 30
0.0
  0
SEQEND
  5
77A
330
777
100
AcDbEntity
  8
DIBUJOS
 62
     7
  0
POLYLINE
  5
77B
330
1F
100
AcDbEntity
  8
DIBUJOS
 62
     7
100
AcDb2dPolyline
 66
     1
 10
0.0
 20
0.0
 30
0.0
  0
VERTEX
  5
77C
330
77B
100
AcDbEntity
  8
DIBUJOS
 62
     7
100
AcDbVertex
100
AcDb2dVertex
 10
113.4204930271427
 20
45.93470758659336
 30
0.0
  0
VERTEX
  5
77D
330
77B
100
AcDbEntity
  8
DIBUJOS
 62
     7
100
AcDbVertex
100
AcDb2dVertex
 10
113.4148849197941
 20
45.95713699762962
 30
0.0
  0
SEQEND
  5
77E
330
77B
100
AcDbEntity
  8
DIBUJOS
 62
     7
  0
POLYLINE
  5
77F
330
1F
100
AcDbEntity
  8
DIBUJOS
 62
     7
100
AcDb2dPolyline
 66
     1
 10
0.0
 20
0.0
 30
0.0
  0
VERTEX
  5
780
330
77F
100
AcDbEntity
  8
DIBUJOS
 62
     7
100
AcDbVertex
100
AcDb2dVertex
 10
113.4204930271427
 20
45.92910249760261
 30
0.0
  0
VERTEX
  5
781
330
77F
100
AcDbEntity
  8
DIBUJOS
 62
     7
100
AcDbVertex
100
AcDb2dVertex
 10
113.4204930271427
 20
45.93470758659336
 30
0.0
  0
SEQEND
  5
782
330
77F
100
AcDbEntity
  8
DIBUJOS
 62
     7
  0
POLYLINE
  5
783
330
1F
100
AcDbEntity
  8
DIBUJOS
 62
     7
100
AcDb2dPolyline
 66
     1
 10
0.0
 20
0.0
 30
0.0
  0
VERTEX
  5
784
330
783
100
AcDbEntity
  8
DIBUJOS
 62
     7
100
AcDbVertex
100
AcDb2dVertex
 10
113.4261011344907
 20
45.92910249760261
 30
0.0
  0
VERTEX
  5
785
330
783
100
AcDbEntity
  8
DIBUJOS
 62
     7
100
AcDbVertex
100
AcDb2dVertex
 10
113.4204930271427
 20
45.92910249760261
 30
0.0
  0
SEQEND
  5
786
330
783
100
AcDbEntity
  8
DIBUJOS
 62
     7
  0
POLYLINE
  5
787
330
1F
100
AcDbEntity
  8
DIBUJOS
 62
     7
100
AcDb2dPolyline
 66
     1
 10
0.0
 20
0.0
 30
0.0
  0
VERTEX
  5
788
330
787
100
AcDbEntity
  8
DIBUJOS
 62
     7
100
AcDbVertex
100
AcDb2dVertex
 10
103.9330392969768
 20
45.95152889028134
 30
0.0
  0
VERTEX
  5
789
330
787
100
AcDbEntity
  8
DIBUJOS
 62
     7
100
AcDbVertex
100
AcDb2dVertex
 10
103.9498606006648
 20
45.92910249760261
 30
0.0
  0
VERTEX
  5
78A
330
787
100
AcDbEntity
  8
DIBUJOS
 62
     7
100
AcDbVertex
100
AcDb2dVertex
 10
103.9722900117013
 20
45.923494390254
 30
0.0
  0
VERTEX
  5
78B
330
787
100
AcDbEntity
  8
DIBUJOS
 62
     7
100
AcDbVertex
100
AcDb2dVertex
 10
103.9947194227373
 20
45.94031569394165
 30
0.0
  0
SEQEND
  5
78C
330
787
100
AcDbEntity
  8
DIBUJOS
 62
     7
  0
POLYLINE
  5
78D
330
1F
100
AcDbEntity
  8
DIBUJOS
 62
     7
100
AcDb2dPolyline
 66
     1
 10
0.0
 20
0.0
 30
0.0
  0
VERTEX
  5
78E
330
78D
100
AcDbEntity
  8
DIBUJOS
 62
     7
100
AcDbVertex
100
AcDb2dVertex
 10
113.4148849197941
 20
45.923494390254
 30
0.0
  0
VERTEX
  5
78F
330
78D
100
AcDbEntity
  8
DIBUJOS
 62
     7
100
AcDbVertex
100
AcDb2dVertex
 10
112.6411079685091
 20
45.92627731542915
 30
0.0
  0
VERTEX
  5
790
330
78D
100
AcDbEntity
  8
DIBUJOS
 62
     7
100
AcDbVertex
100
AcDb2dVertex
 10
104.0563980393192
 20
45.92614148936295
 30
0.0
  0
SEQEND
  5
791
330
78D
100
AcDbEntity
  8
DIBUJOS
 62
     7
  0
POLYLINE
  5
792
330
1F
100
AcDbEntity
  8
DIBUJOS
 62
     7
100
AcDb2dPolyline
 66
     1
 10
0.0
 20
0.0
 30
0.0
  0
VERTEX
  5
793
330
792
100
AcDbEntity
  8
DIBUJOS
 62
     7
100
AcDbVertex
100
AcDb2dVertex
 10
113.4148849197941
 20
45.923494390254
 30
0.0
  0
VERTEX
  5
794
330
792
100
AcDbEntity
  8
DIBUJOS
 62
     7
100
AcDbVertex
100
AcDb2dVertex
 10
113.4204930271427
 20
45.92910249760261
 30
0.0
  0
SEQEND
  5
795
330
792
100
AcDbEntity
  8
DIBUJOS
 62
     7
  0
POLYLINE
  5
796
330
1F
100
AcDbEntity
  8
DIBUJOS
 62
     7
100
AcDb2dPolyline
 66
     1
 10
0.0
 20
0.0
 30
0.0
  0
VERTEX
  5
797
330
796
100
AcDbEntity
  8
DIBUJOS
 62
     7
100
AcDbVertex
100
AcDb2dVertex
 10
113.4261011344907
 20
45.92910249760261
 30
0.0
  0
VERTEX
  5
798
330
796
100
AcDbEntity
  8
DIBUJOS
 62
     7
100
AcDbVertex
100
AcDb2dVertex
 10
113.454135634518
 20
45.923494390254
 30
0.0
  0
VERTEX
  5
799
330
796
100
AcDbEntity
  8
DIBUJOS
 62
     7
100
AcDbVertex
100
AcDb2dVertex
 10
113.4653518492152
 20
45.93470758659336
 30
0.0
  0
VERTEX
  5
79A
330
796
100
AcDbEntity
  8
DIBUJOS
 62
     7
100
AcDbVertex
100
AcDb2dVertex
 10
113.510702663482
 20
45.93107952145216
 30
0.0
  0
VERTEX
  5
79B
330
796
100
AcDbEntity
  8
DIBUJOS
 62
     7
100
AcDbVertex
100
AcDb2dVertex
 10
113.5265369644236
 20
45.9271224553952
 30
0.0
  0
VERTEX
  5
79C
330
796
100
AcDbEntity
  8
DIBUJOS
 62
     7
100
AcDbVertex
100
AcDb2dVertex
 10
113.566282689699
 20
45.923494390254
 30
0.0
  0
VERTEX
  5
79D
330
796
100
AcDbEntity
  8
DIBUJOS
 62
     7
100
AcDbVertex
100
AcDb2dVertex
 10
113.577495886039
 20
45.93470758659336
 30
0.0
  0
VERTEX
  5
79E
330
796
100
AcDbEntity
  8
DIBUJOS
 62
     7
100
AcDbVertex
100
AcDb2dVertex
 10
113.5862491214046
 20
45.96301675710999
 30
0.0
  0
VERTEX
  5
79F
330
796
100
AcDbEntity
  8
DIBUJOS
 62
     7
100
AcDbVertex
100
AcDb2dVertex
 10
113.5977671718037
 20
46.04728324847144
 30
0.0
  0
VERTEX
  5
7A0
330
796
100
AcDbEntity
  8
DIBUJOS
 62
     7
100
AcDbVertex
100
AcDb2dVertex
 10
113.6051017793689
 20
46.06583105237636
 30
0.0
  0
VERTEX
  5
7A1
330
796
100
AcDbEntity
  8
DIBUJOS
 62
     7
100
AcDbVertex
100
AcDb2dVertex
 10
113.6503892081388
 20
46.12535607122246
 30
0.0
  0
VERTEX
  5
7A2
330
796
100
AcDbEntity
  8
DIBUJOS
 62
     7
100
AcDbVertex
100
AcDb2dVertex
 10
113.6503892081388
 20
49.08037287186551
 30
0.0
  0
VERTEX
  5
7A3
330
796
100
AcDbEntity
  8
DIBUJOS
 62
     7
100
AcDbVertex
100
AcDb2dVertex
 10
113.6097923061824
 20
49.13543374067469
 30
0.0
  0
VERTEX
  5
7A4
330
796
100
AcDbEntity
  8
DIBUJOS
 62
     7
100
AcDbVertex
100
AcDb2dVertex
 10
113.5550664750024
 20
49.19812199768067
 30
0.0
  0
VERTEX
  5
7A5
330
796
100
AcDbEntity
  8
DIBUJOS
 62
     7
100
AcDbVertex
100
AcDb2dVertex
 10
113.5208624532204
 20
49.21943159826095
 30
0.0
  0
VERTEX
  5
7A6
330
796
100
AcDbEntity
  8
DIBUJOS
 62
     7
100
AcDbVertex
100
AcDb2dVertex
 10
113.4995558709966
 20
49.22784074092665
 30
0.0
  0
VERTEX
  5
7A7
330
796
100
AcDbEntity
  8
DIBUJOS
 62
     7
100
AcDbVertex
100
AcDb2dVertex
 10
113.4765650455546
 20
49.24298081975254
 30
0.0
  0
VERTEX
  5
7A8
330
796
100
AcDbEntity
  8
DIBUJOS
 62
     7
100
AcDbVertex
100
AcDb2dVertex
 10
113.470956938206
 20
49.27662644548536
 30
0.0
  0
VERTEX
  5
7A9
330
796
100
AcDbEntity
  8
DIBUJOS
 62
     7
100
AcDbVertex
100
AcDb2dVertex
 10
113.454135634518
 20
49.29344774917366
 30
0.0
  0
VERTEX
  5
7AA
330
796
100
AcDbEntity
  8
DIBUJOS
 62
     7
100
AcDbVertex
100
AcDb2dVertex
 10
113.4367529164239
 20
49.28895945228071
 30
0.0
  0
VERTEX
  5
7AB
330
796
100
AcDbEntity
  8
DIBUJOS
 62
     7
100
AcDbVertex
100
AcDb2dVertex
 10
113.4317062234821
 20
49.28783964182537
 30
0.0
  0
VERTEX
  5
7AC
330
796
100
AcDbEntity
  8
DIBUJOS
 62
     7
100
AcDbVertex
100
AcDb2dVertex
 10
113.418811802281
 20
49.26597164519522
 30
0.0
  0
VERTEX
  5
7AD
330
796
100
AcDbEntity
  8
DIBUJOS
 62
     7
100
AcDbVertex
100
AcDb2dVertex
 10
113.4148849197941
 20
49.25980212344083
 30
0.0
  0
SEQEND
  5
7AE
330
796
100
AcDbEntity
  8
DIBUJOS
 62
     7
  0
POLYLINE
  5
7AF
330
1F
100
AcDbEntity
  8
DIBUJOS
 62
     7
100
AcDb2dPolyline
 66
     1
 10
0.0
 20
0.0
 30
0.0
  0
VERTEX
  5
7B0
330
7AF
100
AcDbEntity
  8
DIBUJOS
 62
     7
100
AcDbVertex
100
AcDb2dVertex
 10
104.0563980393192
 20
45.91788628290571
 30
0.0
  0
VERTEX
  5
7B1
330
7AF
100
AcDbEntity
  8
DIBUJOS
 62
     7
100
AcDbVertex
100
AcDb2dVertex
 10
103.9947194227373
 20
45.94031569394165
 30
0.0
  0
SEQEND
  5
7B2
330
7AF
100
AcDbEntity
  8
DIBUJOS
 62
     7
  0
POLYLINE
  5
7B3
330
1F
100
AcDbEntity
  8
DIBUJOS
 62
     7
100
AcDb2dPolyline
 66
     1
 10
0.0
 20
0.0
 30
0.0
  0
VERTEX
  5
7B4
330
7B3
100
AcDbEntity
  8
DIBUJOS
 62
     7
100
AcDbVertex
100
AcDb2dVertex
 10
104.0620061466671
 20
45.91788628290571
 30
0.0
  0
VERTEX
  5
7B5
330
7B3
100
AcDbEntity
  8
DIBUJOS
 62
     7
100
AcDbVertex
100
AcDb2dVertex
 10
104.0563980393192
 20
45.91788628290571
 30
0.0
  0
SEQEND
  5
7B6
330
7B3
100
AcDbEntity
  8
DIBUJOS
 62
     7
  0
POLYLINE
  5
7B7
330
1F
100
AcDbEntity
  8
DIBUJOS
 62
     7
100
AcDb2dPolyline
 66
     1
 10
0.0
 20
0.0
 30
0.0
  0
VERTEX
  5
7B8
330
7B7
100
AcDbEntity
  8
DIBUJOS
 62
     7
100
AcDbVertex
100
AcDb2dVertex
 10
104.0676127448371
 20
45.91788628290571
 30
0.0
  0
VERTEX
  5
7B9
330
7B7
100
AcDbEntity
  8
DIBUJOS
 62
     7
100
AcDbVertex
100
AcDb2dVertex
 10
104.0620061466671
 20
45.91788628290571
 30
0.0
  0
SEQEND
  5
7BA
330
7B7
100
AcDbEntity
  8
DIBUJOS
 62
     7
  0
POLYLINE
  5
7BB
330
1F
100
AcDbEntity
  8
DIBUJOS
 62
     7
100
AcDb2dPolyline
 66
     1
 10
0.0
 20
0.0
 30
0.0
  0
VERTEX
  5
7BC
330
7BB
100
AcDbEntity
  8
DIBUJOS
 62
     7
100
AcDbVertex
100
AcDb2dVertex
 10
104.0620061466671
 20
45.91227817555743
 30
0.0
  0
VERTEX
  5
7BD
330
7BB
100
AcDbEntity
  8
DIBUJOS
 62
     7
100
AcDbVertex
100
AcDb2dVertex
 10
104.0620061466671
 20
45.91788628290571
 30
0.0
  0
SEQEND
  5
7BE
330
7BB
100
AcDbEntity
  8
DIBUJOS
 62
     7
  0
POLYLINE
  5
7BF
330
1F
100
AcDbEntity
  8
DIBUJOS
 62
     7
100
AcDb2dPolyline
 66
     1
 10
0.0
 20
0.0
 30
0.0
  0
VERTEX
  5
7C0
330
7BF
100
AcDbEntity
  8
DIBUJOS
 62
     7
100
AcDbVertex
100
AcDb2dVertex
 10
113.2578820608978
 20
43.41144864791492
 30
0.0
  0
VERTEX
  5
7C1
330
7BF
100
AcDbEntity
  8
DIBUJOS
 62
     7
100
AcDbVertex
100
AcDb2dVertex
 10
113.2522769719071
 20
43.4170567552632
 30
0.0
  0
SEQEND
  5
7C2
330
7BF
100
AcDbEntity
  8
DIBUJOS
 62
     7
  0
POLYLINE
  5
7C3
330
1F
100
AcDbEntity
  8
DIBUJOS
 62
     7
100
AcDb2dPolyline
 66
     1
 10
0.0
 20
0.0
 30
0.0
  0
VERTEX
  5
7C4
330
7C3
100
AcDbEntity
  8
DIBUJOS
 62
     7
100
AcDbVertex
100
AcDb2dVertex
 10
104.0620061466671
 20
45.91227817555743
 30
0.0
  0
VERTEX
  5
7C5
330
7C3
100
AcDbEntity
  8
DIBUJOS
 62
     7
100
AcDbVertex
100
AcDb2dVertex
 10
104.0563980393192
 20
45.90667308656603
 30
0.0
  0
VERTEX
  5
7C6
330
7C3
100
AcDbEntity
  8
DIBUJOS
 62
     7
100
AcDbVertex
100
AcDb2dVertex
 10
104.0563980393192
 20
44.70111412646008
 30
0.0
  0
VERTEX
  5
7C7
330
7C3
100
AcDbEntity
  8
DIBUJOS
 62
     7
100
AcDbVertex
100
AcDb2dVertex
 10
104.0759268092563
 20
43.87693966796582
 30
0.0
  0
VERTEX
  5
7C8
330
7C3
100
AcDbEntity
  8
DIBUJOS
 62
     7
100
AcDbVertex
100
AcDb2dVertex
 10
104.0761245116411
 20
43.87115045919615
 30
0.0
  0
VERTEX
  5
7C9
330
7C3
100
AcDbEntity
  8
DIBUJOS
 62
     7
100
AcDbVertex
100
AcDb2dVertex
 10
104.0900421558731
 20
43.42266486261148
 30
0.0
  0
VERTEX
  5
7CA
330
7C3
100
AcDbEntity
  8
DIBUJOS
 62
     7
100
AcDbVertex
100
AcDb2dVertex
 10
104.1012568613917
 20
43.41144864791492
 30
0.0
  0
VERTEX
  5
7CB
330
7C3
100
AcDbEntity
  8
DIBUJOS
 62
     7
100
AcDbVertex
100
AcDb2dVertex
 10
104.2246156037334
 20
43.41144864791492
 30
0.0
  0
VERTEX
  5
7CC
330
7C3
100
AcDbEntity
  8
DIBUJOS
 62
     7
100
AcDbVertex
100
AcDb2dVertex
 10
104.2358303092514
 20
43.42266486261148
 30
0.0
  0
VERTEX
  5
7CD
330
7C3
100
AcDbEntity
  8
DIBUJOS
 62
     7
100
AcDbVertex
100
AcDb2dVertex
 10
104.2498867979065
 20
44.08435512585641
 30
0.0
  0
VERTEX
  5
7CE
330
7C3
100
AcDbEntity
  8
DIBUJOS
 62
     7
100
AcDbVertex
100
AcDb2dVertex
 10
104.2554164279722
 20
44.48800302886772
 30
0.0
  0
VERTEX
  5
7CF
330
7C3
100
AcDbEntity
  8
DIBUJOS
 62
     7
100
AcDbVertex
100
AcDb2dVertex
 10
104.2582597202873
 20
45.57023795773755
 30
0.0
  0
VERTEX
  5
7D0
330
7C3
100
AcDbEntity
  8
DIBUJOS
 62
     7
100
AcDbVertex
100
AcDb2dVertex
 10
104.2694744258059
 20
45.58145115407756
 30
0.0
  0
VERTEX
  5
7D1
330
7C3
100
AcDbEntity
  8
DIBUJOS
 62
     7
100
AcDbVertex
100
AcDb2dVertex
 10
107.622604971859
 20
45.58145115407756
 30
0.0
  0
VERTEX
  5
7D2
330
7C3
100
AcDbEntity
  8
DIBUJOS
 62
     7
100
AcDbVertex
100
AcDb2dVertex
 10
113.2130262571825
 20
45.58145115407756
 30
0.0
  0
VERTEX
  5
7D3
330
7C3
100
AcDbEntity
  8
DIBUJOS
 62
     7
100
AcDbVertex
100
AcDb2dVertex
 10
113.2242394535225
 20
45.57023795773755
 30
0.0
  0
VERTEX
  5
7D4
330
7C3
100
AcDbEntity
  8
DIBUJOS
 62
     7
100
AcDbVertex
100
AcDb2dVertex
 10
113.2326214309744
 20
44.13481300020592
 30
0.0
  0
VERTEX
  5
7D5
330
7C3
100
AcDbEntity
  8
DIBUJOS
 62
     7
100
AcDbVertex
100
AcDb2dVertex
 10
113.2493974593068
 20
43.46759310689554
 30
0.0
  0
VERTEX
  5
7D6
330
7C3
100
AcDbEntity
  8
DIBUJOS
 62
     7
100
AcDbVertex
100
AcDb2dVertex
 10
113.2522769719071
 20
43.4170567552632
 30
0.0
  0
SEQEND
  5
7D7
330
7C3
100
AcDbEntity
  8
DIBUJOS
 62
     7
  0
POLYLINE
  5
7D8
330
1F
100
AcDbEntity
  8
DIBUJOS
 62
     7
100
AcDb2dPolyline
 66
     1
 10
0.0
 20
0.0
 30
0.0
  0
VERTEX
  5
7D9
330
7D8
100
AcDbEntity
  8
DIBUJOS
 62
     7
100
AcDbVertex
100
AcDb2dVertex
 10
113.2578820608978
 20
43.41144864791492
 30
0.0
  0
VERTEX
  5
7DA
330
7D8
100
AcDbEntity
  8
DIBUJOS
 62
     7
100
AcDbVertex
100
AcDb2dVertex
 10
113.3756342050702
 20
43.40584355892383
 30
0.0
  0
VERTEX
  5
7DB
330
7D8
100
AcDbEntity
  8
DIBUJOS
 62
     7
100
AcDbVertex
100
AcDb2dVertex
 10
113.3924585271154
 20
43.42266486261148
 30
0.0
  0
VERTEX
  5
7DC
330
7D8
100
AcDbEntity
  8
DIBUJOS
 62
     7
100
AcDbVertex
100
AcDb2dVertex
 10
113.4121834902587
 20
44.01151915253993
 30
0.0
  0
VERTEX
  5
7DD
330
7D8
100
AcDbEntity
  8
DIBUJOS
 62
     7
100
AcDbVertex
100
AcDb2dVertex
 10
113.4232518054612
 20
44.52724770687785
 30
0.0
  0
VERTEX
  5
7DE
330
7D8
100
AcDbEntity
  8
DIBUJOS
 62
     7
100
AcDbVertex
100
AcDb2dVertex
 10
113.4261011344907
 20
45.90667308656603
 30
0.0
  0
VERTEX
  5
7DF
330
7D8
100
AcDbEntity
  8
DIBUJOS
 62
     7
100
AcDbVertex
100
AcDb2dVertex
 10
113.4148849197941
 20
45.923494390254
 30
0.0
  0
SEQEND
  5
7E0
330
7D8
100
AcDbEntity
  8
DIBUJOS
 62
     7
  0
POLYLINE
  5
7E2
330
1F
100
AcDbEntity
  8
COTAS_LINEA
 62
     7
100
AcDb2dPolyline
 66
     1
 10
0.0
 20
0.0
 30
0.0
  0
VERTEX
  5
7E3
330
7E2
100
AcDbEntity
  8
COTAS_LINEA
 62
     7
100
AcDbVertex
100
AcDb2dVertex
 10
41.75189086432457
 20
40.42508464475969
 30
0.0
  0
VERTEX
  5
7E4
330
7E2
100
AcDbEntity
  8
COTAS_LINEA
 62
     7
100
AcDbVertex
100
AcDb2dVertex
 10
60.62481823661758
 20
40.42508464475969
 30
0.0
  0
SEQEND
  5
7E5
330
7E2
100
AcDbEntity
  8
COTAS_LINEA
 62
     7
  0
POLYLINE
  5
7E6
330
1F
100
AcDbEntity
  8
COTAS_LINEA
 62
     7
100
AcDb2dPolyline
 66
     1
 10
0.0
 20
0.0
 30
0.0
  0
VERTEX
  5
7E7
330
7E6
100
AcDbEntity
  8
COTAS_LINEA
 62
     7
100
AcDbVertex
100
AcDb2dVertex
 10
21.54063949090964
 20
40.42508464475969
 30
0.0
  0
VERTEX
  5
7E8
330
7E6
100
AcDbEntity
  8
COTAS_LINEA
 62
     7
100
AcDbVertex
100
AcDb2dVertex
 10
32.83307860418284
 20
40.42508464475969
 30
0.0
  0
SEQEND
  5
7E9
330
7E6
100
AcDbEntity
  8
COTAS_LINEA
 62
     7
  0
POLYLINE
  5
7EA
330
1F
100
AcDbEntity
  8
COTAS_LINEA
 62
     7
100
AcDb2dPolyline
 66
     1
 10
0.0
 20
0.0
 30
0.0
  0
VERTEX
  5
7EB
330
7EA
100
AcDbEntity
  8
COTAS_LINEA
 62
     7
100
AcDbVertex
100
AcDb2dVertex
 10
95.91979927988044
 20
49.25979570401487
 30
0.0
  0
VERTEX
  5
7EC
330
7EA
100
AcDbEntity
  8
COTAS_LINEA
 62
     7
100
AcDbVertex
100
AcDb2dVertex
 10
95.91979928083528
 20
43.38975937246506
 30
0.0
  0
SEQEND
  5
7ED
330
7EA
100
AcDbEntity
  8
COTAS_LINEA
 62
     7
  0
POLYLINE
  5
7EE
330
1F
100
AcDbEntity
  8
COTAS_LINEA
 62
     7
100
AcDb2dPolyline
 66
     1
 10
0.0
 20
0.0
 30
0.0
  0
VERTEX
  5
7EF
330
7EE
100
AcDbEntity
  8
COTAS_LINEA
 62
     7
100
AcDbVertex
100
AcDb2dVertex
 10
116.1520324185086
 20
47.30868146287585
 30
0.0
  0
VERTEX
  5
7F0
330
7EE
100
AcDbEntity
  8
COTAS_LINEA
 62
     7
100
AcDbVertex
100
AcDb2dVertex
 10
116.1520324198151
 20
43.38977012490796
 30
0.0
  0
SEQEND
  5
7F1
330
7EE
100
AcDbEntity
  8
COTAS_LINEA
 62
     7
  0
POLYLINE
  5
7F2
330
1F
100
AcDbEntity
  8
COTAS_LINEA
 62
     7
100
AcDb2dPolyline
 66
     1
 10
0.0
 20
0.0
 30
0.0
  0
VERTEX
  5
7F3
330
7F2
100
AcDbEntity
  8
COTAS_LINEA
 62
     7
100
AcDbVertex
100
AcDb2dVertex
 10
104.2870117282232
 20
40.07230686707011
 30
0.0
  0
VERTEX
  5
7F4
330
7F2
100
AcDbEntity
  8
COTAS_LINEA
 62
     7
100
AcDbVertex
100
AcDb2dVertex
 10
113.1753171301564
 20
40.07230686707011
 30
0.0
  0
SEQEND
  5
7F5
330
7F2
100
AcDbEntity
  8
COTAS_LINEA
 62
     7
  0
POLYLINE
  5
7F6
330
1F
100
AcDbEntity
  8
COTAS_LINEA
 62
     7
100
AcDb2dPolyline
 66
     1
 10
0.0
 20
0.0
 30
0.0
  0
VERTEX
  5
7F7
330
7F6
100
AcDbEntity
  8
COTAS_LINEA
 62
     7
100
AcDbVertex
100
AcDb2dVertex
 10
69.3418924839463
 20
40.42508464475969
 30
0.0
  0
VERTEX
  5
7F8
330
7F6
100
AcDbEntity
  8
COTAS_LINEA
 62
     7
100
AcDbVertex
100
AcDb2dVertex
 10
92.84071861002623
 20
40.42508464475969
 30
0.0
  0
SEQEND
  5
7F9
330
7F6
100
AcDbEntity
  8
COTAS_LINEA
 62
     7
  0
MTEXT
  5
7FB
330
1F
100
AcDbEntity
  8
COTAS_N_U_00DAMERO
 62
     7
100
AcDbMText
 10
48.72374859757384
 20
40.9800567524503
 30
0.0
 40
1.998533025814148
 41
0.0
 71
     7
 72
     1
  1
\fMyriad Pro|b0|i0|c0|p34;\W1;200
  0
MTEXT
  5
7FC
330
1F
100
AcDbEntity
  8
COTAS_N_U_00DAMERO
 62
     7
100
AcDbMText
 10
24.92881724476131
 20
40.9800567524503
 30
0.0
 40
1.998533025814148
 41
0.0
 71
     7
 72
     1
  1
\fMyriad Pro|b0|i0|c0|p34;\W1;123
  0
MTEXT
  5
7FD
330
1F
100
AcDbEntity
  8
COTAS_N_U_00DAMERO
 62
     7
100
AcDbMText
 10
116.9105856709134
 20
44.76742247415971
 30
0.0
 40
1.998533025814148
 41
0.0
 71
     7
 72
     1
  1
\fMyriad Pro|b0|i0|c0|p34;\W1;36
  0
MTEXT
  5
7FE
330
1F
100
AcDbEntity
  8
COTAS_N_U_00DAMERO
 62
     7
100
AcDbMText
 10
107.5073697986982
 20
40.62727897476071
 30
0.0
 40
1.998533025814148
 41
0.0
 71
     7
 72
     1
  1
\fMyriad Pro|b0|i0|c0|p34;\W1;99
  0
MTEXT
  5
7FF
330
1F
100
AcDbEntity
  8
COTAS_N_U_00DAMERO
 62
     7
100
AcDbMText
 10
79.07964763783643
 20
40.9800567524503
 30
0.0
 40
1.998533025814148
 41
0.0
 71
     7
 72
     1
  1
\fMyriad Pro|b0|i0|c0|p34;\W1;240
  0
MTEXT
  5
800
330
1F
100
AcDbEntity
  8
COTAS_N_U_00DAMERO
 62
     7
100
AcDbMText
 10
96.34233209532631
 20
45.08195969196302
 30
0.0
 40
1.998533025814148
 41
0.0
 71
     7
 72
     1
  1
\fMyriad Pro|b0|i0|c0|p34;\W1;60
  0
ENDSEC
  0
SECTION
  2
OBJECTS
  0
DICTIONARY
  5
C
330
0
100
AcDbDictionary
  3
ACAD_GROUP
350
D
  3
ACAD_LAYOUT
350
1A
  3
ACAD_MATERIAL
350
3B
  3
ACAD_MLEADERSTYLE
350
823
  3
ACAD_MLINESTYLE
350
17
  3
ACAD_PLOTSETTINGS
350
19
  3
ACAD_VISUALSTYLE
350
2A
  3
ACDBHEADERROUNDTRIPXREC
350
801
  3
ACDBVARIABLEDICTIONARY
350
821
  0
DICTIONARY
  5
D
102
{ACAD_REACTORS
330
C
102
}
330
C
100
AcDbDictionary
  0
DICTIONARY
  5
1A
102
{ACAD_REACTORS
330
C
102
}
330
C
100
AcDbDictionary
  0
DICTIONARY
  5
3B
102
{ACAD_REACTORS
330
C
102
}
330
C
100
AcDbDictionary
  3
BYBLOCK
350
3D
  3
BYLAYER
350
3C
  3
GLOBAL
350
3E
  0
DICTIONARY
  5
823
102
{ACAD_REACTORS
330
C
102
}
330
C
100
AcDbDictionary
  0
DICTIONARY
  5
17
102
{ACAD_REACTORS
330
C
102
}
330
C
100
AcDbDictionary
  3
STANDARD
350
18
  0
DICTIONARY
  5
19
102
{ACAD_REACTORS
330
C
102
}
330
C
100
AcDbDictionary
  0
DICTIONARY
  5
2A
102
{ACAD_REACTORS
330
C
102
}
330
C
100
AcDbDictionary
  3
2DWIREFRAME
350
2F
  3
3D_HIDDEN
350
31
  3
3DWIREFRAME
350
30
  3
BASIC
350
32
  3
BRIGHTEN
350
36
  3
COLORCHANGE
350
3A
  3
CONCEPTUAL
350
34
  3
DIM
350
35
  3
FACEPATTERN
350
39
  3
FLAT
350
2B
  3
FLATWITHEDGES
350
2C
  3
GOURAUD
350
2D
  3
GOURAUDWITHEDGES
350
2E
  3
LINEPATTERN
350
38
  3
REALISTIC
350
33
  3
THICKEN
350
37
  0
DICTIONARY
  5
801
102
{ACAD_REACTORS
330
C
102
}
330
C
100
AcDbDictionary
  3
CEPSNTYPE
350
80A
  3
DIMSTYLEDATA
350
820
  3
FINGERPRINTGUID
350
80B
  3
HYPERLINKBASE
350
804
  3
INSUNITS
350
809
  3
LAYOUTDICT
350
806
  3
LWETCUNION
350
808
  3
PLOTSETDICT
350
807
  3
PSVPSCALE
350
80D
  3
PUCSBASE
350
810
  3
PUCSORGBACK
350
816
  3
PUCSORGBOTTOM
350
812
  3
PUCSORGFRONT
350
815
  3
PUCSORGLEFT
350
813
  3
PUCSORGRIGHT
350
814
  3
PUCSORGTOP
350
811
  3
PUCSORTHOREF
350
80E
  3
PUCSORTHOVIEW
350
80F
  3
STYLESHEET
350
805
  3
TSTACKALIGN
350
802
  3
TSTACKSIZE
350
803
  3
UCSBASE
350
819
  3
UCSORGBACK
350
81F
  3
UCSORGBOTTOM
350
81B
  3
UCSORGFRONT
350
81E
  3
UCSORGLEFT
350
81C
  3
UCSORGRIGHT
350
81D
  3
UCSORGTOP
350
81A
  3
UCSORTHOREF
350
817
  3
UCSORTHOVIEW
350
818
  3
VERSIONGUID
350
80C
  0
DICTIONARY
  5
821
102
{ACAD_REACTORS
330
C
102
}
330
C
100
AcDbDictionary
  3
DIMASSOC
350
824
  3
HIDETEXT
350
825
  0
MATERIAL
  5
3D
102
{ACAD_REACTORS
330
3B
102
}
102
{ACAD_XDICTIONARY
360
828
102
}
330
3B
100
AcDbMaterial
  1
ByBlock
  0
MATERIAL
  5
3C
102
{ACAD_REACTORS
330
3B
102
}
102
{ACAD_XDICTIONARY
360
826
102
}
330
3B
100
AcDbMaterial
  1
ByLayer
  0
MATERIAL
  5
3E
102
{ACAD_REACTORS
330
3B
102
}
102
{ACAD_XDICTIONARY
360
82A
102
}
330
3B
100
AcDbMaterial
  1
Global
  0
MLINESTYLE
  5
18
102
{ACAD_REACTORS
330
17
102
}
330
17
100
AcDbMlineStyle
  2
Standard
 70
     0
  3

 62
   256
 51
90.0
 52
90.0
 71
     2
 49
0.5
 62
   256
  6
BYLAYER
 49
-0.5
 62
   256
  6
BYLAYER
  0
ACAD_PROXY_OBJECT
  5
2F
102
{ACAD_REACTORS
330
2A
102
}
330
2A
100
AcDbProxyObject
 90
      499
 91
      501
 93
      436
310
42CC9915DA5C99599C985B595049028333333333333E3BF0000000000000FB0107901411070040501600405405064090741402480A0340
1001
ACAD
1000
AcDbSavedByObjectVersion
1070
     0
  0
ACAD_PROXY_OBJECT
  5
31
102
{ACAD_REACTORS
330
2A
102
}
330
2A
100
AcDbProxyObject
 90
      499
 91
      501
 93
      500
310
424CD108121A5919195B90640502408333333333333E3BF0000000000000FB01079024090700405020000000000001110200405405064090740C02480A0340
1001
ACAD
1000
AcDbSavedByObjectVersion
1070
     0
  0
ACAD_PROXY_OBJECT
  5
30
102
{ACAD_REACTORS
330
2A
102
}
330
2A
100
AcDbProxyObject
 90
      499
 91
      501
 93
      436
310
42CCD915DA5C99599C985B595059028333333333333E3BF0000000000000FB0107901411070040501600405405064090741402480A0340
1001
ACAD
1000
AcDbSavedByObjectVersion
1070
     0
  0
ACAD_PROXY_OBJECT
  5
32
102
{ACAD_REACTORS
330
2A
102
}
330
2A
100
AcDbProxyObject
 90
      499
 91
      501
 93
      388
310
4150985CDA58D07406404333333333333E3BF0000000000000FB0107A41107004050150841D405064090741402480A0350
1001
ACAD
1000
AcDbSavedByObjectVersion
1070
     0
  0
ACAD_PROXY_OBJECT
  5
36
102
{ACAD_REACTORS
330
2A
102
}
330
2A
100
AcDbProxyObject
 90
      499
 91
      501
 93
      428
310
42109C9A59DA1D195B90C409028333333333333E3BF0000000000000FB010790141107004050150841D405064090741402480A029950
1001
ACAD
1000
AcDbSavedByObjectVersion
1070
     0
  0
ACAD_PROXY_OBJECT
  5
3A
102
{ACAD_REACTORS
330
2A
102
}
330
2A
100
AcDbProxyObject
 90
      499
 91
      501
 93
      452
310
42D0DBDB1BDC90DA185B99D95104090240C333333333333E3BF0000000000000FB0108901411070040501508421405064090741402480A0350
1001
ACAD
1000
AcDbSavedByObjectVersion
1070
     0
  0
ACAD_PROXY_OBJECT
  5
34
102
{ACAD_REACTORS
330
2A
102
}
330
2A
100
AcDbProxyObject
 90
      499
 91
      501
 93
      500
310
4290DBDB98D95C1D1D585B10940D028333333333333E3BF0000000000000FB0107902409070040501000000000000111010841D405064090740C02480A0340
1001
ACAD
1000
AcDbSavedByObjectVersion
1070
     0
  0
ACAD_PROXY_OBJECT
  5
35
102
{ACAD_REACTORS
330
2A
102
}
330
2A
100
AcDbProxyObject
 90
      499
 91
      501
 93
      412
310
40D11A5B50B409028333333333333E3BF0000000000000FB010790141107004050150841D405064090741402480A02677FFFFFD0
1001
ACAD
1000
AcDbSavedByObjectVersion
1070
     0
  0
ACAD_PROXY_OBJECT
  5
39
102
{ACAD_REACTORS
330
2A
102
}
330
2A
100
AcDbProxyObject
 90
      499
 91
      501
 93
      444
310
42D19858D95C185D1D195C9B90F409028333333333333E3BF0000000000000FB010790141107004050150841D405064090741402480A0350
1001
ACAD
1000
AcDbSavedByObjectVersion
1070
     0
  0
ACAD_PROXY_OBJECT
  5
2B
102
{ACAD_REACTORS
330
2A
102
}
330
2A
100
AcDbProxyObject
 90
      499
 91
      501
 93
      388
310
41119B185D240901404333333333333E3BF0000000000000F9010740A41107004050150841D405064090741402480A1B50
1001
ACAD
1000
AcDbSavedByObjectVersion
1070
     0
  0
ACAD_PROXY_OBJECT
  5
2C
102
{ACAD_REACTORS
330
2A
102
}
330
2A
100
AcDbProxyObject
 90
      499
 91
      501
 93
      476
310
43519B185D15DA5D1A115919D95CD0140901404333333333333E3BF0000000000000F9010740901411070040501600405405064090741402480A1B50
1001
ACAD
1000
AcDbSavedByObjectVersion
1070
     0
  0
ACAD_PROXY_OBJECT
  5
2D
102
{ACAD_REACTORS
330
2A
102
}
330
2A
100
AcDbProxyObject
 90
      499
 91
      501
 93
      412
310
41D1DBDD5C985D5910240902404333333333333E3BF0000000000000F9010740A411070040501641D405064090741402480A1B50
1001
ACAD
1000
AcDbSavedByObjectVersion
1070
     0
  0
ACAD_PROXY_OBJECT
  5
2E
102
{ACAD_REACTORS
330
2A
102
}
330
2A
100
AcDbProxyObject
 90
      499
 91
      501
 93
      500
310
4411DBDD5C985D5915DA5D1A115919D95CD0340902404333333333333E3BF0000000000000F9010740901411070040501600405405064090741402480A1B50
1001
ACAD
1000
AcDbSavedByObjectVersion
1070
     0
  0
ACAD_PROXY_OBJECT
  5
38
102
{ACAD_REACTORS
330
2A
102
}
330
2A
100
AcDbProxyObject
 90
      499
 91
      501
 93
      444
310
42D31A5B995C185D1D195C9B90E409028333333333333E3BF0000000000000FB010790141107004050750841D405064090741402483A0350
1001
ACAD
1000
AcDbSavedByObjectVersion
1070
     0
  0
ACAD_PROXY_OBJECT
  5
33
102
{ACAD_REACTORS
330
2A
102
}
330
2A
100
AcDbProxyObject
 90
      499
 91
      501
 93
      420
310
425499585B1A5CDD1A58D08409028333333333333E3BF0000000000000FB01079019070040501508421405064090741402480A1B40
1001
ACAD
1000
AcDbSavedByObjectVersion
1070
     0
  0
ACAD_PROXY_OBJECT
  5
37
102
{ACAD_REACTORS
330
2A
102
}
330
2A
100
AcDbProxyObject
 90
      499
 91
      501
 93
      412
310
41D51A1A58DAD95B90D409028333333333333E3BF0000000000000FB010790141107004050150C41D405064090741402480A0350
1001
ACAD
1000
AcDbSavedByObjectVersion
1070
     0
  0
XRECORD
  5
80A
102
{ACAD_REACTORS
330
801
102
}
330
801
100
AcDbXrecord
 90
        0
  0
XRECORD
  5
820
102
{ACAD_REACTORS
330
801
102
}
330
801
100
AcDbXrecord
1000
DSTYLE
1002
{
1070
   340
340
11
1002
}
  0
XRECORD
  5
80B
102
{ACAD_REACTORS
330
801
102
}
330
801
100
AcDbXrecord
  1
{EBBB50F1-1389-4979-9F0C-98A083ABB0D9}
  0
XRECORD
  5
804
102
{ACAD_REACTORS
330
801
102
}
330
801
100
AcDbXrecord
  1

  0
XRECORD
  5
809
102
{ACAD_REACTORS
330
801
102
}
330
801
100
AcDbXrecord
 90
        1
  0
XRECORD
  5
806
102
{ACAD_REACTORS
330
801
102
}
330
801
100
AcDbXrecord
340
1A
  0
XRECORD
  5
808
102
{ACAD_REACTORS
330
801
102
}
330
801
100
AcDbXrecord
 90
    10269
  0
XRECORD
  5
807
102
{ACAD_REACTORS
330
801
102
}
330
801
100
AcDbXrecord
340
19
  0
XRECORD
  5
80D
102
{ACAD_REACTORS
330
801
102
}
330
801
100
AcDbXrecord
 40
0.0
  0
XRECORD
  5
810
102
{ACAD_REACTORS
330
801
102
}
330
801
100
AcDbXrecord
340
0
  0
XRECORD
  5
816
102
{ACAD_REACTORS
330
801
102
}
330
801
100
AcDbXrecord
 10
0.0
 20
0.0
 30
0.0
  0
XRECORD
  5
812
102
{ACAD_REACTORS
330
801
102
}
330
801
100
AcDbXrecord
 10
0.0
 20
0.0
 30
0.0
  0
XRECORD
  5
815
102
{ACAD_REACTORS
330
801
102
}
330
801
100
AcDbXrecord
 10
0.0
 20
0.0
 30
0.0
  0
XRECORD
  5
813
102
{ACAD_REACTORS
330
801
102
}
330
801
100
AcDbXrecord
 10
0.0
 20
0.0
 30
0.0
  0
XRECORD
  5
814
102
{ACAD_REACTORS
330
801
102
}
330
801
100
AcDbXrecord
 10
0.0
 20
0.0
 30
0.0
  0
XRECORD
  5
811
102
{ACAD_REACTORS
330
801
102
}
330
801
100
AcDbXrecord
 10
0.0
 20
0.0
 30
0.0
  0
XRECORD
  5
80E
102
{ACAD_REACTORS
330
801
102
}
330
801
100
AcDbXrecord
340
0
  0
XRECORD
  5
80F
102
{ACAD_REACTORS
330
801
102
}
330
801
100
AcDbXrecord
 70
     0
  0
XRECORD
  5
805
102
{ACAD_REACTORS
330
801
102
}
330
801
100
AcDbXrecord
  1

  0
XRECORD
  5
802
102
{ACAD_REACTORS
330
801
102
}
330
801
100
AcDbXrecord
 90
        1
  0
XRECORD
  5
803
102
{ACAD_REACTORS
330
801
102
}
330
801
100
AcDbXrecord
 90
       70
  0
XRECORD
  5
819
102
{ACAD_REACTORS
330
801
102
}
330
801
100
AcDbXrecord
340
0
  0
XRECORD
  5
81F
102
{ACAD_REACTORS
330
801
102
}
330
801
100
AcDbXrecord
 10
0.0
 20
0.0
 30
0.0
  0
XRECORD
  5
81B
102
{ACAD_REACTORS
330
801
102
}
330
801
100
AcDbXrecord
 10
0.0
 20
0.0
 30
0.0
  0
XRECORD
  5
81E
102
{ACAD_REACTORS
330
801
102
}
330
801
100
AcDbXrecord
 10
0.0
 20
0.0
 30
0.0
  0
XRECORD
  5
81C
102
{ACAD_REACTORS
330
801
102
}
330
801
100
AcDbXrecord
 10
0.0
 20
0.0
 30
0.0
  0
XRECORD
  5
81D
102
{ACAD_REACTORS
330
801
102
}
330
801
100
AcDbXrecord
 10
0.0
 20
0.0
 30
0.0
  0
XRECORD
  5
81A
102
{ACAD_REACTORS
330
801
102
}
330
801
100
AcDbXrecord
 10
0.0
 20
0.0
 30
0.0
  0
XRECORD
  5
817
102
{ACAD_REACTORS
330
801
102
}
330
801
100
AcDbXrecord
340
0
  0
XRECORD
  5
818
102
{ACAD_REACTORS
330
801
102
}
330
801
100
AcDbXrecord
 70
     0
  0
XRECORD
  5
80C
102
{ACAD_REACTORS
330
801
102
}
330
801
100
AcDbXrecord
  1
{FAEB1C32-E019-11D5-929B-00C0DF256EC4}
  0
DICTIONARYVAR
  5
824
102
{ACAD_REACTORS
330
821
102
}
330
821
100
DictionaryVariables
280
     0
  1
2
  0
DICTIONARYVAR
  5
825
102
{ACAD_REACTORS
330
821
102
}
330
821
100
DictionaryVariables
280
     0
  1
1
  0
DICTIONARY
  5
828
330
3D
100
AcDbDictionary
280
     1
  3
ACAD_XREC_ROUNDTRIP
360
829
  0
DICTIONARY
  5
826
330
3C
100
AcDbDictionary
280
     1
  3
ACAD_XREC_ROUNDTRIP
360
827
  0
DICTIONARY
  5
82A
330
3E
100
AcDbDictionary
280
     1
  3
ACAD_XREC_ROUNDTRIP
360
82B
  0
XRECORD
  5
829
102
{ACAD_REACTORS
330
828
102
}
330
828
100
AcDbXrecord
102
MATERIAL
148
0.0
149
0.0
149
0.0
 93
        0
 94
      127
282
     0
 72
     1
 77
     1
171
     1
175
     1
179
     1
273
     0
  0
XRECORD
  5
827
102
{ACAD_REACTORS
330
826
102
}
330
826
100
AcDbXrecord
102
MATERIAL
148
0.0
149
0.0
149
0.0
 93
        0
 94
      127
282
     0
 72
     1
 77
     1
171
     1
175
     1
179
     1
273
     0
  0
XRECORD
  5
82B
102
{ACAD_REACTORS
330
82A
102
}
330
82A
100
AcDbXrecord
102
MATERIAL
148
0.0
149
0.0
149
0.0
 93
        0
 94
      127
282
     0
 72
     1
 77
     1
171
     1
175
     1
179
     1
273
     0
  0
ENDSEC
  0
EOF
