  0
SECTION
  2
HEADER
  9
$ACADVER
  1
AC1021
  9
$ACADMAINTVER
 70
    25
  9
$DWGCODEPAGE
  3
ANSI_1252
  9
$INSBASE
 10
0.0
 20
0.0
 30
0.0
  9
$EXTMIN
 10
1.000000000000000E+20
 20
1.000000000000000E+20
 30
1.000000000000000E+20
  9
$EXTMAX
 10
-1.000000000000000E+20
 20
-1.000000000000000E+20
 30
-1.000000000000000E+20
  9
$LIMMIN
 10
0.0
 20
0.0
  9
$LIMMAX
 10
12.0
 20
9.0
  9
$ORTHOMODE
 70
     0
  9
$REGENMODE
 70
     1
  9
$FILLMODE
 70
     1
  9
$QTEXTMODE
 70
     0
  9
$MIRRTEXT
 70
     1
  9
$LTSCALE
 40
1.0
  9
$ATTMODE
 70
     1
  9
$TEXTSIZE
 40
0.2
  9
$TRACEWID
 40
0.05
  9
$TEXTSTYLE
  7
Standard
  9
$CLAYER
  8
0
  9
$CELTYPE
  6
ByLayer
  9
$CECOLOR
 62
   256
  9
$CELTSCALE
 40
1.0
  9
$DISPSILH
 70
     0
  9
$DIMSCALE
 40
1.0
  9
$DIMASZ
 40
0.18
  9
$DIMEXO
 40
0.0625
  9
$DIMDLI
 40
0.38
  9
$DIMRND
 40
0.0
  9
$DIMDLE
 40
0.0
  9
$DIMEXE
 40
0.18
  9
$DIMTP
 40
0.0
  9
$DIMTM
 40
0.0
  9
$DIMTXT
 40
0.18
  9
$DIMCEN
 40
0.09
  9
$DIMTSZ
 40
0.0
  9
$DIMTOL
 70
     0
  9
$DIMLIM
 70
     0
  9
$DIMTIH
 70
     1
  9
$DIMTOH
 70
     1
  9
$DIMSE1
 70
     0
  9
$DIMSE2
 70
     0
  9
$DIMTAD
 70
     0
  9
$DIMZIN
 70
     0
  9
$DIMBLK
  1

  9
$DIMASO
 70
     1
  9
$DIMSHO
 70
     1
  9
$DIMPOST
  1

  9
$DIMAPOST
  1

  9
$DIMALT
 70
     0
  9
$DIMALTD
 70
     2
  9
$DIMALTF
 40
25.4
  9
$DIMLFAC
 40
1.0
  9
$DIMTOFL
 70
     0
  9
$DIMTVP
 40
0.0
  9
$DIMTIX
 70
     0
  9
$DIMSOXD
 70
     0
  9
$DIMSAH
 70
     0
  9
$DIMBLK1
  1

  9
$DIMBLK2
  1

  9
$DIMSTYLE
  2
Standard
  9
$DIMCLRD
 70
     0
  9
$DIMCLRE
 70
     0
  9
$DIMCLRT
 70
     0
  9
$DIMTFAC
 40
1.0
  9
$DIMGAP
 40
0.09
  9
$DIMJUST
 70
     0
  9
$DIMSD1
 70
     0
  9
$DIMSD2
 70
     0
  9
$DIMTOLJ
 70
     1
  9
$DIMTZIN
 70
     0
  9
$DIMALTZ
 70
     0
  9
$DIMALTTZ
 70
     0
  9
$DIMUPT
 70
     0
  9
$DIMDEC
 70
     4
  9
$DIMTDEC
 70
     4
  9
$DIMALTU
 70
     2
  9
$DIMALTTD
 70
     2
  9
$DIMTXSTY
  7
Standard
  9
$DIMAUNIT
 70
     0
  9
$DIMADEC
 70
     0
  9
$DIMALTRND
 40
0.0
  9
$DIMAZIN
 70
     0
  9
$DIMDSEP
 70
    46
  9
$DIMATFIT
 70
     3
  9
$DIMFRAC
 70
     0
  9
$DIMLDRBLK
  1

  9
$DIMLUNIT
 70
     2
  9
$DIMLWD
 70
    -2
  9
$DIMLWE
 70
    -2
  9
$DIMTMOVE
 70
     0
  9
$DIMFXL
 40
1.0
  9
$DIMFXLON
 70
     0
  9
$DIMJOGANG
 40
0.7853981633974483
  9
$DIMTFILL
 70
     0
  9
$DIMTFILLCLR
 70
     0
  9
$DIMARCSYM
 70
     0
  9
$DIMLTYPE
  6

  9
$DIMLTEX1
  6

  9
$DIMLTEX2
  6

  9
$LUNITS
 70
     2
  9
$LUPREC
 70
     4
  9
$SKETCHINC
 40
0.1
  9
$FILLETRAD
 40
0.5
  9
$AUNITS
 70
     0
  9
$AUPREC
 70
     0
  9
$MENU
  1
.
  9
$ELEVATION
 40
0.0
  9
$PELEVATION
 40
0.0
  9
$THICKNESS
 40
0.0
  9
$LIMCHECK
 70
     0
  9
$CHAMFERA
 40
0.5
  9
$CHAMFERB
 40
0.5
  9
$CHAMFERC
 40
1.0
  9
$CHAMFERD
 40
0.0
  9
$SKPOLY
 70
     0
  9
$TDCREATE
 40
2459541.688566586
  9
$TDUCREATE
 40
2459541.646899919
  9
$TDUPDATE
 40
2459541.688566713
  9
$TDUUPDATE
 40
2459541.646900046
  9
$TDINDWG
 40
0.0000000116
  9
$TDUSRTIMER
 40
0.0000000116
  9
$USRTIMER
 70
     1
  9
$ANGBASE
 50
0.0
  9
$ANGDIR
 70
     0
  9
$PDMODE
 70
     0
  9
$PDSIZE
 40
0.0
  9
$PLINEWID
 40
0.0
  9
$SPLFRAME
 70
     0
  9
$SPLINETYPE
 70
     6
  9
$SPLINESEGS
 70
     8
  9
$HANDSEED
  5
4DF
  9
$SURFTAB1
 70
     6
  9
$SURFTAB2
 70
     6
  9
$SURFTYPE
 70
     6
  9
$SURFU
 70
     6
  9
$SURFV
 70
     6
  9
$UCSBASE
  2

  9
$UCSNAME
  2

  9
$UCSORG
 10
0.0
 20
0.0
 30
0.0
  9
$UCSXDIR
 10
1.0
 20
0.0
 30
0.0
  9
$UCSYDIR
 10
0.0
 20
1.0
 30
0.0
  9
$UCSORTHOREF
  2

  9
$UCSORTHOVIEW
 70
     0
  9
$UCSORGTOP
 10
0.0
 20
0.0
 30
0.0
  9
$UCSORGBOTTOM
 10
0.0
 20
0.0
 30
0.0
  9
$UCSORGLEFT
 10
0.0
 20
0.0
 30
0.0
  9
$UCSORGRIGHT
 10
0.0
 20
0.0
 30
0.0
  9
$UCSORGFRONT
 10
0.0
 20
0.0
 30
0.0
  9
$UCSORGBACK
 10
0.0
 20
0.0
 30
0.0
  9
$PUCSBASE
  2

  9
$PUCSNAME
  2

  9
$PUCSORG
 10
0.0
 20
0.0
 30
0.0
  9
$PUCSXDIR
 10
1.0
 20
0.0
 30
0.0
  9
$PUCSYDIR
 10
0.0
 20
1.0
 30
0.0
  9
$PUCSORTHOREF
  2

  9
$PUCSORTHOVIEW
 70
     0
  9
$PUCSORGTOP
 10
0.0
 20
0.0
 30
0.0
  9
$PUCSORGBOTTOM
 10
0.0
 20
0.0
 30
0.0
  9
$PUCSORGLEFT
 10
0.0
 20
0.0
 30
0.0
  9
$PUCSORGRIGHT
 10
0.0
 20
0.0
 30
0.0
  9
$PUCSORGFRONT
 10
0.0
 20
0.0
 30
0.0
  9
$PUCSORGBACK
 10
0.0
 20
0.0
 30
0.0
  9
$USERI1
 70
     0
  9
$USERI2
 70
     0
  9
$USERI3
 70
     0
  9
$USERI4
 70
     0
  9
$USERI5
 70
     0
  9
$USERR1
 40
0.0
  9
$USERR2
 40
0.0
  9
$USERR3
 40
0.0
  9
$USERR4
 40
0.0
  9
$USERR5
 40
0.0
  9
$WORLDVIEW
 70
     1
  9
$SHADEDGE
 70
     3
  9
$SHADEDIF
 70
    70
  9
$TILEMODE
 70
     1
  9
$MAXACTVP
 70
    64
  9
$PINSBASE
 10
0.0
 20
0.0
 30
0.0
  9
$PLIMCHECK
 70
     0
  9
$PEXTMIN
 10
1.000000000000000E+20
 20
1.000000000000000E+20
 30
1.000000000000000E+20
  9
$PEXTMAX
 10
-1.000000000000000E+20
 20
-1.000000000000000E+20
 30
-1.000000000000000E+20
  9
$PLIMMIN
 10
0.0
 20
0.0
  9
$PLIMMAX
 10
12.0
 20
9.0
  9
$UNITMODE
 70
     0
  9
$VISRETAIN
 70
     1
  9
$PLINEGEN
 70
     0
  9
$PSLTSCALE
 70
     1
  9
$TREEDEPTH
 70
  3020
  9
$CMLSTYLE
  2
Standard
  9
$CMLJUST
 70
     0
  9
$CMLSCALE
 40
1.0
  9
$PROXYGRAPHICS
 70
     1
  9
$MEASUREMENT
 70
     0
  9
$CELWEIGHT
370
    -1
  9
$ENDCAPS
280
     0
  9
$JOINSTYLE
280
     0
  9
$LWDISPLAY
290
     1
  9
$INSUNITS
 70
     1
  9
$HYPERLINKBASE
  1

  9
$STYLESHEET
  1

  9
$XEDIT
290
     1
  9
$CEPSNTYPE
380
     0
  9
$PSTYLEMODE
290
     1
  9
$FINGERPRINTGUID
  2
{E9553033-DFE2-4203-84FA-73AB330AB387}
  9
$VERSIONGUID
  2
{FAEB1C32-E019-11D5-929B-00C0DF256EC4}
  9
$EXTNAMES
290
     1
  9
$PSVPSCALE
 40
0.0
  9
$OLESTARTUP
290
     0
  9
$SORTENTS
280
   127
  9
$INDEXCTL
280
     0
  9
$HIDETEXT
280
     1
  9
$XCLIPFRAME
290
     0
  9
$HALOGAP
280
     0
  9
$OBSCOLOR
 70
   257
  9
$OBSLTYPE
280
     0
  9
$INTERSECTIONDISPLAY
280
     0
  9
$INTERSECTIONCOLOR
 70
   257
  9
$DIMASSOC
280
     2
  9
$PROJECTNAME
  1

  9
$CAMERADISPLAY
290
     0
  9
$LENSLENGTH
 40
50.0
  9
$CAMERAHEIGHT
 40
0.0
  9
$STEPSPERSEC
 40
2.0
  9
$STEPSIZE
 40
6.0
  9
$3DDWFPREC
 40
2.0
  9
$PSOLWIDTH
 40
0.25
  9
$PSOLHEIGHT
 40
4.0
  9
$LOFTANG1
 40
1.570796326794897
  9
$LOFTANG2
 40
1.570796326794897
  9
$LOFTMAG1
 40
0.0
  9
$LOFTMAG2
 40
0.0
  9
$LOFTPARAM
 70
     7
  9
$LOFTNORMALS
280
     1
  9
$LATITUDE
 40
37.795
  9
$LONGITUDE
 40
-122.394
  9
$NORTHDIRECTION
 40
0.0
  9
$TIMEZONE
 70
 -8000
  9
$LIGHTGLYPHDISPLAY
280
     1
  9
$TILEMODELIGHTSYNCH
280
     1
  9
$CMATERIAL
347
3C
  9
$SOLIDHIST
280
     1
  9
$SHOWHIST
280
     1
  9
$DWFFRAME
280
     2
  9
$DGNFRAME
280
     2
  9
$REALWORLDSCALE
290
     1
  9
$INTERFERECOLOR
 62
   256
  9
$CSHADOW
280
     0
  9
$SHADOWPLANELOCATION
 40
0.0
  0
ENDSEC
  0
SECTION
  2
CLASSES
  0
CLASS
  1
ACDBDICTIONARYWDFLT
  2
AcDbDictionaryWithDefault
  3
ObjectDBX Classes
 90
        0
 91
        4
280
     0
281
     0
  0
CLASS
  1
VISUALSTYLE
  2
AcDbVisualStyle
  3
ObjectDBX Classes
 90
     4095
 91
        4
280
     0
281
     0
  0
CLASS
  1
MATERIAL
  2
AcDbMaterial
  3
ObjectDBX Classes
 90
     1153
 91
        4
280
     0
281
     0
  0
CLASS
  1
SUN
  2
AcDbSun
  3
SCENEOE
 90
     1024
 91
        4
280
     0
281
     0
  0
ENDSEC
  0
SECTION
  2
TABLES
  0
TABLE
  2
VPORT
  5
8
330
0
100
AcDbSymbolTable
 70
     1
  0
VPORT
  5
29
330
8
100
AcDbSymbolTableRecord
100
AcDbViewportTableRecord
  2
*Active
 70
     0
 10
0.0
 20
0.0
 11
1.0
 21
1.0
 12
0.0
 22
0.0
 13
0.0
 23
0.0
 14
0.5
 24
0.5
 15
0.5
 25
0.5
 16
0.0
 26
0.0
 36
1.0
 17
74.99999786197358
 27
39.74999886684608
 37
0.0
 40
39.99999998999989
 41
1.000000000000008
 42
50.0
 43
0.0
 44
0.0
 50
0.0
 51
0.0
 71
     0
 72
   100
 73
     1
 74
     3
 75
     0
 76
     0
 77
     0
 78
     0
281
     0
 65
     1
110
0.0
120
0.0
130
0.0
111
1.0
121
0.0
131
0.0
112
0.0
122
1.0
132
0.0
 79
     0
146
0.0
 60
     3
 61
     5
292
     1
282
     1
141
0.0
142
0.0
 63
   250
361
3F
  0
ENDTAB
  0
TABLE
  2
LTYPE
  5
5
330
0
100
AcDbSymbolTable
 70
     1
  0
LTYPE
  5
14
330
5
100
AcDbSymbolTableRecord
100
AcDbLinetypeTableRecord
  2
ByBlock
 70
     0
  3

 72
    65
 73
     0
 40
0.0
  0
LTYPE
  5
15
330
5
100
AcDbSymbolTableRecord
100
AcDbLinetypeTableRecord
  2
ByLayer
 70
     0
  3

 72
    65
 73
     0
 40
0.0
  0
LTYPE
  5
16
330
5
100
AcDbSymbolTableRecord
100
AcDbLinetypeTableRecord
  2
Continuous
 70
     0
  3
Solid line
 72
    65
 73
     0
 40
0.0
  0
ENDTAB
  0
TABLE
  2
LAYER
  5
2
330
0
100
AcDbSymbolTable
 70
     6
  0
LAYER
  5
10
330
2
100
AcDbSymbolTableRecord
100
AcDbLayerTableRecord
  2
0
 70
     0
 62
     7
  6
Continuous
370
    -3
390
F
347
3E
  0
LAYER
  5
40
330
2
100
AcDbSymbolTableRecord
100
AcDbLayerTableRecord
  2
REFERENCIAS
 70
     0
 62
     7
  6
Continuous
370
    -3
390
F
347
3E
  0
LAYER
  5
42
330
2
100
AcDbSymbolTableRecord
100
AcDbLayerTableRecord
  2
M_U+00C1RGENES
 70
     4
 62
     7
  6
Continuous
370
    -3
390
F
347
3E
  0
LAYER
  5
51
330
2
100
AcDbSymbolTableRecord
100
AcDbLayerTableRecord
  2
DIBUJOS
 70
     0
 62
     7
  6
Continuous
370
    -3
390
F
347
3E
  0
LAYER
  5
470
330
2
100
AcDbSymbolTableRecord
100
AcDbLayerTableRecord
  2
COTAS LINEA
 70
     0
 62
     7
  6
Continuous
370
    -3
390
F
347
3E
  0
LAYER
  5
481
330
2
100
AcDbSymbolTableRecord
100
AcDbLayerTableRecord
  2
COTAS N_U+00DAMERO
 70
     0
 62
     7
  6
Continuous
370
    -3
390
F
347
3E
  0
ENDTAB
  0
TABLE
  2
STYLE
  5
3
330
0
100
AcDbSymbolTable
 70
     1
  0
STYLE
  5
11
330
3
100
AcDbSymbolTableRecord
100
AcDbTextStyleTableRecord
  2
Standard
 70
     0
 40
0.0
 41
1.0
 50
0.0
 71
     0
 42
0.2
  3
txt
  4

  0
ENDTAB
  0
TABLE
  2
VIEW
  5
6
330
0
100
AcDbSymbolTable
 70
     0
  0
ENDTAB
  0
TABLE
  2
UCS
  5
7
330
0
100
AcDbSymbolTable
 70
     0
  0
ENDTAB
  0
TABLE
  2
APPID
  5
9
330
0
100
AcDbSymbolTable
 70
     1
  0
APPID
  5
12
330
9
100
AcDbSymbolTableRecord
100
AcDbRegAppTableRecord
  2
ACAD
 70
     0
  0
ENDTAB
  0
TABLE
  2
DIMSTYLE
  5
A
330
0
100
AcDbSymbolTable
 70
     1
100
AcDbDimStyleTable
  0
DIMSTYLE
105
27
330
A
100
AcDbSymbolTableRecord
100
AcDbDimStyleTableRecord
  2
Standard
 70
     0
178
     0
340
11
  0
ENDTAB
  0
TABLE
  2
BLOCK_RECORD
  5
1
330
0
100
AcDbSymbolTable
 70
     4
  0
BLOCK_RECORD
  5
1F
330
1
100
AcDbSymbolTableRecord
100
AcDbBlockTableRecord
  2
*Model_Space
340
22
 70
     0
280
     1
281
     0
  0
BLOCK_RECORD
  5
1B
330
1
100
AcDbSymbolTableRecord
100
AcDbBlockTableRecord
  2
*Paper_Space
340
1E
 70
     0
280
     1
281
     0
  0
BLOCK_RECORD
  5
23
330
1
100
AcDbSymbolTableRecord
100
AcDbBlockTableRecord
  2
*Paper_Space0
340
26
 70
     0
280
     1
281
     0
  0
BLOCK_RECORD
  5
52
330
1
100
AcDbSymbolTableRecord
100
AcDbBlockTableRecord
  2
block 2
340
0
102
{BLKREFS
331
53
102
}
 70
     0
280
     1
281
     0
  0
BLOCK_RECORD
  5
216
330
1
100
AcDbSymbolTableRecord
100
AcDbBlockTableRecord
  2
block 3
340
0
102
{BLKREFS
331
217
102
}
 70
     0
280
     1
281
     0
  0
BLOCK_RECORD
  5
33D
330
1
100
AcDbSymbolTableRecord
100
AcDbBlockTableRecord
  2
block 4
340
0
102
{BLKREFS
331
33E
102
}
 70
     0
280
     1
281
     0
  0
ENDTAB
  0
ENDSEC
  0
SECTION
  2
BLOCKS
  0
BLOCK
  5
20
330
1F
100
AcDbEntity
  8
0
100
AcDbBlockBegin
  2
*Model_Space
 70
     0
 10
0.0
 20
0.0
 30
0.0
  3
*Model_Space
  1

  0
ENDBLK
  5
21
330
1F
100
AcDbEntity
  8
0
100
AcDbBlockEnd
  0
BLOCK
  5
1C
330
1B
100
AcDbEntity
 67
     1
  8
0
100
AcDbBlockBegin
  2
*Paper_Space
 70
     0
 10
0.0
 20
0.0
 30
0.0
  3
*Paper_Space
  1

  0
ENDBLK
  5
1D
330
1B
100
AcDbEntity
 67
     1
  8
0
100
AcDbBlockEnd
  0
BLOCK
  5
24
330
23
100
AcDbEntity
  8
0
100
AcDbBlockBegin
  2
*Paper_Space0
 70
     0
 10
0.0
 20
0.0
 30
0.0
  3
*Paper_Space0
  1

  0
ENDBLK
  5
25
330
23
100
AcDbEntity
  8
0
100
AcDbBlockEnd
  0
BLOCK
  5
54
330
52
100
AcDbEntity
  8
0
100
AcDbBlockBegin
  2
block 2
 70
     0
 10
0.0
 20
0.0
 30
0.0
  3
block 2
  1

  0
POLYLINE
  5
56
330
52
100
AcDbEntity
  8
DIBUJOS
 62
     7
370
    18
100
AcDb2dPolyline
 66
     1
 10
0.0
 20
0.0
 30
0.0
  0
VERTEX
  5
57
330
56
100
AcDbEntity
  8
DIBUJOS
 62
     7
370
    18
100
AcDbVertex
100
AcDb2dVertex
 10
63.29398718550463
 20
50.77211331114666
 30
0.0
  0
VERTEX
  5
58
330
56
100
AcDbEntity
  8
DIBUJOS
 62
     7
370
    18
100
AcDbVertex
100
AcDb2dVertex
 10
63.2996337809057
 20
50.79460069563945
 30
0.0
  0
SEQEND
  5
59
330
56
100
AcDbEntity
  8
DIBUJOS
 62
     7
370
    18
  0
POLYLINE
  5
5A
330
52
100
AcDbEntity
  8
DIBUJOS
 62
     7
370
    18
100
AcDb2dPolyline
 66
     1
 10
0.0
 20
0.0
 30
0.0
  0
VERTEX
  5
5B
330
5A
100
AcDbEntity
  8
DIBUJOS
 62
     7
370
    18
100
AcDbVertex
100
AcDb2dVertex
 10
67.4159205222977
 20
50.77211331114666
 30
0.0
  0
VERTEX
  5
5C
330
5A
100
AcDbEntity
  8
DIBUJOS
 62
     7
370
    18
100
AcDbVertex
100
AcDb2dVertex
 10
67.41027468676678
 20
50.7889780929769
 30
0.0
  0
SEQEND
  5
5D
330
5A
100
AcDbEntity
  8
DIBUJOS
 62
     7
370
    18
  0
POLYLINE
  5
5E
330
52
100
AcDbEntity
  8
DIBUJOS
 62
     7
370
    18
100
AcDb2dPolyline
 66
     1
 10
0.0
 20
0.0
 30
0.0
  0
VERTEX
  5
5F
330
5E
100
AcDbEntity
  8
DIBUJOS
 62
     7
370
    18
100
AcDbVertex
100
AcDb2dVertex
 10
63.30527961643693
 20
50.43480859606809
 30
0.0
  0
VERTEX
  5
60
330
5E
100
AcDbEntity
  8
DIBUJOS
 62
     7
370
    18
100
AcDbVertex
100
AcDb2dVertex
 10
63.31092621183801
 20
50.45167337789834
 30
0.0
  0
SEQEND
  5
61
330
5E
100
AcDbEntity
  8
DIBUJOS
 62
     7
370
    18
  0
POLYLINE
  5
62
330
52
100
AcDbEntity
  8
DIBUJOS
 62
     7
370
    18
100
AcDb2dPolyline
 66
     1
 10
0.0
 20
0.0
 30
0.0
  0
VERTEX
  5
63
330
62
100
AcDbEntity
  8
DIBUJOS
 62
     7
370
    18
100
AcDbVertex
100
AcDb2dVertex
 10
67.40462733149523
 20
50.43480859606809
 30
0.0
  0
VERTEX
  5
64
330
62
100
AcDbEntity
  8
DIBUJOS
 62
     7
370
    18
100
AcDbVertex
100
AcDb2dVertex
 10
67.39898149596432
 20
50.45167337789834
 30
0.0
  0
SEQEND
  5
65
330
62
100
AcDbEntity
  8
DIBUJOS
 62
     7
370
    18
  0
POLYLINE
  5
66
330
52
100
AcDbEntity
  8
DIBUJOS
 62
     7
370
    18
100
AcDb2dPolyline
 66
     1
 10
0.0
 20
0.0
 30
0.0
  0
VERTEX
  5
67
330
66
100
AcDbEntity
  8
DIBUJOS
 62
     7
370
    18
100
AcDbVertex
100
AcDb2dVertex
 10
63.28269399470216
 20
50.00193476651324
 30
0.0
  0
VERTEX
  5
68
330
66
100
AcDbEntity
  8
DIBUJOS
 62
     7
370
    18
100
AcDbVertex
100
AcDb2dVertex
 10
63.28834059010355
 20
50.00755736917611
 30
0.0
  0
SEQEND
  5
69
330
66
100
AcDbEntity
  8
DIBUJOS
 62
     7
370
    18
  0
POLYLINE
  5
6A
330
52
100
AcDbEntity
  8
DIBUJOS
 62
     7
370
    18
100
AcDb2dPolyline
 66
     1
 10
0.0
 20
0.0
 30
0.0
  0
VERTEX
  5
6B
330
6A
100
AcDbEntity
  8
DIBUJOS
 62
     7
370
    18
100
AcDbVertex
100
AcDb2dVertex
 10
67.42721371310017
 20
50.00193476651324
 30
0.0
  0
VERTEX
  5
6C
330
6A
100
AcDbEntity
  8
DIBUJOS
 62
     7
370
    18
100
AcDbVertex
100
AcDb2dVertex
 10
67.42156635782894
 20
50.00193476651324
 30
0.0
  0
SEQEND
  5
6D
330
6A
100
AcDbEntity
  8
DIBUJOS
 62
     7
370
    18
  0
POLYLINE
  5
6E
330
52
100
AcDbEntity
  8
DIBUJOS
 62
     7
370
    18
100
AcDb2dPolyline
 66
     1
 10
0.0
 20
0.0
 30
0.0
  0
VERTEX
  5
6F
330
6E
100
AcDbEntity
  8
DIBUJOS
 62
     7
370
    18
100
AcDbVertex
100
AcDb2dVertex
 10
67.2465256997413
 20
47.6689147742779
 30
0.0
  0
VERTEX
  5
70
330
6E
100
AcDbEntity
  8
DIBUJOS
 62
     7
370
    18
100
AcDbVertex
100
AcDb2dVertex
 10
67.25217305501285
 20
47.74761910692427
 30
0.0
  0
SEQEND
  5
71
330
6E
100
AcDbEntity
  8
DIBUJOS
 62
     7
370
    18
  0
POLYLINE
  5
72
330
52
100
AcDbEntity
  8
DIBUJOS
 62
     7
370
    18
100
AcDb2dPolyline
 66
     1
 10
0.0
 20
0.0
 30
0.0
  0
VERTEX
  5
73
330
72
100
AcDbEntity
  8
DIBUJOS
 62
     7
370
    18
100
AcDbVertex
100
AcDb2dVertex
 10
67.2465256997413
 20
47.6632951977737
 30
0.0
  0
VERTEX
  5
74
330
72
100
AcDbEntity
  8
DIBUJOS
 62
     7
370
    18
100
AcDbVertex
100
AcDb2dVertex
 10
67.2465256997413
 20
47.6689147742779
 30
0.0
  0
SEQEND
  5
75
330
72
100
AcDbEntity
  8
DIBUJOS
 62
     7
370
    18
  0
POLYLINE
  5
76
330
52
100
AcDbEntity
  8
DIBUJOS
 62
     7
370
    18
100
AcDb2dPolyline
 66
     1
 10
0.0
 20
0.0
 30
0.0
  0
VERTEX
  5
77
330
76
100
AcDbEntity
  8
DIBUJOS
 62
     7
370
    18
100
AcDbVertex
100
AcDb2dVertex
 10
67.25217305501285
 20
47.6632951977737
 30
0.0
  0
VERTEX
  5
78
330
76
100
AcDbEntity
  8
DIBUJOS
 62
     7
370
    18
100
AcDbVertex
100
AcDb2dVertex
 10
67.2465256997413
 20
47.6632951977737
 30
0.0
  0
SEQEND
  5
79
330
76
100
AcDbEntity
  8
DIBUJOS
 62
     7
370
    18
  0
POLYLINE
  5
7A
330
52
100
AcDbEntity
  8
DIBUJOS
 62
     7
370
    18
100
AcDb2dPolyline
 66
     1
 10
0.0
 20
0.0
 30
0.0
  0
VERTEX
  5
7B
330
7A
100
AcDbEntity
  8
DIBUJOS
 62
     7
370
    18
100
AcDbVertex
100
AcDb2dVertex
 10
67.2465256997413
 20
47.65767259511084
 30
0.0
  0
VERTEX
  5
7C
330
7A
100
AcDbEntity
  8
DIBUJOS
 62
     7
370
    18
100
AcDbVertex
100
AcDb2dVertex
 10
67.2465256997413
 20
47.6632951977737
 30
0.0
  0
SEQEND
  5
7D
330
7A
100
AcDbEntity
  8
DIBUJOS
 62
     7
370
    18
  0
POLYLINE
  5
7E
330
52
100
AcDbEntity
  8
DIBUJOS
 62
     7
370
    18
100
AcDb2dPolyline
 66
     1
 10
0.0
 20
0.0
 30
0.0
  0
VERTEX
  5
7F
330
7E
100
AcDbEntity
  8
DIBUJOS
 62
     7
370
    18
100
AcDbVertex
100
AcDb2dVertex
 10
67.25781889054376
 20
47.65767259511084
 30
0.0
  0
VERTEX
  5
80
330
7E
100
AcDbEntity
  8
DIBUJOS
 62
     7
370
    18
100
AcDbVertex
100
AcDb2dVertex
 10
67.25217305501285
 20
47.6632951977737
 30
0.0
  0
SEQEND
  5
81
330
7E
100
AcDbEntity
  8
DIBUJOS
 62
     7
370
    18
  0
POLYLINE
  5
82
330
52
100
AcDbEntity
  8
DIBUJOS
 62
     7
370
    18
100
AcDb2dPolyline
 66
     1
 10
0.0
 20
0.0
 30
0.0
  0
VERTEX
  5
83
330
82
100
AcDbEntity
  8
DIBUJOS
 62
     7
370
    18
100
AcDbVertex
100
AcDb2dVertex
 10
67.263464726075
 20
47.65767259511084
 30
0.0
  0
VERTEX
  5
84
330
82
100
AcDbEntity
  8
DIBUJOS
 62
     7
370
    18
100
AcDbVertex
100
AcDb2dVertex
 10
67.25781889054376
 20
47.65767259511084
 30
0.0
  0
SEQEND
  5
85
330
82
100
AcDbEntity
  8
DIBUJOS
 62
     7
370
    18
  0
POLYLINE
  5
86
330
52
100
AcDbEntity
  8
DIBUJOS
 62
     7
370
    18
100
AcDb2dPolyline
 66
     1
 10
0.0
 20
0.0
 30
0.0
  0
VERTEX
  5
87
330
86
100
AcDbEntity
  8
DIBUJOS
 62
     7
370
    18
100
AcDbVertex
100
AcDb2dVertex
 10
67.263464726075
 20
47.65204999244798
 30
0.0
  0
VERTEX
  5
88
330
86
100
AcDbEntity
  8
DIBUJOS
 62
     7
370
    18
100
AcDbVertex
100
AcDb2dVertex
 10
67.263464726075
 20
47.65767259511084
 30
0.0
  0
SEQEND
  5
89
330
86
100
AcDbEntity
  8
DIBUJOS
 62
     7
370
    18
  0
POLYLINE
  5
8A
330
52
100
AcDbEntity
  8
DIBUJOS
 62
     7
370
    18
100
AcDb2dPolyline
 66
     1
 10
0.0
 20
0.0
 30
0.0
  0
VERTEX
  5
8B
330
8A
100
AcDbEntity
  8
DIBUJOS
 62
     7
370
    18
100
AcDbVertex
100
AcDb2dVertex
 10
67.25781889054376
 20
47.6408078132806
 30
0.0
  0
VERTEX
  5
8C
330
8A
100
AcDbEntity
  8
DIBUJOS
 62
     7
370
    18
100
AcDbVertex
100
AcDb2dVertex
 10
67.263464726075
 20
47.65204999244798
 30
0.0
  0
SEQEND
  5
8D
330
8A
100
AcDbEntity
  8
DIBUJOS
 62
     7
370
    18
  0
POLYLINE
  5
8E
330
52
100
AcDbEntity
  8
DIBUJOS
 62
     7
370
    18
100
AcDb2dPolyline
 66
     1
 10
0.0
 20
0.0
 30
0.0
  0
VERTEX
  5
8F
330
8E
100
AcDbEntity
  8
DIBUJOS
 62
     7
370
    18
100
AcDbVertex
100
AcDb2dVertex
 10
63.46338124819087
 20
47.63518521061773
 30
0.0
  0
VERTEX
  5
90
330
8E
100
AcDbEntity
  8
DIBUJOS
 62
     7
370
    18
100
AcDbVertex
100
AcDb2dVertex
 10
63.45581750029354
 20
47.64748957145075
 30
0.0
  0
VERTEX
  5
91
330
8E
100
AcDbEntity
  8
DIBUJOS
 62
     7
370
    18
100
AcDbVertex
100
AcDb2dVertex
 10
63.42950243565362
 20
47.80383605507753
 30
0.0
  0
VERTEX
  5
92
330
8E
100
AcDbEntity
  8
DIBUJOS
 62
     7
370
    18
100
AcDbVertex
100
AcDb2dVertex
 10
63.42950243565362
 20
48.06243643751005
 30
0.0
  0
VERTEX
  5
93
330
8E
100
AcDbEntity
  8
DIBUJOS
 62
     7
370
    18
100
AcDbVertex
100
AcDb2dVertex
 10
63.46338124819087
 20
48.1355211936519
 30
0.0
  0
VERTEX
  5
94
330
8E
100
AcDbEntity
  8
DIBUJOS
 62
     7
370
    18
100
AcDbVertex
100
AcDb2dVertex
 10
63.51463449268218
 20
48.16146747741497
 30
0.0
  0
VERTEX
  5
95
330
8E
100
AcDbEntity
  8
DIBUJOS
 62
     7
370
    18
100
AcDbVertex
100
AcDb2dVertex
 10
63.78550618010959
 20
48.18926879639456
 30
0.0
  0
VERTEX
  5
96
330
8E
100
AcDbEntity
  8
DIBUJOS
 62
     7
370
    18
100
AcDbVertex
100
AcDb2dVertex
 10
63.99954565609205
 20
48.21110555679063
 30
0.0
  0
VERTEX
  5
97
330
8E
100
AcDbEntity
  8
DIBUJOS
 62
     7
370
    18
100
AcDbVertex
100
AcDb2dVertex
 10
64.56428118323515
 20
48.25620137212039
 30
0.0
  0
VERTEX
  5
98
330
8E
100
AcDbEntity
  8
DIBUJOS
 62
     7
370
    18
100
AcDbVertex
100
AcDb2dVertex
 10
65.07262902299561
 20
48.27606205095573
 30
0.0
  0
VERTEX
  5
99
330
8E
100
AcDbEntity
  8
DIBUJOS
 62
     7
370
    18
100
AcDbVertex
100
AcDb2dVertex
 10
65.90841252745079
 20
48.26751920525237
 30
0.0
  0
VERTEX
  5
9A
330
8E
100
AcDbEntity
  8
DIBUJOS
 62
     7
370
    18
100
AcDbVertex
100
AcDb2dVertex
 10
66.28082186936516
 20
48.25093888232984
 30
0.0
  0
VERTEX
  5
9B
330
8E
100
AcDbEntity
  8
DIBUJOS
 62
     7
370
    18
100
AcDbVertex
100
AcDb2dVertex
 10
66.92495167371227
 20
48.1942044610571
 30
0.0
  0
VERTEX
  5
9C
330
8E
100
AcDbEntity
  8
DIBUJOS
 62
     7
370
    18
100
AcDbVertex
100
AcDb2dVertex
 10
67.1051776859938
 20
48.17789649240797
 30
0.0
  0
VERTEX
  5
9D
330
8E
100
AcDbEntity
  8
DIBUJOS
 62
     7
370
    18
100
AcDbVertex
100
AcDb2dVertex
 10
67.24144368789318
 20
48.15913128298257
 30
0.0
  0
VERTEX
  5
9E
330
8E
100
AcDbEntity
  8
DIBUJOS
 62
     7
370
    18
100
AcDbVertex
100
AcDb2dVertex
 10
67.26911208134655
 20
48.14676337281928
 30
0.0
  0
VERTEX
  5
9F
330
8E
100
AcDbEntity
  8
DIBUJOS
 62
     7
370
    18
100
AcDbVertex
100
AcDb2dVertex
 10
67.29564978795271
 20
48.112470943661
 30
0.0
  0
VERTEX
  5
A0
330
8E
100
AcDbEntity
  8
DIBUJOS
 62
     7
370
    18
100
AcDbVertex
100
AcDb2dVertex
 10
67.31428332481579
 20
48.06805904017291
 30
0.0
  0
VERTEX
  5
A1
330
8E
100
AcDbEntity
  8
DIBUJOS
 62
     7
370
    18
100
AcDbVertex
100
AcDb2dVertex
 10
67.30558129137025
 20
47.89920846924566
 30
0.0
  0
VERTEX
  5
A2
330
8E
100
AcDbEntity
  8
DIBUJOS
 62
     7
370
    18
100
AcDbVertex
100
AcDb2dVertex
 10
67.30040049639672
 20
47.83214576870095
 30
0.0
  0
VERTEX
  5
A3
330
8E
100
AcDbEntity
  8
DIBUJOS
 62
     7
370
    18
100
AcDbVertex
100
AcDb2dVertex
 10
67.26694037233558
 20
47.66372793845228
 30
0.0
  0
VERTEX
  5
A4
330
8E
100
AcDbEntity
  8
DIBUJOS
 62
     7
370
    18
100
AcDbVertex
100
AcDb2dVertex
 10
67.263464726075
 20
47.65767259511084
 30
0.0
  0
SEQEND
  5
A5
330
8E
100
AcDbEntity
  8
DIBUJOS
 62
     7
370
    18
  0
POLYLINE
  5
A6
330
52
100
AcDbEntity
  8
DIBUJOS
 62
     7
370
    18
100
AcDb2dPolyline
 66
     1
 10
0.0
 20
0.0
 30
0.0
  0
VERTEX
  5
A7
330
A6
100
AcDbEntity
  8
DIBUJOS
 62
     7
370
    18
100
AcDbVertex
100
AcDb2dVertex
 10
63.46338124819087
 20
47.63518521061773
 30
0.0
  0
VERTEX
  5
A8
330
A6
100
AcDbEntity
  8
DIBUJOS
 62
     7
370
    18
100
AcDbVertex
100
AcDb2dVertex
 10
63.47199893604506
 20
47.65218314342586
 30
0.0
  0
VERTEX
  5
A9
330
A6
100
AcDbEntity
  8
DIBUJOS
 62
     7
370
    18
100
AcDbVertex
100
AcDb2dVertex
 10
63.47467443899335
 20
47.75886431225031
 30
0.0
  0
SEQEND
  5
AA
330
A6
100
AcDbEntity
  8
DIBUJOS
 62
     7
370
    18
  0
POLYLINE
  5
AB
330
52
100
AcDbEntity
  8
DIBUJOS
 62
     7
370
    18
100
AcDb2dPolyline
 66
     1
 10
0.0
 20
0.0
 30
0.0
  0
VERTEX
  5
AC
330
AB
100
AcDbEntity
  8
DIBUJOS
 62
     7
370
    18
100
AcDbVertex
100
AcDb2dVertex
 10
67.25217305501285
 20
47.63518521061773
 30
0.0
  0
VERTEX
  5
AD
330
AB
100
AcDbEntity
  8
DIBUJOS
 62
     7
370
    18
100
AcDbVertex
100
AcDb2dVertex
 10
67.2465256997413
 20
47.65767259511084
 30
0.0
  0
SEQEND
  5
AE
330
AB
100
AcDbEntity
  8
DIBUJOS
 62
     7
370
    18
  0
POLYLINE
  5
AF
330
52
100
AcDbEntity
  8
DIBUJOS
 62
     7
370
    18
100
AcDb2dPolyline
 66
     1
 10
0.0
 20
0.0
 30
0.0
  0
VERTEX
  5
B0
330
AF
100
AcDbEntity
  8
DIBUJOS
 62
     7
370
    18
100
AcDbVertex
100
AcDb2dVertex
 10
67.25781889054376
 20
47.63518521061773
 30
0.0
  0
VERTEX
  5
B1
330
AF
100
AcDbEntity
  8
DIBUJOS
 62
     7
370
    18
100
AcDbVertex
100
AcDb2dVertex
 10
67.25217305501285
 20
47.63518521061773
 30
0.0
  0
SEQEND
  5
B2
330
AF
100
AcDbEntity
  8
DIBUJOS
 62
     7
370
    18
  0
POLYLINE
  5
B3
330
52
100
AcDbEntity
  8
DIBUJOS
 62
     7
370
    18
100
AcDb2dPolyline
 66
     1
 10
0.0
 20
0.0
 30
0.0
  0
VERTEX
  5
B4
330
B3
100
AcDbEntity
  8
DIBUJOS
 62
     7
370
    18
100
AcDbVertex
100
AcDb2dVertex
 10
67.25781889054376
 20
47.63518521061773
 30
0.0
  0
VERTEX
  5
B5
330
B3
100
AcDbEntity
  8
DIBUJOS
 62
     7
370
    18
100
AcDbVertex
100
AcDb2dVertex
 10
67.25781889054376
 20
47.6408078132806
 30
0.0
  0
SEQEND
  5
B6
330
B3
100
AcDbEntity
  8
DIBUJOS
 62
     7
370
    18
  0
POLYLINE
  5
B7
330
52
100
AcDbEntity
  8
DIBUJOS
 62
     7
370
    18
100
AcDb2dPolyline
 66
     1
 10
0.0
 20
0.0
 30
0.0
  0
VERTEX
  5
B8
330
B7
100
AcDbEntity
  8
DIBUJOS
 62
     7
370
    18
100
AcDbVertex
100
AcDb2dVertex
 10
67.25781889054376
 20
47.62956260795488
 30
0.0
  0
VERTEX
  5
B9
330
B7
100
AcDbEntity
  8
DIBUJOS
 62
     7
370
    18
100
AcDbVertex
100
AcDb2dVertex
 10
67.25781889054376
 20
47.63518521061773
 30
0.0
  0
SEQEND
  5
BA
330
B7
100
AcDbEntity
  8
DIBUJOS
 62
     7
370
    18
  0
POLYLINE
  5
BB
330
52
100
AcDbEntity
  8
DIBUJOS
 62
     7
370
    18
100
AcDb2dPolyline
 66
     1
 10
0.0
 20
0.0
 30
0.0
  0
VERTEX
  5
BC
330
BB
100
AcDbEntity
  8
DIBUJOS
 62
     7
370
    18
100
AcDbVertex
100
AcDb2dVertex
 10
63.46338124819087
 20
47.53961609614145
 30
0.0
  0
VERTEX
  5
BD
330
BB
100
AcDbEntity
  8
DIBUJOS
 62
     7
370
    18
100
AcDbVertex
100
AcDb2dVertex
 10
63.46902784359195
 20
47.54523869880399
 30
0.0
  0
VERTEX
  5
BE
330
BB
100
AcDbEntity
  8
DIBUJOS
 62
     7
370
    18
100
AcDbVertex
100
AcDb2dVertex
 10
63.46589717839873
 20
47.58483901013176
 30
0.0
  0
VERTEX
  5
BF
330
BB
100
AcDbEntity
  8
DIBUJOS
 62
     7
370
    18
100
AcDbVertex
100
AcDb2dVertex
 10
63.46338124819087
 20
47.63518521061773
 30
0.0
  0
SEQEND
  5
C0
330
BB
100
AcDbEntity
  8
DIBUJOS
 62
     7
370
    18
  0
POLYLINE
  5
C1
330
52
100
AcDbEntity
  8
DIBUJOS
 62
     7
370
    18
100
AcDb2dPolyline
 66
     1
 10
0.0
 20
0.0
 30
0.0
  0
VERTEX
  5
C2
330
C1
100
AcDbEntity
  8
DIBUJOS
 62
     7
370
    18
100
AcDbVertex
100
AcDb2dVertex
 10
67.2465256997413
 20
47.53961609614145
 30
0.0
  0
VERTEX
  5
C3
330
C1
100
AcDbEntity
  8
DIBUJOS
 62
     7
370
    18
100
AcDbVertex
100
AcDb2dVertex
 10
67.25454385001372
 20
47.62360410168834
 30
0.0
  0
VERTEX
  5
C4
330
C1
100
AcDbEntity
  8
DIBUJOS
 62
     7
370
    18
100
AcDbVertex
100
AcDb2dVertex
 10
67.25781889054376
 20
47.62956260795488
 30
0.0
  0
SEQEND
  5
C5
330
C1
100
AcDbEntity
  8
DIBUJOS
 62
     7
370
    18
  0
POLYLINE
  5
C6
330
52
100
AcDbEntity
  8
DIBUJOS
 62
     7
370
    18
100
AcDb2dPolyline
 66
     1
 10
0.0
 20
0.0
 30
0.0
  0
VERTEX
  5
C7
330
C6
100
AcDbEntity
  8
DIBUJOS
 62
     7
370
    18
100
AcDbVertex
100
AcDb2dVertex
 10
63.46338124819087
 20
47.53399349347827
 30
0.0
  0
VERTEX
  5
C8
330
C6
100
AcDbEntity
  8
DIBUJOS
 62
     7
370
    18
100
AcDbVertex
100
AcDb2dVertex
 10
63.45773465278948
 20
47.53399349347827
 30
0.0
  0
SEQEND
  5
C9
330
C6
100
AcDbEntity
  8
DIBUJOS
 62
     7
370
    18
  0
POLYLINE
  5
CA
330
52
100
AcDbEntity
  8
DIBUJOS
 62
     7
370
    18
100
AcDb2dPolyline
 66
     1
 10
0.0
 20
0.0
 30
0.0
  0
VERTEX
  5
CB
330
CA
100
AcDbEntity
  8
DIBUJOS
 62
     7
370
    18
100
AcDbVertex
100
AcDb2dVertex
 10
63.46338124819087
 20
47.53399349347827
 30
0.0
  0
VERTEX
  5
CC
330
CA
100
AcDbEntity
  8
DIBUJOS
 62
     7
370
    18
100
AcDbVertex
100
AcDb2dVertex
 10
63.46338124819087
 20
47.53961609614145
 30
0.0
  0
SEQEND
  5
CD
330
CA
100
AcDbEntity
  8
DIBUJOS
 62
     7
370
    18
  0
POLYLINE
  5
CE
330
52
100
AcDbEntity
  8
DIBUJOS
 62
     7
370
    18
100
AcDb2dPolyline
 66
     1
 10
0.0
 20
0.0
 30
0.0
  0
VERTEX
  5
CF
330
CE
100
AcDbEntity
  8
DIBUJOS
 62
     7
370
    18
100
AcDbVertex
100
AcDb2dVertex
 10
63.46902784359195
 20
47.53399349347827
 30
0.0
  0
VERTEX
  5
D0
330
CE
100
AcDbEntity
  8
DIBUJOS
 62
     7
370
    18
100
AcDbVertex
100
AcDb2dVertex
 10
63.46338124819087
 20
47.53399349347827
 30
0.0
  0
SEQEND
  5
D1
330
CE
100
AcDbEntity
  8
DIBUJOS
 62
     7
370
    18
  0
POLYLINE
  5
D2
330
52
100
AcDbEntity
  8
DIBUJOS
 62
     7
370
    18
100
AcDb2dPolyline
 66
     1
 10
0.0
 20
0.0
 30
0.0
  0
VERTEX
  5
D3
330
D2
100
AcDbEntity
  8
DIBUJOS
 62
     7
370
    18
100
AcDbVertex
100
AcDb2dVertex
 10
67.2465256997413
 20
47.53399349347827
 30
0.0
  0
VERTEX
  5
D4
330
D2
100
AcDbEntity
  8
DIBUJOS
 62
     7
370
    18
100
AcDbVertex
100
AcDb2dVertex
 10
67.24087986421038
 20
47.53399349347827
 30
0.0
  0
SEQEND
  5
D5
330
D2
100
AcDbEntity
  8
DIBUJOS
 62
     7
370
    18
  0
POLYLINE
  5
D6
330
52
100
AcDbEntity
  8
DIBUJOS
 62
     7
370
    18
100
AcDb2dPolyline
 66
     1
 10
0.0
 20
0.0
 30
0.0
  0
VERTEX
  5
D7
330
D6
100
AcDbEntity
  8
DIBUJOS
 62
     7
370
    18
100
AcDbVertex
100
AcDb2dVertex
 10
67.2465256997413
 20
47.53399349347827
 30
0.0
  0
VERTEX
  5
D8
330
D6
100
AcDbEntity
  8
DIBUJOS
 62
     7
370
    18
100
AcDbVertex
100
AcDb2dVertex
 10
67.2465256997413
 20
47.53961609614145
 30
0.0
  0
SEQEND
  5
D9
330
D6
100
AcDbEntity
  8
DIBUJOS
 62
     7
370
    18
  0
POLYLINE
  5
DA
330
52
100
AcDbEntity
  8
DIBUJOS
 62
     7
370
    18
100
AcDb2dPolyline
 66
     1
 10
0.0
 20
0.0
 30
0.0
  0
VERTEX
  5
DB
330
DA
100
AcDbEntity
  8
DIBUJOS
 62
     7
370
    18
100
AcDbVertex
100
AcDb2dVertex
 10
67.25217305501285
 20
47.53399349347827
 30
0.0
  0
VERTEX
  5
DC
330
DA
100
AcDbEntity
  8
DIBUJOS
 62
     7
370
    18
100
AcDbVertex
100
AcDb2dVertex
 10
67.2465256997413
 20
47.53399349347827
 30
0.0
  0
SEQEND
  5
DD
330
DA
100
AcDbEntity
  8
DIBUJOS
 62
     7
370
    18
  0
POLYLINE
  5
DE
330
52
100
AcDbEntity
  8
DIBUJOS
 62
     7
370
    18
100
AcDb2dPolyline
 66
     1
 10
0.0
 20
0.0
 30
0.0
  0
VERTEX
  5
DF
330
DE
100
AcDbEntity
  8
DIBUJOS
 62
     7
370
    18
100
AcDbVertex
100
AcDb2dVertex
 10
63.33351259344327
 20
47.52275131431089
 30
0.0
  0
VERTEX
  5
E0
330
DE
100
AcDbEntity
  8
DIBUJOS
 62
     7
370
    18
100
AcDbVertex
100
AcDb2dVertex
 10
63.32786599804188
 20
47.52275131431089
 30
0.0
  0
SEQEND
  5
E1
330
DE
100
AcDbEntity
  8
DIBUJOS
 62
     7
370
    18
  0
POLYLINE
  5
E2
330
52
100
AcDbEntity
  8
DIBUJOS
 62
     7
370
    18
100
AcDb2dPolyline
 66
     1
 10
0.0
 20
0.0
 30
0.0
  0
VERTEX
  5
E3
330
E2
100
AcDbEntity
  8
DIBUJOS
 62
     7
370
    18
100
AcDbVertex
100
AcDb2dVertex
 10
63.33915842897419
 20
47.52275131431089
 30
0.0
  0
VERTEX
  5
E4
330
E2
100
AcDbEntity
  8
DIBUJOS
 62
     7
370
    18
100
AcDbVertex
100
AcDb2dVertex
 10
63.33351259344327
 20
47.52275131431089
 30
0.0
  0
SEQEND
  5
E5
330
E2
100
AcDbEntity
  8
DIBUJOS
 62
     7
370
    18
  0
POLYLINE
  5
E6
330
52
100
AcDbEntity
  8
DIBUJOS
 62
     7
370
    18
100
AcDb2dPolyline
 66
     1
 10
0.0
 20
0.0
 30
0.0
  0
VERTEX
  5
E7
330
E6
100
AcDbEntity
  8
DIBUJOS
 62
     7
370
    18
100
AcDbVertex
100
AcDb2dVertex
 10
63.33915842897419
 20
47.52275131431089
 30
0.0
  0
VERTEX
  5
E8
330
E6
100
AcDbEntity
  8
DIBUJOS
 62
     7
370
    18
100
AcDbVertex
100
AcDb2dVertex
 10
63.45773465278948
 20
47.53399349347827
 30
0.0
  0
SEQEND
  5
E9
330
E6
100
AcDbEntity
  8
DIBUJOS
 62
     7
370
    18
  0
POLYLINE
  5
EA
330
52
100
AcDbEntity
  8
DIBUJOS
 62
     7
370
    18
100
AcDb2dPolyline
 66
     1
 10
0.0
 20
0.0
 30
0.0
  0
VERTEX
  5
EB
330
EA
100
AcDbEntity
  8
DIBUJOS
 62
     7
370
    18
100
AcDbVertex
100
AcDb2dVertex
 10
66.7552817781461
 20
47.52275131431089
 30
0.0
  0
VERTEX
  5
EC
330
EA
100
AcDbEntity
  8
DIBUJOS
 62
     7
370
    18
100
AcDbVertex
100
AcDb2dVertex
 10
66.74963594261519
 20
47.52275131431089
 30
0.0
  0
SEQEND
  5
ED
330
EA
100
AcDbEntity
  8
DIBUJOS
 62
     7
370
    18
  0
POLYLINE
  5
EE
330
52
100
AcDbEntity
  8
DIBUJOS
 62
     7
370
    18
100
AcDb2dPolyline
 66
     1
 10
0.0
 20
0.0
 30
0.0
  0
VERTEX
  5
EF
330
EE
100
AcDbEntity
  8
DIBUJOS
 62
     7
370
    18
100
AcDbVertex
100
AcDb2dVertex
 10
66.76092761367732
 20
47.52275131431089
 30
0.0
  0
VERTEX
  5
F0
330
EE
100
AcDbEntity
  8
DIBUJOS
 62
     7
370
    18
100
AcDbVertex
100
AcDb2dVertex
 10
66.7552817781461
 20
47.52275131431089
 30
0.0
  0
SEQEND
  5
F1
330
EE
100
AcDbEntity
  8
DIBUJOS
 62
     7
370
    18
  0
POLYLINE
  5
F2
330
52
100
AcDbEntity
  8
DIBUJOS
 62
     7
370
    18
100
AcDb2dPolyline
 66
     1
 10
0.0
 20
0.0
 30
0.0
  0
VERTEX
  5
F3
330
F2
100
AcDbEntity
  8
DIBUJOS
 62
     7
370
    18
100
AcDbVertex
100
AcDb2dVertex
 10
67.47238495656973
 20
47.52275131431089
 30
0.0
  0
VERTEX
  5
F4
330
F2
100
AcDbEntity
  8
DIBUJOS
 62
     7
370
    18
100
AcDbVertex
100
AcDb2dVertex
 10
67.25217305501285
 20
47.53399349347827
 30
0.0
  0
SEQEND
  5
F5
330
F2
100
AcDbEntity
  8
DIBUJOS
 62
     7
370
    18
  0
POLYLINE
  5
F6
330
52
100
AcDbEntity
  8
DIBUJOS
 62
     7
370
    18
100
AcDb2dPolyline
 66
     1
 10
0.0
 20
0.0
 30
0.0
  0
VERTEX
  5
F7
330
F6
100
AcDbEntity
  8
DIBUJOS
 62
     7
370
    18
100
AcDbVertex
100
AcDb2dVertex
 10
67.47803231184129
 20
47.52275131431089
 30
0.0
  0
VERTEX
  5
F8
330
F6
100
AcDbEntity
  8
DIBUJOS
 62
     7
370
    18
100
AcDbVertex
100
AcDb2dVertex
 10
67.47238495656973
 20
47.52275131431089
 30
0.0
  0
SEQEND
  5
F9
330
F6
100
AcDbEntity
  8
DIBUJOS
 62
     7
370
    18
  0
POLYLINE
  5
FA
330
52
100
AcDbEntity
  8
DIBUJOS
 62
     7
370
    18
100
AcDb2dPolyline
 66
     1
 10
0.0
 20
0.0
 30
0.0
  0
VERTEX
  5
FB
330
FA
100
AcDbEntity
  8
DIBUJOS
 62
     7
370
    18
100
AcDbVertex
100
AcDb2dVertex
 10
67.4836781473722
 20
47.52275131431089
 30
0.0
  0
VERTEX
  5
FC
330
FA
100
AcDbEntity
  8
DIBUJOS
 62
     7
370
    18
100
AcDbVertex
100
AcDb2dVertex
 10
67.47803231184129
 20
47.52275131431089
 30
0.0
  0
SEQEND
  5
FD
330
FA
100
AcDbEntity
  8
DIBUJOS
 62
     7
370
    18
  0
POLYLINE
  5
FE
330
52
100
AcDbEntity
  8
DIBUJOS
 62
     7
370
    18
100
AcDb2dPolyline
 66
     1
 10
0.0
 20
0.0
 30
0.0
  0
VERTEX
  5
FF
330
FE
100
AcDbEntity
  8
DIBUJOS
 62
     7
370
    18
100
AcDbVertex
100
AcDb2dVertex
 10
67.4836781473722
 20
47.52275131431089
 30
0.0
  0
VERTEX
  5
100
330
FE
100
AcDbEntity
  8
DIBUJOS
 62
     7
370
    18
100
AcDbVertex
100
AcDb2dVertex
 10
67.65928414888296
 20
47.53230792314291
 30
0.0
  0
VERTEX
  5
101
330
FE
100
AcDbEntity
  8
DIBUJOS
 62
     7
370
    18
100
AcDbVertex
100
AcDb2dVertex
 10
67.70389156866972
 20
47.54523869880399
 30
0.0
  0
VERTEX
  5
102
330
FE
100
AcDbEntity
  8
DIBUJOS
 62
     7
370
    18
100
AcDbVertex
100
AcDb2dVertex
 10
67.75335455898689
 20
47.60246638392693
 30
0.0
  0
VERTEX
  5
103
330
FE
100
AcDbEntity
  8
DIBUJOS
 62
     7
370
    18
100
AcDbVertex
100
AcDb2dVertex
 10
67.76995468321452
 20
47.64699025528292
 30
0.0
  0
VERTEX
  5
104
330
FE
100
AcDbEntity
  8
DIBUJOS
 62
     7
370
    18
100
AcDbVertex
100
AcDb2dVertex
 10
67.79788903123507
 20
47.74249582042892
 30
0.0
  0
VERTEX
  5
105
330
FE
100
AcDbEntity
  8
DIBUJOS
 62
     7
370
    18
100
AcDbVertex
100
AcDb2dVertex
 10
67.84840976086055
 20
48.00097818267623
 30
0.0
  0
VERTEX
  5
106
330
FE
100
AcDbEntity
  8
DIBUJOS
 62
     7
370
    18
100
AcDbVertex
100
AcDb2dVertex
 10
67.88457806228796
 20
48.2086029236354
 30
0.0
  0
VERTEX
  5
107
330
FE
100
AcDbEntity
  8
DIBUJOS
 62
     7
370
    18
100
AcDbVertex
100
AcDb2dVertex
 10
67.87589426572666
 20
48.51798224723215
 30
0.0
  0
VERTEX
  5
108
330
FE
100
AcDbEntity
  8
DIBUJOS
 62
     7
370
    18
100
AcDbVertex
100
AcDb2dVertex
 10
67.87067699698432
 20
48.59069478586736
 30
0.0
  0
VERTEX
  5
109
330
FE
100
AcDbEntity
  8
DIBUJOS
 62
     7
370
    18
100
AcDbVertex
100
AcDb2dVertex
 10
67.84268185934845
 20
48.7873043095536
 30
0.0
  0
VERTEX
  5
10A
330
FE
100
AcDbEntity
  8
DIBUJOS
 62
     7
370
    18
100
AcDbVertex
100
AcDb2dVertex
 10
67.77946673828546
 20
49.16472983523744
 30
0.0
  0
VERTEX
  5
10B
330
FE
100
AcDbEntity
  8
DIBUJOS
 62
     7
370
    18
100
AcDbVertex
100
AcDb2dVertex
 10
67.73042927527588
 20
49.36049506067714
 30
0.0
  0
VERTEX
  5
10C
330
FE
100
AcDbEntity
  8
DIBUJOS
 62
     7
370
    18
100
AcDbVertex
100
AcDb2dVertex
 10
67.61702168851087
 20
49.93404289851402
 30
0.0
  0
VERTEX
  5
10D
330
FE
100
AcDbEntity
  8
DIBUJOS
 62
     7
370
    18
100
AcDbVertex
100
AcDb2dVertex
 10
67.57173342503164
 20
50.19269472564217
 30
0.0
  0
VERTEX
  5
10E
330
FE
100
AcDbEntity
  8
DIBUJOS
 62
     7
370
    18
100
AcDbVertex
100
AcDb2dVertex
 10
67.44216035978855
 20
50.81096918746083
 30
0.0
  0
VERTEX
  5
10F
330
FE
100
AcDbEntity
  8
DIBUJOS
 62
     7
370
    18
100
AcDbVertex
100
AcDb2dVertex
 10
67.39698759657898
 20
50.97962305807928
 30
0.0
  0
VERTEX
  5
110
330
FE
100
AcDbEntity
  8
DIBUJOS
 62
     7
370
    18
100
AcDbVertex
100
AcDb2dVertex
 10
67.29903728927145
 20
51.32360650516902
 30
0.0
  0
VERTEX
  5
111
330
FE
100
AcDbEntity
  8
DIBUJOS
 62
     7
370
    18
100
AcDbVertex
100
AcDb2dVertex
 10
67.2538660458019
 20
51.46415038863183
 30
0.0
  0
VERTEX
  5
112
330
FE
100
AcDbEntity
  8
DIBUJOS
 62
     7
370
    18
100
AcDbVertex
100
AcDb2dVertex
 10
67.1573108601681
 20
51.69464078390807
 30
0.0
  0
VERTEX
  5
113
330
FE
100
AcDbEntity
  8
DIBUJOS
 62
     7
370
    18
100
AcDbVertex
100
AcDb2dVertex
 10
67.14658301278908
 20
51.71712816840117
 30
0.0
  0
VERTEX
  5
114
330
FE
100
AcDbEntity
  8
DIBUJOS
 62
     7
370
    18
100
AcDbVertex
100
AcDb2dVertex
 10
67.13219411082187
 20
51.74343456503656
 30
0.0
  0
VERTEX
  5
115
330
FE
100
AcDbEntity
  8
DIBUJOS
 62
     7
370
    18
100
AcDbVertex
100
AcDb2dVertex
 10
67.04889866004903
 20
51.84024440453562
 30
0.0
  0
VERTEX
  5
116
330
FE
100
AcDbEntity
  8
DIBUJOS
 62
     7
370
    18
100
AcDbVertex
100
AcDb2dVertex
 10
66.98170485865734
 20
51.88634187835908
 30
0.0
  0
VERTEX
  5
117
330
FE
100
AcDbEntity
  8
DIBUJOS
 62
     7
370
    18
100
AcDbVertex
100
AcDb2dVertex
 10
66.91251411839964
 20
51.92327311780912
 30
0.0
  0
VERTEX
  5
118
330
FE
100
AcDbEntity
  8
DIBUJOS
 62
     7
370
    18
100
AcDbVertex
100
AcDb2dVertex
 10
66.85642050078184
 20
51.94507356430189
 30
0.0
  0
VERTEX
  5
119
330
FE
100
AcDbEntity
  8
DIBUJOS
 62
     7
370
    18
100
AcDbVertex
100
AcDb2dVertex
 10
66.73319387138766
 20
51.97714781921266
 30
0.0
  0
VERTEX
  5
11A
330
FE
100
AcDbEntity
  8
DIBUJOS
 62
     7
370
    18
100
AcDbVertex
100
AcDb2dVertex
 10
66.63645327742691
 20
51.99514741051479
 30
0.0
  0
VERTEX
  5
11B
330
FE
100
AcDbEntity
  8
DIBUJOS
 62
     7
370
    18
100
AcDbVertex
100
AcDb2dVertex
 10
66.53534342985866
 20
52.00574199174316
 30
0.0
  0
VERTEX
  5
11C
330
FE
100
AcDbEntity
  8
DIBUJOS
 62
     7
370
    18
100
AcDbVertex
100
AcDb2dVertex
 10
66.25850904102965
 20
52.02282163083351
 30
0.0
  0
VERTEX
  5
11D
330
FE
100
AcDbEntity
  8
DIBUJOS
 62
     7
370
    18
100
AcDbVertex
100
AcDb2dVertex
 10
65.9535320997473
 20
52.02851988746097
 30
0.0
  0
VERTEX
  5
11E
330
FE
100
AcDbEntity
  8
DIBUJOS
 62
     7
370
    18
100
AcDbVertex
100
AcDb2dVertex
 10
64.7507274929133
 20
52.02851686130263
 30
0.0
  0
VERTEX
  5
11F
330
FE
100
AcDbEntity
  8
DIBUJOS
 62
     7
370
    18
100
AcDbVertex
100
AcDb2dVertex
 10
64.3274106474458
 20
52.01745625165074
 30
0.0
  0
VERTEX
  5
120
330
FE
100
AcDbEntity
  8
DIBUJOS
 62
     7
370
    18
100
AcDbVertex
100
AcDb2dVertex
 10
64.12427150937621
 20
52.00077001317765
 30
0.0
  0
VERTEX
  5
121
330
FE
100
AcDbEntity
  8
DIBUJOS
 62
     7
370
    18
100
AcDbVertex
100
AcDb2dVertex
 10
64.07347722648129
 20
51.99518372441776
 30
0.0
  0
VERTEX
  5
122
330
FE
100
AcDbEntity
  8
DIBUJOS
 62
     7
370
    18
100
AcDbVertex
100
AcDb2dVertex
 10
63.96077024003364
 20
51.97318052529951
 30
0.0
  0
VERTEX
  5
123
330
FE
100
AcDbEntity
  8
DIBUJOS
 62
     7
370
    18
100
AcDbVertex
100
AcDb2dVertex
 10
63.84113095781856
 20
51.94312169201046
 30
0.0
  0
VERTEX
  5
124
330
FE
100
AcDbEntity
  8
DIBUJOS
 62
     7
370
    18
100
AcDbVertex
100
AcDb2dVertex
 10
63.75048376293267
 20
51.89775957472462
 30
0.0
  0
VERTEX
  5
125
330
FE
100
AcDbEntity
  8
DIBUJOS
 62
     7
370
    18
100
AcDbVertex
100
AcDb2dVertex
 10
63.68924126488947
 20
51.86835136553293
 30
0.0
  0
VERTEX
  5
126
330
FE
100
AcDbEntity
  8
DIBUJOS
 62
     7
370
    18
100
AcDbVertex
100
AcDb2dVertex
 10
63.64971509708067
 20
51.8289991992099
 30
0.0
  0
VERTEX
  5
127
330
FE
100
AcDbEntity
  8
DIBUJOS
 62
     7
370
    18
100
AcDbVertex
100
AcDb2dVertex
 10
63.56614761277903
 20
51.72724764273099
 30
0.0
  0
VERTEX
  5
128
330
FE
100
AcDbEntity
  8
DIBUJOS
 62
     7
370
    18
100
AcDbVertex
100
AcDb2dVertex
 10
63.5212012908862
 20
51.62560502796129
 30
0.0
  0
VERTEX
  5
129
330
FE
100
AcDbEntity
  8
DIBUJOS
 62
     7
370
    18
100
AcDbVertex
100
AcDb2dVertex
 10
63.46507499885008
 20
51.49113464479188
 30
0.0
  0
VERTEX
  5
12A
330
FE
100
AcDbEntity
  8
DIBUJOS
 62
     7
370
    18
100
AcDbVertex
100
AcDb2dVertex
 10
63.40861056457837
 20
51.31686119766891
 30
0.0
  0
VERTEX
  5
12B
330
FE
100
AcDbEntity
  8
DIBUJOS
 62
     7
370
    18
100
AcDbVertex
100
AcDb2dVertex
 10
63.31291935135318
 20
50.97962305807928
 30
0.0
  0
VERTEX
  5
12C
330
FE
100
AcDbEntity
  8
DIBUJOS
 62
     7
370
    18
100
AcDbVertex
100
AcDb2dVertex
 10
63.25811523345221
 20
50.77260960115584
 30
0.0
  0
VERTEX
  5
12D
330
FE
100
AcDbEntity
  8
DIBUJOS
 62
     7
370
    18
100
AcDbVertex
100
AcDb2dVertex
 10
63.12688185183838
 20
50.13085517482605
 30
0.0
  0
VERTEX
  5
12E
330
FE
100
AcDbEntity
  8
DIBUJOS
 62
     7
370
    18
100
AcDbVertex
100
AcDb2dVertex
 10
63.07594547321775
 20
49.84409638670059
 30
0.0
  0
VERTEX
  5
12F
330
FE
100
AcDbEntity
  8
DIBUJOS
 62
     7
370
    18
100
AcDbVertex
100
AcDb2dVertex
 10
62.9757907824819
 20
49.35031203701673
 30
0.0
  0
VERTEX
  5
130
330
FE
100
AcDbEntity
  8
DIBUJOS
 62
     7
370
    18
100
AcDbVertex
100
AcDb2dVertex
 10
62.92497218374078
 20
49.14230600007493
 30
0.0
  0
VERTEX
  5
131
330
FE
100
AcDbEntity
  8
DIBUJOS
 62
     7
370
    18
100
AcDbVertex
100
AcDb2dVertex
 10
62.85118954790904
 20
48.68116482311695
 30
0.0
  0
VERTEX
  5
132
330
FE
100
AcDbEntity
  8
DIBUJOS
 62
     7
370
    18
100
AcDbVertex
100
AcDb2dVertex
 10
62.82532888564421
 20
48.37725376809519
 30
0.0
  0
VERTEX
  5
133
330
FE
100
AcDbEntity
  8
DIBUJOS
 62
     7
370
    18
100
AcDbVertex
100
AcDb2dVertex
 10
62.82532888564421
 20
48.2086029236354
 30
0.0
  0
VERTEX
  5
134
330
FE
100
AcDbEntity
  8
DIBUJOS
 62
     7
370
    18
100
AcDbVertex
100
AcDb2dVertex
 10
62.85585059167055
 20
48.03470774633639
 30
0.0
  0
VERTEX
  5
135
330
FE
100
AcDbEntity
  8
DIBUJOS
 62
     7
370
    18
100
AcDbVertex
100
AcDb2dVertex
 10
62.88408280880672
 20
47.87167950453914
 30
0.0
  0
VERTEX
  5
136
330
FE
100
AcDbEntity
  8
DIBUJOS
 62
     7
370
    18
100
AcDbVertex
100
AcDb2dVertex
 10
62.91766527196866
 20
47.72000843593582
 30
0.0
  0
VERTEX
  5
137
330
FE
100
AcDbEntity
  8
DIBUJOS
 62
     7
370
    18
100
AcDbVertex
100
AcDb2dVertex
 10
62.94559886011903
 20
47.62450287078981
 30
0.0
  0
VERTEX
  5
138
330
FE
100
AcDbEntity
  8
DIBUJOS
 62
     7
370
    18
100
AcDbVertex
100
AcDb2dVertex
 10
62.99472294833046
 20
47.55085827530851
 30
0.0
  0
VERTEX
  5
139
330
FE
100
AcDbEntity
  8
DIBUJOS
 62
     7
370
    18
100
AcDbVertex
100
AcDb2dVertex
 10
62.99980496017857
 20
47.54973557047094
 30
0.0
  0
VERTEX
  5
13A
330
FE
100
AcDbEntity
  8
DIBUJOS
 62
     7
370
    18
100
AcDbVertex
100
AcDb2dVertex
 10
63.05689172813823
 20
47.53112469513373
 30
0.0
  0
VERTEX
  5
13B
330
FE
100
AcDbEntity
  8
DIBUJOS
 62
     7
370
    18
100
AcDbVertex
100
AcDb2dVertex
 10
63.32786599804188
 20
47.52275131431089
 30
0.0
  0
SEQEND
  5
13C
330
FE
100
AcDbEntity
  8
DIBUJOS
 62
     7
370
    18
  0
POLYLINE
  5
13D
330
52
100
AcDbEntity
  8
DIBUJOS
 62
     7
370
    18
100
AcDb2dPolyline
 66
     1
 10
0.0
 20
0.0
 30
0.0
  0
VERTEX
  5
13E
330
13D
100
AcDbEntity
  8
DIBUJOS
 62
     7
370
    18
100
AcDbVertex
100
AcDb2dVertex
 10
63.33351259344327
 20
47.51712871164835
 30
0.0
  0
VERTEX
  5
13F
330
13D
100
AcDbEntity
  8
DIBUJOS
 62
     7
370
    18
100
AcDbVertex
100
AcDb2dVertex
 10
63.33351259344327
 20
47.52275131431089
 30
0.0
  0
SEQEND
  5
140
330
13D
100
AcDbEntity
  8
DIBUJOS
 62
     7
370
    18
  0
POLYLINE
  5
141
330
52
100
AcDbEntity
  8
DIBUJOS
 62
     7
370
    18
100
AcDb2dPolyline
 66
     1
 10
0.0
 20
0.0
 30
0.0
  0
VERTEX
  5
142
330
141
100
AcDbEntity
  8
DIBUJOS
 62
     7
370
    18
100
AcDbVertex
100
AcDb2dVertex
 10
63.68359466948807
 20
47.51712871164835
 30
0.0
  0
VERTEX
  5
143
330
141
100
AcDbEntity
  8
DIBUJOS
 62
     7
370
    18
100
AcDbVertex
100
AcDb2dVertex
 10
63.48032103439442
 20
47.52275131431089
 30
0.0
  0
VERTEX
  5
144
330
141
100
AcDbEntity
  8
DIBUJOS
 62
     7
370
    18
100
AcDbVertex
100
AcDb2dVertex
 10
63.46902784359195
 20
47.53399349347827
 30
0.0
  0
SEQEND
  5
145
330
141
100
AcDbEntity
  8
DIBUJOS
 62
     7
370
    18
  0
POLYLINE
  5
146
330
52
100
AcDbEntity
  8
DIBUJOS
 62
     7
370
    18
100
AcDb2dPolyline
 66
     1
 10
0.0
 20
0.0
 30
0.0
  0
VERTEX
  5
147
330
146
100
AcDbEntity
  8
DIBUJOS
 62
     7
370
    18
100
AcDbVertex
100
AcDb2dVertex
 10
63.68924126488947
 20
47.51712871164835
 30
0.0
  0
VERTEX
  5
148
330
146
100
AcDbEntity
  8
DIBUJOS
 62
     7
370
    18
100
AcDbVertex
100
AcDb2dVertex
 10
63.68359466948807
 20
47.51712871164835
 30
0.0
  0
SEQEND
  5
149
330
146
100
AcDbEntity
  8
DIBUJOS
 62
     7
370
    18
  0
POLYLINE
  5
14A
330
52
100
AcDbEntity
  8
DIBUJOS
 62
     7
370
    18
100
AcDb2dPolyline
 66
     1
 10
0.0
 20
0.0
 30
0.0
  0
VERTEX
  5
14B
330
14A
100
AcDbEntity
  8
DIBUJOS
 62
     7
370
    18
100
AcDbVertex
100
AcDb2dVertex
 10
63.70053369582178
 20
47.51712871164835
 30
0.0
  0
VERTEX
  5
14C
330
14A
100
AcDbEntity
  8
DIBUJOS
 62
     7
370
    18
100
AcDbVertex
100
AcDb2dVertex
 10
63.69488710042038
 20
47.52275131431089
 30
0.0
  0
VERTEX
  5
14D
330
14A
100
AcDbEntity
  8
DIBUJOS
 62
     7
370
    18
100
AcDbVertex
100
AcDb2dVertex
 10
63.68924126488947
 20
47.51712871164835
 30
0.0
  0
SEQEND
  5
14E
330
14A
100
AcDbEntity
  8
DIBUJOS
 62
     7
370
    18
  0
POLYLINE
  5
14F
330
52
100
AcDbEntity
  8
DIBUJOS
 62
     7
370
    18
100
AcDb2dPolyline
 66
     1
 10
0.0
 20
0.0
 30
0.0
  0
VERTEX
  5
150
330
14F
100
AcDbEntity
  8
DIBUJOS
 62
     7
370
    18
100
AcDbVertex
100
AcDb2dVertex
 10
63.70618029122286
 20
47.51712871164835
 30
0.0
  0
VERTEX
  5
151
330
14F
100
AcDbEntity
  8
DIBUJOS
 62
     7
370
    18
100
AcDbVertex
100
AcDb2dVertex
 10
63.70053369582178
 20
47.51712871164835
 30
0.0
  0
SEQEND
  5
152
330
14F
100
AcDbEntity
  8
DIBUJOS
 62
     7
370
    18
  0
POLYLINE
  5
153
330
52
100
AcDbEntity
  8
DIBUJOS
 62
     7
370
    18
100
AcDb2dPolyline
 66
     1
 10
0.0
 20
0.0
 30
0.0
  0
VERTEX
  5
154
330
153
100
AcDbEntity
  8
DIBUJOS
 62
     7
370
    18
100
AcDbVertex
100
AcDb2dVertex
 10
63.71182688662425
 20
47.51712871164835
 30
0.0
  0
VERTEX
  5
155
330
153
100
AcDbEntity
  8
DIBUJOS
 62
     7
370
    18
100
AcDbVertex
100
AcDb2dVertex
 10
63.70618029122286
 20
47.51712871164835
 30
0.0
  0
SEQEND
  5
156
330
153
100
AcDbEntity
  8
DIBUJOS
 62
     7
370
    18
  0
POLYLINE
  5
157
330
52
100
AcDbEntity
  8
DIBUJOS
 62
     7
370
    18
100
AcDb2dPolyline
 66
     1
 10
0.0
 20
0.0
 30
0.0
  0
VERTEX
  5
158
330
157
100
AcDbEntity
  8
DIBUJOS
 62
     7
370
    18
100
AcDbVertex
100
AcDb2dVertex
 10
64.05626236726798
 20
47.51712871164835
 30
0.0
  0
VERTEX
  5
159
330
157
100
AcDbEntity
  8
DIBUJOS
 62
     7
370
    18
100
AcDbVertex
100
AcDb2dVertex
 10
64.05061577186659
 20
47.52275131431089
 30
0.0
  0
VERTEX
  5
15A
330
157
100
AcDbEntity
  8
DIBUJOS
 62
     7
370
    18
100
AcDbVertex
100
AcDb2dVertex
 10
63.71747348202565
 20
47.52275131431089
 30
0.0
  0
VERTEX
  5
15B
330
157
100
AcDbEntity
  8
DIBUJOS
 62
     7
370
    18
100
AcDbVertex
100
AcDb2dVertex
 10
63.71182688662425
 20
47.51712871164835
 30
0.0
  0
SEQEND
  5
15C
330
157
100
AcDbEntity
  8
DIBUJOS
 62
     7
370
    18
  0
POLYLINE
  5
15D
330
52
100
AcDbEntity
  8
DIBUJOS
 62
     7
370
    18
100
AcDb2dPolyline
 66
     1
 10
0.0
 20
0.0
 30
0.0
  0
VERTEX
  5
15E
330
15D
100
AcDbEntity
  8
DIBUJOS
 62
     7
370
    18
100
AcDbVertex
100
AcDb2dVertex
 10
64.06190896266905
 20
47.51712871164835
 30
0.0
  0
VERTEX
  5
15F
330
15D
100
AcDbEntity
  8
DIBUJOS
 62
     7
370
    18
100
AcDbVertex
100
AcDb2dVertex
 10
64.05626236726798
 20
47.51712871164835
 30
0.0
  0
SEQEND
  5
160
330
15D
100
AcDbEntity
  8
DIBUJOS
 62
     7
370
    18
  0
POLYLINE
  5
161
330
52
100
AcDbEntity
  8
DIBUJOS
 62
     7
370
    18
100
AcDb2dPolyline
 66
     1
 10
0.0
 20
0.0
 30
0.0
  0
VERTEX
  5
162
330
161
100
AcDbEntity
  8
DIBUJOS
 62
     7
370
    18
100
AcDbVertex
100
AcDb2dVertex
 10
64.06190896266905
 20
47.51712871164835
 30
0.0
  0
VERTEX
  5
163
330
161
100
AcDbEntity
  8
DIBUJOS
 62
     7
370
    18
100
AcDbVertex
100
AcDb2dVertex
 10
64.06755555807045
 20
47.52275131431089
 30
0.0
  0
VERTEX
  5
164
330
161
100
AcDbEntity
  8
DIBUJOS
 62
     7
370
    18
100
AcDbVertex
100
AcDb2dVertex
 10
66.74963594261519
 20
47.52275131431089
 30
0.0
  0
SEQEND
  5
165
330
161
100
AcDbEntity
  8
DIBUJOS
 62
     7
370
    18
  0
POLYLINE
  5
166
330
52
100
AcDbEntity
  8
DIBUJOS
 62
     7
370
    18
100
AcDb2dPolyline
 66
     1
 10
0.0
 20
0.0
 30
0.0
  0
VERTEX
  5
167
330
166
100
AcDbEntity
  8
DIBUJOS
 62
     7
370
    18
100
AcDbVertex
100
AcDb2dVertex
 10
66.7552817781461
 20
47.51712871164835
 30
0.0
  0
VERTEX
  5
168
330
166
100
AcDbEntity
  8
DIBUJOS
 62
     7
370
    18
100
AcDbVertex
100
AcDb2dVertex
 10
66.7552817781461
 20
47.52275131431089
 30
0.0
  0
SEQEND
  5
169
330
166
100
AcDbEntity
  8
DIBUJOS
 62
     7
370
    18
  0
POLYLINE
  5
16A
330
52
100
AcDbEntity
  8
DIBUJOS
 62
     7
370
    18
100
AcDb2dPolyline
 66
     1
 10
0.0
 20
0.0
 30
0.0
  0
VERTEX
  5
16B
330
16A
100
AcDbEntity
  8
DIBUJOS
 62
     7
370
    18
100
AcDbVertex
100
AcDb2dVertex
 10
67.10536309432106
 20
47.51712871164835
 30
0.0
  0
VERTEX
  5
16C
330
16A
100
AcDbEntity
  8
DIBUJOS
 62
     7
370
    18
100
AcDbVertex
100
AcDb2dVertex
 10
67.09971725878982
 20
47.52275131431089
 30
0.0
  0
VERTEX
  5
16D
330
16A
100
AcDbEntity
  8
DIBUJOS
 62
     7
370
    18
100
AcDbVertex
100
AcDb2dVertex
 10
66.76092761367732
 20
47.52275131431089
 30
0.0
  0
SEQEND
  5
16E
330
16A
100
AcDbEntity
  8
DIBUJOS
 62
     7
370
    18
  0
POLYLINE
  5
16F
330
52
100
AcDbEntity
  8
DIBUJOS
 62
     7
370
    18
100
AcDb2dPolyline
 66
     1
 10
0.0
 20
0.0
 30
0.0
  0
VERTEX
  5
170
330
16F
100
AcDbEntity
  8
DIBUJOS
 62
     7
370
    18
100
AcDbVertex
100
AcDb2dVertex
 10
67.11101044959261
 20
47.51712871164835
 30
0.0
  0
VERTEX
  5
171
330
16F
100
AcDbEntity
  8
DIBUJOS
 62
     7
370
    18
100
AcDbVertex
100
AcDb2dVertex
 10
67.10536309432106
 20
47.51712871164835
 30
0.0
  0
SEQEND
  5
172
330
16F
100
AcDbEntity
  8
DIBUJOS
 62
     7
370
    18
  0
POLYLINE
  5
173
330
52
100
AcDbEntity
  8
DIBUJOS
 62
     7
370
    18
100
AcDb2dPolyline
 66
     1
 10
0.0
 20
0.0
 30
0.0
  0
VERTEX
  5
174
330
173
100
AcDbEntity
  8
DIBUJOS
 62
     7
370
    18
100
AcDbVertex
100
AcDb2dVertex
 10
67.12230364039509
 20
47.51712871164835
 30
0.0
  0
VERTEX
  5
175
330
173
100
AcDbEntity
  8
DIBUJOS
 62
     7
370
    18
100
AcDbVertex
100
AcDb2dVertex
 10
67.11665628512353
 20
47.52275131431089
 30
0.0
  0
VERTEX
  5
176
330
173
100
AcDbEntity
  8
DIBUJOS
 62
     7
370
    18
100
AcDbVertex
100
AcDb2dVertex
 10
67.11101044959261
 20
47.51712871164835
 30
0.0
  0
SEQEND
  5
177
330
173
100
AcDbEntity
  8
DIBUJOS
 62
     7
370
    18
  0
POLYLINE
  5
178
330
52
100
AcDbEntity
  8
DIBUJOS
 62
     7
370
    18
100
AcDb2dPolyline
 66
     1
 10
0.0
 20
0.0
 30
0.0
  0
VERTEX
  5
179
330
178
100
AcDbEntity
  8
DIBUJOS
 62
     7
370
    18
100
AcDbVertex
100
AcDb2dVertex
 10
67.127949475926
 20
47.51712871164835
 30
0.0
  0
VERTEX
  5
17A
330
178
100
AcDbEntity
  8
DIBUJOS
 62
     7
370
    18
100
AcDbVertex
100
AcDb2dVertex
 10
67.12230364039509
 20
47.51712871164835
 30
0.0
  0
SEQEND
  5
17B
330
178
100
AcDbEntity
  8
DIBUJOS
 62
     7
370
    18
  0
POLYLINE
  5
17C
330
52
100
AcDbEntity
  8
DIBUJOS
 62
     7
370
    18
100
AcDb2dPolyline
 66
     1
 10
0.0
 20
0.0
 30
0.0
  0
VERTEX
  5
17D
330
17C
100
AcDbEntity
  8
DIBUJOS
 62
     7
370
    18
100
AcDbVertex
100
AcDb2dVertex
 10
67.13359683119724
 20
47.51712871164835
 30
0.0
  0
VERTEX
  5
17E
330
17C
100
AcDbEntity
  8
DIBUJOS
 62
     7
370
    18
100
AcDbVertex
100
AcDb2dVertex
 10
67.127949475926
 20
47.51712871164835
 30
0.0
  0
SEQEND
  5
17F
330
17C
100
AcDbEntity
  8
DIBUJOS
 62
     7
370
    18
  0
POLYLINE
  5
180
330
52
100
AcDbEntity
  8
DIBUJOS
 62
     7
370
    18
100
AcDb2dPolyline
 66
     1
 10
0.0
 20
0.0
 30
0.0
  0
VERTEX
  5
181
330
180
100
AcDbEntity
  8
DIBUJOS
 62
     7
370
    18
100
AcDbVertex
100
AcDb2dVertex
 10
67.13359683119724
 20
47.51712871164835
 30
0.0
  0
VERTEX
  5
182
330
180
100
AcDbEntity
  8
DIBUJOS
 62
     7
370
    18
100
AcDbVertex
100
AcDb2dVertex
 10
67.24087986421038
 20
47.53399349347827
 30
0.0
  0
SEQEND
  5
183
330
180
100
AcDbEntity
  8
DIBUJOS
 62
     7
370
    18
  0
POLYLINE
  5
184
330
52
100
AcDbEntity
  8
DIBUJOS
 62
     7
370
    18
100
AcDb2dPolyline
 66
     1
 10
0.0
 20
0.0
 30
0.0
  0
VERTEX
  5
185
330
184
100
AcDbEntity
  8
DIBUJOS
 62
     7
370
    18
100
AcDbVertex
100
AcDb2dVertex
 10
67.47803231184129
 20
47.51712871164835
 30
0.0
  0
VERTEX
  5
186
330
184
100
AcDbEntity
  8
DIBUJOS
 62
     7
370
    18
100
AcDbVertex
100
AcDb2dVertex
 10
67.47803231184129
 20
47.52275131431089
 30
0.0
  0
SEQEND
  5
187
330
184
100
AcDbEntity
  8
DIBUJOS
 62
     7
370
    18
  0
POLYLINE
  5
188
330
52
100
AcDbEntity
  8
DIBUJOS
 62
     7
370
    18
100
AcDb2dPolyline
 66
     1
 10
0.0
 20
0.0
 30
0.0
  0
VERTEX
  5
189
330
188
100
AcDbEntity
  8
DIBUJOS
 62
     7
370
    18
100
AcDbVertex
100
AcDb2dVertex
 10
63.68924126488947
 20
47.51150610898549
 30
0.0
  0
VERTEX
  5
18A
330
188
100
AcDbEntity
  8
DIBUJOS
 62
     7
370
    18
100
AcDbVertex
100
AcDb2dVertex
 10
63.68924126488947
 20
47.51712871164835
 30
0.0
  0
SEQEND
  5
18B
330
188
100
AcDbEntity
  8
DIBUJOS
 62
     7
370
    18
  0
POLYLINE
  5
18C
330
52
100
AcDbEntity
  8
DIBUJOS
 62
     7
370
    18
100
AcDb2dPolyline
 66
     1
 10
0.0
 20
0.0
 30
0.0
  0
VERTEX
  5
18D
330
18C
100
AcDbEntity
  8
DIBUJOS
 62
     7
370
    18
100
AcDbVertex
100
AcDb2dVertex
 10
63.70618029122286
 20
47.51150610898549
 30
0.0
  0
VERTEX
  5
18E
330
18C
100
AcDbEntity
  8
DIBUJOS
 62
     7
370
    18
100
AcDbVertex
100
AcDb2dVertex
 10
63.70618029122286
 20
47.51712871164835
 30
0.0
  0
SEQEND
  5
18F
330
18C
100
AcDbEntity
  8
DIBUJOS
 62
     7
370
    18
  0
POLYLINE
  5
190
330
52
100
AcDbEntity
  8
DIBUJOS
 62
     7
370
    18
100
AcDb2dPolyline
 66
     1
 10
0.0
 20
0.0
 30
0.0
  0
VERTEX
  5
191
330
190
100
AcDbEntity
  8
DIBUJOS
 62
     7
370
    18
100
AcDbVertex
100
AcDb2dVertex
 10
64.05626236726798
 20
47.51150610898549
 30
0.0
  0
VERTEX
  5
192
330
190
100
AcDbEntity
  8
DIBUJOS
 62
     7
370
    18
100
AcDbVertex
100
AcDb2dVertex
 10
64.05626236726798
 20
47.51712871164835
 30
0.0
  0
SEQEND
  5
193
330
190
100
AcDbEntity
  8
DIBUJOS
 62
     7
370
    18
  0
POLYLINE
  5
194
330
52
100
AcDbEntity
  8
DIBUJOS
 62
     7
370
    18
100
AcDb2dPolyline
 66
     1
 10
0.0
 20
0.0
 30
0.0
  0
VERTEX
  5
195
330
194
100
AcDbEntity
  8
DIBUJOS
 62
     7
370
    18
100
AcDbVertex
100
AcDb2dVertex
 10
67.11101044959261
 20
47.51150610898549
 30
0.0
  0
VERTEX
  5
196
330
194
100
AcDbEntity
  8
DIBUJOS
 62
     7
370
    18
100
AcDbVertex
100
AcDb2dVertex
 10
67.11101044959261
 20
47.51712871164835
 30
0.0
  0
SEQEND
  5
197
330
194
100
AcDbEntity
  8
DIBUJOS
 62
     7
370
    18
  0
POLYLINE
  5
198
330
52
100
AcDbEntity
  8
DIBUJOS
 62
     7
370
    18
100
AcDb2dPolyline
 66
     1
 10
0.0
 20
0.0
 30
0.0
  0
VERTEX
  5
199
330
198
100
AcDbEntity
  8
DIBUJOS
 62
     7
370
    18
100
AcDbVertex
100
AcDb2dVertex
 10
67.127949475926
 20
47.51150610898549
 30
0.0
  0
VERTEX
  5
19A
330
198
100
AcDbEntity
  8
DIBUJOS
 62
     7
370
    18
100
AcDbVertex
100
AcDb2dVertex
 10
67.127949475926
 20
47.51712871164835
 30
0.0
  0
SEQEND
  5
19B
330
198
100
AcDbEntity
  8
DIBUJOS
 62
     7
370
    18
  0
POLYLINE
  5
19C
330
52
100
AcDbEntity
  8
DIBUJOS
 62
     7
370
    18
100
AcDb2dPolyline
 66
     1
 10
0.0
 20
0.0
 30
0.0
  0
VERTEX
  5
19D
330
19C
100
AcDbEntity
  8
DIBUJOS
 62
     7
370
    18
100
AcDbVertex
100
AcDb2dVertex
 10
67.127949475926
 20
47.50588653248097
 30
0.0
  0
VERTEX
  5
19E
330
19C
100
AcDbEntity
  8
DIBUJOS
 62
     7
370
    18
100
AcDbVertex
100
AcDb2dVertex
 10
67.127949475926
 20
47.51150610898549
 30
0.0
  0
SEQEND
  5
19F
330
19C
100
AcDbEntity
  8
DIBUJOS
 62
     7
370
    18
  0
POLYLINE
  5
1A0
330
52
100
AcDbEntity
  8
DIBUJOS
 62
     7
370
    18
100
AcDb2dPolyline
 66
     1
 10
0.0
 20
0.0
 30
0.0
  0
VERTEX
  5
1A1
330
1A0
100
AcDbEntity
  8
DIBUJOS
 62
     7
370
    18
100
AcDbVertex
100
AcDb2dVertex
 10
67.11101044959261
 20
47.50026392981778
 30
0.0
  0
VERTEX
  5
1A2
330
1A0
100
AcDbEntity
  8
DIBUJOS
 62
     7
370
    18
100
AcDbVertex
100
AcDb2dVertex
 10
67.11101044959261
 20
47.51150610898549
 30
0.0
  0
SEQEND
  5
1A3
330
1A0
100
AcDbEntity
  8
DIBUJOS
 62
     7
370
    18
  0
POLYLINE
  5
1A4
330
52
100
AcDbEntity
  8
DIBUJOS
 62
     7
370
    18
100
AcDb2dPolyline
 66
     1
 10
0.0
 20
0.0
 30
0.0
  0
VERTEX
  5
1A5
330
1A4
100
AcDbEntity
  8
DIBUJOS
 62
     7
370
    18
100
AcDbVertex
100
AcDb2dVertex
 10
67.127949475926
 20
47.50026392981778
 30
0.0
  0
VERTEX
  5
1A6
330
1A4
100
AcDbEntity
  8
DIBUJOS
 62
     7
370
    18
100
AcDbVertex
100
AcDb2dVertex
 10
67.12230364039509
 20
47.50026392981778
 30
0.0
  0
SEQEND
  5
1A7
330
1A4
100
AcDbEntity
  8
DIBUJOS
 62
     7
370
    18
  0
POLYLINE
  5
1A8
330
52
100
AcDbEntity
  8
DIBUJOS
 62
     7
370
    18
100
AcDb2dPolyline
 66
     1
 10
0.0
 20
0.0
 30
0.0
  0
VERTEX
  5
1A9
330
1A8
100
AcDbEntity
  8
DIBUJOS
 62
     7
370
    18
100
AcDbVertex
100
AcDb2dVertex
 10
67.127949475926
 20
47.50026392981778
 30
0.0
  0
VERTEX
  5
1AA
330
1A8
100
AcDbEntity
  8
DIBUJOS
 62
     7
370
    18
100
AcDbVertex
100
AcDb2dVertex
 10
67.127949475926
 20
47.50588653248097
 30
0.0
  0
SEQEND
  5
1AB
330
1A8
100
AcDbEntity
  8
DIBUJOS
 62
     7
370
    18
  0
POLYLINE
  5
1AC
330
52
100
AcDbEntity
  8
DIBUJOS
 62
     7
370
    18
100
AcDb2dPolyline
 66
     1
 10
0.0
 20
0.0
 30
0.0
  0
VERTEX
  5
1AD
330
1AC
100
AcDbEntity
  8
DIBUJOS
 62
     7
370
    18
100
AcDbVertex
100
AcDb2dVertex
 10
67.11101044959261
 20
47.49464132715525
 30
0.0
  0
VERTEX
  5
1AE
330
1AC
100
AcDbEntity
  8
DIBUJOS
 62
     7
370
    18
100
AcDbVertex
100
AcDb2dVertex
 10
67.11101044959261
 20
47.50026392981778
 30
0.0
  0
SEQEND
  5
1AF
330
1AC
100
AcDbEntity
  8
DIBUJOS
 62
     7
370
    18
  0
POLYLINE
  5
1B0
330
52
100
AcDbEntity
  8
DIBUJOS
 62
     7
370
    18
100
AcDb2dPolyline
 66
     1
 10
0.0
 20
0.0
 30
0.0
  0
VERTEX
  5
1B1
330
1B0
100
AcDbEntity
  8
DIBUJOS
 62
     7
370
    18
100
AcDbVertex
100
AcDb2dVertex
 10
67.11665628512353
 20
47.49464132715525
 30
0.0
  0
VERTEX
  5
1B2
330
1B0
100
AcDbEntity
  8
DIBUJOS
 62
     7
370
    18
100
AcDbVertex
100
AcDb2dVertex
 10
67.11101044959261
 20
47.49464132715525
 30
0.0
  0
SEQEND
  5
1B3
330
1B0
100
AcDbEntity
  8
DIBUJOS
 62
     7
370
    18
  0
POLYLINE
  5
1B4
330
52
100
AcDbEntity
  8
DIBUJOS
 62
     7
370
    18
100
AcDb2dPolyline
 66
     1
 10
0.0
 20
0.0
 30
0.0
  0
VERTEX
  5
1B5
330
1B4
100
AcDbEntity
  8
DIBUJOS
 62
     7
370
    18
100
AcDbVertex
100
AcDb2dVertex
 10
67.11665628512353
 20
47.49464132715525
 30
0.0
  0
VERTEX
  5
1B6
330
1B4
100
AcDbEntity
  8
DIBUJOS
 62
     7
370
    18
100
AcDbVertex
100
AcDb2dVertex
 10
67.12230364039509
 20
47.50026392981778
 30
0.0
  0
SEQEND
  5
1B7
330
1B4
100
AcDbEntity
  8
DIBUJOS
 62
     7
370
    18
  0
POLYLINE
  5
1B8
330
52
100
AcDbEntity
  8
DIBUJOS
 62
     7
370
    18
100
AcDb2dPolyline
 66
     1
 10
0.0
 20
0.0
 30
0.0
  0
VERTEX
  5
1B9
330
1B8
100
AcDbEntity
  8
DIBUJOS
 62
     7
370
    18
100
AcDbVertex
100
AcDb2dVertex
 10
67.127949475926
 20
47.49464132715525
 30
0.0
  0
VERTEX
  5
1BA
330
1B8
100
AcDbEntity
  8
DIBUJOS
 62
     7
370
    18
100
AcDbVertex
100
AcDb2dVertex
 10
67.127949475926
 20
47.50026392981778
 30
0.0
  0
SEQEND
  5
1BB
330
1B8
100
AcDbEntity
  8
DIBUJOS
 62
     7
370
    18
  0
POLYLINE
  5
1BC
330
52
100
AcDbEntity
  8
DIBUJOS
 62
     7
370
    18
100
AcDb2dPolyline
 66
     1
 10
0.0
 20
0.0
 30
0.0
  0
VERTEX
  5
1BD
330
1BC
100
AcDbEntity
  8
DIBUJOS
 62
     7
370
    18
100
AcDbVertex
100
AcDb2dVertex
 10
63.68359466948807
 20
47.48901872449239
 30
0.0
  0
VERTEX
  5
1BE
330
1BC
100
AcDbEntity
  8
DIBUJOS
 62
     7
370
    18
100
AcDbVertex
100
AcDb2dVertex
 10
63.68924126488947
 20
47.51150610898549
 30
0.0
  0
SEQEND
  5
1BF
330
1BC
100
AcDbEntity
  8
DIBUJOS
 62
     7
370
    18
  0
POLYLINE
  5
1C0
330
52
100
AcDbEntity
  8
DIBUJOS
 62
     7
370
    18
100
AcDb2dPolyline
 66
     1
 10
0.0
 20
0.0
 30
0.0
  0
VERTEX
  5
1C1
330
1C0
100
AcDbEntity
  8
DIBUJOS
 62
     7
370
    18
100
AcDbVertex
100
AcDb2dVertex
 10
67.11101044959261
 20
47.48901872449239
 30
0.0
  0
VERTEX
  5
1C2
330
1C0
100
AcDbEntity
  8
DIBUJOS
 62
     7
370
    18
100
AcDbVertex
100
AcDb2dVertex
 10
67.11101044959261
 20
47.49464132715525
 30
0.0
  0
SEQEND
  5
1C3
330
1C0
100
AcDbEntity
  8
DIBUJOS
 62
     7
370
    18
  0
POLYLINE
  5
1C4
330
52
100
AcDbEntity
  8
DIBUJOS
 62
     7
370
    18
100
AcDb2dPolyline
 66
     1
 10
0.0
 20
0.0
 30
0.0
  0
VERTEX
  5
1C5
330
1C4
100
AcDbEntity
  8
DIBUJOS
 62
     7
370
    18
100
AcDbVertex
100
AcDb2dVertex
 10
63.68359466948807
 20
47.48339914798787
 30
0.0
  0
VERTEX
  5
1C6
330
1C4
100
AcDbEntity
  8
DIBUJOS
 62
     7
370
    18
100
AcDbVertex
100
AcDb2dVertex
 10
63.68359466948807
 20
47.48901872449239
 30
0.0
  0
SEQEND
  5
1C7
330
1C4
100
AcDbEntity
  8
DIBUJOS
 62
     7
370
    18
  0
POLYLINE
  5
1C8
330
52
100
AcDbEntity
  8
DIBUJOS
 62
     7
370
    18
100
AcDb2dPolyline
 66
     1
 10
0.0
 20
0.0
 30
0.0
  0
VERTEX
  5
1C9
330
1C8
100
AcDbEntity
  8
DIBUJOS
 62
     7
370
    18
100
AcDbVertex
100
AcDb2dVertex
 10
63.68924126488947
 20
47.48339914798787
 30
0.0
  0
VERTEX
  5
1CA
330
1C8
100
AcDbEntity
  8
DIBUJOS
 62
     7
370
    18
100
AcDbVertex
100
AcDb2dVertex
 10
63.68359466948807
 20
47.48339914798787
 30
0.0
  0
SEQEND
  5
1CB
330
1C8
100
AcDbEntity
  8
DIBUJOS
 62
     7
370
    18
  0
POLYLINE
  5
1CC
330
52
100
AcDbEntity
  8
DIBUJOS
 62
     7
370
    18
100
AcDb2dPolyline
 66
     1
 10
0.0
 20
0.0
 30
0.0
  0
VERTEX
  5
1CD
330
1CC
100
AcDbEntity
  8
DIBUJOS
 62
     7
370
    18
100
AcDbVertex
100
AcDb2dVertex
 10
63.70053369582178
 20
47.48339914798787
 30
0.0
  0
VERTEX
  5
1CE
330
1CC
100
AcDbEntity
  8
DIBUJOS
 62
     7
370
    18
100
AcDbVertex
100
AcDb2dVertex
 10
63.70618029122286
 20
47.48901872449239
 30
0.0
  0
VERTEX
  5
1CF
330
1CC
100
AcDbEntity
  8
DIBUJOS
 62
     7
370
    18
100
AcDbVertex
100
AcDb2dVertex
 10
63.70618029122286
 20
47.51150610898549
 30
0.0
  0
SEQEND
  5
1D0
330
1CC
100
AcDbEntity
  8
DIBUJOS
 62
     7
370
    18
  0
POLYLINE
  5
1D1
330
52
100
AcDbEntity
  8
DIBUJOS
 62
     7
370
    18
100
AcDb2dPolyline
 66
     1
 10
0.0
 20
0.0
 30
0.0
  0
VERTEX
  5
1D2
330
1D1
100
AcDbEntity
  8
DIBUJOS
 62
     7
370
    18
100
AcDbVertex
100
AcDb2dVertex
 10
63.68359466948807
 20
47.47777654532501
 30
0.0
  0
VERTEX
  5
1D3
330
1D1
100
AcDbEntity
  8
DIBUJOS
 62
     7
370
    18
100
AcDbVertex
100
AcDb2dVertex
 10
63.68359466948807
 20
47.48339914798787
 30
0.0
  0
SEQEND
  5
1D4
330
1D1
100
AcDbEntity
  8
DIBUJOS
 62
     7
370
    18
  0
POLYLINE
  5
1D5
330
52
100
AcDbEntity
  8
DIBUJOS
 62
     7
370
    18
100
AcDb2dPolyline
 66
     1
 10
0.0
 20
0.0
 30
0.0
  0
VERTEX
  5
1D6
330
1D5
100
AcDbEntity
  8
DIBUJOS
 62
     7
370
    18
100
AcDbVertex
100
AcDb2dVertex
 10
63.69488710042038
 20
47.47777654532501
 30
0.0
  0
VERTEX
  5
1D7
330
1D5
100
AcDbEntity
  8
DIBUJOS
 62
     7
370
    18
100
AcDbVertex
100
AcDb2dVertex
 10
63.68924126488947
 20
47.48339914798787
 30
0.0
  0
SEQEND
  5
1D8
330
1D5
100
AcDbEntity
  8
DIBUJOS
 62
     7
370
    18
  0
POLYLINE
  5
1D9
330
52
100
AcDbEntity
  8
DIBUJOS
 62
     7
370
    18
100
AcDb2dPolyline
 66
     1
 10
0.0
 20
0.0
 30
0.0
  0
VERTEX
  5
1DA
330
1D9
100
AcDbEntity
  8
DIBUJOS
 62
     7
370
    18
100
AcDbVertex
100
AcDb2dVertex
 10
63.70053369582178
 20
47.47777654532501
 30
0.0
  0
VERTEX
  5
1DB
330
1D9
100
AcDbEntity
  8
DIBUJOS
 62
     7
370
    18
100
AcDbVertex
100
AcDb2dVertex
 10
63.69488710042038
 20
47.47777654532501
 30
0.0
  0
SEQEND
  5
1DC
330
1D9
100
AcDbEntity
  8
DIBUJOS
 62
     7
370
    18
  0
POLYLINE
  5
1DD
330
52
100
AcDbEntity
  8
DIBUJOS
 62
     7
370
    18
100
AcDb2dPolyline
 66
     1
 10
0.0
 20
0.0
 30
0.0
  0
VERTEX
  5
1DE
330
1DD
100
AcDbEntity
  8
DIBUJOS
 62
     7
370
    18
100
AcDbVertex
100
AcDb2dVertex
 10
63.70053369582178
 20
47.47777654532501
 30
0.0
  0
VERTEX
  5
1DF
330
1DD
100
AcDbEntity
  8
DIBUJOS
 62
     7
370
    18
100
AcDbVertex
100
AcDb2dVertex
 10
63.70053369582178
 20
47.48339914798787
 30
0.0
  0
SEQEND
  5
1E0
330
1DD
100
AcDbEntity
  8
DIBUJOS
 62
     7
370
    18
  0
POLYLINE
  5
1E1
330
52
100
AcDbEntity
  8
DIBUJOS
 62
     7
370
    18
100
AcDb2dPolyline
 66
     1
 10
0.0
 20
0.0
 30
0.0
  0
VERTEX
  5
1E2
330
1E1
100
AcDbEntity
  8
DIBUJOS
 62
     7
370
    18
100
AcDbVertex
100
AcDb2dVertex
 10
63.70053369582178
 20
47.47215394266215
 30
0.0
  0
VERTEX
  5
1E3
330
1E1
100
AcDbEntity
  8
DIBUJOS
 62
     7
370
    18
100
AcDbVertex
100
AcDb2dVertex
 10
63.70053369582178
 20
47.47777654532501
 30
0.0
  0
SEQEND
  5
1E4
330
1E1
100
AcDbEntity
  8
DIBUJOS
 62
     7
370
    18
  0
POLYLINE
  5
1E5
330
52
100
AcDbEntity
  8
DIBUJOS
 62
     7
370
    18
100
AcDb2dPolyline
 66
     1
 10
0.0
 20
0.0
 30
0.0
  0
VERTEX
  5
1E6
330
1E5
100
AcDbEntity
  8
DIBUJOS
 62
     7
370
    18
100
AcDbVertex
100
AcDb2dVertex
 10
63.33351259344327
 20
47.51712871164835
 30
0.0
  0
VERTEX
  5
1E7
330
1E5
100
AcDbEntity
  8
DIBUJOS
 62
     7
370
    18
100
AcDbVertex
100
AcDb2dVertex
 10
63.30771196092329
 20
47.29195830317561
 30
0.0
  0
VERTEX
  5
1E8
330
1E5
100
AcDbEntity
  8
DIBUJOS
 62
     7
370
    18
100
AcDbVertex
100
AcDb2dVertex
 10
62.85920769818146
 20
43.65499683547189
 30
0.0
  0
VERTEX
  5
1E9
330
1E5
100
AcDbEntity
  8
DIBUJOS
 62
     7
370
    18
100
AcDbVertex
100
AcDb2dVertex
 10
62.87614748438501
 20
43.63813205364197
 30
0.0
  0
VERTEX
  5
1EA
330
1E5
100
AcDbEntity
  8
DIBUJOS
 62
     7
370
    18
100
AcDbVertex
100
AcDb2dVertex
 10
62.89258803587222
 20
43.63614689360558
 30
0.0
  0
VERTEX
  5
1EB
330
1E5
100
AcDbEntity
  8
DIBUJOS
 62
     7
370
    18
100
AcDbVertex
100
AcDb2dVertex
 10
63.00036954373185
 20
43.61564466914854
 30
0.0
  0
VERTEX
  5
1EC
330
1E5
100
AcDbEntity
  8
DIBUJOS
 62
     7
370
    18
100
AcDbVertex
100
AcDb2dVertex
 10
63.06812716880635
 20
43.61564466914854
 30
0.0
  0
VERTEX
  5
1ED
330
1E5
100
AcDbEntity
  8
DIBUJOS
 62
     7
370
    18
100
AcDbVertex
100
AcDb2dVertex
 10
63.08506695500989
 20
43.63250945097879
 30
0.0
  0
VERTEX
  5
1EE
330
1E5
100
AcDbEntity
  8
DIBUJOS
 62
     7
370
    18
100
AcDbVertex
100
AcDb2dVertex
 10
63.17876806819993
 20
44.2512802028063
 30
0.0
  0
VERTEX
  5
1EF
330
1E5
100
AcDbEntity
  8
DIBUJOS
 62
     7
370
    18
100
AcDbVertex
100
AcDb2dVertex
 10
63.68359466948807
 20
47.47777654532501
 30
0.0
  0
SEQEND
  5
1F0
330
1E5
100
AcDbEntity
  8
DIBUJOS
 62
     7
370
    18
  0
POLYLINE
  5
1F1
330
52
100
AcDbEntity
  8
DIBUJOS
 62
     7
370
    18
100
AcDb2dPolyline
 66
     1
 10
0.0
 20
0.0
 30
0.0
  0
VERTEX
  5
1F2
330
1F1
100
AcDbEntity
  8
DIBUJOS
 62
     7
370
    18
100
AcDbVertex
100
AcDb2dVertex
 10
63.70053369582178
 20
47.47215394266215
 30
0.0
  0
VERTEX
  5
1F3
330
1F1
100
AcDbEntity
  8
DIBUJOS
 62
     7
370
    18
100
AcDbVertex
100
AcDb2dVertex
 10
63.66920044842973
 20
47.11213488119603
 30
0.0
  0
VERTEX
  5
1F4
330
1F1
100
AcDbEntity
  8
DIBUJOS
 62
     7
370
    18
100
AcDbVertex
100
AcDb2dVertex
 10
63.35609821517805
 20
43.66061792505526
 30
0.0
  0
VERTEX
  5
1F5
330
1F1
100
AcDbEntity
  8
DIBUJOS
 62
     7
370
    18
100
AcDbVertex
100
AcDb2dVertex
 10
63.37868383691251
 20
43.63813205364197
 30
0.0
  0
VERTEX
  5
1F6
330
1F1
100
AcDbEntity
  8
DIBUJOS
 62
     7
370
    18
100
AcDbVertex
100
AcDb2dVertex
 10
63.39047550256147
 20
43.63449461101485
 30
0.0
  0
VERTEX
  5
1F7
330
1F1
100
AcDbEntity
  8
DIBUJOS
 62
     7
370
    18
100
AcDbVertex
100
AcDb2dVertex
 10
63.40641833907235
 20
43.63052580402189
 30
0.0
  0
VERTEX
  5
1F8
330
1F1
100
AcDbEntity
  8
DIBUJOS
 62
     7
370
    18
100
AcDbVertex
100
AcDb2dVertex
 10
63.47467443899335
 20
43.61564466914854
 30
0.0
  0
VERTEX
  5
1F9
330
1F1
100
AcDbEntity
  8
DIBUJOS
 62
     7
370
    18
100
AcDbVertex
100
AcDb2dVertex
 10
63.55937185027171
 20
43.62126575873224
 30
0.0
  0
VERTEX
  5
1FA
330
1F1
100
AcDbEntity
  8
DIBUJOS
 62
     7
370
    18
100
AcDbVertex
100
AcDb2dVertex
 10
63.58195747200617
 20
43.64375314322502
 30
0.0
  0
VERTEX
  5
1FB
330
1F1
100
AcDbEntity
  8
DIBUJOS
 62
     7
370
    18
100
AcDbVertex
100
AcDb2dVertex
 10
63.67546861764827
 20
44.40296034988528
 30
0.0
  0
VERTEX
  5
1FC
330
1F1
100
AcDbEntity
  8
DIBUJOS
 62
     7
370
    18
100
AcDbVertex
100
AcDb2dVertex
 10
64.05626236726798
 20
47.51150610898549
 30
0.0
  0
SEQEND
  5
1FD
330
1F1
100
AcDbEntity
  8
DIBUJOS
 62
     7
370
    18
  0
POLYLINE
  5
1FE
330
52
100
AcDbEntity
  8
DIBUJOS
 62
     7
370
    18
100
AcDb2dPolyline
 66
     1
 10
0.0
 20
0.0
 30
0.0
  0
VERTEX
  5
1FF
330
1FE
100
AcDbEntity
  8
DIBUJOS
 62
     7
370
    18
100
AcDbVertex
100
AcDb2dVertex
 10
66.7552817781461
 20
47.51712871164835
 30
0.0
  0
VERTEX
  5
200
330
1FE
100
AcDbEntity
  8
DIBUJOS
 62
     7
370
    18
100
AcDbVertex
100
AcDb2dVertex
 10
67.14245691764287
 20
44.37427539259753
 30
0.0
  0
VERTEX
  5
201
330
1FE
100
AcDbEntity
  8
DIBUJOS
 62
     7
370
    18
100
AcDbVertex
100
AcDb2dVertex
 10
67.22958667340791
 20
43.64375314322502
 30
0.0
  0
VERTEX
  5
202
330
1FE
100
AcDbEntity
  8
DIBUJOS
 62
     7
370
    18
100
AcDbVertex
100
AcDb2dVertex
 10
67.25217305501285
 20
43.62126575873224
 30
0.0
  0
VERTEX
  5
203
330
1FE
100
AcDbEntity
  8
DIBUJOS
 62
     7
370
    18
100
AcDbVertex
100
AcDb2dVertex
 10
67.27475791687746
 20
43.61564466914854
 30
0.0
  0
VERTEX
  5
204
330
1FE
100
AcDbEntity
  8
DIBUJOS
 62
     7
370
    18
100
AcDbVertex
100
AcDb2dVertex
 10
67.34251554195197
 20
43.61564466914854
 30
0.0
  0
VERTEX
  5
205
330
1FE
100
AcDbEntity
  8
DIBUJOS
 62
     7
370
    18
100
AcDbVertex
100
AcDb2dVertex
 10
67.42100253414581
 20
43.63419653439332
 30
0.0
  0
VERTEX
  5
206
330
1FE
100
AcDbEntity
  8
DIBUJOS
 62
     7
370
    18
100
AcDbVertex
100
AcDb2dVertex
 10
67.42777753678297
 20
43.63700783572459
 30
0.0
  0
VERTEX
  5
207
330
1FE
100
AcDbEntity
  8
DIBUJOS
 62
     7
370
    18
100
AcDbVertex
100
AcDb2dVertex
 10
67.46109176576726
 20
43.66624052771844
 30
0.0
  0
VERTEX
  5
208
330
1FE
100
AcDbEntity
  8
DIBUJOS
 62
     7
370
    18
100
AcDbVertex
100
AcDb2dVertex
 10
67.14743406740457
 20
47.09010747280882
 30
0.0
  0
VERTEX
  5
209
330
1FE
100
AcDbEntity
  8
DIBUJOS
 62
     7
370
    18
100
AcDbVertex
100
AcDb2dVertex
 10
67.11101044959261
 20
47.48901872449239
 30
0.0
  0
SEQEND
  5
20A
330
1FE
100
AcDbEntity
  8
DIBUJOS
 62
     7
370
    18
  0
POLYLINE
  5
20B
330
52
100
AcDbEntity
  8
DIBUJOS
 62
     7
370
    18
100
AcDb2dPolyline
 66
     1
 10
0.0
 20
0.0
 30
0.0
  0
VERTEX
  5
20C
330
20B
100
AcDbEntity
  8
DIBUJOS
 62
     7
370
    18
100
AcDbVertex
100
AcDb2dVertex
 10
67.127949475926
 20
47.49464132715525
 30
0.0
  0
VERTEX
  5
20D
330
20B
100
AcDbEntity
  8
DIBUJOS
 62
     7
370
    18
100
AcDbVertex
100
AcDb2dVertex
 10
67.6507006551871
 20
44.15499388874372
 30
0.0
  0
VERTEX
  5
20E
330
20B
100
AcDbEntity
  8
DIBUJOS
 62
     7
370
    18
100
AcDbVertex
100
AcDb2dVertex
 10
67.73212378580557
 20
43.6268883613951
 30
0.0
  0
VERTEX
  5
20F
330
20B
100
AcDbEntity
  8
DIBUJOS
 62
     7
370
    18
100
AcDbVertex
100
AcDb2dVertex
 10
67.74341697660805
 20
43.61564466914854
 30
0.0
  0
VERTEX
  5
210
330
20B
100
AcDbEntity
  8
DIBUJOS
 62
     7
370
    18
100
AcDbVertex
100
AcDb2dVertex
 10
67.82280669459077
 20
43.61890535503119
 30
0.0
  0
VERTEX
  5
211
330
20B
100
AcDbEntity
  8
DIBUJOS
 62
     7
370
    18
100
AcDbVertex
100
AcDb2dVertex
 10
67.94668985183122
 20
43.64375314322502
 30
0.0
  0
VERTEX
  5
212
330
20B
100
AcDbEntity
  8
DIBUJOS
 62
     7
370
    18
100
AcDbVertex
100
AcDb2dVertex
 10
67.95798304263369
 20
43.66061792505526
 30
0.0
  0
VERTEX
  5
213
330
20B
100
AcDbEntity
  8
DIBUJOS
 62
     7
370
    18
100
AcDbVertex
100
AcDb2dVertex
 10
67.52003641634785
 20
47.18572197966438
 30
0.0
  0
VERTEX
  5
214
330
20B
100
AcDbEntity
  8
DIBUJOS
 62
     7
370
    18
100
AcDbVertex
100
AcDb2dVertex
 10
67.47803231184129
 20
47.51712871164835
 30
0.0
  0
SEQEND
  5
215
330
20B
100
AcDbEntity
  8
DIBUJOS
 62
     7
370
    18
  0
ENDBLK
  5
55
330
52
100
AcDbEntity
  8
0
100
AcDbBlockEnd
  0
BLOCK
  5
218
330
216
100
AcDbEntity
  8
0
100
AcDbBlockBegin
  2
block 3
 70
     0
 10
0.0
 20
0.0
 30
0.0
  3
block 3
  1

  0
POLYLINE
  5
21A
330
216
100
AcDbEntity
  8
DIBUJOS
 62
     7
370
    18
100
AcDb2dPolyline
 66
     1
 10
0.0
 20
0.0
 30
0.0
  0
VERTEX
  5
21B
330
21A
100
AcDbEntity
  8
DIBUJOS
 62
     7
370
    18
100
AcDbVertex
100
AcDb2dVertex
 10
77.20448191174253
 20
51.32304363967123
 30
0.0
  0
VERTEX
  5
21C
330
21A
100
AcDbEntity
  8
DIBUJOS
 62
     7
370
    18
100
AcDbVertex
100
AcDb2dVertex
 10
77.1818955301376
 20
51.35677320333171
 30
0.0
  0
SEQEND
  5
21D
330
21A
100
AcDbEntity
  8
DIBUJOS
 62
     7
370
    18
  0
POLYLINE
  5
21E
330
216
100
AcDbEntity
  8
DIBUJOS
 62
     7
370
    18
100
AcDb2dPolyline
 66
     1
 10
0.0
 20
0.0
 30
0.0
  0
VERTEX
  5
21F
330
21E
100
AcDbEntity
  8
DIBUJOS
 62
     7
370
    18
100
AcDbVertex
100
AcDb2dVertex
 10
78.05145450478393
 20
50.27739993077537
 30
0.0
  0
VERTEX
  5
220
330
21E
100
AcDbEntity
  8
DIBUJOS
 62
     7
370
    18
100
AcDbVertex
100
AcDb2dVertex
 10
78.04581018899334
 20
50.27739993077537
 30
0.0
  0
SEQEND
  5
221
330
21E
100
AcDbEntity
  8
DIBUJOS
 62
     7
370
    18
  0
POLYLINE
  5
222
330
216
100
AcDbEntity
  8
DIBUJOS
 62
     7
370
    18
100
AcDb2dPolyline
 66
     1
 10
0.0
 20
0.0
 30
0.0
  0
VERTEX
  5
223
330
222
100
AcDbEntity
  8
DIBUJOS
 62
     7
370
    18
100
AcDbVertex
100
AcDb2dVertex
 10
78.04581018899334
 20
50.27178035427116
 30
0.0
  0
VERTEX
  5
224
330
222
100
AcDbEntity
  8
DIBUJOS
 62
     7
370
    18
100
AcDbVertex
100
AcDb2dVertex
 10
78.04581018899334
 20
50.27739993077537
 30
0.0
  0
SEQEND
  5
225
330
222
100
AcDbEntity
  8
DIBUJOS
 62
     7
370
    18
  0
POLYLINE
  5
226
330
216
100
AcDbEntity
  8
DIBUJOS
 62
     7
370
    18
100
AcDb2dPolyline
 66
     1
 10
0.0
 20
0.0
 30
0.0
  0
VERTEX
  5
227
330
226
100
AcDbEntity
  8
DIBUJOS
 62
     7
370
    18
100
AcDbVertex
100
AcDb2dVertex
 10
78.06274921532705
 20
50.26615775160798
 30
0.0
  0
VERTEX
  5
228
330
226
100
AcDbEntity
  8
DIBUJOS
 62
     7
370
    18
100
AcDbVertex
100
AcDb2dVertex
 10
78.06274921532705
 20
50.27178035427116
 30
0.0
  0
VERTEX
  5
229
330
226
100
AcDbEntity
  8
DIBUJOS
 62
     7
370
    18
100
AcDbVertex
100
AcDb2dVertex
 10
78.05145450478393
 20
50.27739993077537
 30
0.0
  0
SEQEND
  5
22A
330
226
100
AcDbEntity
  8
DIBUJOS
 62
     7
370
    18
  0
POLYLINE
  5
22B
330
216
100
AcDbEntity
  8
DIBUJOS
 62
     7
370
    18
100
AcDb2dPolyline
 66
     1
 10
0.0
 20
0.0
 30
0.0
  0
VERTEX
  5
22C
330
22B
100
AcDbEntity
  8
DIBUJOS
 62
     7
370
    18
100
AcDbVertex
100
AcDb2dVertex
 10
78.05710186005517
 20
50.26053514894512
 30
0.0
  0
VERTEX
  5
22D
330
22B
100
AcDbEntity
  8
DIBUJOS
 62
     7
370
    18
100
AcDbVertex
100
AcDb2dVertex
 10
78.05145450478393
 20
50.26053514894512
 30
0.0
  0
VERTEX
  5
22E
330
22B
100
AcDbEntity
  8
DIBUJOS
 62
     7
370
    18
100
AcDbVertex
100
AcDb2dVertex
 10
78.04581018899334
 20
50.27178035427116
 30
0.0
  0
SEQEND
  5
22F
330
22B
100
AcDbEntity
  8
DIBUJOS
 62
     7
370
    18
  0
POLYLINE
  5
230
330
216
100
AcDbEntity
  8
DIBUJOS
 62
     7
370
    18
100
AcDb2dPolyline
 66
     1
 10
0.0
 20
0.0
 30
0.0
  0
VERTEX
  5
231
330
230
100
AcDbEntity
  8
DIBUJOS
 62
     7
370
    18
100
AcDbVertex
100
AcDb2dVertex
 10
78.05710186005517
 20
50.26053514894512
 30
0.0
  0
VERTEX
  5
232
330
230
100
AcDbEntity
  8
DIBUJOS
 62
     7
370
    18
100
AcDbVertex
100
AcDb2dVertex
 10
78.06274921532705
 20
50.26615775160798
 30
0.0
  0
SEQEND
  5
233
330
230
100
AcDbEntity
  8
DIBUJOS
 62
     7
370
    18
  0
POLYLINE
  5
234
330
216
100
AcDbEntity
  8
DIBUJOS
 62
     7
370
    18
100
AcDb2dPolyline
 66
     1
 10
0.0
 20
0.0
 30
0.0
  0
VERTEX
  5
235
330
234
100
AcDbEntity
  8
DIBUJOS
 62
     7
370
    18
100
AcDbVertex
100
AcDb2dVertex
 10
78.06839353111764
 20
50.26053514894512
 30
0.0
  0
VERTEX
  5
236
330
234
100
AcDbEntity
  8
DIBUJOS
 62
     7
370
    18
100
AcDbVertex
100
AcDb2dVertex
 10
78.06274921532705
 20
50.26615775160798
 30
0.0
  0
SEQEND
  5
237
330
234
100
AcDbEntity
  8
DIBUJOS
 62
     7
370
    18
  0
POLYLINE
  5
238
330
216
100
AcDbEntity
  8
DIBUJOS
 62
     7
370
    18
100
AcDb2dPolyline
 66
     1
 10
0.0
 20
0.0
 30
0.0
  0
VERTEX
  5
239
330
238
100
AcDbEntity
  8
DIBUJOS
 62
     7
370
    18
100
AcDbVertex
100
AcDb2dVertex
 10
78.06274921532705
 20
50.25491254628258
 30
0.0
  0
VERTEX
  5
23A
330
238
100
AcDbEntity
  8
DIBUJOS
 62
     7
370
    18
100
AcDbVertex
100
AcDb2dVertex
 10
78.05710186005517
 20
50.26053514894512
 30
0.0
  0
SEQEND
  5
23B
330
238
100
AcDbEntity
  8
DIBUJOS
 62
     7
370
    18
  0
POLYLINE
  5
23C
330
216
100
AcDbEntity
  8
DIBUJOS
 62
     7
370
    18
100
AcDb2dPolyline
 66
     1
 10
0.0
 20
0.0
 30
0.0
  0
VERTEX
  5
23D
330
23C
100
AcDbEntity
  8
DIBUJOS
 62
     7
370
    18
100
AcDbVertex
100
AcDb2dVertex
 10
78.06274921532705
 20
50.25491254628258
 30
0.0
  0
VERTEX
  5
23E
330
23C
100
AcDbEntity
  8
DIBUJOS
 62
     7
370
    18
100
AcDbVertex
100
AcDb2dVertex
 10
78.06839353111764
 20
50.26053514894512
 30
0.0
  0
SEQEND
  5
23F
330
23C
100
AcDbEntity
  8
DIBUJOS
 62
     7
370
    18
  0
POLYLINE
  5
240
330
216
100
AcDbEntity
  8
DIBUJOS
 62
     7
370
    18
100
AcDb2dPolyline
 66
     1
 10
0.0
 20
0.0
 30
0.0
  0
VERTEX
  5
241
330
240
100
AcDbEntity
  8
DIBUJOS
 62
     7
370
    18
100
AcDbVertex
100
AcDb2dVertex
 10
78.07404088638887
 20
50.25491254628258
 30
0.0
  0
VERTEX
  5
242
330
240
100
AcDbEntity
  8
DIBUJOS
 62
     7
370
    18
100
AcDbVertex
100
AcDb2dVertex
 10
78.06839353111764
 20
50.26053514894512
 30
0.0
  0
SEQEND
  5
243
330
240
100
AcDbEntity
  8
DIBUJOS
 62
     7
370
    18
  0
POLYLINE
  5
244
330
216
100
AcDbEntity
  8
DIBUJOS
 62
     7
370
    18
100
AcDb2dPolyline
 66
     1
 10
0.0
 20
0.0
 30
0.0
  0
VERTEX
  5
245
330
244
100
AcDbEntity
  8
DIBUJOS
 62
     7
370
    18
100
AcDbVertex
100
AcDb2dVertex
 10
78.06839353111764
 20
50.24929296977806
 30
0.0
  0
VERTEX
  5
246
330
244
100
AcDbEntity
  8
DIBUJOS
 62
     7
370
    18
100
AcDbVertex
100
AcDb2dVertex
 10
78.06274921532705
 20
50.25491254628258
 30
0.0
  0
SEQEND
  5
247
330
244
100
AcDbEntity
  8
DIBUJOS
 62
     7
370
    18
  0
POLYLINE
  5
248
330
216
100
AcDbEntity
  8
DIBUJOS
 62
     7
370
    18
100
AcDb2dPolyline
 66
     1
 10
0.0
 20
0.0
 30
0.0
  0
VERTEX
  5
249
330
248
100
AcDbEntity
  8
DIBUJOS
 62
     7
370
    18
100
AcDbVertex
100
AcDb2dVertex
 10
78.06839353111764
 20
50.24929296977806
 30
0.0
  0
VERTEX
  5
24A
330
248
100
AcDbEntity
  8
DIBUJOS
 62
     7
370
    18
100
AcDbVertex
100
AcDb2dVertex
 10
78.07404088638887
 20
50.25491254628258
 30
0.0
  0
SEQEND
  5
24B
330
248
100
AcDbEntity
  8
DIBUJOS
 62
     7
370
    18
  0
POLYLINE
  5
24C
330
216
100
AcDbEntity
  8
DIBUJOS
 62
     7
370
    18
100
AcDb2dPolyline
 66
     1
 10
0.0
 20
0.0
 30
0.0
  0
VERTEX
  5
24D
330
24C
100
AcDbEntity
  8
DIBUJOS
 62
     7
370
    18
100
AcDbVertex
100
AcDb2dVertex
 10
78.07968824166011
 20
50.24929296977806
 30
0.0
  0
VERTEX
  5
24E
330
24C
100
AcDbEntity
  8
DIBUJOS
 62
     7
370
    18
100
AcDbVertex
100
AcDb2dVertex
 10
78.07404088638887
 20
50.25491254628258
 30
0.0
  0
SEQEND
  5
24F
330
24C
100
AcDbEntity
  8
DIBUJOS
 62
     7
370
    18
  0
POLYLINE
  5
250
330
216
100
AcDbEntity
  8
DIBUJOS
 62
     7
370
    18
100
AcDb2dPolyline
 66
     1
 10
0.0
 20
0.0
 30
0.0
  0
VERTEX
  5
251
330
250
100
AcDbEntity
  8
DIBUJOS
 62
     7
370
    18
100
AcDbVertex
100
AcDb2dVertex
 10
78.07404088638887
 20
50.2436703671152
 30
0.0
  0
VERTEX
  5
252
330
250
100
AcDbEntity
  8
DIBUJOS
 62
     7
370
    18
100
AcDbVertex
100
AcDb2dVertex
 10
78.06839353111764
 20
50.24929296977806
 30
0.0
  0
SEQEND
  5
253
330
250
100
AcDbEntity
  8
DIBUJOS
 62
     7
370
    18
  0
POLYLINE
  5
254
330
216
100
AcDbEntity
  8
DIBUJOS
 62
     7
370
    18
100
AcDb2dPolyline
 66
     1
 10
0.0
 20
0.0
 30
0.0
  0
VERTEX
  5
255
330
254
100
AcDbEntity
  8
DIBUJOS
 62
     7
370
    18
100
AcDbVertex
100
AcDb2dVertex
 10
78.07404088638887
 20
50.2436703671152
 30
0.0
  0
VERTEX
  5
256
330
254
100
AcDbEntity
  8
DIBUJOS
 62
     7
370
    18
100
AcDbVertex
100
AcDb2dVertex
 10
78.07968824166011
 20
50.24929296977806
 30
0.0
  0
SEQEND
  5
257
330
254
100
AcDbEntity
  8
DIBUJOS
 62
     7
370
    18
  0
POLYLINE
  5
258
330
216
100
AcDbEntity
  8
DIBUJOS
 62
     7
370
    18
100
AcDb2dPolyline
 66
     1
 10
0.0
 20
0.0
 30
0.0
  0
VERTEX
  5
259
330
258
100
AcDbEntity
  8
DIBUJOS
 62
     7
370
    18
100
AcDbVertex
100
AcDb2dVertex
 10
78.085335596932
 20
50.2436703671152
 30
0.0
  0
VERTEX
  5
25A
330
258
100
AcDbEntity
  8
DIBUJOS
 62
     7
370
    18
100
AcDbVertex
100
AcDb2dVertex
 10
78.07968824166011
 20
50.24929296977806
 30
0.0
  0
SEQEND
  5
25B
330
258
100
AcDbEntity
  8
DIBUJOS
 62
     7
370
    18
  0
POLYLINE
  5
25C
330
216
100
AcDbEntity
  8
DIBUJOS
 62
     7
370
    18
100
AcDb2dPolyline
 66
     1
 10
0.0
 20
0.0
 30
0.0
  0
VERTEX
  5
25D
330
25C
100
AcDbEntity
  8
DIBUJOS
 62
     7
370
    18
100
AcDbVertex
100
AcDb2dVertex
 10
78.07968824166011
 20
50.23804776445202
 30
0.0
  0
VERTEX
  5
25E
330
25C
100
AcDbEntity
  8
DIBUJOS
 62
     7
370
    18
100
AcDbVertex
100
AcDb2dVertex
 10
78.07404088638887
 20
50.2436703671152
 30
0.0
  0
SEQEND
  5
25F
330
25C
100
AcDbEntity
  8
DIBUJOS
 62
     7
370
    18
  0
POLYLINE
  5
260
330
216
100
AcDbEntity
  8
DIBUJOS
 62
     7
370
    18
100
AcDb2dPolyline
 66
     1
 10
0.0
 20
0.0
 30
0.0
  0
VERTEX
  5
261
330
260
100
AcDbEntity
  8
DIBUJOS
 62
     7
370
    18
100
AcDbVertex
100
AcDb2dVertex
 10
78.07968824166011
 20
50.23804776445202
 30
0.0
  0
VERTEX
  5
262
330
260
100
AcDbEntity
  8
DIBUJOS
 62
     7
370
    18
100
AcDbVertex
100
AcDb2dVertex
 10
78.085335596932
 20
50.2436703671152
 30
0.0
  0
SEQEND
  5
263
330
260
100
AcDbEntity
  8
DIBUJOS
 62
     7
370
    18
  0
POLYLINE
  5
264
330
216
100
AcDbEntity
  8
DIBUJOS
 62
     7
370
    18
100
AcDb2dPolyline
 66
     1
 10
0.0
 20
0.0
 30
0.0
  0
VERTEX
  5
265
330
264
100
AcDbEntity
  8
DIBUJOS
 62
     7
370
    18
100
AcDbVertex
100
AcDb2dVertex
 10
78.09097991272257
 20
50.23804776445202
 30
0.0
  0
VERTEX
  5
266
330
264
100
AcDbEntity
  8
DIBUJOS
 62
     7
370
    18
100
AcDbVertex
100
AcDb2dVertex
 10
78.085335596932
 20
50.2436703671152
 30
0.0
  0
SEQEND
  5
267
330
264
100
AcDbEntity
  8
DIBUJOS
 62
     7
370
    18
  0
POLYLINE
  5
268
330
216
100
AcDbEntity
  8
DIBUJOS
 62
     7
370
    18
100
AcDb2dPolyline
 66
     1
 10
0.0
 20
0.0
 30
0.0
  0
VERTEX
  5
269
330
268
100
AcDbEntity
  8
DIBUJOS
 62
     7
370
    18
100
AcDbVertex
100
AcDb2dVertex
 10
78.085335596932
 20
50.23242818794782
 30
0.0
  0
VERTEX
  5
26A
330
268
100
AcDbEntity
  8
DIBUJOS
 62
     7
370
    18
100
AcDbVertex
100
AcDb2dVertex
 10
78.07968824166011
 20
50.23804776445202
 30
0.0
  0
SEQEND
  5
26B
330
268
100
AcDbEntity
  8
DIBUJOS
 62
     7
370
    18
  0
POLYLINE
  5
26C
330
216
100
AcDbEntity
  8
DIBUJOS
 62
     7
370
    18
100
AcDb2dPolyline
 66
     1
 10
0.0
 20
0.0
 30
0.0
  0
VERTEX
  5
26D
330
26C
100
AcDbEntity
  8
DIBUJOS
 62
     7
370
    18
100
AcDbVertex
100
AcDb2dVertex
 10
78.085335596932
 20
50.23242818794782
 30
0.0
  0
VERTEX
  5
26E
330
26C
100
AcDbEntity
  8
DIBUJOS
 62
     7
370
    18
100
AcDbVertex
100
AcDb2dVertex
 10
78.09097991272257
 20
50.23804776445202
 30
0.0
  0
SEQEND
  5
26F
330
26C
100
AcDbEntity
  8
DIBUJOS
 62
     7
370
    18
  0
POLYLINE
  5
270
330
216
100
AcDbEntity
  8
DIBUJOS
 62
     7
370
    18
100
AcDb2dPolyline
 66
     1
 10
0.0
 20
0.0
 30
0.0
  0
VERTEX
  5
271
330
270
100
AcDbEntity
  8
DIBUJOS
 62
     7
370
    18
100
AcDbVertex
100
AcDb2dVertex
 10
78.09662726799381
 20
50.23242818794782
 30
0.0
  0
VERTEX
  5
272
330
270
100
AcDbEntity
  8
DIBUJOS
 62
     7
370
    18
100
AcDbVertex
100
AcDb2dVertex
 10
78.09097991272257
 20
50.23804776445202
 30
0.0
  0
SEQEND
  5
273
330
270
100
AcDbEntity
  8
DIBUJOS
 62
     7
370
    18
  0
POLYLINE
  5
274
330
216
100
AcDbEntity
  8
DIBUJOS
 62
     7
370
    18
100
AcDb2dPolyline
 66
     1
 10
0.0
 20
0.0
 30
0.0
  0
VERTEX
  5
275
330
274
100
AcDbEntity
  8
DIBUJOS
 62
     7
370
    18
100
AcDbVertex
100
AcDb2dVertex
 10
78.09097991272257
 20
50.22680558528496
 30
0.0
  0
VERTEX
  5
276
330
274
100
AcDbEntity
  8
DIBUJOS
 62
     7
370
    18
100
AcDbVertex
100
AcDb2dVertex
 10
78.085335596932
 20
50.23242818794782
 30
0.0
  0
SEQEND
  5
277
330
274
100
AcDbEntity
  8
DIBUJOS
 62
     7
370
    18
  0
POLYLINE
  5
278
330
216
100
AcDbEntity
  8
DIBUJOS
 62
     7
370
    18
100
AcDb2dPolyline
 66
     1
 10
0.0
 20
0.0
 30
0.0
  0
VERTEX
  5
279
330
278
100
AcDbEntity
  8
DIBUJOS
 62
     7
370
    18
100
AcDbVertex
100
AcDb2dVertex
 10
78.09097991272257
 20
50.22680558528496
 30
0.0
  0
VERTEX
  5
27A
330
278
100
AcDbEntity
  8
DIBUJOS
 62
     7
370
    18
100
AcDbVertex
100
AcDb2dVertex
 10
78.09662726799381
 20
50.23242818794782
 30
0.0
  0
SEQEND
  5
27B
330
278
100
AcDbEntity
  8
DIBUJOS
 62
     7
370
    18
  0
POLYLINE
  5
27C
330
216
100
AcDbEntity
  8
DIBUJOS
 62
     7
370
    18
100
AcDb2dPolyline
 66
     1
 10
0.0
 20
0.0
 30
0.0
  0
VERTEX
  5
27D
330
27C
100
AcDbEntity
  8
DIBUJOS
 62
     7
370
    18
100
AcDbVertex
100
AcDb2dVertex
 10
78.23214251814281
 20
50.06377431732937
 30
0.0
  0
VERTEX
  5
27E
330
27C
100
AcDbEntity
  8
DIBUJOS
 62
     7
370
    18
100
AcDbVertex
100
AcDb2dVertex
 10
78.09374887970418
 20
50.21781486810972
 30
0.0
  0
VERTEX
  5
27F
330
27C
100
AcDbEntity
  8
DIBUJOS
 62
     7
370
    18
100
AcDbVertex
100
AcDb2dVertex
 10
78.09097991272257
 20
50.22680558528496
 30
0.0
  0
SEQEND
  5
280
330
27C
100
AcDbEntity
  8
DIBUJOS
 62
     7
370
    18
  0
POLYLINE
  5
281
330
216
100
AcDbEntity
  8
DIBUJOS
 62
     7
370
    18
100
AcDb2dPolyline
 66
     1
 10
0.0
 20
0.0
 30
0.0
  0
VERTEX
  5
282
330
281
100
AcDbEntity
  8
DIBUJOS
 62
     7
370
    18
100
AcDbVertex
100
AcDb2dVertex
 10
78.17003072859923
 20
49.9794504081788
 30
0.0
  0
VERTEX
  5
283
330
281
100
AcDbEntity
  8
DIBUJOS
 62
     7
370
    18
100
AcDbVertex
100
AcDb2dVertex
 10
78.16438641280864
 20
49.9794504081788
 30
0.0
  0
SEQEND
  5
284
330
281
100
AcDbEntity
  8
DIBUJOS
 62
     7
370
    18
  0
POLYLINE
  5
285
330
216
100
AcDbEntity
  8
DIBUJOS
 62
     7
370
    18
100
AcDb2dPolyline
 66
     1
 10
0.0
 20
0.0
 30
0.0
  0
VERTEX
  5
286
330
285
100
AcDbEntity
  8
DIBUJOS
 62
     7
370
    18
100
AcDbVertex
100
AcDb2dVertex
 10
78.63869130807045
 20
49.66463307759334
 30
0.0
  0
VERTEX
  5
287
330
285
100
AcDbEntity
  8
DIBUJOS
 62
     7
370
    18
100
AcDbVertex
100
AcDb2dVertex
 10
78.63304395279857
 20
49.66463307759334
 30
0.0
  0
VERTEX
  5
288
330
285
100
AcDbEntity
  8
DIBUJOS
 62
     7
370
    18
100
AcDbVertex
100
AcDb2dVertex
 10
78.62626895016109
 20
49.67531239126228
 30
0.0
  0
VERTEX
  5
289
330
285
100
AcDbEntity
  8
DIBUJOS
 62
     7
370
    18
100
AcDbVertex
100
AcDb2dVertex
 10
78.6217492422561
 20
49.68149785942326
 30
0.0
  0
SEQEND
  5
28A
330
285
100
AcDbEntity
  8
DIBUJOS
 62
     7
370
    18
  0
POLYLINE
  5
28B
330
216
100
AcDbEntity
  8
DIBUJOS
 62
     7
370
    18
100
AcDb2dPolyline
 66
     1
 10
0.0
 20
0.0
 30
0.0
  0
VERTEX
  5
28C
330
28B
100
AcDbEntity
  8
DIBUJOS
 62
     7
370
    18
100
AcDbVertex
100
AcDb2dVertex
 10
82.24679206205225
 20
47.53961609614145
 30
0.0
  0
VERTEX
  5
28D
330
28B
100
AcDbEntity
  8
DIBUJOS
 62
     7
370
    18
100
AcDbVertex
100
AcDb2dVertex
 10
82.27954246735342
 20
47.59077330712965
 30
0.0
  0
VERTEX
  5
28E
330
28B
100
AcDbEntity
  8
DIBUJOS
 62
     7
370
    18
100
AcDbVertex
100
AcDb2dVertex
 10
82.29524138553349
 20
47.66925370404023
 30
0.0
  0
VERTEX
  5
28F
330
28B
100
AcDbEntity
  8
DIBUJOS
 62
     7
370
    18
100
AcDbVertex
100
AcDb2dVertex
 10
82.31455120686772
 20
47.80383605507753
 30
0.0
  0
SEQEND
  5
290
330
28B
100
AcDbEntity
  8
DIBUJOS
 62
     7
370
    18
  0
POLYLINE
  5
291
330
216
100
AcDbEntity
  8
DIBUJOS
 62
     7
370
    18
100
AcDb2dPolyline
 66
     1
 10
0.0
 20
0.0
 30
0.0
  0
VERTEX
  5
292
330
291
100
AcDbEntity
  8
DIBUJOS
 62
     7
370
    18
100
AcDbVertex
100
AcDb2dVertex
 10
82.24679206205225
 20
47.53399349347827
 30
0.0
  0
VERTEX
  5
293
330
291
100
AcDbEntity
  8
DIBUJOS
 62
     7
370
    18
100
AcDbVertex
100
AcDb2dVertex
 10
82.24114774626167
 20
47.53399349347827
 30
0.0
  0
SEQEND
  5
294
330
291
100
AcDbEntity
  8
DIBUJOS
 62
     7
370
    18
  0
POLYLINE
  5
295
330
216
100
AcDbEntity
  8
DIBUJOS
 62
     7
370
    18
100
AcDb2dPolyline
 66
     1
 10
0.0
 20
0.0
 30
0.0
  0
VERTEX
  5
296
330
295
100
AcDbEntity
  8
DIBUJOS
 62
     7
370
    18
100
AcDbVertex
100
AcDb2dVertex
 10
82.24679206205225
 20
47.53399349347827
 30
0.0
  0
VERTEX
  5
297
330
295
100
AcDbEntity
  8
DIBUJOS
 62
     7
370
    18
100
AcDbVertex
100
AcDb2dVertex
 10
82.24679206205225
 20
47.53961609614145
 30
0.0
  0
SEQEND
  5
298
330
295
100
AcDbEntity
  8
DIBUJOS
 62
     7
370
    18
  0
POLYLINE
  5
299
330
216
100
AcDbEntity
  8
DIBUJOS
 62
     7
370
    18
100
AcDb2dPolyline
 66
     1
 10
0.0
 20
0.0
 30
0.0
  0
VERTEX
  5
29A
330
299
100
AcDbEntity
  8
DIBUJOS
 62
     7
370
    18
100
AcDbVertex
100
AcDb2dVertex
 10
78.19261711020417
 20
47.52275131431089
 30
0.0
  0
VERTEX
  5
29B
330
299
100
AcDbEntity
  8
DIBUJOS
 62
     7
370
    18
100
AcDbVertex
100
AcDb2dVertex
 10
77.65623082020659
 20
47.53115193056103
 30
0.0
  0
VERTEX
  5
29C
330
299
100
AcDbEntity
  8
DIBUJOS
 62
     7
370
    18
100
AcDbVertex
100
AcDb2dVertex
 10
77.6053833463983
 20
47.54523869880399
 30
0.0
  0
VERTEX
  5
29D
330
299
100
AcDbEntity
  8
DIBUJOS
 62
     7
370
    18
100
AcDbVertex
100
AcDb2dVertex
 10
77.5489189121266
 20
47.60145564695758
 30
0.0
  0
VERTEX
  5
29E
330
299
100
AcDbEntity
  8
DIBUJOS
 62
     7
370
    18
100
AcDbVertex
100
AcDb2dVertex
 10
77.51052115155355
 20
47.68072284510173
 30
0.0
  0
VERTEX
  5
29F
330
299
100
AcDbEntity
  8
DIBUJOS
 62
     7
370
    18
100
AcDbVertex
100
AcDb2dVertex
 10
77.48793780942925
 20
47.72569458792928
 30
0.0
  0
VERTEX
  5
2A0
330
299
100
AcDbEntity
  8
DIBUJOS
 62
     7
370
    18
100
AcDbVertex
100
AcDb2dVertex
 10
77.34734054743247
 20
48.06299930300784
 30
0.0
  0
VERTEX
  5
2A1
330
299
100
AcDbEntity
  8
DIBUJOS
 62
     7
370
    18
100
AcDbVertex
100
AcDb2dVertex
 10
77.26264237628459
 20
48.27662491645384
 30
0.0
  0
VERTEX
  5
2A2
330
299
100
AcDbEntity
  8
DIBUJOS
 62
     7
370
    18
100
AcDbVertex
100
AcDb2dVertex
 10
77.11244491427405
 20
48.68588865667834
 30
0.0
  0
VERTEX
  5
2A3
330
299
100
AcDbEntity
  8
DIBUJOS
 62
     7
370
    18
100
AcDbVertex
100
AcDb2dVertex
 10
77.065015336592
 20
48.82193264231555
 30
0.0
  0
VERTEX
  5
2A4
330
299
100
AcDbEntity
  8
DIBUJOS
 62
     7
370
    18
100
AcDbVertex
100
AcDb2dVertex
 10
76.84480191529448
 20
49.47967729064244
 30
0.0
  0
VERTEX
  5
2A5
330
299
100
AcDbEntity
  8
DIBUJOS
 62
     7
370
    18
100
AcDbVertex
100
AcDb2dVertex
 10
76.79624165076618
 20
49.63596022493926
 30
0.0
  0
VERTEX
  5
2A6
330
299
100
AcDbEntity
  8
DIBUJOS
 62
     7
370
    18
100
AcDbVertex
100
AcDb2dVertex
 10
76.52889804064321
 20
50.53087400055356
 30
0.0
  0
VERTEX
  5
2A7
330
299
100
AcDbEntity
  8
DIBUJOS
 62
     7
370
    18
100
AcDbVertex
100
AcDb2dVertex
 10
76.49667954447636
 20
50.6479409456639
 30
0.0
  0
VERTEX
  5
2A8
330
299
100
AcDbEntity
  8
DIBUJOS
 62
     7
370
    18
100
AcDbVertex
100
AcDb2dVertex
 10
76.39356060011889
 20
51.05363381875054
 30
0.0
  0
VERTEX
  5
2A9
330
299
100
AcDbEntity
  8
DIBUJOS
 62
     7
370
    18
100
AcDbVertex
100
AcDb2dVertex
 10
76.36116429432738
 20
51.1988682480298
 30
0.0
  0
VERTEX
  5
2AA
330
299
100
AcDbEntity
  8
DIBUJOS
 62
     7
370
    18
100
AcDbVertex
100
AcDb2dVertex
 10
76.31471038997245
 20
51.43019386307723
 30
0.0
  0
VERTEX
  5
2AB
330
299
100
AcDbEntity
  8
DIBUJOS
 62
     7
370
    18
100
AcDbVertex
100
AcDb2dVertex
 10
76.27281266729294
 20
51.68845531574709
 30
0.0
  0
VERTEX
  5
2AC
330
299
100
AcDbEntity
  8
DIBUJOS
 62
     7
370
    18
100
AcDbVertex
100
AcDb2dVertex
 10
76.27281266729294
 20
51.93581351901224
 30
0.0
  0
VERTEX
  5
2AD
330
299
100
AcDbEntity
  8
DIBUJOS
 62
     7
370
    18
100
AcDbVertex
100
AcDb2dVertex
 10
76.3123380752316
 20
52.0201374281628
 30
0.0
  0
VERTEX
  5
2AE
330
299
100
AcDbEntity
  8
DIBUJOS
 62
     7
370
    18
100
AcDbVertex
100
AcDb2dVertex
 10
76.32363126603374
 20
52.03138263348852
 30
0.0
  0
VERTEX
  5
2AF
330
299
100
AcDbEntity
  8
DIBUJOS
 62
     7
370
    18
100
AcDbVertex
100
AcDb2dVertex
 10
76.37444986477517
 20
52.03138263348852
 30
0.0
  0
VERTEX
  5
2B0
330
299
100
AcDbEntity
  8
DIBUJOS
 62
     7
370
    18
100
AcDbVertex
100
AcDb2dVertex
 10
76.58858128505062
 20
52.00673457176119
 30
0.0
  0
VERTEX
  5
2B1
330
299
100
AcDbEntity
  8
DIBUJOS
 62
     7
370
    18
100
AcDbVertex
100
AcDb2dVertex
 10
76.59522710975517
 20
52.0049612428269
 30
0.0
  0
VERTEX
  5
2B2
330
299
100
AcDbEntity
  8
DIBUJOS
 62
     7
370
    18
100
AcDbVertex
100
AcDb2dVertex
 10
76.6671989749174
 20
51.97949006596238
 30
0.0
  0
VERTEX
  5
2B3
330
299
100
AcDbEntity
  8
DIBUJOS
 62
     7
370
    18
100
AcDbVertex
100
AcDb2dVertex
 10
76.68022922898065
 20
51.97084130470813
 30
0.0
  0
VERTEX
  5
2B4
330
299
100
AcDbEntity
  8
DIBUJOS
 62
     7
370
    18
100
AcDbVertex
100
AcDb2dVertex
 10
76.73460098074192
 20
51.94004106256445
 30
0.0
  0
VERTEX
  5
2B5
330
299
100
AcDbEntity
  8
DIBUJOS
 62
     7
370
    18
100
AcDbVertex
100
AcDb2dVertex
 10
76.77657469044098
 20
51.90347598830373
 30
0.0
  0
VERTEX
  5
2B6
330
299
100
AcDbEntity
  8
DIBUJOS
 62
     7
370
    18
100
AcDbVertex
100
AcDb2dVertex
 10
76.91651238511085
 20
51.77278225105664
 30
0.0
  0
VERTEX
  5
2B7
330
299
100
AcDbEntity
  8
DIBUJOS
 62
     7
370
    18
100
AcDbVertex
100
AcDb2dVertex
 10
77.15800825076272
 20
51.43461508077926
 30
0.0
  0
VERTEX
  5
2B8
330
299
100
AcDbEntity
  8
DIBUJOS
 62
     7
370
    18
100
AcDbVertex
100
AcDb2dVertex
 10
77.59273606691285
 20
50.83294212499343
 30
0.0
  0
VERTEX
  5
2B9
330
299
100
AcDbEntity
  8
DIBUJOS
 62
     7
370
    18
100
AcDbVertex
100
AcDb2dVertex
 10
77.60967509324655
 20
50.81045474050033
 30
0.0
  0
VERTEX
  5
2BA
330
299
100
AcDbEntity
  8
DIBUJOS
 62
     7
370
    18
100
AcDbVertex
100
AcDb2dVertex
 10
77.88346544208419
 20
50.44732478800257
 30
0.0
  0
VERTEX
  5
2BB
330
299
100
AcDbEntity
  8
DIBUJOS
 62
     7
370
    18
100
AcDbVertex
100
AcDb2dVertex
 10
78.04581018899334
 20
50.27739993077537
 30
0.0
  0
SEQEND
  5
2BC
330
299
100
AcDbEntity
  8
DIBUJOS
 62
     7
370
    18
  0
POLYLINE
  5
2BD
330
216
100
AcDbEntity
  8
DIBUJOS
 62
     7
370
    18
100
AcDb2dPolyline
 66
     1
 10
0.0
 20
0.0
 30
0.0
  0
VERTEX
  5
2BE
330
2BD
100
AcDbEntity
  8
DIBUJOS
 62
     7
370
    18
100
AcDbVertex
100
AcDb2dVertex
 10
78.1982644654754
 20
47.52275131431089
 30
0.0
  0
VERTEX
  5
2BF
330
2BD
100
AcDbEntity
  8
DIBUJOS
 62
     7
370
    18
100
AcDbVertex
100
AcDb2dVertex
 10
78.19261711020417
 20
47.52275131431089
 30
0.0
  0
SEQEND
  5
2C0
330
2BD
100
AcDbEntity
  8
DIBUJOS
 62
     7
370
    18
  0
POLYLINE
  5
2C1
330
216
100
AcDbEntity
  8
DIBUJOS
 62
     7
370
    18
100
AcDb2dPolyline
 66
     1
 10
0.0
 20
0.0
 30
0.0
  0
VERTEX
  5
2C2
330
2C1
100
AcDbEntity
  8
DIBUJOS
 62
     7
370
    18
100
AcDbVertex
100
AcDb2dVertex
 10
78.20391182074728
 20
47.52275131431089
 30
0.0
  0
VERTEX
  5
2C3
330
2C1
100
AcDbEntity
  8
DIBUJOS
 62
     7
370
    18
100
AcDbVertex
100
AcDb2dVertex
 10
78.1982644654754
 20
47.52275131431089
 30
0.0
  0
SEQEND
  5
2C4
330
2C1
100
AcDbEntity
  8
DIBUJOS
 62
     7
370
    18
  0
POLYLINE
  5
2C5
330
216
100
AcDbEntity
  8
DIBUJOS
 62
     7
370
    18
100
AcDb2dPolyline
 66
     1
 10
0.0
 20
0.0
 30
0.0
  0
VERTEX
  5
2C6
330
2C5
100
AcDbEntity
  8
DIBUJOS
 62
     7
370
    18
100
AcDbVertex
100
AcDb2dVertex
 10
78.54834578165068
 20
47.52275131431089
 30
0.0
  0
VERTEX
  5
2C7
330
2C5
100
AcDbEntity
  8
DIBUJOS
 62
     7
370
    18
100
AcDbVertex
100
AcDb2dVertex
 10
78.54269842637945
 20
47.52837089081541
 30
0.0
  0
VERTEX
  5
2C8
330
2C5
100
AcDbEntity
  8
DIBUJOS
 62
     7
370
    18
100
AcDbVertex
100
AcDb2dVertex
 10
78.20955613653787
 20
47.52837089081541
 30
0.0
  0
VERTEX
  5
2C9
330
2C5
100
AcDbEntity
  8
DIBUJOS
 62
     7
370
    18
100
AcDbVertex
100
AcDb2dVertex
 10
78.20391182074728
 20
47.52275131431089
 30
0.0
  0
SEQEND
  5
2CA
330
2C5
100
AcDbEntity
  8
DIBUJOS
 62
     7
370
    18
  0
POLYLINE
  5
2CB
330
216
100
AcDbEntity
  8
DIBUJOS
 62
     7
370
    18
100
AcDb2dPolyline
 66
     1
 10
0.0
 20
0.0
 30
0.0
  0
VERTEX
  5
2CC
330
2CB
100
AcDbEntity
  8
DIBUJOS
 62
     7
370
    18
100
AcDbVertex
100
AcDb2dVertex
 10
78.55399313692193
 20
47.52275131431089
 30
0.0
  0
VERTEX
  5
2CD
330
2CB
100
AcDbEntity
  8
DIBUJOS
 62
     7
370
    18
100
AcDbVertex
100
AcDb2dVertex
 10
78.54834578165068
 20
47.52275131431089
 30
0.0
  0
SEQEND
  5
2CE
330
2CB
100
AcDbEntity
  8
DIBUJOS
 62
     7
370
    18
  0
POLYLINE
  5
2CF
330
216
100
AcDbEntity
  8
DIBUJOS
 62
     7
370
    18
100
AcDb2dPolyline
 66
     1
 10
0.0
 20
0.0
 30
0.0
  0
VERTEX
  5
2D0
330
2CF
100
AcDbEntity
  8
DIBUJOS
 62
     7
370
    18
100
AcDbVertex
100
AcDb2dVertex
 10
78.55964049219317
 20
47.52275131431089
 30
0.0
  0
VERTEX
  5
2D1
330
2CF
100
AcDbEntity
  8
DIBUJOS
 62
     7
370
    18
100
AcDbVertex
100
AcDb2dVertex
 10
78.55399313692193
 20
47.52275131431089
 30
0.0
  0
SEQEND
  5
2D2
330
2CF
100
AcDbEntity
  8
DIBUJOS
 62
     7
370
    18
  0
POLYLINE
  5
2D3
330
216
100
AcDbEntity
  8
DIBUJOS
 62
     7
370
    18
100
AcDb2dPolyline
 66
     1
 10
0.0
 20
0.0
 30
0.0
  0
VERTEX
  5
2D4
330
2D3
100
AcDbEntity
  8
DIBUJOS
 62
     7
370
    18
100
AcDbVertex
100
AcDb2dVertex
 10
81.50710402176433
 20
47.52275131431089
 30
0.0
  0
VERTEX
  5
2D5
330
2D3
100
AcDbEntity
  8
DIBUJOS
 62
     7
370
    18
100
AcDbVertex
100
AcDb2dVertex
 10
81.5014566664931
 20
47.52837089081541
 30
0.0
  0
VERTEX
  5
2D6
330
2D3
100
AcDbEntity
  8
DIBUJOS
 62
     7
370
    18
100
AcDbVertex
100
AcDb2dVertex
 10
78.56528480798438
 20
47.52837089081541
 30
0.0
  0
VERTEX
  5
2D7
330
2D3
100
AcDbEntity
  8
DIBUJOS
 62
     7
370
    18
100
AcDbVertex
100
AcDb2dVertex
 10
78.55964049219317
 20
47.52275131431089
 30
0.0
  0
SEQEND
  5
2D8
330
2D3
100
AcDbEntity
  8
DIBUJOS
 62
     7
370
    18
  0
POLYLINE
  5
2D9
330
216
100
AcDbEntity
  8
DIBUJOS
 62
     7
370
    18
100
AcDb2dPolyline
 66
     1
 10
0.0
 20
0.0
 30
0.0
  0
VERTEX
  5
2DA
330
2D9
100
AcDbEntity
  8
DIBUJOS
 62
     7
370
    18
100
AcDbVertex
100
AcDb2dVertex
 10
81.51275137703557
 20
47.52275131431089
 30
0.0
  0
VERTEX
  5
2DB
330
2D9
100
AcDbEntity
  8
DIBUJOS
 62
     7
370
    18
100
AcDbVertex
100
AcDb2dVertex
 10
81.50710402176433
 20
47.52275131431089
 30
0.0
  0
SEQEND
  5
2DC
330
2D9
100
AcDbEntity
  8
DIBUJOS
 62
     7
370
    18
  0
POLYLINE
  5
2DD
330
216
100
AcDbEntity
  8
DIBUJOS
 62
     7
370
    18
100
AcDb2dPolyline
 66
     1
 10
0.0
 20
0.0
 30
0.0
  0
VERTEX
  5
2DE
330
2DD
100
AcDbEntity
  8
DIBUJOS
 62
     7
370
    18
100
AcDbVertex
100
AcDb2dVertex
 10
81.5183956928268
 20
47.52275131431089
 30
0.0
  0
VERTEX
  5
2DF
330
2DD
100
AcDbEntity
  8
DIBUJOS
 62
     7
370
    18
100
AcDbVertex
100
AcDb2dVertex
 10
81.51275137703557
 20
47.52275131431089
 30
0.0
  0
SEQEND
  5
2E0
330
2DD
100
AcDbEntity
  8
DIBUJOS
 62
     7
370
    18
  0
POLYLINE
  5
2E1
330
216
100
AcDbEntity
  8
DIBUJOS
 62
     7
370
    18
100
AcDb2dPolyline
 66
     1
 10
0.0
 20
0.0
 30
0.0
  0
VERTEX
  5
2E2
330
2E1
100
AcDbEntity
  8
DIBUJOS
 62
     7
370
    18
100
AcDbVertex
100
AcDb2dVertex
 10
81.85718533793961
 20
47.52275131431089
 30
0.0
  0
VERTEX
  5
2E3
330
2E1
100
AcDbEntity
  8
DIBUJOS
 62
     7
370
    18
100
AcDbVertex
100
AcDb2dVertex
 10
81.85153798266774
 20
47.52837089081541
 30
0.0
  0
VERTEX
  5
2E4
330
2E1
100
AcDbEntity
  8
DIBUJOS
 62
     7
370
    18
100
AcDbVertex
100
AcDb2dVertex
 10
81.52404304809804
 20
47.52837089081541
 30
0.0
  0
VERTEX
  5
2E5
330
2E1
100
AcDbEntity
  8
DIBUJOS
 62
     7
370
    18
100
AcDbVertex
100
AcDb2dVertex
 10
81.5183956928268
 20
47.52275131431089
 30
0.0
  0
SEQEND
  5
2E6
330
2E1
100
AcDbEntity
  8
DIBUJOS
 62
     7
370
    18
  0
POLYLINE
  5
2E7
330
216
100
AcDbEntity
  8
DIBUJOS
 62
     7
370
    18
100
AcDb2dPolyline
 66
     1
 10
0.0
 20
0.0
 30
0.0
  0
VERTEX
  5
2E8
330
2E7
100
AcDbEntity
  8
DIBUJOS
 62
     7
370
    18
100
AcDbVertex
100
AcDb2dVertex
 10
81.86283269321085
 20
47.52275131431089
 30
0.0
  0
VERTEX
  5
2E9
330
2E7
100
AcDbEntity
  8
DIBUJOS
 62
     7
370
    18
100
AcDbVertex
100
AcDb2dVertex
 10
81.85718533793961
 20
47.52275131431089
 30
0.0
  0
SEQEND
  5
2EA
330
2E7
100
AcDbEntity
  8
DIBUJOS
 62
     7
370
    18
  0
POLYLINE
  5
2EB
330
216
100
AcDbEntity
  8
DIBUJOS
 62
     7
370
    18
100
AcDb2dPolyline
 66
     1
 10
0.0
 20
0.0
 30
0.0
  0
VERTEX
  5
2EC
330
2EB
100
AcDbEntity
  8
DIBUJOS
 62
     7
370
    18
100
AcDbVertex
100
AcDb2dVertex
 10
81.86848004848208
 20
47.52275131431089
 30
0.0
  0
VERTEX
  5
2ED
330
2EB
100
AcDbEntity
  8
DIBUJOS
 62
     7
370
    18
100
AcDbVertex
100
AcDb2dVertex
 10
81.86283269321085
 20
47.52275131431089
 30
0.0
  0
SEQEND
  5
2EE
330
2EB
100
AcDbEntity
  8
DIBUJOS
 62
     7
370
    18
  0
POLYLINE
  5
2EF
330
216
100
AcDbEntity
  8
DIBUJOS
 62
     7
370
    18
100
AcDb2dPolyline
 66
     1
 10
0.0
 20
0.0
 30
0.0
  0
VERTEX
  5
2F0
330
2EF
100
AcDbEntity
  8
DIBUJOS
 62
     7
370
    18
100
AcDbVertex
100
AcDb2dVertex
 10
81.86848004848208
 20
47.52275131431089
 30
0.0
  0
VERTEX
  5
2F1
330
2EF
100
AcDbEntity
  8
DIBUJOS
 62
     7
370
    18
100
AcDbVertex
100
AcDb2dVertex
 10
82.24114774626167
 20
47.53399349347827
 30
0.0
  0
SEQEND
  5
2F2
330
2EF
100
AcDbEntity
  8
DIBUJOS
 62
     7
370
    18
  0
POLYLINE
  5
2F3
330
216
100
AcDbEntity
  8
DIBUJOS
 62
     7
370
    18
100
AcDb2dPolyline
 66
     1
 10
0.0
 20
0.0
 30
0.0
  0
VERTEX
  5
2F4
330
2F3
100
AcDbEntity
  8
DIBUJOS
 62
     7
370
    18
100
AcDbVertex
100
AcDb2dVertex
 10
82.24679206205225
 20
47.53399349347827
 30
0.0
  0
VERTEX
  5
2F5
330
2F3
100
AcDbEntity
  8
DIBUJOS
 62
     7
370
    18
100
AcDbVertex
100
AcDb2dVertex
 10
82.25808677259538
 20
47.52275131431089
 30
0.0
  0
VERTEX
  5
2F6
330
2F3
100
AcDbEntity
  8
DIBUJOS
 62
     7
370
    18
100
AcDbVertex
100
AcDb2dVertex
 10
82.31511655029053
 20
47.52668532048005
 30
0.0
  0
VERTEX
  5
2F7
330
2F3
100
AcDbEntity
  8
DIBUJOS
 62
     7
370
    18
100
AcDbVertex
100
AcDb2dVertex
 10
82.32584287792955
 20
47.52837089081541
 30
0.0
  0
VERTEX
  5
2F8
330
2F3
100
AcDbEntity
  8
DIBUJOS
 62
     7
370
    18
100
AcDbVertex
100
AcDb2dVertex
 10
82.3608516174432
 20
47.58402799962954
 30
0.0
  0
VERTEX
  5
2F9
330
2F3
100
AcDbEntity
  8
DIBUJOS
 62
     7
370
    18
100
AcDbVertex
100
AcDb2dVertex
 10
82.37270863192848
 20
47.6177575632897
 30
0.0
  0
VERTEX
  5
2FA
330
2F3
100
AcDbEntity
  8
DIBUJOS
 62
     7
370
    18
100
AcDbVertex
100
AcDb2dVertex
 10
82.41381760934877
 20
47.74233543402374
 30
0.0
  0
VERTEX
  5
2FB
330
2F3
100
AcDbEntity
  8
DIBUJOS
 62
     7
370
    18
100
AcDbVertex
100
AcDb2dVertex
 10
82.43069584606619
 20
47.86597822175302
 30
0.0
  0
VERTEX
  5
2FC
330
2F3
100
AcDbEntity
  8
DIBUJOS
 62
     7
370
    18
100
AcDbVertex
100
AcDb2dVertex
 10
82.43877478595425
 20
47.9500025412032
 30
0.0
  0
VERTEX
  5
2FD
330
2F3
100
AcDbEntity
  8
DIBUJOS
 62
     7
370
    18
100
AcDbVertex
100
AcDb2dVertex
 10
82.41788139513835
 20
48.01802453402196
 30
0.0
  0
VERTEX
  5
2FE
330
2F3
100
AcDbEntity
  8
DIBUJOS
 62
     7
370
    18
100
AcDbVertex
100
AcDb2dVertex
 10
82.39360202274437
 20
48.11303380915879
 30
0.0
  0
VERTEX
  5
2FF
330
2F3
100
AcDbEntity
  8
DIBUJOS
 62
     7
370
    18
100
AcDbVertex
100
AcDb2dVertex
 10
82.33149023320078
 20
48.15238597548214
 30
0.0
  0
VERTEX
  5
300
330
2F3
100
AcDbEntity
  8
DIBUJOS
 62
     7
370
    18
100
AcDbVertex
100
AcDb2dVertex
 10
82.32336570110162
 20
48.29827708117575
 30
0.0
  0
VERTEX
  5
301
330
2F3
100
AcDbEntity
  8
DIBUJOS
 62
     7
370
    18
100
AcDbVertex
100
AcDb2dVertex
 10
82.30673366232617
 20
48.40493101457258
 30
0.0
  0
VERTEX
  5
302
330
2F3
100
AcDbEntity
  8
DIBUJOS
 62
     7
370
    18
100
AcDbVertex
100
AcDb2dVertex
 10
82.27502579892908
 20
48.47844548523499
 30
0.0
  0
VERTEX
  5
303
330
2F3
100
AcDbEntity
  8
DIBUJOS
 62
     7
370
    18
100
AcDbVertex
100
AcDb2dVertex
 10
82.25243941732414
 20
48.50093286972776
 30
0.0
  0
VERTEX
  5
304
330
2F3
100
AcDbEntity
  8
DIBUJOS
 62
     7
370
    18
100
AcDbVertex
100
AcDb2dVertex
 10
82.22928769229574
 20
48.51105234405758
 30
0.0
  0
VERTEX
  5
305
330
2F3
100
AcDbEntity
  8
DIBUJOS
 62
     7
370
    18
100
AcDbVertex
100
AcDb2dVertex
 10
82.2250749719477
 20
48.51347327093088
 30
0.0
  0
VERTEX
  5
306
330
2F3
100
AcDbEntity
  8
DIBUJOS
 62
     7
370
    18
100
AcDbVertex
100
AcDb2dVertex
 10
82.18418483714348
 20
48.53268029951084
 30
0.0
  0
VERTEX
  5
307
330
2F3
100
AcDbEntity
  8
DIBUJOS
 62
     7
370
    18
100
AcDbVertex
100
AcDb2dVertex
 10
82.10612793147851
 20
48.55351237525424
 30
0.0
  0
VERTEX
  5
308
330
2F3
100
AcDbEntity
  8
DIBUJOS
 62
     7
370
    18
100
AcDbVertex
100
AcDb2dVertex
 10
81.94218745716509
 20
48.57643552658426
 30
0.0
  0
VERTEX
  5
309
330
2F3
100
AcDbEntity
  8
DIBUJOS
 62
     7
370
    18
100
AcDbVertex
100
AcDb2dVertex
 10
81.65414498299513
 20
48.59903790510391
 30
0.0
  0
VERTEX
  5
30A
330
2F3
100
AcDbEntity
  8
DIBUJOS
 62
     7
370
    18
100
AcDbVertex
100
AcDb2dVertex
 10
81.25334993016547
 20
48.64383715689162
 30
0.0
  0
VERTEX
  5
30B
330
2F3
100
AcDbEntity
  8
DIBUJOS
 62
     7
370
    18
100
AcDbVertex
100
AcDb2dVertex
 10
81.11241528580325
 20
48.66564970801904
 30
0.0
  0
VERTEX
  5
30C
330
2F3
100
AcDbEntity
  8
DIBUJOS
 62
     7
370
    18
100
AcDbVertex
100
AcDb2dVertex
 10
80.72732523011496
 20
48.7752723029943
 30
0.0
  0
VERTEX
  5
30D
330
2F3
100
AcDbEntity
  8
DIBUJOS
 62
     7
370
    18
100
AcDbVertex
100
AcDb2dVertex
 10
80.47887807194125
 20
48.86465897546827
 30
0.0
  0
VERTEX
  5
30E
330
2F3
100
AcDbEntity
  8
DIBUJOS
 62
     7
370
    18
100
AcDbVertex
100
AcDb2dVertex
 10
79.95375609767834
 20
49.07884745441238
 30
0.0
  0
VERTEX
  5
30F
330
2F3
100
AcDbEntity
  8
DIBUJOS
 62
     7
370
    18
100
AcDbVertex
100
AcDb2dVertex
 10
79.51332925508393
 20
49.27504542053035
 30
0.0
  0
VERTEX
  5
310
330
2F3
100
AcDbEntity
  8
DIBUJOS
 62
     7
370
    18
100
AcDbVertex
100
AcDb2dVertex
 10
79.04610635001718
 20
49.48603222368457
 30
0.0
  0
VERTEX
  5
311
330
2F3
100
AcDbEntity
  8
DIBUJOS
 62
     7
370
    18
100
AcDbVertex
100
AcDb2dVertex
 10
78.92044813600683
 20
49.55669302679478
 30
0.0
  0
VERTEX
  5
312
330
2F3
100
AcDbEntity
  8
DIBUJOS
 62
     7
370
    18
100
AcDbVertex
100
AcDb2dVertex
 10
78.71331967942623
 20
49.67726728971238
 30
0.0
  0
VERTEX
  5
313
330
2F3
100
AcDbEntity
  8
DIBUJOS
 62
     7
370
    18
100
AcDbVertex
100
AcDb2dVertex
 10
78.6205030551405
 20
49.75880410680032
 30
0.0
  0
VERTEX
  5
314
330
2F3
100
AcDbEntity
  8
DIBUJOS
 62
     7
370
    18
100
AcDbVertex
100
AcDb2dVertex
 10
78.3294940477381
 20
50.01458410942559
 30
0.0
  0
VERTEX
  5
315
330
2F3
100
AcDbEntity
  8
DIBUJOS
 62
     7
370
    18
100
AcDbVertex
100
AcDb2dVertex
 10
78.09662726799381
 20
50.23242818794782
 30
0.0
  0
SEQEND
  5
316
330
2F3
100
AcDbEntity
  8
DIBUJOS
 62
     7
370
    18
  0
POLYLINE
  5
317
330
216
100
AcDbEntity
  8
DIBUJOS
 62
     7
370
    18
100
AcDb2dPolyline
 66
     1
 10
0.0
 20
0.0
 30
0.0
  0
VERTEX
  5
318
330
317
100
AcDbEntity
  8
DIBUJOS
 62
     7
370
    18
100
AcDbVertex
100
AcDb2dVertex
 10
78.1982644654754
 20
47.51712871164835
 30
0.0
  0
VERTEX
  5
319
330
317
100
AcDbEntity
  8
DIBUJOS
 62
     7
370
    18
100
AcDbVertex
100
AcDb2dVertex
 10
78.1982644654754
 20
47.52275131431089
 30
0.0
  0
SEQEND
  5
31A
330
317
100
AcDbEntity
  8
DIBUJOS
 62
     7
370
    18
  0
POLYLINE
  5
31B
330
216
100
AcDbEntity
  8
DIBUJOS
 62
     7
370
    18
100
AcDb2dPolyline
 66
     1
 10
0.0
 20
0.0
 30
0.0
  0
VERTEX
  5
31C
330
31B
100
AcDbEntity
  8
DIBUJOS
 62
     7
370
    18
100
AcDbVertex
100
AcDb2dVertex
 10
78.55399313692193
 20
47.51712871164835
 30
0.0
  0
VERTEX
  5
31D
330
31B
100
AcDbEntity
  8
DIBUJOS
 62
     7
370
    18
100
AcDbVertex
100
AcDb2dVertex
 10
78.55399313692193
 20
47.52275131431089
 30
0.0
  0
SEQEND
  5
31E
330
31B
100
AcDbEntity
  8
DIBUJOS
 62
     7
370
    18
  0
POLYLINE
  5
31F
330
216
100
AcDbEntity
  8
DIBUJOS
 62
     7
370
    18
100
AcDb2dPolyline
 66
     1
 10
0.0
 20
0.0
 30
0.0
  0
VERTEX
  5
320
330
31F
100
AcDbEntity
  8
DIBUJOS
 62
     7
370
    18
100
AcDbVertex
100
AcDb2dVertex
 10
81.51275137703557
 20
47.51712871164835
 30
0.0
  0
VERTEX
  5
321
330
31F
100
AcDbEntity
  8
DIBUJOS
 62
     7
370
    18
100
AcDbVertex
100
AcDb2dVertex
 10
81.51275137703557
 20
47.52275131431089
 30
0.0
  0
SEQEND
  5
322
330
31F
100
AcDbEntity
  8
DIBUJOS
 62
     7
370
    18
  0
POLYLINE
  5
323
330
216
100
AcDbEntity
  8
DIBUJOS
 62
     7
370
    18
100
AcDb2dPolyline
 66
     1
 10
0.0
 20
0.0
 30
0.0
  0
VERTEX
  5
324
330
323
100
AcDbEntity
  8
DIBUJOS
 62
     7
370
    18
100
AcDbVertex
100
AcDb2dVertex
 10
81.86283269321085
 20
47.51712871164835
 30
0.0
  0
VERTEX
  5
325
330
323
100
AcDbEntity
  8
DIBUJOS
 62
     7
370
    18
100
AcDbVertex
100
AcDb2dVertex
 10
81.86283269321085
 20
47.52275131431089
 30
0.0
  0
SEQEND
  5
326
330
323
100
AcDbEntity
  8
DIBUJOS
 62
     7
370
    18
  0
POLYLINE
  5
327
330
216
100
AcDbEntity
  8
DIBUJOS
 62
     7
370
    18
100
AcDb2dPolyline
 66
     1
 10
0.0
 20
0.0
 30
0.0
  0
VERTEX
  5
328
330
327
100
AcDbEntity
  8
DIBUJOS
 62
     7
370
    18
100
AcDbVertex
100
AcDb2dVertex
 10
78.1982644654754
 20
47.51712871164835
 30
0.0
  0
VERTEX
  5
329
330
327
100
AcDbEntity
  8
DIBUJOS
 62
     7
370
    18
100
AcDbVertex
100
AcDb2dVertex
 10
78.14397022047402
 20
47.25809558853757
 30
0.0
  0
VERTEX
  5
32A
330
327
100
AcDbEntity
  8
DIBUJOS
 62
     7
370
    18
100
AcDbVertex
100
AcDb2dVertex
 10
77.39081728037266
 20
43.67186161730213
 30
0.0
  0
VERTEX
  5
32B
330
327
100
AcDbEntity
  8
DIBUJOS
 62
     7
370
    18
100
AcDbVertex
100
AcDb2dVertex
 10
77.41848567382603
 20
43.65387261755483
 30
0.0
  0
VERTEX
  5
32C
330
327
100
AcDbEntity
  8
DIBUJOS
 62
     7
370
    18
100
AcDbVertex
100
AcDb2dVertex
 10
77.57150529373153
 20
43.61564466914854
 30
0.0
  0
VERTEX
  5
32D
330
327
100
AcDbEntity
  8
DIBUJOS
 62
     7
370
    18
100
AcDbVertex
100
AcDb2dVertex
 10
77.6053833463983
 20
43.62126575873224
 30
0.0
  0
VERTEX
  5
32E
330
327
100
AcDbEntity
  8
DIBUJOS
 62
     7
370
    18
100
AcDbVertex
100
AcDb2dVertex
 10
77.61103070167017
 20
43.6268883613951
 30
0.0
  0
VERTEX
  5
32F
330
327
100
AcDbEntity
  8
DIBUJOS
 62
     7
370
    18
100
AcDbVertex
100
AcDb2dVertex
 10
77.68808761816149
 20
43.94220046891024
 30
0.0
  0
VERTEX
  5
330
330
327
100
AcDbEntity
  8
DIBUJOS
 62
     7
370
    18
100
AcDbVertex
100
AcDb2dVertex
 10
78.55399313692193
 20
47.51712871164835
 30
0.0
  0
SEQEND
  5
331
330
327
100
AcDbEntity
  8
DIBUJOS
 62
     7
370
    18
  0
POLYLINE
  5
332
330
216
100
AcDbEntity
  8
DIBUJOS
 62
     7
370
    18
100
AcDb2dPolyline
 66
     1
 10
0.0
 20
0.0
 30
0.0
  0
VERTEX
  5
333
330
332
100
AcDbEntity
  8
DIBUJOS
 62
     7
370
    18
100
AcDbVertex
100
AcDb2dVertex
 10
81.51275137703557
 20
47.51712871164835
 30
0.0
  0
VERTEX
  5
334
330
332
100
AcDbEntity
  8
DIBUJOS
 62
     7
370
    18
100
AcDbVertex
100
AcDb2dVertex
 10
81.8886318059902
 20
44.39114017442744
 30
0.0
  0
VERTEX
  5
335
330
332
100
AcDbEntity
  8
DIBUJOS
 62
     7
370
    18
100
AcDbVertex
100
AcDb2dVertex
 10
81.97576156175491
 20
43.63813205364197
 30
0.0
  0
VERTEX
  5
336
330
332
100
AcDbEntity
  8
DIBUJOS
 62
     7
370
    18
100
AcDbVertex
100
AcDb2dVertex
 10
81.99834794335985
 20
43.61564466914854
 30
0.0
  0
VERTEX
  5
337
330
332
100
AcDbEntity
  8
DIBUJOS
 62
     7
370
    18
100
AcDbVertex
100
AcDb2dVertex
 10
82.0943377855702
 20
43.61564466914854
 30
0.0
  0
VERTEX
  5
338
330
332
100
AcDbEntity
  8
DIBUJOS
 62
     7
370
    18
100
AcDbVertex
100
AcDb2dVertex
 10
82.19032762778055
 20
43.63813205364197
 30
0.0
  0
VERTEX
  5
339
330
332
100
AcDbEntity
  8
DIBUJOS
 62
     7
370
    18
100
AcDbVertex
100
AcDb2dVertex
 10
82.20726665411361
 20
43.65499683547189
 30
0.0
  0
VERTEX
  5
33A
330
332
100
AcDbEntity
  8
DIBUJOS
 62
     7
370
    18
100
AcDbVertex
100
AcDb2dVertex
 10
81.89363479133841
 20
47.19690363565982
 30
0.0
  0
VERTEX
  5
33B
330
332
100
AcDbEntity
  8
DIBUJOS
 62
     7
370
    18
100
AcDbVertex
100
AcDb2dVertex
 10
81.86283269321085
 20
47.51712871164835
 30
0.0
  0
SEQEND
  5
33C
330
332
100
AcDbEntity
  8
DIBUJOS
 62
     7
370
    18
  0
ENDBLK
  5
219
330
216
100
AcDbEntity
  8
0
100
AcDbBlockEnd
  0
BLOCK
  5
33F
330
33D
100
AcDbEntity
  8
0
100
AcDbBlockBegin
  2
block 4
 70
     0
 10
0.0
 20
0.0
 30
0.0
  3
block 4
  1

  0
POLYLINE
  5
341
330
33D
100
AcDbEntity
  8
DIBUJOS
 62
     7
370
    18
100
AcDb2dPolyline
 66
     1
 10
0.0
 20
0.0
 30
0.0
  0
VERTEX
  5
342
330
341
100
AcDbEntity
  8
DIBUJOS
 62
     7
370
    18
100
AcDbVertex
100
AcDb2dVertex
 10
67.20700029180264
 20
32.26536052547877
 30
0.0
  0
VERTEX
  5
343
330
341
100
AcDbEntity
  8
DIBUJOS
 62
     7
370
    18
100
AcDbVertex
100
AcDb2dVertex
 10
67.1957071010005
 20
32.568934163818
 30
0.0
  0
VERTEX
  5
344
330
341
100
AcDbEntity
  8
DIBUJOS
 62
     7
370
    18
100
AcDbVertex
100
AcDb2dVertex
 10
67.20135445627173
 20
32.57455676648119
 30
0.0
  0
VERTEX
  5
345
330
341
100
AcDbEntity
  8
DIBUJOS
 62
     7
370
    18
100
AcDbVertex
100
AcDb2dVertex
 10
67.16495971352695
 20
33.2545361150586
 30
0.0
  0
VERTEX
  5
346
330
341
100
AcDbEntity
  8
DIBUJOS
 62
     7
370
    18
100
AcDbVertex
100
AcDb2dVertex
 10
67.14801916745292
 20
33.43443216484443
 30
0.0
  0
VERTEX
  5
347
330
341
100
AcDbEntity
  8
DIBUJOS
 62
     7
370
    18
100
AcDbVertex
100
AcDb2dVertex
 10
67.09178117449827
 20
33.79409262651772
 30
0.0
  0
VERTEX
  5
348
330
341
100
AcDbEntity
  8
DIBUJOS
 62
     7
370
    18
100
AcDbVertex
100
AcDb2dVertex
 10
67.016713598171
 20
34.02552567019488
 30
0.0
  0
VERTEX
  5
349
330
341
100
AcDbEntity
  8
DIBUJOS
 62
     7
370
    18
100
AcDbVertex
100
AcDb2dVertex
 10
66.93162637348401
 20
34.18323695134666
 30
0.0
  0
VERTEX
  5
34A
330
341
100
AcDbEntity
  8
DIBUJOS
 62
     7
370
    18
100
AcDbVertex
100
AcDb2dVertex
 10
66.9120809923901
 20
34.21523857845116
 30
0.0
  0
VERTEX
  5
34B
330
341
100
AcDbEntity
  8
DIBUJOS
 62
     7
370
    18
100
AcDbVertex
100
AcDb2dVertex
 10
66.83433259402307
 20
34.3229168665318
 30
0.0
  0
VERTEX
  5
34C
330
341
100
AcDbEntity
  8
DIBUJOS
 62
     7
370
    18
100
AcDbVertex
100
AcDb2dVertex
 10
66.8010183650391
 20
34.34090586627846
 30
0.0
  0
VERTEX
  5
34D
330
341
100
AcDbEntity
  8
DIBUJOS
 62
     7
370
    18
100
AcDbVertex
100
AcDb2dVertex
 10
66.58532313190689
 20
34.43366367942347
 30
0.0
  0
VERTEX
  5
34E
330
341
100
AcDbEntity
  8
DIBUJOS
 62
     7
370
    18
100
AcDbVertex
100
AcDb2dVertex
 10
66.54692689107449
 20
34.44828153849942
 30
0.0
  0
VERTEX
  5
34F
330
341
100
AcDbEntity
  8
DIBUJOS
 62
     7
370
    18
100
AcDbVertex
100
AcDb2dVertex
 10
66.37170234440055
 20
34.48260422924334
 30
0.0
  0
VERTEX
  5
350
330
341
100
AcDbEntity
  8
DIBUJOS
 62
     7
370
    18
100
AcDbVertex
100
AcDb2dVertex
 10
66.30312861873935
 20
34.49502812334041
 30
0.0
  0
VERTEX
  5
351
330
341
100
AcDbEntity
  8
DIBUJOS
 62
     7
370
    18
100
AcDbVertex
100
AcDb2dVertex
 10
65.93073903344987
 20
34.53390518276488
 30
0.0
  0
VERTEX
  5
352
330
341
100
AcDbEntity
  8
DIBUJOS
 62
     7
370
    18
100
AcDbVertex
100
AcDb2dVertex
 10
65.60350701396669
 20
34.55047945337041
 30
0.0
  0
VERTEX
  5
353
330
341
100
AcDbEntity
  8
DIBUJOS
 62
     7
370
    18
100
AcDbVertex
100
AcDb2dVertex
 10
65.1120503287177
 20
34.55048399260824
 30
0.0
  0
VERTEX
  5
354
330
341
100
AcDbEntity
  8
DIBUJOS
 62
     7
370
    18
100
AcDbVertex
100
AcDb2dVertex
 10
64.77915955591017
 20
34.53389610428922
 30
0.0
  0
VERTEX
  5
355
330
341
100
AcDbEntity
  8
DIBUJOS
 62
     7
370
    18
100
AcDbVertex
100
AcDb2dVertex
 10
64.43485249332889
 20
34.50034357090608
 30
0.0
  0
VERTEX
  5
356
330
341
100
AcDbEntity
  8
DIBUJOS
 62
     7
370
    18
100
AcDbVertex
100
AcDb2dVertex
 10
64.2486766974392
 20
34.46691964926426
 30
0.0
  0
VERTEX
  5
357
330
341
100
AcDbEntity
  8
DIBUJOS
 62
     7
370
    18
100
AcDbVertex
100
AcDb2dVertex
 10
64.14604103052397
 20
34.44209758341761
 30
0.0
  0
VERTEX
  5
358
330
341
100
AcDbEntity
  8
DIBUJOS
 62
     7
370
    18
100
AcDbVertex
100
AcDb2dVertex
 10
64.08957659625194
 20
34.42017155134313
 30
0.0
  0
VERTEX
  5
359
330
341
100
AcDbEntity
  8
DIBUJOS
 62
     7
370
    18
100
AcDbVertex
100
AcDb2dVertex
 10
63.94420127048399
 20
34.36097081081845
 30
0.0
  0
VERTEX
  5
35A
330
341
100
AcDbEntity
  8
DIBUJOS
 62
     7
370
    18
100
AcDbVertex
100
AcDb2dVertex
 10
63.88630296115861
 20
34.32966217403159
 30
0.0
  0
VERTEX
  5
35B
330
341
100
AcDbEntity
  8
DIBUJOS
 62
     7
370
    18
100
AcDbVertex
100
AcDb2dVertex
 10
63.85728047902225
 20
34.30144173208723
 30
0.0
  0
VERTEX
  5
35C
330
341
100
AcDbEntity
  8
DIBUJOS
 62
     7
370
    18
100
AcDbVertex
100
AcDb2dVertex
 10
63.82041309701749
 20
34.24896814211165
 30
0.0
  0
VERTEX
  5
35D
330
341
100
AcDbEntity
  8
DIBUJOS
 62
     7
370
    18
100
AcDbVertex
100
AcDb2dVertex
 10
63.71877589953559
 20
34.08031729765153
 30
0.0
  0
VERTEX
  5
35E
330
341
100
AcDbEntity
  8
DIBUJOS
 62
     7
370
    18
100
AcDbVertex
100
AcDb2dVertex
 10
63.7073094583291
 20
34.05813252901748
 30
0.0
  0
VERTEX
  5
35F
330
341
100
AcDbEntity
  8
DIBUJOS
 62
     7
370
    18
100
AcDbVertex
100
AcDb2dVertex
 10
63.64606164119476
 20
33.88392414430459
 30
0.0
  0
VERTEX
  5
360
330
341
100
AcDbEntity
  8
DIBUJOS
 62
     7
370
    18
100
AcDbVertex
100
AcDb2dVertex
 10
63.61978912928528
 20
33.80065636450234
 30
0.0
  0
VERTEX
  5
361
330
341
100
AcDbEntity
  8
DIBUJOS
 62
     7
370
    18
100
AcDbVertex
100
AcDb2dVertex
 10
63.5845661063775
 20
33.53006634173017
 30
0.0
  0
VERTEX
  5
362
330
341
100
AcDbEntity
  8
DIBUJOS
 62
     7
370
    18
100
AcDbVertex
100
AcDb2dVertex
 10
63.55372525487032
 20
33.17046035091278
 30
0.0
  0
SEQEND
  5
363
330
341
100
AcDbEntity
  8
DIBUJOS
 62
     7
370
    18
  0
POLYLINE
  5
364
330
33D
100
AcDbEntity
  8
DIBUJOS
 62
     7
370
    18
100
AcDb2dPolyline
 66
     1
 10
0.0
 20
0.0
 30
0.0
  0
VERTEX
  5
365
330
364
100
AcDbEntity
  8
DIBUJOS
 62
     7
370
    18
100
AcDbVertex
100
AcDb2dVertex
 10
67.20700029180264
 20
32.25973943589572
 30
0.0
  0
VERTEX
  5
366
330
364
100
AcDbEntity
  8
DIBUJOS
 62
     7
370
    18
100
AcDbVertex
100
AcDb2dVertex
 10
67.20135445627173
 20
32.25973943589572
 30
0.0
  0
SEQEND
  5
367
330
364
100
AcDbEntity
  8
DIBUJOS
 62
     7
370
    18
  0
POLYLINE
  5
368
330
33D
100
AcDbEntity
  8
DIBUJOS
 62
     7
370
    18
100
AcDb2dPolyline
 66
     1
 10
0.0
 20
0.0
 30
0.0
  0
VERTEX
  5
369
330
368
100
AcDbEntity
  8
DIBUJOS
 62
     7
370
    18
100
AcDbVertex
100
AcDb2dVertex
 10
67.20700029180264
 20
32.25973943589572
 30
0.0
  0
VERTEX
  5
36A
330
368
100
AcDbEntity
  8
DIBUJOS
 62
     7
370
    18
100
AcDbVertex
100
AcDb2dVertex
 10
67.20700029180264
 20
32.26536052547877
 30
0.0
  0
SEQEND
  5
36B
330
368
100
AcDbEntity
  8
DIBUJOS
 62
     7
370
    18
  0
POLYLINE
  5
36C
330
33D
100
AcDbEntity
  8
DIBUJOS
 62
     7
370
    18
100
AcDb2dPolyline
 66
     1
 10
0.0
 20
0.0
 30
0.0
  0
VERTEX
  5
36D
330
36C
100
AcDbEntity
  8
DIBUJOS
 62
     7
370
    18
100
AcDbVertex
100
AcDb2dVertex
 10
67.1957071010005
 20
32.24287465406515
 30
0.0
  0
VERTEX
  5
36E
330
36C
100
AcDbEntity
  8
DIBUJOS
 62
     7
370
    18
100
AcDbVertex
100
AcDb2dVertex
 10
67.20135445627173
 20
32.25973943589572
 30
0.0
  0
SEQEND
  5
36F
330
36C
100
AcDbEntity
  8
DIBUJOS
 62
     7
370
    18
  0
POLYLINE
  5
370
330
33D
100
AcDbEntity
  8
DIBUJOS
 62
     7
370
    18
100
AcDb2dPolyline
 66
     1
 10
0.0
 20
0.0
 30
0.0
  0
VERTEX
  5
371
330
370
100
AcDbEntity
  8
DIBUJOS
 62
     7
370
    18
100
AcDbVertex
100
AcDb2dVertex
 10
67.2126476470742
 20
32.24287465406515
 30
0.0
  0
VERTEX
  5
372
330
370
100
AcDbEntity
  8
DIBUJOS
 62
     7
370
    18
100
AcDbVertex
100
AcDb2dVertex
 10
67.20700029180264
 20
32.25973943589572
 30
0.0
  0
SEQEND
  5
373
330
370
100
AcDbEntity
  8
DIBUJOS
 62
     7
370
    18
  0
POLYLINE
  5
374
330
33D
100
AcDbEntity
  8
DIBUJOS
 62
     7
370
    18
100
AcDb2dPolyline
 66
     1
 10
0.0
 20
0.0
 30
0.0
  0
VERTEX
  5
375
330
374
100
AcDbEntity
  8
DIBUJOS
 62
     7
370
    18
100
AcDbVertex
100
AcDb2dVertex
 10
67.1957071010005
 20
32.23725205140262
 30
0.0
  0
VERTEX
  5
376
330
374
100
AcDbEntity
  8
DIBUJOS
 62
     7
370
    18
100
AcDbVertex
100
AcDb2dVertex
 10
67.1957071010005
 20
32.24287465406515
 30
0.0
  0
SEQEND
  5
377
330
374
100
AcDbEntity
  8
DIBUJOS
 62
     7
370
    18
  0
POLYLINE
  5
378
330
33D
100
AcDbEntity
  8
DIBUJOS
 62
     7
370
    18
100
AcDb2dPolyline
 66
     1
 10
0.0
 20
0.0
 30
0.0
  0
VERTEX
  5
379
330
378
100
AcDbEntity
  8
DIBUJOS
 62
     7
370
    18
100
AcDbVertex
100
AcDb2dVertex
 10
67.20135445627173
 20
32.23725205140262
 30
0.0
  0
VERTEX
  5
37A
330
378
100
AcDbEntity
  8
DIBUJOS
 62
     7
370
    18
100
AcDbVertex
100
AcDb2dVertex
 10
67.1957071010005
 20
32.23725205140262
 30
0.0
  0
SEQEND
  5
37B
330
378
100
AcDbEntity
  8
DIBUJOS
 62
     7
370
    18
  0
POLYLINE
  5
37C
330
33D
100
AcDbEntity
  8
DIBUJOS
 62
     7
370
    18
100
AcDb2dPolyline
 66
     1
 10
0.0
 20
0.0
 30
0.0
  0
VERTEX
  5
37D
330
37C
100
AcDbEntity
  8
DIBUJOS
 62
     7
370
    18
100
AcDbVertex
100
AcDb2dVertex
 10
67.20700029180264
 20
32.23725205140262
 30
0.0
  0
VERTEX
  5
37E
330
37C
100
AcDbEntity
  8
DIBUJOS
 62
     7
370
    18
100
AcDbVertex
100
AcDb2dVertex
 10
67.20135445627173
 20
32.23725205140262
 30
0.0
  0
SEQEND
  5
37F
330
37C
100
AcDbEntity
  8
DIBUJOS
 62
     7
370
    18
  0
POLYLINE
  5
380
330
33D
100
AcDbEntity
  8
DIBUJOS
 62
     7
370
    18
100
AcDb2dPolyline
 66
     1
 10
0.0
 20
0.0
 30
0.0
  0
VERTEX
  5
381
330
380
100
AcDbEntity
  8
DIBUJOS
 62
     7
370
    18
100
AcDbVertex
100
AcDb2dVertex
 10
67.2126476470742
 20
32.23725205140262
 30
0.0
  0
VERTEX
  5
382
330
380
100
AcDbEntity
  8
DIBUJOS
 62
     7
370
    18
100
AcDbVertex
100
AcDb2dVertex
 10
67.20700029180264
 20
32.23725205140262
 30
0.0
  0
SEQEND
  5
383
330
380
100
AcDbEntity
  8
DIBUJOS
 62
     7
370
    18
  0
POLYLINE
  5
384
330
33D
100
AcDbEntity
  8
DIBUJOS
 62
     7
370
    18
100
AcDb2dPolyline
 66
     1
 10
0.0
 20
0.0
 30
0.0
  0
VERTEX
  5
385
330
384
100
AcDbEntity
  8
DIBUJOS
 62
     7
370
    18
100
AcDbVertex
100
AcDb2dVertex
 10
67.2126476470742
 20
32.23725205140262
 30
0.0
  0
VERTEX
  5
386
330
384
100
AcDbEntity
  8
DIBUJOS
 62
     7
370
    18
100
AcDbVertex
100
AcDb2dVertex
 10
67.2126476470742
 20
32.24287465406515
 30
0.0
  0
SEQEND
  5
387
330
384
100
AcDbEntity
  8
DIBUJOS
 62
     7
370
    18
  0
POLYLINE
  5
388
330
33D
100
AcDbEntity
  8
DIBUJOS
 62
     7
370
    18
100
AcDb2dPolyline
 66
     1
 10
0.0
 20
0.0
 30
0.0
  0
VERTEX
  5
389
330
388
100
AcDbEntity
  8
DIBUJOS
 62
     7
370
    18
100
AcDbVertex
100
AcDb2dVertex
 10
67.1957071010005
 20
32.23163096181893
 30
0.0
  0
VERTEX
  5
38A
330
388
100
AcDbEntity
  8
DIBUJOS
 62
     7
370
    18
100
AcDbVertex
100
AcDb2dVertex
 10
67.1957071010005
 20
32.23725205140262
 30
0.0
  0
SEQEND
  5
38B
330
388
100
AcDbEntity
  8
DIBUJOS
 62
     7
370
    18
  0
POLYLINE
  5
38C
330
33D
100
AcDbEntity
  8
DIBUJOS
 62
     7
370
    18
100
AcDb2dPolyline
 66
     1
 10
0.0
 20
0.0
 30
0.0
  0
VERTEX
  5
38D
330
38C
100
AcDbEntity
  8
DIBUJOS
 62
     7
370
    18
100
AcDbVertex
100
AcDb2dVertex
 10
67.2126476470742
 20
32.23163096181893
 30
0.0
  0
VERTEX
  5
38E
330
38C
100
AcDbEntity
  8
DIBUJOS
 62
     7
370
    18
100
AcDbVertex
100
AcDb2dVertex
 10
67.2126476470742
 20
32.23725205140262
 30
0.0
  0
SEQEND
  5
38F
330
38C
100
AcDbEntity
  8
DIBUJOS
 62
     7
370
    18
  0
POLYLINE
  5
390
330
33D
100
AcDbEntity
  8
DIBUJOS
 62
     7
370
    18
100
AcDb2dPolyline
 66
     1
 10
0.0
 20
0.0
 30
0.0
  0
VERTEX
  5
391
330
390
100
AcDbEntity
  8
DIBUJOS
 62
     7
370
    18
100
AcDbVertex
100
AcDb2dVertex
 10
63.52549303773414
 20
31.77064865818696
 30
0.0
  0
VERTEX
  5
392
330
390
100
AcDbEntity
  8
DIBUJOS
 62
     7
370
    18
100
AcDbVertex
100
AcDb2dVertex
 10
63.53405069584316
 20
31.78759665937861
 30
0.0
  0
VERTEX
  5
393
330
390
100
AcDbEntity
  8
DIBUJOS
 62
     7
370
    18
100
AcDbVertex
100
AcDb2dVertex
 10
63.56501844567278
 20
33.15359556908222
 30
0.0
  0
VERTEX
  5
394
330
390
100
AcDbEntity
  8
DIBUJOS
 62
     7
370
    18
100
AcDbVertex
100
AcDb2dVertex
 10
63.55372525487032
 20
33.17046035091278
 30
0.0
  0
SEQEND
  5
395
330
390
100
AcDbEntity
  8
DIBUJOS
 62
     7
370
    18
  0
POLYLINE
  5
396
330
33D
100
AcDbEntity
  8
DIBUJOS
 62
     7
370
    18
100
AcDb2dPolyline
 66
     1
 10
0.0
 20
0.0
 30
0.0
  0
VERTEX
  5
397
330
396
100
AcDbEntity
  8
DIBUJOS
 62
     7
370
    18
100
AcDbVertex
100
AcDb2dVertex
 10
63.51984644233306
 20
31.76502605552442
 30
0.0
  0
VERTEX
  5
398
330
396
100
AcDbEntity
  8
DIBUJOS
 62
     7
370
    18
100
AcDbVertex
100
AcDb2dVertex
 10
63.50855325153059
 20
31.76502605552442
 30
0.0
  0
VERTEX
  5
399
330
396
100
AcDbEntity
  8
DIBUJOS
 62
     7
370
    18
100
AcDbVertex
100
AcDb2dVertex
 10
63.49613089362187
 20
31.78132948493572
 30
0.0
  0
VERTEX
  5
39A
330
396
100
AcDbEntity
  8
DIBUJOS
 62
     7
370
    18
100
AcDbVertex
100
AcDb2dVertex
 10
63.49161422519721
 20
31.78751344001752
 30
0.0
  0
VERTEX
  5
39B
330
396
100
AcDbEntity
  8
DIBUJOS
 62
     7
370
    18
100
AcDbVertex
100
AcDb2dVertex
 10
63.50003130732053
 20
32.37212340058547
 30
0.0
  0
VERTEX
  5
39C
330
396
100
AcDbEntity
  8
DIBUJOS
 62
     7
370
    18
100
AcDbVertex
100
AcDb2dVertex
 10
63.52814118535558
 20
33.02976213336179
 30
0.0
  0
VERTEX
  5
39D
330
396
100
AcDbEntity
  8
DIBUJOS
 62
     7
370
    18
100
AcDbVertex
100
AcDb2dVertex
 10
63.52848084733181
 20
33.03568583880452
 30
0.0
  0
VERTEX
  5
39E
330
396
100
AcDbEntity
  8
DIBUJOS
 62
     7
370
    18
100
AcDbVertex
100
AcDb2dVertex
 10
63.53678546866644
 20
33.15921665866591
 30
0.0
  0
VERTEX
  5
39F
330
396
100
AcDbEntity
  8
DIBUJOS
 62
     7
370
    18
100
AcDbVertex
100
AcDb2dVertex
 10
63.55372525487032
 20
33.17046035091278
 30
0.0
  0
SEQEND
  5
3A0
330
396
100
AcDbEntity
  8
DIBUJOS
 62
     7
370
    18
  0
POLYLINE
  5
3A1
330
33D
100
AcDbEntity
  8
DIBUJOS
 62
     7
370
    18
100
AcDb2dPolyline
 66
     1
 10
0.0
 20
0.0
 30
0.0
  0
VERTEX
  5
3A2
330
3A1
100
AcDbEntity
  8
DIBUJOS
 62
     7
370
    18
100
AcDbVertex
100
AcDb2dVertex
 10
63.52549303773414
 20
31.76502605552442
 30
0.0
  0
VERTEX
  5
3A3
330
3A1
100
AcDbEntity
  8
DIBUJOS
 62
     7
370
    18
100
AcDbVertex
100
AcDb2dVertex
 10
63.51984644233306
 20
31.76502605552442
 30
0.0
  0
SEQEND
  5
3A4
330
3A1
100
AcDbEntity
  8
DIBUJOS
 62
     7
370
    18
  0
POLYLINE
  5
3A5
330
33D
100
AcDbEntity
  8
DIBUJOS
 62
     7
370
    18
100
AcDb2dPolyline
 66
     1
 10
0.0
 20
0.0
 30
0.0
  0
VERTEX
  5
3A6
330
3A5
100
AcDbEntity
  8
DIBUJOS
 62
     7
370
    18
100
AcDbVertex
100
AcDb2dVertex
 10
63.52549303773414
 20
31.76502605552442
 30
0.0
  0
VERTEX
  5
3A7
330
3A5
100
AcDbEntity
  8
DIBUJOS
 62
     7
370
    18
100
AcDbVertex
100
AcDb2dVertex
 10
63.52549303773414
 20
31.77064865818696
 30
0.0
  0
SEQEND
  5
3A8
330
3A5
100
AcDbEntity
  8
DIBUJOS
 62
     7
370
    18
  0
POLYLINE
  5
3A9
330
33D
100
AcDbEntity
  8
DIBUJOS
 62
     7
370
    18
100
AcDb2dPolyline
 66
     1
 10
0.0
 20
0.0
 30
0.0
  0
VERTEX
  5
3AA
330
3A9
100
AcDbEntity
  8
DIBUJOS
 62
     7
370
    18
100
AcDbVertex
100
AcDb2dVertex
 10
63.52549303773414
 20
31.75940496594073
 30
0.0
  0
VERTEX
  5
3AB
330
3A9
100
AcDbEntity
  8
DIBUJOS
 62
     7
370
    18
100
AcDbVertex
100
AcDb2dVertex
 10
63.52549303773414
 20
31.76502605552442
 30
0.0
  0
SEQEND
  5
3AC
330
3A9
100
AcDbEntity
  8
DIBUJOS
 62
     7
370
    18
  0
POLYLINE
  5
3AD
330
33D
100
AcDbEntity
  8
DIBUJOS
 62
     7
370
    18
100
AcDb2dPolyline
 66
     1
 10
0.0
 20
0.0
 30
0.0
  0
VERTEX
  5
3AE
330
3AD
100
AcDbEntity
  8
DIBUJOS
 62
     7
370
    18
100
AcDbVertex
100
AcDb2dVertex
 10
67.20135445627173
 20
31.75378236327755
 30
0.0
  0
VERTEX
  5
3AF
330
3AD
100
AcDbEntity
  8
DIBUJOS
 62
     7
370
    18
100
AcDbVertex
100
AcDb2dVertex
 10
67.19843351525134
 20
31.75949575069864
 30
0.0
  0
VERTEX
  5
3B0
330
3AD
100
AcDbEntity
  8
DIBUJOS
 62
     7
370
    18
100
AcDbVertex
100
AcDb2dVertex
 10
67.19006126546927
 20
32.09108707835612
 30
0.0
  0
VERTEX
  5
3B1
330
3AD
100
AcDbEntity
  8
DIBUJOS
 62
     7
370
    18
100
AcDbVertex
100
AcDb2dVertex
 10
67.1957071010005
 20
32.23163096181893
 30
0.0
  0
SEQEND
  5
3B2
330
3AD
100
AcDbEntity
  8
DIBUJOS
 62
     7
370
    18
  0
POLYLINE
  5
3B3
330
33D
100
AcDbEntity
  8
DIBUJOS
 62
     7
370
    18
100
AcDb2dPolyline
 66
     1
 10
0.0
 20
0.0
 30
0.0
  0
VERTEX
  5
3B4
330
3B3
100
AcDbEntity
  8
DIBUJOS
 62
     7
370
    18
100
AcDbVertex
100
AcDb2dVertex
 10
67.20700029180264
 20
31.75378236327755
 30
0.0
  0
VERTEX
  5
3B5
330
3B3
100
AcDbEntity
  8
DIBUJOS
 62
     7
370
    18
100
AcDbVertex
100
AcDb2dVertex
 10
67.20135445627173
 20
31.75378236327755
 30
0.0
  0
SEQEND
  5
3B6
330
3B3
100
AcDbEntity
  8
DIBUJOS
 62
     7
370
    18
  0
POLYLINE
  5
3B7
330
33D
100
AcDbEntity
  8
DIBUJOS
 62
     7
370
    18
100
AcDb2dPolyline
 66
     1
 10
0.0
 20
0.0
 30
0.0
  0
VERTEX
  5
3B8
330
3B7
100
AcDbEntity
  8
DIBUJOS
 62
     7
370
    18
100
AcDbVertex
100
AcDb2dVertex
 10
67.20700029180264
 20
31.75378236327755
 30
0.0
  0
VERTEX
  5
3B9
330
3B7
100
AcDbEntity
  8
DIBUJOS
 62
     7
370
    18
100
AcDbVertex
100
AcDb2dVertex
 10
67.21377681418078
 20
31.7644647031058
 30
0.0
  0
VERTEX
  5
3BA
330
3B7
100
AcDbEntity
  8
DIBUJOS
 62
     7
370
    18
100
AcDbVertex
100
AcDb2dVertex
 10
67.21829348260512
 20
31.77064865818696
 30
0.0
  0
VERTEX
  5
3BB
330
3B7
100
AcDbEntity
  8
DIBUJOS
 62
     7
370
    18
100
AcDbVertex
100
AcDb2dVertex
 10
67.2126476470742
 20
32.23163096181893
 30
0.0
  0
SEQEND
  5
3BC
330
3B7
100
AcDbEntity
  8
DIBUJOS
 62
     7
370
    18
  0
POLYLINE
  5
3BD
330
33D
100
AcDbEntity
  8
DIBUJOS
 62
     7
370
    18
100
AcDb2dPolyline
 66
     1
 10
0.0
 20
0.0
 30
0.0
  0
VERTEX
  5
3BE
330
3BD
100
AcDbEntity
  8
DIBUJOS
 62
     7
370
    18
100
AcDbVertex
100
AcDb2dVertex
 10
67.20135445627173
 20
31.7481612736945
 30
0.0
  0
VERTEX
  5
3BF
330
3BD
100
AcDbEntity
  8
DIBUJOS
 62
     7
370
    18
100
AcDbVertex
100
AcDb2dVertex
 10
67.20135445627173
 20
31.75378236327755
 30
0.0
  0
SEQEND
  5
3C0
330
3BD
100
AcDbEntity
  8
DIBUJOS
 62
     7
370
    18
  0
POLYLINE
  5
3C1
330
33D
100
AcDbEntity
  8
DIBUJOS
 62
     7
370
    18
100
AcDb2dPolyline
 66
     1
 10
0.0
 20
0.0
 30
0.0
  0
VERTEX
  5
3C2
330
3C1
100
AcDbEntity
  8
DIBUJOS
 62
     7
370
    18
100
AcDbVertex
100
AcDb2dVertex
 10
63.46902784359195
 20
30.29213187627631
 30
0.0
  0
VERTEX
  5
3C3
330
3C1
100
AcDbEntity
  8
DIBUJOS
 62
     7
370
    18
100
AcDbVertex
100
AcDb2dVertex
 10
63.49497133170781
 20
30.37683783794893
 30
0.0
  0
VERTEX
  5
3C4
330
3C1
100
AcDbEntity
  8
DIBUJOS
 62
     7
370
    18
100
AcDbVertex
100
AcDb2dVertex
 10
63.49954954961828
 20
30.40418674621881
 30
0.0
  0
VERTEX
  5
3C5
330
3C1
100
AcDbEntity
  8
DIBUJOS
 62
     7
370
    18
100
AcDbVertex
100
AcDb2dVertex
 10
63.52849148551442
 20
30.6127261436125
 30
0.0
  0
VERTEX
  5
3C6
330
3C1
100
AcDbEntity
  8
DIBUJOS
 62
     7
370
    18
100
AcDbVertex
100
AcDb2dVertex
 10
63.53678546866644
 20
30.70814016746086
 30
0.0
  0
VERTEX
  5
3C7
330
3C1
100
AcDbEntity
  8
DIBUJOS
 62
     7
370
    18
100
AcDbVertex
100
AcDb2dVertex
 10
63.52820805393253
 20
31.61333985612779
 30
0.0
  0
VERTEX
  5
3C8
330
3C1
100
AcDbEntity
  8
DIBUJOS
 62
     7
370
    18
100
AcDbVertex
100
AcDb2dVertex
 10
63.52549303773414
 20
31.75940496594073
 30
0.0
  0
SEQEND
  5
3C9
330
3C1
100
AcDbEntity
  8
DIBUJOS
 62
     7
370
    18
  0
POLYLINE
  5
3CA
330
33D
100
AcDbEntity
  8
DIBUJOS
 62
     7
370
    18
100
AcDb2dPolyline
 66
     1
 10
0.0
 20
0.0
 30
0.0
  0
VERTEX
  5
3CB
330
3CA
100
AcDbEntity
  8
DIBUJOS
 62
     7
370
    18
100
AcDbVertex
100
AcDb2dVertex
 10
63.46902784359195
 20
30.2865100301532
 30
0.0
  0
VERTEX
  5
3CC
330
3CA
100
AcDbEntity
  8
DIBUJOS
 62
     7
370
    18
100
AcDbVertex
100
AcDb2dVertex
 10
63.46338124819087
 20
30.2865100301532
 30
0.0
  0
SEQEND
  5
3CD
330
3CA
100
AcDbEntity
  8
DIBUJOS
 62
     7
370
    18
  0
POLYLINE
  5
3CE
330
33D
100
AcDbEntity
  8
DIBUJOS
 62
     7
370
    18
100
AcDb2dPolyline
 66
     1
 10
0.0
 20
0.0
 30
0.0
  0
VERTEX
  5
3CF
330
3CE
100
AcDbEntity
  8
DIBUJOS
 62
     7
370
    18
100
AcDbVertex
100
AcDb2dVertex
 10
63.46902784359195
 20
30.2865100301532
 30
0.0
  0
VERTEX
  5
3D0
330
3CE
100
AcDbEntity
  8
DIBUJOS
 62
     7
370
    18
100
AcDbVertex
100
AcDb2dVertex
 10
63.46902784359195
 20
30.29213187627631
 30
0.0
  0
SEQEND
  5
3D1
330
3CE
100
AcDbEntity
  8
DIBUJOS
 62
     7
370
    18
  0
POLYLINE
  5
3D2
330
33D
100
AcDbEntity
  8
DIBUJOS
 62
     7
370
    18
100
AcDb2dPolyline
 66
     1
 10
0.0
 20
0.0
 30
0.0
  0
VERTEX
  5
3D3
330
3D2
100
AcDbEntity
  8
DIBUJOS
 62
     7
370
    18
100
AcDbVertex
100
AcDb2dVertex
 10
67.2804052721487
 20
30.25840155607576
 30
0.0
  0
VERTEX
  5
3D4
330
3D2
100
AcDbEntity
  8
DIBUJOS
 62
     7
370
    18
100
AcDbVertex
100
AcDb2dVertex
 10
67.27588708398372
 20
30.26458551115757
 30
0.0
  0
VERTEX
  5
3D5
330
3D2
100
AcDbEntity
  8
DIBUJOS
 62
     7
370
    18
100
AcDbVertex
100
AcDb2dVertex
 10
67.25434324428285
 20
30.32067309103168
 30
0.0
  0
VERTEX
  5
3D6
330
3D2
100
AcDbEntity
  8
DIBUJOS
 62
     7
370
    18
100
AcDbVertex
100
AcDb2dVertex
 10
67.20448512146527
 20
30.61232063836155
 30
0.0
  0
VERTEX
  5
3D7
330
3D2
100
AcDbEntity
  8
DIBUJOS
 62
     7
370
    18
100
AcDbVertex
100
AcDb2dVertex
 10
67.19871770670339
 20
30.70235415223447
 30
0.0
  0
VERTEX
  5
3D8
330
3D2
100
AcDbEntity
  8
DIBUJOS
 62
     7
370
    18
100
AcDbVertex
100
AcDb2dVertex
 10
67.1957071010005
 20
31.15787953538602
 30
0.0
  0
VERTEX
  5
3D9
330
3D2
100
AcDbEntity
  8
DIBUJOS
 62
     7
370
    18
100
AcDbVertex
100
AcDb2dVertex
 10
67.20135445627173
 20
31.7481612736945
 30
0.0
  0
SEQEND
  5
3DA
330
3D2
100
AcDbEntity
  8
DIBUJOS
 62
     7
370
    18
  0
POLYLINE
  5
3DB
330
33D
100
AcDbEntity
  8
DIBUJOS
 62
     7
370
    18
100
AcDb2dPolyline
 66
     1
 10
0.0
 20
0.0
 30
0.0
  0
VERTEX
  5
3DC
330
3DB
100
AcDbEntity
  8
DIBUJOS
 62
     7
370
    18
100
AcDbVertex
100
AcDb2dVertex
 10
67.28605110767961
 20
30.25840155607576
 30
0.0
  0
VERTEX
  5
3DD
330
3DB
100
AcDbEntity
  8
DIBUJOS
 62
     7
370
    18
100
AcDbVertex
100
AcDb2dVertex
 10
67.2804052721487
 20
30.25840155607576
 30
0.0
  0
SEQEND
  5
3DE
330
3DB
100
AcDbEntity
  8
DIBUJOS
 62
     7
370
    18
  0
POLYLINE
  5
3DF
330
33D
100
AcDbEntity
  8
DIBUJOS
 62
     7
370
    18
100
AcDb2dPolyline
 66
     1
 10
0.0
 20
0.0
 30
0.0
  0
VERTEX
  5
3E0
330
3DF
100
AcDbEntity
  8
DIBUJOS
 62
     7
370
    18
100
AcDbVertex
100
AcDb2dVertex
 10
67.29169694321085
 20
30.25840155607576
 30
0.0
  0
VERTEX
  5
3E1
330
3DF
100
AcDbEntity
  8
DIBUJOS
 62
     7
370
    18
100
AcDbVertex
100
AcDb2dVertex
 10
67.28605110767961
 20
30.25840155607576
 30
0.0
  0
SEQEND
  5
3E2
330
3DF
100
AcDbEntity
  8
DIBUJOS
 62
     7
370
    18
  0
POLYLINE
  5
3E3
330
33D
100
AcDbEntity
  8
DIBUJOS
 62
     7
370
    18
100
AcDb2dPolyline
 66
     1
 10
0.0
 20
0.0
 30
0.0
  0
VERTEX
  5
3E4
330
3E3
100
AcDbEntity
  8
DIBUJOS
 62
     7
370
    18
100
AcDbVertex
100
AcDb2dVertex
 10
67.28605110767961
 20
30.25277970995265
 30
0.0
  0
VERTEX
  5
3E5
330
3E3
100
AcDbEntity
  8
DIBUJOS
 62
     7
370
    18
100
AcDbVertex
100
AcDb2dVertex
 10
67.28605110767961
 20
30.25840155607576
 30
0.0
  0
SEQEND
  5
3E6
330
3E3
100
AcDbEntity
  8
DIBUJOS
 62
     7
370
    18
  0
POLYLINE
  5
3E7
330
33D
100
AcDbEntity
  8
DIBUJOS
 62
     7
370
    18
100
AcDb2dPolyline
 66
     1
 10
0.0
 20
0.0
 30
0.0
  0
VERTEX
  5
3E8
330
3E7
100
AcDbEntity
  8
DIBUJOS
 62
     7
370
    18
100
AcDbVertex
100
AcDb2dVertex
 10
63.50290665612952
 20
30.23591492812273
 30
0.0
  0
VERTEX
  5
3E9
330
3E7
100
AcDbEntity
  8
DIBUJOS
 62
     7
370
    18
100
AcDbVertex
100
AcDb2dVertex
 10
63.49726006072812
 20
30.23591492812273
 30
0.0
  0
SEQEND
  5
3EA
330
3E7
100
AcDbEntity
  8
DIBUJOS
 62
     7
370
    18
  0
POLYLINE
  5
3EB
330
33D
100
AcDbEntity
  8
DIBUJOS
 62
     7
370
    18
100
AcDb2dPolyline
 66
     1
 10
0.0
 20
0.0
 30
0.0
  0
VERTEX
  5
3EC
330
3EB
100
AcDbEntity
  8
DIBUJOS
 62
     7
370
    18
100
AcDbVertex
100
AcDb2dVertex
 10
67.25217305501285
 20
30.23591492812273
 30
0.0
  0
VERTEX
  5
3ED
330
3EB
100
AcDbEntity
  8
DIBUJOS
 62
     7
370
    18
100
AcDbVertex
100
AcDb2dVertex
 10
67.2465256997413
 20
30.23591492812273
 30
0.0
  0
SEQEND
  5
3EE
330
3EB
100
AcDbEntity
  8
DIBUJOS
 62
     7
370
    18
  0
POLYLINE
  5
3EF
330
33D
100
AcDbEntity
  8
DIBUJOS
 62
     7
370
    18
100
AcDb2dPolyline
 66
     1
 10
0.0
 20
0.0
 30
0.0
  0
VERTEX
  5
3F0
330
3EF
100
AcDbEntity
  8
DIBUJOS
 62
     7
370
    18
100
AcDbVertex
100
AcDb2dVertex
 10
67.29169694321085
 20
30.25840155607576
 30
0.0
  0
VERTEX
  5
3F1
330
3EF
100
AcDbEntity
  8
DIBUJOS
 62
     7
370
    18
100
AcDbVertex
100
AcDb2dVertex
 10
67.30242631033052
 20
30.25671522920098
 30
0.0
  0
VERTEX
  5
3F2
330
3EF
100
AcDbEntity
  8
DIBUJOS
 62
     7
370
    18
100
AcDbVertex
100
AcDb2dVertex
 10
67.36453658013346
 20
30.21230332571289
 30
0.0
  0
VERTEX
  5
3F3
330
3EF
100
AcDbEntity
  8
DIBUJOS
 62
     7
370
    18
100
AcDbVertex
100
AcDb2dVertex
 10
67.37124623393431
 20
30.20979010100251
 30
0.0
  0
VERTEX
  5
3F4
330
3EF
100
AcDbEntity
  8
DIBUJOS
 62
     7
370
    18
100
AcDbVertex
100
AcDb2dVertex
 10
67.45544593023635
 20
30.19094091567659
 30
0.0
  0
VERTEX
  5
3F5
330
3EF
100
AcDbEntity
  8
DIBUJOS
 62
     7
370
    18
100
AcDbVertex
100
AcDb2dVertex
 10
67.5858138197006
 20
30.21144314013299
 30
0.0
  0
VERTEX
  5
3F6
330
3EF
100
AcDbEntity
  8
DIBUJOS
 62
     7
370
    18
100
AcDbVertex
100
AcDb2dVertex
 10
67.60175589634132
 20
30.21541194712626
 30
0.0
  0
VERTEX
  5
3F7
330
3EF
100
AcDbEntity
  8
DIBUJOS
 62
     7
370
    18
100
AcDbVertex
100
AcDb2dVertex
 10
67.66349686923068
 20
30.24845532932584
 30
0.0
  0
VERTEX
  5
3F8
330
3EF
100
AcDbEntity
  8
DIBUJOS
 62
     7
370
    18
100
AcDbVertex
100
AcDb2dVertex
 10
67.68130518706447
 20
30.25840155607576
 30
0.0
  0
VERTEX
  5
3F9
330
3EF
100
AcDbEntity
  8
DIBUJOS
 62
     7
370
    18
100
AcDbVertex
100
AcDb2dVertex
 10
67.72760559764026
 20
30.31967824139441
 30
0.0
  0
VERTEX
  5
3FA
330
3EF
100
AcDbEntity
  8
DIBUJOS
 62
     7
370
    18
100
AcDbVertex
100
AcDb2dVertex
 10
67.73381677659462
 20
30.3365437797644
 30
0.0
  0
VERTEX
  5
3FB
330
3EF
100
AcDbEntity
  8
DIBUJOS
 62
     7
370
    18
100
AcDbVertex
100
AcDb2dVertex
 10
67.74906281213896
 20
30.35959251667613
 30
0.0
  0
VERTEX
  5
3FC
330
3EF
100
AcDbEntity
  8
DIBUJOS
 62
     7
370
    18
100
AcDbVertex
100
AcDb2dVertex
 10
67.82246779248501
 20
30.32024035035246
 30
0.0
  0
VERTEX
  5
3FD
330
3EF
100
AcDbEntity
  8
DIBUJOS
 62
     7
370
    18
100
AcDbVertex
100
AcDb2dVertex
 10
67.86763903595426
 20
30.32024035035246
 30
0.0
  0
VERTEX
  5
3FE
330
3EF
100
AcDbEntity
  8
DIBUJOS
 62
     7
370
    18
100
AcDbVertex
100
AcDb2dVertex
 10
67.89500348133036
 20
30.332781508095
 30
0.0
  0
VERTEX
  5
3FF
330
3EF
100
AcDbEntity
  8
DIBUJOS
 62
     7
370
    18
100
AcDbVertex
100
AcDb2dVertex
 10
67.93539666102875
 20
30.36521436279924
 30
0.0
  0
VERTEX
  5
400
330
3EF
100
AcDbEntity
  8
DIBUJOS
 62
     7
370
    18
100
AcDbVertex
100
AcDb2dVertex
 10
67.94941626608238
 20
30.3944863948544
 30
0.0
  0
VERTEX
  5
401
330
3EF
100
AcDbEntity
  8
DIBUJOS
 62
     7
370
    18
100
AcDbVertex
100
AcDb2dVertex
 10
67.95432958674779
 20
30.40969208523653
 30
0.0
  0
VERTEX
  5
402
330
3EF
100
AcDbEntity
  8
DIBUJOS
 62
     7
370
    18
100
AcDbVertex
100
AcDb2dVertex
 10
67.95798304263369
 20
30.44954054156904
 30
0.0
  0
VERTEX
  5
403
330
3EF
100
AcDbEntity
  8
DIBUJOS
 62
     7
370
    18
100
AcDbVertex
100
AcDb2dVertex
 10
67.95034330771745
 20
30.47153163605265
 30
0.0
  0
VERTEX
  5
404
330
3EF
100
AcDbEntity
  8
DIBUJOS
 62
     7
370
    18
100
AcDbVertex
100
AcDb2dVertex
 10
67.93669907853901
 20
30.49537927883291
 30
0.0
  0
VERTEX
  5
405
330
3EF
100
AcDbEntity
  8
DIBUJOS
 62
     7
370
    18
100
AcDbVertex
100
AcDb2dVertex
 10
67.88017841387295
 20
30.55212731781851
 30
0.0
  0
VERTEX
  5
406
330
3EF
100
AcDbEntity
  8
DIBUJOS
 62
     7
370
    18
100
AcDbVertex
100
AcDb2dVertex
 10
67.78858822007729
 20
30.63505768093793
 30
0.0
  0
VERTEX
  5
407
330
3EF
100
AcDbEntity
  8
DIBUJOS
 62
     7
370
    18
100
AcDbVertex
100
AcDb2dVertex
 10
67.81992222733982
 20
31.01194455039262
 30
0.0
  0
VERTEX
  5
408
330
3EF
100
AcDbEntity
  8
DIBUJOS
 62
     7
370
    18
100
AcDbVertex
100
AcDb2dVertex
 10
67.83068350900732
 20
31.13517880671229
 30
0.0
  0
VERTEX
  5
409
330
3EF
100
AcDbEntity
  8
DIBUJOS
 62
     7
370
    18
100
AcDbVertex
100
AcDb2dVertex
 10
67.87056301645562
 20
31.81009463542687
 30
0.0
  0
VERTEX
  5
40A
330
3EF
100
AcDbEntity
  8
DIBUJOS
 62
     7
370
    18
100
AcDbVertex
100
AcDb2dVertex
 10
67.8816844765944
 20
32.19783330959034
 30
0.0
  0
VERTEX
  5
40B
330
3EF
100
AcDbEntity
  8
DIBUJOS
 62
     7
370
    18
100
AcDbVertex
100
AcDb2dVertex
 10
67.88166927919082
 20
32.71517933006726
 30
0.0
  0
VERTEX
  5
40C
330
3EF
100
AcDbEntity
  8
DIBUJOS
 62
     7
370
    18
100
AcDbVertex
100
AcDb2dVertex
 10
67.87061012840736
 20
33.01291853464153
 30
0.0
  0
VERTEX
  5
40D
330
3EF
100
AcDbEntity
  8
DIBUJOS
 62
     7
370
    18
100
AcDbVertex
100
AcDb2dVertex
 10
67.84753135091755
 20
33.41809090845035
 30
0.0
  0
VERTEX
  5
40E
330
3EF
100
AcDbEntity
  8
DIBUJOS
 62
     7
370
    18
100
AcDbVertex
100
AcDb2dVertex
 10
67.83692812225016
 20
33.51311228822183
 30
0.0
  0
VERTEX
  5
40F
330
3EF
100
AcDbEntity
  8
DIBUJOS
 62
     7
370
    18
100
AcDbVertex
100
AcDb2dVertex
 10
67.79652430436916
 20
33.82296217947962
 30
0.0
  0
VERTEX
  5
410
330
3EF
100
AcDbEntity
  8
DIBUJOS
 62
     7
370
    18
100
AcDbVertex
100
AcDb2dVertex
 10
67.75241991864988
 20
34.05831409853329
 30
0.0
  0
VERTEX
  5
411
330
3EF
100
AcDbEntity
  8
DIBUJOS
 62
     7
370
    18
100
AcDbVertex
100
AcDb2dVertex
 10
67.6906044784816
 20
34.33366275568969
 30
0.0
  0
VERTEX
  5
412
330
3EF
100
AcDbEntity
  8
DIBUJOS
 62
     7
370
    18
100
AcDbVertex
100
AcDb2dVertex
 10
67.56638241913507
 20
34.82275504647729
 30
0.0
  0
VERTEX
  5
413
330
3EF
100
AcDbEntity
  8
DIBUJOS
 62
     7
370
    18
100
AcDbVertex
100
AcDb2dVertex
 10
67.48819481579686
 20
35.06442255851115
 30
0.0
  0
VERTEX
  5
414
330
3EF
100
AcDbEntity
  8
DIBUJOS
 62
     7
370
    18
100
AcDbVertex
100
AcDb2dVertex
 10
67.45713892102539
 20
35.1554948013208
 30
0.0
  0
VERTEX
  5
415
330
3EF
100
AcDbEntity
  8
DIBUJOS
 62
     7
370
    18
100
AcDbVertex
100
AcDb2dVertex
 10
67.40575649860148
 20
35.27355130029051
 30
0.0
  0
VERTEX
  5
416
330
3EF
100
AcDbEntity
  8
DIBUJOS
 62
     7
370
    18
100
AcDbVertex
100
AcDb2dVertex
 10
67.37526594725313
 20
35.3342666331899
 30
0.0
  0
VERTEX
  5
417
330
3EF
100
AcDbEntity
  8
DIBUJOS
 62
     7
370
    18
100
AcDbVertex
100
AcDb2dVertex
 10
67.27910133489844
 20
35.49699377220664
 30
0.0
  0
VERTEX
  5
418
330
3EF
100
AcDbEntity
  8
DIBUJOS
 62
     7
370
    18
100
AcDbVertex
100
AcDb2dVertex
 10
67.2704144988565
 20
35.50996691408833
 30
0.0
  0
VERTEX
  5
419
330
3EF
100
AcDbEntity
  8
DIBUJOS
 62
     7
370
    18
100
AcDbVertex
100
AcDb2dVertex
 10
67.16182904833342
 20
35.66088900844021
 30
0.0
  0
VERTEX
  5
41A
330
3EF
100
AcDbEntity
  8
DIBUJOS
 62
     7
370
    18
100
AcDbVertex
100
AcDb2dVertex
 10
67.10536309432106
 20
35.7171059565938
 30
0.0
  0
VERTEX
  5
41B
330
3EF
100
AcDbEntity
  8
DIBUJOS
 62
     7
370
    18
100
AcDbVertex
100
AcDb2dVertex
 10
67.03659028266901
 20
35.76635214843169
 30
0.0
  0
VERTEX
  5
41C
330
3EF
100
AcDbEntity
  8
DIBUJOS
 62
     7
370
    18
100
AcDbVertex
100
AcDb2dVertex
 10
66.92380730920212
 20
35.83386574660662
 30
0.0
  0
VERTEX
  5
41D
330
3EF
100
AcDbEntity
  8
DIBUJOS
 62
     7
370
    18
100
AcDbVertex
100
AcDb2dVertex
 10
66.76600962552544
 20
35.91274257029281
 30
0.0
  0
VERTEX
  5
41E
330
3EF
100
AcDbEntity
  8
DIBUJOS
 62
     7
370
    18
100
AcDbVertex
100
AcDb2dVertex
 10
66.75019976629798
 20
35.92061360878883
 30
0.0
  0
VERTEX
  5
41F
330
3EF
100
AcDbEntity
  8
DIBUJOS
 62
     7
370
    18
100
AcDbVertex
100
AcDb2dVertex
 10
66.54579772396856
 20
36.00775033235016
 30
0.0
  0
VERTEX
  5
420
330
3EF
100
AcDbEntity
  8
DIBUJOS
 62
     7
370
    18
100
AcDbVertex
100
AcDb2dVertex
 10
66.52434050946955
 20
36.01618272326544
 30
0.0
  0
VERTEX
  5
421
330
3EF
100
AcDbEntity
  8
DIBUJOS
 62
     7
370
    18
100
AcDbVertex
100
AcDb2dVertex
 10
66.2748325725072
 20
36.09740028062251
 30
0.0
  0
VERTEX
  5
422
330
3EF
100
AcDbEntity
  8
DIBUJOS
 62
     7
370
    18
100
AcDbVertex
100
AcDb2dVertex
 10
66.20242454185382
 20
36.11823386944506
 30
0.0
  0
VERTEX
  5
423
330
3EF
100
AcDbEntity
  8
DIBUJOS
 62
     7
370
    18
100
AcDbVertex
100
AcDb2dVertex
 10
65.90232444746772
 20
36.18134894610777
 30
0.0
  0
VERTEX
  5
424
330
3EF
100
AcDbEntity
  8
DIBUJOS
 62
     7
370
    18
100
AcDbVertex
100
AcDb2dVertex
 10
65.73357247509432
 20
36.2029980846707
 30
0.0
  0
VERTEX
  5
425
330
3EF
100
AcDbEntity
  8
DIBUJOS
 62
     7
370
    18
100
AcDbVertex
100
AcDb2dVertex
 10
65.64279078318404
 20
36.21477740698806
 30
0.0
  0
VERTEX
  5
426
330
3EF
100
AcDbEntity
  8
DIBUJOS
 62
     7
370
    18
100
AcDbVertex
100
AcDb2dVertex
 10
65.38883228650349
 20
36.22868411879502
 30
0.0
  0
VERTEX
  5
427
330
3EF
100
AcDbEntity
  8
DIBUJOS
 62
     7
370
    18
100
AcDbVertex
100
AcDb2dVertex
 10
65.1741324833233
 20
36.22010495918837
 30
0.0
  0
VERTEX
  5
428
330
3EF
100
AcDbEntity
  8
DIBUJOS
 62
     7
370
    18
100
AcDbVertex
100
AcDb2dVertex
 10
65.0221151322016
 20
36.20939689701262
 30
0.0
  0
VERTEX
  5
429
330
3EF
100
AcDbEntity
  8
DIBUJOS
 62
     7
370
    18
100
AcDbVertex
100
AcDb2dVertex
 10
64.71733499729929
 20
36.16468237766485
 30
0.0
  0
VERTEX
  5
42A
330
3EF
100
AcDbEntity
  8
DIBUJOS
 62
     7
370
    18
100
AcDbVertex
100
AcDb2dVertex
 10
64.58746634255169
 20
36.1365739035887
 30
0.0
  0
VERTEX
  5
42B
330
3EF
100
AcDbEntity
  8
DIBUJOS
 62
     7
370
    18
100
AcDbVertex
100
AcDb2dVertex
 10
64.33908453321462
 20
36.06929180654571
 30
0.0
  0
VERTEX
  5
42C
330
3EF
100
AcDbEntity
  8
DIBUJOS
 62
     7
370
    18
100
AcDbVertex
100
AcDb2dVertex
 10
64.32221161558802
 20
36.06396728050375
 30
0.0
  0
VERTEX
  5
42D
330
3EF
100
AcDbEntity
  8
DIBUJOS
 62
     7
370
    18
100
AcDbVertex
100
AcDb2dVertex
 10
64.08393000085087
 20
35.97683055694242
 30
0.0
  0
VERTEX
  5
42E
330
3EF
100
AcDbEntity
  8
DIBUJOS
 62
     7
370
    18
100
AcDbVertex
100
AcDb2dVertex
 10
64.06247354622202
 20
35.96839816602778
 30
0.0
  0
VERTEX
  5
42F
330
3EF
100
AcDbEntity
  8
DIBUJOS
 62
     7
370
    18
100
AcDbVertex
100
AcDb2dVertex
 10
63.84790672032621
 20
35.8677693143861
 30
0.0
  0
VERTEX
  5
430
330
3EF
100
AcDbEntity
  8
DIBUJOS
 62
     7
370
    18
100
AcDbVertex
100
AcDb2dVertex
 10
63.790009170871
 20
35.83646067759924
 30
0.0
  0
VERTEX
  5
431
330
3EF
100
AcDbEntity
  8
DIBUJOS
 62
     7
370
    18
100
AcDbVertex
100
AcDb2dVertex
 10
63.63379201719468
 20
35.73824367435489
 30
0.0
  0
VERTEX
  5
432
330
3EF
100
AcDbEntity
  8
DIBUJOS
 62
     7
370
    18
100
AcDbVertex
100
AcDb2dVertex
 10
63.58650225562816
 20
35.70161202460555
 30
0.0
  0
VERTEX
  5
433
330
3EF
100
AcDbEntity
  8
DIBUJOS
 62
     7
370
    18
100
AcDbVertex
100
AcDb2dVertex
 10
63.54380970872685
 20
35.65417093636741
 30
0.0
  0
VERTEX
  5
434
330
3EF
100
AcDbEntity
  8
DIBUJOS
 62
     7
370
    18
100
AcDbVertex
100
AcDb2dVertex
 10
63.52122332712191
 20
35.62606246229062
 30
0.0
  0
VERTEX
  5
435
330
3EF
100
AcDbEntity
  8
DIBUJOS
 62
     7
370
    18
100
AcDbVertex
100
AcDb2dVertex
 10
63.4082192314291
 20
35.4632626954673
 30
0.0
  0
VERTEX
  5
436
330
3EF
100
AcDbEntity
  8
DIBUJOS
 62
     7
370
    18
100
AcDbVertex
100
AcDb2dVertex
 10
63.39432044573596
 20
35.44250627368852
 30
0.0
  0
VERTEX
  5
437
330
3EF
100
AcDbEntity
  8
DIBUJOS
 62
     7
370
    18
100
AcDbVertex
100
AcDb2dVertex
 10
63.28721142299731
 20
35.23982173663003
 30
0.0
  0
VERTEX
  5
438
330
3EF
100
AcDbEntity
  8
DIBUJOS
 62
     7
370
    18
100
AcDbVertex
100
AcDb2dVertex
 10
63.28156482759591
 20
35.22857804438316
 30
0.0
  0
VERTEX
  5
439
330
3EF
100
AcDbEntity
  8
DIBUJOS
 62
     7
370
    18
100
AcDbVertex
100
AcDb2dVertex
 10
63.16807061562873
 20
34.90813811113515
 30
0.0
  0
VERTEX
  5
43A
330
3EF
100
AcDbEntity
  8
DIBUJOS
 62
     7
370
    18
100
AcDbVertex
100
AcDb2dVertex
 10
63.07208001354822
 20
34.55397012730551
 30
0.0
  0
VERTEX
  5
43B
330
3EF
100
AcDbEntity
  8
DIBUJOS
 62
     7
370
    18
100
AcDbVertex
100
AcDb2dVertex
 10
62.96301584480354
 20
34.08637112791381
 30
0.0
  0
VERTEX
  5
43C
330
3EF
100
AcDbEntity
  8
DIBUJOS
 62
     7
370
    18
100
AcDbVertex
100
AcDb2dVertex
 10
62.9304402096467
 20
33.918584251732
 30
0.0
  0
VERTEX
  5
43D
330
3EF
100
AcDbEntity
  8
DIBUJOS
 62
     7
370
    18
100
AcDbVertex
100
AcDb2dVertex
 10
62.89060781415046
 20
33.67106868821969
 30
0.0
  0
VERTEX
  5
43E
330
3EF
100
AcDbEntity
  8
DIBUJOS
 62
     7
370
    18
100
AcDbVertex
100
AcDb2dVertex
 10
62.86237483714445
 20
33.42371199803404
 30
0.0
  0
VERTEX
  5
43F
330
3EF
100
AcDbEntity
  8
DIBUJOS
 62
     7
370
    18
100
AcDbVertex
100
AcDb2dVertex
 10
62.83395417220035
 20
32.91200068485495
 30
0.0
  0
VERTEX
  5
440
330
3EF
100
AcDbEntity
  8
DIBUJOS
 62
     7
370
    18
100
AcDbVertex
100
AcDb2dVertex
 10
62.82532888564421
 20
32.67012588095779
 30
0.0
  0
VERTEX
  5
441
330
3EF
100
AcDbEntity
  8
DIBUJOS
 62
     7
370
    18
100
AcDbVertex
100
AcDb2dVertex
 10
62.82532888564421
 20
32.19789988507895
 30
0.0
  0
VERTEX
  5
442
330
3EF
100
AcDbEntity
  8
DIBUJOS
 62
     7
370
    18
100
AcDbVertex
100
AcDb2dVertex
 10
62.84494341492588
 20
31.69207747651879
 30
0.0
  0
VERTEX
  5
443
330
3EF
100
AcDbEntity
  8
DIBUJOS
 62
     7
370
    18
100
AcDbVertex
100
AcDb2dVertex
 10
62.85622824715623
 20
31.46159313355988
 30
0.0
  0
VERTEX
  5
444
330
3EF
100
AcDbEntity
  8
DIBUJOS
 62
     7
370
    18
100
AcDbVertex
100
AcDb2dVertex
 10
62.91884003128632
 20
30.69100076173895
 30
0.0
  0
VERTEX
  5
445
330
3EF
100
AcDbEntity
  8
DIBUJOS
 62
     7
370
    18
100
AcDbVertex
100
AcDb2dVertex
 10
62.92441975811076
 20
30.64044878246916
 30
0.0
  0
VERTEX
  5
446
330
3EF
100
AcDbEntity
  8
DIBUJOS
 62
     7
370
    18
100
AcDbVertex
100
AcDb2dVertex
 10
62.93261191865703
 20
30.55073150216813
 30
0.0
  0
VERTEX
  5
447
330
3EF
100
AcDbEntity
  8
DIBUJOS
 62
     7
370
    18
100
AcDbVertex
100
AcDb2dVertex
 10
62.91567213245349
 20
30.53948780992189
 30
0.0
  0
VERTEX
  5
448
330
3EF
100
AcDbEntity
  8
DIBUJOS
 62
     7
370
    18
100
AcDbVertex
100
AcDb2dVertex
 10
62.88049090240598
 20
30.50100112495603
 30
0.0
  0
VERTEX
  5
449
330
3EF
100
AcDbEntity
  8
DIBUJOS
 62
     7
370
    18
100
AcDbVertex
100
AcDb2dVertex
 10
62.85920769818146
 20
30.46640532339897
 30
0.0
  0
VERTEX
  5
44A
330
3EF
100
AcDbEntity
  8
DIBUJOS
 62
     7
370
    18
100
AcDbVertex
100
AcDb2dVertex
 10
62.85920769818146
 20
30.40456652912226
 30
0.0
  0
VERTEX
  5
44B
330
3EF
100
AcDbEntity
  8
DIBUJOS
 62
     7
370
    18
100
AcDbVertex
100
AcDb2dVertex
 10
62.87185573753739
 20
30.37746954855458
 30
0.0
  0
VERTEX
  5
44C
330
3EF
100
AcDbEntity
  8
DIBUJOS
 62
     7
370
    18
100
AcDbVertex
100
AcDb2dVertex
 10
62.88743991531732
 20
30.35397067055301
 30
0.0
  0
VERTEX
  5
44D
330
3EF
100
AcDbEntity
  8
DIBUJOS
 62
     7
370
    18
100
AcDbVertex
100
AcDb2dVertex
 10
62.92746379810213
 20
30.32784659997222
 30
0.0
  0
VERTEX
  5
44E
330
3EF
100
AcDbEntity
  8
DIBUJOS
 62
     7
370
    18
100
AcDbVertex
100
AcDb2dVertex
 10
62.97213732659568
 20
30.32024035035246
 30
0.0
  0
VERTEX
  5
44F
330
3EF
100
AcDbEntity
  8
DIBUJOS
 62
     7
370
    18
100
AcDbVertex
100
AcDb2dVertex
 10
62.98907711279954
 20
30.29775372239943
 30
0.0
  0
VERTEX
  5
450
330
3EF
100
AcDbEntity
  8
DIBUJOS
 62
     7
370
    18
100
AcDbVertex
100
AcDb2dVertex
 10
63.03424911613894
 20
30.25277970995265
 30
0.0
  0
VERTEX
  5
451
330
3EF
100
AcDbEntity
  8
DIBUJOS
 62
     7
370
    18
100
AcDbVertex
100
AcDb2dVertex
 10
63.09127813396425
 20
30.22073571662817
 30
0.0
  0
VERTEX
  5
452
330
3EF
100
AcDbEntity
  8
DIBUJOS
 62
     7
370
    18
100
AcDbVertex
100
AcDb2dVertex
 10
63.10144139779032
 20
30.21736306287795
 30
0.0
  0
VERTEX
  5
453
330
3EF
100
AcDbEntity
  8
DIBUJOS
 62
     7
370
    18
100
AcDbVertex
100
AcDb2dVertex
 10
63.17562524508346
 20
30.1991213788884
 30
0.0
  0
VERTEX
  5
454
330
3EF
100
AcDbEntity
  8
DIBUJOS
 62
     7
370
    18
100
AcDbVertex
100
AcDb2dVertex
 10
63.24316858676384
 20
30.19094091567659
 30
0.0
  0
VERTEX
  5
455
330
3EF
100
AcDbEntity
  8
DIBUJOS
 62
     7
370
    18
100
AcDbVertex
100
AcDb2dVertex
 10
63.29442107138466
 20
30.20002166106935
 30
0.0
  0
VERTEX
  5
456
330
3EF
100
AcDbEntity
  8
DIBUJOS
 62
     7
370
    18
100
AcDbVertex
100
AcDb2dVertex
 10
63.31613816148921
 20
30.2043460416968
 30
0.0
  0
VERTEX
  5
457
330
3EF
100
AcDbEntity
  8
DIBUJOS
 62
     7
370
    18
100
AcDbVertex
100
AcDb2dVertex
 10
63.41764466129787
 20
30.26514762011626
 30
0.0
  0
VERTEX
  5
458
330
3EF
100
AcDbEntity
  8
DIBUJOS
 62
     7
370
    18
100
AcDbVertex
100
AcDb2dVertex
 10
63.46338124819087
 20
30.2865100301532
 30
0.0
  0
SEQEND
  5
459
330
3EF
100
AcDbEntity
  8
DIBUJOS
 62
     7
370
    18
  0
POLYLINE
  5
45A
330
33D
100
AcDbEntity
  8
DIBUJOS
 62
     7
370
    18
100
AcDb2dPolyline
 66
     1
 10
0.0
 20
0.0
 30
0.0
  0
VERTEX
  5
45B
330
45A
100
AcDbEntity
  8
DIBUJOS
 62
     7
370
    18
100
AcDbVertex
100
AcDb2dVertex
 10
63.46902784359195
 20
30.2865100301532
 30
0.0
  0
VERTEX
  5
45C
330
45A
100
AcDbEntity
  8
DIBUJOS
 62
     7
370
    18
100
AcDbVertex
100
AcDb2dVertex
 10
63.47467443899335
 20
30.28088818402944
 30
0.0
  0
VERTEX
  5
45D
330
45A
100
AcDbEntity
  8
DIBUJOS
 62
     7
370
    18
100
AcDbVertex
100
AcDb2dVertex
 10
63.45635776800063
 20
30.24825484631864
 30
0.0
  0
VERTEX
  5
45E
330
45A
100
AcDbEntity
  8
DIBUJOS
 62
     7
370
    18
100
AcDbVertex
100
AcDb2dVertex
 10
63.43514903105502
 20
30.21904938975274
 30
0.0
  0
VERTEX
  5
45F
330
45A
100
AcDbEntity
  8
DIBUJOS
 62
     7
370
    18
100
AcDbVertex
100
AcDb2dVertex
 10
63.46387972303737
 20
30.20416825487939
 30
0.0
  0
VERTEX
  5
460
330
45A
100
AcDbEntity
  8
DIBUJOS
 62
     7
370
    18
100
AcDbVertex
100
AcDb2dVertex
 10
63.54186748051456
 20
30.18363274267805
 30
0.0
  0
VERTEX
  5
461
330
45A
100
AcDbEntity
  8
DIBUJOS
 62
     7
370
    18
100
AcDbVertex
100
AcDb2dVertex
 10
63.7741521996918
 20
30.14290367419603
 30
0.0
  0
VERTEX
  5
462
330
45A
100
AcDbEntity
  8
DIBUJOS
 62
     7
370
    18
100
AcDbVertex
100
AcDb2dVertex
 10
63.96568736004986
 20
30.12656695703978
 30
0.0
  0
VERTEX
  5
463
330
45A
100
AcDbEntity
  8
DIBUJOS
 62
     7
370
    18
100
AcDbVertex
100
AcDb2dVertex
 10
64.33846903835877
 20
30.10393129077518
 30
0.0
  0
VERTEX
  5
464
330
45A
100
AcDbEntity
  8
DIBUJOS
 62
     7
370
    18
100
AcDbVertex
100
AcDb2dVertex
 10
64.69989597637908
 20
30.09262858843714
 30
0.0
  0
VERTEX
  5
465
330
45A
100
AcDbEntity
  8
DIBUJOS
 62
     7
370
    18
100
AcDbVertex
100
AcDb2dVertex
 10
65.64857035586886
 20
30.08412735241368
 30
0.0
  0
VERTEX
  5
466
330
45A
100
AcDbEntity
  8
DIBUJOS
 62
     7
370
    18
100
AcDbVertex
100
AcDb2dVertex
 10
66.2752672182574
 20
30.09811652704231
 30
0.0
  0
VERTEX
  5
467
330
45A
100
AcDbEntity
  8
DIBUJOS
 62
     7
370
    18
100
AcDbVertex
100
AcDb2dVertex
 10
66.76636068555445
 20
30.12603889236546
 30
0.0
  0
VERTEX
  5
468
330
45A
100
AcDbEntity
  8
DIBUJOS
 62
     7
370
    18
100
AcDbVertex
100
AcDb2dVertex
 10
66.90187593570344
 20
30.13728182807227
 30
0.0
  0
VERTEX
  5
469
330
45A
100
AcDbEntity
  8
DIBUJOS
 62
     7
370
    18
100
AcDbVertex
100
AcDb2dVertex
 10
67.13880802097827
 20
30.17061572149689
 30
0.0
  0
VERTEX
  5
46A
330
45A
100
AcDbEntity
  8
DIBUJOS
 62
     7
370
    18
100
AcDbVertex
100
AcDb2dVertex
 10
67.17933189834959
 20
30.17801089655493
 30
0.0
  0
VERTEX
  5
46B
330
45A
100
AcDbEntity
  8
DIBUJOS
 62
     7
370
    18
100
AcDbVertex
100
AcDb2dVertex
 10
67.29734429848241
 20
30.20780569750651
 30
0.0
  0
VERTEX
  5
46C
330
45A
100
AcDbEntity
  8
DIBUJOS
 62
     7
370
    18
100
AcDbVertex
100
AcDb2dVertex
 10
67.30863748928488
 20
30.21904938975274
 30
0.0
  0
VERTEX
  5
46D
330
45A
100
AcDbEntity
  8
DIBUJOS
 62
     7
370
    18
100
AcDbVertex
100
AcDb2dVertex
 10
67.28742799246878
 20
30.24825484631864
 30
0.0
  0
VERTEX
  5
46E
330
45A
100
AcDbEntity
  8
DIBUJOS
 62
     7
370
    18
100
AcDbVertex
100
AcDb2dVertex
 10
67.28605110767961
 20
30.25277970995265
 30
0.0
  0
SEQEND
  5
46F
330
45A
100
AcDbEntity
  8
DIBUJOS
 62
     7
370
    18
  0
ENDBLK
  5
340
330
33D
100
AcDbEntity
  8
0
100
AcDbBlockEnd
  0
ENDSEC
  0
SECTION
  2
ENTITIES
  0
MTEXT
  5
41
330
1F
100
AcDbEntity
  8
REFERENCIAS
 62
   255
100
AcDbMText
 10
61.49112712594395
 20
54.85563098807646
 30
0.0
 40
1.49859999962535
 41
0.0
 46
0.0
 71
     7
 72
     1
  1
\fMyriad Pro|b0|i0|c0|p34;\W1;MIREL_2313__CHAIR
 73
     1
 44
1.0
  0
MTEXT
  5
43
330
1F
100
AcDbEntity
  8
M_U+00C1RGENES
 62
   255
100
AcDbMText
 10
90.14127864703391
 20
23.7555119243149
 30
0.0
 40
1.748366666229575
 41
0.0
 46
0.0
 71
     7
 72
     1
  1
\fMyriad Pro|b0|i0|c0|p34;\W1;400
 73
     1
 44
1.0
  0
MTEXT
  5
44
330
1F
100
AcDbEntity
  8
M_U+00C1RGENES
 62
   255
100
AcDbMText
 10
84.21176331851954
 20
20.50332059082737
 30
0.0
 40
1.748366666229575
 41
0.0
 46
0.0
 71
     7
 72
     1
  1
\fMyriad Pro|b0|i0|c0|p34;\W1;400
 73
     1
 44
1.0
  0
POLYLINE
  5
45
330
1F
100
AcDbEntity
  8
M_U+00C1RGENES
 62
   255
370
    18
100
AcDb2dPolyline
 66
     1
 10
0.0
 20
0.0
 30
0.0
  0
VERTEX
  5
46
330
45
100
AcDbEntity
  8
M_U+00C1RGENES
 62
   255
370
    18
100
AcDbVertex
100
AcDb2dVertex
 10
84.41666477502157
 20
24.76314475783758
 30
0.0
  0
VERTEX
  5
47
330
45
100
AcDbEntity
  8
M_U+00C1RGENES
 62
   255
370
    18
100
AcDbVertex
100
AcDb2dVertex
 10
94.99999810570907
 20
19.74726776251925
 30
0.0
  0
SEQEND
  5
48
330
45
100
AcDbEntity
  8
M_U+00C1RGENES
 62
   255
370
    18
  0
POLYLINE
  5
49
330
1F
100
AcDbEntity
  8
M_U+00C1RGENES
 62
   254
370
    35
100
AcDb2dPolyline
 66
     1
 10
0.0
 20
0.0
 30
0.0
  0
VERTEX
  5
4A
330
49
100
AcDbEntity
  8
M_U+00C1RGENES
 62
   254
370
    35
100
AcDbVertex
100
AcDb2dVertex
 10
54.99999767595828
 20
20.88258920325216
 30
0.0
  0
VERTEX
  5
4B
330
49
100
AcDbEntity
  8
M_U+00C1RGENES
 62
   254
370
    35
100
AcDbVertex
100
AcDb2dVertex
 10
54.99999767595828
 20
19.74726776251925
 30
0.0
  0
SEQEND
  5
4C
330
49
100
AcDbEntity
  8
M_U+00C1RGENES
 62
   254
370
    35
  0
POLYLINE
  5
4D
330
1F
100
AcDbEntity
  8
M_U+00C1RGENES
 62
   255
370
    35
100
AcDb2dPolyline
 66
     1
 10
0.0
 20
0.0
 30
0.0
  0
VERTEX
  5
4E
330
4D
100
AcDbEntity
  8
M_U+00C1RGENES
 62
   255
370
    35
100
AcDbVertex
100
AcDb2dVertex
 10
94.99999797321169
 20
59.74726768656564
 30
0.0
  0
VERTEX
  5
4F
330
4D
100
AcDbEntity
  8
M_U+00C1RGENES
 62
   255
370
    35
100
AcDbVertex
100
AcDb2dVertex
 10
93.86467653247878
 20
59.74726768651462
 30
0.0
  0
SEQEND
  5
50
330
4D
100
AcDbEntity
  8
M_U+00C1RGENES
 62
   255
370
    35
  0
INSERT
  5
53
330
1F
100
AcDbEntity
  8
DIBUJOS
100
AcDbBlockReference
  2
block 2
 10
0.0
 20
0.0
 30
0.0
  0
INSERT
  5
217
330
1F
100
AcDbEntity
  8
DIBUJOS
100
AcDbBlockReference
  2
block 3
 10
0.0
 20
0.0
 30
0.0
  0
INSERT
  5
33E
330
1F
100
AcDbEntity
  8
DIBUJOS
100
AcDbBlockReference
  2
block 4
 10
0.0
 20
0.0
 30
0.0
  0
POLYLINE
  5
471
330
1F
100
AcDbEntity
  8
COTAS LINEA
 62
     7
370
    18
100
AcDb2dPolyline
 66
     1
 10
0.0
 20
0.0
 30
0.0
  0
VERTEX
  5
472
330
471
100
AcDbEntity
  8
COTAS LINEA
 62
     7
370
    18
100
AcDbVertex
100
AcDb2dVertex
 10
69.76132681352657
 20
50.31493054297682
 30
0.0
  0
VERTEX
  5
473
330
471
100
AcDbEntity
  8
COTAS LINEA
 62
     7
370
    18
100
AcDbVertex
100
AcDb2dVertex
 10
69.76132681438997
 20
43.74254372232647
 30
0.0
  0
SEQEND
  5
474
330
471
100
AcDbEntity
  8
COTAS LINEA
 62
     7
370
    18
  0
POLYLINE
  5
475
330
1F
100
AcDbEntity
  8
COTAS LINEA
 62
     7
370
    18
100
AcDb2dPolyline
 66
     1
 10
0.0
 20
0.0
 30
0.0
  0
VERTEX
  5
476
330
475
100
AcDbEntity
  8
COTAS LINEA
 62
     7
370
    18
100
AcDbVertex
100
AcDb2dVertex
 10
83.9963356028308
 20
47.4701151266208
 30
0.0
  0
VERTEX
  5
477
330
475
100
AcDbEntity
  8
COTAS LINEA
 62
     7
370
    18
100
AcDbVertex
100
AcDb2dVertex
 10
83.9963356041373
 20
43.74254394882057
 30
0.0
  0
SEQEND
  5
478
330
475
100
AcDbEntity
  8
COTAS LINEA
 62
     7
370
    18
  0
POLYLINE
  5
479
330
1F
100
AcDbEntity
  8
COTAS LINEA
 62
     7
370
    18
100
AcDb2dPolyline
 66
     1
 10
0.0
 20
0.0
 30
0.0
  0
VERTEX
  5
47A
330
479
100
AcDbEntity
  8
COTAS LINEA
 62
     7
370
    18
100
AcDbVertex
100
AcDb2dVertex
 10
77.60114350859065
 20
40.07230686707011
 30
0.0
  0
VERTEX
  5
47B
330
479
100
AcDbEntity
  8
COTAS LINEA
 62
     7
370
    18
100
AcDbVertex
100
AcDb2dVertex
 10
81.89979539879809
 20
40.07230686707011
 30
0.0
  0
SEQEND
  5
47C
330
479
100
AcDbEntity
  8
COTAS LINEA
 62
     7
370
    18
  0
POLYLINE
  5
47D
330
1F
100
AcDbEntity
  8
COTAS LINEA
 62
     7
370
    18
100
AcDb2dPolyline
 66
     1
 10
0.0
 20
0.0
 30
0.0
  0
VERTEX
  5
47E
330
47D
100
AcDbEntity
  8
COTAS LINEA
 62
     7
370
    18
100
AcDbVertex
100
AcDb2dVertex
 10
62.92673609537943
 20
40.07230686707011
 30
0.0
  0
VERTEX
  5
47F
330
47D
100
AcDbEntity
  8
COTAS LINEA
 62
     7
370
    18
100
AcDbVertex
100
AcDb2dVertex
 10
67.89246118287188
 20
40.07230686707011
 30
0.0
  0
SEQEND
  5
480
330
47D
100
AcDbEntity
  8
COTAS LINEA
 62
     7
370
    18
  0
MTEXT
  5
482
330
1F
100
AcDbEntity
  8
COTAS N_U+00DAMERO
 62
     7
100
AcDbMText
 10
70.53663981051797
 20
46.15579595471539
 30
0.0
 40
1.998533025814148
 41
0.0
 46
0.0
 71
     7
 72
     1
  1
\fMyriad Pro|b0|i0|c0|p34;\W1;83
 73
     1
 44
1.0
  0
MTEXT
  5
483
330
1F
100
AcDbEntity
  8
COTAS N_U+00DAMERO
 62
     7
100
AcDbMText
 10
84.75489338769258
 20
44.76742247415971
 30
0.0
 40
1.998533025814148
 41
0.0
 46
0.0
 71
     7
 72
     1
  1
\fMyriad Pro|b0|i0|c0|p34;\W1;48
 73
     1
 44
1.0
  0
MTEXT
  5
484
330
1F
100
AcDbEntity
  8
COTAS N_U+00DAMERO
 62
     7
100
AcDbMText
 10
78.1737274822198
 20
40.62745122953498
 30
0.0
 40
1.998533025814148
 41
0.0
 46
0.0
 71
     7
 72
     1
  1
\fMyriad Pro|b0|i0|c0|p34;\W1;56
 73
     1
 44
1.0
  0
MTEXT
  5
485
330
1F
100
AcDbEntity
  8
COTAS N_U+00DAMERO
 62
     7
100
AcDbMText
 10
63.90396972754072
 20
40.62727897476071
 30
0.0
 40
1.998533025814148
 41
0.0
 46
0.0
 71
     7
 72
     1
  1
\fMyriad Pro|b0|i0|c0|p34;\W1;51
 73
     1
 44
1.0
  0
POLYLINE
  5
486
330
1F
100
AcDbEntity
  8
COTAS N_U+00DAMERO
370
     0
100
AcDb2dPolyline
 66
     1
 10
0.0
 20
0.0
 30
0.0
  0
VERTEX
  5
487
330
486
100
AcDbEntity
  8
COTAS N_U+00DAMERO
370
     0
100
AcDbVertex
100
AcDb2dVertex
 10
54.85813968769237
 20
58.77601738541906
 30
0.0
  0
VERTEX
  5
488
330
486
100
AcDbEntity
  8
COTAS N_U+00DAMERO
370
     0
100
AcDbVertex
100
AcDb2dVertex
 10
54.85813968769237
 20
58.78163998808192
 30
0.0
  0
SEQEND
  5
489
330
486
100
AcDbEntity
  8
COTAS N_U+00DAMERO
370
     0
  0
POLYLINE
  5
48A
330
1F
100
AcDbEntity
  8
COTAS N_U+00DAMERO
370
     0
100
AcDb2dPolyline
 66
     1
 10
0.0
 20
0.0
 30
0.0
  0
VERTEX
  5
48B
330
48A
100
AcDbEntity
  8
COTAS N_U+00DAMERO
370
     0
100
AcDbVertex
100
AcDb2dVertex
 10
54.86378628309377
 20
58.77601738541906
 30
0.0
  0
VERTEX
  5
48C
330
48A
100
AcDbEntity
  8
COTAS N_U+00DAMERO
370
     0
100
AcDbVertex
100
AcDb2dVertex
 10
54.85813968769237
 20
58.77601738541906
 30
0.0
  0
SEQEND
  5
48D
330
48A
100
AcDbEntity
  8
COTAS N_U+00DAMERO
370
     0
  0
POLYLINE
  5
48E
330
1F
100
AcDbEntity
  8
COTAS N_U+00DAMERO
370
     0
100
AcDb2dPolyline
 66
     1
 10
0.0
 20
0.0
 30
0.0
  0
VERTEX
  5
48F
330
48E
100
AcDbEntity
  8
COTAS N_U+00DAMERO
370
     0
100
AcDbVertex
100
AcDb2dVertex
 10
54.85813968769237
 20
58.7703947827562
 30
0.0
  0
VERTEX
  5
490
330
48E
100
AcDbEntity
  8
COTAS N_U+00DAMERO
370
     0
100
AcDbVertex
100
AcDb2dVertex
 10
54.85813968769237
 20
58.77601738541906
 30
0.0
  0
SEQEND
  5
491
330
48E
100
AcDbEntity
  8
COTAS N_U+00DAMERO
370
     0
  0
POLYLINE
  5
492
330
1F
100
AcDbEntity
  8
COTAS N_U+00DAMERO
370
     0
100
AcDb2dPolyline
 66
     1
 10
0.0
 20
0.0
 30
0.0
  0
VERTEX
  5
493
330
492
100
AcDbEntity
  8
COTAS N_U+00DAMERO
370
     0
100
AcDbVertex
100
AcDb2dVertex
 10
54.86378628309377
 20
58.764775206252
 30
0.0
  0
VERTEX
  5
494
330
492
100
AcDbEntity
  8
COTAS N_U+00DAMERO
370
     0
100
AcDbVertex
100
AcDb2dVertex
 10
54.85813968769237
 20
58.7703947827562
 30
0.0
  0
SEQEND
  5
495
330
492
100
AcDbEntity
  8
COTAS N_U+00DAMERO
370
     0
  0
POLYLINE
  5
496
330
1F
100
AcDbEntity
  8
COTAS N_U+00DAMERO
370
     0
100
AcDb2dPolyline
 66
     1
 10
0.0
 20
0.0
 30
0.0
  0
VERTEX
  5
497
330
496
100
AcDbEntity
  8
COTAS N_U+00DAMERO
370
     0
100
AcDbVertex
100
AcDb2dVertex
 10
54.86943249855992
 20
58.764775206252
 30
0.0
  0
VERTEX
  5
498
330
496
100
AcDbEntity
  8
COTAS N_U+00DAMERO
370
     0
100
AcDbVertex
100
AcDb2dVertex
 10
54.86378628309377
 20
58.764775206252
 30
0.0
  0
SEQEND
  5
499
330
496
100
AcDbEntity
  8
COTAS N_U+00DAMERO
370
     0
  0
POLYLINE
  5
49A
330
1F
100
AcDbEntity
  8
COTAS N_U+00DAMERO
370
     0
100
AcDb2dPolyline
 66
     1
 10
0.0
 20
0.0
 30
0.0
  0
VERTEX
  5
49B
330
49A
100
AcDbEntity
  8
COTAS N_U+00DAMERO
370
     0
100
AcDbVertex
100
AcDb2dVertex
 10
54.86943249855992
 20
58.764775206252
 30
0.0
  0
VERTEX
  5
49C
330
49A
100
AcDbEntity
  8
COTAS N_U+00DAMERO
370
     0
100
AcDbVertex
100
AcDb2dVertex
 10
54.875079093961
 20
58.7703947827562
 30
0.0
  0
VERTEX
  5
49D
330
49A
100
AcDbEntity
  8
COTAS N_U+00DAMERO
370
     0
100
AcDbVertex
100
AcDb2dVertex
 10
54.86378628309377
 20
58.77601738541906
 30
0.0
  0
SEQEND
  5
49E
330
49A
100
AcDbEntity
  8
COTAS N_U+00DAMERO
370
     0
  0
POLYLINE
  5
49F
330
1F
100
AcDbEntity
  8
COTAS N_U+00DAMERO
370
     0
100
AcDb2dPolyline
 66
     1
 10
0.0
 20
0.0
 30
0.0
  0
VERTEX
  5
4A0
330
49F
100
AcDbEntity
  8
COTAS N_U+00DAMERO
370
     0
100
AcDbVertex
100
AcDb2dVertex
 10
54.86378628309377
 20
58.75915260358882
 30
0.0
  0
VERTEX
  5
4A1
330
49F
100
AcDbEntity
  8
COTAS N_U+00DAMERO
370
     0
100
AcDbVertex
100
AcDb2dVertex
 10
54.86378628309377
 20
58.764775206252
 30
0.0
  0
SEQEND
  5
4A2
330
49F
100
AcDbEntity
  8
COTAS N_U+00DAMERO
370
     0
  0
POLYLINE
  5
4A3
330
1F
100
AcDbEntity
  8
COTAS N_U+00DAMERO
370
     0
100
AcDb2dPolyline
 66
     1
 10
0.0
 20
0.0
 30
0.0
  0
VERTEX
  5
4A4
330
4A3
100
AcDbEntity
  8
COTAS N_U+00DAMERO
370
     0
100
AcDbVertex
100
AcDb2dVertex
 10
54.86378628309377
 20
58.7422878217589
 30
0.0
  0
VERTEX
  5
4A5
330
4A3
100
AcDbEntity
  8
COTAS N_U+00DAMERO
370
     0
100
AcDbVertex
100
AcDb2dVertex
 10
54.86378628309377
 20
58.75915260358882
 30
0.0
  0
SEQEND
  5
4A6
330
4A3
100
AcDbEntity
  8
COTAS N_U+00DAMERO
370
     0
  0
POLYLINE
  5
4A7
330
1F
100
AcDbEntity
  8
COTAS N_U+00DAMERO
370
     0
100
AcDb2dPolyline
 66
     1
 10
0.0
 20
0.0
 30
0.0
  0
VERTEX
  5
4A8
330
4A7
100
AcDbEntity
  8
COTAS N_U+00DAMERO
370
     0
100
AcDbVertex
100
AcDb2dVertex
 10
54.85813968769237
 20
58.73666521909604
 30
0.0
  0
VERTEX
  5
4A9
330
4A7
100
AcDbEntity
  8
COTAS N_U+00DAMERO
370
     0
100
AcDbVertex
100
AcDb2dVertex
 10
54.84684668685752
 20
58.7422878217589
 30
0.0
  0
SEQEND
  5
4AA
330
4A7
100
AcDbEntity
  8
COTAS N_U+00DAMERO
370
     0
  0
POLYLINE
  5
4AB
330
1F
100
AcDbEntity
  8
COTAS N_U+00DAMERO
370
     0
100
AcDb2dPolyline
 66
     1
 10
0.0
 20
0.0
 30
0.0
  0
VERTEX
  5
4AC
330
4AB
100
AcDbEntity
  8
COTAS N_U+00DAMERO
370
     0
100
AcDbVertex
100
AcDb2dVertex
 10
54.86378628309377
 20
58.73666521909604
 30
0.0
  0
VERTEX
  5
4AD
330
4AB
100
AcDbEntity
  8
COTAS N_U+00DAMERO
370
     0
100
AcDbVertex
100
AcDb2dVertex
 10
54.85813968769237
 20
58.73666521909604
 30
0.0
  0
SEQEND
  5
4AE
330
4AB
100
AcDbEntity
  8
COTAS N_U+00DAMERO
370
     0
  0
POLYLINE
  5
4AF
330
1F
100
AcDbEntity
  8
COTAS N_U+00DAMERO
370
     0
100
AcDb2dPolyline
 66
     1
 10
0.0
 20
0.0
 30
0.0
  0
VERTEX
  5
4B0
330
4AF
100
AcDbEntity
  8
COTAS N_U+00DAMERO
370
     0
100
AcDbVertex
100
AcDb2dVertex
 10
54.86378628309377
 20
58.73666521909604
 30
0.0
  0
VERTEX
  5
4B1
330
4AF
100
AcDbEntity
  8
COTAS N_U+00DAMERO
370
     0
100
AcDbVertex
100
AcDb2dVertex
 10
54.86378628309377
 20
58.7422878217589
 30
0.0
  0
SEQEND
  5
4B2
330
4AF
100
AcDbEntity
  8
COTAS N_U+00DAMERO
370
     0
  0
POLYLINE
  5
4B3
330
1F
100
AcDbEntity
  8
COTAS N_U+00DAMERO
370
     0
100
AcDb2dPolyline
 66
     1
 10
0.0
 20
0.0
 30
0.0
  0
VERTEX
  5
4B4
330
4B3
100
AcDbEntity
  8
COTAS N_U+00DAMERO
370
     0
100
AcDbVertex
100
AcDb2dVertex
 10
54.86378628309377
 20
58.73104261643285
 30
0.0
  0
VERTEX
  5
4B5
330
4B3
100
AcDbEntity
  8
COTAS N_U+00DAMERO
370
     0
100
AcDbVertex
100
AcDb2dVertex
 10
54.86378628309377
 20
58.73666521909604
 30
0.0
  0
SEQEND
  5
4B6
330
4B3
100
AcDbEntity
  8
COTAS N_U+00DAMERO
370
     0
  0
POLYLINE
  5
4B7
330
1F
100
AcDbEntity
  8
COTAS N_U+00DAMERO
370
     0
100
AcDb2dPolyline
 66
     1
 10
0.0
 20
0.0
 30
0.0
  0
VERTEX
  5
4B8
330
4B7
100
AcDbEntity
  8
COTAS N_U+00DAMERO
370
     0
100
AcDbVertex
100
AcDb2dVertex
 10
54.86378628309377
 20
58.56801437463592
 30
0.0
  0
VERTEX
  5
4B9
330
4B7
100
AcDbEntity
  8
COTAS N_U+00DAMERO
370
     0
100
AcDbVertex
100
AcDb2dVertex
 10
54.86209215249932
 20
58.57869368830519
 30
0.0
  0
VERTEX
  5
4BA
330
4B7
100
AcDbEntity
  8
COTAS N_U+00DAMERO
370
     0
100
AcDbVertex
100
AcDb2dVertex
 10
54.86141453825481
 20
58.69765198253503
 30
0.0
  0
VERTEX
  5
4BB
330
4B7
100
AcDbEntity
  8
COTAS N_U+00DAMERO
370
     0
100
AcDbVertex
100
AcDb2dVertex
 10
54.86378628309377
 20
58.73104261643285
 30
0.0
  0
SEQEND
  5
4BC
330
4B7
100
AcDbEntity
  8
COTAS N_U+00DAMERO
370
     0
  0
ENDSEC
  0
SECTION
  2
OBJECTS
  0
DICTIONARY
  5
C
330
0
100
AcDbDictionary
281
     1
  3
ACAD_GROUP
350
D
  3
ACAD_LAYOUT
350
1A
  3
ACAD_MATERIAL
350
3B
  3
ACAD_MLEADERSTYLE
350
4DE
  3
ACAD_MLINESTYLE
350
17
  3
ACAD_PLOTSETTINGS
350
19
  3
ACAD_PLOTSTYLENAME
350
E
  3
ACAD_TABLESTYLE
350
4DD
  3
ACAD_VISUALSTYLE
350
2A
  0
SUN
  5
3F
330
29
100
AcDbSun
 90
        1
290
     0
 63
     7
421
 16777215
 40
1.0
291
     1
 91
  2455826
 92
 54000000
292
     0
 70
     2
 71
   256
280
     1
  0
DICTIONARY
  5
D
102
{ACAD_REACTORS
330
C
102
}
330
C
100
AcDbDictionary
281
     1
  0
DICTIONARY
  5
1A
102
{ACAD_REACTORS
330
C
102
}
330
C
100
AcDbDictionary
281
     1
  3
Layout1
350
1E
  3
Layout2
350
26
  3
Model
350
22
  0
DICTIONARY
  5
3B
102
{ACAD_REACTORS
330
C
102
}
330
C
100
AcDbDictionary
281
     1
  3
ByBlock
350
3D
  3
ByLayer
350
3C
  3
Global
350
3E
  0
DICTIONARY
  5
4DE
102
{ACAD_REACTORS
330
C
102
}
330
C
100
AcDbDictionary
281
     1
  0
DICTIONARY
  5
17
102
{ACAD_REACTORS
330
C
102
}
330
C
100
AcDbDictionary
281
     1
  3
Standard
350
18
  0
DICTIONARY
  5
19
102
{ACAD_REACTORS
330
C
102
}
330
C
100
AcDbDictionary
281
     1
  0
ACDBDICTIONARYWDFLT
  5
E
102
{ACAD_REACTORS
330
C
102
}
330
C
100
AcDbDictionary
281
     1
  3
Normal
350
F
100
AcDbDictionaryWithDefault
340
F
  0
DICTIONARY
  5
4DD
102
{ACAD_REACTORS
330
C
102
}
330
C
100
AcDbDictionary
281
     1
  0
DICTIONARY
  5
2A
102
{ACAD_REACTORS
330
C
102
}
330
C
100
AcDbDictionary
281
     1
  3
2dWireframe
350
2F
  3
3D Hidden
350
31
  3
3dWireframe
350
30
  3
Basic
350
32
  3
Brighten
350
36
  3
ColorChange
350
3A
  3
Conceptual
350
34
  3
Dim
350
35
  3
Facepattern
350
39
  3
Flat
350
2B
  3
FlatWithEdges
350
2C
  3
Gouraud
350
2D
  3
GouraudWithEdges
350
2E
  3
Linepattern
350
38
  3
Realistic
350
33
  3
Thicken
350
37
  0
LAYOUT
  5
1E
102
{ACAD_REACTORS
330
1A
102
}
330
1A
100
AcDbPlotSettings
  1

  2
none_device
  4

  6

 40
0.0
 41
0.0
 42
0.0
 43
0.0
 44
0.0
 45
0.0
 46
0.0
 47
0.0
 48
0.0
 49
0.0
140
0.0
141
0.0
142
1.0
143
1.0
 70
   688
 72
     0
 73
     0
 74
     5
  7

 75
    16
 76
     0
 77
     2
 78
   300
147
1.0
148
0.0
149
0.0
100
AcDbLayout
  1
Layout1
 70
     1
 71
     1
 10
0.0
 20
0.0
 11
12.0
 21
9.0
 12
0.0
 22
0.0
 32
0.0
 14
1.000000000000000E+20
 24
1.000000000000000E+20
 34
1.000000000000000E+20
 15
-1.000000000000000E+20
 25
-1.000000000000000E+20
 35
-1.000000000000000E+20
146
0.0
 13
0.0
 23
0.0
 33
0.0
 16
1.0
 26
0.0
 36
0.0
 17
0.0
 27
1.0
 37
0.0
 76
     0
330
1B
  0
LAYOUT
  5
26
102
{ACAD_REACTORS
330
1A
102
}
330
1A
100
AcDbPlotSettings
  1

  2
none_device
  4

  6

 40
0.0
 41
0.0
 42
0.0
 43
0.0
 44
0.0
 45
0.0
 46
0.0
 47
0.0
 48
0.0
 49
0.0
140
0.0
141
0.0
142
1.0
143
1.0
 70
   688
 72
     0
 73
     0
 74
     5
  7

 75
    16
 76
     0
 77
     2
 78
   300
147
1.0
148
0.0
149
0.0
100
AcDbLayout
  1
Layout2
 70
     1
 71
     2
 10
0.0
 20
0.0
 11
0.0
 21
0.0
 12
0.0
 22
0.0
 32
0.0
 14
0.0
 24
0.0
 34
0.0
 15
0.0
 25
0.0
 35
0.0
146
0.0
 13
0.0
 23
0.0
 33
0.0
 16
1.0
 26
0.0
 36
0.0
 17
0.0
 27
1.0
 37
0.0
 76
     0
330
23
  0
LAYOUT
  5
22
102
{ACAD_REACTORS
330
1A
102
}
330
1A
100
AcDbPlotSettings
  1

  2
none_device
  4

  6

 40
0.0
 41
0.0
 42
0.0
 43
0.0
 44
0.0
 45
0.0
 46
0.0
 47
0.0
 48
0.0
 49
0.0
140
0.0
141
0.0
142
1.0
143
1.0
 70
  1712
 72
     0
 73
     0
 74
     0
  7

 75
     0
 76
     0
 77
     2
 78
   300
147
1.0
148
0.0
149
0.0
100
AcDbLayout
  1
Model
 70
     1
 71
     0
 10
0.0
 20
0.0
 11
12.0
 21
9.0
 12
0.0
 22
0.0
 32
0.0
 14
1.000000000000000E+20
 24
1.000000000000000E+20
 34
1.000000000000000E+20
 15
-1.000000000000000E+20
 25
-1.000000000000000E+20
 35
-1.000000000000000E+20
146
0.0
 13
0.0
 23
0.0
 33
0.0
 16
1.0
 26
0.0
 36
0.0
 17
0.0
 27
1.0
 37
0.0
 76
     0
330
1F
331
29
  0
MATERIAL
  5
3D
102
{ACAD_REACTORS
330
3B
102
}
330
3B
100
AcDbMaterial
  1
ByBlock
 72
     1
 94
      127
  0
MATERIAL
  5
3C
102
{ACAD_REACTORS
330
3B
102
}
330
3B
100
AcDbMaterial
  1
ByLayer
 72
     1
 94
      127
  0
MATERIAL
  5
3E
102
{ACAD_REACTORS
330
3B
102
}
330
3B
100
AcDbMaterial
  1
Global
 72
     1
 94
      127
  0
MLINESTYLE
  5
18
102
{ACAD_REACTORS
330
17
102
}
330
17
100
AcDbMlineStyle
  2
Standard
 70
     0
  3

 62
   256
 51
90.0
 52
90.0
 71
     2
 49
0.5
 62
   256
  6
BYLAYER
 49
-0.5
 62
   256
  6
BYLAYER
  0
ACDBPLACEHOLDER
  5
F
102
{ACAD_REACTORS
330
E
102
}
330
E
  0
VISUALSTYLE
  5
2F
102
{ACAD_REACTORS
330
2A
102
}
102
{ACAD_XDICTIONARY
360
4C5
102
}
330
2A
100
AcDbVisualStyle
  2
2dWireframe
 70
     4
 71
     0
 72
     2
 73
     0
 90
        0
 40
-0.6
 41
-30.0
 62
     5
 63
     7
421
 16777215
 74
     1
 91
        4
 64
     7
 65
   257
 75
     1
175
     1
 42
1.0
 92
        0
 66
   257
 43
1.0
 76
     1
 77
     6
 78
     2
 67
     7
 79
     5
170
     0
171
     0
290
     0
174
     0
 93
        1
 44
0.0
173
     0
291
     0
 45
0.0
  0
VISUALSTYLE
  5
31
102
{ACAD_REACTORS
330
2A
102
}
102
{ACAD_XDICTIONARY
360
4C9
102
}
330
2A
100
AcDbVisualStyle
  2
3D Hidden
 70
     6
 71
     1
 72
     2
 73
     2
 90
        0
 40
-0.6
 41
-30.0
 62
     5
 63
     7
421
 16777215
 74
     2
 91
        2
 64
     7
 65
   257
 75
     2
175
     1
 42
40.0
 92
        0
 66
   257
 43
1.0
 76
     1
 77
     6
 78
     2
 67
     7
 79
     3
170
     0
171
     0
290
     0
174
     0
 93
        1
 44
0.0
173
     0
291
     0
 45
0.0
  0
VISUALSTYLE
  5
30
102
{ACAD_REACTORS
330
2A
102
}
102
{ACAD_XDICTIONARY
360
4C7
102
}
330
2A
100
AcDbVisualStyle
  2
3dWireframe
 70
     5
 71
     0
 72
     2
 73
     0
 90
        0
 40
-0.6
 41
-30.0
 62
     5
 63
     7
421
 16777215
 74
     1
 91
        4
 64
     7
 65
   257
 75
     1
175
     1
 42
1.0
 92
        0
 66
   257
 43
1.0
 76
     1
 77
     6
 78
     2
 67
     7
 79
     5
170
     0
171
     0
290
     0
174
     0
 93
        1
 44
0.0
173
     0
291
     0
 45
0.0
  0
VISUALSTYLE
  5
32
102
{ACAD_REACTORS
330
2A
102
}
102
{ACAD_XDICTIONARY
360
4CB
102
}
330
2A
100
AcDbVisualStyle
  2
Basic
 70
     7
 71
     1
 72
     0
 73
     1
 90
        0
 40
-0.6
 41
-30.0
 62
     5
 63
     7
421
 16777215
 74
     0
 91
        4
 64
     7
 65
   257
 75
     1
175
     1
 42
1.0
 92
        8
 66
     7
 43
1.0
 76
     1
 77
     6
 78
     2
 67
     7
 79
     5
170
     0
171
     0
290
     0
174
     0
 93
        1
 44
0.0
173
     0
291
     1
 45
0.0
  0
VISUALSTYLE
  5
36
102
{ACAD_REACTORS
330
2A
102
}
102
{ACAD_XDICTIONARY
360
4D3
102
}
330
2A
100
AcDbVisualStyle
  2
Brighten
 70
    12
 71
     2
 72
     2
 73
     0
 90
        0
 40
-0.6
 41
-30.0
 62
     5
 63
     7
421
 16777215
 74
     1
 91
        4
 64
     7
 65
   257
 75
     1
175
     1
 42
1.0
 92
        8
 66
     7
 43
1.0
 76
     1
 77
     6
 78
     2
 67
     7
 79
     5
170
     0
171
     0
290
     0
174
     0
 93
        1
 44
50.0
173
     0
291
     1
 45
0.0
  0
VISUALSTYLE
  5
3A
102
{ACAD_REACTORS
330
2A
102
}
102
{ACAD_XDICTIONARY
360
4DB
102
}
330
2A
100
AcDbVisualStyle
  2
ColorChange
 70
    16
 71
     2
 72
     2
 73
     3
 90
        0
 40
-0.6
 41
-30.0
 62
     5
 63
     8
421
  8421504
 74
     1
 91
        4
 64
     7
 65
   257
 75
     1
175
     1
 42
1.0
 92
        8
 66
     8
424
  8421504
 43
1.0
 76
     1
 77
     6
 78
     2
 67
     7
 79
     5
170
     0
171
     0
290
     0
174
     0
 93
        1
 44
0.0
173
     0
291
     1
 45
0.0
  0
VISUALSTYLE
  5
34
102
{ACAD_REACTORS
330
2A
102
}
102
{ACAD_XDICTIONARY
360
4CF
102
}
330
2A
100
AcDbVisualStyle
  2
Conceptual
 70
     9
 71
     3
 72
     2
 73
     0
 90
        0
 40
-0.6
 41
-30.0
 62
     5
 63
     7
421
 16777215
 74
     2
 91
        2
 64
     7
 65
   257
 75
     1
175
     1
 42
40.0
 92
        8
 66
     7
 43
1.0
 76
     1
 77
     6
 78
     2
 67
     7
 79
     3
170
     0
171
     0
290
     0
174
     0
 93
        1
 44
0.0
173
     0
291
     0
 45
0.0
  0
VISUALSTYLE
  5
35
102
{ACAD_REACTORS
330
2A
102
}
102
{ACAD_XDICTIONARY
360
4D1
102
}
330
2A
100
AcDbVisualStyle
  2
Dim
 70
    11
 71
     2
 72
     2
 73
     0
 90
        0
 40
-0.6
 41
-30.0
 62
     5
 63
     7
421
 16777215
 74
     1
 91
        4
 64
     7
 65
   257
 75
     1
175
     1
 42
1.0
 92
        8
 66
     7
 43
1.0
 76
     1
 77
     6
 78
     2
 67
     7
 79
     5
170
     0
171
     0
290
     0
174
     0
 93
        1
 44
-50.0
173
     0
291
     1
 45
0.0
  0
VISUALSTYLE
  5
39
102
{ACAD_REACTORS
330
2A
102
}
102
{ACAD_XDICTIONARY
360
4D9
102
}
330
2A
100
AcDbVisualStyle
  2
Facepattern
 70
    15
 71
     2
 72
     2
 73
     0
 90
        0
 40
-0.6
 41
-30.0
 62
     5
 63
     7
421
 16777215
 74
     1
 91
        4
 64
     7
 65
   257
 75
     1
175
     1
 42
1.0
 92
        8
 66
     7
 43
1.0
 76
     1
 77
     6
 78
     2
 67
     7
 79
     5
170
     0
171
     0
290
     0
174
     0
 93
        1
 44
0.0
173
     0
291
     1
 45
0.0
  0
VISUALSTYLE
  5
2B
102
{ACAD_REACTORS
330
2A
102
}
102
{ACAD_XDICTIONARY
360
4BD
102
}
330
2A
100
AcDbVisualStyle
  2
Flat
 70
     0
 71
     2
 72
     1
 73
     1
 90
        2
 40
-0.6
 41
30.0
 62
     5
 63
     7
421
 16777215
 74
     0
 91
        4
 64
     7
 65
   257
 75
     1
175
     1
 42
1.0
 92
        8
 66
     7
 43
1.0
 76
     1
 77
     6
 78
     2
 67
     7
 79
     5
170
     0
171
     0
290
     0
174
     0
 93
       13
 44
0.0
173
     0
291
     1
 45
0.0
  0
VISUALSTYLE
  5
2C
102
{ACAD_REACTORS
330
2A
102
}
102
{ACAD_XDICTIONARY
360
4BF
102
}
330
2A
100
AcDbVisualStyle
  2
FlatWithEdges
 70
     1
 71
     2
 72
     1
 73
     1
 90
        2
 40
-0.6
 41
30.0
 62
     5
 63
     7
421
 16777215
 74
     1
 91
        4
 64
     7
 65
   257
 75
     1
175
     1
 42
1.0
 92
        0
 66
   257
 43
1.0
 76
     1
 77
     6
 78
     2
 67
     7
 79
     5
170
     0
171
     0
290
     0
174
     0
 93
       13
 44
0.0
173
     0
291
     1
 45
0.0
  0
VISUALSTYLE
  5
2D
102
{ACAD_REACTORS
330
2A
102
}
102
{ACAD_XDICTIONARY
360
4C1
102
}
330
2A
100
AcDbVisualStyle
  2
Gouraud
 70
     2
 71
     2
 72
     2
 73
     1
 90
        2
 40
-0.6
 41
30.0
 62
     5
 63
     7
421
 16777215
 74
     0
 91
        4
 64
     7
 65
   257
 75
     1
175
     1
 42
1.0
 92
        0
 66
     7
 43
1.0
 76
     1
 77
     6
 78
     2
 67
     7
 79
     5
170
     0
171
     0
290
     0
174
     0
 93
       13
 44
0.0
173
     0
291
     1
 45
0.0
  0
VISUALSTYLE
  5
2E
102
{ACAD_REACTORS
330
2A
102
}
102
{ACAD_XDICTIONARY
360
4C3
102
}
330
2A
100
AcDbVisualStyle
  2
GouraudWithEdges
 70
     3
 71
     2
 72
     2
 73
     1
 90
        2
 40
-0.6
 41
30.0
 62
     5
 63
     7
421
 16777215
 74
     1
 91
        4
 64
     7
 65
   257
 75
     1
175
     1
 42
1.0
 92
        0
 66
   257
 43
1.0
 76
     1
 77
     6
 78
     2
 67
     7
 79
     5
170
     0
171
     0
290
     0
174
     0
 93
       13
 44
0.0
173
     0
291
     1
 45
0.0
  0
VISUALSTYLE
  5
38
102
{ACAD_REACTORS
330
2A
102
}
102
{ACAD_XDICTIONARY
360
4D7
102
}
330
2A
100
AcDbVisualStyle
  2
Linepattern
 70
    14
 71
     2
 72
     2
 73
     0
 90
        0
 40
-0.6
 41
-30.0
 62
     5
 63
     7
421
 16777215
 74
     1
 91
        4
 64
     7
 65
   257
 75
     7
175
     7
 42
1.0
 92
        8
 66
     7
 43
1.0
 76
     1
 77
     6
 78
     2
 67
     7
 79
     5
170
     0
171
     0
290
     0
174
     0
 93
        1
 44
0.0
173
     0
291
     1
 45
0.0
  0
VISUALSTYLE
  5
33
102
{ACAD_REACTORS
330
2A
102
}
102
{ACAD_XDICTIONARY
360
4CD
102
}
330
2A
100
AcDbVisualStyle
  2
Realistic
 70
     8
 71
     2
 72
     2
 73
     0
 90
        0
 40
-0.6
 41
-30.0
 62
     5
 63
     7
421
 16777215
 74
     1
 91
        0
 64
     7
 65
   257
 75
     1
175
     1
 42
1.0
 92
        8
 66
     8
424
  7895160
 43
1.0
 76
     1
 77
     6
 78
     2
 67
     7
 79
     5
170
     0
171
     0
290
     0
174
     0
 93
       13
 44
0.0
173
     0
291
     0
 45
0.0
  0
VISUALSTYLE
  5
37
102
{ACAD_REACTORS
330
2A
102
}
102
{ACAD_XDICTIONARY
360
4D5
102
}
330
2A
100
AcDbVisualStyle
  2
Thicken
 70
    13
 71
     2
 72
     2
 73
     0
 90
        0
 40
-0.6
 41
-30.0
 62
     5
 63
     7
421
 16777215
 74
     1
 91
        4
 64
     7
 65
   257
 75
     1
175
     1
 42
1.0
 92
       12
 66
     7
 43
1.0
 76
     1
 77
     6
 78
     2
 67
     7
 79
     5
170
     0
171
     0
290
     0
174
     0
 93
        1
 44
0.0
173
     0
291
     1
 45
0.0
  0
DICTIONARY
  5
4C5
330
2F
100
AcDbDictionary
280
     1
281
     1
  3
ACAD_XREC_ROUNDTRIP
360
4C6
  0
DICTIONARY
  5
4C9
330
31
100
AcDbDictionary
280
     1
281
     1
  3
ACAD_XREC_ROUNDTRIP
360
4CA
  0
DICTIONARY
  5
4C7
330
30
100
AcDbDictionary
280
     1
281
     1
  3
ACAD_XREC_ROUNDTRIP
360
4C8
  0
DICTIONARY
  5
4CB
330
32
100
AcDbDictionary
280
     1
281
     1
  3
ACAD_XREC_ROUNDTRIP
360
4CC
  0
DICTIONARY
  5
4D3
330
36
100
AcDbDictionary
280
     1
281
     1
  3
ACAD_XREC_ROUNDTRIP
360
4D4
  0
DICTIONARY
  5
4DB
330
3A
100
AcDbDictionary
280
     1
281
     1
  3
ACAD_XREC_ROUNDTRIP
360
4DC
  0
DICTIONARY
  5
4CF
330
34
100
AcDbDictionary
280
     1
281
     1
  3
ACAD_XREC_ROUNDTRIP
360
4D0
  0
DICTIONARY
  5
4D1
330
35
100
AcDbDictionary
280
     1
281
     1
  3
ACAD_XREC_ROUNDTRIP
360
4D2
  0
DICTIONARY
  5
4D9
330
39
100
AcDbDictionary
280
     1
281
     1
  3
ACAD_XREC_ROUNDTRIP
360
4DA
  0
DICTIONARY
  5
4BD
330
2B
100
AcDbDictionary
280
     1
281
     1
  3
ACAD_XREC_ROUNDTRIP
360
4BE
  0
DICTIONARY
  5
4BF
330
2C
100
AcDbDictionary
280
     1
281
     1
  3
ACAD_XREC_ROUNDTRIP
360
4C0
  0
DICTIONARY
  5
4C1
330
2D
100
AcDbDictionary
280
     1
281
     1
  3
ACAD_XREC_ROUNDTRIP
360
4C2
  0
DICTIONARY
  5
4C3
330
2E
100
AcDbDictionary
280
     1
281
     1
  3
ACAD_XREC_ROUNDTRIP
360
4C4
  0
DICTIONARY
  5
4D7
330
38
100
AcDbDictionary
280
     1
281
     1
  3
ACAD_XREC_ROUNDTRIP
360
4D8
  0
DICTIONARY
  5
4CD
330
33
100
AcDbDictionary
280
     1
281
     1
  3
ACAD_XREC_ROUNDTRIP
360
4CE
  0
DICTIONARY
  5
4D5
330
37
100
AcDbDictionary
280
     1
281
     1
  3
ACAD_XREC_ROUNDTRIP
360
4D6
  0
XRECORD
  5
4C6
102
{ACAD_REACTORS
330
4C5
102
}
330
4C5
100
AcDbXrecord
280
     1
102
RTVSPropertyOp0
 70
     1
102
RTVSPropertyOp1
 70
     1
102
RTVSPropertyOp2
 70
     1
102
RTVSPropertyOp3
 70
     1
102
RTVSPropertyOp4
 70
     1
102
RTVSPropertyOp5
 70
     1
102
RTVSPropertyOp6
 70
     1
102
RTVSPropertyOp7
 70
     1
102
RTVSPropertyOp8
 70
     1
102
RTVSPropertyOp9
 70
     1
102
RTVSPropertyOp10
 70
     1
102
RTVSPropertyOp11
 70
     1
102
RTVSPropertyOp12
 70
     1
102
RTVSPropertyOp13
 70
     1
102
RTVSPropertyOp14
 70
     1
102
RTVSPropertyOp15
 70
     1
102
RTVSPropertyOp16
 70
     1
102
RTVSPropertyOp17
 70
     1
102
RTVSPropertyOp18
 70
     1
102
RTVSPropertyOp19
 70
     1
102
RTVSPropertyOp20
 70
     1
102
RTVSPropertyOp21
 70
     1
102
RTVSPropertyOp22
 70
     1
102
RTVSPropertyOp23
 70
     1
102
RTVSPropertyOp24
 70
     1
102
RTVSPropertyOp25
 70
     1
102
RTVSPropertyOp26
 70
     1
102
RTVSPropertyOp27
 70
     1
102
RTVSPropertyOp28
 70
     1
102
RTVSPropertyOp29
 70
     1
102
RTVSPropertyOp30
 70
     1
102
RTVSPropertyOp31
 70
     1
102
RTVSPropertyOp32
 70
     1
  0
XRECORD
  5
4CA
102
{ACAD_REACTORS
330
4C9
102
}
330
4C9
100
AcDbXrecord
280
     1
102
RTVSPropertyOp0
 70
     1
102
RTVSPropertyOp1
 70
     1
102
RTVSPropertyOp2
 70
     1
102
RTVSPropertyOp3
 70
     1
102
RTVSPropertyOp4
 70
     1
102
RTVSPropertyOp5
 70
     1
102
RTVSPropertyOp6
 70
     1
102
RTVSPropertyOp7
 70
     1
102
RTVSPropertyOp8
 70
     1
102
RTVSPropertyOp9
 70
     1
102
RTVSPropertyOp10
 70
     1
102
RTVSPropertyOp11
 70
     1
102
RTVSPropertyOp12
 70
     1
102
RTVSPropertyOp13
 70
     1
102
RTVSPropertyOp14
 70
     1
102
RTVSPropertyOp15
 70
     1
102
RTVSPropertyOp16
 70
     1
102
RTVSPropertyOp17
 70
     1
102
RTVSPropertyOp18
 70
     1
102
RTVSPropertyOp19
 70
     1
102
RTVSPropertyOp20
 70
     1
102
RTVSPropertyOp21
 70
     1
102
RTVSPropertyOp22
 70
     1
102
RTVSPropertyOp23
 70
     1
102
RTVSPropertyOp24
 70
     1
102
RTVSPropertyOp25
 70
     1
102
RTVSPropertyOp26
 70
     1
102
RTVSPropertyOp27
 70
     1
102
RTVSPropertyOp28
 70
     1
102
RTVSPropertyOp29
 70
     1
102
RTVSPropertyOp30
 70
     1
102
RTVSPropertyOp31
 70
     1
102
RTVSPropertyOp32
 70
     1
  0
XRECORD
  5
4C8
102
{ACAD_REACTORS
330
4C7
102
}
330
4C7
100
AcDbXrecord
280
     1
102
RTVSPropertyOp0
 70
     1
102
RTVSPropertyOp1
 70
     1
102
RTVSPropertyOp2
 70
     1
102
RTVSPropertyOp3
 70
     1
102
RTVSPropertyOp4
 70
     1
102
RTVSPropertyOp5
 70
     1
102
RTVSPropertyOp6
 70
     1
102
RTVSPropertyOp7
 70
     1
102
RTVSPropertyOp8
 70
     1
102
RTVSPropertyOp9
 70
     1
102
RTVSPropertyOp10
 70
     1
102
RTVSPropertyOp11
 70
     1
102
RTVSPropertyOp12
 70
     1
102
RTVSPropertyOp13
 70
     1
102
RTVSPropertyOp14
 70
     1
102
RTVSPropertyOp15
 70
     1
102
RTVSPropertyOp16
 70
     1
102
RTVSPropertyOp17
 70
     1
102
RTVSPropertyOp18
 70
     1
102
RTVSPropertyOp19
 70
     1
102
RTVSPropertyOp20
 70
     1
102
RTVSPropertyOp21
 70
     1
102
RTVSPropertyOp22
 70
     1
102
RTVSPropertyOp23
 70
     1
102
RTVSPropertyOp24
 70
     1
102
RTVSPropertyOp25
 70
     1
102
RTVSPropertyOp26
 70
     1
102
RTVSPropertyOp27
 70
     1
102
RTVSPropertyOp28
 70
     1
102
RTVSPropertyOp29
 70
     1
102
RTVSPropertyOp30
 70
     1
102
RTVSPropertyOp31
 70
     1
102
RTVSPropertyOp32
 70
     1
  0
XRECORD
  5
4CC
102
{ACAD_REACTORS
330
4CB
102
}
330
4CB
100
AcDbXrecord
280
     1
102
RTVSPropertyOp0
 70
     1
102
RTVSPropertyOp1
 70
     1
102
RTVSPropertyOp2
 70
     1
102
RTVSPropertyOp3
 70
     1
102
RTVSPropertyOp4
 70
     1
102
RTVSPropertyOp5
 70
     1
102
RTVSPropertyOp6
 70
     1
102
RTVSPropertyOp7
 70
     1
102
RTVSPropertyOp8
 70
     1
102
RTVSPropertyOp9
 70
     1
102
RTVSPropertyOp10
 70
     1
102
RTVSPropertyOp11
 70
     1
102
RTVSPropertyOp12
 70
     1
102
RTVSPropertyOp13
 70
     1
102
RTVSPropertyOp14
 70
     1
102
RTVSPropertyOp15
 70
     1
102
RTVSPropertyOp16
 70
     1
102
RTVSPropertyOp17
 70
     1
102
RTVSPropertyOp18
 70
     1
102
RTVSPropertyOp19
 70
     1
102
RTVSPropertyOp20
 70
     1
102
RTVSPropertyOp21
 70
     1
102
RTVSPropertyOp22
 70
     1
102
RTVSPropertyOp23
 70
     1
102
RTVSPropertyOp24
 70
     1
102
RTVSPropertyOp25
 70
     1
102
RTVSPropertyOp26
 70
     1
102
RTVSPropertyOp27
 70
     1
102
RTVSPropertyOp28
 70
     1
102
RTVSPropertyOp29
 70
     1
102
RTVSPropertyOp30
 70
     1
102
RTVSPropertyOp31
 70
     1
102
RTVSPropertyOp32
 70
     1
  0
XRECORD
  5
4D4
102
{ACAD_REACTORS
330
4D3
102
}
330
4D3
100
AcDbXrecord
280
     1
102
RTVSPropertyOp0
 70
     1
102
RTVSPropertyOp1
 70
     1
102
RTVSPropertyOp2
 70
     1
102
RTVSPropertyOp3
 70
     1
102
RTVSPropertyOp4
 70
     1
102
RTVSPropertyOp5
 70
     1
102
RTVSPropertyOp6
 70
     1
102
RTVSPropertyOp7
 70
     1
102
RTVSPropertyOp8
 70
     1
102
RTVSPropertyOp9
 70
     1
102
RTVSPropertyOp10
 70
     1
102
RTVSPropertyOp11
 70
     1
102
RTVSPropertyOp12
 70
     1
102
RTVSPropertyOp13
 70
     1
102
RTVSPropertyOp14
 70
     1
102
RTVSPropertyOp15
 70
     1
102
RTVSPropertyOp16
 70
     1
102
RTVSPropertyOp17
 70
     1
102
RTVSPropertyOp18
 70
     1
102
RTVSPropertyOp19
 70
     1
102
RTVSPropertyOp20
 70
     1
102
RTVSPropertyOp21
 70
     1
102
RTVSPropertyOp22
 70
     1
102
RTVSPropertyOp23
 70
     1
102
RTVSPropertyOp24
 70
     1
102
RTVSPropertyOp25
 70
     1
102
RTVSPropertyOp26
 70
     1
102
RTVSPropertyOp27
 70
     1
102
RTVSPropertyOp28
 70
     1
102
RTVSPropertyOp29
 70
     1
102
RTVSPropertyOp30
 70
     1
102
RTVSPropertyOp31
 70
     1
102
RTVSPropertyOp32
 70
     1
  0
XRECORD
  5
4DC
102
{ACAD_REACTORS
330
4DB
102
}
330
4DB
100
AcDbXrecord
280
     1
102
RTVSPropertyOp0
 70
     1
102
RTVSPropertyOp1
 70
     1
102
RTVSPropertyOp2
 70
     1
102
RTVSPropertyOp3
 70
     1
102
RTVSPropertyOp4
 70
     1
102
RTVSPropertyOp5
 70
     1
102
RTVSPropertyOp6
 70
     1
102
RTVSPropertyOp7
 70
     1
102
RTVSPropertyOp8
 70
     1
102
RTVSPropertyOp9
 70
     1
102
RTVSPropertyOp10
 70
     1
102
RTVSPropertyOp11
 70
     1
102
RTVSPropertyOp12
 70
     1
102
RTVSPropertyOp13
 70
     1
102
RTVSPropertyOp14
 70
     1
102
RTVSPropertyOp15
 70
     1
102
RTVSPropertyOp16
 70
     1
102
RTVSPropertyOp17
 70
     1
102
RTVSPropertyOp18
 70
     1
102
RTVSPropertyOp19
 70
     1
102
RTVSPropertyOp20
 70
     1
102
RTVSPropertyOp21
 70
     1
102
RTVSPropertyOp22
 70
     1
102
RTVSPropertyOp23
 70
     1
102
RTVSPropertyOp24
 70
     1
102
RTVSPropertyOp25
 70
     1
102
RTVSPropertyOp26
 70
     1
102
RTVSPropertyOp27
 70
     1
102
RTVSPropertyOp28
 70
     1
102
RTVSPropertyOp29
 70
     1
102
RTVSPropertyOp30
 70
     1
102
RTVSPropertyOp31
 70
     1
102
RTVSPropertyOp32
 70
     1
  0
XRECORD
  5
4D0
102
{ACAD_REACTORS
330
4CF
102
}
330
4CF
100
AcDbXrecord
280
     1
102
RTVSPropertyOp0
 70
     1
102
RTVSPropertyOp1
 70
     1
102
RTVSPropertyOp2
 70
     1
102
RTVSPropertyOp3
 70
     1
102
RTVSPropertyOp4
 70
     1
102
RTVSPropertyOp5
 70
     1
102
RTVSPropertyOp6
 70
     1
102
RTVSPropertyOp7
 70
     1
102
RTVSPropertyOp8
 70
     1
102
RTVSPropertyOp9
 70
     1
102
RTVSPropertyOp10
 70
     1
102
RTVSPropertyOp11
 70
     1
102
RTVSPropertyOp12
 70
     1
102
RTVSPropertyOp13
 70
     1
102
RTVSPropertyOp14
 70
     1
102
RTVSPropertyOp15
 70
     1
102
RTVSPropertyOp16
 70
     1
102
RTVSPropertyOp17
 70
     1
102
RTVSPropertyOp18
 70
     1
102
RTVSPropertyOp19
 70
     1
102
RTVSPropertyOp20
 70
     1
102
RTVSPropertyOp21
 70
     1
102
RTVSPropertyOp22
 70
     1
102
RTVSPropertyOp23
 70
     1
102
RTVSPropertyOp24
 70
     1
102
RTVSPropertyOp25
 70
     1
102
RTVSPropertyOp26
 70
     1
102
RTVSPropertyOp27
 70
     1
102
RTVSPropertyOp28
 70
     1
102
RTVSPropertyOp29
 70
     1
102
RTVSPropertyOp30
 70
     1
102
RTVSPropertyOp31
 70
     1
102
RTVSPropertyOp32
 70
     1
  0
XRECORD
  5
4D2
102
{ACAD_REACTORS
330
4D1
102
}
330
4D1
100
AcDbXrecord
280
     1
102
RTVSPropertyOp0
 70
     1
102
RTVSPropertyOp1
 70
     1
102
RTVSPropertyOp2
 70
     1
102
RTVSPropertyOp3
 70
     1
102
RTVSPropertyOp4
 70
     1
102
RTVSPropertyOp5
 70
     1
102
RTVSPropertyOp6
 70
     1
102
RTVSPropertyOp7
 70
     1
102
RTVSPropertyOp8
 70
     1
102
RTVSPropertyOp9
 70
     1
102
RTVSPropertyOp10
 70
     1
102
RTVSPropertyOp11
 70
     1
102
RTVSPropertyOp12
 70
     1
102
RTVSPropertyOp13
 70
     1
102
RTVSPropertyOp14
 70
     1
102
RTVSPropertyOp15
 70
     1
102
RTVSPropertyOp16
 70
     1
102
RTVSPropertyOp17
 70
     1
102
RTVSPropertyOp18
 70
     1
102
RTVSPropertyOp19
 70
     1
102
RTVSPropertyOp20
 70
     1
102
RTVSPropertyOp21
 70
     1
102
RTVSPropertyOp22
 70
     1
102
RTVSPropertyOp23
 70
     1
102
RTVSPropertyOp24
 70
     1
102
RTVSPropertyOp25
 70
     1
102
RTVSPropertyOp26
 70
     1
102
RTVSPropertyOp27
 70
     1
102
RTVSPropertyOp28
 70
     1
102
RTVSPropertyOp29
 70
     1
102
RTVSPropertyOp30
 70
     1
102
RTVSPropertyOp31
 70
     1
102
RTVSPropertyOp32
 70
     1
  0
XRECORD
  5
4DA
102
{ACAD_REACTORS
330
4D9
102
}
330
4D9
100
AcDbXrecord
280
     1
102
RTVSPropertyOp0
 70
     1
102
RTVSPropertyOp1
 70
     1
102
RTVSPropertyOp2
 70
     1
102
RTVSPropertyOp3
 70
     1
102
RTVSPropertyOp4
 70
     1
102
RTVSPropertyOp5
 70
     1
102
RTVSPropertyOp6
 70
     1
102
RTVSPropertyOp7
 70
     1
102
RTVSPropertyOp8
 70
     1
102
RTVSPropertyOp9
 70
     1
102
RTVSPropertyOp10
 70
     1
102
RTVSPropertyOp11
 70
     1
102
RTVSPropertyOp12
 70
     1
102
RTVSPropertyOp13
 70
     1
102
RTVSPropertyOp14
 70
     1
102
RTVSPropertyOp15
 70
     1
102
RTVSPropertyOp16
 70
     1
102
RTVSPropertyOp17
 70
     1
102
RTVSPropertyOp18
 70
     1
102
RTVSPropertyOp19
 70
     1
102
RTVSPropertyOp20
 70
     1
102
RTVSPropertyOp21
 70
     1
102
RTVSPropertyOp22
 70
     1
102
RTVSPropertyOp23
 70
     1
102
RTVSPropertyOp24
 70
     1
102
RTVSPropertyOp25
 70
     1
102
RTVSPropertyOp26
 70
     1
102
RTVSPropertyOp27
 70
     1
102
RTVSPropertyOp28
 70
     1
102
RTVSPropertyOp29
 70
     1
102
RTVSPropertyOp30
 70
     1
102
RTVSPropertyOp31
 70
     1
102
RTVSPropertyOp32
 70
     1
  0
XRECORD
  5
4BE
102
{ACAD_REACTORS
330
4BD
102
}
330
4BD
100
AcDbXrecord
280
     1
102
RTVSPropertyOp0
 70
     1
102
RTVSPropertyOp1
 70
     1
102
RTVSPropertyOp2
 70
     1
102
RTVSPropertyOp3
 70
     1
102
RTVSPropertyOp4
 70
     1
102
RTVSPropertyOp5
 70
     1
102
RTVSPropertyOp6
 70
     1
102
RTVSPropertyOp7
 70
     1
102
RTVSPropertyOp8
 70
     1
102
RTVSPropertyOp9
 70
     1
102
RTVSPropertyOp10
 70
     1
102
RTVSPropertyOp11
 70
     1
102
RTVSPropertyOp12
 70
     1
102
RTVSPropertyOp13
 70
     1
102
RTVSPropertyOp14
 70
     1
102
RTVSPropertyOp15
 70
     1
102
RTVSPropertyOp16
 70
     1
102
RTVSPropertyOp17
 70
     1
102
RTVSPropertyOp18
 70
     1
102
RTVSPropertyOp19
 70
     1
102
RTVSPropertyOp20
 70
     1
102
RTVSPropertyOp21
 70
     1
102
RTVSPropertyOp22
 70
     1
102
RTVSPropertyOp23
 70
     1
102
RTVSPropertyOp24
 70
     1
102
RTVSPropertyOp25
 70
     1
102
RTVSPropertyOp26
 70
     1
102
RTVSPropertyOp27
 70
     1
102
RTVSPropertyOp28
 70
     1
102
RTVSPropertyOp29
 70
     1
102
RTVSPropertyOp30
 70
     1
102
RTVSPropertyOp31
 70
     1
102
RTVSPropertyOp32
 70
     1
  0
XRECORD
  5
4C0
102
{ACAD_REACTORS
330
4BF
102
}
330
4BF
100
AcDbXrecord
280
     1
102
RTVSPropertyOp0
 70
     1
102
RTVSPropertyOp1
 70
     1
102
RTVSPropertyOp2
 70
     1
102
RTVSPropertyOp3
 70
     1
102
RTVSPropertyOp4
 70
     1
102
RTVSPropertyOp5
 70
     1
102
RTVSPropertyOp6
 70
     1
102
RTVSPropertyOp7
 70
     1
102
RTVSPropertyOp8
 70
     1
102
RTVSPropertyOp9
 70
     1
102
RTVSPropertyOp10
 70
     1
102
RTVSPropertyOp11
 70
     1
102
RTVSPropertyOp12
 70
     1
102
RTVSPropertyOp13
 70
     1
102
RTVSPropertyOp14
 70
     1
102
RTVSPropertyOp15
 70
     1
102
RTVSPropertyOp16
 70
     1
102
RTVSPropertyOp17
 70
     1
102
RTVSPropertyOp18
 70
     1
102
RTVSPropertyOp19
 70
     1
102
RTVSPropertyOp20
 70
     1
102
RTVSPropertyOp21
 70
     1
102
RTVSPropertyOp22
 70
     1
102
RTVSPropertyOp23
 70
     1
102
RTVSPropertyOp24
 70
     1
102
RTVSPropertyOp25
 70
     1
102
RTVSPropertyOp26
 70
     1
102
RTVSPropertyOp27
 70
     1
102
RTVSPropertyOp28
 70
     1
102
RTVSPropertyOp29
 70
     1
102
RTVSPropertyOp30
 70
     1
102
RTVSPropertyOp31
 70
     1
102
RTVSPropertyOp32
 70
     1
  0
XRECORD
  5
4C2
102
{ACAD_REACTORS
330
4C1
102
}
330
4C1
100
AcDbXrecord
280
     1
102
RTVSPropertyOp0
 70
     1
102
RTVSPropertyOp1
 70
     1
102
RTVSPropertyOp2
 70
     1
102
RTVSPropertyOp3
 70
     1
102
RTVSPropertyOp4
 70
     1
102
RTVSPropertyOp5
 70
     1
102
RTVSPropertyOp6
 70
     1
102
RTVSPropertyOp7
 70
     1
102
RTVSPropertyOp8
 70
     1
102
RTVSPropertyOp9
 70
     1
102
RTVSPropertyOp10
 70
     1
102
RTVSPropertyOp11
 70
     1
102
RTVSPropertyOp12
 70
     1
102
RTVSPropertyOp13
 70
     1
102
RTVSPropertyOp14
 70
     1
102
RTVSPropertyOp15
 70
     1
102
RTVSPropertyOp16
 70
     1
102
RTVSPropertyOp17
 70
     1
102
RTVSPropertyOp18
 70
     1
102
RTVSPropertyOp19
 70
     1
102
RTVSPropertyOp20
 70
     1
102
RTVSPropertyOp21
 70
     1
102
RTVSPropertyOp22
 70
     1
102
RTVSPropertyOp23
 70
     1
102
RTVSPropertyOp24
 70
     1
102
RTVSPropertyOp25
 70
     1
102
RTVSPropertyOp26
 70
     1
102
RTVSPropertyOp27
 70
     1
102
RTVSPropertyOp28
 70
     1
102
RTVSPropertyOp29
 70
     1
102
RTVSPropertyOp30
 70
     1
102
RTVSPropertyOp31
 70
     1
102
RTVSPropertyOp32
 70
     1
  0
XRECORD
  5
4C4
102
{ACAD_REACTORS
330
4C3
102
}
330
4C3
100
AcDbXrecord
280
     1
102
RTVSPropertyOp0
 70
     1
102
RTVSPropertyOp1
 70
     1
102
RTVSPropertyOp2
 70
     1
102
RTVSPropertyOp3
 70
     1
102
RTVSPropertyOp4
 70
     1
102
RTVSPropertyOp5
 70
     1
102
RTVSPropertyOp6
 70
     1
102
RTVSPropertyOp7
 70
     1
102
RTVSPropertyOp8
 70
     1
102
RTVSPropertyOp9
 70
     1
102
RTVSPropertyOp10
 70
     1
102
RTVSPropertyOp11
 70
     1
102
RTVSPropertyOp12
 70
     1
102
RTVSPropertyOp13
 70
     1
102
RTVSPropertyOp14
 70
     1
102
RTVSPropertyOp15
 70
     1
102
RTVSPropertyOp16
 70
     1
102
RTVSPropertyOp17
 70
     1
102
RTVSPropertyOp18
 70
     1
102
RTVSPropertyOp19
 70
     1
102
RTVSPropertyOp20
 70
     1
102
RTVSPropertyOp21
 70
     1
102
RTVSPropertyOp22
 70
     1
102
RTVSPropertyOp23
 70
     1
102
RTVSPropertyOp24
 70
     1
102
RTVSPropertyOp25
 70
     1
102
RTVSPropertyOp26
 70
     1
102
RTVSPropertyOp27
 70
     1
102
RTVSPropertyOp28
 70
     1
102
RTVSPropertyOp29
 70
     1
102
RTVSPropertyOp30
 70
     1
102
RTVSPropertyOp31
 70
     1
102
RTVSPropertyOp32
 70
     1
  0
XRECORD
  5
4D8
102
{ACAD_REACTORS
330
4D7
102
}
330
4D7
100
AcDbXrecord
280
     1
102
RTVSPropertyOp0
 70
     1
102
RTVSPropertyOp1
 70
     1
102
RTVSPropertyOp2
 70
     1
102
RTVSPropertyOp3
 70
     1
102
RTVSPropertyOp4
 70
     1
102
RTVSPropertyOp5
 70
     1
102
RTVSPropertyOp6
 70
     1
102
RTVSPropertyOp7
 70
     1
102
RTVSPropertyOp8
 70
     1
102
RTVSPropertyOp9
 70
     1
102
RTVSPropertyOp10
 70
     1
102
RTVSPropertyOp11
 70
     1
102
RTVSPropertyOp12
 70
     1
102
RTVSPropertyOp13
 70
     1
102
RTVSPropertyOp14
 70
     1
102
RTVSPropertyOp15
 70
     1
102
RTVSPropertyOp16
 70
     1
102
RTVSPropertyOp17
 70
     1
102
RTVSPropertyOp18
 70
     1
102
RTVSPropertyOp19
 70
     1
102
RTVSPropertyOp20
 70
     1
102
RTVSPropertyOp21
 70
     1
102
RTVSPropertyOp22
 70
     1
102
RTVSPropertyOp23
 70
     1
102
RTVSPropertyOp24
 70
     1
102
RTVSPropertyOp25
 70
     1
102
RTVSPropertyOp26
 70
     1
102
RTVSPropertyOp27
 70
     1
102
RTVSPropertyOp28
 70
     1
102
RTVSPropertyOp29
 70
     1
102
RTVSPropertyOp30
 70
     1
102
RTVSPropertyOp31
 70
     1
102
RTVSPropertyOp32
 70
     1
  0
XRECORD
  5
4CE
102
{ACAD_REACTORS
330
4CD
102
}
330
4CD
100
AcDbXrecord
280
     1
102
RTVSPropertyOp0
 70
     1
102
RTVSPropertyOp1
 70
     1
102
RTVSPropertyOp2
 70
     1
102
RTVSPropertyOp3
 70
     1
102
RTVSPropertyOp4
 70
     1
102
RTVSPropertyOp5
 70
     1
102
RTVSPropertyOp6
 70
     1
102
RTVSPropertyOp7
 70
     1
102
RTVSPropertyOp8
 70
     1
102
RTVSPropertyOp9
 70
     1
102
RTVSPropertyOp10
 70
     1
102
RTVSPropertyOp11
 70
     1
102
RTVSPropertyOp12
 70
     1
102
RTVSPropertyOp13
 70
     1
102
RTVSPropertyOp14
 70
     1
102
RTVSPropertyOp15
 70
     1
102
RTVSPropertyOp16
 70
     1
102
RTVSPropertyOp17
 70
     1
102
RTVSPropertyOp18
 70
     1
102
RTVSPropertyOp19
 70
     1
102
RTVSPropertyOp20
 70
     1
102
RTVSPropertyOp21
 70
     1
102
RTVSPropertyOp22
 70
     1
102
RTVSPropertyOp23
 70
     1
102
RTVSPropertyOp24
 70
     1
102
RTVSPropertyOp25
 70
     1
102
RTVSPropertyOp26
 70
     1
102
RTVSPropertyOp27
 70
     1
102
RTVSPropertyOp28
 70
     1
102
RTVSPropertyOp29
 70
     1
102
RTVSPropertyOp30
 70
     1
102
RTVSPropertyOp31
 70
     1
102
RTVSPropertyOp32
 70
     1
  0
XRECORD
  5
4D6
102
{ACAD_REACTORS
330
4D5
102
}
330
4D5
100
AcDbXrecord
280
     1
102
RTVSPropertyOp0
 70
     1
102
RTVSPropertyOp1
 70
     1
102
RTVSPropertyOp2
 70
     1
102
RTVSPropertyOp3
 70
     1
102
RTVSPropertyOp4
 70
     1
102
RTVSPropertyOp5
 70
     1
102
RTVSPropertyOp6
 70
     1
102
RTVSPropertyOp7
 70
     1
102
RTVSPropertyOp8
 70
     1
102
RTVSPropertyOp9
 70
     1
102
RTVSPropertyOp10
 70
     1
102
RTVSPropertyOp11
 70
     1
102
RTVSPropertyOp12
 70
     1
102
RTVSPropertyOp13
 70
     1
102
RTVSPropertyOp14
 70
     1
102
RTVSPropertyOp15
 70
     1
102
RTVSPropertyOp16
 70
     1
102
RTVSPropertyOp17
 70
     1
102
RTVSPropertyOp18
 70
     1
102
RTVSPropertyOp19
 70
     1
102
RTVSPropertyOp20
 70
     1
102
RTVSPropertyOp21
 70
     1
102
RTVSPropertyOp22
 70
     1
102
RTVSPropertyOp23
 70
     1
102
RTVSPropertyOp24
 70
     1
102
RTVSPropertyOp25
 70
     1
102
RTVSPropertyOp26
 70
     1
102
RTVSPropertyOp27
 70
     1
102
RTVSPropertyOp28
 70
     1
102
RTVSPropertyOp29
 70
     1
102
RTVSPropertyOp30
 70
     1
102
RTVSPropertyOp31
 70
     1
102
RTVSPropertyOp32
 70
     1
  0
ENDSEC
  0
EOF
