  0
SECTION
  2
HEADER
  9
$ACADVER
  1
AC1014
  9
$ACADMAINTVER
 70
     9
  9
$DWGCODEPAGE
  3
ANSI_1252
  9
$INSBASE
 10
0.0
 20
0.0
 30
0.0
  9
$EXTMIN
 10
1.000000000000000E+20
 20
1.000000000000000E+20
 30
1.000000000000000E+20
  9
$EXTMAX
 10
-1.000000000000000E+20
 20
-1.000000000000000E+20
 30
-1.000000000000000E+20
  9
$LIMMIN
 10
0.0
 20
0.0
  9
$LIMMAX
 10
12.0
 20
9.0
  9
$ORTHOMODE
 70
     0
  9
$REGENMODE
 70
     1
  9
$FILLMODE
 70
     1
  9
$QTEXTMODE
 70
     0
  9
$MIRRTEXT
 70
     1
  9
$DRAGMODE
 70
     2
  9
$LTSCALE
 40
1.0
  9
$OSMODE
 70
    37
  9
$ATTMODE
 70
     1
  9
$TEXTSIZE
 40
0.2
  9
$TRACEWID
 40
0.05
  9
$TEXTSTYLE
  7
STANDARD
  9
$CLAYER
  8
0
  9
$CELTYPE
  6
BYLAYER
  9
$CECOLOR
 62
   256
  9
$CELTSCALE
 40
1.0
  9
$DELOBJ
 70
     1
  9
$DISPSILH
 70
     0
  9
$DIMSCALE
 40
1.0
  9
$DIMASZ
 40
0.18
  9
$DIMEXO
 40
0.0625
  9
$DIMDLI
 40
0.38
  9
$DIMRND
 40
0.0
  9
$DIMDLE
 40
0.0
  9
$DIMEXE
 40
0.18
  9
$DIMTP
 40
0.0
  9
$DIMTM
 40
0.0
  9
$DIMTXT
 40
0.18
  9
$DIMCEN
 40
0.09
  9
$DIMTSZ
 40
0.0
  9
$DIMTOL
 70
     0
  9
$DIMLIM
 70
     0
  9
$DIMTIH
 70
     1
  9
$DIMTOH
 70
     1
  9
$DIMSE1
 70
     0
  9
$DIMSE2
 70
     0
  9
$DIMTAD
 70
     0
  9
$DIMZIN
 70
     0
  9
$DIMBLK
  1

  9
$DIMASO
 70
     1
  9
$DIMSHO
 70
     1
  9
$DIMPOST
  1

  9
$DIMAPOST
  1

  9
$DIMALT
 70
     0
  9
$DIMALTD
 70
     2
  9
$DIMALTF
 40
25.4
  9
$DIMLFAC
 40
1.0
  9
$DIMTOFL
 70
     0
  9
$DIMTVP
 40
0.0
  9
$DIMTIX
 70
     0
  9
$DIMSOXD
 70
     0
  9
$DIMSAH
 70
     0
  9
$DIMBLK1
  1

  9
$DIMBLK2
  1

  9
$DIMSTYLE
  2
STANDARD
  9
$DIMCLRD
 70
     0
  9
$DIMCLRE
 70
     0
  9
$DIMCLRT
 70
     0
  9
$DIMTFAC
 40
1.0
  9
$DIMGAP
 40
0.09
  9
$DIMJUST
 70
     0
  9
$DIMSD1
 70
     0
  9
$DIMSD2
 70
     0
  9
$DIMTOLJ
 70
     1
  9
$DIMTZIN
 70
     0
  9
$DIMALTZ
 70
     0
  9
$DIMALTTZ
 70
     0
  9
$DIMFIT
 70
     3
  9
$DIMUPT
 70
     0
  9
$DIMUNIT
 70
     2
  9
$DIMDEC
 70
     4
  9
$DIMTDEC
 70
     4
  9
$DIMALTU
 70
     2
  9
$DIMALTTD
 70
     2
  9
$DIMTXSTY
  7
STANDARD
  9
$DIMAUNIT
 70
     0
  9
$LUNITS
 70
     2
  9
$LUPREC
 70
     4
  9
$SKETCHINC
 40
0.1
  9
$FILLETRAD
 40
0.5
  9
$AUNITS
 70
     0
  9
$AUPREC
 70
     0
  9
$MENU
  1
.
  9
$ELEVATION
 40
0.0
  9
$PELEVATION
 40
0.0
  9
$THICKNESS
 40
0.0
  9
$LIMCHECK
 70
     0
  9
$CHAMFERA
 40
0.5
  9
$CHAMFERB
 40
0.5
  9
$CHAMFERC
 40
1.0
  9
$CHAMFERD
 40
0.0
  9
$SKPOLY
 70
     0
  9
$TDCREATE
 40
2460490.653792685
  9
$TDUPDATE
 40
2460490.653792755
  9
$TDINDWG
 40
0.0000000116
  9
$TDUSRTIMER
 40
0.0000000116
  9
$USRTIMER
 70
     1
  9
$ANGBASE
 50
0.0
  9
$ANGDIR
 70
     0
  9
$PDMODE
 70
     0
  9
$PDSIZE
 40
0.0
  9
$PLINEWID
 40
0.0
  9
$COORDS
 70
     1
  9
$SPLFRAME
 70
     0
  9
$SPLINETYPE
 70
     6
  9
$SPLINESEGS
 70
     8
  9
$ATTDIA
 70
     0
  9
$ATTREQ
 70
     1
  9
$HANDLING
 70
     1
  9
$HANDSEED
  5
2B8
  9
$SURFTAB1
 70
     6
  9
$SURFTAB2
 70
     6
  9
$SURFTYPE
 70
     6
  9
$SURFU
 70
     6
  9
$SURFV
 70
     6
  9
$UCSNAME
  2

  9
$UCSORG
 10
0.0
 20
0.0
 30
0.0
  9
$UCSXDIR
 10
1.0
 20
0.0
 30
0.0
  9
$UCSYDIR
 10
0.0
 20
1.0
 30
0.0
  9
$PUCSNAME
  2

  9
$PUCSORG
 10
0.0
 20
0.0
 30
0.0
  9
$PUCSXDIR
 10
1.0
 20
0.0
 30
0.0
  9
$PUCSYDIR
 10
0.0
 20
1.0
 30
0.0
  9
$USERI1
 70
     0
  9
$USERI2
 70
     0
  9
$USERI3
 70
     0
  9
$USERI4
 70
     0
  9
$USERI5
 70
     0
  9
$USERR1
 40
0.0
  9
$USERR2
 40
0.0
  9
$USERR3
 40
0.0
  9
$USERR4
 40
0.0
  9
$USERR5
 40
0.0
  9
$WORLDVIEW
 70
     1
  9
$SHADEDGE
 70
     3
  9
$SHADEDIF
 70
    70
  9
$TILEMODE
 70
     1
  9
$MAXACTVP
 70
    64
  9
$PINSBASE
 10
0.0
 20
0.0
 30
0.0
  9
$PLIMCHECK
 70
     0
  9
$PEXTMIN
 10
1.000000000000000E+20
 20
1.000000000000000E+20
 30
1.000000000000000E+20
  9
$PEXTMAX
 10
-1.000000000000000E+20
 20
-1.000000000000000E+20
 30
-1.000000000000000E+20
  9
$PLIMMIN
 10
0.0
 20
0.0
  9
$PLIMMAX
 10
12.0
 20
9.0
  9
$UNITMODE
 70
     0
  9
$VISRETAIN
 70
     1
  9
$PLINEGEN
 70
     0
  9
$PSLTSCALE
 70
     1
  9
$TREEDEPTH
 70
  3020
  9
$PICKSTYLE
 70
     1
  9
$CMLSTYLE
  2
STANDARD
  9
$CMLJUST
 70
     0
  9
$CMLSCALE
 40
1.0
  9
$PROXYGRAPHICS
 70
     1
  9
$MEASUREMENT
 70
     0
  0
ENDSEC
  0
SECTION
  2
CLASSES
  0
CLASS
  1
ACDBDICTIONARYWDFLT
  2
AcDbDictionaryWithDefault
  3
ObjectDBX Classes
 90
        0
280
     0
281
     0
  0
CLASS
  1
VISUALSTYLE
  2
AcDbVisualStyle
  3
ObjectDBX Classes
 90
     4095
280
     0
281
     0
  0
CLASS
  1
MATERIAL
  2
AcDbMaterial
  3
ObjectDBX Classes
 90
     1153
280
     0
281
     0
  0
CLASS
  1
SUN
  2
AcDbSun
  3
SCENEOE
 90
     1024
280
     0
281
     0
  0
CLASS
  1
DICTIONARYVAR
  2
AcDbDictionaryVar
  3
ObjectDBX Classes
 90
        0
280
     0
281
     0
  0
CLASS
  1
XRECORD
  2
AcDbXrecord
  3
AutoCAD 2000
 90
        0
280
     0
281
     0
  0
CLASS
  1
LWPOLYLINE
  2
AcDbPolyline
  3
AutoCAD 2000
 90
        0
280
     0
281
     1
  0
CLASS
  1
HATCH
  2
AcDbHatch
  3
AutoCAD 2000
 90
        0
280
     0
281
     1
  0
CLASS
  1
ACDBPLACEHOLDER
  2
AcDbPlaceHolder
  3
ObjectDBX Classes
 90
        0
280
     0
281
     0
  0
CLASS
  1
LAYOUT
  2
AcDbLayout
  3
ObjectDBX Classes
 90
        0
280
     0
281
     0
  0
ENDSEC
  0
SECTION
  2
TABLES
  0
TABLE
  2
VPORT
  5
8
330
0
100
AcDbSymbolTable
 70
     1
  0
VPORT
  5
29
330
8
100
AcDbSymbolTableRecord
100
AcDbViewportTableRecord
  2
*ACTIVE
 70
     0
 10
0.0
 20
0.0
 11
1.0
 21
1.0
 12
0.0
 22
0.0
 13
0.0
 23
0.0
 14
0.5
 24
0.5
 15
0.5
 25
0.5
 16
0.0
 26
0.0
 36
1.0
 17
74.99999786197358
 27
39.74999886684608
 37
0.0
 40
39.99999998999989
 41
1.000000000000008
 42
50.0
 43
0.0
 44
0.0
 50
0.0
 51
0.0
 71
     0
 72
   100
 73
     1
 74
     3
 75
     0
 76
     0
 77
     0
 78
     0
  0
ENDTAB
  0
TABLE
  2
LTYPE
  5
5
330
0
100
AcDbSymbolTable
 70
     1
  0
LTYPE
  5
14
330
5
100
AcDbSymbolTableRecord
100
AcDbLinetypeTableRecord
  2
BYBLOCK
 70
     0
  3

 72
    65
 73
     0
 40
0.0
  0
LTYPE
  5
15
330
5
100
AcDbSymbolTableRecord
100
AcDbLinetypeTableRecord
  2
BYLAYER
 70
     0
  3

 72
    65
 73
     0
 40
0.0
  0
LTYPE
  5
16
330
5
100
AcDbSymbolTableRecord
100
AcDbLinetypeTableRecord
  2
CONTINUOUS
 70
     0
  3
Solid line
 72
    65
 73
     0
 40
0.0
  0
ENDTAB
  0
TABLE
  2
LAYER
  5
2
330
0
100
AcDbSymbolTable
 70
     6
  0
LAYER
  5
10
330
2
100
AcDbSymbolTableRecord
100
AcDbLayerTableRecord
  2
0
 70
     0
 62
     7
  6
CONTINUOUS
  0
LAYER
  5
40
330
2
100
AcDbSymbolTableRecord
100
AcDbLayerTableRecord
  2
REFERENCIAS
 70
     0
 62
     7
  6
CONTINUOUS
  0
LAYER
  5
42
330
2
100
AcDbSymbolTableRecord
100
AcDbLayerTableRecord
  2
M_U_00C1RGENES
 70
     0
 62
     7
  6
CONTINUOUS
  0
LAYER
  5
51
330
2
100
AcDbSymbolTableRecord
100
AcDbLayerTableRecord
  2
DIBUJOS
 70
     0
 62
     7
  6
CONTINUOUS
  0
LAYER
  5
27C
330
2
100
AcDbSymbolTableRecord
100
AcDbLayerTableRecord
  2
COTAS_LINEA
 70
     0
 62
     7
  6
CONTINUOUS
  0
LAYER
  5
289
330
2
100
AcDbSymbolTableRecord
100
AcDbLayerTableRecord
  2
COTAS_N_U_00DAMERO
 70
     0
 62
     7
  6
CONTINUOUS
  0
ENDTAB
  0
TABLE
  2
STYLE
  5
3
330
0
100
AcDbSymbolTable
 70
     1
  0
STYLE
  5
11
330
3
100
AcDbSymbolTableRecord
100
AcDbTextStyleTableRecord
  2
STANDARD
 70
     0
 40
0.0
 41
1.0
 50
0.0
 71
     0
 42
0.2
  3
txt
  4

  0
ENDTAB
  0
TABLE
  2
VIEW
  5
6
330
0
100
AcDbSymbolTable
 70
     0
  0
ENDTAB
  0
TABLE
  2
UCS
  5
7
330
0
100
AcDbSymbolTable
 70
     0
  0
ENDTAB
  0
TABLE
  2
APPID
  5
9
330
0
100
AcDbSymbolTable
 70
     1
  0
APPID
  5
12
330
9
100
AcDbSymbolTableRecord
100
AcDbRegAppTableRecord
  2
ACAD
 70
     0
  0
ENDTAB
  0
TABLE
  2
DIMSTYLE
  5
A
330
0
100
AcDbSymbolTable
 70
     1
  0
DIMSTYLE
105
27
330
A
100
AcDbSymbolTableRecord
100
AcDbDimStyleTableRecord
  2
STANDARD
 70
     0
  3

  4

  5

  6

  7

 40
1.0
 41
0.18
 42
0.0625
 43
0.38
 44
0.18
 45
0.0
 46
0.0
 47
0.0
 48
0.0
140
0.18
141
0.09
142
0.0
143
25.4
144
1.0
145
0.0
146
1.0
147
0.09
 71
     0
 72
     0
 73
     1
 74
     1
 75
     0
 76
     0
 77
     0
 78
     0
170
     0
171
     2
172
     0
173
     0
174
     0
175
     0
176
     0
177
     0
178
     0
270
     2
271
     4
272
     4
273
     2
274
     2
340
11
275
     0
280
     0
281
     0
282
     0
283
     1
284
     0
285
     0
286
     0
287
     3
288
     0
  0
ENDTAB
  0
TABLE
  2
BLOCK_RECORD
  5
1
330
0
100
AcDbSymbolTable
 70
     3
  0
BLOCK_RECORD
  5
1F
330
1
100
AcDbSymbolTableRecord
100
AcDbBlockTableRecord
  2
*MODEL_SPACE
  0
BLOCK_RECORD
  5
1B
330
1
100
AcDbSymbolTableRecord
100
AcDbBlockTableRecord
  2
*PAPER_SPACE
  0
BLOCK_RECORD
  5
52
330
1
100
AcDbSymbolTableRecord
100
AcDbBlockTableRecord
  2
BLOCK_2
  0
BLOCK_RECORD
  5
1B5
330
1
100
AcDbSymbolTableRecord
100
AcDbBlockTableRecord
  2
BLOCK_3
  0
ENDTAB
  0
ENDSEC
  0
SECTION
  2
BLOCKS
  0
BLOCK
  5
20
330
1F
100
AcDbEntity
  8
0
100
AcDbBlockBegin
  2
*MODEL_SPACE
 70
     0
 10
0.0
 20
0.0
 30
0.0
  3
*MODEL_SPACE
  1

  0
ENDBLK
  5
21
330
1F
100
AcDbEntity
  8
0
100
AcDbBlockEnd
  0
BLOCK
  5
1C
330
1B
100
AcDbEntity
 67
     1
  8
0
100
AcDbBlockBegin
  2
*PAPER_SPACE
 70
     0
 10
0.0
 20
0.0
 30
0.0
  3
*PAPER_SPACE
  1

  0
ENDBLK
  5
1D
330
1B
100
AcDbEntity
 67
     1
  8
0
100
AcDbBlockEnd
  0
BLOCK
  5
54
330
52
100
AcDbEntity
  8
0
100
AcDbBlockBegin
  2
BLOCK_2
 70
     0
 10
0.0
 20
0.0
 30
0.0
  3
BLOCK_2
  1

  0
POLYLINE
  5
56
330
52
100
AcDbEntity
  8
DIBUJOS
 62
     7
100
AcDb2dPolyline
 66
     1
 10
0.0
 20
0.0
 30
0.0
  0
VERTEX
  5
57
330
56
100
AcDbEntity
  8
DIBUJOS
 62
     7
100
AcDbVertex
100
AcDb2dVertex
 10
67.78818722689462
 20
46.85232225453198
 30
0.0
  0
VERTEX
  5
58
330
56
100
AcDbEntity
  8
DIBUJOS
 62
     7
100
AcDbVertex
100
AcDb2dVertex
 10
67.78213530093457
 20
46.85232225453198
 30
0.0
  0
SEQEND
  5
59
330
56
100
AcDbEntity
  8
DIBUJOS
 62
     7
  0
POLYLINE
  5
5A
330
52
100
AcDbEntity
  8
DIBUJOS
 62
     7
100
AcDb2dPolyline
 66
     1
 10
0.0
 20
0.0
 30
0.0
  0
VERTEX
  5
5B
330
5A
100
AcDbEntity
  8
DIBUJOS
 62
     7
100
AcDbVertex
100
AcDb2dVertex
 10
67.78818722689462
 20
46.85232225453198
 30
0.0
  0
VERTEX
  5
5C
330
5A
100
AcDbEntity
  8
DIBUJOS
 62
     7
100
AcDbVertex
100
AcDb2dVertex
 10
67.78818722689462
 20
46.85837503867658
 30
0.0
  0
SEQEND
  5
5D
330
5A
100
AcDbEntity
  8
DIBUJOS
 62
     7
  0
POLYLINE
  5
5E
330
52
100
AcDbEntity
  8
DIBUJOS
 62
     7
100
AcDb2dPolyline
 66
     1
 10
0.0
 20
0.0
 30
0.0
  0
VERTEX
  5
5F
330
5E
100
AcDbEntity
  8
DIBUJOS
 62
     7
100
AcDbVertex
100
AcDb2dVertex
 10
67.78818722689462
 20
46.84626947038737
 30
0.0
  0
VERTEX
  5
60
330
5E
100
AcDbEntity
  8
DIBUJOS
 62
     7
100
AcDbVertex
100
AcDb2dVertex
 10
67.78818722689462
 20
46.85232225453198
 30
0.0
  0
SEQEND
  5
61
330
5E
100
AcDbEntity
  8
DIBUJOS
 62
     7
  0
POLYLINE
  5
62
330
52
100
AcDbEntity
  8
DIBUJOS
 62
     7
100
AcDb2dPolyline
 66
     1
 10
0.0
 20
0.0
 30
0.0
  0
VERTEX
  5
63
330
62
100
AcDbEntity
  8
DIBUJOS
 62
     7
100
AcDbVertex
100
AcDb2dVertex
 10
67.78213530093457
 20
46.67681757583967
 30
0.0
  0
VERTEX
  5
64
330
62
100
AcDbEntity
  8
DIBUJOS
 62
     7
100
AcDbVertex
100
AcDb2dVertex
 10
67.78213530093457
 20
46.84021994393061
 30
0.0
  0
VERTEX
  5
65
330
62
100
AcDbEntity
  8
DIBUJOS
 62
     7
100
AcDbVertex
100
AcDb2dVertex
 10
67.78818722689462
 20
46.84626947038737
 30
0.0
  0
SEQEND
  5
66
330
62
100
AcDbEntity
  8
DIBUJOS
 62
     7
  0
POLYLINE
  5
67
330
52
100
AcDbEntity
  8
DIBUJOS
 62
     7
100
AcDb2dPolyline
 66
     1
 10
0.0
 20
0.0
 30
0.0
  0
VERTEX
  5
68
330
67
100
AcDbEntity
  8
DIBUJOS
 62
     7
100
AcDbVertex
100
AcDb2dVertex
 10
62.9836990339298
 20
46.57998931796462
 30
0.0
  0
VERTEX
  5
69
330
67
100
AcDbEntity
  8
DIBUJOS
 62
     7
100
AcDbVertex
100
AcDb2dVertex
 10
62.77804918282918
 20
46.58292775246316
 30
0.0
  0
VERTEX
  5
6A
330
67
100
AcDbEntity
  8
DIBUJOS
 62
     7
100
AcDbVertex
100
AcDb2dVertex
 10
62.38481731340318
 20
46.59493233242723
 30
0.0
  0
VERTEX
  5
6B
330
67
100
AcDbEntity
  8
DIBUJOS
 62
     7
100
AcDbVertex
100
AcDb2dVertex
 10
62.37827354631318
 20
46.59553826237933
 30
0.0
  0
VERTEX
  5
6C
330
67
100
AcDbEntity
  8
DIBUJOS
 62
     7
100
AcDbVertex
100
AcDb2dVertex
 10
62.3247459223866
 20
46.60540579907152
 30
0.0
  0
VERTEX
  5
6D
330
67
100
AcDbEntity
  8
DIBUJOS
 62
     7
100
AcDbVertex
100
AcDb2dVertex
 10
62.28178311108032
 20
46.62235229160147
 30
0.0
  0
VERTEX
  5
6E
330
67
100
AcDbEntity
  8
DIBUJOS
 62
     7
100
AcDbVertex
100
AcDb2dVertex
 10
62.27425647603688
 20
46.63327531917805
 30
0.0
  0
VERTEX
  5
6F
330
67
100
AcDbEntity
  8
DIBUJOS
 62
     7
100
AcDbVertex
100
AcDb2dVertex
 10
62.25300470481896
 20
46.65984502180632
 30
0.0
  0
VERTEX
  5
70
330
67
100
AcDbEntity
  8
DIBUJOS
 62
     7
100
AcDbVertex
100
AcDb2dVertex
 10
62.24124204732619
 20
46.68347628993669
 30
0.0
  0
VERTEX
  5
71
330
67
100
AcDbEntity
  8
DIBUJOS
 62
     7
100
AcDbVertex
100
AcDb2dVertex
 10
62.23761105461183
 20
46.6943699983217
 30
0.0
  0
VERTEX
  5
72
330
67
100
AcDbEntity
  8
DIBUJOS
 62
     7
100
AcDbVertex
100
AcDb2dVertex
 10
62.22732473481665
 20
46.71918054947651
 30
0.0
  0
VERTEX
  5
73
330
67
100
AcDbEntity
  8
DIBUJOS
 62
     7
100
AcDbVertex
100
AcDb2dVertex
 10
62.22732473481665
 20
46.80995928089513
 30
0.0
  0
VERTEX
  5
74
330
67
100
AcDbEntity
  8
DIBUJOS
 62
     7
100
AcDbVertex
100
AcDb2dVertex
 10
62.24124204732619
 20
46.84566679812313
 30
0.0
  0
VERTEX
  5
75
330
67
100
AcDbEntity
  8
DIBUJOS
 62
     7
100
AcDbVertex
100
AcDb2dVertex
 10
62.24366216626479
 20
46.85292818448407
 30
0.0
  0
VERTEX
  5
76
330
67
100
AcDbEntity
  8
DIBUJOS
 62
     7
100
AcDbVertex
100
AcDb2dVertex
 10
62.26363059042855
 20
46.88863244402422
 30
0.0
  0
VERTEX
  5
77
330
67
100
AcDbEntity
  8
DIBUJOS
 62
     7
100
AcDbVertex
100
AcDb2dVertex
 10
62.28783422273327
 20
46.91284032291478
 30
0.0
  0
VERTEX
  5
78
330
67
100
AcDbEntity
  8
DIBUJOS
 62
     7
100
AcDbVertex
100
AcDb2dVertex
 10
62.30659258742774
 20
46.91768124715552
 30
0.0
  0
VERTEX
  5
79
330
67
100
AcDbEntity
  8
DIBUJOS
 62
     7
100
AcDbVertex
100
AcDb2dVertex
 10
62.31143363961139
 20
46.92010496696389
 30
0.0
  0
VERTEX
  5
7A
330
67
100
AcDbEntity
  8
DIBUJOS
 62
     7
100
AcDbVertex
100
AcDb2dVertex
 10
62.36665583537913
 20
46.93420098256872
 30
0.0
  0
VERTEX
  5
7B
330
67
100
AcDbEntity
  8
DIBUJOS
 62
     7
100
AcDbVertex
100
AcDb2dVertex
 10
62.46920633963659
 20
46.93989867873078
 30
0.0
  0
VERTEX
  5
7C
330
67
100
AcDbEntity
  8
DIBUJOS
 62
     7
100
AcDbVertex
100
AcDb2dVertex
 10
62.69325056042295
 20
46.94915377009519
 30
0.0
  0
VERTEX
  5
7D
330
67
100
AcDbEntity
  8
DIBUJOS
 62
     7
100
AcDbVertex
100
AcDb2dVertex
 10
67.43722926546988
 20
46.94915377009519
 30
0.0
  0
VERTEX
  5
7E
330
67
100
AcDbEntity
  8
DIBUJOS
 62
     7
100
AcDbVertex
100
AcDb2dVertex
 10
67.68485335977687
 20
46.9286694284903
 30
0.0
  0
VERTEX
  5
7F
330
67
100
AcDbEntity
  8
DIBUJOS
 62
     7
100
AcDbVertex
100
AcDb2dVertex
 10
67.7222300284452
 20
46.91405218281897
 30
0.0
  0
VERTEX
  5
80
330
67
100
AcDbEntity
  8
DIBUJOS
 62
     7
100
AcDbVertex
100
AcDb2dVertex
 10
67.73977833366972
 20
46.90679079645835
 30
0.0
  0
VERTEX
  5
81
330
67
100
AcDbEntity
  8
DIBUJOS
 62
     7
100
AcDbVertex
100
AcDb2dVertex
 10
67.78213530093457
 20
46.85232225453198
 30
0.0
  0
SEQEND
  5
82
330
67
100
AcDbEntity
  8
DIBUJOS
 62
     7
  0
POLYLINE
  5
83
330
52
100
AcDbEntity
  8
DIBUJOS
 62
     7
100
AcDb2dPolyline
 66
     1
 10
0.0
 20
0.0
 30
0.0
  0
VERTEX
  5
84
330
83
100
AcDbEntity
  8
DIBUJOS
 62
     7
100
AcDbVertex
100
AcDb2dVertex
 10
62.98974933127694
 20
46.57998931796462
 30
0.0
  0
VERTEX
  5
85
330
83
100
AcDbEntity
  8
DIBUJOS
 62
     7
100
AcDbVertex
100
AcDb2dVertex
 10
62.9836990339298
 20
46.57998931796462
 30
0.0
  0
SEQEND
  5
86
330
83
100
AcDbEntity
  8
DIBUJOS
 62
     7
  0
POLYLINE
  5
87
330
52
100
AcDbEntity
  8
DIBUJOS
 62
     7
100
AcDb2dPolyline
 66
     1
 10
0.0
 20
0.0
 30
0.0
  0
VERTEX
  5
88
330
87
100
AcDbEntity
  8
DIBUJOS
 62
     7
100
AcDbVertex
100
AcDb2dVertex
 10
62.9958012572357
 20
46.57998931796462
 30
0.0
  0
VERTEX
  5
89
330
87
100
AcDbEntity
  8
DIBUJOS
 62
     7
100
AcDbVertex
100
AcDb2dVertex
 10
62.98974933127694
 20
46.57998931796462
 30
0.0
  0
SEQEND
  5
8A
330
87
100
AcDbEntity
  8
DIBUJOS
 62
     7
  0
POLYLINE
  5
8B
330
52
100
AcDbEntity
  8
DIBUJOS
 62
     7
100
AcDb2dPolyline
 66
     1
 10
0.0
 20
0.0
 30
0.0
  0
VERTEX
  5
8C
330
8B
100
AcDbEntity
  8
DIBUJOS
 62
     7
100
AcDbVertex
100
AcDb2dVertex
 10
66.98340484886239
 20
46.57998931796462
 30
0.0
  0
VERTEX
  5
8D
330
8B
100
AcDbEntity
  8
DIBUJOS
 62
     7
100
AcDbVertex
100
AcDb2dVertex
 10
66.97735292290298
 20
46.57998931796462
 30
0.0
  0
SEQEND
  5
8E
330
8B
100
AcDbEntity
  8
DIBUJOS
 62
     7
  0
POLYLINE
  5
8F
330
52
100
AcDbEntity
  8
DIBUJOS
 62
     7
100
AcDb2dPolyline
 66
     1
 10
0.0
 20
0.0
 30
0.0
  0
VERTEX
  5
90
330
8F
100
AcDbEntity
  8
DIBUJOS
 62
     7
100
AcDbVertex
100
AcDb2dVertex
 10
66.98945514620954
 20
46.57998931796462
 30
0.0
  0
VERTEX
  5
91
330
8F
100
AcDbEntity
  8
DIBUJOS
 62
     7
100
AcDbVertex
100
AcDb2dVertex
 10
66.98340484886239
 20
46.57998931796462
 30
0.0
  0
SEQEND
  5
92
330
8F
100
AcDbEntity
  8
DIBUJOS
 62
     7
  0
POLYLINE
  5
93
330
52
100
AcDbEntity
  8
DIBUJOS
 62
     7
100
AcDb2dPolyline
 66
     1
 10
0.0
 20
0.0
 30
0.0
  0
VERTEX
  5
94
330
93
100
AcDbEntity
  8
DIBUJOS
 62
     7
100
AcDbVertex
100
AcDb2dVertex
 10
66.98945514620954
 20
46.57998931796462
 30
0.0
  0
VERTEX
  5
95
330
93
100
AcDbEntity
  8
DIBUJOS
 62
     7
100
AcDbVertex
100
AcDb2dVertex
 10
67.63720665744313
 20
46.59548939706068
 30
0.0
  0
VERTEX
  5
96
330
93
100
AcDbEntity
  8
DIBUJOS
 62
     7
100
AcDbVertex
100
AcDb2dVertex
 10
67.69681715097636
 20
46.60540579907152
 30
0.0
  0
VERTEX
  5
97
330
93
100
AcDbEntity
  8
DIBUJOS
 62
     7
100
AcDbVertex
100
AcDb2dVertex
 10
67.71617973109869
 20
46.61448497528843
 30
0.0
  0
VERTEX
  5
98
330
93
100
AcDbEntity
  8
DIBUJOS
 62
     7
100
AcDbVertex
100
AcDb2dVertex
 10
67.72767611036382
 20
46.61629950745686
 30
0.0
  0
VERTEX
  5
99
330
93
100
AcDbEntity
  8
DIBUJOS
 62
     7
100
AcDbVertex
100
AcDb2dVertex
 10
67.78213530093457
 20
46.67681757583967
 30
0.0
  0
SEQEND
  5
9A
330
93
100
AcDbEntity
  8
DIBUJOS
 62
     7
  0
POLYLINE
  5
9B
330
52
100
AcDbEntity
  8
DIBUJOS
 62
     7
100
AcDb2dPolyline
 66
     1
 10
0.0
 20
0.0
 30
0.0
  0
VERTEX
  5
9C
330
9B
100
AcDbEntity
  8
DIBUJOS
 62
     7
100
AcDbVertex
100
AcDb2dVertex
 10
68.58086738161967
 20
46.57998931796462
 30
0.0
  0
VERTEX
  5
9D
330
9B
100
AcDbEntity
  8
DIBUJOS
 62
     7
100
AcDbVertex
100
AcDb2dVertex
 10
67.93311587038608
 20
46.59548939706068
 30
0.0
  0
VERTEX
  5
9E
330
9B
100
AcDbEntity
  8
DIBUJOS
 62
     7
100
AcDbVertex
100
AcDb2dVertex
 10
67.87350537685157
 20
46.60540579907152
 30
0.0
  0
VERTEX
  5
9F
330
9B
100
AcDbEntity
  8
DIBUJOS
 62
     7
100
AcDbVertex
100
AcDb2dVertex
 10
67.84809087077046
 20
46.61509090524052
 30
0.0
  0
VERTEX
  5
A0
330
9B
100
AcDbEntity
  8
DIBUJOS
 62
     7
100
AcDbVertex
100
AcDb2dVertex
 10
67.83054419415949
 20
46.62235229160147
 30
0.0
  0
VERTEX
  5
A1
330
9B
100
AcDbEntity
  8
DIBUJOS
 62
     7
100
AcDbVertex
100
AcDb2dVertex
 10
67.78213530093457
 20
46.67681757583967
 30
0.0
  0
SEQEND
  5
A2
330
9B
100
AcDbEntity
  8
DIBUJOS
 62
     7
  0
POLYLINE
  5
A3
330
52
100
AcDbEntity
  8
DIBUJOS
 62
     7
100
AcDb2dPolyline
 66
     1
 10
0.0
 20
0.0
 30
0.0
  0
VERTEX
  5
A4
330
A3
100
AcDbEntity
  8
DIBUJOS
 62
     7
100
AcDbVertex
100
AcDb2dVertex
 10
68.58691767896617
 20
46.57998931796462
 30
0.0
  0
VERTEX
  5
A5
330
A3
100
AcDbEntity
  8
DIBUJOS
 62
     7
100
AcDbVertex
100
AcDb2dVertex
 10
68.58086738161967
 20
46.57998931796462
 30
0.0
  0
SEQEND
  5
A6
330
A3
100
AcDbEntity
  8
DIBUJOS
 62
     7
  0
POLYLINE
  5
A7
330
52
100
AcDbEntity
  8
DIBUJOS
 62
     7
100
AcDb2dPolyline
 66
     1
 10
0.0
 20
0.0
 30
0.0
  0
VERTEX
  5
A8
330
A7
100
AcDbEntity
  8
DIBUJOS
 62
     7
100
AcDbVertex
100
AcDb2dVertex
 10
68.59296797631266
 20
46.57998931796462
 30
0.0
  0
VERTEX
  5
A9
330
A7
100
AcDbEntity
  8
DIBUJOS
 62
     7
100
AcDbVertex
100
AcDb2dVertex
 10
68.58691767896617
 20
46.57998931796462
 30
0.0
  0
SEQEND
  5
AA
330
A7
100
AcDbEntity
  8
DIBUJOS
 62
     7
  0
POLYLINE
  5
AB
330
52
100
AcDbEntity
  8
DIBUJOS
 62
     7
100
AcDb2dPolyline
 66
     1
 10
0.0
 20
0.0
 30
0.0
  0
VERTEX
  5
AC
330
AB
100
AcDbEntity
  8
DIBUJOS
 62
     7
100
AcDbVertex
100
AcDb2dVertex
 10
72.58662349389812
 20
46.57998931796462
 30
0.0
  0
VERTEX
  5
AD
330
AB
100
AcDbEntity
  8
DIBUJOS
 62
     7
100
AcDbVertex
100
AcDb2dVertex
 10
72.58057319655227
 20
46.57998931796462
 30
0.0
  0
SEQEND
  5
AE
330
AB
100
AcDbEntity
  8
DIBUJOS
 62
     7
  0
POLYLINE
  5
AF
330
52
100
AcDbEntity
  8
DIBUJOS
 62
     7
100
AcDb2dPolyline
 66
     1
 10
0.0
 20
0.0
 30
0.0
  0
VERTEX
  5
B0
330
AF
100
AcDbEntity
  8
DIBUJOS
 62
     7
100
AcDbVertex
100
AcDb2dVertex
 10
72.59267379124526
 20
46.57998931796462
 30
0.0
  0
VERTEX
  5
B1
330
AF
100
AcDbEntity
  8
DIBUJOS
 62
     7
100
AcDbVertex
100
AcDb2dVertex
 10
72.58662349389812
 20
46.57998931796462
 30
0.0
  0
SEQEND
  5
B2
330
AF
100
AcDbEntity
  8
DIBUJOS
 62
     7
  0
POLYLINE
  5
B3
330
52
100
AcDbEntity
  8
DIBUJOS
 62
     7
100
AcDb2dPolyline
 66
     1
 10
0.0
 20
0.0
 30
0.0
  0
VERTEX
  5
B4
330
B3
100
AcDbEntity
  8
DIBUJOS
 62
     7
100
AcDbVertex
100
AcDb2dVertex
 10
72.59267379124526
 20
46.57998931796462
 30
0.0
  0
VERTEX
  5
B5
330
B3
100
AcDbEntity
  8
DIBUJOS
 62
     7
100
AcDbVertex
100
AcDb2dVertex
 10
72.78025580957063
 20
46.58604210210922
 30
0.0
  0
VERTEX
  5
B6
330
B3
100
AcDbEntity
  8
DIBUJOS
 62
     7
100
AcDbVertex
100
AcDb2dVertex
 10
72.78630610691648
 20
46.58301571003692
 30
0.0
  0
VERTEX
  5
B7
330
B3
100
AcDbEntity
  8
DIBUJOS
 62
     7
100
AcDbVertex
100
AcDb2dVertex
 10
73.19204898151538
 20
46.59553826237933
 30
0.0
  0
VERTEX
  5
B8
330
B3
100
AcDbEntity
  8
DIBUJOS
 62
     7
100
AcDbVertex
100
AcDb2dVertex
 10
73.24557660544197
 20
46.60540579907152
 30
0.0
  0
VERTEX
  5
B9
330
B3
100
AcDbEntity
  8
DIBUJOS
 62
     7
100
AcDbVertex
100
AcDb2dVertex
 10
73.2528385908713
 20
46.60903812109591
 30
0.0
  0
VERTEX
  5
BA
330
B3
100
AcDbEntity
  8
DIBUJOS
 62
     7
100
AcDbVertex
100
AcDb2dVertex
 10
73.2764371934417
 20
46.61629950745686
 30
0.0
  0
VERTEX
  5
BB
330
B3
100
AcDbEntity
  8
DIBUJOS
 62
     7
100
AcDbVertex
100
AcDb2dVertex
 10
73.31274223474715
 20
46.65261295463695
 30
0.0
  0
VERTEX
  5
BC
330
B3
100
AcDbEntity
  8
DIBUJOS
 62
     7
100
AcDbVertex
100
AcDb2dVertex
 10
73.32242433911509
 20
46.67197665159925
 30
0.0
  0
VERTEX
  5
BD
330
B3
100
AcDbEntity
  8
DIBUJOS
 62
     7
100
AcDbVertex
100
AcDb2dVertex
 10
73.32666036156377
 20
46.6822644300325
 30
0.0
  0
VERTEX
  5
BE
330
B3
100
AcDbEntity
  8
DIBUJOS
 62
     7
100
AcDbVertex
100
AcDb2dVertex
 10
73.3429969787061
 20
46.72523333362144
 30
0.0
  0
VERTEX
  5
BF
330
B3
100
AcDbEntity
  8
DIBUJOS
 62
     7
100
AcDbVertex
100
AcDb2dVertex
 10
73.3429969787061
 20
46.80390649675053
 30
0.0
  0
VERTEX
  5
C0
330
B3
100
AcDbEntity
  8
DIBUJOS
 62
     7
100
AcDbVertex
100
AcDb2dVertex
 10
73.3348115696984
 20
46.8275801148232
 30
0.0
  0
VERTEX
  5
C1
330
B3
100
AcDbEntity
  8
DIBUJOS
 62
     7
100
AcDbVertex
100
AcDb2dVertex
 10
73.33271065891027
 20
46.83477308973779
 30
0.0
  0
VERTEX
  5
C2
330
B3
100
AcDbEntity
  8
DIBUJOS
 62
     7
100
AcDbVertex
100
AcDb2dVertex
 10
73.31879416070655
 20
46.87047734927793
 30
0.0
  0
VERTEX
  5
C3
330
B3
100
AcDbEntity
  8
DIBUJOS
 62
     7
100
AcDbVertex
100
AcDb2dVertex
 10
73.2764371934417
 20
46.91284032291478
 30
0.0
  0
VERTEX
  5
C4
330
B3
100
AcDbEntity
  8
DIBUJOS
 62
     7
100
AcDbVertex
100
AcDb2dVertex
 10
73.26372912609436
 20
46.91707857489127
 30
0.0
  0
VERTEX
  5
C5
330
B3
100
AcDbEntity
  8
DIBUJOS
 62
     7
100
AcDbVertex
100
AcDb2dVertex
 10
73.2528385908713
 20
46.92070763922782
 30
0.0
  0
VERTEX
  5
C6
330
B3
100
AcDbEntity
  8
DIBUJOS
 62
     7
100
AcDbVertex
100
AcDb2dVertex
 10
73.19761558079648
 20
46.93420098256872
 30
0.0
  0
VERTEX
  5
C7
330
B3
100
AcDbEntity
  8
DIBUJOS
 62
     7
100
AcDbVertex
100
AcDb2dVertex
 10
73.09506507653902
 20
46.93989867873078
 30
0.0
  0
VERTEX
  5
C8
330
B3
100
AcDbEntity
  8
DIBUJOS
 62
     7
100
AcDbVertex
100
AcDb2dVertex
 10
72.8710200414462
 20
46.94915377009519
 30
0.0
  0
VERTEX
  5
C9
330
B3
100
AcDbEntity
  8
DIBUJOS
 62
     7
100
AcDbVertex
100
AcDb2dVertex
 10
68.11494074170628
 20
46.94915377009519
 30
0.0
  0
VERTEX
  5
CA
330
B3
100
AcDbEntity
  8
DIBUJOS
 62
     7
100
AcDbVertex
100
AcDb2dVertex
 10
67.98194983160644
 20
46.94021793214637
 30
0.0
  0
VERTEX
  5
CB
330
B3
100
AcDbEntity
  8
DIBUJOS
 62
     7
100
AcDbVertex
100
AcDb2dVertex
 10
67.90269012206055
 20
46.93332466451999
 30
0.0
  0
VERTEX
  5
CC
330
B3
100
AcDbEntity
  8
DIBUJOS
 62
     7
100
AcDbVertex
100
AcDb2dVertex
 10
67.83659449150534
 20
46.91284032291478
 30
0.0
  0
VERTEX
  5
CD
330
B3
100
AcDbEntity
  8
DIBUJOS
 62
     7
100
AcDbVertex
100
AcDb2dVertex
 10
67.78818722689462
 20
46.85837503867658
 30
0.0
  0
SEQEND
  5
CE
330
B3
100
AcDbEntity
  8
DIBUJOS
 62
     7
  0
POLYLINE
  5
CF
330
52
100
AcDbEntity
  8
DIBUJOS
 62
     7
100
AcDb2dPolyline
 66
     1
 10
0.0
 20
0.0
 30
0.0
  0
VERTEX
  5
D0
330
CF
100
AcDbEntity
  8
DIBUJOS
 62
     7
100
AcDbVertex
100
AcDb2dVertex
 10
62.98974933127694
 20
46.57393653382002
 30
0.0
  0
VERTEX
  5
D1
330
CF
100
AcDbEntity
  8
DIBUJOS
 62
     7
100
AcDbVertex
100
AcDb2dVertex
 10
62.98974933127694
 20
46.57998931796462
 30
0.0
  0
SEQEND
  5
D2
330
CF
100
AcDbEntity
  8
DIBUJOS
 62
     7
  0
POLYLINE
  5
D3
330
52
100
AcDbEntity
  8
DIBUJOS
 62
     7
100
AcDb2dPolyline
 66
     1
 10
0.0
 20
0.0
 30
0.0
  0
VERTEX
  5
D4
330
D3
100
AcDbEntity
  8
DIBUJOS
 62
     7
100
AcDbVertex
100
AcDb2dVertex
 10
64.18179471203807
 20
46.57393653382002
 30
0.0
  0
VERTEX
  5
D5
330
D3
100
AcDbEntity
  8
DIBUJOS
 62
     7
100
AcDbVertex
100
AcDb2dVertex
 10
64.17572649994827
 20
46.57698247201971
 30
0.0
  0
VERTEX
  5
D6
330
D3
100
AcDbEntity
  8
DIBUJOS
 62
     7
100
AcDbVertex
100
AcDb2dVertex
 10
63.00185155458284
 20
46.58604210210922
 30
0.0
  0
VERTEX
  5
D7
330
D3
100
AcDbEntity
  8
DIBUJOS
 62
     7
100
AcDbVertex
100
AcDb2dVertex
 10
62.9958012572357
 20
46.57998931796462
 30
0.0
  0
SEQEND
  5
D8
330
D3
100
AcDbEntity
  8
DIBUJOS
 62
     7
  0
POLYLINE
  5
D9
330
52
100
AcDbEntity
  8
DIBUJOS
 62
     7
100
AcDb2dPolyline
 66
     1
 10
0.0
 20
0.0
 30
0.0
  0
VERTEX
  5
DA
330
D9
100
AcDbEntity
  8
DIBUJOS
 62
     7
100
AcDbVertex
100
AcDb2dVertex
 10
64.18784663799748
 20
46.57393653382002
 30
0.0
  0
VERTEX
  5
DB
330
D9
100
AcDbEntity
  8
DIBUJOS
 62
     7
100
AcDbVertex
100
AcDb2dVertex
 10
64.18179471203807
 20
46.57393653382002
 30
0.0
  0
SEQEND
  5
DC
330
D9
100
AcDbEntity
  8
DIBUJOS
 62
     7
  0
POLYLINE
  5
DD
330
52
100
AcDbEntity
  8
DIBUJOS
 62
     7
100
AcDb2dPolyline
 66
     1
 10
0.0
 20
0.0
 30
0.0
  0
VERTEX
  5
DE
330
DD
100
AcDbEntity
  8
DIBUJOS
 62
     7
100
AcDbVertex
100
AcDb2dVertex
 10
65.79740976544775
 20
46.57393653382002
 30
0.0
  0
VERTEX
  5
DF
330
DD
100
AcDbEntity
  8
DIBUJOS
 62
     7
100
AcDbVertex
100
AcDb2dVertex
 10
65.79135946810061
 20
46.57998931796462
 30
0.0
  0
VERTEX
  5
E0
330
DD
100
AcDbEntity
  8
DIBUJOS
 62
     7
100
AcDbVertex
100
AcDb2dVertex
 10
64.19389693534397
 20
46.57998931796462
 30
0.0
  0
VERTEX
  5
E1
330
DD
100
AcDbEntity
  8
DIBUJOS
 62
     7
100
AcDbVertex
100
AcDb2dVertex
 10
64.18784663799748
 20
46.57393653382002
 30
0.0
  0
SEQEND
  5
E2
330
DD
100
AcDbEntity
  8
DIBUJOS
 62
     7
  0
POLYLINE
  5
E3
330
52
100
AcDbEntity
  8
DIBUJOS
 62
     7
100
AcDb2dPolyline
 66
     1
 10
0.0
 20
0.0
 30
0.0
  0
VERTEX
  5
E4
330
E3
100
AcDbEntity
  8
DIBUJOS
 62
     7
100
AcDbVertex
100
AcDb2dVertex
 10
65.80346169140716
 20
46.57393653382002
 30
0.0
  0
VERTEX
  5
E5
330
E3
100
AcDbEntity
  8
DIBUJOS
 62
     7
100
AcDbVertex
100
AcDb2dVertex
 10
65.79740976544775
 20
46.57393653382002
 30
0.0
  0
SEQEND
  5
E6
330
E3
100
AcDbEntity
  8
DIBUJOS
 62
     7
  0
POLYLINE
  5
E7
330
52
100
AcDbEntity
  8
DIBUJOS
 62
     7
100
AcDb2dPolyline
 66
     1
 10
0.0
 20
0.0
 30
0.0
  0
VERTEX
  5
E8
330
E7
100
AcDbEntity
  8
DIBUJOS
 62
     7
100
AcDbVertex
100
AcDb2dVertex
 10
65.80951198875366
 20
46.57393653382002
 30
0.0
  0
VERTEX
  5
E9
330
E7
100
AcDbEntity
  8
DIBUJOS
 62
     7
100
AcDbVertex
100
AcDb2dVertex
 10
65.80346169140716
 20
46.57393653382002
 30
0.0
  0
SEQEND
  5
EA
330
E7
100
AcDbEntity
  8
DIBUJOS
 62
     7
  0
POLYLINE
  5
EB
330
52
100
AcDbEntity
  8
DIBUJOS
 62
     7
100
AcDb2dPolyline
 66
     1
 10
0.0
 20
0.0
 30
0.0
  0
VERTEX
  5
EC
330
EB
100
AcDbEntity
  8
DIBUJOS
 62
     7
100
AcDbVertex
100
AcDb2dVertex
 10
65.80951198875366
 20
46.57393653382002
 30
0.0
  0
VERTEX
  5
ED
330
EB
100
AcDbEntity
  8
DIBUJOS
 62
     7
100
AcDbVertex
100
AcDb2dVertex
 10
65.8155622861008
 20
46.57998931796462
 30
0.0
  0
VERTEX
  5
EE
330
EB
100
AcDbEntity
  8
DIBUJOS
 62
     7
100
AcDbVertex
100
AcDb2dVertex
 10
66.97735292290298
 20
46.57998931796462
 30
0.0
  0
SEQEND
  5
EF
330
EB
100
AcDbEntity
  8
DIBUJOS
 62
     7
  0
POLYLINE
  5
F0
330
52
100
AcDbEntity
  8
DIBUJOS
 62
     7
100
AcDb2dPolyline
 66
     1
 10
0.0
 20
0.0
 30
0.0
  0
VERTEX
  5
F1
330
F0
100
AcDbEntity
  8
DIBUJOS
 62
     7
100
AcDbVertex
100
AcDb2dVertex
 10
66.98340484886239
 20
46.57393653382002
 30
0.0
  0
VERTEX
  5
F2
330
F0
100
AcDbEntity
  8
DIBUJOS
 62
     7
100
AcDbVertex
100
AcDb2dVertex
 10
66.98340484886239
 20
46.57998931796462
 30
0.0
  0
SEQEND
  5
F3
330
F0
100
AcDbEntity
  8
DIBUJOS
 62
     7
  0
POLYLINE
  5
F4
330
52
100
AcDbEntity
  8
DIBUJOS
 62
     7
100
AcDb2dPolyline
 66
     1
 10
0.0
 20
0.0
 30
0.0
  0
VERTEX
  5
F5
330
F4
100
AcDbEntity
  8
DIBUJOS
 62
     7
100
AcDbVertex
100
AcDb2dVertex
 10
68.58691767896617
 20
46.57393653382002
 30
0.0
  0
VERTEX
  5
F6
330
F4
100
AcDbEntity
  8
DIBUJOS
 62
     7
100
AcDbVertex
100
AcDb2dVertex
 10
68.58691767896617
 20
46.57998931796462
 30
0.0
  0
SEQEND
  5
F7
330
F4
100
AcDbEntity
  8
DIBUJOS
 62
     7
  0
POLYLINE
  5
F8
330
52
100
AcDbEntity
  8
DIBUJOS
 62
     7
100
AcDb2dPolyline
 66
     1
 10
0.0
 20
0.0
 30
0.0
  0
VERTEX
  5
F9
330
F8
100
AcDbEntity
  8
DIBUJOS
 62
     7
100
AcDbVertex
100
AcDb2dVertex
 10
69.77291276238145
 20
46.57393653382002
 30
0.0
  0
VERTEX
  5
FA
330
F8
100
AcDbEntity
  8
DIBUJOS
 62
     7
100
AcDbVertex
100
AcDb2dVertex
 10
69.7668608364214
 20
46.57998931796462
 30
0.0
  0
VERTEX
  5
FB
330
F8
100
AcDbEntity
  8
DIBUJOS
 62
     7
100
AcDbVertex
100
AcDb2dVertex
 10
68.59296797631266
 20
46.57998931796462
 30
0.0
  0
SEQEND
  5
FC
330
F8
100
AcDbEntity
  8
DIBUJOS
 62
     7
  0
POLYLINE
  5
FD
330
52
100
AcDbEntity
  8
DIBUJOS
 62
     7
100
AcDb2dPolyline
 66
     1
 10
0.0
 20
0.0
 30
0.0
  0
VERTEX
  5
FE
330
FD
100
AcDbEntity
  8
DIBUJOS
 62
     7
100
AcDbVertex
100
AcDb2dVertex
 10
69.7789630597273
 20
46.57393653382002
 30
0.0
  0
VERTEX
  5
FF
330
FD
100
AcDbEntity
  8
DIBUJOS
 62
     7
100
AcDbVertex
100
AcDb2dVertex
 10
69.77291276238145
 20
46.57393653382002
 30
0.0
  0
SEQEND
  5
100
330
FD
100
AcDbEntity
  8
DIBUJOS
 62
     7
  0
POLYLINE
  5
101
330
52
100
AcDbEntity
  8
DIBUJOS
 62
     7
100
AcDb2dPolyline
 66
     1
 10
0.0
 20
0.0
 30
0.0
  0
VERTEX
  5
102
330
101
100
AcDbEntity
  8
DIBUJOS
 62
     7
100
AcDbVertex
100
AcDb2dVertex
 10
69.78501335707445
 20
46.57393653382002
 30
0.0
  0
VERTEX
  5
103
330
101
100
AcDbEntity
  8
DIBUJOS
 62
     7
100
AcDbVertex
100
AcDb2dVertex
 10
69.7789630597273
 20
46.57393653382002
 30
0.0
  0
SEQEND
  5
104
330
101
100
AcDbEntity
  8
DIBUJOS
 62
     7
  0
POLYLINE
  5
105
330
52
100
AcDbEntity
  8
DIBUJOS
 62
     7
100
AcDb2dPolyline
 66
     1
 10
0.0
 20
0.0
 30
0.0
  0
VERTEX
  5
106
330
105
100
AcDbEntity
  8
DIBUJOS
 62
     7
100
AcDbVertex
100
AcDb2dVertex
 10
71.38247588983108
 20
46.57393653382002
 30
0.0
  0
VERTEX
  5
107
330
105
100
AcDbEntity
  8
DIBUJOS
 62
     7
100
AcDbVertex
100
AcDb2dVertex
 10
71.37642559248458
 20
46.57998931796462
 30
0.0
  0
VERTEX
  5
108
330
105
100
AcDbEntity
  8
DIBUJOS
 62
     7
100
AcDbVertex
100
AcDb2dVertex
 10
69.79106528303384
 20
46.57998931796462
 30
0.0
  0
VERTEX
  5
109
330
105
100
AcDbEntity
  8
DIBUJOS
 62
     7
100
AcDbVertex
100
AcDb2dVertex
 10
69.78501335707445
 20
46.57393653382002
 30
0.0
  0
SEQEND
  5
10A
330
105
100
AcDbEntity
  8
DIBUJOS
 62
     7
  0
POLYLINE
  5
10B
330
52
100
AcDbEntity
  8
DIBUJOS
 62
     7
100
AcDb2dPolyline
 66
     1
 10
0.0
 20
0.0
 30
0.0
  0
VERTEX
  5
10C
330
10B
100
AcDbEntity
  8
DIBUJOS
 62
     7
100
AcDbVertex
100
AcDb2dVertex
 10
71.38852618717758
 20
46.57393653382002
 30
0.0
  0
VERTEX
  5
10D
330
10B
100
AcDbEntity
  8
DIBUJOS
 62
     7
100
AcDbVertex
100
AcDb2dVertex
 10
71.38247588983108
 20
46.57393653382002
 30
0.0
  0
SEQEND
  5
10E
330
10B
100
AcDbEntity
  8
DIBUJOS
 62
     7
  0
POLYLINE
  5
10F
330
52
100
AcDbEntity
  8
DIBUJOS
 62
     7
100
AcDb2dPolyline
 66
     1
 10
0.0
 20
0.0
 30
0.0
  0
VERTEX
  5
110
330
10F
100
AcDbEntity
  8
DIBUJOS
 62
     7
100
AcDbVertex
100
AcDb2dVertex
 10
71.39457811313763
 20
46.57393653382002
 30
0.0
  0
VERTEX
  5
111
330
10F
100
AcDbEntity
  8
DIBUJOS
 62
     7
100
AcDbVertex
100
AcDb2dVertex
 10
71.38852618717758
 20
46.57393653382002
 30
0.0
  0
SEQEND
  5
112
330
10F
100
AcDbEntity
  8
DIBUJOS
 62
     7
  0
POLYLINE
  5
113
330
52
100
AcDbEntity
  8
DIBUJOS
 62
     7
100
AcDb2dPolyline
 66
     1
 10
0.0
 20
0.0
 30
0.0
  0
VERTEX
  5
114
330
113
100
AcDbEntity
  8
DIBUJOS
 62
     7
100
AcDbVertex
100
AcDb2dVertex
 10
71.39457811313763
 20
46.57393653382002
 30
0.0
  0
VERTEX
  5
115
330
113
100
AcDbEntity
  8
DIBUJOS
 62
     7
100
AcDbVertex
100
AcDb2dVertex
 10
72.39297326348358
 20
46.58299616390952
 30
0.0
  0
VERTEX
  5
116
330
113
100
AcDbEntity
  8
DIBUJOS
 62
     7
100
AcDbVertex
100
AcDb2dVertex
 10
72.57452127059221
 20
46.58604210210922
 30
0.0
  0
VERTEX
  5
117
330
113
100
AcDbEntity
  8
DIBUJOS
 62
     7
100
AcDbVertex
100
AcDb2dVertex
 10
72.58057319655227
 20
46.57998931796462
 30
0.0
  0
SEQEND
  5
118
330
113
100
AcDbEntity
  8
DIBUJOS
 62
     7
  0
POLYLINE
  5
119
330
52
100
AcDbEntity
  8
DIBUJOS
 62
     7
100
AcDb2dPolyline
 66
     1
 10
0.0
 20
0.0
 30
0.0
  0
VERTEX
  5
11A
330
119
100
AcDbEntity
  8
DIBUJOS
 62
     7
100
AcDbVertex
100
AcDb2dVertex
 10
72.58662349389812
 20
46.57393653382002
 30
0.0
  0
VERTEX
  5
11B
330
119
100
AcDbEntity
  8
DIBUJOS
 62
     7
100
AcDbVertex
100
AcDb2dVertex
 10
72.58662349389812
 20
46.57998931796462
 30
0.0
  0
SEQEND
  5
11C
330
119
100
AcDbEntity
  8
DIBUJOS
 62
     7
  0
POLYLINE
  5
11D
330
52
100
AcDbEntity
  8
DIBUJOS
 62
     7
100
AcDb2dPolyline
 66
     1
 10
0.0
 20
0.0
 30
0.0
  0
VERTEX
  5
11E
330
11D
100
AcDbEntity
  8
DIBUJOS
 62
     7
100
AcDbVertex
100
AcDb2dVertex
 10
64.18784663799748
 20
46.56788700736293
 30
0.0
  0
VERTEX
  5
11F
330
11D
100
AcDbEntity
  8
DIBUJOS
 62
     7
100
AcDbVertex
100
AcDb2dVertex
 10
64.18784663799748
 20
46.57393653382002
 30
0.0
  0
SEQEND
  5
120
330
11D
100
AcDbEntity
  8
DIBUJOS
 62
     7
  0
POLYLINE
  5
121
330
52
100
AcDbEntity
  8
DIBUJOS
 62
     7
100
AcDb2dPolyline
 66
     1
 10
0.0
 20
0.0
 30
0.0
  0
VERTEX
  5
122
330
121
100
AcDbEntity
  8
DIBUJOS
 62
     7
100
AcDbVertex
100
AcDb2dVertex
 10
65.80346169140716
 20
46.56788700736293
 30
0.0
  0
VERTEX
  5
123
330
121
100
AcDbEntity
  8
DIBUJOS
 62
     7
100
AcDbVertex
100
AcDb2dVertex
 10
65.80346169140716
 20
46.57393653382002
 30
0.0
  0
SEQEND
  5
124
330
121
100
AcDbEntity
  8
DIBUJOS
 62
     7
  0
POLYLINE
  5
125
330
52
100
AcDbEntity
  8
DIBUJOS
 62
     7
100
AcDb2dPolyline
 66
     1
 10
0.0
 20
0.0
 30
0.0
  0
VERTEX
  5
126
330
125
100
AcDbEntity
  8
DIBUJOS
 62
     7
100
AcDbVertex
100
AcDb2dVertex
 10
69.7789630597273
 20
46.56788700736293
 30
0.0
  0
VERTEX
  5
127
330
125
100
AcDbEntity
  8
DIBUJOS
 62
     7
100
AcDbVertex
100
AcDb2dVertex
 10
69.7789630597273
 20
46.57393653382002
 30
0.0
  0
SEQEND
  5
128
330
125
100
AcDbEntity
  8
DIBUJOS
 62
     7
  0
POLYLINE
  5
129
330
52
100
AcDbEntity
  8
DIBUJOS
 62
     7
100
AcDb2dPolyline
 66
     1
 10
0.0
 20
0.0
 30
0.0
  0
VERTEX
  5
12A
330
129
100
AcDbEntity
  8
DIBUJOS
 62
     7
100
AcDbVertex
100
AcDb2dVertex
 10
71.38852618717758
 20
46.56788700736293
 30
0.0
  0
VERTEX
  5
12B
330
129
100
AcDbEntity
  8
DIBUJOS
 62
     7
100
AcDbVertex
100
AcDb2dVertex
 10
71.38852618717758
 20
46.57393653382002
 30
0.0
  0
SEQEND
  5
12C
330
129
100
AcDbEntity
  8
DIBUJOS
 62
     7
  0
POLYLINE
  5
12D
330
52
100
AcDbEntity
  8
DIBUJOS
 62
     7
100
AcDb2dPolyline
 66
     1
 10
0.0
 20
0.0
 30
0.0
  0
VERTEX
  5
12E
330
12D
100
AcDbEntity
  8
DIBUJOS
 62
     7
100
AcDbVertex
100
AcDb2dVertex
 10
62.98974933127694
 20
46.57393653382002
 30
0.0
  0
VERTEX
  5
12F
330
12D
100
AcDbEntity
  8
DIBUJOS
 62
     7
100
AcDbVertex
100
AcDb2dVertex
 10
62.99277040841694
 20
42.74312032712975
 30
0.0
  0
VERTEX
  5
130
330
12D
100
AcDbEntity
  8
DIBUJOS
 62
     7
100
AcDbVertex
100
AcDb2dVertex
 10
63.01649441419047
 20
42.58007956239735
 30
0.0
  0
VERTEX
  5
131
330
12D
100
AcDbEntity
  8
DIBUJOS
 62
     7
100
AcDbVertex
100
AcDb2dVertex
 10
63.0393682839705
 20
42.53795765766652
 30
0.0
  0
VERTEX
  5
132
330
12D
100
AcDbEntity
  8
DIBUJOS
 62
     7
100
AcDbVertex
100
AcDb2dVertex
 10
63.07585898715872
 20
42.477765358075
 30
0.0
  0
VERTEX
  5
133
330
12D
100
AcDbEntity
  8
DIBUJOS
 62
     7
100
AcDbVertex
100
AcDb2dVertex
 10
63.10471800976431
 20
42.44052346983906
 30
0.0
  0
VERTEX
  5
134
330
12D
100
AcDbEntity
  8
DIBUJOS
 62
     7
100
AcDbVertex
100
AcDb2dVertex
 10
63.15857298490784
 20
42.40905420458756
 30
0.0
  0
VERTEX
  5
135
330
12D
100
AcDbEntity
  8
DIBUJOS
 62
     7
100
AcDbVertex
100
AcDb2dVertex
 10
63.22022087332181
 20
42.3760896605832
 30
0.0
  0
VERTEX
  5
136
330
12D
100
AcDbEntity
  8
DIBUJOS
 62
     7
100
AcDbVertex
100
AcDb2dVertex
 10
63.36454855861121
 20
42.35325652599199
 30
0.0
  0
VERTEX
  5
137
330
12D
100
AcDbEntity
  8
DIBUJOS
 62
     7
100
AcDbVertex
100
AcDb2dVertex
 10
63.37096203665998
 20
42.34974473842077
 30
0.0
  0
VERTEX
  5
138
330
12D
100
AcDbEntity
  8
DIBUJOS
 62
     7
100
AcDbVertex
100
AcDb2dVertex
 10
63.80058200665503
 20
42.34974473842077
 30
0.0
  0
VERTEX
  5
139
330
12D
100
AcDbEntity
  8
DIBUJOS
 62
     7
100
AcDbVertex
100
AcDb2dVertex
 10
63.95737509595196
 20
42.3760896605832
 30
0.0
  0
VERTEX
  5
13A
330
12D
100
AcDbEntity
  8
DIBUJOS
 62
     7
100
AcDbVertex
100
AcDb2dVertex
 10
63.99933468164213
 20
42.39955804431776
 30
0.0
  0
VERTEX
  5
13B
330
12D
100
AcDbEntity
  8
DIBUJOS
 62
     7
100
AcDbVertex
100
AcDb2dVertex
 10
64.0674318775902
 20
42.4393116099352
 30
0.0
  0
VERTEX
  5
13C
330
12D
100
AcDbEntity
  8
DIBUJOS
 62
     7
100
AcDbVertex
100
AcDb2dVertex
 10
64.09103048016186
 20
42.45867856458502
 30
0.0
  0
VERTEX
  5
13D
330
12D
100
AcDbEntity
  8
DIBUJOS
 62
     7
100
AcDbVertex
100
AcDb2dVertex
 10
64.12249528359011
 20
42.51254117655962
 30
0.0
  0
VERTEX
  5
13E
330
12D
100
AcDbEntity
  8
DIBUJOS
 62
     7
100
AcDbVertex
100
AcDb2dVertex
 10
64.16118950018628
 20
42.58617795417307
 30
0.0
  0
VERTEX
  5
13F
330
12D
100
AcDbEntity
  8
DIBUJOS
 62
     7
100
AcDbVertex
100
AcDb2dVertex
 10
64.18433697695207
 20
42.74275220839551
 30
0.0
  0
VERTEX
  5
140
330
12D
100
AcDbEntity
  8
DIBUJOS
 62
     7
100
AcDbVertex
100
AcDb2dVertex
 10
64.18784663799748
 20
42.86415320620816
 30
0.0
  0
VERTEX
  5
141
330
12D
100
AcDbEntity
  8
DIBUJOS
 62
     7
100
AcDbVertex
100
AcDb2dVertex
 10
64.18179471203807
 20
42.87020599035277
 30
0.0
  0
VERTEX
  5
142
330
12D
100
AcDbEntity
  8
DIBUJOS
 62
     7
100
AcDbVertex
100
AcDb2dVertex
 10
64.18784663799748
 20
42.88230830095412
 30
0.0
  0
VERTEX
  5
143
330
12D
100
AcDbEntity
  8
DIBUJOS
 62
     7
100
AcDbVertex
100
AcDb2dVertex
 10
64.18784663799748
 20
42.94282636933725
 30
0.0
  0
VERTEX
  5
144
330
12D
100
AcDbEntity
  8
DIBUJOS
 62
     7
100
AcDbVertex
100
AcDb2dVertex
 10
64.18179471203807
 20
42.95493193762645
 30
0.0
  0
VERTEX
  5
145
330
12D
100
AcDbEntity
  8
DIBUJOS
 62
     7
100
AcDbVertex
100
AcDb2dVertex
 10
64.18784663799748
 20
42.96098146408321
 30
0.0
  0
VERTEX
  5
146
330
12D
100
AcDbEntity
  8
DIBUJOS
 62
     7
100
AcDbVertex
100
AcDb2dVertex
 10
64.18784663799748
 20
43.06386576379136
 30
0.0
  0
VERTEX
  5
147
330
12D
100
AcDbEntity
  8
DIBUJOS
 62
     7
100
AcDbVertex
100
AcDb2dVertex
 10
64.18179471203807
 20
43.06991529024779
 30
0.0
  0
VERTEX
  5
148
330
12D
100
AcDbEntity
  8
DIBUJOS
 62
     7
100
AcDbVertex
100
AcDb2dVertex
 10
64.18784663799748
 20
43.08202085853731
 30
0.0
  0
VERTEX
  5
149
330
12D
100
AcDbEntity
  8
DIBUJOS
 62
     7
100
AcDbVertex
100
AcDb2dVertex
 10
64.18784663799748
 20
43.19700421115865
 30
0.0
  0
VERTEX
  5
14A
330
12D
100
AcDbEntity
  8
DIBUJOS
 62
     7
100
AcDbVertex
100
AcDb2dVertex
 10
64.18179471203807
 20
43.20910977944785
 30
0.0
  0
VERTEX
  5
14B
330
12D
100
AcDbEntity
  8
DIBUJOS
 62
     7
100
AcDbVertex
100
AcDb2dVertex
 10
64.18784663799748
 20
43.21515930590461
 30
0.0
  0
VERTEX
  5
14C
330
12D
100
AcDbEntity
  8
DIBUJOS
 62
     7
100
AcDbVertex
100
AcDb2dVertex
 10
64.18784663799748
 20
43.43302695823344
 30
0.0
  0
VERTEX
  5
14D
330
12D
100
AcDbEntity
  8
DIBUJOS
 62
     7
100
AcDbVertex
100
AcDb2dVertex
 10
64.18179471203807
 20
43.44512926883512
 30
0.0
  0
VERTEX
  5
14E
330
12D
100
AcDbEntity
  8
DIBUJOS
 62
     7
100
AcDbVertex
100
AcDb2dVertex
 10
64.18784663799748
 20
43.45118205297972
 30
0.0
  0
VERTEX
  5
14F
330
12D
100
AcDbEntity
  8
DIBUJOS
 62
     7
100
AcDbVertex
100
AcDb2dVertex
 10
64.18784663799748
 20
43.54196078439802
 30
0.0
  0
VERTEX
  5
150
330
12D
100
AcDbEntity
  8
DIBUJOS
 62
     7
100
AcDbVertex
100
AcDb2dVertex
 10
64.18179471203807
 20
43.54801356854294
 30
0.0
  0
VERTEX
  5
151
330
12D
100
AcDbEntity
  8
DIBUJOS
 62
     7
100
AcDbVertex
100
AcDb2dVertex
 10
64.18784663799748
 20
43.63878904227371
 30
0.0
  0
VERTEX
  5
152
330
12D
100
AcDbEntity
  8
DIBUJOS
 62
     7
100
AcDbVertex
100
AcDb2dVertex
 10
64.18179471203807
 20
43.64484182641831
 30
0.0
  0
VERTEX
  5
153
330
12D
100
AcDbEntity
  8
DIBUJOS
 62
     7
100
AcDbVertex
100
AcDb2dVertex
 10
64.18179471203807
 20
43.65694413701967
 30
0.0
  0
VERTEX
  5
154
330
12D
100
AcDbEntity
  8
DIBUJOS
 62
     7
100
AcDbVertex
100
AcDb2dVertex
 10
64.18784663799748
 20
43.66299692116428
 30
0.0
  0
VERTEX
  5
155
330
12D
100
AcDbEntity
  8
DIBUJOS
 62
     7
100
AcDbVertex
100
AcDb2dVertex
 10
64.18179471203807
 20
43.67510248945348
 30
0.0
  0
VERTEX
  5
156
330
12D
100
AcDbEntity
  8
DIBUJOS
 62
     7
100
AcDbVertex
100
AcDb2dVertex
 10
64.18179471203807
 20
43.68115201591024
 30
0.0
  0
VERTEX
  5
157
330
12D
100
AcDbEntity
  8
DIBUJOS
 62
     7
100
AcDbVertex
100
AcDb2dVertex
 10
64.18784663799748
 20
43.68720480005484
 30
0.0
  0
VERTEX
  5
158
330
12D
100
AcDbEntity
  8
DIBUJOS
 62
     7
100
AcDbVertex
100
AcDb2dVertex
 10
64.18482067501746
 20
43.85665669460254
 30
0.0
  0
VERTEX
  5
159
330
12D
100
AcDbEntity
  8
DIBUJOS
 62
     7
100
AcDbVertex
100
AcDb2dVertex
 10
64.18784663799748
 20
45.12149311956428
 30
0.0
  0
VERTEX
  5
15A
330
12D
100
AcDbEntity
  8
DIBUJOS
 62
     7
100
AcDbVertex
100
AcDb2dVertex
 10
64.18179471203807
 20
45.12754590370889
 30
0.0
  0
VERTEX
  5
15B
330
12D
100
AcDbEntity
  8
DIBUJOS
 62
     7
100
AcDbVertex
100
AcDb2dVertex
 10
64.18179471203807
 20
45.13964821431057
 30
0.0
  0
VERTEX
  5
15C
330
12D
100
AcDbEntity
  8
DIBUJOS
 62
     7
100
AcDbVertex
100
AcDb2dVertex
 10
64.18784663799748
 20
45.14570099845517
 30
0.0
  0
VERTEX
  5
15D
330
12D
100
AcDbEntity
  8
DIBUJOS
 62
     7
100
AcDbVertex
100
AcDb2dVertex
 10
64.18784663799748
 20
45.16990887734573
 30
0.0
  0
VERTEX
  5
15E
330
12D
100
AcDbEntity
  8
DIBUJOS
 62
     7
100
AcDbVertex
100
AcDb2dVertex
 10
64.18179471203807
 20
45.17595840380281
 30
0.0
  0
VERTEX
  5
15F
330
12D
100
AcDbEntity
  8
DIBUJOS
 62
     7
100
AcDbVertex
100
AcDb2dVertex
 10
64.18784663799748
 20
45.18806397209202
 30
0.0
  0
VERTEX
  5
160
330
12D
100
AcDbEntity
  8
DIBUJOS
 62
     7
100
AcDbVertex
100
AcDb2dVertex
 10
64.18784663799748
 20
45.29699779825659
 30
0.0
  0
VERTEX
  5
161
330
12D
100
AcDbEntity
  8
DIBUJOS
 62
     7
100
AcDbVertex
100
AcDb2dVertex
 10
64.18179471203807
 20
45.30910010885795
 30
0.0
  0
VERTEX
  5
162
330
12D
100
AcDbEntity
  8
DIBUJOS
 62
     7
100
AcDbVertex
100
AcDb2dVertex
 10
64.18784663799748
 20
45.31515289300287
 30
0.0
  0
VERTEX
  5
163
330
12D
100
AcDbEntity
  8
DIBUJOS
 62
     7
100
AcDbVertex
100
AcDb2dVertex
 10
64.18784663799748
 20
45.48460478755026
 30
0.0
  0
VERTEX
  5
164
330
12D
100
AcDbEntity
  8
DIBUJOS
 62
     7
100
AcDbVertex
100
AcDb2dVertex
 10
64.18179471203807
 20
45.49065757169486
 30
0.0
  0
VERTEX
  5
165
330
12D
100
AcDbEntity
  8
DIBUJOS
 62
     7
100
AcDbVertex
100
AcDb2dVertex
 10
64.18784663799748
 20
45.50275988229654
 30
0.0
  0
VERTEX
  5
166
330
12D
100
AcDbEntity
  8
DIBUJOS
 62
     7
100
AcDbVertex
100
AcDb2dVertex
 10
64.18784663799748
 20
45.51486219289758
 30
0.0
  0
VERTEX
  5
167
330
12D
100
AcDbEntity
  8
DIBUJOS
 62
     7
100
AcDbVertex
100
AcDb2dVertex
 10
64.18179471203807
 20
45.52091497704218
 30
0.0
  0
VERTEX
  5
168
330
12D
100
AcDbEntity
  8
DIBUJOS
 62
     7
100
AcDbVertex
100
AcDb2dVertex
 10
64.18784663799748
 20
45.63590158735168
 30
0.0
  0
VERTEX
  5
169
330
12D
100
AcDbEntity
  8
DIBUJOS
 62
     7
100
AcDbVertex
100
AcDb2dVertex
 10
64.18179471203807
 20
45.64195111380844
 30
0.0
  0
VERTEX
  5
16A
330
12D
100
AcDbEntity
  8
DIBUJOS
 62
     7
100
AcDbVertex
100
AcDb2dVertex
 10
64.18784663799748
 20
45.65405668209765
 30
0.0
  0
VERTEX
  5
16B
330
12D
100
AcDbEntity
  8
DIBUJOS
 62
     7
100
AcDbVertex
100
AcDb2dVertex
 10
64.18784663799748
 20
46.15030679745091
 30
0.0
  0
VERTEX
  5
16C
330
12D
100
AcDbEntity
  8
DIBUJOS
 62
     7
100
AcDbVertex
100
AcDb2dVertex
 10
64.18179471203807
 20
46.15635958159584
 30
0.0
  0
VERTEX
  5
16D
330
12D
100
AcDbEntity
  8
DIBUJOS
 62
     7
100
AcDbVertex
100
AcDb2dVertex
 10
64.18179471203807
 20
46.17451467634179
 30
0.0
  0
VERTEX
  5
16E
330
12D
100
AcDbEntity
  8
DIBUJOS
 62
     7
100
AcDbVertex
100
AcDb2dVertex
 10
64.18784663799748
 20
46.18056746048672
 30
0.0
  0
VERTEX
  5
16F
330
12D
100
AcDbEntity
  8
DIBUJOS
 62
     7
100
AcDbVertex
100
AcDb2dVertex
 10
64.18784663799748
 20
46.4347453023078
 30
0.0
  0
VERTEX
  5
170
330
12D
100
AcDbEntity
  8
DIBUJOS
 62
     7
100
AcDbVertex
100
AcDb2dVertex
 10
64.18179471203807
 20
46.4407980864524
 30
0.0
  0
VERTEX
  5
171
330
12D
100
AcDbEntity
  8
DIBUJOS
 62
     7
100
AcDbVertex
100
AcDb2dVertex
 10
64.18784663799748
 20
46.45290039705376
 30
0.0
  0
VERTEX
  5
172
330
12D
100
AcDbEntity
  8
DIBUJOS
 62
     7
100
AcDbVertex
100
AcDb2dVertex
 10
64.18784663799748
 20
46.52552403372609
 30
0.0
  0
VERTEX
  5
173
330
12D
100
AcDbEntity
  8
DIBUJOS
 62
     7
100
AcDbVertex
100
AcDb2dVertex
 10
64.18179471203807
 20
46.53157356018317
 30
0.0
  0
VERTEX
  5
174
330
12D
100
AcDbEntity
  8
DIBUJOS
 62
     7
100
AcDbVertex
100
AcDb2dVertex
 10
64.18551935000123
 20
46.54414497784423
 30
0.0
  0
VERTEX
  5
175
330
12D
100
AcDbEntity
  8
DIBUJOS
 62
     7
100
AcDbVertex
100
AcDb2dVertex
 10
64.18784663799748
 20
46.56788700736293
 30
0.0
  0
SEQEND
  5
176
330
12D
100
AcDbEntity
  8
DIBUJOS
 62
     7
  0
POLYLINE
  5
177
330
52
100
AcDbEntity
  8
DIBUJOS
 62
     7
100
AcDb2dPolyline
 66
     1
 10
0.0
 20
0.0
 30
0.0
  0
VERTEX
  5
178
330
177
100
AcDbEntity
  8
DIBUJOS
 62
     7
100
AcDbVertex
100
AcDb2dVertex
 10
68.58691767896617
 20
46.57393653382002
 30
0.0
  0
VERTEX
  5
179
330
177
100
AcDbEntity
  8
DIBUJOS
 62
     7
100
AcDbVertex
100
AcDb2dVertex
 10
68.58993875610682
 20
42.73706754298514
 30
0.0
  0
VERTEX
  5
17A
330
177
100
AcDbEntity
  8
DIBUJOS
 62
     7
100
AcDbVertex
100
AcDb2dVertex
 10
68.615392348901
 20
42.57473369652998
 30
0.0
  0
VERTEX
  5
17B
330
177
100
AcDbEntity
  8
DIBUJOS
 62
     7
100
AcDbVertex
100
AcDb2dVertex
 10
68.64258692900623
 20
42.52585534706485
 30
0.0
  0
VERTEX
  5
17C
330
177
100
AcDbEntity
  8
DIBUJOS
 62
     7
100
AcDbVertex
100
AcDb2dVertex
 10
68.67889197031167
 20
42.46533727868172
 30
0.0
  0
VERTEX
  5
17D
330
177
100
AcDbEntity
  8
DIBUJOS
 62
     7
100
AcDbVertex
100
AcDb2dVertex
 10
68.68978413414828
 20
42.44657625398366
 30
0.0
  0
VERTEX
  5
17E
330
177
100
AcDbEntity
  8
DIBUJOS
 62
     7
100
AcDbVertex
100
AcDb2dVertex
 10
68.737261460729
 20
42.42097082697754
 30
0.0
  0
VERTEX
  5
17F
330
177
100
AcDbEntity
  8
DIBUJOS
 62
     7
100
AcDbVertex
100
AcDb2dVertex
 10
68.81201479806565
 20
42.37758493933573
 30
0.0
  0
VERTEX
  5
180
330
177
100
AcDbEntity
  8
DIBUJOS
 62
     7
100
AcDbVertex
100
AcDb2dVertex
 10
68.96813038434921
 20
42.34974473842077
 30
0.0
  0
VERTEX
  5
181
330
177
100
AcDbEntity
  8
DIBUJOS
 62
     7
100
AcDbVertex
100
AcDb2dVertex
 10
69.39775035434425
 20
42.34974473842077
 30
0.0
  0
VERTEX
  5
182
330
177
100
AcDbEntity
  8
DIBUJOS
 62
     7
100
AcDbVertex
100
AcDb2dVertex
 10
69.55454181502893
 20
42.3760896605832
 30
0.0
  0
VERTEX
  5
183
330
177
100
AcDbEntity
  8
DIBUJOS
 62
     7
100
AcDbVertex
100
AcDb2dVertex
 10
69.6149812725865
 20
42.41147466670776
 30
0.0
  0
VERTEX
  5
184
330
177
100
AcDbEntity
  8
DIBUJOS
 62
     7
100
AcDbVertex
100
AcDb2dVertex
 10
69.67609660454583
 20
42.44657625398366
 30
0.0
  0
VERTEX
  5
185
330
177
100
AcDbEntity
  8
DIBUJOS
 62
     7
100
AcDbVertex
100
AcDb2dVertex
 10
69.68354425185795
 20
42.45774686584164
 30
0.0
  0
VERTEX
  5
186
330
177
100
AcDbEntity
  8
DIBUJOS
 62
     7
100
AcDbVertex
100
AcDb2dVertex
 10
69.72310814780383
 20
42.52012833171153
 30
0.0
  0
VERTEX
  5
187
330
177
100
AcDbEntity
  8
DIBUJOS
 62
     7
100
AcDbVertex
100
AcDb2dVertex
 10
69.75657451662558
 20
42.58516155554378
 30
0.0
  0
VERTEX
  5
188
330
177
100
AcDbEntity
  8
DIBUJOS
 62
     7
100
AcDbVertex
100
AcDb2dVertex
 10
69.7759419825873
 20
42.71891244823919
 30
0.0
  0
VERTEX
  5
189
330
177
100
AcDbEntity
  8
DIBUJOS
 62
     7
100
AcDbVertex
100
AcDb2dVertex
 10
69.7789630597273
 20
46.56788700736293
 30
0.0
  0
SEQEND
  5
18A
330
177
100
AcDbEntity
  8
DIBUJOS
 62
     7
  0
POLYLINE
  5
18B
330
52
100
AcDbEntity
  8
DIBUJOS
 62
     7
100
AcDb2dPolyline
 66
     1
 10
0.0
 20
0.0
 30
0.0
  0
VERTEX
  5
18C
330
18B
100
AcDbEntity
  8
DIBUJOS
 62
     7
100
AcDbVertex
100
AcDb2dVertex
 10
71.38852618717758
 20
46.56788700736293
 30
0.0
  0
VERTEX
  5
18D
330
18B
100
AcDbEntity
  8
DIBUJOS
 62
     7
100
AcDbVertex
100
AcDb2dVertex
 10
71.39154726431887
 20
42.74917311127435
 30
0.0
  0
VERTEX
  5
18E
330
18B
100
AcDbEntity
  8
DIBUJOS
 62
     7
100
AcDbVertex
100
AcDb2dVertex
 10
71.41527289870402
 20
42.58007956239735
 30
0.0
  0
VERTEX
  5
18F
330
18B
100
AcDbEntity
  8
DIBUJOS
 62
     7
100
AcDbVertex
100
AcDb2dVertex
 10
71.43814513987114
 20
42.53795765766652
 30
0.0
  0
VERTEX
  5
190
330
18B
100
AcDbEntity
  8
DIBUJOS
 62
     7
100
AcDbVertex
100
AcDb2dVertex
 10
71.47463747167355
 20
42.477765358075
 30
0.0
  0
VERTEX
  5
191
330
18B
100
AcDbEntity
  8
DIBUJOS
 62
     7
100
AcDbVertex
100
AcDb2dVertex
 10
71.50349649427915
 20
42.44052346983906
 30
0.0
  0
VERTEX
  5
192
330
18B
100
AcDbEntity
  8
DIBUJOS
 62
     7
100
AcDbVertex
100
AcDb2dVertex
 10
71.55097219224696
 20
42.41491804283294
 30
0.0
  0
VERTEX
  5
193
330
18B
100
AcDbEntity
  8
DIBUJOS
 62
     7
100
AcDbVertex
100
AcDb2dVertex
 10
71.618999357836
 20
42.3760896605832
 30
0.0
  0
VERTEX
  5
194
330
18B
100
AcDbEntity
  8
DIBUJOS
 62
     7
100
AcDbVertex
100
AcDb2dVertex
 10
71.77579081852068
 20
42.34974473842077
 30
0.0
  0
VERTEX
  5
195
330
18B
100
AcDbEntity
  8
DIBUJOS
 62
     7
100
AcDbVertex
100
AcDb2dVertex
 10
72.20541078851572
 20
42.34974473842077
 30
0.0
  0
VERTEX
  5
196
330
18B
100
AcDbEntity
  8
DIBUJOS
 62
     7
100
AcDbVertex
100
AcDb2dVertex
 10
72.36152637479928
 20
42.37758493933573
 30
0.0
  0
VERTEX
  5
197
330
18B
100
AcDbEntity
  8
DIBUJOS
 62
     7
100
AcDbVertex
100
AcDb2dVertex
 10
72.42264170675797
 20
42.41147466670776
 30
0.0
  0
VERTEX
  5
198
330
18B
100
AcDbEntity
  8
DIBUJOS
 62
     7
100
AcDbVertex
100
AcDb2dVertex
 10
72.48375703871665
 20
42.44657625398366
 30
0.0
  0
VERTEX
  5
199
330
18B
100
AcDbEntity
  8
DIBUJOS
 62
     7
100
AcDbVertex
100
AcDb2dVertex
 10
72.49120468602877
 20
42.45774686584164
 30
0.0
  0
VERTEX
  5
19A
330
18B
100
AcDbEntity
  8
DIBUJOS
 62
     7
100
AcDbVertex
100
AcDb2dVertex
 10
72.52750972733486
 20
42.51826493422477
 30
0.0
  0
VERTEX
  5
19B
330
18B
100
AcDbEntity
  8
DIBUJOS
 62
     7
100
AcDbVertex
100
AcDb2dVertex
 10
72.56028393562512
 20
42.57419943571241
 30
0.0
  0
VERTEX
  5
19C
330
18B
100
AcDbEntity
  8
DIBUJOS
 62
     7
100
AcDbVertex
100
AcDb2dVertex
 10
72.56455578756041
 20
42.59128600882259
 30
0.0
  0
VERTEX
  5
19D
330
18B
100
AcDbEntity
  8
DIBUJOS
 62
     7
100
AcDbVertex
100
AcDb2dVertex
 10
72.58360241675811
 20
42.71891244823919
 30
0.0
  0
VERTEX
  5
19E
330
18B
100
AcDbEntity
  8
DIBUJOS
 62
     7
100
AcDbVertex
100
AcDb2dVertex
 10
72.58662349389812
 20
46.57393653382002
 30
0.0
  0
SEQEND
  5
19F
330
18B
100
AcDbEntity
  8
DIBUJOS
 62
     7
  0
POLYLINE
  5
1A0
330
52
100
AcDbEntity
  8
DIBUJOS
 62
     7
100
AcDb2dPolyline
 66
     1
 10
0.0
 20
0.0
 30
0.0
  0
VERTEX
  5
1A1
330
1A0
100
AcDbEntity
  8
DIBUJOS
 62
     7
100
AcDbVertex
100
AcDb2dVertex
 10
65.80346169140716
 20
46.56788700736293
 30
0.0
  0
VERTEX
  5
1A2
330
1A0
100
AcDbEntity
  8
DIBUJOS
 62
     7
100
AcDbVertex
100
AcDb2dVertex
 10
65.8064811399349
 20
42.73101801652839
 30
0.0
  0
VERTEX
  5
1A3
330
1A0
100
AcDbEntity
  8
DIBUJOS
 62
     7
100
AcDbVertex
100
AcDb2dVertex
 10
65.82999179740295
 20
42.57413102426605
 30
0.0
  0
VERTEX
  5
1A4
330
1A0
100
AcDbEntity
  8
DIBUJOS
 62
     7
100
AcDbVertex
100
AcDb2dVertex
 10
65.85307901548781
 20
42.53190813120945
 30
0.0
  0
VERTEX
  5
1A5
330
1A0
100
AcDbEntity
  8
DIBUJOS
 62
     7
100
AcDbVertex
100
AcDb2dVertex
 10
65.89301586381407
 20
42.46412541877785
 30
0.0
  0
VERTEX
  5
1A6
330
1A0
100
AcDbEntity
  8
DIBUJOS
 62
     7
100
AcDbVertex
100
AcDb2dVertex
 10
65.91843036989518
 20
42.43447068569446
 30
0.0
  0
VERTEX
  5
1A7
330
1A0
100
AcDbEntity
  8
DIBUJOS
 62
     7
100
AcDbVertex
100
AcDb2dVertex
 10
65.96623341907866
 20
42.40905420458756
 30
0.0
  0
VERTEX
  5
1A8
330
1A0
100
AcDbEntity
  8
DIBUJOS
 62
     7
100
AcDbVertex
100
AcDb2dVertex
 10
66.03376222908611
 20
42.37044408742763
 30
0.0
  0
VERTEX
  5
1A9
330
1A0
100
AcDbEntity
  8
DIBUJOS
 62
     7
100
AcDbVertex
100
AcDb2dVertex
 10
66.20282691744325
 20
42.34369521196368
 30
0.0
  0
VERTEX
  5
1AA
330
1A0
100
AcDbEntity
  8
DIBUJOS
 62
     7
100
AcDbVertex
100
AcDb2dVertex
 10
66.58403962282695
 20
42.34369521196368
 30
0.0
  0
VERTEX
  5
1AB
330
1A0
100
AcDbEntity
  8
DIBUJOS
 62
     7
100
AcDbVertex
100
AcDb2dVertex
 10
66.74700678405996
 20
42.37035612985387
 30
0.0
  0
VERTEX
  5
1AC
330
1A0
100
AcDbEntity
  8
DIBUJOS
 62
     7
100
AcDbVertex
100
AcDb2dVertex
 10
66.81337113576154
 20
42.40542188256316
 30
0.0
  0
VERTEX
  5
1AD
330
1A0
100
AcDbEntity
  8
DIBUJOS
 62
     7
100
AcDbVertex
100
AcDb2dVertex
 10
66.87448646772087
 20
42.44052346983906
 30
0.0
  0
VERTEX
  5
1AE
330
1A0
100
AcDbEntity
  8
DIBUJOS
 62
     7
100
AcDbVertex
100
AcDb2dVertex
 10
66.89384904784258
 20
42.46412541877785
 30
0.0
  0
VERTEX
  5
1AF
330
1A0
100
AcDbEntity
  8
DIBUJOS
 62
     7
100
AcDbVertex
100
AcDb2dVertex
 10
66.93015571776094
 20
42.52464348716066
 30
0.0
  0
VERTEX
  5
1B0
330
1A0
100
AcDbEntity
  8
DIBUJOS
 62
     7
100
AcDbVertex
100
AcDb2dVertex
 10
66.9568731142537
 20
42.57413102426605
 30
0.0
  0
VERTEX
  5
1B1
330
1A0
100
AcDbEntity
  8
DIBUJOS
 62
     7
100
AcDbVertex
100
AcDb2dVertex
 10
66.96152769024683
 20
42.59740720441324
 30
0.0
  0
VERTEX
  5
1B2
330
1A0
100
AcDbEntity
  8
DIBUJOS
 62
     7
100
AcDbVertex
100
AcDb2dVertex
 10
66.98038377172175
 20
42.72496523238379
 30
0.0
  0
VERTEX
  5
1B3
330
1A0
100
AcDbEntity
  8
DIBUJOS
 62
     7
100
AcDbVertex
100
AcDb2dVertex
 10
66.98340484886239
 20
46.57393653382002
 30
0.0
  0
SEQEND
  5
1B4
330
1A0
100
AcDbEntity
  8
DIBUJOS
 62
     7
  0
ENDBLK
  5
55
330
52
100
AcDbEntity
  8
0
100
AcDbBlockEnd
  0
BLOCK
  5
1B7
330
1B5
100
AcDbEntity
  8
0
100
AcDbBlockBegin
  2
BLOCK_3
 70
     0
 10
0.0
 20
0.0
 30
0.0
  3
BLOCK_3
  1

  0
POLYLINE
  5
1B9
330
1B5
100
AcDbEntity
  8
DIBUJOS
 62
     7
100
AcDb2dPolyline
 66
     1
 10
0.0
 20
0.0
 30
0.0
  0
VERTEX
  5
1BA
330
1B9
100
AcDbEntity
  8
DIBUJOS
 62
     7
100
AcDbVertex
100
AcDb2dVertex
 10
67.77305944776064
 20
32.76904076486775
 30
0.0
  0
VERTEX
  5
1BB
330
1B9
100
AcDbEntity
  8
DIBUJOS
 62
     7
100
AcDbVertex
100
AcDb2dVertex
 10
67.77305944776064
 20
32.77509192016843
 30
0.0
  0
SEQEND
  5
1BC
330
1B9
100
AcDbEntity
  8
DIBUJOS
 62
     7
  0
POLYLINE
  5
1BD
330
1B5
100
AcDbEntity
  8
DIBUJOS
 62
     7
100
AcDb2dPolyline
 66
     1
 10
0.0
 20
0.0
 30
0.0
  0
VERTEX
  5
1BE
330
1BD
100
AcDbEntity
  8
DIBUJOS
 62
     7
100
AcDbVertex
100
AcDb2dVertex
 10
67.77910974510777
 20
32.76904076486775
 30
0.0
  0
VERTEX
  5
1BF
330
1BD
100
AcDbEntity
  8
DIBUJOS
 62
     7
100
AcDbVertex
100
AcDb2dVertex
 10
67.77305944776064
 20
32.76904076486775
 30
0.0
  0
SEQEND
  5
1C0
330
1BD
100
AcDbEntity
  8
DIBUJOS
 62
     7
  0
POLYLINE
  5
1C1
330
1B5
100
AcDbEntity
  8
DIBUJOS
 62
     7
100
AcDb2dPolyline
 66
     1
 10
0.0
 20
0.0
 30
0.0
  0
VERTEX
  5
1C2
330
1C1
100
AcDbEntity
  8
DIBUJOS
 62
     7
100
AcDbVertex
100
AcDb2dVertex
 10
67.78516167106783
 20
32.76904076486775
 30
0.0
  0
VERTEX
  5
1C3
330
1C1
100
AcDbEntity
  8
DIBUJOS
 62
     7
100
AcDbVertex
100
AcDb2dVertex
 10
67.77910974510777
 20
32.76904076486775
 30
0.0
  0
SEQEND
  5
1C4
330
1C1
100
AcDbEntity
  8
DIBUJOS
 62
     7
  0
POLYLINE
  5
1C5
330
1B5
100
AcDbEntity
  8
DIBUJOS
 62
     7
100
AcDb2dPolyline
 66
     1
 10
0.0
 20
0.0
 30
0.0
  0
VERTEX
  5
1C6
330
1C5
100
AcDbEntity
  8
DIBUJOS
 62
     7
100
AcDbVertex
100
AcDb2dVertex
 10
67.79121196841369
 20
32.76904076486775
 30
0.0
  0
VERTEX
  5
1C7
330
1C5
100
AcDbEntity
  8
DIBUJOS
 62
     7
100
AcDbVertex
100
AcDb2dVertex
 10
67.78516167106783
 20
32.76904076486775
 30
0.0
  0
SEQEND
  5
1C8
330
1C5
100
AcDbEntity
  8
DIBUJOS
 62
     7
  0
POLYLINE
  5
1C9
330
1B5
100
AcDbEntity
  8
DIBUJOS
 62
     7
100
AcDb2dPolyline
 66
     1
 10
0.0
 20
0.0
 30
0.0
  0
VERTEX
  5
1CA
330
1C9
100
AcDbEntity
  8
DIBUJOS
 62
     7
100
AcDbVertex
100
AcDb2dVertex
 10
67.79121196841369
 20
32.76904076486775
 30
0.0
  0
VERTEX
  5
1CB
330
1C9
100
AcDbEntity
  8
DIBUJOS
 62
     7
100
AcDbVertex
100
AcDb2dVertex
 10
67.79121196841369
 20
32.77509192016843
 30
0.0
  0
SEQEND
  5
1CC
330
1C9
100
AcDbEntity
  8
DIBUJOS
 62
     7
  0
POLYLINE
  5
1CD
330
1B5
100
AcDbEntity
  8
DIBUJOS
 62
     7
100
AcDb2dPolyline
 66
     1
 10
0.0
 20
0.0
 30
0.0
  0
VERTEX
  5
1CE
330
1CD
100
AcDbEntity
  8
DIBUJOS
 62
     7
100
AcDbVertex
100
AcDb2dVertex
 10
67.77305944776064
 20
32.76298798072315
 30
0.0
  0
VERTEX
  5
1CF
330
1CD
100
AcDbEntity
  8
DIBUJOS
 62
     7
100
AcDbVertex
100
AcDb2dVertex
 10
67.77305944776064
 20
32.76904076486775
 30
0.0
  0
SEQEND
  5
1D0
330
1CD
100
AcDbEntity
  8
DIBUJOS
 62
     7
  0
POLYLINE
  5
1D1
330
1B5
100
AcDbEntity
  8
DIBUJOS
 62
     7
100
AcDb2dPolyline
 66
     1
 10
0.0
 20
0.0
 30
0.0
  0
VERTEX
  5
1D2
330
1D1
100
AcDbEntity
  8
DIBUJOS
 62
     7
100
AcDbVertex
100
AcDb2dVertex
 10
67.79121196841369
 20
32.76298798072315
 30
0.0
  0
VERTEX
  5
1D3
330
1D1
100
AcDbEntity
  8
DIBUJOS
 62
     7
100
AcDbVertex
100
AcDb2dVertex
 10
67.79121196841369
 20
32.76904076486775
 30
0.0
  0
SEQEND
  5
1D4
330
1D1
100
AcDbEntity
  8
DIBUJOS
 62
     7
  0
POLYLINE
  5
1D5
330
1B5
100
AcDbEntity
  8
DIBUJOS
 62
     7
100
AcDb2dPolyline
 66
     1
 10
0.0
 20
0.0
 30
0.0
  0
VERTEX
  5
1D6
330
1D5
100
AcDbEntity
  8
DIBUJOS
 62
     7
100
AcDbVertex
100
AcDb2dVertex
 10
67.78516167106783
 20
32.75088567012179
 30
0.0
  0
VERTEX
  5
1D7
330
1D5
100
AcDbEntity
  8
DIBUJOS
 62
     7
100
AcDbVertex
100
AcDb2dVertex
 10
67.79121196841369
 20
32.76298798072315
 30
0.0
  0
SEQEND
  5
1D8
330
1D5
100
AcDbEntity
  8
DIBUJOS
 62
     7
  0
POLYLINE
  5
1D9
330
1B5
100
AcDbEntity
  8
DIBUJOS
 62
     7
100
AcDb2dPolyline
 66
     1
 10
0.0
 20
0.0
 30
0.0
  0
VERTEX
  5
1DA
330
1D9
100
AcDbEntity
  8
DIBUJOS
 62
     7
100
AcDbVertex
100
AcDb2dVertex
 10
67.77910974510777
 20
32.74483288597718
 30
0.0
  0
VERTEX
  5
1DB
330
1D9
100
AcDbEntity
  8
DIBUJOS
 62
     7
100
AcDbVertex
100
AcDb2dVertex
 10
67.77305944776064
 20
32.75088567012179
 30
0.0
  0
VERTEX
  5
1DC
330
1D9
100
AcDbEntity
  8
DIBUJOS
 62
     7
100
AcDbVertex
100
AcDb2dVertex
 10
67.77305944776064
 20
32.76298798072315
 30
0.0
  0
SEQEND
  5
1DD
330
1D9
100
AcDbEntity
  8
DIBUJOS
 62
     7
  0
POLYLINE
  5
1DE
330
1B5
100
AcDbEntity
  8
DIBUJOS
 62
     7
100
AcDb2dPolyline
 66
     1
 10
0.0
 20
0.0
 30
0.0
  0
VERTEX
  5
1DF
330
1DE
100
AcDbEntity
  8
DIBUJOS
 62
     7
100
AcDbVertex
100
AcDb2dVertex
 10
67.78516167106783
 20
32.74483288597718
 30
0.0
  0
VERTEX
  5
1E0
330
1DE
100
AcDbEntity
  8
DIBUJOS
 62
     7
100
AcDbVertex
100
AcDb2dVertex
 10
67.77910974510777
 20
32.74483288597718
 30
0.0
  0
SEQEND
  5
1E1
330
1DE
100
AcDbEntity
  8
DIBUJOS
 62
     7
  0
POLYLINE
  5
1E2
330
1B5
100
AcDbEntity
  8
DIBUJOS
 62
     7
100
AcDb2dPolyline
 66
     1
 10
0.0
 20
0.0
 30
0.0
  0
VERTEX
  5
1E3
330
1E2
100
AcDbEntity
  8
DIBUJOS
 62
     7
100
AcDbVertex
100
AcDb2dVertex
 10
67.78516167106783
 20
32.74483288597718
 30
0.0
  0
VERTEX
  5
1E4
330
1E2
100
AcDbEntity
  8
DIBUJOS
 62
     7
100
AcDbVertex
100
AcDb2dVertex
 10
67.78516167106783
 20
32.75088567012179
 30
0.0
  0
SEQEND
  5
1E5
330
1E2
100
AcDbEntity
  8
DIBUJOS
 62
     7
  0
POLYLINE
  5
1E6
330
1B5
100
AcDbEntity
  8
DIBUJOS
 62
     7
100
AcDb2dPolyline
 66
     1
 10
0.0
 20
0.0
 30
0.0
  0
VERTEX
  5
1E7
330
1E6
100
AcDbEntity
  8
DIBUJOS
 62
     7
100
AcDbVertex
100
AcDb2dVertex
 10
67.78516167106783
 20
32.73878173067651
 30
0.0
  0
VERTEX
  5
1E8
330
1E6
100
AcDbEntity
  8
DIBUJOS
 62
     7
100
AcDbVertex
100
AcDb2dVertex
 10
67.78516167106783
 20
32.74483288597718
 30
0.0
  0
SEQEND
  5
1E9
330
1E6
100
AcDbEntity
  8
DIBUJOS
 62
     7
  0
POLYLINE
  5
1EA
330
1B5
100
AcDbEntity
  8
DIBUJOS
 62
     7
100
AcDb2dPolyline
 66
     1
 10
0.0
 20
0.0
 30
0.0
  0
VERTEX
  5
1EB
330
1EA
100
AcDbEntity
  8
DIBUJOS
 62
     7
100
AcDbVertex
100
AcDb2dVertex
 10
67.77910974510777
 20
28.99873774002884
 30
0.0
  0
VERTEX
  5
1EC
330
1EA
100
AcDbEntity
  8
DIBUJOS
 62
     7
100
AcDbVertex
100
AcDb2dVertex
 10
67.78156243630717
 20
29.02858793438714
 30
0.0
  0
VERTEX
  5
1ED
330
1EA
100
AcDbEntity
  8
DIBUJOS
 62
     7
100
AcDbVertex
100
AcDb2dVertex
 10
67.78394998298498
 20
32.73333487648335
 30
0.0
  0
VERTEX
  5
1EE
330
1EA
100
AcDbEntity
  8
DIBUJOS
 62
     7
100
AcDbVertex
100
AcDb2dVertex
 10
67.78516167106783
 20
32.73878173067651
 30
0.0
  0
SEQEND
  5
1EF
330
1EA
100
AcDbEntity
  8
DIBUJOS
 62
     7
  0
POLYLINE
  5
1F0
330
1B5
100
AcDbEntity
  8
DIBUJOS
 62
     7
100
AcDb2dPolyline
 66
     1
 10
0.0
 20
0.0
 30
0.0
  0
VERTEX
  5
1F1
330
1F0
100
AcDbEntity
  8
DIBUJOS
 62
     7
100
AcDbVertex
100
AcDb2dVertex
 10
67.77910974510777
 20
28.99268658472817
 30
0.0
  0
VERTEX
  5
1F2
330
1F0
100
AcDbEntity
  8
DIBUJOS
 62
     7
100
AcDbVertex
100
AcDb2dVertex
 10
67.77910974510777
 20
28.99873774002884
 30
0.0
  0
SEQEND
  5
1F3
330
1F0
100
AcDbEntity
  8
DIBUJOS
 62
     7
  0
POLYLINE
  5
1F4
330
1B5
100
AcDbEntity
  8
DIBUJOS
 62
     7
100
AcDb2dPolyline
 66
     1
 10
0.0
 20
0.0
 30
0.0
  0
VERTEX
  5
1F5
330
1F4
100
AcDbEntity
  8
DIBUJOS
 62
     7
100
AcDbVertex
100
AcDb2dVertex
 10
67.78516167106783
 20
28.99268658472817
 30
0.0
  0
VERTEX
  5
1F6
330
1F4
100
AcDbEntity
  8
DIBUJOS
 62
     7
100
AcDbVertex
100
AcDb2dVertex
 10
67.77910974510777
 20
28.99268658472817
 30
0.0
  0
SEQEND
  5
1F7
330
1F4
100
AcDbEntity
  8
DIBUJOS
 62
     7
  0
POLYLINE
  5
1F8
330
1B5
100
AcDbEntity
  8
DIBUJOS
 62
     7
100
AcDb2dPolyline
 66
     1
 10
0.0
 20
0.0
 30
0.0
  0
VERTEX
  5
1F9
330
1F8
100
AcDbEntity
  8
DIBUJOS
 62
     7
100
AcDbVertex
100
AcDb2dVertex
 10
67.77305944776064
 20
32.77509192016843
 30
0.0
  0
VERTEX
  5
1FA
330
1F8
100
AcDbEntity
  8
DIBUJOS
 62
     7
100
AcDbVertex
100
AcDb2dVertex
 10
67.70417074588772
 20
33.07116688625514
 30
0.0
  0
VERTEX
  5
1FB
330
1F8
100
AcDbEntity
  8
DIBUJOS
 62
     7
100
AcDbVertex
100
AcDb2dVertex
 10
67.68713545376228
 20
33.12549534760095
 30
0.0
  0
VERTEX
  5
1FC
330
1F8
100
AcDbEntity
  8
DIBUJOS
 62
     7
100
AcDbVertex
100
AcDb2dVertex
 10
67.57482792893846
 20
33.3087451793092
 30
0.0
  0
VERTEX
  5
1FD
330
1F8
100
AcDbEntity
  8
DIBUJOS
 62
     7
100
AcDbVertex
100
AcDb2dVertex
 10
67.47656067690794
 20
33.43474440361265
 30
0.0
  0
VERTEX
  5
1FE
330
1F8
100
AcDbEntity
  8
DIBUJOS
 62
     7
100
AcDbVertex
100
AcDb2dVertex
 10
67.40999926303064
 20
33.50131525614037
 30
0.0
  0
VERTEX
  5
1FF
330
1F8
100
AcDbEntity
  8
DIBUJOS
 62
     7
100
AcDbVertex
100
AcDb2dVertex
 10
67.31187207171882
 20
33.58454103812978
 30
0.0
  0
VERTEX
  5
200
330
1F8
100
AcDbEntity
  8
DIBUJOS
 62
     7
100
AcDbVertex
100
AcDb2dVertex
 10
67.25206940184925
 20
33.62114116184637
 30
0.0
  0
VERTEX
  5
201
330
1F8
100
AcDbEntity
  8
DIBUJOS
 62
     7
100
AcDbVertex
100
AcDb2dVertex
 10
67.22148730667463
 20
33.63911056838064
 30
0.0
  0
VERTEX
  5
202
330
1F8
100
AcDbEntity
  8
DIBUJOS
 62
     7
100
AcDbVertex
100
AcDb2dVertex
 10
67.09474212748283
 20
33.70526117916797
 30
0.0
  0
VERTEX
  5
203
330
1F8
100
AcDbEntity
  8
DIBUJOS
 62
     7
100
AcDbVertex
100
AcDb2dVertex
 10
66.95678069046521
 20
33.75670332902172
 30
0.0
  0
VERTEX
  5
204
330
1F8
100
AcDbEntity
  8
DIBUJOS
 62
     7
100
AcDbVertex
100
AcDb2dVertex
 10
66.82358783235158
 20
33.79393870188165
 30
0.0
  0
VERTEX
  5
205
330
1F8
100
AcDbEntity
  8
DIBUJOS
 62
     7
100
AcDbVertex
100
AcDb2dVertex
 10
66.69598274548817
 20
33.82811510578986
 30
0.0
  0
VERTEX
  5
206
330
1F8
100
AcDbEntity
  8
DIBUJOS
 62
     7
100
AcDbVertex
100
AcDb2dVertex
 10
66.29661751945207
 20
33.82811510578986
 30
0.0
  0
VERTEX
  5
207
330
1F8
100
AcDbEntity
  8
DIBUJOS
 62
     7
100
AcDbVertex
100
AcDb2dVertex
 10
65.98842530715854
 20
33.77724630900911
 30
0.0
  0
VERTEX
  5
208
330
1F8
100
AcDbEntity
  8
DIBUJOS
 62
     7
100
AcDbVertex
100
AcDb2dVertex
 10
65.75239042305837
 20
33.74084653309887
 30
0.0
  0
VERTEX
  5
209
330
1F8
100
AcDbEntity
  8
DIBUJOS
 62
     7
100
AcDbVertex
100
AcDb2dVertex
 10
65.41370568930547
 20
33.644422228525
 30
0.0
  0
VERTEX
  5
20A
330
1F8
100
AcDbEntity
  8
DIBUJOS
 62
     7
100
AcDbVertex
100
AcDb2dVertex
 10
65.00223823996411
 20
33.52338609175938
 30
0.0
  0
VERTEX
  5
20B
330
1F8
100
AcDbEntity
  8
DIBUJOS
 62
     7
100
AcDbVertex
100
AcDb2dVertex
 10
64.71791335138926
 20
33.39117119891522
 30
0.0
  0
VERTEX
  5
20C
330
1F8
100
AcDbEntity
  8
DIBUJOS
 62
     7
100
AcDbVertex
100
AcDb2dVertex
 10
64.24472472604715
 20
33.16967285340591
 30
0.0
  0
VERTEX
  5
20D
330
1F8
100
AcDbEntity
  8
DIBUJOS
 62
     7
100
AcDbVertex
100
AcDb2dVertex
 10
63.53224399057673
 20
32.7313330272606
 30
0.0
  0
VERTEX
  5
20E
330
1F8
100
AcDbEntity
  8
DIBUJOS
 62
     7
100
AcDbVertex
100
AcDb2dVertex
 10
62.9746215521436
 20
32.27278902067088
 30
0.0
  0
VERTEX
  5
20F
330
1F8
100
AcDbEntity
  8
DIBUJOS
 62
     7
100
AcDbVertex
100
AcDb2dVertex
 10
62.8823817968769
 20
32.15293216692971
 30
0.0
  0
VERTEX
  5
210
330
1F8
100
AcDbEntity
  8
DIBUJOS
 62
     7
100
AcDbVertex
100
AcDb2dVertex
 10
62.58276016056955
 20
31.75729248511999
 30
0.0
  0
VERTEX
  5
211
330
1F8
100
AcDbEntity
  8
DIBUJOS
 62
     7
100
AcDbVertex
100
AcDb2dVertex
 10
62.35318516998805
 20
31.20100643919467
 30
0.0
  0
VERTEX
  5
212
330
1F8
100
AcDbEntity
  8
DIBUJOS
 62
     7
100
AcDbVertex
100
AcDb2dVertex
 10
62.34652902860012
 20
31.18285134444871
 30
0.0
  0
VERTEX
  5
213
330
1F8
100
AcDbEntity
  8
DIBUJOS
 62
     7
100
AcDbVertex
100
AcDb2dVertex
 10
62.32483834617508
 20
31.11735064240132
 30
0.0
  0
VERTEX
  5
214
330
1F8
100
AcDbEntity
  8
DIBUJOS
 62
     7
100
AcDbVertex
100
AcDb2dVertex
 10
62.31866183131963
 20
31.08098344337082
 30
0.0
  0
VERTEX
  5
215
330
1F8
100
AcDbEntity
  8
DIBUJOS
 62
     7
100
AcDbVertex
100
AcDb2dVertex
 10
62.22429917898986
 20
30.51775200681198
 30
0.0
  0
VERTEX
  5
216
330
1F8
100
AcDbEntity
  8
DIBUJOS
 62
     7
100
AcDbVertex
100
AcDb2dVertex
 10
62.22429917898986
 20
30.38461193060045
 30
0.0
  0
VERTEX
  5
217
330
1F8
100
AcDbEntity
  8
DIBUJOS
 62
     7
100
AcDbVertex
100
AcDb2dVertex
 10
62.25739178112477
 20
29.87642238904226
 30
0.0
  0
VERTEX
  5
218
330
1F8
100
AcDbEntity
  8
DIBUJOS
 62
     7
100
AcDbVertex
100
AcDb2dVertex
 10
62.26879125791591
 20
29.80416849994809
 30
0.0
  0
VERTEX
  5
219
330
1F8
100
AcDbEntity
  8
DIBUJOS
 62
     7
100
AcDbVertex
100
AcDb2dVertex
 10
62.42611771797523
 20
29.25344984266813
 30
0.0
  0
VERTEX
  5
21A
330
1F8
100
AcDbEntity
  8
DIBUJOS
 62
     7
100
AcDbVertex
100
AcDb2dVertex
 10
62.49799003889056
 20
29.12070557553816
 30
0.0
  0
VERTEX
  5
21B
330
1F8
100
AcDbEntity
  8
DIBUJOS
 62
     7
100
AcDbVertex
100
AcDb2dVertex
 10
62.71442945120797
 20
28.74455989820777
 30
0.0
  0
VERTEX
  5
21C
330
1F8
100
AcDbEntity
  8
DIBUJOS
 62
     7
100
AcDbVertex
100
AcDb2dVertex
 10
62.81589529919864
 20
28.65227285728493
 30
0.0
  0
VERTEX
  5
21D
330
1F8
100
AcDbEntity
  8
DIBUJOS
 62
     7
100
AcDbVertex
100
AcDb2dVertex
 10
63.13331686144196
 20
28.35874703199121
 30
0.0
  0
VERTEX
  5
21E
330
1F8
100
AcDbEntity
  8
DIBUJOS
 62
     7
100
AcDbVertex
100
AcDb2dVertex
 10
63.37459262222111
 20
28.24346722976984
 30
0.0
  0
VERTEX
  5
21F
330
1F8
100
AcDbEntity
  8
DIBUJOS
 62
     7
100
AcDbVertex
100
AcDb2dVertex
 10
63.41573953001603
 20
28.22289004405943
 30
0.0
  0
VERTEX
  5
220
330
1F8
100
AcDbEntity
  8
DIBUJOS
 62
     7
100
AcDbVertex
100
AcDb2dVertex
 10
63.71942862732678
 20
28.08099330273507
 30
0.0
  0
VERTEX
  5
221
330
1F8
100
AcDbEntity
  8
DIBUJOS
 62
     7
100
AcDbVertex
100
AcDb2dVertex
 10
64.28715335228395
 20
27.93147682937842
 30
0.0
  0
VERTEX
  5
222
330
1F8
100
AcDbEntity
  8
DIBUJOS
 62
     7
100
AcDbVertex
100
AcDb2dVertex
 10
64.5596870826388
 20
27.90069656512099
 30
0.0
  0
VERTEX
  5
223
330
1F8
100
AcDbEntity
  8
DIBUJOS
 62
     7
100
AcDbVertex
100
AcDb2dVertex
 10
64.78991921857164
 20
27.87309417542292
 30
0.0
  0
VERTEX
  5
224
330
1F8
100
AcDbEntity
  8
DIBUJOS
 62
     7
100
AcDbVertex
100
AcDb2dVertex
 10
65.14692910595515
 20
27.87309417542292
 30
0.0
  0
VERTEX
  5
225
330
1F8
100
AcDbEntity
  8
DIBUJOS
 62
     7
100
AcDbVertex
100
AcDb2dVertex
 10
65.15297940330228
 20
27.8791453307236
 30
0.0
  0
VERTEX
  5
226
330
1F8
100
AcDbEntity
  8
DIBUJOS
 62
     7
100
AcDbVertex
100
AcDb2dVertex
 10
65.16508162660818
 20
27.8791453307236
 30
0.0
  0
VERTEX
  5
227
330
1F8
100
AcDbEntity
  8
DIBUJOS
 62
     7
100
AcDbVertex
100
AcDb2dVertex
 10
65.17113192395469
 20
27.87309417542292
 30
0.0
  0
VERTEX
  5
228
330
1F8
100
AcDbEntity
  8
DIBUJOS
 62
     7
100
AcDbVertex
100
AcDb2dVertex
 10
65.4677251543633
 20
27.88227271112136
 30
0.0
  0
VERTEX
  5
229
330
1F8
100
AcDbEntity
  8
DIBUJOS
 62
     7
100
AcDbVertex
100
AcDb2dVertex
 10
65.824537979573
 20
27.89416652969676
 30
0.0
  0
VERTEX
  5
22A
330
1F8
100
AcDbEntity
  8
DIBUJOS
 62
     7
100
AcDbVertex
100
AcDb2dVertex
 10
66.20565296817561
 20
27.91825224529055
 30
0.0
  0
VERTEX
  5
22B
330
1F8
100
AcDbEntity
  8
DIBUJOS
 62
     7
100
AcDbVertex
100
AcDb2dVertex
 10
66.30893309106345
 20
27.92478390955871
 30
0.0
  0
VERTEX
  5
22C
330
1F8
100
AcDbEntity
  8
DIBUJOS
 62
     7
100
AcDbVertex
100
AcDb2dVertex
 10
66.64798263413024
 20
27.96746939429899
 30
0.0
  0
VERTEX
  5
22D
330
1F8
100
AcDbEntity
  8
DIBUJOS
 62
     7
100
AcDbVertex
100
AcDb2dVertex
 10
66.72591176684372
 20
27.97858136777479
 30
0.0
  0
VERTEX
  5
22E
330
1F8
100
AcDbEntity
  8
DIBUJOS
 62
     7
100
AcDbVertex
100
AcDb2dVertex
 10
67.0040495545792
 20
28.05073263969926
 30
0.0
  0
VERTEX
  5
22F
330
1F8
100
AcDbEntity
  8
DIBUJOS
 62
     7
100
AcDbVertex
100
AcDb2dVertex
 10
67.07174936895323
 20
28.07764602840261
 30
0.0
  0
VERTEX
  5
230
330
1F8
100
AcDbEntity
  8
DIBUJOS
 62
     7
100
AcDbVertex
100
AcDb2dVertex
 10
67.2880487205513
 20
28.17708206545315
 30
0.0
  0
VERTEX
  5
231
330
1F8
100
AcDbEntity
  8
DIBUJOS
 62
     7
100
AcDbVertex
100
AcDb2dVertex
 10
67.38067608571522
 20
28.24085945059435
 30
0.0
  0
VERTEX
  5
232
330
1F8
100
AcDbEntity
  8
DIBUJOS
 62
     7
100
AcDbVertex
100
AcDb2dVertex
 10
67.4705087509479
 20
28.30277506709271
 30
0.0
  0
VERTEX
  5
233
330
1F8
100
AcDbEntity
  8
DIBUJOS
 62
     7
100
AcDbVertex
100
AcDb2dVertex
 10
67.61422407774423
 20
28.4554726726972
 30
0.0
  0
VERTEX
  5
234
330
1F8
100
AcDbEntity
  8
DIBUJOS
 62
     7
100
AcDbVertex
100
AcDb2dVertex
 10
67.65022456841605
 20
28.50309192578343
 30
0.0
  0
VERTEX
  5
235
330
1F8
100
AcDbEntity
  8
DIBUJOS
 62
     7
100
AcDbVertex
100
AcDb2dVertex
 10
67.65930082874192
 20
28.52608794477045
 30
0.0
  0
VERTEX
  5
236
330
1F8
100
AcDbEntity
  8
DIBUJOS
 62
     7
100
AcDbVertex
100
AcDb2dVertex
 10
67.74652771315257
 20
28.7450257475793
 30
0.0
  0
VERTEX
  5
237
330
1F8
100
AcDbEntity
  8
DIBUJOS
 62
     7
100
AcDbVertex
100
AcDb2dVertex
 10
67.77519455942247
 20
28.98609953976536
 30
0.0
  0
VERTEX
  5
238
330
1F8
100
AcDbEntity
  8
DIBUJOS
 62
     7
100
AcDbVertex
100
AcDb2dVertex
 10
67.77910974510777
 20
28.99268658472817
 30
0.0
  0
SEQEND
  5
239
330
1F8
100
AcDbEntity
  8
DIBUJOS
 62
     7
  0
POLYLINE
  5
23A
330
1B5
100
AcDbEntity
  8
DIBUJOS
 62
     7
100
AcDb2dPolyline
 66
     1
 10
0.0
 20
0.0
 30
0.0
  0
VERTEX
  5
23B
330
23A
100
AcDbEntity
  8
DIBUJOS
 62
     7
100
AcDbVertex
100
AcDb2dVertex
 10
67.78516167106783
 20
28.99268658472817
 30
0.0
  0
VERTEX
  5
23C
330
23A
100
AcDbEntity
  8
DIBUJOS
 62
     7
100
AcDbVertex
100
AcDb2dVertex
 10
67.78888468041744
 20
28.98616795121204
 30
0.0
  0
VERTEX
  5
23D
330
23A
100
AcDbEntity
  8
DIBUJOS
 62
     7
100
AcDbVertex
100
AcDb2dVertex
 10
67.80666913452819
 20
28.81691314678315
 30
0.0
  0
VERTEX
  5
23E
330
23A
100
AcDbEntity
  8
DIBUJOS
 62
     7
100
AcDbVertex
100
AcDb2dVertex
 10
67.81206147221754
 20
28.76298538105068
 30
0.0
  0
VERTEX
  5
23F
330
23A
100
AcDbEntity
  8
DIBUJOS
 62
     7
100
AcDbVertex
100
AcDb2dVertex
 10
67.91344263233105
 20
28.50309192578343
 30
0.0
  0
VERTEX
  5
240
330
23A
100
AcDbEntity
  8
DIBUJOS
 62
     7
100
AcDbVertex
100
AcDb2dVertex
 10
67.91707281073894
 20
28.49582891057856
 30
0.0
  0
VERTEX
  5
241
330
23A
100
AcDbEntity
  8
DIBUJOS
 62
     7
100
AcDbVertex
100
AcDb2dVertex
 10
68.00299680473796
 20
28.39355216966708
 30
0.0
  0
VERTEX
  5
242
330
23A
100
AcDbEntity
  8
DIBUJOS
 62
     7
100
AcDbVertex
100
AcDb2dVertex
 10
68.09981296257357
 20
28.2967222829481
 30
0.0
  0
VERTEX
  5
243
330
23A
100
AcDbEntity
  8
DIBUJOS
 62
     7
100
AcDbVertex
100
AcDb2dVertex
 10
68.1972333358377
 20
28.23136329032456
 30
0.0
  0
VERTEX
  5
244
330
23A
100
AcDbEntity
  8
DIBUJOS
 62
     7
100
AcDbVertex
100
AcDb2dVertex
 10
68.28227299297016
 20
28.17103091015247
 30
0.0
  0
VERTEX
  5
245
330
23A
100
AcDbEntity
  8
DIBUJOS
 62
     7
100
AcDbVertex
100
AcDb2dVertex
 10
68.49978240403753
 20
28.07401533522246
 30
0.0
  0
VERTEX
  5
246
330
23A
100
AcDbEntity
  8
DIBUJOS
 62
     7
100
AcDbVertex
100
AcDb2dVertex
 10
68.56022186159576
 20
28.05073263969926
 30
0.0
  0
VERTEX
  5
247
330
23A
100
AcDbEntity
  8
DIBUJOS
 62
     7
100
AcDbVertex
100
AcDb2dVertex
 10
68.84449300594135
 20
27.97842825644284
 30
0.0
  0
VERTEX
  5
248
330
23A
100
AcDbEntity
  8
DIBUJOS
 62
     7
100
AcDbVertex
100
AcDb2dVertex
 10
68.96474164782079
 20
27.96133028142456
 30
0.0
  0
VERTEX
  5
249
330
23A
100
AcDbEntity
  8
DIBUJOS
 62
     7
100
AcDbVertex
100
AcDb2dVertex
 10
69.18314028159409
 20
27.93035618473583
 30
0.0
  0
VERTEX
  5
24A
330
23A
100
AcDbEntity
  8
DIBUJOS
 62
     7
100
AcDbVertex
100
AcDb2dVertex
 10
69.43688307499497
 20
27.91266042398571
 30
0.0
  0
VERTEX
  5
24B
330
23A
100
AcDbEntity
  8
DIBUJOS
 62
     7
100
AcDbVertex
100
AcDb2dVertex
 10
69.73972529353676
 20
27.89417467391637
 30
0.0
  0
VERTEX
  5
24C
330
23A
100
AcDbEntity
  8
DIBUJOS
 62
     7
100
AcDbVertex
100
AcDb2dVertex
 10
70.11470203969054
 20
27.88226945343352
 30
0.0
  0
VERTEX
  5
24D
330
23A
100
AcDbEntity
  8
DIBUJOS
 62
     7
100
AcDbVertex
100
AcDb2dVertex
 10
70.43549645948514
 20
27.8791453307236
 30
0.0
  0
VERTEX
  5
24E
330
23A
100
AcDbEntity
  8
DIBUJOS
 62
     7
100
AcDbVertex
100
AcDb2dVertex
 10
70.45364898013818
 20
27.8791453307236
 30
0.0
  0
VERTEX
  5
24F
330
23A
100
AcDbEntity
  8
DIBUJOS
 62
     7
100
AcDbVertex
100
AcDb2dVertex
 10
70.45969927748403
 20
27.87309417542292
 30
0.0
  0
VERTEX
  5
250
330
23A
100
AcDbEntity
  8
DIBUJOS
 62
     7
100
AcDbVertex
100
AcDb2dVertex
 10
70.76224997429806
 20
27.87309417542292
 30
0.0
  0
VERTEX
  5
251
330
23A
100
AcDbEntity
  8
DIBUJOS
 62
     7
100
AcDbVertex
100
AcDb2dVertex
 10
70.82248911245475
 20
27.88184106747285
 30
0.0
  0
VERTEX
  5
252
330
23A
100
AcDbEntity
  8
DIBUJOS
 62
     7
100
AcDbVertex
100
AcDb2dVertex
 10
71.05904352410691
 20
27.90674772042103
 30
0.0
  0
VERTEX
  5
253
330
23A
100
AcDbEntity
  8
DIBUJOS
 62
     7
100
AcDbVertex
100
AcDb2dVertex
 10
71.28815191705988
 20
27.93574765823433
 30
0.0
  0
VERTEX
  5
254
330
23A
100
AcDbEntity
  8
DIBUJOS
 62
     7
100
AcDbVertex
100
AcDb2dVertex
 10
71.84598281795846
 20
28.08309288259576
 30
0.0
  0
VERTEX
  5
255
330
23A
100
AcDbEntity
  8
DIBUJOS
 62
     7
100
AcDbVertex
100
AcDb2dVertex
 10
72.11101515677129
 20
28.20715541143336
 30
0.0
  0
VERTEX
  5
256
330
23A
100
AcDbEntity
  8
DIBUJOS
 62
     7
100
AcDbVertex
100
AcDb2dVertex
 10
72.13037936550654
 20
28.21623295880666
 30
0.0
  0
VERTEX
  5
257
330
23A
100
AcDbEntity
  8
DIBUJOS
 62
     7
100
AcDbVertex
100
AcDb2dVertex
 10
72.41904125053698
 20
28.35266655749928
 30
0.0
  0
VERTEX
  5
258
330
23A
100
AcDbEntity
  8
DIBUJOS
 62
     7
100
AcDbVertex
100
AcDb2dVertex
 10
72.53378843765562
 20
28.45558017639867
 30
0.0
  0
VERTEX
  5
259
330
23A
100
AcDbEntity
  8
DIBUJOS
 62
     7
100
AcDbVertex
100
AcDb2dVertex
 10
72.85589226231349
 20
28.75666383765305
 30
0.0
  0
VERTEX
  5
25A
330
23A
100
AcDbEntity
  8
DIBUJOS
 62
     7
100
AcDbVertex
100
AcDb2dVertex
 10
73.06646703916782
 20
29.1264325908918
 30
0.0
  0
VERTEX
  5
25B
330
23A
100
AcDbEntity
  8
DIBUJOS
 62
     7
100
AcDbVertex
100
AcDb2dVertex
 10
73.13605278741224
 20
29.25230965189847
 30
0.0
  0
VERTEX
  5
25C
330
23A
100
AcDbEntity
  8
DIBUJOS
 62
     7
100
AcDbVertex
100
AcDb2dVertex
 10
73.29943035912517
 20
29.82118503276767
 30
0.0
  0
VERTEX
  5
25D
330
23A
100
AcDbEntity
  8
DIBUJOS
 62
     7
100
AcDbVertex
100
AcDb2dVertex
 10
73.31256512308215
 20
29.99108323055951
 30
0.0
  0
VERTEX
  5
25E
330
23A
100
AcDbEntity
  8
DIBUJOS
 62
     7
100
AcDbVertex
100
AcDb2dVertex
 10
73.33997142287929
 20
30.40276702534705
 30
0.0
  0
VERTEX
  5
25F
330
23A
100
AcDbEntity
  8
DIBUJOS
 62
     7
100
AcDbVertex
100
AcDb2dVertex
 10
73.33997142287929
 20
30.5117008515113
 30
0.0
  0
VERTEX
  5
260
330
23A
100
AcDbEntity
  8
DIBUJOS
 62
     7
100
AcDbVertex
100
AcDb2dVertex
 10
73.2346522764978
 20
31.14068383208676
 30
0.0
  0
VERTEX
  5
261
330
23A
100
AcDbEntity
  8
DIBUJOS
 62
     7
100
AcDbVertex
100
AcDb2dVertex
 10
73.20866612724832
 20
31.20221667025493
 30
0.0
  0
VERTEX
  5
262
330
23A
100
AcDbEntity
  8
DIBUJOS
 62
     7
100
AcDbVertex
100
AcDb2dVertex
 10
72.98761774010184
 20
31.74534654353842
 30
0.0
  0
VERTEX
  5
263
330
23A
100
AcDbEntity
  8
DIBUJOS
 62
     7
100
AcDbVertex
100
AcDb2dVertex
 10
72.65766237210423
 20
32.18309998585936
 30
0.0
  0
VERTEX
  5
264
330
23A
100
AcDbEntity
  8
DIBUJOS
 62
     7
100
AcDbVertex
100
AcDb2dVertex
 10
72.61990460799032
 20
32.23647720233439
 30
0.0
  0
VERTEX
  5
265
330
23A
100
AcDbEntity
  8
DIBUJOS
 62
     7
100
AcDbVertex
100
AcDb2dVertex
 10
72.52432782465833
 20
32.32269191298491
 30
0.0
  0
VERTEX
  5
266
330
23A
100
AcDbEntity
  8
DIBUJOS
 62
     7
100
AcDbVertex
100
AcDb2dVertex
 10
72.03202742559823
 20
32.7313330272606
 30
0.0
  0
VERTEX
  5
267
330
23A
100
AcDbEntity
  8
DIBUJOS
 62
     7
100
AcDbVertex
100
AcDb2dVertex
 10
72.00177105302637
 20
32.74948812200656
 30
0.0
  0
VERTEX
  5
268
330
23A
100
AcDbEntity
  8
DIBUJOS
 62
     7
100
AcDbVertex
100
AcDb2dVertex
 10
71.3122847046991
 20
33.17269924547853
 30
0.0
  0
VERTEX
  5
269
330
23A
100
AcDbEntity
  8
DIBUJOS
 62
     7
100
AcDbVertex
100
AcDb2dVertex
 10
70.82336367764319
 20
33.39964281633642
 30
0.0
  0
VERTEX
  5
26A
330
23A
100
AcDbEntity
  8
DIBUJOS
 62
     7
100
AcDbVertex
100
AcDb2dVertex
 10
70.56203317621149
 20
33.52338609175938
 30
0.0
  0
VERTEX
  5
26B
330
23A
100
AcDbEntity
  8
DIBUJOS
 62
     7
100
AcDbVertex
100
AcDb2dVertex
 10
70.13355160671317
 20
33.64837380396563
 30
0.0
  0
VERTEX
  5
26C
330
23A
100
AcDbEntity
  8
DIBUJOS
 62
     7
100
AcDbVertex
100
AcDb2dVertex
 10
69.81188099311723
 20
33.74084653309887
 30
0.0
  0
VERTEX
  5
26D
330
23A
100
AcDbEntity
  8
DIBUJOS
 62
     7
100
AcDbVertex
100
AcDb2dVertex
 10
69.54640892879083
 20
33.78215238700772
 30
0.0
  0
VERTEX
  5
26E
330
23A
100
AcDbEntity
  8
DIBUJOS
 62
     7
100
AcDbVertex
100
AcDb2dVertex
 10
69.26765389672354
 20
33.82811510578986
 30
0.0
  0
VERTEX
  5
26F
330
23A
100
AcDbEntity
  8
DIBUJOS
 62
     7
100
AcDbVertex
100
AcDb2dVertex
 10
68.86223837334094
 20
33.82811510578986
 30
0.0
  0
VERTEX
  5
270
330
23A
100
AcDbEntity
  8
DIBUJOS
 62
     7
100
AcDbVertex
100
AcDb2dVertex
 10
68.71754750734864
 20
33.78966787302638
 30
0.0
  0
VERTEX
  5
271
330
23A
100
AcDbEntity
  8
DIBUJOS
 62
     7
100
AcDbVertex
100
AcDb2dVertex
 10
68.58933820505736
 20
33.75065054487711
 30
0.0
  0
VERTEX
  5
272
330
23A
100
AcDbEntity
  8
DIBUJOS
 62
     7
100
AcDbVertex
100
AcDb2dVertex
 10
68.45137513942683
 20
33.69921002386665
 30
0.0
  0
VERTEX
  5
273
330
23A
100
AcDbEntity
  8
DIBUJOS
 62
     7
100
AcDbVertex
100
AcDb2dVertex
 10
68.33035453497811
 20
33.63324510129165
 30
0.0
  0
VERTEX
  5
274
330
23A
100
AcDbEntity
  8
DIBUJOS
 62
     7
100
AcDbVertex
100
AcDb2dVertex
 10
68.29251371160126
 20
33.61164500157594
 30
0.0
  0
VERTEX
  5
275
330
23A
100
AcDbEntity
  8
DIBUJOS
 62
     7
100
AcDbVertex
100
AcDb2dVertex
 10
68.26442990879012
 20
33.59665637948252
 30
0.0
  0
VERTEX
  5
276
330
23A
100
AcDbEntity
  8
DIBUJOS
 62
     7
100
AcDbVertex
100
AcDb2dVertex
 10
68.12401578057246
 20
33.47710737724982
 30
0.0
  0
VERTEX
  5
277
330
23A
100
AcDbEntity
  8
DIBUJOS
 62
     7
100
AcDbVertex
100
AcDb2dVertex
 10
67.9775822986562
 20
33.29615747320859
 30
0.0
  0
VERTEX
  5
278
330
23A
100
AcDbEntity
  8
DIBUJOS
 62
     7
100
AcDbVertex
100
AcDb2dVertex
 10
67.87732162429675
 20
33.13122073411066
 30
0.0
  0
VERTEX
  5
279
330
23A
100
AcDbEntity
  8
DIBUJOS
 62
     7
100
AcDbVertex
100
AcDb2dVertex
 10
67.85385819660569
 20
33.04689222476182
 30
0.0
  0
VERTEX
  5
27A
330
23A
100
AcDbEntity
  8
DIBUJOS
 62
     7
100
AcDbVertex
100
AcDb2dVertex
 10
67.79121196841369
 20
32.77509192016843
 30
0.0
  0
SEQEND
  5
27B
330
23A
100
AcDbEntity
  8
DIBUJOS
 62
     7
  0
ENDBLK
  5
1B8
330
1B5
100
AcDbEntity
  8
0
100
AcDbBlockEnd
  0
ENDSEC
  0
SECTION
  2
ENTITIES
  0
MTEXT
  5
41
330
1F
100
AcDbEntity
  8
REFERENCIAS
 62
   255
100
AcDbMText
 10
61.56731218282324
 20
54.86378079208375
 30
0.0
 40
1.49859999962535
 41
0.0
 71
     7
 72
     1
  1
\fMyriad Pro|b0|i0|c0|p34;\W1;MITO_1133__AUXILIARY_TABLE
  0
MTEXT
  5
43
330
1F
100
AcDbEntity
  8
M_U_00C1RGENES
 62
   255
100
AcDbMText
 10
90.14127864703391
 20
23.7555119243149
 30
0.0
 40
1.748366666229575
 41
0.0
 71
     7
 72
     1
  1
\fMyriad Pro|b0|i0|c0|p34;\W1;400
  0
MTEXT
  5
44
330
1F
100
AcDbEntity
  8
M_U_00C1RGENES
 62
   255
100
AcDbMText
 10
84.21176331851954
 20
20.50332059082737
 30
0.0
 40
1.748366666229575
 41
0.0
 71
     7
 72
     1
  1
\fMyriad Pro|b0|i0|c0|p34;\W1;400
  0
POLYLINE
  5
45
330
1F
100
AcDbEntity
  8
M_U_00C1RGENES
 62
   255
100
AcDb2dPolyline
 66
     1
 10
0.0
 20
0.0
 30
0.0
  0
VERTEX
  5
46
330
45
100
AcDbEntity
  8
M_U_00C1RGENES
 62
   255
100
AcDbVertex
100
AcDb2dVertex
 10
84.41666477502157
 20
24.76314475783758
 30
0.0
  0
VERTEX
  5
47
330
45
100
AcDbEntity
  8
M_U_00C1RGENES
 62
   255
100
AcDbVertex
100
AcDb2dVertex
 10
94.99999810570907
 20
19.74726776251925
 30
0.0
  0
SEQEND
  5
48
330
45
100
AcDbEntity
  8
M_U_00C1RGENES
 62
   255
  0
POLYLINE
  5
49
330
1F
100
AcDbEntity
  8
M_U_00C1RGENES
 62
   254
100
AcDb2dPolyline
 66
     1
 10
0.0
 20
0.0
 30
0.0
  0
VERTEX
  5
4A
330
49
100
AcDbEntity
  8
M_U_00C1RGENES
 62
   254
100
AcDbVertex
100
AcDb2dVertex
 10
54.99999767595828
 20
20.88258920325216
 30
0.0
  0
VERTEX
  5
4B
330
49
100
AcDbEntity
  8
M_U_00C1RGENES
 62
   254
100
AcDbVertex
100
AcDb2dVertex
 10
54.99999767595828
 20
19.74726776251925
 30
0.0
  0
SEQEND
  5
4C
330
49
100
AcDbEntity
  8
M_U_00C1RGENES
 62
   254
  0
POLYLINE
  5
4D
330
1F
100
AcDbEntity
  8
M_U_00C1RGENES
 62
   255
100
AcDb2dPolyline
 66
     1
 10
0.0
 20
0.0
 30
0.0
  0
VERTEX
  5
4E
330
4D
100
AcDbEntity
  8
M_U_00C1RGENES
 62
   255
100
AcDbVertex
100
AcDb2dVertex
 10
94.99999797321169
 20
59.74726768656564
 30
0.0
  0
VERTEX
  5
4F
330
4D
100
AcDbEntity
  8
M_U_00C1RGENES
 62
   255
100
AcDbVertex
100
AcDb2dVertex
 10
93.86467653247878
 20
59.74726768651462
 30
0.0
  0
SEQEND
  5
50
330
4D
100
AcDbEntity
  8
M_U_00C1RGENES
 62
   255
  0
INSERT
  5
53
330
1F
100
AcDbEntity
  8
DIBUJOS
100
AcDbBlockReference
  2
BLOCK_2
 10
0.0
 20
0.0
 30
0.0
  0
INSERT
  5
1B6
330
1F
100
AcDbEntity
  8
DIBUJOS
100
AcDbBlockReference
  2
BLOCK_3
 10
0.0
 20
0.0
 30
0.0
  0
POLYLINE
  5
27D
330
1F
100
AcDbEntity
  8
COTAS_LINEA
 62
     7
100
AcDb2dPolyline
 66
     1
 10
0.0
 20
0.0
 30
0.0
  0
VERTEX
  5
27E
330
27D
100
AcDbEntity
  8
COTAS_LINEA
 62
     7
100
AcDbVertex
100
AcDb2dVertex
 10
76.19321508847196
 20
46.96140807674177
 30
0.0
  0
VERTEX
  5
27F
330
27D
100
AcDbEntity
  8
COTAS_LINEA
 62
     7
100
AcDbVertex
100
AcDb2dVertex
 10
76.19321508933568
 20
42.33144090531743
 30
0.0
  0
SEQEND
  5
280
330
27D
100
AcDbEntity
  8
COTAS_LINEA
 62
     7
  0
POLYLINE
  5
281
330
1F
100
AcDbEntity
  8
COTAS_LINEA
 62
     7
100
AcDb2dPolyline
 66
     1
 10
0.0
 20
0.0
 30
0.0
  0
VERTEX
  5
282
330
281
100
AcDbEntity
  8
COTAS_LINEA
 62
     7
100
AcDbVertex
100
AcDb2dVertex
 10
76.19321508847196
 20
33.82811510578986
 30
0.0
  0
VERTEX
  5
283
330
281
100
AcDbEntity
  8
COTAS_LINEA
 62
     7
100
AcDbVertex
100
AcDb2dVertex
 10
76.19321508933568
 20
27.87309417542292
 30
0.0
  0
SEQEND
  5
284
330
281
100
AcDbEntity
  8
COTAS_LINEA
 62
     7
  0
POLYLINE
  5
285
330
1F
100
AcDbEntity
  8
COTAS_LINEA
 62
     7
100
AcDb2dPolyline
 66
     1
 10
0.0
 20
0.0
 30
0.0
  0
VERTEX
  5
286
330
285
100
AcDbEntity
  8
COTAS_LINEA
 62
     7
100
AcDbVertex
100
AcDb2dVertex
 10
61.60456795805398
 20
38.66119575631178
 30
0.0
  0
VERTEX
  5
287
330
285
100
AcDbEntity
  8
COTAS_LINEA
 62
     7
100
AcDbVertex
100
AcDb2dVertex
 10
73.50246669961875
 20
38.66119575631178
 30
0.0
  0
SEQEND
  5
288
330
285
100
AcDbEntity
  8
COTAS_LINEA
 62
     7
  0
MTEXT
  5
28A
330
1F
100
AcDbEntity
  8
COTAS_N_U_00DAMERO
 62
     7
100
AcDbMText
 10
76.96925212207442
 20
44.07743444400452
 30
0.0
 40
1.998533025814148
 41
0.0
 71
     7
 72
     1
  1
\fMyriad Pro|b0|i0|c0|p34;\W1;46
  0
MTEXT
  5
28B
330
1F
100
AcDbEntity
  8
COTAS_N_U_00DAMERO
 62
     7
100
AcDbMText
 10
76.96925212207442
 20
29.93473611719079
 30
0.0
 40
1.998533025814148
 41
0.0
 71
     7
 72
     1
  1
\fMyriad Pro|b0|i0|c0|p34;\W1;60
  0
MTEXT
  5
28C
330
1F
100
AcDbEntity
  8
COTAS_N_U_00DAMERO
 62
     7
100
AcDbMText
 10
65.40448106614129
 20
39.21440763552789
 30
0.0
 40
1.998533025814148
 41
0.0
 71
     7
 72
     1
  1
\fMyriad Pro|b0|i0|c0|p34;\W1;110
  0
ENDSEC
  0
SECTION
  2
OBJECTS
  0
DICTIONARY
  5
C
330
0
100
AcDbDictionary
  3
ACAD_GROUP
350
D
  3
ACAD_LAYOUT
350
1A
  3
ACAD_MATERIAL
350
3B
  3
ACAD_MLEADERSTYLE
350
2AF
  3
ACAD_MLINESTYLE
350
17
  3
ACAD_PLOTSETTINGS
350
19
  3
ACAD_VISUALSTYLE
350
2A
  3
ACDBHEADERROUNDTRIPXREC
350
28D
  3
ACDBVARIABLEDICTIONARY
350
2AD
  0
DICTIONARY
  5
D
102
{ACAD_REACTORS
330
C
102
}
330
C
100
AcDbDictionary
  0
DICTIONARY
  5
1A
102
{ACAD_REACTORS
330
C
102
}
330
C
100
AcDbDictionary
  0
DICTIONARY
  5
3B
102
{ACAD_REACTORS
330
C
102
}
330
C
100
AcDbDictionary
  3
BYBLOCK
350
3D
  3
BYLAYER
350
3C
  3
GLOBAL
350
3E
  0
DICTIONARY
  5
2AF
102
{ACAD_REACTORS
330
C
102
}
330
C
100
AcDbDictionary
  0
DICTIONARY
  5
17
102
{ACAD_REACTORS
330
C
102
}
330
C
100
AcDbDictionary
  3
STANDARD
350
18
  0
DICTIONARY
  5
19
102
{ACAD_REACTORS
330
C
102
}
330
C
100
AcDbDictionary
  0
DICTIONARY
  5
2A
102
{ACAD_REACTORS
330
C
102
}
330
C
100
AcDbDictionary
  3
2DWIREFRAME
350
2F
  3
3D_HIDDEN
350
31
  3
3DWIREFRAME
350
30
  3
BASIC
350
32
  3
BRIGHTEN
350
36
  3
COLORCHANGE
350
3A
  3
CONCEPTUAL
350
34
  3
DIM
350
35
  3
FACEPATTERN
350
39
  3
FLAT
350
2B
  3
FLATWITHEDGES
350
2C
  3
GOURAUD
350
2D
  3
GOURAUDWITHEDGES
350
2E
  3
LINEPATTERN
350
38
  3
REALISTIC
350
33
  3
THICKEN
350
37
  0
DICTIONARY
  5
28D
102
{ACAD_REACTORS
330
C
102
}
330
C
100
AcDbDictionary
  3
CEPSNTYPE
350
296
  3
DIMSTYLEDATA
350
2AC
  3
FINGERPRINTGUID
350
297
  3
HYPERLINKBASE
350
290
  3
INSUNITS
350
295
  3
LAYOUTDICT
350
292
  3
LWETCUNION
350
294
  3
PLOTSETDICT
350
293
  3
PSVPSCALE
350
299
  3
PUCSBASE
350
29C
  3
PUCSORGBACK
350
2A2
  3
PUCSORGBOTTOM
350
29E
  3
PUCSORGFRONT
350
2A1
  3
PUCSORGLEFT
350
29F
  3
PUCSORGRIGHT
350
2A0
  3
PUCSORGTOP
350
29D
  3
PUCSORTHOREF
350
29A
  3
PUCSORTHOVIEW
350
29B
  3
STYLESHEET
350
291
  3
TSTACKALIGN
350
28E
  3
TSTACKSIZE
350
28F
  3
UCSBASE
350
2A5
  3
UCSORGBACK
350
2AB
  3
UCSORGBOTTOM
350
2A7
  3
UCSORGFRONT
350
2AA
  3
UCSORGLEFT
350
2A8
  3
UCSORGRIGHT
350
2A9
  3
UCSORGTOP
350
2A6
  3
UCSORTHOREF
350
2A3
  3
UCSORTHOVIEW
350
2A4
  3
VERSIONGUID
350
298
  0
DICTIONARY
  5
2AD
102
{ACAD_REACTORS
330
C
102
}
330
C
100
AcDbDictionary
  3
DIMASSOC
350
2B0
  3
HIDETEXT
350
2B1
  0
MATERIAL
  5
3D
102
{ACAD_REACTORS
330
3B
102
}
102
{ACAD_XDICTIONARY
360
2B4
102
}
330
3B
100
AcDbMaterial
  1
ByBlock
  0
MATERIAL
  5
3C
102
{ACAD_REACTORS
330
3B
102
}
102
{ACAD_XDICTIONARY
360
2B2
102
}
330
3B
100
AcDbMaterial
  1
ByLayer
  0
MATERIAL
  5
3E
102
{ACAD_REACTORS
330
3B
102
}
102
{ACAD_XDICTIONARY
360
2B6
102
}
330
3B
100
AcDbMaterial
  1
Global
  0
MLINESTYLE
  5
18
102
{ACAD_REACTORS
330
17
102
}
330
17
100
AcDbMlineStyle
  2
Standard
 70
     0
  3

 62
   256
 51
90.0
 52
90.0
 71
     2
 49
0.5
 62
   256
  6
BYLAYER
 49
-0.5
 62
   256
  6
BYLAYER
  0
ACAD_PROXY_OBJECT
  5
2F
102
{ACAD_REACTORS
330
2A
102
}
330
2A
100
AcDbProxyObject
 90
      499
 91
      501
 93
      436
310
42CC9915DA5C99599C985B595049028333333333333E3BF0000000000000FB0107901411070040501600405405064090741402480A0340
1001
ACAD
1000
AcDbSavedByObjectVersion
1070
     0
  0
ACAD_PROXY_OBJECT
  5
31
102
{ACAD_REACTORS
330
2A
102
}
330
2A
100
AcDbProxyObject
 90
      499
 91
      501
 93
      500
310
424CD108121A5919195B90640502408333333333333E3BF0000000000000FB01079024090700405020000000000001110200405405064090740C02480A0340
1001
ACAD
1000
AcDbSavedByObjectVersion
1070
     0
  0
ACAD_PROXY_OBJECT
  5
30
102
{ACAD_REACTORS
330
2A
102
}
330
2A
100
AcDbProxyObject
 90
      499
 91
      501
 93
      436
310
42CCD915DA5C99599C985B595059028333333333333E3BF0000000000000FB0107901411070040501600405405064090741402480A0340
1001
ACAD
1000
AcDbSavedByObjectVersion
1070
     0
  0
ACAD_PROXY_OBJECT
  5
32
102
{ACAD_REACTORS
330
2A
102
}
330
2A
100
AcDbProxyObject
 90
      499
 91
      501
 93
      388
310
4150985CDA58D07406404333333333333E3BF0000000000000FB0107A41107004050150841D405064090741402480A0350
1001
ACAD
1000
AcDbSavedByObjectVersion
1070
     0
  0
ACAD_PROXY_OBJECT
  5
36
102
{ACAD_REACTORS
330
2A
102
}
330
2A
100
AcDbProxyObject
 90
      499
 91
      501
 93
      428
310
42109C9A59DA1D195B90C409028333333333333E3BF0000000000000FB010790141107004050150841D405064090741402480A029950
1001
ACAD
1000
AcDbSavedByObjectVersion
1070
     0
  0
ACAD_PROXY_OBJECT
  5
3A
102
{ACAD_REACTORS
330
2A
102
}
330
2A
100
AcDbProxyObject
 90
      499
 91
      501
 93
      452
310
42D0DBDB1BDC90DA185B99D95104090240C333333333333E3BF0000000000000FB0108901411070040501508421405064090741402480A0350
1001
ACAD
1000
AcDbSavedByObjectVersion
1070
     0
  0
ACAD_PROXY_OBJECT
  5
34
102
{ACAD_REACTORS
330
2A
102
}
330
2A
100
AcDbProxyObject
 90
      499
 91
      501
 93
      500
310
4290DBDB98D95C1D1D585B10940D028333333333333E3BF0000000000000FB0107902409070040501000000000000111010841D405064090740C02480A0340
1001
ACAD
1000
AcDbSavedByObjectVersion
1070
     0
  0
ACAD_PROXY_OBJECT
  5
35
102
{ACAD_REACTORS
330
2A
102
}
330
2A
100
AcDbProxyObject
 90
      499
 91
      501
 93
      412
310
40D11A5B50B409028333333333333E3BF0000000000000FB010790141107004050150841D405064090741402480A02677FFFFFD0
1001
ACAD
1000
AcDbSavedByObjectVersion
1070
     0
  0
ACAD_PROXY_OBJECT
  5
39
102
{ACAD_REACTORS
330
2A
102
}
330
2A
100
AcDbProxyObject
 90
      499
 91
      501
 93
      444
310
42D19858D95C185D1D195C9B90F409028333333333333E3BF0000000000000FB010790141107004050150841D405064090741402480A0350
1001
ACAD
1000
AcDbSavedByObjectVersion
1070
     0
  0
ACAD_PROXY_OBJECT
  5
2B
102
{ACAD_REACTORS
330
2A
102
}
330
2A
100
AcDbProxyObject
 90
      499
 91
      501
 93
      388
310
41119B185D240901404333333333333E3BF0000000000000F9010740A41107004050150841D405064090741402480A1B50
1001
ACAD
1000
AcDbSavedByObjectVersion
1070
     0
  0
ACAD_PROXY_OBJECT
  5
2C
102
{ACAD_REACTORS
330
2A
102
}
330
2A
100
AcDbProxyObject
 90
      499
 91
      501
 93
      476
310
43519B185D15DA5D1A115919D95CD0140901404333333333333E3BF0000000000000F9010740901411070040501600405405064090741402480A1B50
1001
ACAD
1000
AcDbSavedByObjectVersion
1070
     0
  0
ACAD_PROXY_OBJECT
  5
2D
102
{ACAD_REACTORS
330
2A
102
}
330
2A
100
AcDbProxyObject
 90
      499
 91
      501
 93
      412
310
41D1DBDD5C985D5910240902404333333333333E3BF0000000000000F9010740A411070040501641D405064090741402480A1B50
1001
ACAD
1000
AcDbSavedByObjectVersion
1070
     0
  0
ACAD_PROXY_OBJECT
  5
2E
102
{ACAD_REACTORS
330
2A
102
}
330
2A
100
AcDbProxyObject
 90
      499
 91
      501
 93
      500
310
4411DBDD5C985D5915DA5D1A115919D95CD0340902404333333333333E3BF0000000000000F9010740901411070040501600405405064090741402480A1B50
1001
ACAD
1000
AcDbSavedByObjectVersion
1070
     0
  0
ACAD_PROXY_OBJECT
  5
38
102
{ACAD_REACTORS
330
2A
102
}
330
2A
100
AcDbProxyObject
 90
      499
 91
      501
 93
      444
310
42D31A5B995C185D1D195C9B90E409028333333333333E3BF0000000000000FB010790141107004050750841D405064090741402483A0350
1001
ACAD
1000
AcDbSavedByObjectVersion
1070
     0
  0
ACAD_PROXY_OBJECT
  5
33
102
{ACAD_REACTORS
330
2A
102
}
330
2A
100
AcDbProxyObject
 90
      499
 91
      501
 93
      420
310
425499585B1A5CDD1A58D08409028333333333333E3BF0000000000000FB01079019070040501508421405064090741402480A1B40
1001
ACAD
1000
AcDbSavedByObjectVersion
1070
     0
  0
ACAD_PROXY_OBJECT
  5
37
102
{ACAD_REACTORS
330
2A
102
}
330
2A
100
AcDbProxyObject
 90
      499
 91
      501
 93
      412
310
41D51A1A58DAD95B90D409028333333333333E3BF0000000000000FB010790141107004050150C41D405064090741402480A0350
1001
ACAD
1000
AcDbSavedByObjectVersion
1070
     0
  0
XRECORD
  5
296
102
{ACAD_REACTORS
330
28D
102
}
330
28D
100
AcDbXrecord
 90
        0
  0
XRECORD
  5
2AC
102
{ACAD_REACTORS
330
28D
102
}
330
28D
100
AcDbXrecord
1000
DSTYLE
1002
{
1070
   340
340
11
1002
}
  0
XRECORD
  5
297
102
{ACAD_REACTORS
330
28D
102
}
330
28D
100
AcDbXrecord
  1
{458DE6C5-32A0-4C46-88E4-F82C28E3988C}
  0
XRECORD
  5
290
102
{ACAD_REACTORS
330
28D
102
}
330
28D
100
AcDbXrecord
  1

  0
XRECORD
  5
295
102
{ACAD_REACTORS
330
28D
102
}
330
28D
100
AcDbXrecord
 90
        1
  0
XRECORD
  5
292
102
{ACAD_REACTORS
330
28D
102
}
330
28D
100
AcDbXrecord
340
1A
  0
XRECORD
  5
294
102
{ACAD_REACTORS
330
28D
102
}
330
28D
100
AcDbXrecord
 90
    10269
  0
XRECORD
  5
293
102
{ACAD_REACTORS
330
28D
102
}
330
28D
100
AcDbXrecord
340
19
  0
XRECORD
  5
299
102
{ACAD_REACTORS
330
28D
102
}
330
28D
100
AcDbXrecord
 40
0.0
  0
XRECORD
  5
29C
102
{ACAD_REACTORS
330
28D
102
}
330
28D
100
AcDbXrecord
340
0
  0
XRECORD
  5
2A2
102
{ACAD_REACTORS
330
28D
102
}
330
28D
100
AcDbXrecord
 10
0.0
 20
0.0
 30
0.0
  0
XRECORD
  5
29E
102
{ACAD_REACTORS
330
28D
102
}
330
28D
100
AcDbXrecord
 10
0.0
 20
0.0
 30
0.0
  0
XRECORD
  5
2A1
102
{ACAD_REACTORS
330
28D
102
}
330
28D
100
AcDbXrecord
 10
0.0
 20
0.0
 30
0.0
  0
XRECORD
  5
29F
102
{ACAD_REACTORS
330
28D
102
}
330
28D
100
AcDbXrecord
 10
0.0
 20
0.0
 30
0.0
  0
XRECORD
  5
2A0
102
{ACAD_REACTORS
330
28D
102
}
330
28D
100
AcDbXrecord
 10
0.0
 20
0.0
 30
0.0
  0
XRECORD
  5
29D
102
{ACAD_REACTORS
330
28D
102
}
330
28D
100
AcDbXrecord
 10
0.0
 20
0.0
 30
0.0
  0
XRECORD
  5
29A
102
{ACAD_REACTORS
330
28D
102
}
330
28D
100
AcDbXrecord
340
0
  0
XRECORD
  5
29B
102
{ACAD_REACTORS
330
28D
102
}
330
28D
100
AcDbXrecord
 70
     0
  0
XRECORD
  5
291
102
{ACAD_REACTORS
330
28D
102
}
330
28D
100
AcDbXrecord
  1

  0
XRECORD
  5
28E
102
{ACAD_REACTORS
330
28D
102
}
330
28D
100
AcDbXrecord
 90
        1
  0
XRECORD
  5
28F
102
{ACAD_REACTORS
330
28D
102
}
330
28D
100
AcDbXrecord
 90
       70
  0
XRECORD
  5
2A5
102
{ACAD_REACTORS
330
28D
102
}
330
28D
100
AcDbXrecord
340
0
  0
XRECORD
  5
2AB
102
{ACAD_REACTORS
330
28D
102
}
330
28D
100
AcDbXrecord
 10
0.0
 20
0.0
 30
0.0
  0
XRECORD
  5
2A7
102
{ACAD_REACTORS
330
28D
102
}
330
28D
100
AcDbXrecord
 10
0.0
 20
0.0
 30
0.0
  0
XRECORD
  5
2AA
102
{ACAD_REACTORS
330
28D
102
}
330
28D
100
AcDbXrecord
 10
0.0
 20
0.0
 30
0.0
  0
XRECORD
  5
2A8
102
{ACAD_REACTORS
330
28D
102
}
330
28D
100
AcDbXrecord
 10
0.0
 20
0.0
 30
0.0
  0
XRECORD
  5
2A9
102
{ACAD_REACTORS
330
28D
102
}
330
28D
100
AcDbXrecord
 10
0.0
 20
0.0
 30
0.0
  0
XRECORD
  5
2A6
102
{ACAD_REACTORS
330
28D
102
}
330
28D
100
AcDbXrecord
 10
0.0
 20
0.0
 30
0.0
  0
XRECORD
  5
2A3
102
{ACAD_REACTORS
330
28D
102
}
330
28D
100
AcDbXrecord
340
0
  0
XRECORD
  5
2A4
102
{ACAD_REACTORS
330
28D
102
}
330
28D
100
AcDbXrecord
 70
     0
  0
XRECORD
  5
298
102
{ACAD_REACTORS
330
28D
102
}
330
28D
100
AcDbXrecord
  1
{FAEB1C32-E019-11D5-929B-00C0DF256EC4}
  0
DICTIONARYVAR
  5
2B0
102
{ACAD_REACTORS
330
2AD
102
}
330
2AD
100
DictionaryVariables
280
     0
  1
2
  0
DICTIONARYVAR
  5
2B1
102
{ACAD_REACTORS
330
2AD
102
}
330
2AD
100
DictionaryVariables
280
     0
  1
1
  0
DICTIONARY
  5
2B4
330
3D
100
AcDbDictionary
280
     1
  3
ACAD_XREC_ROUNDTRIP
360
2B5
  0
DICTIONARY
  5
2B2
330
3C
100
AcDbDictionary
280
     1
  3
ACAD_XREC_ROUNDTRIP
360
2B3
  0
DICTIONARY
  5
2B6
330
3E
100
AcDbDictionary
280
     1
  3
ACAD_XREC_ROUNDTRIP
360
2B7
  0
XRECORD
  5
2B5
102
{ACAD_REACTORS
330
2B4
102
}
330
2B4
100
AcDbXrecord
102
MATERIAL
148
0.0
149
0.0
149
0.0
 93
        0
 94
      127
282
     0
 72
     1
 77
     1
171
     1
175
     1
179
     1
273
     0
  0
XRECORD
  5
2B3
102
{ACAD_REACTORS
330
2B2
102
}
330
2B2
100
AcDbXrecord
102
MATERIAL
148
0.0
149
0.0
149
0.0
 93
        0
 94
      127
282
     0
 72
     1
 77
     1
171
     1
175
     1
179
     1
273
     0
  0
XRECORD
  5
2B7
102
{ACAD_REACTORS
330
2B6
102
}
330
2B6
100
AcDbXrecord
102
MATERIAL
148
0.0
149
0.0
149
0.0
 93
        0
 94
      127
282
     0
 72
     1
 77
     1
171
     1
175
     1
179
     1
273
     0
  0
ENDSEC
  0
EOF
