  0
SECTION
  2
HEADER
  9
$ACADVER
  1
AC1014
  9
$ACADMAINTVER
 70
     9
  9
$DWGCODEPAGE
  3
ANSI_1252
  9
$INSBASE
 10
0.0
 20
0.0
 30
0.0
  9
$EXTMIN
 10
1.000000000000000E+20
 20
1.000000000000000E+20
 30
1.000000000000000E+20
  9
$EXTMAX
 10
-1.000000000000000E+20
 20
-1.000000000000000E+20
 30
-1.000000000000000E+20
  9
$LIMMIN
 10
0.0
 20
0.0
  9
$LIMMAX
 10
12.0
 20
9.0
  9
$ORTHOMODE
 70
     0
  9
$REGENMODE
 70
     1
  9
$FILLMODE
 70
     1
  9
$QTEXTMODE
 70
     0
  9
$MIRRTEXT
 70
     1
  9
$DRAGMODE
 70
     2
  9
$LTSCALE
 40
1.0
  9
$OSMODE
 70
    37
  9
$ATTMODE
 70
     1
  9
$TEXTSIZE
 40
0.2
  9
$TRACEWID
 40
0.05
  9
$TEXTSTYLE
  7
STANDARD
  9
$CLAYER
  8
0
  9
$CELTYPE
  6
BYLAYER
  9
$CECOLOR
 62
   256
  9
$CELTSCALE
 40
1.0
  9
$DELOBJ
 70
     1
  9
$DISPSILH
 70
     0
  9
$DIMSCALE
 40
1.0
  9
$DIMASZ
 40
0.18
  9
$DIMEXO
 40
0.0625
  9
$DIMDLI
 40
0.38
  9
$DIMRND
 40
0.0
  9
$DIMDLE
 40
0.0
  9
$DIMEXE
 40
0.18
  9
$DIMTP
 40
0.0
  9
$DIMTM
 40
0.0
  9
$DIMTXT
 40
0.18
  9
$DIMCEN
 40
0.09
  9
$DIMTSZ
 40
0.0
  9
$DIMTOL
 70
     0
  9
$DIMLIM
 70
     0
  9
$DIMTIH
 70
     1
  9
$DIMTOH
 70
     1
  9
$DIMSE1
 70
     0
  9
$DIMSE2
 70
     0
  9
$DIMTAD
 70
     0
  9
$DIMZIN
 70
     0
  9
$DIMBLK
  1

  9
$DIMASO
 70
     1
  9
$DIMSHO
 70
     1
  9
$DIMPOST
  1

  9
$DIMAPOST
  1

  9
$DIMALT
 70
     0
  9
$DIMALTD
 70
     2
  9
$DIMALTF
 40
25.4
  9
$DIMLFAC
 40
1.0
  9
$DIMTOFL
 70
     0
  9
$DIMTVP
 40
0.0
  9
$DIMTIX
 70
     0
  9
$DIMSOXD
 70
     0
  9
$DIMSAH
 70
     0
  9
$DIMBLK1
  1

  9
$DIMBLK2
  1

  9
$DIMSTYLE
  2
STANDARD
  9
$DIMCLRD
 70
     0
  9
$DIMCLRE
 70
     0
  9
$DIMCLRT
 70
     0
  9
$DIMTFAC
 40
1.0
  9
$DIMGAP
 40
0.09
  9
$DIMJUST
 70
     0
  9
$DIMSD1
 70
     0
  9
$DIMSD2
 70
     0
  9
$DIMTOLJ
 70
     1
  9
$DIMTZIN
 70
     0
  9
$DIMALTZ
 70
     0
  9
$DIMALTTZ
 70
     0
  9
$DIMFIT
 70
     3
  9
$DIMUPT
 70
     0
  9
$DIMUNIT
 70
     2
  9
$DIMDEC
 70
     4
  9
$DIMTDEC
 70
     4
  9
$DIMALTU
 70
     2
  9
$DIMALTTD
 70
     2
  9
$DIMTXSTY
  7
STANDARD
  9
$DIMAUNIT
 70
     0
  9
$LUNITS
 70
     2
  9
$LUPREC
 70
     4
  9
$SKETCHINC
 40
0.1
  9
$FILLETRAD
 40
0.5
  9
$AUNITS
 70
     0
  9
$AUPREC
 70
     0
  9
$MENU
  1
.
  9
$ELEVATION
 40
0.0
  9
$PELEVATION
 40
0.0
  9
$THICKNESS
 40
0.0
  9
$LIMCHECK
 70
     0
  9
$CHAMFERA
 40
0.5
  9
$CHAMFERB
 40
0.5
  9
$CHAMFERC
 40
1.0
  9
$CHAMFERD
 40
0.0
  9
$SKPOLY
 70
     0
  9
$TDCREATE
 40
2459839.429320475
  9
$TDUPDATE
 40
2459839.429320718
  9
$TDINDWG
 40
0.0000000116
  9
$TDUSRTIMER
 40
0.0000000116
  9
$USRTIMER
 70
     1
  9
$ANGBASE
 50
0.0
  9
$ANGDIR
 70
     0
  9
$PDMODE
 70
     0
  9
$PDSIZE
 40
0.0
  9
$PLINEWID
 40
0.0
  9
$COORDS
 70
     1
  9
$SPLFRAME
 70
     0
  9
$SPLINETYPE
 70
     6
  9
$SPLINESEGS
 70
     8
  9
$ATTDIA
 70
     0
  9
$ATTREQ
 70
     1
  9
$HANDLING
 70
     1
  9
$HANDSEED
  5
712
  9
$SURFTAB1
 70
     6
  9
$SURFTAB2
 70
     6
  9
$SURFTYPE
 70
     6
  9
$SURFU
 70
     6
  9
$SURFV
 70
     6
  9
$UCSNAME
  2

  9
$UCSORG
 10
0.0
 20
0.0
 30
0.0
  9
$UCSXDIR
 10
1.0
 20
0.0
 30
0.0
  9
$UCSYDIR
 10
0.0
 20
1.0
 30
0.0
  9
$PUCSNAME
  2

  9
$PUCSORG
 10
0.0
 20
0.0
 30
0.0
  9
$PUCSXDIR
 10
1.0
 20
0.0
 30
0.0
  9
$PUCSYDIR
 10
0.0
 20
1.0
 30
0.0
  9
$USERI1
 70
     0
  9
$USERI2
 70
     0
  9
$USERI3
 70
     0
  9
$USERI4
 70
     0
  9
$USERI5
 70
     0
  9
$USERR1
 40
0.0
  9
$USERR2
 40
0.0
  9
$USERR3
 40
0.0
  9
$USERR4
 40
0.0
  9
$USERR5
 40
0.0
  9
$WORLDVIEW
 70
     1
  9
$SHADEDGE
 70
     3
  9
$SHADEDIF
 70
    70
  9
$TILEMODE
 70
     1
  9
$MAXACTVP
 70
    64
  9
$PINSBASE
 10
0.0
 20
0.0
 30
0.0
  9
$PLIMCHECK
 70
     0
  9
$PEXTMIN
 10
1.000000000000000E+20
 20
1.000000000000000E+20
 30
1.000000000000000E+20
  9
$PEXTMAX
 10
-1.000000000000000E+20
 20
-1.000000000000000E+20
 30
-1.000000000000000E+20
  9
$PLIMMIN
 10
0.0
 20
0.0
  9
$PLIMMAX
 10
12.0
 20
9.0
  9
$UNITMODE
 70
     0
  9
$VISRETAIN
 70
     1
  9
$PLINEGEN
 70
     0
  9
$PSLTSCALE
 70
     1
  9
$TREEDEPTH
 70
  3020
  9
$PICKSTYLE
 70
     1
  9
$CMLSTYLE
  2
STANDARD
  9
$CMLJUST
 70
     0
  9
$CMLSCALE
 40
1.0
  9
$PROXYGRAPHICS
 70
     1
  9
$MEASUREMENT
 70
     0
  0
ENDSEC
  0
SECTION
  2
CLASSES
  0
CLASS
  1
ACDBDICTIONARYWDFLT
  2
AcDbDictionaryWithDefault
  3
ObjectDBX Classes
 90
        0
280
     0
281
     0
  0
CLASS
  1
VISUALSTYLE
  2
AcDbVisualStyle
  3
ObjectDBX Classes
 90
     4095
280
     0
281
     0
  0
CLASS
  1
MATERIAL
  2
AcDbMaterial
  3
ObjectDBX Classes
 90
     1153
280
     0
281
     0
  0
CLASS
  1
SUN
  2
AcDbSun
  3
SCENEOE
 90
     1024
280
     0
281
     0
  0
CLASS
  1
DICTIONARYVAR
  2
AcDbDictionaryVar
  3
ObjectDBX Classes
 90
        0
280
     0
281
     0
  0
CLASS
  1
XRECORD
  2
AcDbXrecord
  3
AutoCAD 2000
 90
        0
280
     0
281
     0
  0
CLASS
  1
LWPOLYLINE
  2
AcDbPolyline
  3
AutoCAD 2000
 90
        0
280
     0
281
     1
  0
CLASS
  1
HATCH
  2
AcDbHatch
  3
AutoCAD 2000
 90
        0
280
     0
281
     1
  0
CLASS
  1
ACDBPLACEHOLDER
  2
AcDbPlaceHolder
  3
ObjectDBX Classes
 90
        0
280
     0
281
     0
  0
CLASS
  1
LAYOUT
  2
AcDbLayout
  3
ObjectDBX Classes
 90
        0
280
     0
281
     0
  0
ENDSEC
  0
SECTION
  2
TABLES
  0
TABLE
  2
VPORT
  5
8
330
0
100
AcDbSymbolTable
 70
     1
  0
VPORT
  5
29
330
8
100
AcDbSymbolTableRecord
100
AcDbViewportTableRecord
  2
*ACTIVE
 70
     0
 10
0.0
 20
0.0
 11
1.0
 21
1.0
 12
0.0
 22
0.0
 13
0.0
 23
0.0
 14
0.5
 24
0.5
 15
0.5
 25
0.5
 16
0.0
 26
0.0
 36
1.0
 17
74.99999786197374
 27
39.74999886684608
 37
0.0
 40
39.99999998999989
 41
2.0
 42
50.0
 43
0.0
 44
0.0
 50
0.0
 51
0.0
 71
     0
 72
   100
 73
     1
 74
     3
 75
     0
 76
     0
 77
     0
 78
     0
  0
ENDTAB
  0
TABLE
  2
LTYPE
  5
5
330
0
100
AcDbSymbolTable
 70
     1
  0
LTYPE
  5
14
330
5
100
AcDbSymbolTableRecord
100
AcDbLinetypeTableRecord
  2
BYBLOCK
 70
     0
  3

 72
    65
 73
     0
 40
0.0
  0
LTYPE
  5
15
330
5
100
AcDbSymbolTableRecord
100
AcDbLinetypeTableRecord
  2
BYLAYER
 70
     0
  3

 72
    65
 73
     0
 40
0.0
  0
LTYPE
  5
16
330
5
100
AcDbSymbolTableRecord
100
AcDbLinetypeTableRecord
  2
CONTINUOUS
 70
     0
  3
Solid line
 72
    65
 73
     0
 40
0.0
  0
ENDTAB
  0
TABLE
  2
LAYER
  5
2
330
0
100
AcDbSymbolTable
 70
     6
  0
LAYER
  5
10
330
2
100
AcDbSymbolTableRecord
100
AcDbLayerTableRecord
  2
0
 70
     0
 62
     7
  6
CONTINUOUS
  0
LAYER
  5
40
330
2
100
AcDbSymbolTableRecord
100
AcDbLayerTableRecord
  2
REFERENCIAS
 70
     4
 62
     7
  6
CONTINUOUS
  0
LAYER
  5
43
330
2
100
AcDbSymbolTableRecord
100
AcDbLayerTableRecord
  2
M_U_00C1RGENES
 70
     4
 62
     7
  6
CONTINUOUS
  0
LAYER
  5
57
330
2
100
AcDbSymbolTableRecord
100
AcDbLayerTableRecord
  2
DIBUJOS
 70
     0
 62
     7
  6
CONTINUOUS
  0
LAYER
  5
6BD
330
2
100
AcDbSymbolTableRecord
100
AcDbLayerTableRecord
  2
COTAS_LINEA
 70
     4
 62
     7
  6
CONTINUOUS
  0
LAYER
  5
6DE
330
2
100
AcDbSymbolTableRecord
100
AcDbLayerTableRecord
  2
COTAS_N_U_00DAMERO
 70
     4
 62
     7
  6
CONTINUOUS
  0
ENDTAB
  0
TABLE
  2
STYLE
  5
3
330
0
100
AcDbSymbolTable
 70
     1
  0
STYLE
  5
11
330
3
100
AcDbSymbolTableRecord
100
AcDbTextStyleTableRecord
  2
STANDARD
 70
     0
 40
0.0
 41
1.0
 50
0.0
 71
     0
 42
0.2
  3
txt
  4

  0
ENDTAB
  0
TABLE
  2
VIEW
  5
6
330
0
100
AcDbSymbolTable
 70
     0
  0
ENDTAB
  0
TABLE
  2
UCS
  5
7
330
0
100
AcDbSymbolTable
 70
     0
  0
ENDTAB
  0
TABLE
  2
APPID
  5
9
330
0
100
AcDbSymbolTable
 70
     1
  0
APPID
  5
12
330
9
100
AcDbSymbolTableRecord
100
AcDbRegAppTableRecord
  2
ACAD
 70
     0
  0
ENDTAB
  0
TABLE
  2
DIMSTYLE
  5
A
330
0
100
AcDbSymbolTable
 70
     1
  0
DIMSTYLE
105
27
330
A
100
AcDbSymbolTableRecord
100
AcDbDimStyleTableRecord
  2
STANDARD
 70
     0
  3

  4

  5

  6

  7

 40
1.0
 41
0.18
 42
0.0625
 43
0.38
 44
0.18
 45
0.0
 46
0.0
 47
0.0
 48
0.0
140
0.18
141
0.09
142
0.0
143
25.4
144
1.0
145
0.0
146
1.0
147
0.09
 71
     0
 72
     0
 73
     1
 74
     1
 75
     0
 76
     0
 77
     0
 78
     0
170
     0
171
     2
172
     0
173
     0
174
     0
175
     0
176
     0
177
     0
178
     0
270
     2
271
     4
272
     4
273
     2
274
     2
340
11
275
     0
280
     0
281
     0
282
     0
283
     1
284
     0
285
     0
286
     0
287
     3
288
     0
  0
ENDTAB
  0
TABLE
  2
BLOCK_RECORD
  5
1
330
0
100
AcDbSymbolTable
 70
     7
  0
BLOCK_RECORD
  5
1F
330
1
100
AcDbSymbolTableRecord
100
AcDbBlockTableRecord
  2
*MODEL_SPACE
  0
BLOCK_RECORD
  5
1B
330
1
100
AcDbSymbolTableRecord
100
AcDbBlockTableRecord
  2
*PAPER_SPACE
  0
BLOCK_RECORD
  5
58
330
1
100
AcDbSymbolTableRecord
100
AcDbBlockTableRecord
  2
BLOCK_2
  0
BLOCK_RECORD
  5
160
330
1
100
AcDbSymbolTableRecord
100
AcDbBlockTableRecord
  2
BLOCK_3
  0
BLOCK_RECORD
  5
241
330
1
100
AcDbSymbolTableRecord
100
AcDbBlockTableRecord
  2
BLOCK_4
  0
BLOCK_RECORD
  5
318
330
1
100
AcDbSymbolTableRecord
100
AcDbBlockTableRecord
  2
BLOCK_5
  0
BLOCK_RECORD
  5
4B2
330
1
100
AcDbSymbolTableRecord
100
AcDbBlockTableRecord
  2
BLOCK_6
  0
BLOCK_RECORD
  5
5E6
330
1
100
AcDbSymbolTableRecord
100
AcDbBlockTableRecord
  2
BLOCK_7
  0
ENDTAB
  0
ENDSEC
  0
SECTION
  2
BLOCKS
  0
BLOCK
  5
20
330
1F
100
AcDbEntity
  8
0
100
AcDbBlockBegin
  2
*MODEL_SPACE
 70
     0
 10
0.0
 20
0.0
 30
0.0
  3
*MODEL_SPACE
  1

  0
ENDBLK
  5
21
330
1F
100
AcDbEntity
  8
0
100
AcDbBlockEnd
  0
BLOCK
  5
1C
330
1B
100
AcDbEntity
 67
     1
  8
0
100
AcDbBlockBegin
  2
*PAPER_SPACE
 70
     0
 10
0.0
 20
0.0
 30
0.0
  3
*PAPER_SPACE
  1

  0
ENDBLK
  5
1D
330
1B
100
AcDbEntity
 67
     1
  8
0
100
AcDbBlockEnd
  0
BLOCK
  5
5A
330
58
100
AcDbEntity
  8
0
100
AcDbBlockBegin
  2
BLOCK_2
 70
     0
 10
0.0
 20
0.0
 30
0.0
  3
BLOCK_2
  1

  0
POLYLINE
  5
5C
330
58
100
AcDbEntity
  8
DIBUJOS
 62
     7
100
AcDb2dPolyline
 66
     1
 10
0.0
 20
0.0
 30
0.0
  0
VERTEX
  5
5D
330
5C
100
AcDbEntity
  8
DIBUJOS
 62
     7
100
AcDbVertex
100
AcDb2dVertex
 10
42.01382547181264
 20
50.85717768123339
 30
0.0
  0
VERTEX
  5
5E
330
5C
100
AcDbEntity
  8
DIBUJOS
 62
     7
100
AcDbVertex
100
AcDb2dVertex
 10
42.05121005205162
 20
50.98698496066642
 30
0.0
  0
VERTEX
  5
5F
330
5C
100
AcDbEntity
  8
DIBUJOS
 62
     7
100
AcDbVertex
100
AcDb2dVertex
 10
42.11635794711303
 20
51.14304665592275
 30
0.0
  0
VERTEX
  5
60
330
5C
100
AcDbEntity
  8
DIBUJOS
 62
     7
100
AcDbVertex
100
AcDb2dVertex
 10
42.13625895032821
 20
51.17288740981525
 30
0.0
  0
VERTEX
  5
61
330
5C
100
AcDbEntity
  8
DIBUJOS
 62
     7
100
AcDbVertex
100
AcDb2dVertex
 10
42.16567752848185
 20
51.22262401726664
 30
0.0
  0
VERTEX
  5
62
330
5C
100
AcDbEntity
  8
DIBUJOS
 62
     7
100
AcDbVertex
100
AcDb2dVertex
 10
42.26042262179099
 20
51.30825426986689
 30
0.0
  0
VERTEX
  5
63
330
5C
100
AcDbEntity
  8
DIBUJOS
 62
     7
100
AcDbVertex
100
AcDb2dVertex
 10
42.37883336386111
 20
51.38117042438379
 30
0.0
  0
VERTEX
  5
64
330
5C
100
AcDbEntity
  8
DIBUJOS
 62
     7
100
AcDbVertex
100
AcDb2dVertex
 10
42.40275710352174
 20
51.39561564936658
 30
0.0
  0
VERTEX
  5
65
330
5C
100
AcDbEntity
  8
DIBUJOS
 62
     7
100
AcDbVertex
100
AcDb2dVertex
 10
42.46987814513278
 20
51.41741816367097
 30
0.0
  0
VERTEX
  5
66
330
5C
100
AcDbEntity
  8
DIBUJOS
 62
     7
100
AcDbVertex
100
AcDb2dVertex
 10
42.50256410865464
 20
51.42671237819472
 30
0.0
  0
VERTEX
  5
67
330
5C
100
AcDbEntity
  8
DIBUJOS
 62
     7
100
AcDbVertex
100
AcDb2dVertex
 10
42.69453378437831
 20
51.47865223806382
 30
0.0
  0
VERTEX
  5
68
330
5C
100
AcDbEntity
  8
DIBUJOS
 62
     7
100
AcDbVertex
100
AcDb2dVertex
 10
42.76727606090537
 20
51.48384561876115
 30
0.0
  0
VERTEX
  5
69
330
5C
100
AcDbEntity
  8
DIBUJOS
 62
     7
100
AcDbVertex
100
AcDb2dVertex
 10
42.88556948893097
 20
51.49249217392052
 30
0.0
  0
VERTEX
  5
6A
330
5C
100
AcDbEntity
  8
DIBUJOS
 62
     7
100
AcDbVertex
100
AcDb2dVertex
 10
43.10491118037186
 20
51.49249217392052
 30
0.0
  0
VERTEX
  5
6B
330
5C
100
AcDbEntity
  8
DIBUJOS
 62
     7
100
AcDbVertex
100
AcDb2dVertex
 10
43.60535624517216
 20
51.47292620293499
 30
0.0
  0
VERTEX
  5
6C
330
5C
100
AcDbEntity
  8
DIBUJOS
 62
     7
100
AcDbVertex
100
AcDb2dVertex
 10
44.02719938611526
 20
51.46164664007951
 30
0.0
  0
VERTEX
  5
6D
330
5C
100
AcDbEntity
  8
DIBUJOS
 62
     7
100
AcDbVertex
100
AcDb2dVertex
 10
44.93841314601401
 20
51.45597508097256
 30
0.0
  0
VERTEX
  5
6E
330
5C
100
AcDbEntity
  8
DIBUJOS
 62
     7
100
AcDbVertex
100
AcDb2dVertex
 10
45.48952274094326
 20
51.46154071448282
 30
0.0
  0
VERTEX
  5
6F
330
5C
100
AcDbEntity
  8
DIBUJOS
 62
     7
100
AcDbVertex
100
AcDb2dVertex
 10
45.90003712946685
 20
51.47273251041494
 30
0.0
  0
VERTEX
  5
70
330
5C
100
AcDbEntity
  8
DIBUJOS
 62
     7
100
AcDbVertex
100
AcDb2dVertex
 10
46.42316089132092
 20
51.49249217392052
 30
0.0
  0
VERTEX
  5
71
330
5C
100
AcDbEntity
  8
DIBUJOS
 62
     7
100
AcDbVertex
100
AcDb2dVertex
 10
46.63125330114689
 20
51.49249217392052
 30
0.0
  0
VERTEX
  5
72
330
5C
100
AcDbEntity
  8
DIBUJOS
 62
     7
100
AcDbVertex
100
AcDb2dVertex
 10
46.82792462104676
 20
51.47863710583568
 30
0.0
  0
VERTEX
  5
73
330
5C
100
AcDbEntity
  8
DIBUJOS
 62
     7
100
AcDbVertex
100
AcDb2dVertex
 10
46.95126785105955
 20
51.44582740878207
 30
0.0
  0
VERTEX
  5
74
330
5C
100
AcDbEntity
  8
DIBUJOS
 62
     7
100
AcDbVertex
100
AcDb2dVertex
 10
47.11549389044567
 20
51.3980398323145
 30
0.0
  0
VERTEX
  5
75
330
5C
100
AcDbEntity
  8
DIBUJOS
 62
     7
100
AcDbVertex
100
AcDb2dVertex
 10
47.24889888119258
 20
51.31685240189665
 30
0.0
  0
VERTEX
  5
76
330
5C
100
AcDbEntity
  8
DIBUJOS
 62
     7
100
AcDbVertex
100
AcDb2dVertex
 10
47.35677028083618
 20
51.22262401726664
 30
0.0
  0
VERTEX
  5
77
330
5C
100
AcDbEntity
  8
DIBUJOS
 62
     7
100
AcDbVertex
100
AcDb2dVertex
 10
47.38921707507913
 20
51.17115930936165
 30
0.0
  0
VERTEX
  5
78
330
5C
100
AcDbEntity
  8
DIBUJOS
 62
     7
100
AcDbVertex
100
AcDb2dVertex
 10
47.40608910533991
 20
51.14304665592275
 30
0.0
  0
VERTEX
  5
79
330
5C
100
AcDbEntity
  8
DIBUJOS
 62
     7
100
AcDbVertex
100
AcDb2dVertex
 10
47.4616429821173
 20
51.01972504947062
 30
0.0
  0
VERTEX
  5
7A
330
5C
100
AcDbEntity
  8
DIBUJOS
 62
     7
100
AcDbVertex
100
AcDb2dVertex
 10
47.68296992994505
 20
49.68774395832418
 30
0.0
  0
SEQEND
  5
7B
330
5C
100
AcDbEntity
  8
DIBUJOS
 62
     7
  0
POLYLINE
  5
7C
330
58
100
AcDbEntity
  8
DIBUJOS
 62
     7
100
AcDb2dPolyline
 66
     1
 10
0.0
 20
0.0
 30
0.0
  0
VERTEX
  5
7D
330
7C
100
AcDbEntity
  8
DIBUJOS
 62
     7
100
AcDbVertex
100
AcDb2dVertex
 10
47.68296992994505
 20
49.68774395832418
 30
0.0
  0
VERTEX
  5
7E
330
7C
100
AcDbEntity
  8
DIBUJOS
 62
     7
100
AcDbVertex
100
AcDb2dVertex
 10
47.67734642443474
 20
49.68774395832418
 30
0.0
  0
SEQEND
  5
7F
330
7C
100
AcDbEntity
  8
DIBUJOS
 62
     7
  0
POLYLINE
  5
80
330
58
100
AcDbEntity
  8
DIBUJOS
 62
     7
100
AcDb2dPolyline
 66
     1
 10
0.0
 20
0.0
 30
0.0
  0
VERTEX
  5
81
330
80
100
AcDbEntity
  8
DIBUJOS
 62
     7
100
AcDbVertex
100
AcDb2dVertex
 10
47.68296992994505
 20
49.68774395832418
 30
0.0
  0
VERTEX
  5
82
330
80
100
AcDbEntity
  8
DIBUJOS
 62
     7
100
AcDbVertex
100
AcDb2dVertex
 10
47.68296992994505
 20
49.69336709430119
 30
0.0
  0
SEQEND
  5
83
330
80
100
AcDbEntity
  8
DIBUJOS
 62
     7
  0
POLYLINE
  5
84
330
58
100
AcDbEntity
  8
DIBUJOS
 62
     7
100
AcDb2dPolyline
 66
     1
 10
0.0
 20
0.0
 30
0.0
  0
VERTEX
  5
85
330
84
100
AcDbEntity
  8
DIBUJOS
 62
     7
100
AcDbVertex
100
AcDb2dVertex
 10
47.68296992994505
 20
49.68212082234749
 30
0.0
  0
VERTEX
  5
86
330
84
100
AcDbEntity
  8
DIBUJOS
 62
     7
100
AcDbVertex
100
AcDb2dVertex
 10
47.68296992994505
 20
49.68774395832418
 30
0.0
  0
SEQEND
  5
87
330
84
100
AcDbEntity
  8
DIBUJOS
 62
     7
  0
POLYLINE
  5
88
330
58
100
AcDbEntity
  8
DIBUJOS
 62
     7
100
AcDb2dPolyline
 66
     1
 10
0.0
 20
0.0
 30
0.0
  0
VERTEX
  5
89
330
88
100
AcDbEntity
  8
DIBUJOS
 62
     7
100
AcDbVertex
100
AcDb2dVertex
 10
41.67913152898318
 20
47.88856440268359
 30
0.0
  0
VERTEX
  5
8A
330
88
100
AcDbEntity
  8
DIBUJOS
 62
     7
100
AcDbVertex
100
AcDb2dVertex
 10
41.69580904498818
 20
48.1357856667025
 30
0.0
  0
VERTEX
  5
8B
330
88
100
AcDbEntity
  8
DIBUJOS
 62
     7
100
AcDbVertex
100
AcDb2dVertex
 10
41.70705756973897
 20
48.28196299053779
 30
0.0
  0
VERTEX
  5
8C
330
88
100
AcDbEntity
  8
DIBUJOS
 62
     7
100
AcDbVertex
100
AcDb2dVertex
 10
41.80330958087718
 20
49.35633302982389
 30
0.0
  0
VERTEX
  5
8D
330
88
100
AcDbEntity
  8
DIBUJOS
 62
     7
100
AcDbVertex
100
AcDb2dVertex
 10
42.01382547181264
 20
50.85717768123339
 30
0.0
  0
SEQEND
  5
8E
330
88
100
AcDbEntity
  8
DIBUJOS
 62
     7
  0
POLYLINE
  5
8F
330
58
100
AcDbEntity
  8
DIBUJOS
 62
     7
100
AcDb2dPolyline
 66
     1
 10
0.0
 20
0.0
 30
0.0
  0
VERTEX
  5
90
330
8F
100
AcDbEntity
  8
DIBUJOS
 62
     7
100
AcDbVertex
100
AcDb2dVertex
 10
47.83482274347871
 20
46.94970043994825
 30
0.0
  0
VERTEX
  5
91
330
8F
100
AcDbEntity
  8
DIBUJOS
 62
     7
100
AcDbVertex
100
AcDb2dVertex
 10
47.8378093320046
 20
48.00653222681948
 30
0.0
  0
VERTEX
  5
92
330
8F
100
AcDbEntity
  8
DIBUJOS
 62
     7
100
AcDbVertex
100
AcDb2dVertex
 10
47.73609275696498
 20
49.17636846699726
 30
0.0
  0
VERTEX
  5
93
330
8F
100
AcDbEntity
  8
DIBUJOS
 62
     7
100
AcDbVertex
100
AcDb2dVertex
 10
47.68296992994505
 20
49.68212082234749
 30
0.0
  0
SEQEND
  5
94
330
8F
100
AcDbEntity
  8
DIBUJOS
 62
     7
  0
POLYLINE
  5
95
330
58
100
AcDbEntity
  8
DIBUJOS
 62
     7
100
AcDb2dPolyline
 66
     1
 10
0.0
 20
0.0
 30
0.0
  0
VERTEX
  5
96
330
95
100
AcDbEntity
  8
DIBUJOS
 62
     7
100
AcDbVertex
100
AcDb2dVertex
 10
47.82919923796872
 20
46.94407730397125
 30
0.0
  0
VERTEX
  5
97
330
95
100
AcDbEntity
  8
DIBUJOS
 62
     7
100
AcDbVertex
100
AcDb2dVertex
 10
47.82357421872856
 20
46.94407730397125
 30
0.0
  0
SEQEND
  5
98
330
95
100
AcDbEntity
  8
DIBUJOS
 62
     7
  0
POLYLINE
  5
99
330
58
100
AcDbEntity
  8
DIBUJOS
 62
     7
100
AcDb2dPolyline
 66
     1
 10
0.0
 20
0.0
 30
0.0
  0
VERTEX
  5
9A
330
99
100
AcDbEntity
  8
DIBUJOS
 62
     7
100
AcDbVertex
100
AcDb2dVertex
 10
47.83482274347871
 20
46.94407730397125
 30
0.0
  0
VERTEX
  5
9B
330
99
100
AcDbEntity
  8
DIBUJOS
 62
     7
100
AcDbVertex
100
AcDb2dVertex
 10
47.83482274347871
 20
46.94970043994825
 30
0.0
  0
SEQEND
  5
9C
330
99
100
AcDbEntity
  8
DIBUJOS
 62
     7
  0
POLYLINE
  5
9D
330
58
100
AcDbEntity
  8
DIBUJOS
 62
     7
100
AcDb2dPolyline
 66
     1
 10
0.0
 20
0.0
 30
0.0
  0
VERTEX
  5
9E
330
9D
100
AcDbEntity
  8
DIBUJOS
 62
     7
100
AcDbVertex
100
AcDb2dVertex
 10
47.83482274347871
 20
46.93845416799424
 30
0.0
  0
VERTEX
  5
9F
330
9D
100
AcDbEntity
  8
DIBUJOS
 62
     7
100
AcDbVertex
100
AcDb2dVertex
 10
47.83482274347871
 20
46.94407730397125
 30
0.0
  0
SEQEND
  5
A0
330
9D
100
AcDbEntity
  8
DIBUJOS
 62
     7
  0
POLYLINE
  5
A1
330
58
100
AcDbEntity
  8
DIBUJOS
 62
     7
100
AcDb2dPolyline
 66
     1
 10
0.0
 20
0.0
 30
0.0
  0
VERTEX
  5
A2
330
A1
100
AcDbEntity
  8
DIBUJOS
 62
     7
100
AcDbVertex
100
AcDb2dVertex
 10
47.75608458395688
 20
47.02841223784242
 30
0.0
  0
VERTEX
  5
A3
330
A1
100
AcDbEntity
  8
DIBUJOS
 62
     7
100
AcDbVertex
100
AcDb2dVertex
 10
47.42369680819241
 20
47.16222047839554
 30
0.0
  0
VERTEX
  5
A4
330
A1
100
AcDbEntity
  8
DIBUJOS
 62
     7
100
AcDbVertex
100
AcDb2dVertex
 10
47.1875489337286
 20
47.24569590170864
 30
0.0
  0
VERTEX
  5
A5
330
A1
100
AcDbEntity
  8
DIBUJOS
 62
     7
100
AcDbVertex
100
AcDb2dVertex
 10
47.00287997592595
 20
47.29482116714327
 30
0.0
  0
VERTEX
  5
A6
330
A1
100
AcDbEntity
  8
DIBUJOS
 62
     7
100
AcDbVertex
100
AcDb2dVertex
 10
46.81097690430553
 20
47.32951028693225
 30
0.0
  0
VERTEX
  5
A7
330
A1
100
AcDbEntity
  8
DIBUJOS
 62
     7
100
AcDbVertex
100
AcDb2dVertex
 10
46.65964935494709
 20
47.34572598260725
 30
0.0
  0
VERTEX
  5
A8
330
A1
100
AcDbEntity
  8
DIBUJOS
 62
     7
100
AcDbVertex
100
AcDb2dVertex
 10
46.29955578608529
 20
47.36841827192633
 30
0.0
  0
VERTEX
  5
A9
330
A1
100
AcDbEntity
  8
DIBUJOS
 62
     7
100
AcDbVertex
100
AcDb2dVertex
 10
45.83266859306384
 20
47.37975836369439
 30
0.0
  0
VERTEX
  5
AA
330
A1
100
AcDbEntity
  8
DIBUJOS
 62
     7
100
AcDbVertex
100
AcDb2dVertex
 10
43.6897784593891
 20
47.37975836369439
 30
0.0
  0
VERTEX
  5
AB
330
A1
100
AcDbEntity
  8
DIBUJOS
 62
     7
100
AcDbVertex
100
AcDb2dVertex
 10
43.34679381947204
 20
47.37422602108656
 30
0.0
  0
VERTEX
  5
AC
330
A1
100
AcDbEntity
  8
DIBUJOS
 62
     7
100
AcDbVertex
100
AcDb2dVertex
 10
43.11066865095282
 20
47.36308264828438
 30
0.0
  0
VERTEX
  5
AD
330
A1
100
AcDbEntity
  8
DIBUJOS
 62
     7
100
AcDbVertex
100
AcDb2dVertex
 10
42.81835383921904
 20
47.34078984978773
 30
0.0
  0
VERTEX
  5
AE
330
A1
100
AcDbEntity
  8
DIBUJOS
 62
     7
100
AcDbVertex
100
AcDb2dVertex
 10
42.71147090501217
 20
47.32951028693225
 30
0.0
  0
VERTEX
  5
AF
330
A1
100
AcDbEntity
  8
DIBUJOS
 62
     7
100
AcDbVertex
100
AcDb2dVertex
 10
42.46981456848923
 20
47.28487324036382
 30
0.0
  0
VERTEX
  5
B0
330
A1
100
AcDbEntity
  8
DIBUJOS
 62
     7
100
AcDbVertex
100
AcDb2dVertex
 10
42.31809193570206
 20
47.24037238384902
 30
0.0
  0
VERTEX
  5
B1
330
A1
100
AcDbEntity
  8
DIBUJOS
 62
     7
100
AcDbVertex
100
AcDb2dVertex
 10
42.09875024426053
 20
47.16222047839554
 30
0.0
  0
VERTEX
  5
B2
330
A1
100
AcDbEntity
  8
DIBUJOS
 62
     7
100
AcDbVertex
100
AcDb2dVertex
 10
41.76636322536082
 20
47.02841223784242
 30
0.0
  0
SEQEND
  5
B3
330
A1
100
AcDbEntity
  8
DIBUJOS
 62
     7
  0
POLYLINE
  5
B4
330
58
100
AcDbEntity
  8
DIBUJOS
 62
     7
100
AcDb2dPolyline
 66
     1
 10
0.0
 20
0.0
 30
0.0
  0
VERTEX
  5
B5
330
B4
100
AcDbEntity
  8
DIBUJOS
 62
     7
100
AcDbVertex
100
AcDb2dVertex
 10
47.71109048495597
 20
46.97218995741014
 30
0.0
  0
VERTEX
  5
B6
330
B4
100
AcDbEntity
  8
DIBUJOS
 62
     7
100
AcDbVertex
100
AcDb2dVertex
 10
47.0080947744411
 20
46.97497731383351
 30
0.0
  0
VERTEX
  5
B7
330
B4
100
AcDbEntity
  8
DIBUJOS
 62
     7
100
AcDbVertex
100
AcDb2dVertex
 10
42.58746920261797
 20
46.97498034027902
 30
0.0
  0
VERTEX
  5
B8
330
B4
100
AcDbEntity
  8
DIBUJOS
 62
     7
100
AcDbVertex
100
AcDb2dVertex
 10
41.81135656749729
 20
46.97218995741014
 30
0.0
  0
SEQEND
  5
B9
330
B4
100
AcDbEntity
  8
DIBUJOS
 62
     7
  0
POLYLINE
  5
BA
330
58
100
AcDbEntity
  8
DIBUJOS
 62
     7
100
AcDb2dPolyline
 66
     1
 10
0.0
 20
0.0
 30
0.0
  0
VERTEX
  5
BB
330
BA
100
AcDbEntity
  8
DIBUJOS
 62
     7
100
AcDbVertex
100
AcDb2dVertex
 10
42.15442976059647
 20
45.16181860583679
 30
0.0
  0
VERTEX
  5
BC
330
BA
100
AcDbEntity
  8
DIBUJOS
 62
     7
100
AcDbVertex
100
AcDb2dVertex
 10
41.86716475084955
 20
45.17652410514352
 30
0.0
  0
VERTEX
  5
BD
330
BA
100
AcDbEntity
  8
DIBUJOS
 62
     7
100
AcDbVertex
100
AcDb2dVertex
 10
41.83385286013282
 20
45.184308123299
 30
0.0
  0
VERTEX
  5
BE
330
BA
100
AcDbEntity
  8
DIBUJOS
 62
     7
100
AcDbVertex
100
AcDb2dVertex
 10
41.80573230512189
 20
45.21241775029239
 30
0.0
  0
VERTEX
  5
BF
330
BA
100
AcDbEntity
  8
DIBUJOS
 62
     7
100
AcDbVertex
100
AcDb2dVertex
 10
41.79084477438288
 20
45.24664987679122
 30
0.0
  0
VERTEX
  5
C0
330
BA
100
AcDbEntity
  8
DIBUJOS
 62
     7
100
AcDbVertex
100
AcDb2dVertex
 10
41.78687426160982
 20
45.26252358411023
 30
0.0
  0
VERTEX
  5
C1
330
BA
100
AcDbEntity
  8
DIBUJOS
 62
     7
100
AcDbVertex
100
AcDb2dVertex
 10
41.71275903232403
 20
46.39887220341374
 30
0.0
  0
VERTEX
  5
C2
330
BA
100
AcDbEntity
  8
DIBUJOS
 62
     7
100
AcDbVertex
100
AcDb2dVertex
 10
41.69060105825688
 20
46.79212854832333
 30
0.0
  0
VERTEX
  5
C3
330
BA
100
AcDbEntity
  8
DIBUJOS
 62
     7
100
AcDbVertex
100
AcDb2dVertex
 10
41.67913152898318
 20
47.88856440268359
 30
0.0
  0
SEQEND
  5
C4
330
BA
100
AcDbEntity
  8
DIBUJOS
 62
     7
  0
POLYLINE
  5
C5
330
58
100
AcDbEntity
  8
DIBUJOS
 62
     7
100
AcDb2dPolyline
 66
     1
 10
0.0
 20
0.0
 30
0.0
  0
VERTEX
  5
C6
330
C5
100
AcDbEntity
  8
DIBUJOS
 62
     7
100
AcDbVertex
100
AcDb2dVertex
 10
42.16005326610678
 20
45.16181860583679
 30
0.0
  0
VERTEX
  5
C7
330
C5
100
AcDbEntity
  8
DIBUJOS
 62
     7
100
AcDbVertex
100
AcDb2dVertex
 10
42.15442976059647
 20
45.16181860583679
 30
0.0
  0
SEQEND
  5
C8
330
C5
100
AcDbEntity
  8
DIBUJOS
 62
     7
  0
POLYLINE
  5
C9
330
58
100
AcDbEntity
  8
DIBUJOS
 62
     7
100
AcDb2dPolyline
 66
     1
 10
0.0
 20
0.0
 30
0.0
  0
VERTEX
  5
CA
330
C9
100
AcDbEntity
  8
DIBUJOS
 62
     7
100
AcDbVertex
100
AcDb2dVertex
 10
42.16567752848185
 20
45.16181860583679
 30
0.0
  0
VERTEX
  5
CB
330
C9
100
AcDbEntity
  8
DIBUJOS
 62
     7
100
AcDbVertex
100
AcDb2dVertex
 10
42.16005326610678
 20
45.16181860583679
 30
0.0
  0
SEQEND
  5
CC
330
C9
100
AcDbEntity
  8
DIBUJOS
 62
     7
  0
POLYLINE
  5
CD
330
58
100
AcDbEntity
  8
DIBUJOS
 62
     7
100
AcDb2dPolyline
 66
     1
 10
0.0
 20
0.0
 30
0.0
  0
VERTEX
  5
CE
330
CD
100
AcDbEntity
  8
DIBUJOS
 62
     7
100
AcDbVertex
100
AcDb2dVertex
 10
42.63810648561439
 20
45.16181860583679
 30
0.0
  0
VERTEX
  5
CF
330
CD
100
AcDbEntity
  8
DIBUJOS
 62
     7
100
AcDbVertex
100
AcDb2dVertex
 10
42.57645379222828
 20
45.1643759523925
 30
0.0
  0
VERTEX
  5
D0
330
CD
100
AcDbEntity
  8
DIBUJOS
 62
     7
100
AcDbVertex
100
AcDb2dVertex
 10
42.16567752848185
 20
45.16181860583679
 30
0.0
  0
SEQEND
  5
D1
330
CD
100
AcDbEntity
  8
DIBUJOS
 62
     7
  0
POLYLINE
  5
D2
330
58
100
AcDbEntity
  8
DIBUJOS
 62
     7
100
AcDb2dPolyline
 66
     1
 10
0.0
 20
0.0
 30
0.0
  0
VERTEX
  5
D3
330
D2
100
AcDbEntity
  8
DIBUJOS
 62
     7
100
AcDbVertex
100
AcDb2dVertex
 10
42.64373074798947
 20
45.16181860583679
 30
0.0
  0
VERTEX
  5
D4
330
D2
100
AcDbEntity
  8
DIBUJOS
 62
     7
100
AcDbVertex
100
AcDb2dVertex
 10
42.63810648561439
 20
45.16181860583679
 30
0.0
  0
SEQEND
  5
D5
330
D2
100
AcDbEntity
  8
DIBUJOS
 62
     7
  0
POLYLINE
  5
D6
330
58
100
AcDbEntity
  8
DIBUJOS
 62
     7
100
AcDb2dPolyline
 66
     1
 10
0.0
 20
0.0
 30
0.0
  0
VERTEX
  5
D7
330
D6
100
AcDbEntity
  8
DIBUJOS
 62
     7
100
AcDbVertex
100
AcDb2dVertex
 10
42.64935501036454
 20
45.16181860583679
 30
0.0
  0
VERTEX
  5
D8
330
D6
100
AcDbEntity
  8
DIBUJOS
 62
     7
100
AcDbVertex
100
AcDb2dVertex
 10
42.64373074798947
 20
45.16181860583679
 30
0.0
  0
SEQEND
  5
D9
330
D6
100
AcDbEntity
  8
DIBUJOS
 62
     7
  0
POLYLINE
  5
DA
330
58
100
AcDbEntity
  8
DIBUJOS
 62
     7
100
AcDb2dPolyline
 66
     1
 10
0.0
 20
0.0
 30
0.0
  0
VERTEX
  5
DB
330
DA
100
AcDbEntity
  8
DIBUJOS
 62
     7
100
AcDbVertex
100
AcDb2dVertex
 10
42.68872409012561
 20
45.16181860583679
 30
0.0
  0
VERTEX
  5
DC
330
DA
100
AcDbEntity
  8
DIBUJOS
 62
     7
100
AcDbVertex
100
AcDb2dVertex
 10
42.64935501036454
 20
45.16181860583679
 30
0.0
  0
SEQEND
  5
DD
330
DA
100
AcDbEntity
  8
DIBUJOS
 62
     7
  0
POLYLINE
  5
DE
330
58
100
AcDbEntity
  8
DIBUJOS
 62
     7
100
AcDb2dPolyline
 66
     1
 10
0.0
 20
0.0
 30
0.0
  0
VERTEX
  5
DF
330
DE
100
AcDbEntity
  8
DIBUJOS
 62
     7
100
AcDbVertex
100
AcDb2dVertex
 10
42.69434759563592
 20
45.16181860583679
 30
0.0
  0
VERTEX
  5
E0
330
DE
100
AcDbEntity
  8
DIBUJOS
 62
     7
100
AcDbVertex
100
AcDb2dVertex
 10
42.68872409012561
 20
45.16181860583679
 30
0.0
  0
SEQEND
  5
E1
330
DE
100
AcDbEntity
  8
DIBUJOS
 62
     7
  0
POLYLINE
  5
E2
330
58
100
AcDbEntity
  8
DIBUJOS
 62
     7
100
AcDb2dPolyline
 66
     1
 10
0.0
 20
0.0
 30
0.0
  0
VERTEX
  5
E3
330
E2
100
AcDbEntity
  8
DIBUJOS
 62
     7
100
AcDbVertex
100
AcDb2dVertex
 10
42.699971858011
 20
45.16181860583679
 30
0.0
  0
VERTEX
  5
E4
330
E2
100
AcDbEntity
  8
DIBUJOS
 62
     7
100
AcDbVertex
100
AcDb2dVertex
 10
42.69434759563592
 20
45.16181860583679
 30
0.0
  0
SEQEND
  5
E5
330
E2
100
AcDbEntity
  8
DIBUJOS
 62
     7
  0
POLYLINE
  5
E6
330
58
100
AcDbEntity
  8
DIBUJOS
 62
     7
100
AcDb2dPolyline
 66
     1
 10
0.0
 20
0.0
 30
0.0
  0
VERTEX
  5
E7
330
E6
100
AcDbEntity
  8
DIBUJOS
 62
     7
100
AcDbVertex
100
AcDb2dVertex
 10
42.699971858011
 20
45.16181860583679
 30
0.0
  0
VERTEX
  5
E8
330
E6
100
AcDbEntity
  8
DIBUJOS
 62
     7
100
AcDbVertex
100
AcDb2dVertex
 10
43.183649339894
 20
45.16181860583679
 30
0.0
  0
SEQEND
  5
E9
330
E6
100
AcDbEntity
  8
DIBUJOS
 62
     7
  0
POLYLINE
  5
EA
330
58
100
AcDbEntity
  8
DIBUJOS
 62
     7
100
AcDb2dPolyline
 66
     1
 10
0.0
 20
0.0
 30
0.0
  0
VERTEX
  5
EB
330
EA
100
AcDbEntity
  8
DIBUJOS
 62
     7
100
AcDbVertex
100
AcDb2dVertex
 10
46.82809869995226
 20
45.16181860583679
 30
0.0
  0
VERTEX
  5
EC
330
EA
100
AcDbEntity
  8
DIBUJOS
 62
     7
100
AcDbVertex
100
AcDb2dVertex
 10
46.82247519444195
 20
45.16181860583679
 30
0.0
  0
SEQEND
  5
ED
330
EA
100
AcDbEntity
  8
DIBUJOS
 62
     7
  0
POLYLINE
  5
EE
330
58
100
AcDbEntity
  8
DIBUJOS
 62
     7
100
AcDb2dPolyline
 66
     1
 10
0.0
 20
0.0
 30
0.0
  0
VERTEX
  5
EF
330
EE
100
AcDbEntity
  8
DIBUJOS
 62
     7
100
AcDbVertex
100
AcDb2dVertex
 10
46.83372371919209
 20
45.16181860583679
 30
0.0
  0
VERTEX
  5
F0
330
EE
100
AcDbEntity
  8
DIBUJOS
 62
     7
100
AcDbVertex
100
AcDb2dVertex
 10
46.82809869995226
 20
45.16181860583679
 30
0.0
  0
SEQEND
  5
F1
330
EE
100
AcDbEntity
  8
DIBUJOS
 62
     7
  0
POLYLINE
  5
F2
330
58
100
AcDbEntity
  8
DIBUJOS
 62
     7
100
AcDb2dPolyline
 66
     1
 10
0.0
 20
0.0
 30
0.0
  0
VERTEX
  5
F3
330
F2
100
AcDbEntity
  8
DIBUJOS
 62
     7
100
AcDbVertex
100
AcDb2dVertex
 10
46.91246187871424
 20
45.16181860583679
 30
0.0
  0
VERTEX
  5
F4
330
F2
100
AcDbEntity
  8
DIBUJOS
 62
     7
100
AcDbVertex
100
AcDb2dVertex
 10
46.32322900349489
 20
45.16181860583679
 30
0.0
  0
SEQEND
  5
F5
330
F2
100
AcDbEntity
  8
DIBUJOS
 62
     7
  0
POLYLINE
  5
F6
330
58
100
AcDbEntity
  8
DIBUJOS
 62
     7
100
AcDb2dPolyline
 66
     1
 10
0.0
 20
0.0
 30
0.0
  0
VERTEX
  5
F7
330
F6
100
AcDbEntity
  8
DIBUJOS
 62
     7
100
AcDbVertex
100
AcDb2dVertex
 10
46.91808538422455
 20
45.16181860583679
 30
0.0
  0
VERTEX
  5
F8
330
F6
100
AcDbEntity
  8
DIBUJOS
 62
     7
100
AcDbVertex
100
AcDb2dVertex
 10
46.91246187871424
 20
45.16181860583679
 30
0.0
  0
SEQEND
  5
F9
330
F6
100
AcDbEntity
  8
DIBUJOS
 62
     7
  0
POLYLINE
  5
FA
330
58
100
AcDbEntity
  8
DIBUJOS
 62
     7
100
AcDb2dPolyline
 66
     1
 10
0.0
 20
0.0
 30
0.0
  0
VERTEX
  5
FB
330
FA
100
AcDbEntity
  8
DIBUJOS
 62
     7
100
AcDbVertex
100
AcDb2dVertex
 10
46.92371040346438
 20
45.16181860583679
 30
0.0
  0
VERTEX
  5
FC
330
FA
100
AcDbEntity
  8
DIBUJOS
 62
     7
100
AcDbVertex
100
AcDb2dVertex
 10
46.91808538422455
 20
45.16181860583679
 30
0.0
  0
SEQEND
  5
FD
330
FA
100
AcDbEntity
  8
DIBUJOS
 62
     7
  0
POLYLINE
  5
FE
330
58
100
AcDbEntity
  8
DIBUJOS
 62
     7
100
AcDb2dPolyline
 66
     1
 10
0.0
 20
0.0
 30
0.0
  0
VERTEX
  5
FF
330
FE
100
AcDbEntity
  8
DIBUJOS
 62
     7
100
AcDbVertex
100
AcDb2dVertex
 10
47.40176286610723
 20
45.16181860583679
 30
0.0
  0
VERTEX
  5
100
330
FE
100
AcDbEntity
  8
DIBUJOS
 62
     7
100
AcDbVertex
100
AcDb2dVertex
 10
47.39613936059757
 20
45.1674417418138
 30
0.0
  0
VERTEX
  5
101
330
FE
100
AcDbEntity
  8
DIBUJOS
 62
     7
100
AcDbVertex
100
AcDb2dVertex
 10
46.96842900367602
 20
45.16428515902364
 30
0.0
  0
VERTEX
  5
102
330
FE
100
AcDbEntity
  8
DIBUJOS
 62
     7
100
AcDbVertex
100
AcDb2dVertex
 10
46.92371040346438
 20
45.16181860583679
 30
0.0
  0
SEQEND
  5
103
330
FE
100
AcDbEntity
  8
DIBUJOS
 62
     7
  0
POLYLINE
  5
104
330
58
100
AcDbEntity
  8
DIBUJOS
 62
     7
100
AcDb2dPolyline
 66
     1
 10
0.0
 20
0.0
 30
0.0
  0
VERTEX
  5
105
330
104
100
AcDbEntity
  8
DIBUJOS
 62
     7
100
AcDbVertex
100
AcDb2dVertex
 10
47.40738637161754
 20
45.16181860583679
 30
0.0
  0
VERTEX
  5
106
330
104
100
AcDbEntity
  8
DIBUJOS
 62
     7
100
AcDbVertex
100
AcDb2dVertex
 10
47.40176286610723
 20
45.16181860583679
 30
0.0
  0
SEQEND
  5
107
330
104
100
AcDbEntity
  8
DIBUJOS
 62
     7
  0
POLYLINE
  5
108
330
58
100
AcDbEntity
  8
DIBUJOS
 62
     7
100
AcDb2dPolyline
 66
     1
 10
0.0
 20
0.0
 30
0.0
  0
VERTEX
  5
109
330
108
100
AcDbEntity
  8
DIBUJOS
 62
     7
100
AcDbVertex
100
AcDb2dVertex
 10
47.40738637161754
 20
45.16181860583679
 30
0.0
  0
VERTEX
  5
10A
330
108
100
AcDbEntity
  8
DIBUJOS
 62
     7
100
AcDbVertex
100
AcDb2dVertex
 10
47.60415457021292
 20
45.17016856932459
 30
0.0
  0
VERTEX
  5
10B
330
108
100
AcDbEntity
  8
DIBUJOS
 62
     7
100
AcDbVertex
100
AcDb2dVertex
 10
47.67622172333274
 20
45.18205947419717
 30
0.0
  0
VERTEX
  5
10C
330
108
100
AcDbEntity
  8
DIBUJOS
 62
     7
100
AcDbVertex
100
AcDb2dVertex
 10
47.6894592887939
 20
45.18863291410143
 30
0.0
  0
VERTEX
  5
10D
330
108
100
AcDbEntity
  8
DIBUJOS
 62
     7
100
AcDbVertex
100
AcDb2dVertex
 10
47.72233900970612
 20
45.21804088626972
 30
0.0
  0
VERTEX
  5
10E
330
108
100
AcDbEntity
  8
DIBUJOS
 62
     7
100
AcDbVertex
100
AcDb2dVertex
 10
47.74149223049267
 20
45.29075124248328
 30
0.0
  0
VERTEX
  5
10F
330
108
100
AcDbEntity
  8
DIBUJOS
 62
     7
100
AcDbVertex
100
AcDb2dVertex
 10
47.80932699561626
 20
46.37044177318382
 30
0.0
  0
VERTEX
  5
110
330
108
100
AcDbEntity
  8
DIBUJOS
 62
     7
100
AcDbVertex
100
AcDb2dVertex
 10
47.8262308141985
 20
46.66282365886455
 30
0.0
  0
VERTEX
  5
111
330
108
100
AcDbEntity
  8
DIBUJOS
 62
     7
100
AcDbVertex
100
AcDb2dVertex
 10
47.83482274347871
 20
46.93845416799424
 30
0.0
  0
SEQEND
  5
112
330
108
100
AcDbEntity
  8
DIBUJOS
 62
     7
  0
POLYLINE
  5
113
330
58
100
AcDbEntity
  8
DIBUJOS
 62
     7
100
AcDb2dPolyline
 66
     1
 10
0.0
 20
0.0
 30
0.0
  0
VERTEX
  5
114
330
113
100
AcDbEntity
  8
DIBUJOS
 62
     7
100
AcDbVertex
100
AcDb2dVertex
 10
42.16005326610678
 20
45.15619546985978
 30
0.0
  0
VERTEX
  5
115
330
113
100
AcDbEntity
  8
DIBUJOS
 62
     7
100
AcDbVertex
100
AcDb2dVertex
 10
42.16005326610678
 20
45.16181860583679
 30
0.0
  0
SEQEND
  5
116
330
113
100
AcDbEntity
  8
DIBUJOS
 62
     7
  0
POLYLINE
  5
117
330
58
100
AcDbEntity
  8
DIBUJOS
 62
     7
100
AcDb2dPolyline
 66
     1
 10
0.0
 20
0.0
 30
0.0
  0
VERTEX
  5
118
330
117
100
AcDbEntity
  8
DIBUJOS
 62
     7
100
AcDbVertex
100
AcDb2dVertex
 10
42.64373074798947
 20
45.15619546985978
 30
0.0
  0
VERTEX
  5
119
330
117
100
AcDbEntity
  8
DIBUJOS
 62
     7
100
AcDbVertex
100
AcDb2dVertex
 10
42.64373074798947
 20
45.16181860583679
 30
0.0
  0
SEQEND
  5
11A
330
117
100
AcDbEntity
  8
DIBUJOS
 62
     7
  0
POLYLINE
  5
11B
330
58
100
AcDbEntity
  8
DIBUJOS
 62
     7
100
AcDb2dPolyline
 66
     1
 10
0.0
 20
0.0
 30
0.0
  0
VERTEX
  5
11C
330
11B
100
AcDbEntity
  8
DIBUJOS
 62
     7
100
AcDbVertex
100
AcDb2dVertex
 10
42.69434759563592
 20
45.15619546985978
 30
0.0
  0
VERTEX
  5
11D
330
11B
100
AcDbEntity
  8
DIBUJOS
 62
     7
100
AcDbVertex
100
AcDb2dVertex
 10
42.69434759563592
 20
45.16181860583679
 30
0.0
  0
SEQEND
  5
11E
330
11B
100
AcDbEntity
  8
DIBUJOS
 62
     7
  0
POLYLINE
  5
11F
330
58
100
AcDbEntity
  8
DIBUJOS
 62
     7
100
AcDb2dPolyline
 66
     1
 10
0.0
 20
0.0
 30
0.0
  0
VERTEX
  5
120
330
11F
100
AcDbEntity
  8
DIBUJOS
 62
     7
100
AcDbVertex
100
AcDb2dVertex
 10
43.17802507751893
 20
45.15619546985978
 30
0.0
  0
VERTEX
  5
121
330
11F
100
AcDbEntity
  8
DIBUJOS
 62
     7
100
AcDbVertex
100
AcDb2dVertex
 10
43.183649339894
 20
45.16181860583679
 30
0.0
  0
SEQEND
  5
122
330
11F
100
AcDbEntity
  8
DIBUJOS
 62
     7
  0
POLYLINE
  5
123
330
58
100
AcDbEntity
  8
DIBUJOS
 62
     7
100
AcDb2dPolyline
 66
     1
 10
0.0
 20
0.0
 30
0.0
  0
VERTEX
  5
124
330
123
100
AcDbEntity
  8
DIBUJOS
 62
     7
100
AcDbVertex
100
AcDb2dVertex
 10
46.82809869995226
 20
45.15619546985978
 30
0.0
  0
VERTEX
  5
125
330
123
100
AcDbEntity
  8
DIBUJOS
 62
     7
100
AcDbVertex
100
AcDb2dVertex
 10
46.82809869995226
 20
45.16181860583679
 30
0.0
  0
SEQEND
  5
126
330
123
100
AcDbEntity
  8
DIBUJOS
 62
     7
  0
POLYLINE
  5
127
330
58
100
AcDbEntity
  8
DIBUJOS
 62
     7
100
AcDb2dPolyline
 66
     1
 10
0.0
 20
0.0
 30
0.0
  0
VERTEX
  5
128
330
127
100
AcDbEntity
  8
DIBUJOS
 62
     7
100
AcDbVertex
100
AcDb2dVertex
 10
46.91808538422455
 20
45.15619546985978
 30
0.0
  0
VERTEX
  5
129
330
127
100
AcDbEntity
  8
DIBUJOS
 62
     7
100
AcDbVertex
100
AcDb2dVertex
 10
46.91808538422455
 20
45.16181860583679
 30
0.0
  0
SEQEND
  5
12A
330
127
100
AcDbEntity
  8
DIBUJOS
 62
     7
  0
POLYLINE
  5
12B
330
58
100
AcDbEntity
  8
DIBUJOS
 62
     7
100
AcDb2dPolyline
 66
     1
 10
0.0
 20
0.0
 30
0.0
  0
VERTEX
  5
12C
330
12B
100
AcDbEntity
  8
DIBUJOS
 62
     7
100
AcDbVertex
100
AcDb2dVertex
 10
47.40738637161754
 20
45.15619546985978
 30
0.0
  0
VERTEX
  5
12D
330
12B
100
AcDbEntity
  8
DIBUJOS
 62
     7
100
AcDbVertex
100
AcDb2dVertex
 10
47.40738637161754
 20
45.16181860583679
 30
0.0
  0
SEQEND
  5
12E
330
12B
100
AcDbEntity
  8
DIBUJOS
 62
     7
  0
POLYLINE
  5
12F
330
58
100
AcDbEntity
  8
DIBUJOS
 62
     7
100
AcDb2dPolyline
 66
     1
 10
0.0
 20
0.0
 30
0.0
  0
VERTEX
  5
130
330
12F
100
AcDbEntity
  8
DIBUJOS
 62
     7
100
AcDbVertex
100
AcDb2dVertex
 10
42.16005326610678
 20
45.15619546985978
 30
0.0
  0
VERTEX
  5
131
330
12F
100
AcDbEntity
  8
DIBUJOS
 62
     7
100
AcDbVertex
100
AcDb2dVertex
 10
42.14056778167029
 20
44.83027754017452
 30
0.0
  0
VERTEX
  5
132
330
12F
100
AcDbEntity
  8
DIBUJOS
 62
     7
100
AcDbVertex
100
AcDb2dVertex
 10
42.02291087694661
 20
43.03616728096093
 30
0.0
  0
VERTEX
  5
133
330
12F
100
AcDbEntity
  8
DIBUJOS
 62
     7
100
AcDbVertex
100
AcDb2dVertex
 10
42.03069825893818
 20
43.00286729971539
 30
0.0
  0
VERTEX
  5
134
330
12F
100
AcDbEntity
  8
DIBUJOS
 62
     7
100
AcDbVertex
100
AcDb2dVertex
 10
42.04700793864764
 20
42.9955584335237
 30
0.0
  0
VERTEX
  5
135
330
12F
100
AcDbEntity
  8
DIBUJOS
 62
     7
100
AcDbVertex
100
AcDb2dVertex
 10
42.05319455157371
 20
42.9916210277617
 30
0.0
  0
VERTEX
  5
136
330
12F
100
AcDbEntity
  8
DIBUJOS
 62
     7
100
AcDbVertex
100
AcDb2dVertex
 10
42.2725362430146
 20
42.9916210277617
 30
0.0
  0
VERTEX
  5
137
330
12F
100
AcDbEntity
  8
DIBUJOS
 62
     7
100
AcDbVertex
100
AcDb2dVertex
 10
42.29503329251521
 20
43.01411054522326
 30
0.0
  0
VERTEX
  5
138
330
12F
100
AcDbEntity
  8
DIBUJOS
 62
     7
100
AcDbVertex
100
AcDb2dVertex
 10
42.4783497329091
 20
44.13332342938079
 30
0.0
  0
VERTEX
  5
139
330
12F
100
AcDbEntity
  8
DIBUJOS
 62
     7
100
AcDbVertex
100
AcDb2dVertex
 10
42.64373074798947
 20
45.15619546985978
 30
0.0
  0
SEQEND
  5
13A
330
12F
100
AcDbEntity
  8
DIBUJOS
 62
     7
  0
POLYLINE
  5
13B
330
58
100
AcDbEntity
  8
DIBUJOS
 62
     7
100
AcDb2dPolyline
 66
     1
 10
0.0
 20
0.0
 30
0.0
  0
VERTEX
  5
13C
330
13B
100
AcDbEntity
  8
DIBUJOS
 62
     7
100
AcDbVertex
100
AcDb2dVertex
 10
42.69434759563592
 20
45.15619546985978
 30
0.0
  0
VERTEX
  5
13D
330
13B
100
AcDbEntity
  8
DIBUJOS
 62
     7
100
AcDbVertex
100
AcDb2dVertex
 10
42.67444961988014
 20
44.88614270002267
 30
0.0
  0
VERTEX
  5
13E
330
13B
100
AcDbEntity
  8
DIBUJOS
 62
     7
100
AcDbVertex
100
AcDb2dVertex
 10
42.55374406371718
 20
43.01973368120059
 30
0.0
  0
VERTEX
  5
13F
330
13B
100
AcDbEntity
  8
DIBUJOS
 62
     7
100
AcDbVertex
100
AcDb2dVertex
 10
42.57567800580171
 20
42.99612135241021
 30
0.0
  0
VERTEX
  5
140
330
13B
100
AcDbEntity
  8
DIBUJOS
 62
     7
100
AcDbVertex
100
AcDb2dVertex
 10
42.58186461872778
 20
42.9916210277617
 30
0.0
  0
VERTEX
  5
141
330
13B
100
AcDbEntity
  8
DIBUJOS
 62
     7
100
AcDbVertex
100
AcDb2dVertex
 10
42.80120706703376
 20
42.9916210277617
 30
0.0
  0
VERTEX
  5
142
330
13B
100
AcDbEntity
  8
DIBUJOS
 62
     7
100
AcDbVertex
100
AcDb2dVertex
 10
42.81245483491914
 20
42.99724416373838
 30
0.0
  0
VERTEX
  5
143
330
13B
100
AcDbEntity
  8
DIBUJOS
 62
     7
100
AcDbVertex
100
AcDb2dVertex
 10
42.82370335966928
 20
43.00849043569239
 30
0.0
  0
VERTEX
  5
144
330
13B
100
AcDbEntity
  8
DIBUJOS
 62
     7
100
AcDbVertex
100
AcDb2dVertex
 10
43.01264481930333
 20
44.155812946843
 30
0.0
  0
VERTEX
  5
145
330
13B
100
AcDbEntity
  8
DIBUJOS
 62
     7
100
AcDbVertex
100
AcDb2dVertex
 10
43.17802507751893
 20
45.15619546985978
 30
0.0
  0
SEQEND
  5
146
330
13B
100
AcDbEntity
  8
DIBUJOS
 62
     7
  0
POLYLINE
  5
147
330
58
100
AcDbEntity
  8
DIBUJOS
 62
     7
100
AcDb2dPolyline
 66
     1
 10
0.0
 20
0.0
 30
0.0
  0
VERTEX
  5
148
330
147
100
AcDbEntity
  8
DIBUJOS
 62
     7
100
AcDbVertex
100
AcDb2dVertex
 10
43.183649339894
 20
45.16181860583679
 30
0.0
  0
VERTEX
  5
149
330
147
100
AcDbEntity
  8
DIBUJOS
 62
     7
100
AcDbVertex
100
AcDb2dVertex
 10
46.33879771255894
 20
45.16181860583679
 30
0.0
  0
VERTEX
  5
14A
330
147
100
AcDbEntity
  8
DIBUJOS
 62
     7
100
AcDbVertex
100
AcDb2dVertex
 10
46.35004623730908
 20
45.15057233388342
 30
0.0
  0
VERTEX
  5
14B
330
147
100
AcDbEntity
  8
DIBUJOS
 62
     7
100
AcDbVertex
100
AcDb2dVertex
 10
46.49961786031697
 20
44.22251883493077
 30
0.0
  0
VERTEX
  5
14C
330
147
100
AcDbEntity
  8
DIBUJOS
 62
     7
100
AcDbVertex
100
AcDb2dVertex
 10
46.50524287955681
 20
44.18878607196069
 30
0.0
  0
VERTEX
  5
14D
330
147
100
AcDbEntity
  8
DIBUJOS
 62
     7
100
AcDbVertex
100
AcDb2dVertex
 10
46.69874444964842
 20
43.00849043569239
 30
0.0
  0
VERTEX
  5
14E
330
147
100
AcDbEntity
  8
DIBUJOS
 62
     7
100
AcDbVertex
100
AcDb2dVertex
 10
46.72123998541919
 20
42.9916210277617
 30
0.0
  0
VERTEX
  5
14F
330
147
100
AcDbEntity
  8
DIBUJOS
 62
     7
100
AcDbVertex
100
AcDb2dVertex
 10
46.94058243372484
 20
42.9916210277617
 30
0.0
  0
VERTEX
  5
150
330
147
100
AcDbEntity
  8
DIBUJOS
 62
     7
100
AcDbVertex
100
AcDb2dVertex
 10
46.95183095847531
 20
42.99724416373838
 30
0.0
  0
VERTEX
  5
151
330
147
100
AcDbEntity
  8
DIBUJOS
 62
     7
100
AcDbVertex
100
AcDb2dVertex
 10
46.96870298873576
 20
43.01973368120059
 30
0.0
  0
VERTEX
  5
152
330
147
100
AcDbEntity
  8
DIBUJOS
 62
     7
100
AcDbVertex
100
AcDb2dVertex
 10
46.85319330946785
 20
44.81904640044898
 30
0.0
  0
VERTEX
  5
153
330
147
100
AcDbEntity
  8
DIBUJOS
 62
     7
100
AcDbVertex
100
AcDb2dVertex
 10
46.82809869995226
 20
45.15619546985978
 30
0.0
  0
SEQEND
  5
154
330
147
100
AcDbEntity
  8
DIBUJOS
 62
     7
  0
POLYLINE
  5
155
330
58
100
AcDbEntity
  8
DIBUJOS
 62
     7
100
AcDb2dPolyline
 66
     1
 10
0.0
 20
0.0
 30
0.0
  0
VERTEX
  5
156
330
155
100
AcDbEntity
  8
DIBUJOS
 62
     7
100
AcDbVertex
100
AcDb2dVertex
 10
46.91808538422455
 20
45.15619546985978
 30
0.0
  0
VERTEX
  5
157
330
155
100
AcDbEntity
  8
DIBUJOS
 62
     7
100
AcDbVertex
100
AcDb2dVertex
 10
47.08453055122242
 20
44.16629655449849
 30
0.0
  0
VERTEX
  5
158
330
155
100
AcDbEntity
  8
DIBUJOS
 62
     7
100
AcDbVertex
100
AcDb2dVertex
 10
47.27803212131371
 20
43.00286729971539
 30
0.0
  0
VERTEX
  5
159
330
155
100
AcDbEntity
  8
DIBUJOS
 62
     7
100
AcDbVertex
100
AcDb2dVertex
 10
47.29490415157449
 20
42.9916210277617
 30
0.0
  0
VERTEX
  5
15A
330
155
100
AcDbEntity
  8
DIBUJOS
 62
     7
100
AcDbVertex
100
AcDb2dVertex
 10
47.51424659988015
 20
42.9916210277617
 30
0.0
  0
VERTEX
  5
15B
330
155
100
AcDbEntity
  8
DIBUJOS
 62
     7
100
AcDbVertex
100
AcDb2dVertex
 10
47.54236715489107
 20
43.01411054522326
 30
0.0
  0
VERTEX
  5
15C
330
155
100
AcDbEntity
  8
DIBUJOS
 62
     7
100
AcDbVertex
100
AcDb2dVertex
 10
47.5440534496793
 20
43.02479389829076
 30
0.0
  0
VERTEX
  5
15D
330
155
100
AcDbEntity
  8
DIBUJOS
 62
     7
100
AcDbVertex
100
AcDb2dVertex
 10
47.42727072380722
 20
44.83555263490422
 30
0.0
  0
VERTEX
  5
15E
330
155
100
AcDbEntity
  8
DIBUJOS
 62
     7
100
AcDbVertex
100
AcDb2dVertex
 10
47.40738637161754
 20
45.15619546985978
 30
0.0
  0
SEQEND
  5
15F
330
155
100
AcDbEntity
  8
DIBUJOS
 62
     7
  0
ENDBLK
  5
5B
330
58
100
AcDbEntity
  8
0
100
AcDbBlockEnd
  0
BLOCK
  5
162
330
160
100
AcDbEntity
  8
0
100
AcDbBlockBegin
  2
BLOCK_3
 70
     0
 10
0.0
 20
0.0
 30
0.0
  3
BLOCK_3
  1

  0
POLYLINE
  5
164
330
160
100
AcDbEntity
  8
DIBUJOS
 62
     7
100
AcDb2dPolyline
 66
     1
 10
0.0
 20
0.0
 30
0.0
  0
VERTEX
  5
165
330
164
100
AcDbEntity
  8
DIBUJOS
 62
     7
100
AcDbVertex
100
AcDb2dVertex
 10
57.79375972571571
 20
47.36574894688228
 30
0.0
  0
VERTEX
  5
166
330
164
100
AcDbEntity
  8
DIBUJOS
 62
     7
100
AcDbVertex
100
AcDb2dVertex
 10
57.79375972571571
 20
47.37136905641379
 30
0.0
  0
SEQEND
  5
167
330
164
100
AcDbEntity
  8
DIBUJOS
 62
     7
  0
POLYLINE
  5
168
330
160
100
AcDbEntity
  8
DIBUJOS
 62
     7
100
AcDb2dPolyline
 66
     1
 10
0.0
 20
0.0
 30
0.0
  0
VERTEX
  5
169
330
168
100
AcDbEntity
  8
DIBUJOS
 62
     7
100
AcDbVertex
100
AcDb2dVertex
 10
57.79938474495555
 20
47.36574894688228
 30
0.0
  0
VERTEX
  5
16A
330
168
100
AcDbEntity
  8
DIBUJOS
 62
     7
100
AcDbVertex
100
AcDb2dVertex
 10
57.79375972571571
 20
47.36574894688228
 30
0.0
  0
SEQEND
  5
16B
330
168
100
AcDbEntity
  8
DIBUJOS
 62
     7
  0
POLYLINE
  5
16C
330
160
100
AcDbEntity
  8
DIBUJOS
 62
     7
100
AcDb2dPolyline
 66
     1
 10
0.0
 20
0.0
 30
0.0
  0
VERTEX
  5
16D
330
16C
100
AcDbEntity
  8
DIBUJOS
 62
     7
100
AcDbVertex
100
AcDb2dVertex
 10
57.79375972571571
 20
47.3601258109056
 30
0.0
  0
VERTEX
  5
16E
330
16C
100
AcDbEntity
  8
DIBUJOS
 62
     7
100
AcDbVertex
100
AcDb2dVertex
 10
57.79375972571571
 20
47.36574894688228
 30
0.0
  0
SEQEND
  5
16F
330
16C
100
AcDbEntity
  8
DIBUJOS
 62
     7
  0
POLYLINE
  5
170
330
160
100
AcDbEntity
  8
DIBUJOS
 62
     7
100
AcDb2dPolyline
 66
     1
 10
0.0
 20
0.0
 30
0.0
  0
VERTEX
  5
171
330
170
100
AcDbEntity
  8
DIBUJOS
 62
     7
100
AcDbVertex
100
AcDb2dVertex
 10
57.81063175597616
 20
46.95532054947912
 30
0.0
  0
VERTEX
  5
172
330
170
100
AcDbEntity
  8
DIBUJOS
 62
     7
100
AcDbVertex
100
AcDb2dVertex
 10
57.80613295156785
 20
46.96150660434296
 30
0.0
  0
VERTEX
  5
173
330
170
100
AcDbEntity
  8
DIBUJOS
 62
     7
100
AcDbVertex
100
AcDb2dVertex
 10
57.79649049393657
 20
47.16904511328661
 30
0.0
  0
VERTEX
  5
174
330
170
100
AcDbEntity
  8
DIBUJOS
 62
     7
100
AcDbVertex
100
AcDb2dVertex
 10
57.79375972571571
 20
47.3601258109056
 30
0.0
  0
SEQEND
  5
175
330
170
100
AcDbEntity
  8
DIBUJOS
 62
     7
  0
POLYLINE
  5
176
330
160
100
AcDbEntity
  8
DIBUJOS
 62
     7
100
AcDb2dPolyline
 66
     1
 10
0.0
 20
0.0
 30
0.0
  0
VERTEX
  5
177
330
176
100
AcDbEntity
  8
DIBUJOS
 62
     7
100
AcDbVertex
100
AcDb2dVertex
 10
57.81625677521632
 20
46.95532054947912
 30
0.0
  0
VERTEX
  5
178
330
176
100
AcDbEntity
  8
DIBUJOS
 62
     7
100
AcDbVertex
100
AcDb2dVertex
 10
57.81063175597616
 20
46.95532054947912
 30
0.0
  0
SEQEND
  5
179
330
176
100
AcDbEntity
  8
DIBUJOS
 62
     7
  0
POLYLINE
  5
17A
330
160
100
AcDbEntity
  8
DIBUJOS
 62
     7
100
AcDb2dPolyline
 66
     1
 10
0.0
 20
0.0
 30
0.0
  0
VERTEX
  5
17B
330
17A
100
AcDbEntity
  8
DIBUJOS
 62
     7
100
AcDbVertex
100
AcDb2dVertex
 10
57.81625677521632
 20
46.95532054947912
 30
0.0
  0
VERTEX
  5
17C
330
17A
100
AcDbEntity
  8
DIBUJOS
 62
     7
100
AcDbVertex
100
AcDb2dVertex
 10
57.82188179445616
 20
46.95532054947912
 30
0.0
  0
VERTEX
  5
17D
330
17A
100
AcDbEntity
  8
DIBUJOS
 62
     7
100
AcDbVertex
100
AcDb2dVertex
 10
57.83312880547678
 20
46.97218995741014
 30
0.0
  0
VERTEX
  5
17E
330
17A
100
AcDbEntity
  8
DIBUJOS
 62
     7
100
AcDbVertex
100
AcDb2dVertex
 10
60.26276171218196
 20
46.97781006694132
 30
0.0
  0
VERTEX
  5
17F
330
17A
100
AcDbEntity
  8
DIBUJOS
 62
     7
100
AcDbVertex
100
AcDb2dVertex
 10
61.05576832664324
 20
46.97218995741014
 30
0.0
  0
SEQEND
  5
180
330
17A
100
AcDbEntity
  8
DIBUJOS
 62
     7
  0
POLYLINE
  5
181
330
160
100
AcDbEntity
  8
DIBUJOS
 62
     7
100
AcDb2dPolyline
 66
     1
 10
0.0
 20
0.0
 30
0.0
  0
VERTEX
  5
182
330
181
100
AcDbEntity
  8
DIBUJOS
 62
     7
100
AcDbVertex
100
AcDb2dVertex
 10
57.81063175597616
 20
46.94970043994825
 30
0.0
  0
VERTEX
  5
183
330
181
100
AcDbEntity
  8
DIBUJOS
 62
     7
100
AcDbVertex
100
AcDb2dVertex
 10
57.81063175597616
 20
46.95532054947912
 30
0.0
  0
SEQEND
  5
184
330
181
100
AcDbEntity
  8
DIBUJOS
 62
     7
  0
POLYLINE
  5
185
330
160
100
AcDbEntity
  8
DIBUJOS
 62
     7
100
AcDb2dPolyline
 66
     1
 10
0.0
 20
0.0
 30
0.0
  0
VERTEX
  5
186
330
185
100
AcDbEntity
  8
DIBUJOS
 62
     7
100
AcDbVertex
100
AcDb2dVertex
 10
56.14025837575165
 20
45.16181860583679
 30
0.0
  0
VERTEX
  5
187
330
185
100
AcDbEntity
  8
DIBUJOS
 62
     7
100
AcDbVertex
100
AcDb2dVertex
 10
55.77462001531938
 20
45.16470280852035
 30
0.0
  0
VERTEX
  5
188
330
185
100
AcDbEntity
  8
DIBUJOS
 62
     7
100
AcDbVertex
100
AcDb2dVertex
 10
55.49371115621511
 20
45.17559801278123
 30
0.0
  0
VERTEX
  5
189
330
185
100
AcDbEntity
  8
DIBUJOS
 62
     7
100
AcDbVertex
100
AcDb2dVertex
 10
55.48309991163164
 20
45.17998333249624
 30
0.0
  0
VERTEX
  5
18A
330
185
100
AcDbEntity
  8
DIBUJOS
 62
     7
100
AcDbVertex
100
AcDb2dVertex
 10
55.44848999777219
 20
45.2067976407612
 30
0.0
  0
VERTEX
  5
18B
330
185
100
AcDbEntity
  8
DIBUJOS
 62
     7
100
AcDbVertex
100
AcDb2dVertex
 10
55.42400693502027
 20
45.27376682961875
 30
0.0
  0
VERTEX
  5
18C
330
185
100
AcDbEntity
  8
DIBUJOS
 62
     7
100
AcDbVertex
100
AcDb2dVertex
 10
55.3278215279847
 20
46.40974924900097
 30
0.0
  0
VERTEX
  5
18D
330
185
100
AcDbEntity
  8
DIBUJOS
 62
     7
100
AcDbVertex
100
AcDb2dVertex
 10
55.28296669210779
 20
46.80884058108126
 30
0.0
  0
VERTEX
  5
18E
330
185
100
AcDbEntity
  8
DIBUJOS
 62
     7
100
AcDbVertex
100
AcDb2dVertex
 10
55.22698291612051
 20
47.11793449952025
 30
0.0
  0
VERTEX
  5
18F
330
185
100
AcDbEntity
  8
DIBUJOS
 62
     7
100
AcDbVertex
100
AcDb2dVertex
 10
55.04186286689356
 20
47.89929920532621
 30
0.0
  0
VERTEX
  5
190
330
185
100
AcDbEntity
  8
DIBUJOS
 62
     7
100
AcDbVertex
100
AcDb2dVertex
 10
54.4495525793719
 20
50.39095978512247
 30
0.0
  0
VERTEX
  5
191
330
185
100
AcDbEntity
  8
DIBUJOS
 62
     7
100
AcDbVertex
100
AcDb2dVertex
 10
54.40603588047288
 20
50.58119005151956
 30
0.0
  0
VERTEX
  5
192
330
185
100
AcDbEntity
  8
DIBUJOS
 62
     7
100
AcDbVertex
100
AcDb2dVertex
 10
54.29553664622175
 20
51.10455632042506
 30
0.0
  0
VERTEX
  5
193
330
185
100
AcDbEntity
  8
DIBUJOS
 62
     7
100
AcDbVertex
100
AcDb2dVertex
 10
54.29553664622175
 20
51.25073364426036
 30
0.0
  0
VERTEX
  5
194
330
185
100
AcDbEntity
  8
DIBUJOS
 62
     7
100
AcDbVertex
100
AcDb2dVertex
 10
54.30948717833036
 20
51.28806787752809
 30
0.0
  0
VERTEX
  5
195
330
185
100
AcDbEntity
  8
DIBUJOS
 62
     7
100
AcDbVertex
100
AcDb2dVertex
 10
54.33783025159437
 20
51.32585002474851
 30
0.0
  0
VERTEX
  5
196
330
185
100
AcDbEntity
  8
DIBUJOS
 62
     7
100
AcDbVertex
100
AcDb2dVertex
 10
54.34615576446282
 20
51.34631485008555
 30
0.0
  0
VERTEX
  5
197
330
185
100
AcDbEntity
  8
DIBUJOS
 62
     7
100
AcDbVertex
100
AcDb2dVertex
 10
54.37427480574389
 20
51.37442447707894
 30
0.0
  0
VERTEX
  5
198
330
185
100
AcDbEntity
  8
DIBUJOS
 62
     7
100
AcDbVertex
100
AcDb2dVertex
 10
54.42545703140073
 20
51.41209464581103
 30
0.0
  0
VERTEX
  5
199
330
185
100
AcDbEntity
  8
DIBUJOS
 62
     7
100
AcDbVertex
100
AcDb2dVertex
 10
54.43557782758981
 20
51.41546610624103
 30
0.0
  0
VERTEX
  5
19A
330
185
100
AcDbEntity
  8
DIBUJOS
 62
     7
100
AcDbVertex
100
AcDb2dVertex
 10
54.55458724972226
 20
51.45639878335996
 30
0.0
  0
VERTEX
  5
19B
330
185
100
AcDbEntity
  8
DIBUJOS
 62
     7
100
AcDbVertex
100
AcDb2dVertex
 10
54.58765618683594
 20
51.46112003854028
 30
0.0
  0
VERTEX
  5
19C
330
185
100
AcDbEntity
  8
DIBUJOS
 62
     7
100
AcDbVertex
100
AcDb2dVertex
 10
54.78497992419878
 20
51.48421484512794
 30
0.0
  0
VERTEX
  5
19D
330
185
100
AcDbEntity
  8
DIBUJOS
 62
     7
100
AcDbVertex
100
AcDb2dVertex
 10
54.88593357951318
 20
51.48952625720491
 30
0.0
  0
VERTEX
  5
19E
330
185
100
AcDbEntity
  8
DIBUJOS
 62
     7
100
AcDbVertex
100
AcDb2dVertex
 10
55.0324656334593
 20
51.48949599274863
 30
0.0
  0
VERTEX
  5
19F
330
185
100
AcDbEntity
  8
DIBUJOS
 62
     7
100
AcDbVertex
100
AcDb2dVertex
 10
55.11649881916597
 20
51.48424510958422
 30
0.0
  0
VERTEX
  5
1A0
330
185
100
AcDbEntity
  8
DIBUJOS
 62
     7
100
AcDbVertex
100
AcDb2dVertex
 10
55.28582158615733
 20
51.46092029312859
 30
0.0
  0
VERTEX
  5
1A1
330
185
100
AcDbEntity
  8
DIBUJOS
 62
     7
100
AcDbVertex
100
AcDb2dVertex
 10
55.30745278231941
 20
51.45659550232615
 30
0.0
  0
VERTEX
  5
1A2
330
185
100
AcDbEntity
  8
DIBUJOS
 62
     7
100
AcDbVertex
100
AcDb2dVertex
 10
55.53791206089919
 20
51.40084837385734
 30
0.0
  0
VERTEX
  5
1A3
330
185
100
AcDbEntity
  8
DIBUJOS
 62
     7
100
AcDbVertex
100
AcDb2dVertex
 10
55.74150566631717
 20
51.33057127992819
 30
0.0
  0
VERTEX
  5
1A4
330
185
100
AcDbEntity
  8
DIBUJOS
 62
     7
100
AcDbVertex
100
AcDb2dVertex
 10
55.90318107130606
 20
51.24943832553128
 30
0.0
  0
VERTEX
  5
1A5
330
185
100
AcDbEntity
  8
DIBUJOS
 62
     7
100
AcDbVertex
100
AcDb2dVertex
 10
55.9442788302845
 20
51.22392236244121
 30
0.0
  0
VERTEX
  5
1A6
330
185
100
AcDbEntity
  8
DIBUJOS
 62
     7
100
AcDbVertex
100
AcDb2dVertex
 10
56.12901136473071
 20
51.08206680296318
 30
0.0
  0
VERTEX
  5
1A7
330
185
100
AcDbEntity
  8
DIBUJOS
 62
     7
100
AcDbVertex
100
AcDb2dVertex
 10
56.24849004304281
 20
50.94822829795345
 30
0.0
  0
VERTEX
  5
1A8
330
185
100
AcDbEntity
  8
DIBUJOS
 62
     7
100
AcDbVertex
100
AcDb2dVertex
 10
56.41696814891036
 20
50.7115602498391
 30
0.0
  0
VERTEX
  5
1A9
330
185
100
AcDbEntity
  8
DIBUJOS
 62
     7
100
AcDbVertex
100
AcDb2dVertex
 10
56.51577836309346
 20
50.54146492620602
 30
0.0
  0
VERTEX
  5
1AA
330
185
100
AcDbEntity
  8
DIBUJOS
 62
     7
100
AcDbVertex
100
AcDb2dVertex
 10
56.72967138479494
 20
50.14258544531911
 30
0.0
  0
VERTEX
  5
1AB
330
185
100
AcDbEntity
  8
DIBUJOS
 62
     7
100
AcDbVertex
100
AcDb2dVertex
 10
56.94563821606443
 20
49.70517325869621
 30
0.0
  0
VERTEX
  5
1AC
330
185
100
AcDbEntity
  8
DIBUJOS
 62
     7
100
AcDbVertex
100
AcDb2dVertex
 10
57.18803779382741
 20
49.17668019089697
 30
0.0
  0
VERTEX
  5
1AD
330
185
100
AcDbEntity
  8
DIBUJOS
 62
     7
100
AcDbVertex
100
AcDb2dVertex
 10
57.2887098954344
 20
48.94616793319049
 30
0.0
  0
VERTEX
  5
1AE
330
185
100
AcDbEntity
  8
DIBUJOS
 62
     7
100
AcDbVertex
100
AcDb2dVertex
 10
57.69083822190472
 20
47.9667677577125
 30
0.0
  0
VERTEX
  5
1AF
330
185
100
AcDbEntity
  8
DIBUJOS
 62
     7
100
AcDbVertex
100
AcDb2dVertex
 10
57.72795789946179
 20
47.84982589864427
 30
0.0
  0
VERTEX
  5
1B0
330
185
100
AcDbEntity
  8
DIBUJOS
 62
     7
100
AcDbVertex
100
AcDb2dVertex
 10
57.75773598839824
 20
47.72519384123557
 30
0.0
  0
VERTEX
  5
1B1
330
185
100
AcDbEntity
  8
DIBUJOS
 62
     7
100
AcDbVertex
100
AcDb2dVertex
 10
57.76780229032128
 20
47.66978264823143
 30
0.0
  0
VERTEX
  5
1B2
330
185
100
AcDbEntity
  8
DIBUJOS
 62
     7
100
AcDbVertex
100
AcDb2dVertex
 10
57.78548870711298
 20
47.50053472937377
 30
0.0
  0
VERTEX
  5
1B3
330
185
100
AcDbEntity
  8
DIBUJOS
 62
     7
100
AcDbVertex
100
AcDb2dVertex
 10
57.79375972571571
 20
47.37136905641379
 30
0.0
  0
SEQEND
  5
1B4
330
185
100
AcDbEntity
  8
DIBUJOS
 62
     7
  0
POLYLINE
  5
1B5
330
160
100
AcDbEntity
  8
DIBUJOS
 62
     7
100
AcDb2dPolyline
 66
     1
 10
0.0
 20
0.0
 30
0.0
  0
VERTEX
  5
1B6
330
1B5
100
AcDbEntity
  8
DIBUJOS
 62
     7
100
AcDbVertex
100
AcDb2dVertex
 10
56.14588339499181
 20
45.16181860583679
 30
0.0
  0
VERTEX
  5
1B7
330
1B5
100
AcDbEntity
  8
DIBUJOS
 62
     7
100
AcDbVertex
100
AcDb2dVertex
 10
56.14025837575165
 20
45.16181860583679
 30
0.0
  0
SEQEND
  5
1B8
330
1B5
100
AcDbEntity
  8
DIBUJOS
 62
     7
  0
POLYLINE
  5
1B9
330
160
100
AcDbEntity
  8
DIBUJOS
 62
     7
100
AcDb2dPolyline
 66
     1
 10
0.0
 20
0.0
 30
0.0
  0
VERTEX
  5
1BA
330
1B9
100
AcDbEntity
  8
DIBUJOS
 62
     7
100
AcDbVertex
100
AcDb2dVertex
 10
56.15150841423133
 20
45.16181860583679
 30
0.0
  0
VERTEX
  5
1BB
330
1B9
100
AcDbEntity
  8
DIBUJOS
 62
     7
100
AcDbVertex
100
AcDb2dVertex
 10
56.14588339499181
 20
45.16181860583679
 30
0.0
  0
SEQEND
  5
1BC
330
1B9
100
AcDbEntity
  8
DIBUJOS
 62
     7
  0
POLYLINE
  5
1BD
330
160
100
AcDbEntity
  8
DIBUJOS
 62
     7
100
AcDb2dPolyline
 66
     1
 10
0.0
 20
0.0
 30
0.0
  0
VERTEX
  5
1BE
330
1BD
100
AcDbEntity
  8
DIBUJOS
 62
     7
100
AcDbVertex
100
AcDb2dVertex
 10
56.15150841423133
 20
45.16181860583679
 30
0.0
  0
VERTEX
  5
1BF
330
1BD
100
AcDbEntity
  8
DIBUJOS
 62
     7
100
AcDbVertex
100
AcDb2dVertex
 10
56.1735089604188
 20
45.16942406370035
 30
0.0
  0
VERTEX
  5
1C0
330
1BD
100
AcDbEntity
  8
DIBUJOS
 62
     7
100
AcDbVertex
100
AcDb2dVertex
 10
56.61268733288387
 20
45.16181860583679
 30
0.0
  0
VERTEX
  5
1C1
330
1BD
100
AcDbEntity
  8
DIBUJOS
 62
     7
100
AcDbVertex
100
AcDb2dVertex
 10
56.61831235212403
 20
45.1674417418138
 30
0.0
  0
SEQEND
  5
1C2
330
1BD
100
AcDbEntity
  8
DIBUJOS
 62
     7
  0
POLYLINE
  5
1C3
330
160
100
AcDbEntity
  8
DIBUJOS
 62
     7
100
AcDb2dPolyline
 66
     1
 10
0.0
 20
0.0
 30
0.0
  0
VERTEX
  5
1C4
330
1C3
100
AcDbEntity
  8
DIBUJOS
 62
     7
100
AcDbVertex
100
AcDb2dVertex
 10
60.64520549877206
 20
45.16181860583679
 30
0.0
  0
VERTEX
  5
1C5
330
1C3
100
AcDbEntity
  8
DIBUJOS
 62
     7
100
AcDbVertex
100
AcDb2dVertex
 10
60.63958047953254
 20
45.16181860583679
 30
0.0
  0
SEQEND
  5
1C6
330
1C3
100
AcDbEntity
  8
DIBUJOS
 62
     7
  0
POLYLINE
  5
1C7
330
160
100
AcDbEntity
  8
DIBUJOS
 62
     7
100
AcDb2dPolyline
 66
     1
 10
0.0
 20
0.0
 30
0.0
  0
VERTEX
  5
1C8
330
1C7
100
AcDbEntity
  8
DIBUJOS
 62
     7
100
AcDbVertex
100
AcDb2dVertex
 10
60.66770254827268
 20
45.16181860583679
 30
0.0
  0
VERTEX
  5
1C9
330
1C7
100
AcDbEntity
  8
DIBUJOS
 62
     7
100
AcDbVertex
100
AcDb2dVertex
 10
60.6508305180119
 20
45.1674417418138
 30
0.0
  0
VERTEX
  5
1CA
330
1C7
100
AcDbEntity
  8
DIBUJOS
 62
     7
100
AcDbVertex
100
AcDb2dVertex
 10
60.64520549877206
 20
45.16181860583679
 30
0.0
  0
SEQEND
  5
1CB
330
1C7
100
AcDbEntity
  8
DIBUJOS
 62
     7
  0
POLYLINE
  5
1CC
330
160
100
AcDbEntity
  8
DIBUJOS
 62
     7
100
AcDb2dPolyline
 66
     1
 10
0.0
 20
0.0
 30
0.0
  0
VERTEX
  5
1CD
330
1CC
100
AcDbEntity
  8
DIBUJOS
 62
     7
100
AcDbVertex
100
AcDb2dVertex
 10
60.67332454005346
 20
45.16181860583679
 30
0.0
  0
VERTEX
  5
1CE
330
1CC
100
AcDbEntity
  8
DIBUJOS
 62
     7
100
AcDbVertex
100
AcDb2dVertex
 10
60.66770254827268
 20
45.16181860583679
 30
0.0
  0
SEQEND
  5
1CF
330
1CC
100
AcDbEntity
  8
DIBUJOS
 62
     7
  0
POLYLINE
  5
1D0
330
160
100
AcDbEntity
  8
DIBUJOS
 62
     7
100
AcDb2dPolyline
 66
     1
 10
0.0
 20
0.0
 30
0.0
  0
VERTEX
  5
1D1
330
1D0
100
AcDbEntity
  8
DIBUJOS
 62
     7
100
AcDbVertex
100
AcDb2dVertex
 10
60.67894955929297
 20
45.16181860583679
 30
0.0
  0
VERTEX
  5
1D2
330
1D0
100
AcDbEntity
  8
DIBUJOS
 62
     7
100
AcDbVertex
100
AcDb2dVertex
 10
60.67332454005346
 20
45.16181860583679
 30
0.0
  0
SEQEND
  5
1D3
330
1D0
100
AcDbEntity
  8
DIBUJOS
 62
     7
  0
POLYLINE
  5
1D4
330
160
100
AcDbEntity
  8
DIBUJOS
 62
     7
100
AcDb2dPolyline
 66
     1
 10
0.0
 20
0.0
 30
0.0
  0
VERTEX
  5
1D5
330
1D4
100
AcDbEntity
  8
DIBUJOS
 62
     7
100
AcDbVertex
100
AcDb2dVertex
 10
60.67894955929297
 20
45.16181860583679
 30
0.0
  0
VERTEX
  5
1D6
330
1D4
100
AcDbEntity
  8
DIBUJOS
 62
     7
100
AcDbVertex
100
AcDb2dVertex
 10
60.97675466833182
 20
45.17553143097766
 30
0.0
  0
VERTEX
  5
1D7
330
1D4
100
AcDbEntity
  8
DIBUJOS
 62
     7
100
AcDbVertex
100
AcDb2dVertex
 10
61.02202426612168
 20
45.1899282328305
 30
0.0
  0
VERTEX
  5
1D8
330
1D4
100
AcDbEntity
  8
DIBUJOS
 62
     7
100
AcDbVertex
100
AcDb2dVertex
 10
61.04789390519908
 20
45.22478683357393
 30
0.0
  0
VERTEX
  5
1D9
330
1D4
100
AcDbEntity
  8
DIBUJOS
 62
     7
100
AcDbVertex
100
AcDb2dVertex
 10
61.06437842067879
 20
45.29690703289116
 30
0.0
  0
VERTEX
  5
1DA
330
1D4
100
AcDbEntity
  8
DIBUJOS
 62
     7
100
AcDbVertex
100
AcDb2dVertex
 10
61.10345686435431
 20
46.17933989044569
 30
0.0
  0
VERTEX
  5
1DB
330
1D4
100
AcDbEntity
  8
DIBUJOS
 62
     7
100
AcDbVertex
100
AcDb2dVertex
 10
61.12888146692554
 20
46.73605456372698
 30
0.0
  0
VERTEX
  5
1DC
330
1D4
100
AcDbEntity
  8
DIBUJOS
 62
     7
100
AcDbVertex
100
AcDb2dVertex
 10
61.12888146692554
 20
46.93283405846273
 30
0.0
  0
VERTEX
  5
1DD
330
1D4
100
AcDbEntity
  8
DIBUJOS
 62
     7
100
AcDbVertex
100
AcDb2dVertex
 10
61.09513740640399
 20
46.98905633889502
 30
0.0
  0
VERTEX
  5
1DE
330
1D4
100
AcDbEntity
  8
DIBUJOS
 62
     7
100
AcDbVertex
100
AcDb2dVertex
 10
61.05576832664324
 20
47.02841223784242
 30
0.0
  0
VERTEX
  5
1DF
330
1D4
100
AcDbEntity
  8
DIBUJOS
 62
     7
100
AcDbVertex
100
AcDb2dVertex
 10
60.96522004868471
 20
47.07226543499285
 30
0.0
  0
VERTEX
  5
1E0
330
1D4
100
AcDbEntity
  8
DIBUJOS
 62
     7
100
AcDbVertex
100
AcDb2dVertex
 10
60.91010212603533
 20
47.09700360155657
 30
0.0
  0
VERTEX
  5
1E1
330
1D4
100
AcDbEntity
  8
DIBUJOS
 62
     7
100
AcDbVertex
100
AcDb2dVertex
 10
60.61652032261584
 20
47.21225973041012
 30
0.0
  0
VERTEX
  5
1E2
330
1D4
100
AcDbEntity
  8
DIBUJOS
 62
     7
100
AcDbVertex
100
AcDb2dVertex
 10
60.599714896458
 20
47.21758324826975
 30
0.0
  0
VERTEX
  5
1E3
330
1D4
100
AcDbEntity
  8
DIBUJOS
 62
     7
100
AcDbVertex
100
AcDb2dVertex
 10
60.32500930130594
 20
47.28931606254591
 30
0.0
  0
VERTEX
  5
1E4
330
1D4
100
AcDbEntity
  8
DIBUJOS
 62
     7
100
AcDbVertex
100
AcDb2dVertex
 10
60.29126221332564
 20
47.29493617207709
 30
0.0
  0
VERTEX
  5
1E5
330
1D4
100
AcDbEntity
  8
DIBUJOS
 62
     7
100
AcDbVertex
100
AcDb2dVertex
 10
60.04311651795385
 20
47.33521513694097
 30
0.0
  0
VERTEX
  5
1E6
330
1D4
100
AcDbEntity
  8
DIBUJOS
 62
     7
100
AcDbVertex
100
AcDb2dVertex
 10
60.00435595749739
 20
47.34005744994613
 30
0.0
  0
VERTEX
  5
1E7
330
1D4
100
AcDbEntity
  8
DIBUJOS
 62
     7
100
AcDbVertex
100
AcDb2dVertex
 10
59.75673704003098
 20
47.36277092438436
 30
0.0
  0
VERTEX
  5
1E8
330
1D4
100
AcDbEntity
  8
DIBUJOS
 62
     7
100
AcDbVertex
100
AcDb2dVertex
 10
59.07044230833014
 20
47.38261532836781
 30
0.0
  0
VERTEX
  5
1E9
330
1D4
100
AcDbEntity
  8
DIBUJOS
 62
     7
100
AcDbVertex
100
AcDb2dVertex
 10
57.90610873755288
 20
47.36841221903533
 30
0.0
  0
VERTEX
  5
1EA
330
1D4
100
AcDbEntity
  8
DIBUJOS
 62
     7
100
AcDbVertex
100
AcDb2dVertex
 10
57.79938474495555
 20
47.36574894688228
 30
0.0
  0
SEQEND
  5
1EB
330
1D4
100
AcDbEntity
  8
DIBUJOS
 62
     7
  0
POLYLINE
  5
1EC
330
160
100
AcDbEntity
  8
DIBUJOS
 62
     7
100
AcDb2dPolyline
 66
     1
 10
0.0
 20
0.0
 30
0.0
  0
VERTEX
  5
1ED
330
1EC
100
AcDbEntity
  8
DIBUJOS
 62
     7
100
AcDbVertex
100
AcDb2dVertex
 10
56.14588339499181
 20
45.15619546985978
 30
0.0
  0
VERTEX
  5
1EE
330
1EC
100
AcDbEntity
  8
DIBUJOS
 62
     7
100
AcDbVertex
100
AcDb2dVertex
 10
56.14588339499181
 20
45.16181860583679
 30
0.0
  0
SEQEND
  5
1EF
330
1EC
100
AcDbEntity
  8
DIBUJOS
 62
     7
  0
POLYLINE
  5
1F0
330
160
100
AcDbEntity
  8
DIBUJOS
 62
     7
100
AcDb2dPolyline
 66
     1
 10
0.0
 20
0.0
 30
0.0
  0
VERTEX
  5
1F1
330
1F0
100
AcDbEntity
  8
DIBUJOS
 62
     7
100
AcDbVertex
100
AcDb2dVertex
 10
56.63518438238449
 20
45.15619546985978
 30
0.0
  0
VERTEX
  5
1F2
330
1F0
100
AcDbEntity
  8
DIBUJOS
 62
     7
100
AcDbVertex
100
AcDb2dVertex
 10
56.64080940162464
 20
45.16181860583679
 30
0.0
  0
SEQEND
  5
1F3
330
1F0
100
AcDbEntity
  8
DIBUJOS
 62
     7
  0
POLYLINE
  5
1F4
330
160
100
AcDbEntity
  8
DIBUJOS
 62
     7
100
AcDb2dPolyline
 66
     1
 10
0.0
 20
0.0
 30
0.0
  0
VERTEX
  5
1F5
330
1F4
100
AcDbEntity
  8
DIBUJOS
 62
     7
100
AcDbVertex
100
AcDb2dVertex
 10
60.15590451137874
 20
45.15619546985978
 30
0.0
  0
VERTEX
  5
1F6
330
1F4
100
AcDbEntity
  8
DIBUJOS
 62
     7
100
AcDbVertex
100
AcDb2dVertex
 10
57.93421566899737
 20
45.16479360188922
 30
0.0
  0
VERTEX
  5
1F7
330
1F4
100
AcDbEntity
  8
DIBUJOS
 62
     7
100
AcDbVertex
100
AcDb2dVertex
 10
57.74314363493402
 20
45.17306185134498
 30
0.0
  0
VERTEX
  5
1F8
330
1F4
100
AcDbEntity
  8
DIBUJOS
 62
     7
100
AcDbVertex
100
AcDb2dVertex
 10
57.61939623911468
 20
45.16461201515149
 30
0.0
  0
VERTEX
  5
1F9
330
1F4
100
AcDbEntity
  8
DIBUJOS
 62
     7
100
AcDbVertex
100
AcDb2dVertex
 10
56.64080940162464
 20
45.16181860583679
 30
0.0
  0
SEQEND
  5
1FA
330
1F4
100
AcDbEntity
  8
DIBUJOS
 62
     7
  0
POLYLINE
  5
1FB
330
160
100
AcDbEntity
  8
DIBUJOS
 62
     7
100
AcDb2dPolyline
 66
     1
 10
0.0
 20
0.0
 30
0.0
  0
VERTEX
  5
1FC
330
1FB
100
AcDbEntity
  8
DIBUJOS
 62
     7
100
AcDbVertex
100
AcDb2dVertex
 10
60.16152650315919
 20
45.15619546985978
 30
0.0
  0
VERTEX
  5
1FD
330
1FB
100
AcDbEntity
  8
DIBUJOS
 62
     7
100
AcDbVertex
100
AcDb2dVertex
 10
60.15590451137874
 20
45.15619546985978
 30
0.0
  0
SEQEND
  5
1FE
330
1FB
100
AcDbEntity
  8
DIBUJOS
 62
     7
  0
POLYLINE
  5
1FF
330
160
100
AcDbEntity
  8
DIBUJOS
 62
     7
100
AcDb2dPolyline
 66
     1
 10
0.0
 20
0.0
 30
0.0
  0
VERTEX
  5
200
330
1FF
100
AcDbEntity
  8
DIBUJOS
 62
     7
100
AcDbVertex
100
AcDb2dVertex
 10
60.16152650315919
 20
45.15619546985978
 30
0.0
  0
VERTEX
  5
201
330
1FF
100
AcDbEntity
  8
DIBUJOS
 62
     7
100
AcDbVertex
100
AcDb2dVertex
 10
60.16731500519781
 20
45.15919165103168
 30
0.0
  0
VERTEX
  5
202
330
1FF
100
AcDbEntity
  8
DIBUJOS
 62
     7
100
AcDbVertex
100
AcDb2dVertex
 10
60.39211898994549
 20
45.1674417418138
 30
0.0
  0
VERTEX
  5
203
330
1FF
100
AcDbEntity
  8
DIBUJOS
 62
     7
100
AcDbVertex
100
AcDb2dVertex
 10
60.63395546029238
 20
45.1674417418138
 30
0.0
  0
VERTEX
  5
204
330
1FF
100
AcDbEntity
  8
DIBUJOS
 62
     7
100
AcDbVertex
100
AcDb2dVertex
 10
60.63958047953254
 20
45.16181860583679
 30
0.0
  0
SEQEND
  5
205
330
1FF
100
AcDbEntity
  8
DIBUJOS
 62
     7
  0
POLYLINE
  5
206
330
160
100
AcDbEntity
  8
DIBUJOS
 62
     7
100
AcDb2dPolyline
 66
     1
 10
0.0
 20
0.0
 30
0.0
  0
VERTEX
  5
207
330
206
100
AcDbEntity
  8
DIBUJOS
 62
     7
100
AcDbVertex
100
AcDb2dVertex
 10
60.64520549877206
 20
45.15619546985978
 30
0.0
  0
VERTEX
  5
208
330
206
100
AcDbEntity
  8
DIBUJOS
 62
     7
100
AcDbVertex
100
AcDb2dVertex
 10
60.64520549877206
 20
45.16181860583679
 30
0.0
  0
SEQEND
  5
209
330
206
100
AcDbEntity
  8
DIBUJOS
 62
     7
  0
POLYLINE
  5
20A
330
160
100
AcDbEntity
  8
DIBUJOS
 62
     7
100
AcDb2dPolyline
 66
     1
 10
0.0
 20
0.0
 30
0.0
  0
VERTEX
  5
20B
330
20A
100
AcDbEntity
  8
DIBUJOS
 62
     7
100
AcDbVertex
100
AcDb2dVertex
 10
60.67332454005346
 20
45.15619546985978
 30
0.0
  0
VERTEX
  5
20C
330
20A
100
AcDbEntity
  8
DIBUJOS
 62
     7
100
AcDbVertex
100
AcDb2dVertex
 10
60.67332454005346
 20
45.16181860583679
 30
0.0
  0
SEQEND
  5
20D
330
20A
100
AcDbEntity
  8
DIBUJOS
 62
     7
  0
POLYLINE
  5
20E
330
160
100
AcDbEntity
  8
DIBUJOS
 62
     7
100
AcDb2dPolyline
 66
     1
 10
0.0
 20
0.0
 30
0.0
  0
VERTEX
  5
20F
330
20E
100
AcDbEntity
  8
DIBUJOS
 62
     7
100
AcDbVertex
100
AcDb2dVertex
 10
60.16152650315919
 20
45.15057233388342
 30
0.0
  0
VERTEX
  5
210
330
20E
100
AcDbEntity
  8
DIBUJOS
 62
     7
100
AcDbVertex
100
AcDb2dVertex
 10
60.16152650315919
 20
45.15619546985978
 30
0.0
  0
SEQEND
  5
211
330
20E
100
AcDbEntity
  8
DIBUJOS
 62
     7
  0
POLYLINE
  5
212
330
160
100
AcDbEntity
  8
DIBUJOS
 62
     7
100
AcDb2dPolyline
 66
     1
 10
0.0
 20
0.0
 30
0.0
  0
VERTEX
  5
213
330
212
100
AcDbEntity
  8
DIBUJOS
 62
     7
100
AcDbVertex
100
AcDb2dVertex
 10
60.76893775729512
 20
42.99724416373838
 30
0.0
  0
VERTEX
  5
214
330
212
100
AcDbEntity
  8
DIBUJOS
 62
     7
100
AcDbVertex
100
AcDb2dVertex
 10
60.77006094466758
 20
43.00230438082855
 30
0.0
  0
VERTEX
  5
215
330
212
100
AcDbEntity
  8
DIBUJOS
 62
     7
100
AcDbVertex
100
AcDb2dVertex
 10
60.78018476831605
 20
43.01973368120059
 30
0.0
  0
VERTEX
  5
216
330
212
100
AcDbEntity
  8
DIBUJOS
 62
     7
100
AcDbVertex
100
AcDb2dVertex
 10
60.78018476831605
 20
43.12093499655697
 30
0.0
  0
VERTEX
  5
217
330
212
100
AcDbEntity
  8
DIBUJOS
 62
     7
100
AcDbVertex
100
AcDb2dVertex
 10
60.65382770264484
 20
45.00423158198404
 30
0.0
  0
VERTEX
  5
218
330
212
100
AcDbEntity
  8
DIBUJOS
 62
     7
100
AcDbVertex
100
AcDb2dVertex
 10
60.64520549877206
 20
45.15619546985978
 30
0.0
  0
SEQEND
  5
219
330
212
100
AcDbEntity
  8
DIBUJOS
 62
     7
  0
POLYLINE
  5
21A
330
160
100
AcDbEntity
  8
DIBUJOS
 62
     7
100
AcDb2dPolyline
 66
     1
 10
0.0
 20
0.0
 30
0.0
  0
VERTEX
  5
21B
330
21A
100
AcDbEntity
  8
DIBUJOS
 62
     7
100
AcDbVertex
100
AcDb2dVertex
 10
56.14588339499181
 20
45.15619546985978
 30
0.0
  0
VERTEX
  5
21C
330
21A
100
AcDbEntity
  8
DIBUJOS
 62
     7
100
AcDbVertex
100
AcDb2dVertex
 10
56.12102492729541
 20
44.99348770000428
 30
0.0
  0
VERTEX
  5
21D
330
21A
100
AcDbEntity
  8
DIBUJOS
 62
     7
100
AcDbVertex
100
AcDb2dVertex
 10
55.785936657902
 20
43.064712716125
 30
0.0
  0
VERTEX
  5
21E
330
21A
100
AcDbEntity
  8
DIBUJOS
 62
     7
100
AcDbVertex
100
AcDb2dVertex
 10
55.79156167714184
 20
43.00286729971539
 30
0.0
  0
VERTEX
  5
21F
330
21A
100
AcDbEntity
  8
DIBUJOS
 62
     7
100
AcDbVertex
100
AcDb2dVertex
 10
55.80843370740261
 20
42.9916210277617
 30
0.0
  0
VERTEX
  5
220
330
21A
100
AcDbEntity
  8
DIBUJOS
 62
     7
100
AcDbVertex
100
AcDb2dVertex
 10
56.02777615570827
 20
42.9916210277617
 30
0.0
  0
VERTEX
  5
221
330
21A
100
AcDbEntity
  8
DIBUJOS
 62
     7
100
AcDbVertex
100
AcDb2dVertex
 10
56.03902316672889
 20
42.99724416373838
 30
0.0
  0
VERTEX
  5
222
330
21A
100
AcDbEntity
  8
DIBUJOS
 62
     7
100
AcDbVertex
100
AcDb2dVertex
 10
56.05589822444873
 20
43.01411054522326
 30
0.0
  0
VERTEX
  5
223
330
21A
100
AcDbEntity
  8
DIBUJOS
 62
     7
100
AcDbVertex
100
AcDb2dVertex
 10
56.25075761000215
 20
43.73987944484216
 30
0.0
  0
VERTEX
  5
224
330
21A
100
AcDbEntity
  8
DIBUJOS
 62
     7
100
AcDbVertex
100
AcDb2dVertex
 10
56.63518438238449
 20
45.15619546985978
 30
0.0
  0
SEQEND
  5
225
330
21A
100
AcDbEntity
  8
DIBUJOS
 62
     7
  0
POLYLINE
  5
226
330
160
100
AcDbEntity
  8
DIBUJOS
 62
     7
100
AcDb2dPolyline
 66
     1
 10
0.0
 20
0.0
 30
0.0
  0
VERTEX
  5
227
330
226
100
AcDbEntity
  8
DIBUJOS
 62
     7
100
AcDbVertex
100
AcDb2dVertex
 10
60.76331273805528
 20
42.9916210277617
 30
0.0
  0
VERTEX
  5
228
330
226
100
AcDbEntity
  8
DIBUJOS
 62
     7
100
AcDbVertex
100
AcDb2dVertex
 10
60.52147324024901
 20
42.99724416373838
 30
0.0
  0
VERTEX
  5
229
330
226
100
AcDbEntity
  8
DIBUJOS
 62
     7
100
AcDbVertex
100
AcDb2dVertex
 10
60.51022622922839
 20
43.00849043569239
 30
0.0
  0
VERTEX
  5
22A
330
226
100
AcDbEntity
  8
DIBUJOS
 62
     7
100
AcDbVertex
100
AcDb2dVertex
 10
60.1694311991956
 20
45.09473138559959
 30
0.0
  0
VERTEX
  5
22B
330
226
100
AcDbEntity
  8
DIBUJOS
 62
     7
100
AcDbVertex
100
AcDb2dVertex
 10
60.16152650315919
 20
45.15057233388342
 30
0.0
  0
SEQEND
  5
22C
330
226
100
AcDbEntity
  8
DIBUJOS
 62
     7
  0
POLYLINE
  5
22D
330
160
100
AcDbEntity
  8
DIBUJOS
 62
     7
100
AcDb2dPolyline
 66
     1
 10
0.0
 20
0.0
 30
0.0
  0
VERTEX
  5
22E
330
22D
100
AcDbEntity
  8
DIBUJOS
 62
     7
100
AcDbVertex
100
AcDb2dVertex
 10
60.76893775729512
 20
42.9916210277617
 30
0.0
  0
VERTEX
  5
22F
330
22D
100
AcDbEntity
  8
DIBUJOS
 62
     7
100
AcDbVertex
100
AcDb2dVertex
 10
60.76331273805528
 20
42.9916210277617
 30
0.0
  0
SEQEND
  5
230
330
22D
100
AcDbEntity
  8
DIBUJOS
 62
     7
  0
POLYLINE
  5
231
330
160
100
AcDbEntity
  8
DIBUJOS
 62
     7
100
AcDb2dPolyline
 66
     1
 10
0.0
 20
0.0
 30
0.0
  0
VERTEX
  5
232
330
231
100
AcDbEntity
  8
DIBUJOS
 62
     7
100
AcDbVertex
100
AcDb2dVertex
 10
60.76893775729512
 20
42.9916210277617
 30
0.0
  0
VERTEX
  5
233
330
231
100
AcDbEntity
  8
DIBUJOS
 62
     7
100
AcDbVertex
100
AcDb2dVertex
 10
60.76893775729512
 20
42.99724416373838
 30
0.0
  0
SEQEND
  5
234
330
231
100
AcDbEntity
  8
DIBUJOS
 62
     7
  0
POLYLINE
  5
235
330
160
100
AcDbEntity
  8
DIBUJOS
 62
     7
100
AcDb2dPolyline
 66
     1
 10
0.0
 20
0.0
 30
0.0
  0
VERTEX
  5
236
330
235
100
AcDbEntity
  8
DIBUJOS
 62
     7
100
AcDbVertex
100
AcDb2dVertex
 10
60.77455974907589
 20
42.9916210277617
 30
0.0
  0
VERTEX
  5
237
330
235
100
AcDbEntity
  8
DIBUJOS
 62
     7
100
AcDbVertex
100
AcDb2dVertex
 10
60.76893775729512
 20
42.9916210277617
 30
0.0
  0
SEQEND
  5
238
330
235
100
AcDbEntity
  8
DIBUJOS
 62
     7
  0
POLYLINE
  5
239
330
160
100
AcDbEntity
  8
DIBUJOS
 62
     7
100
AcDb2dPolyline
 66
     1
 10
0.0
 20
0.0
 30
0.0
  0
VERTEX
  5
23A
330
239
100
AcDbEntity
  8
DIBUJOS
 62
     7
100
AcDbVertex
100
AcDb2dVertex
 10
60.77455974907589
 20
42.9916210277617
 30
0.0
  0
VERTEX
  5
23B
330
239
100
AcDbEntity
  8
DIBUJOS
 62
     7
100
AcDbVertex
100
AcDb2dVertex
 10
60.78524668013981
 20
42.99330978442219
 30
0.0
  0
VERTEX
  5
23C
330
239
100
AcDbEntity
  8
DIBUJOS
 62
     7
100
AcDbVertex
100
AcDb2dVertex
 10
60.80830380959713
 20
43.00849043569239
 30
0.0
  0
VERTEX
  5
23D
330
239
100
AcDbEntity
  8
DIBUJOS
 62
     7
100
AcDbVertex
100
AcDb2dVertex
 10
60.81392882883696
 20
43.01973368120059
 30
0.0
  0
VERTEX
  5
23E
330
239
100
AcDbEntity
  8
DIBUJOS
 62
     7
100
AcDbVertex
100
AcDb2dVertex
 10
60.69281229508391
 20
44.89774609256082
 30
0.0
  0
VERTEX
  5
23F
330
239
100
AcDbEntity
  8
DIBUJOS
 62
     7
100
AcDbVertex
100
AcDb2dVertex
 10
60.67332454005346
 20
45.15619546985978
 30
0.0
  0
SEQEND
  5
240
330
239
100
AcDbEntity
  8
DIBUJOS
 62
     7
  0
ENDBLK
  5
163
330
160
100
AcDbEntity
  8
0
100
AcDbBlockEnd
  0
BLOCK
  5
243
330
241
100
AcDbEntity
  8
0
100
AcDbBlockBegin
  2
BLOCK_4
 70
     0
 10
0.0
 20
0.0
 30
0.0
  3
BLOCK_4
  1

  0
POLYLINE
  5
245
330
241
100
AcDbEntity
  8
DIBUJOS
 62
     7
100
AcDb2dPolyline
 66
     1
 10
0.0
 20
0.0
 30
0.0
  0
VERTEX
  5
246
330
245
100
AcDbEntity
  8
DIBUJOS
 62
     7
100
AcDbVertex
100
AcDb2dVertex
 10
47.84607126822917
 20
32.35698400110613
 30
0.0
  0
VERTEX
  5
247
330
245
100
AcDbEntity
  8
DIBUJOS
 62
     7
100
AcDbVertex
100
AcDb2dVertex
 10
47.65286487541236
 20
33.32914037897311
 30
0.0
  0
VERTEX
  5
248
330
245
100
AcDbEntity
  8
DIBUJOS
 62
     7
100
AcDbVertex
100
AcDb2dVertex
 10
47.60787077641145
 20
33.5146751149784
 30
0.0
  0
VERTEX
  5
249
330
245
100
AcDbEntity
  8
DIBUJOS
 62
     7
100
AcDbVertex
100
AcDb2dVertex
 10
47.50468436991823
 20
33.91491498317473
 30
0.0
  0
VERTEX
  5
24A
330
245
100
AcDbEntity
  8
DIBUJOS
 62
     7
100
AcDbVertex
100
AcDb2dVertex
 10
47.43663314146
 20
34.12293923664159
 30
0.0
  0
VERTEX
  5
24B
330
245
100
AcDbEntity
  8
DIBUJOS
 62
     7
100
AcDbVertex
100
AcDb2dVertex
 10
47.35564406600433
 20
34.32983765233606
 30
0.0
  0
VERTEX
  5
24C
330
245
100
AcDbEntity
  8
DIBUJOS
 62
     7
100
AcDbVertex
100
AcDb2dVertex
 10
47.27915682241635
 20
34.48838557267548
 30
0.0
  0
VERTEX
  5
24D
330
245
100
AcDbEntity
  8
DIBUJOS
 62
     7
100
AcDbVertex
100
AcDb2dVertex
 10
47.20356722048805
 20
34.6273690352526
 30
0.0
  0
VERTEX
  5
24E
330
245
100
AcDbEntity
  8
DIBUJOS
 62
     7
100
AcDbVertex
100
AcDb2dVertex
 10
47.11628102984405
 20
34.74745991099676
 30
0.0
  0
VERTEX
  5
24F
330
245
100
AcDbEntity
  8
DIBUJOS
 62
     7
100
AcDbVertex
100
AcDb2dVertex
 10
47.03178767033526
 20
34.86028731723302
 30
0.0
  0
VERTEX
  5
250
330
245
100
AcDbEntity
  8
DIBUJOS
 62
     7
100
AcDbVertex
100
AcDb2dVertex
 10
46.77070564169555
 20
35.08802432429908
 30
0.0
  0
VERTEX
  5
251
330
245
100
AcDbEntity
  8
DIBUJOS
 62
     7
100
AcDbVertex
100
AcDb2dVertex
 10
46.68693281748219
 20
35.13888222985572
 30
0.0
  0
VERTEX
  5
252
330
245
100
AcDbEntity
  8
DIBUJOS
 62
     7
100
AcDbVertex
100
AcDb2dVertex
 10
46.43916706824316
 20
35.29051018226712
 30
0.0
  0
VERTEX
  5
253
330
245
100
AcDbEntity
  8
DIBUJOS
 62
     7
100
AcDbVertex
100
AcDb2dVertex
 10
46.22012887958949
 20
35.38007784062938
 30
0.0
  0
VERTEX
  5
254
330
245
100
AcDbEntity
  8
DIBUJOS
 62
     7
100
AcDbVertex
100
AcDb2dVertex
 10
46.02328348078413
 20
35.45878963852355
 30
0.0
  0
VERTEX
  5
255
330
245
100
AcDbEntity
  8
DIBUJOS
 62
     7
100
AcDbVertex
100
AcDb2dVertex
 10
45.70283600420252
 20
35.52578152572379
 30
0.0
  0
VERTEX
  5
256
330
245
100
AcDbEntity
  8
DIBUJOS
 62
     7
100
AcDbVertex
100
AcDb2dVertex
 10
45.54060051925694
 20
35.55821745674221
 30
0.0
  0
VERTEX
  5
257
330
245
100
AcDbEntity
  8
DIBUJOS
 62
     7
100
AcDbVertex
100
AcDb2dVertex
 10
45.4166502836694
 20
35.57548030260466
 30
0.0
  0
VERTEX
  5
258
330
245
100
AcDbEntity
  8
DIBUJOS
 62
     7
100
AcDbVertex
100
AcDb2dVertex
 10
44.848397700879
 20
35.60665571901966
 30
0.0
  0
VERTEX
  5
259
330
245
100
AcDbEntity
  8
DIBUJOS
 62
     7
100
AcDbVertex
100
AcDb2dVertex
 10
44.55581495900361
 20
35.59808179855519
 30
0.0
  0
VERTEX
  5
25A
330
245
100
AcDbEntity
  8
DIBUJOS
 62
     7
100
AcDbVertex
100
AcDb2dVertex
 10
44.0443741622985
 20
35.57038679461269
 30
0.0
  0
VERTEX
  5
25B
330
245
100
AcDbEntity
  8
DIBUJOS
 62
     7
100
AcDbVertex
100
AcDb2dVertex
 10
43.8420551172142
 20
35.53128663032115
 30
0.0
  0
VERTEX
  5
25C
330
245
100
AcDbEntity
  8
DIBUJOS
 62
     7
100
AcDbVertex
100
AcDb2dVertex
 10
43.72313500512927
 20
35.5076167990637
 30
0.0
  0
VERTEX
  5
25D
330
245
100
AcDbEntity
  8
DIBUJOS
 62
     7
100
AcDbVertex
100
AcDb2dVertex
 10
43.49916357166882
 20
35.45878963852355
 30
0.0
  0
VERTEX
  5
25E
330
245
100
AcDbEntity
  8
DIBUJOS
 62
     7
100
AcDbVertex
100
AcDb2dVertex
 10
43.26744865437546
 20
35.36658443279644
 30
0.0
  0
VERTEX
  5
25F
330
245
100
AcDbEntity
  8
DIBUJOS
 62
     7
100
AcDbVertex
100
AcDb2dVertex
 10
43.09452775209517
 20
35.2961333182438
 30
0.0
  0
VERTEX
  5
260
330
245
100
AcDbEntity
  8
DIBUJOS
 62
     7
100
AcDbVertex
100
AcDb2dVertex
 10
42.84563730175414
 20
35.14675401493457
 30
0.0
  0
VERTEX
  5
261
330
245
100
AcDbEntity
  8
DIBUJOS
 62
     7
100
AcDbVertex
100
AcDb2dVertex
 10
42.72131620241166
 20
35.06267784216378
 30
0.0
  0
VERTEX
  5
262
330
245
100
AcDbEntity
  8
DIBUJOS
 62
     7
100
AcDbVertex
100
AcDb2dVertex
 10
42.49065938211737
 20
34.86028731723302
 30
0.0
  0
VERTEX
  5
263
330
245
100
AcDbEntity
  8
DIBUJOS
 62
     7
100
AcDbVertex
100
AcDb2dVertex
 10
42.39199372911196
 20
34.72856883738639
 30
0.0
  0
VERTEX
  5
264
330
245
100
AcDbEntity
  8
DIBUJOS
 62
     7
100
AcDbVertex
100
AcDb2dVertex
 10
42.31887983196553
 20
34.6273690352526
 30
0.0
  0
VERTEX
  5
265
330
245
100
AcDbEntity
  8
DIBUJOS
 62
     7
100
AcDbVertex
100
AcDb2dVertex
 10
42.23429262122061
 20
34.46477324388542
 30
0.0
  0
VERTEX
  5
266
330
245
100
AcDbEntity
  8
DIBUJOS
 62
     7
100
AcDbVertex
100
AcDb2dVertex
 10
42.16680222958384
 20
34.32983765233606
 30
0.0
  0
VERTEX
  5
267
330
245
100
AcDbEntity
  8
DIBUJOS
 62
     7
100
AcDbVertex
100
AcDb2dVertex
 10
42.07737865272732
 20
34.09370225865226
 30
0.0
  0
VERTEX
  5
268
330
245
100
AcDbEntity
  8
DIBUJOS
 62
     7
100
AcDbVertex
100
AcDb2dVertex
 10
42.01776268253472
 20
33.90929184719804
 30
0.0
  0
VERTEX
  5
269
330
245
100
AcDbEntity
  8
DIBUJOS
 62
     7
100
AcDbVertex
100
AcDb2dVertex
 10
41.90498150089336
 20
33.4706887542205
 30
0.0
  0
VERTEX
  5
26A
330
245
100
AcDbEntity
  8
DIBUJOS
 62
     7
100
AcDbVertex
100
AcDb2dVertex
 10
41.6820008034636
 20
32.36260562386023
 30
0.0
  0
SEQEND
  5
26B
330
245
100
AcDbEntity
  8
DIBUJOS
 62
     7
  0
POLYLINE
  5
26C
330
241
100
AcDbEntity
  8
DIBUJOS
 62
     7
100
AcDb2dPolyline
 66
     1
 10
0.0
 20
0.0
 30
0.0
  0
VERTEX
  5
26D
330
26C
100
AcDbEntity
  8
DIBUJOS
 62
     7
100
AcDbVertex
100
AcDb2dVertex
 10
41.6820008034636
 20
32.36260562386023
 30
0.0
  0
VERTEX
  5
26E
330
26C
100
AcDbEntity
  8
DIBUJOS
 62
     7
100
AcDbVertex
100
AcDb2dVertex
 10
41.67637654108853
 20
32.36260562386023
 30
0.0
  0
SEQEND
  5
26F
330
26C
100
AcDbEntity
  8
DIBUJOS
 62
     7
  0
POLYLINE
  5
270
330
241
100
AcDbEntity
  8
DIBUJOS
 62
     7
100
AcDb2dPolyline
 66
     1
 10
0.0
 20
0.0
 30
0.0
  0
VERTEX
  5
271
330
270
100
AcDbEntity
  8
DIBUJOS
 62
     7
100
AcDbVertex
100
AcDb2dVertex
 10
41.67637654108853
 20
32.35698400110613
 30
0.0
  0
VERTEX
  5
272
330
270
100
AcDbEntity
  8
DIBUJOS
 62
     7
100
AcDbVertex
100
AcDb2dVertex
 10
41.67637654108853
 20
32.36260562386023
 30
0.0
  0
SEQEND
  5
273
330
270
100
AcDbEntity
  8
DIBUJOS
 62
     7
  0
POLYLINE
  5
274
330
241
100
AcDbEntity
  8
DIBUJOS
 62
     7
100
AcDb2dPolyline
 66
     1
 10
0.0
 20
0.0
 30
0.0
  0
VERTEX
  5
275
330
274
100
AcDbEntity
  8
DIBUJOS
 62
     7
100
AcDbVertex
100
AcDb2dVertex
 10
47.84607126822917
 20
32.35698400110613
 30
0.0
  0
VERTEX
  5
276
330
274
100
AcDbEntity
  8
DIBUJOS
 62
     7
100
AcDbVertex
100
AcDb2dVertex
 10
47.84044624898934
 20
32.35698400110613
 30
0.0
  0
SEQEND
  5
277
330
274
100
AcDbEntity
  8
DIBUJOS
 62
     7
  0
POLYLINE
  5
278
330
241
100
AcDbEntity
  8
DIBUJOS
 62
     7
100
AcDb2dPolyline
 66
     1
 10
0.0
 20
0.0
 30
0.0
  0
VERTEX
  5
279
330
278
100
AcDbEntity
  8
DIBUJOS
 62
     7
100
AcDbVertex
100
AcDb2dVertex
 10
47.83482274347871
 20
32.35136237835204
 30
0.0
  0
VERTEX
  5
27A
330
278
100
AcDbEntity
  8
DIBUJOS
 62
     7
100
AcDbVertex
100
AcDb2dVertex
 10
47.84044624898934
 20
32.35698400110613
 30
0.0
  0
SEQEND
  5
27B
330
278
100
AcDbEntity
  8
DIBUJOS
 62
     7
  0
POLYLINE
  5
27C
330
241
100
AcDbEntity
  8
DIBUJOS
 62
     7
100
AcDb2dPolyline
 66
     1
 10
0.0
 20
0.0
 30
0.0
  0
VERTEX
  5
27D
330
27C
100
AcDbEntity
  8
DIBUJOS
 62
     7
100
AcDbVertex
100
AcDb2dVertex
 10
41.75511470061068
 20
32.10398222593746
 30
0.0
  0
VERTEX
  5
27E
330
27C
100
AcDbEntity
  8
DIBUJOS
 62
     7
100
AcDbVertex
100
AcDb2dVertex
 10
41.7494904382356
 20
32.10398222593746
 30
0.0
  0
SEQEND
  5
27F
330
27C
100
AcDbEntity
  8
DIBUJOS
 62
     7
  0
POLYLINE
  5
280
330
241
100
AcDbEntity
  8
DIBUJOS
 62
     7
100
AcDb2dPolyline
 66
     1
 10
0.0
 20
0.0
 30
0.0
  0
VERTEX
  5
281
330
280
100
AcDbEntity
  8
DIBUJOS
 62
     7
100
AcDbVertex
100
AcDb2dVertex
 10
41.76073896298575
 20
32.10398222593746
 30
0.0
  0
VERTEX
  5
282
330
280
100
AcDbEntity
  8
DIBUJOS
 62
     7
100
AcDbVertex
100
AcDb2dVertex
 10
41.75511470061068
 20
32.10398222593746
 30
0.0
  0
SEQEND
  5
283
330
280
100
AcDbEntity
  8
DIBUJOS
 62
     7
  0
POLYLINE
  5
284
330
241
100
AcDbEntity
  8
DIBUJOS
 62
     7
100
AcDb2dPolyline
 66
     1
 10
0.0
 20
0.0
 30
0.0
  0
VERTEX
  5
285
330
284
100
AcDbEntity
  8
DIBUJOS
 62
     7
100
AcDbVertex
100
AcDb2dVertex
 10
41.76073896298575
 20
32.10398222593746
 30
0.0
  0
VERTEX
  5
286
330
284
100
AcDbEntity
  8
DIBUJOS
 62
     7
100
AcDbVertex
100
AcDb2dVertex
 10
41.77198673087113
 20
32.11522698466888
 30
0.0
  0
VERTEX
  5
287
330
284
100
AcDbEntity
  8
DIBUJOS
 62
     7
100
AcDbVertex
100
AcDb2dVertex
 10
41.72223497969845
 20
32.17836923302951
 30
0.0
  0
VERTEX
  5
288
330
284
100
AcDbEntity
  8
DIBUJOS
 62
     7
100
AcDbVertex
100
AcDb2dVertex
 10
41.70449709609945
 20
32.18831564658573
 30
0.0
  0
VERTEX
  5
289
330
284
100
AcDbEntity
  8
DIBUJOS
 62
     7
100
AcDbVertex
100
AcDb2dVertex
 10
41.69212387024699
 20
32.21024224516174
 30
0.0
  0
VERTEX
  5
28A
330
284
100
AcDbEntity
  8
DIBUJOS
 62
     7
100
AcDbVertex
100
AcDb2dVertex
 10
41.68649960787192
 20
32.22148700389253
 30
0.0
  0
VERTEX
  5
28B
330
284
100
AcDbEntity
  8
DIBUJOS
 62
     7
100
AcDbVertex
100
AcDb2dVertex
 10
41.67075227871346
 20
32.26140582172644
 30
0.0
  0
VERTEX
  5
28C
330
284
100
AcDbEntity
  8
DIBUJOS
 62
     7
100
AcDbVertex
100
AcDb2dVertex
 10
41.67637654108853
 20
32.35698400110613
 30
0.0
  0
SEQEND
  5
28D
330
284
100
AcDbEntity
  8
DIBUJOS
 62
     7
  0
POLYLINE
  5
28E
330
241
100
AcDbEntity
  8
DIBUJOS
 62
     7
100
AcDb2dPolyline
 66
     1
 10
0.0
 20
0.0
 30
0.0
  0
VERTEX
  5
28F
330
28E
100
AcDbEntity
  8
DIBUJOS
 62
     7
100
AcDbVertex
100
AcDb2dVertex
 10
47.76170808946719
 20
32.10398222593746
 30
0.0
  0
VERTEX
  5
290
330
28E
100
AcDbEntity
  8
DIBUJOS
 62
     7
100
AcDbVertex
100
AcDb2dVertex
 10
47.75045956471672
 20
32.12084860742234
 30
0.0
  0
VERTEX
  5
291
330
28E
100
AcDbEntity
  8
DIBUJOS
 62
     7
100
AcDbVertex
100
AcDb2dVertex
 10
47.78420513896749
 20
32.14895974763864
 30
0.0
  0
VERTEX
  5
292
330
28E
100
AcDbEntity
  8
DIBUJOS
 62
     7
100
AcDbVertex
100
AcDb2dVertex
 10
47.78420513896749
 20
32.16582764234675
 30
0.0
  0
VERTEX
  5
293
330
28E
100
AcDbEntity
  8
DIBUJOS
 62
     7
100
AcDbVertex
100
AcDb2dVertex
 10
47.80107716922826
 20
32.17707088785495
 30
0.0
  0
VERTEX
  5
294
330
28E
100
AcDbEntity
  8
DIBUJOS
 62
     7
100
AcDbVertex
100
AcDb2dVertex
 10
47.83482274347871
 20
32.21080516404793
 30
0.0
  0
VERTEX
  5
295
330
28E
100
AcDbEntity
  8
DIBUJOS
 62
     7
100
AcDbVertex
100
AcDb2dVertex
 10
47.83650903826726
 20
32.22148700389253
 30
0.0
  0
VERTEX
  5
296
330
28E
100
AcDbEntity
  8
DIBUJOS
 62
     7
100
AcDbVertex
100
AcDb2dVertex
 10
47.85169477373948
 20
32.25016106299566
 30
0.0
  0
VERTEX
  5
297
330
28E
100
AcDbEntity
  8
DIBUJOS
 62
     7
100
AcDbVertex
100
AcDb2dVertex
 10
47.85169477373948
 20
32.35136237835204
 30
0.0
  0
VERTEX
  5
298
330
28E
100
AcDbEntity
  8
DIBUJOS
 62
     7
100
AcDbVertex
100
AcDb2dVertex
 10
47.84607126822917
 20
32.35698400110613
 30
0.0
  0
SEQEND
  5
299
330
28E
100
AcDbEntity
  8
DIBUJOS
 62
     7
  0
POLYLINE
  5
29A
330
241
100
AcDbEntity
  8
DIBUJOS
 62
     7
100
AcDb2dPolyline
 66
     1
 10
0.0
 20
0.0
 30
0.0
  0
VERTEX
  5
29B
330
29A
100
AcDbEntity
  8
DIBUJOS
 62
     7
100
AcDbVertex
100
AcDb2dVertex
 10
47.76733310870704
 20
32.10398222593746
 30
0.0
  0
VERTEX
  5
29C
330
29A
100
AcDbEntity
  8
DIBUJOS
 62
     7
100
AcDbVertex
100
AcDb2dVertex
 10
47.76170808946719
 20
32.10398222593746
 30
0.0
  0
SEQEND
  5
29D
330
29A
100
AcDbEntity
  8
DIBUJOS
 62
     7
  0
POLYLINE
  5
29E
330
241
100
AcDbEntity
  8
DIBUJOS
 62
     7
100
AcDb2dPolyline
 66
     1
 10
0.0
 20
0.0
 30
0.0
  0
VERTEX
  5
29F
330
29E
100
AcDbEntity
  8
DIBUJOS
 62
     7
100
AcDbVertex
100
AcDb2dVertex
 10
47.77295661421734
 20
32.10398222593746
 30
0.0
  0
VERTEX
  5
2A0
330
29E
100
AcDbEntity
  8
DIBUJOS
 62
     7
100
AcDbVertex
100
AcDb2dVertex
 10
47.76733310870704
 20
32.10398222593746
 30
0.0
  0
SEQEND
  5
2A1
330
29E
100
AcDbEntity
  8
DIBUJOS
 62
     7
  0
POLYLINE
  5
2A2
330
241
100
AcDbEntity
  8
DIBUJOS
 62
     7
100
AcDb2dPolyline
 66
     1
 10
0.0
 20
0.0
 30
0.0
  0
VERTEX
  5
2A3
330
2A2
100
AcDbEntity
  8
DIBUJOS
 62
     7
100
AcDbVertex
100
AcDb2dVertex
 10
41.75511470061068
 20
32.09835908996013
 30
0.0
  0
VERTEX
  5
2A4
330
2A2
100
AcDbEntity
  8
DIBUJOS
 62
     7
100
AcDbVertex
100
AcDb2dVertex
 10
41.75511470061068
 20
32.10398222593746
 30
0.0
  0
SEQEND
  5
2A5
330
2A2
100
AcDbEntity
  8
DIBUJOS
 62
     7
  0
POLYLINE
  5
2A6
330
241
100
AcDbEntity
  8
DIBUJOS
 62
     7
100
AcDb2dPolyline
 66
     1
 10
0.0
 20
0.0
 30
0.0
  0
VERTEX
  5
2A7
330
2A6
100
AcDbEntity
  8
DIBUJOS
 62
     7
100
AcDbVertex
100
AcDb2dVertex
 10
47.76733310870704
 20
32.09835908996013
 30
0.0
  0
VERTEX
  5
2A8
330
2A6
100
AcDbEntity
  8
DIBUJOS
 62
     7
100
AcDbVertex
100
AcDb2dVertex
 10
47.76733310870704
 20
32.10398222593746
 30
0.0
  0
SEQEND
  5
2A9
330
2A6
100
AcDbEntity
  8
DIBUJOS
 62
     7
  0
POLYLINE
  5
2AA
330
241
100
AcDbEntity
  8
DIBUJOS
 62
     7
100
AcDb2dPolyline
 66
     1
 10
0.0
 20
0.0
 30
0.0
  0
VERTEX
  5
2AB
330
2AA
100
AcDbEntity
  8
DIBUJOS
 62
     7
100
AcDbVertex
100
AcDb2dVertex
 10
41.76073896298575
 20
32.09273746720667
 30
0.0
  0
VERTEX
  5
2AC
330
2AA
100
AcDbEntity
  8
DIBUJOS
 62
     7
100
AcDbVertex
100
AcDb2dVertex
 10
41.75511470061068
 20
32.09835908996013
 30
0.0
  0
SEQEND
  5
2AD
330
2AA
100
AcDbEntity
  8
DIBUJOS
 62
     7
  0
POLYLINE
  5
2AE
330
241
100
AcDbEntity
  8
DIBUJOS
 62
     7
100
AcDb2dPolyline
 66
     1
 10
0.0
 20
0.0
 30
0.0
  0
VERTEX
  5
2AF
330
2AE
100
AcDbEntity
  8
DIBUJOS
 62
     7
100
AcDbVertex
100
AcDb2dVertex
 10
41.85634915276835
 20
32.10960384869156
 30
0.0
  0
VERTEX
  5
2B0
330
2AE
100
AcDbEntity
  8
DIBUJOS
 62
     7
100
AcDbVertex
100
AcDb2dVertex
 10
41.89009397015435
 20
32.09273746720667
 30
0.0
  0
VERTEX
  5
2B1
330
2AE
100
AcDbEntity
  8
DIBUJOS
 62
     7
100
AcDbVertex
100
AcDb2dVertex
 10
42.02457749324996
 20
32.10596606104661
 30
0.0
  0
VERTEX
  5
2B2
330
2AE
100
AcDbEntity
  8
DIBUJOS
 62
     7
100
AcDbVertex
100
AcDb2dVertex
 10
42.11505992397031
 20
32.12084860742234
 30
0.0
  0
VERTEX
  5
2B3
330
2AE
100
AcDbEntity
  8
DIBUJOS
 62
     7
100
AcDbVertex
100
AcDb2dVertex
 10
42.20077259268199
 20
32.23228233544739
 30
0.0
  0
VERTEX
  5
2B4
330
2AE
100
AcDbEntity
  8
DIBUJOS
 62
     7
100
AcDbVertex
100
AcDb2dVertex
 10
42.2149448861786
 20
32.25117340905776
 30
0.0
  0
VERTEX
  5
2B5
330
2AE
100
AcDbEntity
  8
DIBUJOS
 62
     7
100
AcDbVertex
100
AcDb2dVertex
 10
42.30515711616336
 20
32.39127968296273
 30
0.0
  0
VERTEX
  5
2B6
330
2AE
100
AcDbEntity
  8
DIBUJOS
 62
     7
100
AcDbVertex
100
AcDb2dVertex
 10
42.47370788105231
 20
32.6614519974024
 30
0.0
  0
VERTEX
  5
2B7
330
2AE
100
AcDbEntity
  8
DIBUJOS
 62
     7
100
AcDbVertex
100
AcDb2dVertex
 10
42.51864975638148
 20
32.72344419642537
 30
0.0
  0
VERTEX
  5
2B8
330
2AE
100
AcDbEntity
  8
DIBUJOS
 62
     7
100
AcDbVertex
100
AcDb2dVertex
 10
42.58888529667061
 20
32.8167691870345
 30
0.0
  0
VERTEX
  5
2B9
330
2AE
100
AcDbEntity
  8
DIBUJOS
 62
     7
100
AcDbVertex
100
AcDb2dVertex
 10
42.77730830391202
 20
33.02733565482956
 30
0.0
  0
VERTEX
  5
2BA
330
2AE
100
AcDbEntity
  8
DIBUJOS
 62
     7
100
AcDbVertex
100
AcDb2dVertex
 10
43.03632409163105
 20
33.28603017422433
 30
0.0
  0
VERTEX
  5
2BB
330
2AE
100
AcDbEntity
  8
DIBUJOS
 62
     7
100
AcDbVertex
100
AcDb2dVertex
 10
43.12288066460145
 20
33.35637687640287
 30
0.0
  0
VERTEX
  5
2BC
330
2AE
100
AcDbEntity
  8
DIBUJOS
 62
     7
100
AcDbVertex
100
AcDb2dVertex
 10
43.29556996625115
 20
33.49380625914988
 30
0.0
  0
VERTEX
  5
2BD
330
2AE
100
AcDbEntity
  8
DIBUJOS
 62
     7
100
AcDbVertex
100
AcDb2dVertex
 10
43.32481522236407
 20
33.50842399153325
 30
0.0
  0
VERTEX
  5
2BE
330
2AE
100
AcDbEntity
  8
DIBUJOS
 62
     7
100
AcDbVertex
100
AcDb2dVertex
 10
43.7005743789851
 20
33.697068400422
 30
0.0
  0
VERTEX
  5
2BF
330
2AE
100
AcDbEntity
  8
DIBUJOS
 62
     7
100
AcDbVertex
100
AcDb2dVertex
 10
43.84117866776862
 20
33.73642429936844
 30
0.0
  0
VERTEX
  5
2C0
330
2AE
100
AcDbEntity
  8
DIBUJOS
 62
     7
100
AcDbVertex
100
AcDb2dVertex
 10
44.17371327530604
 20
33.82745978386036
 30
0.0
  0
VERTEX
  5
2C1
330
2AE
100
AcDbEntity
  8
DIBUJOS
 62
     7
100
AcDbVertex
100
AcDb2dVertex
 10
44.74696419327695
 20
33.8719545874848
 30
0.0
  0
VERTEX
  5
2C2
330
2AE
100
AcDbEntity
  8
DIBUJOS
 62
     7
100
AcDbVertex
100
AcDb2dVertex
 10
45.06191683136553
 20
33.84992811620374
 30
0.0
  0
VERTEX
  5
2C3
330
2AE
100
AcDbEntity
  8
DIBUJOS
 62
     7
100
AcDbVertex
100
AcDb2dVertex
 10
45.34874891444318
 20
33.82743859874154
 30
0.0
  0
VERTEX
  5
2C4
330
2AE
100
AcDbEntity
  8
DIBUJOS
 62
     7
100
AcDbVertex
100
AcDb2dVertex
 10
45.81525616133156
 20
33.69872235295716
 30
0.0
  0
VERTEX
  5
2C5
330
2AE
100
AcDbEntity
  8
DIBUJOS
 62
     7
100
AcDbVertex
100
AcDb2dVertex
 10
45.87199377466623
 20
33.67821667060473
 30
0.0
  0
SEQEND
  5
2C6
330
2AE
100
AcDbEntity
  8
DIBUJOS
 62
     7
  0
POLYLINE
  5
2C7
330
241
100
AcDbEntity
  8
DIBUJOS
 62
     7
100
AcDb2dPolyline
 66
     1
 10
0.0
 20
0.0
 30
0.0
  0
VERTEX
  5
2C8
330
2C7
100
AcDbEntity
  8
DIBUJOS
 62
     7
100
AcDbVertex
100
AcDb2dVertex
 10
45.8832422994167
 20
33.66697342509654
 30
0.0
  0
VERTEX
  5
2C9
330
2C7
100
AcDbEntity
  8
DIBUJOS
 62
     7
100
AcDbVertex
100
AcDb2dVertex
 10
46.02440818188644
 20
33.5950075745069
 30
0.0
  0
VERTEX
  5
2CA
330
2C7
100
AcDbEntity
  8
DIBUJOS
 62
     7
100
AcDbVertex
100
AcDb2dVertex
 10
46.24771508804704
 20
33.48006619599887
 30
0.0
  0
VERTEX
  5
2CB
330
2C7
100
AcDbEntity
  8
DIBUJOS
 62
     7
100
AcDbVertex
100
AcDb2dVertex
 10
46.39619228454549
 20
33.35913094192446
 30
0.0
  0
VERTEX
  5
2CC
330
2C7
100
AcDbEntity
  8
DIBUJOS
 62
     7
100
AcDbVertex
100
AcDb2dVertex
 10
46.49065052609323
 20
33.28465768113195
 30
0.0
  0
VERTEX
  5
2CD
330
2C7
100
AcDbEntity
  8
DIBUJOS
 62
     7
100
AcDbVertex
100
AcDb2dVertex
 10
46.71561647990888
 20
33.05976704617957
 30
0.0
  0
VERTEX
  5
2CE
330
2C7
100
AcDbEntity
  8
DIBUJOS
 62
     7
100
AcDbVertex
100
AcDb2dVertex
 10
46.93356478324139
 20
32.81679037215396
 30
0.0
  0
VERTEX
  5
2CF
330
2C7
100
AcDbEntity
  8
DIBUJOS
 62
     7
100
AcDbVertex
100
AcDb2dVertex
 10
47.04609090144376
 20
32.66519722386727
 30
0.0
  0
VERTEX
  5
2D0
330
2C7
100
AcDbEntity
  8
DIBUJOS
 62
     7
100
AcDbVertex
100
AcDb2dVertex
 10
47.19237167627377
 20
32.43483023555059
 30
0.0
  0
VERTEX
  5
2D1
330
2C7
100
AcDbEntity
  8
DIBUJOS
 62
     7
100
AcDbVertex
100
AcDb2dVertex
 10
47.30750140940925
 20
32.25117340905776
 30
0.0
  0
VERTEX
  5
2D2
330
2C7
100
AcDbEntity
  8
DIBUJOS
 62
     7
100
AcDbVertex
100
AcDb2dVertex
 10
47.40738637161754
 20
32.12084860742234
 30
0.0
  0
VERTEX
  5
2D3
330
2C7
100
AcDbEntity
  8
DIBUJOS
 62
     7
100
AcDbVertex
100
AcDb2dVertex
 10
47.52017285131291
 20
32.10078175968578
 30
0.0
  0
VERTEX
  5
2D4
330
2C7
100
AcDbEntity
  8
DIBUJOS
 62
     7
100
AcDbVertex
100
AcDb2dVertex
 10
47.56486269066183
 20
32.09273746720667
 30
0.0
  0
VERTEX
  5
2D5
330
2C7
100
AcDbEntity
  8
DIBUJOS
 62
     7
100
AcDbVertex
100
AcDb2dVertex
 10
47.64872936611099
 20
32.10034443829251
 30
0.0
  0
VERTEX
  5
2D6
330
2C7
100
AcDbEntity
  8
DIBUJOS
 62
     7
100
AcDbVertex
100
AcDb2dVertex
 10
47.66609789968459
 20
32.10398222593746
 30
0.0
  0
SEQEND
  5
2D7
330
2C7
100
AcDbEntity
  8
DIBUJOS
 62
     7
  0
POLYLINE
  5
2D8
330
241
100
AcDbEntity
  8
DIBUJOS
 62
     7
100
AcDb2dPolyline
 66
     1
 10
0.0
 20
0.0
 30
0.0
  0
VERTEX
  5
2D9
330
2D8
100
AcDbEntity
  8
DIBUJOS
 62
     7
100
AcDbVertex
100
AcDb2dVertex
 10
47.76170808946719
 20
32.09273746720667
 30
0.0
  0
VERTEX
  5
2DA
330
2D8
100
AcDbEntity
  8
DIBUJOS
 62
     7
100
AcDbVertex
100
AcDb2dVertex
 10
47.76733310870704
 20
32.09835908996013
 30
0.0
  0
SEQEND
  5
2DB
330
2D8
100
AcDbEntity
  8
DIBUJOS
 62
     7
  0
POLYLINE
  5
2DC
330
241
100
AcDbEntity
  8
DIBUJOS
 62
     7
100
AcDb2dPolyline
 66
     1
 10
0.0
 20
0.0
 30
0.0
  0
VERTEX
  5
2DD
330
2DC
100
AcDbEntity
  8
DIBUJOS
 62
     7
100
AcDbVertex
100
AcDb2dVertex
 10
41.76073896298575
 20
32.08711584445194
 30
0.0
  0
VERTEX
  5
2DE
330
2DC
100
AcDbEntity
  8
DIBUJOS
 62
     7
100
AcDbVertex
100
AcDb2dVertex
 10
41.76073896298575
 20
32.09273746720667
 30
0.0
  0
SEQEND
  5
2DF
330
2DC
100
AcDbEntity
  8
DIBUJOS
 62
     7
  0
POLYLINE
  5
2E0
330
241
100
AcDbEntity
  8
DIBUJOS
 62
     7
100
AcDb2dPolyline
 66
     1
 10
0.0
 20
0.0
 30
0.0
  0
VERTEX
  5
2E1
330
2E0
100
AcDbEntity
  8
DIBUJOS
 62
     7
100
AcDbVertex
100
AcDb2dVertex
 10
41.76636322536082
 20
32.08711584445194
 30
0.0
  0
VERTEX
  5
2E2
330
2E0
100
AcDbEntity
  8
DIBUJOS
 62
     7
100
AcDbVertex
100
AcDb2dVertex
 10
41.76073896298575
 20
32.08711584445194
 30
0.0
  0
SEQEND
  5
2E3
330
2E0
100
AcDbEntity
  8
DIBUJOS
 62
     7
  0
POLYLINE
  5
2E4
330
241
100
AcDbEntity
  8
DIBUJOS
 62
     7
100
AcDb2dPolyline
 66
     1
 10
0.0
 20
0.0
 30
0.0
  0
VERTEX
  5
2E5
330
2E4
100
AcDbEntity
  8
DIBUJOS
 62
     7
100
AcDbVertex
100
AcDb2dVertex
 10
41.76636322536082
 20
32.08711584445194
 30
0.0
  0
VERTEX
  5
2E6
330
2E4
100
AcDbEntity
  8
DIBUJOS
 62
     7
100
AcDbVertex
100
AcDb2dVertex
 10
41.77198673087113
 20
32.09273746720667
 30
0.0
  0
SEQEND
  5
2E7
330
2E4
100
AcDbEntity
  8
DIBUJOS
 62
     7
  0
POLYLINE
  5
2E8
330
241
100
AcDbEntity
  8
DIBUJOS
 62
     7
100
AcDb2dPolyline
 66
     1
 10
0.0
 20
0.0
 30
0.0
  0
VERTEX
  5
2E9
330
2E8
100
AcDbEntity
  8
DIBUJOS
 62
     7
100
AcDbVertex
100
AcDb2dVertex
 10
47.75608458395688
 20
32.08711584445194
 30
0.0
  0
VERTEX
  5
2EA
330
2E8
100
AcDbEntity
  8
DIBUJOS
 62
     7
100
AcDbVertex
100
AcDb2dVertex
 10
47.75045956471672
 20
32.09273746720667
 30
0.0
  0
SEQEND
  5
2EB
330
2E8
100
AcDbEntity
  8
DIBUJOS
 62
     7
  0
POLYLINE
  5
2EC
330
241
100
AcDbEntity
  8
DIBUJOS
 62
     7
100
AcDb2dPolyline
 66
     1
 10
0.0
 20
0.0
 30
0.0
  0
VERTEX
  5
2ED
330
2EC
100
AcDbEntity
  8
DIBUJOS
 62
     7
100
AcDbVertex
100
AcDb2dVertex
 10
47.76170808946719
 20
32.08711584445194
 30
0.0
  0
VERTEX
  5
2EE
330
2EC
100
AcDbEntity
  8
DIBUJOS
 62
     7
100
AcDbVertex
100
AcDb2dVertex
 10
47.75608458395688
 20
32.08711584445194
 30
0.0
  0
SEQEND
  5
2EF
330
2EC
100
AcDbEntity
  8
DIBUJOS
 62
     7
  0
POLYLINE
  5
2F0
330
241
100
AcDbEntity
  8
DIBUJOS
 62
     7
100
AcDb2dPolyline
 66
     1
 10
0.0
 20
0.0
 30
0.0
  0
VERTEX
  5
2F1
330
2F0
100
AcDbEntity
  8
DIBUJOS
 62
     7
100
AcDbVertex
100
AcDb2dVertex
 10
47.76170808946719
 20
32.08711584445194
 30
0.0
  0
VERTEX
  5
2F2
330
2F0
100
AcDbEntity
  8
DIBUJOS
 62
     7
100
AcDbVertex
100
AcDb2dVertex
 10
47.76170808946719
 20
32.09273746720667
 30
0.0
  0
SEQEND
  5
2F3
330
2F0
100
AcDbEntity
  8
DIBUJOS
 62
     7
  0
POLYLINE
  5
2F4
330
241
100
AcDbEntity
  8
DIBUJOS
 62
     7
100
AcDb2dPolyline
 66
     1
 10
0.0
 20
0.0
 30
0.0
  0
VERTEX
  5
2F5
330
2F4
100
AcDbEntity
  8
DIBUJOS
 62
     7
100
AcDbVertex
100
AcDb2dVertex
 10
41.7494904382356
 20
32.10398222593746
 30
0.0
  0
VERTEX
  5
2F6
330
2F4
100
AcDbEntity
  8
DIBUJOS
 62
     7
100
AcDbVertex
100
AcDb2dVertex
 10
41.7434340060557
 20
32.10052148536182
 30
0.0
  0
VERTEX
  5
2F7
330
2F4
100
AcDbEntity
  8
DIBUJOS
 62
     7
100
AcDbVertex
100
AcDb2dVertex
 10
41.72136988322467
 20
32.09835908996013
 30
0.0
  0
VERTEX
  5
2F8
330
2F4
100
AcDbEntity
  8
DIBUJOS
 62
     7
100
AcDbVertex
100
AcDb2dVertex
 10
41.69887359058914
 20
32.07587108572115
 30
0.0
  0
VERTEX
  5
2F9
330
2F4
100
AcDbEntity
  8
DIBUJOS
 62
     7
100
AcDbVertex
100
AcDb2dVertex
 10
41.687625065839
 20
31.94655863014847
 30
0.0
  0
VERTEX
  5
2FA
330
2F4
100
AcDbEntity
  8
DIBUJOS
 62
     7
100
AcDbVertex
100
AcDb2dVertex
 10
41.69043681859399
 20
31.71604485921941
 30
0.0
  0
VERTEX
  5
2FB
330
2F4
100
AcDbEntity
  8
DIBUJOS
 62
     7
100
AcDbVertex
100
AcDb2dVertex
 10
41.72997013801795
 20
29.91115061762133
 30
0.0
  0
VERTEX
  5
2FC
330
2F4
100
AcDbEntity
  8
DIBUJOS
 62
     7
100
AcDbVertex
100
AcDb2dVertex
 10
41.73526592106725
 20
29.8158660034677
 30
0.0
  0
VERTEX
  5
2FD
330
2F4
100
AcDbEntity
  8
DIBUJOS
 62
     7
100
AcDbVertex
100
AcDb2dVertex
 10
41.7574768756709
 20
29.62489879755963
 30
0.0
  0
VERTEX
  5
2FE
330
2F4
100
AcDbEntity
  8
DIBUJOS
 62
     7
100
AcDbVertex
100
AcDb2dVertex
 10
41.75845852932442
 20
29.61855915058079
 30
0.0
  0
VERTEX
  5
2FF
330
2F4
100
AcDbEntity
  8
DIBUJOS
 62
     7
100
AcDbVertex
100
AcDb2dVertex
 10
41.80123274384881
 20
29.38336649471033
 30
0.0
  0
VERTEX
  5
300
330
2F4
100
AcDbEntity
  8
DIBUJOS
 62
     7
100
AcDbVertex
100
AcDb2dVertex
 10
41.90246719600681
 20
29.18096462060887
 30
0.0
  0
VERTEX
  5
301
330
2F4
100
AcDbEntity
  8
DIBUJOS
 62
     7
100
AcDbVertex
100
AcDb2dVertex
 10
41.95196009941603
 20
29.09044590170773
 30
0.0
  0
VERTEX
  5
302
330
2F4
100
AcDbEntity
  8
DIBUJOS
 62
     7
100
AcDbVertex
100
AcDb2dVertex
 10
42.23822907507792
 20
28.91503159988279
 30
0.0
  0
VERTEX
  5
303
330
2F4
100
AcDbEntity
  8
DIBUJOS
 62
     7
100
AcDbVertex
100
AcDb2dVertex
 10
42.33390586896346
 20
28.88606019249648
 30
0.0
  0
VERTEX
  5
304
330
2F4
100
AcDbEntity
  8
DIBUJOS
 62
     7
100
AcDbVertex
100
AcDb2dVertex
 10
42.41926054062156
 20
28.86191747911041
 30
0.0
  0
VERTEX
  5
305
330
2F4
100
AcDbEntity
  8
DIBUJOS
 62
     7
100
AcDbVertex
100
AcDb2dVertex
 10
42.63776892391078
 20
28.80697160212161
 30
0.0
  0
VERTEX
  5
306
330
2F4
100
AcDbEntity
  8
DIBUJOS
 62
     7
100
AcDbVertex
100
AcDb2dVertex
 10
42.91343952169087
 20
28.7787167057381
 30
0.0
  0
VERTEX
  5
307
330
2F4
100
AcDbEntity
  8
DIBUJOS
 62
     7
100
AcDbVertex
100
AcDb2dVertex
 10
46.60313274613597
 20
28.77559946674105
 30
0.0
  0
VERTEX
  5
308
330
2F4
100
AcDbEntity
  8
DIBUJOS
 62
     7
100
AcDbVertex
100
AcDb2dVertex
 10
46.91778263830209
 20
28.81175414282517
 30
0.0
  0
VERTEX
  5
309
330
2F4
100
AcDbEntity
  8
DIBUJOS
 62
     7
100
AcDbVertex
100
AcDb2dVertex
 10
47.06381818893507
 20
28.85067272037962
 30
0.0
  0
VERTEX
  5
30A
330
2F4
100
AcDbEntity
  8
DIBUJOS
 62
     7
100
AcDbVertex
100
AcDb2dVertex
 10
47.17166839636426
 20
28.88043781313108
 30
0.0
  0
VERTEX
  5
30B
330
2F4
100
AcDbEntity
  8
DIBUJOS
 62
     7
100
AcDbVertex
100
AcDb2dVertex
 10
47.28841479272597
 20
28.9174535129965
 30
0.0
  0
VERTEX
  5
30C
330
2F4
100
AcDbEntity
  8
DIBUJOS
 62
     7
100
AcDbVertex
100
AcDb2dVertex
 10
47.57048770990199
 20
29.09044590170773
 30
0.0
  0
VERTEX
  5
30D
330
2F4
100
AcDbEntity
  8
DIBUJOS
 62
     7
100
AcDbVertex
100
AcDb2dVertex
 10
47.61660499627537
 20
29.1742179166924
 30
0.0
  0
VERTEX
  5
30E
330
2F4
100
AcDbEntity
  8
DIBUJOS
 62
     7
100
AcDbVertex
100
AcDb2dVertex
 10
47.72346371080812
 20
29.38786379291335
 30
0.0
  0
VERTEX
  5
30F
330
2F4
100
AcDbEntity
  8
DIBUJOS
 62
     7
100
AcDbVertex
100
AcDb2dVertex
 10
47.76961278550359
 20
29.64667104740838
 30
0.0
  0
VERTEX
  5
310
330
2F4
100
AcDbEntity
  8
DIBUJOS
 62
     7
100
AcDbVertex
100
AcDb2dVertex
 10
47.78719172749306
 20
29.79900718809641
 30
0.0
  0
VERTEX
  5
311
330
2F4
100
AcDbEntity
  8
DIBUJOS
 62
     7
100
AcDbVertex
100
AcDb2dVertex
 10
47.79246707519238
 20
29.8886527774336
 30
0.0
  0
VERTEX
  5
312
330
2F4
100
AcDbEntity
  8
DIBUJOS
 62
     7
100
AcDbVertex
100
AcDb2dVertex
 10
47.83482274347871
 20
31.6260898158164
 30
0.0
  0
VERTEX
  5
313
330
2F4
100
AcDbEntity
  8
DIBUJOS
 62
     7
100
AcDbVertex
100
AcDb2dVertex
 10
47.83181193527998
 20
31.97484379098827
 30
0.0
  0
VERTEX
  5
314
330
2F4
100
AcDbEntity
  8
DIBUJOS
 62
     7
100
AcDbVertex
100
AcDb2dVertex
 10
47.82357421872856
 20
32.07587108572115
 30
0.0
  0
VERTEX
  5
315
330
2F4
100
AcDbEntity
  8
DIBUJOS
 62
     7
100
AcDbVertex
100
AcDb2dVertex
 10
47.80107716922826
 20
32.09835908996013
 30
0.0
  0
VERTEX
  5
316
330
2F4
100
AcDbEntity
  8
DIBUJOS
 62
     7
100
AcDbVertex
100
AcDb2dVertex
 10
47.77295661421734
 20
32.10398222593746
 30
0.0
  0
SEQEND
  5
317
330
2F4
100
AcDbEntity
  8
DIBUJOS
 62
     7
  0
ENDBLK
  5
244
330
241
100
AcDbEntity
  8
0
100
AcDbBlockEnd
  0
BLOCK
  5
31A
330
318
100
AcDbEntity
  8
0
100
AcDbBlockBegin
  2
BLOCK_5
 70
     0
 10
0.0
 20
0.0
 30
0.0
  3
BLOCK_5
  1

  0
POLYLINE
  5
31C
330
318
100
AcDbEntity
  8
DIBUJOS
 62
     7
100
AcDb2dPolyline
 66
     1
 10
0.0
 20
0.0
 30
0.0
  0
VERTEX
  5
31D
330
31C
100
AcDbEntity
  8
DIBUJOS
 62
     7
100
AcDbVertex
100
AcDb2dVertex
 10
79.87770970772947
 20
45.16181860583679
 30
0.0
  0
VERTEX
  5
31E
330
31C
100
AcDbEntity
  8
DIBUJOS
 62
     7
100
AcDbVertex
100
AcDb2dVertex
 10
79.87208468848931
 20
45.16181860583679
 30
0.0
  0
SEQEND
  5
31F
330
31C
100
AcDbEntity
  8
DIBUJOS
 62
     7
  0
POLYLINE
  5
320
330
318
100
AcDbEntity
  8
DIBUJOS
 62
     7
100
AcDb2dPolyline
 66
     1
 10
0.0
 20
0.0
 30
0.0
  0
VERTEX
  5
321
330
320
100
AcDbEntity
  8
DIBUJOS
 62
     7
100
AcDbVertex
100
AcDb2dVertex
 10
79.88333472696898
 20
45.16181860583679
 30
0.0
  0
VERTEX
  5
322
330
320
100
AcDbEntity
  8
DIBUJOS
 62
     7
100
AcDbVertex
100
AcDb2dVertex
 10
79.87770970772947
 20
45.16181860583679
 30
0.0
  0
SEQEND
  5
323
330
320
100
AcDbEntity
  8
DIBUJOS
 62
     7
  0
POLYLINE
  5
324
330
318
100
AcDbEntity
  8
DIBUJOS
 62
     7
100
AcDb2dPolyline
 66
     1
 10
0.0
 20
0.0
 30
0.0
  0
VERTEX
  5
325
330
324
100
AcDbEntity
  8
DIBUJOS
 62
     7
100
AcDbVertex
100
AcDb2dVertex
 10
84.97318999970625
 20
45.16181860583679
 30
0.0
  0
VERTEX
  5
326
330
324
100
AcDbEntity
  8
DIBUJOS
 62
     7
100
AcDbVertex
100
AcDb2dVertex
 10
84.96193996122658
 20
45.1674417418138
 30
0.0
  0
VERTEX
  5
327
330
324
100
AcDbEntity
  8
DIBUJOS
 62
     7
100
AcDbVertex
100
AcDb2dVertex
 10
79.89457871053054
 20
45.1674417418138
 30
0.0
  0
VERTEX
  5
328
330
324
100
AcDbEntity
  8
DIBUJOS
 62
     7
100
AcDbVertex
100
AcDb2dVertex
 10
79.88333472696898
 20
45.16181860583679
 30
0.0
  0
SEQEND
  5
329
330
324
100
AcDbEntity
  8
DIBUJOS
 62
     7
  0
POLYLINE
  5
32A
330
318
100
AcDbEntity
  8
DIBUJOS
 62
     7
100
AcDb2dPolyline
 66
     1
 10
0.0
 20
0.0
 30
0.0
  0
VERTEX
  5
32B
330
32A
100
AcDbEntity
  8
DIBUJOS
 62
     7
100
AcDbVertex
100
AcDb2dVertex
 10
84.9788150189464
 20
45.16181860583679
 30
0.0
  0
VERTEX
  5
32C
330
32A
100
AcDbEntity
  8
DIBUJOS
 62
     7
100
AcDbVertex
100
AcDb2dVertex
 10
84.97318999970625
 20
45.16181860583679
 30
0.0
  0
SEQEND
  5
32D
330
32A
100
AcDbEntity
  8
DIBUJOS
 62
     7
  0
POLYLINE
  5
32E
330
318
100
AcDbEntity
  8
DIBUJOS
 62
     7
100
AcDb2dPolyline
 66
     1
 10
0.0
 20
0.0
 30
0.0
  0
VERTEX
  5
32F
330
32E
100
AcDbEntity
  8
DIBUJOS
 62
     7
100
AcDbVertex
100
AcDb2dVertex
 10
84.98444003818658
 20
45.16181860583679
 30
0.0
  0
VERTEX
  5
330
330
32E
100
AcDbEntity
  8
DIBUJOS
 62
     7
100
AcDbVertex
100
AcDb2dVertex
 10
84.9788150189464
 20
45.16181860583679
 30
0.0
  0
SEQEND
  5
331
330
32E
100
AcDbEntity
  8
DIBUJOS
 62
     7
  0
POLYLINE
  5
332
330
318
100
AcDbEntity
  8
DIBUJOS
 62
     7
100
AcDb2dPolyline
 66
     1
 10
0.0
 20
0.0
 30
0.0
  0
VERTEX
  5
333
330
332
100
AcDbEntity
  8
DIBUJOS
 62
     7
100
AcDbVertex
100
AcDb2dVertex
 10
79.87770970772947
 20
45.15619546985978
 30
0.0
  0
VERTEX
  5
334
330
332
100
AcDbEntity
  8
DIBUJOS
 62
     7
100
AcDbVertex
100
AcDb2dVertex
 10
79.87770970772947
 20
45.16181860583679
 30
0.0
  0
SEQEND
  5
335
330
332
100
AcDbEntity
  8
DIBUJOS
 62
     7
  0
POLYLINE
  5
336
330
318
100
AcDbEntity
  8
DIBUJOS
 62
     7
100
AcDb2dPolyline
 66
     1
 10
0.0
 20
0.0
 30
0.0
  0
VERTEX
  5
337
330
336
100
AcDbEntity
  8
DIBUJOS
 62
     7
100
AcDbVertex
100
AcDb2dVertex
 10
84.9788150189464
 20
45.15619546985978
 30
0.0
  0
VERTEX
  5
338
330
336
100
AcDbEntity
  8
DIBUJOS
 62
     7
100
AcDbVertex
100
AcDb2dVertex
 10
84.9788150189464
 20
45.16181860583679
 30
0.0
  0
SEQEND
  5
339
330
336
100
AcDbEntity
  8
DIBUJOS
 62
     7
  0
POLYLINE
  5
33A
330
318
100
AcDbEntity
  8
DIBUJOS
 62
     7
100
AcDb2dPolyline
 66
     1
 10
0.0
 20
0.0
 30
0.0
  0
VERTEX
  5
33B
330
33A
100
AcDbEntity
  8
DIBUJOS
 62
     7
100
AcDbVertex
100
AcDb2dVertex
 10
84.84945774118351
 20
45.0549941545034
 30
0.0
  0
VERTEX
  5
33C
330
33A
100
AcDbEntity
  8
DIBUJOS
 62
     7
100
AcDbVertex
100
AcDb2dVertex
 10
84.84552204419033
 20
45.06118020936692
 30
0.0
  0
VERTEX
  5
33D
330
33A
100
AcDbEntity
  8
DIBUJOS
 62
     7
100
AcDbVertex
100
AcDb2dVertex
 10
84.8382077027032
 20
45.09435005345081
 30
0.0
  0
VERTEX
  5
33E
330
33A
100
AcDbEntity
  8
DIBUJOS
 62
     7
100
AcDbVertex
100
AcDb2dVertex
 10
84.84383272194336
 20
45.1168395709127
 30
0.0
  0
SEQEND
  5
33F
330
33A
100
AcDbEntity
  8
DIBUJOS
 62
     7
  0
POLYLINE
  5
340
330
318
100
AcDbEntity
  8
DIBUJOS
 62
     7
100
AcDb2dPolyline
 66
     1
 10
0.0
 20
0.0
 30
0.0
  0
VERTEX
  5
341
330
340
100
AcDbEntity
  8
DIBUJOS
 62
     7
100
AcDbVertex
100
AcDb2dVertex
 10
80.1082991670551
 20
44.9987718740708
 30
0.0
  0
VERTEX
  5
342
330
340
100
AcDbEntity
  8
DIBUJOS
 62
     7
100
AcDbVertex
100
AcDb2dVertex
 10
80.11392418629525
 20
45.0043950100478
 30
0.0
  0
SEQEND
  5
343
330
340
100
AcDbEntity
  8
DIBUJOS
 62
     7
  0
POLYLINE
  5
344
330
318
100
AcDbEntity
  8
DIBUJOS
 62
     7
100
AcDb2dPolyline
 66
     1
 10
0.0
 20
0.0
 30
0.0
  0
VERTEX
  5
345
330
344
100
AcDbEntity
  8
DIBUJOS
 62
     7
100
AcDbVertex
100
AcDb2dVertex
 10
79.88333472696898
 20
43.9080529755019
 30
0.0
  0
VERTEX
  5
346
330
344
100
AcDbEntity
  8
DIBUJOS
 62
     7
100
AcDbVertex
100
AcDb2dVertex
 10
79.90329173817973
 20
44.11068561608297
 30
0.0
  0
VERTEX
  5
347
330
344
100
AcDbEntity
  8
DIBUJOS
 62
     7
100
AcDbVertex
100
AcDb2dVertex
 10
79.99255334596766
 20
45.02092545606833
 30
0.0
  0
VERTEX
  5
348
330
344
100
AcDbEntity
  8
DIBUJOS
 62
     7
100
AcDbVertex
100
AcDb2dVertex
 10
79.99711269956079
 20
45.0316421000373
 30
0.0
  0
VERTEX
  5
349
330
344
100
AcDbEntity
  8
DIBUJOS
 62
     7
100
AcDbVertex
100
AcDb2dVertex
 10
80.01831096905327
 20
45.07748367196561
 30
0.0
  0
VERTEX
  5
34A
330
344
100
AcDbEntity
  8
DIBUJOS
 62
     7
100
AcDbVertex
100
AcDb2dVertex
 10
80.01831096905327
 20
45.10559632540451
 30
0.0
  0
VERTEX
  5
34B
330
344
100
AcDbEntity
  8
DIBUJOS
 62
     7
100
AcDbVertex
100
AcDb2dVertex
 10
80.01268594981374
 20
45.11121643493569
 30
0.0
  0
SEQEND
  5
34C
330
344
100
AcDbEntity
  8
DIBUJOS
 62
     7
  0
POLYLINE
  5
34D
330
318
100
AcDbEntity
  8
DIBUJOS
 62
     7
100
AcDb2dPolyline
 66
     1
 10
0.0
 20
0.0
 30
0.0
  0
VERTEX
  5
34E
330
34D
100
AcDbEntity
  8
DIBUJOS
 62
     7
100
AcDbVertex
100
AcDb2dVertex
 10
79.8889597462085
 20
43.9024298395249
 30
0.0
  0
VERTEX
  5
34F
330
34D
100
AcDbEntity
  8
DIBUJOS
 62
     7
100
AcDbVertex
100
AcDb2dVertex
 10
79.88333472696898
 20
43.9080529755019
 30
0.0
  0
SEQEND
  5
350
330
34D
100
AcDbEntity
  8
DIBUJOS
 62
     7
  0
POLYLINE
  5
351
330
318
100
AcDbEntity
  8
DIBUJOS
 62
     7
100
AcDb2dPolyline
 66
     1
 10
0.0
 20
0.0
 30
0.0
  0
VERTEX
  5
352
330
351
100
AcDbEntity
  8
DIBUJOS
 62
     7
100
AcDbVertex
100
AcDb2dVertex
 10
84.84945774118351
 20
43.874317186086
 30
0.0
  0
VERTEX
  5
353
330
351
100
AcDbEntity
  8
DIBUJOS
 62
     7
100
AcDbVertex
100
AcDb2dVertex
 10
84.86576969148727
 20
43.88668626936786
 30
0.0
  0
VERTEX
  5
354
330
351
100
AcDbEntity
  8
DIBUJOS
 62
     7
100
AcDbVertex
100
AcDb2dVertex
 10
84.93420237980779
 20
43.9001509259671
 30
0.0
  0
VERTEX
  5
355
330
351
100
AcDbEntity
  8
DIBUJOS
 62
     7
100
AcDbVertex
100
AcDb2dVertex
 10
84.96193996122658
 20
43.9024298395249
 30
0.0
  0
VERTEX
  5
356
330
351
100
AcDbEntity
  8
DIBUJOS
 62
     7
100
AcDbVertex
100
AcDb2dVertex
 10
84.97318999970625
 20
43.91367308503309
 30
0.0
  0
VERTEX
  5
357
330
351
100
AcDbEntity
  8
DIBUJOS
 62
     7
100
AcDbVertex
100
AcDb2dVertex
 10
84.88570853794235
 20
44.83597633729225
 30
0.0
  0
VERTEX
  5
358
330
351
100
AcDbEntity
  8
DIBUJOS
 62
     7
100
AcDbVertex
100
AcDb2dVertex
 10
84.8607077796632
 20
45.0325046370412
 30
0.0
  0
SEQEND
  5
359
330
351
100
AcDbEntity
  8
DIBUJOS
 62
     7
  0
POLYLINE
  5
35A
330
318
100
AcDbEntity
  8
DIBUJOS
 62
     7
100
AcDb2dPolyline
 66
     1
 10
0.0
 20
0.0
 30
0.0
  0
VERTEX
  5
35B
330
35A
100
AcDbEntity
  8
DIBUJOS
 62
     7
100
AcDbVertex
100
AcDb2dVertex
 10
80.01831096905327
 20
43.86869707655482
 30
0.0
  0
VERTEX
  5
35C
330
35A
100
AcDbEntity
  8
DIBUJOS
 62
     7
100
AcDbVertex
100
AcDb2dVertex
 10
79.9907550351886
 20
43.88724918825469
 30
0.0
  0
VERTEX
  5
35D
330
35A
100
AcDbEntity
  8
DIBUJOS
 62
     7
100
AcDbVertex
100
AcDb2dVertex
 10
79.92297627806059
 20
43.89927628318024
 30
0.0
  0
VERTEX
  5
35E
330
35A
100
AcDbEntity
  8
DIBUJOS
 62
     7
100
AcDbVertex
100
AcDb2dVertex
 10
79.8889597462085
 20
43.9024298395249
 30
0.0
  0
SEQEND
  5
35F
330
35A
100
AcDbEntity
  8
DIBUJOS
 62
     7
  0
POLYLINE
  5
360
330
318
100
AcDbEntity
  8
DIBUJOS
 62
     7
100
AcDb2dPolyline
 66
     1
 10
0.0
 20
0.0
 30
0.0
  0
VERTEX
  5
361
330
360
100
AcDbEntity
  8
DIBUJOS
 62
     7
100
AcDbVertex
100
AcDb2dVertex
 10
79.87208468848931
 20
43.8068516601452
 30
0.0
  0
VERTEX
  5
362
330
360
100
AcDbEntity
  8
DIBUJOS
 62
     7
100
AcDbVertex
100
AcDb2dVertex
 10
79.87770970772947
 20
43.82371804163072
 30
0.0
  0
SEQEND
  5
363
330
360
100
AcDbEntity
  8
DIBUJOS
 62
     7
  0
POLYLINE
  5
364
330
318
100
AcDbEntity
  8
DIBUJOS
 62
     7
100
AcDb2dPolyline
 66
     1
 10
0.0
 20
0.0
 30
0.0
  0
VERTEX
  5
365
330
364
100
AcDbEntity
  8
DIBUJOS
 62
     7
100
AcDbVertex
100
AcDb2dVertex
 10
84.9788150189464
 20
43.8068516601452
 30
0.0
  0
VERTEX
  5
366
330
364
100
AcDbEntity
  8
DIBUJOS
 62
     7
100
AcDbVertex
100
AcDb2dVertex
 10
84.9788150189464
 20
43.82371804163072
 30
0.0
  0
SEQEND
  5
367
330
364
100
AcDbEntity
  8
DIBUJOS
 62
     7
  0
POLYLINE
  5
368
330
318
100
AcDbEntity
  8
DIBUJOS
 62
     7
100
AcDb2dPolyline
 66
     1
 10
0.0
 20
0.0
 30
0.0
  0
VERTEX
  5
369
330
368
100
AcDbEntity
  8
DIBUJOS
 62
     7
100
AcDbVertex
100
AcDb2dVertex
 10
79.81022158668699
 20
43.08157909760988
 30
0.0
  0
VERTEX
  5
36A
330
368
100
AcDbEntity
  8
DIBUJOS
 62
     7
100
AcDbVertex
100
AcDb2dVertex
 10
79.81330959509667
 20
43.10992176091644
 30
0.0
  0
VERTEX
  5
36B
330
368
100
AcDbEntity
  8
DIBUJOS
 62
     7
100
AcDbVertex
100
AcDb2dVertex
 10
79.87208468848931
 20
43.73376299822772
 30
0.0
  0
VERTEX
  5
36C
330
368
100
AcDbEntity
  8
DIBUJOS
 62
     7
100
AcDbVertex
100
AcDb2dVertex
 10
79.87770970772947
 20
43.73938310775922
 30
0.0
  0
VERTEX
  5
36D
330
368
100
AcDbEntity
  8
DIBUJOS
 62
     7
100
AcDbVertex
100
AcDb2dVertex
 10
79.90582874901021
 20
43.73938310775922
 30
0.0
  0
SEQEND
  5
36E
330
368
100
AcDbEntity
  8
DIBUJOS
 62
     7
  0
POLYLINE
  5
36F
330
318
100
AcDbEntity
  8
DIBUJOS
 62
     7
100
AcDb2dPolyline
 66
     1
 10
0.0
 20
0.0
 30
0.0
  0
VERTEX
  5
370
330
36F
100
AcDbEntity
  8
DIBUJOS
 62
     7
100
AcDbVertex
100
AcDb2dVertex
 10
85.04630313998824
 20
43.08157909760988
 30
0.0
  0
VERTEX
  5
371
330
36F
100
AcDbEntity
  8
DIBUJOS
 62
     7
100
AcDbVertex
100
AcDb2dVertex
 10
85.04374190948396
 20
43.14320963637966
 30
0.0
  0
VERTEX
  5
372
330
36F
100
AcDbEntity
  8
DIBUJOS
 62
     7
100
AcDbVertex
100
AcDb2dVertex
 10
84.98444003818658
 20
43.73938310775922
 30
0.0
  0
VERTEX
  5
373
330
36F
100
AcDbEntity
  8
DIBUJOS
 62
     7
100
AcDbVertex
100
AcDb2dVertex
 10
84.9450709584255
 20
43.73938310775922
 30
0.0
  0
SEQEND
  5
374
330
36F
100
AcDbEntity
  8
DIBUJOS
 62
     7
  0
POLYLINE
  5
375
330
318
100
AcDbEntity
  8
DIBUJOS
 62
     7
100
AcDb2dPolyline
 66
     1
 10
0.0
 20
0.0
 30
0.0
  0
VERTEX
  5
376
330
375
100
AcDbEntity
  8
DIBUJOS
 62
     7
100
AcDbVertex
100
AcDb2dVertex
 10
79.64711722094349
 20
43.0759559616332
 30
0.0
  0
VERTEX
  5
377
330
375
100
AcDbEntity
  8
DIBUJOS
 62
     7
100
AcDbVertex
100
AcDb2dVertex
 10
79.67212100668235
 20
43.37368557673884
 30
0.0
  0
VERTEX
  5
378
330
375
100
AcDbEntity
  8
DIBUJOS
 62
     7
100
AcDbVertex
100
AcDb2dVertex
 10
79.83035419053309
 20
45.01597721746649
 30
0.0
  0
VERTEX
  5
379
330
375
100
AcDbEntity
  8
DIBUJOS
 62
     7
100
AcDbVertex
100
AcDb2dVertex
 10
79.83507702692401
 20
45.04903508306172
 30
0.0
  0
VERTEX
  5
37A
330
375
100
AcDbEntity
  8
DIBUJOS
 62
     7
100
AcDbVertex
100
AcDb2dVertex
 10
79.85352636344062
 20
45.12302562577685
 30
0.0
  0
VERTEX
  5
37B
330
375
100
AcDbEntity
  8
DIBUJOS
 62
     7
100
AcDbVertex
100
AcDb2dVertex
 10
79.87770970772947
 20
45.15619546985978
 30
0.0
  0
SEQEND
  5
37C
330
375
100
AcDbEntity
  8
DIBUJOS
 62
     7
  0
POLYLINE
  5
37D
330
318
100
AcDbEntity
  8
DIBUJOS
 62
     7
100
AcDb2dPolyline
 66
     1
 10
0.0
 20
0.0
 30
0.0
  0
VERTEX
  5
37E
330
37D
100
AcDbEntity
  8
DIBUJOS
 62
     7
100
AcDbVertex
100
AcDb2dVertex
 10
79.81022158668699
 20
43.0759559616332
 30
0.0
  0
VERTEX
  5
37F
330
37D
100
AcDbEntity
  8
DIBUJOS
 62
     7
100
AcDbVertex
100
AcDb2dVertex
 10
79.81022158668699
 20
43.08157909760988
 30
0.0
  0
SEQEND
  5
380
330
37D
100
AcDbEntity
  8
DIBUJOS
 62
     7
  0
POLYLINE
  5
381
330
318
100
AcDbEntity
  8
DIBUJOS
 62
     7
100
AcDb2dPolyline
 66
     1
 10
0.0
 20
0.0
 30
0.0
  0
VERTEX
  5
382
330
381
100
AcDbEntity
  8
DIBUJOS
 62
     7
100
AcDbVertex
100
AcDb2dVertex
 10
79.81584055100839
 20
43.0759559616332
 30
0.0
  0
VERTEX
  5
383
330
381
100
AcDbEntity
  8
DIBUJOS
 62
     7
100
AcDbVertex
100
AcDb2dVertex
 10
79.81022158668699
 20
43.0759559616332
 30
0.0
  0
SEQEND
  5
384
330
381
100
AcDbEntity
  8
DIBUJOS
 62
     7
  0
POLYLINE
  5
385
330
318
100
AcDbEntity
  8
DIBUJOS
 62
     7
100
AcDb2dPolyline
 66
     1
 10
0.0
 20
0.0
 30
0.0
  0
VERTEX
  5
386
330
385
100
AcDbEntity
  8
DIBUJOS
 62
     7
100
AcDbVertex
100
AcDb2dVertex
 10
85.04630313998824
 20
43.0759559616332
 30
0.0
  0
VERTEX
  5
387
330
385
100
AcDbEntity
  8
DIBUJOS
 62
     7
100
AcDbVertex
100
AcDb2dVertex
 10
85.04067812074872
 20
43.0759559616332
 30
0.0
  0
SEQEND
  5
388
330
385
100
AcDbEntity
  8
DIBUJOS
 62
     7
  0
POLYLINE
  5
389
330
318
100
AcDbEntity
  8
DIBUJOS
 62
     7
100
AcDb2dPolyline
 66
     1
 10
0.0
 20
0.0
 30
0.0
  0
VERTEX
  5
38A
330
389
100
AcDbEntity
  8
DIBUJOS
 62
     7
100
AcDbVertex
100
AcDb2dVertex
 10
85.04630313998824
 20
43.0759559616332
 30
0.0
  0
VERTEX
  5
38B
330
389
100
AcDbEntity
  8
DIBUJOS
 62
     7
100
AcDbVertex
100
AcDb2dVertex
 10
85.04630313998824
 20
43.08157909760988
 30
0.0
  0
SEQEND
  5
38C
330
389
100
AcDbEntity
  8
DIBUJOS
 62
     7
  0
POLYLINE
  5
38D
330
318
100
AcDbEntity
  8
DIBUJOS
 62
     7
100
AcDb2dPolyline
 66
     1
 10
0.0
 20
0.0
 30
0.0
  0
VERTEX
  5
38E
330
38D
100
AcDbEntity
  8
DIBUJOS
 62
     7
100
AcDbVertex
100
AcDb2dVertex
 10
85.20940447827269
 20
43.0759559616332
 30
0.0
  0
VERTEX
  5
38F
330
38D
100
AcDbEntity
  8
DIBUJOS
 62
     7
100
AcDbVertex
100
AcDb2dVertex
 10
85.21502949751284
 20
43.08157909760988
 30
0.0
  0
VERTEX
  5
390
330
38D
100
AcDbEntity
  8
DIBUJOS
 62
     7
100
AcDbVertex
100
AcDb2dVertex
 10
85.19503615679076
 20
43.2729866513564
 30
0.0
  0
VERTEX
  5
391
330
38D
100
AcDbEntity
  8
DIBUJOS
 62
     7
100
AcDbVertex
100
AcDb2dVertex
 10
85.02144769975186
 20
45.05465821903841
 30
0.0
  0
VERTEX
  5
392
330
38D
100
AcDbEntity
  8
DIBUJOS
 62
     7
100
AcDbVertex
100
AcDb2dVertex
 10
85.01602249282084
 20
45.08267402621744
 30
0.0
  0
VERTEX
  5
393
330
38D
100
AcDbEntity
  8
DIBUJOS
 62
     7
100
AcDbVertex
100
AcDb2dVertex
 10
84.99871753589079
 20
45.13197785194428
 30
0.0
  0
VERTEX
  5
394
330
38D
100
AcDbEntity
  8
DIBUJOS
 62
     7
100
AcDbVertex
100
AcDb2dVertex
 10
84.9788150189464
 20
45.15619546985978
 30
0.0
  0
SEQEND
  5
395
330
38D
100
AcDbEntity
  8
DIBUJOS
 62
     7
  0
POLYLINE
  5
396
330
318
100
AcDbEntity
  8
DIBUJOS
 62
     7
100
AcDb2dPolyline
 66
     1
 10
0.0
 20
0.0
 30
0.0
  0
VERTEX
  5
397
330
396
100
AcDbEntity
  8
DIBUJOS
 62
     7
100
AcDbVertex
100
AcDb2dVertex
 10
79.64711722094349
 20
43.07033282565587
 30
0.0
  0
VERTEX
  5
398
330
396
100
AcDbEntity
  8
DIBUJOS
 62
     7
100
AcDbVertex
100
AcDb2dVertex
 10
79.64711722094349
 20
43.0759559616332
 30
0.0
  0
SEQEND
  5
399
330
396
100
AcDbEntity
  8
DIBUJOS
 62
     7
  0
POLYLINE
  5
39A
330
318
100
AcDbEntity
  8
DIBUJOS
 62
     7
100
AcDb2dPolyline
 66
     1
 10
0.0
 20
0.0
 30
0.0
  0
VERTEX
  5
39B
330
39A
100
AcDbEntity
  8
DIBUJOS
 62
     7
100
AcDbVertex
100
AcDb2dVertex
 10
79.652742240183
 20
43.07033282565587
 30
0.0
  0
VERTEX
  5
39C
330
39A
100
AcDbEntity
  8
DIBUJOS
 62
     7
100
AcDbVertex
100
AcDb2dVertex
 10
79.64711722094349
 20
43.07033282565587
 30
0.0
  0
SEQEND
  5
39D
330
39A
100
AcDbEntity
  8
DIBUJOS
 62
     7
  0
POLYLINE
  5
39E
330
318
100
AcDbEntity
  8
DIBUJOS
 62
     7
100
AcDb2dPolyline
 66
     1
 10
0.0
 20
0.0
 30
0.0
  0
VERTEX
  5
39F
330
39E
100
AcDbEntity
  8
DIBUJOS
 62
     7
100
AcDbVertex
100
AcDb2dVertex
 10
79.81022158668699
 20
43.07033282565587
 30
0.0
  0
VERTEX
  5
3A0
330
39E
100
AcDbEntity
  8
DIBUJOS
 62
     7
100
AcDbVertex
100
AcDb2dVertex
 10
79.81022158668699
 20
43.0759559616332
 30
0.0
  0
SEQEND
  5
3A1
330
39E
100
AcDbEntity
  8
DIBUJOS
 62
     7
  0
POLYLINE
  5
3A2
330
318
100
AcDbEntity
  8
DIBUJOS
 62
     7
100
AcDb2dPolyline
 66
     1
 10
0.0
 20
0.0
 30
0.0
  0
VERTEX
  5
3A3
330
3A2
100
AcDbEntity
  8
DIBUJOS
 62
     7
100
AcDbVertex
100
AcDb2dVertex
 10
85.04630313998824
 20
43.07033282565587
 30
0.0
  0
VERTEX
  5
3A4
330
3A2
100
AcDbEntity
  8
DIBUJOS
 62
     7
100
AcDbVertex
100
AcDb2dVertex
 10
85.04630313998824
 20
43.0759559616332
 30
0.0
  0
SEQEND
  5
3A5
330
3A2
100
AcDbEntity
  8
DIBUJOS
 62
     7
  0
POLYLINE
  5
3A6
330
318
100
AcDbEntity
  8
DIBUJOS
 62
     7
100
AcDb2dPolyline
 66
     1
 10
0.0
 20
0.0
 30
0.0
  0
VERTEX
  5
3A7
330
3A6
100
AcDbEntity
  8
DIBUJOS
 62
     7
100
AcDbVertex
100
AcDb2dVertex
 10
85.20940447827269
 20
43.07033282565587
 30
0.0
  0
VERTEX
  5
3A8
330
3A6
100
AcDbEntity
  8
DIBUJOS
 62
     7
100
AcDbVertex
100
AcDb2dVertex
 10
85.20377945903317
 20
43.07033282565587
 30
0.0
  0
SEQEND
  5
3A9
330
3A6
100
AcDbEntity
  8
DIBUJOS
 62
     7
  0
POLYLINE
  5
3AA
330
318
100
AcDbEntity
  8
DIBUJOS
 62
     7
100
AcDb2dPolyline
 66
     1
 10
0.0
 20
0.0
 30
0.0
  0
VERTEX
  5
3AB
330
3AA
100
AcDbEntity
  8
DIBUJOS
 62
     7
100
AcDbVertex
100
AcDb2dVertex
 10
85.20940447827269
 20
43.07033282565587
 30
0.0
  0
VERTEX
  5
3AC
330
3AA
100
AcDbEntity
  8
DIBUJOS
 62
     7
100
AcDbVertex
100
AcDb2dVertex
 10
85.20940447827269
 20
43.0759559616332
 30
0.0
  0
SEQEND
  5
3AD
330
3AA
100
AcDbEntity
  8
DIBUJOS
 62
     7
  0
POLYLINE
  5
3AE
330
318
100
AcDbEntity
  8
DIBUJOS
 62
     7
100
AcDb2dPolyline
 66
     1
 10
0.0
 20
0.0
 30
0.0
  0
VERTEX
  5
3AF
330
3AE
100
AcDbEntity
  8
DIBUJOS
 62
     7
100
AcDbVertex
100
AcDb2dVertex
 10
79.64711722094349
 20
43.064712716125
 30
0.0
  0
VERTEX
  5
3B0
330
3AE
100
AcDbEntity
  8
DIBUJOS
 62
     7
100
AcDbVertex
100
AcDb2dVertex
 10
79.64711722094349
 20
43.07033282565587
 30
0.0
  0
SEQEND
  5
3B1
330
3AE
100
AcDbEntity
  8
DIBUJOS
 62
     7
  0
POLYLINE
  5
3B2
330
318
100
AcDbEntity
  8
DIBUJOS
 62
     7
100
AcDb2dPolyline
 66
     1
 10
0.0
 20
0.0
 30
0.0
  0
VERTEX
  5
3B3
330
3B2
100
AcDbEntity
  8
DIBUJOS
 62
     7
100
AcDbVertex
100
AcDb2dVertex
 10
79.96769185081315
 20
43.064712716125
 30
0.0
  0
VERTEX
  5
3B4
330
3B2
100
AcDbEntity
  8
DIBUJOS
 62
     7
100
AcDbVertex
100
AcDb2dVertex
 10
79.97115526416603
 20
43.07076560738105
 30
0.0
  0
VERTEX
  5
3B5
330
3B2
100
AcDbEntity
  8
DIBUJOS
 62
     7
100
AcDbVertex
100
AcDb2dVertex
 10
79.98202989770188
 20
43.16614404134904
 30
0.0
  0
VERTEX
  5
3B6
330
3B2
100
AcDbEntity
  8
DIBUJOS
 62
     7
100
AcDbVertex
100
AcDb2dVertex
 10
79.98710391936284
 20
43.22190630204601
 30
0.0
  0
VERTEX
  5
3B7
330
3B2
100
AcDbEntity
  8
DIBUJOS
 62
     7
100
AcDbVertex
100
AcDb2dVertex
 10
80.08879021981022
 20
44.4310772560514
 30
0.0
  0
VERTEX
  5
3B8
330
3B2
100
AcDbEntity
  8
DIBUJOS
 62
     7
100
AcDbVertex
100
AcDb2dVertex
 10
80.09406405377969
 20
44.52072360199989
 30
0.0
  0
VERTEX
  5
3B9
330
3B2
100
AcDbEntity
  8
DIBUJOS
 62
     7
100
AcDbVertex
100
AcDb2dVertex
 10
80.1055502340792
 20
44.75145376379202
 30
0.0
  0
VERTEX
  5
3BA
330
3B2
100
AcDbEntity
  8
DIBUJOS
 62
     7
100
AcDbVertex
100
AcDb2dVertex
 10
80.1082991670551
 20
44.9987718740708
 30
0.0
  0
SEQEND
  5
3BB
330
3B2
100
AcDbEntity
  8
DIBUJOS
 62
     7
  0
POLYLINE
  5
3BC
330
318
100
AcDbEntity
  8
DIBUJOS
 62
     7
100
AcDb2dPolyline
 66
     1
 10
0.0
 20
0.0
 30
0.0
  0
VERTEX
  5
3BD
330
3BC
100
AcDbEntity
  8
DIBUJOS
 62
     7
100
AcDbVertex
100
AcDb2dVertex
 10
84.88882682094459
 20
43.064712716125
 30
0.0
  0
VERTEX
  5
3BE
330
3BC
100
AcDbEntity
  8
DIBUJOS
 62
     7
100
AcDbVertex
100
AcDb2dVertex
 10
84.8807798343248
 20
43.10938608004039
 30
0.0
  0
VERTEX
  5
3BF
330
3BC
100
AcDbEntity
  8
DIBUJOS
 62
     7
100
AcDbVertex
100
AcDb2dVertex
 10
84.77372887613089
 20
44.35203860202938
 30
0.0
  0
VERTEX
  5
3C0
330
3BC
100
AcDbEntity
  8
DIBUJOS
 62
     7
100
AcDbVertex
100
AcDb2dVertex
 10
84.76809174705383
 20
44.44200272476889
 30
0.0
  0
VERTEX
  5
3C1
330
3BC
100
AcDbEntity
  8
DIBUJOS
 62
     7
100
AcDbVertex
100
AcDb2dVertex
 10
84.7509684376779
 20
44.7739463076994
 30
0.0
  0
VERTEX
  5
3C2
330
3BC
100
AcDbEntity
  8
DIBUJOS
 62
     7
100
AcDbVertex
100
AcDb2dVertex
 10
84.74822555962014
 20
45.0043950100478
 30
0.0
  0
VERTEX
  5
3C3
330
3BC
100
AcDbEntity
  8
DIBUJOS
 62
     7
100
AcDbVertex
100
AcDb2dVertex
 10
84.73697552113983
 20
45.015638255556
 30
0.0
  0
VERTEX
  5
3C4
330
3BC
100
AcDbEntity
  8
DIBUJOS
 62
     7
100
AcDbVertex
100
AcDb2dVertex
 10
80.5582280472286
 20
45.01001814602481
 30
0.0
  0
VERTEX
  5
3C5
330
3BC
100
AcDbEntity
  8
DIBUJOS
 62
     7
100
AcDbVertex
100
AcDb2dVertex
 10
80.11392418629525
 20
45.0043950100478
 30
0.0
  0
SEQEND
  5
3C6
330
3BC
100
AcDbEntity
  8
DIBUJOS
 62
     7
  0
POLYLINE
  5
3C7
330
318
100
AcDbEntity
  8
DIBUJOS
 62
     7
100
AcDb2dPolyline
 66
     1
 10
0.0
 20
0.0
 30
0.0
  0
VERTEX
  5
3C8
330
3C7
100
AcDbEntity
  8
DIBUJOS
 62
     7
100
AcDbVertex
100
AcDb2dVertex
 10
84.8944518401841
 20
43.064712716125
 30
0.0
  0
VERTEX
  5
3C9
330
3C7
100
AcDbEntity
  8
DIBUJOS
 62
     7
100
AcDbVertex
100
AcDb2dVertex
 10
84.88882682094459
 20
43.064712716125
 30
0.0
  0
SEQEND
  5
3CA
330
3C7
100
AcDbEntity
  8
DIBUJOS
 62
     7
  0
POLYLINE
  5
3CB
330
318
100
AcDbEntity
  8
DIBUJOS
 62
     7
100
AcDb2dPolyline
 66
     1
 10
0.0
 20
0.0
 30
0.0
  0
VERTEX
  5
3CC
330
3CB
100
AcDbEntity
  8
DIBUJOS
 62
     7
100
AcDbVertex
100
AcDb2dVertex
 10
85.20940447827269
 20
43.064712716125
 30
0.0
  0
VERTEX
  5
3CD
330
3CB
100
AcDbEntity
  8
DIBUJOS
 62
     7
100
AcDbVertex
100
AcDb2dVertex
 10
85.20940447827269
 20
43.07033282565587
 30
0.0
  0
SEQEND
  5
3CE
330
3CB
100
AcDbEntity
  8
DIBUJOS
 62
     7
  0
POLYLINE
  5
3CF
330
318
100
AcDbEntity
  8
DIBUJOS
 62
     7
100
AcDb2dPolyline
 66
     1
 10
0.0
 20
0.0
 30
0.0
  0
VERTEX
  5
3D0
330
3CF
100
AcDbEntity
  8
DIBUJOS
 62
     7
100
AcDbVertex
100
AcDb2dVertex
 10
79.80459656744684
 20
43.05908958014768
 30
0.0
  0
VERTEX
  5
3D1
330
3CF
100
AcDbEntity
  8
DIBUJOS
 62
     7
100
AcDbVertex
100
AcDb2dVertex
 10
79.81022158668699
 20
43.07033282565587
 30
0.0
  0
SEQEND
  5
3D2
330
3CF
100
AcDbEntity
  8
DIBUJOS
 62
     7
  0
POLYLINE
  5
3D3
330
318
100
AcDbEntity
  8
DIBUJOS
 62
     7
100
AcDb2dPolyline
 66
     1
 10
0.0
 20
0.0
 30
0.0
  0
VERTEX
  5
3D4
330
3D3
100
AcDbEntity
  8
DIBUJOS
 62
     7
100
AcDbVertex
100
AcDb2dVertex
 10
79.96769185081315
 20
43.05908958014768
 30
0.0
  0
VERTEX
  5
3D5
330
3D3
100
AcDbEntity
  8
DIBUJOS
 62
     7
100
AcDbVertex
100
AcDb2dVertex
 10
79.96207288649113
 20
43.05908958014768
 30
0.0
  0
SEQEND
  5
3D6
330
3D3
100
AcDbEntity
  8
DIBUJOS
 62
     7
  0
POLYLINE
  5
3D7
330
318
100
AcDbEntity
  8
DIBUJOS
 62
     7
100
AcDb2dPolyline
 66
     1
 10
0.0
 20
0.0
 30
0.0
  0
VERTEX
  5
3D8
330
3D7
100
AcDbEntity
  8
DIBUJOS
 62
     7
100
AcDbVertex
100
AcDb2dVertex
 10
79.96769185081315
 20
43.05908958014768
 30
0.0
  0
VERTEX
  5
3D9
330
3D7
100
AcDbEntity
  8
DIBUJOS
 62
     7
100
AcDbVertex
100
AcDb2dVertex
 10
79.96769185081315
 20
43.064712716125
 30
0.0
  0
SEQEND
  5
3DA
330
3D7
100
AcDbEntity
  8
DIBUJOS
 62
     7
  0
POLYLINE
  5
3DB
330
318
100
AcDbEntity
  8
DIBUJOS
 62
     7
100
AcDb2dPolyline
 66
     1
 10
0.0
 20
0.0
 30
0.0
  0
VERTEX
  5
3DC
330
3DB
100
AcDbEntity
  8
DIBUJOS
 62
     7
100
AcDbVertex
100
AcDb2dVertex
 10
84.88882682094459
 20
43.05908958014768
 30
0.0
  0
VERTEX
  5
3DD
330
3DB
100
AcDbEntity
  8
DIBUJOS
 62
     7
100
AcDbVertex
100
AcDb2dVertex
 10
84.88882682094459
 20
43.064712716125
 30
0.0
  0
SEQEND
  5
3DE
330
3DB
100
AcDbEntity
  8
DIBUJOS
 62
     7
  0
POLYLINE
  5
3DF
330
318
100
AcDbEntity
  8
DIBUJOS
 62
     7
100
AcDb2dPolyline
 66
     1
 10
0.0
 20
0.0
 30
0.0
  0
VERTEX
  5
3E0
330
3DF
100
AcDbEntity
  8
DIBUJOS
 62
     7
100
AcDbVertex
100
AcDb2dVertex
 10
85.0519281592284
 20
43.05908958014768
 30
0.0
  0
VERTEX
  5
3E1
330
3DF
100
AcDbEntity
  8
DIBUJOS
 62
     7
100
AcDbVertex
100
AcDb2dVertex
 10
85.04630313998824
 20
43.07033282565587
 30
0.0
  0
SEQEND
  5
3E2
330
3DF
100
AcDbEntity
  8
DIBUJOS
 62
     7
  0
POLYLINE
  5
3E3
330
318
100
AcDbEntity
  8
DIBUJOS
 62
     7
100
AcDb2dPolyline
 66
     1
 10
0.0
 20
0.0
 30
0.0
  0
VERTEX
  5
3E4
330
3E3
100
AcDbEntity
  8
DIBUJOS
 62
     7
100
AcDbVertex
100
AcDb2dVertex
 10
85.05755317846855
 20
43.05908958014768
 30
0.0
  0
VERTEX
  5
3E5
330
3E3
100
AcDbEntity
  8
DIBUJOS
 62
     7
100
AcDbVertex
100
AcDb2dVertex
 10
85.0519281592284
 20
43.05908958014768
 30
0.0
  0
SEQEND
  5
3E6
330
3E3
100
AcDbEntity
  8
DIBUJOS
 62
     7
  0
POLYLINE
  5
3E7
330
318
100
AcDbEntity
  8
DIBUJOS
 62
     7
100
AcDb2dPolyline
 66
     1
 10
0.0
 20
0.0
 30
0.0
  0
VERTEX
  5
3E8
330
3E7
100
AcDbEntity
  8
DIBUJOS
 62
     7
100
AcDbVertex
100
AcDb2dVertex
 10
85.05755317846855
 20
43.05908958014768
 30
0.0
  0
VERTEX
  5
3E9
330
3E7
100
AcDbEntity
  8
DIBUJOS
 62
     7
100
AcDbVertex
100
AcDb2dVertex
 10
85.20377945903317
 20
43.07033282565587
 30
0.0
  0
SEQEND
  5
3EA
330
3E7
100
AcDbEntity
  8
DIBUJOS
 62
     7
  0
POLYLINE
  5
3EB
330
318
100
AcDbEntity
  8
DIBUJOS
 62
     7
100
AcDb2dPolyline
 66
     1
 10
0.0
 20
0.0
 30
0.0
  0
VERTEX
  5
3EC
330
3EB
100
AcDbEntity
  8
DIBUJOS
 62
     7
100
AcDbVertex
100
AcDb2dVertex
 10
79.79897154820668
 20
43.05346644417099
 30
0.0
  0
VERTEX
  5
3ED
330
3EB
100
AcDbEntity
  8
DIBUJOS
 62
     7
100
AcDbVertex
100
AcDb2dVertex
 10
79.652742240183
 20
43.07033282565587
 30
0.0
  0
SEQEND
  5
3EE
330
3EB
100
AcDbEntity
  8
DIBUJOS
 62
     7
  0
POLYLINE
  5
3EF
330
318
100
AcDbEntity
  8
DIBUJOS
 62
     7
100
AcDb2dPolyline
 66
     1
 10
0.0
 20
0.0
 30
0.0
  0
VERTEX
  5
3F0
330
3EF
100
AcDbEntity
  8
DIBUJOS
 62
     7
100
AcDbVertex
100
AcDb2dVertex
 10
79.80459656744684
 20
43.05346644417099
 30
0.0
  0
VERTEX
  5
3F1
330
3EF
100
AcDbEntity
  8
DIBUJOS
 62
     7
100
AcDbVertex
100
AcDb2dVertex
 10
79.79897154820668
 20
43.05346644417099
 30
0.0
  0
SEQEND
  5
3F2
330
3EF
100
AcDbEntity
  8
DIBUJOS
 62
     7
  0
POLYLINE
  5
3F3
330
318
100
AcDbEntity
  8
DIBUJOS
 62
     7
100
AcDb2dPolyline
 66
     1
 10
0.0
 20
0.0
 30
0.0
  0
VERTEX
  5
3F4
330
3F3
100
AcDbEntity
  8
DIBUJOS
 62
     7
100
AcDbVertex
100
AcDb2dVertex
 10
79.80459656744684
 20
43.05346644417099
 30
0.0
  0
VERTEX
  5
3F5
330
3F3
100
AcDbEntity
  8
DIBUJOS
 62
     7
100
AcDbVertex
100
AcDb2dVertex
 10
79.80459656744684
 20
43.05908958014768
 30
0.0
  0
SEQEND
  5
3F6
330
3F3
100
AcDbEntity
  8
DIBUJOS
 62
     7
  0
POLYLINE
  5
3F7
330
318
100
AcDbEntity
  8
DIBUJOS
 62
     7
100
AcDb2dPolyline
 66
     1
 10
0.0
 20
0.0
 30
0.0
  0
VERTEX
  5
3F8
330
3F7
100
AcDbEntity
  8
DIBUJOS
 62
     7
100
AcDbVertex
100
AcDb2dVertex
 10
79.96769185081315
 20
43.05346644417099
 30
0.0
  0
VERTEX
  5
3F9
330
3F7
100
AcDbEntity
  8
DIBUJOS
 62
     7
100
AcDbVertex
100
AcDb2dVertex
 10
79.96769185081315
 20
43.05908958014768
 30
0.0
  0
SEQEND
  5
3FA
330
3F7
100
AcDbEntity
  8
DIBUJOS
 62
     7
  0
POLYLINE
  5
3FB
330
318
100
AcDbEntity
  8
DIBUJOS
 62
     7
100
AcDb2dPolyline
 66
     1
 10
0.0
 20
0.0
 30
0.0
  0
VERTEX
  5
3FC
330
3FB
100
AcDbEntity
  8
DIBUJOS
 62
     7
100
AcDbVertex
100
AcDb2dVertex
 10
85.0519281592284
 20
43.05346644417099
 30
0.0
  0
VERTEX
  5
3FD
330
3FB
100
AcDbEntity
  8
DIBUJOS
 62
     7
100
AcDbVertex
100
AcDb2dVertex
 10
85.0519281592284
 20
43.05908958014768
 30
0.0
  0
SEQEND
  5
3FE
330
3FB
100
AcDbEntity
  8
DIBUJOS
 62
     7
  0
POLYLINE
  5
3FF
330
318
100
AcDbEntity
  8
DIBUJOS
 62
     7
100
AcDb2dPolyline
 66
     1
 10
0.0
 20
0.0
 30
0.0
  0
VERTEX
  5
400
330
3FF
100
AcDbEntity
  8
DIBUJOS
 62
     7
100
AcDbVertex
100
AcDb2dVertex
 10
79.81022158668699
 20
43.04784633463948
 30
0.0
  0
VERTEX
  5
401
330
3FF
100
AcDbEntity
  8
DIBUJOS
 62
     7
100
AcDbVertex
100
AcDb2dVertex
 10
79.80459656744684
 20
43.05346644417099
 30
0.0
  0
SEQEND
  5
402
330
3FF
100
AcDbEntity
  8
DIBUJOS
 62
     7
  0
POLYLINE
  5
403
330
318
100
AcDbEntity
  8
DIBUJOS
 62
     7
100
AcDb2dPolyline
 66
     1
 10
0.0
 20
0.0
 30
0.0
  0
VERTEX
  5
404
330
403
100
AcDbEntity
  8
DIBUJOS
 62
     7
100
AcDbVertex
100
AcDb2dVertex
 10
79.81584055100839
 20
43.0759559616332
 30
0.0
  0
VERTEX
  5
405
330
403
100
AcDbEntity
  8
DIBUJOS
 62
     7
100
AcDbVertex
100
AcDb2dVertex
 10
79.8501477189454
 20
43.06077531036235
 30
0.0
  0
VERTEX
  5
406
330
403
100
AcDbEntity
  8
DIBUJOS
 62
     7
100
AcDbVertex
100
AcDb2dVertex
 10
79.90582874901021
 20
43.04784633463948
 30
0.0
  0
VERTEX
  5
407
330
403
100
AcDbEntity
  8
DIBUJOS
 62
     7
100
AcDbVertex
100
AcDb2dVertex
 10
79.96207288649113
 20
43.05908958014768
 30
0.0
  0
SEQEND
  5
408
330
403
100
AcDbEntity
  8
DIBUJOS
 62
     7
  0
POLYLINE
  5
409
330
318
100
AcDbEntity
  8
DIBUJOS
 62
     7
100
AcDb2dPolyline
 66
     1
 10
0.0
 20
0.0
 30
0.0
  0
VERTEX
  5
40A
330
409
100
AcDbEntity
  8
DIBUJOS
 62
     7
100
AcDbVertex
100
AcDb2dVertex
 10
84.8944518401841
 20
43.064712716125
 30
0.0
  0
VERTEX
  5
40B
330
409
100
AcDbEntity
  8
DIBUJOS
 62
     7
100
AcDbVertex
100
AcDb2dVertex
 10
84.95069597766502
 20
43.04784633463948
 30
0.0
  0
VERTEX
  5
40C
330
409
100
AcDbEntity
  8
DIBUJOS
 62
     7
100
AcDbVertex
100
AcDb2dVertex
 10
84.99624712916356
 20
43.05740384993268
 30
0.0
  0
VERTEX
  5
40D
330
409
100
AcDbEntity
  8
DIBUJOS
 62
     7
100
AcDbVertex
100
AcDb2dVertex
 10
85.04067812074872
 20
43.0759559616332
 30
0.0
  0
SEQEND
  5
40E
330
409
100
AcDbEntity
  8
DIBUJOS
 62
     7
  0
POLYLINE
  5
40F
330
318
100
AcDbEntity
  8
DIBUJOS
 62
     7
100
AcDb2dPolyline
 66
     1
 10
0.0
 20
0.0
 30
0.0
  0
VERTEX
  5
410
330
40F
100
AcDbEntity
  8
DIBUJOS
 62
     7
100
AcDbVertex
100
AcDb2dVertex
 10
85.04630313998824
 20
43.04784633463948
 30
0.0
  0
VERTEX
  5
411
330
40F
100
AcDbEntity
  8
DIBUJOS
 62
     7
100
AcDbVertex
100
AcDb2dVertex
 10
85.0519281592284
 20
43.05346644417099
 30
0.0
  0
SEQEND
  5
412
330
40F
100
AcDbEntity
  8
DIBUJOS
 62
     7
  0
POLYLINE
  5
413
330
318
100
AcDbEntity
  8
DIBUJOS
 62
     7
100
AcDb2dPolyline
 66
     1
 10
0.0
 20
0.0
 30
0.0
  0
VERTEX
  5
414
330
413
100
AcDbEntity
  8
DIBUJOS
 62
     7
100
AcDbVertex
100
AcDb2dVertex
 10
79.81022158668699
 20
43.04784633463948
 30
0.0
  0
VERTEX
  5
415
330
413
100
AcDbEntity
  8
DIBUJOS
 62
     7
100
AcDbVertex
100
AcDb2dVertex
 10
79.84396564720791
 20
42.99724416373838
 30
0.0
  0
VERTEX
  5
416
330
413
100
AcDbEntity
  8
DIBUJOS
 62
     7
100
AcDbVertex
100
AcDb2dVertex
 10
79.84902755903198
 20
42.99612135241021
 30
0.0
  0
VERTEX
  5
417
330
413
100
AcDbEntity
  8
DIBUJOS
 62
     7
100
AcDbVertex
100
AcDb2dVertex
 10
79.87208468848931
 20
42.98600091823051
 30
0.0
  0
VERTEX
  5
418
330
413
100
AcDbEntity
  8
DIBUJOS
 62
     7
100
AcDbVertex
100
AcDb2dVertex
 10
79.93394779029161
 20
42.9916210277617
 30
0.0
  0
VERTEX
  5
419
330
413
100
AcDbEntity
  8
DIBUJOS
 62
     7
100
AcDbVertex
100
AcDb2dVertex
 10
79.96319304640453
 20
43.03041703426713
 30
0.0
  0
VERTEX
  5
41A
330
413
100
AcDbEntity
  8
DIBUJOS
 62
     7
100
AcDbVertex
100
AcDb2dVertex
 10
79.96769185081315
 20
43.05346644417099
 30
0.0
  0
SEQEND
  5
41B
330
413
100
AcDbEntity
  8
DIBUJOS
 62
     7
  0
POLYLINE
  5
41C
330
318
100
AcDbEntity
  8
DIBUJOS
 62
     7
100
AcDb2dPolyline
 66
     1
 10
0.0
 20
0.0
 30
0.0
  0
VERTEX
  5
41D
330
41C
100
AcDbEntity
  8
DIBUJOS
 62
     7
100
AcDbVertex
100
AcDb2dVertex
 10
84.88882682094459
 20
43.05908958014768
 30
0.0
  0
VERTEX
  5
41E
330
41C
100
AcDbEntity
  8
DIBUJOS
 62
     7
100
AcDbVertex
100
AcDb2dVertex
 10
84.89557805501627
 20
43.02591973606443
 30
0.0
  0
VERTEX
  5
41F
330
41C
100
AcDbEntity
  8
DIBUJOS
 62
     7
100
AcDbVertex
100
AcDb2dVertex
 10
84.9225708814655
 20
42.9916210277617
 30
0.0
  0
VERTEX
  5
420
330
41C
100
AcDbEntity
  8
DIBUJOS
 62
     7
100
AcDbVertex
100
AcDb2dVertex
 10
84.98444003818658
 20
42.98600091823051
 30
0.0
  0
VERTEX
  5
421
330
41C
100
AcDbEntity
  8
DIBUJOS
 62
     7
100
AcDbVertex
100
AcDb2dVertex
 10
85.00074593357157
 20
42.99330978442219
 30
0.0
  0
VERTEX
  5
422
330
41C
100
AcDbEntity
  8
DIBUJOS
 62
     7
100
AcDbVertex
100
AcDb2dVertex
 10
85.01255907946732
 20
42.99724416373838
 30
0.0
  0
VERTEX
  5
423
330
41C
100
AcDbEntity
  8
DIBUJOS
 62
     7
100
AcDbVertex
100
AcDb2dVertex
 10
85.04180433558025
 20
43.04166027977564
 30
0.0
  0
VERTEX
  5
424
330
41C
100
AcDbEntity
  8
DIBUJOS
 62
     7
100
AcDbVertex
100
AcDb2dVertex
 10
85.04630313998824
 20
43.04784633463948
 30
0.0
  0
SEQEND
  5
425
330
41C
100
AcDbEntity
  8
DIBUJOS
 62
     7
  0
POLYLINE
  5
426
330
318
100
AcDbEntity
  8
DIBUJOS
 62
     7
100
AcDb2dPolyline
 66
     1
 10
0.0
 20
0.0
 30
0.0
  0
VERTEX
  5
427
330
426
100
AcDbEntity
  8
DIBUJOS
 62
     7
100
AcDbVertex
100
AcDb2dVertex
 10
79.64711722094349
 20
43.064712716125
 30
0.0
  0
VERTEX
  5
428
330
426
100
AcDbEntity
  8
DIBUJOS
 62
     7
100
AcDbVertex
100
AcDb2dVertex
 10
79.64149522916303
 20
43.05908958014768
 30
0.0
  0
VERTEX
  5
429
330
426
100
AcDbEntity
  8
DIBUJOS
 62
     7
100
AcDbVertex
100
AcDb2dVertex
 10
79.64543092615493
 20
43.01917076231344
 30
0.0
  0
VERTEX
  5
42A
330
426
100
AcDbEntity
  8
DIBUJOS
 62
     7
100
AcDbVertex
100
AcDb2dVertex
 10
79.6488065431911
 20
43.00905032813373
 30
0.0
  0
VERTEX
  5
42B
330
426
100
AcDbEntity
  8
DIBUJOS
 62
     7
100
AcDbVertex
100
AcDb2dVertex
 10
79.66398925120426
 20
42.98600091823051
 30
0.0
  0
VERTEX
  5
42C
330
426
100
AcDbEntity
  8
DIBUJOS
 62
     7
100
AcDbVertex
100
AcDb2dVertex
 10
79.7371054189453
 20
42.97475464627649
 30
0.0
  0
VERTEX
  5
42D
330
426
100
AcDbEntity
  8
DIBUJOS
 62
     7
100
AcDbVertex
100
AcDb2dVertex
 10
79.76016254840263
 20
42.97869205203818
 30
0.0
  0
VERTEX
  5
42E
330
426
100
AcDbEntity
  8
DIBUJOS
 62
     7
100
AcDbVertex
100
AcDb2dVertex
 10
79.77084645200716
 20
42.98037778225318
 30
0.0
  0
VERTEX
  5
42F
330
426
100
AcDbEntity
  8
DIBUJOS
 62
     7
100
AcDbVertex
100
AcDb2dVertex
 10
79.78772150972765
 20
42.99724416373838
 30
0.0
  0
VERTEX
  5
430
330
426
100
AcDbEntity
  8
DIBUJOS
 62
     7
100
AcDbVertex
100
AcDb2dVertex
 10
79.8034703526153
 20
43.03716298157262
 30
0.0
  0
VERTEX
  5
431
330
426
100
AcDbEntity
  8
DIBUJOS
 62
     7
100
AcDbVertex
100
AcDb2dVertex
 10
79.81022158668699
 20
43.04784633463948
 30
0.0
  0
SEQEND
  5
432
330
426
100
AcDbEntity
  8
DIBUJOS
 62
     7
  0
POLYLINE
  5
433
330
318
100
AcDbEntity
  8
DIBUJOS
 62
     7
100
AcDb2dPolyline
 66
     1
 10
0.0
 20
0.0
 30
0.0
  0
VERTEX
  5
434
330
433
100
AcDbEntity
  8
DIBUJOS
 62
     7
100
AcDbVertex
100
AcDb2dVertex
 10
85.04630313998824
 20
43.04784633463948
 30
0.0
  0
VERTEX
  5
435
330
433
100
AcDbEntity
  8
DIBUJOS
 62
     7
100
AcDbVertex
100
AcDb2dVertex
 10
85.06148887546046
 20
43.01917076231344
 30
0.0
  0
VERTEX
  5
436
330
433
100
AcDbEntity
  8
DIBUJOS
 62
     7
100
AcDbVertex
100
AcDb2dVertex
 10
85.06880321694824
 20
42.99724416373838
 30
0.0
  0
VERTEX
  5
437
330
433
100
AcDbEntity
  8
DIBUJOS
 62
     7
100
AcDbVertex
100
AcDb2dVertex
 10
85.09692225822963
 20
42.97475464627649
 30
0.0
  0
VERTEX
  5
438
330
433
100
AcDbEntity
  8
DIBUJOS
 62
     7
100
AcDbVertex
100
AcDb2dVertex
 10
85.18184854440737
 20
42.98431216156969
 30
0.0
  0
VERTEX
  5
439
330
433
100
AcDbEntity
  8
DIBUJOS
 62
     7
100
AcDbVertex
100
AcDb2dVertex
 10
85.19252942055284
 20
42.98600091823051
 30
0.0
  0
VERTEX
  5
43A
330
433
100
AcDbEntity
  8
DIBUJOS
 62
     7
100
AcDbVertex
100
AcDb2dVertex
 10
85.21502949751284
 20
43.02535681717728
 30
0.0
  0
VERTEX
  5
43B
330
433
100
AcDbEntity
  8
DIBUJOS
 62
     7
100
AcDbVertex
100
AcDb2dVertex
 10
85.21502949751284
 20
43.05908958014768
 30
0.0
  0
VERTEX
  5
43C
330
433
100
AcDbEntity
  8
DIBUJOS
 62
     7
100
AcDbVertex
100
AcDb2dVertex
 10
85.20940447827269
 20
43.064712716125
 30
0.0
  0
SEQEND
  5
43D
330
433
100
AcDbEntity
  8
DIBUJOS
 62
     7
  0
POLYLINE
  5
43E
330
318
100
AcDbEntity
  8
DIBUJOS
 62
     7
100
AcDb2dPolyline
 66
     1
 10
0.0
 20
0.0
 30
0.0
  0
VERTEX
  5
43F
330
43E
100
AcDbEntity
  8
DIBUJOS
 62
     7
100
AcDbVertex
100
AcDb2dVertex
 10
79.6676254307758
 20
50.85717768123339
 30
0.0
  0
VERTEX
  5
440
330
43E
100
AcDbEntity
  8
DIBUJOS
 62
     7
100
AcDbVertex
100
AcDb2dVertex
 10
79.70501001101447
 20
50.98698496066642
 30
0.0
  0
VERTEX
  5
441
330
43E
100
AcDbEntity
  8
DIBUJOS
 62
     7
100
AcDbVertex
100
AcDb2dVertex
 10
79.77015790607588
 20
51.14304665592275
 30
0.0
  0
VERTEX
  5
442
330
43E
100
AcDbEntity
  8
DIBUJOS
 62
     7
100
AcDbVertex
100
AcDb2dVertex
 10
79.79005890929072
 20
51.17288740981525
 30
0.0
  0
VERTEX
  5
443
330
43E
100
AcDbEntity
  8
DIBUJOS
 62
     7
100
AcDbVertex
100
AcDb2dVertex
 10
79.8194774874447
 20
51.22262401726664
 30
0.0
  0
VERTEX
  5
444
330
43E
100
AcDbEntity
  8
DIBUJOS
 62
     7
100
AcDbVertex
100
AcDb2dVertex
 10
79.91422258075384
 20
51.30825426986689
 30
0.0
  0
VERTEX
  5
445
330
43E
100
AcDbEntity
  8
DIBUJOS
 62
     7
100
AcDbVertex
100
AcDb2dVertex
 10
80.03263332282428
 20
51.38117042438379
 30
0.0
  0
VERTEX
  5
446
330
43E
100
AcDbEntity
  8
DIBUJOS
 62
     7
100
AcDbVertex
100
AcDb2dVertex
 10
80.05655706248426
 20
51.39561564936658
 30
0.0
  0
VERTEX
  5
447
330
43E
100
AcDbEntity
  8
DIBUJOS
 62
     7
100
AcDbVertex
100
AcDb2dVertex
 10
80.1236781040953
 20
51.41741816367097
 30
0.0
  0
VERTEX
  5
448
330
43E
100
AcDbEntity
  8
DIBUJOS
 62
     7
100
AcDbVertex
100
AcDb2dVertex
 10
80.15636406761813
 20
51.42671237819472
 30
0.0
  0
VERTEX
  5
449
330
43E
100
AcDbEntity
  8
DIBUJOS
 62
     7
100
AcDbVertex
100
AcDb2dVertex
 10
80.34833374334147
 20
51.47865223806382
 30
0.0
  0
VERTEX
  5
44A
330
43E
100
AcDbEntity
  8
DIBUJOS
 62
     7
100
AcDbVertex
100
AcDb2dVertex
 10
80.42107601986821
 20
51.48384561876115
 30
0.0
  0
VERTEX
  5
44B
330
43E
100
AcDbEntity
  8
DIBUJOS
 62
     7
100
AcDbVertex
100
AcDb2dVertex
 10
80.53936944789415
 20
51.49249217392052
 30
0.0
  0
VERTEX
  5
44C
330
43E
100
AcDbEntity
  8
DIBUJOS
 62
     7
100
AcDbVertex
100
AcDb2dVertex
 10
80.75871113933438
 20
51.49249217392052
 30
0.0
  0
VERTEX
  5
44D
330
43E
100
AcDbEntity
  8
DIBUJOS
 62
     7
100
AcDbVertex
100
AcDb2dVertex
 10
81.25915620413532
 20
51.47292620293499
 30
0.0
  0
VERTEX
  5
44E
330
43E
100
AcDbEntity
  8
DIBUJOS
 62
     7
100
AcDbVertex
100
AcDb2dVertex
 10
81.68099934507843
 20
51.46164664007951
 30
0.0
  0
VERTEX
  5
44F
330
43E
100
AcDbEntity
  8
DIBUJOS
 62
     7
100
AcDbVertex
100
AcDb2dVertex
 10
82.59221310497685
 20
51.45597508097256
 30
0.0
  0
VERTEX
  5
450
330
43E
100
AcDbEntity
  8
DIBUJOS
 62
     7
100
AcDbVertex
100
AcDb2dVertex
 10
83.1433226999058
 20
51.46154071448282
 30
0.0
  0
VERTEX
  5
451
330
43E
100
AcDbEntity
  8
DIBUJOS
 62
     7
100
AcDbVertex
100
AcDb2dVertex
 10
83.5538370884297
 20
51.47273251041494
 30
0.0
  0
VERTEX
  5
452
330
43E
100
AcDbEntity
  8
DIBUJOS
 62
     7
100
AcDbVertex
100
AcDb2dVertex
 10
84.07696085028377
 20
51.49249217392052
 30
0.0
  0
VERTEX
  5
453
330
43E
100
AcDbEntity
  8
DIBUJOS
 62
     7
100
AcDbVertex
100
AcDb2dVertex
 10
84.28505326010973
 20
51.49249217392052
 30
0.0
  0
VERTEX
  5
454
330
43E
100
AcDbEntity
  8
DIBUJOS
 62
     7
100
AcDbVertex
100
AcDb2dVertex
 10
84.48172458000992
 20
51.47863710583568
 30
0.0
  0
VERTEX
  5
455
330
43E
100
AcDbEntity
  8
DIBUJOS
 62
     7
100
AcDbVertex
100
AcDb2dVertex
 10
84.60506781002175
 20
51.44582740878207
 30
0.0
  0
VERTEX
  5
456
330
43E
100
AcDbEntity
  8
DIBUJOS
 62
     7
100
AcDbVertex
100
AcDb2dVertex
 10
84.7692938494082
 20
51.3980398323145
 30
0.0
  0
VERTEX
  5
457
330
43E
100
AcDbEntity
  8
DIBUJOS
 62
     7
100
AcDbVertex
100
AcDb2dVertex
 10
84.90269884015478
 20
51.31685240189665
 30
0.0
  0
VERTEX
  5
458
330
43E
100
AcDbEntity
  8
DIBUJOS
 62
     7
100
AcDbVertex
100
AcDb2dVertex
 10
85.0105702397987
 20
51.22262401726664
 30
0.0
  0
VERTEX
  5
459
330
43E
100
AcDbEntity
  8
DIBUJOS
 62
     7
100
AcDbVertex
100
AcDb2dVertex
 10
85.04301703404198
 20
51.17115930936165
 30
0.0
  0
VERTEX
  5
45A
330
43E
100
AcDbEntity
  8
DIBUJOS
 62
     7
100
AcDbVertex
100
AcDb2dVertex
 10
85.05988906430211
 20
51.14304665592275
 30
0.0
  0
VERTEX
  5
45B
330
43E
100
AcDbEntity
  8
DIBUJOS
 62
     7
100
AcDbVertex
100
AcDb2dVertex
 10
85.11544294107983
 20
51.01972504947062
 30
0.0
  0
VERTEX
  5
45C
330
43E
100
AcDbEntity
  8
DIBUJOS
 62
     7
100
AcDbVertex
100
AcDb2dVertex
 10
85.3367698889079
 20
49.68774395832418
 30
0.0
  0
SEQEND
  5
45D
330
43E
100
AcDbEntity
  8
DIBUJOS
 62
     7
  0
POLYLINE
  5
45E
330
318
100
AcDbEntity
  8
DIBUJOS
 62
     7
100
AcDb2dPolyline
 66
     1
 10
0.0
 20
0.0
 30
0.0
  0
VERTEX
  5
45F
330
45E
100
AcDbEntity
  8
DIBUJOS
 62
     7
100
AcDbVertex
100
AcDb2dVertex
 10
85.3367698889079
 20
49.68774395832418
 30
0.0
  0
VERTEX
  5
460
330
45E
100
AcDbEntity
  8
DIBUJOS
 62
     7
100
AcDbVertex
100
AcDb2dVertex
 10
85.33114638339791
 20
49.68774395832418
 30
0.0
  0
SEQEND
  5
461
330
45E
100
AcDbEntity
  8
DIBUJOS
 62
     7
  0
POLYLINE
  5
462
330
318
100
AcDbEntity
  8
DIBUJOS
 62
     7
100
AcDb2dPolyline
 66
     1
 10
0.0
 20
0.0
 30
0.0
  0
VERTEX
  5
463
330
462
100
AcDbEntity
  8
DIBUJOS
 62
     7
100
AcDbVertex
100
AcDb2dVertex
 10
85.3367698889079
 20
49.68774395832418
 30
0.0
  0
VERTEX
  5
464
330
462
100
AcDbEntity
  8
DIBUJOS
 62
     7
100
AcDbVertex
100
AcDb2dVertex
 10
85.3367698889079
 20
49.69336709430119
 30
0.0
  0
SEQEND
  5
465
330
462
100
AcDbEntity
  8
DIBUJOS
 62
     7
  0
POLYLINE
  5
466
330
318
100
AcDbEntity
  8
DIBUJOS
 62
     7
100
AcDb2dPolyline
 66
     1
 10
0.0
 20
0.0
 30
0.0
  0
VERTEX
  5
467
330
466
100
AcDbEntity
  8
DIBUJOS
 62
     7
100
AcDbVertex
100
AcDb2dVertex
 10
85.3367698889079
 20
49.68212082234749
 30
0.0
  0
VERTEX
  5
468
330
466
100
AcDbEntity
  8
DIBUJOS
 62
     7
100
AcDbVertex
100
AcDb2dVertex
 10
85.3367698889079
 20
49.68774395832418
 30
0.0
  0
SEQEND
  5
469
330
466
100
AcDbEntity
  8
DIBUJOS
 62
     7
  0
POLYLINE
  5
46A
330
318
100
AcDbEntity
  8
DIBUJOS
 62
     7
100
AcDb2dPolyline
 66
     1
 10
0.0
 20
0.0
 30
0.0
  0
VERTEX
  5
46B
330
46A
100
AcDbEntity
  8
DIBUJOS
 62
     7
100
AcDbVertex
100
AcDb2dVertex
 10
79.33293148794571
 20
47.88856440268359
 30
0.0
  0
VERTEX
  5
46C
330
46A
100
AcDbEntity
  8
DIBUJOS
 62
     7
100
AcDbVertex
100
AcDb2dVertex
 10
79.34960900395134
 20
48.1357856667025
 30
0.0
  0
VERTEX
  5
46D
330
46A
100
AcDbEntity
  8
DIBUJOS
 62
     7
100
AcDbVertex
100
AcDb2dVertex
 10
79.36085752870214
 20
48.28196299053779
 30
0.0
  0
VERTEX
  5
46E
330
46A
100
AcDbEntity
  8
DIBUJOS
 62
     7
100
AcDbVertex
100
AcDb2dVertex
 10
79.45710953984002
 20
49.35633302982389
 30
0.0
  0
VERTEX
  5
46F
330
46A
100
AcDbEntity
  8
DIBUJOS
 62
     7
100
AcDbVertex
100
AcDb2dVertex
 10
79.6676254307758
 20
50.85717768123339
 30
0.0
  0
SEQEND
  5
470
330
46A
100
AcDbEntity
  8
DIBUJOS
 62
     7
  0
POLYLINE
  5
471
330
318
100
AcDbEntity
  8
DIBUJOS
 62
     7
100
AcDb2dPolyline
 66
     1
 10
0.0
 20
0.0
 30
0.0
  0
VERTEX
  5
472
330
471
100
AcDbEntity
  8
DIBUJOS
 62
     7
100
AcDbVertex
100
AcDb2dVertex
 10
85.48862270244156
 20
46.94970043994825
 30
0.0
  0
VERTEX
  5
473
330
471
100
AcDbEntity
  8
DIBUJOS
 62
     7
100
AcDbVertex
100
AcDb2dVertex
 10
85.49160929096745
 20
48.00653222681948
 30
0.0
  0
VERTEX
  5
474
330
471
100
AcDbEntity
  8
DIBUJOS
 62
     7
100
AcDbVertex
100
AcDb2dVertex
 10
85.38989271592814
 20
49.17636846699726
 30
0.0
  0
VERTEX
  5
475
330
471
100
AcDbEntity
  8
DIBUJOS
 62
     7
100
AcDbVertex
100
AcDb2dVertex
 10
85.3367698889079
 20
49.68212082234749
 30
0.0
  0
SEQEND
  5
476
330
471
100
AcDbEntity
  8
DIBUJOS
 62
     7
  0
POLYLINE
  5
477
330
318
100
AcDbEntity
  8
DIBUJOS
 62
     7
100
AcDb2dPolyline
 66
     1
 10
0.0
 20
0.0
 30
0.0
  0
VERTEX
  5
478
330
477
100
AcDbEntity
  8
DIBUJOS
 62
     7
100
AcDbVertex
100
AcDb2dVertex
 10
85.48299919693157
 20
46.94407730397125
 30
0.0
  0
VERTEX
  5
479
330
477
100
AcDbEntity
  8
DIBUJOS
 62
     7
100
AcDbVertex
100
AcDb2dVertex
 10
85.4773741776914
 20
46.94407730397125
 30
0.0
  0
SEQEND
  5
47A
330
477
100
AcDbEntity
  8
DIBUJOS
 62
     7
  0
POLYLINE
  5
47B
330
318
100
AcDbEntity
  8
DIBUJOS
 62
     7
100
AcDb2dPolyline
 66
     1
 10
0.0
 20
0.0
 30
0.0
  0
VERTEX
  5
47C
330
47B
100
AcDbEntity
  8
DIBUJOS
 62
     7
100
AcDbVertex
100
AcDb2dVertex
 10
85.48862270244156
 20
46.94407730397125
 30
0.0
  0
VERTEX
  5
47D
330
47B
100
AcDbEntity
  8
DIBUJOS
 62
     7
100
AcDbVertex
100
AcDb2dVertex
 10
85.48862270244156
 20
46.94970043994825
 30
0.0
  0
SEQEND
  5
47E
330
47B
100
AcDbEntity
  8
DIBUJOS
 62
     7
  0
POLYLINE
  5
47F
330
318
100
AcDbEntity
  8
DIBUJOS
 62
     7
100
AcDb2dPolyline
 66
     1
 10
0.0
 20
0.0
 30
0.0
  0
VERTEX
  5
480
330
47F
100
AcDbEntity
  8
DIBUJOS
 62
     7
100
AcDbVertex
100
AcDb2dVertex
 10
85.48862270244156
 20
46.93845416799424
 30
0.0
  0
VERTEX
  5
481
330
47F
100
AcDbEntity
  8
DIBUJOS
 62
     7
100
AcDbVertex
100
AcDb2dVertex
 10
85.48862270244156
 20
46.94407730397125
 30
0.0
  0
SEQEND
  5
482
330
47F
100
AcDbEntity
  8
DIBUJOS
 62
     7
  0
POLYLINE
  5
483
330
318
100
AcDbEntity
  8
DIBUJOS
 62
     7
100
AcDb2dPolyline
 66
     1
 10
0.0
 20
0.0
 30
0.0
  0
VERTEX
  5
484
330
483
100
AcDbEntity
  8
DIBUJOS
 62
     7
100
AcDbVertex
100
AcDb2dVertex
 10
85.40988454291941
 20
47.02841223784242
 30
0.0
  0
VERTEX
  5
485
330
483
100
AcDbEntity
  8
DIBUJOS
 62
     7
100
AcDbVertex
100
AcDb2dVertex
 10
85.07749676715461
 20
47.16222047839554
 30
0.0
  0
VERTEX
  5
486
330
483
100
AcDbEntity
  8
DIBUJOS
 62
     7
100
AcDbVertex
100
AcDb2dVertex
 10
84.84134889269144
 20
47.24569590170864
 30
0.0
  0
VERTEX
  5
487
330
483
100
AcDbEntity
  8
DIBUJOS
 62
     7
100
AcDbVertex
100
AcDb2dVertex
 10
84.6566799348888
 20
47.29482116714327
 30
0.0
  0
VERTEX
  5
488
330
483
100
AcDbEntity
  8
DIBUJOS
 62
     7
100
AcDbVertex
100
AcDb2dVertex
 10
84.46477686326806
 20
47.32951028693225
 30
0.0
  0
VERTEX
  5
489
330
483
100
AcDbEntity
  8
DIBUJOS
 62
     7
100
AcDbVertex
100
AcDb2dVertex
 10
84.31344931390962
 20
47.34572598260725
 30
0.0
  0
VERTEX
  5
48A
330
483
100
AcDbEntity
  8
DIBUJOS
 62
     7
100
AcDbVertex
100
AcDb2dVertex
 10
83.95335574504814
 20
47.36841827192633
 30
0.0
  0
VERTEX
  5
48B
330
483
100
AcDbEntity
  8
DIBUJOS
 62
     7
100
AcDbVertex
100
AcDb2dVertex
 10
83.48646855202668
 20
47.37975836369439
 30
0.0
  0
VERTEX
  5
48C
330
483
100
AcDbEntity
  8
DIBUJOS
 62
     7
100
AcDbVertex
100
AcDb2dVertex
 10
81.34357841835195
 20
47.37975836369439
 30
0.0
  0
VERTEX
  5
48D
330
483
100
AcDbEntity
  8
DIBUJOS
 62
     7
100
AcDbVertex
100
AcDb2dVertex
 10
81.00059377843522
 20
47.37422602108656
 30
0.0
  0
VERTEX
  5
48E
330
483
100
AcDbEntity
  8
DIBUJOS
 62
     7
100
AcDbVertex
100
AcDb2dVertex
 10
80.76446860991567
 20
47.36308264828438
 30
0.0
  0
VERTEX
  5
48F
330
483
100
AcDbEntity
  8
DIBUJOS
 62
     7
100
AcDbVertex
100
AcDb2dVertex
 10
80.47215379818157
 20
47.34078984978773
 30
0.0
  0
VERTEX
  5
490
330
483
100
AcDbEntity
  8
DIBUJOS
 62
     7
100
AcDbVertex
100
AcDb2dVertex
 10
80.36527086397534
 20
47.32951028693225
 30
0.0
  0
VERTEX
  5
491
330
483
100
AcDbEntity
  8
DIBUJOS
 62
     7
100
AcDbVertex
100
AcDb2dVertex
 10
80.12361452745175
 20
47.28487324036382
 30
0.0
  0
VERTEX
  5
492
330
483
100
AcDbEntity
  8
DIBUJOS
 62
     7
100
AcDbVertex
100
AcDb2dVertex
 10
79.97189189466427
 20
47.24037238384902
 30
0.0
  0
VERTEX
  5
493
330
483
100
AcDbEntity
  8
DIBUJOS
 62
     7
100
AcDbVertex
100
AcDb2dVertex
 10
79.75255020322402
 20
47.16222047839554
 30
0.0
  0
VERTEX
  5
494
330
483
100
AcDbEntity
  8
DIBUJOS
 62
     7
100
AcDbVertex
100
AcDb2dVertex
 10
79.42016318432398
 20
47.02841223784242
 30
0.0
  0
SEQEND
  5
495
330
483
100
AcDbEntity
  8
DIBUJOS
 62
     7
  0
POLYLINE
  5
496
330
318
100
AcDbEntity
  8
DIBUJOS
 62
     7
100
AcDb2dPolyline
 66
     1
 10
0.0
 20
0.0
 30
0.0
  0
VERTEX
  5
497
330
496
100
AcDbEntity
  8
DIBUJOS
 62
     7
100
AcDbVertex
100
AcDb2dVertex
 10
85.36489044391882
 20
46.97218995741014
 30
0.0
  0
VERTEX
  5
498
330
496
100
AcDbEntity
  8
DIBUJOS
 62
     7
100
AcDbVertex
100
AcDb2dVertex
 10
84.66189473340395
 20
46.97497731383351
 30
0.0
  0
VERTEX
  5
499
330
496
100
AcDbEntity
  8
DIBUJOS
 62
     7
100
AcDbVertex
100
AcDb2dVertex
 10
80.24126916158114
 20
46.97498034027902
 30
0.0
  0
VERTEX
  5
49A
330
496
100
AcDbEntity
  8
DIBUJOS
 62
     7
100
AcDbVertex
100
AcDb2dVertex
 10
79.46515652645981
 20
46.97218995741014
 30
0.0
  0
SEQEND
  5
49B
330
496
100
AcDbEntity
  8
DIBUJOS
 62
     7
  0
POLYLINE
  5
49C
330
318
100
AcDbEntity
  8
DIBUJOS
 62
     7
100
AcDb2dPolyline
 66
     1
 10
0.0
 20
0.0
 30
0.0
  0
VERTEX
  5
49D
330
49C
100
AcDbEntity
  8
DIBUJOS
 62
     7
100
AcDbVertex
100
AcDb2dVertex
 10
79.87770970772947
 20
45.16181860583679
 30
0.0
  0
VERTEX
  5
49E
330
49C
100
AcDbEntity
  8
DIBUJOS
 62
     7
100
AcDbVertex
100
AcDb2dVertex
 10
79.52096470981239
 20
45.17652410514352
 30
0.0
  0
VERTEX
  5
49F
330
49C
100
AcDbEntity
  8
DIBUJOS
 62
     7
100
AcDbVertex
100
AcDb2dVertex
 10
79.48765281909535
 20
45.184308123299
 30
0.0
  0
VERTEX
  5
4A0
330
49C
100
AcDbEntity
  8
DIBUJOS
 62
     7
100
AcDbVertex
100
AcDb2dVertex
 10
79.45953226408506
 20
45.21241775029239
 30
0.0
  0
VERTEX
  5
4A1
330
49C
100
AcDbEntity
  8
DIBUJOS
 62
     7
100
AcDbVertex
100
AcDb2dVertex
 10
79.44464473334605
 20
45.24664987679122
 30
0.0
  0
VERTEX
  5
4A2
330
49C
100
AcDbEntity
  8
DIBUJOS
 62
     7
100
AcDbVertex
100
AcDb2dVertex
 10
79.44067422057299
 20
45.26252358411023
 30
0.0
  0
VERTEX
  5
4A3
330
49C
100
AcDbEntity
  8
DIBUJOS
 62
     7
100
AcDbVertex
100
AcDb2dVertex
 10
79.36655899128688
 20
46.39887220341374
 30
0.0
  0
VERTEX
  5
4A4
330
49C
100
AcDbEntity
  8
DIBUJOS
 62
     7
100
AcDbVertex
100
AcDb2dVertex
 10
79.34440101721972
 20
46.79212854832333
 30
0.0
  0
VERTEX
  5
4A5
330
49C
100
AcDbEntity
  8
DIBUJOS
 62
     7
100
AcDbVertex
100
AcDb2dVertex
 10
79.33293148794571
 20
47.88856440268359
 30
0.0
  0
SEQEND
  5
4A6
330
49C
100
AcDbEntity
  8
DIBUJOS
 62
     7
  0
POLYLINE
  5
4A7
330
318
100
AcDbEntity
  8
DIBUJOS
 62
     7
100
AcDb2dPolyline
 66
     1
 10
0.0
 20
0.0
 30
0.0
  0
VERTEX
  5
4A8
330
4A7
100
AcDbEntity
  8
DIBUJOS
 62
     7
100
AcDbVertex
100
AcDb2dVertex
 10
84.96193996122658
 20
45.1674417418138
 30
0.0
  0
VERTEX
  5
4A9
330
4A7
100
AcDbEntity
  8
DIBUJOS
 62
     7
100
AcDbVertex
100
AcDb2dVertex
 10
85.25795452917512
 20
45.17016856932459
 30
0.0
  0
VERTEX
  5
4AA
330
4A7
100
AcDbEntity
  8
DIBUJOS
 62
     7
100
AcDbVertex
100
AcDb2dVertex
 10
85.33002168229527
 20
45.18205947419717
 30
0.0
  0
VERTEX
  5
4AB
330
4A7
100
AcDbEntity
  8
DIBUJOS
 62
     7
100
AcDbVertex
100
AcDb2dVertex
 10
85.34325924775642
 20
45.18863291410143
 30
0.0
  0
VERTEX
  5
4AC
330
4A7
100
AcDbEntity
  8
DIBUJOS
 62
     7
100
AcDbVertex
100
AcDb2dVertex
 10
85.37613896866897
 20
45.21804088626972
 30
0.0
  0
VERTEX
  5
4AD
330
4A7
100
AcDbEntity
  8
DIBUJOS
 62
     7
100
AcDbVertex
100
AcDb2dVertex
 10
85.39529218945519
 20
45.29075124248328
 30
0.0
  0
VERTEX
  5
4AE
330
4A7
100
AcDbEntity
  8
DIBUJOS
 62
     7
100
AcDbVertex
100
AcDb2dVertex
 10
85.46312695457847
 20
46.37044177318382
 30
0.0
  0
VERTEX
  5
4AF
330
4A7
100
AcDbEntity
  8
DIBUJOS
 62
     7
100
AcDbVertex
100
AcDb2dVertex
 10
85.48003077316135
 20
46.66282365886455
 30
0.0
  0
VERTEX
  5
4B0
330
4A7
100
AcDbEntity
  8
DIBUJOS
 62
     7
100
AcDbVertex
100
AcDb2dVertex
 10
85.48862270244156
 20
46.93845416799424
 30
0.0
  0
SEQEND
  5
4B1
330
4A7
100
AcDbEntity
  8
DIBUJOS
 62
     7
  0
ENDBLK
  5
31B
330
318
100
AcDbEntity
  8
0
100
AcDbBlockEnd
  0
BLOCK
  5
4B4
330
4B2
100
AcDbEntity
  8
0
100
AcDbBlockBegin
  2
BLOCK_6
 70
     0
 10
0.0
 20
0.0
 30
0.0
  3
BLOCK_6
  1

  0
POLYLINE
  5
4B6
330
4B2
100
AcDbEntity
  8
DIBUJOS
 62
     7
100
AcDb2dPolyline
 66
     1
 10
0.0
 20
0.0
 30
0.0
  0
VERTEX
  5
4B7
330
4B6
100
AcDbEntity
  8
DIBUJOS
 62
     7
100
AcDbVertex
100
AcDb2dVertex
 10
98.14351495089986
 20
45.16181860583679
 30
0.0
  0
VERTEX
  5
4B8
330
4B6
100
AcDbEntity
  8
DIBUJOS
 62
     7
100
AcDbVertex
100
AcDb2dVertex
 10
98.13789598657847
 20
45.16181860583679
 30
0.0
  0
SEQEND
  5
4B9
330
4B6
100
AcDbEntity
  8
DIBUJOS
 62
     7
  0
POLYLINE
  5
4BA
330
4B2
100
AcDbEntity
  8
DIBUJOS
 62
     7
100
AcDb2dPolyline
 66
     1
 10
0.0
 20
0.0
 30
0.0
  0
VERTEX
  5
4BB
330
4BA
100
AcDbEntity
  8
DIBUJOS
 62
     7
100
AcDbVertex
100
AcDb2dVertex
 10
98.14913997014001
 20
45.16181860583679
 30
0.0
  0
VERTEX
  5
4BC
330
4BA
100
AcDbEntity
  8
DIBUJOS
 62
     7
100
AcDbVertex
100
AcDb2dVertex
 10
98.14351495089986
 20
45.16181860583679
 30
0.0
  0
SEQEND
  5
4BD
330
4BA
100
AcDbEntity
  8
DIBUJOS
 62
     7
  0
POLYLINE
  5
4BE
330
4B2
100
AcDbEntity
  8
DIBUJOS
 62
     7
100
AcDb2dPolyline
 66
     1
 10
0.0
 20
0.0
 30
0.0
  0
VERTEX
  5
4BF
330
4BE
100
AcDbEntity
  8
DIBUJOS
 62
     7
100
AcDbVertex
100
AcDb2dVertex
 10
95.11772688345752
 20
45.15619546985978
 30
0.0
  0
VERTEX
  5
4C0
330
4BE
100
AcDbEntity
  8
DIBUJOS
 62
     7
100
AcDbVertex
100
AcDb2dVertex
 10
95.38172132787156
 20
45.16980236940364
 30
0.0
  0
VERTEX
  5
4C1
330
4BE
100
AcDbEntity
  8
DIBUJOS
 62
     7
100
AcDbVertex
100
AcDb2dVertex
 10
95.74763215963404
 20
45.16181860583679
 30
0.0
  0
VERTEX
  5
4C2
330
4BE
100
AcDbEntity
  8
DIBUJOS
 62
     7
100
AcDbVertex
100
AcDb2dVertex
 10
95.7588761431956
 20
45.1674417418138
 30
0.0
  0
VERTEX
  5
4C3
330
4BE
100
AcDbEntity
  8
DIBUJOS
 62
     7
100
AcDbVertex
100
AcDb2dVertex
 10
98.11015235024091
 20
45.16409751939523
 30
0.0
  0
VERTEX
  5
4C4
330
4BE
100
AcDbEntity
  8
DIBUJOS
 62
     7
100
AcDbVertex
100
AcDb2dVertex
 10
98.13789598657847
 20
45.16181860583679
 30
0.0
  0
SEQEND
  5
4C5
330
4BE
100
AcDbEntity
  8
DIBUJOS
 62
     7
  0
POLYLINE
  5
4C6
330
4B2
100
AcDbEntity
  8
DIBUJOS
 62
     7
100
AcDb2dPolyline
 66
     1
 10
0.0
 20
0.0
 30
0.0
  0
VERTEX
  5
4C7
330
4C6
100
AcDbEntity
  8
DIBUJOS
 62
     7
100
AcDbVertex
100
AcDb2dVertex
 10
98.14351495089986
 20
45.15619546985978
 30
0.0
  0
VERTEX
  5
4C8
330
4C6
100
AcDbEntity
  8
DIBUJOS
 62
     7
100
AcDbVertex
100
AcDb2dVertex
 10
98.14351495089986
 20
45.16181860583679
 30
0.0
  0
SEQEND
  5
4C9
330
4C6
100
AcDbEntity
  8
DIBUJOS
 62
     7
  0
POLYLINE
  5
4CA
330
4B2
100
AcDbEntity
  8
DIBUJOS
 62
     7
100
AcDb2dPolyline
 66
     1
 10
0.0
 20
0.0
 30
0.0
  0
VERTEX
  5
4CB
330
4CA
100
AcDbEntity
  8
DIBUJOS
 62
     7
100
AcDbVertex
100
AcDb2dVertex
 10
98.222253110422
 20
43.9080529755019
 30
0.0
  0
VERTEX
  5
4CC
330
4CA
100
AcDbEntity
  8
DIBUJOS
 62
     7
100
AcDbVertex
100
AcDb2dVertex
 10
98.2166341461006
 20
43.9080529755019
 30
0.0
  0
SEQEND
  5
4CD
330
4CA
100
AcDbEntity
  8
DIBUJOS
 62
     7
  0
POLYLINE
  5
4CE
330
4B2
100
AcDbEntity
  8
DIBUJOS
 62
     7
100
AcDb2dPolyline
 66
     1
 10
0.0
 20
0.0
 30
0.0
  0
VERTEX
  5
4CF
330
4CE
100
AcDbEntity
  8
DIBUJOS
 62
     7
100
AcDbVertex
100
AcDb2dVertex
 10
98.222253110422
 20
43.9080529755019
 30
0.0
  0
VERTEX
  5
4D0
330
4CE
100
AcDbEntity
  8
DIBUJOS
 62
     7
100
AcDbVertex
100
AcDb2dVertex
 10
98.222253110422
 20
43.91367308503309
 30
0.0
  0
SEQEND
  5
4D1
330
4CE
100
AcDbEntity
  8
DIBUJOS
 62
     7
  0
POLYLINE
  5
4D2
330
4B2
100
AcDbEntity
  8
DIBUJOS
 62
     7
100
AcDb2dPolyline
 66
     1
 10
0.0
 20
0.0
 30
0.0
  0
VERTEX
  5
4D3
330
4D2
100
AcDbEntity
  8
DIBUJOS
 62
     7
100
AcDbVertex
100
AcDb2dVertex
 10
93.77355315234156
 20
43.9024298395249
 30
0.0
  0
VERTEX
  5
4D4
330
4D2
100
AcDbEntity
  8
DIBUJOS
 62
     7
100
AcDbVertex
100
AcDb2dVertex
 10
93.87365911907341
 20
44.10539236267931
 30
0.0
  0
VERTEX
  5
4D5
330
4D2
100
AcDbEntity
  8
DIBUJOS
 62
     7
100
AcDbVertex
100
AcDb2dVertex
 10
93.99981334497642
 20
44.32323591898686
 30
0.0
  0
VERTEX
  5
4D6
330
4D2
100
AcDbEntity
  8
DIBUJOS
 62
     7
100
AcDbVertex
100
AcDb2dVertex
 10
94.0197158619208
 20
44.35307667287904
 30
0.0
  0
VERTEX
  5
4D7
330
4D2
100
AcDbEntity
  8
DIBUJOS
 62
     7
100
AcDbVertex
100
AcDb2dVertex
 10
94.12648223894791
 20
44.4827144713573
 30
0.0
  0
VERTEX
  5
4D8
330
4D2
100
AcDbEntity
  8
DIBUJOS
 62
     7
100
AcDbVertex
100
AcDb2dVertex
 10
94.16161893071212
 20
44.52650108670416
 30
0.0
  0
VERTEX
  5
4D9
330
4D2
100
AcDbEntity
  8
DIBUJOS
 62
     7
100
AcDbVertex
100
AcDb2dVertex
 10
94.32918879881264
 20
44.67406452263675
 30
0.0
  0
VERTEX
  5
4DA
330
4D2
100
AcDbEntity
  8
DIBUJOS
 62
     7
100
AcDbVertex
100
AcDb2dVertex
 10
94.35961476402281
 20
44.69941100477205
 30
0.0
  0
VERTEX
  5
4DB
330
4D2
100
AcDbEntity
  8
DIBUJOS
 62
     7
100
AcDbVertex
100
AcDb2dVertex
 10
94.44900958001662
 20
44.75589053308246
 30
0.0
  0
VERTEX
  5
4DC
330
4D2
100
AcDbEntity
  8
DIBUJOS
 62
     7
100
AcDbVertex
100
AcDb2dVertex
 10
94.45321169342093
 20
44.75831168958488
 30
0.0
  0
VERTEX
  5
4DD
330
4D2
100
AcDbEntity
  8
DIBUJOS
 62
     7
100
AcDbVertex
100
AcDb2dVertex
 10
94.58961689625984
 20
44.83966254806713
 30
0.0
  0
VERTEX
  5
4DE
330
4D2
100
AcDbEntity
  8
DIBUJOS
 62
     7
100
AcDbVertex
100
AcDb2dVertex
 10
94.69647409706337
 20
44.88464158299123
 30
0.0
  0
VERTEX
  5
4DF
330
4D2
100
AcDbEntity
  8
DIBUJOS
 62
     7
100
AcDbVertex
100
AcDb2dVertex
 10
94.83039678333752
 20
44.93328867001623
 30
0.0
  0
VERTEX
  5
4E0
330
4D2
100
AcDbEntity
  8
DIBUJOS
 62
     7
100
AcDbVertex
100
AcDb2dVertex
 10
95.01030052031977
 20
44.97797111326941
 30
0.0
  0
VERTEX
  5
4E1
330
4D2
100
AcDbEntity
  8
DIBUJOS
 62
     7
100
AcDbVertex
100
AcDb2dVertex
 10
95.26937837095251
 20
45.0013534321918
 30
0.0
  0
VERTEX
  5
4E2
330
4D2
100
AcDbEntity
  8
DIBUJOS
 62
     7
100
AcDbVertex
100
AcDb2dVertex
 10
96.72622202458378
 20
45.00719447225382
 30
0.0
  0
VERTEX
  5
4E3
330
4D2
100
AcDbEntity
  8
DIBUJOS
 62
     7
100
AcDbVertex
100
AcDb2dVertex
 10
98.0708983139307
 20
45.00638035838018
 30
0.0
  0
VERTEX
  5
4E4
330
4D2
100
AcDbEntity
  8
DIBUJOS
 62
     7
100
AcDbVertex
100
AcDb2dVertex
 10
98.09346499499331
 20
44.99989771184446
 30
0.0
  0
VERTEX
  5
4E5
330
4D2
100
AcDbEntity
  8
DIBUJOS
 62
     7
100
AcDbVertex
100
AcDb2dVertex
 10
98.14351495089986
 20
44.97628235660891
 30
0.0
  0
VERTEX
  5
4E6
330
4D2
100
AcDbEntity
  8
DIBUJOS
 62
     7
100
AcDbVertex
100
AcDb2dVertex
 10
98.18850904990109
 20
44.93130634813032
 30
0.0
  0
VERTEX
  5
4E7
330
4D2
100
AcDbEntity
  8
DIBUJOS
 62
     7
100
AcDbVertex
100
AcDb2dVertex
 10
98.2146481328493
 20
44.87458773061478
 30
0.0
  0
VERTEX
  5
4E8
330
4D2
100
AcDbEntity
  8
DIBUJOS
 62
     7
100
AcDbVertex
100
AcDb2dVertex
 10
98.22506864750179
 20
44.43654604330147
 30
0.0
  0
VERTEX
  5
4E9
330
4D2
100
AcDbEntity
  8
DIBUJOS
 62
     7
100
AcDbVertex
100
AcDb2dVertex
 10
98.222253110422
 20
43.91367308503309
 30
0.0
  0
SEQEND
  5
4EA
330
4D2
100
AcDbEntity
  8
DIBUJOS
 62
     7
  0
POLYLINE
  5
4EB
330
4B2
100
AcDbEntity
  8
DIBUJOS
 62
     7
100
AcDb2dPolyline
 66
     1
 10
0.0
 20
0.0
 30
0.0
  0
VERTEX
  5
4EC
330
4EB
100
AcDbEntity
  8
DIBUJOS
 62
     7
100
AcDbVertex
100
AcDb2dVertex
 10
98.22787812966216
 20
43.9024298395249
 30
0.0
  0
VERTEX
  5
4ED
330
4EB
100
AcDbEntity
  8
DIBUJOS
 62
     7
100
AcDbVertex
100
AcDb2dVertex
 10
98.222253110422
 20
43.9080529755019
 30
0.0
  0
SEQEND
  5
4EE
330
4EB
100
AcDbEntity
  8
DIBUJOS
 62
     7
  0
POLYLINE
  5
4EF
330
4B2
100
AcDbEntity
  8
DIBUJOS
 62
     7
100
AcDb2dPolyline
 66
     1
 10
0.0
 20
0.0
 30
0.0
  0
VERTEX
  5
4F0
330
4EF
100
AcDbEntity
  8
DIBUJOS
 62
     7
100
AcDbVertex
100
AcDb2dVertex
 10
93.77355315234156
 20
43.89680670354821
 30
0.0
  0
VERTEX
  5
4F1
330
4EF
100
AcDbEntity
  8
DIBUJOS
 62
     7
100
AcDbVertex
100
AcDb2dVertex
 10
93.7679281331014
 20
43.89680670354821
 30
0.0
  0
SEQEND
  5
4F2
330
4EF
100
AcDbEntity
  8
DIBUJOS
 62
     7
  0
POLYLINE
  5
4F3
330
4B2
100
AcDbEntity
  8
DIBUJOS
 62
     7
100
AcDb2dPolyline
 66
     1
 10
0.0
 20
0.0
 30
0.0
  0
VERTEX
  5
4F4
330
4F3
100
AcDbEntity
  8
DIBUJOS
 62
     7
100
AcDbVertex
100
AcDb2dVertex
 10
93.77355315234156
 20
43.89680670354821
 30
0.0
  0
VERTEX
  5
4F5
330
4F3
100
AcDbEntity
  8
DIBUJOS
 62
     7
100
AcDbVertex
100
AcDb2dVertex
 10
93.77355315234156
 20
43.9024298395249
 30
0.0
  0
SEQEND
  5
4F6
330
4F3
100
AcDbEntity
  8
DIBUJOS
 62
     7
  0
POLYLINE
  5
4F7
330
4B2
100
AcDbEntity
  8
DIBUJOS
 62
     7
100
AcDb2dPolyline
 66
     1
 10
0.0
 20
0.0
 30
0.0
  0
VERTEX
  5
4F8
330
4F7
100
AcDbEntity
  8
DIBUJOS
 62
     7
100
AcDbVertex
100
AcDb2dVertex
 10
93.77917817158172
 20
43.89680670354821
 30
0.0
  0
VERTEX
  5
4F9
330
4F7
100
AcDbEntity
  8
DIBUJOS
 62
     7
100
AcDbVertex
100
AcDb2dVertex
 10
93.77355315234156
 20
43.89680670354821
 30
0.0
  0
SEQEND
  5
4FA
330
4F7
100
AcDbEntity
  8
DIBUJOS
 62
     7
  0
POLYLINE
  5
4FB
330
4B2
100
AcDbEntity
  8
DIBUJOS
 62
     7
100
AcDb2dPolyline
 66
     1
 10
0.0
 20
0.0
 30
0.0
  0
VERTEX
  5
4FC
330
4FB
100
AcDbEntity
  8
DIBUJOS
 62
     7
100
AcDbVertex
100
AcDb2dVertex
 10
93.77917817158172
 20
43.89680670354821
 30
0.0
  0
VERTEX
  5
4FD
330
4FB
100
AcDbEntity
  8
DIBUJOS
 62
     7
100
AcDbVertex
100
AcDb2dVertex
 10
98.2166341461006
 20
43.9080529755019
 30
0.0
  0
SEQEND
  5
4FE
330
4FB
100
AcDbEntity
  8
DIBUJOS
 62
     7
  0
POLYLINE
  5
4FF
330
4B2
100
AcDbEntity
  8
DIBUJOS
 62
     7
100
AcDb2dPolyline
 66
     1
 10
0.0
 20
0.0
 30
0.0
  0
VERTEX
  5
500
330
4FF
100
AcDbEntity
  8
DIBUJOS
 62
     7
100
AcDbVertex
100
AcDb2dVertex
 10
93.73980909182065
 20
43.8855634580397
 30
0.0
  0
VERTEX
  5
501
330
4FF
100
AcDbEntity
  8
DIBUJOS
 62
     7
100
AcDbVertex
100
AcDb2dVertex
 10
93.7679281331014
 20
43.89680670354821
 30
0.0
  0
SEQEND
  5
502
330
4FF
100
AcDbEntity
  8
DIBUJOS
 62
     7
  0
POLYLINE
  5
503
330
4B2
100
AcDbEntity
  8
DIBUJOS
 62
     7
100
AcDb2dPolyline
 66
     1
 10
0.0
 20
0.0
 30
0.0
  0
VERTEX
  5
504
330
503
100
AcDbEntity
  8
DIBUJOS
 62
     7
100
AcDbVertex
100
AcDb2dVertex
 10
98.26724720942323
 20
43.86869707655482
 30
0.0
  0
VERTEX
  5
505
330
503
100
AcDbEntity
  8
DIBUJOS
 62
     7
100
AcDbVertex
100
AcDb2dVertex
 10
98.25600322586168
 20
43.874317186086
 30
0.0
  0
SEQEND
  5
506
330
503
100
AcDbEntity
  8
DIBUJOS
 62
     7
  0
POLYLINE
  5
507
330
4B2
100
AcDbEntity
  8
DIBUJOS
 62
     7
100
AcDb2dPolyline
 66
     1
 10
0.0
 20
0.0
 30
0.0
  0
VERTEX
  5
508
330
507
100
AcDbEntity
  8
DIBUJOS
 62
     7
100
AcDbVertex
100
AcDb2dVertex
 10
93.70606503129974
 20
43.86307394057781
 30
0.0
  0
VERTEX
  5
509
330
507
100
AcDbEntity
  8
DIBUJOS
 62
     7
100
AcDbVertex
100
AcDb2dVertex
 10
93.70606503129974
 20
43.86869707655482
 30
0.0
  0
SEQEND
  5
50A
330
507
100
AcDbEntity
  8
DIBUJOS
 62
     7
  0
POLYLINE
  5
50B
330
4B2
100
AcDbEntity
  8
DIBUJOS
 62
     7
100
AcDb2dPolyline
 66
     1
 10
0.0
 20
0.0
 30
0.0
  0
VERTEX
  5
50C
330
50B
100
AcDbEntity
  8
DIBUJOS
 62
     7
100
AcDbVertex
100
AcDb2dVertex
 10
98.26724720942323
 20
43.79560841463733
 30
0.0
  0
VERTEX
  5
50D
330
50B
100
AcDbEntity
  8
DIBUJOS
 62
     7
100
AcDbVertex
100
AcDb2dVertex
 10
98.25600322586168
 20
43.79560841463733
 30
0.0
  0
SEQEND
  5
50E
330
50B
100
AcDbEntity
  8
DIBUJOS
 62
     7
  0
POLYLINE
  5
50F
330
4B2
100
AcDbEntity
  8
DIBUJOS
 62
     7
100
AcDb2dPolyline
 66
     1
 10
0.0
 20
0.0
 30
0.0
  0
VERTEX
  5
510
330
50F
100
AcDbEntity
  8
DIBUJOS
 62
     7
100
AcDbVertex
100
AcDb2dVertex
 10
93.20551097796671
 20
43.12093499655697
 30
0.0
  0
VERTEX
  5
511
330
50F
100
AcDbEntity
  8
DIBUJOS
 62
     7
100
AcDbVertex
100
AcDb2dVertex
 10
93.62620065694543
 20
43.97045828435285
 30
0.0
  0
VERTEX
  5
512
330
50F
100
AcDbEntity
  8
DIBUJOS
 62
     7
100
AcDbVertex
100
AcDb2dVertex
 10
93.77484890488967
 20
44.26139050257757
 30
0.0
  0
VERTEX
  5
513
330
50F
100
AcDbEntity
  8
DIBUJOS
 62
     7
100
AcDbVertex
100
AcDb2dVertex
 10
93.87928413831357
 20
44.43148582621129
 30
0.0
  0
VERTEX
  5
514
330
50F
100
AcDbEntity
  8
DIBUJOS
 62
     7
100
AcDbVertex
100
AcDb2dVertex
 10
94.0435116914289
 20
44.63332553803787
 30
0.0
  0
VERTEX
  5
515
330
50F
100
AcDbEntity
  8
DIBUJOS
 62
     7
100
AcDbVertex
100
AcDb2dVertex
 10
94.22467485144921
 20
44.79498313125978
 30
0.0
  0
VERTEX
  5
516
330
50F
100
AcDbEntity
  8
DIBUJOS
 62
     7
100
AcDbVertex
100
AcDb2dVertex
 10
94.32558612233447
 20
44.86816258654645
 30
0.0
  0
VERTEX
  5
517
330
50F
100
AcDbEntity
  8
DIBUJOS
 62
     7
100
AcDbVertex
100
AcDb2dVertex
 10
94.3705802213357
 20
44.89627523998566
 30
0.0
  0
VERTEX
  5
518
330
50F
100
AcDbEntity
  8
DIBUJOS
 62
     7
100
AcDbVertex
100
AcDb2dVertex
 10
94.53899777801844
 20
44.99146300787911
 30
0.0
  0
VERTEX
  5
519
330
50F
100
AcDbEntity
  8
DIBUJOS
 62
     7
100
AcDbVertex
100
AcDb2dVertex
 10
94.6953478822312
 20
45.05611999227675
 30
0.0
  0
VERTEX
  5
51A
330
50F
100
AcDbEntity
  8
DIBUJOS
 62
     7
100
AcDbVertex
100
AcDb2dVertex
 10
94.78639569096194
 20
45.08674459558724
 30
0.0
  0
VERTEX
  5
51B
330
50F
100
AcDbEntity
  8
DIBUJOS
 62
     7
100
AcDbVertex
100
AcDb2dVertex
 10
94.8472052369541
 20
45.10165891964218
 30
0.0
  0
VERTEX
  5
51C
330
50F
100
AcDbEntity
  8
DIBUJOS
 62
     7
100
AcDbVertex
100
AcDb2dVertex
 10
94.9942973708566
 20
45.13690793187217
 30
0.0
  0
VERTEX
  5
51D
330
50F
100
AcDbEntity
  8
DIBUJOS
 62
     7
100
AcDbVertex
100
AcDb2dVertex
 10
95.11153875680128
 20
45.15169817165644
 30
0.0
  0
VERTEX
  5
51E
330
50F
100
AcDbEntity
  8
DIBUJOS
 62
     7
100
AcDbVertex
100
AcDb2dVertex
 10
95.11772688345752
 20
45.15619546985978
 30
0.0
  0
SEQEND
  5
51F
330
50F
100
AcDbEntity
  8
DIBUJOS
 62
     7
  0
POLYLINE
  5
520
330
4B2
100
AcDbEntity
  8
DIBUJOS
 62
     7
100
AcDb2dPolyline
 66
     1
 10
0.0
 20
0.0
 30
0.0
  0
VERTEX
  5
521
330
520
100
AcDbEntity
  8
DIBUJOS
 62
     7
100
AcDbVertex
100
AcDb2dVertex
 10
93.20551097796671
 20
43.11531186057996
 30
0.0
  0
VERTEX
  5
522
330
520
100
AcDbEntity
  8
DIBUJOS
 62
     7
100
AcDbVertex
100
AcDb2dVertex
 10
93.20551097796671
 20
43.12093499655697
 30
0.0
  0
SEQEND
  5
523
330
520
100
AcDbEntity
  8
DIBUJOS
 62
     7
  0
POLYLINE
  5
524
330
4B2
100
AcDbEntity
  8
DIBUJOS
 62
     7
100
AcDb2dPolyline
 66
     1
 10
0.0
 20
0.0
 30
0.0
  0
VERTEX
  5
525
330
524
100
AcDbEntity
  8
DIBUJOS
 62
     7
100
AcDbVertex
100
AcDb2dVertex
 10
93.21113599720688
 20
43.11531186057996
 30
0.0
  0
VERTEX
  5
526
330
524
100
AcDbEntity
  8
DIBUJOS
 62
     7
100
AcDbVertex
100
AcDb2dVertex
 10
93.20551097796671
 20
43.11531186057996
 30
0.0
  0
SEQEND
  5
527
330
524
100
AcDbEntity
  8
DIBUJOS
 62
     7
  0
POLYLINE
  5
528
330
4B2
100
AcDbEntity
  8
DIBUJOS
 62
     7
100
AcDb2dPolyline
 66
     1
 10
0.0
 20
0.0
 30
0.0
  0
VERTEX
  5
529
330
528
100
AcDbEntity
  8
DIBUJOS
 62
     7
100
AcDbVertex
100
AcDb2dVertex
 10
98.38535444870645
 20
43.07033282565587
 30
0.0
  0
VERTEX
  5
52A
330
528
100
AcDbEntity
  8
DIBUJOS
 62
     7
100
AcDbVertex
100
AcDb2dVertex
 10
98.3881699857856
 20
43.54822674899984
 30
0.0
  0
VERTEX
  5
52B
330
528
100
AcDbEntity
  8
DIBUJOS
 62
     7
100
AcDbVertex
100
AcDb2dVertex
 10
98.37730746208665
 20
44.88040153266633
 30
0.0
  0
VERTEX
  5
52C
330
528
100
AcDbEntity
  8
DIBUJOS
 62
     7
100
AcDbVertex
100
AcDb2dVertex
 10
98.3645497489122
 20
44.93186624057133
 30
0.0
  0
VERTEX
  5
52D
330
528
100
AcDbEntity
  8
DIBUJOS
 62
     7
100
AcDbVertex
100
AcDb2dVertex
 10
98.34468961639664
 20
44.9810399291362
 30
0.0
  0
VERTEX
  5
52E
330
528
100
AcDbEntity
  8
DIBUJOS
 62
     7
100
AcDbVertex
100
AcDb2dVertex
 10
98.33603713793192
 20
44.99401430154383
 30
0.0
  0
VERTEX
  5
52F
330
528
100
AcDbEntity
  8
DIBUJOS
 62
     7
100
AcDbVertex
100
AcDb2dVertex
 10
98.31786632766398
 20
45.02688452751001
 30
0.0
  0
VERTEX
  5
530
330
528
100
AcDbEntity
  8
DIBUJOS
 62
     7
100
AcDbVertex
100
AcDb2dVertex
 10
98.23912816814185
 20
45.10559632540451
 30
0.0
  0
VERTEX
  5
531
330
528
100
AcDbEntity
  8
DIBUJOS
 62
     7
100
AcDbVertex
100
AcDb2dVertex
 10
98.1932682158027
 20
45.13241063366883
 30
0.0
  0
VERTEX
  5
532
330
528
100
AcDbEntity
  8
DIBUJOS
 62
     7
100
AcDbVertex
100
AcDb2dVertex
 10
98.14351495089986
 20
45.15619546985978
 30
0.0
  0
SEQEND
  5
533
330
528
100
AcDbEntity
  8
DIBUJOS
 62
     7
  0
POLYLINE
  5
534
330
4B2
100
AcDbEntity
  8
DIBUJOS
 62
     7
100
AcDb2dPolyline
 66
     1
 10
0.0
 20
0.0
 30
0.0
  0
VERTEX
  5
535
330
534
100
AcDbEntity
  8
DIBUJOS
 62
     7
100
AcDbVertex
100
AcDb2dVertex
 10
98.23912816814185
 20
43.064712716125
 30
0.0
  0
VERTEX
  5
536
330
534
100
AcDbEntity
  8
DIBUJOS
 62
     7
100
AcDbVertex
100
AcDb2dVertex
 10
98.23350314890232
 20
43.064712716125
 30
0.0
  0
SEQEND
  5
537
330
534
100
AcDbEntity
  8
DIBUJOS
 62
     7
  0
POLYLINE
  5
538
330
4B2
100
AcDbEntity
  8
DIBUJOS
 62
     7
100
AcDb2dPolyline
 66
     1
 10
0.0
 20
0.0
 30
0.0
  0
VERTEX
  5
539
330
538
100
AcDbEntity
  8
DIBUJOS
 62
     7
100
AcDbVertex
100
AcDb2dVertex
 10
98.3797294294663
 20
43.064712716125
 30
0.0
  0
VERTEX
  5
53A
330
538
100
AcDbEntity
  8
DIBUJOS
 62
     7
100
AcDbVertex
100
AcDb2dVertex
 10
98.36848544590474
 20
43.07033282565587
 30
0.0
  0
VERTEX
  5
53B
330
538
100
AcDbEntity
  8
DIBUJOS
 62
     7
100
AcDbVertex
100
AcDb2dVertex
 10
98.25037820662216
 20
43.07033282565587
 30
0.0
  0
VERTEX
  5
53C
330
538
100
AcDbEntity
  8
DIBUJOS
 62
     7
100
AcDbVertex
100
AcDb2dVertex
 10
98.23912816814185
 20
43.064712716125
 30
0.0
  0
SEQEND
  5
53D
330
538
100
AcDbEntity
  8
DIBUJOS
 62
     7
  0
POLYLINE
  5
53E
330
4B2
100
AcDbEntity
  8
DIBUJOS
 62
     7
100
AcDb2dPolyline
 66
     1
 10
0.0
 20
0.0
 30
0.0
  0
VERTEX
  5
53F
330
53E
100
AcDbEntity
  8
DIBUJOS
 62
     7
100
AcDbVertex
100
AcDb2dVertex
 10
98.38535444870645
 20
43.064712716125
 30
0.0
  0
VERTEX
  5
540
330
53E
100
AcDbEntity
  8
DIBUJOS
 62
     7
100
AcDbVertex
100
AcDb2dVertex
 10
98.3797294294663
 20
43.064712716125
 30
0.0
  0
SEQEND
  5
541
330
53E
100
AcDbEntity
  8
DIBUJOS
 62
     7
  0
POLYLINE
  5
542
330
4B2
100
AcDbEntity
  8
DIBUJOS
 62
     7
100
AcDb2dPolyline
 66
     1
 10
0.0
 20
0.0
 30
0.0
  0
VERTEX
  5
543
330
542
100
AcDbEntity
  8
DIBUJOS
 62
     7
100
AcDbVertex
100
AcDb2dVertex
 10
98.38535444870645
 20
43.064712716125
 30
0.0
  0
VERTEX
  5
544
330
542
100
AcDbEntity
  8
DIBUJOS
 62
     7
100
AcDbVertex
100
AcDb2dVertex
 10
98.38535444870645
 20
43.07033282565587
 30
0.0
  0
SEQEND
  5
545
330
542
100
AcDbEntity
  8
DIBUJOS
 62
     7
  0
POLYLINE
  5
546
330
4B2
100
AcDbEntity
  8
DIBUJOS
 62
     7
100
AcDb2dPolyline
 66
     1
 10
0.0
 20
0.0
 30
0.0
  0
VERTEX
  5
547
330
546
100
AcDbEntity
  8
DIBUJOS
 62
     7
100
AcDbVertex
100
AcDb2dVertex
 10
98.23350314890232
 20
43.05908958014768
 30
0.0
  0
VERTEX
  5
548
330
546
100
AcDbEntity
  8
DIBUJOS
 62
     7
100
AcDbVertex
100
AcDb2dVertex
 10
98.23350314890232
 20
43.064712716125
 30
0.0
  0
SEQEND
  5
549
330
546
100
AcDbEntity
  8
DIBUJOS
 62
     7
  0
POLYLINE
  5
54A
330
4B2
100
AcDbEntity
  8
DIBUJOS
 62
     7
100
AcDb2dPolyline
 66
     1
 10
0.0
 20
0.0
 30
0.0
  0
VERTEX
  5
54B
330
54A
100
AcDbEntity
  8
DIBUJOS
 62
     7
100
AcDbVertex
100
AcDb2dVertex
 10
98.38535444870645
 20
43.05908958014768
 30
0.0
  0
VERTEX
  5
54C
330
54A
100
AcDbEntity
  8
DIBUJOS
 62
     7
100
AcDbVertex
100
AcDb2dVertex
 10
98.38535444870645
 20
43.064712716125
 30
0.0
  0
SEQEND
  5
54D
330
54A
100
AcDbEntity
  8
DIBUJOS
 62
     7
  0
POLYLINE
  5
54E
330
4B2
100
AcDbEntity
  8
DIBUJOS
 62
     7
100
AcDb2dPolyline
 66
     1
 10
0.0
 20
0.0
 30
0.0
  0
VERTEX
  5
54F
330
54E
100
AcDbEntity
  8
DIBUJOS
 62
     7
100
AcDbVertex
100
AcDb2dVertex
 10
93.33486825573026
 20
43.05346644417099
 30
0.0
  0
VERTEX
  5
550
330
54E
100
AcDbEntity
  8
DIBUJOS
 62
     7
100
AcDbVertex
100
AcDb2dVertex
 10
93.32868012907464
 20
43.05796676881983
 30
0.0
  0
VERTEX
  5
551
330
54E
100
AcDbEntity
  8
DIBUJOS
 62
     7
100
AcDbVertex
100
AcDb2dVertex
 10
93.21113599720688
 20
43.11531186057996
 30
0.0
  0
SEQEND
  5
552
330
54E
100
AcDbEntity
  8
DIBUJOS
 62
     7
  0
POLYLINE
  5
553
330
4B2
100
AcDbEntity
  8
DIBUJOS
 62
     7
100
AcDb2dPolyline
 66
     1
 10
0.0
 20
0.0
 30
0.0
  0
VERTEX
  5
554
330
553
100
AcDbEntity
  8
DIBUJOS
 62
     7
100
AcDbVertex
100
AcDb2dVertex
 10
93.34049327496977
 20
43.05346644417099
 30
0.0
  0
VERTEX
  5
555
330
553
100
AcDbEntity
  8
DIBUJOS
 62
     7
100
AcDbVertex
100
AcDb2dVertex
 10
93.33486825573026
 20
43.05346644417099
 30
0.0
  0
SEQEND
  5
556
330
553
100
AcDbEntity
  8
DIBUJOS
 62
     7
  0
POLYLINE
  5
557
330
4B2
100
AcDbEntity
  8
DIBUJOS
 62
     7
100
AcDb2dPolyline
 66
     1
 10
0.0
 20
0.0
 30
0.0
  0
VERTEX
  5
558
330
557
100
AcDbEntity
  8
DIBUJOS
 62
     7
100
AcDbVertex
100
AcDb2dVertex
 10
93.34611829420993
 20
43.05346644417099
 30
0.0
  0
VERTEX
  5
559
330
557
100
AcDbEntity
  8
DIBUJOS
 62
     7
100
AcDbVertex
100
AcDb2dVertex
 10
93.34049327496977
 20
43.05346644417099
 30
0.0
  0
SEQEND
  5
55A
330
557
100
AcDbEntity
  8
DIBUJOS
 62
     7
  0
POLYLINE
  5
55B
330
4B2
100
AcDbEntity
  8
DIBUJOS
 62
     7
100
AcDb2dPolyline
 66
     1
 10
0.0
 20
0.0
 30
0.0
  0
VERTEX
  5
55C
330
55B
100
AcDbEntity
  8
DIBUJOS
 62
     7
100
AcDbVertex
100
AcDb2dVertex
 10
93.34611829420993
 20
43.05346644417099
 30
0.0
  0
VERTEX
  5
55D
330
55B
100
AcDbEntity
  8
DIBUJOS
 62
     7
100
AcDbVertex
100
AcDb2dVertex
 10
93.39223255312457
 20
43.14286159513235
 30
0.0
  0
VERTEX
  5
55E
330
55B
100
AcDbEntity
  8
DIBUJOS
 62
     7
100
AcDbVertex
100
AcDb2dVertex
 10
93.69481499281942
 20
43.73938310775922
 30
0.0
  0
VERTEX
  5
55F
330
55B
100
AcDbEntity
  8
DIBUJOS
 62
     7
100
AcDbVertex
100
AcDb2dVertex
 10
96.04008472076326
 20
43.74500624373623
 30
0.0
  0
VERTEX
  5
560
330
55B
100
AcDbEntity
  8
DIBUJOS
 62
     7
100
AcDbVertex
100
AcDb2dVertex
 10
98.22787812966216
 20
43.73938310775922
 30
0.0
  0
VERTEX
  5
561
330
55B
100
AcDbEntity
  8
DIBUJOS
 62
     7
100
AcDbVertex
100
AcDb2dVertex
 10
98.23350314890232
 20
43.064712716125
 30
0.0
  0
SEQEND
  5
562
330
55B
100
AcDbEntity
  8
DIBUJOS
 62
     7
  0
POLYLINE
  5
563
330
4B2
100
AcDbEntity
  8
DIBUJOS
 62
     7
100
AcDb2dPolyline
 66
     1
 10
0.0
 20
0.0
 30
0.0
  0
VERTEX
  5
564
330
563
100
AcDbEntity
  8
DIBUJOS
 62
     7
100
AcDbVertex
100
AcDb2dVertex
 10
93.34049327496977
 20
43.04784633463948
 30
0.0
  0
VERTEX
  5
565
330
563
100
AcDbEntity
  8
DIBUJOS
 62
     7
100
AcDbVertex
100
AcDb2dVertex
 10
93.34049327496977
 20
43.05346644417099
 30
0.0
  0
SEQEND
  5
566
330
563
100
AcDbEntity
  8
DIBUJOS
 62
     7
  0
POLYLINE
  5
567
330
4B2
100
AcDbEntity
  8
DIBUJOS
 62
     7
100
AcDb2dPolyline
 66
     1
 10
0.0
 20
0.0
 30
0.0
  0
VERTEX
  5
568
330
567
100
AcDbEntity
  8
DIBUJOS
 62
     7
100
AcDbVertex
100
AcDb2dVertex
 10
93.20551097796671
 20
43.11531186057996
 30
0.0
  0
VERTEX
  5
569
330
567
100
AcDbEntity
  8
DIBUJOS
 62
     7
100
AcDbVertex
100
AcDb2dVertex
 10
93.19062798841695
 20
43.09232600603482
 30
0.0
  0
VERTEX
  5
56A
330
567
100
AcDbEntity
  8
DIBUJOS
 62
     7
100
AcDbVertex
100
AcDb2dVertex
 10
93.18301695592612
 20
43.04784633463948
 30
0.0
  0
VERTEX
  5
56B
330
567
100
AcDbEntity
  8
DIBUJOS
 62
     7
100
AcDbVertex
100
AcDb2dVertex
 10
93.20551097796671
 20
43.01973368120059
 30
0.0
  0
VERTEX
  5
56C
330
567
100
AcDbEntity
  8
DIBUJOS
 62
     7
100
AcDbVertex
100
AcDb2dVertex
 10
93.26231822286371
 20
42.99274686553504
 30
0.0
  0
VERTEX
  5
56D
330
567
100
AcDbEntity
  8
DIBUJOS
 62
     7
100
AcDbVertex
100
AcDb2dVertex
 10
93.28987415672901
 20
42.98600091823051
 30
0.0
  0
VERTEX
  5
56E
330
567
100
AcDbEntity
  8
DIBUJOS
 62
     7
100
AcDbVertex
100
AcDb2dVertex
 10
93.33599447056179
 20
43.03041703426713
 30
0.0
  0
VERTEX
  5
56F
330
567
100
AcDbEntity
  8
DIBUJOS
 62
     7
100
AcDbVertex
100
AcDb2dVertex
 10
93.34049327496977
 20
43.04784633463948
 30
0.0
  0
SEQEND
  5
570
330
567
100
AcDbEntity
  8
DIBUJOS
 62
     7
  0
POLYLINE
  5
571
330
4B2
100
AcDbEntity
  8
DIBUJOS
 62
     7
100
AcDb2dPolyline
 66
     1
 10
0.0
 20
0.0
 30
0.0
  0
VERTEX
  5
572
330
571
100
AcDbEntity
  8
DIBUJOS
 62
     7
100
AcDbVertex
100
AcDb2dVertex
 10
98.23350314890232
 20
43.05908958014768
 30
0.0
  0
VERTEX
  5
573
330
571
100
AcDbEntity
  8
DIBUJOS
 62
     7
100
AcDbVertex
100
AcDb2dVertex
 10
98.22787812966216
 20
43.05346644417099
 30
0.0
  0
VERTEX
  5
574
330
571
100
AcDbEntity
  8
DIBUJOS
 62
     7
100
AcDbVertex
100
AcDb2dVertex
 10
98.244753187382
 20
42.9916210277617
 30
0.0
  0
VERTEX
  5
575
330
571
100
AcDbEntity
  8
DIBUJOS
 62
     7
100
AcDbVertex
100
AcDb2dVertex
 10
98.25544011844559
 20
42.98487508045653
 30
0.0
  0
VERTEX
  5
576
330
571
100
AcDbEntity
  8
DIBUJOS
 62
     7
100
AcDbVertex
100
AcDb2dVertex
 10
98.28412226714308
 20
42.97475464627649
 30
0.0
  0
VERTEX
  5
577
330
571
100
AcDbEntity
  8
DIBUJOS
 62
     7
100
AcDbVertex
100
AcDb2dVertex
 10
98.35723540742505
 20
42.98037778225318
 30
0.0
  0
VERTEX
  5
578
330
571
100
AcDbEntity
  8
DIBUJOS
 62
     7
100
AcDbVertex
100
AcDb2dVertex
 10
98.3797294294663
 20
43.00286729971539
 30
0.0
  0
VERTEX
  5
579
330
571
100
AcDbEntity
  8
DIBUJOS
 62
     7
100
AcDbVertex
100
AcDb2dVertex
 10
98.38307779936895
 20
43.014491877373
 30
0.0
  0
VERTEX
  5
57A
330
571
100
AcDbEntity
  8
DIBUJOS
 62
     7
100
AcDbVertex
100
AcDb2dVertex
 10
98.39097946794597
 20
43.05346644417099
 30
0.0
  0
VERTEX
  5
57B
330
571
100
AcDbEntity
  8
DIBUJOS
 62
     7
100
AcDbVertex
100
AcDb2dVertex
 10
98.38535444870645
 20
43.05908958014768
 30
0.0
  0
SEQEND
  5
57C
330
571
100
AcDbEntity
  8
DIBUJOS
 62
     7
  0
POLYLINE
  5
57D
330
4B2
100
AcDbEntity
  8
DIBUJOS
 62
     7
100
AcDb2dPolyline
 66
     1
 10
0.0
 20
0.0
 30
0.0
  0
VERTEX
  5
57E
330
57D
100
AcDbEntity
  8
DIBUJOS
 62
     7
100
AcDbVertex
100
AcDb2dVertex
 10
95.44755968467855
 20
47.36574894688228
 30
0.0
  0
VERTEX
  5
57F
330
57D
100
AcDbEntity
  8
DIBUJOS
 62
     7
100
AcDbVertex
100
AcDb2dVertex
 10
95.44755968467855
 20
47.37136905641379
 30
0.0
  0
SEQEND
  5
580
330
57D
100
AcDbEntity
  8
DIBUJOS
 62
     7
  0
POLYLINE
  5
581
330
4B2
100
AcDbEntity
  8
DIBUJOS
 62
     7
100
AcDb2dPolyline
 66
     1
 10
0.0
 20
0.0
 30
0.0
  0
VERTEX
  5
582
330
581
100
AcDbEntity
  8
DIBUJOS
 62
     7
100
AcDbVertex
100
AcDb2dVertex
 10
95.45318470391807
 20
47.36574894688228
 30
0.0
  0
VERTEX
  5
583
330
581
100
AcDbEntity
  8
DIBUJOS
 62
     7
100
AcDbVertex
100
AcDb2dVertex
 10
95.44755968467855
 20
47.36574894688228
 30
0.0
  0
SEQEND
  5
584
330
581
100
AcDbEntity
  8
DIBUJOS
 62
     7
  0
POLYLINE
  5
585
330
4B2
100
AcDbEntity
  8
DIBUJOS
 62
     7
100
AcDb2dPolyline
 66
     1
 10
0.0
 20
0.0
 30
0.0
  0
VERTEX
  5
586
330
585
100
AcDbEntity
  8
DIBUJOS
 62
     7
100
AcDbVertex
100
AcDb2dVertex
 10
95.44755968467855
 20
47.3601258109056
 30
0.0
  0
VERTEX
  5
587
330
585
100
AcDbEntity
  8
DIBUJOS
 62
     7
100
AcDbVertex
100
AcDb2dVertex
 10
95.44755968467855
 20
47.36574894688228
 30
0.0
  0
SEQEND
  5
588
330
585
100
AcDbEntity
  8
DIBUJOS
 62
     7
  0
POLYLINE
  5
589
330
4B2
100
AcDbEntity
  8
DIBUJOS
 62
     7
100
AcDb2dPolyline
 66
     1
 10
0.0
 20
0.0
 30
0.0
  0
VERTEX
  5
58A
330
589
100
AcDbEntity
  8
DIBUJOS
 62
     7
100
AcDbVertex
100
AcDb2dVertex
 10
95.46443171493932
 20
46.95532054947912
 30
0.0
  0
VERTEX
  5
58B
330
589
100
AcDbEntity
  8
DIBUJOS
 62
     7
100
AcDbVertex
100
AcDb2dVertex
 10
95.4599329105307
 20
46.96150660434296
 30
0.0
  0
VERTEX
  5
58C
330
589
100
AcDbEntity
  8
DIBUJOS
 62
     7
100
AcDbVertex
100
AcDb2dVertex
 10
95.45029045289941
 20
47.16904511328661
 30
0.0
  0
VERTEX
  5
58D
330
589
100
AcDbEntity
  8
DIBUJOS
 62
     7
100
AcDbVertex
100
AcDb2dVertex
 10
95.44755968467855
 20
47.3601258109056
 30
0.0
  0
SEQEND
  5
58E
330
589
100
AcDbEntity
  8
DIBUJOS
 62
     7
  0
POLYLINE
  5
58F
330
4B2
100
AcDbEntity
  8
DIBUJOS
 62
     7
100
AcDb2dPolyline
 66
     1
 10
0.0
 20
0.0
 30
0.0
  0
VERTEX
  5
590
330
58F
100
AcDbEntity
  8
DIBUJOS
 62
     7
100
AcDbVertex
100
AcDb2dVertex
 10
95.47005673417885
 20
46.95532054947912
 30
0.0
  0
VERTEX
  5
591
330
58F
100
AcDbEntity
  8
DIBUJOS
 62
     7
100
AcDbVertex
100
AcDb2dVertex
 10
95.46443171493932
 20
46.95532054947912
 30
0.0
  0
SEQEND
  5
592
330
58F
100
AcDbEntity
  8
DIBUJOS
 62
     7
  0
POLYLINE
  5
593
330
4B2
100
AcDbEntity
  8
DIBUJOS
 62
     7
100
AcDb2dPolyline
 66
     1
 10
0.0
 20
0.0
 30
0.0
  0
VERTEX
  5
594
330
593
100
AcDbEntity
  8
DIBUJOS
 62
     7
100
AcDbVertex
100
AcDb2dVertex
 10
95.47005673417885
 20
46.95532054947912
 30
0.0
  0
VERTEX
  5
595
330
593
100
AcDbEntity
  8
DIBUJOS
 62
     7
100
AcDbVertex
100
AcDb2dVertex
 10
95.47568175341901
 20
46.95532054947912
 30
0.0
  0
VERTEX
  5
596
330
593
100
AcDbEntity
  8
DIBUJOS
 62
     7
100
AcDbVertex
100
AcDb2dVertex
 10
95.48692876443963
 20
46.97218995741014
 30
0.0
  0
VERTEX
  5
597
330
593
100
AcDbEntity
  8
DIBUJOS
 62
     7
100
AcDbVertex
100
AcDb2dVertex
 10
97.91656167114448
 20
46.97781006694132
 30
0.0
  0
VERTEX
  5
598
330
593
100
AcDbEntity
  8
DIBUJOS
 62
     7
100
AcDbVertex
100
AcDb2dVertex
 10
98.70956828560608
 20
46.97218995741014
 30
0.0
  0
SEQEND
  5
599
330
593
100
AcDbEntity
  8
DIBUJOS
 62
     7
  0
POLYLINE
  5
59A
330
4B2
100
AcDbEntity
  8
DIBUJOS
 62
     7
100
AcDb2dPolyline
 66
     1
 10
0.0
 20
0.0
 30
0.0
  0
VERTEX
  5
59B
330
59A
100
AcDbEntity
  8
DIBUJOS
 62
     7
100
AcDbVertex
100
AcDb2dVertex
 10
95.46443171493932
 20
46.94970043994825
 30
0.0
  0
VERTEX
  5
59C
330
59A
100
AcDbEntity
  8
DIBUJOS
 62
     7
100
AcDbVertex
100
AcDb2dVertex
 10
95.46443171493932
 20
46.95532054947912
 30
0.0
  0
SEQEND
  5
59D
330
59A
100
AcDbEntity
  8
DIBUJOS
 62
     7
  0
POLYLINE
  5
59E
330
4B2
100
AcDbEntity
  8
DIBUJOS
 62
     7
100
AcDb2dPolyline
 66
     1
 10
0.0
 20
0.0
 30
0.0
  0
VERTEX
  5
59F
330
59E
100
AcDbEntity
  8
DIBUJOS
 62
     7
100
AcDbVertex
100
AcDb2dVertex
 10
95.28474127900654
 20
45.1648037877648
 30
0.0
  0
VERTEX
  5
5A0
330
59E
100
AcDbEntity
  8
DIBUJOS
 62
     7
100
AcDbVertex
100
AcDb2dVertex
 10
93.42841997428222
 20
45.16470280852035
 30
0.0
  0
VERTEX
  5
5A1
330
59E
100
AcDbEntity
  8
DIBUJOS
 62
     7
100
AcDbVertex
100
AcDb2dVertex
 10
93.14751111517795
 20
45.17559801278123
 30
0.0
  0
VERTEX
  5
5A2
330
59E
100
AcDbEntity
  8
DIBUJOS
 62
     7
100
AcDbVertex
100
AcDb2dVertex
 10
93.1368998705948
 20
45.17998333249624
 30
0.0
  0
VERTEX
  5
5A3
330
59E
100
AcDbEntity
  8
DIBUJOS
 62
     7
100
AcDbVertex
100
AcDb2dVertex
 10
93.10228995673536
 20
45.2067976407612
 30
0.0
  0
VERTEX
  5
5A4
330
59E
100
AcDbEntity
  8
DIBUJOS
 62
     7
100
AcDbVertex
100
AcDb2dVertex
 10
93.07780689398312
 20
45.27376682961875
 30
0.0
  0
VERTEX
  5
5A5
330
59E
100
AcDbEntity
  8
DIBUJOS
 62
     7
100
AcDbVertex
100
AcDb2dVertex
 10
92.98162148694786
 20
46.40974924900097
 30
0.0
  0
VERTEX
  5
5A6
330
59E
100
AcDbEntity
  8
DIBUJOS
 62
     7
100
AcDbVertex
100
AcDb2dVertex
 10
92.93676665107064
 20
46.80884058108126
 30
0.0
  0
VERTEX
  5
5A7
330
59E
100
AcDbEntity
  8
DIBUJOS
 62
     7
100
AcDbVertex
100
AcDb2dVertex
 10
92.880782875084
 20
47.11793449952025
 30
0.0
  0
VERTEX
  5
5A8
330
59E
100
AcDbEntity
  8
DIBUJOS
 62
     7
100
AcDbVertex
100
AcDb2dVertex
 10
92.6956628258564
 20
47.89929920532621
 30
0.0
  0
VERTEX
  5
5A9
330
59E
100
AcDbEntity
  8
DIBUJOS
 62
     7
100
AcDbVertex
100
AcDb2dVertex
 10
92.10335253833507
 20
50.39095978512247
 30
0.0
  0
VERTEX
  5
5AA
330
59E
100
AcDbEntity
  8
DIBUJOS
 62
     7
100
AcDbVertex
100
AcDb2dVertex
 10
92.05983583943541
 20
50.58119005151956
 30
0.0
  0
VERTEX
  5
5AB
330
59E
100
AcDbEntity
  8
DIBUJOS
 62
     7
100
AcDbVertex
100
AcDb2dVertex
 10
91.9493366051846
 20
51.10455632042506
 30
0.0
  0
VERTEX
  5
5AC
330
59E
100
AcDbEntity
  8
DIBUJOS
 62
     7
100
AcDbVertex
100
AcDb2dVertex
 10
91.9493366051846
 20
51.25073364426036
 30
0.0
  0
VERTEX
  5
5AD
330
59E
100
AcDbEntity
  8
DIBUJOS
 62
     7
100
AcDbVertex
100
AcDb2dVertex
 10
91.96328713729321
 20
51.28806787752809
 30
0.0
  0
VERTEX
  5
5AE
330
59E
100
AcDbEntity
  8
DIBUJOS
 62
     7
100
AcDbVertex
100
AcDb2dVertex
 10
91.99163021055689
 20
51.32585002474851
 30
0.0
  0
VERTEX
  5
5AF
330
59E
100
AcDbEntity
  8
DIBUJOS
 62
     7
100
AcDbVertex
100
AcDb2dVertex
 10
91.99995572342598
 20
51.34631485008555
 30
0.0
  0
VERTEX
  5
5B0
330
59E
100
AcDbEntity
  8
DIBUJOS
 62
     7
100
AcDbVertex
100
AcDb2dVertex
 10
92.02807476470673
 20
51.37442447707894
 30
0.0
  0
VERTEX
  5
5B1
330
59E
100
AcDbEntity
  8
DIBUJOS
 62
     7
100
AcDbVertex
100
AcDb2dVertex
 10
92.07925699036358
 20
51.41209464581103
 30
0.0
  0
VERTEX
  5
5B2
330
59E
100
AcDbEntity
  8
DIBUJOS
 62
     7
100
AcDbVertex
100
AcDb2dVertex
 10
92.08937778655266
 20
51.41546610624103
 30
0.0
  0
VERTEX
  5
5B3
330
59E
100
AcDbEntity
  8
DIBUJOS
 62
     7
100
AcDbVertex
100
AcDb2dVertex
 10
92.20838720868511
 20
51.45639878335996
 30
0.0
  0
VERTEX
  5
5B4
330
59E
100
AcDbEntity
  8
DIBUJOS
 62
     7
100
AcDbVertex
100
AcDb2dVertex
 10
92.2414561457988
 20
51.46112003854028
 30
0.0
  0
VERTEX
  5
5B5
330
59E
100
AcDbEntity
  8
DIBUJOS
 62
     7
100
AcDbVertex
100
AcDb2dVertex
 10
92.4387798831613
 20
51.48421484512794
 30
0.0
  0
VERTEX
  5
5B6
330
59E
100
AcDbEntity
  8
DIBUJOS
 62
     7
100
AcDbVertex
100
AcDb2dVertex
 10
92.53973353847603
 20
51.48952625720491
 30
0.0
  0
VERTEX
  5
5B7
330
59E
100
AcDbEntity
  8
DIBUJOS
 62
     7
100
AcDbVertex
100
AcDb2dVertex
 10
92.68626559242215
 20
51.48949599274863
 30
0.0
  0
VERTEX
  5
5B8
330
59E
100
AcDbEntity
  8
DIBUJOS
 62
     7
100
AcDbVertex
100
AcDb2dVertex
 10
92.77029877812849
 20
51.48424510958422
 30
0.0
  0
VERTEX
  5
5B9
330
59E
100
AcDbEntity
  8
DIBUJOS
 62
     7
100
AcDbVertex
100
AcDb2dVertex
 10
92.93962154512018
 20
51.46092029312859
 30
0.0
  0
VERTEX
  5
5BA
330
59E
100
AcDbEntity
  8
DIBUJOS
 62
     7
100
AcDbVertex
100
AcDb2dVertex
 10
92.96125274128194
 20
51.45659550232615
 30
0.0
  0
VERTEX
  5
5BB
330
59E
100
AcDbEntity
  8
DIBUJOS
 62
     7
100
AcDbVertex
100
AcDb2dVertex
 10
93.19171201986204
 20
51.40084837385734
 30
0.0
  0
VERTEX
  5
5BC
330
59E
100
AcDbEntity
  8
DIBUJOS
 62
     7
100
AcDbVertex
100
AcDb2dVertex
 10
93.39530562527938
 20
51.33057127992819
 30
0.0
  0
VERTEX
  5
5BD
330
59E
100
AcDbEntity
  8
DIBUJOS
 62
     7
100
AcDbVertex
100
AcDb2dVertex
 10
93.5569810302689
 20
51.24943832553128
 30
0.0
  0
VERTEX
  5
5BE
330
59E
100
AcDbEntity
  8
DIBUJOS
 62
     7
100
AcDbVertex
100
AcDb2dVertex
 10
93.59807878924735
 20
51.22392236244121
 30
0.0
  0
VERTEX
  5
5BF
330
59E
100
AcDbEntity
  8
DIBUJOS
 62
     7
100
AcDbVertex
100
AcDb2dVertex
 10
93.7828113236942
 20
51.08206680296318
 30
0.0
  0
VERTEX
  5
5C0
330
59E
100
AcDbEntity
  8
DIBUJOS
 62
     7
100
AcDbVertex
100
AcDb2dVertex
 10
93.90229000200597
 20
50.94822829795345
 30
0.0
  0
VERTEX
  5
5C1
330
59E
100
AcDbEntity
  8
DIBUJOS
 62
     7
100
AcDbVertex
100
AcDb2dVertex
 10
94.0707681078732
 20
50.7115602498391
 30
0.0
  0
VERTEX
  5
5C2
330
59E
100
AcDbEntity
  8
DIBUJOS
 62
     7
100
AcDbVertex
100
AcDb2dVertex
 10
94.16957832205631
 20
50.54146492620602
 30
0.0
  0
VERTEX
  5
5C3
330
59E
100
AcDbEntity
  8
DIBUJOS
 62
     7
100
AcDbVertex
100
AcDb2dVertex
 10
94.38347134375779
 20
50.14258544531911
 30
0.0
  0
VERTEX
  5
5C4
330
59E
100
AcDbEntity
  8
DIBUJOS
 62
     7
100
AcDbVertex
100
AcDb2dVertex
 10
94.59943817502727
 20
49.70517325869621
 30
0.0
  0
VERTEX
  5
5C5
330
59E
100
AcDbEntity
  8
DIBUJOS
 62
     7
100
AcDbVertex
100
AcDb2dVertex
 10
94.8418377527909
 20
49.17668019089697
 30
0.0
  0
VERTEX
  5
5C6
330
59E
100
AcDbEntity
  8
DIBUJOS
 62
     7
100
AcDbVertex
100
AcDb2dVertex
 10
94.94250985439724
 20
48.94616793319049
 30
0.0
  0
VERTEX
  5
5C7
330
59E
100
AcDbEntity
  8
DIBUJOS
 62
     7
100
AcDbVertex
100
AcDb2dVertex
 10
95.34463818086756
 20
47.9667677577125
 30
0.0
  0
VERTEX
  5
5C8
330
59E
100
AcDbEntity
  8
DIBUJOS
 62
     7
100
AcDbVertex
100
AcDb2dVertex
 10
95.38175785842463
 20
47.84982589864427
 30
0.0
  0
VERTEX
  5
5C9
330
59E
100
AcDbEntity
  8
DIBUJOS
 62
     7
100
AcDbVertex
100
AcDb2dVertex
 10
95.41153594736109
 20
47.72519384123557
 30
0.0
  0
VERTEX
  5
5CA
330
59E
100
AcDbEntity
  8
DIBUJOS
 62
     7
100
AcDbVertex
100
AcDb2dVertex
 10
95.42160224928381
 20
47.66978264823143
 30
0.0
  0
VERTEX
  5
5CB
330
59E
100
AcDbEntity
  8
DIBUJOS
 62
     7
100
AcDbVertex
100
AcDb2dVertex
 10
95.43928866607583
 20
47.50053472937377
 30
0.0
  0
VERTEX
  5
5CC
330
59E
100
AcDbEntity
  8
DIBUJOS
 62
     7
100
AcDbVertex
100
AcDb2dVertex
 10
95.44755968467855
 20
47.37136905641379
 30
0.0
  0
SEQEND
  5
5CD
330
59E
100
AcDbEntity
  8
DIBUJOS
 62
     7
  0
POLYLINE
  5
5CE
330
4B2
100
AcDbEntity
  8
DIBUJOS
 62
     7
100
AcDb2dPolyline
 66
     1
 10
0.0
 20
0.0
 30
0.0
  0
VERTEX
  5
5CF
330
5CE
100
AcDbEntity
  8
DIBUJOS
 62
     7
100
AcDbVertex
100
AcDb2dVertex
 10
98.11015235024091
 20
45.16409751939523
 30
0.0
  0
VERTEX
  5
5D0
330
5CE
100
AcDbEntity
  8
DIBUJOS
 62
     7
100
AcDbVertex
100
AcDb2dVertex
 10
98.63055462729434
 20
45.17553143097766
 30
0.0
  0
VERTEX
  5
5D1
330
5CE
100
AcDbEntity
  8
DIBUJOS
 62
     7
100
AcDbVertex
100
AcDb2dVertex
 10
98.67582422508453
 20
45.1899282328305
 30
0.0
  0
VERTEX
  5
5D2
330
5CE
100
AcDbEntity
  8
DIBUJOS
 62
     7
100
AcDbVertex
100
AcDb2dVertex
 10
98.70169386416192
 20
45.22478683357393
 30
0.0
  0
VERTEX
  5
5D3
330
5CE
100
AcDbEntity
  8
DIBUJOS
 62
     7
100
AcDbVertex
100
AcDb2dVertex
 10
98.71817837964197
 20
45.29690703289116
 30
0.0
  0
VERTEX
  5
5D4
330
5CE
100
AcDbEntity
  8
DIBUJOS
 62
     7
100
AcDbVertex
100
AcDb2dVertex
 10
98.75725682331748
 20
46.17933989044569
 30
0.0
  0
VERTEX
  5
5D5
330
5CE
100
AcDbEntity
  8
DIBUJOS
 62
     7
100
AcDbVertex
100
AcDb2dVertex
 10
98.78268142588807
 20
46.73605456372698
 30
0.0
  0
VERTEX
  5
5D6
330
5CE
100
AcDbEntity
  8
DIBUJOS
 62
     7
100
AcDbVertex
100
AcDb2dVertex
 10
98.78268142588807
 20
46.93283405846273
 30
0.0
  0
VERTEX
  5
5D7
330
5CE
100
AcDbEntity
  8
DIBUJOS
 62
     7
100
AcDbVertex
100
AcDb2dVertex
 10
98.74893736536652
 20
46.98905633889502
 30
0.0
  0
VERTEX
  5
5D8
330
5CE
100
AcDbEntity
  8
DIBUJOS
 62
     7
100
AcDbVertex
100
AcDb2dVertex
 10
98.70956828560608
 20
47.02841223784242
 30
0.0
  0
VERTEX
  5
5D9
330
5CE
100
AcDbEntity
  8
DIBUJOS
 62
     7
100
AcDbVertex
100
AcDb2dVertex
 10
98.61902000764724
 20
47.07226543499285
 30
0.0
  0
VERTEX
  5
5DA
330
5CE
100
AcDbEntity
  8
DIBUJOS
 62
     7
100
AcDbVertex
100
AcDb2dVertex
 10
98.5639020849985
 20
47.09700360155657
 30
0.0
  0
VERTEX
  5
5DB
330
5CE
100
AcDbEntity
  8
DIBUJOS
 62
     7
100
AcDbVertex
100
AcDb2dVertex
 10
98.27032028157869
 20
47.21225973041012
 30
0.0
  0
VERTEX
  5
5DC
330
5CE
100
AcDbEntity
  8
DIBUJOS
 62
     7
100
AcDbVertex
100
AcDb2dVertex
 10
98.25351485542117
 20
47.21758324826975
 30
0.0
  0
VERTEX
  5
5DD
330
5CE
100
AcDbEntity
  8
DIBUJOS
 62
     7
100
AcDbVertex
100
AcDb2dVertex
 10
97.9788092602691
 20
47.28931606254591
 30
0.0
  0
VERTEX
  5
5DE
330
5CE
100
AcDbEntity
  8
DIBUJOS
 62
     7
100
AcDbVertex
100
AcDb2dVertex
 10
97.94506217228849
 20
47.29493617207709
 30
0.0
  0
VERTEX
  5
5DF
330
5CE
100
AcDbEntity
  8
DIBUJOS
 62
     7
100
AcDbVertex
100
AcDb2dVertex
 10
97.69691647691701
 20
47.33521513694097
 30
0.0
  0
VERTEX
  5
5E0
330
5CE
100
AcDbEntity
  8
DIBUJOS
 62
     7
100
AcDbVertex
100
AcDb2dVertex
 10
97.65815591645992
 20
47.34005744994613
 30
0.0
  0
VERTEX
  5
5E1
330
5CE
100
AcDbEntity
  8
DIBUJOS
 62
     7
100
AcDbVertex
100
AcDb2dVertex
 10
97.4105369989932
 20
47.36277092438436
 30
0.0
  0
VERTEX
  5
5E2
330
5CE
100
AcDbEntity
  8
DIBUJOS
 62
     7
100
AcDbVertex
100
AcDb2dVertex
 10
96.724242267293
 20
47.38261532836781
 30
0.0
  0
VERTEX
  5
5E3
330
5CE
100
AcDbEntity
  8
DIBUJOS
 62
     7
100
AcDbVertex
100
AcDb2dVertex
 10
95.55990869651573
 20
47.36841221903533
 30
0.0
  0
VERTEX
  5
5E4
330
5CE
100
AcDbEntity
  8
DIBUJOS
 62
     7
100
AcDbVertex
100
AcDb2dVertex
 10
95.45318470391807
 20
47.36574894688228
 30
0.0
  0
SEQEND
  5
5E5
330
5CE
100
AcDbEntity
  8
DIBUJOS
 62
     7
  0
ENDBLK
  5
4B5
330
4B2
100
AcDbEntity
  8
0
100
AcDbBlockEnd
  0
BLOCK
  5
5E8
330
5E6
100
AcDbEntity
  8
0
100
AcDbBlockBegin
  2
BLOCK_7
 70
     0
 10
0.0
 20
0.0
 30
0.0
  3
BLOCK_7
  1

  0
POLYLINE
  5
5EA
330
5E6
100
AcDbEntity
  8
DIBUJOS
 62
     7
100
AcDb2dPolyline
 66
     1
 10
0.0
 20
0.0
 30
0.0
  0
VERTEX
  5
5EB
330
5EA
100
AcDbEntity
  8
DIBUJOS
 62
     7
100
AcDbVertex
100
AcDb2dVertex
 10
85.49987122719234
 20
32.35698400110613
 30
0.0
  0
VERTEX
  5
5EC
330
5EA
100
AcDbEntity
  8
DIBUJOS
 62
     7
100
AcDbVertex
100
AcDb2dVertex
 10
85.3066648343752
 20
33.32914037897311
 30
0.0
  0
VERTEX
  5
5ED
330
5EA
100
AcDbEntity
  8
DIBUJOS
 62
     7
100
AcDbVertex
100
AcDb2dVertex
 10
85.26167073537397
 20
33.5146751149784
 30
0.0
  0
VERTEX
  5
5EE
330
5EA
100
AcDbEntity
  8
DIBUJOS
 62
     7
100
AcDbVertex
100
AcDb2dVertex
 10
85.15848432888075
 20
33.91491498317473
 30
0.0
  0
VERTEX
  5
5EF
330
5EA
100
AcDbEntity
  8
DIBUJOS
 62
     7
100
AcDbVertex
100
AcDb2dVertex
 10
85.09043310042284
 20
34.12293923664159
 30
0.0
  0
VERTEX
  5
5F0
330
5EA
100
AcDbEntity
  8
DIBUJOS
 62
     7
100
AcDbVertex
100
AcDb2dVertex
 10
85.00944402496717
 20
34.32983765233606
 30
0.0
  0
VERTEX
  5
5F1
330
5EA
100
AcDbEntity
  8
DIBUJOS
 62
     7
100
AcDbVertex
100
AcDb2dVertex
 10
84.9329567813792
 20
34.48838557267548
 30
0.0
  0
VERTEX
  5
5F2
330
5EA
100
AcDbEntity
  8
DIBUJOS
 62
     7
100
AcDbVertex
100
AcDb2dVertex
 10
84.85736717945058
 20
34.6273690352526
 30
0.0
  0
VERTEX
  5
5F3
330
5EA
100
AcDbEntity
  8
DIBUJOS
 62
     7
100
AcDbVertex
100
AcDb2dVertex
 10
84.77008098880722
 20
34.74745991099676
 30
0.0
  0
VERTEX
  5
5F4
330
5EA
100
AcDbEntity
  8
DIBUJOS
 62
     7
100
AcDbVertex
100
AcDb2dVertex
 10
84.6855876292981
 20
34.86028731723302
 30
0.0
  0
VERTEX
  5
5F5
330
5EA
100
AcDbEntity
  8
DIBUJOS
 62
     7
100
AcDbVertex
100
AcDb2dVertex
 10
84.42450560065839
 20
35.08802432429908
 30
0.0
  0
VERTEX
  5
5F6
330
5EA
100
AcDbEntity
  8
DIBUJOS
 62
     7
100
AcDbVertex
100
AcDb2dVertex
 10
84.34073277644504
 20
35.13888222985572
 30
0.0
  0
VERTEX
  5
5F7
330
5EA
100
AcDbEntity
  8
DIBUJOS
 62
     7
100
AcDbVertex
100
AcDb2dVertex
 10
84.092967027206
 20
35.29051018226712
 30
0.0
  0
VERTEX
  5
5F8
330
5EA
100
AcDbEntity
  8
DIBUJOS
 62
     7
100
AcDbVertex
100
AcDb2dVertex
 10
83.87392883855233
 20
35.38007784062938
 30
0.0
  0
VERTEX
  5
5F9
330
5EA
100
AcDbEntity
  8
DIBUJOS
 62
     7
100
AcDbVertex
100
AcDb2dVertex
 10
83.67708343974697
 20
35.45878963852355
 30
0.0
  0
VERTEX
  5
5FA
330
5EA
100
AcDbEntity
  8
DIBUJOS
 62
     7
100
AcDbVertex
100
AcDb2dVertex
 10
83.35663596316569
 20
35.52578152572379
 30
0.0
  0
VERTEX
  5
5FB
330
5EA
100
AcDbEntity
  8
DIBUJOS
 62
     7
100
AcDbVertex
100
AcDb2dVertex
 10
83.19440047821979
 20
35.55821745674221
 30
0.0
  0
VERTEX
  5
5FC
330
5EA
100
AcDbEntity
  8
DIBUJOS
 62
     7
100
AcDbVertex
100
AcDb2dVertex
 10
83.07045024263225
 20
35.57548030260466
 30
0.0
  0
VERTEX
  5
5FD
330
5EA
100
AcDbEntity
  8
DIBUJOS
 62
     7
100
AcDbVertex
100
AcDb2dVertex
 10
82.50219765984153
 20
35.60665571901966
 30
0.0
  0
VERTEX
  5
5FE
330
5EA
100
AcDbEntity
  8
DIBUJOS
 62
     7
100
AcDbVertex
100
AcDb2dVertex
 10
82.20961491796614
 20
35.59808179855519
 30
0.0
  0
VERTEX
  5
5FF
330
5EA
100
AcDbEntity
  8
DIBUJOS
 62
     7
100
AcDbVertex
100
AcDb2dVertex
 10
81.69817412126102
 20
35.57038679461269
 30
0.0
  0
VERTEX
  5
600
330
5EA
100
AcDbEntity
  8
DIBUJOS
 62
     7
100
AcDbVertex
100
AcDb2dVertex
 10
81.49585507617769
 20
35.53128663032115
 30
0.0
  0
VERTEX
  5
601
330
5EA
100
AcDbEntity
  8
DIBUJOS
 62
     7
100
AcDbVertex
100
AcDb2dVertex
 10
81.37693496409211
 20
35.5076167990637
 30
0.0
  0
VERTEX
  5
602
330
5EA
100
AcDbEntity
  8
DIBUJOS
 62
     7
100
AcDbVertex
100
AcDb2dVertex
 10
81.15296353063101
 20
35.45878963852355
 30
0.0
  0
VERTEX
  5
603
330
5EA
100
AcDbEntity
  8
DIBUJOS
 62
     7
100
AcDbVertex
100
AcDb2dVertex
 10
80.92124861333862
 20
35.36658443279644
 30
0.0
  0
VERTEX
  5
604
330
5EA
100
AcDbEntity
  8
DIBUJOS
 62
     7
100
AcDbVertex
100
AcDb2dVertex
 10
80.74832771105801
 20
35.2961333182438
 30
0.0
  0
VERTEX
  5
605
330
5EA
100
AcDbEntity
  8
DIBUJOS
 62
     7
100
AcDbVertex
100
AcDb2dVertex
 10
80.49943726071699
 20
35.14675401493457
 30
0.0
  0
VERTEX
  5
606
330
5EA
100
AcDbEntity
  8
DIBUJOS
 62
     7
100
AcDbVertex
100
AcDb2dVertex
 10
80.3751161613742
 20
35.06267784216378
 30
0.0
  0
VERTEX
  5
607
330
5EA
100
AcDbEntity
  8
DIBUJOS
 62
     7
100
AcDbVertex
100
AcDb2dVertex
 10
80.14445934108053
 20
34.86028731723302
 30
0.0
  0
VERTEX
  5
608
330
5EA
100
AcDbEntity
  8
DIBUJOS
 62
     7
100
AcDbVertex
100
AcDb2dVertex
 10
80.04579368807481
 20
34.72856883738639
 30
0.0
  0
VERTEX
  5
609
330
5EA
100
AcDbEntity
  8
DIBUJOS
 62
     7
100
AcDbVertex
100
AcDb2dVertex
 10
79.97267979092805
 20
34.6273690352526
 30
0.0
  0
VERTEX
  5
60A
330
5EA
100
AcDbEntity
  8
DIBUJOS
 62
     7
100
AcDbVertex
100
AcDb2dVertex
 10
79.88809258018345
 20
34.46477324388542
 30
0.0
  0
VERTEX
  5
60B
330
5EA
100
AcDbEntity
  8
DIBUJOS
 62
     7
100
AcDbVertex
100
AcDb2dVertex
 10
79.82060218854669
 20
34.32983765233606
 30
0.0
  0
VERTEX
  5
60C
330
5EA
100
AcDbEntity
  8
DIBUJOS
 62
     7
100
AcDbVertex
100
AcDb2dVertex
 10
79.73117861169048
 20
34.09370225865226
 30
0.0
  0
VERTEX
  5
60D
330
5EA
100
AcDbEntity
  8
DIBUJOS
 62
     7
100
AcDbVertex
100
AcDb2dVertex
 10
79.67156264149723
 20
33.90929184719804
 30
0.0
  0
VERTEX
  5
60E
330
5EA
100
AcDbEntity
  8
DIBUJOS
 62
     7
100
AcDbVertex
100
AcDb2dVertex
 10
79.55878145985557
 20
33.4706887542205
 30
0.0
  0
VERTEX
  5
60F
330
5EA
100
AcDbEntity
  8
DIBUJOS
 62
     7
100
AcDbVertex
100
AcDb2dVertex
 10
79.33580076242644
 20
32.36260562386023
 30
0.0
  0
SEQEND
  5
610
330
5EA
100
AcDbEntity
  8
DIBUJOS
 62
     7
  0
POLYLINE
  5
611
330
5E6
100
AcDbEntity
  8
DIBUJOS
 62
     7
100
AcDb2dPolyline
 66
     1
 10
0.0
 20
0.0
 30
0.0
  0
VERTEX
  5
612
330
611
100
AcDbEntity
  8
DIBUJOS
 62
     7
100
AcDbVertex
100
AcDb2dVertex
 10
79.33580076242644
 20
32.36260562386023
 30
0.0
  0
VERTEX
  5
613
330
611
100
AcDbEntity
  8
DIBUJOS
 62
     7
100
AcDbVertex
100
AcDb2dVertex
 10
79.33017650005169
 20
32.36260562386023
 30
0.0
  0
SEQEND
  5
614
330
611
100
AcDbEntity
  8
DIBUJOS
 62
     7
  0
POLYLINE
  5
615
330
5E6
100
AcDbEntity
  8
DIBUJOS
 62
     7
100
AcDb2dPolyline
 66
     1
 10
0.0
 20
0.0
 30
0.0
  0
VERTEX
  5
616
330
615
100
AcDbEntity
  8
DIBUJOS
 62
     7
100
AcDbVertex
100
AcDb2dVertex
 10
79.33017650005169
 20
32.35698400110613
 30
0.0
  0
VERTEX
  5
617
330
615
100
AcDbEntity
  8
DIBUJOS
 62
     7
100
AcDbVertex
100
AcDb2dVertex
 10
79.33017650005169
 20
32.36260562386023
 30
0.0
  0
SEQEND
  5
618
330
615
100
AcDbEntity
  8
DIBUJOS
 62
     7
  0
POLYLINE
  5
619
330
5E6
100
AcDbEntity
  8
DIBUJOS
 62
     7
100
AcDb2dPolyline
 66
     1
 10
0.0
 20
0.0
 30
0.0
  0
VERTEX
  5
61A
330
619
100
AcDbEntity
  8
DIBUJOS
 62
     7
100
AcDbVertex
100
AcDb2dVertex
 10
85.49987122719234
 20
32.35698400110613
 30
0.0
  0
VERTEX
  5
61B
330
619
100
AcDbEntity
  8
DIBUJOS
 62
     7
100
AcDbVertex
100
AcDb2dVertex
 10
85.49424620795219
 20
32.35698400110613
 30
0.0
  0
SEQEND
  5
61C
330
619
100
AcDbEntity
  8
DIBUJOS
 62
     7
  0
POLYLINE
  5
61D
330
5E6
100
AcDbEntity
  8
DIBUJOS
 62
     7
100
AcDb2dPolyline
 66
     1
 10
0.0
 20
0.0
 30
0.0
  0
VERTEX
  5
61E
330
61D
100
AcDbEntity
  8
DIBUJOS
 62
     7
100
AcDbVertex
100
AcDb2dVertex
 10
85.48862270244156
 20
32.35136237835204
 30
0.0
  0
VERTEX
  5
61F
330
61D
100
AcDbEntity
  8
DIBUJOS
 62
     7
100
AcDbVertex
100
AcDb2dVertex
 10
85.49424620795219
 20
32.35698400110613
 30
0.0
  0
SEQEND
  5
620
330
61D
100
AcDbEntity
  8
DIBUJOS
 62
     7
  0
POLYLINE
  5
621
330
5E6
100
AcDbEntity
  8
DIBUJOS
 62
     7
100
AcDb2dPolyline
 66
     1
 10
0.0
 20
0.0
 30
0.0
  0
VERTEX
  5
622
330
621
100
AcDbEntity
  8
DIBUJOS
 62
     7
100
AcDbVertex
100
AcDb2dVertex
 10
79.4089146595732
 20
32.10398222593746
 30
0.0
  0
VERTEX
  5
623
330
621
100
AcDbEntity
  8
DIBUJOS
 62
     7
100
AcDbVertex
100
AcDb2dVertex
 10
79.40329039719845
 20
32.10398222593746
 30
0.0
  0
SEQEND
  5
624
330
621
100
AcDbEntity
  8
DIBUJOS
 62
     7
  0
POLYLINE
  5
625
330
5E6
100
AcDbEntity
  8
DIBUJOS
 62
     7
100
AcDb2dPolyline
 66
     1
 10
0.0
 20
0.0
 30
0.0
  0
VERTEX
  5
626
330
625
100
AcDbEntity
  8
DIBUJOS
 62
     7
100
AcDbVertex
100
AcDb2dVertex
 10
79.41453892194859
 20
32.10398222593746
 30
0.0
  0
VERTEX
  5
627
330
625
100
AcDbEntity
  8
DIBUJOS
 62
     7
100
AcDbVertex
100
AcDb2dVertex
 10
79.4089146595732
 20
32.10398222593746
 30
0.0
  0
SEQEND
  5
628
330
625
100
AcDbEntity
  8
DIBUJOS
 62
     7
  0
POLYLINE
  5
629
330
5E6
100
AcDbEntity
  8
DIBUJOS
 62
     7
100
AcDb2dPolyline
 66
     1
 10
0.0
 20
0.0
 30
0.0
  0
VERTEX
  5
62A
330
629
100
AcDbEntity
  8
DIBUJOS
 62
     7
100
AcDbVertex
100
AcDb2dVertex
 10
79.41453892194859
 20
32.10398222593746
 30
0.0
  0
VERTEX
  5
62B
330
629
100
AcDbEntity
  8
DIBUJOS
 62
     7
100
AcDbVertex
100
AcDb2dVertex
 10
79.42578668983397
 20
32.11522698466888
 30
0.0
  0
VERTEX
  5
62C
330
629
100
AcDbEntity
  8
DIBUJOS
 62
     7
100
AcDbVertex
100
AcDb2dVertex
 10
79.37603493866065
 20
32.17836923302951
 30
0.0
  0
VERTEX
  5
62D
330
629
100
AcDbEntity
  8
DIBUJOS
 62
     7
100
AcDbVertex
100
AcDb2dVertex
 10
79.35829705506198
 20
32.18831564658573
 30
0.0
  0
VERTEX
  5
62E
330
629
100
AcDbEntity
  8
DIBUJOS
 62
     7
100
AcDbVertex
100
AcDb2dVertex
 10
79.34592382920984
 20
32.21024224516174
 30
0.0
  0
VERTEX
  5
62F
330
629
100
AcDbEntity
  8
DIBUJOS
 62
     7
100
AcDbVertex
100
AcDb2dVertex
 10
79.34029956683509
 20
32.22148700389253
 30
0.0
  0
VERTEX
  5
630
330
629
100
AcDbEntity
  8
DIBUJOS
 62
     7
100
AcDbVertex
100
AcDb2dVertex
 10
79.3245522376763
 20
32.26140582172644
 30
0.0
  0
VERTEX
  5
631
330
629
100
AcDbEntity
  8
DIBUJOS
 62
     7
100
AcDbVertex
100
AcDb2dVertex
 10
79.33017650005169
 20
32.35698400110613
 30
0.0
  0
SEQEND
  5
632
330
629
100
AcDbEntity
  8
DIBUJOS
 62
     7
  0
POLYLINE
  5
633
330
5E6
100
AcDbEntity
  8
DIBUJOS
 62
     7
100
AcDb2dPolyline
 66
     1
 10
0.0
 20
0.0
 30
0.0
  0
VERTEX
  5
634
330
633
100
AcDbEntity
  8
DIBUJOS
 62
     7
100
AcDbVertex
100
AcDb2dVertex
 10
85.41550804843004
 20
32.10398222593746
 30
0.0
  0
VERTEX
  5
635
330
633
100
AcDbEntity
  8
DIBUJOS
 62
     7
100
AcDbVertex
100
AcDb2dVertex
 10
85.4042595236799
 20
32.12084860742234
 30
0.0
  0
VERTEX
  5
636
330
633
100
AcDbEntity
  8
DIBUJOS
 62
     7
100
AcDbVertex
100
AcDb2dVertex
 10
85.43800509793097
 20
32.14895974763864
 30
0.0
  0
VERTEX
  5
637
330
633
100
AcDbEntity
  8
DIBUJOS
 62
     7
100
AcDbVertex
100
AcDb2dVertex
 10
85.43800509793097
 20
32.16582764234675
 30
0.0
  0
VERTEX
  5
638
330
633
100
AcDbEntity
  8
DIBUJOS
 62
     7
100
AcDbVertex
100
AcDb2dVertex
 10
85.45487712819111
 20
32.17707088785495
 30
0.0
  0
VERTEX
  5
639
330
633
100
AcDbEntity
  8
DIBUJOS
 62
     7
100
AcDbVertex
100
AcDb2dVertex
 10
85.48862270244156
 20
32.21080516404793
 30
0.0
  0
VERTEX
  5
63A
330
633
100
AcDbEntity
  8
DIBUJOS
 62
     7
100
AcDbVertex
100
AcDb2dVertex
 10
85.4903089972301
 20
32.22148700389253
 30
0.0
  0
VERTEX
  5
63B
330
633
100
AcDbEntity
  8
DIBUJOS
 62
     7
100
AcDbVertex
100
AcDb2dVertex
 10
85.50549473270233
 20
32.25016106299566
 30
0.0
  0
VERTEX
  5
63C
330
633
100
AcDbEntity
  8
DIBUJOS
 62
     7
100
AcDbVertex
100
AcDb2dVertex
 10
85.50549473270233
 20
32.35136237835204
 30
0.0
  0
VERTEX
  5
63D
330
633
100
AcDbEntity
  8
DIBUJOS
 62
     7
100
AcDbVertex
100
AcDb2dVertex
 10
85.49987122719234
 20
32.35698400110613
 30
0.0
  0
SEQEND
  5
63E
330
633
100
AcDbEntity
  8
DIBUJOS
 62
     7
  0
POLYLINE
  5
63F
330
5E6
100
AcDbEntity
  8
DIBUJOS
 62
     7
100
AcDb2dPolyline
 66
     1
 10
0.0
 20
0.0
 30
0.0
  0
VERTEX
  5
640
330
63F
100
AcDbEntity
  8
DIBUJOS
 62
     7
100
AcDbVertex
100
AcDb2dVertex
 10
85.4211330676702
 20
32.10398222593746
 30
0.0
  0
VERTEX
  5
641
330
63F
100
AcDbEntity
  8
DIBUJOS
 62
     7
100
AcDbVertex
100
AcDb2dVertex
 10
85.41550804843004
 20
32.10398222593746
 30
0.0
  0
SEQEND
  5
642
330
63F
100
AcDbEntity
  8
DIBUJOS
 62
     7
  0
POLYLINE
  5
643
330
5E6
100
AcDbEntity
  8
DIBUJOS
 62
     7
100
AcDb2dPolyline
 66
     1
 10
0.0
 20
0.0
 30
0.0
  0
VERTEX
  5
644
330
643
100
AcDbEntity
  8
DIBUJOS
 62
     7
100
AcDbVertex
100
AcDb2dVertex
 10
85.42675657318019
 20
32.10398222593746
 30
0.0
  0
VERTEX
  5
645
330
643
100
AcDbEntity
  8
DIBUJOS
 62
     7
100
AcDbVertex
100
AcDb2dVertex
 10
85.4211330676702
 20
32.10398222593746
 30
0.0
  0
SEQEND
  5
646
330
643
100
AcDbEntity
  8
DIBUJOS
 62
     7
  0
POLYLINE
  5
647
330
5E6
100
AcDbEntity
  8
DIBUJOS
 62
     7
100
AcDb2dPolyline
 66
     1
 10
0.0
 20
0.0
 30
0.0
  0
VERTEX
  5
648
330
647
100
AcDbEntity
  8
DIBUJOS
 62
     7
100
AcDbVertex
100
AcDb2dVertex
 10
79.4089146595732
 20
32.09835908996013
 30
0.0
  0
VERTEX
  5
649
330
647
100
AcDbEntity
  8
DIBUJOS
 62
     7
100
AcDbVertex
100
AcDb2dVertex
 10
79.4089146595732
 20
32.10398222593746
 30
0.0
  0
SEQEND
  5
64A
330
647
100
AcDbEntity
  8
DIBUJOS
 62
     7
  0
POLYLINE
  5
64B
330
5E6
100
AcDbEntity
  8
DIBUJOS
 62
     7
100
AcDb2dPolyline
 66
     1
 10
0.0
 20
0.0
 30
0.0
  0
VERTEX
  5
64C
330
64B
100
AcDbEntity
  8
DIBUJOS
 62
     7
100
AcDbVertex
100
AcDb2dVertex
 10
85.4211330676702
 20
32.09835908996013
 30
0.0
  0
VERTEX
  5
64D
330
64B
100
AcDbEntity
  8
DIBUJOS
 62
     7
100
AcDbVertex
100
AcDb2dVertex
 10
85.4211330676702
 20
32.10398222593746
 30
0.0
  0
SEQEND
  5
64E
330
64B
100
AcDbEntity
  8
DIBUJOS
 62
     7
  0
POLYLINE
  5
64F
330
5E6
100
AcDbEntity
  8
DIBUJOS
 62
     7
100
AcDb2dPolyline
 66
     1
 10
0.0
 20
0.0
 30
0.0
  0
VERTEX
  5
650
330
64F
100
AcDbEntity
  8
DIBUJOS
 62
     7
100
AcDbVertex
100
AcDb2dVertex
 10
79.41453892194859
 20
32.09273746720667
 30
0.0
  0
VERTEX
  5
651
330
64F
100
AcDbEntity
  8
DIBUJOS
 62
     7
100
AcDbVertex
100
AcDb2dVertex
 10
79.4089146595732
 20
32.09835908996013
 30
0.0
  0
SEQEND
  5
652
330
64F
100
AcDbEntity
  8
DIBUJOS
 62
     7
  0
POLYLINE
  5
653
330
5E6
100
AcDbEntity
  8
DIBUJOS
 62
     7
100
AcDb2dPolyline
 66
     1
 10
0.0
 20
0.0
 30
0.0
  0
VERTEX
  5
654
330
653
100
AcDbEntity
  8
DIBUJOS
 62
     7
100
AcDbVertex
100
AcDb2dVertex
 10
79.51014911173087
 20
32.10960384869156
 30
0.0
  0
VERTEX
  5
655
330
653
100
AcDbEntity
  8
DIBUJOS
 62
     7
100
AcDbVertex
100
AcDb2dVertex
 10
79.54389392911719
 20
32.09273746720667
 30
0.0
  0
VERTEX
  5
656
330
653
100
AcDbEntity
  8
DIBUJOS
 62
     7
100
AcDbVertex
100
AcDb2dVertex
 10
79.67837745221313
 20
32.10596606104661
 30
0.0
  0
VERTEX
  5
657
330
653
100
AcDbEntity
  8
DIBUJOS
 62
     7
100
AcDbVertex
100
AcDb2dVertex
 10
79.76885988293347
 20
32.12084860742234
 30
0.0
  0
VERTEX
  5
658
330
653
100
AcDbEntity
  8
DIBUJOS
 62
     7
100
AcDbVertex
100
AcDb2dVertex
 10
79.85457255164484
 20
32.23228233544739
 30
0.0
  0
VERTEX
  5
659
330
653
100
AcDbEntity
  8
DIBUJOS
 62
     7
100
AcDbVertex
100
AcDb2dVertex
 10
79.86874484514145
 20
32.25117340905776
 30
0.0
  0
VERTEX
  5
65A
330
653
100
AcDbEntity
  8
DIBUJOS
 62
     7
100
AcDbVertex
100
AcDb2dVertex
 10
79.95895707512621
 20
32.39127968296273
 30
0.0
  0
VERTEX
  5
65B
330
653
100
AcDbEntity
  8
DIBUJOS
 62
     7
100
AcDbVertex
100
AcDb2dVertex
 10
80.12750784001547
 20
32.6614519974024
 30
0.0
  0
VERTEX
  5
65C
330
653
100
AcDbEntity
  8
DIBUJOS
 62
     7
100
AcDbVertex
100
AcDb2dVertex
 10
80.17244971534464
 20
32.72344419642537
 30
0.0
  0
VERTEX
  5
65D
330
653
100
AcDbEntity
  8
DIBUJOS
 62
     7
100
AcDbVertex
100
AcDb2dVertex
 10
80.24268525563346
 20
32.8167691870345
 30
0.0
  0
VERTEX
  5
65E
330
653
100
AcDbEntity
  8
DIBUJOS
 62
     7
100
AcDbVertex
100
AcDb2dVertex
 10
80.43110826287518
 20
33.02733565482956
 30
0.0
  0
VERTEX
  5
65F
330
653
100
AcDbEntity
  8
DIBUJOS
 62
     7
100
AcDbVertex
100
AcDb2dVertex
 10
80.6901240505939
 20
33.28603017422433
 30
0.0
  0
VERTEX
  5
660
330
653
100
AcDbEntity
  8
DIBUJOS
 62
     7
100
AcDbVertex
100
AcDb2dVertex
 10
80.7766806235643
 20
33.35637687640287
 30
0.0
  0
VERTEX
  5
661
330
653
100
AcDbEntity
  8
DIBUJOS
 62
     7
100
AcDbVertex
100
AcDb2dVertex
 10
80.94936992521367
 20
33.49380625914988
 30
0.0
  0
VERTEX
  5
662
330
653
100
AcDbEntity
  8
DIBUJOS
 62
     7
100
AcDbVertex
100
AcDb2dVertex
 10
80.97861518132659
 20
33.50842399153325
 30
0.0
  0
VERTEX
  5
663
330
653
100
AcDbEntity
  8
DIBUJOS
 62
     7
100
AcDbVertex
100
AcDb2dVertex
 10
81.35437433794827
 20
33.697068400422
 30
0.0
  0
VERTEX
  5
664
330
653
100
AcDbEntity
  8
DIBUJOS
 62
     7
100
AcDbVertex
100
AcDb2dVertex
 10
81.49497862673178
 20
33.73642429936844
 30
0.0
  0
VERTEX
  5
665
330
653
100
AcDbEntity
  8
DIBUJOS
 62
     7
100
AcDbVertex
100
AcDb2dVertex
 10
81.82751323426889
 20
33.82745978386036
 30
0.0
  0
VERTEX
  5
666
330
653
100
AcDbEntity
  8
DIBUJOS
 62
     7
100
AcDbVertex
100
AcDb2dVertex
 10
82.40076415224011
 20
33.8719545874848
 30
0.0
  0
VERTEX
  5
667
330
653
100
AcDbEntity
  8
DIBUJOS
 62
     7
100
AcDbVertex
100
AcDb2dVertex
 10
82.7157167903287
 20
33.84992811620374
 30
0.0
  0
VERTEX
  5
668
330
653
100
AcDbEntity
  8
DIBUJOS
 62
     7
100
AcDbVertex
100
AcDb2dVertex
 10
83.0025488734057
 20
33.82743859874154
 30
0.0
  0
VERTEX
  5
669
330
653
100
AcDbEntity
  8
DIBUJOS
 62
     7
100
AcDbVertex
100
AcDb2dVertex
 10
83.46905612029472
 20
33.69872235295716
 30
0.0
  0
VERTEX
  5
66A
330
653
100
AcDbEntity
  8
DIBUJOS
 62
     7
100
AcDbVertex
100
AcDb2dVertex
 10
83.5257937336294
 20
33.67821667060473
 30
0.0
  0
SEQEND
  5
66B
330
653
100
AcDbEntity
  8
DIBUJOS
 62
     7
  0
POLYLINE
  5
66C
330
5E6
100
AcDbEntity
  8
DIBUJOS
 62
     7
100
AcDb2dPolyline
 66
     1
 10
0.0
 20
0.0
 30
0.0
  0
VERTEX
  5
66D
330
66C
100
AcDbEntity
  8
DIBUJOS
 62
     7
100
AcDbVertex
100
AcDb2dVertex
 10
83.5370422583789
 20
33.66697342509654
 30
0.0
  0
VERTEX
  5
66E
330
66C
100
AcDbEntity
  8
DIBUJOS
 62
     7
100
AcDbVertex
100
AcDb2dVertex
 10
83.6782081408496
 20
33.5950075745069
 30
0.0
  0
VERTEX
  5
66F
330
66C
100
AcDbEntity
  8
DIBUJOS
 62
     7
100
AcDbVertex
100
AcDb2dVertex
 10
83.90151504701021
 20
33.48006619599887
 30
0.0
  0
VERTEX
  5
670
330
66C
100
AcDbEntity
  8
DIBUJOS
 62
     7
100
AcDbVertex
100
AcDb2dVertex
 10
84.04999224350834
 20
33.35913094192446
 30
0.0
  0
VERTEX
  5
671
330
66C
100
AcDbEntity
  8
DIBUJOS
 62
     7
100
AcDbVertex
100
AcDb2dVertex
 10
84.14445048505576
 20
33.28465768113195
 30
0.0
  0
VERTEX
  5
672
330
66C
100
AcDbEntity
  8
DIBUJOS
 62
     7
100
AcDbVertex
100
AcDb2dVertex
 10
84.3694164388714
 20
33.05976704617957
 30
0.0
  0
VERTEX
  5
673
330
66C
100
AcDbEntity
  8
DIBUJOS
 62
     7
100
AcDbVertex
100
AcDb2dVertex
 10
84.58736474220424
 20
32.81679037215396
 30
0.0
  0
VERTEX
  5
674
330
66C
100
AcDbEntity
  8
DIBUJOS
 62
     7
100
AcDbVertex
100
AcDb2dVertex
 10
84.69989086040628
 20
32.66519722386727
 30
0.0
  0
VERTEX
  5
675
330
66C
100
AcDbEntity
  8
DIBUJOS
 62
     7
100
AcDbVertex
100
AcDb2dVertex
 10
84.84617163523725
 20
32.43483023555059
 30
0.0
  0
VERTEX
  5
676
330
66C
100
AcDbEntity
  8
DIBUJOS
 62
     7
100
AcDbVertex
100
AcDb2dVertex
 10
84.96130136837242
 20
32.25117340905776
 30
0.0
  0
VERTEX
  5
677
330
66C
100
AcDbEntity
  8
DIBUJOS
 62
     7
100
AcDbVertex
100
AcDb2dVertex
 10
85.06118633058104
 20
32.12084860742234
 30
0.0
  0
VERTEX
  5
678
330
66C
100
AcDbEntity
  8
DIBUJOS
 62
     7
100
AcDbVertex
100
AcDb2dVertex
 10
85.17397281027607
 20
32.10078175968578
 30
0.0
  0
VERTEX
  5
679
330
66C
100
AcDbEntity
  8
DIBUJOS
 62
     7
100
AcDbVertex
100
AcDb2dVertex
 10
85.21866264962468
 20
32.09273746720667
 30
0.0
  0
VERTEX
  5
67A
330
66C
100
AcDbEntity
  8
DIBUJOS
 62
     7
100
AcDbVertex
100
AcDb2dVertex
 10
85.30252932507416
 20
32.10034443829251
 30
0.0
  0
VERTEX
  5
67B
330
66C
100
AcDbEntity
  8
DIBUJOS
 62
     7
100
AcDbVertex
100
AcDb2dVertex
 10
85.31989785864712
 20
32.10398222593746
 30
0.0
  0
SEQEND
  5
67C
330
66C
100
AcDbEntity
  8
DIBUJOS
 62
     7
  0
POLYLINE
  5
67D
330
5E6
100
AcDbEntity
  8
DIBUJOS
 62
     7
100
AcDb2dPolyline
 66
     1
 10
0.0
 20
0.0
 30
0.0
  0
VERTEX
  5
67E
330
67D
100
AcDbEntity
  8
DIBUJOS
 62
     7
100
AcDbVertex
100
AcDb2dVertex
 10
85.41550804843004
 20
32.09273746720667
 30
0.0
  0
VERTEX
  5
67F
330
67D
100
AcDbEntity
  8
DIBUJOS
 62
     7
100
AcDbVertex
100
AcDb2dVertex
 10
85.4211330676702
 20
32.09835908996013
 30
0.0
  0
SEQEND
  5
680
330
67D
100
AcDbEntity
  8
DIBUJOS
 62
     7
  0
POLYLINE
  5
681
330
5E6
100
AcDbEntity
  8
DIBUJOS
 62
     7
100
AcDb2dPolyline
 66
     1
 10
0.0
 20
0.0
 30
0.0
  0
VERTEX
  5
682
330
681
100
AcDbEntity
  8
DIBUJOS
 62
     7
100
AcDbVertex
100
AcDb2dVertex
 10
79.41453892194859
 20
32.08711584445194
 30
0.0
  0
VERTEX
  5
683
330
681
100
AcDbEntity
  8
DIBUJOS
 62
     7
100
AcDbVertex
100
AcDb2dVertex
 10
79.41453892194859
 20
32.09273746720667
 30
0.0
  0
SEQEND
  5
684
330
681
100
AcDbEntity
  8
DIBUJOS
 62
     7
  0
POLYLINE
  5
685
330
5E6
100
AcDbEntity
  8
DIBUJOS
 62
     7
100
AcDb2dPolyline
 66
     1
 10
0.0
 20
0.0
 30
0.0
  0
VERTEX
  5
686
330
685
100
AcDbEntity
  8
DIBUJOS
 62
     7
100
AcDbVertex
100
AcDb2dVertex
 10
79.42016318432398
 20
32.08711584445194
 30
0.0
  0
VERTEX
  5
687
330
685
100
AcDbEntity
  8
DIBUJOS
 62
     7
100
AcDbVertex
100
AcDb2dVertex
 10
79.41453892194859
 20
32.08711584445194
 30
0.0
  0
SEQEND
  5
688
330
685
100
AcDbEntity
  8
DIBUJOS
 62
     7
  0
POLYLINE
  5
689
330
5E6
100
AcDbEntity
  8
DIBUJOS
 62
     7
100
AcDb2dPolyline
 66
     1
 10
0.0
 20
0.0
 30
0.0
  0
VERTEX
  5
68A
330
689
100
AcDbEntity
  8
DIBUJOS
 62
     7
100
AcDbVertex
100
AcDb2dVertex
 10
79.42016318432398
 20
32.08711584445194
 30
0.0
  0
VERTEX
  5
68B
330
689
100
AcDbEntity
  8
DIBUJOS
 62
     7
100
AcDbVertex
100
AcDb2dVertex
 10
79.42578668983397
 20
32.09273746720667
 30
0.0
  0
SEQEND
  5
68C
330
689
100
AcDbEntity
  8
DIBUJOS
 62
     7
  0
POLYLINE
  5
68D
330
5E6
100
AcDbEntity
  8
DIBUJOS
 62
     7
100
AcDb2dPolyline
 66
     1
 10
0.0
 20
0.0
 30
0.0
  0
VERTEX
  5
68E
330
68D
100
AcDbEntity
  8
DIBUJOS
 62
     7
100
AcDbVertex
100
AcDb2dVertex
 10
85.40988454291941
 20
32.08711584445194
 30
0.0
  0
VERTEX
  5
68F
330
68D
100
AcDbEntity
  8
DIBUJOS
 62
     7
100
AcDbVertex
100
AcDb2dVertex
 10
85.4042595236799
 20
32.09273746720667
 30
0.0
  0
SEQEND
  5
690
330
68D
100
AcDbEntity
  8
DIBUJOS
 62
     7
  0
POLYLINE
  5
691
330
5E6
100
AcDbEntity
  8
DIBUJOS
 62
     7
100
AcDb2dPolyline
 66
     1
 10
0.0
 20
0.0
 30
0.0
  0
VERTEX
  5
692
330
691
100
AcDbEntity
  8
DIBUJOS
 62
     7
100
AcDbVertex
100
AcDb2dVertex
 10
85.41550804843004
 20
32.08711584445194
 30
0.0
  0
VERTEX
  5
693
330
691
100
AcDbEntity
  8
DIBUJOS
 62
     7
100
AcDbVertex
100
AcDb2dVertex
 10
85.40988454291941
 20
32.08711584445194
 30
0.0
  0
SEQEND
  5
694
330
691
100
AcDbEntity
  8
DIBUJOS
 62
     7
  0
POLYLINE
  5
695
330
5E6
100
AcDbEntity
  8
DIBUJOS
 62
     7
100
AcDb2dPolyline
 66
     1
 10
0.0
 20
0.0
 30
0.0
  0
VERTEX
  5
696
330
695
100
AcDbEntity
  8
DIBUJOS
 62
     7
100
AcDbVertex
100
AcDb2dVertex
 10
85.41550804843004
 20
32.08711584445194
 30
0.0
  0
VERTEX
  5
697
330
695
100
AcDbEntity
  8
DIBUJOS
 62
     7
100
AcDbVertex
100
AcDb2dVertex
 10
85.41550804843004
 20
32.09273746720667
 30
0.0
  0
SEQEND
  5
698
330
695
100
AcDbEntity
  8
DIBUJOS
 62
     7
  0
POLYLINE
  5
699
330
5E6
100
AcDbEntity
  8
DIBUJOS
 62
     7
100
AcDb2dPolyline
 66
     1
 10
0.0
 20
0.0
 30
0.0
  0
VERTEX
  5
69A
330
699
100
AcDbEntity
  8
DIBUJOS
 62
     7
100
AcDbVertex
100
AcDb2dVertex
 10
79.40329039719845
 20
32.10398222593746
 30
0.0
  0
VERTEX
  5
69B
330
699
100
AcDbEntity
  8
DIBUJOS
 62
     7
100
AcDbVertex
100
AcDb2dVertex
 10
79.39723396501918
 20
32.10052148536182
 30
0.0
  0
VERTEX
  5
69C
330
699
100
AcDbEntity
  8
DIBUJOS
 62
     7
100
AcDbVertex
100
AcDb2dVertex
 10
79.37516984218752
 20
32.09835908996013
 30
0.0
  0
VERTEX
  5
69D
330
699
100
AcDbEntity
  8
DIBUJOS
 62
     7
100
AcDbVertex
100
AcDb2dVertex
 10
79.352673549552
 20
32.07587108572115
 30
0.0
  0
VERTEX
  5
69E
330
699
100
AcDbEntity
  8
DIBUJOS
 62
     7
100
AcDbVertex
100
AcDb2dVertex
 10
79.3414250248012
 20
31.94655863014847
 30
0.0
  0
VERTEX
  5
69F
330
699
100
AcDbEntity
  8
DIBUJOS
 62
     7
100
AcDbVertex
100
AcDb2dVertex
 10
79.34423677755652
 20
31.71604485921941
 30
0.0
  0
VERTEX
  5
6A0
330
699
100
AcDbEntity
  8
DIBUJOS
 62
     7
100
AcDbVertex
100
AcDb2dVertex
 10
79.3837700969808
 20
29.91115061762133
 30
0.0
  0
VERTEX
  5
6A1
330
699
100
AcDbEntity
  8
DIBUJOS
 62
     7
100
AcDbVertex
100
AcDb2dVertex
 10
79.38906588003042
 20
29.8158660034677
 30
0.0
  0
VERTEX
  5
6A2
330
699
100
AcDbEntity
  8
DIBUJOS
 62
     7
100
AcDbVertex
100
AcDb2dVertex
 10
79.41127683463375
 20
29.62489879755963
 30
0.0
  0
VERTEX
  5
6A3
330
699
100
AcDbEntity
  8
DIBUJOS
 62
     7
100
AcDbVertex
100
AcDb2dVertex
 10
79.41225848828726
 20
29.61855915058079
 30
0.0
  0
VERTEX
  5
6A4
330
699
100
AcDbEntity
  8
DIBUJOS
 62
     7
100
AcDbVertex
100
AcDb2dVertex
 10
79.45503270281166
 20
29.38336649471033
 30
0.0
  0
VERTEX
  5
6A5
330
699
100
AcDbEntity
  8
DIBUJOS
 62
     7
100
AcDbVertex
100
AcDb2dVertex
 10
79.55626715496997
 20
29.18096462060887
 30
0.0
  0
VERTEX
  5
6A6
330
699
100
AcDbEntity
  8
DIBUJOS
 62
     7
100
AcDbVertex
100
AcDb2dVertex
 10
79.6057600583792
 20
29.09044590170773
 30
0.0
  0
VERTEX
  5
6A7
330
699
100
AcDbEntity
  8
DIBUJOS
 62
     7
100
AcDbVertex
100
AcDb2dVertex
 10
79.89202903404012
 20
28.91503159988279
 30
0.0
  0
VERTEX
  5
6A8
330
699
100
AcDbEntity
  8
DIBUJOS
 62
     7
100
AcDbVertex
100
AcDb2dVertex
 10
79.9877058279263
 20
28.88606019249648
 30
0.0
  0
VERTEX
  5
6A9
330
699
100
AcDbEntity
  8
DIBUJOS
 62
     7
100
AcDbVertex
100
AcDb2dVertex
 10
80.07306049958409
 20
28.86191747911041
 30
0.0
  0
VERTEX
  5
6AA
330
699
100
AcDbEntity
  8
DIBUJOS
 62
     7
100
AcDbVertex
100
AcDb2dVertex
 10
80.29156888287395
 20
28.80697160212161
 30
0.0
  0
VERTEX
  5
6AB
330
699
100
AcDbEntity
  8
DIBUJOS
 62
     7
100
AcDbVertex
100
AcDb2dVertex
 10
80.56723948065404
 20
28.7787167057381
 30
0.0
  0
VERTEX
  5
6AC
330
699
100
AcDbEntity
  8
DIBUJOS
 62
     7
100
AcDbVertex
100
AcDb2dVertex
 10
84.25693270509882
 20
28.77559946674105
 30
0.0
  0
VERTEX
  5
6AD
330
699
100
AcDbEntity
  8
DIBUJOS
 62
     7
100
AcDbVertex
100
AcDb2dVertex
 10
84.57158259726494
 20
28.81175414282517
 30
0.0
  0
VERTEX
  5
6AE
330
699
100
AcDbEntity
  8
DIBUJOS
 62
     7
100
AcDbVertex
100
AcDb2dVertex
 10
84.71761814789824
 20
28.85067272037962
 30
0.0
  0
VERTEX
  5
6AF
330
699
100
AcDbEntity
  8
DIBUJOS
 62
     7
100
AcDbVertex
100
AcDb2dVertex
 10
84.82546835532678
 20
28.88043781313108
 30
0.0
  0
VERTEX
  5
6B0
330
699
100
AcDbEntity
  8
DIBUJOS
 62
     7
100
AcDbVertex
100
AcDb2dVertex
 10
84.94221475168881
 20
28.9174535129965
 30
0.0
  0
VERTEX
  5
6B1
330
699
100
AcDbEntity
  8
DIBUJOS
 62
     7
100
AcDbVertex
100
AcDb2dVertex
 10
85.22428766886483
 20
29.09044590170773
 30
0.0
  0
VERTEX
  5
6B2
330
699
100
AcDbEntity
  8
DIBUJOS
 62
     7
100
AcDbVertex
100
AcDb2dVertex
 10
85.2704049552379
 20
29.1742179166924
 30
0.0
  0
VERTEX
  5
6B3
330
699
100
AcDbEntity
  8
DIBUJOS
 62
     7
100
AcDbVertex
100
AcDb2dVertex
 10
85.37726366977097
 20
29.38786379291335
 30
0.0
  0
VERTEX
  5
6B4
330
699
100
AcDbEntity
  8
DIBUJOS
 62
     7
100
AcDbVertex
100
AcDb2dVertex
 10
85.42341274446612
 20
29.64667104740838
 30
0.0
  0
VERTEX
  5
6B5
330
699
100
AcDbEntity
  8
DIBUJOS
 62
     7
100
AcDbVertex
100
AcDb2dVertex
 10
85.44099168645559
 20
29.79900718809641
 30
0.0
  0
VERTEX
  5
6B6
330
699
100
AcDbEntity
  8
DIBUJOS
 62
     7
100
AcDbVertex
100
AcDb2dVertex
 10
85.44626703415523
 20
29.8886527774336
 30
0.0
  0
VERTEX
  5
6B7
330
699
100
AcDbEntity
  8
DIBUJOS
 62
     7
100
AcDbVertex
100
AcDb2dVertex
 10
85.48862270244156
 20
31.6260898158164
 30
0.0
  0
VERTEX
  5
6B8
330
699
100
AcDbEntity
  8
DIBUJOS
 62
     7
100
AcDbVertex
100
AcDb2dVertex
 10
85.48561189424251
 20
31.97484379098827
 30
0.0
  0
VERTEX
  5
6B9
330
699
100
AcDbEntity
  8
DIBUJOS
 62
     7
100
AcDbVertex
100
AcDb2dVertex
 10
85.4773741776914
 20
32.07587108572115
 30
0.0
  0
VERTEX
  5
6BA
330
699
100
AcDbEntity
  8
DIBUJOS
 62
     7
100
AcDbVertex
100
AcDb2dVertex
 10
85.45487712819111
 20
32.09835908996013
 30
0.0
  0
VERTEX
  5
6BB
330
699
100
AcDbEntity
  8
DIBUJOS
 62
     7
100
AcDbVertex
100
AcDb2dVertex
 10
85.42675657318019
 20
32.10398222593746
 30
0.0
  0
SEQEND
  5
6BC
330
699
100
AcDbEntity
  8
DIBUJOS
 62
     7
  0
ENDBLK
  5
5E9
330
5E6
100
AcDbEntity
  8
0
100
AcDbBlockEnd
  0
ENDSEC
  0
SECTION
  2
ENTITIES
  0
MTEXT
  5
41
330
1F
100
AcDbEntity
  8
REFERENCIAS
 62
   255
100
AcDbMText
 10
40.93094530141956
 20
54.85563098807646
 30
0.0
 40
1.49859999962535
 41
0.0
 71
     7
 72
     1
  1
\fMyriad Pro|b0|i0|c0|p34;\W1;MOGA_9355__LOUNGE_ CHAIR
  0
MTEXT
  5
42
330
1F
100
AcDbEntity
  8
REFERENCIAS
 62
   255
100
AcDbMText
 10
78.06641814081597
 20
54.85563098807646
 30
0.0
 40
1.49859999962535
 41
0.0
 71
     7
 72
     1
  1
\fMyriad Pro|b0|i0|c0|p34;\W1;MOGA_9355-16__LOUNGE_ CHAIR
  0
MTEXT
  5
44
330
1F
100
AcDbEntity
  8
M_U_00C1RGENES
 62
   255
100
AcDbMText
 10
110.1384430504005
 20
23.7555119243149
 30
0.0
 40
1.748366666229575
 41
0.0
 71
     7
 72
     1
  1
\fMyriad Pro|b0|i0|c0|p34;\W1;400
  0
MTEXT
  5
45
330
1F
100
AcDbEntity
  8
M_U_00C1RGENES
 62
   255
100
AcDbMText
 10
104.2089331048478
 20
20.50332059082737
 30
0.0
 40
1.748366666229575
 41
0.0
 71
     7
 72
     1
  1
\fMyriad Pro|b0|i0|c0|p34;\W1;800
  0
MTEXT
  5
46
330
1F
100
AcDbEntity
  8
M_U_00C1RGENES
 62
   255
100
AcDbMText
 10
70.34154512978061
 20
20.50332059082737
 30
0.0
 40
1.748366666229575
 41
0.0
 71
     7
 72
     1
  1
\fMyriad Pro|b0|i0|c0|p34;\W1;400
  0
POLYLINE
  5
47
330
1F
100
AcDbEntity
  8
M_U_00C1RGENES
 62
   255
100
AcDb2dPolyline
 66
     1
 10
0.0
 20
0.0
 30
0.0
  0
VERTEX
  5
48
330
47
100
AcDbEntity
  8
M_U_00C1RGENES
 62
   255
100
AcDbVertex
100
AcDb2dVertex
 10
74.98114844115133
 20
20.88258920325216
 30
0.0
  0
VERTEX
  5
49
330
47
100
AcDbEntity
  8
M_U_00C1RGENES
 62
   255
100
AcDbVertex
100
AcDb2dVertex
 10
74.98114844115133
 20
19.74726776251925
 30
0.0
  0
SEQEND
  5
4A
330
47
100
AcDbEntity
  8
M_U_00C1RGENES
 62
   255
  0
POLYLINE
  5
4B
330
1F
100
AcDbEntity
  8
M_U_00C1RGENES
 62
   255
100
AcDb2dPolyline
 66
     1
 10
0.0
 20
0.0
 30
0.0
  0
VERTEX
  5
4C
330
4B
100
AcDbEntity
  8
M_U_00C1RGENES
 62
   255
100
AcDbVertex
100
AcDb2dVertex
 10
104.4138297671496
 20
24.76314475783758
 30
0.0
  0
VERTEX
  5
4D
330
4B
100
AcDbEntity
  8
M_U_00C1RGENES
 62
   255
100
AcDbVertex
100
AcDb2dVertex
 10
114.9971630978371
 20
19.74726776251925
 30
0.0
  0
SEQEND
  5
4E
330
4B
100
AcDbEntity
  8
M_U_00C1RGENES
 62
   255
  0
POLYLINE
  5
4F
330
1F
100
AcDbEntity
  8
M_U_00C1RGENES
 62
   254
100
AcDb2dPolyline
 66
     1
 10
0.0
 20
0.0
 30
0.0
  0
VERTEX
  5
50
330
4F
100
AcDbEntity
  8
M_U_00C1RGENES
 62
   254
100
AcDbVertex
100
AcDb2dVertex
 10
34.99999779751944
 20
20.88258920325216
 30
0.0
  0
VERTEX
  5
51
330
4F
100
AcDbEntity
  8
M_U_00C1RGENES
 62
   254
100
AcDbVertex
100
AcDb2dVertex
 10
34.99999779751944
 20
19.74726776251925
 30
0.0
  0
SEQEND
  5
52
330
4F
100
AcDbEntity
  8
M_U_00C1RGENES
 62
   254
  0
POLYLINE
  5
53
330
1F
100
AcDbEntity
  8
M_U_00C1RGENES
 62
   255
100
AcDb2dPolyline
 66
     1
 10
0.0
 20
0.0
 30
0.0
  0
VERTEX
  5
54
330
53
100
AcDbEntity
  8
M_U_00C1RGENES
 62
   255
100
AcDbVertex
100
AcDb2dVertex
 10
114.9999978516528
 20
59.74999886675599
 30
0.0
  0
VERTEX
  5
55
330
53
100
AcDbEntity
  8
M_U_00C1RGENES
 62
   255
100
AcDbVertex
100
AcDb2dVertex
 10
113.8646764109199
 20
59.7499988667053
 30
0.0
  0
SEQEND
  5
56
330
53
100
AcDbEntity
  8
M_U_00C1RGENES
 62
   255
  0
INSERT
  5
59
330
1F
100
AcDbEntity
  8
DIBUJOS
100
AcDbBlockReference
  2
BLOCK_2
 10
0.0
 20
0.0
 30
0.0
  0
INSERT
  5
161
330
1F
100
AcDbEntity
  8
DIBUJOS
100
AcDbBlockReference
  2
BLOCK_3
 10
0.0
 20
0.0
 30
0.0
  0
INSERT
  5
242
330
1F
100
AcDbEntity
  8
DIBUJOS
100
AcDbBlockReference
  2
BLOCK_4
 10
0.0
 20
0.0
 30
0.0
  0
INSERT
  5
319
330
1F
100
AcDbEntity
  8
DIBUJOS
100
AcDbBlockReference
  2
BLOCK_5
 10
0.0
 20
0.0
 30
0.0
  0
INSERT
  5
4B3
330
1F
100
AcDbEntity
  8
DIBUJOS
100
AcDbBlockReference
  2
BLOCK_6
 10
0.0
 20
0.0
 30
0.0
  0
INSERT
  5
5E7
330
1F
100
AcDbEntity
  8
DIBUJOS
100
AcDbBlockReference
  2
BLOCK_7
 10
0.0
 20
0.0
 30
0.0
  0
POLYLINE
  5
6BE
330
1F
100
AcDbEntity
  8
COTAS_LINEA
 62
     7
100
AcDb2dPolyline
 66
     1
 10
0.0
 20
0.0
 30
0.0
  0
VERTEX
  5
6BF
330
6BE
100
AcDbEntity
  8
COTAS_LINEA
 62
     7
100
AcDbVertex
100
AcDb2dVertex
 10
50.17572186664007
 20
51.40900043658685
 30
0.0
  0
VERTEX
  5
6C0
330
6BE
100
AcDbEntity
  8
COTAS_LINEA
 62
     7
100
AcDbVertex
100
AcDb2dVertex
 10
50.17572186759492
 20
43.03699171539797
 30
0.0
  0
SEQEND
  5
6C1
330
6BE
100
AcDbEntity
  8
COTAS_LINEA
 62
     7
  0
POLYLINE
  5
6C2
330
1F
100
AcDbEntity
  8
COTAS_LINEA
 62
     7
100
AcDb2dPolyline
 66
     1
 10
0.0
 20
0.0
 30
0.0
  0
VERTEX
  5
6C3
330
6C2
100
AcDbEntity
  8
COTAS_LINEA
 62
     7
100
AcDbVertex
100
AcDb2dVertex
 10
63.44059224497423
 20
47.53602971530526
 30
0.0
  0
VERTEX
  5
6C4
330
6C2
100
AcDbEntity
  8
COTAS_LINEA
 62
     7
100
AcDbVertex
100
AcDb2dVertex
 10
63.44059224628072
 20
43.03699315962059
 30
0.0
  0
SEQEND
  5
6C5
330
6C2
100
AcDbEntity
  8
COTAS_LINEA
 62
     7
  0
POLYLINE
  5
6C6
330
1F
100
AcDbEntity
  8
COTAS_LINEA
 62
     7
100
AcDb2dPolyline
 66
     1
 10
0.0
 20
0.0
 30
0.0
  0
VERTEX
  5
6C7
330
6C6
100
AcDbEntity
  8
COTAS_LINEA
 62
     7
100
AcDbVertex
100
AcDb2dVertex
 10
54.76230964381977
 20
39.36675131169094
 30
0.0
  0
VERTEX
  5
6C8
330
6C6
100
AcDbEntity
  8
COTAS_LINEA
 62
     7
100
AcDbVertex
100
AcDb2dVertex
 10
61.51047074212742
 20
39.36675131169094
 30
0.0
  0
SEQEND
  5
6C9
330
6C6
100
AcDbEntity
  8
COTAS_LINEA
 62
     7
  0
POLYLINE
  5
6CA
330
1F
100
AcDbEntity
  8
COTAS_LINEA
 62
     7
100
AcDb2dPolyline
 66
     1
 10
0.0
 20
0.0
 30
0.0
  0
VERTEX
  5
6CB
330
6CA
100
AcDbEntity
  8
COTAS_LINEA
 62
     7
100
AcDbVertex
100
AcDb2dVertex
 10
41.03981482861109
 20
39.36675131169094
 30
0.0
  0
VERTEX
  5
6CC
330
6CA
100
AcDbEntity
  8
COTAS_LINEA
 62
     7
100
AcDbVertex
100
AcDb2dVertex
 10
48.15160468226938
 20
39.36675131169094
 30
0.0
  0
SEQEND
  5
6CD
330
6CA
100
AcDbEntity
  8
COTAS_LINEA
 62
     7
  0
POLYLINE
  5
6CE
330
1F
100
AcDbEntity
  8
COTAS_LINEA
 62
     7
100
AcDb2dPolyline
 66
     1
 10
0.0
 20
0.0
 30
0.0
  0
VERTEX
  5
6CF
330
6CE
100
AcDbEntity
  8
COTAS_LINEA
 62
     7
100
AcDbVertex
100
AcDb2dVertex
 10
87.92294407942613
 20
51.40900043658685
 30
0.0
  0
VERTEX
  5
6D0
330
6CE
100
AcDbEntity
  8
COTAS_LINEA
 62
     7
100
AcDbVertex
100
AcDb2dVertex
 10
87.92294408038035
 20
43.03699171539797
 30
0.0
  0
SEQEND
  5
6D1
330
6CE
100
AcDbEntity
  8
COTAS_LINEA
 62
     7
  0
POLYLINE
  5
6D2
330
1F
100
AcDbEntity
  8
COTAS_LINEA
 62
     7
100
AcDb2dPolyline
 66
     1
 10
0.0
 20
0.0
 30
0.0
  0
VERTEX
  5
6D3
330
6D2
100
AcDbEntity
  8
COTAS_LINEA
 62
     7
100
AcDbVertex
100
AcDb2dVertex
 10
101.1878144577596
 20
47.53602971530526
 30
0.0
  0
VERTEX
  5
6D4
330
6D2
100
AcDbEntity
  8
COTAS_LINEA
 62
     7
100
AcDbVertex
100
AcDb2dVertex
 10
101.1878144590661
 20
43.03699315962059
 30
0.0
  0
SEQEND
  5
6D5
330
6D2
100
AcDbEntity
  8
COTAS_LINEA
 62
     7
  0
POLYLINE
  5
6D6
330
1F
100
AcDbEntity
  8
COTAS_LINEA
 62
     7
100
AcDb2dPolyline
 66
     1
 10
0.0
 20
0.0
 30
0.0
  0
VERTEX
  5
6D7
330
6D6
100
AcDbEntity
  8
COTAS_LINEA
 62
     7
100
AcDbVertex
100
AcDb2dVertex
 10
92.50953185660487
 20
39.36675131169094
 30
0.0
  0
VERTEX
  5
6D8
330
6D6
100
AcDbEntity
  8
COTAS_LINEA
 62
     7
100
AcDbVertex
100
AcDb2dVertex
 10
99.25769295491315
 20
39.36675131169094
 30
0.0
  0
SEQEND
  5
6D9
330
6D6
100
AcDbEntity
  8
COTAS_LINEA
 62
     7
  0
POLYLINE
  5
6DA
330
1F
100
AcDbEntity
  8
COTAS_LINEA
 62
     7
100
AcDb2dPolyline
 66
     1
 10
0.0
 20
0.0
 30
0.0
  0
VERTEX
  5
6DB
330
6DA
100
AcDbEntity
  8
COTAS_LINEA
 62
     7
100
AcDbVertex
100
AcDb2dVertex
 10
78.7870370413965
 20
39.36675131169094
 30
0.0
  0
VERTEX
  5
6DC
330
6DA
100
AcDbEntity
  8
COTAS_LINEA
 62
     7
100
AcDbVertex
100
AcDb2dVertex
 10
85.89882689505512
 20
39.36675131169094
 30
0.0
  0
SEQEND
  5
6DD
330
6DA
100
AcDbEntity
  8
COTAS_LINEA
 62
     7
  0
MTEXT
  5
6DF
330
1F
100
AcDbEntity
  8
COTAS_N_U_00DAMERO
 62
     7
100
AcDbMText
 10
64.19914712360544
 20
44.41464469647013
 30
0.0
 40
1.998533025814148
 41
0.0
 71
     7
 72
     1
  1
\fMyriad Pro|b0|i0|c0|p34;\W1;44
  0
MTEXT
  5
6E0
330
1F
100
AcDbEntity
  8
COTAS_N_U_00DAMERO
 62
     7
100
AcDbMText
 10
56.91242566275351
 20
39.92189567415581
 30
0.0
 40
1.998533025814148
 41
0.0
 71
     7
 72
     1
  1
\fMyriad Pro|b0|i0|c0|p34;\W1;72
  0
MTEXT
  5
6E1
330
1F
100
AcDbEntity
  8
COTAS_N_U_00DAMERO
 62
     7
100
AcDbMText
 10
43.0900808438553
 20
39.92172341938155
 30
0.0
 40
1.998533025814148
 41
0.0
 71
     7
 72
     1
  1
\fMyriad Pro|b0|i0|c0|p34;\W1;59
  0
MTEXT
  5
6E2
330
1F
100
AcDbEntity
  8
COTAS_N_U_00DAMERO
 62
     7
100
AcDbMText
 10
50.5982546573876
 20
45.95426325178997
 30
0.0
 40
1.998533025814148
 41
0.0
 71
     7
 72
     1
  1
\fMyriad Pro|b0|i0|c0|p34;\W1;84
  0
MTEXT
  5
6E3
330
1F
100
AcDbEntity
  8
COTAS_N_U_00DAMERO
 62
     7
100
AcDbMText
 10
101.9463720278717
 20
44.41464469647013
 30
0.0
 40
1.998533025814148
 41
0.0
 71
     7
 72
     1
  1
\fMyriad Pro|b0|i0|c0|p34;\W1;44
  0
MTEXT
  5
6E4
330
1F
100
AcDbEntity
  8
COTAS_N_U_00DAMERO
 62
     7
100
AcDbMText
 10
94.65965056701977
 20
39.92189567415581
 30
0.0
 40
1.998533025814148
 41
0.0
 71
     7
 72
     1
  1
\fMyriad Pro|b0|i0|c0|p34;\W1;72
  0
MTEXT
  5
6E5
330
1F
100
AcDbEntity
  8
COTAS_N_U_00DAMERO
 62
     7
100
AcDbMText
 10
80.83730305664072
 20
39.92172341938155
 30
0.0
 40
1.998533025814148
 41
0.0
 71
     7
 72
     1
  1
\fMyriad Pro|b0|i0|c0|p34;\W1;59
  0
MTEXT
  5
6E6
330
1F
100
AcDbEntity
  8
COTAS_N_U_00DAMERO
 62
     7
100
AcDbMText
 10
88.3453073068796
 20
45.95426325178997
 30
0.0
 40
1.998533025814148
 41
0.0
 71
     7
 72
     1
  1
\fMyriad Pro|b0|i0|c0|p34;\W1;84
  0
ENDSEC
  0
SECTION
  2
OBJECTS
  0
DICTIONARY
  5
C
330
0
100
AcDbDictionary
  3
ACAD_GROUP
350
D
  3
ACAD_LAYOUT
350
1A
  3
ACAD_MATERIAL
350
3B
  3
ACAD_MLEADERSTYLE
350
709
  3
ACAD_MLINESTYLE
350
17
  3
ACAD_PLOTSETTINGS
350
19
  3
ACAD_VISUALSTYLE
350
2A
  3
ACDBHEADERROUNDTRIPXREC
350
6E7
  3
ACDBVARIABLEDICTIONARY
350
707
  0
DICTIONARY
  5
D
102
{ACAD_REACTORS
330
C
102
}
330
C
100
AcDbDictionary
  0
DICTIONARY
  5
1A
102
{ACAD_REACTORS
330
C
102
}
330
C
100
AcDbDictionary
  0
DICTIONARY
  5
3B
102
{ACAD_REACTORS
330
C
102
}
330
C
100
AcDbDictionary
  3
BYBLOCK
350
3D
  3
BYLAYER
350
3C
  3
GLOBAL
350
3E
  0
DICTIONARY
  5
709
102
{ACAD_REACTORS
330
C
102
}
330
C
100
AcDbDictionary
  0
DICTIONARY
  5
17
102
{ACAD_REACTORS
330
C
102
}
330
C
100
AcDbDictionary
  3
STANDARD
350
18
  0
DICTIONARY
  5
19
102
{ACAD_REACTORS
330
C
102
}
330
C
100
AcDbDictionary
  0
DICTIONARY
  5
2A
102
{ACAD_REACTORS
330
C
102
}
330
C
100
AcDbDictionary
  3
2DWIREFRAME
350
2F
  3
3D_HIDDEN
350
31
  3
3DWIREFRAME
350
30
  3
BASIC
350
32
  3
BRIGHTEN
350
36
  3
COLORCHANGE
350
3A
  3
CONCEPTUAL
350
34
  3
DIM
350
35
  3
FACEPATTERN
350
39
  3
FLAT
350
2B
  3
FLATWITHEDGES
350
2C
  3
GOURAUD
350
2D
  3
GOURAUDWITHEDGES
350
2E
  3
LINEPATTERN
350
38
  3
REALISTIC
350
33
  3
THICKEN
350
37
  0
DICTIONARY
  5
6E7
102
{ACAD_REACTORS
330
C
102
}
330
C
100
AcDbDictionary
  3
CEPSNTYPE
350
6F0
  3
DIMSTYLEDATA
350
706
  3
FINGERPRINTGUID
350
6F1
  3
HYPERLINKBASE
350
6EA
  3
INSUNITS
350
6EF
  3
LAYOUTDICT
350
6EC
  3
LWETCUNION
350
6EE
  3
PLOTSETDICT
350
6ED
  3
PSVPSCALE
350
6F3
  3
PUCSBASE
350
6F6
  3
PUCSORGBACK
350
6FC
  3
PUCSORGBOTTOM
350
6F8
  3
PUCSORGFRONT
350
6FB
  3
PUCSORGLEFT
350
6F9
  3
PUCSORGRIGHT
350
6FA
  3
PUCSORGTOP
350
6F7
  3
PUCSORTHOREF
350
6F4
  3
PUCSORTHOVIEW
350
6F5
  3
STYLESHEET
350
6EB
  3
TSTACKALIGN
350
6E8
  3
TSTACKSIZE
350
6E9
  3
UCSBASE
350
6FF
  3
UCSORGBACK
350
705
  3
UCSORGBOTTOM
350
701
  3
UCSORGFRONT
350
704
  3
UCSORGLEFT
350
702
  3
UCSORGRIGHT
350
703
  3
UCSORGTOP
350
700
  3
UCSORTHOREF
350
6FD
  3
UCSORTHOVIEW
350
6FE
  3
VERSIONGUID
350
6F2
  0
DICTIONARY
  5
707
102
{ACAD_REACTORS
330
C
102
}
330
C
100
AcDbDictionary
  3
DIMASSOC
350
70A
  3
HIDETEXT
350
70B
  0
MATERIAL
  5
3D
102
{ACAD_REACTORS
330
3B
102
}
102
{ACAD_XDICTIONARY
360
70E
102
}
330
3B
100
AcDbMaterial
  1
ByBlock
  0
MATERIAL
  5
3C
102
{ACAD_REACTORS
330
3B
102
}
102
{ACAD_XDICTIONARY
360
70C
102
}
330
3B
100
AcDbMaterial
  1
ByLayer
  0
MATERIAL
  5
3E
102
{ACAD_REACTORS
330
3B
102
}
102
{ACAD_XDICTIONARY
360
710
102
}
330
3B
100
AcDbMaterial
  1
Global
  0
MLINESTYLE
  5
18
102
{ACAD_REACTORS
330
17
102
}
330
17
100
AcDbMlineStyle
  2
Standard
 70
     0
  3

 62
   256
 51
90.0
 52
90.0
 71
     2
 49
0.5
 62
   256
  6
BYLAYER
 49
-0.5
 62
   256
  6
BYLAYER
  0
ACAD_PROXY_OBJECT
  5
2F
102
{ACAD_REACTORS
330
2A
102
}
330
2A
100
AcDbProxyObject
 90
      499
 91
      501
 93
      436
310
42CC9915DA5C99599C985B595049028333333333333E3BF0000000000000FB0107901411070040501600405405064090741402480A0340
1001
ACAD
1000
AcDbSavedByObjectVersion
1070
     0
  0
ACAD_PROXY_OBJECT
  5
31
102
{ACAD_REACTORS
330
2A
102
}
330
2A
100
AcDbProxyObject
 90
      499
 91
      501
 93
      500
310
424CD108121A5919195B90640502408333333333333E3BF0000000000000FB01079024090700405020000000000001110200405405064090740C02480A0340
1001
ACAD
1000
AcDbSavedByObjectVersion
1070
     0
  0
ACAD_PROXY_OBJECT
  5
30
102
{ACAD_REACTORS
330
2A
102
}
330
2A
100
AcDbProxyObject
 90
      499
 91
      501
 93
      436
310
42CCD915DA5C99599C985B595059028333333333333E3BF0000000000000FB0107901411070040501600405405064090741402480A0340
1001
ACAD
1000
AcDbSavedByObjectVersion
1070
     0
  0
ACAD_PROXY_OBJECT
  5
32
102
{ACAD_REACTORS
330
2A
102
}
330
2A
100
AcDbProxyObject
 90
      499
 91
      501
 93
      388
310
4150985CDA58D07406404333333333333E3BF0000000000000FB0107A41107004050150841D405064090741402480A0350
1001
ACAD
1000
AcDbSavedByObjectVersion
1070
     0
  0
ACAD_PROXY_OBJECT
  5
36
102
{ACAD_REACTORS
330
2A
102
}
330
2A
100
AcDbProxyObject
 90
      499
 91
      501
 93
      428
310
42109C9A59DA1D195B90C409028333333333333E3BF0000000000000FB010790141107004050150841D405064090741402480A029950
1001
ACAD
1000
AcDbSavedByObjectVersion
1070
     0
  0
ACAD_PROXY_OBJECT
  5
3A
102
{ACAD_REACTORS
330
2A
102
}
330
2A
100
AcDbProxyObject
 90
      499
 91
      501
 93
      452
310
42D0DBDB1BDC90DA185B99D95104090240C333333333333E3BF0000000000000FB0108901411070040501508421405064090741402480A0350
1001
ACAD
1000
AcDbSavedByObjectVersion
1070
     0
  0
ACAD_PROXY_OBJECT
  5
34
102
{ACAD_REACTORS
330
2A
102
}
330
2A
100
AcDbProxyObject
 90
      499
 91
      501
 93
      500
310
4290DBDB98D95C1D1D585B10940D028333333333333E3BF0000000000000FB0107902409070040501000000000000111010841D405064090740C02480A0340
1001
ACAD
1000
AcDbSavedByObjectVersion
1070
     0
  0
ACAD_PROXY_OBJECT
  5
35
102
{ACAD_REACTORS
330
2A
102
}
330
2A
100
AcDbProxyObject
 90
      499
 91
      501
 93
      412
310
40D11A5B50B409028333333333333E3BF0000000000000FB010790141107004050150841D405064090741402480A02677FFFFFD0
1001
ACAD
1000
AcDbSavedByObjectVersion
1070
     0
  0
ACAD_PROXY_OBJECT
  5
39
102
{ACAD_REACTORS
330
2A
102
}
330
2A
100
AcDbProxyObject
 90
      499
 91
      501
 93
      444
310
42D19858D95C185D1D195C9B90F409028333333333333E3BF0000000000000FB010790141107004050150841D405064090741402480A0350
1001
ACAD
1000
AcDbSavedByObjectVersion
1070
     0
  0
ACAD_PROXY_OBJECT
  5
2B
102
{ACAD_REACTORS
330
2A
102
}
330
2A
100
AcDbProxyObject
 90
      499
 91
      501
 93
      388
310
41119B185D240901404333333333333E3BF0000000000000F9010740A41107004050150841D405064090741402480A1B50
1001
ACAD
1000
AcDbSavedByObjectVersion
1070
     0
  0
ACAD_PROXY_OBJECT
  5
2C
102
{ACAD_REACTORS
330
2A
102
}
330
2A
100
AcDbProxyObject
 90
      499
 91
      501
 93
      476
310
43519B185D15DA5D1A115919D95CD0140901404333333333333E3BF0000000000000F9010740901411070040501600405405064090741402480A1B50
1001
ACAD
1000
AcDbSavedByObjectVersion
1070
     0
  0
ACAD_PROXY_OBJECT
  5
2D
102
{ACAD_REACTORS
330
2A
102
}
330
2A
100
AcDbProxyObject
 90
      499
 91
      501
 93
      412
310
41D1DBDD5C985D5910240902404333333333333E3BF0000000000000F9010740A411070040501641D405064090741402480A1B50
1001
ACAD
1000
AcDbSavedByObjectVersion
1070
     0
  0
ACAD_PROXY_OBJECT
  5
2E
102
{ACAD_REACTORS
330
2A
102
}
330
2A
100
AcDbProxyObject
 90
      499
 91
      501
 93
      500
310
4411DBDD5C985D5915DA5D1A115919D95CD0340902404333333333333E3BF0000000000000F9010740901411070040501600405405064090741402480A1B50
1001
ACAD
1000
AcDbSavedByObjectVersion
1070
     0
  0
ACAD_PROXY_OBJECT
  5
38
102
{ACAD_REACTORS
330
2A
102
}
330
2A
100
AcDbProxyObject
 90
      499
 91
      501
 93
      444
310
42D31A5B995C185D1D195C9B90E409028333333333333E3BF0000000000000FB010790141107004050750841D405064090741402483A0350
1001
ACAD
1000
AcDbSavedByObjectVersion
1070
     0
  0
ACAD_PROXY_OBJECT
  5
33
102
{ACAD_REACTORS
330
2A
102
}
330
2A
100
AcDbProxyObject
 90
      499
 91
      501
 93
      420
310
425499585B1A5CDD1A58D08409028333333333333E3BF0000000000000FB01079019070040501508421405064090741402480A1B40
1001
ACAD
1000
AcDbSavedByObjectVersion
1070
     0
  0
ACAD_PROXY_OBJECT
  5
37
102
{ACAD_REACTORS
330
2A
102
}
330
2A
100
AcDbProxyObject
 90
      499
 91
      501
 93
      412
310
41D51A1A58DAD95B90D409028333333333333E3BF0000000000000FB010790141107004050150C41D405064090741402480A0350
1001
ACAD
1000
AcDbSavedByObjectVersion
1070
     0
  0
XRECORD
  5
6F0
102
{ACAD_REACTORS
330
6E7
102
}
330
6E7
100
AcDbXrecord
 90
        0
  0
XRECORD
  5
706
102
{ACAD_REACTORS
330
6E7
102
}
330
6E7
100
AcDbXrecord
1000
DSTYLE
1002
{
1070
   340
340
11
1002
}
  0
XRECORD
  5
6F1
102
{ACAD_REACTORS
330
6E7
102
}
330
6E7
100
AcDbXrecord
  1
{05A7EC9A-DD39-4165-BAFE-BF2F56332440}
  0
XRECORD
  5
6EA
102
{ACAD_REACTORS
330
6E7
102
}
330
6E7
100
AcDbXrecord
  1

  0
XRECORD
  5
6EF
102
{ACAD_REACTORS
330
6E7
102
}
330
6E7
100
AcDbXrecord
 90
        1
  0
XRECORD
  5
6EC
102
{ACAD_REACTORS
330
6E7
102
}
330
6E7
100
AcDbXrecord
340
1A
  0
XRECORD
  5
6EE
102
{ACAD_REACTORS
330
6E7
102
}
330
6E7
100
AcDbXrecord
 90
    10269
  0
XRECORD
  5
6ED
102
{ACAD_REACTORS
330
6E7
102
}
330
6E7
100
AcDbXrecord
340
19
  0
XRECORD
  5
6F3
102
{ACAD_REACTORS
330
6E7
102
}
330
6E7
100
AcDbXrecord
 40
0.0
  0
XRECORD
  5
6F6
102
{ACAD_REACTORS
330
6E7
102
}
330
6E7
100
AcDbXrecord
340
0
  0
XRECORD
  5
6FC
102
{ACAD_REACTORS
330
6E7
102
}
330
6E7
100
AcDbXrecord
 10
0.0
 20
0.0
 30
0.0
  0
XRECORD
  5
6F8
102
{ACAD_REACTORS
330
6E7
102
}
330
6E7
100
AcDbXrecord
 10
0.0
 20
0.0
 30
0.0
  0
XRECORD
  5
6FB
102
{ACAD_REACTORS
330
6E7
102
}
330
6E7
100
AcDbXrecord
 10
0.0
 20
0.0
 30
0.0
  0
XRECORD
  5
6F9
102
{ACAD_REACTORS
330
6E7
102
}
330
6E7
100
AcDbXrecord
 10
0.0
 20
0.0
 30
0.0
  0
XRECORD
  5
6FA
102
{ACAD_REACTORS
330
6E7
102
}
330
6E7
100
AcDbXrecord
 10
0.0
 20
0.0
 30
0.0
  0
XRECORD
  5
6F7
102
{ACAD_REACTORS
330
6E7
102
}
330
6E7
100
AcDbXrecord
 10
0.0
 20
0.0
 30
0.0
  0
XRECORD
  5
6F4
102
{ACAD_REACTORS
330
6E7
102
}
330
6E7
100
AcDbXrecord
340
0
  0
XRECORD
  5
6F5
102
{ACAD_REACTORS
330
6E7
102
}
330
6E7
100
AcDbXrecord
 70
     0
  0
XRECORD
  5
6EB
102
{ACAD_REACTORS
330
6E7
102
}
330
6E7
100
AcDbXrecord
  1

  0
XRECORD
  5
6E8
102
{ACAD_REACTORS
330
6E7
102
}
330
6E7
100
AcDbXrecord
 90
        1
  0
XRECORD
  5
6E9
102
{ACAD_REACTORS
330
6E7
102
}
330
6E7
100
AcDbXrecord
 90
       70
  0
XRECORD
  5
6FF
102
{ACAD_REACTORS
330
6E7
102
}
330
6E7
100
AcDbXrecord
340
0
  0
XRECORD
  5
705
102
{ACAD_REACTORS
330
6E7
102
}
330
6E7
100
AcDbXrecord
 10
0.0
 20
0.0
 30
0.0
  0
XRECORD
  5
701
102
{ACAD_REACTORS
330
6E7
102
}
330
6E7
100
AcDbXrecord
 10
0.0
 20
0.0
 30
0.0
  0
XRECORD
  5
704
102
{ACAD_REACTORS
330
6E7
102
}
330
6E7
100
AcDbXrecord
 10
0.0
 20
0.0
 30
0.0
  0
XRECORD
  5
702
102
{ACAD_REACTORS
330
6E7
102
}
330
6E7
100
AcDbXrecord
 10
0.0
 20
0.0
 30
0.0
  0
XRECORD
  5
703
102
{ACAD_REACTORS
330
6E7
102
}
330
6E7
100
AcDbXrecord
 10
0.0
 20
0.0
 30
0.0
  0
XRECORD
  5
700
102
{ACAD_REACTORS
330
6E7
102
}
330
6E7
100
AcDbXrecord
 10
0.0
 20
0.0
 30
0.0
  0
XRECORD
  5
6FD
102
{ACAD_REACTORS
330
6E7
102
}
330
6E7
100
AcDbXrecord
340
0
  0
XRECORD
  5
6FE
102
{ACAD_REACTORS
330
6E7
102
}
330
6E7
100
AcDbXrecord
 70
     0
  0
XRECORD
  5
6F2
102
{ACAD_REACTORS
330
6E7
102
}
330
6E7
100
AcDbXrecord
  1
{FAEB1C32-E019-11D5-929B-00C0DF256EC4}
  0
DICTIONARYVAR
  5
70A
102
{ACAD_REACTORS
330
707
102
}
330
707
100
DictionaryVariables
280
     0
  1
2
  0
DICTIONARYVAR
  5
70B
102
{ACAD_REACTORS
330
707
102
}
330
707
100
DictionaryVariables
280
     0
  1
1
  0
DICTIONARY
  5
70E
330
3D
100
AcDbDictionary
280
     1
  3
ACAD_XREC_ROUNDTRIP
360
70F
  0
DICTIONARY
  5
70C
330
3C
100
AcDbDictionary
280
     1
  3
ACAD_XREC_ROUNDTRIP
360
70D
  0
DICTIONARY
  5
710
330
3E
100
AcDbDictionary
280
     1
  3
ACAD_XREC_ROUNDTRIP
360
711
  0
XRECORD
  5
70F
102
{ACAD_REACTORS
330
70E
102
}
330
70E
100
AcDbXrecord
102
MATERIAL
148
0.0
149
0.0
149
0.0
 93
        0
 94
      127
282
     0
 72
     1
 77
     1
171
     1
175
     1
179
     1
273
     0
  0
XRECORD
  5
70D
102
{ACAD_REACTORS
330
70C
102
}
330
70C
100
AcDbXrecord
102
MATERIAL
148
0.0
149
0.0
149
0.0
 93
        0
 94
      127
282
     0
 72
     1
 77
     1
171
     1
175
     1
179
     1
273
     0
  0
XRECORD
  5
711
102
{ACAD_REACTORS
330
710
102
}
330
710
100
AcDbXrecord
102
MATERIAL
148
0.0
149
0.0
149
0.0
 93
        0
 94
      127
282
     0
 72
     1
 77
     1
171
     1
175
     1
179
     1
273
     0
  0
ENDSEC
  0
EOF
