  0
SECTION
  2
HEADER
  9
$ACADVER
  1
AC1014
  9
$ACADMAINTVER
 70
     9
  9
$DWGCODEPAGE
  3
ANSI_1252
  9
$INSBASE
 10
0.0
 20
0.0
 30
0.0
  9
$EXTMIN
 10
1.000000000000000E+20
 20
1.000000000000000E+20
 30
1.000000000000000E+20
  9
$EXTMAX
 10
-1.000000000000000E+20
 20
-1.000000000000000E+20
 30
-1.000000000000000E+20
  9
$LIMMIN
 10
0.0
 20
0.0
  9
$LIMMAX
 10
12.0
 20
9.0
  9
$ORTHOMODE
 70
     0
  9
$REGENMODE
 70
     1
  9
$FILLMODE
 70
     1
  9
$QTEXTMODE
 70
     0
  9
$MIRRTEXT
 70
     1
  9
$DRAGMODE
 70
     2
  9
$LTSCALE
 40
1.0
  9
$OSMODE
 70
    37
  9
$ATTMODE
 70
     1
  9
$TEXTSIZE
 40
0.2
  9
$TRACEWID
 40
0.05
  9
$TEXTSTYLE
  7
STANDARD
  9
$CLAYER
  8
0
  9
$CELTYPE
  6
BYLAYER
  9
$CECOLOR
 62
   256
  9
$CELTSCALE
 40
1.0
  9
$DELOBJ
 70
     1
  9
$DISPSILH
 70
     0
  9
$DIMSCALE
 40
1.0
  9
$DIMASZ
 40
0.18
  9
$DIMEXO
 40
0.0625
  9
$DIMDLI
 40
0.38
  9
$DIMRND
 40
0.0
  9
$DIMDLE
 40
0.0
  9
$DIMEXE
 40
0.18
  9
$DIMTP
 40
0.0
  9
$DIMTM
 40
0.0
  9
$DIMTXT
 40
0.18
  9
$DIMCEN
 40
0.09
  9
$DIMTSZ
 40
0.0
  9
$DIMTOL
 70
     0
  9
$DIMLIM
 70
     0
  9
$DIMTIH
 70
     1
  9
$DIMTOH
 70
     1
  9
$DIMSE1
 70
     0
  9
$DIMSE2
 70
     0
  9
$DIMTAD
 70
     0
  9
$DIMZIN
 70
     0
  9
$DIMBLK
  1

  9
$DIMASO
 70
     1
  9
$DIMSHO
 70
     1
  9
$DIMPOST
  1

  9
$DIMAPOST
  1

  9
$DIMALT
 70
     0
  9
$DIMALTD
 70
     2
  9
$DIMALTF
 40
25.4
  9
$DIMLFAC
 40
1.0
  9
$DIMTOFL
 70
     0
  9
$DIMTVP
 40
0.0
  9
$DIMTIX
 70
     0
  9
$DIMSOXD
 70
     0
  9
$DIMSAH
 70
     0
  9
$DIMBLK1
  1

  9
$DIMBLK2
  1

  9
$DIMSTYLE
  2
STANDARD
  9
$DIMCLRD
 70
     0
  9
$DIMCLRE
 70
     0
  9
$DIMCLRT
 70
     0
  9
$DIMTFAC
 40
1.0
  9
$DIMGAP
 40
0.09
  9
$DIMJUST
 70
     0
  9
$DIMSD1
 70
     0
  9
$DIMSD2
 70
     0
  9
$DIMTOLJ
 70
     1
  9
$DIMTZIN
 70
     0
  9
$DIMALTZ
 70
     0
  9
$DIMALTTZ
 70
     0
  9
$DIMFIT
 70
     3
  9
$DIMUPT
 70
     0
  9
$DIMUNIT
 70
     2
  9
$DIMDEC
 70
     4
  9
$DIMTDEC
 70
     4
  9
$DIMALTU
 70
     2
  9
$DIMALTTD
 70
     2
  9
$DIMTXSTY
  7
STANDARD
  9
$DIMAUNIT
 70
     0
  9
$LUNITS
 70
     2
  9
$LUPREC
 70
     4
  9
$SKETCHINC
 40
0.1
  9
$FILLETRAD
 40
0.5
  9
$AUNITS
 70
     0
  9
$AUPREC
 70
     0
  9
$MENU
  1
.
  9
$ELEVATION
 40
0.0
  9
$PELEVATION
 40
0.0
  9
$THICKNESS
 40
0.0
  9
$LIMCHECK
 70
     0
  9
$CHAMFERA
 40
0.5
  9
$CHAMFERB
 40
0.5
  9
$CHAMFERC
 40
1.0
  9
$CHAMFERD
 40
0.0
  9
$SKPOLY
 70
     0
  9
$TDCREATE
 40
2459871.578343125
  9
$TDUPDATE
 40
2459871.578343333
  9
$TDINDWG
 40
0.0000000116
  9
$TDUSRTIMER
 40
0.0000000116
  9
$USRTIMER
 70
     1
  9
$ANGBASE
 50
0.0
  9
$ANGDIR
 70
     0
  9
$PDMODE
 70
     0
  9
$PDSIZE
 40
0.0
  9
$PLINEWID
 40
0.0
  9
$COORDS
 70
     1
  9
$SPLFRAME
 70
     0
  9
$SPLINETYPE
 70
     6
  9
$SPLINESEGS
 70
     8
  9
$ATTDIA
 70
     0
  9
$ATTREQ
 70
     1
  9
$HANDLING
 70
     1
  9
$HANDSEED
  5
4C0
  9
$SURFTAB1
 70
     6
  9
$SURFTAB2
 70
     6
  9
$SURFTYPE
 70
     6
  9
$SURFU
 70
     6
  9
$SURFV
 70
     6
  9
$UCSNAME
  2

  9
$UCSORG
 10
0.0
 20
0.0
 30
0.0
  9
$UCSXDIR
 10
1.0
 20
0.0
 30
0.0
  9
$UCSYDIR
 10
0.0
 20
1.0
 30
0.0
  9
$PUCSNAME
  2

  9
$PUCSORG
 10
0.0
 20
0.0
 30
0.0
  9
$PUCSXDIR
 10
1.0
 20
0.0
 30
0.0
  9
$PUCSYDIR
 10
0.0
 20
1.0
 30
0.0
  9
$USERI1
 70
     0
  9
$USERI2
 70
     0
  9
$USERI3
 70
     0
  9
$USERI4
 70
     0
  9
$USERI5
 70
     0
  9
$USERR1
 40
0.0
  9
$USERR2
 40
0.0
  9
$USERR3
 40
0.0
  9
$USERR4
 40
0.0
  9
$USERR5
 40
0.0
  9
$WORLDVIEW
 70
     1
  9
$SHADEDGE
 70
     3
  9
$SHADEDIF
 70
    70
  9
$TILEMODE
 70
     1
  9
$MAXACTVP
 70
    64
  9
$PINSBASE
 10
0.0
 20
0.0
 30
0.0
  9
$PLIMCHECK
 70
     0
  9
$PEXTMIN
 10
1.000000000000000E+20
 20
1.000000000000000E+20
 30
1.000000000000000E+20
  9
$PEXTMAX
 10
-1.000000000000000E+20
 20
-1.000000000000000E+20
 30
-1.000000000000000E+20
  9
$PLIMMIN
 10
0.0
 20
0.0
  9
$PLIMMAX
 10
12.0
 20
9.0
  9
$UNITMODE
 70
     0
  9
$VISRETAIN
 70
     1
  9
$PLINEGEN
 70
     0
  9
$PSLTSCALE
 70
     1
  9
$TREEDEPTH
 70
  3020
  9
$PICKSTYLE
 70
     1
  9
$CMLSTYLE
  2
STANDARD
  9
$CMLJUST
 70
     0
  9
$CMLSCALE
 40
1.0
  9
$PROXYGRAPHICS
 70
     1
  9
$MEASUREMENT
 70
     0
  0
ENDSEC
  0
SECTION
  2
CLASSES
  0
CLASS
  1
ACDBDICTIONARYWDFLT
  2
AcDbDictionaryWithDefault
  3
ObjectDBX Classes
 90
        0
280
     0
281
     0
  0
CLASS
  1
VISUALSTYLE
  2
AcDbVisualStyle
  3
ObjectDBX Classes
 90
     4095
280
     0
281
     0
  0
CLASS
  1
MATERIAL
  2
AcDbMaterial
  3
ObjectDBX Classes
 90
     1153
280
     0
281
     0
  0
CLASS
  1
SUN
  2
AcDbSun
  3
SCENEOE
 90
     1024
280
     0
281
     0
  0
CLASS
  1
DICTIONARYVAR
  2
AcDbDictionaryVar
  3
ObjectDBX Classes
 90
        0
280
     0
281
     0
  0
CLASS
  1
XRECORD
  2
AcDbXrecord
  3
AutoCAD 2000
 90
        0
280
     0
281
     0
  0
CLASS
  1
LWPOLYLINE
  2
AcDbPolyline
  3
AutoCAD 2000
 90
        0
280
     0
281
     1
  0
CLASS
  1
HATCH
  2
AcDbHatch
  3
AutoCAD 2000
 90
        0
280
     0
281
     1
  0
CLASS
  1
ACDBPLACEHOLDER
  2
AcDbPlaceHolder
  3
ObjectDBX Classes
 90
        0
280
     0
281
     0
  0
CLASS
  1
LAYOUT
  2
AcDbLayout
  3
ObjectDBX Classes
 90
        0
280
     0
281
     0
  0
ENDSEC
  0
SECTION
  2
TABLES
  0
TABLE
  2
VPORT
  5
8
330
0
100
AcDbSymbolTable
 70
     1
  0
VPORT
  5
29
330
8
100
AcDbSymbolTableRecord
100
AcDbViewportTableRecord
  2
*ACTIVE
 70
     0
 10
0.0
 20
0.0
 11
1.0
 21
1.0
 12
0.0
 22
0.0
 13
0.0
 23
0.0
 14
0.5
 24
0.5
 15
0.5
 25
0.5
 16
0.0
 26
0.0
 36
1.0
 17
74.99999786197358
 27
39.74999886684608
 37
0.0
 40
39.99999998999989
 41
3.000000000000008
 42
50.0
 43
0.0
 44
0.0
 50
0.0
 51
0.0
 71
     0
 72
   100
 73
     1
 74
     3
 75
     0
 76
     0
 77
     0
 78
     0
  0
ENDTAB
  0
TABLE
  2
LTYPE
  5
5
330
0
100
AcDbSymbolTable
 70
     1
  0
LTYPE
  5
14
330
5
100
AcDbSymbolTableRecord
100
AcDbLinetypeTableRecord
  2
BYBLOCK
 70
     0
  3

 72
    65
 73
     0
 40
0.0
  0
LTYPE
  5
15
330
5
100
AcDbSymbolTableRecord
100
AcDbLinetypeTableRecord
  2
BYLAYER
 70
     0
  3

 72
    65
 73
     0
 40
0.0
  0
LTYPE
  5
16
330
5
100
AcDbSymbolTableRecord
100
AcDbLinetypeTableRecord
  2
CONTINUOUS
 70
     0
  3
Solid line
 72
    65
 73
     0
 40
0.0
  0
ENDTAB
  0
TABLE
  2
LAYER
  5
2
330
0
100
AcDbSymbolTable
 70
     6
  0
LAYER
  5
10
330
2
100
AcDbSymbolTableRecord
100
AcDbLayerTableRecord
  2
0
 70
     0
 62
     7
  6
CONTINUOUS
  0
LAYER
  5
40
330
2
100
AcDbSymbolTableRecord
100
AcDbLayerTableRecord
  2
REFERENCIAS
 70
     0
 62
     7
  6
CONTINUOUS
  0
LAYER
  5
42
330
2
100
AcDbSymbolTableRecord
100
AcDbLayerTableRecord
  2
M_U_00C1RGENES
 70
     4
 62
     7
  6
CONTINUOUS
  0
LAYER
  5
5B
330
2
100
AcDbSymbolTableRecord
100
AcDbLayerTableRecord
  2
DIBUJOS
 70
     0
 62
     7
  6
CONTINUOUS
  0
LAYER
  5
46B
330
2
100
AcDbSymbolTableRecord
100
AcDbLayerTableRecord
  2
COTAS_LINEA
 70
     4
 62
     7
  6
CONTINUOUS
  0
LAYER
  5
48C
330
2
100
AcDbSymbolTableRecord
100
AcDbLayerTableRecord
  2
COTAS_N_U_00DAMERO
 70
     4
 62
     7
  6
CONTINUOUS
  0
ENDTAB
  0
TABLE
  2
STYLE
  5
3
330
0
100
AcDbSymbolTable
 70
     1
  0
STYLE
  5
11
330
3
100
AcDbSymbolTableRecord
100
AcDbTextStyleTableRecord
  2
STANDARD
 70
     0
 40
0.0
 41
1.0
 50
0.0
 71
     0
 42
0.2
  3
txt
  4

  0
ENDTAB
  0
TABLE
  2
VIEW
  5
6
330
0
100
AcDbSymbolTable
 70
     0
  0
ENDTAB
  0
TABLE
  2
UCS
  5
7
330
0
100
AcDbSymbolTable
 70
     0
  0
ENDTAB
  0
TABLE
  2
APPID
  5
9
330
0
100
AcDbSymbolTable
 70
     1
  0
APPID
  5
12
330
9
100
AcDbSymbolTableRecord
100
AcDbRegAppTableRecord
  2
ACAD
 70
     0
  0
ENDTAB
  0
TABLE
  2
DIMSTYLE
  5
A
330
0
100
AcDbSymbolTable
 70
     1
  0
DIMSTYLE
105
27
330
A
100
AcDbSymbolTableRecord
100
AcDbDimStyleTableRecord
  2
STANDARD
 70
     0
  3

  4

  5

  6

  7

 40
1.0
 41
0.18
 42
0.0625
 43
0.38
 44
0.18
 45
0.0
 46
0.0
 47
0.0
 48
0.0
140
0.18
141
0.09
142
0.0
143
25.4
144
1.0
145
0.0
146
1.0
147
0.09
 71
     0
 72
     0
 73
     1
 74
     1
 75
     0
 76
     0
 77
     0
 78
     0
170
     0
171
     2
172
     0
173
     0
174
     0
175
     0
176
     0
177
     0
178
     0
270
     2
271
     4
272
     4
273
     2
274
     2
340
11
275
     0
280
     0
281
     0
282
     0
283
     1
284
     0
285
     0
286
     0
287
     3
288
     0
  0
ENDTAB
  0
TABLE
  2
BLOCK_RECORD
  5
1
330
0
100
AcDbSymbolTable
 70
     7
  0
BLOCK_RECORD
  5
1F
330
1
100
AcDbSymbolTableRecord
100
AcDbBlockTableRecord
  2
*MODEL_SPACE
  0
BLOCK_RECORD
  5
1B
330
1
100
AcDbSymbolTableRecord
100
AcDbBlockTableRecord
  2
*PAPER_SPACE
  0
BLOCK_RECORD
  5
5C
330
1
100
AcDbSymbolTableRecord
100
AcDbBlockTableRecord
  2
BLOCK_2
  0
BLOCK_RECORD
  5
105
330
1
100
AcDbSymbolTableRecord
100
AcDbBlockTableRecord
  2
BLOCK_3
  0
BLOCK_RECORD
  5
1CD
330
1
100
AcDbSymbolTableRecord
100
AcDbBlockTableRecord
  2
BLOCK_4
  0
BLOCK_RECORD
  5
24F
330
1
100
AcDbSymbolTableRecord
100
AcDbBlockTableRecord
  2
BLOCK_5
  0
BLOCK_RECORD
  5
340
330
1
100
AcDbSymbolTableRecord
100
AcDbBlockTableRecord
  2
BLOCK_6
  0
BLOCK_RECORD
  5
3E9
330
1
100
AcDbSymbolTableRecord
100
AcDbBlockTableRecord
  2
BLOCK_7
  0
ENDTAB
  0
ENDSEC
  0
SECTION
  2
BLOCKS
  0
BLOCK
  5
20
330
1F
100
AcDbEntity
  8
0
100
AcDbBlockBegin
  2
*MODEL_SPACE
 70
     0
 10
0.0
 20
0.0
 30
0.0
  3
*MODEL_SPACE
  1

  0
ENDBLK
  5
21
330
1F
100
AcDbEntity
  8
0
100
AcDbBlockEnd
  0
BLOCK
  5
1C
330
1B
100
AcDbEntity
 67
     1
  8
0
100
AcDbBlockBegin
  2
*PAPER_SPACE
 70
     0
 10
0.0
 20
0.0
 30
0.0
  3
*PAPER_SPACE
  1

  0
ENDBLK
  5
1D
330
1B
100
AcDbEntity
 67
     1
  8
0
100
AcDbBlockEnd
  0
BLOCK
  5
5E
330
5C
100
AcDbEntity
  8
0
100
AcDbBlockBegin
  2
BLOCK_2
 70
     0
 10
0.0
 20
0.0
 30
0.0
  3
BLOCK_2
  1

  0
POLYLINE
  5
60
330
5C
100
AcDbEntity
  8
DIBUJOS
 62
     7
100
AcDb2dPolyline
 66
     1
 10
0.0
 20
0.0
 30
0.0
  0
VERTEX
  5
61
330
60
100
AcDbEntity
  8
DIBUJOS
 62
     7
100
AcDbVertex
100
AcDb2dVertex
 10
24.64830419512106
 20
51.21557323203437
 30
0.0
  0
VERTEX
  5
62
330
60
100
AcDbEntity
  8
DIBUJOS
 62
     7
100
AcDbVertex
100
AcDb2dVertex
 10
24.56958094818182
 20
51.24113085725843
 30
0.0
  0
VERTEX
  5
63
330
60
100
AcDbEntity
  8
DIBUJOS
 62
     7
100
AcDbVertex
100
AcDb2dVertex
 10
24.26166027845956
 20
51.26600376857606
 30
0.0
  0
VERTEX
  5
64
330
60
100
AcDbEntity
  8
DIBUJOS
 62
     7
100
AcDbVertex
100
AcDb2dVertex
 10
24.25605663414703
 20
51.26040238653434
 30
0.0
  0
VERTEX
  5
65
330
60
100
AcDbEntity
  8
DIBUJOS
 62
     7
100
AcDbVertex
100
AcDb2dVertex
 10
24.2223940474009
 20
51.2632468147873
 30
0.0
  0
VERTEX
  5
66
330
60
100
AcDbEntity
  8
DIBUJOS
 62
     7
100
AcDbVertex
100
AcDb2dVertex
 10
23.8469981402357
 20
51.27160816697897
 30
0.0
  0
SEQEND
  5
67
330
60
100
AcDbEntity
  8
DIBUJOS
 62
     7
  0
POLYLINE
  5
68
330
5C
100
AcDbEntity
  8
DIBUJOS
 62
     7
100
AcDb2dPolyline
 66
     1
 10
0.0
 20
0.0
 30
0.0
  0
VERTEX
  5
69
330
68
100
AcDbEntity
  8
DIBUJOS
 62
     7
100
AcDbVertex
100
AcDb2dVertex
 10
35.97304614000848
 20
48.35777043532789
 30
0.0
  0
VERTEX
  5
6A
330
68
100
AcDbEntity
  8
DIBUJOS
 62
     7
100
AcDbVertex
100
AcDb2dVertex
 10
35.9758377819467
 20
49.98278656508567
 30
0.0
  0
VERTEX
  5
6B
330
68
100
AcDbEntity
  8
DIBUJOS
 62
     7
100
AcDbVertex
100
AcDb2dVertex
 10
35.97864903023063
 20
50.04443494751582
 30
0.0
  0
VERTEX
  5
6C
330
68
100
AcDbEntity
  8
DIBUJOS
 62
     7
100
AcDbVertex
100
AcDb2dVertex
 10
35.97571411115322
 20
50.54327165076963
 30
0.0
  0
VERTEX
  5
6D
330
68
100
AcDbEntity
  8
DIBUJOS
 62
     7
100
AcDbVertex
100
AcDb2dVertex
 10
35.9703766606833
 20
50.66070159383533
 30
0.0
  0
VERTEX
  5
6E
330
68
100
AcDbEntity
  8
DIBUJOS
 62
     7
100
AcDbVertex
100
AcDb2dVertex
 10
35.94821847410276
 20
51.04716679111811
 30
0.0
  0
VERTEX
  5
6F
330
68
100
AcDbEntity
  8
DIBUJOS
 62
     7
100
AcDbVertex
100
AcDb2dVertex
 10
35.92327317012499
 20
51.13976001919578
 30
0.0
  0
VERTEX
  5
70
330
68
100
AcDbEntity
  8
DIBUJOS
 62
     7
100
AcDbVertex
100
AcDb2dVertex
 10
35.89598113743003
 20
51.1775339057388
 30
0.0
  0
VERTEX
  5
71
330
68
100
AcDbEntity
  8
DIBUJOS
 62
     7
100
AcDbVertex
100
AcDb2dVertex
 10
35.85537187171636
 20
51.22117763043697
 30
0.0
  0
VERTEX
  5
72
330
68
100
AcDbEntity
  8
DIBUJOS
 62
     7
100
AcDbVertex
100
AcDb2dVertex
 10
35.84360353997899
 20
51.22509889950232
 30
0.0
  0
VERTEX
  5
73
330
68
100
AcDbEntity
  8
DIBUJOS
 62
     7
100
AcDbVertex
100
AcDb2dVertex
 10
35.82231104895345
 20
51.23350549710653
 30
0.0
  0
VERTEX
  5
74
330
68
100
AcDbEntity
  8
DIBUJOS
 62
     7
100
AcDbVertex
100
AcDb2dVertex
 10
35.72050887129406
 20
51.26373244887923
 30
0.0
  0
VERTEX
  5
75
330
68
100
AcDbEntity
  8
DIBUJOS
 62
     7
100
AcDbVertex
100
AcDb2dVertex
 10
35.38467479854759
 20
51.2884183458262
 30
0.0
  0
VERTEX
  5
76
330
68
100
AcDbEntity
  8
DIBUJOS
 62
     7
100
AcDbVertex
100
AcDb2dVertex
 10
28.66603723363096
 20
51.27721256538157
 30
0.0
  0
VERTEX
  5
77
330
68
100
AcDbEntity
  8
DIBUJOS
 62
     7
100
AcDbVertex
100
AcDb2dVertex
 10
24.55304374998871
 20
51.28281696378448
 30
0.0
  0
VERTEX
  5
78
330
68
100
AcDbEntity
  8
DIBUJOS
 62
     7
100
AcDbVertex
100
AcDb2dVertex
 10
24.54183646136364
 20
51.27160816697897
 30
0.0
  0
SEQEND
  5
79
330
68
100
AcDbEntity
  8
DIBUJOS
 62
     7
  0
POLYLINE
  5
7A
330
5C
100
AcDbEntity
  8
DIBUJOS
 62
     7
100
AcDb2dPolyline
 66
     1
 10
0.0
 20
0.0
 30
0.0
  0
VERTEX
  5
7B
330
7A
100
AcDbEntity
  8
DIBUJOS
 62
     7
100
AcDbVertex
100
AcDb2dVertex
 10
25.57849029874316
 20
48.19527002889669
 30
0.0
  0
VERTEX
  5
7C
330
7A
100
AcDbEntity
  8
DIBUJOS
 62
     7
100
AcDbVertex
100
AcDb2dVertex
 10
25.62948263248753
 20
48.21656251992157
 30
0.0
  0
VERTEX
  5
7D
330
7A
100
AcDbEntity
  8
DIBUJOS
 62
     7
100
AcDbVertex
100
AcDb2dVertex
 10
25.74686959241184
 20
48.23203343456505
 30
0.0
  0
VERTEX
  5
7E
330
7A
100
AcDbEntity
  8
DIBUJOS
 62
     7
100
AcDbVertex
100
AcDb2dVertex
 10
25.95367732292149
 20
48.253799494239
 30
0.0
  0
VERTEX
  5
7F
330
7A
100
AcDbEntity
  8
DIBUJOS
 62
     7
100
AcDbVertex
100
AcDb2dVertex
 10
26.37385638508437
 20
48.30969266022516
 30
0.0
  0
VERTEX
  5
80
330
7A
100
AcDbEntity
  8
DIBUJOS
 62
     7
100
AcDbVertex
100
AcDb2dVertex
 10
26.44105637960269
 20
48.32081699892766
 30
0.0
  0
VERTEX
  5
81
330
7A
100
AcDbEntity
  8
DIBUJOS
 62
     7
100
AcDbVertex
100
AcDb2dVertex
 10
27.6125732174042
 20
48.34096025648066
 30
0.0
  0
VERTEX
  5
82
330
7A
100
AcDbEntity
  8
DIBUJOS
 62
     7
100
AcDbVertex
100
AcDb2dVertex
 10
27.62938339625143
 20
48.34096025648066
 30
0.0
  0
VERTEX
  5
83
330
7A
100
AcDbEntity
  8
DIBUJOS
 62
     7
100
AcDbVertex
100
AcDb2dVertex
 10
30.7898161658026
 20
48.34380166837275
 30
0.0
  0
VERTEX
  5
84
330
7A
100
AcDbEntity
  8
DIBUJOS
 62
     7
100
AcDbVertex
100
AcDb2dVertex
 10
31.63027081367457
 20
48.35493203979669
 30
0.0
  0
VERTEX
  5
85
330
7A
100
AcDbEntity
  8
DIBUJOS
 62
     7
100
AcDbVertex
100
AcDb2dVertex
 10
32.13462444086771
 20
48.35777043532789
 30
0.0
  0
VERTEX
  5
86
330
7A
100
AcDbEntity
  8
DIBUJOS
 62
     7
100
AcDbVertex
100
AcDb2dVertex
 10
32.80136385278089
 20
48.33824553174293
 30
0.0
  0
VERTEX
  5
87
330
7A
100
AcDbEntity
  8
DIBUJOS
 62
     7
100
AcDbVertex
100
AcDb2dVertex
 10
33.3057642335667
 20
48.33535585807807
 30
0.0
  0
VERTEX
  5
88
330
7A
100
AcDbEntity
  8
DIBUJOS
 62
     7
100
AcDbVertex
100
AcDb2dVertex
 10
33.40648052133139
 20
48.34359957219769
 30
0.0
  0
VERTEX
  5
89
330
7A
100
AcDbEntity
  8
DIBUJOS
 62
     7
100
AcDbVertex
100
AcDb2dVertex
 10
34.08482839785888
 20
48.32675319702055
 30
0.0
  0
VERTEX
  5
8A
330
7A
100
AcDbEntity
  8
DIBUJOS
 62
     7
100
AcDbVertex
100
AcDb2dVertex
 10
34.2132635333746
 20
48.31608734516271
 30
0.0
  0
VERTEX
  5
8B
330
7A
100
AcDbEntity
  8
DIBUJOS
 62
     7
100
AcDbVertex
100
AcDb2dVertex
 10
34.34802096116838
 20
48.31294429718881
 30
0.0
  0
VERTEX
  5
8C
330
7A
100
AcDbEntity
  8
DIBUJOS
 62
     7
100
AcDbVertex
100
AcDb2dVertex
 10
34.53266447237605
 20
48.33781720850675
 30
0.0
  0
VERTEX
  5
8D
330
7A
100
AcDbEntity
  8
DIBUJOS
 62
     7
100
AcDbVertex
100
AcDb2dVertex
 10
35.2838107091027
 20
48.35216905328618
 30
0.0
  0
VERTEX
  5
8E
330
7A
100
AcDbEntity
  8
DIBUJOS
 62
     7
100
AcDbVertex
100
AcDb2dVertex
 10
35.36789025876783
 20
48.34939098497127
 30
0.0
  0
VERTEX
  5
8F
330
7A
100
AcDbEntity
  8
DIBUJOS
 62
     7
100
AcDbVertex
100
AcDb2dVertex
 10
35.96744174160556
 20
48.35216905328618
 30
0.0
  0
SEQEND
  5
90
330
7A
100
AcDbEntity
  8
DIBUJOS
 62
     7
  0
POLYLINE
  5
91
330
5C
100
AcDbEntity
  8
DIBUJOS
 62
     7
100
AcDb2dPolyline
 66
     1
 10
0.0
 20
0.0
 30
0.0
  0
VERTEX
  5
92
330
91
100
AcDbEntity
  8
DIBUJOS
 62
     7
100
AcDbVertex
100
AcDb2dVertex
 10
42.45073076993828
 20
48.16725105324363
 30
0.0
  0
VERTEX
  5
93
330
91
100
AcDbEntity
  8
DIBUJOS
 62
     7
100
AcDbVertex
100
AcDb2dVertex
 10
42.45073076993828
 20
48.17285545164655
 30
0.0
  0
VERTEX
  5
94
330
91
100
AcDbEntity
  8
DIBUJOS
 62
     7
100
AcDbVertex
100
AcDb2dVertex
 10
42.36163350405066
 20
48.23000945645552
 30
0.0
  0
VERTEX
  5
95
330
91
100
AcDbEntity
  8
DIBUJOS
 62
     7
100
AcDbVertex
100
AcDb2dVertex
 10
42.16452035721466
 20
48.28837302195268
 30
0.0
  0
VERTEX
  5
96
330
91
100
AcDbEntity
  8
DIBUJOS
 62
     7
100
AcDbVertex
100
AcDb2dVertex
 10
42.14296845915897
 20
48.29268340156376
 30
0.0
  0
VERTEX
  5
97
330
91
100
AcDbEntity
  8
DIBUJOS
 62
     7
100
AcDbVertex
100
AcDb2dVertex
 10
41.85665850652859
 20
48.32145043469978
 30
0.0
  0
VERTEX
  5
98
330
91
100
AcDbEntity
  8
DIBUJOS
 62
     7
100
AcDbVertex
100
AcDb2dVertex
 10
41.70555692763379
 20
48.32684972056676
 30
0.0
  0
VERTEX
  5
99
330
91
100
AcDbEntity
  8
DIBUJOS
 62
     7
100
AcDbVertex
100
AcDb2dVertex
 10
40.20371389194252
 20
48.34656465488358
 30
0.0
  0
VERTEX
  5
9A
330
91
100
AcDbEntity
  8
DIBUJOS
 62
     7
100
AcDbVertex
100
AcDb2dVertex
 10
39.85069108706649
 20
48.33535585807807
 30
0.0
  0
VERTEX
  5
9B
330
91
100
AcDbEntity
  8
DIBUJOS
 62
     7
100
AcDbVertex
100
AcDb2dVertex
 10
38.92050422935402
 20
48.33535585807807
 30
0.0
  0
VERTEX
  5
9C
330
91
100
AcDbEntity
  8
DIBUJOS
 62
     7
100
AcDbVertex
100
AcDb2dVertex
 10
37.0657349123326
 20
48.3549682361266
 30
0.0
  0
VERTEX
  5
9D
330
91
100
AcDbEntity
  8
DIBUJOS
 62
     7
100
AcDbVertex
100
AcDb2dVertex
 10
36.62851944426041
 20
48.35481440172496
 30
0.0
  0
VERTEX
  5
9E
330
91
100
AcDbEntity
  8
DIBUJOS
 62
     7
100
AcDbVertex
100
AcDb2dVertex
 10
36.52793436819171
 20
48.34952068848651
 30
0.0
  0
VERTEX
  5
9F
330
91
100
AcDbEntity
  8
DIBUJOS
 62
     7
100
AcDbVertex
100
AcDb2dVertex
 10
36.2698937491619
 20
48.33831490804188
 30
0.0
  0
VERTEX
  5
A0
330
91
100
AcDbEntity
  8
DIBUJOS
 62
     7
100
AcDbVertex
100
AcDb2dVertex
 10
35.97864903023063
 20
48.35216905328618
 30
0.0
  0
SEQEND
  5
A1
330
91
100
AcDbEntity
  8
DIBUJOS
 62
     7
  0
POLYLINE
  5
A2
330
5C
100
AcDbEntity
  8
DIBUJOS
 62
     7
100
AcDb2dPolyline
 66
     1
 10
0.0
 20
0.0
 30
0.0
  0
VERTEX
  5
A3
330
A2
100
AcDbEntity
  8
DIBUJOS
 62
     7
100
AcDbVertex
100
AcDb2dVertex
 10
25.54486918695801
 20
48.156045272799
 30
0.0
  0
VERTEX
  5
A4
330
A2
100
AcDbEntity
  8
DIBUJOS
 62
     7
100
AcDbVertex
100
AcDb2dVertex
 10
25.48637365567479
 20
48.71612314977259
 30
0.0
  0
VERTEX
  5
A5
330
A2
100
AcDbEntity
  8
DIBUJOS
 62
     7
100
AcDbVertex
100
AcDb2dVertex
 10
25.33025360646712
 20
49.33222691260816
 30
0.0
  0
VERTEX
  5
A6
330
A2
100
AcDbEntity
  8
DIBUJOS
 62
     7
100
AcDbVertex
100
AcDb2dVertex
 10
25.27787751719652
 20
49.52940340302133
 30
0.0
  0
VERTEX
  5
A7
330
A2
100
AcDbEntity
  8
DIBUJOS
 62
     7
100
AcDbVertex
100
AcDb2dVertex
 10
25.00805046826438
 20
50.51008866539399
 30
0.0
  0
VERTEX
  5
A8
330
A2
100
AcDbEntity
  8
DIBUJOS
 62
     7
100
AcDbVertex
100
AcDb2dVertex
 10
24.90774742193179
 20
50.8350924946176
 30
0.0
  0
VERTEX
  5
A9
330
A2
100
AcDbEntity
  8
DIBUJOS
 62
     7
100
AcDbVertex
100
AcDb2dVertex
 10
24.8489102877859
 20
51.00768262799026
 30
0.0
  0
VERTEX
  5
AA
330
A2
100
AcDbEntity
  8
DIBUJOS
 62
     7
100
AcDbVertex
100
AcDb2dVertex
 10
24.80072015324251
 20
51.11527018570179
 30
0.0
  0
VERTEX
  5
AB
330
A2
100
AcDbEntity
  8
DIBUJOS
 62
     7
100
AcDbVertex
100
AcDb2dVertex
 10
24.76725740040062
 20
51.16093487214894
 30
0.0
  0
VERTEX
  5
AC
330
A2
100
AcDbEntity
  8
DIBUJOS
 62
     7
100
AcDbVertex
100
AcDb2dVertex
 10
24.70200145043046
 20
51.21841464392614
 30
0.0
  0
VERTEX
  5
AD
330
A2
100
AcDbEntity
  8
DIBUJOS
 62
     7
100
AcDbVertex
100
AcDb2dVertex
 10
24.68696790810612
 20
51.22509889950232
 30
0.0
  0
VERTEX
  5
AE
330
A2
100
AcDbEntity
  8
DIBUJOS
 62
     7
100
AcDbVertex
100
AcDb2dVertex
 10
24.67744224063786
 20
51.22902318492855
 30
0.0
  0
VERTEX
  5
AF
330
A2
100
AcDbEntity
  8
DIBUJOS
 62
     7
100
AcDbVertex
100
AcDb2dVertex
 10
24.61990742027574
 20
51.25252666843461
 30
0.0
  0
VERTEX
  5
B0
330
A2
100
AcDbEntity
  8
DIBUJOS
 62
     7
100
AcDbVertex
100
AcDb2dVertex
 10
24.55403236224747
 20
51.26435683556872
 30
0.0
  0
VERTEX
  5
B1
330
A2
100
AcDbEntity
  8
DIBUJOS
 62
     7
100
AcDbVertex
100
AcDb2dVertex
 10
24.54183646136364
 20
51.27160816697897
 30
0.0
  0
SEQEND
  5
B2
330
A2
100
AcDbEntity
  8
DIBUJOS
 62
     7
  0
POLYLINE
  5
B3
330
5C
100
AcDbEntity
  8
DIBUJOS
 62
     7
100
AcDb2dPolyline
 66
     1
 10
0.0
 20
0.0
 30
0.0
  0
VERTEX
  5
B4
330
B3
100
AcDbEntity
  8
DIBUJOS
 62
     7
100
AcDbVertex
100
AcDb2dVertex
 10
42.46193956674347
 20
45.94264875249865
 30
0.0
  0
VERTEX
  5
B5
330
B3
100
AcDbEntity
  8
DIBUJOS
 62
     7
100
AcDbVertex
100
AcDb2dVertex
 10
42.46754094878519
 20
45.93704435409573
 30
0.0
  0
VERTEX
  5
B6
330
B3
100
AcDbEntity
  8
DIBUJOS
 62
     7
100
AcDbVertex
100
AcDb2dVertex
 10
42.51853252843982
 20
45.94152666627339
 30
0.0
  0
VERTEX
  5
B7
330
B3
100
AcDbEntity
  8
DIBUJOS
 62
     7
100
AcDbVertex
100
AcDb2dVertex
 10
42.52301785697868
 20
45.94376782236238
 30
0.0
  0
VERTEX
  5
B8
330
B3
100
AcDbEntity
  8
DIBUJOS
 62
     7
100
AcDbVertex
100
AcDb2dVertex
 10
42.58521521707763
 20
45.99868368744293
 30
0.0
  0
VERTEX
  5
B9
330
B3
100
AcDbEntity
  8
DIBUJOS
 62
     7
100
AcDbVertex
100
AcDb2dVertex
 10
42.57961081867503
 20
46.75515983373826
 30
0.0
  0
VERTEX
  5
BA
330
B3
100
AcDbEntity
  8
DIBUJOS
 62
     7
100
AcDbVertex
100
AcDb2dVertex
 10
42.58521521707763
 20
46.76076423214085
 30
0.0
  0
VERTEX
  5
BB
330
B3
100
AcDbEntity
  8
DIBUJOS
 62
     7
100
AcDbVertex
100
AcDb2dVertex
 10
42.57081812688565
 20
47.98263468928355
 30
0.0
  0
VERTEX
  5
BC
330
B3
100
AcDbEntity
  8
DIBUJOS
 62
     7
100
AcDbVertex
100
AcDb2dVertex
 10
42.55607717156083
 20
48.08263911589454
 30
0.0
  0
VERTEX
  5
BD
330
B3
100
AcDbEntity
  8
DIBUJOS
 62
     7
100
AcDbVertex
100
AcDb2dVertex
 10
42.55271392924723
 20
48.08936258416119
 30
0.0
  0
VERTEX
  5
BE
330
B3
100
AcDbEntity
  8
DIBUJOS
 62
     7
100
AcDbVertex
100
AcDb2dVertex
 10
42.52467082270778
 20
48.11818692815297
 30
0.0
  0
VERTEX
  5
BF
330
B3
100
AcDbEntity
  8
DIBUJOS
 62
     7
100
AcDbVertex
100
AcDb2dVertex
 10
42.46697990567321
 20
48.15996654186499
 30
0.0
  0
VERTEX
  5
C0
330
B3
100
AcDbEntity
  8
DIBUJOS
 62
     7
100
AcDbVertex
100
AcDb2dVertex
 10
42.45633516834056
 20
48.16164665484104
 30
0.0
  0
SEQEND
  5
C1
330
B3
100
AcDbEntity
  8
DIBUJOS
 62
     7
  0
POLYLINE
  5
C2
330
5C
100
AcDbEntity
  8
DIBUJOS
 62
     7
100
AcDb2dPolyline
 66
     1
 10
0.0
 20
0.0
 30
0.0
  0
VERTEX
  5
C3
330
C2
100
AcDbEntity
  8
DIBUJOS
 62
     7
100
AcDbVertex
100
AcDb2dVertex
 10
23.86380907317331
 20
45.9258385736511
 30
0.0
  0
VERTEX
  5
C4
330
C2
100
AcDbEntity
  8
DIBUJOS
 62
     7
100
AcDbVertex
100
AcDb2dVertex
 10
23.7963692779699
 20
45.93447441467764
 30
0.0
  0
VERTEX
  5
C5
330
C2
100
AcDbEntity
  8
DIBUJOS
 62
     7
100
AcDbVertex
100
AcDb2dVertex
 10
23.70130640447129
 20
45.94264875249865
 30
0.0
  0
VERTEX
  5
C6
330
C2
100
AcDbEntity
  8
DIBUJOS
 62
     7
100
AcDbVertex
100
AcDb2dVertex
 10
23.69122044798077
 20
45.96001997445818
 30
0.0
  0
VERTEX
  5
C7
330
C2
100
AcDbEntity
  8
DIBUJOS
 62
     7
100
AcDbVertex
100
AcDb2dVertex
 10
23.67415086210307
 20
45.97756312898431
 30
0.0
  0
VERTEX
  5
C8
330
C2
100
AcDbEntity
  8
DIBUJOS
 62
     7
100
AcDbVertex
100
AcDb2dVertex
 10
23.65647800406138
 20
45.98747790699829
 30
0.0
  0
VERTEX
  5
C9
330
C2
100
AcDbEntity
  8
DIBUJOS
 62
     7
100
AcDbVertex
100
AcDb2dVertex
 10
23.63238331383488
 20
46.03734740042831
 30
0.0
  0
VERTEX
  5
CA
330
C2
100
AcDbEntity
  8
DIBUJOS
 62
     7
100
AcDbVertex
100
AcDb2dVertex
 10
23.6311292618242
 20
46.04363349637614
 30
0.0
  0
VERTEX
  5
CB
330
C2
100
AcDbEntity
  8
DIBUJOS
 62
     7
100
AcDbVertex
100
AcDb2dVertex
 10
23.62285689227654
 20
46.21161764677733
 30
0.0
  0
VERTEX
  5
CC
330
C2
100
AcDbEntity
  8
DIBUJOS
 62
     7
100
AcDbVertex
100
AcDb2dVertex
 10
23.60604671342932
 20
48.18966563049377
 30
0.0
  0
VERTEX
  5
CD
330
C2
100
AcDbEntity
  8
DIBUJOS
 62
     7
100
AcDbVertex
100
AcDb2dVertex
 10
23.60044306911678
 20
48.19527002889669
 30
0.0
  0
VERTEX
  5
CE
330
C2
100
AcDbEntity
  8
DIBUJOS
 62
     7
100
AcDbVertex
100
AcDb2dVertex
 10
23.60604671342932
 20
49.98279561416799
 30
0.0
  0
VERTEX
  5
CF
330
C2
100
AcDbEntity
  8
DIBUJOS
 62
     7
100
AcDbVertex
100
AcDb2dVertex
 10
23.61445180285277
 20
50.39745775239152
 30
0.0
  0
VERTEX
  5
D0
330
C2
100
AcDbEntity
  8
DIBUJOS
 62
     7
100
AcDbVertex
100
AcDb2dVertex
 10
23.61165035774185
 20
50.40306215079476
 30
0.0
  0
VERTEX
  5
D1
330
C2
100
AcDbEntity
  8
DIBUJOS
 62
     7
100
AcDbVertex
100
AcDb2dVertex
 10
23.63171066537228
 20
50.99176830830651
 30
0.0
  0
VERTEX
  5
D2
330
C2
100
AcDbEntity
  8
DIBUJOS
 62
     7
100
AcDbVertex
100
AcDb2dVertex
 10
23.64193914491129
 20
51.05829716254236
 30
0.0
  0
VERTEX
  5
D3
330
C2
100
AcDbEntity
  8
DIBUJOS
 62
     7
100
AcDbVertex
100
AcDb2dVertex
 10
23.67496980406573
 20
51.15897725397714
 30
0.0
  0
VERTEX
  5
D4
330
C2
100
AcDbEntity
  8
DIBUJOS
 62
     7
100
AcDbVertex
100
AcDb2dVertex
 10
23.68561680366824
 20
51.18139183122729
 30
0.0
  0
VERTEX
  5
D5
330
C2
100
AcDbEntity
  8
DIBUJOS
 62
     7
100
AcDbVertex
100
AcDb2dVertex
 10
23.72372098172143
 20
51.24359220768679
 30
0.0
  0
VERTEX
  5
D6
330
C2
100
AcDbEntity
  8
DIBUJOS
 62
     7
100
AcDbVertex
100
AcDb2dVertex
 10
23.72831565333976
 20
51.24493448825142
 30
0.0
  0
VERTEX
  5
D7
330
C2
100
AcDbEntity
  8
DIBUJOS
 62
     7
100
AcDbVertex
100
AcDb2dVertex
 10
23.7638679901395
 20
51.26745463813041
 30
0.0
  0
VERTEX
  5
D8
330
C2
100
AcDbEntity
  8
DIBUJOS
 62
     7
100
AcDbVertex
100
AcDb2dVertex
 10
23.80217049391618
 20
51.27160816697897
 30
0.0
  0
SEQEND
  5
D9
330
C2
100
AcDbEntity
  8
DIBUJOS
 62
     7
  0
POLYLINE
  5
DA
330
5C
100
AcDbEntity
  8
DIBUJOS
 62
     7
100
AcDb2dPolyline
 66
     1
 10
0.0
 20
0.0
 30
0.0
  0
VERTEX
  5
DB
330
DA
100
AcDbEntity
  8
DIBUJOS
 62
     7
100
AcDbVertex
100
AcDb2dVertex
 10
23.86941271748585
 20
45.9258385736511
 30
0.0
  0
VERTEX
  5
DC
330
DA
100
AcDbEntity
  8
DIBUJOS
 62
     7
100
AcDbVertex
100
AcDb2dVertex
 10
23.86380907317331
 20
45.9258385736511
 30
0.0
  0
SEQEND
  5
DD
330
DA
100
AcDbEntity
  8
DIBUJOS
 62
     7
  0
POLYLINE
  5
DE
330
5C
100
AcDbEntity
  8
DIBUJOS
 62
     7
100
AcDb2dPolyline
 66
     1
 10
0.0
 20
0.0
 30
0.0
  0
VERTEX
  5
DF
330
DE
100
AcDbEntity
  8
DIBUJOS
 62
     7
100
AcDbVertex
100
AcDb2dVertex
 10
23.87501636179838
 20
45.9258385736511
 30
0.0
  0
VERTEX
  5
E0
330
DE
100
AcDbEntity
  8
DIBUJOS
 62
     7
100
AcDbVertex
100
AcDb2dVertex
 10
23.86941271748585
 20
45.9258385736511
 30
0.0
  0
SEQEND
  5
E1
330
DE
100
AcDbEntity
  8
DIBUJOS
 62
     7
  0
POLYLINE
  5
E2
330
5C
100
AcDbEntity
  8
DIBUJOS
 62
     7
100
AcDb2dPolyline
 66
     1
 10
0.0
 20
0.0
 30
0.0
  0
VERTEX
  5
E3
330
E2
100
AcDbEntity
  8
DIBUJOS
 62
     7
100
AcDbVertex
100
AcDb2dVertex
 10
42.36107547729923
 20
45.9258385736511
 30
0.0
  0
VERTEX
  5
E4
330
E2
100
AcDbEntity
  8
DIBUJOS
 62
     7
100
AcDbVertex
100
AcDb2dVertex
 10
42.33866090004909
 20
45.93704435409573
 30
0.0
  0
VERTEX
  5
E5
330
E2
100
AcDbEntity
  8
DIBUJOS
 62
     7
100
AcDbVertex
100
AcDb2dVertex
 10
42.32745210324325
 20
45.93424215489411
 30
0.0
  0
VERTEX
  5
E6
330
E2
100
AcDbEntity
  8
DIBUJOS
 62
     7
100
AcDbVertex
100
AcDb2dVertex
 10
23.87501636179838
 20
45.9258385736511
 30
0.0
  0
SEQEND
  5
E7
330
E2
100
AcDbEntity
  8
DIBUJOS
 62
     7
  0
POLYLINE
  5
E8
330
5C
100
AcDbEntity
  8
DIBUJOS
 62
     7
100
AcDb2dPolyline
 66
     1
 10
0.0
 20
0.0
 30
0.0
  0
VERTEX
  5
E9
330
E8
100
AcDbEntity
  8
DIBUJOS
 62
     7
100
AcDbVertex
100
AcDb2dVertex
 10
23.86941271748585
 20
45.9202341752485
 30
0.0
  0
VERTEX
  5
EA
330
E8
100
AcDbEntity
  8
DIBUJOS
 62
     7
100
AcDbVertex
100
AcDb2dVertex
 10
23.86941271748585
 20
45.9258385736511
 30
0.0
  0
SEQEND
  5
EB
330
E8
100
AcDbEntity
  8
DIBUJOS
 62
     7
  0
POLYLINE
  5
EC
330
5C
100
AcDbEntity
  8
DIBUJOS
 62
     7
100
AcDb2dPolyline
 66
     1
 10
0.0
 20
0.0
 30
0.0
  0
VERTEX
  5
ED
330
EC
100
AcDbEntity
  8
DIBUJOS
 62
     7
100
AcDbVertex
100
AcDb2dVertex
 10
23.86941271748585
 20
45.9202341752485
 30
0.0
  0
VERTEX
  5
EE
330
EC
100
AcDbEntity
  8
DIBUJOS
 62
     7
100
AcDbVertex
100
AcDb2dVertex
 10
23.87501636179838
 20
44.40727886629793
 30
0.0
  0
VERTEX
  5
EF
330
EC
100
AcDbEntity
  8
DIBUJOS
 62
     7
100
AcDbVertex
100
AcDb2dVertex
 10
23.90303382927068
 20
43.41545418341837
 30
0.0
  0
VERTEX
  5
F0
330
EC
100
AcDbEntity
  8
DIBUJOS
 62
     7
100
AcDbVertex
100
AcDb2dVertex
 10
23.91424111789575
 20
43.40424840297374
 30
0.0
  0
VERTEX
  5
F1
330
EC
100
AcDbEntity
  8
DIBUJOS
 62
     7
100
AcDbVertex
100
AcDb2dVertex
 10
24.05432920934795
 20
43.40424840297374
 30
0.0
  0
VERTEX
  5
F2
330
EC
100
AcDbEntity
  8
DIBUJOS
 62
     7
100
AcDbVertex
100
AcDb2dVertex
 10
24.05993285366049
 20
43.40984978501513
 30
0.0
  0
VERTEX
  5
F3
330
EC
100
AcDbEntity
  8
DIBUJOS
 62
     7
100
AcDbVertex
100
AcDb2dVertex
 10
24.09079927392675
 20
44.21120334758385
 30
0.0
  0
VERTEX
  5
F4
330
EC
100
AcDbEntity
  8
DIBUJOS
 62
     7
100
AcDbVertex
100
AcDb2dVertex
 10
24.09915760975754
 20
44.56417789068709
 30
0.0
  0
VERTEX
  5
F5
330
EC
100
AcDbEntity
  8
DIBUJOS
 62
     7
100
AcDbVertex
100
AcDb2dVertex
 10
24.093553965445
 20
44.56978228909001
 30
0.0
  0
VERTEX
  5
F6
330
EC
100
AcDbEntity
  8
DIBUJOS
 62
     7
100
AcDbVertex
100
AcDb2dVertex
 10
24.09915760975754
 20
45.58402154921939
 30
0.0
  0
VERTEX
  5
F7
330
EC
100
AcDbEntity
  8
DIBUJOS
 62
     7
100
AcDbVertex
100
AcDb2dVertex
 10
24.11036489838261
 20
45.59523034602458
 30
0.0
  0
VERTEX
  5
F8
330
EC
100
AcDbEntity
  8
DIBUJOS
 62
     7
100
AcDbVertex
100
AcDb2dVertex
 10
42.12572694071468
 20
45.59523034602458
 30
0.0
  0
VERTEX
  5
F9
330
EC
100
AcDbEntity
  8
DIBUJOS
 62
     7
100
AcDbVertex
100
AcDb2dVertex
 10
42.13693272115931
 20
45.58402154921939
 30
0.0
  0
VERTEX
  5
FA
330
EC
100
AcDbEntity
  8
DIBUJOS
 62
     7
100
AcDbVertex
100
AcDb2dVertex
 10
42.14530613879418
 20
44.27842898116901
 30
0.0
  0
VERTEX
  5
FB
330
EC
100
AcDbEntity
  8
DIBUJOS
 62
     7
100
AcDbVertex
100
AcDb2dVertex
 10
42.1732436727051
 20
43.45478149578371
 30
0.0
  0
VERTEX
  5
FC
330
EC
100
AcDbEntity
  8
DIBUJOS
 62
     7
100
AcDbVertex
100
AcDb2dVertex
 10
42.17615747725669
 20
43.40984978501513
 30
0.0
  0
VERTEX
  5
FD
330
EC
100
AcDbEntity
  8
DIBUJOS
 62
     7
100
AcDbVertex
100
AcDb2dVertex
 10
42.18176187565928
 20
43.40424840297374
 30
0.0
  0
VERTEX
  5
FE
330
EC
100
AcDbEntity
  8
DIBUJOS
 62
     7
100
AcDbVertex
100
AcDb2dVertex
 10
42.32185072120154
 20
43.40424840297374
 30
0.0
  0
VERTEX
  5
FF
330
EC
100
AcDbEntity
  8
DIBUJOS
 62
     7
100
AcDbVertex
100
AcDb2dVertex
 10
42.33305650164617
 20
43.41545418341837
 30
0.0
  0
VERTEX
  5
100
330
EC
100
AcDbEntity
  8
DIBUJOS
 62
     7
100
AcDbVertex
100
AcDb2dVertex
 10
42.34714893939511
 20
43.85821372267654
 30
0.0
  0
VERTEX
  5
101
330
EC
100
AcDbEntity
  8
DIBUJOS
 62
     7
100
AcDbVertex
100
AcDb2dVertex
 10
42.35258442159168
 20
44.04296883923482
 30
0.0
  0
VERTEX
  5
102
330
EC
100
AcDbEntity
  8
DIBUJOS
 62
     7
100
AcDbVertex
100
AcDb2dVertex
 10
42.36389275830428
 20
45.03489306202082
 30
0.0
  0
VERTEX
  5
103
330
EC
100
AcDbEntity
  8
DIBUJOS
 62
     7
100
AcDbVertex
100
AcDb2dVertex
 10
42.36667685934063
 20
45.9202341752485
 30
0.0
  0
SEQEND
  5
104
330
EC
100
AcDbEntity
  8
DIBUJOS
 62
     7
  0
ENDBLK
  5
5F
330
5C
100
AcDbEntity
  8
0
100
AcDbBlockEnd
  0
BLOCK
  5
107
330
105
100
AcDbEntity
  8
0
100
AcDbBlockBegin
  2
BLOCK_3
 70
     0
 10
0.0
 20
0.0
 30
0.0
  3
BLOCK_3
  1

  0
POLYLINE
  5
109
330
105
100
AcDbEntity
  8
DIBUJOS
 62
     7
100
AcDb2dPolyline
 66
     1
 10
0.0
 20
0.0
 30
0.0
  0
VERTEX
  5
10A
330
109
100
AcDbEntity
  8
DIBUJOS
 62
     7
100
AcDbVertex
100
AcDb2dVertex
 10
53.80082535604775
 20
51.28281696378448
 30
0.0
  0
VERTEX
  5
10B
330
109
100
AcDbEntity
  8
DIBUJOS
 62
     7
100
AcDbVertex
100
AcDb2dVertex
 10
53.79522095764515
 20
51.28281696378448
 30
0.0
  0
SEQEND
  5
10C
330
109
100
AcDbEntity
  8
DIBUJOS
 62
     7
  0
POLYLINE
  5
10D
330
105
100
AcDbEntity
  8
DIBUJOS
 62
     7
100
AcDb2dPolyline
 66
     1
 10
0.0
 20
0.0
 30
0.0
  0
VERTEX
  5
10E
330
10D
100
AcDbEntity
  8
DIBUJOS
 62
     7
100
AcDbVertex
100
AcDb2dVertex
 10
53.8064297544497
 20
51.28281696378448
 30
0.0
  0
VERTEX
  5
10F
330
10D
100
AcDbEntity
  8
DIBUJOS
 62
     7
100
AcDbVertex
100
AcDb2dVertex
 10
53.80082535604775
 20
51.28281696378448
 30
0.0
  0
SEQEND
  5
110
330
10D
100
AcDbEntity
  8
DIBUJOS
 62
     7
  0
POLYLINE
  5
111
330
105
100
AcDbEntity
  8
DIBUJOS
 62
     7
100
AcDb2dPolyline
 66
     1
 10
0.0
 20
0.0
 30
0.0
  0
VERTEX
  5
112
330
111
100
AcDbEntity
  8
DIBUJOS
 62
     7
100
AcDbVertex
100
AcDb2dVertex
 10
53.81203113649205
 20
51.28281696378448
 30
0.0
  0
VERTEX
  5
113
330
111
100
AcDbEntity
  8
DIBUJOS
 62
     7
100
AcDbVertex
100
AcDb2dVertex
 10
53.8064297544497
 20
51.28281696378448
 30
0.0
  0
SEQEND
  5
114
330
111
100
AcDbEntity
  8
DIBUJOS
 62
     7
  0
POLYLINE
  5
115
330
105
100
AcDbEntity
  8
DIBUJOS
 62
     7
100
AcDb2dPolyline
 66
     1
 10
0.0
 20
0.0
 30
0.0
  0
VERTEX
  5
116
330
115
100
AcDbEntity
  8
DIBUJOS
 62
     7
100
AcDbVertex
100
AcDb2dVertex
 10
53.81763553489465
 20
51.28281696378448
 30
0.0
  0
VERTEX
  5
117
330
115
100
AcDbEntity
  8
DIBUJOS
 62
     7
100
AcDbVertex
100
AcDb2dVertex
 10
53.81203113649205
 20
51.28281696378448
 30
0.0
  0
SEQEND
  5
118
330
115
100
AcDbEntity
  8
DIBUJOS
 62
     7
  0
POLYLINE
  5
119
330
105
100
AcDbEntity
  8
DIBUJOS
 62
     7
100
AcDb2dPolyline
 66
     1
 10
0.0
 20
0.0
 30
0.0
  0
VERTEX
  5
11A
330
119
100
AcDbEntity
  8
DIBUJOS
 62
     7
100
AcDbVertex
100
AcDb2dVertex
 10
53.90168944549199
 20
51.28281696378448
 30
0.0
  0
VERTEX
  5
11B
330
119
100
AcDbEntity
  8
DIBUJOS
 62
     7
100
AcDbVertex
100
AcDb2dVertex
 10
53.89608504708939
 20
51.2884183458262
 30
0.0
  0
VERTEX
  5
11C
330
119
100
AcDbEntity
  8
DIBUJOS
 62
     7
100
AcDbVertex
100
AcDb2dVertex
 10
53.82323993329724
 20
51.2884183458262
 30
0.0
  0
VERTEX
  5
11D
330
119
100
AcDbEntity
  8
DIBUJOS
 62
     7
100
AcDbVertex
100
AcDb2dVertex
 10
53.81763553489465
 20
51.28281696378448
 30
0.0
  0
SEQEND
  5
11E
330
119
100
AcDbEntity
  8
DIBUJOS
 62
     7
  0
POLYLINE
  5
11F
330
105
100
AcDbEntity
  8
DIBUJOS
 62
     7
100
AcDb2dPolyline
 66
     1
 10
0.0
 20
0.0
 30
0.0
  0
VERTEX
  5
120
330
11F
100
AcDbEntity
  8
DIBUJOS
 62
     7
100
AcDbVertex
100
AcDb2dVertex
 10
53.90729384389459
 20
51.28281696378448
 30
0.0
  0
VERTEX
  5
121
330
11F
100
AcDbEntity
  8
DIBUJOS
 62
     7
100
AcDbVertex
100
AcDb2dVertex
 10
53.90168944549199
 20
51.28281696378448
 30
0.0
  0
SEQEND
  5
122
330
11F
100
AcDbEntity
  8
DIBUJOS
 62
     7
  0
POLYLINE
  5
123
330
105
100
AcDbEntity
  8
DIBUJOS
 62
     7
100
AcDb2dPolyline
 66
     1
 10
0.0
 20
0.0
 30
0.0
  0
VERTEX
  5
124
330
123
100
AcDbEntity
  8
DIBUJOS
 62
     7
100
AcDbVertex
100
AcDb2dVertex
 10
53.7840151772002
 20
51.27721256538157
 30
0.0
  0
VERTEX
  5
125
330
123
100
AcDbEntity
  8
DIBUJOS
 62
     7
100
AcDbVertex
100
AcDb2dVertex
 10
53.79522095764515
 20
51.28281696378448
 30
0.0
  0
SEQEND
  5
126
330
123
100
AcDbEntity
  8
DIBUJOS
 62
     7
  0
POLYLINE
  5
127
330
105
100
AcDbEntity
  8
DIBUJOS
 62
     7
100
AcDb2dPolyline
 66
     1
 10
0.0
 20
0.0
 30
0.0
  0
VERTEX
  5
128
330
127
100
AcDbEntity
  8
DIBUJOS
 62
     7
100
AcDbVertex
100
AcDb2dVertex
 10
53.80082535604775
 20
51.27721256538157
 30
0.0
  0
VERTEX
  5
129
330
127
100
AcDbEntity
  8
DIBUJOS
 62
     7
100
AcDbVertex
100
AcDb2dVertex
 10
53.80082535604775
 20
51.28281696378448
 30
0.0
  0
SEQEND
  5
12A
330
127
100
AcDbEntity
  8
DIBUJOS
 62
     7
  0
POLYLINE
  5
12B
330
105
100
AcDbEntity
  8
DIBUJOS
 62
     7
100
AcDb2dPolyline
 66
     1
 10
0.0
 20
0.0
 30
0.0
  0
VERTEX
  5
12C
330
12B
100
AcDbEntity
  8
DIBUJOS
 62
     7
100
AcDbVertex
100
AcDb2dVertex
 10
53.81203113649205
 20
51.27721256538157
 30
0.0
  0
VERTEX
  5
12D
330
12B
100
AcDbEntity
  8
DIBUJOS
 62
     7
100
AcDbVertex
100
AcDb2dVertex
 10
53.81203113649205
 20
51.28281696378448
 30
0.0
  0
SEQEND
  5
12E
330
12B
100
AcDbEntity
  8
DIBUJOS
 62
     7
  0
POLYLINE
  5
12F
330
105
100
AcDbEntity
  8
DIBUJOS
 62
     7
100
AcDb2dPolyline
 66
     1
 10
0.0
 20
0.0
 30
0.0
  0
VERTEX
  5
130
330
12F
100
AcDbEntity
  8
DIBUJOS
 62
     7
100
AcDbVertex
100
AcDb2dVertex
 10
53.90729384389459
 20
51.27721256538157
 30
0.0
  0
VERTEX
  5
131
330
12F
100
AcDbEntity
  8
DIBUJOS
 62
     7
100
AcDbVertex
100
AcDb2dVertex
 10
53.90729384389459
 20
51.28281696378448
 30
0.0
  0
SEQEND
  5
132
330
12F
100
AcDbEntity
  8
DIBUJOS
 62
     7
  0
POLYLINE
  5
133
330
105
100
AcDbEntity
  8
DIBUJOS
 62
     7
100
AcDb2dPolyline
 66
     1
 10
0.0
 20
0.0
 30
0.0
  0
VERTEX
  5
134
330
133
100
AcDbEntity
  8
DIBUJOS
 62
     7
100
AcDbVertex
100
AcDb2dVertex
 10
53.80082535604775
 20
51.27160816697897
 30
0.0
  0
VERTEX
  5
135
330
133
100
AcDbEntity
  8
DIBUJOS
 62
     7
100
AcDbVertex
100
AcDb2dVertex
 10
53.80082535604775
 20
51.27721256538157
 30
0.0
  0
SEQEND
  5
136
330
133
100
AcDbEntity
  8
DIBUJOS
 62
     7
  0
POLYLINE
  5
137
330
105
100
AcDbEntity
  8
DIBUJOS
 62
     7
100
AcDb2dPolyline
 66
     1
 10
0.0
 20
0.0
 30
0.0
  0
VERTEX
  5
138
330
137
100
AcDbEntity
  8
DIBUJOS
 62
     7
100
AcDbVertex
100
AcDb2dVertex
 10
53.81203113649205
 20
51.27160816697897
 30
0.0
  0
VERTEX
  5
139
330
137
100
AcDbEntity
  8
DIBUJOS
 62
     7
100
AcDbVertex
100
AcDb2dVertex
 10
53.81203113649205
 20
51.27721256538157
 30
0.0
  0
SEQEND
  5
13A
330
137
100
AcDbEntity
  8
DIBUJOS
 62
     7
  0
POLYLINE
  5
13B
330
105
100
AcDbEntity
  8
DIBUJOS
 62
     7
100
AcDb2dPolyline
 66
     1
 10
0.0
 20
0.0
 30
0.0
  0
VERTEX
  5
13C
330
13B
100
AcDbEntity
  8
DIBUJOS
 62
     7
100
AcDbVertex
100
AcDb2dVertex
 10
53.81763553489465
 20
51.27160816697897
 30
0.0
  0
VERTEX
  5
13D
330
13B
100
AcDbEntity
  8
DIBUJOS
 62
     7
100
AcDbVertex
100
AcDb2dVertex
 10
53.81203113649205
 20
51.27160816697897
 30
0.0
  0
SEQEND
  5
13E
330
13B
100
AcDbEntity
  8
DIBUJOS
 62
     7
  0
POLYLINE
  5
13F
330
105
100
AcDbEntity
  8
DIBUJOS
 62
     7
100
AcDb2dPolyline
 66
     1
 10
0.0
 20
0.0
 30
0.0
  0
VERTEX
  5
140
330
13F
100
AcDbEntity
  8
DIBUJOS
 62
     7
100
AcDbVertex
100
AcDb2dVertex
 10
53.84565451054739
 20
51.27160816697897
 30
0.0
  0
VERTEX
  5
141
330
13F
100
AcDbEntity
  8
DIBUJOS
 62
     7
100
AcDbVertex
100
AcDb2dVertex
 10
53.81763553489465
 20
51.27160816697897
 30
0.0
  0
SEQEND
  5
142
330
13F
100
AcDbEntity
  8
DIBUJOS
 62
     7
  0
POLYLINE
  5
143
330
105
100
AcDbEntity
  8
DIBUJOS
 62
     7
100
AcDb2dPolyline
 66
     1
 10
0.0
 20
0.0
 30
0.0
  0
VERTEX
  5
144
330
143
100
AcDbEntity
  8
DIBUJOS
 62
     7
100
AcDbVertex
100
AcDb2dVertex
 10
53.91289522593694
 20
51.27160816697897
 30
0.0
  0
VERTEX
  5
145
330
143
100
AcDbEntity
  8
DIBUJOS
 62
     7
100
AcDbVertex
100
AcDb2dVertex
 10
53.90729384389459
 20
51.27721256538157
 30
0.0
  0
SEQEND
  5
146
330
143
100
AcDbEntity
  8
DIBUJOS
 62
     7
  0
POLYLINE
  5
147
330
105
100
AcDbEntity
  8
DIBUJOS
 62
     7
100
AcDb2dPolyline
 66
     1
 10
0.0
 20
0.0
 30
0.0
  0
VERTEX
  5
148
330
147
100
AcDbEntity
  8
DIBUJOS
 62
     7
100
AcDbVertex
100
AcDb2dVertex
 10
53.79522095764515
 20
51.26600376857606
 30
0.0
  0
VERTEX
  5
149
330
147
100
AcDbEntity
  8
DIBUJOS
 62
     7
100
AcDbVertex
100
AcDb2dVertex
 10
53.7840151772002
 20
51.27721256538157
 30
0.0
  0
SEQEND
  5
14A
330
147
100
AcDbEntity
  8
DIBUJOS
 62
     7
  0
POLYLINE
  5
14B
330
105
100
AcDbEntity
  8
DIBUJOS
 62
     7
100
AcDb2dPolyline
 66
     1
 10
0.0
 20
0.0
 30
0.0
  0
VERTEX
  5
14C
330
14B
100
AcDbEntity
  8
DIBUJOS
 62
     7
100
AcDbVertex
100
AcDb2dVertex
 10
53.80082535604775
 20
51.26600376857606
 30
0.0
  0
VERTEX
  5
14D
330
14B
100
AcDbEntity
  8
DIBUJOS
 62
     7
100
AcDbVertex
100
AcDb2dVertex
 10
53.79522095764515
 20
51.26600376857606
 30
0.0
  0
SEQEND
  5
14E
330
14B
100
AcDbEntity
  8
DIBUJOS
 62
     7
  0
POLYLINE
  5
14F
330
105
100
AcDbEntity
  8
DIBUJOS
 62
     7
100
AcDb2dPolyline
 66
     1
 10
0.0
 20
0.0
 30
0.0
  0
VERTEX
  5
150
330
14F
100
AcDbEntity
  8
DIBUJOS
 62
     7
100
AcDbVertex
100
AcDb2dVertex
 10
53.80082535604775
 20
51.26600376857606
 30
0.0
  0
VERTEX
  5
151
330
14F
100
AcDbEntity
  8
DIBUJOS
 62
     7
100
AcDbVertex
100
AcDb2dVertex
 10
53.80082535604775
 20
51.27160816697897
 30
0.0
  0
SEQEND
  5
152
330
14F
100
AcDbEntity
  8
DIBUJOS
 62
     7
  0
POLYLINE
  5
153
330
105
100
AcDbEntity
  8
DIBUJOS
 62
     7
100
AcDb2dPolyline
 66
     1
 10
0.0
 20
0.0
 30
0.0
  0
VERTEX
  5
154
330
153
100
AcDbEntity
  8
DIBUJOS
 62
     7
100
AcDbVertex
100
AcDb2dVertex
 10
53.8064297544497
 20
51.26600376857606
 30
0.0
  0
VERTEX
  5
155
330
153
100
AcDbEntity
  8
DIBUJOS
 62
     7
100
AcDbVertex
100
AcDb2dVertex
 10
53.80082535604775
 20
51.26600376857606
 30
0.0
  0
SEQEND
  5
156
330
153
100
AcDbEntity
  8
DIBUJOS
 62
     7
  0
POLYLINE
  5
157
330
105
100
AcDbEntity
  8
DIBUJOS
 62
     7
100
AcDb2dPolyline
 66
     1
 10
0.0
 20
0.0
 30
0.0
  0
VERTEX
  5
158
330
157
100
AcDbEntity
  8
DIBUJOS
 62
     7
100
AcDbVertex
100
AcDb2dVertex
 10
53.8064297544497
 20
51.26600376857606
 30
0.0
  0
VERTEX
  5
159
330
157
100
AcDbEntity
  8
DIBUJOS
 62
     7
100
AcDbVertex
100
AcDb2dVertex
 10
53.81203113649205
 20
51.27160816697897
 30
0.0
  0
SEQEND
  5
15A
330
157
100
AcDbEntity
  8
DIBUJOS
 62
     7
  0
POLYLINE
  5
15B
330
105
100
AcDbEntity
  8
DIBUJOS
 62
     7
100
AcDb2dPolyline
 66
     1
 10
0.0
 20
0.0
 30
0.0
  0
VERTEX
  5
15C
330
15B
100
AcDbEntity
  8
DIBUJOS
 62
     7
100
AcDbVertex
100
AcDb2dVertex
 10
54.99437821781643
 20
51.26600376857606
 30
0.0
  0
VERTEX
  5
15D
330
15B
100
AcDbEntity
  8
DIBUJOS
 62
     7
100
AcDbVertex
100
AcDb2dVertex
 10
55.00558399826075
 20
51.27160816697897
 30
0.0
  0
SEQEND
  5
15E
330
15B
100
AcDbEntity
  8
DIBUJOS
 62
     7
  0
POLYLINE
  5
15F
330
105
100
AcDbEntity
  8
DIBUJOS
 62
     7
100
AcDb2dPolyline
 66
     1
 10
0.0
 20
0.0
 30
0.0
  0
VERTEX
  5
160
330
15F
100
AcDbEntity
  8
DIBUJOS
 62
     7
100
AcDbVertex
100
AcDb2dVertex
 10
53.79522095764515
 20
45.9258385736511
 30
0.0
  0
VERTEX
  5
161
330
15F
100
AcDbEntity
  8
DIBUJOS
 62
     7
100
AcDbVertex
100
AcDb2dVertex
 10
53.68925016933247
 20
45.93902308679336
 30
0.0
  0
VERTEX
  5
162
330
15F
100
AcDbEntity
  8
DIBUJOS
 62
     7
100
AcDbVertex
100
AcDb2dVertex
 10
53.63372801572707
 20
45.96640561031278
 30
0.0
  0
VERTEX
  5
163
330
15F
100
AcDbEntity
  8
DIBUJOS
 62
     7
100
AcDbVertex
100
AcDb2dVertex
 10
53.59349579511562
 20
45.99868368744293
 30
0.0
  0
VERTEX
  5
164
330
15F
100
AcDbEntity
  8
DIBUJOS
 62
     7
100
AcDbVertex
100
AcDb2dVertex
 10
53.58789139671302
 20
46.21161764677733
 30
0.0
  0
VERTEX
  5
165
330
15F
100
AcDbEntity
  8
DIBUJOS
 62
     7
100
AcDbVertex
100
AcDb2dVertex
 10
53.58510126295491
 20
47.63490258128446
 30
0.0
  0
VERTEX
  5
166
330
15F
100
AcDbEntity
  8
DIBUJOS
 62
     7
100
AcDbVertex
100
AcDb2dVertex
 10
53.59067851411024
 20
49.90993541857176
 30
0.0
  0
VERTEX
  5
167
330
15F
100
AcDbEntity
  8
DIBUJOS
 62
     7
100
AcDbVertex
100
AcDb2dVertex
 10
53.60184809822528
 20
50.81767301088463
 30
0.0
  0
VERTEX
  5
168
330
15F
100
AcDbEntity
  8
DIBUJOS
 62
     7
100
AcDbVertex
100
AcDb2dVertex
 10
53.6137536743801
 20
51.10393470174192
 30
0.0
  0
VERTEX
  5
169
330
15F
100
AcDbEntity
  8
DIBUJOS
 62
     7
100
AcDbVertex
100
AcDb2dVertex
 10
53.63228921161592
 20
51.18410655596469
 30
0.0
  0
VERTEX
  5
16A
330
15F
100
AcDbEntity
  8
DIBUJOS
 62
     7
100
AcDbVertex
100
AcDb2dVertex
 10
53.67055174861174
 20
51.23362011881738
 30
0.0
  0
VERTEX
  5
16B
330
15F
100
AcDbEntity
  8
DIBUJOS
 62
     7
100
AcDbVertex
100
AcDb2dVertex
 10
53.70556566500545
 20
51.27160816697897
 30
0.0
  0
VERTEX
  5
16C
330
15F
100
AcDbEntity
  8
DIBUJOS
 62
     7
100
AcDbVertex
100
AcDb2dVertex
 10
53.72237584385332
 20
51.27160816697897
 30
0.0
  0
VERTEX
  5
16D
330
15F
100
AcDbEntity
  8
DIBUJOS
 62
     7
100
AcDbVertex
100
AcDb2dVertex
 10
53.77813628996272
 20
51.27406951740765
 30
0.0
  0
VERTEX
  5
16E
330
15F
100
AcDbEntity
  8
DIBUJOS
 62
     7
100
AcDbVertex
100
AcDb2dVertex
 10
53.7840151772002
 20
51.27721256538157
 30
0.0
  0
SEQEND
  5
16F
330
15F
100
AcDbEntity
  8
DIBUJOS
 62
     7
  0
POLYLINE
  5
170
330
105
100
AcDbEntity
  8
DIBUJOS
 62
     7
100
AcDb2dPolyline
 66
     1
 10
0.0
 20
0.0
 30
0.0
  0
VERTEX
  5
171
330
170
100
AcDbEntity
  8
DIBUJOS
 62
     7
100
AcDbVertex
100
AcDb2dVertex
 10
53.80082535604775
 20
45.9258385736511
 30
0.0
  0
VERTEX
  5
172
330
170
100
AcDbEntity
  8
DIBUJOS
 62
     7
100
AcDbVertex
100
AcDb2dVertex
 10
53.79522095764515
 20
45.9258385736511
 30
0.0
  0
SEQEND
  5
173
330
170
100
AcDbEntity
  8
DIBUJOS
 62
     7
  0
POLYLINE
  5
174
330
105
100
AcDbEntity
  8
DIBUJOS
 62
     7
100
AcDb2dPolyline
 66
     1
 10
0.0
 20
0.0
 30
0.0
  0
VERTEX
  5
175
330
174
100
AcDbEntity
  8
DIBUJOS
 62
     7
100
AcDbVertex
100
AcDb2dVertex
 10
53.8064297544497
 20
45.9258385736511
 30
0.0
  0
VERTEX
  5
176
330
174
100
AcDbEntity
  8
DIBUJOS
 62
     7
100
AcDbVertex
100
AcDb2dVertex
 10
53.80082535604775
 20
45.9258385736511
 30
0.0
  0
SEQEND
  5
177
330
174
100
AcDbEntity
  8
DIBUJOS
 62
     7
  0
POLYLINE
  5
178
330
105
100
AcDbEntity
  8
DIBUJOS
 62
     7
100
AcDb2dPolyline
 66
     1
 10
0.0
 20
0.0
 30
0.0
  0
VERTEX
  5
179
330
178
100
AcDbEntity
  8
DIBUJOS
 62
     7
100
AcDbVertex
100
AcDb2dVertex
 10
59.76858966489184
 20
45.9258385736511
 30
0.0
  0
VERTEX
  5
17A
330
178
100
AcDbEntity
  8
DIBUJOS
 62
     7
100
AcDbVertex
100
AcDb2dVertex
 10
59.76298526648957
 20
45.93143995569346
 30
0.0
  0
VERTEX
  5
17B
330
178
100
AcDbEntity
  8
DIBUJOS
 62
     7
100
AcDbVertex
100
AcDb2dVertex
 10
53.81203113649205
 20
45.93143995569346
 30
0.0
  0
VERTEX
  5
17C
330
178
100
AcDbEntity
  8
DIBUJOS
 62
     7
100
AcDbVertex
100
AcDb2dVertex
 10
53.8064297544497
 20
45.9258385736511
 30
0.0
  0
SEQEND
  5
17D
330
178
100
AcDbEntity
  8
DIBUJOS
 62
     7
  0
POLYLINE
  5
17E
330
105
100
AcDbEntity
  8
DIBUJOS
 62
     7
100
AcDb2dPolyline
 66
     1
 10
0.0
 20
0.0
 30
0.0
  0
VERTEX
  5
17F
330
17E
100
AcDbEntity
  8
DIBUJOS
 62
     7
100
AcDbVertex
100
AcDb2dVertex
 10
59.77419104693356
 20
45.9258385736511
 30
0.0
  0
VERTEX
  5
180
330
17E
100
AcDbEntity
  8
DIBUJOS
 62
     7
100
AcDbVertex
100
AcDb2dVertex
 10
59.76858966489184
 20
45.9258385736511
 30
0.0
  0
SEQEND
  5
181
330
17E
100
AcDbEntity
  8
DIBUJOS
 62
     7
  0
POLYLINE
  5
182
330
105
100
AcDbEntity
  8
DIBUJOS
 62
     7
100
AcDb2dPolyline
 66
     1
 10
0.0
 20
0.0
 30
0.0
  0
VERTEX
  5
183
330
182
100
AcDbEntity
  8
DIBUJOS
 62
     7
100
AcDbVertex
100
AcDb2dVertex
 10
59.77419104693356
 20
45.9258385736511
 30
0.0
  0
VERTEX
  5
184
330
182
100
AcDbEntity
  8
DIBUJOS
 62
     7
100
AcDbVertex
100
AcDb2dVertex
 10
59.88103657988324
 20
45.93477303439859
 30
0.0
  0
VERTEX
  5
185
330
182
100
AcDbEntity
  8
DIBUJOS
 62
     7
100
AcDbVertex
100
AcDb2dVertex
 10
59.92548868928132
 20
45.94264875249865
 30
0.0
  0
VERTEX
  5
186
330
182
100
AcDbEntity
  8
DIBUJOS
 62
     7
100
AcDbVertex
100
AcDb2dVertex
 10
59.96471344537838
 20
45.98187350859602
 30
0.0
  0
VERTEX
  5
187
330
182
100
AcDbEntity
  8
DIBUJOS
 62
     7
100
AcDbVertex
100
AcDb2dVertex
 10
59.97160884621226
 20
45.99954636663738
 30
0.0
  0
VERTEX
  5
188
330
182
100
AcDbEntity
  8
DIBUJOS
 62
     7
100
AcDbVertex
100
AcDb2dVertex
 10
59.97838057625201
 20
46.04323835310866
 30
0.0
  0
VERTEX
  5
189
330
182
100
AcDbEntity
  8
DIBUJOS
 62
     7
100
AcDbVertex
100
AcDb2dVertex
 10
59.98152362422593
 20
46.08833898008263
 30
0.0
  0
VERTEX
  5
18A
330
182
100
AcDbEntity
  8
DIBUJOS
 62
     7
100
AcDbVertex
100
AcDb2dVertex
 10
59.97870332685967
 20
46.09396147665017
 30
0.0
  0
VERTEX
  5
18B
330
182
100
AcDbEntity
  8
DIBUJOS
 62
     7
100
AcDbVertex
100
AcDb2dVertex
 10
59.97031482742074
 20
47.0185273459749
 30
0.0
  0
VERTEX
  5
18C
330
182
100
AcDbEntity
  8
DIBUJOS
 62
     7
100
AcDbVertex
100
AcDb2dVertex
 10
59.97591922582333
 20
47.02412872801694
 30
0.0
  0
VERTEX
  5
18D
330
182
100
AcDbEntity
  8
DIBUJOS
 62
     7
100
AcDbVertex
100
AcDb2dVertex
 10
59.96163374098197
 20
47.96015073573479
 30
0.0
  0
VERTEX
  5
18E
330
182
100
AcDbEntity
  8
DIBUJOS
 62
     7
100
AcDbVertex
100
AcDb2dVertex
 10
59.95658133660904
 20
48.01572718383473
 30
0.0
  0
VERTEX
  5
18F
330
182
100
AcDbEntity
  8
DIBUJOS
 62
     7
100
AcDbVertex
100
AcDb2dVertex
 10
59.93904723116459
 20
51.148667332696
 30
0.0
  0
VERTEX
  5
190
330
182
100
AcDbEntity
  8
DIBUJOS
 62
     7
100
AcDbVertex
100
AcDb2dVertex
 10
59.93434170828604
 20
51.18161504192786
 30
0.0
  0
VERTEX
  5
191
330
182
100
AcDbEntity
  8
DIBUJOS
 62
     7
100
AcDbVertex
100
AcDb2dVertex
 10
59.9241946704898
 20
51.20350477239528
 30
0.0
  0
VERTEX
  5
192
330
182
100
AcDbEntity
  8
DIBUJOS
 62
     7
100
AcDbVertex
100
AcDb2dVertex
 10
59.91298889004485
 20
51.22031495124251
 30
0.0
  0
VERTEX
  5
193
330
182
100
AcDbEntity
  8
DIBUJOS
 62
     7
100
AcDbVertex
100
AcDb2dVertex
 10
59.87505513637844
 20
51.26600376857606
 30
0.0
  0
VERTEX
  5
194
330
182
100
AcDbEntity
  8
DIBUJOS
 62
     7
100
AcDbVertex
100
AcDb2dVertex
 10
59.84759720383769
 20
51.27273025320358
 30
0.0
  0
VERTEX
  5
195
330
182
100
AcDbEntity
  8
DIBUJOS
 62
     7
100
AcDbVertex
100
AcDb2dVertex
 10
59.68453575429386
 20
51.2884183458262
 30
0.0
  0
VERTEX
  5
196
330
182
100
AcDbEntity
  8
DIBUJOS
 62
     7
100
AcDbVertex
100
AcDb2dVertex
 10
53.90729384389459
 20
51.28281696378448
 30
0.0
  0
SEQEND
  5
197
330
182
100
AcDbEntity
  8
DIBUJOS
 62
     7
  0
POLYLINE
  5
198
330
105
100
AcDbEntity
  8
DIBUJOS
 62
     7
100
AcDb2dPolyline
 66
     1
 10
0.0
 20
0.0
 30
0.0
  0
VERTEX
  5
199
330
198
100
AcDbEntity
  8
DIBUJOS
 62
     7
100
AcDbVertex
100
AcDb2dVertex
 10
53.80082535604775
 20
45.9202341752485
 30
0.0
  0
VERTEX
  5
19A
330
198
100
AcDbEntity
  8
DIBUJOS
 62
     7
100
AcDbVertex
100
AcDb2dVertex
 10
53.80082535604775
 20
45.9258385736511
 30
0.0
  0
SEQEND
  5
19B
330
198
100
AcDbEntity
  8
DIBUJOS
 62
     7
  0
POLYLINE
  5
19C
330
105
100
AcDbEntity
  8
DIBUJOS
 62
     7
100
AcDb2dPolyline
 66
     1
 10
0.0
 20
0.0
 30
0.0
  0
VERTEX
  5
19D
330
19C
100
AcDbEntity
  8
DIBUJOS
 62
     7
100
AcDbVertex
100
AcDb2dVertex
 10
59.77419104693356
 20
45.9202341752485
 30
0.0
  0
VERTEX
  5
19E
330
19C
100
AcDbEntity
  8
DIBUJOS
 62
     7
100
AcDbVertex
100
AcDb2dVertex
 10
59.77419104693356
 20
45.9258385736511
 30
0.0
  0
SEQEND
  5
19F
330
19C
100
AcDbEntity
  8
DIBUJOS
 62
     7
  0
POLYLINE
  5
1A0
330
105
100
AcDbEntity
  8
DIBUJOS
 62
     7
100
AcDb2dPolyline
 66
     1
 10
0.0
 20
0.0
 30
0.0
  0
VERTEX
  5
1A1
330
1A0
100
AcDbEntity
  8
DIBUJOS
 62
     7
100
AcDbVertex
100
AcDb2dVertex
 10
54.00815491697924
 20
45.58962594762198
 30
0.0
  0
VERTEX
  5
1A2
330
1A0
100
AcDbEntity
  8
DIBUJOS
 62
     7
100
AcDbVertex
100
AcDb2dVertex
 10
54.01375931538183
 20
45.59523034602458
 30
0.0
  0
SEQEND
  5
1A3
330
1A0
100
AcDbEntity
  8
DIBUJOS
 62
     7
  0
POLYLINE
  5
1A4
330
105
100
AcDbEntity
  8
DIBUJOS
 62
     7
100
AcDb2dPolyline
 66
     1
 10
0.0
 20
0.0
 30
0.0
  0
VERTEX
  5
1A5
330
1A4
100
AcDbEntity
  8
DIBUJOS
 62
     7
100
AcDbVertex
100
AcDb2dVertex
 10
59.56125708759883
 20
45.58962594762198
 30
0.0
  0
VERTEX
  5
1A6
330
1A4
100
AcDbEntity
  8
DIBUJOS
 62
     7
100
AcDbVertex
100
AcDb2dVertex
 10
59.55565570555711
 20
45.59523034602458
 30
0.0
  0
VERTEX
  5
1A7
330
1A4
100
AcDbEntity
  8
DIBUJOS
 62
     7
100
AcDbVertex
100
AcDb2dVertex
 10
54.01375931538183
 20
45.59523034602458
 30
0.0
  0
SEQEND
  5
1A8
330
1A4
100
AcDbEntity
  8
DIBUJOS
 62
     7
  0
POLYLINE
  5
1A9
330
105
100
AcDbEntity
  8
DIBUJOS
 62
     7
100
AcDb2dPolyline
 66
     1
 10
0.0
 20
0.0
 30
0.0
  0
VERTEX
  5
1AA
330
1A9
100
AcDbEntity
  8
DIBUJOS
 62
     7
100
AcDbVertex
100
AcDb2dVertex
 10
59.56686148600239
 20
45.58962594762198
 30
0.0
  0
VERTEX
  5
1AB
330
1A9
100
AcDbEntity
  8
DIBUJOS
 62
     7
100
AcDbVertex
100
AcDb2dVertex
 10
59.56125708759883
 20
45.58962594762198
 30
0.0
  0
SEQEND
  5
1AC
330
1A9
100
AcDbEntity
  8
DIBUJOS
 62
     7
  0
POLYLINE
  5
1AD
330
105
100
AcDbEntity
  8
DIBUJOS
 62
     7
100
AcDb2dPolyline
 66
     1
 10
0.0
 20
0.0
 30
0.0
  0
VERTEX
  5
1AE
330
1AD
100
AcDbEntity
  8
DIBUJOS
 62
     7
100
AcDbVertex
100
AcDb2dVertex
 10
59.56686148600239
 20
45.58962594762198
 30
0.0
  0
VERTEX
  5
1AF
330
1AD
100
AcDbEntity
  8
DIBUJOS
 62
     7
100
AcDbVertex
100
AcDb2dVertex
 10
59.57246588440466
 20
45.59523034602458
 30
0.0
  0
SEQEND
  5
1B0
330
1AD
100
AcDbEntity
  8
DIBUJOS
 62
     7
  0
POLYLINE
  5
1B1
330
105
100
AcDbEntity
  8
DIBUJOS
 62
     7
100
AcDb2dPolyline
 66
     1
 10
0.0
 20
0.0
 30
0.0
  0
VERTEX
  5
1B2
330
1B1
100
AcDbEntity
  8
DIBUJOS
 62
     7
100
AcDbVertex
100
AcDb2dVertex
 10
59.56686148600239
 20
45.58402154921939
 30
0.0
  0
VERTEX
  5
1B3
330
1B1
100
AcDbEntity
  8
DIBUJOS
 62
     7
100
AcDbVertex
100
AcDb2dVertex
 10
59.56686148600239
 20
45.58962594762198
 30
0.0
  0
SEQEND
  5
1B4
330
1B1
100
AcDbEntity
  8
DIBUJOS
 62
     7
  0
POLYLINE
  5
1B5
330
105
100
AcDbEntity
  8
DIBUJOS
 62
     7
100
AcDb2dPolyline
 66
     1
 10
0.0
 20
0.0
 30
0.0
  0
VERTEX
  5
1B6
330
1B5
100
AcDbEntity
  8
DIBUJOS
 62
     7
100
AcDbVertex
100
AcDb2dVertex
 10
53.80082535604775
 20
45.9202341752485
 30
0.0
  0
VERTEX
  5
1B7
330
1B5
100
AcDbEntity
  8
DIBUJOS
 62
     7
100
AcDbVertex
100
AcDb2dVertex
 10
53.80933450991928
 20
44.23907753791696
 30
0.0
  0
VERTEX
  5
1B8
330
1B5
100
AcDbEntity
  8
DIBUJOS
 62
     7
100
AcDbVertex
100
AcDb2dVertex
 10
53.8344457137422
 20
43.41545418341837
 30
0.0
  0
VERTEX
  5
1B9
330
1B5
100
AcDbEntity
  8
DIBUJOS
 62
     7
100
AcDbVertex
100
AcDb2dVertex
 10
53.84565451054739
 20
43.40424840297374
 30
0.0
  0
VERTEX
  5
1BA
330
1B5
100
AcDbEntity
  8
DIBUJOS
 62
     7
100
AcDbVertex
100
AcDb2dVertex
 10
53.96893016088154
 20
43.40424840297374
 30
0.0
  0
VERTEX
  5
1BB
330
1B5
100
AcDbEntity
  8
DIBUJOS
 62
     7
100
AcDbVertex
100
AcDb2dVertex
 10
53.98013895768673
 20
43.41545418341837
 30
0.0
  0
VERTEX
  5
1BC
330
1B5
100
AcDbEntity
  8
DIBUJOS
 62
     7
100
AcDbVertex
100
AcDb2dVertex
 10
53.98301354954817
 20
43.52759342960682
 30
0.0
  0
VERTEX
  5
1BD
330
1B5
100
AcDbEntity
  8
DIBUJOS
 62
     7
100
AcDbVertex
100
AcDb2dVertex
 10
53.99407454467349
 20
43.95892699408035
 30
0.0
  0
VERTEX
  5
1BE
330
1B5
100
AcDbEntity
  8
DIBUJOS
 62
     7
100
AcDbVertex
100
AcDb2dVertex
 10
54.00535271777761
 20
44.91720069556376
 30
0.0
  0
VERTEX
  5
1BF
330
1B5
100
AcDbEntity
  8
DIBUJOS
 62
     7
100
AcDbVertex
100
AcDb2dVertex
 10
54.00815491697924
 20
45.58962594762198
 30
0.0
  0
SEQEND
  5
1C0
330
1B5
100
AcDbEntity
  8
DIBUJOS
 62
     7
  0
POLYLINE
  5
1C1
330
105
100
AcDbEntity
  8
DIBUJOS
 62
     7
100
AcDb2dPolyline
 66
     1
 10
0.0
 20
0.0
 30
0.0
  0
VERTEX
  5
1C2
330
1C1
100
AcDbEntity
  8
DIBUJOS
 62
     7
100
AcDbVertex
100
AcDb2dVertex
 10
59.56686148600239
 20
45.58402154921939
 30
0.0
  0
VERTEX
  5
1C3
330
1C1
100
AcDbEntity
  8
DIBUJOS
 62
     7
100
AcDbVertex
100
AcDb2dVertex
 10
59.57246588440466
 20
44.49693717529786
 30
0.0
  0
VERTEX
  5
1C4
330
1C1
100
AcDbEntity
  8
DIBUJOS
 62
     7
100
AcDbVertex
100
AcDb2dVertex
 10
59.56686148600239
 20
44.49133277689494
 30
0.0
  0
VERTEX
  5
1C5
330
1C1
100
AcDbEntity
  8
DIBUJOS
 62
     7
100
AcDbVertex
100
AcDb2dVertex
 10
59.59260612559679
 20
43.43748869920543
 30
0.0
  0
VERTEX
  5
1C6
330
1C1
100
AcDbEntity
  8
DIBUJOS
 62
     7
100
AcDbVertex
100
AcDb2dVertex
 10
59.5948804616548
 20
43.40984978501513
 30
0.0
  0
VERTEX
  5
1C7
330
1C1
100
AcDbEntity
  8
DIBUJOS
 62
     7
100
AcDbVertex
100
AcDb2dVertex
 10
59.60048184369652
 20
43.40424840297374
 30
0.0
  0
VERTEX
  5
1C8
330
1C1
100
AcDbEntity
  8
DIBUJOS
 62
     7
100
AcDbVertex
100
AcDb2dVertex
 10
59.72376051039155
 20
43.40424840297374
 30
0.0
  0
VERTEX
  5
1C9
330
1C1
100
AcDbEntity
  8
DIBUJOS
 62
     7
100
AcDbVertex
100
AcDb2dVertex
 10
59.7349662908365
 20
43.41545418341837
 30
0.0
  0
VERTEX
  5
1CA
330
1C1
100
AcDbEntity
  8
DIBUJOS
 62
     7
100
AcDbVertex
100
AcDb2dVertex
 10
59.76023736178217
 20
44.13836426651378
 30
0.0
  0
VERTEX
  5
1CB
330
1C1
100
AcDbEntity
  8
DIBUJOS
 62
     7
100
AcDbVertex
100
AcDb2dVertex
 10
59.77419104693356
 20
45.9202341752485
 30
0.0
  0
SEQEND
  5
1CC
330
1C1
100
AcDbEntity
  8
DIBUJOS
 62
     7
  0
ENDBLK
  5
108
330
105
100
AcDbEntity
  8
0
100
AcDbBlockEnd
  0
BLOCK
  5
1CF
330
1CD
100
AcDbEntity
  8
0
100
AcDbBlockBegin
  2
BLOCK_4
 70
     0
 10
0.0
 20
0.0
 30
0.0
  3
BLOCK_4
  1

  0
POLYLINE
  5
1D1
330
1CD
100
AcDbEntity
  8
DIBUJOS
 62
     7
100
AcDb2dPolyline
 66
     1
 10
0.0
 20
0.0
 30
0.0
  0
VERTEX
  5
1D2
330
1D1
100
AcDbEntity
  8
DIBUJOS
 62
     7
100
AcDbVertex
100
AcDb2dVertex
 10
35.87218205056359
 20
32.74632504947145
 30
0.0
  0
VERTEX
  5
1D3
330
1D1
100
AcDbEntity
  8
DIBUJOS
 62
     7
100
AcDbVertex
100
AcDb2dVertex
 10
35.97864903023063
 20
32.76313673649912
 30
0.0
  0
VERTEX
  5
1D4
330
1D1
100
AcDbEntity
  8
DIBUJOS
 62
     7
100
AcDbVertex
100
AcDb2dVertex
 10
36.00218418552527
 20
32.80180044948418
 30
0.0
  0
VERTEX
  5
1D5
330
1D1
100
AcDbEntity
  8
DIBUJOS
 62
     7
100
AcDbVertex
100
AcDb2dVertex
 10
36.01787378632832
 20
32.83598185029127
 30
0.0
  0
VERTEX
  5
1D6
330
1D1
100
AcDbEntity
  8
DIBUJOS
 62
     7
100
AcDbVertex
100
AcDb2dVertex
 10
36.01787378632832
 20
33.92306773239324
 30
0.0
  0
VERTEX
  5
1D7
330
1D1
100
AcDbEntity
  8
DIBUJOS
 62
     7
100
AcDbVertex
100
AcDb2dVertex
 10
36.00218418552527
 20
34.45036078361892
 30
0.0
  0
VERTEX
  5
1D8
330
1D1
100
AcDbEntity
  8
DIBUJOS
 62
     7
100
AcDbVertex
100
AcDb2dVertex
 10
35.98985631885571
 20
34.4834216063815
 30
0.0
  0
VERTEX
  5
1D9
330
1D1
100
AcDbEntity
  8
DIBUJOS
 62
     7
100
AcDbVertex
100
AcDb2dVertex
 10
36.00106360748078
 20
34.49462889500658
 30
0.0
  0
SEQEND
  5
1DA
330
1D1
100
AcDbEntity
  8
DIBUJOS
 62
     7
  0
POLYLINE
  5
1DB
330
1CD
100
AcDbEntity
  8
DIBUJOS
 62
     7
100
AcDb2dPolyline
 66
     1
 10
0.0
 20
0.0
 30
0.0
  0
VERTEX
  5
1DC
330
1DB
100
AcDbEntity
  8
DIBUJOS
 62
     7
100
AcDbVertex
100
AcDb2dVertex
 10
25.60650776621546
 20
32.7071002933744
 30
0.0
  0
VERTEX
  5
1DD
330
1DB
100
AcDbEntity
  8
DIBUJOS
 62
     7
100
AcDbVertex
100
AcDb2dVertex
 10
25.62432767184696
 20
32.72256668347624
 30
0.0
  0
VERTEX
  5
1DE
330
1DB
100
AcDbEntity
  8
DIBUJOS
 62
     7
100
AcDbVertex
100
AcDb2dVertex
 10
25.66870738858523
 20
32.74464493649509
 30
0.0
  0
VERTEX
  5
1DF
330
1DB
100
AcDbEntity
  8
DIBUJOS
 62
     7
100
AcDbVertex
100
AcDb2dVertex
 10
25.67879334507542
 20
32.74800667062858
 30
0.0
  0
VERTEX
  5
1E0
330
1DB
100
AcDbEntity
  8
DIBUJOS
 62
     7
100
AcDbVertex
100
AcDb2dVertex
 10
29.72510564826031
 20
32.74632504947145
 30
0.0
  0
VERTEX
  5
1E1
330
1DB
100
AcDbEntity
  8
DIBUJOS
 62
     7
100
AcDbVertex
100
AcDb2dVertex
 10
35.87218205056359
 20
32.75192944787405
 30
0.0
  0
SEQEND
  5
1E2
330
1DB
100
AcDbEntity
  8
DIBUJOS
 62
     7
  0
POLYLINE
  5
1E3
330
1CD
100
AcDbEntity
  8
DIBUJOS
 62
     7
100
AcDb2dPolyline
 66
     1
 10
0.0
 20
0.0
 30
0.0
  0
VERTEX
  5
1E4
330
1E3
100
AcDbEntity
  8
DIBUJOS
 62
     7
100
AcDbVertex
100
AcDb2dVertex
 10
25.55047283127054
 20
28.26910222641817
 30
0.0
  0
VERTEX
  5
1E5
330
1E3
100
AcDbEntity
  8
DIBUJOS
 62
     7
100
AcDbVertex
100
AcDb2dVertex
 10
25.54486918695801
 20
32.7071002933744
 30
0.0
  0
SEQEND
  5
1E6
330
1E3
100
AcDbEntity
  8
DIBUJOS
 62
     7
  0
POLYLINE
  5
1E7
330
1CD
100
AcDbEntity
  8
DIBUJOS
 62
     7
100
AcDb2dPolyline
 66
     1
 10
0.0
 20
0.0
 30
0.0
  0
VERTEX
  5
1E8
330
1E7
100
AcDbEntity
  8
DIBUJOS
 62
     7
100
AcDbVertex
100
AcDb2dVertex
 10
23.7909632052911
 20
28.3139306268284
 30
0.0
  0
VERTEX
  5
1E9
330
1E7
100
AcDbEntity
  8
DIBUJOS
 62
     7
100
AcDbVertex
100
AcDb2dVertex
 10
23.78479927195632
 20
28.31841293900574
 30
0.0
  0
VERTEX
  5
1EA
330
1E7
100
AcDbEntity
  8
DIBUJOS
 62
     7
100
AcDbVertex
100
AcDb2dVertex
 10
23.7629457378188
 20
28.32513791545283
 30
0.0
  0
VERTEX
  5
1EB
330
1E7
100
AcDbEntity
  8
DIBUJOS
 62
     7
100
AcDbVertex
100
AcDb2dVertex
 10
23.72932462603397
 20
28.35875902723799
 30
0.0
  0
VERTEX
  5
1EC
330
1E7
100
AcDbEntity
  8
DIBUJOS
 62
     7
100
AcDbVertex
100
AcDb2dVertex
 10
23.7088880273914
 20
28.42089228966969
 30
0.0
  0
VERTEX
  5
1ED
330
1E7
100
AcDbEntity
  8
DIBUJOS
 62
     7
100
AcDbVertex
100
AcDb2dVertex
 10
23.69402189309201
 20
28.47026936219532
 30
0.0
  0
VERTEX
  5
1EE
330
1E7
100
AcDbEntity
  8
DIBUJOS
 62
     7
100
AcDbVertex
100
AcDb2dVertex
 10
23.65992645856838
 20
28.63290098032252
 30
0.0
  0
VERTEX
  5
1EF
330
1E7
100
AcDbEntity
  8
DIBUJOS
 62
     7
100
AcDbVertex
100
AcDb2dVertex
 10
23.64299939573949
 20
28.72821345767859
 30
0.0
  0
VERTEX
  5
1F0
330
1E7
100
AcDbEntity
  8
DIBUJOS
 62
     7
100
AcDbVertex
100
AcDb2dVertex
 10
23.63109834412599
 20
28.79598128212168
 30
0.0
  0
VERTEX
  5
1F1
330
1E7
100
AcDbEntity
  8
DIBUJOS
 62
     7
100
AcDbVertex
100
AcDb2dVertex
 10
23.62582272905217
 20
28.89094763207376
 30
0.0
  0
VERTEX
  5
1F2
330
1E7
100
AcDbEntity
  8
DIBUJOS
 62
     7
100
AcDbVertex
100
AcDb2dVertex
 10
23.6088949121329
 20
29.72597584683117
 30
0.0
  0
VERTEX
  5
1F3
330
1E7
100
AcDbEntity
  8
DIBUJOS
 62
     7
100
AcDbVertex
100
AcDb2dVertex
 10
23.60044306911678
 20
31.46311689506307
 30
0.0
  0
VERTEX
  5
1F4
330
1E7
100
AcDbEntity
  8
DIBUJOS
 62
     7
100
AcDbVertex
100
AcDb2dVertex
 10
23.62002075901616
 20
33.20017876382333
 30
0.0
  0
VERTEX
  5
1F5
330
1E7
100
AcDbEntity
  8
DIBUJOS
 62
     7
100
AcDbVertex
100
AcDb2dVertex
 10
23.65350236411306
 20
33.82765269876855
 30
0.0
  0
VERTEX
  5
1F6
330
1E7
100
AcDbEntity
  8
DIBUJOS
 62
     7
100
AcDbVertex
100
AcDb2dVertex
 10
23.66511459917798
 20
34.13619926336074
 30
0.0
  0
VERTEX
  5
1F7
330
1E7
100
AcDbEntity
  8
DIBUJOS
 62
     7
100
AcDbVertex
100
AcDb2dVertex
 10
23.67025674028498
 20
34.20304634366357
 30
0.0
  0
VERTEX
  5
1F8
330
1E7
100
AcDbEntity
  8
DIBUJOS
 62
     7
100
AcDbVertex
100
AcDb2dVertex
 10
23.73127621907563
 20
34.43993054694558
 30
0.0
  0
VERTEX
  5
1F9
330
1E7
100
AcDbEntity
  8
DIBUJOS
 62
     7
100
AcDbVertex
100
AcDb2dVertex
 10
23.86210936903447
 20
34.56119790802637
 30
0.0
  0
SEQEND
  5
1FA
330
1E7
100
AcDbEntity
  8
DIBUJOS
 62
     7
  0
POLYLINE
  5
1FB
330
1CD
100
AcDbEntity
  8
DIBUJOS
 62
     7
100
AcDb2dPolyline
 66
     1
 10
0.0
 20
0.0
 30
0.0
  0
VERTEX
  5
1FC
330
1FB
100
AcDbEntity
  8
DIBUJOS
 62
     7
100
AcDbVertex
100
AcDb2dVertex
 10
42.52918028213271
 20
28.26910222641817
 30
0.0
  0
VERTEX
  5
1FD
330
1FB
100
AcDbEntity
  8
DIBUJOS
 62
     7
100
AcDbVertex
100
AcDb2dVertex
 10
42.55159485938285
 20
28.28591315935578
 30
0.0
  0
VERTEX
  5
1FE
330
1FB
100
AcDbEntity
  8
DIBUJOS
 62
     7
100
AcDbVertex
100
AcDb2dVertex
 10
42.55327497235953
 20
28.29655940486822
 30
0.0
  0
VERTEX
  5
1FF
330
1FB
100
AcDbEntity
  8
DIBUJOS
 62
     7
100
AcDbVertex
100
AcDb2dVertex
 10
42.57961081867503
 20
28.35315538292481
 30
0.0
  0
VERTEX
  5
200
330
1FB
100
AcDbEntity
  8
DIBUJOS
 62
     7
100
AcDbVertex
100
AcDb2dVertex
 10
42.57400943663299
 20
28.98635437070587
 30
0.0
  0
VERTEX
  5
201
330
1FB
100
AcDbEntity
  8
DIBUJOS
 62
     7
100
AcDbVertex
100
AcDb2dVertex
 10
42.57961081867503
 20
28.99195801501776
 30
0.0
  0
VERTEX
  5
202
330
1FB
100
AcDbEntity
  8
DIBUJOS
 62
     7
100
AcDbVertex
100
AcDb2dVertex
 10
42.57961081867503
 20
29.68679633614602
 30
0.0
  0
VERTEX
  5
203
330
1FB
100
AcDbEntity
  8
DIBUJOS
 62
     7
100
AcDbVertex
100
AcDb2dVertex
 10
42.57961081867503
 20
29.69239998045855
 30
0.0
  0
VERTEX
  5
204
330
1FB
100
AcDbEntity
  8
DIBUJOS
 62
     7
100
AcDbVertex
100
AcDb2dVertex
 10
42.56569634621443
 20
30.7739689386215
 30
0.0
  0
VERTEX
  5
205
330
1FB
100
AcDbEntity
  8
DIBUJOS
 62
     7
100
AcDbVertex
100
AcDb2dVertex
 10
42.57400943663299
 20
30.94759217557444
 30
0.0
  0
VERTEX
  5
206
330
1FB
100
AcDbEntity
  8
DIBUJOS
 62
     7
100
AcDbVertex
100
AcDb2dVertex
 10
42.56280063982748
 20
31.26699311457589
 30
0.0
  0
VERTEX
  5
207
330
1FB
100
AcDbEntity
  8
DIBUJOS
 62
     7
100
AcDbVertex
100
AcDb2dVertex
 10
42.5684050382304
 20
31.27259600479836
 30
0.0
  0
VERTEX
  5
208
330
1FB
100
AcDbEntity
  8
DIBUJOS
 62
     7
100
AcDbVertex
100
AcDb2dVertex
 10
42.56280063982748
 20
31.28940769182603
 30
0.0
  0
VERTEX
  5
209
330
1FB
100
AcDbEntity
  8
DIBUJOS
 62
     7
100
AcDbVertex
100
AcDb2dVertex
 10
42.56280063982748
 20
31.29501058204851
 30
0.0
  0
VERTEX
  5
20A
330
1FB
100
AcDbEntity
  8
DIBUJOS
 62
     7
100
AcDbVertex
100
AcDb2dVertex
 10
42.57109864844229
 20
31.86086780635217
 30
0.0
  0
VERTEX
  5
20B
330
1FB
100
AcDbEntity
  8
DIBUJOS
 62
     7
100
AcDbVertex
100
AcDb2dVertex
 10
42.57110468116405
 20
31.93951338200021
 30
0.0
  0
VERTEX
  5
20C
330
1FB
100
AcDbEntity
  8
DIBUJOS
 62
     7
100
AcDbVertex
100
AcDb2dVertex
 10
42.5657084116573
 20
32.09061646907544
 30
0.0
  0
VERTEX
  5
20D
330
1FB
100
AcDbEntity
  8
DIBUJOS
 62
     7
100
AcDbVertex
100
AcDb2dVertex
 10
42.57400943663299
 20
32.81917167144372
 30
0.0
  0
VERTEX
  5
20E
330
1FB
100
AcDbEntity
  8
DIBUJOS
 62
     7
100
AcDbVertex
100
AcDb2dVertex
 10
42.58237078882466
 20
33.18896242611626
 30
0.0
  0
VERTEX
  5
20F
330
1FB
100
AcDbEntity
  8
DIBUJOS
 62
     7
100
AcDbVertex
100
AcDb2dVertex
 10
42.57400943663299
 20
34.16962355760253
 30
0.0
  0
VERTEX
  5
210
330
1FB
100
AcDbEntity
  8
DIBUJOS
 62
     7
100
AcDbVertex
100
AcDb2dVertex
 10
42.57681163583461
 20
34.17522644782437
 30
0.0
  0
VERTEX
  5
211
330
1FB
100
AcDbEntity
  8
DIBUJOS
 62
     7
100
AcDbVertex
100
AcDb2dVertex
 10
42.56672492525404
 20
34.49967225029655
 30
0.0
  0
VERTEX
  5
212
330
1FB
100
AcDbEntity
  8
DIBUJOS
 62
     7
100
AcDbVertex
100
AcDb2dVertex
 10
42.53478468053562
 20
34.57307840720068
 30
0.0
  0
VERTEX
  5
213
330
1FB
100
AcDbEntity
  8
DIBUJOS
 62
     7
100
AcDbVertex
100
AcDb2dVertex
 10
42.5017223495926
 20
34.59100916409272
 30
0.0
  0
VERTEX
  5
214
330
1FB
100
AcDbEntity
  8
DIBUJOS
 62
     7
100
AcDbVertex
100
AcDb2dVertex
 10
42.46249759349522
 20
34.60781934294027
 30
0.0
  0
VERTEX
  5
215
330
1FB
100
AcDbEntity
  8
DIBUJOS
 62
     7
100
AcDbVertex
100
AcDb2dVertex
 10
41.9239987618249
 20
34.61230316329837
 30
0.0
  0
VERTEX
  5
216
330
1FB
100
AcDbEntity
  8
DIBUJOS
 62
     7
100
AcDbVertex
100
AcDb2dVertex
 10
40.09724540409536
 20
34.61230316329837
 30
0.0
  0
VERTEX
  5
217
330
1FB
100
AcDbEntity
  8
DIBUJOS
 62
     7
100
AcDbVertex
100
AcDb2dVertex
 10
38.79722707083975
 20
34.58988858604823
 30
0.0
  0
VERTEX
  5
218
330
1FB
100
AcDbEntity
  8
DIBUJOS
 62
     7
100
AcDbVertex
100
AcDb2dVertex
 10
38.51150832492949
 20
34.59822882371439
 30
0.0
  0
VERTEX
  5
219
330
1FB
100
AcDbEntity
  8
DIBUJOS
 62
     7
100
AcDbVertex
100
AcDb2dVertex
 10
37.71014118873809
 20
34.60109587467331
 30
0.0
  0
VERTEX
  5
21A
330
1FB
100
AcDbEntity
  8
DIBUJOS
 62
     7
100
AcDbVertex
100
AcDb2dVertex
 10
37.70453829851562
 20
34.59549147627071
 30
0.0
  0
VERTEX
  5
21B
330
1FB
100
AcDbEntity
  8
DIBUJOS
 62
     7
100
AcDbVertex
100
AcDb2dVertex
 10
37.68770248060124
 20
34.59831931453883
 30
0.0
  0
VERTEX
  5
21C
330
1FB
100
AcDbEntity
  8
DIBUJOS
 62
     7
100
AcDbVertex
100
AcDb2dVertex
 10
36.77995433102529
 20
34.60669876489577
 30
0.0
  0
VERTEX
  5
21D
330
1FB
100
AcDbEntity
  8
DIBUJOS
 62
     7
100
AcDbVertex
100
AcDb2dVertex
 10
23.90028370499561
 20
34.56187111857561
 30
0.0
  0
SEQEND
  5
21E
330
1FB
100
AcDbEntity
  8
DIBUJOS
 62
     7
  0
POLYLINE
  5
21F
330
1CD
100
AcDbEntity
  8
DIBUJOS
 62
     7
100
AcDb2dPolyline
 66
     1
 10
0.0
 20
0.0
 30
0.0
  0
VERTEX
  5
220
330
21F
100
AcDbEntity
  8
DIBUJOS
 62
     7
100
AcDbVertex
100
AcDb2dVertex
 10
23.79656684960364
 20
28.30832698251522
 30
0.0
  0
VERTEX
  5
221
330
21F
100
AcDbEntity
  8
DIBUJOS
 62
     7
100
AcDbVertex
100
AcDb2dVertex
 10
23.82402402805369
 20
28.28479182722122
 30
0.0
  0
VERTEX
  5
222
330
21F
100
AcDbEntity
  8
DIBUJOS
 62
     7
100
AcDbVertex
100
AcDb2dVertex
 10
24.00950080893772
 20
28.2578949377931
 30
0.0
  0
VERTEX
  5
223
330
21F
100
AcDbEntity
  8
DIBUJOS
 62
     7
100
AcDbVertex
100
AcDb2dVertex
 10
24.28407410161964
 20
28.2578949377931
 30
0.0
  0
VERTEX
  5
224
330
21F
100
AcDbEntity
  8
DIBUJOS
 62
     7
100
AcDbVertex
100
AcDb2dVertex
 10
24.28967774593218
 20
28.26349858210563
 30
0.0
  0
VERTEX
  5
225
330
21F
100
AcDbEntity
  8
DIBUJOS
 62
     7
100
AcDbVertex
100
AcDb2dVertex
 10
24.30088428046687
 20
28.2578949377931
 30
0.0
  0
VERTEX
  5
226
330
21F
100
AcDbEntity
  8
DIBUJOS
 62
     7
100
AcDbVertex
100
AcDb2dVertex
 10
24.34010979065462
 20
28.2578949377931
 30
0.0
  0
VERTEX
  5
227
330
21F
100
AcDbEntity
  8
DIBUJOS
 62
     7
100
AcDbVertex
100
AcDb2dVertex
 10
24.34571268087678
 20
28.26349858210563
 30
0.0
  0
VERTEX
  5
228
330
21F
100
AcDbEntity
  8
DIBUJOS
 62
     7
100
AcDbVertex
100
AcDb2dVertex
 10
24.35691996950185
 20
28.2578949377931
 30
0.0
  0
VERTEX
  5
229
330
21F
100
AcDbEntity
  8
DIBUJOS
 62
     7
100
AcDbVertex
100
AcDb2dVertex
 10
25.15822527029683
 20
28.2578949377931
 30
0.0
  0
VERTEX
  5
22A
330
21F
100
AcDbEntity
  8
DIBUJOS
 62
     7
100
AcDbVertex
100
AcDb2dVertex
 10
25.27564993473116
 20
28.27159901908606
 30
0.0
  0
VERTEX
  5
22B
330
21F
100
AcDbEntity
  8
DIBUJOS
 62
     7
100
AcDbVertex
100
AcDb2dVertex
 10
25.39334456345905
 20
28.28283571722923
 30
0.0
  0
VERTEX
  5
22C
330
21F
100
AcDbEntity
  8
DIBUJOS
 62
     7
100
AcDbVertex
100
AcDb2dVertex
 10
25.6514394769834
 20
28.28299935480355
 30
0.0
  0
VERTEX
  5
22D
330
21F
100
AcDbEntity
  8
DIBUJOS
 62
     7
100
AcDbVertex
100
AcDb2dVertex
 10
25.79132094771922
 20
28.27761892119159
 30
0.0
  0
VERTEX
  5
22E
330
21F
100
AcDbEntity
  8
DIBUJOS
 62
     7
100
AcDbVertex
100
AcDb2dVertex
 10
26.07720483938392
 20
28.26910222641817
 30
0.0
  0
VERTEX
  5
22F
330
21F
100
AcDbEntity
  8
DIBUJOS
 62
     7
100
AcDbVertex
100
AcDb2dVertex
 10
26.08280848369646
 20
28.26349858210563
 30
0.0
  0
VERTEX
  5
230
330
21F
100
AcDbEntity
  8
DIBUJOS
 62
     7
100
AcDbVertex
100
AcDb2dVertex
 10
27.35481010356983
 20
28.26349858210563
 30
0.0
  0
VERTEX
  5
231
330
21F
100
AcDbEntity
  8
DIBUJOS
 62
     7
100
AcDbVertex
100
AcDb2dVertex
 10
27.36041450197242
 20
28.2578949377931
 30
0.0
  0
VERTEX
  5
232
330
21F
100
AcDbEntity
  8
DIBUJOS
 62
     7
100
AcDbVertex
100
AcDb2dVertex
 10
27.65730434017784
 20
28.26619671685852
 30
0.0
  0
VERTEX
  5
233
330
21F
100
AcDbEntity
  8
DIBUJOS
 62
     7
100
AcDbVertex
100
AcDb2dVertex
 10
27.66300526212665
 20
28.26910222641817
 30
0.0
  0
VERTEX
  5
234
330
21F
100
AcDbEntity
  8
DIBUJOS
 62
     7
100
AcDbVertex
100
AcDb2dVertex
 10
28.42508580682425
 20
28.25229129348056
 30
0.0
  0
VERTEX
  5
235
330
21F
100
AcDbEntity
  8
DIBUJOS
 62
     7
100
AcDbVertex
100
AcDb2dVertex
 10
29.96045418484453
 20
28.25229129348056
 30
0.0
  0
VERTEX
  5
236
330
21F
100
AcDbEntity
  8
DIBUJOS
 62
     7
100
AcDbVertex
100
AcDb2dVertex
 10
31.04754006694618
 20
28.26349858210563
 30
0.0
  0
VERTEX
  5
237
330
21F
100
AcDbEntity
  8
DIBUJOS
 62
     7
100
AcDbVertex
100
AcDb2dVertex
 10
32.14573520594625
 20
28.24959315872703
 30
0.0
  0
VERTEX
  5
238
330
21F
100
AcDbEntity
  8
DIBUJOS
 62
     7
100
AcDbVertex
100
AcDb2dVertex
 10
32.91351667259266
 20
28.26349858210563
 30
0.0
  0
VERTEX
  5
239
330
21F
100
AcDbEntity
  8
DIBUJOS
 62
     7
100
AcDbVertex
100
AcDb2dVertex
 10
32.91911956281514
 20
28.2578949377931
 30
0.0
  0
VERTEX
  5
23A
330
21F
100
AcDbEntity
  8
DIBUJOS
 62
     7
100
AcDbVertex
100
AcDb2dVertex
 10
32.99756907500988
 20
28.2578949377931
 30
0.0
  0
VERTEX
  5
23B
330
21F
100
AcDbEntity
  8
DIBUJOS
 62
     7
100
AcDbVertex
100
AcDb2dVertex
 10
33.0031734734128
 20
28.26349858210563
 30
0.0
  0
VERTEX
  5
23C
330
21F
100
AcDbEntity
  8
DIBUJOS
 62
     7
100
AcDbVertex
100
AcDb2dVertex
 10
33.20507358486916
 20
28.2604988112706
 30
0.0
  0
VERTEX
  5
23D
330
21F
100
AcDbEntity
  8
DIBUJOS
 62
     7
100
AcDbVertex
100
AcDb2dVertex
 10
33.35599719847497
 20
28.24972059997209
 30
0.0
  0
VERTEX
  5
23E
330
21F
100
AcDbEntity
  8
DIBUJOS
 62
     7
100
AcDbVertex
100
AcDb2dVertex
 10
34.53859011320619
 20
28.24943857023534
 30
0.0
  0
VERTEX
  5
23F
330
21F
100
AcDbEntity
  8
DIBUJOS
 62
     7
100
AcDbVertex
100
AcDb2dVertex
 10
35.40705317946782
 20
28.23271586585201
 30
0.0
  0
VERTEX
  5
240
330
21F
100
AcDbEntity
  8
DIBUJOS
 62
     7
100
AcDbVertex
100
AcDb2dVertex
 10
36.25322232291256
 20
28.24108475894555
 30
0.0
  0
VERTEX
  5
241
330
21F
100
AcDbEntity
  8
DIBUJOS
 62
     7
100
AcDbVertex
100
AcDb2dVertex
 10
36.3596893025796
 20
28.23548111463301
 30
0.0
  0
VERTEX
  5
242
330
21F
100
AcDbEntity
  8
DIBUJOS
 62
     7
100
AcDbVertex
100
AcDb2dVertex
 10
36.36529370098219
 20
28.24108475894555
 30
0.0
  0
VERTEX
  5
243
330
21F
100
AcDbEntity
  8
DIBUJOS
 62
     7
100
AcDbVertex
100
AcDb2dVertex
 10
37.20021935947194
 20
28.2326796695221
 30
0.0
  0
VERTEX
  5
244
330
21F
100
AcDbEntity
  8
DIBUJOS
 62
     7
100
AcDbVertex
100
AcDb2dVertex
 10
38.67961916248569
 20
28.24941971798065
 30
0.0
  0
VERTEX
  5
245
330
21F
100
AcDbEntity
  8
DIBUJOS
 62
     7
100
AcDbVertex
100
AcDb2dVertex
 10
38.90362769056905
 20
28.24395633444547
 30
0.0
  0
VERTEX
  5
246
330
21F
100
AcDbEntity
  8
DIBUJOS
 62
     7
100
AcDbVertex
100
AcDb2dVertex
 10
39.06626081687605
 20
28.24395331808459
 30
0.0
  0
VERTEX
  5
247
330
21F
100
AcDbEntity
  8
DIBUJOS
 62
     7
100
AcDbVertex
100
AcDb2dVertex
 10
39.3014811581258
 20
28.24942348843095
 30
0.0
  0
VERTEX
  5
248
330
21F
100
AcDbEntity
  8
DIBUJOS
 62
     7
100
AcDbVertex
100
AcDb2dVertex
 10
39.66026521216757
 20
28.24378666414938
 30
0.0
  0
VERTEX
  5
249
330
21F
100
AcDbEntity
  8
DIBUJOS
 62
     7
100
AcDbVertex
100
AcDb2dVertex
 10
39.81697722218639
 20
28.23838285374172
 30
0.0
  0
VERTEX
  5
24A
330
21F
100
AcDbEntity
  8
DIBUJOS
 62
     7
100
AcDbVertex
100
AcDb2dVertex
 10
40.00198571305307
 20
28.22987747032048
 30
0.0
  0
VERTEX
  5
24B
330
21F
100
AcDbEntity
  8
DIBUJOS
 62
     7
100
AcDbVertex
100
AcDb2dVertex
 10
42.43392059109106
 20
28.22987747032048
 30
0.0
  0
VERTEX
  5
24C
330
21F
100
AcDbEntity
  8
DIBUJOS
 62
     7
100
AcDbVertex
100
AcDb2dVertex
 10
42.51124801706086
 20
28.25453320365961
 30
0.0
  0
VERTEX
  5
24D
330
21F
100
AcDbEntity
  8
DIBUJOS
 62
     7
100
AcDbVertex
100
AcDb2dVertex
 10
42.52357588373011
 20
28.26349858210563
 30
0.0
  0
SEQEND
  5
24E
330
21F
100
AcDbEntity
  8
DIBUJOS
 62
     7
  0
ENDBLK
  5
1D0
330
1CD
100
AcDbEntity
  8
0
100
AcDbBlockEnd
  0
BLOCK
  5
251
330
24F
100
AcDbEntity
  8
0
100
AcDbBlockBegin
  2
BLOCK_5
 70
     0
 10
0.0
 20
0.0
 30
0.0
  3
BLOCK_5
  1

  0
POLYLINE
  5
253
330
24F
100
AcDbEntity
  8
DIBUJOS
 62
     7
100
AcDb2dPolyline
 66
     1
 10
0.0
 20
0.0
 30
0.0
  0
VERTEX
  5
254
330
253
100
AcDbEntity
  8
DIBUJOS
 62
     7
100
AcDbVertex
100
AcDb2dVertex
 10
110.7537673798497
 20
48.16725105324363
 30
0.0
  0
VERTEX
  5
255
330
253
100
AcDbEntity
  8
DIBUJOS
 62
     7
100
AcDbVertex
100
AcDb2dVertex
 10
110.7537673798497
 20
48.17285545164655
 30
0.0
  0
VERTEX
  5
256
330
253
100
AcDbEntity
  8
DIBUJOS
 62
     7
100
AcDbVertex
100
AcDb2dVertex
 10
110.6646701139617
 20
48.23000945645552
 30
0.0
  0
VERTEX
  5
257
330
253
100
AcDbEntity
  8
DIBUJOS
 62
     7
100
AcDbVertex
100
AcDb2dVertex
 10
110.4675569671261
 20
48.28837302195268
 30
0.0
  0
VERTEX
  5
258
330
253
100
AcDbEntity
  8
DIBUJOS
 62
     7
100
AcDbVertex
100
AcDb2dVertex
 10
110.4460050690707
 20
48.29268340156376
 30
0.0
  0
VERTEX
  5
259
330
253
100
AcDbEntity
  8
DIBUJOS
 62
     7
100
AcDbVertex
100
AcDb2dVertex
 10
110.15969511644
 20
48.32145043469978
 30
0.0
  0
VERTEX
  5
25A
330
253
100
AcDbEntity
  8
DIBUJOS
 62
     7
100
AcDbVertex
100
AcDb2dVertex
 10
110.0085935375455
 20
48.32684972056676
 30
0.0
  0
VERTEX
  5
25B
330
253
100
AcDbEntity
  8
DIBUJOS
 62
     7
100
AcDbVertex
100
AcDb2dVertex
 10
108.5067505018542
 20
48.34656465488358
 30
0.0
  0
SEQEND
  5
25C
330
253
100
AcDbEntity
  8
DIBUJOS
 62
     7
  0
POLYLINE
  5
25D
330
24F
100
AcDbEntity
  8
DIBUJOS
 62
     7
100
AcDb2dPolyline
 66
     1
 10
0.0
 20
0.0
 30
0.0
  0
VERTEX
  5
25E
330
25D
100
AcDbEntity
  8
DIBUJOS
 62
     7
100
AcDbVertex
100
AcDb2dVertex
 10
104.3851012502568
 20
48.167251053294
 30
0.0
  0
VERTEX
  5
25F
330
25D
100
AcDbEntity
  8
DIBUJOS
 62
     7
100
AcDbVertex
100
AcDb2dVertex
 10
104.3851012502568
 20
48.17285545169724
 30
0.0
  0
VERTEX
  5
260
330
25D
100
AcDbEntity
  8
DIBUJOS
 62
     7
100
AcDbVertex
100
AcDb2dVertex
 10
104.4741985161474
 20
48.23000945650205
 30
0.0
  0
VERTEX
  5
261
330
25D
100
AcDbEntity
  8
DIBUJOS
 62
     7
100
AcDbVertex
100
AcDb2dVertex
 10
104.6713116629862
 20
48.28837302199022
 30
0.0
  0
VERTEX
  5
262
330
25D
100
AcDbEntity
  8
DIBUJOS
 62
     7
100
AcDbVertex
100
AcDb2dVertex
 10
104.6928635610416
 20
48.29268340160034
 30
0.0
  0
VERTEX
  5
263
330
25D
100
AcDbEntity
  8
DIBUJOS
 62
     7
100
AcDbVertex
100
AcDb2dVertex
 10
104.9791735136736
 20
48.32145043472353
 30
0.0
  0
VERTEX
  5
264
330
25D
100
AcDbEntity
  8
DIBUJOS
 62
     7
100
AcDbVertex
100
AcDb2dVertex
 10
105.1302750925681
 20
48.32684972058345
 30
0.0
  0
VERTEX
  5
265
330
25D
100
AcDbEntity
  8
DIBUJOS
 62
     7
100
AcDbVertex
100
AcDb2dVertex
 10
106.6321181282606
 20
48.34656465483321
 30
0.0
  0
SEQEND
  5
266
330
25D
100
AcDbEntity
  8
DIBUJOS
 62
     7
  0
POLYLINE
  5
267
330
24F
100
AcDbEntity
  8
DIBUJOS
 62
     7
100
AcDb2dPolyline
 66
     1
 10
0.0
 20
0.0
 30
0.0
  0
VERTEX
  5
268
330
267
100
AcDbEntity
  8
DIBUJOS
 62
     7
100
AcDbVertex
100
AcDb2dVertex
 10
106.6321181282606
 20
48.34656465483321
 30
0.0
  0
VERTEX
  5
269
330
267
100
AcDbEntity
  8
DIBUJOS
 62
     7
100
AcDbVertex
100
AcDb2dVertex
 10
106.6252625242786
 20
48.71612314977259
 30
0.0
  0
VERTEX
  5
26A
330
267
100
AcDbEntity
  8
DIBUJOS
 62
     7
100
AcDbVertex
100
AcDb2dVertex
 10
106.4691424750713
 20
49.33222691260816
 30
0.0
  0
VERTEX
  5
26B
330
267
100
AcDbEntity
  8
DIBUJOS
 62
     7
100
AcDbVertex
100
AcDb2dVertex
 10
106.4167663858007
 20
49.52940340302133
 30
0.0
  0
VERTEX
  5
26C
330
267
100
AcDbEntity
  8
DIBUJOS
 62
     7
100
AcDbVertex
100
AcDb2dVertex
 10
106.1469393368689
 20
50.51008866539399
 30
0.0
  0
VERTEX
  5
26D
330
267
100
AcDbEntity
  8
DIBUJOS
 62
     7
100
AcDbVertex
100
AcDb2dVertex
 10
106.046636290536
 20
50.8350924946176
 30
0.0
  0
VERTEX
  5
26E
330
267
100
AcDbEntity
  8
DIBUJOS
 62
     7
100
AcDbVertex
100
AcDb2dVertex
 10
105.9877991563904
 20
51.00768262799026
 30
0.0
  0
VERTEX
  5
26F
330
267
100
AcDbEntity
  8
DIBUJOS
 62
     7
100
AcDbVertex
100
AcDb2dVertex
 10
105.9396090218467
 20
51.11527018570179
 30
0.0
  0
VERTEX
  5
270
330
267
100
AcDbEntity
  8
DIBUJOS
 62
     7
100
AcDbVertex
100
AcDb2dVertex
 10
105.9061462690048
 20
51.16093487214894
 30
0.0
  0
VERTEX
  5
271
330
267
100
AcDbEntity
  8
DIBUJOS
 62
     7
100
AcDbVertex
100
AcDb2dVertex
 10
105.8408903190346
 20
51.21841464392614
 30
0.0
  0
VERTEX
  5
272
330
267
100
AcDbEntity
  8
DIBUJOS
 62
     7
100
AcDbVertex
100
AcDb2dVertex
 10
105.8258567767103
 20
51.22509889950232
 30
0.0
  0
VERTEX
  5
273
330
267
100
AcDbEntity
  8
DIBUJOS
 62
     7
100
AcDbVertex
100
AcDb2dVertex
 10
105.8163311092417
 20
51.22902318492855
 30
0.0
  0
VERTEX
  5
274
330
267
100
AcDbEntity
  8
DIBUJOS
 62
     7
100
AcDbVertex
100
AcDb2dVertex
 10
105.7587962888796
 20
51.25252666843461
 30
0.0
  0
VERTEX
  5
275
330
267
100
AcDbEntity
  8
DIBUJOS
 62
     7
100
AcDbVertex
100
AcDb2dVertex
 10
105.6929212308513
 20
51.26435683556872
 30
0.0
  0
VERTEX
  5
276
330
267
100
AcDbEntity
  8
DIBUJOS
 62
     7
100
AcDbVertex
100
AcDb2dVertex
 10
105.6807253299678
 20
51.27160816697897
 30
0.0
  0
SEQEND
  5
277
330
267
100
AcDbEntity
  8
DIBUJOS
 62
     7
  0
POLYLINE
  5
278
330
24F
100
AcDbEntity
  8
DIBUJOS
 62
     7
100
AcDb2dPolyline
 66
     1
 10
0.0
 20
0.0
 30
0.0
  0
VERTEX
  5
279
330
278
100
AcDbEntity
  8
DIBUJOS
 62
     7
100
AcDbVertex
100
AcDb2dVertex
 10
104.6008253433478
 20
51.28281696378448
 30
0.0
  0
VERTEX
  5
27A
330
278
100
AcDbEntity
  8
DIBUJOS
 62
     7
100
AcDbVertex
100
AcDb2dVertex
 10
104.5952209449452
 20
51.28281696378448
 30
0.0
  0
SEQEND
  5
27B
330
278
100
AcDbEntity
  8
DIBUJOS
 62
     7
  0
POLYLINE
  5
27C
330
24F
100
AcDbEntity
  8
DIBUJOS
 62
     7
100
AcDb2dPolyline
 66
     1
 10
0.0
 20
0.0
 30
0.0
  0
VERTEX
  5
27D
330
27C
100
AcDbEntity
  8
DIBUJOS
 62
     7
100
AcDbVertex
100
AcDb2dVertex
 10
104.6064297417497
 20
51.28281696378448
 30
0.0
  0
VERTEX
  5
27E
330
27C
100
AcDbEntity
  8
DIBUJOS
 62
     7
100
AcDbVertex
100
AcDb2dVertex
 10
104.6008253433478
 20
51.28281696378448
 30
0.0
  0
SEQEND
  5
27F
330
27C
100
AcDbEntity
  8
DIBUJOS
 62
     7
  0
POLYLINE
  5
280
330
24F
100
AcDbEntity
  8
DIBUJOS
 62
     7
100
AcDb2dPolyline
 66
     1
 10
0.0
 20
0.0
 30
0.0
  0
VERTEX
  5
281
330
280
100
AcDbEntity
  8
DIBUJOS
 62
     7
100
AcDbVertex
100
AcDb2dVertex
 10
104.6120311237921
 20
51.28281696378448
 30
0.0
  0
VERTEX
  5
282
330
280
100
AcDbEntity
  8
DIBUJOS
 62
     7
100
AcDbVertex
100
AcDb2dVertex
 10
104.6064297417497
 20
51.28281696378448
 30
0.0
  0
SEQEND
  5
283
330
280
100
AcDbEntity
  8
DIBUJOS
 62
     7
  0
POLYLINE
  5
284
330
24F
100
AcDbEntity
  8
DIBUJOS
 62
     7
100
AcDb2dPolyline
 66
     1
 10
0.0
 20
0.0
 30
0.0
  0
VERTEX
  5
285
330
284
100
AcDbEntity
  8
DIBUJOS
 62
     7
100
AcDbVertex
100
AcDb2dVertex
 10
104.6176355221946
 20
51.28281696378448
 30
0.0
  0
VERTEX
  5
286
330
284
100
AcDbEntity
  8
DIBUJOS
 62
     7
100
AcDbVertex
100
AcDb2dVertex
 10
104.6120311237921
 20
51.28281696378448
 30
0.0
  0
SEQEND
  5
287
330
284
100
AcDbEntity
  8
DIBUJOS
 62
     7
  0
POLYLINE
  5
288
330
24F
100
AcDbEntity
  8
DIBUJOS
 62
     7
100
AcDb2dPolyline
 66
     1
 10
0.0
 20
0.0
 30
0.0
  0
VERTEX
  5
289
330
288
100
AcDbEntity
  8
DIBUJOS
 62
     7
100
AcDbVertex
100
AcDb2dVertex
 10
104.701689432792
 20
51.28281696378448
 30
0.0
  0
VERTEX
  5
28A
330
288
100
AcDbEntity
  8
DIBUJOS
 62
     7
100
AcDbVertex
100
AcDb2dVertex
 10
104.6960850343894
 20
51.2884183458262
 30
0.0
  0
VERTEX
  5
28B
330
288
100
AcDbEntity
  8
DIBUJOS
 62
     7
100
AcDbVertex
100
AcDb2dVertex
 10
104.6232399205972
 20
51.2884183458262
 30
0.0
  0
VERTEX
  5
28C
330
288
100
AcDbEntity
  8
DIBUJOS
 62
     7
100
AcDbVertex
100
AcDb2dVertex
 10
104.6176355221946
 20
51.28281696378448
 30
0.0
  0
SEQEND
  5
28D
330
288
100
AcDbEntity
  8
DIBUJOS
 62
     7
  0
POLYLINE
  5
28E
330
24F
100
AcDbEntity
  8
DIBUJOS
 62
     7
100
AcDb2dPolyline
 66
     1
 10
0.0
 20
0.0
 30
0.0
  0
VERTEX
  5
28F
330
28E
100
AcDbEntity
  8
DIBUJOS
 62
     7
100
AcDbVertex
100
AcDb2dVertex
 10
104.7072938311946
 20
51.28281696378448
 30
0.0
  0
VERTEX
  5
290
330
28E
100
AcDbEntity
  8
DIBUJOS
 62
     7
100
AcDbVertex
100
AcDb2dVertex
 10
104.701689432792
 20
51.28281696378448
 30
0.0
  0
SEQEND
  5
291
330
28E
100
AcDbEntity
  8
DIBUJOS
 62
     7
  0
POLYLINE
  5
292
330
24F
100
AcDbEntity
  8
DIBUJOS
 62
     7
100
AcDb2dPolyline
 66
     1
 10
0.0
 20
0.0
 30
0.0
  0
VERTEX
  5
293
330
292
100
AcDbEntity
  8
DIBUJOS
 62
     7
100
AcDbVertex
100
AcDb2dVertex
 10
104.5840151645002
 20
51.27721256538157
 30
0.0
  0
VERTEX
  5
294
330
292
100
AcDbEntity
  8
DIBUJOS
 62
     7
100
AcDbVertex
100
AcDb2dVertex
 10
104.5952209449452
 20
51.28281696378448
 30
0.0
  0
SEQEND
  5
295
330
292
100
AcDbEntity
  8
DIBUJOS
 62
     7
  0
POLYLINE
  5
296
330
24F
100
AcDbEntity
  8
DIBUJOS
 62
     7
100
AcDb2dPolyline
 66
     1
 10
0.0
 20
0.0
 30
0.0
  0
VERTEX
  5
297
330
296
100
AcDbEntity
  8
DIBUJOS
 62
     7
100
AcDbVertex
100
AcDb2dVertex
 10
104.6008253433478
 20
51.27721256538157
 30
0.0
  0
VERTEX
  5
298
330
296
100
AcDbEntity
  8
DIBUJOS
 62
     7
100
AcDbVertex
100
AcDb2dVertex
 10
104.6008253433478
 20
51.28281696378448
 30
0.0
  0
SEQEND
  5
299
330
296
100
AcDbEntity
  8
DIBUJOS
 62
     7
  0
POLYLINE
  5
29A
330
24F
100
AcDbEntity
  8
DIBUJOS
 62
     7
100
AcDb2dPolyline
 66
     1
 10
0.0
 20
0.0
 30
0.0
  0
VERTEX
  5
29B
330
29A
100
AcDbEntity
  8
DIBUJOS
 62
     7
100
AcDbVertex
100
AcDb2dVertex
 10
104.6120311237921
 20
51.27721256538157
 30
0.0
  0
VERTEX
  5
29C
330
29A
100
AcDbEntity
  8
DIBUJOS
 62
     7
100
AcDbVertex
100
AcDb2dVertex
 10
104.6120311237921
 20
51.28281696378448
 30
0.0
  0
SEQEND
  5
29D
330
29A
100
AcDbEntity
  8
DIBUJOS
 62
     7
  0
POLYLINE
  5
29E
330
24F
100
AcDbEntity
  8
DIBUJOS
 62
     7
100
AcDb2dPolyline
 66
     1
 10
0.0
 20
0.0
 30
0.0
  0
VERTEX
  5
29F
330
29E
100
AcDbEntity
  8
DIBUJOS
 62
     7
100
AcDbVertex
100
AcDb2dVertex
 10
104.7072938311946
 20
51.27721256538157
 30
0.0
  0
VERTEX
  5
2A0
330
29E
100
AcDbEntity
  8
DIBUJOS
 62
     7
100
AcDbVertex
100
AcDb2dVertex
 10
104.7072938311946
 20
51.28281696378448
 30
0.0
  0
SEQEND
  5
2A1
330
29E
100
AcDbEntity
  8
DIBUJOS
 62
     7
  0
POLYLINE
  5
2A2
330
24F
100
AcDbEntity
  8
DIBUJOS
 62
     7
100
AcDb2dPolyline
 66
     1
 10
0.0
 20
0.0
 30
0.0
  0
VERTEX
  5
2A3
330
2A2
100
AcDbEntity
  8
DIBUJOS
 62
     7
100
AcDbVertex
100
AcDb2dVertex
 10
104.6008253433478
 20
51.27160816697897
 30
0.0
  0
VERTEX
  5
2A4
330
2A2
100
AcDbEntity
  8
DIBUJOS
 62
     7
100
AcDbVertex
100
AcDb2dVertex
 10
104.6008253433478
 20
51.27721256538157
 30
0.0
  0
SEQEND
  5
2A5
330
2A2
100
AcDbEntity
  8
DIBUJOS
 62
     7
  0
POLYLINE
  5
2A6
330
24F
100
AcDbEntity
  8
DIBUJOS
 62
     7
100
AcDb2dPolyline
 66
     1
 10
0.0
 20
0.0
 30
0.0
  0
VERTEX
  5
2A7
330
2A6
100
AcDbEntity
  8
DIBUJOS
 62
     7
100
AcDbVertex
100
AcDb2dVertex
 10
104.6120311237921
 20
51.27160816697897
 30
0.0
  0
VERTEX
  5
2A8
330
2A6
100
AcDbEntity
  8
DIBUJOS
 62
     7
100
AcDbVertex
100
AcDb2dVertex
 10
104.6120311237921
 20
51.27721256538157
 30
0.0
  0
SEQEND
  5
2A9
330
2A6
100
AcDbEntity
  8
DIBUJOS
 62
     7
  0
POLYLINE
  5
2AA
330
24F
100
AcDbEntity
  8
DIBUJOS
 62
     7
100
AcDb2dPolyline
 66
     1
 10
0.0
 20
0.0
 30
0.0
  0
VERTEX
  5
2AB
330
2AA
100
AcDbEntity
  8
DIBUJOS
 62
     7
100
AcDbVertex
100
AcDb2dVertex
 10
104.6176355221946
 20
51.27160816697897
 30
0.0
  0
VERTEX
  5
2AC
330
2AA
100
AcDbEntity
  8
DIBUJOS
 62
     7
100
AcDbVertex
100
AcDb2dVertex
 10
104.6120311237921
 20
51.27160816697897
 30
0.0
  0
SEQEND
  5
2AD
330
2AA
100
AcDbEntity
  8
DIBUJOS
 62
     7
  0
POLYLINE
  5
2AE
330
24F
100
AcDbEntity
  8
DIBUJOS
 62
     7
100
AcDb2dPolyline
 66
     1
 10
0.0
 20
0.0
 30
0.0
  0
VERTEX
  5
2AF
330
2AE
100
AcDbEntity
  8
DIBUJOS
 62
     7
100
AcDbVertex
100
AcDb2dVertex
 10
104.6456544978474
 20
51.27160816697897
 30
0.0
  0
VERTEX
  5
2B0
330
2AE
100
AcDbEntity
  8
DIBUJOS
 62
     7
100
AcDbVertex
100
AcDb2dVertex
 10
104.6176355221946
 20
51.27160816697897
 30
0.0
  0
SEQEND
  5
2B1
330
2AE
100
AcDbEntity
  8
DIBUJOS
 62
     7
  0
POLYLINE
  5
2B2
330
24F
100
AcDbEntity
  8
DIBUJOS
 62
     7
100
AcDb2dPolyline
 66
     1
 10
0.0
 20
0.0
 30
0.0
  0
VERTEX
  5
2B3
330
2B2
100
AcDbEntity
  8
DIBUJOS
 62
     7
100
AcDbVertex
100
AcDb2dVertex
 10
104.7128952132369
 20
51.27160816697897
 30
0.0
  0
VERTEX
  5
2B4
330
2B2
100
AcDbEntity
  8
DIBUJOS
 62
     7
100
AcDbVertex
100
AcDb2dVertex
 10
104.7072938311946
 20
51.27721256538157
 30
0.0
  0
SEQEND
  5
2B5
330
2B2
100
AcDbEntity
  8
DIBUJOS
 62
     7
  0
POLYLINE
  5
2B6
330
24F
100
AcDbEntity
  8
DIBUJOS
 62
     7
100
AcDb2dPolyline
 66
     1
 10
0.0
 20
0.0
 30
0.0
  0
VERTEX
  5
2B7
330
2B6
100
AcDbEntity
  8
DIBUJOS
 62
     7
100
AcDbVertex
100
AcDb2dVertex
 10
104.5952209449452
 20
51.26600376857606
 30
0.0
  0
VERTEX
  5
2B8
330
2B6
100
AcDbEntity
  8
DIBUJOS
 62
     7
100
AcDbVertex
100
AcDb2dVertex
 10
104.5840151645002
 20
51.27721256538157
 30
0.0
  0
SEQEND
  5
2B9
330
2B6
100
AcDbEntity
  8
DIBUJOS
 62
     7
  0
POLYLINE
  5
2BA
330
24F
100
AcDbEntity
  8
DIBUJOS
 62
     7
100
AcDb2dPolyline
 66
     1
 10
0.0
 20
0.0
 30
0.0
  0
VERTEX
  5
2BB
330
2BA
100
AcDbEntity
  8
DIBUJOS
 62
     7
100
AcDbVertex
100
AcDb2dVertex
 10
104.6008253433478
 20
51.26600376857606
 30
0.0
  0
VERTEX
  5
2BC
330
2BA
100
AcDbEntity
  8
DIBUJOS
 62
     7
100
AcDbVertex
100
AcDb2dVertex
 10
104.5952209449452
 20
51.26600376857606
 30
0.0
  0
SEQEND
  5
2BD
330
2BA
100
AcDbEntity
  8
DIBUJOS
 62
     7
  0
POLYLINE
  5
2BE
330
24F
100
AcDbEntity
  8
DIBUJOS
 62
     7
100
AcDb2dPolyline
 66
     1
 10
0.0
 20
0.0
 30
0.0
  0
VERTEX
  5
2BF
330
2BE
100
AcDbEntity
  8
DIBUJOS
 62
     7
100
AcDbVertex
100
AcDb2dVertex
 10
104.6008253433478
 20
51.26600376857606
 30
0.0
  0
VERTEX
  5
2C0
330
2BE
100
AcDbEntity
  8
DIBUJOS
 62
     7
100
AcDbVertex
100
AcDb2dVertex
 10
104.6008253433478
 20
51.27160816697897
 30
0.0
  0
SEQEND
  5
2C1
330
2BE
100
AcDbEntity
  8
DIBUJOS
 62
     7
  0
POLYLINE
  5
2C2
330
24F
100
AcDbEntity
  8
DIBUJOS
 62
     7
100
AcDb2dPolyline
 66
     1
 10
0.0
 20
0.0
 30
0.0
  0
VERTEX
  5
2C3
330
2C2
100
AcDbEntity
  8
DIBUJOS
 62
     7
100
AcDbVertex
100
AcDb2dVertex
 10
104.6064297417497
 20
51.26600376857606
 30
0.0
  0
VERTEX
  5
2C4
330
2C2
100
AcDbEntity
  8
DIBUJOS
 62
     7
100
AcDbVertex
100
AcDb2dVertex
 10
104.6008253433478
 20
51.26600376857606
 30
0.0
  0
SEQEND
  5
2C5
330
2C2
100
AcDbEntity
  8
DIBUJOS
 62
     7
  0
POLYLINE
  5
2C6
330
24F
100
AcDbEntity
  8
DIBUJOS
 62
     7
100
AcDb2dPolyline
 66
     1
 10
0.0
 20
0.0
 30
0.0
  0
VERTEX
  5
2C7
330
2C6
100
AcDbEntity
  8
DIBUJOS
 62
     7
100
AcDbVertex
100
AcDb2dVertex
 10
104.6064297417497
 20
51.26600376857606
 30
0.0
  0
VERTEX
  5
2C8
330
2C6
100
AcDbEntity
  8
DIBUJOS
 62
     7
100
AcDbVertex
100
AcDb2dVertex
 10
104.6120311237921
 20
51.27160816697897
 30
0.0
  0
SEQEND
  5
2C9
330
2C6
100
AcDbEntity
  8
DIBUJOS
 62
     7
  0
POLYLINE
  5
2CA
330
24F
100
AcDbEntity
  8
DIBUJOS
 62
     7
100
AcDb2dPolyline
 66
     1
 10
0.0
 20
0.0
 30
0.0
  0
VERTEX
  5
2CB
330
2CA
100
AcDbEntity
  8
DIBUJOS
 62
     7
100
AcDbVertex
100
AcDb2dVertex
 10
105.7943782051164
 20
51.26600376857606
 30
0.0
  0
VERTEX
  5
2CC
330
2CA
100
AcDbEntity
  8
DIBUJOS
 62
     7
100
AcDbVertex
100
AcDb2dVertex
 10
105.8055839855607
 20
51.27160816697897
 30
0.0
  0
SEQEND
  5
2CD
330
2CA
100
AcDbEntity
  8
DIBUJOS
 62
     7
  0
POLYLINE
  5
2CE
330
24F
100
AcDbEntity
  8
DIBUJOS
 62
     7
100
AcDb2dPolyline
 66
     1
 10
0.0
 20
0.0
 30
0.0
  0
VERTEX
  5
2CF
330
2CE
100
AcDbEntity
  8
DIBUJOS
 62
     7
100
AcDbVertex
100
AcDb2dVertex
 10
104.5952209449452
 20
45.9258385736511
 30
0.0
  0
VERTEX
  5
2D0
330
2CE
100
AcDbEntity
  8
DIBUJOS
 62
     7
100
AcDbVertex
100
AcDb2dVertex
 10
104.4892501566325
 20
45.93902308679336
 30
0.0
  0
VERTEX
  5
2D1
330
2CE
100
AcDbEntity
  8
DIBUJOS
 62
     7
100
AcDbVertex
100
AcDb2dVertex
 10
104.4337280030271
 20
45.96640561031278
 30
0.0
  0
VERTEX
  5
2D2
330
2CE
100
AcDbEntity
  8
DIBUJOS
 62
     7
100
AcDbVertex
100
AcDb2dVertex
 10
104.3934957824156
 20
45.99868368744293
 30
0.0
  0
VERTEX
  5
2D3
330
2CE
100
AcDbEntity
  8
DIBUJOS
 62
     7
100
AcDbVertex
100
AcDb2dVertex
 10
104.387891384013
 20
46.21161764677733
 30
0.0
  0
VERTEX
  5
2D4
330
2CE
100
AcDbEntity
  8
DIBUJOS
 62
     7
100
AcDbVertex
100
AcDb2dVertex
 10
104.3851012502549
 20
47.63490258128446
 30
0.0
  0
VERTEX
  5
2D5
330
2CE
100
AcDbEntity
  8
DIBUJOS
 62
     7
100
AcDbVertex
100
AcDb2dVertex
 10
104.3906785014102
 20
49.90993541857176
 30
0.0
  0
VERTEX
  5
2D6
330
2CE
100
AcDbEntity
  8
DIBUJOS
 62
     7
100
AcDbVertex
100
AcDb2dVertex
 10
104.4018480855253
 20
50.81767301088463
 30
0.0
  0
VERTEX
  5
2D7
330
2CE
100
AcDbEntity
  8
DIBUJOS
 62
     7
100
AcDbVertex
100
AcDb2dVertex
 10
104.4137536616801
 20
51.10393470174192
 30
0.0
  0
VERTEX
  5
2D8
330
2CE
100
AcDbEntity
  8
DIBUJOS
 62
     7
100
AcDbVertex
100
AcDb2dVertex
 10
104.4322891989159
 20
51.18410655596469
 30
0.0
  0
VERTEX
  5
2D9
330
2CE
100
AcDbEntity
  8
DIBUJOS
 62
     7
100
AcDbVertex
100
AcDb2dVertex
 10
104.4705517359117
 20
51.23362011881738
 30
0.0
  0
VERTEX
  5
2DA
330
2CE
100
AcDbEntity
  8
DIBUJOS
 62
     7
100
AcDbVertex
100
AcDb2dVertex
 10
104.5055656523054
 20
51.27160816697897
 30
0.0
  0
VERTEX
  5
2DB
330
2CE
100
AcDbEntity
  8
DIBUJOS
 62
     7
100
AcDbVertex
100
AcDb2dVertex
 10
104.522375831153
 20
51.27160816697897
 30
0.0
  0
VERTEX
  5
2DC
330
2CE
100
AcDbEntity
  8
DIBUJOS
 62
     7
100
AcDbVertex
100
AcDb2dVertex
 10
104.5781362772627
 20
51.27406951740765
 30
0.0
  0
VERTEX
  5
2DD
330
2CE
100
AcDbEntity
  8
DIBUJOS
 62
     7
100
AcDbVertex
100
AcDb2dVertex
 10
104.5840151645002
 20
51.27721256538157
 30
0.0
  0
SEQEND
  5
2DE
330
2CE
100
AcDbEntity
  8
DIBUJOS
 62
     7
  0
POLYLINE
  5
2DF
330
24F
100
AcDbEntity
  8
DIBUJOS
 62
     7
100
AcDb2dPolyline
 66
     1
 10
0.0
 20
0.0
 30
0.0
  0
VERTEX
  5
2E0
330
2DF
100
AcDbEntity
  8
DIBUJOS
 62
     7
100
AcDbVertex
100
AcDb2dVertex
 10
104.6008253433478
 20
45.9258385736511
 30
0.0
  0
VERTEX
  5
2E1
330
2DF
100
AcDbEntity
  8
DIBUJOS
 62
     7
100
AcDbVertex
100
AcDb2dVertex
 10
104.5952209449452
 20
45.9258385736511
 30
0.0
  0
SEQEND
  5
2E2
330
2DF
100
AcDbEntity
  8
DIBUJOS
 62
     7
  0
POLYLINE
  5
2E3
330
24F
100
AcDbEntity
  8
DIBUJOS
 62
     7
100
AcDb2dPolyline
 66
     1
 10
0.0
 20
0.0
 30
0.0
  0
VERTEX
  5
2E4
330
2E3
100
AcDbEntity
  8
DIBUJOS
 62
     7
100
AcDbVertex
100
AcDb2dVertex
 10
104.6064297417497
 20
45.9258385736511
 30
0.0
  0
VERTEX
  5
2E5
330
2E3
100
AcDbEntity
  8
DIBUJOS
 62
     7
100
AcDbVertex
100
AcDb2dVertex
 10
104.6008253433478
 20
45.9258385736511
 30
0.0
  0
SEQEND
  5
2E6
330
2E3
100
AcDbEntity
  8
DIBUJOS
 62
     7
  0
POLYLINE
  5
2E7
330
24F
100
AcDbEntity
  8
DIBUJOS
 62
     7
100
AcDb2dPolyline
 66
     1
 10
0.0
 20
0.0
 30
0.0
  0
VERTEX
  5
2E8
330
2E7
100
AcDbEntity
  8
DIBUJOS
 62
     7
100
AcDbVertex
100
AcDb2dVertex
 10
110.5685896521918
 20
45.9258385736511
 30
0.0
  0
VERTEX
  5
2E9
330
2E7
100
AcDbEntity
  8
DIBUJOS
 62
     7
100
AcDbVertex
100
AcDb2dVertex
 10
110.5629852537893
 20
45.93143995569346
 30
0.0
  0
VERTEX
  5
2EA
330
2E7
100
AcDbEntity
  8
DIBUJOS
 62
     7
100
AcDbVertex
100
AcDb2dVertex
 10
104.6120311237921
 20
45.93143995569346
 30
0.0
  0
VERTEX
  5
2EB
330
2E7
100
AcDbEntity
  8
DIBUJOS
 62
     7
100
AcDbVertex
100
AcDb2dVertex
 10
104.6064297417497
 20
45.9258385736511
 30
0.0
  0
SEQEND
  5
2EC
330
2E7
100
AcDbEntity
  8
DIBUJOS
 62
     7
  0
POLYLINE
  5
2ED
330
24F
100
AcDbEntity
  8
DIBUJOS
 62
     7
100
AcDb2dPolyline
 66
     1
 10
0.0
 20
0.0
 30
0.0
  0
VERTEX
  5
2EE
330
2ED
100
AcDbEntity
  8
DIBUJOS
 62
     7
100
AcDbVertex
100
AcDb2dVertex
 10
110.5741910342336
 20
45.9258385736511
 30
0.0
  0
VERTEX
  5
2EF
330
2ED
100
AcDbEntity
  8
DIBUJOS
 62
     7
100
AcDbVertex
100
AcDb2dVertex
 10
110.5685896521918
 20
45.9258385736511
 30
0.0
  0
SEQEND
  5
2F0
330
2ED
100
AcDbEntity
  8
DIBUJOS
 62
     7
  0
POLYLINE
  5
2F1
330
24F
100
AcDbEntity
  8
DIBUJOS
 62
     7
100
AcDb2dPolyline
 66
     1
 10
0.0
 20
0.0
 30
0.0
  0
VERTEX
  5
2F2
330
2F1
100
AcDbEntity
  8
DIBUJOS
 62
     7
100
AcDbVertex
100
AcDb2dVertex
 10
110.5741910342336
 20
45.9258385736511
 30
0.0
  0
VERTEX
  5
2F3
330
2F1
100
AcDbEntity
  8
DIBUJOS
 62
     7
100
AcDbVertex
100
AcDb2dVertex
 10
110.6810365671832
 20
45.93477303439859
 30
0.0
  0
VERTEX
  5
2F4
330
2F1
100
AcDbEntity
  8
DIBUJOS
 62
     7
100
AcDbVertex
100
AcDb2dVertex
 10
110.7254886765813
 20
45.94264875249865
 30
0.0
  0
VERTEX
  5
2F5
330
2F1
100
AcDbEntity
  8
DIBUJOS
 62
     7
100
AcDbVertex
100
AcDb2dVertex
 10
110.7647134326784
 20
45.98187350859602
 30
0.0
  0
VERTEX
  5
2F6
330
2F1
100
AcDbEntity
  8
DIBUJOS
 62
     7
100
AcDbVertex
100
AcDb2dVertex
 10
110.7716088335123
 20
45.99954636663738
 30
0.0
  0
VERTEX
  5
2F7
330
2F1
100
AcDbEntity
  8
DIBUJOS
 62
     7
100
AcDbVertex
100
AcDb2dVertex
 10
110.778380563552
 20
46.04323835310866
 30
0.0
  0
VERTEX
  5
2F8
330
2F1
100
AcDbEntity
  8
DIBUJOS
 62
     7
100
AcDbVertex
100
AcDb2dVertex
 10
110.7815236115259
 20
46.08833898008263
 30
0.0
  0
VERTEX
  5
2F9
330
2F1
100
AcDbEntity
  8
DIBUJOS
 62
     7
100
AcDbVertex
100
AcDb2dVertex
 10
110.7787033141597
 20
46.09396147665017
 30
0.0
  0
VERTEX
  5
2FA
330
2F1
100
AcDbEntity
  8
DIBUJOS
 62
     7
100
AcDbVertex
100
AcDb2dVertex
 10
110.7703148147207
 20
47.0185273459749
 30
0.0
  0
VERTEX
  5
2FB
330
2F1
100
AcDbEntity
  8
DIBUJOS
 62
     7
100
AcDbVertex
100
AcDb2dVertex
 10
110.7759192131233
 20
47.02412872801694
 30
0.0
  0
VERTEX
  5
2FC
330
2F1
100
AcDbEntity
  8
DIBUJOS
 62
     7
100
AcDbVertex
100
AcDb2dVertex
 10
110.7616337282817
 20
47.96015073573479
 30
0.0
  0
VERTEX
  5
2FD
330
2F1
100
AcDbEntity
  8
DIBUJOS
 62
     7
100
AcDbVertex
100
AcDb2dVertex
 10
110.756581323909
 20
48.01572718383473
 30
0.0
  0
VERTEX
  5
2FE
330
2F1
100
AcDbEntity
  8
DIBUJOS
 62
     7
100
AcDbVertex
100
AcDb2dVertex
 10
110.7390472184646
 20
51.148667332696
 30
0.0
  0
VERTEX
  5
2FF
330
2F1
100
AcDbEntity
  8
DIBUJOS
 62
     7
100
AcDbVertex
100
AcDb2dVertex
 10
110.734341695586
 20
51.18161504192786
 30
0.0
  0
VERTEX
  5
300
330
2F1
100
AcDbEntity
  8
DIBUJOS
 62
     7
100
AcDbVertex
100
AcDb2dVertex
 10
110.7241946577898
 20
51.20350477239528
 30
0.0
  0
VERTEX
  5
301
330
2F1
100
AcDbEntity
  8
DIBUJOS
 62
     7
100
AcDbVertex
100
AcDb2dVertex
 10
110.7129888773449
 20
51.22031495124251
 30
0.0
  0
VERTEX
  5
302
330
2F1
100
AcDbEntity
  8
DIBUJOS
 62
     7
100
AcDbVertex
100
AcDb2dVertex
 10
110.6750551236784
 20
51.26600376857606
 30
0.0
  0
VERTEX
  5
303
330
2F1
100
AcDbEntity
  8
DIBUJOS
 62
     7
100
AcDbVertex
100
AcDb2dVertex
 10
110.6475971911377
 20
51.27273025320358
 30
0.0
  0
VERTEX
  5
304
330
2F1
100
AcDbEntity
  8
DIBUJOS
 62
     7
100
AcDbVertex
100
AcDb2dVertex
 10
110.4845357415939
 20
51.2884183458262
 30
0.0
  0
VERTEX
  5
305
330
2F1
100
AcDbEntity
  8
DIBUJOS
 62
     7
100
AcDbVertex
100
AcDb2dVertex
 10
104.7072938311946
 20
51.28281696378448
 30
0.0
  0
SEQEND
  5
306
330
2F1
100
AcDbEntity
  8
DIBUJOS
 62
     7
  0
POLYLINE
  5
307
330
24F
100
AcDbEntity
  8
DIBUJOS
 62
     7
100
AcDb2dPolyline
 66
     1
 10
0.0
 20
0.0
 30
0.0
  0
VERTEX
  5
308
330
307
100
AcDbEntity
  8
DIBUJOS
 62
     7
100
AcDbVertex
100
AcDb2dVertex
 10
104.6008253433478
 20
45.9202341752485
 30
0.0
  0
VERTEX
  5
309
330
307
100
AcDbEntity
  8
DIBUJOS
 62
     7
100
AcDbVertex
100
AcDb2dVertex
 10
104.6008253433478
 20
45.9258385736511
 30
0.0
  0
SEQEND
  5
30A
330
307
100
AcDbEntity
  8
DIBUJOS
 62
     7
  0
POLYLINE
  5
30B
330
24F
100
AcDbEntity
  8
DIBUJOS
 62
     7
100
AcDb2dPolyline
 66
     1
 10
0.0
 20
0.0
 30
0.0
  0
VERTEX
  5
30C
330
30B
100
AcDbEntity
  8
DIBUJOS
 62
     7
100
AcDbVertex
100
AcDb2dVertex
 10
110.5741910342336
 20
45.9202341752485
 30
0.0
  0
VERTEX
  5
30D
330
30B
100
AcDbEntity
  8
DIBUJOS
 62
     7
100
AcDbVertex
100
AcDb2dVertex
 10
110.5741910342336
 20
45.9258385736511
 30
0.0
  0
SEQEND
  5
30E
330
30B
100
AcDbEntity
  8
DIBUJOS
 62
     7
  0
POLYLINE
  5
30F
330
24F
100
AcDbEntity
  8
DIBUJOS
 62
     7
100
AcDb2dPolyline
 66
     1
 10
0.0
 20
0.0
 30
0.0
  0
VERTEX
  5
310
330
30F
100
AcDbEntity
  8
DIBUJOS
 62
     7
100
AcDbVertex
100
AcDb2dVertex
 10
104.8081549042792
 20
45.58962594762198
 30
0.0
  0
VERTEX
  5
311
330
30F
100
AcDbEntity
  8
DIBUJOS
 62
     7
100
AcDbVertex
100
AcDb2dVertex
 10
104.8137593026818
 20
45.59523034602458
 30
0.0
  0
SEQEND
  5
312
330
30F
100
AcDbEntity
  8
DIBUJOS
 62
     7
  0
POLYLINE
  5
313
330
24F
100
AcDbEntity
  8
DIBUJOS
 62
     7
100
AcDb2dPolyline
 66
     1
 10
0.0
 20
0.0
 30
0.0
  0
VERTEX
  5
314
330
313
100
AcDbEntity
  8
DIBUJOS
 62
     7
100
AcDbVertex
100
AcDb2dVertex
 10
110.3612570748988
 20
45.58962594762198
 30
0.0
  0
VERTEX
  5
315
330
313
100
AcDbEntity
  8
DIBUJOS
 62
     7
100
AcDbVertex
100
AcDb2dVertex
 10
110.3556556928571
 20
45.59523034602458
 30
0.0
  0
VERTEX
  5
316
330
313
100
AcDbEntity
  8
DIBUJOS
 62
     7
100
AcDbVertex
100
AcDb2dVertex
 10
104.8137593026818
 20
45.59523034602458
 30
0.0
  0
SEQEND
  5
317
330
313
100
AcDbEntity
  8
DIBUJOS
 62
     7
  0
POLYLINE
  5
318
330
24F
100
AcDbEntity
  8
DIBUJOS
 62
     7
100
AcDb2dPolyline
 66
     1
 10
0.0
 20
0.0
 30
0.0
  0
VERTEX
  5
319
330
318
100
AcDbEntity
  8
DIBUJOS
 62
     7
100
AcDbVertex
100
AcDb2dVertex
 10
110.3668614733021
 20
45.58962594762198
 30
0.0
  0
VERTEX
  5
31A
330
318
100
AcDbEntity
  8
DIBUJOS
 62
     7
100
AcDbVertex
100
AcDb2dVertex
 10
110.3612570748988
 20
45.58962594762198
 30
0.0
  0
SEQEND
  5
31B
330
318
100
AcDbEntity
  8
DIBUJOS
 62
     7
  0
POLYLINE
  5
31C
330
24F
100
AcDbEntity
  8
DIBUJOS
 62
     7
100
AcDb2dPolyline
 66
     1
 10
0.0
 20
0.0
 30
0.0
  0
VERTEX
  5
31D
330
31C
100
AcDbEntity
  8
DIBUJOS
 62
     7
100
AcDbVertex
100
AcDb2dVertex
 10
110.3668614733021
 20
45.58962594762198
 30
0.0
  0
VERTEX
  5
31E
330
31C
100
AcDbEntity
  8
DIBUJOS
 62
     7
100
AcDbVertex
100
AcDb2dVertex
 10
110.3724658717047
 20
45.59523034602458
 30
0.0
  0
SEQEND
  5
31F
330
31C
100
AcDbEntity
  8
DIBUJOS
 62
     7
  0
POLYLINE
  5
320
330
24F
100
AcDbEntity
  8
DIBUJOS
 62
     7
100
AcDb2dPolyline
 66
     1
 10
0.0
 20
0.0
 30
0.0
  0
VERTEX
  5
321
330
320
100
AcDbEntity
  8
DIBUJOS
 62
     7
100
AcDbVertex
100
AcDb2dVertex
 10
110.3668614733021
 20
45.58402154921939
 30
0.0
  0
VERTEX
  5
322
330
320
100
AcDbEntity
  8
DIBUJOS
 62
     7
100
AcDbVertex
100
AcDb2dVertex
 10
110.3668614733021
 20
45.58962594762198
 30
0.0
  0
SEQEND
  5
323
330
320
100
AcDbEntity
  8
DIBUJOS
 62
     7
  0
POLYLINE
  5
324
330
24F
100
AcDbEntity
  8
DIBUJOS
 62
     7
100
AcDb2dPolyline
 66
     1
 10
0.0
 20
0.0
 30
0.0
  0
VERTEX
  5
325
330
324
100
AcDbEntity
  8
DIBUJOS
 62
     7
100
AcDbVertex
100
AcDb2dVertex
 10
104.6008253433478
 20
45.9202341752485
 30
0.0
  0
VERTEX
  5
326
330
324
100
AcDbEntity
  8
DIBUJOS
 62
     7
100
AcDbVertex
100
AcDb2dVertex
 10
104.6093344972193
 20
44.23907753791696
 30
0.0
  0
VERTEX
  5
327
330
324
100
AcDbEntity
  8
DIBUJOS
 62
     7
100
AcDbVertex
100
AcDb2dVertex
 10
104.6344457010422
 20
43.41545418341837
 30
0.0
  0
VERTEX
  5
328
330
324
100
AcDbEntity
  8
DIBUJOS
 62
     7
100
AcDbVertex
100
AcDb2dVertex
 10
104.6456544978474
 20
43.40424840297374
 30
0.0
  0
VERTEX
  5
329
330
324
100
AcDbEntity
  8
DIBUJOS
 62
     7
100
AcDbVertex
100
AcDb2dVertex
 10
104.7689301481815
 20
43.40424840297374
 30
0.0
  0
VERTEX
  5
32A
330
324
100
AcDbEntity
  8
DIBUJOS
 62
     7
100
AcDbVertex
100
AcDb2dVertex
 10
104.7801389449867
 20
43.41545418341837
 30
0.0
  0
VERTEX
  5
32B
330
324
100
AcDbEntity
  8
DIBUJOS
 62
     7
100
AcDbVertex
100
AcDb2dVertex
 10
104.7830135368482
 20
43.52759342960682
 30
0.0
  0
VERTEX
  5
32C
330
324
100
AcDbEntity
  8
DIBUJOS
 62
     7
100
AcDbVertex
100
AcDb2dVertex
 10
104.7940745319735
 20
43.95892699408035
 30
0.0
  0
VERTEX
  5
32D
330
324
100
AcDbEntity
  8
DIBUJOS
 62
     7
100
AcDbVertex
100
AcDb2dVertex
 10
104.8053527050776
 20
44.91720069556376
 30
0.0
  0
VERTEX
  5
32E
330
324
100
AcDbEntity
  8
DIBUJOS
 62
     7
100
AcDbVertex
100
AcDb2dVertex
 10
104.8081549042792
 20
45.58962594762198
 30
0.0
  0
SEQEND
  5
32F
330
324
100
AcDbEntity
  8
DIBUJOS
 62
     7
  0
POLYLINE
  5
330
330
24F
100
AcDbEntity
  8
DIBUJOS
 62
     7
100
AcDb2dPolyline
 66
     1
 10
0.0
 20
0.0
 30
0.0
  0
VERTEX
  5
331
330
330
100
AcDbEntity
  8
DIBUJOS
 62
     7
100
AcDbVertex
100
AcDb2dVertex
 10
110.3668614733021
 20
45.58402154921939
 30
0.0
  0
VERTEX
  5
332
330
330
100
AcDbEntity
  8
DIBUJOS
 62
     7
100
AcDbVertex
100
AcDb2dVertex
 10
110.3724658717047
 20
44.49693717529786
 30
0.0
  0
VERTEX
  5
333
330
330
100
AcDbEntity
  8
DIBUJOS
 62
     7
100
AcDbVertex
100
AcDb2dVertex
 10
110.3668614733021
 20
44.49133277689494
 30
0.0
  0
VERTEX
  5
334
330
330
100
AcDbEntity
  8
DIBUJOS
 62
     7
100
AcDbVertex
100
AcDb2dVertex
 10
110.3926061128968
 20
43.43748869920543
 30
0.0
  0
VERTEX
  5
335
330
330
100
AcDbEntity
  8
DIBUJOS
 62
     7
100
AcDbVertex
100
AcDb2dVertex
 10
110.3948804489548
 20
43.40984978501513
 30
0.0
  0
VERTEX
  5
336
330
330
100
AcDbEntity
  8
DIBUJOS
 62
     7
100
AcDbVertex
100
AcDb2dVertex
 10
110.4004818309965
 20
43.40424840297374
 30
0.0
  0
VERTEX
  5
337
330
330
100
AcDbEntity
  8
DIBUJOS
 62
     7
100
AcDbVertex
100
AcDb2dVertex
 10
110.5237604976916
 20
43.40424840297374
 30
0.0
  0
VERTEX
  5
338
330
330
100
AcDbEntity
  8
DIBUJOS
 62
     7
100
AcDbVertex
100
AcDb2dVertex
 10
110.5349662781365
 20
43.41545418341837
 30
0.0
  0
VERTEX
  5
339
330
330
100
AcDbEntity
  8
DIBUJOS
 62
     7
100
AcDbVertex
100
AcDb2dVertex
 10
110.5602373490822
 20
44.13836426651378
 30
0.0
  0
VERTEX
  5
33A
330
330
100
AcDbEntity
  8
DIBUJOS
 62
     7
100
AcDbVertex
100
AcDb2dVertex
 10
110.5741910342336
 20
45.9202341752485
 30
0.0
  0
SEQEND
  5
33B
330
330
100
AcDbEntity
  8
DIBUJOS
 62
     7
  0
POLYLINE
  5
33C
330
24F
100
AcDbEntity
  8
DIBUJOS
 62
     7
100
AcDb2dPolyline
 66
     1
 10
0.0
 20
0.0
 30
0.0
  0
VERTEX
  5
33D
330
33C
100
AcDbEntity
  8
DIBUJOS
 62
     7
100
AcDbVertex
100
AcDb2dVertex
 10
106.5372184750045
 20
48.34531889187426
 30
0.0
  0
VERTEX
  5
33E
330
33C
100
AcDbEntity
  8
DIBUJOS
 62
     7
100
AcDbVertex
100
AcDb2dVertex
 10
108.5067505018542
 20
48.34531889187426
 30
0.0
  0
SEQEND
  5
33F
330
33C
100
AcDbEntity
  8
DIBUJOS
 62
     7
  0
ENDBLK
  5
252
330
24F
100
AcDbEntity
  8
0
100
AcDbBlockEnd
  0
BLOCK
  5
342
330
340
100
AcDbEntity
  8
0
100
AcDbBlockBegin
  2
BLOCK_6
 70
     0
 10
0.0
 20
0.0
 30
0.0
  3
BLOCK_6
  1

  0
POLYLINE
  5
344
330
340
100
AcDbEntity
  8
DIBUJOS
 62
     7
100
AcDb2dPolyline
 66
     1
 10
0.0
 20
0.0
 30
0.0
  0
VERTEX
  5
345
330
344
100
AcDbEntity
  8
DIBUJOS
 62
     7
100
AcDbVertex
100
AcDb2dVertex
 10
92.33735407888736
 20
51.21557323165513
 30
0.0
  0
VERTEX
  5
346
330
344
100
AcDbEntity
  8
DIBUJOS
 62
     7
100
AcDbVertex
100
AcDb2dVertex
 10
92.41607732582756
 20
51.24113085687566
 30
0.0
  0
VERTEX
  5
347
330
344
100
AcDbEntity
  8
DIBUJOS
 62
     7
100
AcDbVertex
100
AcDb2dVertex
 10
92.72399799555174
 20
51.26600376817949
 30
0.0
  0
VERTEX
  5
348
330
344
100
AcDbEntity
  8
DIBUJOS
 62
     7
100
AcDbVertex
100
AcDb2dVertex
 10
92.72960163986299
 20
51.26040238613777
 30
0.0
  0
VERTEX
  5
349
330
344
100
AcDbEntity
  8
DIBUJOS
 62
     7
100
AcDbVertex
100
AcDb2dVertex
 10
92.76326422660975
 20
51.26324681438913
 30
0.0
  0
VERTEX
  5
34A
330
344
100
AcDbEntity
  8
DIBUJOS
 62
     7
100
AcDbVertex
100
AcDb2dVertex
 10
93.13866013377496
 20
51.27160816656379
 30
0.0
  0
SEQEND
  5
34B
330
344
100
AcDbEntity
  8
DIBUJOS
 62
     7
  0
POLYLINE
  5
34C
330
340
100
AcDbEntity
  8
DIBUJOS
 62
     7
100
AcDb2dPolyline
 66
     1
 10
0.0
 20
0.0
 30
0.0
  0
VERTEX
  5
34D
330
34C
100
AcDbEntity
  8
DIBUJOS
 62
     7
100
AcDbVertex
100
AcDb2dVertex
 10
81.01261213387127
 20
48.35777043545719
 30
0.0
  0
VERTEX
  5
34E
330
34C
100
AcDbEntity
  8
DIBUJOS
 62
     7
100
AcDbVertex
100
AcDb2dVertex
 10
81.00982049200685
 20
49.98278656521529
 30
0.0
  0
VERTEX
  5
34F
330
34C
100
AcDbEntity
  8
DIBUJOS
 62
     7
100
AcDbVertex
100
AcDb2dVertex
 10
81.00700924372516
 20
50.04443494764513
 30
0.0
  0
VERTEX
  5
350
330
34C
100
AcDbEntity
  8
DIBUJOS
 62
     7
100
AcDbVertex
100
AcDb2dVertex
 10
81.00994416282471
 20
50.54327165089924
 30
0.0
  0
VERTEX
  5
351
330
34C
100
AcDbEntity
  8
DIBUJOS
 62
     7
100
AcDbVertex
100
AcDb2dVertex
 10
81.01528161330009
 20
50.66070159396463
 30
0.0
  0
VERTEX
  5
352
330
34C
100
AcDbEntity
  8
DIBUJOS
 62
     7
100
AcDbVertex
100
AcDb2dVertex
 10
81.03743979989859
 20
51.04716679124677
 30
0.0
  0
VERTEX
  5
353
330
34C
100
AcDbEntity
  8
DIBUJOS
 62
     7
100
AcDbVertex
100
AcDb2dVertex
 10
81.06238510388022
 20
51.13976001932284
 30
0.0
  0
VERTEX
  5
354
330
34C
100
AcDbEntity
  8
DIBUJOS
 62
     7
100
AcDbVertex
100
AcDb2dVertex
 10
81.0896771365771
 20
51.17753390586456
 30
0.0
  0
VERTEX
  5
355
330
34C
100
AcDbEntity
  8
DIBUJOS
 62
     7
100
AcDbVertex
100
AcDb2dVertex
 10
81.1302864022927
 20
51.22117763056114
 30
0.0
  0
VERTEX
  5
356
330
34C
100
AcDbEntity
  8
DIBUJOS
 62
     7
100
AcDbVertex
100
AcDb2dVertex
 10
81.14205473402974
 20
51.22509889962585
 30
0.0
  0
VERTEX
  5
357
330
34C
100
AcDbEntity
  8
DIBUJOS
 62
     7
100
AcDbVertex
100
AcDb2dVertex
 10
81.16334722505655
 20
51.2335054972291
 30
0.0
  0
VERTEX
  5
358
330
34C
100
AcDbEntity
  8
DIBUJOS
 62
     7
100
AcDbVertex
100
AcDb2dVertex
 10
81.26514940271692
 20
51.26373244899731
 30
0.0
  0
VERTEX
  5
359
330
34C
100
AcDbEntity
  8
DIBUJOS
 62
     7
100
AcDbVertex
100
AcDb2dVertex
 10
81.6009834754637
 20
51.28841834592919
 30
0.0
  0
VERTEX
  5
35A
330
34C
100
AcDbEntity
  8
DIBUJOS
 62
     7
100
AcDbVertex
100
AcDb2dVertex
 10
88.31962104038067
 20
51.27721256518264
 30
0.0
  0
VERTEX
  5
35B
330
34C
100
AcDbEntity
  8
DIBUJOS
 62
     7
100
AcDbVertex
100
AcDb2dVertex
 10
92.43261452402291
 20
51.28281696340107
 30
0.0
  0
VERTEX
  5
35C
330
34C
100
AcDbEntity
  8
DIBUJOS
 62
     7
100
AcDbVertex
100
AcDb2dVertex
 10
92.44382181264734
 20
51.27160816659524
 30
0.0
  0
SEQEND
  5
35D
330
34C
100
AcDbEntity
  8
DIBUJOS
 62
     7
  0
POLYLINE
  5
35E
330
340
100
AcDbEntity
  8
DIBUJOS
 62
     7
100
AcDb2dPolyline
 66
     1
 10
0.0
 20
0.0
 30
0.0
  0
VERTEX
  5
35F
330
35E
100
AcDbEntity
  8
DIBUJOS
 62
     7
100
AcDbVertex
100
AcDb2dVertex
 10
91.40716797512952
 20
48.19527002855948
 30
0.0
  0
VERTEX
  5
360
330
35E
100
AcDbEntity
  8
DIBUJOS
 62
     7
100
AcDbVertex
100
AcDb2dVertex
 10
91.35617564138612
 20
48.21656251958661
 30
0.0
  0
VERTEX
  5
361
330
35E
100
AcDbEntity
  8
DIBUJOS
 62
     7
100
AcDbVertex
100
AcDb2dVertex
 10
91.23878868146278
 20
48.23203343423523
 30
0.0
  0
VERTEX
  5
362
330
35E
100
AcDbEntity
  8
DIBUJOS
 62
     7
100
AcDbVertex
100
AcDb2dVertex
 10
91.03198095095442
 20
48.25379949391847
 30
0.0
  0
VERTEX
  5
363
330
35E
100
AcDbEntity
  8
DIBUJOS
 62
     7
100
AcDbVertex
100
AcDb2dVertex
 10
90.6118018887941
 20
48.30969265992356
 30
0.0
  0
VERTEX
  5
364
330
35E
100
AcDbEntity
  8
DIBUJOS
 62
     7
100
AcDbVertex
100
AcDb2dVertex
 10
90.5446018942761
 20
48.32081699862895
 30
0.0
  0
VERTEX
  5
365
330
35E
100
AcDbEntity
  8
DIBUJOS
 62
     7
100
AcDbVertex
100
AcDb2dVertex
 10
89.37308505647523
 20
48.34096025623457
 30
0.0
  0
VERTEX
  5
366
330
35E
100
AcDbEntity
  8
DIBUJOS
 62
     7
100
AcDbVertex
100
AcDb2dVertex
 10
89.35627487762768
 20
48.34096025623553
 30
0.0
  0
VERTEX
  5
367
330
35E
100
AcDbEntity
  8
DIBUJOS
 62
     7
100
AcDbVertex
100
AcDb2dVertex
 10
86.19584210807716
 20
48.34380166826944
 30
0.0
  0
VERTEX
  5
368
330
35E
100
AcDbEntity
  8
DIBUJOS
 62
     7
100
AcDbVertex
100
AcDb2dVertex
 10
85.35538746020518
 20
48.35493203973059
 30
0.0
  0
VERTEX
  5
369
330
35E
100
AcDbEntity
  8
DIBUJOS
 62
     7
100
AcDbVertex
100
AcDb2dVertex
 10
84.85103383301237
 20
48.3577704352849
 30
0.0
  0
VERTEX
  5
36A
330
35E
100
AcDbEntity
  8
DIBUJOS
 62
     7
100
AcDbVertex
100
AcDb2dVertex
 10
84.18429442109854
 20
48.33824553172978
 30
0.0
  0
VERTEX
  5
36B
330
35E
100
AcDbEntity
  8
DIBUJOS
 62
     7
100
AcDbVertex
100
AcDb2dVertex
 10
83.67989404031306
 20
48.33535585808769
 30
0.0
  0
VERTEX
  5
36C
330
35E
100
AcDbEntity
  8
DIBUJOS
 62
     7
100
AcDbVertex
100
AcDb2dVertex
 10
83.57917775254803
 20
48.34359957221181
 30
0.0
  0
VERTEX
  5
36D
330
35E
100
AcDbEntity
  8
DIBUJOS
 62
     7
100
AcDbVertex
100
AcDb2dVertex
 10
82.90082987601991
 20
48.32675319706515
 30
0.0
  0
VERTEX
  5
36E
330
35E
100
AcDbEntity
  8
DIBUJOS
 62
     7
100
AcDbVertex
100
AcDb2dVertex
 10
82.77239474050354
 20
48.31608734521309
 30
0.0
  0
VERTEX
  5
36F
330
35E
100
AcDbEntity
  8
DIBUJOS
 62
     7
100
AcDbVertex
100
AcDb2dVertex
 10
82.63763731270944
 20
48.31294429724559
 30
0.0
  0
VERTEX
  5
370
330
35E
100
AcDbEntity
  8
DIBUJOS
 62
     7
100
AcDbVertex
100
AcDb2dVertex
 10
82.45299380150338
 20
48.33781720857156
 30
0.0
  0
VERTEX
  5
371
330
35E
100
AcDbEntity
  8
DIBUJOS
 62
     7
100
AcDbVertex
100
AcDb2dVertex
 10
81.7018475647777
 20
48.35216905338468
 30
0.0
  0
VERTEX
  5
372
330
35E
100
AcDbEntity
  8
DIBUJOS
 62
     7
100
AcDbVertex
100
AcDb2dVertex
 10
81.61776801511256
 20
48.3493909850733
 30
0.0
  0
VERTEX
  5
373
330
35E
100
AcDbEntity
  8
DIBUJOS
 62
     7
100
AcDbVertex
100
AcDb2dVertex
 10
81.01821653227451
 20
48.35216905341515
 30
0.0
  0
SEQEND
  5
374
330
35E
100
AcDbEntity
  8
DIBUJOS
 62
     7
  0
POLYLINE
  5
375
330
340
100
AcDbEntity
  8
DIBUJOS
 62
     7
100
AcDb2dPolyline
 66
     1
 10
0.0
 20
0.0
 30
0.0
  0
VERTEX
  5
376
330
375
100
AcDbEntity
  8
DIBUJOS
 62
     7
100
AcDbVertex
100
AcDb2dVertex
 10
74.53492750393345
 20
48.16725105366394
 30
0.0
  0
VERTEX
  5
377
330
375
100
AcDbEntity
  8
DIBUJOS
 62
     7
100
AcDbVertex
100
AcDb2dVertex
 10
74.53492750393345
 20
48.17285545206686
 30
0.0
  0
VERTEX
  5
378
330
375
100
AcDbEntity
  8
DIBUJOS
 62
     7
100
AcDbVertex
100
AcDb2dVertex
 10
74.62402476982396
 20
48.23000945687166
 30
0.0
  0
VERTEX
  5
379
330
375
100
AcDbEntity
  8
DIBUJOS
 62
     7
100
AcDbVertex
100
AcDb2dVertex
 10
74.82113791666283
 20
48.28837302236016
 30
0.0
  0
VERTEX
  5
37A
330
375
100
AcDbEntity
  8
DIBUJOS
 62
     7
100
AcDbVertex
100
AcDb2dVertex
 10
74.84268981471821
 20
48.29268340197027
 30
0.0
  0
VERTEX
  5
37B
330
375
100
AcDbEntity
  8
DIBUJOS
 62
     7
100
AcDbVertex
100
AcDb2dVertex
 10
75.12899976735021
 20
48.32145043509315
 30
0.0
  0
VERTEX
  5
37C
330
375
100
AcDbEntity
  8
DIBUJOS
 62
     7
100
AcDbVertex
100
AcDb2dVertex
 10
75.28010134624468
 20
48.32684972095339
 30
0.0
  0
VERTEX
  5
37D
330
375
100
AcDbEntity
  8
DIBUJOS
 62
     7
100
AcDbVertex
100
AcDb2dVertex
 10
76.78194438193724
 20
48.34656465520283
 30
0.0
  0
VERTEX
  5
37E
330
375
100
AcDbEntity
  8
DIBUJOS
 62
     7
100
AcDbVertex
100
AcDb2dVertex
 10
77.13496718681262
 20
48.33535585838191
 30
0.0
  0
VERTEX
  5
37F
330
375
100
AcDbEntity
  8
DIBUJOS
 62
     7
100
AcDbVertex
100
AcDb2dVertex
 10
78.06515404452574
 20
48.33535585833988
 30
0.0
  0
VERTEX
  5
380
330
375
100
AcDbEntity
  8
DIBUJOS
 62
     7
100
AcDbVertex
100
AcDb2dVertex
 10
79.91992336154811
 20
48.35496823630466
 30
0.0
  0
VERTEX
  5
381
330
375
100
AcDbEntity
  8
DIBUJOS
 62
     7
100
AcDbVertex
100
AcDb2dVertex
 10
80.35713882961934
 20
48.35481440188411
 30
0.0
  0
VERTEX
  5
382
330
375
100
AcDbEntity
  8
DIBUJOS
 62
     7
100
AcDbVertex
100
AcDb2dVertex
 10
80.45772390568835
 20
48.34952068864084
 30
0.0
  0
VERTEX
  5
383
330
375
100
AcDbEntity
  8
DIBUJOS
 62
     7
100
AcDbVertex
100
AcDb2dVertex
 10
80.71576452471784
 20
48.33831490818466
 30
0.0
  0
VERTEX
  5
384
330
375
100
AcDbEntity
  8
DIBUJOS
 62
     7
100
AcDbVertex
100
AcDb2dVertex
 10
81.00700924364943
 20
48.3521690534158
 30
0.0
  0
SEQEND
  5
385
330
375
100
AcDbEntity
  8
DIBUJOS
 62
     7
  0
POLYLINE
  5
386
330
340
100
AcDbEntity
  8
DIBUJOS
 62
     7
100
AcDb2dPolyline
 66
     1
 10
0.0
 20
0.0
 30
0.0
  0
VERTEX
  5
387
330
386
100
AcDbEntity
  8
DIBUJOS
 62
     7
100
AcDbVertex
100
AcDb2dVertex
 10
91.44078908691276
 20
48.15604527246018
 30
0.0
  0
VERTEX
  5
388
330
386
100
AcDbEntity
  8
DIBUJOS
 62
     7
100
AcDbVertex
100
AcDb2dVertex
 10
91.49928461822165
 20
48.71612314943121
 30
0.0
  0
VERTEX
  5
389
330
386
100
AcDbEntity
  8
DIBUJOS
 62
     7
100
AcDbVertex
100
AcDb2dVertex
 10
91.65540466745723
 20
49.33222691225971
 30
0.0
  0
VERTEX
  5
38A
330
386
100
AcDbEntity
  8
DIBUJOS
 62
     7
100
AcDbVertex
100
AcDb2dVertex
 10
91.70778075673617
 20
49.52940340267064
 30
0.0
  0
VERTEX
  5
38B
330
386
100
AcDbEntity
  8
DIBUJOS
 62
     7
100
AcDbVertex
100
AcDb2dVertex
 10
91.97760780571227
 20
50.51008866503143
 30
0.0
  0
VERTEX
  5
38C
330
386
100
AcDbEntity
  8
DIBUJOS
 62
     7
100
AcDbVertex
100
AcDb2dVertex
 10
92.07791085205993
 20
50.83509249425023
 30
0.0
  0
VERTEX
  5
38D
330
386
100
AcDbEntity
  8
DIBUJOS
 62
     7
100
AcDbVertex
100
AcDb2dVertex
 10
92.13674798621321
 20
51.00768262762031
 30
0.0
  0
VERTEX
  5
38E
330
386
100
AcDbEntity
  8
DIBUJOS
 62
     7
100
AcDbVertex
100
AcDb2dVertex
 10
92.18493812076142
 20
51.11527018532961
 30
0.0
  0
VERTEX
  5
38F
330
386
100
AcDbEntity
  8
DIBUJOS
 62
     7
100
AcDbVertex
100
AcDb2dVertex
 10
92.21840087360522
 20
51.16093487177515
 30
0.0
  0
VERTEX
  5
390
330
386
100
AcDbEntity
  8
DIBUJOS
 62
     7
100
AcDbVertex
100
AcDb2dVertex
 10
92.2836568235786
 20
51.21841464354946
 30
0.0
  0
VERTEX
  5
391
330
386
100
AcDbEntity
  8
DIBUJOS
 62
     7
100
AcDbVertex
100
AcDb2dVertex
 10
92.29869036590293
 20
51.225098899125
 30
0.0
  0
VERTEX
  5
392
330
386
100
AcDbEntity
  8
DIBUJOS
 62
     7
100
AcDbVertex
100
AcDb2dVertex
 10
92.30821603337152
 20
51.22902318455091
 30
0.0
  0
VERTEX
  5
393
330
386
100
AcDbEntity
  8
DIBUJOS
 62
     7
100
AcDbVertex
100
AcDb2dVertex
 10
92.36575085373492
 20
51.25252666805407
 30
0.0
  0
VERTEX
  5
394
330
386
100
AcDbEntity
  8
DIBUJOS
 62
     7
100
AcDbVertex
100
AcDb2dVertex
 10
92.43162591176383
 20
51.2643568351853
 30
0.0
  0
VERTEX
  5
395
330
386
100
AcDbEntity
  8
DIBUJOS
 62
     7
100
AcDbVertex
100
AcDb2dVertex
 10
92.44382181264734
 20
51.27160816659524
 30
0.0
  0
SEQEND
  5
396
330
386
100
AcDbEntity
  8
DIBUJOS
 62
     7
  0
POLYLINE
  5
397
330
340
100
AcDbEntity
  8
DIBUJOS
 62
     7
100
AcDb2dPolyline
 66
     1
 10
0.0
 20
0.0
 30
0.0
  0
VERTEX
  5
398
330
397
100
AcDbEntity
  8
DIBUJOS
 62
     7
100
AcDbVertex
100
AcDb2dVertex
 10
74.52371870702815
 20
45.9426487529196
 30
0.0
  0
VERTEX
  5
399
330
397
100
AcDbEntity
  8
DIBUJOS
 62
     7
100
AcDbVertex
100
AcDb2dVertex
 10
74.51811732498643
 20
45.93704435451669
 30
0.0
  0
VERTEX
  5
39A
330
397
100
AcDbEntity
  8
DIBUJOS
 62
     7
100
AcDbVertex
100
AcDb2dVertex
 10
74.4671257453318
 20
45.9415266666966
 30
0.0
  0
VERTEX
  5
39B
330
397
100
AcDbEntity
  8
DIBUJOS
 62
     7
100
AcDbVertex
100
AcDb2dVertex
 10
74.46264041679294
 20
45.94376782278591
 30
0.0
  0
VERTEX
  5
39C
330
397
100
AcDbEntity
  8
DIBUJOS
 62
     7
100
AcDbVertex
100
AcDb2dVertex
 10
74.40044305669625
 20
45.99868368786934
 30
0.0
  0
VERTEX
  5
39D
330
397
100
AcDbEntity
  8
DIBUJOS
 62
     7
100
AcDbVertex
100
AcDb2dVertex
 10
74.40604745513318
 20
46.75515983416435
 30
0.0
  0
VERTEX
  5
39E
330
397
100
AcDbEntity
  8
DIBUJOS
 62
     7
100
AcDbVertex
100
AcDb2dVertex
 10
74.40044305673122
 20
46.76076423256694
 30
0.0
  0
VERTEX
  5
39F
330
397
100
AcDbEntity
  8
DIBUJOS
 62
     7
100
AcDbVertex
100
AcDb2dVertex
 10
74.41484014697741
 20
47.982634689709
 30
0.0
  0
VERTEX
  5
3A0
330
397
100
AcDbEntity
  8
DIBUJOS
 62
     7
100
AcDbVertex
100
AcDb2dVertex
 10
74.42958110230673
 20
48.08263911631935
 30
0.0
  0
VERTEX
  5
3A1
330
397
100
AcDbEntity
  8
DIBUJOS
 62
     7
100
AcDbVertex
100
AcDb2dVertex
 10
74.43294434462162
 20
48.08936258458632
 30
0.0
  0
VERTEX
  5
3A2
330
397
100
AcDbEntity
  8
DIBUJOS
 62
     7
100
AcDbVertex
100
AcDb2dVertex
 10
74.46098745116203
 20
48.11818692857648
 30
0.0
  0
VERTEX
  5
3A3
330
397
100
AcDbEntity
  8
DIBUJOS
 62
     7
100
AcDbVertex
100
AcDb2dVertex
 10
74.51867836819852
 20
48.15996654228562
 30
0.0
  0
VERTEX
  5
3A4
330
397
100
AcDbEntity
  8
DIBUJOS
 62
     7
100
AcDbVertex
100
AcDb2dVertex
 10
74.52932310553085
 20
48.16164665526167
 30
0.0
  0
SEQEND
  5
3A5
330
397
100
AcDbEntity
  8
DIBUJOS
 62
     7
  0
POLYLINE
  5
3A6
330
340
100
AcDbEntity
  8
DIBUJOS
 62
     7
100
AcDb2dPolyline
 66
     1
 10
0.0
 20
0.0
 30
0.0
  0
VERTEX
  5
3A7
330
3A6
100
AcDbEntity
  8
DIBUJOS
 62
     7
100
AcDbVertex
100
AcDb2dVertex
 10
93.12184920059799
 20
45.92583857323688
 30
0.0
  0
VERTEX
  5
3A8
330
3A6
100
AcDbEntity
  8
DIBUJOS
 62
     7
100
AcDbVertex
100
AcDb2dVertex
 10
93.18928899580173
 20
45.93447441426054
 30
0.0
  0
VERTEX
  5
3A9
330
3A6
100
AcDbEntity
  8
DIBUJOS
 62
     7
100
AcDbVertex
100
AcDb2dVertex
 10
93.28435186930001
 20
45.94264875207706
 30
0.0
  0
VERTEX
  5
3AA
330
3A6
100
AcDbEntity
  8
DIBUJOS
 62
     7
100
AcDbVertex
100
AcDb2dVertex
 10
93.29443782579246
 20
45.96001997403626
 30
0.0
  0
VERTEX
  5
3AB
330
3A6
100
AcDbEntity
  8
DIBUJOS
 62
     7
100
AcDbVertex
100
AcDb2dVertex
 10
93.31150741167049
 20
45.97756312856143
 30
0.0
  0
VERTEX
  5
3AC
330
3A6
100
AcDbEntity
  8
DIBUJOS
 62
     7
100
AcDbVertex
100
AcDb2dVertex
 10
93.32918026971281
 20
45.98747790657477
 30
0.0
  0
VERTEX
  5
3AD
330
3A6
100
AcDbEntity
  8
DIBUJOS
 62
     7
100
AcDbVertex
100
AcDb2dVertex
 10
93.35327495994125
 20
46.0373474000035
 30
0.0
  0
VERTEX
  5
3AE
330
3A6
100
AcDbEntity
  8
DIBUJOS
 62
     7
100
AcDbVertex
100
AcDb2dVertex
 10
93.35452901195191
 20
46.04363349595133
 30
0.0
  0
VERTEX
  5
3AF
330
3A6
100
AcDbEntity
  8
DIBUJOS
 62
     7
100
AcDbVertex
100
AcDb2dVertex
 10
93.3628013815076
 20
46.21161764635221
 30
0.0
  0
VERTEX
  5
3B0
330
3A6
100
AcDbEntity
  8
DIBUJOS
 62
     7
100
AcDbVertex
100
AcDb2dVertex
 10
93.37961156044369
 20
48.18966563006801
 30
0.0
  0
VERTEX
  5
3B1
330
3A6
100
AcDbEntity
  8
DIBUJOS
 62
     7
100
AcDbVertex
100
AcDb2dVertex
 10
93.38521520475624
 20
48.1952700284706
 30
0.0
  0
VERTEX
  5
3B2
330
3A6
100
AcDbEntity
  8
DIBUJOS
 62
     7
100
AcDbVertex
100
AcDb2dVertex
 10
93.37961156052391
 20
49.98279561374222
 30
0.0
  0
VERTEX
  5
3B3
330
3A6
100
AcDbEntity
  8
DIBUJOS
 62
     7
100
AcDbVertex
100
AcDb2dVertex
 10
93.37120647111907
 20
50.39745775196608
 30
0.0
  0
VERTEX
  5
3B4
330
3A6
100
AcDbEntity
  8
DIBUJOS
 62
     7
100
AcDbVertex
100
AcDb2dVertex
 10
93.37400791622998
 20
50.403062150369
 30
0.0
  0
VERTEX
  5
3B5
330
3A6
100
AcDbEntity
  8
DIBUJOS
 62
     7
100
AcDbVertex
100
AcDb2dVertex
 10
93.3539476086265
 20
50.99176830788171
 30
0.0
  0
VERTEX
  5
3B6
330
3A6
100
AcDbEntity
  8
DIBUJOS
 62
     7
100
AcDbVertex
100
AcDb2dVertex
 10
93.34371912909037
 20
51.0582971621182
 30
0.0
  0
VERTEX
  5
3B7
330
3A6
100
AcDbEntity
  8
DIBUJOS
 62
     7
100
AcDbVertex
100
AcDb2dVertex
 10
93.31068846994043
 20
51.15897725355426
 30
0.0
  0
VERTEX
  5
3B8
330
3A6
100
AcDbEntity
  8
DIBUJOS
 62
     7
100
AcDbVertex
100
AcDb2dVertex
 10
93.30004147033857
 20
51.18139183080505
 30
0.0
  0
VERTEX
  5
3B9
330
3A6
100
AcDbEntity
  8
DIBUJOS
 62
     7
100
AcDbVertex
100
AcDb2dVertex
 10
93.26193729228794
 20
51.24359220726615
 30
0.0
  0
VERTEX
  5
3BA
330
3A6
100
AcDbEntity
  8
DIBUJOS
 62
     7
100
AcDbVertex
100
AcDb2dVertex
 10
93.25734262066993
 20
51.24493448783142
 30
0.0
  0
VERTEX
  5
3BB
330
3A6
100
AcDbEntity
  8
DIBUJOS
 62
     7
100
AcDbVertex
100
AcDb2dVertex
 10
93.22179028387116
 20
51.2674546377117
 30
0.0
  0
VERTEX
  5
3BC
330
3A6
100
AcDbEntity
  8
DIBUJOS
 62
     7
100
AcDbVertex
100
AcDb2dVertex
 10
93.18348778009512
 20
51.27160816656187
 30
0.0
  0
SEQEND
  5
3BD
330
3A6
100
AcDbEntity
  8
DIBUJOS
 62
     7
  0
POLYLINE
  5
3BE
330
340
100
AcDbEntity
  8
DIBUJOS
 62
     7
100
AcDb2dPolyline
 66
     1
 10
0.0
 20
0.0
 30
0.0
  0
VERTEX
  5
3BF
330
3BE
100
AcDbEntity
  8
DIBUJOS
 62
     7
100
AcDbVertex
100
AcDb2dVertex
 10
93.11624555628481
 20
45.92583857323688
 30
0.0
  0
VERTEX
  5
3C0
330
3BE
100
AcDbEntity
  8
DIBUJOS
 62
     7
100
AcDbVertex
100
AcDb2dVertex
 10
93.12184920059799
 20
45.92583857323688
 30
0.0
  0
SEQEND
  5
3C1
330
3BE
100
AcDbEntity
  8
DIBUJOS
 62
     7
  0
POLYLINE
  5
3C2
330
340
100
AcDbEntity
  8
DIBUJOS
 62
     7
100
AcDb2dPolyline
 66
     1
 10
0.0
 20
0.0
 30
0.0
  0
VERTEX
  5
3C3
330
3C2
100
AcDbEntity
  8
DIBUJOS
 62
     7
100
AcDbVertex
100
AcDb2dVertex
 10
93.11064191197292
 20
45.92583857323721
 30
0.0
  0
VERTEX
  5
3C4
330
3C2
100
AcDbEntity
  8
DIBUJOS
 62
     7
100
AcDbVertex
100
AcDb2dVertex
 10
93.11624555628481
 20
45.92583857323688
 30
0.0
  0
SEQEND
  5
3C5
330
3C2
100
AcDbEntity
  8
DIBUJOS
 62
     7
  0
POLYLINE
  5
3C6
330
340
100
AcDbEntity
  8
DIBUJOS
 62
     7
100
AcDb2dPolyline
 66
     1
 10
0.0
 20
0.0
 30
0.0
  0
VERTEX
  5
3C7
330
3C6
100
AcDbEntity
  8
DIBUJOS
 62
     7
100
AcDbVertex
100
AcDb2dVertex
 10
74.6245827964724
 20
45.92583857406724
 30
0.0
  0
VERTEX
  5
3C8
330
3C6
100
AcDbEntity
  8
DIBUJOS
 62
     7
100
AcDbVertex
100
AcDb2dVertex
 10
74.64699737372318
 20
45.93704435451091
 30
0.0
  0
VERTEX
  5
3C9
330
3C6
100
AcDbEntity
  8
DIBUJOS
 62
     7
100
AcDbVertex
100
AcDb2dVertex
 10
74.65820617052869
 20
45.93424215530865
 30
0.0
  0
VERTEX
  5
3CA
330
3C6
100
AcDbEntity
  8
DIBUJOS
 62
     7
100
AcDbVertex
100
AcDb2dVertex
 10
93.11064191197292
 20
45.92583857323721
 30
0.0
  0
SEQEND
  5
3CB
330
3C6
100
AcDbEntity
  8
DIBUJOS
 62
     7
  0
POLYLINE
  5
3CC
330
340
100
AcDbEntity
  8
DIBUJOS
 62
     7
100
AcDb2dPolyline
 66
     1
 10
0.0
 20
0.0
 30
0.0
  0
VERTEX
  5
3CD
330
3CC
100
AcDbEntity
  8
DIBUJOS
 62
     7
100
AcDbVertex
100
AcDb2dVertex
 10
93.11624555628481
 20
45.92023417483429
 30
0.0
  0
VERTEX
  5
3CE
330
3CC
100
AcDbEntity
  8
DIBUJOS
 62
     7
100
AcDbVertex
100
AcDb2dVertex
 10
93.11624555628481
 20
45.92583857323688
 30
0.0
  0
SEQEND
  5
3CF
330
3CC
100
AcDbEntity
  8
DIBUJOS
 62
     7
  0
POLYLINE
  5
3D0
330
340
100
AcDbEntity
  8
DIBUJOS
 62
     7
100
AcDb2dPolyline
 66
     1
 10
0.0
 20
0.0
 30
0.0
  0
VERTEX
  5
3D1
330
3D0
100
AcDbEntity
  8
DIBUJOS
 62
     7
100
AcDbVertex
100
AcDb2dVertex
 10
93.11624555628481
 20
45.92023417483429
 30
0.0
  0
VERTEX
  5
3D2
330
3D0
100
AcDbEntity
  8
DIBUJOS
 62
     7
100
AcDbVertex
100
AcDb2dVertex
 10
93.1106419119049
 20
44.40727886588403
 30
0.0
  0
VERTEX
  5
3D3
330
3D0
100
AcDbEntity
  8
DIBUJOS
 62
     7
100
AcDbVertex
100
AcDb2dVertex
 10
93.082624444388
 20
43.41545418300576
 30
0.0
  0
VERTEX
  5
3D4
330
3D0
100
AcDbEntity
  8
DIBUJOS
 62
     7
100
AcDbVertex
100
AcDb2dVertex
 10
93.07141715576229
 20
43.40424840256176
 30
0.0
  0
VERTEX
  5
3D5
330
3D0
100
AcDbEntity
  8
DIBUJOS
 62
     7
100
AcDbVertex
100
AcDb2dVertex
 10
92.93132906431042
 20
43.40424840256786
 30
0.0
  0
VERTEX
  5
3D6
330
3D0
100
AcDbEntity
  8
DIBUJOS
 62
     7
100
AcDbVertex
100
AcDb2dVertex
 10
92.92572541999724
 20
43.4098497846099
 30
0.0
  0
VERTEX
  5
3D7
330
3D0
100
AcDbEntity
  8
DIBUJOS
 62
     7
100
AcDbVertex
100
AcDb2dVertex
 10
92.89485899976755
 20
44.21120334717958
 30
0.0
  0
VERTEX
  5
3D8
330
3D0
100
AcDbEntity
  8
DIBUJOS
 62
     7
100
AcDbVertex
100
AcDb2dVertex
 10
92.88650066395216
 20
44.56417789028346
 30
0.0
  0
VERTEX
  5
3D9
330
3D0
100
AcDbEntity
  8
DIBUJOS
 62
     7
100
AcDbVertex
100
AcDb2dVertex
 10
92.89210430826535
 20
44.56978228868606
 30
0.0
  0
VERTEX
  5
3DA
330
3D0
100
AcDbEntity
  8
DIBUJOS
 62
     7
100
AcDbVertex
100
AcDb2dVertex
 10
92.88650066399772
 20
45.58402154881544
 30
0.0
  0
VERTEX
  5
3DB
330
3D0
100
AcDbEntity
  8
DIBUJOS
 62
     7
100
AcDbVertex
100
AcDb2dVertex
 10
92.87529337537329
 20
45.59523034562127
 30
0.0
  0
VERTEX
  5
3DC
330
3D0
100
AcDbEntity
  8
DIBUJOS
 62
     7
100
AcDbVertex
100
AcDb2dVertex
 10
74.85993133304122
 20
45.59523034643014
 30
0.0
  0
VERTEX
  5
3DD
330
3D0
100
AcDbEntity
  8
DIBUJOS
 62
     7
100
AcDbVertex
100
AcDb2dVertex
 10
74.84872555259626
 20
45.58402154962526
 30
0.0
  0
VERTEX
  5
3DE
330
3D0
100
AcDbEntity
  8
DIBUJOS
 62
     7
100
AcDbVertex
100
AcDb2dVertex
 10
74.84035213490333
 20
44.27842898157552
 30
0.0
  0
VERTEX
  5
3DF
330
3D0
100
AcDbEntity
  8
DIBUJOS
 62
     7
100
AcDbVertex
100
AcDb2dVertex
 10
74.8124146009552
 20
43.45478149619151
 30
0.0
  0
VERTEX
  5
3E0
330
3D0
100
AcDbEntity
  8
DIBUJOS
 62
     7
100
AcDbVertex
100
AcDb2dVertex
 10
74.80950079640104
 20
43.40984978542325
 30
0.0
  0
VERTEX
  5
3E1
330
3D0
100
AcDbEntity
  8
DIBUJOS
 62
     7
100
AcDbVertex
100
AcDb2dVertex
 10
74.80389639799908
 20
43.40424840338186
 30
0.0
  0
VERTEX
  5
3E2
330
3D0
100
AcDbEntity
  8
DIBUJOS
 62
     7
100
AcDbVertex
100
AcDb2dVertex
 10
74.6638075524565
 20
43.40424840338827
 30
0.0
  0
VERTEX
  5
3E3
330
3D0
100
AcDbEntity
  8
DIBUJOS
 62
     7
100
AcDbVertex
100
AcDb2dVertex
 10
74.65260177201219
 20
43.41545418383323
 30
0.0
  0
VERTEX
  5
3E4
330
3D0
100
AcDbEntity
  8
DIBUJOS
 62
     7
100
AcDbVertex
100
AcDb2dVertex
 10
74.63850933428347
 20
43.85821372309204
 30
0.0
  0
VERTEX
  5
3E5
330
3D0
100
AcDbEntity
  8
DIBUJOS
 62
     7
100
AcDbVertex
100
AcDb2dVertex
 10
74.6330738520946
 20
44.04296883965064
 30
0.0
  0
VERTEX
  5
3E6
330
3D0
100
AcDbEntity
  8
DIBUJOS
 62
     7
100
AcDbVertex
100
AcDb2dVertex
 10
74.62176551542659
 20
45.03489306243696
 30
0.0
  0
VERTEX
  5
3E7
330
3D0
100
AcDbEntity
  8
DIBUJOS
 62
     7
100
AcDbVertex
100
AcDb2dVertex
 10
74.61898141443068
 20
45.92023417566497
 30
0.0
  0
SEQEND
  5
3E8
330
3D0
100
AcDbEntity
  8
DIBUJOS
 62
     7
  0
ENDBLK
  5
343
330
340
100
AcDbEntity
  8
0
100
AcDbBlockEnd
  0
BLOCK
  5
3EB
330
3E9
100
AcDbEntity
  8
0
100
AcDbBlockBegin
  2
BLOCK_7
 70
     0
 10
0.0
 20
0.0
 30
0.0
  3
BLOCK_7
  1

  0
POLYLINE
  5
3ED
330
3E9
100
AcDbEntity
  8
DIBUJOS
 62
     7
100
AcDb2dPolyline
 66
     1
 10
0.0
 20
0.0
 30
0.0
  0
VERTEX
  5
3EE
330
3ED
100
AcDbEntity
  8
DIBUJOS
 62
     7
100
AcDbVertex
100
AcDb2dVertex
 10
81.11347622261607
 20
32.74632504959659
 30
0.0
  0
VERTEX
  5
3EF
330
3ED
100
AcDbEntity
  8
DIBUJOS
 62
     7
100
AcDbVertex
100
AcDb2dVertex
 10
81.00700924294935
 20
32.76313673662874
 30
0.0
  0
VERTEX
  5
3F0
330
3ED
100
AcDbEntity
  8
DIBUJOS
 62
     7
100
AcDbVertex
100
AcDb2dVertex
 10
80.98347408765663
 20
32.80180044961509
 30
0.0
  0
VERTEX
  5
3F1
330
3ED
100
AcDbEntity
  8
DIBUJOS
 62
     7
100
AcDbVertex
100
AcDb2dVertex
 10
80.96778448685487
 20
32.83598185042282
 30
0.0
  0
VERTEX
  5
3F2
330
3ED
100
AcDbEntity
  8
DIBUJOS
 62
     7
100
AcDbVertex
100
AcDb2dVertex
 10
80.96778448690362
 20
33.92306773252479
 30
0.0
  0
VERTEX
  5
3F3
330
3ED
100
AcDbEntity
  8
DIBUJOS
 62
     7
100
AcDbVertex
100
AcDb2dVertex
 10
80.98347408773043
 20
34.45036078374983
 30
0.0
  0
VERTEX
  5
3F4
330
3ED
100
AcDbEntity
  8
DIBUJOS
 62
     7
100
AcDbVertex
100
AcDb2dVertex
 10
80.99580195440191
 20
34.48342160651178
 30
0.0
  0
VERTEX
  5
3F5
330
3ED
100
AcDbEntity
  8
DIBUJOS
 62
     7
100
AcDbVertex
100
AcDb2dVertex
 10
80.98459466577684
 20
34.49462889513749
 30
0.0
  0
SEQEND
  5
3F6
330
3ED
100
AcDbEntity
  8
DIBUJOS
 62
     7
  0
POLYLINE
  5
3F7
330
3E9
100
AcDbEntity
  8
DIBUJOS
 62
     7
100
AcDb2dPolyline
 66
     1
 10
0.0
 20
0.0
 30
0.0
  0
VERTEX
  5
3F8
330
3F7
100
AcDbEntity
  8
DIBUJOS
 62
     7
100
AcDbVertex
100
AcDb2dVertex
 10
91.37915050696195
 20
32.70710029303815
 30
0.0
  0
VERTEX
  5
3F9
330
3F7
100
AcDbEntity
  8
DIBUJOS
 62
     7
100
AcDbVertex
100
AcDb2dVertex
 10
91.36133060133109
 20
32.72256668314127
 30
0.0
  0
VERTEX
  5
3FA
330
3F7
100
AcDbEntity
  8
DIBUJOS
 62
     7
100
AcDbVertex
100
AcDb2dVertex
 10
91.3169508845941
 20
32.74464493616205
 30
0.0
  0
VERTEX
  5
3FB
330
3F7
100
AcDbEntity
  8
DIBUJOS
 62
     7
100
AcDbVertex
100
AcDb2dVertex
 10
91.3068649281036
 20
32.74800667029553
 30
0.0
  0
VERTEX
  5
3FC
330
3F7
100
AcDbEntity
  8
DIBUJOS
 62
     7
100
AcDbVertex
100
AcDb2dVertex
 10
87.26055262491903
 20
32.74632504932001
 30
0.0
  0
VERTEX
  5
3FD
330
3F7
100
AcDbEntity
  8
DIBUJOS
 62
     7
100
AcDbVertex
100
AcDb2dVertex
 10
81.11347622261607
 20
32.75192944799918
 30
0.0
  0
SEQEND
  5
3FE
330
3F7
100
AcDbEntity
  8
DIBUJOS
 62
     7
  0
POLYLINE
  5
3FF
330
3E9
100
AcDbEntity
  8
DIBUJOS
 62
     7
100
AcDb2dPolyline
 66
     1
 10
0.0
 20
0.0
 30
0.0
  0
VERTEX
  5
400
330
3FF
100
AcDbEntity
  8
DIBUJOS
 62
     7
100
AcDbVertex
100
AcDb2dVertex
 10
91.43518544170826
 20
28.26910222607935
 30
0.0
  0
VERTEX
  5
401
330
3FF
100
AcDbEntity
  8
DIBUJOS
 62
     7
100
AcDbVertex
100
AcDb2dVertex
 10
91.44078908621908
 20
32.70710029303559
 30
0.0
  0
SEQEND
  5
402
330
3FF
100
AcDbEntity
  8
DIBUJOS
 62
     7
  0
POLYLINE
  5
403
330
3E9
100
AcDbEntity
  8
DIBUJOS
 62
     7
100
AcDb2dPolyline
 66
     1
 10
0.0
 20
0.0
 30
0.0
  0
VERTEX
  5
404
330
403
100
AcDbEntity
  8
DIBUJOS
 62
     7
100
AcDbVertex
100
AcDb2dVertex
 10
93.19469506768962
 20
28.31393062641065
 30
0.0
  0
VERTEX
  5
405
330
403
100
AcDbEntity
  8
DIBUJOS
 62
     7
100
AcDbVertex
100
AcDb2dVertex
 10
93.20085900102409
 20
28.31841293858799
 30
0.0
  0
VERTEX
  5
406
330
403
100
AcDbEntity
  8
DIBUJOS
 62
     7
100
AcDbVertex
100
AcDb2dVertex
 10
93.22271253516224
 20
28.3251379150338
 30
0.0
  0
VERTEX
  5
407
330
403
100
AcDbEntity
  8
DIBUJOS
 62
     7
100
AcDbVertex
100
AcDb2dVertex
 10
93.25633364694869
 20
28.35875902681767
 30
0.0
  0
VERTEX
  5
408
330
403
100
AcDbEntity
  8
DIBUJOS
 62
     7
100
AcDbVertex
100
AcDb2dVertex
 10
93.27677024559318
 20
28.42089228924873
 30
0.0
  0
VERTEX
  5
409
330
403
100
AcDbEntity
  8
DIBUJOS
 62
     7
100
AcDbVertex
100
AcDb2dVertex
 10
93.29163637989546
 20
28.47026936177308
 30
0.0
  0
VERTEX
  5
40A
330
403
100
AcDbEntity
  8
DIBUJOS
 62
     7
100
AcDbVertex
100
AcDb2dVertex
 10
93.32573181442615
 20
28.632900979899
 30
0.0
  0
VERTEX
  5
40B
330
403
100
AcDbEntity
  8
DIBUJOS
 62
     7
100
AcDbVertex
100
AcDb2dVertex
 10
93.34265887725921
 20
28.72821345725443
 30
0.0
  0
VERTEX
  5
40C
330
403
100
AcDbEntity
  8
DIBUJOS
 62
     7
100
AcDbVertex
100
AcDb2dVertex
 10
93.35455992887624
 20
28.79598128169688
 30
0.0
  0
VERTEX
  5
40D
330
403
100
AcDbEntity
  8
DIBUJOS
 62
     7
100
AcDbVertex
100
AcDb2dVertex
 10
93.3598355439539
 20
28.89094763164896
 30
0.0
  0
VERTEX
  5
40E
330
403
100
AcDbEntity
  8
DIBUJOS
 62
     7
100
AcDbVertex
100
AcDb2dVertex
 10
93.37676336091104
 20
29.72597584640572
 30
0.0
  0
VERTEX
  5
40F
330
403
100
AcDbEntity
  8
DIBUJOS
 62
     7
100
AcDbVertex
100
AcDb2dVertex
 10
93.38521520400481
 20
31.46311689463698
 30
0.0
  0
VERTEX
  5
410
330
403
100
AcDbEntity
  8
DIBUJOS
 62
     7
100
AcDbVertex
100
AcDb2dVertex
 10
93.36563751418372
 20
33.20017876339789
 30
0.0
  0
VERTEX
  5
411
330
403
100
AcDbEntity
  8
DIBUJOS
 62
     7
100
AcDbVertex
100
AcDb2dVertex
 10
93.33215590911473
 20
33.82765269834503
 30
0.0
  0
VERTEX
  5
412
330
403
100
AcDbEntity
  8
DIBUJOS
 62
     7
100
AcDbVertex
100
AcDb2dVertex
 10
93.3205436740636
 20
34.13619926293722
 30
0.0
  0
VERTEX
  5
413
330
403
100
AcDbEntity
  8
DIBUJOS
 62
     7
100
AcDbVertex
100
AcDb2dVertex
 10
93.31540153295981
 20
34.20304634324069
 30
0.0
  0
VERTEX
  5
414
330
403
100
AcDbEntity
  8
DIBUJOS
 62
     7
100
AcDbVertex
100
AcDb2dVertex
 10
93.25438205417976
 20
34.43993054652526
 30
0.0
  0
VERTEX
  5
415
330
403
100
AcDbEntity
  8
DIBUJOS
 62
     7
100
AcDbVertex
100
AcDb2dVertex
 10
93.12354890422635
 20
34.56119790761183
 30
0.0
  0
SEQEND
  5
416
330
403
100
AcDbEntity
  8
DIBUJOS
 62
     7
  0
POLYLINE
  5
417
330
3E9
100
AcDbEntity
  8
DIBUJOS
 62
     7
100
AcDb2dPolyline
 66
     1
 10
0.0
 20
0.0
 30
0.0
  0
VERTEX
  5
418
330
417
100
AcDbEntity
  8
DIBUJOS
 62
     7
100
AcDbVertex
100
AcDb2dVertex
 10
74.45647799084546
 20
28.26910222684169
 30
0.0
  0
VERTEX
  5
419
330
417
100
AcDbEntity
  8
DIBUJOS
 62
     7
100
AcDbVertex
100
AcDb2dVertex
 10
74.43406341359595
 20
28.28591315978058
 30
0.0
  0
VERTEX
  5
41A
330
417
100
AcDbEntity
  8
DIBUJOS
 62
     7
100
AcDbVertex
100
AcDb2dVertex
 10
74.43238330062023
 20
28.29655940529303
 30
0.0
  0
VERTEX
  5
41B
330
417
100
AcDbEntity
  8
DIBUJOS
 62
     7
100
AcDbVertex
100
AcDb2dVertex
 10
74.4060474543073
 20
28.3531553833509
 30
0.0
  0
VERTEX
  5
41C
330
417
100
AcDbEntity
  8
DIBUJOS
 62
     7
100
AcDbVertex
100
AcDb2dVertex
 10
74.41164883637725
 20
28.98635437113132
 30
0.0
  0
VERTEX
  5
41D
330
417
100
AcDbEntity
  8
DIBUJOS
 62
     7
100
AcDbVertex
100
AcDb2dVertex
 10
74.40604745433554
 20
28.99195801544385
 30
0.0
  0
VERTEX
  5
41E
330
417
100
AcDbEntity
  8
DIBUJOS
 62
     7
100
AcDbVertex
100
AcDb2dVertex
 10
74.40604745436698
 20
29.68679633657211
 30
0.0
  0
VERTEX
  5
41F
330
417
100
AcDbEntity
  8
DIBUJOS
 62
     7
100
AcDbVertex
100
AcDb2dVertex
 10
74.40604745436698
 20
29.69239998088464
 30
0.0
  0
VERTEX
  5
420
330
417
100
AcDbEntity
  8
DIBUJOS
 62
     7
100
AcDbVertex
100
AcDb2dVertex
 10
74.41996192687635
 20
30.77396893904695
 30
0.0
  0
VERTEX
  5
421
330
417
100
AcDbEntity
  8
DIBUJOS
 62
     7
100
AcDbVertex
100
AcDb2dVertex
 10
74.41164883646549
 20
30.94759217599989
 30
0.0
  0
VERTEX
  5
422
330
417
100
AcDbEntity
  8
DIBUJOS
 62
     7
100
AcDbVertex
100
AcDb2dVertex
 10
74.42285763328576
 20
31.26699311500133
 30
0.0
  0
VERTEX
  5
423
330
417
100
AcDbEntity
  8
DIBUJOS
 62
     7
100
AcDbVertex
100
AcDb2dVertex
 10
74.41725323488316
 20
31.27259600522381
 30
0.0
  0
VERTEX
  5
424
330
417
100
AcDbEntity
  8
DIBUJOS
 62
     7
100
AcDbVertex
100
AcDb2dVertex
 10
74.4228576332864
 20
31.28940769225148
 30
0.0
  0
VERTEX
  5
425
330
417
100
AcDbEntity
  8
DIBUJOS
 62
     7
100
AcDbVertex
100
AcDb2dVertex
 10
74.42285763328704
 20
31.29501058247395
 30
0.0
  0
VERTEX
  5
426
330
417
100
AcDbEntity
  8
DIBUJOS
 62
     7
100
AcDbVertex
100
AcDb2dVertex
 10
74.41455962469759
 20
31.86086780677761
 30
0.0
  0
VERTEX
  5
427
330
417
100
AcDbEntity
  8
DIBUJOS
 62
     7
100
AcDbVertex
100
AcDb2dVertex
 10
74.41455359197967
 20
31.93951338242566
 30
0.0
  0
VERTEX
  5
428
330
417
100
AcDbEntity
  8
DIBUJOS
 62
     7
100
AcDbVertex
100
AcDb2dVertex
 10
74.41994986149251
 20
32.09061646950089
 30
0.0
  0
VERTEX
  5
429
330
417
100
AcDbEntity
  8
DIBUJOS
 62
     7
100
AcDbVertex
100
AcDb2dVertex
 10
74.41164883654923
 20
32.81917167186916
 30
0.0
  0
VERTEX
  5
42A
330
417
100
AcDbEntity
  8
DIBUJOS
 62
     7
100
AcDbVertex
100
AcDb2dVertex
 10
74.40328748437425
 20
33.18896242654235
 30
0.0
  0
VERTEX
  5
42B
330
417
100
AcDbEntity
  8
DIBUJOS
 62
     7
100
AcDbVertex
100
AcDb2dVertex
 10
74.4116488366102
 20
34.16962355802799
 30
0.0
  0
VERTEX
  5
42C
330
417
100
AcDbEntity
  8
DIBUJOS
 62
     7
100
AcDbVertex
100
AcDb2dVertex
 10
74.40884663740921
 20
34.17522644825046
 30
0.0
  0
VERTEX
  5
42D
330
417
100
AcDbEntity
  8
DIBUJOS
 62
     7
100
AcDbVertex
100
AcDb2dVertex
 10
74.41893334800456
 20
34.49967225072199
 30
0.0
  0
VERTEX
  5
42E
330
417
100
AcDbEntity
  8
DIBUJOS
 62
     7
100
AcDbVertex
100
AcDb2dVertex
 10
74.45087359272586
 20
34.57307840762484
 30
0.0
  0
VERTEX
  5
42F
330
417
100
AcDbEntity
  8
DIBUJOS
 62
     7
100
AcDbVertex
100
AcDb2dVertex
 10
74.4839359236692
 20
34.59100916451496
 30
0.0
  0
VERTEX
  5
430
330
417
100
AcDbEntity
  8
DIBUJOS
 62
     7
100
AcDbVertex
100
AcDb2dVertex
 10
74.52316067976753
 20
34.60781934336123
 30
0.0
  0
VERTEX
  5
431
330
417
100
AcDbEntity
  8
DIBUJOS
 62
     7
100
AcDbVertex
100
AcDb2dVertex
 10
75.06165951143817
 20
34.61230316369495
 30
0.0
  0
VERTEX
  5
432
330
417
100
AcDbEntity
  8
DIBUJOS
 62
     7
100
AcDbVertex
100
AcDb2dVertex
 10
76.88841286916804
 20
34.61230316361281
 30
0.0
  0
VERTEX
  5
433
330
417
100
AcDbEntity
  8
DIBUJOS
 62
     7
100
AcDbVertex
100
AcDb2dVertex
 10
78.18843120242269
 20
34.58988858630427
 30
0.0
  0
VERTEX
  5
434
330
417
100
AcDbEntity
  8
DIBUJOS
 62
     7
100
AcDbVertex
100
AcDb2dVertex
 10
78.47414994833326
 20
34.59822882395759
 30
0.0
  0
VERTEX
  5
435
330
417
100
AcDbEntity
  8
DIBUJOS
 62
     7
100
AcDbVertex
100
AcDb2dVertex
 10
79.27551708452467
 20
34.60109587488057
 30
0.0
  0
VERTEX
  5
436
330
417
100
AcDbEntity
  8
DIBUJOS
 62
     7
100
AcDbVertex
100
AcDb2dVertex
 10
79.2811199747465
 20
34.59549147647797
 30
0.0
  0
VERTEX
  5
437
330
417
100
AcDbEntity
  8
DIBUJOS
 62
     7
100
AcDbVertex
100
AcDb2dVertex
 10
79.29795579266184
 20
34.59831931474546
 30
0.0
  0
VERTEX
  5
438
330
417
100
AcDbEntity
  8
DIBUJOS
 62
     7
100
AcDbVertex
100
AcDb2dVertex
 10
80.20570394223715
 20
34.60669876506134
 30
0.0
  0
VERTEX
  5
439
330
417
100
AcDbEntity
  8
DIBUJOS
 62
     7
100
AcDbVertex
100
AcDb2dVertex
 10
93.0853745682649
 20
34.561871118163
 30
0.0
  0
SEQEND
  5
43A
330
417
100
AcDbEntity
  8
DIBUJOS
 62
     7
  0
POLYLINE
  5
43B
330
3E9
100
AcDbEntity
  8
DIBUJOS
 62
     7
100
AcDb2dPolyline
 66
     1
 10
0.0
 20
0.0
 30
0.0
  0
VERTEX
  5
43C
330
43B
100
AcDbEntity
  8
DIBUJOS
 62
     7
100
AcDbVertex
100
AcDb2dVertex
 10
93.18909142337645
 20
28.30832698209812
 30
0.0
  0
VERTEX
  5
43D
330
43B
100
AcDbEntity
  8
DIBUJOS
 62
     7
100
AcDbVertex
100
AcDb2dVertex
 10
93.16163424492511
 20
28.2847918268054
 30
0.0
  0
VERTEX
  5
43E
330
43B
100
AcDbEntity
  8
DIBUJOS
 62
     7
100
AcDbVertex
100
AcDb2dVertex
 10
92.97615746404044
 20
28.25789493738562
 30
0.0
  0
VERTEX
  5
43F
330
43B
100
AcDbEntity
  8
DIBUJOS
 62
     7
100
AcDbVertex
100
AcDb2dVertex
 10
92.70158417135852
 20
28.25789493739781
 30
0.0
  0
VERTEX
  5
440
330
43B
100
AcDbEntity
  8
DIBUJOS
 62
     7
100
AcDbVertex
100
AcDb2dVertex
 10
92.69598052704534
 20
28.26349858171035
 30
0.0
  0
VERTEX
  5
441
330
43B
100
AcDbEntity
  8
DIBUJOS
 62
     7
100
AcDbVertex
100
AcDb2dVertex
 10
92.68477399251097
 20
28.25789493739845
 30
0.0
  0
VERTEX
  5
442
330
43B
100
AcDbEntity
  8
DIBUJOS
 62
     7
100
AcDbVertex
100
AcDb2dVertex
 10
92.64554848232322
 20
28.25789493740038
 30
0.0
  0
VERTEX
  5
443
330
43B
100
AcDbEntity
  8
DIBUJOS
 62
     7
100
AcDbVertex
100
AcDb2dVertex
 10
92.63994559210138
 20
28.26349858171292
 30
0.0
  0
VERTEX
  5
444
330
43B
100
AcDbEntity
  8
DIBUJOS
 62
     7
100
AcDbVertex
100
AcDb2dVertex
 10
92.62873830347631
 20
28.25789493740102
 30
0.0
  0
VERTEX
  5
445
330
43B
100
AcDbEntity
  8
DIBUJOS
 62
     7
100
AcDbVertex
100
AcDb2dVertex
 10
91.82743300268069
 20
28.25789493743696
 30
0.0
  0
VERTEX
  5
446
330
43B
100
AcDbEntity
  8
DIBUJOS
 62
     7
100
AcDbVertex
100
AcDb2dVertex
 10
91.71000833824732
 20
28.27159901873505
 30
0.0
  0
VERTEX
  5
447
330
43B
100
AcDbEntity
  8
DIBUJOS
 62
     7
100
AcDbVertex
100
AcDb2dVertex
 10
91.59231370952008
 20
28.28283571688335
 30
0.0
  0
VERTEX
  5
448
330
43B
100
AcDbEntity
  8
DIBUJOS
 62
     7
100
AcDbVertex
100
AcDb2dVertex
 10
91.33421879599605
 20
28.28299935446923
 30
0.0
  0
VERTEX
  5
449
330
43B
100
AcDbEntity
  8
DIBUJOS
 62
     7
100
AcDbVertex
100
AcDb2dVertex
 10
91.19433732525894
 20
28.27761892086368
 30
0.0
  0
VERTEX
  5
44A
330
43B
100
AcDbEntity
  8
DIBUJOS
 62
     7
100
AcDbVertex
100
AcDb2dVertex
 10
90.90845343359456
 20
28.2691022261031
 30
0.0
  0
VERTEX
  5
44B
330
43B
100
AcDbEntity
  8
DIBUJOS
 62
     7
100
AcDbVertex
100
AcDb2dVertex
 10
90.90284978928139
 20
28.2634985817912
 30
0.0
  0
VERTEX
  5
44C
330
43B
100
AcDbEntity
  8
DIBUJOS
 62
     7
100
AcDbVertex
100
AcDb2dVertex
 10
89.63084816940801
 20
28.26349858184831
 30
0.0
  0
VERTEX
  5
44D
330
43B
100
AcDbEntity
  8
DIBUJOS
 62
     7
100
AcDbVertex
100
AcDb2dVertex
 10
89.62524377100542
 20
28.25789493753578
 30
0.0
  0
VERTEX
  5
44E
330
43B
100
AcDbEntity
  8
DIBUJOS
 62
     7
100
AcDbVertex
100
AcDb2dVertex
 10
89.32835393280033
 20
28.26619671661468
 30
0.0
  0
VERTEX
  5
44F
330
43B
100
AcDbEntity
  8
DIBUJOS
 62
     7
100
AcDbVertex
100
AcDb2dVertex
 10
89.32265301085152
 20
28.26910222617433
 30
0.0
  0
VERTEX
  5
450
330
43B
100
AcDbEntity
  8
DIBUJOS
 62
     7
100
AcDbVertex
100
AcDb2dVertex
 10
88.56057246615359
 20
28.25229129327073
 30
0.0
  0
VERTEX
  5
451
330
43B
100
AcDbEntity
  8
DIBUJOS
 62
     7
100
AcDbVertex
100
AcDb2dVertex
 10
87.02520408813331
 20
28.25229129334003
 30
0.0
  0
VERTEX
  5
452
330
43B
100
AcDbEntity
  8
DIBUJOS
 62
     7
100
AcDbVertex
100
AcDb2dVertex
 10
85.93811820603133
 20
28.26349858201387
 30
0.0
  0
VERTEX
  5
453
330
43B
100
AcDbEntity
  8
DIBUJOS
 62
     7
100
AcDbVertex
100
AcDb2dVertex
 10
84.83992306703126
 20
28.24959315868468
 30
0.0
  0
VERTEX
  5
454
330
43B
100
AcDbEntity
  8
DIBUJOS
 62
     7
100
AcDbVertex
100
AcDb2dVertex
 10
84.07214160038518
 20
28.26349858209793
 30
0.0
  0
VERTEX
  5
455
330
43B
100
AcDbEntity
  8
DIBUJOS
 62
     7
100
AcDbVertex
100
AcDb2dVertex
 10
84.0665387101627
 20
28.2578949377854
 30
0.0
  0
VERTEX
  5
456
330
43B
100
AcDbEntity
  8
DIBUJOS
 62
     7
100
AcDbVertex
100
AcDb2dVertex
 10
83.98808919796797
 20
28.25789493778861
 30
0.0
  0
VERTEX
  5
457
330
43B
100
AcDbEntity
  8
DIBUJOS
 62
     7
100
AcDbVertex
100
AcDb2dVertex
 10
83.98248479956537
 20
28.26349858210179
 30
0.0
  0
VERTEX
  5
458
330
43B
100
AcDbEntity
  8
DIBUJOS
 62
     7
100
AcDbVertex
100
AcDb2dVertex
 10
83.78058468810869
 20
28.26049881127573
 30
0.0
  0
VERTEX
  5
459
330
43B
100
AcDbEntity
  8
DIBUJOS
 62
     7
100
AcDbVertex
100
AcDb2dVertex
 10
83.62966107450288
 20
28.24972059998364
 30
0.0
  0
VERTEX
  5
45A
330
43B
100
AcDbEntity
  8
DIBUJOS
 62
     7
100
AcDbVertex
100
AcDb2dVertex
 10
82.44706815977102
 20
28.24943857030015
 30
0.0
  0
VERTEX
  5
45B
330
43B
100
AcDbEntity
  8
DIBUJOS
 62
     7
100
AcDbVertex
100
AcDb2dVertex
 10
81.57860509350905
 20
28.23271586595596
 30
0.0
  0
VERTEX
  5
45C
330
43B
100
AcDbEntity
  8
DIBUJOS
 62
     7
100
AcDbVertex
100
AcDb2dVertex
 10
80.73243595006464
 20
28.24108475908736
 30
0.0
  0
VERTEX
  5
45D
330
43B
100
AcDbEntity
  8
DIBUJOS
 62
     7
100
AcDbVertex
100
AcDb2dVertex
 10
80.62596897039728
 20
28.23548111477997
 30
0.0
  0
VERTEX
  5
45E
330
43B
100
AcDbEntity
  8
DIBUJOS
 62
     7
100
AcDbVertex
100
AcDb2dVertex
 10
80.62036457199532
 20
28.2410847590925
 30
0.0
  0
VERTEX
  5
45F
330
43B
100
AcDbEntity
  8
DIBUJOS
 62
     7
100
AcDbVertex
100
AcDb2dVertex
 10
79.78543891350462
 20
28.23267966970626
 30
0.0
  0
VERTEX
  5
460
330
43B
100
AcDbEntity
  8
DIBUJOS
 62
     7
100
AcDbVertex
100
AcDb2dVertex
 10
78.30603911049151
 20
28.24941971823155
 30
0.0
  0
VERTEX
  5
461
330
43B
100
AcDbEntity
  8
DIBUJOS
 62
     7
100
AcDbVertex
100
AcDb2dVertex
 10
78.08203058240848
 20
28.24395633470664
 30
0.0
  0
VERTEX
  5
462
330
43B
100
AcDbEntity
  8
DIBUJOS
 62
     7
100
AcDbVertex
100
AcDb2dVertex
 10
77.91939745610115
 20
28.24395331835282
 30
0.0
  0
VERTEX
  5
463
330
43B
100
AcDbEntity
  8
DIBUJOS
 62
     7
100
AcDbVertex
100
AcDb2dVertex
 10
77.68417711485141
 20
28.24942348870944
 30
0.0
  0
VERTEX
  5
464
330
43B
100
AcDbEntity
  8
DIBUJOS
 62
     7
100
AcDbVertex
100
AcDb2dVertex
 10
77.32539306080963
 20
28.24378666444456
 30
0.0
  0
VERTEX
  5
465
330
43B
100
AcDbEntity
  8
DIBUJOS
 62
     7
100
AcDbVertex
100
AcDb2dVertex
 10
77.16868105079081
 20
28.23838285404396
 30
0.0
  0
VERTEX
  5
466
330
43B
100
AcDbEntity
  8
DIBUJOS
 62
     7
100
AcDbVertex
100
AcDb2dVertex
 10
76.98367255992349
 20
28.22987747063042
 30
0.0
  0
VERTEX
  5
467
330
43B
100
AcDbEntity
  8
DIBUJOS
 62
     7
100
AcDbVertex
100
AcDb2dVertex
 10
74.5517376818855
 20
28.22987747074015
 30
0.0
  0
VERTEX
  5
468
330
43B
100
AcDbEntity
  8
DIBUJOS
 62
     7
100
AcDbVertex
100
AcDb2dVertex
 10
74.47441025591698
 20
28.25453320408249
 30
0.0
  0
VERTEX
  5
469
330
43B
100
AcDbEntity
  8
DIBUJOS
 62
     7
100
AcDbVertex
100
AcDb2dVertex
 10
74.46208238924805
 20
28.26349858252916
 30
0.0
  0
SEQEND
  5
46A
330
43B
100
AcDbEntity
  8
DIBUJOS
 62
     7
  0
ENDBLK
  5
3EC
330
3E9
100
AcDbEntity
  8
0
100
AcDbBlockEnd
  0
ENDSEC
  0
SECTION
  2
ENTITIES
  0
MTEXT
  5
41
330
1F
100
AcDbEntity
  8
REFERENCIAS
 62
   255
100
AcDbMText
 10
20.93094777802549
 20
54.85563098807646
 30
0.0
 40
1.49859999962535
 41
0.0
 71
     7
 72
     1
  1
\fMyriad Pro|b0|i0|c0|p34;\W1;MUMBAI_955-I_955-D__SOFA
  0
MTEXT
  5
43
330
1F
100
AcDbEntity
  8
M_U_00C1RGENES
 62
   255
100
AcDbMText
 10
130.1412810953944
 20
23.75824243163504
 30
0.0
 40
1.748366666229575
 41
0.0
 71
     7
 72
     1
  1
\fMyriad Pro|b0|i0|c0|p34;\W1;400
  0
MTEXT
  5
44
330
1F
100
AcDbEntity
  8
M_U_00C1RGENES
 62
   255
100
AcDbMText
 10
122.9448319021794
 20
20.50605109814752
 30
0.0
 40
1.748366666229575
 41
0.0
 71
     7
 72
     1
  1
\fMyriad Pro|b0|i0|c0|p34;\W1;1200
  0
MTEXT
  5
45
330
1F
100
AcDbEntity
  8
M_U_00C1RGENES
 62
   255
100
AcDbMText
 10
90.34437779181278
 20
20.50605109814752
 30
0.0
 40
1.748366666229575
 41
0.0
 71
     7
 72
     1
  1
\fMyriad Pro|b0|i0|c0|p34;\W1;800
  0
MTEXT
  5
46
330
1F
100
AcDbEntity
  8
M_U_00C1RGENES
 62
   255
100
AcDbMText
 10
50.13266345996033
 20
20.50605109814752
 30
0.0
 40
1.748366666229575
 41
0.0
 71
     7
 72
     1
  1
\fMyriad Pro|b0|i0|c0|p34;\W1;400
  0
POLYLINE
  5
47
330
1F
100
AcDbEntity
  8
M_U_00C1RGENES
 62
   255
100
AcDb2dPolyline
 66
     1
 10
0.0
 20
0.0
 30
0.0
  0
VERTEX
  5
48
330
47
100
AcDbEntity
  8
M_U_00C1RGENES
 62
   255
100
AcDbVertex
100
AcDb2dVertex
 10
94.98398320590292
 20
20.88532038344252
 30
0.0
  0
VERTEX
  5
49
330
47
100
AcDbEntity
  8
M_U_00C1RGENES
 62
   255
100
AcDbVertex
100
AcDb2dVertex
 10
94.98398320590292
 20
19.74999894270961
 30
0.0
  0
SEQEND
  5
4A
330
47
100
AcDbEntity
  8
M_U_00C1RGENES
 62
   255
  0
POLYLINE
  5
4B
330
1F
100
AcDbEntity
  8
M_U_00C1RGENES
 62
   255
100
AcDb2dPolyline
 66
     1
 10
0.0
 20
0.0
 30
0.0
  0
VERTEX
  5
4C
330
4B
100
AcDbEntity
  8
M_U_00C1RGENES
 62
   255
100
AcDbVertex
100
AcDb2dVertex
 10
55.00283188940081
 20
20.88532038344252
 30
0.0
  0
VERTEX
  5
4D
330
4B
100
AcDbEntity
  8
M_U_00C1RGENES
 62
   255
100
AcDbVertex
100
AcDb2dVertex
 10
55.00283188940081
 20
19.74999894270961
 30
0.0
  0
SEQEND
  5
4E
330
4B
100
AcDbEntity
  8
M_U_00C1RGENES
 62
   255
  0
POLYLINE
  5
4F
330
1F
100
AcDbEntity
  8
M_U_00C1RGENES
 62
   255
100
AcDb2dPolyline
 66
     1
 10
0.0
 20
0.0
 30
0.0
  0
VERTEX
  5
50
330
4F
100
AcDbEntity
  8
M_U_00C1RGENES
 62
   255
100
AcDbVertex
100
AcDb2dVertex
 10
124.4166645319012
 20
24.76587593802794
 30
0.0
  0
VERTEX
  5
51
330
4F
100
AcDbEntity
  8
M_U_00C1RGENES
 62
   255
100
AcDbVertex
100
AcDb2dVertex
 10
134.9999978625887
 20
19.74999894270961
 30
0.0
  0
SEQEND
  5
52
330
4F
100
AcDbEntity
  8
M_U_00C1RGENES
 62
   255
  0
POLYLINE
  5
53
330
1F
100
AcDbEntity
  8
M_U_00C1RGENES
 62
   254
100
AcDb2dPolyline
 66
     1
 10
0.0
 20
0.0
 30
0.0
  0
VERTEX
  5
54
330
53
100
AcDbEntity
  8
M_U_00C1RGENES
 62
   254
100
AcDbVertex
100
AcDb2dVertex
 10
14.99999791907867
 20
20.88258920325216
 30
0.0
  0
VERTEX
  5
55
330
53
100
AcDbEntity
  8
M_U_00C1RGENES
 62
   254
100
AcDbVertex
100
AcDb2dVertex
 10
14.99999791907867
 20
19.74726776251925
 30
0.0
  0
SEQEND
  5
56
330
53
100
AcDbEntity
  8
M_U_00C1RGENES
 62
   254
  0
POLYLINE
  5
57
330
1F
100
AcDbEntity
  8
M_U_00C1RGENES
 62
   255
100
AcDb2dPolyline
 66
     1
 10
0.0
 20
0.0
 30
0.0
  0
VERTEX
  5
58
330
57
100
AcDbEntity
  8
M_U_00C1RGENES
 62
   255
100
AcDbVertex
100
AcDb2dVertex
 10
134.9999977300913
 20
59.74999886675599
 30
0.0
  0
VERTEX
  5
59
330
57
100
AcDbEntity
  8
M_U_00C1RGENES
 62
   255
100
AcDbVertex
100
AcDb2dVertex
 10
133.8646762893584
 20
59.7499988667053
 30
0.0
  0
SEQEND
  5
5A
330
57
100
AcDbEntity
  8
M_U_00C1RGENES
 62
   255
  0
INSERT
  5
5D
330
1F
100
AcDbEntity
  8
DIBUJOS
100
AcDbBlockReference
  2
BLOCK_2
 10
0.0
 20
0.0
 30
0.0
  0
INSERT
  5
106
330
1F
100
AcDbEntity
  8
DIBUJOS
100
AcDbBlockReference
  2
BLOCK_3
 10
0.0
 20
0.0
 30
0.0
  0
INSERT
  5
1CE
330
1F
100
AcDbEntity
  8
DIBUJOS
100
AcDbBlockReference
  2
BLOCK_4
 10
0.0
 20
0.0
 30
0.0
  0
INSERT
  5
250
330
1F
100
AcDbEntity
  8
DIBUJOS
100
AcDbBlockReference
  2
BLOCK_5
 10
0.0
 20
0.0
 30
0.0
  0
INSERT
  5
341
330
1F
100
AcDbEntity
  8
DIBUJOS
100
AcDbBlockReference
  2
BLOCK_6
 10
0.0
 20
0.0
 30
0.0
  0
INSERT
  5
3EA
330
1F
100
AcDbEntity
  8
DIBUJOS
100
AcDbBlockReference
  2
BLOCK_7
 10
0.0
 20
0.0
 30
0.0
  0
POLYLINE
  5
46C
330
1F
100
AcDbEntity
  8
COTAS_LINEA
 62
     7
100
AcDb2dPolyline
 66
     1
 10
0.0
 20
0.0
 30
0.0
  0
VERTEX
  5
46D
330
46C
100
AcDbEntity
  8
COTAS_LINEA
 62
     7
100
AcDbVertex
100
AcDb2dVertex
 10
96.27258178190658
 20
51.21558367592174
 30
0.0
  0
VERTEX
  5
46E
330
46C
100
AcDbEntity
  8
COTAS_LINEA
 62
     7
100
AcDbVertex
100
AcDb2dVertex
 10
96.27258178286142
 20
43.38976981635275
 30
0.0
  0
SEQEND
  5
46F
330
46C
100
AcDbEntity
  8
COTAS_LINEA
 62
     7
  0
POLYLINE
  5
470
330
1F
100
AcDbEntity
  8
COTAS_LINEA
 62
     7
100
AcDb2dPolyline
 66
     1
 10
0.0
 20
0.0
 30
0.0
  0
VERTEX
  5
471
330
470
100
AcDbEntity
  8
COTAS_LINEA
 62
     7
100
AcDbVertex
100
AcDb2dVertex
 10
113.3298136278981
 20
48.25691681526059
 30
0.0
  0
VERTEX
  5
472
330
470
100
AcDbEntity
  8
COTAS_LINEA
 62
     7
100
AcDbVertex
100
AcDb2dVertex
 10
113.3298136292046
 20
43.3897790861051
 30
0.0
  0
SEQEND
  5
473
330
470
100
AcDbEntity
  8
COTAS_LINEA
 62
     7
  0
POLYLINE
  5
474
330
1F
100
AcDbEntity
  8
COTAS_LINEA
 62
     7
100
AcDb2dPolyline
 66
     1
 10
0.0
 20
0.0
 30
0.0
  0
VERTEX
  5
475
330
474
100
AcDbEntity
  8
COTAS_LINEA
 62
     7
100
AcDbVertex
100
AcDb2dVertex
 10
104.2870117282232
 20
40.07230686707011
 30
0.0
  0
VERTEX
  5
476
330
474
100
AcDbEntity
  8
COTAS_LINEA
 62
     7
100
AcDbVertex
100
AcDb2dVertex
 10
111.0586504640189
 20
40.07230686707011
 30
0.0
  0
SEQEND
  5
477
330
474
100
AcDbEntity
  8
COTAS_LINEA
 62
     7
  0
POLYLINE
  5
478
330
1F
100
AcDbEntity
  8
COTAS_LINEA
 62
     7
100
AcDb2dPolyline
 66
     1
 10
0.0
 20
0.0
 30
0.0
  0
VERTEX
  5
479
330
478
100
AcDbEntity
  8
COTAS_LINEA
 62
     7
100
AcDbVertex
100
AcDb2dVertex
 10
74.269728390486
 20
40.42508464475969
 30
0.0
  0
VERTEX
  5
47A
330
478
100
AcDbEntity
  8
COTAS_LINEA
 62
     7
100
AcDbVertex
100
AcDb2dVertex
 10
93.55732714651953
 20
40.42508464475969
 30
0.0
  0
SEQEND
  5
47B
330
478
100
AcDbEntity
  8
COTAS_LINEA
 62
     7
  0
POLYLINE
  5
47C
330
1F
100
AcDbEntity
  8
COTAS_LINEA
 62
     7
100
AcDb2dPolyline
 66
     1
 10
0.0
 20
0.0
 30
0.0
  0
VERTEX
  5
47D
330
47C
100
AcDbEntity
  8
COTAS_LINEA
 62
     7
100
AcDbVertex
100
AcDb2dVertex
 10
45.25051847577375
 20
51.21558367592174
 30
0.0
  0
VERTEX
  5
47E
330
47C
100
AcDbEntity
  8
COTAS_LINEA
 62
     7
100
AcDbVertex
100
AcDb2dVertex
 10
45.25051847672859
 20
43.38976981635275
 30
0.0
  0
SEQEND
  5
47F
330
47C
100
AcDbEntity
  8
COTAS_LINEA
 62
     7
  0
POLYLINE
  5
480
330
1F
100
AcDbEntity
  8
COTAS_LINEA
 62
     7
100
AcDb2dPolyline
 66
     1
 10
0.0
 20
0.0
 30
0.0
  0
VERTEX
  5
481
330
480
100
AcDbEntity
  8
COTAS_LINEA
 62
     7
100
AcDbVertex
100
AcDb2dVertex
 10
62.3077503217653
 20
48.25691681526059
 30
0.0
  0
VERTEX
  5
482
330
480
100
AcDbEntity
  8
COTAS_LINEA
 62
     7
100
AcDbVertex
100
AcDb2dVertex
 10
62.3077503230718
 20
43.3897790861051
 30
0.0
  0
SEQEND
  5
483
330
480
100
AcDbEntity
  8
COTAS_LINEA
 62
     7
  0
POLYLINE
  5
484
330
1F
100
AcDbEntity
  8
COTAS_LINEA
 62
     7
100
AcDb2dPolyline
 66
     1
 10
0.0
 20
0.0
 30
0.0
  0
VERTEX
  5
485
330
484
100
AcDbEntity
  8
COTAS_LINEA
 62
     7
100
AcDbVertex
100
AcDb2dVertex
 10
53.26494842209038
 20
40.07230686707011
 30
0.0
  0
VERTEX
  5
486
330
484
100
AcDbEntity
  8
COTAS_LINEA
 62
     7
100
AcDbVertex
100
AcDb2dVertex
 10
60.03658715788609
 20
40.07230686707011
 30
0.0
  0
SEQEND
  5
487
330
484
100
AcDbEntity
  8
COTAS_LINEA
 62
     7
  0
POLYLINE
  5
488
330
1F
100
AcDbEntity
  8
COTAS_LINEA
 62
     7
100
AcDb2dPolyline
 66
     1
 10
0.0
 20
0.0
 30
0.0
  0
VERTEX
  5
489
330
488
100
AcDbEntity
  8
COTAS_LINEA
 62
     7
100
AcDbVertex
100
AcDb2dVertex
 10
23.24766508435317
 20
40.42508464475969
 30
0.0
  0
VERTEX
  5
48A
330
488
100
AcDbEntity
  8
COTAS_LINEA
 62
     7
100
AcDbVertex
100
AcDb2dVertex
 10
42.5352638403867
 20
40.42508464475969
 30
0.0
  0
SEQEND
  5
48B
330
488
100
AcDbEntity
  8
COTAS_LINEA
 62
     7
  0
MTEXT
  5
48D
330
1F
100
AcDbEntity
  8
COTAS_N_U_00DAMERO
 62
     7
100
AcDbMText
 10
114.0883634493968
 20
44.76742247415971
 30
0.0
 40
1.998533025814148
 41
0.0
 71
     7
 72
     1
  1
\fMyriad Pro|b0|i0|c0|p34;\W1;46
  0
MTEXT
  5
48E
330
1F
100
AcDbEntity
  8
COTAS_N_U_00DAMERO
 62
     7
100
AcDbMText
 10
106.0962586879399
 20
40.62727897476071
 30
0.0
 40
1.998533025814148
 41
0.0
 71
     7
 72
     1
  1
\fMyriad Pro|b0|i0|c0|p34;\W1;89
  0
MTEXT
  5
48F
330
1F
100
AcDbEntity
  8
COTAS_N_U_00DAMERO
 62
     7
100
AcDbMText
 10
81.9018698593531
 20
40.9800567524503
 30
0.0
 40
1.998533025814148
 41
0.0
 71
     7
 72
     1
  1
\fMyriad Pro|b0|i0|c0|p34;\W1;191
  0
MTEXT
  5
490
330
1F
100
AcDbEntity
  8
COTAS_N_U_00DAMERO
 62
     7
100
AcDbMText
 10
97.04788765070548
 20
45.08195969196302
 30
0.0
 40
1.998533025814148
 41
0.0
 71
     7
 72
     1
  1
\fMyriad Pro|b0|i0|c0|p34;\W1;75
  0
MTEXT
  5
491
330
1F
100
AcDbEntity
  8
COTAS_N_U_00DAMERO
 62
     7
100
AcDbMText
 10
63.06630014326392
 20
44.76742247415971
 30
0.0
 40
1.998533025814148
 41
0.0
 71
     7
 72
     1
  1
\fMyriad Pro|b0|i0|c0|p34;\W1;46
  0
MTEXT
  5
492
330
1F
100
AcDbEntity
  8
COTAS_N_U_00DAMERO
 62
     7
100
AcDbMText
 10
55.07419538180708
 20
40.62727897476071
 30
0.0
 40
1.998533025814148
 41
0.0
 71
     7
 72
     1
  1
\fMyriad Pro|b0|i0|c0|p34;\W1;89
  0
MTEXT
  5
493
330
1F
100
AcDbEntity
  8
COTAS_N_U_00DAMERO
 62
     7
100
AcDbMText
 10
30.87980655322026
 20
40.9800567524503
 30
0.0
 40
1.998533025814148
 41
0.0
 71
     7
 72
     1
  1
\fMyriad Pro|b0|i0|c0|p34;\W1;191
  0
MTEXT
  5
494
330
1F
100
AcDbEntity
  8
COTAS_N_U_00DAMERO
 62
     7
100
AcDbMText
 10
46.02582434457265
 20
45.08195969196302
 30
0.0
 40
1.998533025814148
 41
0.0
 71
     7
 72
     1
  1
\fMyriad Pro|b0|i0|c0|p34;\W1;75
  0
ENDSEC
  0
SECTION
  2
OBJECTS
  0
DICTIONARY
  5
C
330
0
100
AcDbDictionary
  3
ACAD_GROUP
350
D
  3
ACAD_LAYOUT
350
1A
  3
ACAD_MATERIAL
350
3B
  3
ACAD_MLEADERSTYLE
350
4B7
  3
ACAD_MLINESTYLE
350
17
  3
ACAD_PLOTSETTINGS
350
19
  3
ACAD_VISUALSTYLE
350
2A
  3
ACDBHEADERROUNDTRIPXREC
350
495
  3
ACDBVARIABLEDICTIONARY
350
4B5
  0
DICTIONARY
  5
D
102
{ACAD_REACTORS
330
C
102
}
330
C
100
AcDbDictionary
  0
DICTIONARY
  5
1A
102
{ACAD_REACTORS
330
C
102
}
330
C
100
AcDbDictionary
  0
DICTIONARY
  5
3B
102
{ACAD_REACTORS
330
C
102
}
330
C
100
AcDbDictionary
  3
BYBLOCK
350
3D
  3
BYLAYER
350
3C
  3
GLOBAL
350
3E
  0
DICTIONARY
  5
4B7
102
{ACAD_REACTORS
330
C
102
}
330
C
100
AcDbDictionary
  0
DICTIONARY
  5
17
102
{ACAD_REACTORS
330
C
102
}
330
C
100
AcDbDictionary
  3
STANDARD
350
18
  0
DICTIONARY
  5
19
102
{ACAD_REACTORS
330
C
102
}
330
C
100
AcDbDictionary
  0
DICTIONARY
  5
2A
102
{ACAD_REACTORS
330
C
102
}
330
C
100
AcDbDictionary
  3
2DWIREFRAME
350
2F
  3
3D_HIDDEN
350
31
  3
3DWIREFRAME
350
30
  3
BASIC
350
32
  3
BRIGHTEN
350
36
  3
COLORCHANGE
350
3A
  3
CONCEPTUAL
350
34
  3
DIM
350
35
  3
FACEPATTERN
350
39
  3
FLAT
350
2B
  3
FLATWITHEDGES
350
2C
  3
GOURAUD
350
2D
  3
GOURAUDWITHEDGES
350
2E
  3
LINEPATTERN
350
38
  3
REALISTIC
350
33
  3
THICKEN
350
37
  0
DICTIONARY
  5
495
102
{ACAD_REACTORS
330
C
102
}
330
C
100
AcDbDictionary
  3
CEPSNTYPE
350
49E
  3
DIMSTYLEDATA
350
4B4
  3
FINGERPRINTGUID
350
49F
  3
HYPERLINKBASE
350
498
  3
INSUNITS
350
49D
  3
LAYOUTDICT
350
49A
  3
LWETCUNION
350
49C
  3
PLOTSETDICT
350
49B
  3
PSVPSCALE
350
4A1
  3
PUCSBASE
350
4A4
  3
PUCSORGBACK
350
4AA
  3
PUCSORGBOTTOM
350
4A6
  3
PUCSORGFRONT
350
4A9
  3
PUCSORGLEFT
350
4A7
  3
PUCSORGRIGHT
350
4A8
  3
PUCSORGTOP
350
4A5
  3
PUCSORTHOREF
350
4A2
  3
PUCSORTHOVIEW
350
4A3
  3
STYLESHEET
350
499
  3
TSTACKALIGN
350
496
  3
TSTACKSIZE
350
497
  3
UCSBASE
350
4AD
  3
UCSORGBACK
350
4B3
  3
UCSORGBOTTOM
350
4AF
  3
UCSORGFRONT
350
4B2
  3
UCSORGLEFT
350
4B0
  3
UCSORGRIGHT
350
4B1
  3
UCSORGTOP
350
4AE
  3
UCSORTHOREF
350
4AB
  3
UCSORTHOVIEW
350
4AC
  3
VERSIONGUID
350
4A0
  0
DICTIONARY
  5
4B5
102
{ACAD_REACTORS
330
C
102
}
330
C
100
AcDbDictionary
  3
DIMASSOC
350
4B8
  3
HIDETEXT
350
4B9
  0
MATERIAL
  5
3D
102
{ACAD_REACTORS
330
3B
102
}
102
{ACAD_XDICTIONARY
360
4BC
102
}
330
3B
100
AcDbMaterial
  1
ByBlock
  0
MATERIAL
  5
3C
102
{ACAD_REACTORS
330
3B
102
}
102
{ACAD_XDICTIONARY
360
4BA
102
}
330
3B
100
AcDbMaterial
  1
ByLayer
  0
MATERIAL
  5
3E
102
{ACAD_REACTORS
330
3B
102
}
102
{ACAD_XDICTIONARY
360
4BE
102
}
330
3B
100
AcDbMaterial
  1
Global
  0
MLINESTYLE
  5
18
102
{ACAD_REACTORS
330
17
102
}
330
17
100
AcDbMlineStyle
  2
Standard
 70
     0
  3

 62
   256
 51
90.0
 52
90.0
 71
     2
 49
0.5
 62
   256
  6
BYLAYER
 49
-0.5
 62
   256
  6
BYLAYER
  0
ACAD_PROXY_OBJECT
  5
2F
102
{ACAD_REACTORS
330
2A
102
}
330
2A
100
AcDbProxyObject
 90
      499
 91
      501
 93
      436
310
42CC9915DA5C99599C985B595049028333333333333E3BF0000000000000FB0107901411070040501600405405064090741402480A0340
1001
ACAD
1000
AcDbSavedByObjectVersion
1070
     0
  0
ACAD_PROXY_OBJECT
  5
31
102
{ACAD_REACTORS
330
2A
102
}
330
2A
100
AcDbProxyObject
 90
      499
 91
      501
 93
      500
310
424CD108121A5919195B90640502408333333333333E3BF0000000000000FB01079024090700405020000000000001110200405405064090740C02480A0340
1001
ACAD
1000
AcDbSavedByObjectVersion
1070
     0
  0
ACAD_PROXY_OBJECT
  5
30
102
{ACAD_REACTORS
330
2A
102
}
330
2A
100
AcDbProxyObject
 90
      499
 91
      501
 93
      436
310
42CCD915DA5C99599C985B595059028333333333333E3BF0000000000000FB0107901411070040501600405405064090741402480A0340
1001
ACAD
1000
AcDbSavedByObjectVersion
1070
     0
  0
ACAD_PROXY_OBJECT
  5
32
102
{ACAD_REACTORS
330
2A
102
}
330
2A
100
AcDbProxyObject
 90
      499
 91
      501
 93
      388
310
4150985CDA58D07406404333333333333E3BF0000000000000FB0107A41107004050150841D405064090741402480A0350
1001
ACAD
1000
AcDbSavedByObjectVersion
1070
     0
  0
ACAD_PROXY_OBJECT
  5
36
102
{ACAD_REACTORS
330
2A
102
}
330
2A
100
AcDbProxyObject
 90
      499
 91
      501
 93
      428
310
42109C9A59DA1D195B90C409028333333333333E3BF0000000000000FB010790141107004050150841D405064090741402480A029950
1001
ACAD
1000
AcDbSavedByObjectVersion
1070
     0
  0
ACAD_PROXY_OBJECT
  5
3A
102
{ACAD_REACTORS
330
2A
102
}
330
2A
100
AcDbProxyObject
 90
      499
 91
      501
 93
      452
310
42D0DBDB1BDC90DA185B99D95104090240C333333333333E3BF0000000000000FB0108901411070040501508421405064090741402480A0350
1001
ACAD
1000
AcDbSavedByObjectVersion
1070
     0
  0
ACAD_PROXY_OBJECT
  5
34
102
{ACAD_REACTORS
330
2A
102
}
330
2A
100
AcDbProxyObject
 90
      499
 91
      501
 93
      500
310
4290DBDB98D95C1D1D585B10940D028333333333333E3BF0000000000000FB0107902409070040501000000000000111010841D405064090740C02480A0340
1001
ACAD
1000
AcDbSavedByObjectVersion
1070
     0
  0
ACAD_PROXY_OBJECT
  5
35
102
{ACAD_REACTORS
330
2A
102
}
330
2A
100
AcDbProxyObject
 90
      499
 91
      501
 93
      412
310
40D11A5B50B409028333333333333E3BF0000000000000FB010790141107004050150841D405064090741402480A02677FFFFFD0
1001
ACAD
1000
AcDbSavedByObjectVersion
1070
     0
  0
ACAD_PROXY_OBJECT
  5
39
102
{ACAD_REACTORS
330
2A
102
}
330
2A
100
AcDbProxyObject
 90
      499
 91
      501
 93
      444
310
42D19858D95C185D1D195C9B90F409028333333333333E3BF0000000000000FB010790141107004050150841D405064090741402480A0350
1001
ACAD
1000
AcDbSavedByObjectVersion
1070
     0
  0
ACAD_PROXY_OBJECT
  5
2B
102
{ACAD_REACTORS
330
2A
102
}
330
2A
100
AcDbProxyObject
 90
      499
 91
      501
 93
      388
310
41119B185D240901404333333333333E3BF0000000000000F9010740A41107004050150841D405064090741402480A1B50
1001
ACAD
1000
AcDbSavedByObjectVersion
1070
     0
  0
ACAD_PROXY_OBJECT
  5
2C
102
{ACAD_REACTORS
330
2A
102
}
330
2A
100
AcDbProxyObject
 90
      499
 91
      501
 93
      476
310
43519B185D15DA5D1A115919D95CD0140901404333333333333E3BF0000000000000F9010740901411070040501600405405064090741402480A1B50
1001
ACAD
1000
AcDbSavedByObjectVersion
1070
     0
  0
ACAD_PROXY_OBJECT
  5
2D
102
{ACAD_REACTORS
330
2A
102
}
330
2A
100
AcDbProxyObject
 90
      499
 91
      501
 93
      412
310
41D1DBDD5C985D5910240902404333333333333E3BF0000000000000F9010740A411070040501641D405064090741402480A1B50
1001
ACAD
1000
AcDbSavedByObjectVersion
1070
     0
  0
ACAD_PROXY_OBJECT
  5
2E
102
{ACAD_REACTORS
330
2A
102
}
330
2A
100
AcDbProxyObject
 90
      499
 91
      501
 93
      500
310
4411DBDD5C985D5915DA5D1A115919D95CD0340902404333333333333E3BF0000000000000F9010740901411070040501600405405064090741402480A1B50
1001
ACAD
1000
AcDbSavedByObjectVersion
1070
     0
  0
ACAD_PROXY_OBJECT
  5
38
102
{ACAD_REACTORS
330
2A
102
}
330
2A
100
AcDbProxyObject
 90
      499
 91
      501
 93
      444
310
42D31A5B995C185D1D195C9B90E409028333333333333E3BF0000000000000FB010790141107004050750841D405064090741402483A0350
1001
ACAD
1000
AcDbSavedByObjectVersion
1070
     0
  0
ACAD_PROXY_OBJECT
  5
33
102
{ACAD_REACTORS
330
2A
102
}
330
2A
100
AcDbProxyObject
 90
      499
 91
      501
 93
      420
310
425499585B1A5CDD1A58D08409028333333333333E3BF0000000000000FB01079019070040501508421405064090741402480A1B40
1001
ACAD
1000
AcDbSavedByObjectVersion
1070
     0
  0
ACAD_PROXY_OBJECT
  5
37
102
{ACAD_REACTORS
330
2A
102
}
330
2A
100
AcDbProxyObject
 90
      499
 91
      501
 93
      412
310
41D51A1A58DAD95B90D409028333333333333E3BF0000000000000FB010790141107004050150C41D405064090741402480A0350
1001
ACAD
1000
AcDbSavedByObjectVersion
1070
     0
  0
XRECORD
  5
49E
102
{ACAD_REACTORS
330
495
102
}
330
495
100
AcDbXrecord
 90
        0
  0
XRECORD
  5
4B4
102
{ACAD_REACTORS
330
495
102
}
330
495
100
AcDbXrecord
1000
DSTYLE
1002
{
1070
   340
340
11
1002
}
  0
XRECORD
  5
49F
102
{ACAD_REACTORS
330
495
102
}
330
495
100
AcDbXrecord
  1
{70AAB482-F05A-4A52-A660-6CC05F0F1086}
  0
XRECORD
  5
498
102
{ACAD_REACTORS
330
495
102
}
330
495
100
AcDbXrecord
  1

  0
XRECORD
  5
49D
102
{ACAD_REACTORS
330
495
102
}
330
495
100
AcDbXrecord
 90
        1
  0
XRECORD
  5
49A
102
{ACAD_REACTORS
330
495
102
}
330
495
100
AcDbXrecord
340
1A
  0
XRECORD
  5
49C
102
{ACAD_REACTORS
330
495
102
}
330
495
100
AcDbXrecord
 90
    10269
  0
XRECORD
  5
49B
102
{ACAD_REACTORS
330
495
102
}
330
495
100
AcDbXrecord
340
19
  0
XRECORD
  5
4A1
102
{ACAD_REACTORS
330
495
102
}
330
495
100
AcDbXrecord
 40
0.0
  0
XRECORD
  5
4A4
102
{ACAD_REACTORS
330
495
102
}
330
495
100
AcDbXrecord
340
0
  0
XRECORD
  5
4AA
102
{ACAD_REACTORS
330
495
102
}
330
495
100
AcDbXrecord
 10
0.0
 20
0.0
 30
0.0
  0
XRECORD
  5
4A6
102
{ACAD_REACTORS
330
495
102
}
330
495
100
AcDbXrecord
 10
0.0
 20
0.0
 30
0.0
  0
XRECORD
  5
4A9
102
{ACAD_REACTORS
330
495
102
}
330
495
100
AcDbXrecord
 10
0.0
 20
0.0
 30
0.0
  0
XRECORD
  5
4A7
102
{ACAD_REACTORS
330
495
102
}
330
495
100
AcDbXrecord
 10
0.0
 20
0.0
 30
0.0
  0
XRECORD
  5
4A8
102
{ACAD_REACTORS
330
495
102
}
330
495
100
AcDbXrecord
 10
0.0
 20
0.0
 30
0.0
  0
XRECORD
  5
4A5
102
{ACAD_REACTORS
330
495
102
}
330
495
100
AcDbXrecord
 10
0.0
 20
0.0
 30
0.0
  0
XRECORD
  5
4A2
102
{ACAD_REACTORS
330
495
102
}
330
495
100
AcDbXrecord
340
0
  0
XRECORD
  5
4A3
102
{ACAD_REACTORS
330
495
102
}
330
495
100
AcDbXrecord
 70
     0
  0
XRECORD
  5
499
102
{ACAD_REACTORS
330
495
102
}
330
495
100
AcDbXrecord
  1

  0
XRECORD
  5
496
102
{ACAD_REACTORS
330
495
102
}
330
495
100
AcDbXrecord
 90
        1
  0
XRECORD
  5
497
102
{ACAD_REACTORS
330
495
102
}
330
495
100
AcDbXrecord
 90
       70
  0
XRECORD
  5
4AD
102
{ACAD_REACTORS
330
495
102
}
330
495
100
AcDbXrecord
340
0
  0
XRECORD
  5
4B3
102
{ACAD_REACTORS
330
495
102
}
330
495
100
AcDbXrecord
 10
0.0
 20
0.0
 30
0.0
  0
XRECORD
  5
4AF
102
{ACAD_REACTORS
330
495
102
}
330
495
100
AcDbXrecord
 10
0.0
 20
0.0
 30
0.0
  0
XRECORD
  5
4B2
102
{ACAD_REACTORS
330
495
102
}
330
495
100
AcDbXrecord
 10
0.0
 20
0.0
 30
0.0
  0
XRECORD
  5
4B0
102
{ACAD_REACTORS
330
495
102
}
330
495
100
AcDbXrecord
 10
0.0
 20
0.0
 30
0.0
  0
XRECORD
  5
4B1
102
{ACAD_REACTORS
330
495
102
}
330
495
100
AcDbXrecord
 10
0.0
 20
0.0
 30
0.0
  0
XRECORD
  5
4AE
102
{ACAD_REACTORS
330
495
102
}
330
495
100
AcDbXrecord
 10
0.0
 20
0.0
 30
0.0
  0
XRECORD
  5
4AB
102
{ACAD_REACTORS
330
495
102
}
330
495
100
AcDbXrecord
340
0
  0
XRECORD
  5
4AC
102
{ACAD_REACTORS
330
495
102
}
330
495
100
AcDbXrecord
 70
     0
  0
XRECORD
  5
4A0
102
{ACAD_REACTORS
330
495
102
}
330
495
100
AcDbXrecord
  1
{FAEB1C32-E019-11D5-929B-00C0DF256EC4}
  0
DICTIONARYVAR
  5
4B8
102
{ACAD_REACTORS
330
4B5
102
}
330
4B5
100
DictionaryVariables
280
     0
  1
2
  0
DICTIONARYVAR
  5
4B9
102
{ACAD_REACTORS
330
4B5
102
}
330
4B5
100
DictionaryVariables
280
     0
  1
1
  0
DICTIONARY
  5
4BC
330
3D
100
AcDbDictionary
280
     1
  3
ACAD_XREC_ROUNDTRIP
360
4BD
  0
DICTIONARY
  5
4BA
330
3C
100
AcDbDictionary
280
     1
  3
ACAD_XREC_ROUNDTRIP
360
4BB
  0
DICTIONARY
  5
4BE
330
3E
100
AcDbDictionary
280
     1
  3
ACAD_XREC_ROUNDTRIP
360
4BF
  0
XRECORD
  5
4BD
102
{ACAD_REACTORS
330
4BC
102
}
330
4BC
100
AcDbXrecord
102
MATERIAL
148
0.0
149
0.0
149
0.0
 93
        0
 94
      127
282
     0
 72
     1
 77
     1
171
     1
175
     1
179
     1
273
     0
  0
XRECORD
  5
4BB
102
{ACAD_REACTORS
330
4BA
102
}
330
4BA
100
AcDbXrecord
102
MATERIAL
148
0.0
149
0.0
149
0.0
 93
        0
 94
      127
282
     0
 72
     1
 77
     1
171
     1
175
     1
179
     1
273
     0
  0
XRECORD
  5
4BF
102
{ACAD_REACTORS
330
4BE
102
}
330
4BE
100
AcDbXrecord
102
MATERIAL
148
0.0
149
0.0
149
0.0
 93
        0
 94
      127
282
     0
 72
     1
 77
     1
171
     1
175
     1
179
     1
273
     0
  0
ENDSEC
  0
EOF
