  0
SECTION
  2
HEADER
  9
$ACADVER
  1
AC1014
  9
$ACADMAINTVER
 70
     9
  9
$DWGCODEPAGE
  3
ANSI_1252
  9
$INSBASE
 10
0.0
 20
0.0
 30
0.0
  9
$EXTMIN
 10
1.000000000000000E+20
 20
1.000000000000000E+20
 30
1.000000000000000E+20
  9
$EXTMAX
 10
-1.000000000000000E+20
 20
-1.000000000000000E+20
 30
-1.000000000000000E+20
  9
$LIMMIN
 10
0.0
 20
0.0
  9
$LIMMAX
 10
12.0
 20
9.0
  9
$ORTHOMODE
 70
     0
  9
$REGENMODE
 70
     1
  9
$FILLMODE
 70
     1
  9
$QTEXTMODE
 70
     0
  9
$MIRRTEXT
 70
     1
  9
$DRAGMODE
 70
     2
  9
$LTSCALE
 40
1.0
  9
$OSMODE
 70
    37
  9
$ATTMODE
 70
     1
  9
$TEXTSIZE
 40
0.2
  9
$TRACEWID
 40
0.05
  9
$TEXTSTYLE
  7
STANDARD
  9
$CLAYER
  8
0
  9
$CELTYPE
  6
BYLAYER
  9
$CECOLOR
 62
   256
  9
$CELTSCALE
 40
1.0
  9
$DELOBJ
 70
     1
  9
$DISPSILH
 70
     0
  9
$DIMSCALE
 40
1.0
  9
$DIMASZ
 40
0.18
  9
$DIMEXO
 40
0.0625
  9
$DIMDLI
 40
0.38
  9
$DIMRND
 40
0.0
  9
$DIMDLE
 40
0.0
  9
$DIMEXE
 40
0.18
  9
$DIMTP
 40
0.0
  9
$DIMTM
 40
0.0
  9
$DIMTXT
 40
0.18
  9
$DIMCEN
 40
0.09
  9
$DIMTSZ
 40
0.0
  9
$DIMTOL
 70
     0
  9
$DIMLIM
 70
     0
  9
$DIMTIH
 70
     1
  9
$DIMTOH
 70
     1
  9
$DIMSE1
 70
     0
  9
$DIMSE2
 70
     0
  9
$DIMTAD
 70
     0
  9
$DIMZIN
 70
     0
  9
$DIMBLK
  1

  9
$DIMASO
 70
     1
  9
$DIMSHO
 70
     1
  9
$DIMPOST
  1

  9
$DIMAPOST
  1

  9
$DIMALT
 70
     0
  9
$DIMALTD
 70
     2
  9
$DIMALTF
 40
25.4
  9
$DIMLFAC
 40
1.0
  9
$DIMTOFL
 70
     0
  9
$DIMTVP
 40
0.0
  9
$DIMTIX
 70
     0
  9
$DIMSOXD
 70
     0
  9
$DIMSAH
 70
     0
  9
$DIMBLK1
  1

  9
$DIMBLK2
  1

  9
$DIMSTYLE
  2
STANDARD
  9
$DIMCLRD
 70
     0
  9
$DIMCLRE
 70
     0
  9
$DIMCLRT
 70
     0
  9
$DIMTFAC
 40
1.0
  9
$DIMGAP
 40
0.09
  9
$DIMJUST
 70
     0
  9
$DIMSD1
 70
     0
  9
$DIMSD2
 70
     0
  9
$DIMTOLJ
 70
     1
  9
$DIMTZIN
 70
     0
  9
$DIMALTZ
 70
     0
  9
$DIMALTTZ
 70
     0
  9
$DIMFIT
 70
     3
  9
$DIMUPT
 70
     0
  9
$DIMUNIT
 70
     2
  9
$DIMDEC
 70
     4
  9
$DIMTDEC
 70
     4
  9
$DIMALTU
 70
     2
  9
$DIMALTTD
 70
     2
  9
$DIMTXSTY
  7
STANDARD
  9
$DIMAUNIT
 70
     0
  9
$LUNITS
 70
     2
  9
$LUPREC
 70
     4
  9
$SKETCHINC
 40
0.1
  9
$FILLETRAD
 40
0.5
  9
$AUNITS
 70
     0
  9
$AUPREC
 70
     0
  9
$MENU
  1
.
  9
$ELEVATION
 40
0.0
  9
$PELEVATION
 40
0.0
  9
$THICKNESS
 40
0.0
  9
$LIMCHECK
 70
     0
  9
$CHAMFERA
 40
0.5
  9
$CHAMFERB
 40
0.5
  9
$CHAMFERC
 40
1.0
  9
$CHAMFERD
 40
0.0
  9
$SKPOLY
 70
     0
  9
$TDCREATE
 40
2460493.443063079
  9
$TDUPDATE
 40
2460493.443063183
  9
$TDINDWG
 40
0.0000000116
  9
$TDUSRTIMER
 40
0.0000000116
  9
$USRTIMER
 70
     1
  9
$ANGBASE
 50
0.0
  9
$ANGDIR
 70
     0
  9
$PDMODE
 70
     0
  9
$PDSIZE
 40
0.0
  9
$PLINEWID
 40
0.0
  9
$COORDS
 70
     1
  9
$SPLFRAME
 70
     0
  9
$SPLINETYPE
 70
     6
  9
$SPLINESEGS
 70
     8
  9
$ATTDIA
 70
     0
  9
$ATTREQ
 70
     1
  9
$HANDLING
 70
     1
  9
$HANDSEED
  5
9DB
  9
$SURFTAB1
 70
     6
  9
$SURFTAB2
 70
     6
  9
$SURFTYPE
 70
     6
  9
$SURFU
 70
     6
  9
$SURFV
 70
     6
  9
$UCSNAME
  2

  9
$UCSORG
 10
0.0
 20
0.0
 30
0.0
  9
$UCSXDIR
 10
1.0
 20
0.0
 30
0.0
  9
$UCSYDIR
 10
0.0
 20
1.0
 30
0.0
  9
$PUCSNAME
  2

  9
$PUCSORG
 10
0.0
 20
0.0
 30
0.0
  9
$PUCSXDIR
 10
1.0
 20
0.0
 30
0.0
  9
$PUCSYDIR
 10
0.0
 20
1.0
 30
0.0
  9
$USERI1
 70
     0
  9
$USERI2
 70
     0
  9
$USERI3
 70
     0
  9
$USERI4
 70
     0
  9
$USERI5
 70
     0
  9
$USERR1
 40
0.0
  9
$USERR2
 40
0.0
  9
$USERR3
 40
0.0
  9
$USERR4
 40
0.0
  9
$USERR5
 40
0.0
  9
$WORLDVIEW
 70
     1
  9
$SHADEDGE
 70
     3
  9
$SHADEDIF
 70
    70
  9
$TILEMODE
 70
     1
  9
$MAXACTVP
 70
    64
  9
$PINSBASE
 10
0.0
 20
0.0
 30
0.0
  9
$PLIMCHECK
 70
     0
  9
$PEXTMIN
 10
1.000000000000000E+20
 20
1.000000000000000E+20
 30
1.000000000000000E+20
  9
$PEXTMAX
 10
-1.000000000000000E+20
 20
-1.000000000000000E+20
 30
-1.000000000000000E+20
  9
$PLIMMIN
 10
0.0
 20
0.0
  9
$PLIMMAX
 10
12.0
 20
9.0
  9
$UNITMODE
 70
     0
  9
$VISRETAIN
 70
     1
  9
$PLINEGEN
 70
     0
  9
$PSLTSCALE
 70
     1
  9
$TREEDEPTH
 70
  3020
  9
$PICKSTYLE
 70
     1
  9
$CMLSTYLE
  2
STANDARD
  9
$CMLJUST
 70
     0
  9
$CMLSCALE
 40
1.0
  9
$PROXYGRAPHICS
 70
     1
  9
$MEASUREMENT
 70
     0
  0
ENDSEC
  0
SECTION
  2
CLASSES
  0
CLASS
  1
ACDBDICTIONARYWDFLT
  2
AcDbDictionaryWithDefault
  3
ObjectDBX Classes
 90
        0
280
     0
281
     0
  0
CLASS
  1
VISUALSTYLE
  2
AcDbVisualStyle
  3
ObjectDBX Classes
 90
     4095
280
     0
281
     0
  0
CLASS
  1
MATERIAL
  2
AcDbMaterial
  3
ObjectDBX Classes
 90
     1153
280
     0
281
     0
  0
CLASS
  1
SUN
  2
AcDbSun
  3
SCENEOE
 90
     1024
280
     0
281
     0
  0
CLASS
  1
DICTIONARYVAR
  2
AcDbDictionaryVar
  3
ObjectDBX Classes
 90
        0
280
     0
281
     0
  0
CLASS
  1
XRECORD
  2
AcDbXrecord
  3
AutoCAD 2000
 90
        0
280
     0
281
     0
  0
CLASS
  1
LWPOLYLINE
  2
AcDbPolyline
  3
AutoCAD 2000
 90
        0
280
     0
281
     1
  0
CLASS
  1
HATCH
  2
AcDbHatch
  3
AutoCAD 2000
 90
        0
280
     0
281
     1
  0
CLASS
  1
ACDBPLACEHOLDER
  2
AcDbPlaceHolder
  3
ObjectDBX Classes
 90
        0
280
     0
281
     0
  0
CLASS
  1
LAYOUT
  2
AcDbLayout
  3
ObjectDBX Classes
 90
        0
280
     0
281
     0
  0
ENDSEC
  0
SECTION
  2
TABLES
  0
TABLE
  2
VPORT
  5
8
330
0
100
AcDbSymbolTable
 70
     1
  0
VPORT
  5
29
330
8
100
AcDbSymbolTableRecord
100
AcDbViewportTableRecord
  2
*ACTIVE
 70
     0
 10
0.0
 20
0.0
 11
1.0
 21
1.0
 12
0.0
 22
0.0
 13
0.0
 23
0.0
 14
0.5
 24
0.5
 15
0.5
 25
0.5
 16
0.0
 26
0.0
 36
1.0
 17
74.99999786197358
 27
39.74999886684608
 37
0.0
 40
39.99999998999989
 41
1.000000000000008
 42
50.0
 43
0.0
 44
0.0
 50
0.0
 51
0.0
 71
     0
 72
   100
 73
     1
 74
     3
 75
     0
 76
     0
 77
     0
 78
     0
  0
ENDTAB
  0
TABLE
  2
LTYPE
  5
5
330
0
100
AcDbSymbolTable
 70
     1
  0
LTYPE
  5
14
330
5
100
AcDbSymbolTableRecord
100
AcDbLinetypeTableRecord
  2
BYBLOCK
 70
     0
  3

 72
    65
 73
     0
 40
0.0
  0
LTYPE
  5
15
330
5
100
AcDbSymbolTableRecord
100
AcDbLinetypeTableRecord
  2
BYLAYER
 70
     0
  3

 72
    65
 73
     0
 40
0.0
  0
LTYPE
  5
16
330
5
100
AcDbSymbolTableRecord
100
AcDbLinetypeTableRecord
  2
CONTINUOUS
 70
     0
  3
Solid line
 72
    65
 73
     0
 40
0.0
  0
ENDTAB
  0
TABLE
  2
LAYER
  5
2
330
0
100
AcDbSymbolTable
 70
     6
  0
LAYER
  5
10
330
2
100
AcDbSymbolTableRecord
100
AcDbLayerTableRecord
  2
0
 70
     0
 62
     7
  6
CONTINUOUS
  0
LAYER
  5
40
330
2
100
AcDbSymbolTableRecord
100
AcDbLayerTableRecord
  2
REFERENCIAS
 70
     0
 62
     7
  6
CONTINUOUS
  0
LAYER
  5
42
330
2
100
AcDbSymbolTableRecord
100
AcDbLayerTableRecord
  2
M_U_00C1RGENES
 70
     0
 62
     7
  6
CONTINUOUS
  0
LAYER
  5
51
330
2
100
AcDbSymbolTableRecord
100
AcDbLayerTableRecord
  2
DIBUJOS
 70
     0
 62
     7
  6
CONTINUOUS
  0
LAYER
  5
99C
330
2
100
AcDbSymbolTableRecord
100
AcDbLayerTableRecord
  2
COTAS_LINEA
 70
     0
 62
     7
  6
CONTINUOUS
  0
LAYER
  5
9A9
330
2
100
AcDbSymbolTableRecord
100
AcDbLayerTableRecord
  2
COTAS_N_U_00DAMERO
 70
     0
 62
     7
  6
CONTINUOUS
  0
ENDTAB
  0
TABLE
  2
STYLE
  5
3
330
0
100
AcDbSymbolTable
 70
     1
  0
STYLE
  5
11
330
3
100
AcDbSymbolTableRecord
100
AcDbTextStyleTableRecord
  2
STANDARD
 70
     0
 40
0.0
 41
1.0
 50
0.0
 71
     0
 42
0.2
  3
txt
  4

  0
ENDTAB
  0
TABLE
  2
VIEW
  5
6
330
0
100
AcDbSymbolTable
 70
     0
  0
ENDTAB
  0
TABLE
  2
UCS
  5
7
330
0
100
AcDbSymbolTable
 70
     0
  0
ENDTAB
  0
TABLE
  2
APPID
  5
9
330
0
100
AcDbSymbolTable
 70
     1
  0
APPID
  5
12
330
9
100
AcDbSymbolTableRecord
100
AcDbRegAppTableRecord
  2
ACAD
 70
     0
  0
ENDTAB
  0
TABLE
  2
DIMSTYLE
  5
A
330
0
100
AcDbSymbolTable
 70
     1
  0
DIMSTYLE
105
27
330
A
100
AcDbSymbolTableRecord
100
AcDbDimStyleTableRecord
  2
STANDARD
 70
     0
  3

  4

  5

  6

  7

 40
1.0
 41
0.18
 42
0.0625
 43
0.38
 44
0.18
 45
0.0
 46
0.0
 47
0.0
 48
0.0
140
0.18
141
0.09
142
0.0
143
25.4
144
1.0
145
0.0
146
1.0
147
0.09
 71
     0
 72
     0
 73
     1
 74
     1
 75
     0
 76
     0
 77
     0
 78
     0
170
     0
171
     2
172
     0
173
     0
174
     0
175
     0
176
     0
177
     0
178
     0
270
     2
271
     4
272
     4
273
     2
274
     2
340
11
275
     0
280
     0
281
     0
282
     0
283
     1
284
     0
285
     0
286
     0
287
     3
288
     0
  0
ENDTAB
  0
TABLE
  2
BLOCK_RECORD
  5
1
330
0
100
AcDbSymbolTable
 70
     4
  0
BLOCK_RECORD
  5
1F
330
1
100
AcDbSymbolTableRecord
100
AcDbBlockTableRecord
  2
*MODEL_SPACE
  0
BLOCK_RECORD
  5
1B
330
1
100
AcDbSymbolTableRecord
100
AcDbBlockTableRecord
  2
*PAPER_SPACE
  0
BLOCK_RECORD
  5
52
330
1
100
AcDbSymbolTableRecord
100
AcDbBlockTableRecord
  2
BLOCK_2
  0
BLOCK_RECORD
  5
112
330
1
100
AcDbSymbolTableRecord
100
AcDbBlockTableRecord
  2
BLOCK_3
  0
BLOCK_RECORD
  5
4F8
330
1
100
AcDbSymbolTableRecord
100
AcDbBlockTableRecord
  2
BLOCK_4
  0
ENDTAB
  0
ENDSEC
  0
SECTION
  2
BLOCKS
  0
BLOCK
  5
20
330
1F
100
AcDbEntity
  8
0
100
AcDbBlockBegin
  2
*MODEL_SPACE
 70
     0
 10
0.0
 20
0.0
 30
0.0
  3
*MODEL_SPACE
  1

  0
ENDBLK
  5
21
330
1F
100
AcDbEntity
  8
0
100
AcDbBlockEnd
  0
BLOCK
  5
1C
330
1B
100
AcDbEntity
 67
     1
  8
0
100
AcDbBlockBegin
  2
*PAPER_SPACE
 70
     0
 10
0.0
 20
0.0
 30
0.0
  3
*PAPER_SPACE
  1

  0
ENDBLK
  5
1D
330
1B
100
AcDbEntity
 67
     1
  8
0
100
AcDbBlockEnd
  0
BLOCK
  5
54
330
52
100
AcDbEntity
  8
0
100
AcDbBlockBegin
  2
BLOCK_2
 70
     0
 10
0.0
 20
0.0
 30
0.0
  3
BLOCK_2
  1

  0
POLYLINE
  5
56
330
52
100
AcDbEntity
  8
DIBUJOS
 62
     7
100
AcDb2dPolyline
 66
     1
 10
0.0
 20
0.0
 30
0.0
  0
VERTEX
  5
57
330
56
100
AcDbEntity
  8
DIBUJOS
 62
     7
100
AcDbVertex
100
AcDb2dVertex
 10
81.48964104646764
 20
46.95386391902415
 30
0.0
  0
VERTEX
  5
58
330
56
100
AcDbEntity
  8
DIBUJOS
 62
     7
100
AcDbVertex
100
AcDb2dVertex
 10
81.48964104646764
 20
46.95990763010261
 30
0.0
  0
SEQEND
  5
59
330
56
100
AcDbEntity
  8
DIBUJOS
 62
     7
  0
POLYLINE
  5
5A
330
52
100
AcDbEntity
  8
DIBUJOS
 62
     7
100
AcDb2dPolyline
 66
     1
 10
0.0
 20
0.0
 30
0.0
  0
VERTEX
  5
5B
330
5A
100
AcDbEntity
  8
DIBUJOS
 62
     7
100
AcDbVertex
100
AcDb2dVertex
 10
81.51379988291619
 20
46.95990763010261
 30
0.0
  0
VERTEX
  5
5C
330
5A
100
AcDbEntity
  8
DIBUJOS
 62
     7
100
AcDbVertex
100
AcDb2dVertex
 10
81.95464744347191
 20
46.95692645651749
 30
0.0
  0
VERTEX
  5
5D
330
5A
100
AcDbEntity
  8
DIBUJOS
 62
     7
100
AcDbVertex
100
AcDb2dVertex
 10
84.46719569396696
 20
46.95692645651749
 30
0.0
  0
VERTEX
  5
5E
330
5A
100
AcDbEntity
  8
DIBUJOS
 62
     7
100
AcDbVertex
100
AcDb2dVertex
 10
84.92012754937987
 20
46.95990763010261
 30
0.0
  0
SEQEND
  5
5F
330
5A
100
AcDbEntity
  8
DIBUJOS
 62
     7
  0
POLYLINE
  5
60
330
52
100
AcDbEntity
  8
DIBUJOS
 62
     7
100
AcDb2dPolyline
 66
     1
 10
0.0
 20
0.0
 30
0.0
  0
VERTEX
  5
61
330
60
100
AcDbEntity
  8
DIBUJOS
 62
     7
100
AcDbVertex
100
AcDb2dVertex
 10
84.94428638582906
 20
46.95386391902415
 30
0.0
  0
VERTEX
  5
62
330
60
100
AcDbEntity
  8
DIBUJOS
 62
     7
100
AcDbVertex
100
AcDb2dVertex
 10
84.94428638582906
 20
46.95990763010261
 30
0.0
  0
SEQEND
  5
63
330
60
100
AcDbEntity
  8
DIBUJOS
 62
     7
  0
POLYLINE
  5
64
330
52
100
AcDbEntity
  8
DIBUJOS
 62
     7
100
AcDb2dPolyline
 66
     1
 10
0.0
 20
0.0
 30
0.0
  0
VERTEX
  5
65
330
64
100
AcDbEntity
  8
DIBUJOS
 62
     7
100
AcDbVertex
100
AcDb2dVertex
 10
81.97280802218363
 20
46.59110130839539
 30
0.0
  0
VERTEX
  5
66
330
64
100
AcDbEntity
  8
DIBUJOS
 62
     7
100
AcDbVertex
100
AcDb2dVertex
 10
81.97280802218363
 20
46.5971482740302
 30
0.0
  0
SEQEND
  5
67
330
64
100
AcDbEntity
  8
DIBUJOS
 62
     7
  0
POLYLINE
  5
68
330
52
100
AcDbEntity
  8
DIBUJOS
 62
     7
100
AcDb2dPolyline
 66
     1
 10
0.0
 20
0.0
 30
0.0
  0
VERTEX
  5
69
330
68
100
AcDbEntity
  8
DIBUJOS
 62
     7
100
AcDbVertex
100
AcDb2dVertex
 10
81.44736389545356
 20
44.99494972709587
 30
0.0
  0
VERTEX
  5
6A
330
68
100
AcDbEntity
  8
DIBUJOS
 62
     7
100
AcDbVertex
100
AcDb2dVertex
 10
81.44132337356928
 20
46.09532498113941
 30
0.0
  0
VERTEX
  5
6B
330
68
100
AcDbEntity
  8
DIBUJOS
 62
     7
100
AcDbVertex
100
AcDb2dVertex
 10
81.4612525442642
 20
46.19750503123043
 30
0.0
  0
VERTEX
  5
6C
330
68
100
AcDbEntity
  8
DIBUJOS
 62
     7
100
AcDbVertex
100
AcDb2dVertex
 10
81.4672930661485
 20
46.21564267357853
 30
0.0
  0
VERTEX
  5
6D
330
68
100
AcDbEntity
  8
DIBUJOS
 62
     7
100
AcDbVertex
100
AcDb2dVertex
 10
81.49707303410356
 20
46.28786778733902
 30
0.0
  0
VERTEX
  5
6E
330
68
100
AcDbEntity
  8
DIBUJOS
 62
     7
100
AcDbVertex
100
AcDb2dVertex
 10
81.5125904781044
 20
46.31358854590282
 30
0.0
  0
VERTEX
  5
6F
330
68
100
AcDbEntity
  8
DIBUJOS
 62
     7
100
AcDbVertex
100
AcDb2dVertex
 10
81.5379554682774
 20
46.3553054487587
 30
0.0
  0
VERTEX
  5
70
330
68
100
AcDbEntity
  8
DIBUJOS
 62
     7
100
AcDbVertex
100
AcDb2dVertex
 10
81.59835418494437
 20
46.41576534143748
 30
0.0
  0
VERTEX
  5
71
330
68
100
AcDbEntity
  8
DIBUJOS
 62
     7
100
AcDbVertex
100
AcDb2dVertex
 10
81.62359888485346
 20
46.43245145166863
 30
0.0
  0
VERTEX
  5
72
330
68
100
AcDbEntity
  8
DIBUJOS
 62
     7
100
AcDbVertex
100
AcDb2dVertex
 10
81.70766877473868
 20
46.47441244624817
 30
0.0
  0
VERTEX
  5
73
330
68
100
AcDbEntity
  8
DIBUJOS
 62
     7
100
AcDbVertex
100
AcDb2dVertex
 10
81.76699788338622
 20
46.49064291859519
 30
0.0
  0
VERTEX
  5
74
330
68
100
AcDbEntity
  8
DIBUJOS
 62
     7
100
AcDbVertex
100
AcDb2dVertex
 10
81.93038132111262
 20
46.50326734254413
 30
0.0
  0
VERTEX
  5
75
330
68
100
AcDbEntity
  8
DIBUJOS
 62
     7
100
AcDbVertex
100
AcDb2dVertex
 10
82.69755686021428
 20
46.50645680773368
 30
0.0
  0
VERTEX
  5
76
330
68
100
AcDbEntity
  8
DIBUJOS
 62
     7
100
AcDbVertex
100
AcDb2dVertex
 10
82.72171569666281
 20
46.50040984209887
 30
0.0
  0
VERTEX
  5
77
330
68
100
AcDbEntity
  8
DIBUJOS
 62
     7
100
AcDbVertex
100
AcDb2dVertex
 10
82.7821111622418
 20
46.50645680773368
 30
0.0
  0
VERTEX
  5
78
330
68
100
AcDbEntity
  8
DIBUJOS
 62
     7
100
AcDbVertex
100
AcDb2dVertex
 10
82.78815168412609
 20
46.50040984209887
 30
0.0
  0
VERTEX
  5
79
330
68
100
AcDbEntity
  8
DIBUJOS
 62
     7
100
AcDbVertex
100
AcDb2dVertex
 10
82.83042883514018
 20
46.50645680773368
 30
0.0
  0
VERTEX
  5
7A
330
68
100
AcDbEntity
  8
DIBUJOS
 62
     7
100
AcDbVertex
100
AcDb2dVertex
 10
82.83646935702383
 20
46.50040984209887
 30
0.0
  0
VERTEX
  5
7B
330
68
100
AcDbEntity
  8
DIBUJOS
 62
     7
100
AcDbVertex
100
AcDb2dVertex
 10
82.84854714970443
 20
46.50343332491627
 30
0.0
  0
VERTEX
  5
7C
330
68
100
AcDbEntity
  8
DIBUJOS
 62
     7
100
AcDbVertex
100
AcDb2dVertex
 10
84.4370613573974
 20
46.50332592455819
 30
0.0
  0
VERTEX
  5
7D
330
68
100
AcDbEntity
  8
DIBUJOS
 62
     7
100
AcDbVertex
100
AcDb2dVertex
 10
84.60596839398414
 20
46.49749375964019
 30
0.0
  0
VERTEX
  5
7E
330
68
100
AcDbEntity
  8
DIBUJOS
 62
     7
100
AcDbVertex
100
AcDb2dVertex
 10
84.66013152347443
 20
46.49171041306685
 30
0.0
  0
VERTEX
  5
7F
330
68
100
AcDbEntity
  8
DIBUJOS
 62
     7
100
AcDbVertex
100
AcDb2dVertex
 10
84.70209657002022
 20
46.480459411883
 30
0.0
  0
VERTEX
  5
80
330
68
100
AcDbEntity
  8
DIBUJOS
 62
     7
100
AcDbVertex
100
AcDb2dVertex
 10
84.73350533316548
 20
46.47199431090591
 30
0.0
  0
VERTEX
  5
81
330
68
100
AcDbEntity
  8
DIBUJOS
 62
     7
100
AcDbVertex
100
AcDb2dVertex
 10
84.81017574629705
 20
46.43241565154937
 30
0.0
  0
VERTEX
  5
82
330
68
100
AcDbEntity
  8
DIBUJOS
 62
     7
100
AcDbVertex
100
AcDb2dVertex
 10
84.84284918275411
 20
46.40516199696074
 30
0.0
  0
VERTEX
  5
83
330
68
100
AcDbEntity
  8
DIBUJOS
 62
     7
100
AcDbVertex
100
AcDb2dVertex
 10
84.8899281910464
 20
46.36135241439352
 30
0.0
  0
VERTEX
  5
84
330
68
100
AcDbEntity
  8
DIBUJOS
 62
     7
100
AcDbVertex
100
AcDb2dVertex
 10
84.92495866645173
 20
46.30633413987473
 30
0.0
  0
VERTEX
  5
85
330
68
100
AcDbEntity
  8
DIBUJOS
 62
     7
100
AcDbVertex
100
AcDb2dVertex
 10
84.93099918833602
 20
46.29424020860509
 30
0.0
  0
VERTEX
  5
86
330
68
100
AcDbEntity
  8
DIBUJOS
 62
     7
100
AcDbVertex
100
AcDb2dVertex
 10
84.96421555652334
 20
46.21685011397148
 30
0.0
  0
VERTEX
  5
87
330
68
100
AcDbEntity
  8
DIBUJOS
 62
     7
100
AcDbVertex
100
AcDb2dVertex
 10
84.97057468505189
 20
46.19259716030609
 30
0.0
  0
VERTEX
  5
88
330
68
100
AcDbEntity
  8
DIBUJOS
 62
     7
100
AcDbVertex
100
AcDb2dVertex
 10
84.98362130201711
 20
46.07711573855249
 30
0.0
  0
VERTEX
  5
89
330
68
100
AcDbEntity
  8
DIBUJOS
 62
     7
100
AcDbVertex
100
AcDb2dVertex
 10
84.98958379778432
 20
45.83534776807648
 30
0.0
  0
VERTEX
  5
8A
330
68
100
AcDbEntity
  8
DIBUJOS
 62
     7
100
AcDbVertex
100
AcDb2dVertex
 10
84.99260080763882
 20
45.539092015761
 30
0.0
  0
VERTEX
  5
8B
330
68
100
AcDbEntity
  8
DIBUJOS
 62
     7
100
AcDbVertex
100
AcDb2dVertex
 10
84.9865635368425
 20
45.53304505012618
 30
0.0
  0
VERTEX
  5
8C
330
68
100
AcDbEntity
  8
DIBUJOS
 62
     7
100
AcDbVertex
100
AcDb2dVertex
 10
84.9865635368425
 20
45.50281347650877
 30
0.0
  0
VERTEX
  5
8D
330
68
100
AcDbEntity
  8
DIBUJOS
 62
     7
100
AcDbVertex
100
AcDb2dVertex
 10
84.99260080763882
 20
45.49676976543031
 30
0.0
  0
VERTEX
  5
8E
330
68
100
AcDbEntity
  8
DIBUJOS
 62
     7
100
AcDbVertex
100
AcDb2dVertex
 10
84.9865635368425
 20
45.42421594148221
 30
0.0
  0
VERTEX
  5
8F
330
68
100
AcDbEntity
  8
DIBUJOS
 62
     7
100
AcDbVertex
100
AcDb2dVertex
 10
84.98958379778432
 20
45.41816897584739
 30
0.0
  0
VERTEX
  5
90
330
68
100
AcDbEntity
  8
DIBUJOS
 62
     7
100
AcDbVertex
100
AcDb2dVertex
 10
84.9865635368425
 20
45.00099343817433
 30
0.0
  0
SEQEND
  5
91
330
68
100
AcDbEntity
  8
DIBUJOS
 62
     7
  0
POLYLINE
  5
92
330
52
100
AcDbEntity
  8
DIBUJOS
 62
     7
100
AcDb2dPolyline
 66
     1
 10
0.0
 20
0.0
 30
0.0
  0
VERTEX
  5
93
330
92
100
AcDbEntity
  8
DIBUJOS
 62
     7
100
AcDbVertex
100
AcDb2dVertex
 10
81.44736389545356
 20
43.46530174955393
 30
0.0
  0
VERTEX
  5
9AD
330
92
100
AcDbEntity
  8
0
100
AcDbVertex
100
AcDb2dVertex
 10
81.44736389545356
 20
43.46530174955393
 30
0.0
  0
SEQEND
  5
94
330
92
100
AcDbEntity
  8
DIBUJOS
 62
     7
  0
POLYLINE
  5
95
330
52
100
AcDbEntity
  8
DIBUJOS
 62
     7
100
AcDb2dPolyline
 66
     1
 10
0.0
 20
0.0
 30
0.0
  0
VERTEX
  5
96
330
95
100
AcDbEntity
  8
DIBUJOS
 62
     7
100
AcDbVertex
100
AcDb2dVertex
 10
81.44132337356928
 20
43.07231081986379
 30
0.0
  0
VERTEX
  5
97
330
95
100
AcDbEntity
  8
DIBUJOS
 62
     7
100
AcDbVertex
100
AcDb2dVertex
 10
81.44736389545356
 20
43.47134871518843
 30
0.0
  0
SEQEND
  5
98
330
95
100
AcDbEntity
  8
DIBUJOS
 62
     7
  0
POLYLINE
  5
99
330
52
100
AcDbEntity
  8
DIBUJOS
 62
     7
100
AcDb2dPolyline
 66
     1
 10
0.0
 20
0.0
 30
0.0
  0
VERTEX
  5
9A
330
99
100
AcDbEntity
  8
DIBUJOS
 62
     7
100
AcDbVertex
100
AcDb2dVertex
 10
81.44132337356928
 20
43.07231081986379
 30
0.0
  0
VERTEX
  5
9AE
330
99
100
AcDbEntity
  8
0
100
AcDbVertex
100
AcDb2dVertex
 10
81.44132337356928
 20
43.07231081986379
 30
0.0
  0
SEQEND
  5
9B
330
99
100
AcDbEntity
  8
DIBUJOS
 62
     7
  0
POLYLINE
  5
9C
330
52
100
AcDbEntity
  8
DIBUJOS
 62
     7
100
AcDb2dPolyline
 66
     1
 10
0.0
 20
0.0
 30
0.0
  0
VERTEX
  5
9D
330
9C
100
AcDbEntity
  8
DIBUJOS
 62
     7
100
AcDbVertex
100
AcDb2dVertex
 10
81.44736389545356
 20
43.06626385422897
 30
0.0
  0
VERTEX
  5
9AF
330
9C
100
AcDbEntity
  8
0
100
AcDbVertex
100
AcDb2dVertex
 10
81.44736389545356
 20
43.06626385422897
 30
0.0
  0
SEQEND
  5
9E
330
9C
100
AcDbEntity
  8
DIBUJOS
 62
     7
  0
POLYLINE
  5
9F
330
52
100
AcDbEntity
  8
DIBUJOS
 62
     7
100
AcDb2dPolyline
 66
     1
 10
0.0
 20
0.0
 30
0.0
  0
VERTEX
  5
A0
330
9F
100
AcDbEntity
  8
DIBUJOS
 62
     7
100
AcDbVertex
100
AcDb2dVertex
 10
81.44736389545356
 20
43.06626385422897
 30
0.0
  0
VERTEX
  5
A1
330
9F
100
AcDbEntity
  8
DIBUJOS
 62
     7
100
AcDbVertex
100
AcDb2dVertex
 10
81.45023135525048
 20
42.94547913295848
 30
0.0
  0
VERTEX
  5
A2
330
9F
100
AcDbEntity
  8
DIBUJOS
 62
     7
100
AcDbVertex
100
AcDb2dVertex
 10
81.45612557816519
 20
42.87908455683814
 30
0.0
  0
VERTEX
  5
A3
330
9F
100
AcDbEntity
  8
DIBUJOS
 62
     7
100
AcDbVertex
100
AcDb2dVertex
 10
81.4676149238807
 20
42.80681713384535
 30
0.0
  0
VERTEX
  5
A4
330
9F
100
AcDbEntity
  8
DIBUJOS
 62
     7
100
AcDbVertex
100
AcDb2dVertex
 10
81.47333358803279
 20
42.7887510917364
 30
0.0
  0
VERTEX
  5
A5
330
9F
100
AcDbEntity
  8
DIBUJOS
 62
     7
100
AcDbVertex
100
AcDb2dVertex
 10
81.50896551475637
 20
42.7041065910747
 30
0.0
  0
VERTEX
  5
A6
330
9F
100
AcDbEntity
  8
DIBUJOS
 62
     7
100
AcDbVertex
100
AcDb2dVertex
 10
81.51524661716782
 20
42.69249758869638
 30
0.0
  0
VERTEX
  5
A7
330
9F
100
AcDbEntity
  8
DIBUJOS
 62
     7
100
AcDbVertex
100
AcDb2dVertex
 10
81.57419534849518
 20
42.61885674293882
 30
0.0
  0
VERTEX
  5
A8
330
9F
100
AcDbEntity
  8
DIBUJOS
 62
     7
100
AcDbVertex
100
AcDb2dVertex
 10
81.60557160075817
 20
42.59614807624487
 30
0.0
  0
VERTEX
  5
A9
330
9F
100
AcDbEntity
  8
DIBUJOS
 62
     7
100
AcDbVertex
100
AcDb2dVertex
 10
81.70766877473868
 20
42.54207199577971
 30
0.0
  0
VERTEX
  5
AA
330
9F
100
AcDbEntity
  8
DIBUJOS
 62
     7
100
AcDbVertex
100
AcDb2dVertex
 10
81.73061820637544
 20
42.53300317460566
 30
0.0
  0
VERTEX
  5
AB
330
9F
100
AcDbEntity
  8
DIBUJOS
 62
     7
100
AcDbVertex
100
AcDb2dVertex
 10
81.84597656914266
 20
42.51002926157206
 30
0.0
  0
VERTEX
  5
AC
330
9F
100
AcDbEntity
  8
DIBUJOS
 62
     7
100
AcDbVertex
100
AcDb2dVertex
 10
82.75795232579262
 20
42.51002926157206
 30
0.0
  0
VERTEX
  5
AD
330
9F
100
AcDbEntity
  8
DIBUJOS
 62
     7
100
AcDbVertex
100
AcDb2dVertex
 10
82.77003336956119
 20
42.51607459992934
 30
0.0
  0
VERTEX
  5
AE
330
9F
100
AcDbEntity
  8
DIBUJOS
 62
     7
100
AcDbVertex
100
AcDb2dVertex
 10
82.77607389144548
 20
42.51002926157206
 30
0.0
  0
VERTEX
  5
AF
330
9F
100
AcDbEntity
  8
DIBUJOS
 62
     7
100
AcDbVertex
100
AcDb2dVertex
 10
82.806269998691
 20
42.51002926157206
 30
0.0
  0
VERTEX
  5
B0
330
9F
100
AcDbEntity
  8
DIBUJOS
 62
     7
100
AcDbVertex
100
AcDb2dVertex
 10
82.81231052057528
 20
42.51607459992934
 30
0.0
  0
VERTEX
  5
B1
330
9F
100
AcDbEntity
  8
DIBUJOS
 62
     7
100
AcDbVertex
100
AcDb2dVertex
 10
82.84854714970443
 20
42.51002926157206
 30
0.0
  0
VERTEX
  5
B2
330
9F
100
AcDbEntity
  8
DIBUJOS
 62
     7
100
AcDbVertex
100
AcDb2dVertex
 10
82.85458767158872
 20
42.51607459992934
 30
0.0
  0
VERTEX
  5
B3
330
9F
100
AcDbEntity
  8
DIBUJOS
 62
     7
100
AcDbVertex
100
AcDb2dVertex
 10
82.9029053444871
 20
42.51305111711194
 30
0.0
  0
VERTEX
  5
B4
330
9F
100
AcDbEntity
  8
DIBUJOS
 62
     7
100
AcDbVertex
100
AcDb2dVertex
 10
83.05993290477358
 20
42.51002926157206
 30
0.0
  0
VERTEX
  5
B5
330
9F
100
AcDbEntity
  8
DIBUJOS
 62
     7
100
AcDbVertex
100
AcDb2dVertex
 10
83.06597342665786
 20
42.51607459992934
 30
0.0
  0
VERTEX
  5
B6
330
9F
100
AcDbEntity
  8
DIBUJOS
 62
     7
100
AcDbVertex
100
AcDb2dVertex
 10
83.07805121933848
 20
42.51607459992934
 30
0.0
  0
VERTEX
  5
B7
330
9F
100
AcDbEntity
  8
DIBUJOS
 62
     7
100
AcDbVertex
100
AcDb2dVertex
 10
83.08409174122276
 20
42.51002926157206
 30
0.0
  0
VERTEX
  5
B8
330
9F
100
AcDbEntity
  8
DIBUJOS
 62
     7
100
AcDbVertex
100
AcDb2dVertex
 10
83.74846787129215
 20
42.51307389900577
 30
0.0
  0
VERTEX
  5
B9
330
9F
100
AcDbEntity
  8
DIBUJOS
 62
     7
100
AcDbVertex
100
AcDb2dVertex
 10
84.53961043263794
 20
42.51907530085227
 30
0.0
  0
VERTEX
  5
BA
330
9F
100
AcDbEntity
  8
DIBUJOS
 62
     7
100
AcDbVertex
100
AcDb2dVertex
 10
84.61187887233997
 20
42.52487329292888
 30
0.0
  0
VERTEX
  5
BB
330
9F
100
AcDbEntity
  8
DIBUJOS
 62
     7
100
AcDbVertex
100
AcDb2dVertex
 10
84.69009030128075
 20
42.53634723122011
 30
0.0
  0
VERTEX
  5
BC
330
9F
100
AcDbEntity
  8
DIBUJOS
 62
     7
100
AcDbVertex
100
AcDb2dVertex
 10
84.71538376751262
 20
42.5444917584008
 30
0.0
  0
VERTEX
  5
BD
330
9F
100
AcDbEntity
  8
DIBUJOS
 62
     7
100
AcDbVertex
100
AcDb2dVertex
 10
84.78028849243124
 20
42.57188373163225
 30
0.0
  0
VERTEX
  5
BE
330
9F
100
AcDbEntity
  8
DIBUJOS
 62
     7
100
AcDbVertex
100
AcDb2dVertex
 10
84.8367501412825
 20
42.61133709057107
 30
0.0
  0
VERTEX
  5
BF
330
9F
100
AcDbEntity
  8
DIBUJOS
 62
     7
100
AcDbVertex
100
AcDb2dVertex
 10
84.8899281910464
 20
42.66117899326919
 30
0.0
  0
VERTEX
  5
C0
330
9F
100
AcDbEntity
  8
DIBUJOS
 62
     7
100
AcDbVertex
100
AcDb2dVertex
 10
84.92477335442454
 20
42.71047738506323
 30
0.0
  0
VERTEX
  5
C1
330
9F
100
AcDbEntity
  8
DIBUJOS
 62
     7
100
AcDbVertex
100
AcDb2dVertex
 10
84.96059384426327
 20
42.7887510917364
 30
0.0
  0
VERTEX
  5
C2
330
9F
100
AcDbEntity
  8
DIBUJOS
 62
     7
100
AcDbVertex
100
AcDb2dVertex
 10
84.97025607840763
 20
42.8177719704045
 30
0.0
  0
VERTEX
  5
C3
330
9F
100
AcDbEntity
  8
DIBUJOS
 62
     7
100
AcDbVertex
100
AcDb2dVertex
 10
84.98321491599123
 20
42.90879702872315
 30
0.0
  0
VERTEX
  5
C4
330
9F
100
AcDbEntity
  8
DIBUJOS
 62
     7
100
AcDbVertex
100
AcDb2dVertex
 10
84.98948951622675
 20
43.10849823153906
 30
0.0
  0
VERTEX
  5
C5
330
9F
100
AcDbEntity
  8
DIBUJOS
 62
     7
100
AcDbVertex
100
AcDb2dVertex
 10
84.9865635368425
 20
44.95262422220883
 30
0.0
  0
VERTEX
  5
C6
330
9F
100
AcDbEntity
  8
DIBUJOS
 62
     7
100
AcDbVertex
100
AcDb2dVertex
 10
84.99864132952247
 20
44.96471815347846
 30
0.0
  0
VERTEX
  5
C7
330
9F
100
AcDbEntity
  8
DIBUJOS
 62
     7
100
AcDbVertex
100
AcDb2dVertex
 10
85.10177885172874
 20
44.98657575369542
 30
0.0
  0
VERTEX
  5
C8
330
9F
100
AcDbEntity
  8
DIBUJOS
 62
     7
100
AcDbVertex
100
AcDb2dVertex
 10
85.12500787695087
 20
44.99122651467066
 30
0.0
  0
VERTEX
  5
C9
330
9F
100
AcDbEntity
  8
DIBUJOS
 62
     7
100
AcDbVertex
100
AcDb2dVertex
 10
85.26378057696806
 20
45.05057009453312
 30
0.0
  0
VERTEX
  5
CA
330
9F
100
AcDbEntity
  8
DIBUJOS
 62
     7
100
AcDbVertex
100
AcDb2dVertex
 10
85.33021656443069
 20
45.08684863378535
 30
0.0
  0
VERTEX
  5
CB
330
9F
100
AcDbEntity
  8
DIBUJOS
 62
     7
100
AcDbVertex
100
AcDb2dVertex
 10
85.41058346485079
 20
45.13087952618208
 30
0.0
  0
VERTEX
  5
CC
330
9F
100
AcDbEntity
  8
DIBUJOS
 62
     7
100
AcDbVertex
100
AcDb2dVertex
 10
85.42745336154505
 20
45.13400715480154
 30
0.0
  0
VERTEX
  5
CD
330
9F
100
AcDbEntity
  8
DIBUJOS
 62
     7
100
AcDbVertex
100
AcDb2dVertex
 10
85.44557167610994
 20
45.15214479714932
 30
0.0
  0
VERTEX
  5
CE
330
9F
100
AcDbEntity
  8
DIBUJOS
 62
     7
100
AcDbVertex
100
AcDb2dVertex
 10
85.44789295308797
 20
45.17586400357904
 30
0.0
  0
VERTEX
  5
CF
330
9F
100
AcDbEntity
  8
DIBUJOS
 62
     7
100
AcDbVertex
100
AcDb2dVertex
 10
85.46508470751444
 20
45.21167388672173
 30
0.0
  0
VERTEX
  5
D0
330
9F
100
AcDbEntity
  8
DIBUJOS
 62
     7
100
AcDbVertex
100
AcDb2dVertex
 10
85.48645411028377
 20
45.24376706655222
 30
0.0
  0
VERTEX
  5
D1
330
9F
100
AcDbEntity
  8
DIBUJOS
 62
     7
100
AcDbVertex
100
AcDb2dVertex
 10
85.54099761709362
 20
45.34622375393014
 30
0.0
  0
VERTEX
  5
D2
330
9F
100
AcDbEntity
  8
DIBUJOS
 62
     7
100
AcDbVertex
100
AcDb2dVertex
 10
85.56515645354281
 20
45.40063668097411
 30
0.0
  0
VERTEX
  5
D3
330
9F
100
AcDbEntity
  8
DIBUJOS
 62
     7
100
AcDbVertex
100
AcDb2dVertex
 10
85.60595110833566
 20
45.57563742863138
 30
0.0
  0
VERTEX
  5
D4
330
9F
100
AcDbEntity
  8
DIBUJOS
 62
     7
100
AcDbVertex
100
AcDb2dVertex
 10
85.61133165931373
 20
45.62951335388301
 30
0.0
  0
VERTEX
  5
D5
330
9F
100
AcDbEntity
  8
DIBUJOS
 62
     7
100
AcDbVertex
100
AcDb2dVertex
 10
85.6238385956373
 20
45.76288832626137
 30
0.0
  0
VERTEX
  5
D6
330
9F
100
AcDbEntity
  8
DIBUJOS
 62
     7
100
AcDbVertex
100
AcDb2dVertex
 10
85.63279859472989
 20
45.95022058779924
 30
0.0
  0
VERTEX
  5
D7
330
9F
100
AcDbEntity
  8
DIBUJOS
 62
     7
100
AcDbVertex
100
AcDb2dVertex
 10
85.62968080114125
 20
46.14983229031637
 30
0.0
  0
VERTEX
  5
D8
330
9F
100
AcDbEntity
  8
DIBUJOS
 62
     7
100
AcDbVertex
100
AcDb2dVertex
 10
85.62383534454932
 20
46.33707667883397
 30
0.0
  0
VERTEX
  5
D9
330
9F
100
AcDbEntity
  8
DIBUJOS
 62
     7
100
AcDbVertex
100
AcDb2dVertex
 10
85.59888324257814
 20
46.58551974431376
 30
0.0
  0
VERTEX
  5
DA
330
9F
100
AcDbEntity
  8
DIBUJOS
 62
     7
100
AcDbVertex
100
AcDb2dVertex
 10
85.59284597178247
 20
46.61575131793117
 30
0.0
  0
VERTEX
  5
DB
330
9F
100
AcDbEntity
  8
DIBUJOS
 62
     7
100
AcDbVertex
100
AcDb2dVertex
 10
85.56515645354281
 20
46.73560035426074
 30
0.0
  0
VERTEX
  5
DC
330
9F
100
AcDbEntity
  8
DIBUJOS
 62
     7
100
AcDbVertex
100
AcDb2dVertex
 10
85.52287930252872
 20
46.81419788928763
 30
0.0
  0
VERTEX
  5
DD
330
9F
100
AcDbEntity
  8
DIBUJOS
 62
     7
100
AcDbVertex
100
AcDb2dVertex
 10
85.44801974552783
 20
46.91194848823292
 30
0.0
  0
VERTEX
  5
DE
330
9F
100
AcDbEntity
  8
DIBUJOS
 62
     7
100
AcDbVertex
100
AcDb2dVertex
 10
85.44557167610994
 20
46.94176998775452
 30
0.0
  0
VERTEX
  5
DF
330
9F
100
AcDbEntity
  8
DIBUJOS
 62
     7
100
AcDbVertex
100
AcDb2dVertex
 10
85.42745336154505
 20
46.95990763010261
 30
0.0
  0
VERTEX
  5
E0
330
9F
100
AcDbEntity
  8
DIBUJOS
 62
     7
100
AcDbVertex
100
AcDb2dVertex
 10
85.40268982268964
 20
46.96474715534415
 30
0.0
  0
VERTEX
  5
E1
330
9F
100
AcDbEntity
  8
DIBUJOS
 62
     7
100
AcDbVertex
100
AcDb2dVertex
 10
85.39785870561778
 20
46.96716529068674
 30
0.0
  0
VERTEX
  5
E2
330
9F
100
AcDbEntity
  8
DIBUJOS
 62
     7
100
AcDbVertex
100
AcDb2dVertex
 10
85.23962174051887
 20
47.0548300196095
 30
0.0
  0
VERTEX
  5
E3
330
9F
100
AcDbEntity
  8
DIBUJOS
 62
     7
100
AcDbVertex
100
AcDb2dVertex
 10
85.19734458950542
 20
47.07357300943242
 30
0.0
  0
VERTEX
  5
E4
330
9F
100
AcDbEntity
  8
DIBUJOS
 62
     7
100
AcDbVertex
100
AcDb2dVertex
 10
85.1079591704054
 20
47.1128717769457
 30
0.0
  0
VERTEX
  5
E5
330
9F
100
AcDbEntity
  8
DIBUJOS
 62
     7
100
AcDbVertex
100
AcDb2dVertex
 10
85.04152318294277
 20
47.13645429201015
 30
0.0
  0
VERTEX
  5
E6
330
9F
100
AcDbEntity
  8
DIBUJOS
 62
     7
100
AcDbVertex
100
AcDb2dVertex
 10
84.91362212188237
 20
47.17524209418161
 30
0.0
  0
VERTEX
  5
E7
330
9F
100
AcDbEntity
  8
DIBUJOS
 62
     7
100
AcDbVertex
100
AcDb2dVertex
 10
84.77564268738719
 20
47.20407420858341
 30
0.0
  0
VERTEX
  5
E8
330
9F
100
AcDbEntity
  8
DIBUJOS
 62
     7
100
AcDbVertex
100
AcDb2dVertex
 10
84.64805047970522
 20
47.22327934540316
 30
0.0
  0
VERTEX
  5
E9
330
9F
100
AcDbEntity
  8
DIBUJOS
 62
     7
100
AcDbVertex
100
AcDb2dVertex
 10
84.35260458801605
 20
47.25291208065846
 30
0.0
  0
VERTEX
  5
EA
330
9F
100
AcDbEntity
  8
DIBUJOS
 62
     7
100
AcDbVertex
100
AcDb2dVertex
 10
83.77249341312425
 20
47.28953885743641
 30
0.0
  0
VERTEX
  5
EB
330
9F
100
AcDbEntity
  8
DIBUJOS
 62
     7
100
AcDbVertex
100
AcDb2dVertex
 10
83.44042726389713
 20
47.3045325983836
 30
0.0
  0
VERTEX
  5
EC
330
9F
100
AcDbEntity
  8
DIBUJOS
 62
     7
100
AcDbVertex
100
AcDb2dVertex
 10
82.98131834089554
 20
47.30140171520779
 30
0.0
  0
VERTEX
  5
ED
330
9F
100
AcDbEntity
  8
DIBUJOS
 62
     7
100
AcDbVertex
100
AcDb2dVertex
 10
82.66748104323267
 20
47.28954862110547
 30
0.0
  0
VERTEX
  5
EE
330
9F
100
AcDbEntity
  8
DIBUJOS
 62
     7
100
AcDbVertex
100
AcDb2dVertex
 10
82.00320569689809
 20
47.24732400746445
 30
0.0
  0
VERTEX
  5
EF
330
9F
100
AcDbEntity
  8
DIBUJOS
 62
     7
100
AcDbVertex
100
AcDb2dVertex
 10
81.78587370150223
 20
47.22327934540316
 30
0.0
  0
VERTEX
  5
F0
330
9F
100
AcDbEntity
  8
DIBUJOS
 62
     7
100
AcDbVertex
100
AcDb2dVertex
 10
81.62808538657603
 20
47.19803049750494
 30
0.0
  0
VERTEX
  5
F1
330
9F
100
AcDbEntity
  8
DIBUJOS
 62
     7
100
AcDbVertex
100
AcDb2dVertex
 10
81.51333497730299
 20
47.17384588952235
 30
0.0
  0
VERTEX
  5
F2
330
9F
100
AcDbEntity
  8
DIBUJOS
 62
     7
100
AcDbVertex
100
AcDb2dVertex
 10
81.33804605457063
 20
47.11891874258052
 30
0.0
  0
VERTEX
  5
F3
330
9F
100
AcDbEntity
  8
DIBUJOS
 62
     7
100
AcDbVertex
100
AcDb2dVertex
 10
81.170146855328
 20
47.04334469037104
 30
0.0
  0
VERTEX
  5
F4
330
9F
100
AcDbEntity
  8
DIBUJOS
 62
     7
100
AcDbVertex
100
AcDb2dVertex
 10
81.02405920685084
 20
46.96204261904592
 30
0.0
  0
VERTEX
  5
F5
330
9F
100
AcDbEntity
  8
DIBUJOS
 62
     7
100
AcDbVertex
100
AcDb2dVertex
 10
81.00647407075101
 20
46.95990763010261
 30
0.0
  0
VERTEX
  5
F6
330
9F
100
AcDbEntity
  8
DIBUJOS
 62
     7
100
AcDbVertex
100
AcDb2dVertex
 10
80.98835250509815
 20
46.94176998775452
 30
0.0
  0
VERTEX
  5
F7
330
9F
100
AcDbEntity
  8
DIBUJOS
 62
     7
100
AcDbVertex
100
AcDb2dVertex
 10
80.98436667095967
 20
46.91268076340394
 30
0.0
  0
VERTEX
  5
F8
330
9F
100
AcDbEntity
  8
DIBUJOS
 62
     7
100
AcDbVertex
100
AcDb2dVertex
 10
80.97477596075517
 20
46.8947351398785
 30
0.0
  0
VERTEX
  5
F9
330
9F
100
AcDbEntity
  8
DIBUJOS
 62
     7
100
AcDbVertex
100
AcDb2dVertex
 10
80.91727396367945
 20
46.82596636492537
 30
0.0
  0
VERTEX
  5
FA
330
9F
100
AcDbEntity
  8
DIBUJOS
 62
     7
100
AcDbVertex
100
AcDb2dVertex
 10
80.86877097875325
 20
46.73560035426074
 30
0.0
  0
VERTEX
  5
FB
330
9F
100
AcDbEntity
  8
DIBUJOS
 62
     7
100
AcDbVertex
100
AcDb2dVertex
 10
80.84712198239853
 20
46.63993267135741
 30
0.0
  0
VERTEX
  5
FC
330
9F
100
AcDbEntity
  8
DIBUJOS
 62
     7
100
AcDbVertex
100
AcDb2dVertex
 10
80.82800883484268
 20
46.54248474614985
 30
0.0
  0
VERTEX
  5
FD
330
9F
100
AcDbEntity
  8
DIBUJOS
 62
     7
100
AcDbVertex
100
AcDb2dVertex
 10
80.81652274021576
 20
46.41601268771751
 30
0.0
  0
VERTEX
  5
FE
330
9F
100
AcDbEntity
  8
DIBUJOS
 62
     7
100
AcDbVertex
100
AcDb2dVertex
 10
80.8011255864782
 20
46.1376472314701
 30
0.0
  0
VERTEX
  5
FF
330
9F
100
AcDbEntity
  8
DIBUJOS
 62
     7
100
AcDbVertex
100
AcDb2dVertex
 10
80.8011255864782
 20
45.95626755343406
 30
0.0
  0
VERTEX
  5
100
330
9F
100
AcDbEntity
  8
DIBUJOS
 62
     7
100
AcDbVertex
100
AcDb2dVertex
 10
80.81009208774674
 20
45.75683810607019
 30
0.0
  0
VERTEX
  5
101
330
9F
100
AcDbEntity
  8
DIBUJOS
 62
     7
100
AcDbVertex
100
AcDb2dVertex
 10
80.83364622179035
 20
45.54560112839265
 30
0.0
  0
VERTEX
  5
102
330
9F
100
AcDbEntity
  8
DIBUJOS
 62
     7
100
AcDbVertex
100
AcDb2dVertex
 10
80.86635542021764
 20
45.40547295165929
 30
0.0
  0
VERTEX
  5
103
330
9F
100
AcDbEntity
  8
DIBUJOS
 62
     7
100
AcDbVertex
100
AcDb2dVertex
 10
80.92331123447512
 20
45.2800423512481
 30
0.0
  0
VERTEX
  5
104
330
9F
100
AcDbEntity
  8
DIBUJOS
 62
     7
100
AcDbVertex
100
AcDb2dVertex
 10
80.98110582949003
 20
45.18781798892705
 30
0.0
  0
VERTEX
  5
105
330
9F
100
AcDbEntity
  8
DIBUJOS
 62
     7
100
AcDbVertex
100
AcDb2dVertex
 10
80.98835250509815
 20
45.15214479714932
 30
0.0
  0
VERTEX
  5
106
330
9F
100
AcDbEntity
  8
DIBUJOS
 62
     7
100
AcDbVertex
100
AcDb2dVertex
 10
81.00647407075101
 20
45.13400715480154
 30
0.0
  0
VERTEX
  5
107
330
9F
100
AcDbEntity
  8
DIBUJOS
 62
     7
100
AcDbVertex
100
AcDb2dVertex
 10
81.0233407163573
 20
45.13087952618208
 30
0.0
  0
VERTEX
  5
108
330
9F
100
AcDbEntity
  8
DIBUJOS
 62
     7
100
AcDbVertex
100
AcDb2dVertex
 10
81.08405803966785
 20
45.09633566544578
 30
0.0
  0
VERTEX
  5
109
330
9F
100
AcDbEntity
  8
DIBUJOS
 62
     7
100
AcDbVertex
100
AcDb2dVertex
 10
81.09799545480126
 20
45.08703414349529
 30
0.0
  0
VERTEX
  5
10A
330
9F
100
AcDbEntity
  8
DIBUJOS
 62
     7
100
AcDbVertex
100
AcDb2dVertex
 10
81.20638348445715
 20
45.03303779965984
 30
0.0
  0
VERTEX
  5
10B
330
9F
100
AcDbEntity
  8
DIBUJOS
 62
     7
100
AcDbVertex
100
AcDb2dVertex
 10
81.271610067108
 20
45.00582970885984
 30
0.0
  0
VERTEX
  5
10C
330
9F
100
AcDbEntity
  8
DIBUJOS
 62
     7
100
AcDbVertex
100
AcDb2dVertex
 10
81.33307514070576
 20
44.9851828035922
 30
0.0
  0
VERTEX
  5
10D
330
9F
100
AcDbEntity
  8
DIBUJOS
 62
     7
100
AcDbVertex
100
AcDb2dVertex
 10
81.36327449903987
 20
44.97913583795738
 30
0.0
  0
VERTEX
  5
10E
330
9F
100
AcDbEntity
  8
DIBUJOS
 62
     7
100
AcDbVertex
100
AcDb2dVertex
 10
81.43528285168499
 20
44.96471815347846
 30
0.0
  0
VERTEX
  5
10F
330
9F
100
AcDbEntity
  8
DIBUJOS
 62
     7
100
AcDbVertex
100
AcDb2dVertex
 10
81.44736389545356
 20
44.95262422220883
 30
0.0
  0
VERTEX
  5
110
330
9F
100
AcDbEntity
  8
DIBUJOS
 62
     7
100
AcDbVertex
100
AcDb2dVertex
 10
81.44736389545356
 20
43.47134871518843
 30
0.0
  0
SEQEND
  5
111
330
9F
100
AcDbEntity
  8
DIBUJOS
 62
     7
  0
ENDBLK
  5
55
330
52
100
AcDbEntity
  8
0
100
AcDbBlockEnd
  0
BLOCK
  5
114
330
112
100
AcDbEntity
  8
0
100
AcDbBlockBegin
  2
BLOCK_3
 70
     0
 10
0.0
 20
0.0
 30
0.0
  3
BLOCK_3
  1

  0
POLYLINE
  5
116
330
112
100
AcDbEntity
  8
DIBUJOS
 62
     7
100
AcDb2dPolyline
 66
     1
 10
0.0
 20
0.0
 30
0.0
  0
VERTEX
  5
117
330
116
100
AcDbEntity
  8
DIBUJOS
 62
     7
100
AcDbVertex
100
AcDb2dVertex
 10
66.25713621172741
 20
46.95990763010261
 30
0.0
  0
VERTEX
  5
118
330
116
100
AcDbEntity
  8
DIBUJOS
 62
     7
100
AcDbVertex
100
AcDb2dVertex
 10
62.97763999830535
 20
46.95990763010261
 30
0.0
  0
SEQEND
  5
119
330
116
100
AcDbEntity
  8
DIBUJOS
 62
     7
  0
POLYLINE
  5
11A
330
112
100
AcDbEntity
  8
DIBUJOS
 62
     7
100
AcDb2dPolyline
 66
     1
 10
0.0
 20
0.0
 30
0.0
  0
VERTEX
  5
11B
330
11A
100
AcDbEntity
  8
DIBUJOS
 62
     7
100
AcDbVertex
100
AcDb2dVertex
 10
62.62130285008634
 20
46.95386391902415
 30
0.0
  0
VERTEX
  5
11C
330
11A
100
AcDbEntity
  8
DIBUJOS
 62
     7
100
AcDbVertex
100
AcDb2dVertex
 10
62.64546168653521
 20
46.95386391902415
 30
0.0
  0
VERTEX
  5
11D
330
11A
100
AcDbEntity
  8
DIBUJOS
 62
     7
100
AcDbVertex
100
AcDb2dVertex
 10
62.65150058287584
 20
46.95990763010261
 30
0.0
  0
SEQEND
  5
11E
330
11A
100
AcDbEntity
  8
DIBUJOS
 62
     7
  0
POLYLINE
  5
11F
330
112
100
AcDbEntity
  8
DIBUJOS
 62
     7
100
AcDb2dPolyline
 66
     1
 10
0.0
 20
0.0
 30
0.0
  0
VERTEX
  5
120
330
11F
100
AcDbEntity
  8
DIBUJOS
 62
     7
100
AcDbVertex
100
AcDb2dVertex
 10
66.60139394172181
 20
46.95386391902415
 30
0.0
  0
VERTEX
  5
121
330
11F
100
AcDbEntity
  8
DIBUJOS
 62
     7
100
AcDbVertex
100
AcDb2dVertex
 10
66.58327400161325
 20
46.95386391902415
 30
0.0
  0
SEQEND
  5
122
330
11F
100
AcDbEntity
  8
DIBUJOS
 62
     7
  0
POLYLINE
  5
123
330
112
100
AcDbEntity
  8
DIBUJOS
 62
     7
100
AcDb2dPolyline
 66
     1
 10
0.0
 20
0.0
 30
0.0
  0
VERTEX
  5
124
330
123
100
AcDbEntity
  8
DIBUJOS
 62
     7
100
AcDbVertex
100
AcDb2dVertex
 10
62.47635308248048
 20
46.47018152303781
 30
0.0
  0
VERTEX
  5
125
330
123
100
AcDbEntity
  8
DIBUJOS
 62
     7
100
AcDbVertex
100
AcDb2dVertex
 10
62.47031418614017
 20
46.47622523411627
 30
0.0
  0
SEQEND
  5
126
330
123
100
AcDbEntity
  8
DIBUJOS
 62
     7
  0
POLYLINE
  5
127
330
112
100
AcDbEntity
  8
DIBUJOS
 62
     7
100
AcDb2dPolyline
 66
     1
 10
0.0
 20
0.0
 30
0.0
  0
VERTEX
  5
128
330
127
100
AcDbEntity
  8
DIBUJOS
 62
     7
100
AcDbVertex
100
AcDb2dVertex
 10
62.55486848816738
 20
46.4218123070723
 30
0.0
  0
VERTEX
  5
129
330
127
100
AcDbEntity
  8
DIBUJOS
 62
     7
100
AcDbVertex
100
AcDb2dVertex
 10
62.52466912983422
 20
46.46413455740299
 30
0.0
  0
VERTEX
  5
12A
330
127
100
AcDbEntity
  8
DIBUJOS
 62
     7
100
AcDbVertex
100
AcDb2dVertex
 10
62.48683296530822
 20
46.49169739484175
 30
0.0
  0
VERTEX
  5
12B
330
127
100
AcDbEntity
  8
DIBUJOS
 62
     7
100
AcDbVertex
100
AcDb2dVertex
 10
62.47695778488637
 20
46.4961789188885
 30
0.0
  0
VERTEX
  5
12C
330
127
100
AcDbEntity
  8
DIBUJOS
 62
     7
100
AcDbVertex
100
AcDb2dVertex
 10
62.44011645335068
 20
46.50040984209887
 30
0.0
  0
SEQEND
  5
12D
330
127
100
AcDbEntity
  8
DIBUJOS
 62
     7
  0
POLYLINE
  5
12E
330
112
100
AcDbEntity
  8
DIBUJOS
 62
     7
100
AcDb2dPolyline
 66
     1
 10
0.0
 20
0.0
 30
0.0
  0
VERTEX
  5
12F
330
12E
100
AcDbEntity
  8
DIBUJOS
 62
     7
100
AcDbVertex
100
AcDb2dVertex
 10
62.55486848816738
 20
46.41576534143748
 30
0.0
  0
VERTEX
  5
130
330
12E
100
AcDbEntity
  8
DIBUJOS
 62
     7
100
AcDbVertex
100
AcDb2dVertex
 10
62.55486848816738
 20
46.4218123070723
 30
0.0
  0
SEQEND
  5
131
330
12E
100
AcDbEntity
  8
DIBUJOS
 62
     7
  0
POLYLINE
  5
132
330
112
100
AcDbEntity
  8
DIBUJOS
 62
     7
100
AcDb2dPolyline
 66
     1
 10
0.0
 20
0.0
 30
0.0
  0
VERTEX
  5
133
330
132
100
AcDbEntity
  8
DIBUJOS
 62
     7
100
AcDbVertex
100
AcDb2dVertex
 10
62.56090738450801
 20
46.41576534143748
 30
0.0
  0
VERTEX
  5
134
330
132
100
AcDbEntity
  8
DIBUJOS
 62
     7
100
AcDbVertex
100
AcDb2dVertex
 10
62.55486848816738
 20
46.41576534143748
 30
0.0
  0
SEQEND
  5
135
330
132
100
AcDbEntity
  8
DIBUJOS
 62
     7
  0
POLYLINE
  5
136
330
112
100
AcDbEntity
  8
DIBUJOS
 62
     7
100
AcDb2dPolyline
 66
     1
 10
0.0
 20
0.0
 30
0.0
  0
VERTEX
  5
137
330
136
100
AcDbEntity
  8
DIBUJOS
 62
     7
100
AcDbVertex
100
AcDb2dVertex
 10
66.66782830364077
 20
46.41576534143748
 30
0.0
  0
VERTEX
  5
138
330
136
100
AcDbEntity
  8
DIBUJOS
 62
     7
100
AcDbVertex
100
AcDb2dVertex
 10
66.69802603642995
 20
46.45808759176818
 30
0.0
  0
VERTEX
  5
139
330
136
100
AcDbEntity
  8
DIBUJOS
 62
     7
100
AcDbVertex
100
AcDb2dVertex
 10
66.72822376921944
 20
46.48831916538591
 30
0.0
  0
VERTEX
  5
13A
330
136
100
AcDbEntity
  8
DIBUJOS
 62
     7
100
AcDbVertex
100
AcDb2dVertex
 10
66.74090788984994
 20
46.49255008859659
 30
0.0
  0
VERTEX
  5
13B
330
136
100
AcDbEntity
  8
DIBUJOS
 62
     7
100
AcDbVertex
100
AcDb2dVertex
 10
66.78258033845748
 20
46.50040984209887
 30
0.0
  0
SEQEND
  5
13C
330
136
100
AcDbEntity
  8
DIBUJOS
 62
     7
  0
POLYLINE
  5
13D
330
112
100
AcDbEntity
  8
DIBUJOS
 62
     7
100
AcDb2dPolyline
 66
     1
 10
0.0
 20
0.0
 30
0.0
  0
VERTEX
  5
13E
330
13D
100
AcDbEntity
  8
DIBUJOS
 62
     7
100
AcDbVertex
100
AcDb2dVertex
 10
62.55486848816738
 20
46.40971837580299
 30
0.0
  0
VERTEX
  5
13F
330
13D
100
AcDbEntity
  8
DIBUJOS
 62
     7
100
AcDbVertex
100
AcDb2dVertex
 10
62.55486848816738
 20
46.41576534143748
 30
0.0
  0
SEQEND
  5
140
330
13D
100
AcDbEntity
  8
DIBUJOS
 62
     7
  0
POLYLINE
  5
141
330
112
100
AcDbEntity
  8
DIBUJOS
 62
     7
100
AcDb2dPolyline
 66
     1
 10
0.0
 20
0.0
 30
0.0
  0
VERTEX
  5
142
330
141
100
AcDbEntity
  8
DIBUJOS
 62
     7
100
AcDbVertex
100
AcDb2dVertex
 10
66.66782830364077
 20
46.40971837580299
 30
0.0
  0
VERTEX
  5
143
330
141
100
AcDbEntity
  8
DIBUJOS
 62
     7
100
AcDbVertex
100
AcDb2dVertex
 10
66.66178940730047
 20
46.40971837580299
 30
0.0
  0
SEQEND
  5
144
330
141
100
AcDbEntity
  8
DIBUJOS
 62
     7
  0
POLYLINE
  5
145
330
112
100
AcDbEntity
  8
DIBUJOS
 62
     7
100
AcDb2dPolyline
 66
     1
 10
0.0
 20
0.0
 30
0.0
  0
VERTEX
  5
146
330
145
100
AcDbEntity
  8
DIBUJOS
 62
     7
100
AcDbVertex
100
AcDb2dVertex
 10
66.66782830364077
 20
46.40971837580299
 30
0.0
  0
VERTEX
  5
147
330
145
100
AcDbEntity
  8
DIBUJOS
 62
     7
100
AcDbVertex
100
AcDb2dVertex
 10
66.66782830364077
 20
46.41576534143748
 30
0.0
  0
SEQEND
  5
148
330
145
100
AcDbEntity
  8
DIBUJOS
 62
     7
  0
POLYLINE
  5
149
330
112
100
AcDbEntity
  8
DIBUJOS
 62
     7
100
AcDb2dPolyline
 66
     1
 10
0.0
 20
0.0
 30
0.0
  0
VERTEX
  5
14A
330
149
100
AcDbEntity
  8
DIBUJOS
 62
     7
100
AcDbVertex
100
AcDb2dVertex
 10
62.57298680273228
 20
46.40367466472421
 30
0.0
  0
VERTEX
  5
14B
330
149
100
AcDbEntity
  8
DIBUJOS
 62
     7
100
AcDbVertex
100
AcDb2dVertex
 10
62.56090738450801
 20
46.41576534143748
 30
0.0
  0
SEQEND
  5
14C
330
149
100
AcDbEntity
  8
DIBUJOS
 62
     7
  0
POLYLINE
  5
14D
330
112
100
AcDbEntity
  8
DIBUJOS
 62
     7
100
AcDb2dPolyline
 66
     1
 10
0.0
 20
0.0
 30
0.0
  0
VERTEX
  5
14E
330
14D
100
AcDbEntity
  8
DIBUJOS
 62
     7
100
AcDbVertex
100
AcDb2dVertex
 10
66.66782830364077
 20
46.40367466472421
 30
0.0
  0
VERTEX
  5
14F
330
14D
100
AcDbEntity
  8
DIBUJOS
 62
     7
100
AcDbVertex
100
AcDb2dVertex
 10
66.66782830364077
 20
46.40971837580299
 30
0.0
  0
SEQEND
  5
150
330
14D
100
AcDbEntity
  8
DIBUJOS
 62
     7
  0
POLYLINE
  5
151
330
112
100
AcDbEntity
  8
DIBUJOS
 62
     7
100
AcDb2dPolyline
 66
     1
 10
0.0
 20
0.0
 30
0.0
  0
VERTEX
  5
152
330
151
100
AcDbEntity
  8
DIBUJOS
 62
     7
100
AcDbVertex
100
AcDb2dVertex
 10
62.57298680273228
 20
46.39762769908938
 30
0.0
  0
VERTEX
  5
153
330
151
100
AcDbEntity
  8
DIBUJOS
 62
     7
100
AcDbVertex
100
AcDb2dVertex
 10
62.56694790639197
 20
46.39762769908938
 30
0.0
  0
SEQEND
  5
154
330
151
100
AcDbEntity
  8
DIBUJOS
 62
     7
  0
POLYLINE
  5
155
330
112
100
AcDbEntity
  8
DIBUJOS
 62
     7
100
AcDb2dPolyline
 66
     1
 10
0.0
 20
0.0
 30
0.0
  0
VERTEX
  5
156
330
155
100
AcDbEntity
  8
DIBUJOS
 62
     7
100
AcDbVertex
100
AcDb2dVertex
 10
62.57298680273228
 20
46.39762769908938
 30
0.0
  0
VERTEX
  5
157
330
155
100
AcDbEntity
  8
DIBUJOS
 62
     7
100
AcDbVertex
100
AcDb2dVertex
 10
62.57298680273228
 20
46.40367466472421
 30
0.0
  0
SEQEND
  5
158
330
155
100
AcDbEntity
  8
DIBUJOS
 62
     7
  0
POLYLINE
  5
159
330
112
100
AcDbEntity
  8
DIBUJOS
 62
     7
100
AcDb2dPolyline
 66
     1
 10
0.0
 20
0.0
 30
0.0
  0
VERTEX
  5
15A
330
159
100
AcDbEntity
  8
DIBUJOS
 62
     7
100
AcDbVertex
100
AcDb2dVertex
 10
66.64970998907589
 20
46.39762769908938
 30
0.0
  0
VERTEX
  5
15B
330
159
100
AcDbEntity
  8
DIBUJOS
 62
     7
100
AcDbVertex
100
AcDb2dVertex
 10
66.66178940730047
 20
46.40971837580299
 30
0.0
  0
SEQEND
  5
15C
330
159
100
AcDbEntity
  8
DIBUJOS
 62
     7
  0
POLYLINE
  5
15D
330
112
100
AcDbEntity
  8
DIBUJOS
 62
     7
100
AcDb2dPolyline
 66
     1
 10
0.0
 20
0.0
 30
0.0
  0
VERTEX
  5
15E
330
15D
100
AcDbEntity
  8
DIBUJOS
 62
     7
100
AcDbVertex
100
AcDb2dVertex
 10
62.56090738450801
 20
46.39158073345457
 30
0.0
  0
VERTEX
  5
15F
330
15D
100
AcDbEntity
  8
DIBUJOS
 62
     7
100
AcDbVertex
100
AcDb2dVertex
 10
62.55486848816738
 20
46.39762769908938
 30
0.0
  0
VERTEX
  5
160
330
15D
100
AcDbEntity
  8
DIBUJOS
 62
     7
100
AcDbVertex
100
AcDb2dVertex
 10
62.55486848816738
 20
46.40971837580299
 30
0.0
  0
SEQEND
  5
161
330
15D
100
AcDbEntity
  8
DIBUJOS
 62
     7
  0
POLYLINE
  5
162
330
112
100
AcDbEntity
  8
DIBUJOS
 62
     7
100
AcDb2dPolyline
 66
     1
 10
0.0
 20
0.0
 30
0.0
  0
VERTEX
  5
163
330
162
100
AcDbEntity
  8
DIBUJOS
 62
     7
100
AcDbVertex
100
AcDb2dVertex
 10
62.56090738450801
 20
46.39158073345457
 30
0.0
  0
VERTEX
  5
164
330
162
100
AcDbEntity
  8
DIBUJOS
 62
     7
100
AcDbVertex
100
AcDb2dVertex
 10
62.56694790639197
 20
46.39762769908938
 30
0.0
  0
SEQEND
  5
165
330
162
100
AcDbEntity
  8
DIBUJOS
 62
     7
  0
POLYLINE
  5
166
330
112
100
AcDbEntity
  8
DIBUJOS
 62
     7
100
AcDb2dPolyline
 66
     1
 10
0.0
 20
0.0
 30
0.0
  0
VERTEX
  5
167
330
166
100
AcDbEntity
  8
DIBUJOS
 62
     7
100
AcDbVertex
100
AcDb2dVertex
 10
62.57902569907258
 20
46.39158073345457
 30
0.0
  0
VERTEX
  5
168
330
166
100
AcDbEntity
  8
DIBUJOS
 62
     7
100
AcDbVertex
100
AcDb2dVertex
 10
62.57298680273228
 20
46.39762769908938
 30
0.0
  0
SEQEND
  5
169
330
166
100
AcDbEntity
  8
DIBUJOS
 62
     7
  0
POLYLINE
  5
16A
330
112
100
AcDbEntity
  8
DIBUJOS
 62
     7
100
AcDb2dPolyline
 66
     1
 10
0.0
 20
0.0
 30
0.0
  0
VERTEX
  5
16B
330
16A
100
AcDbEntity
  8
DIBUJOS
 62
     7
100
AcDbVertex
100
AcDb2dVertex
 10
66.64970998907589
 20
46.39158073345457
 30
0.0
  0
VERTEX
  5
16C
330
16A
100
AcDbEntity
  8
DIBUJOS
 62
     7
100
AcDbVertex
100
AcDb2dVertex
 10
66.64970998907589
 20
46.39762769908938
 30
0.0
  0
SEQEND
  5
16D
330
16A
100
AcDbEntity
  8
DIBUJOS
 62
     7
  0
POLYLINE
  5
16E
330
112
100
AcDbEntity
  8
DIBUJOS
 62
     7
100
AcDb2dPolyline
 66
     1
 10
0.0
 20
0.0
 30
0.0
  0
VERTEX
  5
16F
330
16E
100
AcDbEntity
  8
DIBUJOS
 62
     7
100
AcDbVertex
100
AcDb2dVertex
 10
66.65574888541619
 20
46.39158073345457
 30
0.0
  0
VERTEX
  5
170
330
16E
100
AcDbEntity
  8
DIBUJOS
 62
     7
100
AcDbVertex
100
AcDb2dVertex
 10
66.64970998907589
 20
46.39158073345457
 30
0.0
  0
SEQEND
  5
171
330
16E
100
AcDbEntity
  8
DIBUJOS
 62
     7
  0
POLYLINE
  5
172
330
112
100
AcDbEntity
  8
DIBUJOS
 62
     7
100
AcDb2dPolyline
 66
     1
 10
0.0
 20
0.0
 30
0.0
  0
VERTEX
  5
173
330
172
100
AcDbEntity
  8
DIBUJOS
 62
     7
100
AcDbVertex
100
AcDb2dVertex
 10
66.66782830364077
 20
46.39158073345457
 30
0.0
  0
VERTEX
  5
174
330
172
100
AcDbEntity
  8
DIBUJOS
 62
     7
100
AcDbVertex
100
AcDb2dVertex
 10
66.67386882552508
 20
46.39762769908938
 30
0.0
  0
VERTEX
  5
175
330
172
100
AcDbEntity
  8
DIBUJOS
 62
     7
100
AcDbVertex
100
AcDb2dVertex
 10
66.66782830364077
 20
46.40367466472421
 30
0.0
  0
SEQEND
  5
176
330
172
100
AcDbEntity
  8
DIBUJOS
 62
     7
  0
POLYLINE
  5
177
330
112
100
AcDbEntity
  8
DIBUJOS
 62
     7
100
AcDb2dPolyline
 66
     1
 10
0.0
 20
0.0
 30
0.0
  0
VERTEX
  5
178
330
177
100
AcDbEntity
  8
DIBUJOS
 62
     7
100
AcDbVertex
100
AcDb2dVertex
 10
62.57902569907258
 20
46.38553702237611
 30
0.0
  0
VERTEX
  5
179
330
177
100
AcDbEntity
  8
DIBUJOS
 62
     7
100
AcDbVertex
100
AcDb2dVertex
 10
62.57298680273228
 20
46.38553702237611
 30
0.0
  0
SEQEND
  5
17A
330
177
100
AcDbEntity
  8
DIBUJOS
 62
     7
  0
POLYLINE
  5
17B
330
112
100
AcDbEntity
  8
DIBUJOS
 62
     7
100
AcDb2dPolyline
 66
     1
 10
0.0
 20
0.0
 30
0.0
  0
VERTEX
  5
17C
330
17B
100
AcDbEntity
  8
DIBUJOS
 62
     7
100
AcDbVertex
100
AcDb2dVertex
 10
62.57902569907258
 20
46.38553702237611
 30
0.0
  0
VERTEX
  5
17D
330
17B
100
AcDbEntity
  8
DIBUJOS
 62
     7
100
AcDbVertex
100
AcDb2dVertex
 10
62.57902569907258
 20
46.39158073345457
 30
0.0
  0
SEQEND
  5
17E
330
17B
100
AcDbEntity
  8
DIBUJOS
 62
     7
  0
POLYLINE
  5
17F
330
112
100
AcDbEntity
  8
DIBUJOS
 62
     7
100
AcDb2dPolyline
 66
     1
 10
0.0
 20
0.0
 30
0.0
  0
VERTEX
  5
180
330
17F
100
AcDbEntity
  8
DIBUJOS
 62
     7
100
AcDbVertex
100
AcDb2dVertex
 10
66.64367109273557
 20
46.38553702237611
 30
0.0
  0
VERTEX
  5
181
330
17F
100
AcDbEntity
  8
DIBUJOS
 62
     7
100
AcDbVertex
100
AcDb2dVertex
 10
66.64970998907589
 20
46.39158073345457
 30
0.0
  0
SEQEND
  5
182
330
17F
100
AcDbEntity
  8
DIBUJOS
 62
     7
  0
POLYLINE
  5
183
330
112
100
AcDbEntity
  8
DIBUJOS
 62
     7
100
AcDb2dPolyline
 66
     1
 10
0.0
 20
0.0
 30
0.0
  0
VERTEX
  5
184
330
183
100
AcDbEntity
  8
DIBUJOS
 62
     7
100
AcDbVertex
100
AcDb2dVertex
 10
66.66178940730047
 20
46.38553702237611
 30
0.0
  0
VERTEX
  5
185
330
183
100
AcDbEntity
  8
DIBUJOS
 62
     7
100
AcDbVertex
100
AcDb2dVertex
 10
66.65574888541619
 20
46.39158073345457
 30
0.0
  0
SEQEND
  5
186
330
183
100
AcDbEntity
  8
DIBUJOS
 62
     7
  0
POLYLINE
  5
187
330
112
100
AcDbEntity
  8
DIBUJOS
 62
     7
100
AcDb2dPolyline
 66
     1
 10
0.0
 20
0.0
 30
0.0
  0
VERTEX
  5
188
330
187
100
AcDbEntity
  8
DIBUJOS
 62
     7
100
AcDbVertex
100
AcDb2dVertex
 10
66.66782830364077
 20
46.38553702237611
 30
0.0
  0
VERTEX
  5
189
330
187
100
AcDbEntity
  8
DIBUJOS
 62
     7
100
AcDbVertex
100
AcDb2dVertex
 10
66.66178940730047
 20
46.38553702237611
 30
0.0
  0
SEQEND
  5
18A
330
187
100
AcDbEntity
  8
DIBUJOS
 62
     7
  0
POLYLINE
  5
18B
330
112
100
AcDbEntity
  8
DIBUJOS
 62
     7
100
AcDb2dPolyline
 66
     1
 10
0.0
 20
0.0
 30
0.0
  0
VERTEX
  5
18C
330
18B
100
AcDbEntity
  8
DIBUJOS
 62
     7
100
AcDbVertex
100
AcDb2dVertex
 10
66.66782830364077
 20
46.38553702237611
 30
0.0
  0
VERTEX
  5
18D
330
18B
100
AcDbEntity
  8
DIBUJOS
 62
     7
100
AcDbVertex
100
AcDb2dVertex
 10
66.66782830364077
 20
46.39158073345457
 30
0.0
  0
SEQEND
  5
18E
330
18B
100
AcDbEntity
  8
DIBUJOS
 62
     7
  0
POLYLINE
  5
18F
330
112
100
AcDbEntity
  8
DIBUJOS
 62
     7
100
AcDb2dPolyline
 66
     1
 10
0.0
 20
0.0
 30
0.0
  0
VERTEX
  5
190
330
18F
100
AcDbEntity
  8
DIBUJOS
 62
     7
100
AcDbVertex
100
AcDb2dVertex
 10
62.56694790639197
 20
46.37949005674161
 30
0.0
  0
VERTEX
  5
191
330
18F
100
AcDbEntity
  8
DIBUJOS
 62
     7
100
AcDbVertex
100
AcDb2dVertex
 10
62.56090738450801
 20
46.39158073345457
 30
0.0
  0
SEQEND
  5
192
330
18F
100
AcDbEntity
  8
DIBUJOS
 62
     7
  0
POLYLINE
  5
193
330
112
100
AcDbEntity
  8
DIBUJOS
 62
     7
100
AcDb2dPolyline
 66
     1
 10
0.0
 20
0.0
 30
0.0
  0
VERTEX
  5
194
330
193
100
AcDbEntity
  8
DIBUJOS
 62
     7
100
AcDbVertex
100
AcDb2dVertex
 10
62.56694790639197
 20
46.37949005674161
 30
0.0
  0
VERTEX
  5
195
330
193
100
AcDbEntity
  8
DIBUJOS
 62
     7
100
AcDbVertex
100
AcDb2dVertex
 10
62.57298680273228
 20
46.38553702237611
 30
0.0
  0
SEQEND
  5
196
330
193
100
AcDbEntity
  8
DIBUJOS
 62
     7
  0
POLYLINE
  5
197
330
112
100
AcDbEntity
  8
DIBUJOS
 62
     7
100
AcDb2dPolyline
 66
     1
 10
0.0
 20
0.0
 30
0.0
  0
VERTEX
  5
198
330
197
100
AcDbEntity
  8
DIBUJOS
 62
     7
100
AcDbVertex
100
AcDb2dVertex
 10
62.58506622095687
 20
46.37949005674161
 30
0.0
  0
VERTEX
  5
199
330
197
100
AcDbEntity
  8
DIBUJOS
 62
     7
100
AcDbVertex
100
AcDb2dVertex
 10
62.57902569907258
 20
46.38553702237611
 30
0.0
  0
SEQEND
  5
19A
330
197
100
AcDbEntity
  8
DIBUJOS
 62
     7
  0
POLYLINE
  5
19B
330
112
100
AcDbEntity
  8
DIBUJOS
 62
     7
100
AcDb2dPolyline
 66
     1
 10
0.0
 20
0.0
 30
0.0
  0
VERTEX
  5
19C
330
19B
100
AcDbEntity
  8
DIBUJOS
 62
     7
100
AcDbVertex
100
AcDb2dVertex
 10
66.64367109273557
 20
46.37949005674161
 30
0.0
  0
VERTEX
  5
19D
330
19B
100
AcDbEntity
  8
DIBUJOS
 62
     7
100
AcDbVertex
100
AcDb2dVertex
 10
66.64367109273557
 20
46.38553702237611
 30
0.0
  0
SEQEND
  5
19E
330
19B
100
AcDbEntity
  8
DIBUJOS
 62
     7
  0
POLYLINE
  5
19F
330
112
100
AcDbEntity
  8
DIBUJOS
 62
     7
100
AcDb2dPolyline
 66
     1
 10
0.0
 20
0.0
 30
0.0
  0
VERTEX
  5
1A0
330
19F
100
AcDbEntity
  8
DIBUJOS
 62
     7
100
AcDbVertex
100
AcDb2dVertex
 10
66.64970998907589
 20
46.37949005674161
 30
0.0
  0
VERTEX
  5
1A1
330
19F
100
AcDbEntity
  8
DIBUJOS
 62
     7
100
AcDbVertex
100
AcDb2dVertex
 10
66.64367109273557
 20
46.37949005674161
 30
0.0
  0
SEQEND
  5
1A2
330
19F
100
AcDbEntity
  8
DIBUJOS
 62
     7
  0
POLYLINE
  5
1A3
330
112
100
AcDbEntity
  8
DIBUJOS
 62
     7
100
AcDb2dPolyline
 66
     1
 10
0.0
 20
0.0
 30
0.0
  0
VERTEX
  5
1A4
330
1A3
100
AcDbEntity
  8
DIBUJOS
 62
     7
100
AcDbVertex
100
AcDb2dVertex
 10
66.66782830364077
 20
46.37949005674161
 30
0.0
  0
VERTEX
  5
1A5
330
1A3
100
AcDbEntity
  8
DIBUJOS
 62
     7
100
AcDbVertex
100
AcDb2dVertex
 10
66.66782830364077
 20
46.38553702237611
 30
0.0
  0
SEQEND
  5
1A6
330
1A3
100
AcDbEntity
  8
DIBUJOS
 62
     7
  0
POLYLINE
  5
1A7
330
112
100
AcDbEntity
  8
DIBUJOS
 62
     7
100
AcDb2dPolyline
 66
     1
 10
0.0
 20
0.0
 30
0.0
  0
VERTEX
  5
1A8
330
1A7
100
AcDbEntity
  8
DIBUJOS
 62
     7
100
AcDbVertex
100
AcDb2dVertex
 10
62.58506622095687
 20
46.37344309110679
 30
0.0
  0
VERTEX
  5
1A9
330
1A7
100
AcDbEntity
  8
DIBUJOS
 62
     7
100
AcDbVertex
100
AcDb2dVertex
 10
62.57902569907258
 20
46.37344309110679
 30
0.0
  0
SEQEND
  5
1AA
330
1A7
100
AcDbEntity
  8
DIBUJOS
 62
     7
  0
POLYLINE
  5
1AB
330
112
100
AcDbEntity
  8
DIBUJOS
 62
     7
100
AcDb2dPolyline
 66
     1
 10
0.0
 20
0.0
 30
0.0
  0
VERTEX
  5
1AC
330
1AB
100
AcDbEntity
  8
DIBUJOS
 62
     7
100
AcDbVertex
100
AcDb2dVertex
 10
62.58506622095687
 20
46.37344309110679
 30
0.0
  0
VERTEX
  5
1AD
330
1AB
100
AcDbEntity
  8
DIBUJOS
 62
     7
100
AcDbVertex
100
AcDb2dVertex
 10
62.58506622095687
 20
46.37949005674161
 30
0.0
  0
SEQEND
  5
1AE
330
1AB
100
AcDbEntity
  8
DIBUJOS
 62
     7
  0
POLYLINE
  5
1AF
330
112
100
AcDbEntity
  8
DIBUJOS
 62
     7
100
AcDb2dPolyline
 66
     1
 10
0.0
 20
0.0
 30
0.0
  0
VERTEX
  5
1B0
330
1AF
100
AcDbEntity
  8
DIBUJOS
 62
     7
100
AcDbVertex
100
AcDb2dVertex
 10
66.64367109273557
 20
46.37344309110679
 30
0.0
  0
VERTEX
  5
1B1
330
1AF
100
AcDbEntity
  8
DIBUJOS
 62
     7
100
AcDbVertex
100
AcDb2dVertex
 10
66.64367109273557
 20
46.37949005674161
 30
0.0
  0
SEQEND
  5
1B2
330
1AF
100
AcDbEntity
  8
DIBUJOS
 62
     7
  0
POLYLINE
  5
1B3
330
112
100
AcDbEntity
  8
DIBUJOS
 62
     7
100
AcDb2dPolyline
 66
     1
 10
0.0
 20
0.0
 30
0.0
  0
VERTEX
  5
1B4
330
1B3
100
AcDbEntity
  8
DIBUJOS
 62
     7
100
AcDbVertex
100
AcDb2dVertex
 10
66.65574888541619
 20
46.37344309110679
 30
0.0
  0
VERTEX
  5
1B5
330
1B3
100
AcDbEntity
  8
DIBUJOS
 62
     7
100
AcDbVertex
100
AcDb2dVertex
 10
66.64970998907589
 20
46.37949005674161
 30
0.0
  0
SEQEND
  5
1B6
330
1B3
100
AcDbEntity
  8
DIBUJOS
 62
     7
  0
POLYLINE
  5
1B7
330
112
100
AcDbEntity
  8
DIBUJOS
 62
     7
100
AcDb2dPolyline
 66
     1
 10
0.0
 20
0.0
 30
0.0
  0
VERTEX
  5
1B8
330
1B7
100
AcDbEntity
  8
DIBUJOS
 62
     7
100
AcDbVertex
100
AcDb2dVertex
 10
66.66178940730047
 20
46.37344309110679
 30
0.0
  0
VERTEX
  5
1B9
330
1B7
100
AcDbEntity
  8
DIBUJOS
 62
     7
100
AcDbVertex
100
AcDb2dVertex
 10
66.65574888541619
 20
46.37344309110679
 30
0.0
  0
SEQEND
  5
1BA
330
1B7
100
AcDbEntity
  8
DIBUJOS
 62
     7
  0
POLYLINE
  5
1BB
330
112
100
AcDbEntity
  8
DIBUJOS
 62
     7
100
AcDb2dPolyline
 66
     1
 10
0.0
 20
0.0
 30
0.0
  0
VERTEX
  5
1BC
330
1BB
100
AcDbEntity
  8
DIBUJOS
 62
     7
100
AcDbVertex
100
AcDb2dVertex
 10
66.66178940730047
 20
46.37344309110679
 30
0.0
  0
VERTEX
  5
1BD
330
1BB
100
AcDbEntity
  8
DIBUJOS
 62
     7
100
AcDbVertex
100
AcDb2dVertex
 10
66.66782830364077
 20
46.37949005674161
 30
0.0
  0
SEQEND
  5
1BE
330
1BB
100
AcDbEntity
  8
DIBUJOS
 62
     7
  0
POLYLINE
  5
1BF
330
112
100
AcDbEntity
  8
DIBUJOS
 62
     7
100
AcDb2dPolyline
 66
     1
 10
0.0
 20
0.0
 30
0.0
  0
VERTEX
  5
1C0
330
1BF
100
AcDbEntity
  8
DIBUJOS
 62
     7
100
AcDbVertex
100
AcDb2dVertex
 10
62.57298680273228
 20
46.36739612547198
 30
0.0
  0
VERTEX
  5
1C1
330
1BF
100
AcDbEntity
  8
DIBUJOS
 62
     7
100
AcDbVertex
100
AcDb2dVertex
 10
62.56694790639197
 20
46.37949005674161
 30
0.0
  0
SEQEND
  5
1C2
330
1BF
100
AcDbEntity
  8
DIBUJOS
 62
     7
  0
POLYLINE
  5
1C3
330
112
100
AcDbEntity
  8
DIBUJOS
 62
     7
100
AcDb2dPolyline
 66
     1
 10
0.0
 20
0.0
 30
0.0
  0
VERTEX
  5
1C4
330
1C3
100
AcDbEntity
  8
DIBUJOS
 62
     7
100
AcDbVertex
100
AcDb2dVertex
 10
62.57298680273228
 20
46.36739612547198
 30
0.0
  0
VERTEX
  5
1C5
330
1C3
100
AcDbEntity
  8
DIBUJOS
 62
     7
100
AcDbVertex
100
AcDb2dVertex
 10
62.57902569907258
 20
46.37344309110679
 30
0.0
  0
SEQEND
  5
1C6
330
1C3
100
AcDbEntity
  8
DIBUJOS
 62
     7
  0
POLYLINE
  5
1C7
330
112
100
AcDbEntity
  8
DIBUJOS
 62
     7
100
AcDb2dPolyline
 66
     1
 10
0.0
 20
0.0
 30
0.0
  0
VERTEX
  5
1C8
330
1C7
100
AcDbEntity
  8
DIBUJOS
 62
     7
100
AcDbVertex
100
AcDb2dVertex
 10
66.63763057085129
 20
46.36739612547198
 30
0.0
  0
VERTEX
  5
1C9
330
1C7
100
AcDbEntity
  8
DIBUJOS
 62
     7
100
AcDbVertex
100
AcDb2dVertex
 10
66.64367109273557
 20
46.37344309110679
 30
0.0
  0
SEQEND
  5
1CA
330
1C7
100
AcDbEntity
  8
DIBUJOS
 62
     7
  0
POLYLINE
  5
1CB
330
112
100
AcDbEntity
  8
DIBUJOS
 62
     7
100
AcDb2dPolyline
 66
     1
 10
0.0
 20
0.0
 30
0.0
  0
VERTEX
  5
1CC
330
1CB
100
AcDbEntity
  8
DIBUJOS
 62
     7
100
AcDbVertex
100
AcDb2dVertex
 10
66.66178940730047
 20
46.36739612547198
 30
0.0
  0
VERTEX
  5
1CD
330
1CB
100
AcDbEntity
  8
DIBUJOS
 62
     7
100
AcDbVertex
100
AcDb2dVertex
 10
66.66178940730047
 20
46.37344309110679
 30
0.0
  0
SEQEND
  5
1CE
330
1CB
100
AcDbEntity
  8
DIBUJOS
 62
     7
  0
POLYLINE
  5
1CF
330
112
100
AcDbEntity
  8
DIBUJOS
 62
     7
100
AcDb2dPolyline
 66
     1
 10
0.0
 20
0.0
 30
0.0
  0
VERTEX
  5
1D0
330
1CF
100
AcDbEntity
  8
DIBUJOS
 62
     7
100
AcDbVertex
100
AcDb2dVertex
 10
62.59110511729718
 20
46.36135241439352
 30
0.0
  0
VERTEX
  5
1D1
330
1CF
100
AcDbEntity
  8
DIBUJOS
 62
     7
100
AcDbVertex
100
AcDb2dVertex
 10
62.58506622095687
 20
46.37344309110679
 30
0.0
  0
SEQEND
  5
1D2
330
1CF
100
AcDbEntity
  8
DIBUJOS
 62
     7
  0
POLYLINE
  5
1D3
330
112
100
AcDbEntity
  8
DIBUJOS
 62
     7
100
AcDb2dPolyline
 66
     1
 10
0.0
 20
0.0
 30
0.0
  0
VERTEX
  5
1D4
330
1D3
100
AcDbEntity
  8
DIBUJOS
 62
     7
100
AcDbVertex
100
AcDb2dVertex
 10
66.63763057085129
 20
46.36135241439352
 30
0.0
  0
VERTEX
  5
1D5
330
1D3
100
AcDbEntity
  8
DIBUJOS
 62
     7
100
AcDbVertex
100
AcDb2dVertex
 10
66.63763057085129
 20
46.36739612547198
 30
0.0
  0
SEQEND
  5
1D6
330
1D3
100
AcDbEntity
  8
DIBUJOS
 62
     7
  0
POLYLINE
  5
1D7
330
112
100
AcDbEntity
  8
DIBUJOS
 62
     7
100
AcDb2dPolyline
 66
     1
 10
0.0
 20
0.0
 30
0.0
  0
VERTEX
  5
1D8
330
1D7
100
AcDbEntity
  8
DIBUJOS
 62
     7
100
AcDbVertex
100
AcDb2dVertex
 10
66.64367109273557
 20
46.36135241439352
 30
0.0
  0
VERTEX
  5
1D9
330
1D7
100
AcDbEntity
  8
DIBUJOS
 62
     7
100
AcDbVertex
100
AcDb2dVertex
 10
66.63763057085129
 20
46.36135241439352
 30
0.0
  0
SEQEND
  5
1DA
330
1D7
100
AcDbEntity
  8
DIBUJOS
 62
     7
  0
POLYLINE
  5
1DB
330
112
100
AcDbEntity
  8
DIBUJOS
 62
     7
100
AcDb2dPolyline
 66
     1
 10
0.0
 20
0.0
 30
0.0
  0
VERTEX
  5
1DC
330
1DB
100
AcDbEntity
  8
DIBUJOS
 62
     7
100
AcDbVertex
100
AcDb2dVertex
 10
66.65574888541619
 20
46.36135241439352
 30
0.0
  0
VERTEX
  5
1DD
330
1DB
100
AcDbEntity
  8
DIBUJOS
 62
     7
100
AcDbVertex
100
AcDb2dVertex
 10
66.66178940730047
 20
46.36739612547198
 30
0.0
  0
SEQEND
  5
1DE
330
1DB
100
AcDbEntity
  8
DIBUJOS
 62
     7
  0
POLYLINE
  5
1DF
330
112
100
AcDbEntity
  8
DIBUJOS
 62
     7
100
AcDb2dPolyline
 66
     1
 10
0.0
 20
0.0
 30
0.0
  0
VERTEX
  5
1E0
330
1DF
100
AcDbEntity
  8
DIBUJOS
 62
     7
100
AcDbVertex
100
AcDb2dVertex
 10
62.59110511729718
 20
46.3553054487587
 30
0.0
  0
VERTEX
  5
1E1
330
1DF
100
AcDbEntity
  8
DIBUJOS
 62
     7
100
AcDbVertex
100
AcDb2dVertex
 10
62.58506622095687
 20
46.3553054487587
 30
0.0
  0
SEQEND
  5
1E2
330
1DF
100
AcDbEntity
  8
DIBUJOS
 62
     7
  0
POLYLINE
  5
1E3
330
112
100
AcDbEntity
  8
DIBUJOS
 62
     7
100
AcDb2dPolyline
 66
     1
 10
0.0
 20
0.0
 30
0.0
  0
VERTEX
  5
1E4
330
1E3
100
AcDbEntity
  8
DIBUJOS
 62
     7
100
AcDbVertex
100
AcDb2dVertex
 10
62.59110511729718
 20
46.3553054487587
 30
0.0
  0
VERTEX
  5
1E5
330
1E3
100
AcDbEntity
  8
DIBUJOS
 62
     7
100
AcDbVertex
100
AcDb2dVertex
 10
62.59110511729718
 20
46.36135241439352
 30
0.0
  0
SEQEND
  5
1E6
330
1E3
100
AcDbEntity
  8
DIBUJOS
 62
     7
  0
POLYLINE
  5
1E7
330
112
100
AcDbEntity
  8
DIBUJOS
 62
     7
100
AcDb2dPolyline
 66
     1
 10
0.0
 20
0.0
 30
0.0
  0
VERTEX
  5
1E8
330
1E7
100
AcDbEntity
  8
DIBUJOS
 62
     7
100
AcDbVertex
100
AcDb2dVertex
 10
66.63159167451131
 20
46.3553054487587
 30
0.0
  0
VERTEX
  5
1E9
330
1E7
100
AcDbEntity
  8
DIBUJOS
 62
     7
100
AcDbVertex
100
AcDb2dVertex
 10
66.63763057085129
 20
46.36135241439352
 30
0.0
  0
SEQEND
  5
1EA
330
1E7
100
AcDbEntity
  8
DIBUJOS
 62
     7
  0
POLYLINE
  5
1EB
330
112
100
AcDbEntity
  8
DIBUJOS
 62
     7
100
AcDb2dPolyline
 66
     1
 10
0.0
 20
0.0
 30
0.0
  0
VERTEX
  5
1EC
330
1EB
100
AcDbEntity
  8
DIBUJOS
 62
     7
100
AcDbVertex
100
AcDb2dVertex
 10
66.64970998907589
 20
46.3553054487587
 30
0.0
  0
VERTEX
  5
1ED
330
1EB
100
AcDbEntity
  8
DIBUJOS
 62
     7
100
AcDbVertex
100
AcDb2dVertex
 10
66.64367109273557
 20
46.36135241439352
 30
0.0
  0
SEQEND
  5
1EE
330
1EB
100
AcDbEntity
  8
DIBUJOS
 62
     7
  0
POLYLINE
  5
1EF
330
112
100
AcDbEntity
  8
DIBUJOS
 62
     7
100
AcDb2dPolyline
 66
     1
 10
0.0
 20
0.0
 30
0.0
  0
VERTEX
  5
1F0
330
1EF
100
AcDbEntity
  8
DIBUJOS
 62
     7
100
AcDbVertex
100
AcDb2dVertex
 10
66.65574888541619
 20
46.3553054487587
 30
0.0
  0
VERTEX
  5
1F1
330
1EF
100
AcDbEntity
  8
DIBUJOS
 62
     7
100
AcDbVertex
100
AcDb2dVertex
 10
66.64970998907589
 20
46.3553054487587
 30
0.0
  0
SEQEND
  5
1F2
330
1EF
100
AcDbEntity
  8
DIBUJOS
 62
     7
  0
POLYLINE
  5
1F3
330
112
100
AcDbEntity
  8
DIBUJOS
 62
     7
100
AcDb2dPolyline
 66
     1
 10
0.0
 20
0.0
 30
0.0
  0
VERTEX
  5
1F4
330
1F3
100
AcDbEntity
  8
DIBUJOS
 62
     7
100
AcDbVertex
100
AcDb2dVertex
 10
66.65574888541619
 20
46.3553054487587
 30
0.0
  0
VERTEX
  5
1F5
330
1F3
100
AcDbEntity
  8
DIBUJOS
 62
     7
100
AcDbVertex
100
AcDb2dVertex
 10
66.65574888541619
 20
46.36135241439352
 30
0.0
  0
SEQEND
  5
1F6
330
1F3
100
AcDbEntity
  8
DIBUJOS
 62
     7
  0
POLYLINE
  5
1F7
330
112
100
AcDbEntity
  8
DIBUJOS
 62
     7
100
AcDb2dPolyline
 66
     1
 10
0.0
 20
0.0
 30
0.0
  0
VERTEX
  5
1F8
330
1F7
100
AcDbEntity
  8
DIBUJOS
 62
     7
100
AcDbVertex
100
AcDb2dVertex
 10
62.57902569907258
 20
46.34925848312388
 30
0.0
  0
VERTEX
  5
1F9
330
1F7
100
AcDbEntity
  8
DIBUJOS
 62
     7
100
AcDbVertex
100
AcDb2dVertex
 10
62.57298680273228
 20
46.3553054487587
 30
0.0
  0
VERTEX
  5
1FA
330
1F7
100
AcDbEntity
  8
DIBUJOS
 62
     7
100
AcDbVertex
100
AcDb2dVertex
 10
62.57298680273228
 20
46.36739612547198
 30
0.0
  0
SEQEND
  5
1FB
330
1F7
100
AcDbEntity
  8
DIBUJOS
 62
     7
  0
POLYLINE
  5
1FC
330
112
100
AcDbEntity
  8
DIBUJOS
 62
     7
100
AcDb2dPolyline
 66
     1
 10
0.0
 20
0.0
 30
0.0
  0
VERTEX
  5
1FD
330
1FC
100
AcDbEntity
  8
DIBUJOS
 62
     7
100
AcDbVertex
100
AcDb2dVertex
 10
62.57902569907258
 20
46.34925848312388
 30
0.0
  0
VERTEX
  5
1FE
330
1FC
100
AcDbEntity
  8
DIBUJOS
 62
     7
100
AcDbVertex
100
AcDb2dVertex
 10
62.58506622095687
 20
46.3553054487587
 30
0.0
  0
SEQEND
  5
1FF
330
1FC
100
AcDbEntity
  8
DIBUJOS
 62
     7
  0
POLYLINE
  5
200
330
112
100
AcDbEntity
  8
DIBUJOS
 62
     7
100
AcDb2dPolyline
 66
     1
 10
0.0
 20
0.0
 30
0.0
  0
VERTEX
  5
201
330
200
100
AcDbEntity
  8
DIBUJOS
 62
     7
100
AcDbVertex
100
AcDb2dVertex
 10
66.63159167451131
 20
46.34925848312388
 30
0.0
  0
VERTEX
  5
202
330
200
100
AcDbEntity
  8
DIBUJOS
 62
     7
100
AcDbVertex
100
AcDb2dVertex
 10
66.63159167451131
 20
46.3553054487587
 30
0.0
  0
SEQEND
  5
203
330
200
100
AcDbEntity
  8
DIBUJOS
 62
     7
  0
POLYLINE
  5
204
330
112
100
AcDbEntity
  8
DIBUJOS
 62
     7
100
AcDb2dPolyline
 66
     1
 10
0.0
 20
0.0
 30
0.0
  0
VERTEX
  5
205
330
204
100
AcDbEntity
  8
DIBUJOS
 62
     7
100
AcDbVertex
100
AcDb2dVertex
 10
66.63763057085129
 20
46.34925848312388
 30
0.0
  0
VERTEX
  5
206
330
204
100
AcDbEntity
  8
DIBUJOS
 62
     7
100
AcDbVertex
100
AcDb2dVertex
 10
66.63159167451131
 20
46.34925848312388
 30
0.0
  0
SEQEND
  5
207
330
204
100
AcDbEntity
  8
DIBUJOS
 62
     7
  0
POLYLINE
  5
208
330
112
100
AcDbEntity
  8
DIBUJOS
 62
     7
100
AcDb2dPolyline
 66
     1
 10
0.0
 20
0.0
 30
0.0
  0
VERTEX
  5
209
330
208
100
AcDbEntity
  8
DIBUJOS
 62
     7
100
AcDbVertex
100
AcDb2dVertex
 10
66.65574888541619
 20
46.34925848312388
 30
0.0
  0
VERTEX
  5
20A
330
208
100
AcDbEntity
  8
DIBUJOS
 62
     7
100
AcDbVertex
100
AcDb2dVertex
 10
66.65574888541619
 20
46.3553054487587
 30
0.0
  0
SEQEND
  5
20B
330
208
100
AcDbEntity
  8
DIBUJOS
 62
     7
  0
POLYLINE
  5
20C
330
112
100
AcDbEntity
  8
DIBUJOS
 62
     7
100
AcDb2dPolyline
 66
     1
 10
0.0
 20
0.0
 30
0.0
  0
VERTEX
  5
20D
330
20C
100
AcDbEntity
  8
DIBUJOS
 62
     7
100
AcDbVertex
100
AcDb2dVertex
 10
66.63159167451131
 20
46.34321477204573
 30
0.0
  0
VERTEX
  5
20E
330
20C
100
AcDbEntity
  8
DIBUJOS
 62
     7
100
AcDbVertex
100
AcDb2dVertex
 10
66.63159167451131
 20
46.34925848312388
 30
0.0
  0
SEQEND
  5
20F
330
20C
100
AcDbEntity
  8
DIBUJOS
 62
     7
  0
POLYLINE
  5
210
330
112
100
AcDbEntity
  8
DIBUJOS
 62
     7
100
AcDb2dPolyline
 66
     1
 10
0.0
 20
0.0
 30
0.0
  0
VERTEX
  5
211
330
210
100
AcDbEntity
  8
DIBUJOS
 62
     7
100
AcDbVertex
100
AcDb2dVertex
 10
66.64367109273557
 20
46.34321477204573
 30
0.0
  0
VERTEX
  5
212
330
210
100
AcDbEntity
  8
DIBUJOS
 62
     7
100
AcDbVertex
100
AcDb2dVertex
 10
66.63763057085129
 20
46.34925848312388
 30
0.0
  0
SEQEND
  5
213
330
210
100
AcDbEntity
  8
DIBUJOS
 62
     7
  0
POLYLINE
  5
214
330
112
100
AcDbEntity
  8
DIBUJOS
 62
     7
100
AcDb2dPolyline
 66
     1
 10
0.0
 20
0.0
 30
0.0
  0
VERTEX
  5
215
330
214
100
AcDbEntity
  8
DIBUJOS
 62
     7
100
AcDbVertex
100
AcDb2dVertex
 10
66.64970998907589
 20
46.34321477204573
 30
0.0
  0
VERTEX
  5
216
330
214
100
AcDbEntity
  8
DIBUJOS
 62
     7
100
AcDbVertex
100
AcDb2dVertex
 10
66.64367109273557
 20
46.34321477204573
 30
0.0
  0
SEQEND
  5
217
330
214
100
AcDbEntity
  8
DIBUJOS
 62
     7
  0
POLYLINE
  5
218
330
112
100
AcDbEntity
  8
DIBUJOS
 62
     7
100
AcDb2dPolyline
 66
     1
 10
0.0
 20
0.0
 30
0.0
  0
VERTEX
  5
219
330
218
100
AcDbEntity
  8
DIBUJOS
 62
     7
100
AcDbVertex
100
AcDb2dVertex
 10
66.64970998907589
 20
46.34321477204573
 30
0.0
  0
VERTEX
  5
21A
330
218
100
AcDbEntity
  8
DIBUJOS
 62
     7
100
AcDbVertex
100
AcDb2dVertex
 10
66.65574888541619
 20
46.34925848312388
 30
0.0
  0
SEQEND
  5
21B
330
218
100
AcDbEntity
  8
DIBUJOS
 62
     7
  0
POLYLINE
  5
21C
330
112
100
AcDbEntity
  8
DIBUJOS
 62
     7
100
AcDb2dPolyline
 66
     1
 10
0.0
 20
0.0
 30
0.0
  0
VERTEX
  5
21D
330
21C
100
AcDbEntity
  8
DIBUJOS
 62
     7
100
AcDbVertex
100
AcDb2dVertex
 10
66.64970998907589
 20
46.33716780641092
 30
0.0
  0
VERTEX
  5
21E
330
21C
100
AcDbEntity
  8
DIBUJOS
 62
     7
100
AcDbVertex
100
AcDb2dVertex
 10
66.64970998907589
 20
46.34321477204573
 30
0.0
  0
SEQEND
  5
21F
330
21C
100
AcDbEntity
  8
DIBUJOS
 62
     7
  0
POLYLINE
  5
220
330
112
100
AcDbEntity
  8
DIBUJOS
 62
     7
100
AcDb2dPolyline
 66
     1
 10
0.0
 20
0.0
 30
0.0
  0
VERTEX
  5
221
330
220
100
AcDbEntity
  8
DIBUJOS
 62
     7
100
AcDbVertex
100
AcDb2dVertex
 10
62.55486848816738
 20
46.28879859044541
 30
0.0
  0
VERTEX
  5
222
330
220
100
AcDbEntity
  8
DIBUJOS
 62
     7
100
AcDbVertex
100
AcDb2dVertex
 10
62.54065635608086
 20
46.34268102480975
 30
0.0
  0
VERTEX
  5
223
330
220
100
AcDbEntity
  8
DIBUJOS
 62
     7
100
AcDbVertex
100
AcDb2dVertex
 10
62.51138355788581
 20
46.41515999396267
 30
0.0
  0
VERTEX
  5
224
330
220
100
AcDbEntity
  8
DIBUJOS
 62
     7
100
AcDbVertex
100
AcDb2dVertex
 10
62.50051191892934
 20
46.43390298378558
 30
0.0
  0
SEQEND
  5
225
330
220
100
AcDbEntity
  8
DIBUJOS
 62
     7
  0
POLYLINE
  5
226
330
112
100
AcDbEntity
  8
DIBUJOS
 62
     7
100
AcDb2dPolyline
 66
     1
 10
0.0
 20
0.0
 30
0.0
  0
VERTEX
  5
227
330
226
100
AcDbEntity
  8
DIBUJOS
 62
     7
100
AcDbVertex
100
AcDb2dVertex
 10
62.56090738450801
 20
46.25252330574921
 30
0.0
  0
VERTEX
  5
228
330
226
100
AcDbEntity
  8
DIBUJOS
 62
     7
100
AcDbVertex
100
AcDb2dVertex
 10
62.56090738450801
 20
46.2646139824625
 30
0.0
  0
VERTEX
  5
229
330
226
100
AcDbEntity
  8
DIBUJOS
 62
     7
100
AcDbVertex
100
AcDb2dVertex
 10
62.55486848816738
 20
46.270660948097
 30
0.0
  0
SEQEND
  5
22A
330
226
100
AcDbEntity
  8
DIBUJOS
 62
     7
  0
POLYLINE
  5
22B
330
112
100
AcDbEntity
  8
DIBUJOS
 62
     7
100
AcDb2dPolyline
 66
     1
 10
0.0
 20
0.0
 30
0.0
  0
VERTEX
  5
22C
330
22B
100
AcDbEntity
  8
DIBUJOS
 62
     7
100
AcDbVertex
100
AcDb2dVertex
 10
62.56090738450801
 20
46.23438566340112
 30
0.0
  0
VERTEX
  5
22D
330
22B
100
AcDbEntity
  8
DIBUJOS
 62
     7
100
AcDbVertex
100
AcDb2dVertex
 10
62.56090738450801
 20
46.24042937447958
 30
0.0
  0
SEQEND
  5
22E
330
22B
100
AcDbEntity
  8
DIBUJOS
 62
     7
  0
POLYLINE
  5
22F
330
112
100
AcDbEntity
  8
DIBUJOS
 62
     7
100
AcDb2dPolyline
 66
     1
 10
0.0
 20
0.0
 30
0.0
  0
VERTEX
  5
230
330
22F
100
AcDbEntity
  8
DIBUJOS
 62
     7
100
AcDbVertex
100
AcDb2dVertex
 10
62.57298680273228
 20
46.13160352039164
 30
0.0
  0
VERTEX
  5
231
330
22F
100
AcDbEntity
  8
DIBUJOS
 62
     7
100
AcDbVertex
100
AcDb2dVertex
 10
62.56694790639197
 20
46.19206341307075
 30
0.0
  0
SEQEND
  5
232
330
22F
100
AcDbEntity
  8
DIBUJOS
 62
     7
  0
POLYLINE
  5
233
330
112
100
AcDbEntity
  8
DIBUJOS
 62
     7
100
AcDb2dPolyline
 66
     1
 10
0.0
 20
0.0
 30
0.0
  0
VERTEX
  5
234
330
233
100
AcDbEntity
  8
DIBUJOS
 62
     7
100
AcDbVertex
100
AcDb2dVertex
 10
62.57298680273228
 20
46.09532498113941
 30
0.0
  0
VERTEX
  5
235
330
233
100
AcDbEntity
  8
DIBUJOS
 62
     7
100
AcDbVertex
100
AcDb2dVertex
 10
62.57298680273228
 20
46.10137194677423
 30
0.0
  0
SEQEND
  5
236
330
233
100
AcDbEntity
  8
DIBUJOS
 62
     7
  0
POLYLINE
  5
237
330
112
100
AcDbEntity
  8
DIBUJOS
 62
     7
100
AcDb2dPolyline
 66
     1
 10
0.0
 20
0.0
 30
0.0
  0
VERTEX
  5
238
330
237
100
AcDbEntity
  8
DIBUJOS
 62
     7
100
AcDbVertex
100
AcDb2dVertex
 10
66.64970998907589
 20
45.51490740777841
 30
0.0
  0
VERTEX
  5
239
330
237
100
AcDbEntity
  8
DIBUJOS
 62
     7
100
AcDbVertex
100
AcDb2dVertex
 10
66.6526229641073
 20
45.68409551785548
 30
0.0
  0
VERTEX
  5
23A
330
237
100
AcDbEntity
  8
DIBUJOS
 62
     7
100
AcDbVertex
100
AcDb2dVertex
 10
66.64970998907589
 20
45.69628708581477
 30
0.0
  0
VERTEX
  5
23B
330
237
100
AcDbEntity
  8
DIBUJOS
 62
     7
100
AcDbVertex
100
AcDb2dVertex
 10
66.66467149699392
 20
46.20403041664353
 30
0.0
  0
VERTEX
  5
23C
330
237
100
AcDbEntity
  8
DIBUJOS
 62
     7
100
AcDbVertex
100
AcDb2dVertex
 10
66.67052020467412
 20
46.26434710884466
 30
0.0
  0
VERTEX
  5
23D
330
237
100
AcDbEntity
  8
DIBUJOS
 62
     7
100
AcDbVertex
100
AcDb2dVertex
 10
66.68203881018331
 20
46.33058709354012
 30
0.0
  0
VERTEX
  5
23E
330
237
100
AcDbEntity
  8
DIBUJOS
 62
     7
100
AcDbVertex
100
AcDb2dVertex
 10
66.6898560517717
 20
46.34979223035987
 30
0.0
  0
VERTEX
  5
23F
330
237
100
AcDbEntity
  8
DIBUJOS
 62
     7
100
AcDbVertex
100
AcDb2dVertex
 10
66.72460043141507
 20
46.4326955433923
 30
0.0
  0
VERTEX
  5
240
330
237
100
AcDbEntity
  8
DIBUJOS
 62
     7
100
AcDbVertex
100
AcDb2dVertex
 10
66.75238260566799
 20
46.47018152303781
 30
0.0
  0
SEQEND
  5
241
330
237
100
AcDbEntity
  8
DIBUJOS
 62
     7
  0
POLYLINE
  5
242
330
112
100
AcDbEntity
  8
DIBUJOS
 62
     7
100
AcDb2dPolyline
 66
     1
 10
0.0
 20
0.0
 30
0.0
  0
VERTEX
  5
243
330
242
100
AcDbEntity
  8
DIBUJOS
 62
     7
100
AcDbVertex
100
AcDb2dVertex
 10
62.57902569907258
 20
45.3818936911512
 30
0.0
  0
VERTEX
  5
244
330
242
100
AcDbEntity
  8
DIBUJOS
 62
     7
100
AcDbVertex
100
AcDb2dVertex
 10
62.57642482850884
 20
45.42389048585032
 30
0.0
  0
VERTEX
  5
245
330
242
100
AcDbEntity
  8
DIBUJOS
 62
     7
100
AcDbVertex
100
AcDb2dVertex
 10
62.57580712174978
 20
45.96249026510976
 30
0.0
  0
VERTEX
  5
246
330
242
100
AcDbEntity
  8
DIBUJOS
 62
     7
100
AcDbVertex
100
AcDb2dVertex
 10
62.57298680273228
 20
46.05300273080872
 30
0.0
  0
SEQEND
  5
247
330
242
100
AcDbEntity
  8
DIBUJOS
 62
     7
  0
POLYLINE
  5
248
330
112
100
AcDbEntity
  8
DIBUJOS
 62
     7
100
AcDb2dPolyline
 66
     1
 10
0.0
 20
0.0
 30
0.0
  0
VERTEX
  5
249
330
248
100
AcDbEntity
  8
DIBUJOS
 62
     7
100
AcDbVertex
100
AcDb2dVertex
 10
62.57902569907258
 20
45.3637560488031
 30
0.0
  0
VERTEX
  5
24A
330
248
100
AcDbEntity
  8
DIBUJOS
 62
     7
100
AcDbVertex
100
AcDb2dVertex
 10
62.57298680273228
 20
45.3637560488031
 30
0.0
  0
SEQEND
  5
24B
330
248
100
AcDbEntity
  8
DIBUJOS
 62
     7
  0
POLYLINE
  5
24C
330
112
100
AcDbEntity
  8
DIBUJOS
 62
     7
100
AcDb2dPolyline
 66
     1
 10
0.0
 20
0.0
 30
0.0
  0
VERTEX
  5
24D
330
24C
100
AcDbEntity
  8
DIBUJOS
 62
     7
100
AcDbVertex
100
AcDb2dVertex
 10
62.57902569907258
 20
45.291202224855
 30
0.0
  0
VERTEX
  5
24E
330
24C
100
AcDbEntity
  8
DIBUJOS
 62
     7
100
AcDbVertex
100
AcDb2dVertex
 10
62.57902569907258
 20
45.34561840645532
 30
0.0
  0
VERTEX
  5
24F
330
24C
100
AcDbEntity
  8
DIBUJOS
 62
     7
100
AcDbVertex
100
AcDb2dVertex
 10
62.57298680273228
 20
45.35166537209014
 30
0.0
  0
SEQEND
  5
250
330
24C
100
AcDbEntity
  8
DIBUJOS
 62
     7
  0
POLYLINE
  5
251
330
112
100
AcDbEntity
  8
DIBUJOS
 62
     7
100
AcDb2dPolyline
 66
     1
 10
0.0
 20
0.0
 30
0.0
  0
VERTEX
  5
252
330
251
100
AcDbEntity
  8
DIBUJOS
 62
     7
100
AcDbVertex
100
AcDb2dVertex
 10
62.57902569907258
 20
45.2730645825069
 30
0.0
  0
VERTEX
  5
253
330
251
100
AcDbEntity
  8
DIBUJOS
 62
     7
100
AcDbVertex
100
AcDb2dVertex
 10
62.57902569907258
 20
45.27911154814171
 30
0.0
  0
SEQEND
  5
254
330
251
100
AcDbEntity
  8
DIBUJOS
 62
     7
  0
POLYLINE
  5
255
330
112
100
AcDbEntity
  8
DIBUJOS
 62
     7
100
AcDb2dPolyline
 66
     1
 10
0.0
 20
0.0
 30
0.0
  0
VERTEX
  5
256
330
255
100
AcDbEntity
  8
DIBUJOS
 62
     7
100
AcDbVertex
100
AcDb2dVertex
 10
62.57902569907258
 20
45.21260468982811
 30
0.0
  0
VERTEX
  5
257
330
255
100
AcDbEntity
  8
DIBUJOS
 62
     7
100
AcDbVertex
100
AcDb2dVertex
 10
62.57902569907258
 20
45.24283626344585
 30
0.0
  0
SEQEND
  5
258
330
255
100
AcDbEntity
  8
DIBUJOS
 62
     7
  0
POLYLINE
  5
259
330
112
100
AcDbEntity
  8
DIBUJOS
 62
     7
100
AcDb2dPolyline
 66
     1
 10
0.0
 20
0.0
 30
0.0
  0
VERTEX
  5
25A
330
259
100
AcDbEntity
  8
DIBUJOS
 62
     7
100
AcDbVertex
100
AcDb2dVertex
 10
62.57902569907258
 20
45.18237637076673
 30
0.0
  0
VERTEX
  5
25B
330
259
100
AcDbEntity
  8
DIBUJOS
 62
     7
100
AcDbVertex
100
AcDb2dVertex
 10
62.57902569907258
 20
45.18842008184551
 30
0.0
  0
SEQEND
  5
25C
330
259
100
AcDbEntity
  8
DIBUJOS
 62
     7
  0
POLYLINE
  5
25D
330
112
100
AcDbEntity
  8
DIBUJOS
 62
     7
100
AcDb2dPolyline
 66
     1
 10
0.0
 20
0.0
 30
0.0
  0
VERTEX
  5
25E
330
25D
100
AcDbEntity
  8
DIBUJOS
 62
     7
100
AcDbVertex
100
AcDb2dVertex
 10
62.57902569907258
 20
45.14005412043636
 30
0.0
  0
VERTEX
  5
25F
330
25D
100
AcDbEntity
  8
DIBUJOS
 62
     7
100
AcDbVertex
100
AcDb2dVertex
 10
62.57902569907258
 20
45.15214479714932
 30
0.0
  0
SEQEND
  5
260
330
25D
100
AcDbEntity
  8
DIBUJOS
 62
     7
  0
POLYLINE
  5
261
330
112
100
AcDbEntity
  8
DIBUJOS
 62
     7
100
AcDb2dPolyline
 66
     1
 10
0.0
 20
0.0
 30
0.0
  0
VERTEX
  5
262
330
261
100
AcDbEntity
  8
DIBUJOS
 62
     7
100
AcDbVertex
100
AcDb2dVertex
 10
66.04575045665827
 20
45.13400715480154
 30
0.0
  0
VERTEX
  5
263
330
261
100
AcDbEntity
  8
DIBUJOS
 62
     7
100
AcDbVertex
100
AcDb2dVertex
 10
62.98971779098596
 20
45.13400715480154
 30
0.0
  0
SEQEND
  5
264
330
261
100
AcDbEntity
  8
DIBUJOS
 62
     7
  0
POLYLINE
  5
265
330
112
100
AcDbEntity
  8
DIBUJOS
 62
     7
100
AcDb2dPolyline
 66
     1
 10
0.0
 20
0.0
 30
0.0
  0
VERTEX
  5
266
330
265
100
AcDbEntity
  8
DIBUJOS
 62
     7
100
AcDbVertex
100
AcDb2dVertex
 10
62.64546168653521
 20
45.04936265413984
 30
0.0
  0
VERTEX
  5
267
330
265
100
AcDbEntity
  8
DIBUJOS
 62
     7
100
AcDbVertex
100
AcDb2dVertex
 10
62.63942279019523
 20
45.05540961977466
 30
0.0
  0
VERTEX
  5
268
330
265
100
AcDbEntity
  8
DIBUJOS
 62
     7
100
AcDbVertex
100
AcDb2dVertex
 10
62.64244142559339
 20
45.51490740777841
 30
0.0
  0
VERTEX
  5
269
330
265
100
AcDbEntity
  8
DIBUJOS
 62
     7
100
AcDbVertex
100
AcDb2dVertex
 10
62.64244142559339
 20
45.61768955078789
 30
0.0
  0
VERTEX
  5
26A
330
265
100
AcDbEntity
  8
DIBUJOS
 62
     7
100
AcDbVertex
100
AcDb2dVertex
 10
62.63942279019523
 20
45.6237365164227
 30
0.0
  0
VERTEX
  5
26B
330
265
100
AcDbEntity
  8
DIBUJOS
 62
     7
100
AcDbVertex
100
AcDb2dVertex
 10
62.64546168653521
 20
45.63582719313566
 30
0.0
  0
VERTEX
  5
26C
330
265
100
AcDbEntity
  8
DIBUJOS
 62
     7
100
AcDbVertex
100
AcDb2dVertex
 10
62.63093419889274
 20
46.23397558930563
 30
0.0
  0
VERTEX
  5
26D
330
265
100
AcDbEntity
  8
DIBUJOS
 62
     7
100
AcDbVertex
100
AcDb2dVertex
 10
62.62502046944861
 20
46.26414858090931
 30
0.0
  0
VERTEX
  5
26E
330
265
100
AcDbEntity
  8
DIBUJOS
 62
     7
100
AcDbVertex
100
AcDb2dVertex
 10
62.59593785991334
 20
46.34865639020574
 30
0.0
  0
VERTEX
  5
26F
330
265
100
AcDbEntity
  8
DIBUJOS
 62
     7
100
AcDbVertex
100
AcDb2dVertex
 10
62.59110511729718
 20
46.3553054487587
 30
0.0
  0
SEQEND
  5
270
330
265
100
AcDbEntity
  8
DIBUJOS
 62
     7
  0
POLYLINE
  5
271
330
112
100
AcDbEntity
  8
DIBUJOS
 62
     7
100
AcDb2dPolyline
 66
     1
 10
0.0
 20
0.0
 30
0.0
  0
VERTEX
  5
272
330
271
100
AcDbEntity
  8
DIBUJOS
 62
     7
100
AcDbVertex
100
AcDb2dVertex
 10
62.65150058287584
 20
45.04936265413984
 30
0.0
  0
VERTEX
  5
273
330
271
100
AcDbEntity
  8
DIBUJOS
 62
     7
100
AcDbVertex
100
AcDb2dVertex
 10
62.64546168653521
 20
45.04936265413984
 30
0.0
  0
SEQEND
  5
274
330
271
100
AcDbEntity
  8
DIBUJOS
 62
     7
  0
POLYLINE
  5
275
330
112
100
AcDbEntity
  8
DIBUJOS
 62
     7
100
AcDb2dPolyline
 66
     1
 10
0.0
 20
0.0
 30
0.0
  0
VERTEX
  5
276
330
275
100
AcDbEntity
  8
DIBUJOS
 62
     7
100
AcDbVertex
100
AcDb2dVertex
 10
66.58327400161325
 20
45.04936265413984
 30
0.0
  0
VERTEX
  5
277
330
275
100
AcDbEntity
  8
DIBUJOS
 62
     7
100
AcDbVertex
100
AcDb2dVertex
 10
66.58641942945125
 20
46.05916686047068
 30
0.0
  0
VERTEX
  5
278
330
275
100
AcDbEntity
  8
DIBUJOS
 62
     7
100
AcDbVertex
100
AcDb2dVertex
 10
66.59220799199984
 20
46.2040401803126
 30
0.0
  0
VERTEX
  5
279
330
275
100
AcDbEntity
  8
DIBUJOS
 62
     7
100
AcDbVertex
100
AcDb2dVertex
 10
66.61528421607645
 20
46.30028717423991
 30
0.0
  0
VERTEX
  5
27A
330
275
100
AcDbEntity
  8
DIBUJOS
 62
     7
100
AcDbVertex
100
AcDb2dVertex
 10
66.63159167451131
 20
46.34321477204573
 30
0.0
  0
SEQEND
  5
27B
330
275
100
AcDbEntity
  8
DIBUJOS
 62
     7
  0
POLYLINE
  5
27C
330
112
100
AcDbEntity
  8
DIBUJOS
 62
     7
100
AcDb2dPolyline
 66
     1
 10
0.0
 20
0.0
 30
0.0
  0
VERTEX
  5
27D
330
27C
100
AcDbEntity
  8
DIBUJOS
 62
     7
100
AcDbVertex
100
AcDb2dVertex
 10
62.64546168653521
 20
45.04331568850503
 30
0.0
  0
VERTEX
  5
27E
330
27C
100
AcDbEntity
  8
DIBUJOS
 62
     7
100
AcDbVertex
100
AcDb2dVertex
 10
62.64546168653521
 20
45.04936265413984
 30
0.0
  0
SEQEND
  5
27F
330
27C
100
AcDbEntity
  8
DIBUJOS
 62
     7
  0
POLYLINE
  5
280
330
112
100
AcDbEntity
  8
DIBUJOS
 62
     7
100
AcDb2dPolyline
 66
     1
 10
0.0
 20
0.0
 30
0.0
  0
VERTEX
  5
281
330
280
100
AcDbEntity
  8
DIBUJOS
 62
     7
100
AcDbVertex
100
AcDb2dVertex
 10
66.58327400161325
 20
45.04331568850503
 30
0.0
  0
VERTEX
  5
282
330
280
100
AcDbEntity
  8
DIBUJOS
 62
     7
100
AcDbVertex
100
AcDb2dVertex
 10
66.57723510527295
 20
45.04331568850503
 30
0.0
  0
SEQEND
  5
283
330
280
100
AcDbEntity
  8
DIBUJOS
 62
     7
  0
POLYLINE
  5
284
330
112
100
AcDbEntity
  8
DIBUJOS
 62
     7
100
AcDb2dPolyline
 66
     1
 10
0.0
 20
0.0
 30
0.0
  0
VERTEX
  5
285
330
284
100
AcDbEntity
  8
DIBUJOS
 62
     7
100
AcDbVertex
100
AcDb2dVertex
 10
66.58327400161325
 20
45.04331568850503
 30
0.0
  0
VERTEX
  5
286
330
284
100
AcDbEntity
  8
DIBUJOS
 62
     7
100
AcDbVertex
100
AcDb2dVertex
 10
66.58327400161325
 20
45.04936265413984
 30
0.0
  0
SEQEND
  5
287
330
284
100
AcDbEntity
  8
DIBUJOS
 62
     7
  0
POLYLINE
  5
288
330
112
100
AcDbEntity
  8
DIBUJOS
 62
     7
100
AcDb2dPolyline
 66
     1
 10
0.0
 20
0.0
 30
0.0
  0
VERTEX
  5
289
330
288
100
AcDbEntity
  8
DIBUJOS
 62
     7
100
AcDbVertex
100
AcDb2dVertex
 10
66.58327400161325
 20
45.03727197742656
 30
0.0
  0
VERTEX
  5
28A
330
288
100
AcDbEntity
  8
DIBUJOS
 62
     7
100
AcDbVertex
100
AcDb2dVertex
 10
66.58327400161325
 20
45.04331568850503
 30
0.0
  0
SEQEND
  5
28B
330
288
100
AcDbEntity
  8
DIBUJOS
 62
     7
  0
POLYLINE
  5
28C
330
112
100
AcDbEntity
  8
DIBUJOS
 62
     7
100
AcDb2dPolyline
 66
     1
 10
0.0
 20
0.0
 30
0.0
  0
VERTEX
  5
28D
330
28C
100
AcDbEntity
  8
DIBUJOS
 62
     7
100
AcDbVertex
100
AcDb2dVertex
 10
62.57902569907258
 20
45.01913108052243
 30
0.0
  0
VERTEX
  5
28E
330
28C
100
AcDbEntity
  8
DIBUJOS
 62
     7
100
AcDbVertex
100
AcDb2dVertex
 10
62.57902569907258
 20
45.02517804615693
 30
0.0
  0
SEQEND
  5
28F
330
28C
100
AcDbEntity
  8
DIBUJOS
 62
     7
  0
POLYLINE
  5
290
330
112
100
AcDbEntity
  8
DIBUJOS
 62
     7
100
AcDb2dPolyline
 66
     1
 10
0.0
 20
0.0
 30
0.0
  0
VERTEX
  5
291
330
290
100
AcDbEntity
  8
DIBUJOS
 62
     7
100
AcDbVertex
100
AcDb2dVertex
 10
62.65150058287584
 20
45.04936265413984
 30
0.0
  0
VERTEX
  5
292
330
290
100
AcDbEntity
  8
DIBUJOS
 62
     7
100
AcDbVertex
100
AcDb2dVertex
 10
62.75961064449032
 20
44.99978599778137
 30
0.0
  0
VERTEX
  5
293
330
290
100
AcDbEntity
  8
DIBUJOS
 62
     7
100
AcDbVertex
100
AcDb2dVertex
 10
62.8029557779792
 20
44.9851828035922
 30
0.0
  0
VERTEX
  5
294
330
290
100
AcDbEntity
  8
DIBUJOS
 62
     7
100
AcDbVertex
100
AcDb2dVertex
 10
62.90463193603669
 20
44.96258316453515
 30
0.0
  0
VERTEX
  5
295
330
290
100
AcDbEntity
  8
DIBUJOS
 62
     7
100
AcDbVertex
100
AcDb2dVertex
 10
63.01366368115765
 20
44.9498513402278
 30
0.0
  0
VERTEX
  5
296
330
290
100
AcDbEntity
  8
DIBUJOS
 62
     7
100
AcDbVertex
100
AcDb2dVertex
 10
63.29172925530457
 20
44.93747751711523
 30
0.0
  0
VERTEX
  5
297
330
290
100
AcDbEntity
  8
DIBUJOS
 62
     7
100
AcDbVertex
100
AcDb2dVertex
 10
63.86542765871278
 20
44.93149564260654
 30
0.0
  0
VERTEX
  5
298
330
290
100
AcDbEntity
  8
DIBUJOS
 62
     7
100
AcDbVertex
100
AcDb2dVertex
 10
65.31499035653763
 20
44.93149564260654
 30
0.0
  0
VERTEX
  5
299
330
290
100
AcDbEntity
  8
DIBUJOS
 62
     7
100
AcDbVertex
100
AcDb2dVertex
 10
65.9188897438233
 20
44.93748077167159
 30
0.0
  0
VERTEX
  5
29A
330
290
100
AcDbEntity
  8
DIBUJOS
 62
     7
100
AcDbVertex
100
AcDb2dVertex
 10
66.20263659460807
 20
44.94944452068835
 30
0.0
  0
VERTEX
  5
29B
330
290
100
AcDbEntity
  8
DIBUJOS
 62
     7
100
AcDbVertex
100
AcDb2dVertex
 10
66.31799658291928
 20
44.96239114571282
 30
0.0
  0
VERTEX
  5
29C
330
290
100
AcDbEntity
  8
DIBUJOS
 62
     7
100
AcDbVertex
100
AcDb2dVertex
 10
66.38947500818726
 20
44.97894381913505
 30
0.0
  0
VERTEX
  5
29D
330
290
100
AcDbEntity
  8
DIBUJOS
 62
     7
100
AcDbVertex
100
AcDb2dVertex
 10
66.46912666920245
 20
44.99978599778137
 30
0.0
  0
VERTEX
  5
29E
330
290
100
AcDbEntity
  8
DIBUJOS
 62
     7
100
AcDbVertex
100
AcDb2dVertex
 10
66.47395778627462
 20
45.00220413312365
 30
0.0
  0
VERTEX
  5
29F
330
290
100
AcDbEntity
  8
DIBUJOS
 62
     7
100
AcDbVertex
100
AcDb2dVertex
 10
66.55964834362946
 20
45.04118395411807
 30
0.0
  0
VERTEX
  5
2A0
330
290
100
AcDbEntity
  8
DIBUJOS
 62
     7
100
AcDbVertex
100
AcDb2dVertex
 10
66.57723510527295
 20
45.04331568850503
 30
0.0
  0
SEQEND
  5
2A1
330
290
100
AcDbEntity
  8
DIBUJOS
 62
     7
  0
POLYLINE
  5
2A2
330
112
100
AcDbEntity
  8
DIBUJOS
 62
     7
100
AcDb2dPolyline
 66
     1
 10
0.0
 20
0.0
 30
0.0
  0
VERTEX
  5
2A3
330
2A2
100
AcDbEntity
  8
DIBUJOS
 62
     7
100
AcDbVertex
100
AcDb2dVertex
 10
62.57902569907258
 20
44.92239590314745
 30
0.0
  0
VERTEX
  5
2A4
330
2A2
100
AcDbEntity
  8
DIBUJOS
 62
     7
100
AcDbVertex
100
AcDb2dVertex
 10
62.57902569907258
 20
44.93448657986105
 30
0.0
  0
SEQEND
  5
2A5
330
2A2
100
AcDbEntity
  8
DIBUJOS
 62
     7
  0
POLYLINE
  5
2A6
330
112
100
AcDbEntity
  8
DIBUJOS
 62
     7
100
AcDb2dPolyline
 66
     1
 10
0.0
 20
0.0
 30
0.0
  0
VERTEX
  5
2A7
330
2A6
100
AcDbEntity
  8
DIBUJOS
 62
     7
100
AcDbVertex
100
AcDb2dVertex
 10
66.64367109273557
 20
44.91634893751295
 30
0.0
  0
VERTEX
  5
2A8
330
2A6
100
AcDbEntity
  8
DIBUJOS
 62
     7
100
AcDbVertex
100
AcDb2dVertex
 10
66.64970998907589
 20
44.92844286878226
 30
0.0
  0
VERTEX
  5
2A9
330
2A6
100
AcDbEntity
  8
DIBUJOS
 62
     7
100
AcDbVertex
100
AcDb2dVertex
 10
66.64367109273557
 20
44.93448657986105
 30
0.0
  0
VERTEX
  5
2AA
330
2A6
100
AcDbEntity
  8
DIBUJOS
 62
     7
100
AcDbVertex
100
AcDb2dVertex
 10
66.64367109273557
 20
45.19446704748034
 30
0.0
  0
VERTEX
  5
2AB
330
2A6
100
AcDbEntity
  8
DIBUJOS
 62
     7
100
AcDbVertex
100
AcDb2dVertex
 10
66.64970998907589
 20
45.20051401311515
 30
0.0
  0
SEQEND
  5
2AC
330
2A6
100
AcDbEntity
  8
DIBUJOS
 62
     7
  0
POLYLINE
  5
2AD
330
112
100
AcDbEntity
  8
DIBUJOS
 62
     7
100
AcDb2dPolyline
 66
     1
 10
0.0
 20
0.0
 30
0.0
  0
VERTEX
  5
2AE
330
2AD
100
AcDbEntity
  8
DIBUJOS
 62
     7
100
AcDbVertex
100
AcDb2dVertex
 10
62.57902569907258
 20
44.8679829761038
 30
0.0
  0
VERTEX
  5
2AF
330
2AD
100
AcDbEntity
  8
DIBUJOS
 62
     7
100
AcDbVertex
100
AcDb2dVertex
 10
62.57298680273228
 20
44.87402668718194
 30
0.0
  0
VERTEX
  5
2B0
330
2AD
100
AcDbEntity
  8
DIBUJOS
 62
     7
100
AcDbVertex
100
AcDb2dVertex
 10
62.57670279655056
 20
44.88658602000476
 30
0.0
  0
VERTEX
  5
2B1
330
2AD
100
AcDbEntity
  8
DIBUJOS
 62
     7
100
AcDbVertex
100
AcDb2dVertex
 10
62.57902569907258
 20
44.91030522643449
 30
0.0
  0
SEQEND
  5
2B2
330
2AD
100
AcDbEntity
  8
DIBUJOS
 62
     7
  0
POLYLINE
  5
2B3
330
112
100
AcDbEntity
  8
DIBUJOS
 62
     7
100
AcDb2dPolyline
 66
     1
 10
0.0
 20
0.0
 30
0.0
  0
VERTEX
  5
2B4
330
2B3
100
AcDbEntity
  8
DIBUJOS
 62
     7
100
AcDbVertex
100
AcDb2dVertex
 10
62.57902569907258
 20
44.81961376013829
 30
0.0
  0
VERTEX
  5
2B5
330
2B3
100
AcDbEntity
  8
DIBUJOS
 62
     7
100
AcDbVertex
100
AcDb2dVertex
 10
62.57902569907258
 20
44.82566072577279
 30
0.0
  0
SEQEND
  5
2B6
330
2B3
100
AcDbEntity
  8
DIBUJOS
 62
     7
  0
POLYLINE
  5
2B7
330
112
100
AcDbEntity
  8
DIBUJOS
 62
     7
100
AcDb2dPolyline
 66
     1
 10
0.0
 20
0.0
 30
0.0
  0
VERTEX
  5
2B8
330
2B7
100
AcDbEntity
  8
DIBUJOS
 62
     7
100
AcDbVertex
100
AcDb2dVertex
 10
62.57902569907258
 20
44.77124454417246
 30
0.0
  0
VERTEX
  5
2B9
330
2B7
100
AcDbEntity
  8
DIBUJOS
 62
     7
100
AcDbVertex
100
AcDb2dVertex
 10
62.57902569907258
 20
44.77729150980728
 30
0.0
  0
SEQEND
  5
2BA
330
2B7
100
AcDbEntity
  8
DIBUJOS
 62
     7
  0
POLYLINE
  5
2BB
330
112
100
AcDbEntity
  8
DIBUJOS
 62
     7
100
AcDb2dPolyline
 66
     1
 10
0.0
 20
0.0
 30
0.0
  0
VERTEX
  5
2BC
330
2BB
100
AcDbEntity
  8
DIBUJOS
 62
     7
100
AcDbVertex
100
AcDb2dVertex
 10
62.57902569907258
 20
44.710784651494
 30
0.0
  0
VERTEX
  5
2BD
330
2BB
100
AcDbEntity
  8
DIBUJOS
 62
     7
100
AcDbVertex
100
AcDb2dVertex
 10
62.57902569907258
 20
44.71683161712881
 30
0.0
  0
SEQEND
  5
2BE
330
2BB
100
AcDbEntity
  8
DIBUJOS
 62
     7
  0
POLYLINE
  5
2BF
330
112
100
AcDbEntity
  8
DIBUJOS
 62
     7
100
AcDb2dPolyline
 66
     1
 10
0.0
 20
0.0
 30
0.0
  0
VERTEX
  5
2C0
330
2BF
100
AcDbEntity
  8
DIBUJOS
 62
     7
100
AcDbVertex
100
AcDb2dVertex
 10
62.57902569907258
 20
44.63823082754557
 30
0.0
  0
VERTEX
  5
2C1
330
2BF
100
AcDbEntity
  8
DIBUJOS
 62
     7
100
AcDbVertex
100
AcDb2dVertex
 10
62.57902569907258
 20
44.6503247588152
 30
0.0
  0
SEQEND
  5
2C2
330
2BF
100
AcDbEntity
  8
DIBUJOS
 62
     7
  0
POLYLINE
  5
2C3
330
112
100
AcDbEntity
  8
DIBUJOS
 62
     7
100
AcDb2dPolyline
 66
     1
 10
0.0
 20
0.0
 30
0.0
  0
VERTEX
  5
2C4
330
2C3
100
AcDbEntity
  8
DIBUJOS
 62
     7
100
AcDbVertex
100
AcDb2dVertex
 10
62.57902569907258
 20
44.61404947411933
 30
0.0
  0
VERTEX
  5
2C5
330
2C3
100
AcDbEntity
  8
DIBUJOS
 62
     7
100
AcDbVertex
100
AcDb2dVertex
 10
62.57902569907258
 20
44.62009318519747
 30
0.0
  0
SEQEND
  5
2C6
330
2C3
100
AcDbEntity
  8
DIBUJOS
 62
     7
  0
POLYLINE
  5
2C7
330
112
100
AcDbEntity
  8
DIBUJOS
 62
     7
100
AcDb2dPolyline
 66
     1
 10
0.0
 20
0.0
 30
0.0
  0
VERTEX
  5
2C8
330
2C7
100
AcDbEntity
  8
DIBUJOS
 62
     7
100
AcDbVertex
100
AcDb2dVertex
 10
62.57902569907258
 20
44.58986486613642
 30
0.0
  0
VERTEX
  5
2C9
330
2C7
100
AcDbEntity
  8
DIBUJOS
 62
     7
100
AcDbVertex
100
AcDb2dVertex
 10
62.57298680273228
 20
44.59590857721488
 30
0.0
  0
VERTEX
  5
2CA
330
2C7
100
AcDbEntity
  8
DIBUJOS
 62
     7
100
AcDbVertex
100
AcDb2dVertex
 10
62.57902569907258
 20
44.60195554284969
 30
0.0
  0
SEQEND
  5
2CB
330
2C7
100
AcDbEntity
  8
DIBUJOS
 62
     7
  0
POLYLINE
  5
2CC
330
112
100
AcDbEntity
  8
DIBUJOS
 62
     7
100
AcDb2dPolyline
 66
     1
 10
0.0
 20
0.0
 30
0.0
  0
VERTEX
  5
2CD
330
2CC
100
AcDbEntity
  8
DIBUJOS
 62
     7
100
AcDbVertex
100
AcDb2dVertex
 10
62.57902569907258
 20
44.55963329251868
 30
0.0
  0
VERTEX
  5
2CE
330
2CC
100
AcDbEntity
  8
DIBUJOS
 62
     7
100
AcDbVertex
100
AcDb2dVertex
 10
62.57298680273228
 20
44.55963329251868
 30
0.0
  0
SEQEND
  5
2CF
330
2CC
100
AcDbEntity
  8
DIBUJOS
 62
     7
  0
POLYLINE
  5
2D0
330
112
100
AcDbEntity
  8
DIBUJOS
 62
     7
100
AcDb2dPolyline
 66
     1
 10
0.0
 20
0.0
 30
0.0
  0
VERTEX
  5
2D1
330
2D0
100
AcDbEntity
  8
DIBUJOS
 62
     7
100
AcDbVertex
100
AcDb2dVertex
 10
62.57902569907258
 20
44.51731104218799
 30
0.0
  0
VERTEX
  5
2D2
330
2D0
100
AcDbEntity
  8
DIBUJOS
 62
     7
100
AcDbVertex
100
AcDb2dVertex
 10
62.57902569907258
 20
44.53544868453577
 30
0.0
  0
SEQEND
  5
2D3
330
2D0
100
AcDbEntity
  8
DIBUJOS
 62
     7
  0
POLYLINE
  5
2D4
330
112
100
AcDbEntity
  8
DIBUJOS
 62
     7
100
AcDb2dPolyline
 66
     1
 10
0.0
 20
0.0
 30
0.0
  0
VERTEX
  5
2D5
330
2D4
100
AcDbEntity
  8
DIBUJOS
 62
     7
100
AcDbVertex
100
AcDb2dVertex
 10
62.57902569907258
 20
44.38429732556078
 30
0.0
  0
VERTEX
  5
2D6
330
2D4
100
AcDbEntity
  8
DIBUJOS
 62
     7
100
AcDbVertex
100
AcDb2dVertex
 10
62.57600706367442
 20
44.3903442911956
 30
0.0
  0
VERTEX
  5
2D7
330
2D4
100
AcDbEntity
  8
DIBUJOS
 62
     7
100
AcDbVertex
100
AcDb2dVertex
 10
62.57902569907258
 20
44.4991733998399
 30
0.0
  0
SEQEND
  5
2D8
330
2D4
100
AcDbEntity
  8
DIBUJOS
 62
     7
  0
POLYLINE
  5
2D9
330
112
100
AcDbEntity
  8
DIBUJOS
 62
     7
100
AcDb2dPolyline
 66
     1
 10
0.0
 20
0.0
 30
0.0
  0
VERTEX
  5
2DA
330
2D9
100
AcDbEntity
  8
DIBUJOS
 62
     7
100
AcDbVertex
100
AcDb2dVertex
 10
62.57298680273228
 20
44.32988439851713
 30
0.0
  0
VERTEX
  5
2DB
330
2D9
100
AcDbEntity
  8
DIBUJOS
 62
     7
100
AcDbVertex
100
AcDb2dVertex
 10
62.57902569907258
 20
44.33593136415195
 30
0.0
  0
VERTEX
  5
2DC
330
2D9
100
AcDbEntity
  8
DIBUJOS
 62
     7
100
AcDbVertex
100
AcDb2dVertex
 10
62.57902569907258
 20
44.36615968321301
 30
0.0
  0
SEQEND
  5
2DD
330
2D9
100
AcDbEntity
  8
DIBUJOS
 62
     7
  0
POLYLINE
  5
2DE
330
112
100
AcDbEntity
  8
DIBUJOS
 62
     7
100
AcDb2dPolyline
 66
     1
 10
0.0
 20
0.0
 30
0.0
  0
VERTEX
  5
2DF
330
2DE
100
AcDbEntity
  8
DIBUJOS
 62
     7
100
AcDbVertex
100
AcDb2dVertex
 10
62.57902569907258
 20
44.25733057456871
 30
0.0
  0
VERTEX
  5
2E0
330
2DE
100
AcDbEntity
  8
DIBUJOS
 62
     7
100
AcDbVertex
100
AcDb2dVertex
 10
62.57298680273228
 20
44.31779372180353
 30
0.0
  0
SEQEND
  5
2E1
330
2DE
100
AcDbEntity
  8
DIBUJOS
 62
     7
  0
POLYLINE
  5
2E2
330
112
100
AcDbEntity
  8
DIBUJOS
 62
     7
100
AcDb2dPolyline
 66
     1
 10
0.0
 20
0.0
 30
0.0
  0
VERTEX
  5
2E3
330
2E2
100
AcDbEntity
  8
DIBUJOS
 62
     7
100
AcDbVertex
100
AcDb2dVertex
 10
62.57902569907258
 20
44.16664236282854
 30
0.0
  0
VERTEX
  5
2E4
330
2E2
100
AcDbEntity
  8
DIBUJOS
 62
     7
100
AcDbVertex
100
AcDb2dVertex
 10
62.57902569907258
 20
44.24523989785543
 30
0.0
  0
SEQEND
  5
2E5
330
2E2
100
AcDbEntity
  8
DIBUJOS
 62
     7
  0
POLYLINE
  5
2E6
330
112
100
AcDbEntity
  8
DIBUJOS
 62
     7
100
AcDb2dPolyline
 66
     1
 10
0.0
 20
0.0
 30
0.0
  0
VERTEX
  5
2E7
330
2E6
100
AcDbEntity
  8
DIBUJOS
 62
     7
100
AcDbVertex
100
AcDb2dVertex
 10
66.64970998907589
 20
44.14850472048077
 30
0.0
  0
VERTEX
  5
2E8
330
2E6
100
AcDbEntity
  8
DIBUJOS
 62
     7
100
AcDbVertex
100
AcDb2dVertex
 10
66.64367109273557
 20
44.51731104218799
 30
0.0
  0
VERTEX
  5
2E9
330
2E6
100
AcDbEntity
  8
DIBUJOS
 62
     7
100
AcDbVertex
100
AcDb2dVertex
 10
66.64850220980807
 20
44.53000706637609
 30
0.0
  0
VERTEX
  5
2EA
330
2E6
100
AcDbEntity
  8
DIBUJOS
 62
     7
100
AcDbVertex
100
AcDb2dVertex
 10
66.64970998907589
 20
44.53544868453577
 30
0.0
  0
SEQEND
  5
2EB
330
2E6
100
AcDbEntity
  8
DIBUJOS
 62
     7
  0
POLYLINE
  5
2EC
330
112
100
AcDbEntity
  8
DIBUJOS
 62
     7
100
AcDb2dPolyline
 66
     1
 10
0.0
 20
0.0
 30
0.0
  0
VERTEX
  5
2ED
330
2EC
100
AcDbEntity
  8
DIBUJOS
 62
     7
100
AcDbVertex
100
AcDb2dVertex
 10
62.57902569907258
 20
44.04572257747129
 30
0.0
  0
VERTEX
  5
2EE
330
2EC
100
AcDbEntity
  8
DIBUJOS
 62
     7
100
AcDbVertex
100
AcDb2dVertex
 10
62.57298680273228
 20
44.14850472048077
 30
0.0
  0
VERTEX
  5
2EF
330
2EC
100
AcDbEntity
  8
DIBUJOS
 62
     7
100
AcDbVertex
100
AcDb2dVertex
 10
62.57902569907258
 20
44.15454843155923
 30
0.0
  0
SEQEND
  5
2F0
330
2EC
100
AcDbEntity
  8
DIBUJOS
 62
     7
  0
POLYLINE
  5
2F1
330
112
100
AcDbEntity
  8
DIBUJOS
 62
     7
100
AcDb2dPolyline
 66
     1
 10
0.0
 20
0.0
 30
0.0
  0
VERTEX
  5
2F2
330
2F1
100
AcDbEntity
  8
DIBUJOS
 62
     7
100
AcDbVertex
100
AcDb2dVertex
 10
66.64970998907589
 20
44.04572257747129
 30
0.0
  0
VERTEX
  5
2F3
330
2F1
100
AcDbEntity
  8
DIBUJOS
 62
     7
100
AcDbVertex
100
AcDb2dVertex
 10
66.64970998907589
 20
44.05176628854943
 30
0.0
  0
SEQEND
  5
2F4
330
2F1
100
AcDbEntity
  8
DIBUJOS
 62
     7
  0
POLYLINE
  5
2F5
330
112
100
AcDbEntity
  8
DIBUJOS
 62
     7
100
AcDb2dPolyline
 66
     1
 10
0.0
 20
0.0
 30
0.0
  0
VERTEX
  5
2F6
330
2F5
100
AcDbEntity
  8
DIBUJOS
 62
     7
100
AcDbVertex
100
AcDb2dVertex
 10
66.64970998907589
 20
43.99735336150578
 30
0.0
  0
VERTEX
  5
2F7
330
2F5
100
AcDbEntity
  8
DIBUJOS
 62
     7
100
AcDbVertex
100
AcDb2dVertex
 10
66.64970998907589
 20
44.01549100385355
 30
0.0
  0
SEQEND
  5
2F8
330
2F5
100
AcDbEntity
  8
DIBUJOS
 62
     7
  0
POLYLINE
  5
2F9
330
112
100
AcDbEntity
  8
DIBUJOS
 62
     7
100
AcDb2dPolyline
 66
     1
 10
0.0
 20
0.0
 30
0.0
  0
VERTEX
  5
2FA
330
2F9
100
AcDbEntity
  8
DIBUJOS
 62
     7
100
AcDbVertex
100
AcDb2dVertex
 10
62.57902569907258
 20
43.91875582647889
 30
0.0
  0
VERTEX
  5
2FB
330
2F9
100
AcDbEntity
  8
DIBUJOS
 62
     7
100
AcDbVertex
100
AcDb2dVertex
 10
62.57298680273228
 20
43.92479953755736
 30
0.0
  0
VERTEX
  5
2FC
330
2F9
100
AcDbEntity
  8
DIBUJOS
 62
     7
100
AcDbVertex
100
AcDb2dVertex
 10
62.57298680273228
 20
43.97316875352286
 30
0.0
  0
VERTEX
  5
2FD
330
2F9
100
AcDbEntity
  8
DIBUJOS
 62
     7
100
AcDbVertex
100
AcDb2dVertex
 10
62.57902569907258
 20
44.0034003271406
 30
0.0
  0
VERTEX
  5
2FE
330
2F9
100
AcDbEntity
  8
DIBUJOS
 62
     7
100
AcDbVertex
100
AcDb2dVertex
 10
62.57298680273228
 20
44.01549100385355
 30
0.0
  0
SEQEND
  5
2FF
330
2F9
100
AcDbEntity
  8
DIBUJOS
 62
     7
  0
POLYLINE
  5
300
330
112
100
AcDbEntity
  8
DIBUJOS
 62
     7
100
AcDb2dPolyline
 66
     1
 10
0.0
 20
0.0
 30
0.0
  0
VERTEX
  5
301
330
300
100
AcDbEntity
  8
DIBUJOS
 62
     7
100
AcDbVertex
100
AcDb2dVertex
 10
62.57298680273228
 20
43.65877535885961
 30
0.0
  0
VERTEX
  5
302
330
300
100
AcDbEntity
  8
DIBUJOS
 62
     7
100
AcDbVertex
100
AcDb2dVertex
 10
62.57902569907258
 20
43.68900367792099
 30
0.0
  0
VERTEX
  5
303
330
300
100
AcDbEntity
  8
DIBUJOS
 62
     7
100
AcDbVertex
100
AcDb2dVertex
 10
62.57902569907258
 20
43.70714457482512
 30
0.0
  0
VERTEX
  5
304
330
300
100
AcDbEntity
  8
DIBUJOS
 62
     7
100
AcDbVertex
100
AcDb2dVertex
 10
62.57298680273228
 20
43.71318828590358
 30
0.0
  0
VERTEX
  5
305
330
300
100
AcDbEntity
  8
DIBUJOS
 62
     7
100
AcDbVertex
100
AcDb2dVertex
 10
62.57298680273228
 20
43.73132592825168
 30
0.0
  0
VERTEX
  5
306
330
300
100
AcDbEntity
  8
DIBUJOS
 62
     7
100
AcDbVertex
100
AcDb2dVertex
 10
62.57902569907258
 20
43.73737289388649
 30
0.0
  0
VERTEX
  5
307
330
300
100
AcDbEntity
  8
DIBUJOS
 62
     7
100
AcDbVertex
100
AcDb2dVertex
 10
62.57298680273228
 20
43.80992671783459
 30
0.0
  0
VERTEX
  5
308
330
300
100
AcDbEntity
  8
DIBUJOS
 62
     7
100
AcDbVertex
100
AcDb2dVertex
 10
62.57902569907258
 20
43.81597042891305
 30
0.0
  0
VERTEX
  5
309
330
300
100
AcDbEntity
  8
DIBUJOS
 62
     7
100
AcDbVertex
100
AcDb2dVertex
 10
62.57298680273228
 20
43.82806436018269
 30
0.0
  0
VERTEX
  5
30A
330
300
100
AcDbEntity
  8
DIBUJOS
 62
     7
100
AcDbVertex
100
AcDb2dVertex
 10
62.57298680273228
 20
43.88247728722666
 30
0.0
  0
VERTEX
  5
30B
330
300
100
AcDbEntity
  8
DIBUJOS
 62
     7
100
AcDbVertex
100
AcDb2dVertex
 10
62.57902569907258
 20
43.88852425286148
 30
0.0
  0
VERTEX
  5
30C
330
300
100
AcDbEntity
  8
DIBUJOS
 62
     7
100
AcDbVertex
100
AcDb2dVertex
 10
62.57298680273228
 20
43.90061492957444
 30
0.0
  0
SEQEND
  5
30D
330
300
100
AcDbEntity
  8
DIBUJOS
 62
     7
  0
POLYLINE
  5
30E
330
112
100
AcDbEntity
  8
DIBUJOS
 62
     7
100
AcDb2dPolyline
 66
     1
 10
0.0
 20
0.0
 30
0.0
  0
VERTEX
  5
30F
330
30E
100
AcDbEntity
  8
DIBUJOS
 62
     7
100
AcDbVertex
100
AcDb2dVertex
 10
62.57298680273228
 20
43.59831546618082
 30
0.0
  0
VERTEX
  5
310
330
30E
100
AcDbEntity
  8
DIBUJOS
 62
     7
100
AcDbVertex
100
AcDb2dVertex
 10
62.57298680273228
 20
43.63459075087669
 30
0.0
  0
VERTEX
  5
311
330
30E
100
AcDbEntity
  8
DIBUJOS
 62
     7
100
AcDbVertex
100
AcDb2dVertex
 10
62.57902569907258
 20
43.64063771651151
 30
0.0
  0
SEQEND
  5
312
330
30E
100
AcDbEntity
  8
DIBUJOS
 62
     7
  0
POLYLINE
  5
313
330
112
100
AcDbEntity
  8
DIBUJOS
 62
     7
100
AcDb2dPolyline
 66
     1
 10
0.0
 20
0.0
 30
0.0
  0
VERTEX
  5
314
330
313
100
AcDbEntity
  8
DIBUJOS
 62
     7
100
AcDbVertex
100
AcDb2dVertex
 10
62.57298680273228
 20
43.56808389256309
 30
0.0
  0
VERTEX
  5
315
330
313
100
AcDbEntity
  8
DIBUJOS
 62
     7
100
AcDbVertex
100
AcDb2dVertex
 10
62.57298680273228
 20
43.5741308581979
 30
0.0
  0
SEQEND
  5
316
330
313
100
AcDbEntity
  8
DIBUJOS
 62
     7
  0
POLYLINE
  5
317
330
112
100
AcDbEntity
  8
DIBUJOS
 62
     7
100
AcDb2dPolyline
 66
     1
 10
0.0
 20
0.0
 30
0.0
  0
VERTEX
  5
318
330
317
100
AcDbEntity
  8
DIBUJOS
 62
     7
100
AcDbVertex
100
AcDb2dVertex
 10
62.57298680273228
 20
43.54994625021531
 30
0.0
  0
VERTEX
  5
319
330
317
100
AcDbEntity
  8
DIBUJOS
 62
     7
100
AcDbVertex
100
AcDb2dVertex
 10
62.57298680273228
 20
43.55599321585013
 30
0.0
  0
SEQEND
  5
31A
330
317
100
AcDbEntity
  8
DIBUJOS
 62
     7
  0
POLYLINE
  5
31B
330
112
100
AcDbEntity
  8
DIBUJOS
 62
     7
100
AcDb2dPolyline
 66
     1
 10
0.0
 20
0.0
 30
0.0
  0
VERTEX
  5
31C
330
31B
100
AcDbEntity
  8
DIBUJOS
 62
     7
100
AcDbVertex
100
AcDb2dVertex
 10
62.57298680273228
 20
43.47739242626721
 30
0.0
  0
VERTEX
  5
31D
330
31B
100
AcDbEntity
  8
DIBUJOS
 62
     7
100
AcDbVertex
100
AcDb2dVertex
 10
62.57298680273228
 20
43.5015770342498
 30
0.0
  0
SEQEND
  5
31E
330
31B
100
AcDbEntity
  8
DIBUJOS
 62
     7
  0
POLYLINE
  5
31F
330
112
100
AcDbEntity
  8
DIBUJOS
 62
     7
100
AcDb2dPolyline
 66
     1
 10
0.0
 20
0.0
 30
0.0
  0
VERTEX
  5
320
330
31F
100
AcDbEntity
  8
DIBUJOS
 62
     7
100
AcDbVertex
100
AcDb2dVertex
 10
66.58327400161325
 20
43.45925478391911
 30
0.0
  0
VERTEX
  5
321
330
31F
100
AcDbEntity
  8
DIBUJOS
 62
     7
100
AcDbVertex
100
AcDb2dVertex
 10
66.58448178088138
 20
43.46469640207911
 30
0.0
  0
VERTEX
  5
322
330
31F
100
AcDbEntity
  8
DIBUJOS
 62
     7
100
AcDbVertex
100
AcDb2dVertex
 10
66.58628125820255
 20
43.6769260194328
 30
0.0
  0
VERTEX
  5
323
330
31F
100
AcDbEntity
  8
DIBUJOS
 62
     7
100
AcDbVertex
100
AcDb2dVertex
 10
66.58327400161325
 20
45.03727197742656
 30
0.0
  0
SEQEND
  5
324
330
31F
100
AcDbEntity
  8
DIBUJOS
 62
     7
  0
POLYLINE
  5
325
330
112
100
AcDbEntity
  8
DIBUJOS
 62
     7
100
AcDb2dPolyline
 66
     1
 10
0.0
 20
0.0
 30
0.0
  0
VERTEX
  5
326
330
325
100
AcDbEntity
  8
DIBUJOS
 62
     7
100
AcDbVertex
100
AcDb2dVertex
 10
66.58327400161325
 20
43.45321107284033
 30
0.0
  0
VERTEX
  5
327
330
325
100
AcDbEntity
  8
DIBUJOS
 62
     7
100
AcDbVertex
100
AcDb2dVertex
 10
66.57723510527295
 20
43.45321107284033
 30
0.0
  0
SEQEND
  5
328
330
325
100
AcDbEntity
  8
DIBUJOS
 62
     7
  0
POLYLINE
  5
329
330
112
100
AcDbEntity
  8
DIBUJOS
 62
     7
100
AcDb2dPolyline
 66
     1
 10
0.0
 20
0.0
 30
0.0
  0
VERTEX
  5
32A
330
329
100
AcDbEntity
  8
DIBUJOS
 62
     7
100
AcDbVertex
100
AcDb2dVertex
 10
66.58327400161325
 20
43.45321107284033
 30
0.0
  0
VERTEX
  5
32B
330
329
100
AcDbEntity
  8
DIBUJOS
 62
     7
100
AcDbVertex
100
AcDb2dVertex
 10
66.58327400161325
 20
43.45925478391911
 30
0.0
  0
SEQEND
  5
32C
330
329
100
AcDbEntity
  8
DIBUJOS
 62
     7
  0
POLYLINE
  5
32D
330
112
100
AcDbEntity
  8
DIBUJOS
 62
     7
100
AcDb2dPolyline
 66
     1
 10
0.0
 20
0.0
 30
0.0
  0
VERTEX
  5
32E
330
32D
100
AcDbEntity
  8
DIBUJOS
 62
     7
100
AcDbVertex
100
AcDb2dVertex
 10
66.54703737248377
 20
43.44716410720551
 30
0.0
  0
VERTEX
  5
32F
330
32D
100
AcDbEntity
  8
DIBUJOS
 62
     7
100
AcDbVertex
100
AcDb2dVertex
 10
66.57723510527295
 20
43.45321107284033
 30
0.0
  0
SEQEND
  5
330
330
32D
100
AcDbEntity
  8
DIBUJOS
 62
     7
  0
POLYLINE
  5
331
330
112
100
AcDbEntity
  8
DIBUJOS
 62
     7
100
AcDb2dPolyline
 66
     1
 10
0.0
 20
0.0
 30
0.0
  0
VERTEX
  5
332
330
331
100
AcDbEntity
  8
DIBUJOS
 62
     7
100
AcDbVertex
100
AcDb2dVertex
 10
66.58327400161325
 20
43.44716410720551
 30
0.0
  0
VERTEX
  5
333
330
331
100
AcDbEntity
  8
DIBUJOS
 62
     7
100
AcDbVertex
100
AcDb2dVertex
 10
66.58327400161325
 20
43.45321107284033
 30
0.0
  0
SEQEND
  5
334
330
331
100
AcDbEntity
  8
DIBUJOS
 62
     7
  0
POLYLINE
  5
335
330
112
100
AcDbEntity
  8
DIBUJOS
 62
     7
100
AcDb2dPolyline
 66
     1
 10
0.0
 20
0.0
 30
0.0
  0
VERTEX
  5
336
330
335
100
AcDbEntity
  8
DIBUJOS
 62
     7
100
AcDbVertex
100
AcDb2dVertex
 10
66.54099685059948
 20
43.44111714157101
 30
0.0
  0
VERTEX
  5
337
330
335
100
AcDbEntity
  8
DIBUJOS
 62
     7
100
AcDbVertex
100
AcDb2dVertex
 10
66.54099685059948
 20
43.44716410720551
 30
0.0
  0
VERTEX
  5
338
330
335
100
AcDbEntity
  8
DIBUJOS
 62
     7
100
AcDbVertex
100
AcDb2dVertex
 10
66.54703737248377
 20
43.44716410720551
 30
0.0
  0
SEQEND
  5
339
330
335
100
AcDbEntity
  8
DIBUJOS
 62
     7
  0
POLYLINE
  5
33A
330
112
100
AcDbEntity
  8
DIBUJOS
 62
     7
100
AcDb2dPolyline
 66
     1
 10
0.0
 20
0.0
 30
0.0
  0
VERTEX
  5
33B
330
33A
100
AcDbEntity
  8
DIBUJOS
 62
     7
100
AcDbVertex
100
AcDb2dVertex
 10
62.57298680273228
 20
43.4350701759362
 30
0.0
  0
VERTEX
  5
33C
330
33A
100
AcDbEntity
  8
DIBUJOS
 62
     7
100
AcDbVertex
100
AcDb2dVertex
 10
62.57298680273228
 20
43.45925478391911
 30
0.0
  0
SEQEND
  5
33D
330
33A
100
AcDbEntity
  8
DIBUJOS
 62
     7
  0
POLYLINE
  5
33E
330
112
100
AcDbEntity
  8
DIBUJOS
 62
     7
100
AcDb2dPolyline
 66
     1
 10
0.0
 20
0.0
 30
0.0
  0
VERTEX
  5
33F
330
33E
100
AcDbEntity
  8
DIBUJOS
 62
     7
100
AcDbVertex
100
AcDb2dVertex
 10
62.57298680273228
 20
43.38670421452704
 30
0.0
  0
VERTEX
  5
340
330
33E
100
AcDbEntity
  8
DIBUJOS
 62
     7
100
AcDbVertex
100
AcDb2dVertex
 10
62.57298680273228
 20
43.39274792560551
 30
0.0
  0
SEQEND
  5
341
330
33E
100
AcDbEntity
  8
DIBUJOS
 62
     7
  0
POLYLINE
  5
342
330
112
100
AcDbEntity
  8
DIBUJOS
 62
     7
100
AcDb2dPolyline
 66
     1
 10
0.0
 20
0.0
 30
0.0
  0
VERTEX
  5
343
330
342
100
AcDbEntity
  8
DIBUJOS
 62
     7
100
AcDbVertex
100
AcDb2dVertex
 10
62.57298680273228
 20
43.33833499856154
 30
0.0
  0
VERTEX
  5
344
330
342
100
AcDbEntity
  8
DIBUJOS
 62
     7
100
AcDbVertex
100
AcDb2dVertex
 10
62.57298680273228
 20
43.34438196419635
 30
0.0
  0
SEQEND
  5
345
330
342
100
AcDbEntity
  8
DIBUJOS
 62
     7
  0
POLYLINE
  5
346
330
112
100
AcDbEntity
  8
DIBUJOS
 62
     7
100
AcDb2dPolyline
 66
     1
 10
0.0
 20
0.0
 30
0.0
  0
VERTEX
  5
347
330
346
100
AcDbEntity
  8
DIBUJOS
 62
     7
100
AcDbVertex
100
AcDb2dVertex
 10
62.57298680273228
 20
43.21741521320396
 30
0.0
  0
VERTEX
  5
348
330
346
100
AcDbEntity
  8
DIBUJOS
 62
     7
100
AcDbVertex
100
AcDb2dVertex
 10
62.56694790639197
 20
43.22345892428242
 30
0.0
  0
VERTEX
  5
349
330
346
100
AcDbEntity
  8
DIBUJOS
 62
     7
100
AcDbVertex
100
AcDb2dVertex
 10
62.56694790639197
 20
43.24159982118687
 30
0.0
  0
VERTEX
  5
34A
330
346
100
AcDbEntity
  8
DIBUJOS
 62
     7
100
AcDbVertex
100
AcDb2dVertex
 10
62.57298680273228
 20
43.24764353226534
 30
0.0
  0
SEQEND
  5
34B
330
346
100
AcDbEntity
  8
DIBUJOS
 62
     7
  0
POLYLINE
  5
34C
330
112
100
AcDbEntity
  8
DIBUJOS
 62
     7
100
AcDb2dPolyline
 66
     1
 10
0.0
 20
0.0
 30
0.0
  0
VERTEX
  5
34D
330
34C
100
AcDbEntity
  8
DIBUJOS
 62
     7
100
AcDbVertex
100
AcDb2dVertex
 10
62.56694790639197
 20
43.16299903160363
 30
0.0
  0
VERTEX
  5
34E
330
34C
100
AcDbEntity
  8
DIBUJOS
 62
     7
100
AcDbVertex
100
AcDb2dVertex
 10
62.56694790639197
 20
43.17509296287326
 30
0.0
  0
SEQEND
  5
34F
330
34C
100
AcDbEntity
  8
DIBUJOS
 62
     7
  0
POLYLINE
  5
350
330
112
100
AcDbEntity
  8
DIBUJOS
 62
     7
100
AcDb2dPolyline
 66
     1
 10
0.0
 20
0.0
 30
0.0
  0
VERTEX
  5
351
330
350
100
AcDbEntity
  8
DIBUJOS
 62
     7
100
AcDbVertex
100
AcDb2dVertex
 10
66.55307626882409
 20
43.08440149657707
 30
0.0
  0
VERTEX
  5
352
330
350
100
AcDbEntity
  8
DIBUJOS
 62
     7
100
AcDbVertex
100
AcDb2dVertex
 10
66.55012915736641
 20
43.33826665287906
 30
0.0
  0
VERTEX
  5
353
330
350
100
AcDbEntity
  8
DIBUJOS
 62
     7
100
AcDbVertex
100
AcDb2dVertex
 10
66.54099685059948
 20
43.44111714157101
 30
0.0
  0
SEQEND
  5
354
330
350
100
AcDbEntity
  8
DIBUJOS
 62
     7
  0
POLYLINE
  5
355
330
112
100
AcDbEntity
  8
DIBUJOS
 62
     7
100
AcDb2dPolyline
 66
     1
 10
0.0
 20
0.0
 30
0.0
  0
VERTEX
  5
356
330
355
100
AcDbEntity
  8
DIBUJOS
 62
     7
100
AcDbVertex
100
AcDb2dVertex
 10
66.58327400161325
 20
43.08440149657707
 30
0.0
  0
VERTEX
  5
357
330
355
100
AcDbEntity
  8
DIBUJOS
 62
     7
100
AcDbVertex
100
AcDb2dVertex
 10
66.5854067154755
 20
43.10200539168918
 30
0.0
  0
VERTEX
  5
358
330
355
100
AcDbEntity
  8
DIBUJOS
 62
     7
100
AcDbVertex
100
AcDb2dVertex
 10
66.58931452349722
 20
43.44111714157101
 30
0.0
  0
VERTEX
  5
359
330
355
100
AcDbEntity
  8
DIBUJOS
 62
     7
100
AcDbVertex
100
AcDb2dVertex
 10
66.58327400161325
 20
43.44716410720551
 30
0.0
  0
SEQEND
  5
35A
330
355
100
AcDbEntity
  8
DIBUJOS
 62
     7
  0
POLYLINE
  5
35B
330
112
100
AcDbEntity
  8
DIBUJOS
 62
     7
100
AcDb2dPolyline
 66
     1
 10
0.0
 20
0.0
 30
0.0
  0
VERTEX
  5
35C
330
35B
100
AcDbEntity
  8
DIBUJOS
 62
     7
100
AcDbVertex
100
AcDb2dVertex
 10
66.55911679070837
 20
43.07835453094225
 30
0.0
  0
VERTEX
  5
35D
330
35B
100
AcDbEntity
  8
DIBUJOS
 62
     7
100
AcDbVertex
100
AcDb2dVertex
 10
66.55307626882409
 20
43.07835453094225
 30
0.0
  0
VERTEX
  5
35E
330
35B
100
AcDbEntity
  8
DIBUJOS
 62
     7
100
AcDbVertex
100
AcDb2dVertex
 10
66.55307626882409
 20
43.08440149657707
 30
0.0
  0
SEQEND
  5
35F
330
35B
100
AcDbEntity
  8
DIBUJOS
 62
     7
  0
POLYLINE
  5
360
330
112
100
AcDbEntity
  8
DIBUJOS
 62
     7
100
AcDb2dPolyline
 66
     1
 10
0.0
 20
0.0
 30
0.0
  0
VERTEX
  5
361
330
360
100
AcDbEntity
  8
DIBUJOS
 62
     7
100
AcDbVertex
100
AcDb2dVertex
 10
66.57723510527295
 20
43.07835453094225
 30
0.0
  0
VERTEX
  5
362
330
360
100
AcDbEntity
  8
DIBUJOS
 62
     7
100
AcDbVertex
100
AcDb2dVertex
 10
66.55911679070837
 20
43.07835453094225
 30
0.0
  0
SEQEND
  5
363
330
360
100
AcDbEntity
  8
DIBUJOS
 62
     7
  0
POLYLINE
  5
364
330
112
100
AcDbEntity
  8
DIBUJOS
 62
     7
100
AcDb2dPolyline
 66
     1
 10
0.0
 20
0.0
 30
0.0
  0
VERTEX
  5
365
330
364
100
AcDbEntity
  8
DIBUJOS
 62
     7
100
AcDbVertex
100
AcDb2dVertex
 10
66.58327400161325
 20
43.07835453094225
 30
0.0
  0
VERTEX
  5
366
330
364
100
AcDbEntity
  8
DIBUJOS
 62
     7
100
AcDbVertex
100
AcDb2dVertex
 10
66.57723510527295
 20
43.07835453094225
 30
0.0
  0
SEQEND
  5
367
330
364
100
AcDbEntity
  8
DIBUJOS
 62
     7
  0
POLYLINE
  5
368
330
112
100
AcDbEntity
  8
DIBUJOS
 62
     7
100
AcDb2dPolyline
 66
     1
 10
0.0
 20
0.0
 30
0.0
  0
VERTEX
  5
369
330
368
100
AcDbEntity
  8
DIBUJOS
 62
     7
100
AcDbVertex
100
AcDb2dVertex
 10
66.58327400161325
 20
43.07835453094225
 30
0.0
  0
VERTEX
  5
36A
330
368
100
AcDbEntity
  8
DIBUJOS
 62
     7
100
AcDbVertex
100
AcDb2dVertex
 10
66.58327400161325
 20
43.08440149657707
 30
0.0
  0
SEQEND
  5
36B
330
368
100
AcDbEntity
  8
DIBUJOS
 62
     7
  0
POLYLINE
  5
36C
330
112
100
AcDbEntity
  8
DIBUJOS
 62
     7
100
AcDb2dPolyline
 66
     1
 10
0.0
 20
0.0
 30
0.0
  0
VERTEX
  5
36D
330
36C
100
AcDbEntity
  8
DIBUJOS
 62
     7
100
AcDbVertex
100
AcDb2dVertex
 10
66.58327400161325
 20
43.07231081986379
 30
0.0
  0
VERTEX
  5
36E
330
36C
100
AcDbEntity
  8
DIBUJOS
 62
     7
100
AcDbVertex
100
AcDb2dVertex
 10
66.58327400161325
 20
43.07835453094225
 30
0.0
  0
SEQEND
  5
36F
330
36C
100
AcDbEntity
  8
DIBUJOS
 62
     7
  0
POLYLINE
  5
370
330
112
100
AcDbEntity
  8
DIBUJOS
 62
     7
100
AcDb2dPolyline
 66
     1
 10
0.0
 20
0.0
 30
0.0
  0
VERTEX
  5
371
330
370
100
AcDbEntity
  8
DIBUJOS
 62
     7
100
AcDbVertex
100
AcDb2dVertex
 10
62.56090738450801
 20
42.92115946088848
 30
0.0
  0
VERTEX
  5
372
330
370
100
AcDbEntity
  8
DIBUJOS
 62
     7
100
AcDbVertex
100
AcDb2dVertex
 10
62.56090738450801
 20
42.94534244159321
 30
0.0
  0
SEQEND
  5
373
330
370
100
AcDbEntity
  8
DIBUJOS
 62
     7
  0
POLYLINE
  5
374
330
112
100
AcDbEntity
  8
DIBUJOS
 62
     7
100
AcDb2dPolyline
 66
     1
 10
0.0
 20
0.0
 30
0.0
  0
VERTEX
  5
375
330
374
100
AcDbEntity
  8
DIBUJOS
 62
     7
100
AcDbVertex
100
AcDb2dVertex
 10
62.56090738450801
 20
42.90302019126252
 30
0.0
  0
VERTEX
  5
376
330
374
100
AcDbEntity
  8
DIBUJOS
 62
     7
100
AcDbVertex
100
AcDb2dVertex
 10
62.56090738450801
 20
42.90906715689734
 30
0.0
  0
SEQEND
  5
377
330
374
100
AcDbEntity
  8
DIBUJOS
 62
     7
  0
POLYLINE
  5
378
330
112
100
AcDbEntity
  8
DIBUJOS
 62
     7
100
AcDb2dPolyline
 66
     1
 10
0.0
 20
0.0
 30
0.0
  0
VERTEX
  5
379
330
378
100
AcDbEntity
  8
DIBUJOS
 62
     7
100
AcDbVertex
100
AcDb2dVertex
 10
62.56090738450801
 20
42.86069794093151
 30
0.0
  0
VERTEX
  5
37A
330
378
100
AcDbEntity
  8
DIBUJOS
 62
     7
100
AcDbVertex
100
AcDb2dVertex
 10
62.56090738450801
 20
42.87279024492329
 30
0.0
  0
SEQEND
  5
37B
330
378
100
AcDbEntity
  8
DIBUJOS
 62
     7
  0
POLYLINE
  5
37C
330
112
100
AcDbEntity
  8
DIBUJOS
 62
     7
100
AcDb2dPolyline
 66
     1
 10
0.0
 20
0.0
 30
0.0
  0
VERTEX
  5
37D
330
37C
100
AcDbEntity
  8
DIBUJOS
 62
     7
100
AcDbVertex
100
AcDb2dVertex
 10
66.65574888541619
 20
42.85465260257519
 30
0.0
  0
VERTEX
  5
37E
330
37C
100
AcDbEntity
  8
DIBUJOS
 62
     7
100
AcDbVertex
100
AcDb2dVertex
 10
66.65300009033918
 20
42.92093001466839
 30
0.0
  0
VERTEX
  5
37F
330
37C
100
AcDbEntity
  8
DIBUJOS
 62
     7
100
AcDbVertex
100
AcDb2dVertex
 10
66.64970998907589
 20
43.88247728722666
 30
0.0
  0
SEQEND
  5
380
330
37C
100
AcDbEntity
  8
DIBUJOS
 62
     7
  0
POLYLINE
  5
381
330
112
100
AcDbEntity
  8
DIBUJOS
 62
     7
100
AcDb2dPolyline
 66
     1
 10
0.0
 20
0.0
 30
0.0
  0
VERTEX
  5
382
330
381
100
AcDbEntity
  8
DIBUJOS
 62
     7
100
AcDbVertex
100
AcDb2dVertex
 10
62.56090738450801
 20
42.82442265623596
 30
0.0
  0
VERTEX
  5
383
330
381
100
AcDbEntity
  8
DIBUJOS
 62
     7
100
AcDbVertex
100
AcDb2dVertex
 10
62.56694790639197
 20
42.83651496022709
 30
0.0
  0
SEQEND
  5
384
330
381
100
AcDbEntity
  8
DIBUJOS
 62
     7
  0
POLYLINE
  5
385
330
112
100
AcDbEntity
  8
DIBUJOS
 62
     7
100
AcDb2dPolyline
 66
     1
 10
0.0
 20
0.0
 30
0.0
  0
VERTEX
  5
386
330
385
100
AcDbEntity
  8
DIBUJOS
 62
     7
100
AcDbVertex
100
AcDb2dVertex
 10
66.66178940730047
 20
42.7941927098964
 30
0.0
  0
VERTEX
  5
387
330
385
100
AcDbEntity
  8
DIBUJOS
 62
     7
100
AcDbVertex
100
AcDb2dVertex
 10
66.65574888541619
 20
42.84256029858373
 30
0.0
  0
SEQEND
  5
388
330
385
100
AcDbEntity
  8
DIBUJOS
 62
     7
  0
POLYLINE
  5
389
330
112
100
AcDbEntity
  8
DIBUJOS
 62
     7
100
AcDb2dPolyline
 66
     1
 10
0.0
 20
0.0
 30
0.0
  0
VERTEX
  5
38A
330
389
100
AcDbEntity
  8
DIBUJOS
 62
     7
100
AcDbVertex
100
AcDb2dVertex
 10
62.56090738450801
 20
42.78814574426158
 30
0.0
  0
VERTEX
  5
38B
330
389
100
AcDbEntity
  8
DIBUJOS
 62
     7
100
AcDbVertex
100
AcDb2dVertex
 10
62.56090738450801
 20
42.80023804825304
 30
0.0
  0
SEQEND
  5
38C
330
389
100
AcDbEntity
  8
DIBUJOS
 62
     7
  0
POLYLINE
  5
38D
330
112
100
AcDbEntity
  8
DIBUJOS
 62
     7
100
AcDb2dPolyline
 66
     1
 10
0.0
 20
0.0
 30
0.0
  0
VERTEX
  5
38E
330
38D
100
AcDbEntity
  8
DIBUJOS
 62
     7
100
AcDbVertex
100
AcDb2dVertex
 10
62.55486848816738
 20
42.76396276355685
 30
0.0
  0
VERTEX
  5
38F
330
38D
100
AcDbEntity
  8
DIBUJOS
 62
     7
100
AcDbVertex
100
AcDb2dVertex
 10
62.56090738450801
 20
42.77605344027045
 30
0.0
  0
SEQEND
  5
390
330
38D
100
AcDbEntity
  8
DIBUJOS
 62
     7
  0
POLYLINE
  5
391
330
112
100
AcDbEntity
  8
DIBUJOS
 62
     7
100
AcDb2dPolyline
 66
     1
 10
0.0
 20
0.0
 30
0.0
  0
VERTEX
  5
392
330
391
100
AcDbEntity
  8
DIBUJOS
 62
     7
100
AcDbVertex
100
AcDb2dVertex
 10
66.66782830364077
 20
42.75791579792203
 30
0.0
  0
VERTEX
  5
393
330
391
100
AcDbEntity
  8
DIBUJOS
 62
     7
100
AcDbVertex
100
AcDb2dVertex
 10
66.66782830364077
 20
42.76396276355685
 30
0.0
  0
SEQEND
  5
394
330
391
100
AcDbEntity
  8
DIBUJOS
 62
     7
  0
POLYLINE
  5
395
330
112
100
AcDbEntity
  8
DIBUJOS
 62
     7
100
AcDb2dPolyline
 66
     1
 10
0.0
 20
0.0
 30
0.0
  0
VERTEX
  5
396
330
395
100
AcDbEntity
  8
DIBUJOS
 62
     7
100
AcDbVertex
100
AcDb2dVertex
 10
66.64367109273557
 20
42.69745590524357
 30
0.0
  0
VERTEX
  5
397
330
395
100
AcDbEntity
  8
DIBUJOS
 62
     7
100
AcDbVertex
100
AcDb2dVertex
 10
66.63530766832895
 20
42.73931275402106
 30
0.0
  0
VERTEX
  5
398
330
395
100
AcDbEntity
  8
DIBUJOS
 62
     7
100
AcDbVertex
100
AcDb2dVertex
 10
66.62242035468584
 20
42.83057214039465
 30
0.0
  0
VERTEX
  5
399
330
395
100
AcDbEntity
  8
DIBUJOS
 62
     7
100
AcDbVertex
100
AcDb2dVertex
 10
66.6166041578879
 20
42.99360751175667
 30
0.0
  0
VERTEX
  5
39A
330
395
100
AcDbEntity
  8
DIBUJOS
 62
     7
100
AcDbVertex
100
AcDb2dVertex
 10
66.6134717344021
 20
46.09532498113941
 30
0.0
  0
VERTEX
  5
39B
330
395
100
AcDbEntity
  8
DIBUJOS
 62
     7
100
AcDbVertex
100
AcDb2dVertex
 10
66.62226105136372
 20
46.16764773158926
 30
0.0
  0
VERTEX
  5
39C
330
395
100
AcDbEntity
  8
DIBUJOS
 62
     7
100
AcDbVertex
100
AcDb2dVertex
 10
66.64970998907589
 20
46.33716780641092
 30
0.0
  0
SEQEND
  5
39D
330
395
100
AcDbEntity
  8
DIBUJOS
 62
     7
  0
POLYLINE
  5
39E
330
112
100
AcDbEntity
  8
DIBUJOS
 62
     7
100
AcDb2dPolyline
 66
     1
 10
0.0
 20
0.0
 30
0.0
  0
VERTEX
  5
39F
330
39E
100
AcDbEntity
  8
DIBUJOS
 62
     7
100
AcDbVertex
100
AcDb2dVertex
 10
66.6255511526267
 20
42.69140893960875
 30
0.0
  0
VERTEX
  5
3A0
330
39E
100
AcDbEntity
  8
DIBUJOS
 62
     7
100
AcDbVertex
100
AcDb2dVertex
 10
66.61166087827272
 20
42.72708050410798
 30
0.0
  0
VERTEX
  5
3A1
330
39E
100
AcDbEntity
  8
DIBUJOS
 62
     7
100
AcDbVertex
100
AcDb2dVertex
 10
66.59290535041964
 20
42.79982960143541
 30
0.0
  0
VERTEX
  5
3A2
330
39E
100
AcDbEntity
  8
DIBUJOS
 62
     7
100
AcDbVertex
100
AcDb2dVertex
 10
66.58621298535003
 20
42.84868374629191
 30
0.0
  0
VERTEX
  5
3A3
330
39E
100
AcDbEntity
  8
DIBUJOS
 62
     7
100
AcDbVertex
100
AcDb2dVertex
 10
66.58327400161325
 20
43.07231081986379
 30
0.0
  0
SEQEND
  5
3A4
330
39E
100
AcDbEntity
  8
DIBUJOS
 62
     7
  0
POLYLINE
  5
3A5
330
112
100
AcDbEntity
  8
DIBUJOS
 62
     7
100
AcDb2dPolyline
 66
     1
 10
0.0
 20
0.0
 30
0.0
  0
VERTEX
  5
3A6
330
3A5
100
AcDbEntity
  8
DIBUJOS
 62
     7
100
AcDbVertex
100
AcDb2dVertex
 10
66.64367109273557
 20
42.69140893960875
 30
0.0
  0
VERTEX
  5
3A7
330
3A5
100
AcDbEntity
  8
DIBUJOS
 62
     7
100
AcDbVertex
100
AcDb2dVertex
 10
66.63763057085129
 20
42.69140893960875
 30
0.0
  0
SEQEND
  5
3A8
330
3A5
100
AcDbEntity
  8
DIBUJOS
 62
     7
  0
POLYLINE
  5
3A9
330
112
100
AcDbEntity
  8
DIBUJOS
 62
     7
100
AcDb2dPolyline
 66
     1
 10
0.0
 20
0.0
 30
0.0
  0
VERTEX
  5
3AA
330
3A9
100
AcDbEntity
  8
DIBUJOS
 62
     7
100
AcDbVertex
100
AcDb2dVertex
 10
66.64367109273557
 20
42.69140893960875
 30
0.0
  0
VERTEX
  5
3AB
330
3A9
100
AcDbEntity
  8
DIBUJOS
 62
     7
100
AcDbVertex
100
AcDb2dVertex
 10
66.64367109273557
 20
42.69745590524357
 30
0.0
  0
SEQEND
  5
3AC
330
3A9
100
AcDbEntity
  8
DIBUJOS
 62
     7
  0
POLYLINE
  5
3AD
330
112
100
AcDbEntity
  8
DIBUJOS
 62
     7
100
AcDb2dPolyline
 66
     1
 10
0.0
 20
0.0
 30
0.0
  0
VERTEX
  5
3AE
330
3AD
100
AcDbEntity
  8
DIBUJOS
 62
     7
100
AcDbVertex
100
AcDb2dVertex
 10
66.6255511526267
 20
42.68536360125211
 30
0.0
  0
VERTEX
  5
3AF
330
3AD
100
AcDbEntity
  8
DIBUJOS
 62
     7
100
AcDbVertex
100
AcDb2dVertex
 10
66.6255511526267
 20
42.69140893960875
 30
0.0
  0
SEQEND
  5
3B0
330
3AD
100
AcDbEntity
  8
DIBUJOS
 62
     7
  0
POLYLINE
  5
3B1
330
112
100
AcDbEntity
  8
DIBUJOS
 62
     7
100
AcDb2dPolyline
 66
     1
 10
0.0
 20
0.0
 30
0.0
  0
VERTEX
  5
3B2
330
3B1
100
AcDbEntity
  8
DIBUJOS
 62
     7
100
AcDbVertex
100
AcDb2dVertex
 10
66.63159167451131
 20
42.68536360125211
 30
0.0
  0
VERTEX
  5
3B3
330
3B1
100
AcDbEntity
  8
DIBUJOS
 62
     7
100
AcDbVertex
100
AcDb2dVertex
 10
66.6255511526267
 20
42.68536360125211
 30
0.0
  0
SEQEND
  5
3B4
330
3B1
100
AcDbEntity
  8
DIBUJOS
 62
     7
  0
POLYLINE
  5
3B5
330
112
100
AcDbEntity
  8
DIBUJOS
 62
     7
100
AcDb2dPolyline
 66
     1
 10
0.0
 20
0.0
 30
0.0
  0
VERTEX
  5
3B6
330
3B5
100
AcDbEntity
  8
DIBUJOS
 62
     7
100
AcDbVertex
100
AcDb2dVertex
 10
66.63159167451131
 20
42.68536360125211
 30
0.0
  0
VERTEX
  5
3B7
330
3B5
100
AcDbEntity
  8
DIBUJOS
 62
     7
100
AcDbVertex
100
AcDb2dVertex
 10
66.63763057085129
 20
42.69140893960875
 30
0.0
  0
SEQEND
  5
3B8
330
3B5
100
AcDbEntity
  8
DIBUJOS
 62
     7
  0
POLYLINE
  5
3B9
330
112
100
AcDbEntity
  8
DIBUJOS
 62
     7
100
AcDb2dPolyline
 66
     1
 10
0.0
 20
0.0
 30
0.0
  0
VERTEX
  5
3BA
330
3B9
100
AcDbEntity
  8
DIBUJOS
 62
     7
100
AcDbVertex
100
AcDb2dVertex
 10
66.6255511526267
 20
42.67931826289546
 30
0.0
  0
VERTEX
  5
3BB
330
3B9
100
AcDbEntity
  8
DIBUJOS
 62
     7
100
AcDbVertex
100
AcDb2dVertex
 10
66.6255511526267
 20
42.68536360125211
 30
0.0
  0
SEQEND
  5
3BC
330
3B9
100
AcDbEntity
  8
DIBUJOS
 62
     7
  0
POLYLINE
  5
3BD
330
112
100
AcDbEntity
  8
DIBUJOS
 62
     7
100
AcDb2dPolyline
 66
     1
 10
0.0
 20
0.0
 30
0.0
  0
VERTEX
  5
3BE
330
3BD
100
AcDbEntity
  8
DIBUJOS
 62
     7
100
AcDbVertex
100
AcDb2dVertex
 10
66.64970998907589
 20
42.67931826289546
 30
0.0
  0
VERTEX
  5
3BF
330
3BD
100
AcDbEntity
  8
DIBUJOS
 62
     7
100
AcDbVertex
100
AcDb2dVertex
 10
66.64367109273557
 20
42.69140893960875
 30
0.0
  0
SEQEND
  5
3C0
330
3BD
100
AcDbEntity
  8
DIBUJOS
 62
     7
  0
POLYLINE
  5
3C1
330
112
100
AcDbEntity
  8
DIBUJOS
 62
     7
100
AcDb2dPolyline
 66
     1
 10
0.0
 20
0.0
 30
0.0
  0
VERTEX
  5
3C2
330
3C1
100
AcDbEntity
  8
DIBUJOS
 62
     7
100
AcDbVertex
100
AcDb2dVertex
 10
66.63159167451131
 20
42.67327129726065
 30
0.0
  0
VERTEX
  5
3C3
330
3C1
100
AcDbEntity
  8
DIBUJOS
 62
     7
100
AcDbVertex
100
AcDb2dVertex
 10
66.6255511526267
 20
42.67931826289546
 30
0.0
  0
SEQEND
  5
3C4
330
3C1
100
AcDbEntity
  8
DIBUJOS
 62
     7
  0
POLYLINE
  5
3C5
330
112
100
AcDbEntity
  8
DIBUJOS
 62
     7
100
AcDb2dPolyline
 66
     1
 10
0.0
 20
0.0
 30
0.0
  0
VERTEX
  5
3C6
330
3C5
100
AcDbEntity
  8
DIBUJOS
 62
     7
100
AcDbVertex
100
AcDb2dVertex
 10
66.64970998907589
 20
42.67327129726065
 30
0.0
  0
VERTEX
  5
3C7
330
3C5
100
AcDbEntity
  8
DIBUJOS
 62
     7
100
AcDbVertex
100
AcDb2dVertex
 10
66.64367109273557
 20
42.67327129726065
 30
0.0
  0
SEQEND
  5
3C8
330
3C5
100
AcDbEntity
  8
DIBUJOS
 62
     7
  0
POLYLINE
  5
3C9
330
112
100
AcDbEntity
  8
DIBUJOS
 62
     7
100
AcDb2dPolyline
 66
     1
 10
0.0
 20
0.0
 30
0.0
  0
VERTEX
  5
3CA
330
3C9
100
AcDbEntity
  8
DIBUJOS
 62
     7
100
AcDbVertex
100
AcDb2dVertex
 10
66.64970998907589
 20
42.67327129726065
 30
0.0
  0
VERTEX
  5
3CB
330
3C9
100
AcDbEntity
  8
DIBUJOS
 62
     7
100
AcDbVertex
100
AcDb2dVertex
 10
66.64970998907589
 20
42.67931826289546
 30
0.0
  0
SEQEND
  5
3CC
330
3C9
100
AcDbEntity
  8
DIBUJOS
 62
     7
  0
POLYLINE
  5
3CD
330
112
100
AcDbEntity
  8
DIBUJOS
 62
     7
100
AcDb2dPolyline
 66
     1
 10
0.0
 20
0.0
 30
0.0
  0
VERTEX
  5
3CE
330
3CD
100
AcDbEntity
  8
DIBUJOS
 62
     7
100
AcDbVertex
100
AcDb2dVertex
 10
66.63159167451131
 20
42.66722595890401
 30
0.0
  0
VERTEX
  5
3CF
330
3CD
100
AcDbEntity
  8
DIBUJOS
 62
     7
100
AcDbVertex
100
AcDb2dVertex
 10
66.63159167451131
 20
42.67327129726065
 30
0.0
  0
SEQEND
  5
3D0
330
3CD
100
AcDbEntity
  8
DIBUJOS
 62
     7
  0
POLYLINE
  5
3D1
330
112
100
AcDbEntity
  8
DIBUJOS
 62
     7
100
AcDb2dPolyline
 66
     1
 10
0.0
 20
0.0
 30
0.0
  0
VERTEX
  5
3D2
330
3D1
100
AcDbEntity
  8
DIBUJOS
 62
     7
100
AcDbVertex
100
AcDb2dVertex
 10
66.63763057085129
 20
42.66722595890401
 30
0.0
  0
VERTEX
  5
3D3
330
3D1
100
AcDbEntity
  8
DIBUJOS
 62
     7
100
AcDbVertex
100
AcDb2dVertex
 10
66.63159167451131
 20
42.66722595890401
 30
0.0
  0
SEQEND
  5
3D4
330
3D1
100
AcDbEntity
  8
DIBUJOS
 62
     7
  0
POLYLINE
  5
3D5
330
112
100
AcDbEntity
  8
DIBUJOS
 62
     7
100
AcDb2dPolyline
 66
     1
 10
0.0
 20
0.0
 30
0.0
  0
VERTEX
  5
3D6
330
3D5
100
AcDbEntity
  8
DIBUJOS
 62
     7
100
AcDbVertex
100
AcDb2dVertex
 10
66.63763057085129
 20
42.66722595890401
 30
0.0
  0
VERTEX
  5
3D7
330
3D5
100
AcDbEntity
  8
DIBUJOS
 62
     7
100
AcDbVertex
100
AcDb2dVertex
 10
66.64367109273557
 20
42.67327129726065
 30
0.0
  0
SEQEND
  5
3D8
330
3D5
100
AcDbEntity
  8
DIBUJOS
 62
     7
  0
POLYLINE
  5
3D9
330
112
100
AcDbEntity
  8
DIBUJOS
 62
     7
100
AcDb2dPolyline
 66
     1
 10
0.0
 20
0.0
 30
0.0
  0
VERTEX
  5
3DA
330
3D9
100
AcDbEntity
  8
DIBUJOS
 62
     7
100
AcDbVertex
100
AcDb2dVertex
 10
66.63159167451131
 20
42.66117899326919
 30
0.0
  0
VERTEX
  5
3DB
330
3D9
100
AcDbEntity
  8
DIBUJOS
 62
     7
100
AcDbVertex
100
AcDb2dVertex
 10
66.63159167451131
 20
42.66722595890401
 30
0.0
  0
SEQEND
  5
3DC
330
3D9
100
AcDbEntity
  8
DIBUJOS
 62
     7
  0
POLYLINE
  5
3DD
330
112
100
AcDbEntity
  8
DIBUJOS
 62
     7
100
AcDb2dPolyline
 66
     1
 10
0.0
 20
0.0
 30
0.0
  0
VERTEX
  5
3DE
330
3DD
100
AcDbEntity
  8
DIBUJOS
 62
     7
100
AcDbVertex
100
AcDb2dVertex
 10
66.65574888541619
 20
42.66117899326919
 30
0.0
  0
VERTEX
  5
3DF
330
3DD
100
AcDbEntity
  8
DIBUJOS
 62
     7
100
AcDbVertex
100
AcDb2dVertex
 10
66.64970998907589
 20
42.67327129726065
 30
0.0
  0
SEQEND
  5
3E0
330
3DD
100
AcDbEntity
  8
DIBUJOS
 62
     7
  0
POLYLINE
  5
3E1
330
112
100
AcDbEntity
  8
DIBUJOS
 62
     7
100
AcDb2dPolyline
 66
     1
 10
0.0
 20
0.0
 30
0.0
  0
VERTEX
  5
3E2
330
3E1
100
AcDbEntity
  8
DIBUJOS
 62
     7
100
AcDbVertex
100
AcDb2dVertex
 10
66.69198714008996
 20
42.66117899326919
 30
0.0
  0
VERTEX
  5
3E3
330
3E1
100
AcDbEntity
  8
DIBUJOS
 62
     7
100
AcDbVertex
100
AcDb2dVertex
 10
66.67619172804741
 20
42.71001361078789
 30
0.0
  0
VERTEX
  5
3E4
330
3E1
100
AcDbEntity
  8
DIBUJOS
 62
     7
100
AcDbVertex
100
AcDb2dVertex
 10
66.67386882552508
 20
42.73373118993944
 30
0.0
  0
SEQEND
  5
3E5
330
3E1
100
AcDbEntity
  8
DIBUJOS
 62
     7
  0
POLYLINE
  5
3E6
330
112
100
AcDbEntity
  8
DIBUJOS
 62
     7
100
AcDb2dPolyline
 66
     1
 10
0.0
 20
0.0
 30
0.0
  0
VERTEX
  5
3E7
330
3E6
100
AcDbEntity
  8
DIBUJOS
 62
     7
100
AcDbVertex
100
AcDb2dVertex
 10
62.57298680273228
 20
42.65513365491255
 30
0.0
  0
VERTEX
  5
3E8
330
3E6
100
AcDbEntity
  8
DIBUJOS
 62
     7
100
AcDbVertex
100
AcDb2dVertex
 10
62.57511789105055
 20
42.67273755002498
 30
0.0
  0
VERTEX
  5
3E9
330
3E6
100
AcDbEntity
  8
DIBUJOS
 62
     7
100
AcDbVertex
100
AcDb2dVertex
 10
62.59428305601714
 20
42.75805899840001
 30
0.0
  0
VERTEX
  5
3EA
330
3E6
100
AcDbEntity
  8
DIBUJOS
 62
     7
100
AcDbVertex
100
AcDb2dVertex
 10
62.60000659680149
 20
42.87264704444531
 30
0.0
  0
VERTEX
  5
3EB
330
3E6
100
AcDbEntity
  8
DIBUJOS
 62
     7
100
AcDbVertex
100
AcDb2dVertex
 10
62.6122209351865
 20
44.02756215322903
 30
0.0
  0
VERTEX
  5
3EC
330
3E6
100
AcDbEntity
  8
DIBUJOS
 62
     7
100
AcDbVertex
100
AcDb2dVertex
 10
62.61526395374636
 20
44.23919293222061
 30
0.0
  0
VERTEX
  5
3ED
330
3E6
100
AcDbEntity
  8
DIBUJOS
 62
     7
100
AcDbVertex
100
AcDb2dVertex
 10
62.60922343186175
 20
44.25128686349024
 30
0.0
  0
VERTEX
  5
3EE
330
3E6
100
AcDbEntity
  8
DIBUJOS
 62
     7
100
AcDbVertex
100
AcDb2dVertex
 10
62.61526395374636
 20
44.25733057456871
 30
0.0
  0
VERTEX
  5
3EF
330
3E6
100
AcDbEntity
  8
DIBUJOS
 62
     7
100
AcDbVertex
100
AcDb2dVertex
 10
62.60922343186175
 20
44.26942450583834
 30
0.0
  0
VERTEX
  5
3F0
330
3E6
100
AcDbEntity
  8
DIBUJOS
 62
     7
100
AcDbVertex
100
AcDb2dVertex
 10
62.60922343186175
 20
44.27547147147316
 30
0.0
  0
VERTEX
  5
3F1
330
3E6
100
AcDbEntity
  8
DIBUJOS
 62
     7
100
AcDbVertex
100
AcDb2dVertex
 10
62.61526395374636
 20
44.2815151825513
 30
0.0
  0
VERTEX
  5
3F2
330
3E6
100
AcDbEntity
  8
DIBUJOS
 62
     7
100
AcDbVertex
100
AcDb2dVertex
 10
62.61526395374636
 20
45.34561840645532
 30
0.0
  0
VERTEX
  5
3F3
330
3E6
100
AcDbEntity
  8
DIBUJOS
 62
     7
100
AcDbVertex
100
AcDb2dVertex
 10
62.60922343186175
 20
45.3577090831686
 30
0.0
  0
VERTEX
  5
3F4
330
3E6
100
AcDbEntity
  8
DIBUJOS
 62
     7
100
AcDbVertex
100
AcDb2dVertex
 10
62.61526395374636
 20
45.3637560488031
 30
0.0
  0
VERTEX
  5
3F5
330
3E6
100
AcDbEntity
  8
DIBUJOS
 62
     7
100
AcDbVertex
100
AcDb2dVertex
 10
62.60583579795259
 20
46.17421868079067
 30
0.0
  0
VERTEX
  5
3F6
330
3E6
100
AcDbEntity
  8
DIBUJOS
 62
     7
100
AcDbVertex
100
AcDb2dVertex
 10
62.57902569907258
 20
46.34925848312388
 30
0.0
  0
SEQEND
  5
3F7
330
3E6
100
AcDbEntity
  8
DIBUJOS
 62
     7
  0
POLYLINE
  5
3F8
330
112
100
AcDbEntity
  8
DIBUJOS
 62
     7
100
AcDb2dPolyline
 66
     1
 10
0.0
 20
0.0
 30
0.0
  0
VERTEX
  5
3F9
330
3F8
100
AcDbEntity
  8
DIBUJOS
 62
     7
100
AcDbVertex
100
AcDb2dVertex
 10
66.65574888541619
 20
42.65513365491255
 30
0.0
  0
VERTEX
  5
3FA
330
3F8
100
AcDbEntity
  8
DIBUJOS
 62
     7
100
AcDbVertex
100
AcDb2dVertex
 10
66.64970998907589
 20
42.65513365491255
 30
0.0
  0
SEQEND
  5
3FB
330
3F8
100
AcDbEntity
  8
DIBUJOS
 62
     7
  0
POLYLINE
  5
3FC
330
112
100
AcDbEntity
  8
DIBUJOS
 62
     7
100
AcDb2dPolyline
 66
     1
 10
0.0
 20
0.0
 30
0.0
  0
VERTEX
  5
3FD
330
3FC
100
AcDbEntity
  8
DIBUJOS
 62
     7
100
AcDbVertex
100
AcDb2dVertex
 10
66.65574888541619
 20
42.65513365491255
 30
0.0
  0
VERTEX
  5
3FE
330
3FC
100
AcDbEntity
  8
DIBUJOS
 62
     7
100
AcDbVertex
100
AcDb2dVertex
 10
66.65574888541619
 20
42.66117899326919
 30
0.0
  0
SEQEND
  5
3FF
330
3FC
100
AcDbEntity
  8
DIBUJOS
 62
     7
  0
POLYLINE
  5
400
330
112
100
AcDbEntity
  8
DIBUJOS
 62
     7
100
AcDb2dPolyline
 66
     1
 10
0.0
 20
0.0
 30
0.0
  0
VERTEX
  5
401
330
400
100
AcDbEntity
  8
DIBUJOS
 62
     7
100
AcDbVertex
100
AcDb2dVertex
 10
62.57902569907258
 20
42.64908668927806
 30
0.0
  0
VERTEX
  5
402
330
400
100
AcDbEntity
  8
DIBUJOS
 62
     7
100
AcDbVertex
100
AcDb2dVertex
 10
62.57298680273228
 20
42.65513365491255
 30
0.0
  0
SEQEND
  5
403
330
400
100
AcDbEntity
  8
DIBUJOS
 62
     7
  0
POLYLINE
  5
404
330
112
100
AcDbEntity
  8
DIBUJOS
 62
     7
100
AcDb2dPolyline
 66
     1
 10
0.0
 20
0.0
 30
0.0
  0
VERTEX
  5
405
330
404
100
AcDbEntity
  8
DIBUJOS
 62
     7
100
AcDbVertex
100
AcDb2dVertex
 10
62.58506622095687
 20
42.64908668927806
 30
0.0
  0
VERTEX
  5
406
330
404
100
AcDbEntity
  8
DIBUJOS
 62
     7
100
AcDbVertex
100
AcDb2dVertex
 10
62.57902569907258
 20
42.64908668927806
 30
0.0
  0
SEQEND
  5
407
330
404
100
AcDbEntity
  8
DIBUJOS
 62
     7
  0
POLYLINE
  5
408
330
112
100
AcDbEntity
  8
DIBUJOS
 62
     7
100
AcDb2dPolyline
 66
     1
 10
0.0
 20
0.0
 30
0.0
  0
VERTEX
  5
409
330
408
100
AcDbEntity
  8
DIBUJOS
 62
     7
100
AcDbVertex
100
AcDb2dVertex
 10
62.58506622095687
 20
42.64908668927806
 30
0.0
  0
VERTEX
  5
40A
330
408
100
AcDbEntity
  8
DIBUJOS
 62
     7
100
AcDbVertex
100
AcDb2dVertex
 10
62.58989733802905
 20
42.65573737510951
 30
0.0
  0
VERTEX
  5
40B
330
408
100
AcDbEntity
  8
DIBUJOS
 62
     7
100
AcDbVertex
100
AcDb2dVertex
 10
62.63084641951111
 20
42.77641632329945
 30
0.0
  0
VERTEX
  5
40C
330
408
100
AcDbEntity
  8
DIBUJOS
 62
     7
100
AcDbVertex
100
AcDb2dVertex
 10
62.63591974265476
 20
42.81196746921518
 30
0.0
  0
VERTEX
  5
40D
330
408
100
AcDbEntity
  8
DIBUJOS
 62
     7
100
AcDbVertex
100
AcDb2dVertex
 10
62.64244142559339
 20
43.10253913892516
 30
0.0
  0
VERTEX
  5
40E
330
408
100
AcDbEntity
  8
DIBUJOS
 62
     7
100
AcDbVertex
100
AcDb2dVertex
 10
62.63942279019523
 20
43.10858610455966
 30
0.0
  0
VERTEX
  5
40F
330
408
100
AcDbEntity
  8
DIBUJOS
 62
     7
100
AcDbVertex
100
AcDb2dVertex
 10
62.63942279019523
 20
43.12067678127294
 30
0.0
  0
VERTEX
  5
410
330
408
100
AcDbEntity
  8
DIBUJOS
 62
     7
100
AcDbVertex
100
AcDb2dVertex
 10
62.64546168653521
 20
43.12672374690776
 30
0.0
  0
VERTEX
  5
411
330
408
100
AcDbEntity
  8
DIBUJOS
 62
     7
100
AcDbVertex
100
AcDb2dVertex
 10
62.64546168653521
 20
43.13881442362072
 30
0.0
  0
VERTEX
  5
412
330
408
100
AcDbEntity
  8
DIBUJOS
 62
     7
100
AcDbVertex
100
AcDb2dVertex
 10
62.63942279019523
 20
43.14486138925553
 30
0.0
  0
VERTEX
  5
413
330
408
100
AcDbEntity
  8
DIBUJOS
 62
     7
100
AcDbVertex
100
AcDb2dVertex
 10
62.63942279019523
 20
43.15695532052517
 30
0.0
  0
VERTEX
  5
414
330
408
100
AcDbEntity
  8
DIBUJOS
 62
     7
100
AcDbVertex
100
AcDb2dVertex
 10
62.64546168653521
 20
43.16299903160363
 30
0.0
  0
VERTEX
  5
415
330
408
100
AcDbEntity
  8
DIBUJOS
 62
     7
100
AcDbVertex
100
AcDb2dVertex
 10
62.64546168653521
 20
43.18113992850808
 30
0.0
  0
VERTEX
  5
416
330
408
100
AcDbEntity
  8
DIBUJOS
 62
     7
100
AcDbVertex
100
AcDb2dVertex
 10
62.63942279019523
 20
43.18718363958622
 30
0.0
  0
VERTEX
  5
417
330
408
100
AcDbEntity
  8
DIBUJOS
 62
     7
100
AcDbVertex
100
AcDb2dVertex
 10
62.64546168653521
 20
43.19927757085586
 30
0.0
  0
VERTEX
  5
418
330
408
100
AcDbEntity
  8
DIBUJOS
 62
     7
100
AcDbVertex
100
AcDb2dVertex
 10
62.64546168653521
 20
43.21136824756914
 30
0.0
  0
VERTEX
  5
419
330
408
100
AcDbEntity
  8
DIBUJOS
 62
     7
100
AcDbVertex
100
AcDb2dVertex
 10
62.63942279019523
 20
43.21741521320396
 30
0.0
  0
VERTEX
  5
41A
330
408
100
AcDbEntity
  8
DIBUJOS
 62
     7
100
AcDbVertex
100
AcDb2dVertex
 10
62.63942279019523
 20
45.03727197742656
 30
0.0
  0
VERTEX
  5
41B
330
408
100
AcDbEntity
  8
DIBUJOS
 62
     7
100
AcDbVertex
100
AcDb2dVertex
 10
62.64546168653521
 20
45.04331568850503
 30
0.0
  0
SEQEND
  5
41C
330
408
100
AcDbEntity
  8
DIBUJOS
 62
     7
  0
POLYLINE
  5
41D
330
112
100
AcDbEntity
  8
DIBUJOS
 62
     7
100
AcDb2dPolyline
 66
     1
 10
0.0
 20
0.0
 30
0.0
  0
VERTEX
  5
41E
330
41D
100
AcDbEntity
  8
DIBUJOS
 62
     7
100
AcDbVertex
100
AcDb2dVertex
 10
66.64367109273557
 20
42.64908668927806
 30
0.0
  0
VERTEX
  5
41F
330
41D
100
AcDbEntity
  8
DIBUJOS
 62
     7
100
AcDbVertex
100
AcDb2dVertex
 10
66.63159167451131
 20
42.66117899326919
 30
0.0
  0
SEQEND
  5
420
330
41D
100
AcDbEntity
  8
DIBUJOS
 62
     7
  0
POLYLINE
  5
421
330
112
100
AcDbEntity
  8
DIBUJOS
 62
     7
100
AcDb2dPolyline
 66
     1
 10
0.0
 20
0.0
 30
0.0
  0
VERTEX
  5
422
330
421
100
AcDbEntity
  8
DIBUJOS
 62
     7
100
AcDbVertex
100
AcDb2dVertex
 10
66.64367109273557
 20
42.64908668927806
 30
0.0
  0
VERTEX
  5
423
330
421
100
AcDbEntity
  8
DIBUJOS
 62
     7
100
AcDbVertex
100
AcDb2dVertex
 10
66.64970998907589
 20
42.65513365491255
 30
0.0
  0
SEQEND
  5
424
330
421
100
AcDbEntity
  8
DIBUJOS
 62
     7
  0
POLYLINE
  5
425
330
112
100
AcDbEntity
  8
DIBUJOS
 62
     7
100
AcDb2dPolyline
 66
     1
 10
0.0
 20
0.0
 30
0.0
  0
VERTEX
  5
426
330
425
100
AcDbEntity
  8
DIBUJOS
 62
     7
100
AcDbVertex
100
AcDb2dVertex
 10
66.66178940730047
 20
42.64908668927806
 30
0.0
  0
VERTEX
  5
427
330
425
100
AcDbEntity
  8
DIBUJOS
 62
     7
100
AcDbVertex
100
AcDb2dVertex
 10
66.65574888541619
 20
42.65513365491255
 30
0.0
  0
SEQEND
  5
428
330
425
100
AcDbEntity
  8
DIBUJOS
 62
     7
  0
POLYLINE
  5
429
330
112
100
AcDbEntity
  8
DIBUJOS
 62
     7
100
AcDb2dPolyline
 66
     1
 10
0.0
 20
0.0
 30
0.0
  0
VERTEX
  5
42A
330
429
100
AcDbEntity
  8
DIBUJOS
 62
     7
100
AcDbVertex
100
AcDb2dVertex
 10
62.58506622095687
 20
42.64304135092141
 30
0.0
  0
VERTEX
  5
42B
330
429
100
AcDbEntity
  8
DIBUJOS
 62
     7
100
AcDbVertex
100
AcDb2dVertex
 10
62.58506622095687
 20
42.64908668927806
 30
0.0
  0
SEQEND
  5
42C
330
429
100
AcDbEntity
  8
DIBUJOS
 62
     7
  0
POLYLINE
  5
42D
330
112
100
AcDbEntity
  8
DIBUJOS
 62
     7
100
AcDb2dPolyline
 66
     1
 10
0.0
 20
0.0
 30
0.0
  0
VERTEX
  5
42E
330
42D
100
AcDbEntity
  8
DIBUJOS
 62
     7
100
AcDbVertex
100
AcDb2dVertex
 10
66.66178940730047
 20
42.64304135092141
 30
0.0
  0
VERTEX
  5
42F
330
42D
100
AcDbEntity
  8
DIBUJOS
 62
     7
100
AcDbVertex
100
AcDb2dVertex
 10
66.65574888541619
 20
42.64304135092141
 30
0.0
  0
SEQEND
  5
430
330
42D
100
AcDbEntity
  8
DIBUJOS
 62
     7
  0
POLYLINE
  5
431
330
112
100
AcDbEntity
  8
DIBUJOS
 62
     7
100
AcDb2dPolyline
 66
     1
 10
0.0
 20
0.0
 30
0.0
  0
VERTEX
  5
432
330
431
100
AcDbEntity
  8
DIBUJOS
 62
     7
100
AcDbVertex
100
AcDb2dVertex
 10
66.66178940730047
 20
42.64304135092141
 30
0.0
  0
VERTEX
  5
433
330
431
100
AcDbEntity
  8
DIBUJOS
 62
     7
100
AcDbVertex
100
AcDb2dVertex
 10
66.66178940730047
 20
42.64908668927806
 30
0.0
  0
SEQEND
  5
434
330
431
100
AcDbEntity
  8
DIBUJOS
 62
     7
  0
POLYLINE
  5
435
330
112
100
AcDbEntity
  8
DIBUJOS
 62
     7
100
AcDb2dPolyline
 66
     1
 10
0.0
 20
0.0
 30
0.0
  0
VERTEX
  5
436
330
435
100
AcDbEntity
  8
DIBUJOS
 62
     7
100
AcDbVertex
100
AcDb2dVertex
 10
62.56694790639197
 20
42.63699601256477
 30
0.0
  0
VERTEX
  5
437
330
435
100
AcDbEntity
  8
DIBUJOS
 62
     7
100
AcDbVertex
100
AcDb2dVertex
 10
62.56694790639197
 20
42.64908668927806
 30
0.0
  0
VERTEX
  5
438
330
435
100
AcDbEntity
  8
DIBUJOS
 62
     7
100
AcDbVertex
100
AcDb2dVertex
 10
62.57298680273228
 20
42.65513365491255
 30
0.0
  0
SEQEND
  5
439
330
435
100
AcDbEntity
  8
DIBUJOS
 62
     7
  0
POLYLINE
  5
43A
330
112
100
AcDbEntity
  8
DIBUJOS
 62
     7
100
AcDb2dPolyline
 66
     1
 10
0.0
 20
0.0
 30
0.0
  0
VERTEX
  5
43B
330
43A
100
AcDbEntity
  8
DIBUJOS
 62
     7
100
AcDbVertex
100
AcDb2dVertex
 10
66.64970998907589
 20
42.63699601256477
 30
0.0
  0
VERTEX
  5
43C
330
43A
100
AcDbEntity
  8
DIBUJOS
 62
     7
100
AcDbVertex
100
AcDb2dVertex
 10
66.64367109273557
 20
42.64908668927806
 30
0.0
  0
SEQEND
  5
43D
330
43A
100
AcDbEntity
  8
DIBUJOS
 62
     7
  0
POLYLINE
  5
43E
330
112
100
AcDbEntity
  8
DIBUJOS
 62
     7
100
AcDb2dPolyline
 66
     1
 10
0.0
 20
0.0
 30
0.0
  0
VERTEX
  5
43F
330
43E
100
AcDbEntity
  8
DIBUJOS
 62
     7
100
AcDbVertex
100
AcDb2dVertex
 10
66.64970998907589
 20
42.63699601256477
 30
0.0
  0
VERTEX
  5
440
330
43E
100
AcDbEntity
  8
DIBUJOS
 62
     7
100
AcDbVertex
100
AcDb2dVertex
 10
66.65574888541619
 20
42.64304135092141
 30
0.0
  0
SEQEND
  5
441
330
43E
100
AcDbEntity
  8
DIBUJOS
 62
     7
  0
POLYLINE
  5
442
330
112
100
AcDbEntity
  8
DIBUJOS
 62
     7
100
AcDb2dPolyline
 66
     1
 10
0.0
 20
0.0
 30
0.0
  0
VERTEX
  5
443
330
442
100
AcDbEntity
  8
DIBUJOS
 62
     7
100
AcDbVertex
100
AcDb2dVertex
 10
66.66782830364077
 20
42.63699601256477
 30
0.0
  0
VERTEX
  5
444
330
442
100
AcDbEntity
  8
DIBUJOS
 62
     7
100
AcDbVertex
100
AcDb2dVertex
 10
66.66178940730047
 20
42.64304135092141
 30
0.0
  0
SEQEND
  5
445
330
442
100
AcDbEntity
  8
DIBUJOS
 62
     7
  0
POLYLINE
  5
446
330
112
100
AcDbEntity
  8
DIBUJOS
 62
     7
100
AcDb2dPolyline
 66
     1
 10
0.0
 20
0.0
 30
0.0
  0
VERTEX
  5
447
330
446
100
AcDbEntity
  8
DIBUJOS
 62
     7
100
AcDbVertex
100
AcDb2dVertex
 10
62.57298680273228
 20
42.63094904692996
 30
0.0
  0
VERTEX
  5
448
330
446
100
AcDbEntity
  8
DIBUJOS
 62
     7
100
AcDbVertex
100
AcDb2dVertex
 10
62.56694790639197
 20
42.63699601256477
 30
0.0
  0
SEQEND
  5
449
330
446
100
AcDbEntity
  8
DIBUJOS
 62
     7
  0
POLYLINE
  5
44A
330
112
100
AcDbEntity
  8
DIBUJOS
 62
     7
100
AcDb2dPolyline
 66
     1
 10
0.0
 20
0.0
 30
0.0
  0
VERTEX
  5
44B
330
44A
100
AcDbEntity
  8
DIBUJOS
 62
     7
100
AcDbVertex
100
AcDb2dVertex
 10
62.57298680273228
 20
42.63094904692996
 30
0.0
  0
VERTEX
  5
44C
330
44A
100
AcDbEntity
  8
DIBUJOS
 62
     7
100
AcDbVertex
100
AcDb2dVertex
 10
62.58506622095687
 20
42.64304135092141
 30
0.0
  0
SEQEND
  5
44D
330
44A
100
AcDbEntity
  8
DIBUJOS
 62
     7
  0
POLYLINE
  5
44E
330
112
100
AcDbEntity
  8
DIBUJOS
 62
     7
100
AcDb2dPolyline
 66
     1
 10
0.0
 20
0.0
 30
0.0
  0
VERTEX
  5
44F
330
44E
100
AcDbEntity
  8
DIBUJOS
 62
     7
100
AcDbVertex
100
AcDb2dVertex
 10
66.66782830364077
 20
42.63094904692996
 30
0.0
  0
VERTEX
  5
450
330
44E
100
AcDbEntity
  8
DIBUJOS
 62
     7
100
AcDbVertex
100
AcDb2dVertex
 10
66.66178940730047
 20
42.63094904692996
 30
0.0
  0
SEQEND
  5
451
330
44E
100
AcDbEntity
  8
DIBUJOS
 62
     7
  0
POLYLINE
  5
452
330
112
100
AcDbEntity
  8
DIBUJOS
 62
     7
100
AcDb2dPolyline
 66
     1
 10
0.0
 20
0.0
 30
0.0
  0
VERTEX
  5
453
330
452
100
AcDbEntity
  8
DIBUJOS
 62
     7
100
AcDbVertex
100
AcDb2dVertex
 10
66.66782830364077
 20
42.63094904692996
 30
0.0
  0
VERTEX
  5
454
330
452
100
AcDbEntity
  8
DIBUJOS
 62
     7
100
AcDbVertex
100
AcDb2dVertex
 10
66.66782830364077
 20
42.63699601256477
 30
0.0
  0
SEQEND
  5
455
330
452
100
AcDbEntity
  8
DIBUJOS
 62
     7
  0
POLYLINE
  5
456
330
112
100
AcDbEntity
  8
DIBUJOS
 62
     7
100
AcDb2dPolyline
 66
     1
 10
0.0
 20
0.0
 30
0.0
  0
VERTEX
  5
457
330
456
100
AcDbEntity
  8
DIBUJOS
 62
     7
100
AcDbVertex
100
AcDb2dVertex
 10
62.56090738450801
 20
42.62490370857364
 30
0.0
  0
VERTEX
  5
458
330
456
100
AcDbEntity
  8
DIBUJOS
 62
     7
100
AcDbVertex
100
AcDb2dVertex
 10
62.56694790639197
 20
42.63699601256477
 30
0.0
  0
SEQEND
  5
459
330
456
100
AcDbEntity
  8
DIBUJOS
 62
     7
  0
POLYLINE
  5
45A
330
112
100
AcDbEntity
  8
DIBUJOS
 62
     7
100
AcDb2dPolyline
 66
     1
 10
0.0
 20
0.0
 30
0.0
  0
VERTEX
  5
45B
330
45A
100
AcDbEntity
  8
DIBUJOS
 62
     7
100
AcDbVertex
100
AcDb2dVertex
 10
66.65574888541619
 20
42.62490370857364
 30
0.0
  0
VERTEX
  5
45C
330
45A
100
AcDbEntity
  8
DIBUJOS
 62
     7
100
AcDbVertex
100
AcDb2dVertex
 10
66.64970998907589
 20
42.63699601256477
 30
0.0
  0
SEQEND
  5
45D
330
45A
100
AcDbEntity
  8
DIBUJOS
 62
     7
  0
POLYLINE
  5
45E
330
112
100
AcDbEntity
  8
DIBUJOS
 62
     7
100
AcDb2dPolyline
 66
     1
 10
0.0
 20
0.0
 30
0.0
  0
VERTEX
  5
45F
330
45E
100
AcDbEntity
  8
DIBUJOS
 62
     7
100
AcDbVertex
100
AcDb2dVertex
 10
66.65574888541619
 20
42.62490370857364
 30
0.0
  0
VERTEX
  5
460
330
45E
100
AcDbEntity
  8
DIBUJOS
 62
     7
100
AcDbVertex
100
AcDb2dVertex
 10
66.66178940730047
 20
42.63094904692996
 30
0.0
  0
SEQEND
  5
461
330
45E
100
AcDbEntity
  8
DIBUJOS
 62
     7
  0
POLYLINE
  5
462
330
112
100
AcDbEntity
  8
DIBUJOS
 62
     7
100
AcDb2dPolyline
 66
     1
 10
0.0
 20
0.0
 30
0.0
  0
VERTEX
  5
463
330
462
100
AcDbEntity
  8
DIBUJOS
 62
     7
100
AcDbVertex
100
AcDb2dVertex
 10
66.66782830364077
 20
42.62490370857364
 30
0.0
  0
VERTEX
  5
464
330
462
100
AcDbEntity
  8
DIBUJOS
 62
     7
100
AcDbVertex
100
AcDb2dVertex
 10
66.66782830364077
 20
42.63094904692996
 30
0.0
  0
SEQEND
  5
465
330
462
100
AcDbEntity
  8
DIBUJOS
 62
     7
  0
POLYLINE
  5
466
330
112
100
AcDbEntity
  8
DIBUJOS
 62
     7
100
AcDb2dPolyline
 66
     1
 10
0.0
 20
0.0
 30
0.0
  0
VERTEX
  5
467
330
466
100
AcDbEntity
  8
DIBUJOS
 62
     7
100
AcDbVertex
100
AcDb2dVertex
 10
62.56694790639197
 20
42.61885674293882
 30
0.0
  0
VERTEX
  5
468
330
466
100
AcDbEntity
  8
DIBUJOS
 62
     7
100
AcDbVertex
100
AcDb2dVertex
 10
62.56090738450801
 20
42.62490370857364
 30
0.0
  0
SEQEND
  5
469
330
466
100
AcDbEntity
  8
DIBUJOS
 62
     7
  0
POLYLINE
  5
46A
330
112
100
AcDbEntity
  8
DIBUJOS
 62
     7
100
AcDb2dPolyline
 66
     1
 10
0.0
 20
0.0
 30
0.0
  0
VERTEX
  5
46B
330
46A
100
AcDbEntity
  8
DIBUJOS
 62
     7
100
AcDbVertex
100
AcDb2dVertex
 10
62.56694790639197
 20
42.61885674293882
 30
0.0
  0
VERTEX
  5
46C
330
46A
100
AcDbEntity
  8
DIBUJOS
 62
     7
100
AcDbVertex
100
AcDb2dVertex
 10
62.57298680273228
 20
42.63094904692996
 30
0.0
  0
SEQEND
  5
46D
330
46A
100
AcDbEntity
  8
DIBUJOS
 62
     7
  0
POLYLINE
  5
46E
330
112
100
AcDbEntity
  8
DIBUJOS
 62
     7
100
AcDb2dPolyline
 66
     1
 10
0.0
 20
0.0
 30
0.0
  0
VERTEX
  5
46F
330
46E
100
AcDbEntity
  8
DIBUJOS
 62
     7
100
AcDbVertex
100
AcDb2dVertex
 10
62.55486848816738
 20
42.61281140458218
 30
0.0
  0
VERTEX
  5
470
330
46E
100
AcDbEntity
  8
DIBUJOS
 62
     7
100
AcDbVertex
100
AcDb2dVertex
 10
62.56090738450801
 20
42.62490370857364
 30
0.0
  0
SEQEND
  5
471
330
46E
100
AcDbEntity
  8
DIBUJOS
 62
     7
  0
POLYLINE
  5
472
330
112
100
AcDbEntity
  8
DIBUJOS
 62
     7
100
AcDb2dPolyline
 66
     1
 10
0.0
 20
0.0
 30
0.0
  0
VERTEX
  5
473
330
472
100
AcDbEntity
  8
DIBUJOS
 62
     7
100
AcDbVertex
100
AcDb2dVertex
 10
66.66782830364077
 20
42.61281140458218
 30
0.0
  0
VERTEX
  5
474
330
472
100
AcDbEntity
  8
DIBUJOS
 62
     7
100
AcDbVertex
100
AcDb2dVertex
 10
66.66782830364077
 20
42.62490370857364
 30
0.0
  0
SEQEND
  5
475
330
472
100
AcDbEntity
  8
DIBUJOS
 62
     7
  0
POLYLINE
  5
476
330
112
100
AcDbEntity
  8
DIBUJOS
 62
     7
100
AcDb2dPolyline
 66
     1
 10
0.0
 20
0.0
 30
0.0
  0
VERTEX
  5
477
330
476
100
AcDbEntity
  8
DIBUJOS
 62
     7
100
AcDbVertex
100
AcDb2dVertex
 10
62.55486848816738
 20
42.60676443894737
 30
0.0
  0
VERTEX
  5
478
330
476
100
AcDbEntity
  8
DIBUJOS
 62
     7
100
AcDbVertex
100
AcDb2dVertex
 10
62.55486848816738
 20
42.61281140458218
 30
0.0
  0
SEQEND
  5
479
330
476
100
AcDbEntity
  8
DIBUJOS
 62
     7
  0
POLYLINE
  5
47A
330
112
100
AcDbEntity
  8
DIBUJOS
 62
     7
100
AcDb2dPolyline
 66
     1
 10
0.0
 20
0.0
 30
0.0
  0
VERTEX
  5
47B
330
47A
100
AcDbEntity
  8
DIBUJOS
 62
     7
100
AcDbVertex
100
AcDb2dVertex
 10
62.56090738450801
 20
42.60676443894737
 30
0.0
  0
VERTEX
  5
47C
330
47A
100
AcDbEntity
  8
DIBUJOS
 62
     7
100
AcDbVertex
100
AcDb2dVertex
 10
62.55486848816738
 20
42.60676443894737
 30
0.0
  0
SEQEND
  5
47D
330
47A
100
AcDbEntity
  8
DIBUJOS
 62
     7
  0
POLYLINE
  5
47E
330
112
100
AcDbEntity
  8
DIBUJOS
 62
     7
100
AcDb2dPolyline
 66
     1
 10
0.0
 20
0.0
 30
0.0
  0
VERTEX
  5
47F
330
47E
100
AcDbEntity
  8
DIBUJOS
 62
     7
100
AcDbVertex
100
AcDb2dVertex
 10
62.56090738450801
 20
42.60676443894737
 30
0.0
  0
VERTEX
  5
480
330
47E
100
AcDbEntity
  8
DIBUJOS
 62
     7
100
AcDbVertex
100
AcDb2dVertex
 10
62.56694790639197
 20
42.61885674293882
 30
0.0
  0
SEQEND
  5
481
330
47E
100
AcDbEntity
  8
DIBUJOS
 62
     7
  0
POLYLINE
  5
482
330
112
100
AcDbEntity
  8
DIBUJOS
 62
     7
100
AcDb2dPolyline
 66
     1
 10
0.0
 20
0.0
 30
0.0
  0
VERTEX
  5
483
330
482
100
AcDbEntity
  8
DIBUJOS
 62
     7
100
AcDbVertex
100
AcDb2dVertex
 10
66.66178940730047
 20
42.60676443894737
 30
0.0
  0
VERTEX
  5
484
330
482
100
AcDbEntity
  8
DIBUJOS
 62
     7
100
AcDbVertex
100
AcDb2dVertex
 10
66.65574888541619
 20
42.61281140458218
 30
0.0
  0
VERTEX
  5
485
330
482
100
AcDbEntity
  8
DIBUJOS
 62
     7
100
AcDbVertex
100
AcDb2dVertex
 10
66.65574888541619
 20
42.62490370857364
 30
0.0
  0
SEQEND
  5
486
330
482
100
AcDbEntity
  8
DIBUJOS
 62
     7
  0
POLYLINE
  5
487
330
112
100
AcDbEntity
  8
DIBUJOS
 62
     7
100
AcDb2dPolyline
 66
     1
 10
0.0
 20
0.0
 30
0.0
  0
VERTEX
  5
488
330
487
100
AcDbEntity
  8
DIBUJOS
 62
     7
100
AcDbVertex
100
AcDb2dVertex
 10
66.66782830364077
 20
42.60676443894737
 30
0.0
  0
VERTEX
  5
489
330
487
100
AcDbEntity
  8
DIBUJOS
 62
     7
100
AcDbVertex
100
AcDb2dVertex
 10
66.66178940730047
 20
42.60676443894737
 30
0.0
  0
SEQEND
  5
48A
330
487
100
AcDbEntity
  8
DIBUJOS
 62
     7
  0
POLYLINE
  5
48B
330
112
100
AcDbEntity
  8
DIBUJOS
 62
     7
100
AcDb2dPolyline
 66
     1
 10
0.0
 20
0.0
 30
0.0
  0
VERTEX
  5
48C
330
48B
100
AcDbEntity
  8
DIBUJOS
 62
     7
100
AcDbVertex
100
AcDb2dVertex
 10
66.66782830364077
 20
42.60676443894737
 30
0.0
  0
VERTEX
  5
48D
330
48B
100
AcDbEntity
  8
DIBUJOS
 62
     7
100
AcDbVertex
100
AcDb2dVertex
 10
66.66782830364077
 20
42.61281140458218
 30
0.0
  0
SEQEND
  5
48E
330
48B
100
AcDbEntity
  8
DIBUJOS
 62
     7
  0
POLYLINE
  5
48F
330
112
100
AcDbEntity
  8
DIBUJOS
 62
     7
100
AcDb2dPolyline
 66
     1
 10
0.0
 20
0.0
 30
0.0
  0
VERTEX
  5
490
330
48F
100
AcDbEntity
  8
DIBUJOS
 62
     7
100
AcDbVertex
100
AcDb2dVertex
 10
62.55486848816738
 20
42.6007191005904
 30
0.0
  0
VERTEX
  5
491
330
48F
100
AcDbEntity
  8
DIBUJOS
 62
     7
100
AcDbVertex
100
AcDb2dVertex
 10
62.55486848816738
 20
42.60676443894737
 30
0.0
  0
SEQEND
  5
492
330
48F
100
AcDbEntity
  8
DIBUJOS
 62
     7
  0
POLYLINE
  5
493
330
112
100
AcDbEntity
  8
DIBUJOS
 62
     7
100
AcDb2dPolyline
 66
     1
 10
0.0
 20
0.0
 30
0.0
  0
VERTEX
  5
494
330
493
100
AcDbEntity
  8
DIBUJOS
 62
     7
100
AcDbVertex
100
AcDb2dVertex
 10
66.66782830364077
 20
42.6007191005904
 30
0.0
  0
VERTEX
  5
495
330
493
100
AcDbEntity
  8
DIBUJOS
 62
     7
100
AcDbVertex
100
AcDb2dVertex
 10
66.66782830364077
 20
42.60676443894737
 30
0.0
  0
SEQEND
  5
496
330
493
100
AcDbEntity
  8
DIBUJOS
 62
     7
  0
POLYLINE
  5
497
330
112
100
AcDbEntity
  8
DIBUJOS
 62
     7
100
AcDb2dPolyline
 66
     1
 10
0.0
 20
0.0
 30
0.0
  0
VERTEX
  5
498
330
497
100
AcDbEntity
  8
DIBUJOS
 62
     7
100
AcDbVertex
100
AcDb2dVertex
 10
62.50051191892934
 20
42.58862679659894
 30
0.0
  0
VERTEX
  5
499
330
497
100
AcDbEntity
  8
DIBUJOS
 62
     7
100
AcDbVertex
100
AcDb2dVertex
 10
62.51742245422611
 20
42.6134151247785
 30
0.0
  0
VERTEX
  5
49A
330
497
100
AcDbEntity
  8
DIBUJOS
 62
     7
100
AcDbVertex
100
AcDb2dVertex
 10
62.54097658826877
 20
42.67992198309179
 30
0.0
  0
VERTEX
  5
49B
330
497
100
AcDbEntity
  8
DIBUJOS
 62
     7
100
AcDbVertex
100
AcDb2dVertex
 10
62.54882796628341
 20
42.7095482092347
 30
0.0
  0
SEQEND
  5
49C
330
497
100
AcDbEntity
  8
DIBUJOS
 62
     7
  0
POLYLINE
  5
49D
330
112
100
AcDbEntity
  8
DIBUJOS
 62
     7
100
AcDb2dPolyline
 66
     1
 10
0.0
 20
0.0
 30
0.0
  0
VERTEX
  5
49E
330
49D
100
AcDbEntity
  8
DIBUJOS
 62
     7
100
AcDbVertex
100
AcDb2dVertex
 10
62.48843250070475
 20
42.57048915425117
 30
0.0
  0
VERTEX
  5
49F
330
49D
100
AcDbEntity
  8
DIBUJOS
 62
     7
100
AcDbVertex
100
AcDb2dVertex
 10
62.49447139704505
 20
42.57653449260749
 30
0.0
  0
SEQEND
  5
4A0
330
49D
100
AcDbEntity
  8
DIBUJOS
 62
     7
  0
POLYLINE
  5
4A1
330
112
100
AcDbEntity
  8
DIBUJOS
 62
     7
100
AcDb2dPolyline
 66
     1
 10
0.0
 20
0.0
 30
0.0
  0
VERTEX
  5
4A2
330
4A1
100
AcDbEntity
  8
DIBUJOS
 62
     7
100
AcDbVertex
100
AcDb2dVertex
 10
62.46427366425588
 20
42.54025920791194
 30
0.0
  0
VERTEX
  5
4A3
330
4A1
100
AcDbEntity
  8
DIBUJOS
 62
     7
100
AcDbVertex
100
AcDb2dVertex
 10
62.47031418614017
 20
42.54630454626857
 30
0.0
  0
SEQEND
  5
4A4
330
4A1
100
AcDbEntity
  8
DIBUJOS
 62
     7
  0
POLYLINE
  5
4A5
330
112
100
AcDbEntity
  8
DIBUJOS
 62
     7
100
AcDb2dPolyline
 66
     1
 10
0.0
 20
0.0
 30
0.0
  0
VERTEX
  5
4A6
330
4A5
100
AcDbEntity
  8
DIBUJOS
 62
     7
100
AcDbVertex
100
AcDb2dVertex
 10
66.66782830364077
 20
42.6007191005904
 30
0.0
  0
VERTEX
  5
4A7
330
4A5
100
AcDbEntity
  8
DIBUJOS
 62
     7
100
AcDbVertex
100
AcDb2dVertex
 10
66.6693205531269
 20
42.59595280286619
 30
0.0
  0
VERTEX
  5
4A8
330
4A5
100
AcDbEntity
  8
DIBUJOS
 62
     7
100
AcDbVertex
100
AcDb2dVertex
 10
66.71614597653884
 20
42.54025920791194
 30
0.0
  0
VERTEX
  5
4A9
330
4A5
100
AcDbEntity
  8
DIBUJOS
 62
     7
100
AcDbVertex
100
AcDb2dVertex
 10
66.73519410232981
 20
42.52956148130188
 30
0.0
  0
VERTEX
  5
4AA
330
4A5
100
AcDbEntity
  8
DIBUJOS
 62
     7
100
AcDbVertex
100
AcDb2dVertex
 10
66.79502225301681
 20
42.51256781549847
 30
0.0
  0
VERTEX
  5
4AB
330
4A5
100
AcDbEntity
  8
DIBUJOS
 62
     7
100
AcDbVertex
100
AcDb2dVertex
 10
66.83693690769584
 20
42.50398229593724
 30
0.0
  0
VERTEX
  5
4AC
330
4A5
100
AcDbEntity
  8
DIBUJOS
 62
     7
100
AcDbVertex
100
AcDb2dVertex
 10
66.86109574414503
 20
42.50398229593724
 30
0.0
  0
VERTEX
  5
4AD
330
4A5
100
AcDbEntity
  8
DIBUJOS
 62
     7
100
AcDbVertex
100
AcDb2dVertex
 10
66.86713464048533
 20
42.51002926157206
 30
0.0
  0
VERTEX
  5
4AE
330
4A5
100
AcDbEntity
  8
DIBUJOS
 62
     7
100
AcDbVertex
100
AcDb2dVertex
 10
66.90941179149877
 20
42.51002926157206
 30
0.0
  0
VERTEX
  5
4AF
330
4A5
100
AcDbEntity
  8
DIBUJOS
 62
     7
100
AcDbVertex
100
AcDb2dVertex
 10
66.91545231338307
 20
42.50398229593724
 30
0.0
  0
VERTEX
  5
4B0
330
4A5
100
AcDbEntity
  8
DIBUJOS
 62
     7
100
AcDbVertex
100
AcDb2dVertex
 10
67.04832266276466
 20
42.51002926157206
 30
0.0
  0
VERTEX
  5
4B1
330
4A5
100
AcDbEntity
  8
DIBUJOS
 62
     7
100
AcDbVertex
100
AcDb2dVertex
 10
67.07852039555384
 20
42.54025920791194
 30
0.0
  0
VERTEX
  5
4B2
330
4A5
100
AcDbEntity
  8
DIBUJOS
 62
     7
100
AcDbVertex
100
AcDb2dVertex
 10
67.08920672248281
 20
42.5593276533661
 30
0.0
  0
VERTEX
  5
4B3
330
4A5
100
AcDbEntity
  8
DIBUJOS
 62
     7
100
AcDbVertex
100
AcDb2dVertex
 10
67.09180759304655
 20
42.56383846842003
 30
0.0
  0
VERTEX
  5
4B4
330
4A5
100
AcDbEntity
  8
DIBUJOS
 62
     7
100
AcDbVertex
100
AcDb2dVertex
 10
67.1180276194175
 20
42.63720918600308
 30
0.0
  0
VERTEX
  5
4B5
330
4A5
100
AcDbEntity
  8
DIBUJOS
 62
     7
100
AcDbVertex
100
AcDb2dVertex
 10
67.12683806845222
 20
42.71559354759134
 30
0.0
  0
VERTEX
  5
4B6
330
4A5
100
AcDbEntity
  8
DIBUJOS
 62
     7
100
AcDbVertex
100
AcDb2dVertex
 10
67.12683806845222
 20
46.30089252171472
 30
0.0
  0
VERTEX
  5
4B7
330
4A5
100
AcDbEntity
  8
DIBUJOS
 62
     7
100
AcDbVertex
100
AcDb2dVertex
 10
67.1180276194175
 20
46.3792752560248
 30
0.0
  0
VERTEX
  5
4B8
330
4A5
100
AcDbEntity
  8
DIBUJOS
 62
     7
100
AcDbVertex
100
AcDb2dVertex
 10
67.10086675032868
 20
46.4272539252323
 30
0.0
  0
VERTEX
  5
4B9
330
4A5
100
AcDbEntity
  8
DIBUJOS
 62
     7
100
AcDbVertex
100
AcDb2dVertex
 10
67.09180759304655
 20
46.44659900797335
 30
0.0
  0
VERTEX
  5
4BA
330
4A5
100
AcDbEntity
  8
DIBUJOS
 62
     7
100
AcDbVertex
100
AcDb2dVertex
 10
67.05436318464895
 20
46.48831916538591
 30
0.0
  0
VERTEX
  5
4BB
330
4A5
100
AcDbEntity
  8
DIBUJOS
 62
     7
100
AcDbVertex
100
AcDb2dVertex
 10
67.04167906401847
 20
46.49315543607109
 30
0.0
  0
VERTEX
  5
4BC
330
4A5
100
AcDbEntity
  8
DIBUJOS
 62
     7
100
AcDbVertex
100
AcDb2dVertex
 10
66.99376777714596
 20
46.50366439841486
 30
0.0
  0
VERTEX
  5
4BD
330
4A5
100
AcDbEntity
  8
DIBUJOS
 62
     7
100
AcDbVertex
100
AcDb2dVertex
 10
66.91545231338307
 20
46.50645680773368
 30
0.0
  0
VERTEX
  5
4BE
330
4A5
100
AcDbEntity
  8
DIBUJOS
 62
     7
100
AcDbVertex
100
AcDb2dVertex
 10
66.90941179149877
 20
46.5125037733685
 30
0.0
  0
VERTEX
  5
4BF
330
4A5
100
AcDbEntity
  8
DIBUJOS
 62
     7
100
AcDbVertex
100
AcDb2dVertex
 10
66.8996569013405
 20
46.59761042102704
 30
0.0
  0
VERTEX
  5
4C0
330
4A5
100
AcDbEntity
  8
DIBUJOS
 62
     7
100
AcDbVertex
100
AcDb2dVertex
 10
66.89501109629614
 20
46.62086748045961
 30
0.0
  0
VERTEX
  5
4C1
330
4A5
100
AcDbEntity
  8
DIBUJOS
 62
     7
100
AcDbVertex
100
AcDb2dVertex
 10
66.86834241975313
 20
46.73681104921037
 30
0.0
  0
VERTEX
  5
4C2
330
4A5
100
AcDbEntity
  8
DIBUJOS
 62
     7
100
AcDbVertex
100
AcDb2dVertex
 10
66.86230352341283
 20
46.74890172592365
 30
0.0
  0
VERTEX
  5
4C3
330
4A5
100
AcDbEntity
  8
DIBUJOS
 62
     7
100
AcDbVertex
100
AcDb2dVertex
 10
66.82340912967595
 20
46.82580689166594
 30
0.0
  0
VERTEX
  5
4C4
330
4A5
100
AcDbEntity
  8
DIBUJOS
 62
     7
100
AcDbVertex
100
AcDb2dVertex
 10
66.771993169719
 20
46.88863610134266
 30
0.0
  0
VERTEX
  5
4C5
330
4A5
100
AcDbEntity
  8
DIBUJOS
 62
     7
100
AcDbVertex
100
AcDb2dVertex
 10
66.75419508734232
 20
46.93632836959452
 30
0.0
  0
VERTEX
  5
4C6
330
4A5
100
AcDbEntity
  8
DIBUJOS
 62
     7
100
AcDbVertex
100
AcDb2dVertex
 10
66.75238260566799
 20
46.94781695338934
 30
0.0
  0
VERTEX
  5
4C7
330
4A5
100
AcDbEntity
  8
DIBUJOS
 62
     7
100
AcDbVertex
100
AcDb2dVertex
 10
66.74030318744404
 20
46.95990763010261
 30
0.0
  0
VERTEX
  5
4C8
330
4A5
100
AcDbEntity
  8
DIBUJOS
 62
     7
100
AcDbVertex
100
AcDb2dVertex
 10
66.70313674708784
 20
46.97060535671267
 30
0.0
  0
VERTEX
  5
4C9
330
4A5
100
AcDbEntity
  8
DIBUJOS
 62
     7
100
AcDbVertex
100
AcDb2dVertex
 10
66.68501843252294
 20
46.98269603342595
 30
0.0
  0
VERTEX
  5
4CA
330
4A5
100
AcDbEntity
  8
DIBUJOS
 62
     7
100
AcDbVertex
100
AcDb2dVertex
 10
66.50415551906411
 20
47.07961997506691
 30
0.0
  0
VERTEX
  5
4CB
330
4A5
100
AcDbEntity
  8
DIBUJOS
 62
     7
100
AcDbVertex
100
AcDb2dVertex
 10
66.47516556554275
 20
47.09413204167914
 30
0.0
  0
VERTEX
  5
4CC
330
4A5
100
AcDbEntity
  8
DIBUJOS
 62
     7
100
AcDbVertex
100
AcDb2dVertex
 10
66.31209748337166
 20
47.15519728183274
 30
0.0
  0
VERTEX
  5
4CD
330
4A5
100
AcDbEntity
  8
DIBUJOS
 62
     7
100
AcDbVertex
100
AcDb2dVertex
 10
66.11271962258694
 20
47.20388544431743
 30
0.0
  0
VERTEX
  5
4CE
330
4A5
100
AcDbEntity
  8
DIBUJOS
 62
     7
100
AcDbVertex
100
AcDb2dVertex
 10
65.99168973644674
 20
47.22254381567546
 30
0.0
  0
VERTEX
  5
4CF
330
4A5
100
AcDbEntity
  8
DIBUJOS
 62
     7
100
AcDbVertex
100
AcDb2dVertex
 10
65.88904637964798
 20
47.23458567404407
 30
0.0
  0
VERTEX
  5
4D0
330
4A5
100
AcDbEntity
  8
DIBUJOS
 62
     7
100
AcDbVertex
100
AcDb2dVertex
 10
65.62317888844494
 20
47.25895579173692
 30
0.0
  0
VERTEX
  5
4D1
330
4A5
100
AcDbEntity
  8
DIBUJOS
 62
     7
100
AcDbVertex
100
AcDb2dVertex
 10
65.4540702843902
 20
47.27104972300624
 30
0.0
  0
VERTEX
  5
4D2
330
4A5
100
AcDbEntity
  8
DIBUJOS
 62
     7
100
AcDbVertex
100
AcDb2dVertex
 10
64.83179412102734
 20
47.3045325983836
 30
0.0
  0
VERTEX
  5
4D3
330
4A5
100
AcDbEntity
  8
DIBUJOS
 62
     7
100
AcDbVertex
100
AcDb2dVertex
 10
64.41506150722968
 20
47.3045325983836
 30
0.0
  0
VERTEX
  5
4D4
330
4A5
100
AcDbEntity
  8
DIBUJOS
 62
     7
100
AcDbVertex
100
AcDb2dVertex
 10
64.07062821847234
 20
47.2892166563612
 30
0.0
  0
VERTEX
  5
4D5
330
4A5
100
AcDbEntity
  8
DIBUJOS
 62
     7
100
AcDbVertex
100
AcDb2dVertex
 10
63.98038776317469
 20
47.28357000115346
 30
0.0
  0
VERTEX
  5
4D6
330
4A5
100
AcDbEntity
  8
DIBUJOS
 62
     7
100
AcDbVertex
100
AcDb2dVertex
 10
63.44239281043023
 20
47.24672516910234
 30
0.0
  0
VERTEX
  5
4D7
330
4A5
100
AcDbEntity
  8
DIBUJOS
 62
     7
100
AcDbVertex
100
AcDb2dVertex
 10
63.14715661393027
 20
47.21139045118159
 30
0.0
  0
VERTEX
  5
4D8
330
4A5
100
AcDbEntity
  8
DIBUJOS
 62
     7
100
AcDbVertex
100
AcDb2dVertex
 10
62.9105993084365
 20
47.15519728183274
 30
0.0
  0
VERTEX
  5
4D9
330
4A5
100
AcDbEntity
  8
DIBUJOS
 62
     7
100
AcDbVertex
100
AcDb2dVertex
 10
62.82604500640897
 20
47.12496570821502
 30
0.0
  0
VERTEX
  5
4DA
330
4A5
100
AcDbEntity
  8
DIBUJOS
 62
     7
100
AcDbVertex
100
AcDb2dVertex
 10
62.70646185452009
 20
47.07357300943242
 30
0.0
  0
VERTEX
  5
4DB
330
4A5
100
AcDbEntity
  8
DIBUJOS
 62
     7
100
AcDbVertex
100
AcDb2dVertex
 10
62.64606638894143
 20
47.04334469037104
 30
0.0
  0
VERTEX
  5
4DC
330
4A5
100
AcDbEntity
  8
DIBUJOS
 62
     7
100
AcDbVertex
100
AcDb2dVertex
 10
62.47635308248048
 20
46.94781695338934
 30
0.0
  0
VERTEX
  5
4DD
330
4A5
100
AcDbEntity
  8
DIBUJOS
 62
     7
100
AcDbVertex
100
AcDb2dVertex
 10
62.47276225555838
 20
46.93531620258024
 30
0.0
  0
VERTEX
  5
4DE
330
4A5
100
AcDbEntity
  8
DIBUJOS
 62
     7
100
AcDbVertex
100
AcDb2dVertex
 10
62.4639664364205
 20
46.90896080553476
 30
0.0
  0
VERTEX
  5
4DF
330
4A5
100
AcDbEntity
  8
DIBUJOS
 62
     7
100
AcDbVertex
100
AcDb2dVertex
 10
62.40536394598674
 20
46.83170414771008
 30
0.0
  0
VERTEX
  5
4E0
330
4A5
100
AcDbEntity
  8
DIBUJOS
 62
     7
100
AcDbVertex
100
AcDb2dVertex
 10
62.38092714149616
 20
46.78396957022625
 30
0.0
  0
VERTEX
  5
4E1
330
4A5
100
AcDbEntity
  8
DIBUJOS
 62
     7
100
AcDbVertex
100
AcDb2dVertex
 10
62.36643216473563
 20
46.75494869155815
 30
0.0
  0
VERTEX
  5
4E2
330
4A5
100
AcDbEntity
  8
DIBUJOS
 62
     7
100
AcDbVertex
100
AcDb2dVertex
 10
62.35184453196121
 20
46.71760265783427
 30
0.0
  0
VERTEX
  5
4E3
330
4A5
100
AcDbEntity
  8
DIBUJOS
 62
     7
100
AcDbVertex
100
AcDb2dVertex
 10
62.33531112289632
 20
46.64000101704021
 30
0.0
  0
VERTEX
  5
4E4
330
4A5
100
AcDbEntity
  8
DIBUJOS
 62
     7
100
AcDbVertex
100
AcDb2dVertex
 10
62.3072444784251
 20
46.50645680773368
 30
0.0
  0
VERTEX
  5
4E5
330
4A5
100
AcDbEntity
  8
DIBUJOS
 62
     7
100
AcDbVertex
100
AcDb2dVertex
 10
62.2289290146622
 20
46.50366439841486
 30
0.0
  0
VERTEX
  5
4E6
330
4A5
100
AcDbEntity
  8
DIBUJOS
 62
     7
100
AcDbVertex
100
AcDb2dVertex
 10
62.18150051438834
 20
46.49291459890377
 30
0.0
  0
VERTEX
  5
4E7
330
4A5
100
AcDbEntity
  8
DIBUJOS
 62
     7
100
AcDbVertex
100
AcDb2dVertex
 10
62.13813587437004
 20
46.45808759176818
 30
0.0
  0
VERTEX
  5
4E8
330
4A5
100
AcDbEntity
  8
DIBUJOS
 62
     7
100
AcDbVertex
100
AcDb2dVertex
 10
62.11880978053733
 20
46.41032372327749
 30
0.0
  0
VERTEX
  5
4E9
330
4A5
100
AcDbEntity
  8
DIBUJOS
 62
     7
100
AcDbVertex
100
AcDb2dVertex
 10
62.11066092795218
 20
46.39133338717486
 30
0.0
  0
VERTEX
  5
4EA
330
4A5
100
AcDbEntity
  8
DIBUJOS
 62
     7
100
AcDbVertex
100
AcDb2dVertex
 10
62.10521535520923
 20
46.33136818705613
 30
0.0
  0
VERTEX
  5
4EB
330
4A5
100
AcDbEntity
  8
DIBUJOS
 62
     7
100
AcDbVertex
100
AcDb2dVertex
 10
62.10189924524056
 20
46.32507387514129
 30
0.0
  0
VERTEX
  5
4EC
330
4A5
100
AcDbEntity
  8
DIBUJOS
 62
     7
100
AcDbVertex
100
AcDb2dVertex
 10
62.10189924524056
 20
42.69745590524357
 30
0.0
  0
VERTEX
  5
4ED
330
4A5
100
AcDbEntity
  8
DIBUJOS
 62
     7
100
AcDbVertex
100
AcDb2dVertex
 10
62.11066092795218
 20
42.63119639320999
 30
0.0
  0
VERTEX
  5
4EE
330
4A5
100
AcDbEntity
  8
DIBUJOS
 62
     7
100
AcDbVertex
100
AcDb2dVertex
 10
62.11880978053733
 20
42.61220605710704
 30
0.0
  0
VERTEX
  5
4EF
330
4A5
100
AcDbEntity
  8
DIBUJOS
 62
     7
100
AcDbVertex
100
AcDb2dVertex
 10
62.13813587437004
 20
42.56444218861635
 30
0.0
  0
VERTEX
  5
4F0
330
4A5
100
AcDbEntity
  8
DIBUJOS
 62
     7
100
AcDbVertex
100
AcDb2dVertex
 10
62.16229471081922
 20
42.54025920791194
 30
0.0
  0
VERTEX
  5
4F1
330
4A5
100
AcDbEntity
  8
DIBUJOS
 62
     7
100
AcDbVertex
100
AcDb2dVertex
 10
62.20457186183299
 20
42.51607459992934
 30
0.0
  0
VERTEX
  5
4F2
330
4A5
100
AcDbEntity
  8
DIBUJOS
 62
     7
100
AcDbVertex
100
AcDb2dVertex
 10
62.45823476791558
 20
42.51607459992934
 30
0.0
  0
VERTEX
  5
4F3
330
4A5
100
AcDbEntity
  8
DIBUJOS
 62
     7
100
AcDbVertex
100
AcDb2dVertex
 10
62.46970948373396
 20
42.52333063323498
 30
0.0
  0
VERTEX
  5
4F4
330
4A5
100
AcDbEntity
  8
DIBUJOS
 62
     7
100
AcDbVertex
100
AcDb2dVertex
 10
62.50144010461176
 20
42.53886300325236
 30
0.0
  0
VERTEX
  5
4F5
330
4A5
100
AcDbEntity
  8
DIBUJOS
 62
     7
100
AcDbVertex
100
AcDb2dVertex
 10
62.52466912983422
 20
42.55839685025971
 30
0.0
  0
VERTEX
  5
4F6
330
4A5
100
AcDbEntity
  8
DIBUJOS
 62
     7
100
AcDbVertex
100
AcDb2dVertex
 10
62.55486848816738
 20
42.6007191005904
 30
0.0
  0
SEQEND
  5
4F7
330
4A5
100
AcDbEntity
  8
DIBUJOS
 62
     7
  0
ENDBLK
  5
115
330
112
100
AcDbEntity
  8
0
100
AcDbBlockEnd
  0
BLOCK
  5
4FA
330
4F8
100
AcDbEntity
  8
0
100
AcDbBlockBegin
  2
BLOCK_4
 70
     0
 10
0.0
 20
0.0
 30
0.0
  3
BLOCK_4
  1

  0
POLYLINE
  5
4FC
330
4F8
100
AcDbEntity
  8
DIBUJOS
 62
     7
100
AcDb2dPolyline
 66
     1
 10
0.0
 20
0.0
 30
0.0
  0
VERTEX
  5
4FD
330
4FC
100
AcDbEntity
  8
DIBUJOS
 62
     7
100
AcDbVertex
100
AcDb2dVertex
 10
64.51169522748212
 20
33.51297668842545
 30
0.0
  0
VERTEX
  5
4FE
330
4FC
100
AcDbEntity
  8
DIBUJOS
 62
     7
100
AcDbVertex
100
AcDb2dVertex
 10
64.49961580925753
 20
33.51297668842545
 30
0.0
  0
SEQEND
  5
4FF
330
4FC
100
AcDbEntity
  8
DIBUJOS
 62
     7
  0
POLYLINE
  5
500
330
4F8
100
AcDbEntity
  8
DIBUJOS
 62
     7
100
AcDb2dPolyline
 66
     1
 10
0.0
 20
0.0
 30
0.0
  0
VERTEX
  5
501
330
500
100
AcDbEntity
  8
DIBUJOS
 62
     7
100
AcDbVertex
100
AcDb2dVertex
 10
64.24595290317463
 20
33.50088438443399
 30
0.0
  0
VERTEX
  5
502
330
500
100
AcDbEntity
  8
DIBUJOS
 62
     7
100
AcDbVertex
100
AcDb2dVertex
 10
64.48149749469263
 20
33.51297668842545
 30
0.0
  0
SEQEND
  5
503
330
500
100
AcDbEntity
  8
DIBUJOS
 62
     7
  0
POLYLINE
  5
504
330
4F8
100
AcDbEntity
  8
DIBUJOS
 62
     7
100
AcDb2dPolyline
 66
     1
 10
0.0
 20
0.0
 30
0.0
  0
VERTEX
  5
505
330
504
100
AcDbEntity
  8
DIBUJOS
 62
     7
100
AcDbVertex
100
AcDb2dVertex
 10
64.97070336674925
 20
33.50088438443399
 30
0.0
  0
VERTEX
  5
506
330
504
100
AcDbEntity
  8
DIBUJOS
 62
     7
100
AcDbVertex
100
AcDb2dVertex
 10
64.60209010946897
 20
33.51576909774396
 30
0.0
  0
VERTEX
  5
507
330
504
100
AcDbEntity
  8
DIBUJOS
 62
     7
100
AcDbVertex
100
AcDb2dVertex
 10
64.52377464570608
 20
33.51297668842545
 30
0.0
  0
SEQEND
  5
508
330
504
100
AcDbEntity
  8
DIBUJOS
 62
     7
  0
POLYLINE
  5
509
330
4F8
100
AcDbEntity
  8
DIBUJOS
 62
     7
100
AcDb2dPolyline
 66
     1
 10
0.0
 20
0.0
 30
0.0
  0
VERTEX
  5
50A
330
509
100
AcDbEntity
  8
DIBUJOS
 62
     7
100
AcDbVertex
100
AcDb2dVertex
 10
64.1432802865822
 20
33.48879208044254
 30
0.0
  0
VERTEX
  5
50B
330
509
100
AcDbEntity
  8
DIBUJOS
 62
     7
100
AcDbVertex
100
AcDb2dVertex
 10
64.23387348495002
 20
33.49483904607735
 30
0.0
  0
SEQEND
  5
50C
330
509
100
AcDbEntity
  8
DIBUJOS
 62
     7
  0
POLYLINE
  5
50D
330
4F8
100
AcDbEntity
  8
DIBUJOS
 62
     7
100
AcDb2dPolyline
 66
     1
 10
0.0
 20
0.0
 30
0.0
  0
VERTEX
  5
50E
330
50D
100
AcDbEntity
  8
DIBUJOS
 62
     7
100
AcDbVertex
100
AcDb2dVertex
 10
65.06733708700138
 20
33.48879208044254
 30
0.0
  0
VERTEX
  5
50F
330
50D
100
AcDbEntity
  8
DIBUJOS
 62
     7
100
AcDbVertex
100
AcDb2dVertex
 10
64.98278278497352
 20
33.50088438443399
 30
0.0
  0
SEQEND
  5
510
330
50D
100
AcDbEntity
  8
DIBUJOS
 62
     7
  0
POLYLINE
  5
511
330
4F8
100
AcDbEntity
  8
DIBUJOS
 62
     7
100
AcDb2dPolyline
 66
     1
 10
0.0
 20
0.0
 30
0.0
  0
VERTEX
  5
512
330
511
100
AcDbEntity
  8
DIBUJOS
 62
     7
100
AcDbVertex
100
AcDb2dVertex
 10
65.23644569105643
 20
33.47065443809444
 30
0.0
  0
VERTEX
  5
513
330
511
100
AcDbEntity
  8
DIBUJOS
 62
     7
100
AcDbVertex
100
AcDb2dVertex
 10
65.07941650522596
 20
33.48879208044254
 30
0.0
  0
SEQEND
  5
514
330
511
100
AcDbEntity
  8
DIBUJOS
 62
     7
  0
POLYLINE
  5
515
330
4F8
100
AcDbEntity
  8
DIBUJOS
 62
     7
100
AcDb2dPolyline
 66
     1
 10
0.0
 20
0.0
 30
0.0
  0
VERTEX
  5
516
330
515
100
AcDbEntity
  8
DIBUJOS
 62
     7
100
AcDbVertex
100
AcDb2dVertex
 10
63.75070650923372
 20
33.42833218776342
 30
0.0
  0
VERTEX
  5
517
330
515
100
AcDbEntity
  8
DIBUJOS
 62
     7
100
AcDbVertex
100
AcDb2dVertex
 10
63.84680705102044
 20
33.44860481905483
 30
0.0
  0
VERTEX
  5
518
330
515
100
AcDbEntity
  8
DIBUJOS
 62
     7
100
AcDbVertex
100
AcDb2dVertex
 10
63.97387745904492
 20
33.46726319041318
 30
0.0
  0
VERTEX
  5
519
330
515
100
AcDbEntity
  8
DIBUJOS
 62
     7
100
AcDbVertex
100
AcDb2dVertex
 10
64.13120086835792
 20
33.48274674208589
 30
0.0
  0
SEQEND
  5
51A
330
515
100
AcDbEntity
  8
DIBUJOS
 62
     7
  0
POLYLINE
  5
51B
330
4F8
100
AcDbEntity
  8
DIBUJOS
 62
     7
100
AcDb2dPolyline
 66
     1
 10
0.0
 20
0.0
 30
0.0
  0
VERTEX
  5
51C
330
51B
100
AcDbEntity
  8
DIBUJOS
 62
     7
100
AcDbVertex
100
AcDb2dVertex
 10
65.52030632992852
 20
33.41623988377261
 30
0.0
  0
VERTEX
  5
51D
330
51B
100
AcDbEntity
  8
DIBUJOS
 62
     7
100
AcDbVertex
100
AcDb2dVertex
 10
65.45440352093128
 20
33.43046554942855
 30
0.0
  0
VERTEX
  5
51E
330
51B
100
AcDbEntity
  8
DIBUJOS
 62
     7
100
AcDbVertex
100
AcDb2dVertex
 10
65.3448646060503
 20
33.4559080434276
 30
0.0
  0
VERTEX
  5
51F
330
51B
100
AcDbEntity
  8
DIBUJOS
 62
     7
100
AcDbVertex
100
AcDb2dVertex
 10
65.29713700566161
 20
33.46121622477836
 30
0.0
  0
VERTEX
  5
520
330
51B
100
AcDbEntity
  8
DIBUJOS
 62
     7
100
AcDbVertex
100
AcDb2dVertex
 10
65.25456400562133
 20
33.46763095527671
 30
0.0
  0
VERTEX
  5
521
330
51B
100
AcDbEntity
  8
DIBUJOS
 62
     7
100
AcDbVertex
100
AcDb2dVertex
 10
65.2485251092807
 20
33.4646090997378
 30
0.0
  0
SEQEND
  5
522
330
51B
100
AcDbEntity
  8
DIBUJOS
 62
     7
  0
POLYLINE
  5
523
330
4F8
100
AcDbEntity
  8
DIBUJOS
 62
     7
100
AcDb2dPolyline
 66
     1
 10
0.0
 20
0.0
 30
0.0
  0
VERTEX
  5
524
330
523
100
AcDbEntity
  8
DIBUJOS
 62
     7
100
AcDbVertex
100
AcDb2dVertex
 10
65.67129661941834
 20
33.37996459907578
 30
0.0
  0
VERTEX
  5
525
330
523
100
AcDbEntity
  8
DIBUJOS
 62
     7
100
AcDbVertex
100
AcDb2dVertex
 10
65.53238574815246
 20
33.41623988377261
 30
0.0
  0
SEQEND
  5
526
330
523
100
AcDbEntity
  8
DIBUJOS
 62
     7
  0
POLYLINE
  5
527
330
4F8
100
AcDbEntity
  8
DIBUJOS
 62
     7
100
AcDb2dPolyline
 66
     1
 10
0.0
 20
0.0
 30
0.0
  0
VERTEX
  5
528
330
527
100
AcDbEntity
  8
DIBUJOS
 62
     7
100
AcDbVertex
100
AcDb2dVertex
 10
63.30377778819119
 20
33.31345774076313
 30
0.0
  0
VERTEX
  5
529
330
527
100
AcDbEntity
  8
DIBUJOS
 62
     7
100
AcDbVertex
100
AcDb2dVertex
 10
63.2977372663069
 20
33.31345774076313
 30
0.0
  0
SEQEND
  5
52A
330
527
100
AcDbEntity
  8
DIBUJOS
 62
     7
  0
POLYLINE
  5
52B
330
4F8
100
AcDbEntity
  8
DIBUJOS
 62
     7
100
AcDb2dPolyline
 66
     1
 10
0.0
 20
0.0
 30
0.0
  0
VERTEX
  5
52C
330
52B
100
AcDbEntity
  8
DIBUJOS
 62
     7
100
AcDbVertex
100
AcDb2dVertex
 10
63.22526238250364
 20
33.27718082878876
 30
0.0
  0
VERTEX
  5
52D
330
52B
100
AcDbEntity
  8
DIBUJOS
 62
     7
100
AcDbVertex
100
AcDb2dVertex
 10
63.23734180072824
 20
33.28322779442293
 30
0.0
  0
SEQEND
  5
52E
330
52B
100
AcDbEntity
  8
DIBUJOS
 62
     7
  0
POLYLINE
  5
52F
330
4F8
100
AcDbEntity
  8
DIBUJOS
 62
     7
100
AcDb2dPolyline
 66
     1
 10
0.0
 20
0.0
 30
0.0
  0
VERTEX
  5
530
330
52F
100
AcDbEntity
  8
DIBUJOS
 62
     7
100
AcDbVertex
100
AcDb2dVertex
 10
66.60743283806212
 20
33.1381217738049
 30
0.0
  0
VERTEX
  5
531
330
52F
100
AcDbEntity
  8
DIBUJOS
 62
     7
100
AcDbVertex
100
AcDb2dVertex
 10
66.60139394172181
 20
33.1381217738049
 30
0.0
  0
SEQEND
  5
532
330
52F
100
AcDbEntity
  8
DIBUJOS
 62
     7
  0
POLYLINE
  5
533
330
4F8
100
AcDbEntity
  8
DIBUJOS
 62
     7
100
AcDb2dPolyline
 66
     1
 10
0.0
 20
0.0
 30
0.0
  0
VERTEX
  5
534
330
533
100
AcDbEntity
  8
DIBUJOS
 62
     7
100
AcDbVertex
100
AcDb2dVertex
 10
66.60743283806212
 20
33.1381217738049
 30
0.0
  0
VERTEX
  5
535
330
533
100
AcDbEntity
  8
DIBUJOS
 62
     7
100
AcDbVertex
100
AcDb2dVertex
 10
66.60743283806212
 20
33.14416873943973
 30
0.0
  0
SEQEND
  5
536
330
533
100
AcDbEntity
  8
DIBUJOS
 62
     7
  0
POLYLINE
  5
537
330
4F8
100
AcDbEntity
  8
DIBUJOS
 62
     7
100
AcDb2dPolyline
 66
     1
 10
0.0
 20
0.0
 30
0.0
  0
VERTEX
  5
538
330
537
100
AcDbEntity
  8
DIBUJOS
 62
     7
100
AcDbVertex
100
AcDb2dVertex
 10
66.6134717344021
 20
33.1381217738049
 30
0.0
  0
VERTEX
  5
539
330
537
100
AcDbEntity
  8
DIBUJOS
 62
     7
100
AcDbVertex
100
AcDb2dVertex
 10
66.60743283806212
 20
33.1381217738049
 30
0.0
  0
SEQEND
  5
53A
330
537
100
AcDbEntity
  8
DIBUJOS
 62
     7
  0
POLYLINE
  5
53B
330
4F8
100
AcDbEntity
  8
DIBUJOS
 62
     7
100
AcDb2dPolyline
 66
     1
 10
0.0
 20
0.0
 30
0.0
  0
VERTEX
  5
53C
330
53B
100
AcDbEntity
  8
DIBUJOS
 62
     7
100
AcDbVertex
100
AcDb2dVertex
 10
66.60743283806212
 20
33.14416873943973
 30
0.0
  0
VERTEX
  5
53D
330
53B
100
AcDbEntity
  8
DIBUJOS
 62
     7
100
AcDbVertex
100
AcDb2dVertex
 10
66.60743283806212
 20
33.15626104343118
 30
0.0
  0
VERTEX
  5
53E
330
53B
100
AcDbEntity
  8
DIBUJOS
 62
     7
100
AcDbVertex
100
AcDb2dVertex
 10
66.59659208444394
 20
33.16379371402435
 30
0.0
  0
VERTEX
  5
53F
330
53B
100
AcDbEntity
  8
DIBUJOS
 62
     7
100
AcDbVertex
100
AcDb2dVertex
 10
66.56515568704867
 20
33.19253632812737
 30
0.0
  0
VERTEX
  5
540
330
53B
100
AcDbEntity
  8
DIBUJOS
 62
     7
100
AcDbVertex
100
AcDb2dVertex
 10
66.54703737248377
 20
33.16835334742264
 30
0.0
  0
VERTEX
  5
541
330
53B
100
AcDbEntity
  8
DIBUJOS
 62
     7
100
AcDbVertex
100
AcDb2dVertex
 10
66.55307626882409
 20
33.15626104343118
 30
0.0
  0
VERTEX
  5
542
330
53B
100
AcDbEntity
  8
DIBUJOS
 62
     7
100
AcDbVertex
100
AcDb2dVertex
 10
66.55851208830215
 20
33.15505197575973
 30
0.0
  0
VERTEX
  5
543
330
53B
100
AcDbEntity
  8
DIBUJOS
 62
     7
100
AcDbVertex
100
AcDb2dVertex
 10
66.59535341983785
 20
33.13509991826599
 30
0.0
  0
VERTEX
  5
544
330
53B
100
AcDbEntity
  8
DIBUJOS
 62
     7
100
AcDbVertex
100
AcDb2dVertex
 10
66.60139394172181
 20
33.1381217738049
 30
0.0
  0
SEQEND
  5
545
330
53B
100
AcDbEntity
  8
DIBUJOS
 62
     7
  0
POLYLINE
  5
546
330
4F8
100
AcDbEntity
  8
DIBUJOS
 62
     7
100
AcDb2dPolyline
 66
     1
 10
0.0
 20
0.0
 30
0.0
  0
VERTEX
  5
547
330
546
100
AcDbEntity
  8
DIBUJOS
 62
     7
100
AcDbVertex
100
AcDb2dVertex
 10
66.63763057085129
 20
33.10184648910936
 30
0.0
  0
VERTEX
  5
548
330
546
100
AcDbEntity
  8
DIBUJOS
 62
     7
100
AcDbVertex
100
AcDb2dVertex
 10
66.63014168917202
 20
33.11889548236918
 30
0.0
  0
VERTEX
  5
549
330
546
100
AcDbEntity
  8
DIBUJOS
 62
     7
100
AcDbVertex
100
AcDb2dVertex
 10
66.6134717344021
 20
33.1381217738049
 30
0.0
  0
SEQEND
  5
54A
330
546
100
AcDbEntity
  8
DIBUJOS
 62
     7
  0
POLYLINE
  5
54B
330
4F8
100
AcDbEntity
  8
DIBUJOS
 62
     7
100
AcDb2dPolyline
 66
     1
 10
0.0
 20
0.0
 30
0.0
  0
VERTEX
  5
54C
330
54B
100
AcDbEntity
  8
DIBUJOS
 62
     7
100
AcDbVertex
100
AcDb2dVertex
 10
66.63763057085129
 20
33.09580115075207
 30
0.0
  0
VERTEX
  5
54D
330
54B
100
AcDbEntity
  8
DIBUJOS
 62
     7
100
AcDbVertex
100
AcDb2dVertex
 10
66.63763057085129
 20
33.10184648910936
 30
0.0
  0
SEQEND
  5
54E
330
54B
100
AcDbEntity
  8
DIBUJOS
 62
     7
  0
POLYLINE
  5
54F
330
4F8
100
AcDbEntity
  8
DIBUJOS
 62
     7
100
AcDb2dPolyline
 66
     1
 10
0.0
 20
0.0
 30
0.0
  0
VERTEX
  5
550
330
54F
100
AcDbEntity
  8
DIBUJOS
 62
     7
100
AcDbVertex
100
AcDb2dVertex
 10
66.64367109273557
 20
33.09580115075207
 30
0.0
  0
VERTEX
  5
551
330
54F
100
AcDbEntity
  8
DIBUJOS
 62
     7
100
AcDbVertex
100
AcDb2dVertex
 10
66.63763057085129
 20
33.09580115075207
 30
0.0
  0
SEQEND
  5
552
330
54F
100
AcDbEntity
  8
DIBUJOS
 62
     7
  0
POLYLINE
  5
553
330
4F8
100
AcDbEntity
  8
DIBUJOS
 62
     7
100
AcDb2dPolyline
 66
     1
 10
0.0
 20
0.0
 30
0.0
  0
VERTEX
  5
554
330
553
100
AcDbEntity
  8
DIBUJOS
 62
     7
100
AcDbVertex
100
AcDb2dVertex
 10
66.65574888541619
 20
33.08370884676062
 30
0.0
  0
VERTEX
  5
555
330
553
100
AcDbEntity
  8
DIBUJOS
 62
     7
100
AcDbVertex
100
AcDb2dVertex
 10
66.64367109273557
 20
33.09580115075207
 30
0.0
  0
SEQEND
  5
556
330
553
100
AcDbEntity
  8
DIBUJOS
 62
     7
  0
POLYLINE
  5
557
330
4F8
100
AcDbEntity
  8
DIBUJOS
 62
     7
100
AcDb2dPolyline
 66
     1
 10
0.0
 20
0.0
 30
0.0
  0
VERTEX
  5
558
330
557
100
AcDbEntity
  8
DIBUJOS
 62
     7
100
AcDbVertex
100
AcDb2dVertex
 10
66.6134717344021
 20
33.06556957713434
 30
0.0
  0
VERTEX
  5
559
330
557
100
AcDbEntity
  8
DIBUJOS
 62
     7
100
AcDbVertex
100
AcDb2dVertex
 10
66.6134717344021
 20
33.07161654276916
 30
0.0
  0
VERTEX
  5
55A
330
557
100
AcDbEntity
  8
DIBUJOS
 62
     7
100
AcDbVertex
100
AcDb2dVertex
 10
66.63763057085129
 20
33.09580115075207
 30
0.0
  0
SEQEND
  5
55B
330
557
100
AcDbEntity
  8
DIBUJOS
 62
     7
  0
POLYLINE
  5
55C
330
4F8
100
AcDbEntity
  8
DIBUJOS
 62
     7
100
AcDb2dPolyline
 66
     1
 10
0.0
 20
0.0
 30
0.0
  0
VERTEX
  5
55D
330
55C
100
AcDbEntity
  8
DIBUJOS
 62
     7
100
AcDbVertex
100
AcDb2dVertex
 10
62.65150058287584
 20
32.97487973811632
 30
0.0
  0
VERTEX
  5
55E
330
55C
100
AcDbEntity
  8
DIBUJOS
 62
     7
100
AcDbVertex
100
AcDb2dVertex
 10
62.64546168653521
 20
32.97487973811632
 30
0.0
  0
SEQEND
  5
55F
330
55C
100
AcDbEntity
  8
DIBUJOS
 62
     7
  0
POLYLINE
  5
560
330
4F8
100
AcDbEntity
  8
DIBUJOS
 62
     7
100
AcDb2dPolyline
 66
     1
 10
0.0
 20
0.0
 30
0.0
  0
VERTEX
  5
561
330
560
100
AcDbEntity
  8
DIBUJOS
 62
     7
100
AcDbVertex
100
AcDb2dVertex
 10
66.58327400161325
 20
32.97487973811632
 30
0.0
  0
VERTEX
  5
562
330
560
100
AcDbEntity
  8
DIBUJOS
 62
     7
100
AcDbVertex
100
AcDb2dVertex
 10
66.5867120273895
 20
32.98729749773934
 30
0.0
  0
VERTEX
  5
563
330
560
100
AcDbEntity
  8
DIBUJOS
 62
     7
100
AcDbVertex
100
AcDb2dVertex
 10
66.59656119910596
 20
33.04078124895543
 30
0.0
  0
VERTEX
  5
564
330
560
100
AcDbEntity
  8
DIBUJOS
 62
     7
100
AcDbVertex
100
AcDb2dVertex
 10
66.6134717344021
 20
33.06556957713434
 30
0.0
  0
SEQEND
  5
565
330
560
100
AcDbEntity
  8
DIBUJOS
 62
     7
  0
POLYLINE
  5
566
330
4F8
100
AcDbEntity
  8
DIBUJOS
 62
     7
100
AcDb2dPolyline
 66
     1
 10
0.0
 20
0.0
 30
0.0
  0
VERTEX
  5
567
330
566
100
AcDbEntity
  8
DIBUJOS
 62
     7
100
AcDbVertex
100
AcDb2dVertex
 10
62.64546168653521
 20
32.96883439975968
 30
0.0
  0
VERTEX
  5
568
330
566
100
AcDbEntity
  8
DIBUJOS
 62
     7
100
AcDbVertex
100
AcDb2dVertex
 10
62.64546168653521
 20
32.97487973811632
 30
0.0
  0
SEQEND
  5
569
330
566
100
AcDbEntity
  8
DIBUJOS
 62
     7
  0
POLYLINE
  5
56A
330
4F8
100
AcDbEntity
  8
DIBUJOS
 62
     7
100
AcDb2dPolyline
 66
     1
 10
0.0
 20
0.0
 30
0.0
  0
VERTEX
  5
56B
330
56A
100
AcDbEntity
  8
DIBUJOS
 62
     7
100
AcDbVertex
100
AcDb2dVertex
 10
66.57723510527295
 20
32.96883439975968
 30
0.0
  0
VERTEX
  5
56C
330
56A
100
AcDbEntity
  8
DIBUJOS
 62
     7
100
AcDbVertex
100
AcDb2dVertex
 10
66.42020591944248
 20
33.18044402413592
 30
0.0
  0
VERTEX
  5
56D
330
56A
100
AcDbEntity
  8
DIBUJOS
 62
     7
100
AcDbVertex
100
AcDb2dVertex
 10
66.23415752029666
 20
33.3330696971217
 30
0.0
  0
VERTEX
  5
56E
330
56A
100
AcDbEntity
  8
DIBUJOS
 62
     7
100
AcDbVertex
100
AcDb2dVertex
 10
66.14733720979045
 20
33.40269767494205
 30
0.0
  0
VERTEX
  5
56F
330
56A
100
AcDbEntity
  8
DIBUJOS
 62
     7
100
AcDbVertex
100
AcDb2dVertex
 10
66.09346342715043
 20
33.43316845844861
 30
0.0
  0
VERTEX
  5
570
330
56A
100
AcDbEntity
  8
DIBUJOS
 62
     7
100
AcDbVertex
100
AcDb2dVertex
 10
66.06447347362938
 20
33.44767889778298
 30
0.0
  0
VERTEX
  5
571
330
56A
100
AcDbEntity
  8
DIBUJOS
 62
     7
100
AcDbVertex
100
AcDb2dVertex
 10
65.78551547576964
 20
33.57734855779542
 30
0.0
  0
VERTEX
  5
572
330
56A
100
AcDbEntity
  8
DIBUJOS
 62
     7
100
AcDbVertex
100
AcDb2dVertex
 10
65.59331439219717
 20
33.62393915873488
 30
0.0
  0
VERTEX
  5
573
330
56A
100
AcDbEntity
  8
DIBUJOS
 62
     7
100
AcDbVertex
100
AcDb2dVertex
 10
65.38110123517976
 20
33.67356463343801
 30
0.0
  0
VERTEX
  5
574
330
56A
100
AcDbEntity
  8
DIBUJOS
 62
     7
100
AcDbVertex
100
AcDb2dVertex
 10
64.9464193634042
 20
33.72170114862709
 30
0.0
  0
VERTEX
  5
575
330
56A
100
AcDbEntity
  8
DIBUJOS
 62
     7
100
AcDbVertex
100
AcDb2dVertex
 10
64.56001127483587
 20
33.73668024407004
 30
0.0
  0
VERTEX
  5
576
330
56A
100
AcDbEntity
  8
DIBUJOS
 62
     7
100
AcDbVertex
100
AcDb2dVertex
 10
64.27627092622738
 20
33.72169626679256
 30
0.0
  0
VERTEX
  5
577
330
56A
100
AcDbEntity
  8
DIBUJOS
 62
     7
100
AcDbVertex
100
AcDb2dVertex
 10
63.95030706956081
 20
33.68565693742947
 30
0.0
  0
VERTEX
  5
578
330
56A
100
AcDbEntity
  8
DIBUJOS
 62
     7
100
AcDbVertex
100
AcDb2dVertex
 10
63.84766533830635
 20
33.67361507906087
 30
0.0
  0
VERTEX
  5
579
330
56A
100
AcDbEntity
  8
DIBUJOS
 62
     7
100
AcDbVertex
100
AcDb2dVertex
 10
63.6908442221211
 20
33.63781007775271
 30
0.0
  0
VERTEX
  5
57A
330
56A
100
AcDbEntity
  8
DIBUJOS
 62
     7
100
AcDbVertex
100
AcDb2dVertex
 10
63.43718131603819
 20
33.57734855779542
 30
0.0
  0
VERTEX
  5
57B
330
56A
100
AcDbEntity
  8
DIBUJOS
 62
     7
100
AcDbVertex
100
AcDb2dVertex
 10
63.20774714480098
 20
33.46944537042298
 30
0.0
  0
VERTEX
  5
57C
330
56A
100
AcDbEntity
  8
DIBUJOS
 62
     7
100
AcDbVertex
100
AcDb2dVertex
 10
63.09782622705646
 20
33.41744895144343
 30
0.0
  0
VERTEX
  5
57D
330
56A
100
AcDbEntity
  8
DIBUJOS
 62
     7
100
AcDbVertex
100
AcDb2dVertex
 10
62.84476802337976
 20
33.21672093610965
 30
0.0
  0
VERTEX
  5
57E
330
56A
100
AcDbEntity
  8
DIBUJOS
 62
     7
100
AcDbVertex
100
AcDb2dVertex
 10
62.79645197602569
 20
33.16835334742264
 30
0.0
  0
VERTEX
  5
57F
330
56A
100
AcDbEntity
  8
DIBUJOS
 62
     7
100
AcDbVertex
100
AcDb2dVertex
 10
62.67418667636802
 20
33.0002441227635
 30
0.0
  0
VERTEX
  5
580
330
56A
100
AcDbEntity
  8
DIBUJOS
 62
     7
100
AcDbVertex
100
AcDb2dVertex
 10
62.65150058287584
 20
32.97487973811632
 30
0.0
  0
SEQEND
  5
581
330
56A
100
AcDbEntity
  8
DIBUJOS
 62
     7
  0
POLYLINE
  5
582
330
4F8
100
AcDbEntity
  8
DIBUJOS
 62
     7
100
AcDb2dPolyline
 66
     1
 10
0.0
 20
0.0
 30
0.0
  0
VERTEX
  5
583
330
582
100
AcDbEntity
  8
DIBUJOS
 62
     7
100
AcDbVertex
100
AcDb2dVertex
 10
66.58327400161325
 20
32.96883439975968
 30
0.0
  0
VERTEX
  5
584
330
582
100
AcDbEntity
  8
DIBUJOS
 62
     7
100
AcDbVertex
100
AcDb2dVertex
 10
66.57723510527295
 20
32.96883439975968
 30
0.0
  0
SEQEND
  5
585
330
582
100
AcDbEntity
  8
DIBUJOS
 62
     7
  0
POLYLINE
  5
586
330
4F8
100
AcDbEntity
  8
DIBUJOS
 62
     7
100
AcDb2dPolyline
 66
     1
 10
0.0
 20
0.0
 30
0.0
  0
VERTEX
  5
587
330
586
100
AcDbEntity
  8
DIBUJOS
 62
     7
100
AcDbVertex
100
AcDb2dVertex
 10
66.58327400161325
 20
32.96883439975968
 30
0.0
  0
VERTEX
  5
588
330
586
100
AcDbEntity
  8
DIBUJOS
 62
     7
100
AcDbVertex
100
AcDb2dVertex
 10
66.58327400161325
 20
32.97487973811632
 30
0.0
  0
SEQEND
  5
589
330
586
100
AcDbEntity
  8
DIBUJOS
 62
     7
  0
POLYLINE
  5
58A
330
4F8
100
AcDbEntity
  8
DIBUJOS
 62
     7
100
AcDb2dPolyline
 66
     1
 10
0.0
 20
0.0
 30
0.0
  0
VERTEX
  5
58B
330
58A
100
AcDbEntity
  8
DIBUJOS
 62
     7
100
AcDbVertex
100
AcDb2dVertex
 10
66.58327400161325
 20
32.96278743412486
 30
0.0
  0
VERTEX
  5
58C
330
58A
100
AcDbEntity
  8
DIBUJOS
 62
     7
100
AcDbVertex
100
AcDb2dVertex
 10
66.58327400161325
 20
32.96883439975968
 30
0.0
  0
SEQEND
  5
58D
330
58A
100
AcDbEntity
  8
DIBUJOS
 62
     7
  0
POLYLINE
  5
58E
330
4F8
100
AcDbEntity
  8
DIBUJOS
 62
     7
100
AcDb2dPolyline
 66
     1
 10
0.0
 20
0.0
 30
0.0
  0
VERTEX
  5
58F
330
58E
100
AcDbEntity
  8
DIBUJOS
 62
     7
100
AcDbVertex
100
AcDb2dVertex
 10
66.72218487287914
 20
32.90837287980303
 30
0.0
  0
VERTEX
  5
590
330
58E
100
AcDbEntity
  8
DIBUJOS
 62
     7
100
AcDbVertex
100
AcDb2dVertex
 10
66.7209770936107
 20
32.91381449796303
 30
0.0
  0
VERTEX
  5
591
330
58E
100
AcDbEntity
  8
DIBUJOS
 62
     7
100
AcDbVertex
100
AcDb2dVertex
 10
66.65807178793821
 20
33.05998964033121
 30
0.0
  0
VERTEX
  5
592
330
58E
100
AcDbEntity
  8
DIBUJOS
 62
     7
100
AcDbVertex
100
AcDb2dVertex
 10
66.65574888541619
 20
33.08370884676062
 30
0.0
  0
SEQEND
  5
593
330
58E
100
AcDbEntity
  8
DIBUJOS
 62
     7
  0
POLYLINE
  5
594
330
4F8
100
AcDbEntity
  8
DIBUJOS
 62
     7
100
AcDb2dPolyline
 66
     1
 10
0.0
 20
0.0
 30
0.0
  0
VERTEX
  5
595
330
594
100
AcDbEntity
  8
DIBUJOS
 62
     7
100
AcDbVertex
100
AcDb2dVertex
 10
66.7584231275526
 20
32.82372837914165
 30
0.0
  0
VERTEX
  5
596
330
594
100
AcDbEntity
  8
DIBUJOS
 62
     7
100
AcDbVertex
100
AcDb2dVertex
 10
66.7584231275526
 20
32.82977534477646
 30
0.0
  0
VERTEX
  5
597
330
594
100
AcDbEntity
  8
DIBUJOS
 62
     7
100
AcDbVertex
100
AcDb2dVertex
 10
66.746343709328
 20
32.84186764876792
 30
0.0
  0
SEQEND
  5
598
330
594
100
AcDbEntity
  8
DIBUJOS
 62
     7
  0
POLYLINE
  5
599
330
4F8
100
AcDbEntity
  8
DIBUJOS
 62
     7
100
AcDb2dPolyline
 66
     1
 10
0.0
 20
0.0
 30
0.0
  0
VERTEX
  5
59A
330
599
100
AcDbEntity
  8
DIBUJOS
 62
     7
100
AcDbVertex
100
AcDb2dVertex
 10
62.74209540678734
 20
32.7934984328021
 30
0.0
  0
VERTEX
  5
59B
330
599
100
AcDbEntity
  8
DIBUJOS
 62
     7
100
AcDbVertex
100
AcDb2dVertex
 10
62.74813430312764
 20
32.79954539843691
 30
0.0
  0
SEQEND
  5
59C
330
599
100
AcDbEntity
  8
DIBUJOS
 62
     7
  0
POLYLINE
  5
59D
330
4F8
100
AcDbEntity
  8
DIBUJOS
 62
     7
100
AcDb2dPolyline
 66
     1
 10
0.0
 20
0.0
 30
0.0
  0
VERTEX
  5
59E
330
59D
100
AcDbEntity
  8
DIBUJOS
 62
     7
100
AcDbVertex
100
AcDb2dVertex
 10
66.4866402813608
 20
32.78745309444545
 30
0.0
  0
VERTEX
  5
59F
330
59D
100
AcDbEntity
  8
DIBUJOS
 62
     7
100
AcDbVertex
100
AcDb2dVertex
 10
66.48060138502082
 20
32.7934984328021
 30
0.0
  0
SEQEND
  5
5A0
330
59D
100
AcDbEntity
  8
DIBUJOS
 62
     7
  0
POLYLINE
  5
5A1
330
4F8
100
AcDbEntity
  8
DIBUJOS
 62
     7
100
AcDb2dPolyline
 66
     1
 10
0.0
 20
0.0
 30
0.0
  0
VERTEX
  5
5A2
330
5A1
100
AcDbEntity
  8
DIBUJOS
 62
     7
100
AcDbVertex
100
AcDb2dVertex
 10
62.71793657033847
 20
32.75117618247172
 30
0.0
  0
VERTEX
  5
5A3
330
5A1
100
AcDbEntity
  8
DIBUJOS
 62
     7
100
AcDbVertex
100
AcDb2dVertex
 10
62.72397709222276
 20
32.75722314810654
 30
0.0
  0
SEQEND
  5
5A4
330
5A1
100
AcDbEntity
  8
DIBUJOS
 62
     7
  0
POLYLINE
  5
5A5
330
4F8
100
AcDbEntity
  8
DIBUJOS
 62
     7
100
AcDb2dPolyline
 66
     1
 10
0.0
 20
0.0
 30
0.0
  0
VERTEX
  5
5A6
330
5A5
100
AcDbEntity
  8
DIBUJOS
 62
     7
100
AcDbVertex
100
AcDb2dVertex
 10
66.51079911781
 20
32.74513084411509
 30
0.0
  0
VERTEX
  5
5A7
330
5A5
100
AcDbEntity
  8
DIBUJOS
 62
     7
100
AcDbVertex
100
AcDb2dVertex
 10
66.50476022147001
 20
32.75117618247172
 30
0.0
  0
SEQEND
  5
5A8
330
5A5
100
AcDbEntity
  8
DIBUJOS
 62
     7
  0
POLYLINE
  5
5A9
330
4F8
100
AcDbEntity
  8
DIBUJOS
 62
     7
100
AcDb2dPolyline
 66
     1
 10
0.0
 20
0.0
 30
0.0
  0
VERTEX
  5
5AA
330
5A9
100
AcDbEntity
  8
DIBUJOS
 62
     7
100
AcDbVertex
100
AcDb2dVertex
 10
62.69981825577389
 20
32.72094623613217
 30
0.0
  0
VERTEX
  5
5AB
330
5A9
100
AcDbEntity
  8
DIBUJOS
 62
     7
100
AcDbVertex
100
AcDb2dVertex
 10
62.70585715211388
 20
32.72699157448881
 30
0.0
  0
SEQEND
  5
5AC
330
5A9
100
AcDbEntity
  8
DIBUJOS
 62
     7
  0
POLYLINE
  5
5AD
330
4F8
100
AcDbEntity
  8
DIBUJOS
 62
     7
100
AcDb2dPolyline
 66
     1
 10
0.0
 20
0.0
 30
0.0
  0
VERTEX
  5
5AE
330
5AD
100
AcDbEntity
  8
DIBUJOS
 62
     7
100
AcDbVertex
100
AcDb2dVertex
 10
66.51079911781
 20
32.67257864744452
 30
0.0
  0
VERTEX
  5
5AF
330
5AD
100
AcDbEntity
  8
DIBUJOS
 62
     7
100
AcDbVertex
100
AcDb2dVertex
 10
66.45161143149978
 20
32.76991917229464
 30
0.0
  0
VERTEX
  5
5B0
330
5AD
100
AcDbEntity
  8
DIBUJOS
 62
     7
100
AcDbVertex
100
AcDb2dVertex
 10
66.27525615183629
 20
33.01115502281251
 30
0.0
  0
VERTEX
  5
5B1
330
5AD
100
AcDbEntity
  8
DIBUJOS
 62
     7
100
AcDbVertex
100
AcDb2dVertex
 10
66.22693847893824
 20
33.05952423877834
 30
0.0
  0
VERTEX
  5
5B2
330
5AD
100
AcDbEntity
  8
DIBUJOS
 62
     7
100
AcDbVertex
100
AcDb2dVertex
 10
66.03243399937188
 20
33.21523360387312
 30
0.0
  0
VERTEX
  5
5B3
330
5AD
100
AcDbEntity
  8
DIBUJOS
 62
     7
100
AcDbVertex
100
AcDb2dVertex
 10
66.00287022878291
 20
33.23364951078629
 30
0.0
  0
VERTEX
  5
5B4
330
5AD
100
AcDbEntity
  8
DIBUJOS
 62
     7
100
AcDbVertex
100
AcDb2dVertex
 10
65.99803748616642
 20
33.2360676461292
 30
0.0
  0
VERTEX
  5
5B5
330
5AD
100
AcDbEntity
  8
DIBUJOS
 62
     7
100
AcDbVertex
100
AcDb2dVertex
 10
65.70700169562673
 20
33.37178427177647
 30
0.0
  0
VERTEX
  5
5B6
330
5AD
100
AcDbEntity
  8
DIBUJOS
 62
     7
100
AcDbVertex
100
AcDb2dVertex
 10
65.68941493398324
 20
33.37391763344095
 30
0.0
  0
SEQEND
  5
5B7
330
5AD
100
AcDbEntity
  8
DIBUJOS
 62
     7
  0
POLYLINE
  5
5B8
330
4F8
100
AcDbEntity
  8
DIBUJOS
 62
     7
100
AcDb2dPolyline
 66
     1
 10
0.0
 20
0.0
 30
0.0
  0
VERTEX
  5
5B9
330
5B8
100
AcDbEntity
  8
DIBUJOS
 62
     7
100
AcDbVertex
100
AcDb2dVertex
 10
62.46427366425588
 20
32.6665316818097
 30
0.0
  0
VERTEX
  5
5BA
330
5B8
100
AcDbEntity
  8
DIBUJOS
 62
     7
100
AcDbVertex
100
AcDb2dVertex
 10
62.59110511729718
 20
33.04138659643024
 30
0.0
  0
SEQEND
  5
5BB
330
5B8
100
AcDbEntity
  8
DIBUJOS
 62
     7
  0
POLYLINE
  5
5BC
330
4F8
100
AcDbEntity
  8
DIBUJOS
 62
     7
100
AcDb2dPolyline
 66
     1
 10
0.0
 20
0.0
 30
0.0
  0
VERTEX
  5
5BD
330
5BC
100
AcDbEntity
  8
DIBUJOS
 62
     7
100
AcDbVertex
100
AcDb2dVertex
 10
62.6696205229844
 20
32.6665316818097
 30
0.0
  0
VERTEX
  5
5BE
330
5BC
100
AcDbEntity
  8
DIBUJOS
 62
     7
100
AcDbVertex
100
AcDb2dVertex
 10
62.681699941209
 20
32.68467095143598
 30
0.0
  0
SEQEND
  5
5BF
330
5BC
100
AcDbEntity
  8
DIBUJOS
 62
     7
  0
POLYLINE
  5
5C0
330
4F8
100
AcDbEntity
  8
DIBUJOS
 62
     7
100
AcDb2dPolyline
 66
     1
 10
0.0
 20
0.0
 30
0.0
  0
VERTEX
  5
5C1
330
5C0
100
AcDbEntity
  8
DIBUJOS
 62
     7
100
AcDbVertex
100
AcDb2dVertex
 10
62.71189767399817
 20
32.6665316818097
 30
0.0
  0
VERTEX
  5
5C2
330
5C0
100
AcDbEntity
  8
DIBUJOS
 62
     7
100
AcDbVertex
100
AcDb2dVertex
 10
62.77712425664901
 20
32.77596451065128
 30
0.0
  0
VERTEX
  5
5C3
330
5C0
100
AcDbEntity
  8
DIBUJOS
 62
     7
100
AcDbVertex
100
AcDb2dVertex
 10
62.95952005819647
 20
33.02324732680397
 30
0.0
  0
VERTEX
  5
5C4
330
5C0
100
AcDbEntity
  8
DIBUJOS
 62
     7
100
AcDbVertex
100
AcDb2dVertex
 10
63.20832258741321
 20
33.22733892608999
 30
0.0
  0
VERTEX
  5
5C5
330
5C0
100
AcDbEntity
  8
DIBUJOS
 62
     7
100
AcDbVertex
100
AcDb2dVertex
 10
63.26210371403933
 20
33.25178715313439
 30
0.0
  0
VERTEX
  5
5C6
330
5C0
100
AcDbEntity
  8
DIBUJOS
 62
     7
100
AcDbVertex
100
AcDb2dVertex
 10
63.37685574885604
 20
33.30620170745686
 30
0.0
  0
VERTEX
  5
5C7
330
5C0
100
AcDbEntity
  8
DIBUJOS
 62
     7
100
AcDbVertex
100
AcDb2dVertex
 10
63.53274867935919
 20
33.37605099510673
 30
0.0
  0
VERTEX
  5
5C8
330
5C0
100
AcDbEntity
  8
DIBUJOS
 62
     7
100
AcDbVertex
100
AcDb2dVertex
 10
63.73862709100945
 20
33.42228522212861
 30
0.0
  0
SEQEND
  5
5C9
330
5C0
100
AcDbEntity
  8
DIBUJOS
 62
     7
  0
POLYLINE
  5
5CA
330
4F8
100
AcDbEntity
  8
DIBUJOS
 62
     7
100
AcDb2dPolyline
 66
     1
 10
0.0
 20
0.0
 30
0.0
  0
VERTEX
  5
5CB
330
5CA
100
AcDbEntity
  8
DIBUJOS
 62
     7
100
AcDbVertex
100
AcDb2dVertex
 10
62.46427366425588
 20
32.66048634345306
 30
0.0
  0
VERTEX
  5
5CC
330
5CA
100
AcDbEntity
  8
DIBUJOS
 62
     7
100
AcDbVertex
100
AcDb2dVertex
 10
62.46427366425588
 20
32.6665316818097
 30
0.0
  0
SEQEND
  5
5CD
330
5CA
100
AcDbEntity
  8
DIBUJOS
 62
     7
  0
POLYLINE
  5
5CE
330
4F8
100
AcDbEntity
  8
DIBUJOS
 62
     7
100
AcDb2dPolyline
 66
     1
 10
0.0
 20
0.0
 30
0.0
  0
VERTEX
  5
5CF
330
5CE
100
AcDbEntity
  8
DIBUJOS
 62
     7
100
AcDbVertex
100
AcDb2dVertex
 10
62.47031418614017
 20
32.66048634345306
 30
0.0
  0
VERTEX
  5
5D0
330
5CE
100
AcDbEntity
  8
DIBUJOS
 62
     7
100
AcDbVertex
100
AcDb2dVertex
 10
62.46427366425588
 20
32.66048634345306
 30
0.0
  0
SEQEND
  5
5D1
330
5CE
100
AcDbEntity
  8
DIBUJOS
 62
     7
  0
POLYLINE
  5
5D2
330
4F8
100
AcDbEntity
  8
DIBUJOS
 62
     7
100
AcDb2dPolyline
 66
     1
 10
0.0
 20
0.0
 30
0.0
  0
VERTEX
  5
5D3
330
5D2
100
AcDbEntity
  8
DIBUJOS
 62
     7
100
AcDbVertex
100
AcDb2dVertex
 10
66.76446202389258
 20
32.66048634345306
 30
0.0
  0
VERTEX
  5
5D4
330
5D2
100
AcDbEntity
  8
DIBUJOS
 62
     7
100
AcDbVertex
100
AcDb2dVertex
 10
66.73245180942939
 20
32.77475544297982
 30
0.0
  0
VERTEX
  5
5D5
330
5D2
100
AcDbEntity
  8
DIBUJOS
 62
     7
100
AcDbVertex
100
AcDb2dVertex
 10
66.65454110614806
 20
32.98032135627696
 30
0.0
  0
VERTEX
  5
5D6
330
5D2
100
AcDbEntity
  8
DIBUJOS
 62
     7
100
AcDbVertex
100
AcDb2dVertex
 10
66.65152247075022
 20
32.98757576230442
 30
0.0
  0
VERTEX
  5
5D7
330
5D2
100
AcDbEntity
  8
DIBUJOS
 62
     7
100
AcDbVertex
100
AcDb2dVertex
 10
66.62415806133107
 20
33.05254809731532
 30
0.0
  0
VERTEX
  5
5D8
330
5D2
100
AcDbEntity
  8
DIBUJOS
 62
     7
100
AcDbVertex
100
AcDb2dVertex
 10
66.6134717344021
 20
33.06556957713434
 30
0.0
  0
SEQEND
  5
5D9
330
5D2
100
AcDbEntity
  8
DIBUJOS
 62
     7
  0
POLYLINE
  5
5DA
330
4F8
100
AcDbEntity
  8
DIBUJOS
 62
     7
100
AcDb2dPolyline
 66
     1
 10
0.0
 20
0.0
 30
0.0
  0
VERTEX
  5
5DB
330
5DA
100
AcDbEntity
  8
DIBUJOS
 62
     7
100
AcDbVertex
100
AcDb2dVertex
 10
62.46427366425588
 20
32.65443937781824
 30
0.0
  0
VERTEX
  5
5DC
330
5DA
100
AcDbEntity
  8
DIBUJOS
 62
     7
100
AcDbVertex
100
AcDb2dVertex
 10
62.46427366425588
 20
32.66048634345306
 30
0.0
  0
SEQEND
  5
5DD
330
5DA
100
AcDbEntity
  8
DIBUJOS
 62
     7
  0
POLYLINE
  5
5DE
330
4F8
100
AcDbEntity
  8
DIBUJOS
 62
     7
100
AcDb2dPolyline
 66
     1
 10
0.0
 20
0.0
 30
0.0
  0
VERTEX
  5
5DF
330
5DE
100
AcDbEntity
  8
DIBUJOS
 62
     7
100
AcDbVertex
100
AcDb2dVertex
 10
62.47635308248048
 20
32.65443937781824
 30
0.0
  0
VERTEX
  5
5E0
330
5DE
100
AcDbEntity
  8
DIBUJOS
 62
     7
100
AcDbVertex
100
AcDb2dVertex
 10
62.47031418614017
 20
32.66048634345306
 30
0.0
  0
SEQEND
  5
5E1
330
5DE
100
AcDbEntity
  8
DIBUJOS
 62
     7
  0
POLYLINE
  5
5E2
330
4F8
100
AcDbEntity
  8
DIBUJOS
 62
     7
100
AcDb2dPolyline
 66
     1
 10
0.0
 20
0.0
 30
0.0
  0
VERTEX
  5
5E3
330
5E2
100
AcDbEntity
  8
DIBUJOS
 62
     7
100
AcDbVertex
100
AcDb2dVertex
 10
62.48239197882046
 20
32.65443937781824
 30
0.0
  0
VERTEX
  5
5E4
330
5E2
100
AcDbEntity
  8
DIBUJOS
 62
     7
100
AcDbVertex
100
AcDb2dVertex
 10
62.47635308248048
 20
32.65443937781824
 30
0.0
  0
SEQEND
  5
5E5
330
5E2
100
AcDbEntity
  8
DIBUJOS
 62
     7
  0
POLYLINE
  5
5E6
330
4F8
100
AcDbEntity
  8
DIBUJOS
 62
     7
100
AcDb2dPolyline
 66
     1
 10
0.0
 20
0.0
 30
0.0
  0
VERTEX
  5
5E7
330
5E6
100
AcDbEntity
  8
DIBUJOS
 62
     7
100
AcDbVertex
100
AcDb2dVertex
 10
62.48239197882046
 20
32.65443937781824
 30
0.0
  0
VERTEX
  5
5E8
330
5E6
100
AcDbEntity
  8
DIBUJOS
 62
     7
100
AcDbVertex
100
AcDb2dVertex
 10
62.64546168653521
 20
32.96883439975968
 30
0.0
  0
SEQEND
  5
5E9
330
5E6
100
AcDbEntity
  8
DIBUJOS
 62
     7
  0
POLYLINE
  5
5EA
330
4F8
100
AcDbEntity
  8
DIBUJOS
 62
     7
100
AcDb2dPolyline
 66
     1
 10
0.0
 20
0.0
 30
0.0
  0
VERTEX
  5
5EB
330
5EA
100
AcDbEntity
  8
DIBUJOS
 62
     7
100
AcDbVertex
100
AcDb2dVertex
 10
66.52287853603458
 20
32.65443937781824
 30
0.0
  0
VERTEX
  5
5EC
330
5EA
100
AcDbEntity
  8
DIBUJOS
 62
     7
100
AcDbVertex
100
AcDb2dVertex
 10
66.51683963969461
 20
32.66048634345306
 30
0.0
  0
SEQEND
  5
5ED
330
5EA
100
AcDbEntity
  8
DIBUJOS
 62
     7
  0
POLYLINE
  5
5EE
330
4F8
100
AcDbEntity
  8
DIBUJOS
 62
     7
100
AcDb2dPolyline
 66
     1
 10
0.0
 20
0.0
 30
0.0
  0
VERTEX
  5
5EF
330
5EE
100
AcDbEntity
  8
DIBUJOS
 62
     7
100
AcDbVertex
100
AcDb2dVertex
 10
66.76446202389258
 20
32.65443937781824
 30
0.0
  0
VERTEX
  5
5F0
330
5EE
100
AcDbEntity
  8
DIBUJOS
 62
     7
100
AcDbVertex
100
AcDb2dVertex
 10
66.7584231275526
 20
32.65443937781824
 30
0.0
  0
SEQEND
  5
5F1
330
5EE
100
AcDbEntity
  8
DIBUJOS
 62
     7
  0
POLYLINE
  5
5F2
330
4F8
100
AcDbEntity
  8
DIBUJOS
 62
     7
100
AcDb2dPolyline
 66
     1
 10
0.0
 20
0.0
 30
0.0
  0
VERTEX
  5
5F3
330
5F2
100
AcDbEntity
  8
DIBUJOS
 62
     7
100
AcDbVertex
100
AcDb2dVertex
 10
66.76446202389258
 20
32.65443937781824
 30
0.0
  0
VERTEX
  5
5F4
330
5F2
100
AcDbEntity
  8
DIBUJOS
 62
     7
100
AcDbVertex
100
AcDb2dVertex
 10
66.76446202389258
 20
32.66048634345306
 30
0.0
  0
SEQEND
  5
5F5
330
5F2
100
AcDbEntity
  8
DIBUJOS
 62
     7
  0
POLYLINE
  5
5F6
330
4F8
100
AcDbEntity
  8
DIBUJOS
 62
     7
100
AcDb2dPolyline
 66
     1
 10
0.0
 20
0.0
 30
0.0
  0
VERTEX
  5
5F7
330
5F6
100
AcDbEntity
  8
DIBUJOS
 62
     7
100
AcDbVertex
100
AcDb2dVertex
 10
62.47635308248048
 20
32.64839403946225
 30
0.0
  0
VERTEX
  5
5F8
330
5F6
100
AcDbEntity
  8
DIBUJOS
 62
     7
100
AcDbVertex
100
AcDb2dVertex
 10
62.47635308248048
 20
32.65443937781824
 30
0.0
  0
SEQEND
  5
5F9
330
5F6
100
AcDbEntity
  8
DIBUJOS
 62
     7
  0
POLYLINE
  5
5FA
330
4F8
100
AcDbEntity
  8
DIBUJOS
 62
     7
100
AcDb2dPolyline
 66
     1
 10
0.0
 20
0.0
 30
0.0
  0
VERTEX
  5
5FB
330
5FA
100
AcDbEntity
  8
DIBUJOS
 62
     7
100
AcDbVertex
100
AcDb2dVertex
 10
66.75238260566799
 20
32.64839403946225
 30
0.0
  0
VERTEX
  5
5FC
330
5FA
100
AcDbEntity
  8
DIBUJOS
 62
     7
100
AcDbVertex
100
AcDb2dVertex
 10
66.58448178088138
 20
32.9573458159655
 30
0.0
  0
VERTEX
  5
5FD
330
5FA
100
AcDbEntity
  8
DIBUJOS
 62
     7
100
AcDbVertex
100
AcDb2dVertex
 10
66.58327400161325
 20
32.96278743412486
 30
0.0
  0
SEQEND
  5
5FE
330
5FA
100
AcDbEntity
  8
DIBUJOS
 62
     7
  0
POLYLINE
  5
5FF
330
4F8
100
AcDbEntity
  8
DIBUJOS
 62
     7
100
AcDb2dPolyline
 66
     1
 10
0.0
 20
0.0
 30
0.0
  0
VERTEX
  5
600
330
5FF
100
AcDbEntity
  8
DIBUJOS
 62
     7
100
AcDbVertex
100
AcDb2dVertex
 10
66.75238260566799
 20
32.64839403946225
 30
0.0
  0
VERTEX
  5
601
330
5FF
100
AcDbEntity
  8
DIBUJOS
 62
     7
100
AcDbVertex
100
AcDb2dVertex
 10
66.7584231275526
 20
32.65443937781824
 30
0.0
  0
SEQEND
  5
602
330
5FF
100
AcDbEntity
  8
DIBUJOS
 62
     7
  0
POLYLINE
  5
603
330
4F8
100
AcDbEntity
  8
DIBUJOS
 62
     7
100
AcDb2dPolyline
 66
     1
 10
0.0
 20
0.0
 30
0.0
  0
VERTEX
  5
604
330
603
100
AcDbEntity
  8
DIBUJOS
 62
     7
100
AcDbVertex
100
AcDb2dVertex
 10
62.46427366425588
 20
32.64234707382743
 30
0.0
  0
VERTEX
  5
605
330
603
100
AcDbEntity
  8
DIBUJOS
 62
     7
100
AcDbVertex
100
AcDb2dVertex
 10
62.46427366425588
 20
32.65443937781824
 30
0.0
  0
SEQEND
  5
606
330
603
100
AcDbEntity
  8
DIBUJOS
 62
     7
  0
POLYLINE
  5
607
330
4F8
100
AcDbEntity
  8
DIBUJOS
 62
     7
100
AcDb2dPolyline
 66
     1
 10
0.0
 20
0.0
 30
0.0
  0
VERTEX
  5
608
330
607
100
AcDbEntity
  8
DIBUJOS
 62
     7
100
AcDbVertex
100
AcDb2dVertex
 10
62.46427366425588
 20
32.63630173547079
 30
0.0
  0
VERTEX
  5
609
330
607
100
AcDbEntity
  8
DIBUJOS
 62
     7
100
AcDbVertex
100
AcDb2dVertex
 10
62.46427366425588
 20
32.64234707382743
 30
0.0
  0
SEQEND
  5
60A
330
607
100
AcDbEntity
  8
DIBUJOS
 62
     7
  0
POLYLINE
  5
60B
330
4F8
100
AcDbEntity
  8
DIBUJOS
 62
     7
100
AcDb2dPolyline
 66
     1
 10
0.0
 20
0.0
 30
0.0
  0
VERTEX
  5
60C
330
60B
100
AcDbEntity
  8
DIBUJOS
 62
     7
100
AcDbVertex
100
AcDb2dVertex
 10
62.47031418614017
 20
32.63630173547079
 30
0.0
  0
VERTEX
  5
60D
330
60B
100
AcDbEntity
  8
DIBUJOS
 62
     7
100
AcDbVertex
100
AcDb2dVertex
 10
62.46427366425588
 20
32.63630173547079
 30
0.0
  0
SEQEND
  5
60E
330
60B
100
AcDbEntity
  8
DIBUJOS
 62
     7
  0
POLYLINE
  5
60F
330
4F8
100
AcDbEntity
  8
DIBUJOS
 62
     7
100
AcDb2dPolyline
 66
     1
 10
0.0
 20
0.0
 30
0.0
  0
VERTEX
  5
610
330
60F
100
AcDbEntity
  8
DIBUJOS
 62
     7
100
AcDbVertex
100
AcDb2dVertex
 10
62.47031418614017
 20
32.63630173547079
 30
0.0
  0
VERTEX
  5
611
330
60F
100
AcDbEntity
  8
DIBUJOS
 62
     7
100
AcDbVertex
100
AcDb2dVertex
 10
62.47635308248048
 20
32.64839403946225
 30
0.0
  0
SEQEND
  5
612
330
60F
100
AcDbEntity
  8
DIBUJOS
 62
     7
  0
POLYLINE
  5
613
330
4F8
100
AcDbEntity
  8
DIBUJOS
 62
     7
100
AcDb2dPolyline
 66
     1
 10
0.0
 20
0.0
 30
0.0
  0
VERTEX
  5
614
330
613
100
AcDbEntity
  8
DIBUJOS
 62
     7
100
AcDbVertex
100
AcDb2dVertex
 10
62.46427366425588
 20
32.63025639711415
 30
0.0
  0
VERTEX
  5
615
330
613
100
AcDbEntity
  8
DIBUJOS
 62
     7
100
AcDbVertex
100
AcDb2dVertex
 10
62.46427366425588
 20
32.63630173547079
 30
0.0
  0
SEQEND
  5
616
330
613
100
AcDbEntity
  8
DIBUJOS
 62
     7
  0
POLYLINE
  5
617
330
4F8
100
AcDbEntity
  8
DIBUJOS
 62
     7
100
AcDb2dPolyline
 66
     1
 10
0.0
 20
0.0
 30
0.0
  0
VERTEX
  5
618
330
617
100
AcDbEntity
  8
DIBUJOS
 62
     7
100
AcDbVertex
100
AcDb2dVertex
 10
66.7584231275526
 20
32.63025639711415
 30
0.0
  0
VERTEX
  5
619
330
617
100
AcDbEntity
  8
DIBUJOS
 62
     7
100
AcDbVertex
100
AcDb2dVertex
 10
66.75238260566799
 20
32.63630173547079
 30
0.0
  0
VERTEX
  5
61A
330
617
100
AcDbEntity
  8
DIBUJOS
 62
     7
100
AcDbVertex
100
AcDb2dVertex
 10
66.75238260566799
 20
32.64839403946225
 30
0.0
  0
SEQEND
  5
61B
330
617
100
AcDbEntity
  8
DIBUJOS
 62
     7
  0
POLYLINE
  5
61C
330
4F8
100
AcDbEntity
  8
DIBUJOS
 62
     7
100
AcDb2dPolyline
 66
     1
 10
0.0
 20
0.0
 30
0.0
  0
VERTEX
  5
61D
330
61C
100
AcDbEntity
  8
DIBUJOS
 62
     7
100
AcDbVertex
100
AcDb2dVertex
 10
66.76446202389258
 20
32.63025639711415
 30
0.0
  0
VERTEX
  5
61E
330
61C
100
AcDbEntity
  8
DIBUJOS
 62
     7
100
AcDbVertex
100
AcDb2dVertex
 10
66.7584231275526
 20
32.63025639711415
 30
0.0
  0
SEQEND
  5
61F
330
61C
100
AcDbEntity
  8
DIBUJOS
 62
     7
  0
POLYLINE
  5
620
330
4F8
100
AcDbEntity
  8
DIBUJOS
 62
     7
100
AcDb2dPolyline
 66
     1
 10
0.0
 20
0.0
 30
0.0
  0
VERTEX
  5
621
330
620
100
AcDbEntity
  8
DIBUJOS
 62
     7
100
AcDbVertex
100
AcDb2dVertex
 10
66.76446202389258
 20
32.63025639711415
 30
0.0
  0
VERTEX
  5
622
330
620
100
AcDbEntity
  8
DIBUJOS
 62
     7
100
AcDbVertex
100
AcDb2dVertex
 10
66.77050092023289
 20
32.63630173547079
 30
0.0
  0
VERTEX
  5
623
330
620
100
AcDbEntity
  8
DIBUJOS
 62
     7
100
AcDbVertex
100
AcDb2dVertex
 10
66.77050092023289
 20
32.64839403946225
 30
0.0
  0
VERTEX
  5
624
330
620
100
AcDbEntity
  8
DIBUJOS
 62
     7
100
AcDbVertex
100
AcDb2dVertex
 10
66.76446202389258
 20
32.65443937781824
 30
0.0
  0
SEQEND
  5
625
330
620
100
AcDbEntity
  8
DIBUJOS
 62
     7
  0
POLYLINE
  5
626
330
4F8
100
AcDbEntity
  8
DIBUJOS
 62
     7
100
AcDb2dPolyline
 66
     1
 10
0.0
 20
0.0
 30
0.0
  0
VERTEX
  5
627
330
626
100
AcDbEntity
  8
DIBUJOS
 62
     7
100
AcDbVertex
100
AcDb2dVertex
 10
66.76446202389258
 20
32.62420943147933
 30
0.0
  0
VERTEX
  5
628
330
626
100
AcDbEntity
  8
DIBUJOS
 62
     7
100
AcDbVertex
100
AcDb2dVertex
 10
66.76446202389258
 20
32.63025639711415
 30
0.0
  0
SEQEND
  5
629
330
626
100
AcDbEntity
  8
DIBUJOS
 62
     7
  0
POLYLINE
  5
62A
330
4F8
100
AcDbEntity
  8
DIBUJOS
 62
     7
100
AcDb2dPolyline
 66
     1
 10
0.0
 20
0.0
 30
0.0
  0
VERTEX
  5
62B
330
62A
100
AcDbEntity
  8
DIBUJOS
 62
     7
100
AcDbVertex
100
AcDb2dVertex
 10
62.62734337197064
 20
32.59397948513978
 30
0.0
  0
VERTEX
  5
62C
330
62A
100
AcDbEntity
  8
DIBUJOS
 62
     7
100
AcDbVertex
100
AcDb2dVertex
 10
62.63338226831094
 20
32.60002482349642
 30
0.0
  0
SEQEND
  5
62D
330
62A
100
AcDbEntity
  8
DIBUJOS
 62
     7
  0
POLYLINE
  5
62E
330
4F8
100
AcDbEntity
  8
DIBUJOS
 62
     7
100
AcDb2dPolyline
 66
     1
 10
0.0
 20
0.0
 30
0.0
  0
VERTEX
  5
62F
330
62E
100
AcDbEntity
  8
DIBUJOS
 62
     7
100
AcDbVertex
100
AcDb2dVertex
 10
66.60743283806212
 20
32.57584184279168
 30
0.0
  0
VERTEX
  5
630
330
62E
100
AcDbEntity
  8
DIBUJOS
 62
     7
100
AcDbVertex
100
AcDb2dVertex
 10
66.60139394172181
 20
32.58188718114832
 30
0.0
  0
SEQEND
  5
631
330
62E
100
AcDbEntity
  8
DIBUJOS
 62
     7
  0
POLYLINE
  5
632
330
4F8
100
AcDbEntity
  8
DIBUJOS
 62
     7
100
AcDb2dPolyline
 66
     1
 10
0.0
 20
0.0
 30
0.0
  0
VERTEX
  5
633
330
632
100
AcDbEntity
  8
DIBUJOS
 62
     7
100
AcDbVertex
100
AcDb2dVertex
 10
66.6255511526267
 20
32.53956493081795
 30
0.0
  0
VERTEX
  5
634
330
632
100
AcDbEntity
  8
DIBUJOS
 62
     7
100
AcDbVertex
100
AcDb2dVertex
 10
66.60743283806212
 20
32.56374953880022
 30
0.0
  0
SEQEND
  5
635
330
632
100
AcDbEntity
  8
DIBUJOS
 62
     7
  0
POLYLINE
  5
636
330
4F8
100
AcDbEntity
  8
DIBUJOS
 62
     7
100
AcDb2dPolyline
 66
     1
 10
0.0
 20
0.0
 30
0.0
  0
VERTEX
  5
637
330
636
100
AcDbEntity
  8
DIBUJOS
 62
     7
100
AcDbVertex
100
AcDb2dVertex
 10
62.59714563918146
 20
32.51538195011257
 30
0.0
  0
VERTEX
  5
638
330
636
100
AcDbEntity
  8
DIBUJOS
 62
     7
100
AcDbVertex
100
AcDb2dVertex
 10
62.59110511729718
 20
32.51538195011257
 30
0.0
  0
SEQEND
  5
639
330
636
100
AcDbEntity
  8
DIBUJOS
 62
     7
  0
POLYLINE
  5
63A
330
4F8
100
AcDbEntity
  8
DIBUJOS
 62
     7
100
AcDb2dPolyline
 66
     1
 10
0.0
 20
0.0
 30
0.0
  0
VERTEX
  5
63B
330
63A
100
AcDbEntity
  8
DIBUJOS
 62
     7
100
AcDbVertex
100
AcDb2dVertex
 10
66.63763057085129
 20
32.51538195011257
 30
0.0
  0
VERTEX
  5
63C
330
63A
100
AcDbEntity
  8
DIBUJOS
 62
     7
100
AcDbVertex
100
AcDb2dVertex
 10
66.63159167451131
 20
32.52747262682649
 30
0.0
  0
SEQEND
  5
63D
330
63A
100
AcDbEntity
  8
DIBUJOS
 62
     7
  0
POLYLINE
  5
63E
330
4F8
100
AcDbEntity
  8
DIBUJOS
 62
     7
100
AcDb2dPolyline
 66
     1
 10
0.0
 20
0.0
 30
0.0
  0
VERTEX
  5
63F
330
63E
100
AcDbEntity
  8
DIBUJOS
 62
     7
100
AcDbVertex
100
AcDb2dVertex
 10
62.62130285008634
 20
32.50933498447775
 30
0.0
  0
VERTEX
  5
640
330
63E
100
AcDbEntity
  8
DIBUJOS
 62
     7
100
AcDbVertex
100
AcDb2dVertex
 10
62.65754110475981
 20
32.56374953880022
 30
0.0
  0
SEQEND
  5
641
330
63E
100
AcDbEntity
  8
DIBUJOS
 62
     7
  0
POLYLINE
  5
642
330
4F8
100
AcDbEntity
  8
DIBUJOS
 62
     7
100
AcDb2dPolyline
 66
     1
 10
0.0
 20
0.0
 30
0.0
  0
VERTEX
  5
643
330
642
100
AcDbEntity
  8
DIBUJOS
 62
     7
100
AcDbVertex
100
AcDb2dVertex
 10
62.61526395374636
 20
32.50328964612176
 30
0.0
  0
VERTEX
  5
644
330
642
100
AcDbEntity
  8
DIBUJOS
 62
     7
100
AcDbVertex
100
AcDb2dVertex
 10
62.60922343186175
 20
32.50933498447775
 30
0.0
  0
SEQEND
  5
645
330
642
100
AcDbEntity
  8
DIBUJOS
 62
     7
  0
POLYLINE
  5
646
330
4F8
100
AcDbEntity
  8
DIBUJOS
 62
     7
100
AcDb2dPolyline
 66
     1
 10
0.0
 20
0.0
 30
0.0
  0
VERTEX
  5
647
330
646
100
AcDbEntity
  8
DIBUJOS
 62
     7
100
AcDbVertex
100
AcDb2dVertex
 10
62.62130285008634
 20
32.50328964612176
 30
0.0
  0
VERTEX
  5
648
330
646
100
AcDbEntity
  8
DIBUJOS
 62
     7
100
AcDbVertex
100
AcDb2dVertex
 10
62.61526395374636
 20
32.50328964612176
 30
0.0
  0
SEQEND
  5
649
330
646
100
AcDbEntity
  8
DIBUJOS
 62
     7
  0
POLYLINE
  5
64A
330
4F8
100
AcDbEntity
  8
DIBUJOS
 62
     7
100
AcDb2dPolyline
 66
     1
 10
0.0
 20
0.0
 30
0.0
  0
VERTEX
  5
64B
330
64A
100
AcDbEntity
  8
DIBUJOS
 62
     7
100
AcDbVertex
100
AcDb2dVertex
 10
62.62130285008634
 20
32.50328964612176
 30
0.0
  0
VERTEX
  5
64C
330
64A
100
AcDbEntity
  8
DIBUJOS
 62
     7
100
AcDbVertex
100
AcDb2dVertex
 10
62.62130285008634
 20
32.50933498447775
 30
0.0
  0
SEQEND
  5
64D
330
64A
100
AcDbEntity
  8
DIBUJOS
 62
     7
  0
POLYLINE
  5
64E
330
4F8
100
AcDbEntity
  8
DIBUJOS
 62
     7
100
AcDb2dPolyline
 66
     1
 10
0.0
 20
0.0
 30
0.0
  0
VERTEX
  5
64F
330
64E
100
AcDbEntity
  8
DIBUJOS
 62
     7
100
AcDbVertex
100
AcDb2dVertex
 10
66.60743283806212
 20
32.50328964612176
 30
0.0
  0
VERTEX
  5
650
330
64E
100
AcDbEntity
  8
DIBUJOS
 62
     7
100
AcDbVertex
100
AcDb2dVertex
 10
66.58327400161325
 20
32.54561189645277
 30
0.0
  0
SEQEND
  5
651
330
64E
100
AcDbEntity
  8
DIBUJOS
 62
     7
  0
POLYLINE
  5
652
330
4F8
100
AcDbEntity
  8
DIBUJOS
 62
     7
100
AcDb2dPolyline
 66
     1
 10
0.0
 20
0.0
 30
0.0
  0
VERTEX
  5
653
330
652
100
AcDbEntity
  8
DIBUJOS
 62
     7
100
AcDbVertex
100
AcDb2dVertex
 10
66.6134717344021
 20
32.50328964612176
 30
0.0
  0
VERTEX
  5
654
330
652
100
AcDbEntity
  8
DIBUJOS
 62
     7
100
AcDbVertex
100
AcDb2dVertex
 10
66.60743283806212
 20
32.50328964612176
 30
0.0
  0
SEQEND
  5
655
330
652
100
AcDbEntity
  8
DIBUJOS
 62
     7
  0
POLYLINE
  5
656
330
4F8
100
AcDbEntity
  8
DIBUJOS
 62
     7
100
AcDb2dPolyline
 66
     1
 10
0.0
 20
0.0
 30
0.0
  0
VERTEX
  5
657
330
656
100
AcDbEntity
  8
DIBUJOS
 62
     7
100
AcDbVertex
100
AcDb2dVertex
 10
66.6134717344021
 20
32.50328964612176
 30
0.0
  0
VERTEX
  5
658
330
656
100
AcDbEntity
  8
DIBUJOS
 62
     7
100
AcDbVertex
100
AcDb2dVertex
 10
66.61951225628671
 20
32.50933498447775
 30
0.0
  0
SEQEND
  5
659
330
656
100
AcDbEntity
  8
DIBUJOS
 62
     7
  0
POLYLINE
  5
65A
330
4F8
100
AcDbEntity
  8
DIBUJOS
 62
     7
100
AcDb2dPolyline
 66
     1
 10
0.0
 20
0.0
 30
0.0
  0
VERTEX
  5
65B
330
65A
100
AcDbEntity
  8
DIBUJOS
 62
     7
100
AcDbVertex
100
AcDb2dVertex
 10
62.62130285008634
 20
32.49724268048693
 30
0.0
  0
VERTEX
  5
65C
330
65A
100
AcDbEntity
  8
DIBUJOS
 62
     7
100
AcDbVertex
100
AcDb2dVertex
 10
62.62130285008634
 20
32.50328964612176
 30
0.0
  0
SEQEND
  5
65D
330
65A
100
AcDbEntity
  8
DIBUJOS
 62
     7
  0
POLYLINE
  5
65E
330
4F8
100
AcDbEntity
  8
DIBUJOS
 62
     7
100
AcDb2dPolyline
 66
     1
 10
0.0
 20
0.0
 30
0.0
  0
VERTEX
  5
65F
330
65E
100
AcDbEntity
  8
DIBUJOS
 62
     7
100
AcDbVertex
100
AcDb2dVertex
 10
66.60743283806212
 20
32.49724268048693
 30
0.0
  0
VERTEX
  5
660
330
65E
100
AcDbEntity
  8
DIBUJOS
 62
     7
100
AcDbVertex
100
AcDb2dVertex
 10
66.60743283806212
 20
32.50328964612176
 30
0.0
  0
SEQEND
  5
661
330
65E
100
AcDbEntity
  8
DIBUJOS
 62
     7
  0
POLYLINE
  5
662
330
4F8
100
AcDbEntity
  8
DIBUJOS
 62
     7
100
AcDb2dPolyline
 66
     1
 10
0.0
 20
0.0
 30
0.0
  0
VERTEX
  5
663
330
662
100
AcDbEntity
  8
DIBUJOS
 62
     7
100
AcDbVertex
100
AcDb2dVertex
 10
62.57902569907258
 20
32.47910503813884
 30
0.0
  0
VERTEX
  5
664
330
662
100
AcDbEntity
  8
DIBUJOS
 62
     7
100
AcDbVertex
100
AcDb2dVertex
 10
62.58506622095687
 20
32.4911973421303
 30
0.0
  0
SEQEND
  5
665
330
662
100
AcDbEntity
  8
DIBUJOS
 62
     7
  0
POLYLINE
  5
666
330
4F8
100
AcDbEntity
  8
DIBUJOS
 62
     7
100
AcDb2dPolyline
 66
     1
 10
0.0
 20
0.0
 30
0.0
  0
VERTEX
  5
667
330
666
100
AcDbEntity
  8
DIBUJOS
 62
     7
100
AcDbVertex
100
AcDb2dVertex
 10
62.61526395374636
 20
32.45492043015592
 30
0.0
  0
VERTEX
  5
668
330
666
100
AcDbEntity
  8
DIBUJOS
 62
     7
100
AcDbVertex
100
AcDb2dVertex
 10
62.62130285008634
 20
32.49724268048693
 30
0.0
  0
SEQEND
  5
669
330
666
100
AcDbEntity
  8
DIBUJOS
 62
     7
  0
POLYLINE
  5
66A
330
4F8
100
AcDbEntity
  8
DIBUJOS
 62
     7
100
AcDb2dPolyline
 66
     1
 10
0.0
 20
0.0
 30
0.0
  0
VERTEX
  5
66B
330
66A
100
AcDbEntity
  8
DIBUJOS
 62
     7
100
AcDbVertex
100
AcDb2dVertex
 10
66.6134717344021
 20
32.44887509179993
 30
0.0
  0
VERTEX
  5
66C
330
66A
100
AcDbEntity
  8
DIBUJOS
 62
     7
100
AcDbVertex
100
AcDb2dVertex
 10
66.60743283806212
 20
32.49724268048693
 30
0.0
  0
SEQEND
  5
66D
330
66A
100
AcDbEntity
  8
DIBUJOS
 62
     7
  0
POLYLINE
  5
66E
330
4F8
100
AcDbEntity
  8
DIBUJOS
 62
     7
100
AcDb2dPolyline
 66
     1
 10
0.0
 20
0.0
 30
0.0
  0
VERTEX
  5
66F
330
66E
100
AcDbEntity
  8
DIBUJOS
 62
     7
100
AcDbVertex
100
AcDb2dVertex
 10
66.81881859313127
 20
32.42469048381701
 30
0.0
  0
VERTEX
  5
670
330
66E
100
AcDbEntity
  8
DIBUJOS
 62
     7
100
AcDbVertex
100
AcDb2dVertex
 10
66.80906207742869
 20
32.47957043969171
 30
0.0
  0
VERTEX
  5
671
330
66E
100
AcDbEntity
  8
DIBUJOS
 62
     7
100
AcDbVertex
100
AcDb2dVertex
 10
66.78076948232744
 20
32.59337576494314
 30
0.0
  0
VERTEX
  5
672
330
66E
100
AcDbEntity
  8
DIBUJOS
 62
     7
100
AcDbVertex
100
AcDb2dVertex
 10
66.76446202389258
 20
32.62420943147933
 30
0.0
  0
SEQEND
  5
673
330
66E
100
AcDbEntity
  8
DIBUJOS
 62
     7
  0
POLYLINE
  5
674
330
4F8
100
AcDbEntity
  8
DIBUJOS
 62
     7
100
AcDb2dPolyline
 66
     1
 10
0.0
 20
0.0
 30
0.0
  0
VERTEX
  5
675
330
674
100
AcDbEntity
  8
DIBUJOS
 62
     7
100
AcDbVertex
100
AcDb2dVertex
 10
66.81881859313127
 20
32.41864514545973
 30
0.0
  0
VERTEX
  5
676
330
674
100
AcDbEntity
  8
DIBUJOS
 62
     7
100
AcDbVertex
100
AcDb2dVertex
 10
66.81881859313127
 20
32.42469048381701
 30
0.0
  0
SEQEND
  5
677
330
674
100
AcDbEntity
  8
DIBUJOS
 62
     7
  0
POLYLINE
  5
678
330
4F8
100
AcDbEntity
  8
DIBUJOS
 62
     7
100
AcDb2dPolyline
 66
     1
 10
0.0
 20
0.0
 30
0.0
  0
VERTEX
  5
679
330
678
100
AcDbEntity
  8
DIBUJOS
 62
     7
100
AcDbVertex
100
AcDb2dVertex
 10
66.82485748947124
 20
32.41864514545973
 30
0.0
  0
VERTEX
  5
67A
330
678
100
AcDbEntity
  8
DIBUJOS
 62
     7
100
AcDbVertex
100
AcDb2dVertex
 10
66.81881859313127
 20
32.41864514545973
 30
0.0
  0
SEQEND
  5
67B
330
678
100
AcDbEntity
  8
DIBUJOS
 62
     7
  0
POLYLINE
  5
67C
330
4F8
100
AcDbEntity
  8
DIBUJOS
 62
     7
100
AcDb2dPolyline
 66
     1
 10
0.0
 20
0.0
 30
0.0
  0
VERTEX
  5
67D
330
67C
100
AcDbEntity
  8
DIBUJOS
 62
     7
100
AcDbVertex
100
AcDb2dVertex
 10
66.81881859313127
 20
32.41259817982556
 30
0.0
  0
VERTEX
  5
67E
330
67C
100
AcDbEntity
  8
DIBUJOS
 62
     7
100
AcDbVertex
100
AcDb2dVertex
 10
66.81881859313127
 20
32.41864514545973
 30
0.0
  0
SEQEND
  5
67F
330
67C
100
AcDbEntity
  8
DIBUJOS
 62
     7
  0
POLYLINE
  5
680
330
4F8
100
AcDbEntity
  8
DIBUJOS
 62
     7
100
AcDb2dPolyline
 66
     1
 10
0.0
 20
0.0
 30
0.0
  0
VERTEX
  5
681
330
680
100
AcDbEntity
  8
DIBUJOS
 62
     7
100
AcDbVertex
100
AcDb2dVertex
 10
66.83693690769584
 20
32.38841519912082
 30
0.0
  0
VERTEX
  5
682
330
680
100
AcDbEntity
  8
DIBUJOS
 62
     7
100
AcDbVertex
100
AcDb2dVertex
 10
66.82969023208773
 20
32.41199445962891
 30
0.0
  0
VERTEX
  5
683
330
680
100
AcDbEntity
  8
DIBUJOS
 62
     7
100
AcDbVertex
100
AcDb2dVertex
 10
66.82485748947124
 20
32.41864514545973
 30
0.0
  0
SEQEND
  5
684
330
680
100
AcDbEntity
  8
DIBUJOS
 62
     7
  0
POLYLINE
  5
685
330
4F8
100
AcDbEntity
  8
DIBUJOS
 62
     7
100
AcDb2dPolyline
 66
     1
 10
0.0
 20
0.0
 30
0.0
  0
VERTEX
  5
686
330
685
100
AcDbEntity
  8
DIBUJOS
 62
     7
100
AcDbVertex
100
AcDb2dVertex
 10
66.81881859313127
 20
32.382368233486
 30
0.0
  0
VERTEX
  5
687
330
685
100
AcDbEntity
  8
DIBUJOS
 62
     7
100
AcDbVertex
100
AcDb2dVertex
 10
66.81277969679095
 20
32.39446053747746
 30
0.0
  0
VERTEX
  5
688
330
685
100
AcDbEntity
  8
DIBUJOS
 62
     7
100
AcDbVertex
100
AcDb2dVertex
 10
66.81761081386314
 20
32.40715656166555
 30
0.0
  0
VERTEX
  5
689
330
685
100
AcDbEntity
  8
DIBUJOS
 62
     7
100
AcDbVertex
100
AcDb2dVertex
 10
66.81881859313127
 20
32.41259817982556
 30
0.0
  0
SEQEND
  5
68A
330
685
100
AcDbEntity
  8
DIBUJOS
 62
     7
  0
POLYLINE
  5
68B
330
4F8
100
AcDbEntity
  8
DIBUJOS
 62
     7
100
AcDb2dPolyline
 66
     1
 10
0.0
 20
0.0
 30
0.0
  0
VERTEX
  5
68C
330
68B
100
AcDbEntity
  8
DIBUJOS
 62
     7
100
AcDbVertex
100
AcDb2dVertex
 10
66.83693690769584
 20
32.382368233486
 30
0.0
  0
VERTEX
  5
68D
330
68B
100
AcDbEntity
  8
DIBUJOS
 62
     7
100
AcDbVertex
100
AcDb2dVertex
 10
66.83089801135553
 20
32.382368233486
 30
0.0
  0
SEQEND
  5
68E
330
68B
100
AcDbEntity
  8
DIBUJOS
 62
     7
  0
POLYLINE
  5
68F
330
4F8
100
AcDbEntity
  8
DIBUJOS
 62
     7
100
AcDb2dPolyline
 66
     1
 10
0.0
 20
0.0
 30
0.0
  0
VERTEX
  5
690
330
68F
100
AcDbEntity
  8
DIBUJOS
 62
     7
100
AcDbVertex
100
AcDb2dVertex
 10
66.83693690769584
 20
32.382368233486
 30
0.0
  0
VERTEX
  5
691
330
68F
100
AcDbEntity
  8
DIBUJOS
 62
     7
100
AcDbVertex
100
AcDb2dVertex
 10
66.83693690769584
 20
32.38841519912082
 30
0.0
  0
SEQEND
  5
692
330
68F
100
AcDbEntity
  8
DIBUJOS
 62
     7
  0
POLYLINE
  5
693
330
4F8
100
AcDbEntity
  8
DIBUJOS
 62
     7
100
AcDb2dPolyline
 66
     1
 10
0.0
 20
0.0
 30
0.0
  0
VERTEX
  5
694
330
693
100
AcDbEntity
  8
DIBUJOS
 62
     7
100
AcDbVertex
100
AcDb2dVertex
 10
66.81881859313127
 20
32.37632289512936
 30
0.0
  0
VERTEX
  5
695
330
693
100
AcDbEntity
  8
DIBUJOS
 62
     7
100
AcDbVertex
100
AcDb2dVertex
 10
66.81881859313127
 20
32.382368233486
 30
0.0
  0
SEQEND
  5
696
330
693
100
AcDbEntity
  8
DIBUJOS
 62
     7
  0
POLYLINE
  5
697
330
4F8
100
AcDbEntity
  8
DIBUJOS
 62
     7
100
AcDb2dPolyline
 66
     1
 10
0.0
 20
0.0
 30
0.0
  0
VERTEX
  5
698
330
697
100
AcDbEntity
  8
DIBUJOS
 62
     7
100
AcDbVertex
100
AcDb2dVertex
 10
66.82485748947124
 20
32.37632289512936
 30
0.0
  0
VERTEX
  5
699
330
697
100
AcDbEntity
  8
DIBUJOS
 62
     7
100
AcDbVertex
100
AcDb2dVertex
 10
66.81881859313127
 20
32.37632289512936
 30
0.0
  0
SEQEND
  5
69A
330
697
100
AcDbEntity
  8
DIBUJOS
 62
     7
  0
POLYLINE
  5
69B
330
4F8
100
AcDbEntity
  8
DIBUJOS
 62
     7
100
AcDb2dPolyline
 66
     1
 10
0.0
 20
0.0
 30
0.0
  0
VERTEX
  5
69C
330
69B
100
AcDbEntity
  8
DIBUJOS
 62
     7
100
AcDbVertex
100
AcDb2dVertex
 10
66.82485748947124
 20
32.37632289512936
 30
0.0
  0
VERTEX
  5
69D
330
69B
100
AcDbEntity
  8
DIBUJOS
 62
     7
100
AcDbVertex
100
AcDb2dVertex
 10
66.83089801135553
 20
32.382368233486
 30
0.0
  0
SEQEND
  5
69E
330
69B
100
AcDbEntity
  8
DIBUJOS
 62
     7
  0
POLYLINE
  5
69F
330
4F8
100
AcDbEntity
  8
DIBUJOS
 62
     7
100
AcDb2dPolyline
 66
     1
 10
0.0
 20
0.0
 30
0.0
  0
VERTEX
  5
6A0
330
69F
100
AcDbEntity
  8
DIBUJOS
 62
     7
100
AcDbVertex
100
AcDb2dVertex
 10
66.81881859313127
 20
32.37027592949455
 30
0.0
  0
VERTEX
  5
6A1
330
69F
100
AcDbEntity
  8
DIBUJOS
 62
     7
100
AcDbVertex
100
AcDb2dVertex
 10
66.81881859313127
 20
32.37632289512936
 30
0.0
  0
SEQEND
  5
6A2
330
69F
100
AcDbEntity
  8
DIBUJOS
 62
     7
  0
POLYLINE
  5
6A3
330
4F8
100
AcDbEntity
  8
DIBUJOS
 62
     7
100
AcDb2dPolyline
 66
     1
 10
0.0
 20
0.0
 30
0.0
  0
VERTEX
  5
6A4
330
6A3
100
AcDbEntity
  8
DIBUJOS
 62
     7
100
AcDbVertex
100
AcDb2dVertex
 10
62.39783930233724
 20
32.35818362550309
 30
0.0
  0
VERTEX
  5
6A5
330
6A3
100
AcDbEntity
  8
DIBUJOS
 62
     7
100
AcDbVertex
100
AcDb2dVertex
 10
62.40778600669926
 20
32.41313192706122
 30
0.0
  0
VERTEX
  5
6A6
330
6A3
100
AcDbEntity
  8
DIBUJOS
 62
     7
100
AcDbVertex
100
AcDb2dVertex
 10
62.44736312895911
 20
32.58732879930832
 30
0.0
  0
VERTEX
  5
6A7
330
6A3
100
AcDbEntity
  8
DIBUJOS
 62
     7
100
AcDbVertex
100
AcDb2dVertex
 10
62.46427366425588
 20
32.63025639711415
 30
0.0
  0
SEQEND
  5
6A8
330
6A3
100
AcDbEntity
  8
DIBUJOS
 62
     7
  0
POLYLINE
  5
6A9
330
4F8
100
AcDbEntity
  8
DIBUJOS
 62
     7
100
AcDb2dPolyline
 66
     1
 10
0.0
 20
0.0
 30
0.0
  0
VERTEX
  5
6AA
330
6A9
100
AcDbEntity
  8
DIBUJOS
 62
     7
100
AcDbVertex
100
AcDb2dVertex
 10
62.39783930233724
 20
32.35213828714645
 30
0.0
  0
VERTEX
  5
6AB
330
6A9
100
AcDbEntity
  8
DIBUJOS
 62
     7
100
AcDbVertex
100
AcDb2dVertex
 10
62.39179878045262
 20
32.35213828714645
 30
0.0
  0
SEQEND
  5
6AC
330
6A9
100
AcDbEntity
  8
DIBUJOS
 62
     7
  0
POLYLINE
  5
6AD
330
4F8
100
AcDbEntity
  8
DIBUJOS
 62
     7
100
AcDb2dPolyline
 66
     1
 10
0.0
 20
0.0
 30
0.0
  0
VERTEX
  5
6AE
330
6AD
100
AcDbEntity
  8
DIBUJOS
 62
     7
100
AcDbVertex
100
AcDb2dVertex
 10
62.39783930233724
 20
32.35213828714645
 30
0.0
  0
VERTEX
  5
6AF
330
6AD
100
AcDbEntity
  8
DIBUJOS
 62
     7
100
AcDbVertex
100
AcDb2dVertex
 10
62.39783930233724
 20
32.35818362550309
 30
0.0
  0
SEQEND
  5
6B0
330
6AD
100
AcDbEntity
  8
DIBUJOS
 62
     7
  0
POLYLINE
  5
6B1
330
4F8
100
AcDbEntity
  8
DIBUJOS
 62
     7
100
AcDb2dPolyline
 66
     1
 10
0.0
 20
0.0
 30
0.0
  0
VERTEX
  5
6B2
330
6B1
100
AcDbEntity
  8
DIBUJOS
 62
     7
100
AcDbVertex
100
AcDb2dVertex
 10
62.37971936222803
 20
32.32190834080689
 30
0.0
  0
VERTEX
  5
6B3
330
6B1
100
AcDbEntity
  8
DIBUJOS
 62
     7
100
AcDbVertex
100
AcDb2dVertex
 10
62.39179878045262
 20
32.35213828714645
 30
0.0
  0
SEQEND
  5
6B4
330
6B1
100
AcDbEntity
  8
DIBUJOS
 62
     7
  0
POLYLINE
  5
6B5
330
4F8
100
AcDbEntity
  8
DIBUJOS
 62
     7
100
AcDb2dPolyline
 66
     1
 10
0.0
 20
0.0
 30
0.0
  0
VERTEX
  5
6B6
330
6B5
100
AcDbEntity
  8
DIBUJOS
 62
     7
100
AcDbVertex
100
AcDb2dVertex
 10
62.37971936222803
 20
32.31586137517272
 30
0.0
  0
VERTEX
  5
6B7
330
6B5
100
AcDbEntity
  8
DIBUJOS
 62
     7
100
AcDbVertex
100
AcDb2dVertex
 10
62.37971936222803
 20
32.32190834080689
 30
0.0
  0
SEQEND
  5
6B8
330
6B5
100
AcDbEntity
  8
DIBUJOS
 62
     7
  0
POLYLINE
  5
6B9
330
4F8
100
AcDbEntity
  8
DIBUJOS
 62
     7
100
AcDb2dPolyline
 66
     1
 10
0.0
 20
0.0
 30
0.0
  0
VERTEX
  5
6BA
330
6B9
100
AcDbEntity
  8
DIBUJOS
 62
     7
100
AcDbVertex
100
AcDb2dVertex
 10
62.38575988411264
 20
32.31586137517272
 30
0.0
  0
VERTEX
  5
6BB
330
6B9
100
AcDbEntity
  8
DIBUJOS
 62
     7
100
AcDbVertex
100
AcDb2dVertex
 10
62.37971936222803
 20
32.31586137517272
 30
0.0
  0
SEQEND
  5
6BC
330
6B9
100
AcDbEntity
  8
DIBUJOS
 62
     7
  0
POLYLINE
  5
6BD
330
4F8
100
AcDbEntity
  8
DIBUJOS
 62
     7
100
AcDb2dPolyline
 66
     1
 10
0.0
 20
0.0
 30
0.0
  0
VERTEX
  5
6BE
330
6BD
100
AcDbEntity
  8
DIBUJOS
 62
     7
100
AcDbVertex
100
AcDb2dVertex
 10
62.39783930233724
 20
32.31586137517272
 30
0.0
  0
VERTEX
  5
6BF
330
6BD
100
AcDbEntity
  8
DIBUJOS
 62
     7
100
AcDbVertex
100
AcDb2dVertex
 10
62.40387819867722
 20
32.32190834080689
 30
0.0
  0
VERTEX
  5
6C0
330
6BD
100
AcDbEntity
  8
DIBUJOS
 62
     7
100
AcDbVertex
100
AcDb2dVertex
 10
62.40387819867722
 20
32.34609294879045
 30
0.0
  0
VERTEX
  5
6C1
330
6BD
100
AcDbEntity
  8
DIBUJOS
 62
     7
100
AcDbVertex
100
AcDb2dVertex
 10
62.39783930233724
 20
32.35213828714645
 30
0.0
  0
SEQEND
  5
6C2
330
6BD
100
AcDbEntity
  8
DIBUJOS
 62
     7
  0
POLYLINE
  5
6C3
330
4F8
100
AcDbEntity
  8
DIBUJOS
 62
     7
100
AcDb2dPolyline
 66
     1
 10
0.0
 20
0.0
 30
0.0
  0
VERTEX
  5
6C4
330
6C3
100
AcDbEntity
  8
DIBUJOS
 62
     7
100
AcDbVertex
100
AcDb2dVertex
 10
62.37971936222803
 20
32.30981603681543
 30
0.0
  0
VERTEX
  5
6C5
330
6C3
100
AcDbEntity
  8
DIBUJOS
 62
     7
100
AcDbVertex
100
AcDb2dVertex
 10
62.37971936222803
 20
32.31586137517272
 30
0.0
  0
SEQEND
  5
6C6
330
6C3
100
AcDbEntity
  8
DIBUJOS
 62
     7
  0
POLYLINE
  5
6C7
330
4F8
100
AcDbEntity
  8
DIBUJOS
 62
     7
100
AcDb2dPolyline
 66
     1
 10
0.0
 20
0.0
 30
0.0
  0
VERTEX
  5
6C8
330
6C7
100
AcDbEntity
  8
DIBUJOS
 62
     7
100
AcDbVertex
100
AcDb2dVertex
 10
62.39179878045262
 20
32.30981603681543
 30
0.0
  0
VERTEX
  5
6C9
330
6C7
100
AcDbEntity
  8
DIBUJOS
 62
     7
100
AcDbVertex
100
AcDb2dVertex
 10
62.38575988411264
 20
32.31586137517272
 30
0.0
  0
SEQEND
  5
6CA
330
6C7
100
AcDbEntity
  8
DIBUJOS
 62
     7
  0
POLYLINE
  5
6CB
330
4F8
100
AcDbEntity
  8
DIBUJOS
 62
     7
100
AcDb2dPolyline
 66
     1
 10
0.0
 20
0.0
 30
0.0
  0
VERTEX
  5
6CC
330
6CB
100
AcDbEntity
  8
DIBUJOS
 62
     7
100
AcDbVertex
100
AcDb2dVertex
 10
62.39783930233724
 20
32.30981603681543
 30
0.0
  0
VERTEX
  5
6CD
330
6CB
100
AcDbEntity
  8
DIBUJOS
 62
     7
100
AcDbVertex
100
AcDb2dVertex
 10
62.39179878045262
 20
32.30981603681543
 30
0.0
  0
SEQEND
  5
6CE
330
6CB
100
AcDbEntity
  8
DIBUJOS
 62
     7
  0
POLYLINE
  5
6CF
330
4F8
100
AcDbEntity
  8
DIBUJOS
 62
     7
100
AcDb2dPolyline
 66
     1
 10
0.0
 20
0.0
 30
0.0
  0
VERTEX
  5
6D0
330
6CF
100
AcDbEntity
  8
DIBUJOS
 62
     7
100
AcDbVertex
100
AcDb2dVertex
 10
62.39783930233724
 20
32.30981603681543
 30
0.0
  0
VERTEX
  5
6D1
330
6CF
100
AcDbEntity
  8
DIBUJOS
 62
     7
100
AcDbVertex
100
AcDb2dVertex
 10
62.39783930233724
 20
32.31586137517272
 30
0.0
  0
SEQEND
  5
6D2
330
6CF
100
AcDbEntity
  8
DIBUJOS
 62
     7
  0
POLYLINE
  5
6D3
330
4F8
100
AcDbEntity
  8
DIBUJOS
 62
     7
100
AcDb2dPolyline
 66
     1
 10
0.0
 20
0.0
 30
0.0
  0
VERTEX
  5
6D4
330
6D3
100
AcDbEntity
  8
DIBUJOS
 62
     7
100
AcDbVertex
100
AcDb2dVertex
 10
62.39783930233724
 20
32.30377069845944
 30
0.0
  0
VERTEX
  5
6D5
330
6D3
100
AcDbEntity
  8
DIBUJOS
 62
     7
100
AcDbVertex
100
AcDb2dVertex
 10
62.39783930233724
 20
32.30981603681543
 30
0.0
  0
SEQEND
  5
6D6
330
6D3
100
AcDbEntity
  8
DIBUJOS
 62
     7
  0
POLYLINE
  5
6D7
330
4F8
100
AcDbEntity
  8
DIBUJOS
 62
     7
100
AcDb2dPolyline
 66
     1
 10
0.0
 20
0.0
 30
0.0
  0
VERTEX
  5
6D8
330
6D7
100
AcDbEntity
  8
DIBUJOS
 62
     7
100
AcDbVertex
100
AcDb2dVertex
 10
66.91545231338307
 20
32.20098692817114
 30
0.0
  0
VERTEX
  5
6D9
330
6D7
100
AcDbEntity
  8
DIBUJOS
 62
     7
100
AcDbVertex
100
AcDb2dVertex
 10
66.90582096457668
 20
32.24371762532011
 30
0.0
  0
VERTEX
  5
6DA
330
6D7
100
AcDbEntity
  8
DIBUJOS
 62
     7
100
AcDbVertex
100
AcDb2dVertex
 10
66.78013226903927
 20
32.75076773565377
 30
0.0
  0
VERTEX
  5
6DB
330
6D7
100
AcDbEntity
  8
DIBUJOS
 62
     7
100
AcDbVertex
100
AcDb2dVertex
 10
66.76446202389258
 20
32.775360790454
 30
0.0
  0
SEQEND
  5
6DC
330
6D7
100
AcDbEntity
  8
DIBUJOS
 62
     7
  0
POLYLINE
  5
6DD
330
4F8
100
AcDbEntity
  8
DIBUJOS
 62
     7
100
AcDb2dPolyline
 66
     1
 10
0.0
 20
0.0
 30
0.0
  0
VERTEX
  5
6DE
330
6DD
100
AcDbEntity
  8
DIBUJOS
 62
     7
100
AcDbVertex
100
AcDb2dVertex
 10
62.57298680273228
 20
32.18284928582368
 30
0.0
  0
VERTEX
  5
6DF
330
6DD
100
AcDbEntity
  8
DIBUJOS
 62
     7
100
AcDbVertex
100
AcDb2dVertex
 10
62.57298680273228
 20
32.18889462418032
 30
0.0
  0
SEQEND
  5
6E0
330
6DD
100
AcDbEntity
  8
DIBUJOS
 62
     7
  0
POLYLINE
  5
6E1
330
4F8
100
AcDbEntity
  8
DIBUJOS
 62
     7
100
AcDb2dPolyline
 66
     1
 10
0.0
 20
0.0
 30
0.0
  0
VERTEX
  5
6E2
330
6E1
100
AcDbEntity
  8
DIBUJOS
 62
     7
100
AcDbVertex
100
AcDb2dVertex
 10
66.91545231338307
 20
32.17680394746704
 30
0.0
  0
VERTEX
  5
6E3
330
6E1
100
AcDbEntity
  8
DIBUJOS
 62
     7
100
AcDbVertex
100
AcDb2dVertex
 10
66.92149120972337
 20
32.18284928582368
 30
0.0
  0
SEQEND
  5
6E4
330
6E1
100
AcDbEntity
  8
DIBUJOS
 62
     7
  0
POLYLINE
  5
6E5
330
4F8
100
AcDbEntity
  8
DIBUJOS
 62
     7
100
AcDb2dPolyline
 66
     1
 10
0.0
 20
0.0
 30
0.0
  0
VERTEX
  5
6E6
330
6E5
100
AcDbEntity
  8
DIBUJOS
 62
     7
100
AcDbVertex
100
AcDb2dVertex
 10
66.65574888541619
 20
32.15261933948413
 30
0.0
  0
VERTEX
  5
6E7
330
6E5
100
AcDbEntity
  8
DIBUJOS
 62
     7
100
AcDbVertex
100
AcDb2dVertex
 10
66.65574888541619
 20
32.15866467784077
 30
0.0
  0
SEQEND
  5
6E8
330
6E5
100
AcDbEntity
  8
DIBUJOS
 62
     7
  0
POLYLINE
  5
6E9
330
4F8
100
AcDbEntity
  8
DIBUJOS
 62
     7
100
AcDb2dPolyline
 66
     1
 10
0.0
 20
0.0
 30
0.0
  0
VERTEX
  5
6EA
330
6E9
100
AcDbEntity
  8
DIBUJOS
 62
     7
100
AcDbVertex
100
AcDb2dVertex
 10
66.70406655831424
 20
32.04379023083983
 30
0.0
  0
VERTEX
  5
6EB
330
6E9
100
AcDbEntity
  8
DIBUJOS
 62
     7
100
AcDbVertex
100
AcDb2dVertex
 10
66.70406655831424
 20
32.04983719647465
 30
0.0
  0
SEQEND
  5
6EC
330
6E9
100
AcDbEntity
  8
DIBUJOS
 62
     7
  0
POLYLINE
  5
6ED
330
4F8
100
AcDbEntity
  8
DIBUJOS
 62
     7
100
AcDb2dPolyline
 66
     1
 10
0.0
 20
0.0
 30
0.0
  0
VERTEX
  5
6EE
330
6ED
100
AcDbEntity
  8
DIBUJOS
 62
     7
100
AcDbVertex
100
AcDb2dVertex
 10
62.50655081526965
 20
31.90473117585598
 30
0.0
  0
VERTEX
  5
6EF
330
6ED
100
AcDbEntity
  8
DIBUJOS
 62
     7
100
AcDbVertex
100
AcDb2dVertex
 10
62.50655081526965
 20
31.91077814149079
 30
0.0
  0
SEQEND
  5
6F0
330
6ED
100
AcDbEntity
  8
DIBUJOS
 62
     7
  0
POLYLINE
  5
6F1
330
4F8
100
AcDbEntity
  8
DIBUJOS
 62
     7
100
AcDb2dPolyline
 66
     1
 10
0.0
 20
0.0
 30
0.0
  0
VERTEX
  5
6F2
330
6F1
100
AcDbEntity
  8
DIBUJOS
 62
     7
100
AcDbVertex
100
AcDb2dVertex
 10
62.48843250070475
 20
31.73544217453322
 30
0.0
  0
VERTEX
  5
6F3
330
6F1
100
AcDbEntity
  8
DIBUJOS
 62
     7
100
AcDbVertex
100
AcDb2dVertex
 10
62.48843250070475
 20
31.74148914016803
 30
0.0
  0
SEQEND
  5
6F4
330
6F1
100
AcDbEntity
  8
DIBUJOS
 62
     7
  0
POLYLINE
  5
6F5
330
4F8
100
AcDbEntity
  8
DIBUJOS
 62
     7
100
AcDb2dPolyline
 66
     1
 10
0.0
 20
0.0
 30
0.0
  0
VERTEX
  5
6F6
330
6F5
100
AcDbEntity
  8
DIBUJOS
 62
     7
100
AcDbVertex
100
AcDb2dVertex
 10
62.48239197882046
 20
31.66288997786329
 30
0.0
  0
VERTEX
  5
6F7
330
6F5
100
AcDbEntity
  8
DIBUJOS
 62
     7
100
AcDbVertex
100
AcDb2dVertex
 10
62.48239197882046
 20
31.66893694349811
 30
0.0
  0
SEQEND
  5
6F8
330
6F5
100
AcDbEntity
  8
DIBUJOS
 62
     7
  0
POLYLINE
  5
6F9
330
4F8
100
AcDbEntity
  8
DIBUJOS
 62
     7
100
AcDb2dPolyline
 66
     1
 10
0.0
 20
0.0
 30
0.0
  0
VERTEX
  5
6FA
330
6F9
100
AcDbEntity
  8
DIBUJOS
 62
     7
100
AcDbVertex
100
AcDb2dVertex
 10
62.47635308248048
 20
31.52987788851425
 30
0.0
  0
VERTEX
  5
6FB
330
6F9
100
AcDbEntity
  8
DIBUJOS
 62
     7
100
AcDbVertex
100
AcDb2dVertex
 10
62.47635308248048
 20
31.5359232268709
 30
0.0
  0
SEQEND
  5
6FC
330
6F9
100
AcDbEntity
  8
DIBUJOS
 62
     7
  0
POLYLINE
  5
6FD
330
4F8
100
AcDbEntity
  8
DIBUJOS
 62
     7
100
AcDb2dPolyline
 66
     1
 10
0.0
 20
0.0
 30
0.0
  0
VERTEX
  5
6FE
330
6FD
100
AcDbEntity
  8
DIBUJOS
 62
     7
100
AcDbVertex
100
AcDb2dVertex
 10
62.47031418614017
 20
31.34849658319939
 30
0.0
  0
VERTEX
  5
6FF
330
6FD
100
AcDbEntity
  8
DIBUJOS
 62
     7
100
AcDbVertex
100
AcDb2dVertex
 10
62.47031418614017
 20
31.35454354883421
 30
0.0
  0
SEQEND
  5
700
330
6FD
100
AcDbEntity
  8
DIBUJOS
 62
     7
  0
POLYLINE
  5
701
330
4F8
100
AcDbEntity
  8
DIBUJOS
 62
     7
100
AcDb2dPolyline
 66
     1
 10
0.0
 20
0.0
 30
0.0
  0
VERTEX
  5
702
330
701
100
AcDbEntity
  8
DIBUJOS
 62
     7
100
AcDbVertex
100
AcDb2dVertex
 10
66.72218487287914
 20
31.34245124484275
 30
0.0
  0
VERTEX
  5
703
330
701
100
AcDbEntity
  8
DIBUJOS
 62
     7
100
AcDbVertex
100
AcDb2dVertex
 10
66.70726237801932
 20
31.69296207822159
 30
0.0
  0
VERTEX
  5
704
330
701
100
AcDbEntity
  8
DIBUJOS
 62
     7
100
AcDbVertex
100
AcDb2dVertex
 10
66.67121593754995
 20
32.03140338950217
 30
0.0
  0
VERTEX
  5
705
330
701
100
AcDbEntity
  8
DIBUJOS
 62
     7
100
AcDbVertex
100
AcDb2dVertex
 10
66.66178940730047
 20
32.12843473150186
 30
0.0
  0
SEQEND
  5
706
330
701
100
AcDbEntity
  8
DIBUJOS
 62
     7
  0
POLYLINE
  5
707
330
4F8
100
AcDbEntity
  8
DIBUJOS
 62
     7
100
AcDb2dPolyline
 66
     1
 10
0.0
 20
0.0
 30
0.0
  0
VERTEX
  5
708
330
707
100
AcDbEntity
  8
DIBUJOS
 62
     7
100
AcDbVertex
100
AcDb2dVertex
 10
62.47031418614017
 20
31.25780674418137
 30
0.0
  0
VERTEX
  5
709
330
707
100
AcDbEntity
  8
DIBUJOS
 62
     7
100
AcDbVertex
100
AcDb2dVertex
 10
62.47031418614017
 20
31.26385208253865
 30
0.0
  0
SEQEND
  5
70A
330
707
100
AcDbEntity
  8
DIBUJOS
 62
     7
  0
POLYLINE
  5
70B
330
4F8
100
AcDbEntity
  8
DIBUJOS
 62
     7
100
AcDb2dPolyline
 66
     1
 10
0.0
 20
0.0
 30
0.0
  0
VERTEX
  5
70C
330
70B
100
AcDbEntity
  8
DIBUJOS
 62
     7
100
AcDbVertex
100
AcDb2dVertex
 10
62.47635308248048
 20
31.13083999318897
 30
0.0
  0
VERTEX
  5
70D
330
70B
100
AcDbEntity
  8
DIBUJOS
 62
     7
100
AcDbVertex
100
AcDb2dVertex
 10
62.47635308248048
 20
31.13688533154561
 30
0.0
  0
SEQEND
  5
70E
330
70B
100
AcDbEntity
  8
DIBUJOS
 62
     7
  0
POLYLINE
  5
70F
330
4F8
100
AcDbEntity
  8
DIBUJOS
 62
     7
100
AcDb2dPolyline
 66
     1
 10
0.0
 20
0.0
 30
0.0
  0
VERTEX
  5
710
330
70F
100
AcDbEntity
  8
DIBUJOS
 62
     7
100
AcDbVertex
100
AcDb2dVertex
 10
66.70406655831424
 20
30.59274304288049
 30
0.0
  0
VERTEX
  5
711
330
70F
100
AcDbEntity
  8
DIBUJOS
 62
     7
100
AcDbVertex
100
AcDb2dVertex
 10
66.70406655831424
 20
30.59878838123777
 30
0.0
  0
SEQEND
  5
712
330
70F
100
AcDbEntity
  8
DIBUJOS
 62
     7
  0
POLYLINE
  5
713
330
4F8
100
AcDbEntity
  8
DIBUJOS
 62
     7
100
AcDb2dPolyline
 66
     1
 10
0.0
 20
0.0
 30
0.0
  0
VERTEX
  5
714
330
713
100
AcDbEntity
  8
DIBUJOS
 62
     7
100
AcDbVertex
100
AcDb2dVertex
 10
62.52466912983422
 20
30.56251309654157
 30
0.0
  0
VERTEX
  5
715
330
713
100
AcDbEntity
  8
DIBUJOS
 62
     7
100
AcDbVertex
100
AcDb2dVertex
 10
62.52466912983422
 20
30.56855843489821
 30
0.0
  0
SEQEND
  5
716
330
713
100
AcDbEntity
  8
DIBUJOS
 62
     7
  0
POLYLINE
  5
717
330
4F8
100
AcDbEntity
  8
DIBUJOS
 62
     7
100
AcDb2dPolyline
 66
     1
 10
0.0
 20
0.0
 30
0.0
  0
VERTEX
  5
718
330
717
100
AcDbEntity
  8
DIBUJOS
 62
     7
100
AcDbVertex
100
AcDb2dVertex
 10
62.56694790639197
 20
30.51414388057574
 30
0.0
  0
VERTEX
  5
719
330
717
100
AcDbEntity
  8
DIBUJOS
 62
     7
100
AcDbVertex
100
AcDb2dVertex
 10
62.55233101382388
 20
30.62865707182586
 30
0.0
  0
VERTEX
  5
71A
330
717
100
AcDbEntity
  8
DIBUJOS
 62
     7
100
AcDbVertex
100
AcDb2dVertex
 10
62.52147331012914
 20
30.93752422986519
 30
0.0
  0
VERTEX
  5
71B
330
717
100
AcDbEntity
  8
DIBUJOS
 62
     7
100
AcDbVertex
100
AcDb2dVertex
 10
62.51578715685902
 20
31.03999068091152
 30
0.0
  0
VERTEX
  5
71C
330
717
100
AcDbEntity
  8
DIBUJOS
 62
     7
100
AcDbVertex
100
AcDb2dVertex
 10
62.50655081526965
 20
31.215484493851
 30
0.0
  0
VERTEX
  5
71D
330
717
100
AcDbEntity
  8
DIBUJOS
 62
     7
100
AcDbVertex
100
AcDb2dVertex
 10
62.50655081526965
 20
31.43918804949559
 30
0.0
  0
VERTEX
  5
71E
330
717
100
AcDbEntity
  8
DIBUJOS
 62
     7
100
AcDbVertex
100
AcDb2dVertex
 10
62.51548968228851
 20
31.59627246463524
 30
0.0
  0
VERTEX
  5
71F
330
717
100
AcDbEntity
  8
DIBUJOS
 62
     7
100
AcDbVertex
100
AcDb2dVertex
 10
62.52147331012914
 20
31.70505438221241
 30
0.0
  0
VERTEX
  5
720
330
717
100
AcDbEntity
  8
DIBUJOS
 62
     7
100
AcDbVertex
100
AcDb2dVertex
 10
62.56948375519181
 20
32.14016415246367
 30
0.0
  0
VERTEX
  5
721
330
717
100
AcDbEntity
  8
DIBUJOS
 62
     7
100
AcDbVertex
100
AcDb2dVertex
 10
62.57298680273228
 20
32.17075698183223
 30
0.0
  0
SEQEND
  5
722
330
717
100
AcDbEntity
  8
DIBUJOS
 62
     7
  0
POLYLINE
  5
723
330
4F8
100
AcDbEntity
  8
DIBUJOS
 62
     7
100
AcDb2dPolyline
 66
     1
 10
0.0
 20
0.0
 30
0.0
  0
VERTEX
  5
724
330
723
100
AcDbEntity
  8
DIBUJOS
 62
     7
100
AcDbVertex
100
AcDb2dVertex
 10
66.65574888541619
 20
30.489960899871
 30
0.0
  0
VERTEX
  5
725
330
723
100
AcDbEntity
  8
DIBUJOS
 62
     7
100
AcDbVertex
100
AcDb2dVertex
 10
66.6704795660716
 20
30.59244850553428
 30
0.0
  0
VERTEX
  5
726
330
723
100
AcDbEntity
  8
DIBUJOS
 62
     7
100
AcDbVertex
100
AcDb2dVertex
 10
66.70727375682819
 20
30.93148702789944
 30
0.0
  0
VERTEX
  5
727
330
723
100
AcDbEntity
  8
DIBUJOS
 62
     7
100
AcDbVertex
100
AcDb2dVertex
 10
66.72218487287914
 20
31.33035894085194
 30
0.0
  0
SEQEND
  5
728
330
723
100
AcDbEntity
  8
DIBUJOS
 62
     7
  0
POLYLINE
  5
729
330
4F8
100
AcDbEntity
  8
DIBUJOS
 62
     7
100
AcDb2dPolyline
 66
     1
 10
0.0
 20
0.0
 30
0.0
  0
VERTEX
  5
72A
330
729
100
AcDbEntity
  8
DIBUJOS
 62
     7
100
AcDbVertex
100
AcDb2dVertex
 10
62.57298680273228
 20
30.46577629188873
 30
0.0
  0
VERTEX
  5
72B
330
729
100
AcDbEntity
  8
DIBUJOS
 62
     7
100
AcDbVertex
100
AcDb2dVertex
 10
62.57298680273228
 20
30.47786859587955
 30
0.0
  0
VERTEX
  5
72C
330
729
100
AcDbEntity
  8
DIBUJOS
 62
     7
100
AcDbVertex
100
AcDb2dVertex
 10
62.56694790639197
 20
30.48391393423619
 30
0.0
  0
SEQEND
  5
72D
330
729
100
AcDbEntity
  8
DIBUJOS
 62
     7
  0
POLYLINE
  5
72E
330
4F8
100
AcDbEntity
  8
DIBUJOS
 62
     7
100
AcDb2dPolyline
 66
     1
 10
0.0
 20
0.0
 30
0.0
  0
VERTEX
  5
72F
330
72E
100
AcDbEntity
  8
DIBUJOS
 62
     7
100
AcDbVertex
100
AcDb2dVertex
 10
66.64970998907589
 20
30.44763864954064
 30
0.0
  0
VERTEX
  5
730
330
72E
100
AcDbEntity
  8
DIBUJOS
 62
     7
100
AcDbVertex
100
AcDb2dVertex
 10
66.65574888541619
 20
30.47786859587955
 30
0.0
  0
SEQEND
  5
731
330
72E
100
AcDbEntity
  8
DIBUJOS
 62
     7
  0
POLYLINE
  5
732
330
4F8
100
AcDbEntity
  8
DIBUJOS
 62
     7
100
AcDb2dPolyline
 66
     1
 10
0.0
 20
0.0
 30
0.0
  0
VERTEX
  5
733
330
732
100
AcDbEntity
  8
DIBUJOS
 62
     7
100
AcDbVertex
100
AcDb2dVertex
 10
66.64970998907589
 20
30.4174070759229
 30
0.0
  0
VERTEX
  5
734
330
732
100
AcDbEntity
  8
DIBUJOS
 62
     7
100
AcDbVertex
100
AcDb2dVertex
 10
66.64970998907589
 20
30.42949937991436
 30
0.0
  0
SEQEND
  5
735
330
732
100
AcDbEntity
  8
DIBUJOS
 62
     7
  0
POLYLINE
  5
736
330
4F8
100
AcDbEntity
  8
DIBUJOS
 62
     7
100
AcDb2dPolyline
 66
     1
 10
0.0
 20
0.0
 30
0.0
  0
VERTEX
  5
737
330
736
100
AcDbEntity
  8
DIBUJOS
 62
     7
100
AcDbVertex
100
AcDb2dVertex
 10
66.82485748947124
 20
30.30857959455743
 30
0.0
  0
VERTEX
  5
738
330
736
100
AcDbEntity
  8
DIBUJOS
 62
     7
100
AcDbVertex
100
AcDb2dVertex
 10
66.83947438203965
 20
30.40495351618063
 30
0.0
  0
VERTEX
  5
739
330
736
100
AcDbEntity
  8
DIBUJOS
 62
     7
100
AcDbVertex
100
AcDb2dVertex
 10
66.90051193753877
 20
30.92541728037014
 30
0.0
  0
VERTEX
  5
73A
330
736
100
AcDbEntity
  8
DIBUJOS
 62
     7
100
AcDbVertex
100
AcDb2dVertex
 10
66.90623385277881
 20
31.04000532641512
 30
0.0
  0
VERTEX
  5
73B
330
736
100
AcDbEntity
  8
DIBUJOS
 62
     7
100
AcDbVertex
100
AcDb2dVertex
 10
66.91545231338307
 20
31.18525454751144
 30
0.0
  0
VERTEX
  5
73C
330
736
100
AcDbEntity
  8
DIBUJOS
 62
     7
100
AcDbVertex
100
AcDb2dVertex
 10
66.91545231338307
 20
31.44523338785223
 30
0.0
  0
VERTEX
  5
73D
330
736
100
AcDbEntity
  8
DIBUJOS
 62
     7
100
AcDbVertex
100
AcDb2dVertex
 10
66.90651832299648
 20
31.59626758280007
 30
0.0
  0
VERTEX
  5
73E
330
736
100
AcDbEntity
  8
DIBUJOS
 62
     7
100
AcDbVertex
100
AcDb2dVertex
 10
66.89464209778482
 20
31.77145058561157
 30
0.0
  0
VERTEX
  5
73F
330
736
100
AcDbEntity
  8
DIBUJOS
 62
     7
100
AcDbVertex
100
AcDb2dVertex
 10
66.83343386015537
 20
32.2739020078707
 30
0.0
  0
VERTEX
  5
740
330
736
100
AcDbEntity
  8
DIBUJOS
 62
     7
100
AcDbVertex
100
AcDb2dVertex
 10
66.81881859313127
 20
32.37027592949455
 30
0.0
  0
SEQEND
  5
741
330
736
100
AcDbEntity
  8
DIBUJOS
 62
     7
  0
POLYLINE
  5
742
330
4F8
100
AcDbEntity
  8
DIBUJOS
 62
     7
100
AcDb2dPolyline
 66
     1
 10
0.0
 20
0.0
 30
0.0
  0
VERTEX
  5
743
330
742
100
AcDbEntity
  8
DIBUJOS
 62
     7
100
AcDbVertex
100
AcDb2dVertex
 10
66.82485748947124
 20
30.30253262892261
 30
0.0
  0
VERTEX
  5
744
330
742
100
AcDbEntity
  8
DIBUJOS
 62
     7
100
AcDbVertex
100
AcDb2dVertex
 10
66.82485748947124
 20
30.30857959455743
 30
0.0
  0
SEQEND
  5
745
330
742
100
AcDbEntity
  8
DIBUJOS
 62
     7
  0
POLYLINE
  5
746
330
4F8
100
AcDbEntity
  8
DIBUJOS
 62
     7
100
AcDb2dPolyline
 66
     1
 10
0.0
 20
0.0
 30
0.0
  0
VERTEX
  5
747
330
746
100
AcDbEntity
  8
DIBUJOS
 62
     7
100
AcDbVertex
100
AcDb2dVertex
 10
66.83089801135553
 20
30.30253262892261
 30
0.0
  0
VERTEX
  5
748
330
746
100
AcDbEntity
  8
DIBUJOS
 62
     7
100
AcDbVertex
100
AcDb2dVertex
 10
66.82485748947124
 20
30.30253262892261
 30
0.0
  0
SEQEND
  5
749
330
746
100
AcDbEntity
  8
DIBUJOS
 62
     7
  0
POLYLINE
  5
74A
330
4F8
100
AcDbEntity
  8
DIBUJOS
 62
     7
100
AcDb2dPolyline
 66
     1
 10
0.0
 20
0.0
 30
0.0
  0
VERTEX
  5
74B
330
74A
100
AcDbEntity
  8
DIBUJOS
 62
     7
100
AcDbVertex
100
AcDb2dVertex
 10
66.84297742958013
 20
30.30253262892261
 30
0.0
  0
VERTEX
  5
74C
330
74A
100
AcDbEntity
  8
DIBUJOS
 62
     7
100
AcDbVertex
100
AcDb2dVertex
 10
66.88757748311592
 20
30.49554083667477
 30
0.0
  0
VERTEX
  5
74D
330
74A
100
AcDbEntity
  8
DIBUJOS
 62
     7
100
AcDbVertex
100
AcDb2dVertex
 10
66.92492923549993
 20
30.71398828387027
 30
0.0
  0
VERTEX
  5
74E
330
74A
100
AcDbEntity
  8
DIBUJOS
 62
     7
100
AcDbVertex
100
AcDb2dVertex
 10
66.93610647674748
 20
30.79794444587045
 30
0.0
  0
VERTEX
  5
74F
330
74A
100
AcDbEntity
  8
DIBUJOS
 62
     7
100
AcDbVertex
100
AcDb2dVertex
 10
66.96051889807669
 20
31.07622528365393
 30
0.0
  0
VERTEX
  5
750
330
74A
100
AcDbEntity
  8
DIBUJOS
 62
     7
100
AcDbVertex
100
AcDb2dVertex
 10
66.96980888262142
 20
31.28803669052092
 30
0.0
  0
VERTEX
  5
751
330
74A
100
AcDbEntity
  8
DIBUJOS
 62
     7
100
AcDbVertex
100
AcDb2dVertex
 10
66.96051889807669
 20
31.56635332842366
 30
0.0
  0
VERTEX
  5
752
330
74A
100
AcDbEntity
  8
DIBUJOS
 62
     7
100
AcDbVertex
100
AcDb2dVertex
 10
66.9549400307173
 20
31.64455380757951
 30
0.0
  0
VERTEX
  5
753
330
74A
100
AcDbEntity
  8
DIBUJOS
 62
     7
100
AcDbVertex
100
AcDb2dVertex
 10
66.92499425726383
 20
31.93459986644471
 30
0.0
  0
VERTEX
  5
754
330
74A
100
AcDbEntity
  8
DIBUJOS
 62
     7
100
AcDbVertex
100
AcDb2dVertex
 10
66.87085225984728
 20
32.24284540422745
 30
0.0
  0
VERTEX
  5
755
330
74A
100
AcDbEntity
  8
DIBUJOS
 62
     7
100
AcDbVertex
100
AcDb2dVertex
 10
66.83693690769584
 20
32.382368233486
 30
0.0
  0
SEQEND
  5
756
330
74A
100
AcDbEntity
  8
DIBUJOS
 62
     7
  0
POLYLINE
  5
757
330
4F8
100
AcDbEntity
  8
DIBUJOS
 62
     7
100
AcDb2dPolyline
 66
     1
 10
0.0
 20
0.0
 30
0.0
  0
VERTEX
  5
758
330
757
100
AcDbEntity
  8
DIBUJOS
 62
     7
100
AcDbVertex
100
AcDb2dVertex
 10
66.82485748947124
 20
30.29648729056533
 30
0.0
  0
VERTEX
  5
759
330
757
100
AcDbEntity
  8
DIBUJOS
 62
     7
100
AcDbVertex
100
AcDb2dVertex
 10
66.82485748947124
 20
30.30253262892261
 30
0.0
  0
SEQEND
  5
75A
330
757
100
AcDbEntity
  8
DIBUJOS
 62
     7
  0
POLYLINE
  5
75B
330
4F8
100
AcDbEntity
  8
DIBUJOS
 62
     7
100
AcDb2dPolyline
 66
     1
 10
0.0
 20
0.0
 30
0.0
  0
VERTEX
  5
75C
330
75B
100
AcDbEntity
  8
DIBUJOS
 62
     7
100
AcDbVertex
100
AcDb2dVertex
 10
66.83693690769584
 20
30.29648729056533
 30
0.0
  0
VERTEX
  5
75D
330
75B
100
AcDbEntity
  8
DIBUJOS
 62
     7
100
AcDbVertex
100
AcDb2dVertex
 10
66.83089801135553
 20
30.30253262892261
 30
0.0
  0
SEQEND
  5
75E
330
75B
100
AcDbEntity
  8
DIBUJOS
 62
     7
  0
POLYLINE
  5
75F
330
4F8
100
AcDbEntity
  8
DIBUJOS
 62
     7
100
AcDb2dPolyline
 66
     1
 10
0.0
 20
0.0
 30
0.0
  0
VERTEX
  5
760
330
75F
100
AcDbEntity
  8
DIBUJOS
 62
     7
100
AcDbVertex
100
AcDb2dVertex
 10
66.84297742958013
 20
30.29648729056533
 30
0.0
  0
VERTEX
  5
761
330
75F
100
AcDbEntity
  8
DIBUJOS
 62
     7
100
AcDbVertex
100
AcDb2dVertex
 10
66.83693690769584
 20
30.29648729056533
 30
0.0
  0
SEQEND
  5
762
330
75F
100
AcDbEntity
  8
DIBUJOS
 62
     7
  0
POLYLINE
  5
763
330
4F8
100
AcDbEntity
  8
DIBUJOS
 62
     7
100
AcDb2dPolyline
 66
     1
 10
0.0
 20
0.0
 30
0.0
  0
VERTEX
  5
764
330
763
100
AcDbEntity
  8
DIBUJOS
 62
     7
100
AcDbVertex
100
AcDb2dVertex
 10
66.84297742958013
 20
30.29648729056533
 30
0.0
  0
VERTEX
  5
765
330
763
100
AcDbEntity
  8
DIBUJOS
 62
     7
100
AcDbVertex
100
AcDb2dVertex
 10
66.84297742958013
 20
30.30253262892261
 30
0.0
  0
SEQEND
  5
766
330
763
100
AcDbEntity
  8
DIBUJOS
 62
     7
  0
POLYLINE
  5
767
330
4F8
100
AcDbEntity
  8
DIBUJOS
 62
     7
100
AcDb2dPolyline
 66
     1
 10
0.0
 20
0.0
 30
0.0
  0
VERTEX
  5
768
330
767
100
AcDbEntity
  8
DIBUJOS
 62
     7
100
AcDbVertex
100
AcDb2dVertex
 10
66.84297742958013
 20
30.29044032493051
 30
0.0
  0
VERTEX
  5
769
330
767
100
AcDbEntity
  8
DIBUJOS
 62
     7
100
AcDbVertex
100
AcDb2dVertex
 10
66.84297742958013
 20
30.29648729056533
 30
0.0
  0
SEQEND
  5
76A
330
767
100
AcDbEntity
  8
DIBUJOS
 62
     7
  0
POLYLINE
  5
76B
330
4F8
100
AcDbEntity
  8
DIBUJOS
 62
     7
100
AcDb2dPolyline
 66
     1
 10
0.0
 20
0.0
 30
0.0
  0
VERTEX
  5
76C
330
76B
100
AcDbEntity
  8
DIBUJOS
 62
     7
100
AcDbVertex
100
AcDb2dVertex
 10
62.40387819867722
 20
30.27834964821723
 30
0.0
  0
VERTEX
  5
76D
330
76B
100
AcDbEntity
  8
DIBUJOS
 62
     7
100
AcDbVertex
100
AcDb2dVertex
 10
62.38935071103474
 20
30.39281564840085
 30
0.0
  0
VERTEX
  5
76E
330
76B
100
AcDbEntity
  8
DIBUJOS
 62
     7
100
AcDbVertex
100
AcDb2dVertex
 10
62.33479094878344
 20
30.84638038024025
 30
0.0
  0
VERTEX
  5
76F
330
76B
100
AcDbEntity
  8
DIBUJOS
 62
     7
100
AcDbVertex
100
AcDb2dVertex
 10
62.31932389664969
 20
31.00387324219722
 30
0.0
  0
VERTEX
  5
770
330
76B
100
AcDbEntity
  8
DIBUJOS
 62
     7
100
AcDbVertex
100
AcDb2dVertex
 10
62.31038502963115
 20
31.34256189975815
 30
0.0
  0
VERTEX
  5
771
330
76B
100
AcDbEntity
  8
DIBUJOS
 62
     7
100
AcDbVertex
100
AcDb2dVertex
 10
62.32818311200749
 20
31.72922109013538
 30
0.0
  0
VERTEX
  5
772
330
76B
100
AcDbEntity
  8
DIBUJOS
 62
     7
100
AcDbVertex
100
AcDb2dVertex
 10
62.38829573291216
 20
32.23690095711651
 30
0.0
  0
VERTEX
  5
773
330
76B
100
AcDbEntity
  8
DIBUJOS
 62
     7
100
AcDbVertex
100
AcDb2dVertex
 10
62.39783930233724
 20
32.30377069845944
 30
0.0
  0
SEQEND
  5
774
330
76B
100
AcDbEntity
  8
DIBUJOS
 62
     7
  0
POLYLINE
  5
775
330
4F8
100
AcDbEntity
  8
DIBUJOS
 62
     7
100
AcDb2dPolyline
 66
     1
 10
0.0
 20
0.0
 30
0.0
  0
VERTEX
  5
776
330
775
100
AcDbEntity
  8
DIBUJOS
 62
     7
100
AcDbVertex
100
AcDb2dVertex
 10
62.38575988411264
 20
30.27230268258241
 30
0.0
  0
VERTEX
  5
777
330
775
100
AcDbEntity
  8
DIBUJOS
 62
     7
100
AcDbVertex
100
AcDb2dVertex
 10
62.35788505384549
 20
30.38764253113686
 30
0.0
  0
VERTEX
  5
778
330
775
100
AcDbEntity
  8
DIBUJOS
 62
     7
100
AcDbVertex
100
AcDb2dVertex
 10
62.3532392488008
 20
30.41089633601339
 30
0.0
  0
VERTEX
  5
779
330
775
100
AcDbEntity
  8
DIBUJOS
 62
     7
100
AcDbVertex
100
AcDb2dVertex
 10
62.29781632263165
 20
30.73209663521118
 30
0.0
  0
VERTEX
  5
77A
330
775
100
AcDbEntity
  8
DIBUJOS
 62
     7
100
AcDbVertex
100
AcDb2dVertex
 10
62.29251379776968
 20
30.77987514920514
 30
0.0
  0
VERTEX
  5
77B
330
775
100
AcDbEntity
  8
DIBUJOS
 62
     7
100
AcDbVertex
100
AcDb2dVertex
 10
62.26786242145761
 20
31.06444867162498
 30
0.0
  0
VERTEX
  5
77C
330
775
100
AcDbEntity
  8
DIBUJOS
 62
     7
100
AcDbVertex
100
AcDb2dVertex
 10
62.26207385890903
 20
31.20932199146689
 30
0.0
  0
VERTEX
  5
77D
330
775
100
AcDbEntity
  8
DIBUJOS
 62
     7
100
AcDbVertex
100
AcDb2dVertex
 10
62.25892843107135
 20
31.42709574550478
 30
0.0
  0
VERTEX
  5
77E
330
775
100
AcDbEntity
  8
DIBUJOS
 62
     7
100
AcDbVertex
100
AcDb2dVertex
 10
62.26786242145761
 20
31.57812994045262
 30
0.0
  0
VERTEX
  5
77F
330
775
100
AcDbEntity
  8
DIBUJOS
 62
     7
100
AcDbVertex
100
AcDb2dVertex
 10
62.29177742629134
 20
31.84397674583131
 30
0.0
  0
VERTEX
  5
780
330
775
100
AcDbEntity
  8
DIBUJOS
 62
     7
100
AcDbVertex
100
AcDb2dVertex
 10
62.29776755630855
 20
31.89231341623296
 30
0.0
  0
VERTEX
  5
781
330
775
100
AcDbEntity
  8
DIBUJOS
 62
     7
100
AcDbVertex
100
AcDb2dVertex
 10
62.3458056356209
 20
32.16424624192271
 30
0.0
  0
VERTEX
  5
782
330
775
100
AcDbEntity
  8
DIBUJOS
 62
     7
100
AcDbVertex
100
AcDb2dVertex
 10
62.37971936222803
 20
32.30981603681543
 30
0.0
  0
SEQEND
  5
783
330
775
100
AcDbEntity
  8
DIBUJOS
 62
     7
  0
POLYLINE
  5
784
330
4F8
100
AcDbEntity
  8
DIBUJOS
 62
     7
100
AcDb2dPolyline
 66
     1
 10
0.0
 20
0.0
 30
0.0
  0
VERTEX
  5
785
330
784
100
AcDbEntity
  8
DIBUJOS
 62
     7
100
AcDbVertex
100
AcDb2dVertex
 10
62.40387819867722
 20
30.27230268258241
 30
0.0
  0
VERTEX
  5
786
330
784
100
AcDbEntity
  8
DIBUJOS
 62
     7
100
AcDbVertex
100
AcDb2dVertex
 10
62.39783930233724
 20
30.27230268258241
 30
0.0
  0
SEQEND
  5
787
330
784
100
AcDbEntity
  8
DIBUJOS
 62
     7
  0
POLYLINE
  5
788
330
4F8
100
AcDbEntity
  8
DIBUJOS
 62
     7
100
AcDb2dPolyline
 66
     1
 10
0.0
 20
0.0
 30
0.0
  0
VERTEX
  5
789
330
788
100
AcDbEntity
  8
DIBUJOS
 62
     7
100
AcDbVertex
100
AcDb2dVertex
 10
62.40387819867722
 20
30.27230268258241
 30
0.0
  0
VERTEX
  5
78A
330
788
100
AcDbEntity
  8
DIBUJOS
 62
     7
100
AcDbVertex
100
AcDb2dVertex
 10
62.40387819867722
 20
30.27834964821723
 30
0.0
  0
SEQEND
  5
78B
330
788
100
AcDbEntity
  8
DIBUJOS
 62
     7
  0
POLYLINE
  5
78C
330
4F8
100
AcDbEntity
  8
DIBUJOS
 62
     7
100
AcDb2dPolyline
 66
     1
 10
0.0
 20
0.0
 30
0.0
  0
VERTEX
  5
78D
330
78C
100
AcDbEntity
  8
DIBUJOS
 62
     7
100
AcDbVertex
100
AcDb2dVertex
 10
66.82485748947124
 20
30.27230268258241
 30
0.0
  0
VERTEX
  5
78E
330
78C
100
AcDbEntity
  8
DIBUJOS
 62
     7
100
AcDbVertex
100
AcDb2dVertex
 10
66.81881859313127
 20
30.27834964821723
 30
0.0
  0
VERTEX
  5
78F
330
78C
100
AcDbEntity
  8
DIBUJOS
 62
     7
100
AcDbVertex
100
AcDb2dVertex
 10
66.82364971020344
 20
30.29104567240532
 30
0.0
  0
VERTEX
  5
790
330
78C
100
AcDbEntity
  8
DIBUJOS
 62
     7
100
AcDbVertex
100
AcDb2dVertex
 10
66.82485748947124
 20
30.29648729056533
 30
0.0
  0
SEQEND
  5
791
330
78C
100
AcDbEntity
  8
DIBUJOS
 62
     7
  0
POLYLINE
  5
792
330
4F8
100
AcDbEntity
  8
DIBUJOS
 62
     7
100
AcDb2dPolyline
 66
     1
 10
0.0
 20
0.0
 30
0.0
  0
VERTEX
  5
793
330
792
100
AcDbEntity
  8
DIBUJOS
 62
     7
100
AcDbVertex
100
AcDb2dVertex
 10
62.38575988411264
 20
30.26625734422577
 30
0.0
  0
VERTEX
  5
794
330
792
100
AcDbEntity
  8
DIBUJOS
 62
     7
100
AcDbVertex
100
AcDb2dVertex
 10
62.38575988411264
 20
30.27230268258241
 30
0.0
  0
SEQEND
  5
795
330
792
100
AcDbEntity
  8
DIBUJOS
 62
     7
  0
POLYLINE
  5
796
330
4F8
100
AcDbEntity
  8
DIBUJOS
 62
     7
100
AcDb2dPolyline
 66
     1
 10
0.0
 20
0.0
 30
0.0
  0
VERTEX
  5
797
330
796
100
AcDbEntity
  8
DIBUJOS
 62
     7
100
AcDbVertex
100
AcDb2dVertex
 10
62.39179878045262
 20
30.26625734422577
 30
0.0
  0
VERTEX
  5
798
330
796
100
AcDbEntity
  8
DIBUJOS
 62
     7
100
AcDbVertex
100
AcDb2dVertex
 10
62.38575988411264
 20
30.26625734422577
 30
0.0
  0
SEQEND
  5
799
330
796
100
AcDbEntity
  8
DIBUJOS
 62
     7
  0
POLYLINE
  5
79A
330
4F8
100
AcDbEntity
  8
DIBUJOS
 62
     7
100
AcDb2dPolyline
 66
     1
 10
0.0
 20
0.0
 30
0.0
  0
VERTEX
  5
79B
330
79A
100
AcDbEntity
  8
DIBUJOS
 62
     7
100
AcDbVertex
100
AcDb2dVertex
 10
62.39179878045262
 20
30.26625734422577
 30
0.0
  0
VERTEX
  5
79C
330
79A
100
AcDbEntity
  8
DIBUJOS
 62
     7
100
AcDbVertex
100
AcDb2dVertex
 10
62.39783930233724
 20
30.27230268258241
 30
0.0
  0
SEQEND
  5
79D
330
79A
100
AcDbEntity
  8
DIBUJOS
 62
     7
  0
POLYLINE
  5
79E
330
4F8
100
AcDbEntity
  8
DIBUJOS
 62
     7
100
AcDb2dPolyline
 66
     1
 10
0.0
 20
0.0
 30
0.0
  0
VERTEX
  5
79F
330
79E
100
AcDbEntity
  8
DIBUJOS
 62
     7
100
AcDbVertex
100
AcDb2dVertex
 10
66.82485748947124
 20
30.26625734422577
 30
0.0
  0
VERTEX
  5
7A0
330
79E
100
AcDbEntity
  8
DIBUJOS
 62
     7
100
AcDbVertex
100
AcDb2dVertex
 10
66.82485748947124
 20
30.27230268258241
 30
0.0
  0
SEQEND
  5
7A1
330
79E
100
AcDbEntity
  8
DIBUJOS
 62
     7
  0
POLYLINE
  5
7A2
330
4F8
100
AcDbEntity
  8
DIBUJOS
 62
     7
100
AcDb2dPolyline
 66
     1
 10
0.0
 20
0.0
 30
0.0
  0
VERTEX
  5
7A3
330
7A2
100
AcDbEntity
  8
DIBUJOS
 62
     7
100
AcDbVertex
100
AcDb2dVertex
 10
66.83089801135553
 20
30.26625734422577
 30
0.0
  0
VERTEX
  5
7A4
330
7A2
100
AcDbEntity
  8
DIBUJOS
 62
     7
100
AcDbVertex
100
AcDb2dVertex
 10
66.82485748947124
 20
30.26625734422577
 30
0.0
  0
SEQEND
  5
7A5
330
7A2
100
AcDbEntity
  8
DIBUJOS
 62
     7
  0
POLYLINE
  5
7A6
330
4F8
100
AcDbEntity
  8
DIBUJOS
 62
     7
100
AcDb2dPolyline
 66
     1
 10
0.0
 20
0.0
 30
0.0
  0
VERTEX
  5
7A7
330
7A6
100
AcDbEntity
  8
DIBUJOS
 62
     7
100
AcDbVertex
100
AcDb2dVertex
 10
66.83089801135553
 20
30.26625734422577
 30
0.0
  0
VERTEX
  5
7A8
330
7A6
100
AcDbEntity
  8
DIBUJOS
 62
     7
100
AcDbVertex
100
AcDb2dVertex
 10
66.84297742958013
 20
30.29044032493051
 30
0.0
  0
SEQEND
  5
7A9
330
7A6
100
AcDbEntity
  8
DIBUJOS
 62
     7
  0
POLYLINE
  5
7AA
330
4F8
100
AcDbEntity
  8
DIBUJOS
 62
     7
100
AcDb2dPolyline
 66
     1
 10
0.0
 20
0.0
 30
0.0
  0
VERTEX
  5
7AB
330
7AA
100
AcDbEntity
  8
DIBUJOS
 62
     7
100
AcDbVertex
100
AcDb2dVertex
 10
62.38575988411264
 20
30.26021037859159
 30
0.0
  0
VERTEX
  5
7AC
330
7AA
100
AcDbEntity
  8
DIBUJOS
 62
     7
100
AcDbVertex
100
AcDb2dVertex
 10
62.38575988411264
 20
30.26625734422577
 30
0.0
  0
SEQEND
  5
7AD
330
7AA
100
AcDbEntity
  8
DIBUJOS
 62
     7
  0
POLYLINE
  5
7AE
330
4F8
100
AcDbEntity
  8
DIBUJOS
 62
     7
100
AcDb2dPolyline
 66
     1
 10
0.0
 20
0.0
 30
0.0
  0
VERTEX
  5
7AF
330
7AE
100
AcDbEntity
  8
DIBUJOS
 62
     7
100
AcDbVertex
100
AcDb2dVertex
 10
66.82485748947124
 20
30.26021037859159
 30
0.0
  0
VERTEX
  5
7B0
330
7AE
100
AcDbEntity
  8
DIBUJOS
 62
     7
100
AcDbVertex
100
AcDb2dVertex
 10
66.82485748947124
 20
30.26625734422577
 30
0.0
  0
SEQEND
  5
7B1
330
7AE
100
AcDbEntity
  8
DIBUJOS
 62
     7
  0
POLYLINE
  5
7B2
330
4F8
100
AcDbEntity
  8
DIBUJOS
 62
     7
100
AcDb2dPolyline
 66
     1
 10
0.0
 20
0.0
 30
0.0
  0
VERTEX
  5
7B3
330
7B2
100
AcDbEntity
  8
DIBUJOS
 62
     7
100
AcDbVertex
100
AcDb2dVertex
 10
62.40387819867722
 20
30.23602739788686
 30
0.0
  0
VERTEX
  5
7B4
330
7B2
100
AcDbEntity
  8
DIBUJOS
 62
     7
100
AcDbVertex
100
AcDb2dVertex
 10
62.40991709501753
 20
30.2420727362435
 30
0.0
  0
VERTEX
  5
7B5
330
7B2
100
AcDbEntity
  8
DIBUJOS
 62
     7
100
AcDbVertex
100
AcDb2dVertex
 10
62.40991709501753
 20
30.26625734422577
 30
0.0
  0
VERTEX
  5
7B6
330
7B2
100
AcDbEntity
  8
DIBUJOS
 62
     7
100
AcDbVertex
100
AcDb2dVertex
 10
62.40387819867722
 20
30.27230268258241
 30
0.0
  0
SEQEND
  5
7B7
330
7B2
100
AcDbEntity
  8
DIBUJOS
 62
     7
  0
POLYLINE
  5
7B8
330
4F8
100
AcDbEntity
  8
DIBUJOS
 62
     7
100
AcDb2dPolyline
 66
     1
 10
0.0
 20
0.0
 30
0.0
  0
VERTEX
  5
7B9
330
7B8
100
AcDbEntity
  8
DIBUJOS
 62
     7
100
AcDbVertex
100
AcDb2dVertex
 10
62.39783930233724
 20
30.22998043225204
 30
0.0
  0
VERTEX
  5
7BA
330
7B8
100
AcDbEntity
  8
DIBUJOS
 62
     7
100
AcDbVertex
100
AcDb2dVertex
 10
62.38575988411264
 20
30.26021037859159
 30
0.0
  0
SEQEND
  5
7BB
330
7B8
100
AcDbEntity
  8
DIBUJOS
 62
     7
  0
POLYLINE
  5
7BC
330
4F8
100
AcDbEntity
  8
DIBUJOS
 62
     7
100
AcDb2dPolyline
 66
     1
 10
0.0
 20
0.0
 30
0.0
  0
VERTEX
  5
7BD
330
7BC
100
AcDbEntity
  8
DIBUJOS
 62
     7
100
AcDbVertex
100
AcDb2dVertex
 10
62.40387819867722
 20
30.22998043225204
 30
0.0
  0
VERTEX
  5
7BE
330
7BC
100
AcDbEntity
  8
DIBUJOS
 62
     7
100
AcDbVertex
100
AcDb2dVertex
 10
62.39783930233724
 20
30.22998043225204
 30
0.0
  0
SEQEND
  5
7BF
330
7BC
100
AcDbEntity
  8
DIBUJOS
 62
     7
  0
POLYLINE
  5
7C0
330
4F8
100
AcDbEntity
  8
DIBUJOS
 62
     7
100
AcDb2dPolyline
 66
     1
 10
0.0
 20
0.0
 30
0.0
  0
VERTEX
  5
7C1
330
7C0
100
AcDbEntity
  8
DIBUJOS
 62
     7
100
AcDbVertex
100
AcDb2dVertex
 10
62.40387819867722
 20
30.22998043225204
 30
0.0
  0
VERTEX
  5
7C2
330
7C0
100
AcDbEntity
  8
DIBUJOS
 62
     7
100
AcDbVertex
100
AcDb2dVertex
 10
62.40387819867722
 20
30.23602739788686
 30
0.0
  0
SEQEND
  5
7C3
330
7C0
100
AcDbEntity
  8
DIBUJOS
 62
     7
  0
POLYLINE
  5
7C4
330
4F8
100
AcDbEntity
  8
DIBUJOS
 62
     7
100
AcDb2dPolyline
 66
     1
 10
0.0
 20
0.0
 30
0.0
  0
VERTEX
  5
7C5
330
7C4
100
AcDbEntity
  8
DIBUJOS
 62
     7
100
AcDbVertex
100
AcDb2dVertex
 10
62.40387819867722
 20
30.2239350938954
 30
0.0
  0
VERTEX
  5
7C6
330
7C4
100
AcDbEntity
  8
DIBUJOS
 62
     7
100
AcDbVertex
100
AcDb2dVertex
 10
62.40387819867722
 20
30.22998043225204
 30
0.0
  0
SEQEND
  5
7C7
330
7C4
100
AcDbEntity
  8
DIBUJOS
 62
     7
  0
POLYLINE
  5
7C8
330
4F8
100
AcDbEntity
  8
DIBUJOS
 62
     7
100
AcDb2dPolyline
 66
     1
 10
0.0
 20
0.0
 30
0.0
  0
VERTEX
  5
7C9
330
7C8
100
AcDbEntity
  8
DIBUJOS
 62
     7
100
AcDbVertex
100
AcDb2dVertex
 10
66.64367109273557
 20
30.15742823558212
 30
0.0
  0
VERTEX
  5
7CA
330
7C8
100
AcDbEntity
  8
DIBUJOS
 62
     7
100
AcDbVertex
100
AcDb2dVertex
 10
66.64367109273557
 20
30.16347357393812
 30
0.0
  0
SEQEND
  5
7CB
330
7C8
100
AcDbEntity
  8
DIBUJOS
 62
     7
  0
POLYLINE
  5
7CC
330
4F8
100
AcDbEntity
  8
DIBUJOS
 62
     7
100
AcDb2dPolyline
 66
     1
 10
0.0
 20
0.0
 30
0.0
  0
VERTEX
  5
7CD
330
7CC
100
AcDbEntity
  8
DIBUJOS
 62
     7
100
AcDbVertex
100
AcDb2dVertex
 10
66.84901632592043
 20
30.14533593159066
 30
0.0
  0
VERTEX
  5
7CE
330
7CC
100
AcDbEntity
  8
DIBUJOS
 62
     7
100
AcDbVertex
100
AcDb2dVertex
 10
66.86926735434758
 20
30.22944668501637
 30
0.0
  0
VERTEX
  5
7CF
330
7CC
100
AcDbEntity
  8
DIBUJOS
 62
     7
100
AcDbVertex
100
AcDb2dVertex
 10
66.93103477914813
 20
30.5084614252481
 30
0.0
  0
VERTEX
  5
7D0
330
7CC
100
AcDbEntity
  8
DIBUJOS
 62
     7
100
AcDbVertex
100
AcDb2dVertex
 10
66.95422641685636
 20
30.65888701816477
 30
0.0
  0
VERTEX
  5
7D1
330
7CC
100
AcDbEntity
  8
DIBUJOS
 62
     7
100
AcDbVertex
100
AcDb2dVertex
 10
66.98513776350647
 20
30.91338193111424
 30
0.0
  0
VERTEX
  5
7D2
330
7CC
100
AcDbEntity
  8
DIBUJOS
 62
     7
100
AcDbVertex
100
AcDb2dVertex
 10
67.00604551175122
 20
31.28199135216428
 30
0.0
  0
VERTEX
  5
7D3
330
7CC
100
AcDbEntity
  8
DIBUJOS
 62
     7
100
AcDbVertex
100
AcDb2dVertex
 10
67.00292934370688
 20
31.36672698040294
 30
0.0
  0
VERTEX
  5
7D4
330
7CC
100
AcDbEntity
  8
DIBUJOS
 62
     7
100
AcDbVertex
100
AcDb2dVertex
 10
66.99708388711463
 20
31.55397136891989
 30
0.0
  0
VERTEX
  5
7D5
330
7CC
100
AcDbEntity
  8
DIBUJOS
 62
     7
100
AcDbVertex
100
AcDb2dVertex
 10
66.98513776350647
 20
31.72919668096272
 30
0.0
  0
VERTEX
  5
7D6
330
7CC
100
AcDbEntity
  8
DIBUJOS
 62
     7
100
AcDbVertex
100
AcDb2dVertex
 10
66.95519199005334
 20
31.97692211677508
 30
0.0
  0
VERTEX
  5
7D7
330
7CC
100
AcDbEntity
  8
DIBUJOS
 62
     7
100
AcDbVertex
100
AcDb2dVertex
 10
66.94818589497207
 20
32.01996850588591
 30
0.0
  0
VERTEX
  5
7D8
330
7CC
100
AcDbEntity
  8
DIBUJOS
 62
     7
100
AcDbVertex
100
AcDb2dVertex
 10
66.9253990177454
 20
32.139993288257
 30
0.0
  0
VERTEX
  5
7D9
330
7CC
100
AcDbEntity
  8
DIBUJOS
 62
     7
100
AcDbVertex
100
AcDb2dVertex
 10
66.91545231338307
 20
32.16471164347558
 30
0.0
  0
SEQEND
  5
7DA
330
7CC
100
AcDbEntity
  8
DIBUJOS
 62
     7
  0
POLYLINE
  5
7DB
330
4F8
100
AcDbEntity
  8
DIBUJOS
 62
     7
100
AcDb2dPolyline
 66
     1
 10
0.0
 20
0.0
 30
0.0
  0
VERTEX
  5
7DC
330
7DB
100
AcDbEntity
  8
DIBUJOS
 62
     7
100
AcDbVertex
100
AcDb2dVertex
 10
66.60743283806212
 20
30.1332436275992
 30
0.0
  0
VERTEX
  5
7DD
330
7DB
100
AcDbEntity
  8
DIBUJOS
 62
     7
100
AcDbVertex
100
AcDb2dVertex
 10
66.6134717344021
 20
30.18161284356439
 30
0.0
  0
SEQEND
  5
7DE
330
7DB
100
AcDbEntity
  8
DIBUJOS
 62
     7
  0
POLYLINE
  5
7DF
330
4F8
100
AcDbEntity
  8
DIBUJOS
 62
     7
100
AcDb2dPolyline
 66
     1
 10
0.0
 20
0.0
 30
0.0
  0
VERTEX
  5
7E0
330
7DF
100
AcDbEntity
  8
DIBUJOS
 62
     7
100
AcDbVertex
100
AcDb2dVertex
 10
66.63159167451131
 20
30.11510598525111
 30
0.0
  0
VERTEX
  5
7E1
330
7DF
100
AcDbEntity
  8
DIBUJOS
 62
     7
100
AcDbVertex
100
AcDb2dVertex
 10
66.60743283806212
 20
30.1332436275992
 30
0.0
  0
SEQEND
  5
7E2
330
7DF
100
AcDbEntity
  8
DIBUJOS
 62
     7
  0
POLYLINE
  5
7E3
330
4F8
100
AcDbEntity
  8
DIBUJOS
 62
     7
100
AcDb2dPolyline
 66
     1
 10
0.0
 20
0.0
 30
0.0
  0
VERTEX
  5
7E4
330
7E3
100
AcDbEntity
  8
DIBUJOS
 62
     7
100
AcDbVertex
100
AcDb2dVertex
 10
62.64546168653521
 20
30.09092137726819
 30
0.0
  0
VERTEX
  5
7E5
330
7E3
100
AcDbEntity
  8
DIBUJOS
 62
     7
100
AcDbVertex
100
AcDb2dVertex
 10
62.64123364632526
 20
30.09757206309965
 30
0.0
  0
VERTEX
  5
7E6
330
7E3
100
AcDbEntity
  8
DIBUJOS
 62
     7
100
AcDbVertex
100
AcDb2dVertex
 10
62.61771202316424
 20
30.15783668239943
 30
0.0
  0
VERTEX
  5
7E7
330
7E3
100
AcDbEntity
  8
DIBUJOS
 62
     7
100
AcDbVertex
100
AcDb2dVertex
 10
62.61526395374636
 20
30.18765818192103
 30
0.0
  0
SEQEND
  5
7E8
330
7E3
100
AcDbEntity
  8
DIBUJOS
 62
     7
  0
POLYLINE
  5
7E9
330
4F8
100
AcDbEntity
  8
DIBUJOS
 62
     7
100
AcDb2dPolyline
 66
     1
 10
0.0
 20
0.0
 30
0.0
  0
VERTEX
  5
7EA
330
7E9
100
AcDbEntity
  8
DIBUJOS
 62
     7
100
AcDbVertex
100
AcDb2dVertex
 10
66.57119458338866
 20
30.07278373492009
 30
0.0
  0
VERTEX
  5
7EB
330
7E9
100
AcDbEntity
  8
DIBUJOS
 62
     7
100
AcDbVertex
100
AcDb2dVertex
 10
66.60743283806212
 20
30.1332436275992
 30
0.0
  0
SEQEND
  5
7EC
330
7E9
100
AcDbEntity
  8
DIBUJOS
 62
     7
  0
POLYLINE
  5
7ED
330
4F8
100
AcDbEntity
  8
DIBUJOS
 62
     7
100
AcDb2dPolyline
 66
     1
 10
0.0
 20
0.0
 30
0.0
  0
VERTEX
  5
7EE
330
7ED
100
AcDbEntity
  8
DIBUJOS
 62
     7
100
AcDbVertex
100
AcDb2dVertex
 10
62.62130285008634
 20
30.06069143092864
 30
0.0
  0
VERTEX
  5
7EF
330
7ED
100
AcDbEntity
  8
DIBUJOS
 62
     7
100
AcDbVertex
100
AcDb2dVertex
 10
62.59714563918146
 20
30.10906064689446
 30
0.0
  0
SEQEND
  5
7F0
330
7ED
100
AcDbEntity
  8
DIBUJOS
 62
     7
  0
POLYLINE
  5
7F1
330
4F8
100
AcDbEntity
  8
DIBUJOS
 62
     7
100
AcDb2dPolyline
 66
     1
 10
0.0
 20
0.0
 30
0.0
  0
VERTEX
  5
7F2
330
7F1
100
AcDbEntity
  8
DIBUJOS
 62
     7
100
AcDbVertex
100
AcDb2dVertex
 10
66.58327400161325
 20
30.02441614623308
 30
0.0
  0
VERTEX
  5
7F3
330
7F1
100
AcDbEntity
  8
DIBUJOS
 62
     7
100
AcDbVertex
100
AcDb2dVertex
 10
66.58931452349722
 20
30.03046148458972
 30
0.0
  0
SEQEND
  5
7F4
330
7F1
100
AcDbEntity
  8
DIBUJOS
 62
     7
  0
POLYLINE
  5
7F5
330
4F8
100
AcDbEntity
  8
DIBUJOS
 62
     7
100
AcDb2dPolyline
 66
     1
 10
0.0
 20
0.0
 30
0.0
  0
VERTEX
  5
7F6
330
7F5
100
AcDbEntity
  8
DIBUJOS
 62
     7
100
AcDbVertex
100
AcDb2dVertex
 10
66.53495795425918
 20
30.01232384224162
 30
0.0
  0
VERTEX
  5
7F7
330
7F5
100
AcDbEntity
  8
DIBUJOS
 62
     7
100
AcDbVertex
100
AcDb2dVertex
 10
66.54099685059948
 20
30.01836918059826
 30
0.0
  0
SEQEND
  5
7F8
330
7F5
100
AcDbEntity
  8
DIBUJOS
 62
     7
  0
POLYLINE
  5
7F9
330
4F8
100
AcDbEntity
  8
DIBUJOS
 62
     7
100
AcDb2dPolyline
 66
     1
 10
0.0
 20
0.0
 30
0.0
  0
VERTEX
  5
7FA
330
7F9
100
AcDbEntity
  8
DIBUJOS
 62
     7
100
AcDbVertex
100
AcDb2dVertex
 10
62.46427366425588
 20
30.00023153825017
 30
0.0
  0
VERTEX
  5
7FB
330
7F9
100
AcDbEntity
  8
DIBUJOS
 62
     7
100
AcDbVertex
100
AcDb2dVertex
 10
62.44736312895911
 20
30.04315913605535
 30
0.0
  0
VERTEX
  5
7FC
330
7F9
100
AcDbEntity
  8
DIBUJOS
 62
     7
100
AcDbVertex
100
AcDb2dVertex
 10
62.41382652858355
 20
30.17503375797208
 30
0.0
  0
VERTEX
  5
7FD
330
7F9
100
AcDbEntity
  8
DIBUJOS
 62
     7
100
AcDbVertex
100
AcDb2dVertex
 10
62.40387819867722
 20
30.2239350938954
 30
0.0
  0
SEQEND
  5
7FE
330
7F9
100
AcDbEntity
  8
DIBUJOS
 62
     7
  0
POLYLINE
  5
7FF
330
4F8
100
AcDbEntity
  8
DIBUJOS
 62
     7
100
AcDb2dPolyline
 66
     1
 10
0.0
 20
0.0
 30
0.0
  0
VERTEX
  5
800
330
7FF
100
AcDbEntity
  8
DIBUJOS
 62
     7
100
AcDbVertex
100
AcDb2dVertex
 10
62.47031418614017
 20
30.00023153825017
 30
0.0
  0
VERTEX
  5
801
330
7FF
100
AcDbEntity
  8
DIBUJOS
 62
     7
100
AcDbVertex
100
AcDb2dVertex
 10
62.46427366425588
 20
30.00023153825017
 30
0.0
  0
SEQEND
  5
802
330
7FF
100
AcDbEntity
  8
DIBUJOS
 62
     7
  0
POLYLINE
  5
803
330
4F8
100
AcDbEntity
  8
DIBUJOS
 62
     7
100
AcDb2dPolyline
 66
     1
 10
0.0
 20
0.0
 30
0.0
  0
VERTEX
  5
804
330
803
100
AcDbEntity
  8
DIBUJOS
 62
     7
100
AcDbVertex
100
AcDb2dVertex
 10
66.7584231275526
 20
30.00023153825017
 30
0.0
  0
VERTEX
  5
805
330
803
100
AcDbEntity
  8
DIBUJOS
 62
     7
100
AcDbVertex
100
AcDb2dVertex
 10
66.77171032504499
 20
30.02381079875827
 30
0.0
  0
VERTEX
  5
806
330
803
100
AcDbEntity
  8
DIBUJOS
 62
     7
100
AcDbVertex
100
AcDb2dVertex
 10
66.81033000182845
 20
30.16992898639089
 30
0.0
  0
VERTEX
  5
807
330
803
100
AcDbEntity
  8
DIBUJOS
 62
     7
100
AcDbVertex
100
AcDb2dVertex
 10
66.82485748947124
 20
30.26021037859159
 30
0.0
  0
SEQEND
  5
808
330
803
100
AcDbEntity
  8
DIBUJOS
 62
     7
  0
POLYLINE
  5
809
330
4F8
100
AcDbEntity
  8
DIBUJOS
 62
     7
100
AcDb2dPolyline
 66
     1
 10
0.0
 20
0.0
 30
0.0
  0
VERTEX
  5
80A
330
809
100
AcDbEntity
  8
DIBUJOS
 62
     7
100
AcDbVertex
100
AcDb2dVertex
 10
62.46427366425588
 20
29.99418619989353
 30
0.0
  0
VERTEX
  5
80B
330
809
100
AcDbEntity
  8
DIBUJOS
 62
     7
100
AcDbVertex
100
AcDb2dVertex
 10
62.46427366425588
 20
30.00023153825017
 30
0.0
  0
SEQEND
  5
80C
330
809
100
AcDbEntity
  8
DIBUJOS
 62
     7
  0
POLYLINE
  5
80D
330
4F8
100
AcDbEntity
  8
DIBUJOS
 62
     7
100
AcDb2dPolyline
 66
     1
 10
0.0
 20
0.0
 30
0.0
  0
VERTEX
  5
80E
330
80D
100
AcDbEntity
  8
DIBUJOS
 62
     7
100
AcDbVertex
100
AcDb2dVertex
 10
66.7584231275526
 20
29.99418619989353
 30
0.0
  0
VERTEX
  5
80F
330
80D
100
AcDbEntity
  8
DIBUJOS
 62
     7
100
AcDbVertex
100
AcDb2dVertex
 10
66.75238260566799
 20
29.99418619989353
 30
0.0
  0
SEQEND
  5
810
330
80D
100
AcDbEntity
  8
DIBUJOS
 62
     7
  0
POLYLINE
  5
811
330
4F8
100
AcDbEntity
  8
DIBUJOS
 62
     7
100
AcDb2dPolyline
 66
     1
 10
0.0
 20
0.0
 30
0.0
  0
VERTEX
  5
812
330
811
100
AcDbEntity
  8
DIBUJOS
 62
     7
100
AcDbVertex
100
AcDb2dVertex
 10
66.7584231275526
 20
29.99418619989353
 30
0.0
  0
VERTEX
  5
813
330
811
100
AcDbEntity
  8
DIBUJOS
 62
     7
100
AcDbVertex
100
AcDb2dVertex
 10
66.7584231275526
 20
30.00023153825017
 30
0.0
  0
SEQEND
  5
814
330
811
100
AcDbEntity
  8
DIBUJOS
 62
     7
  0
POLYLINE
  5
815
330
4F8
100
AcDbEntity
  8
DIBUJOS
 62
     7
100
AcDb2dPolyline
 66
     1
 10
0.0
 20
0.0
 30
0.0
  0
VERTEX
  5
816
330
815
100
AcDbEntity
  8
DIBUJOS
 62
     7
100
AcDbVertex
100
AcDb2dVertex
 10
62.48239197882046
 20
29.98813923425871
 30
0.0
  0
VERTEX
  5
817
330
815
100
AcDbEntity
  8
DIBUJOS
 62
     7
100
AcDbVertex
100
AcDb2dVertex
 10
62.47031418614017
 20
30.00023153825017
 30
0.0
  0
SEQEND
  5
818
330
815
100
AcDbEntity
  8
DIBUJOS
 62
     7
  0
POLYLINE
  5
819
330
4F8
100
AcDbEntity
  8
DIBUJOS
 62
     7
100
AcDb2dPolyline
 66
     1
 10
0.0
 20
0.0
 30
0.0
  0
VERTEX
  5
81A
330
819
100
AcDbEntity
  8
DIBUJOS
 62
     7
100
AcDbVertex
100
AcDb2dVertex
 10
62.46427366425588
 20
29.98209389590207
 30
0.0
  0
VERTEX
  5
81B
330
819
100
AcDbEntity
  8
DIBUJOS
 62
     7
100
AcDbVertex
100
AcDb2dVertex
 10
62.45823476791558
 20
29.98813923425871
 30
0.0
  0
VERTEX
  5
81C
330
819
100
AcDbEntity
  8
DIBUJOS
 62
     7
100
AcDbVertex
100
AcDb2dVertex
 10
62.46427366425588
 20
29.99418619989353
 30
0.0
  0
SEQEND
  5
81D
330
819
100
AcDbEntity
  8
DIBUJOS
 62
     7
  0
POLYLINE
  5
81E
330
4F8
100
AcDbEntity
  8
DIBUJOS
 62
     7
100
AcDb2dPolyline
 66
     1
 10
0.0
 20
0.0
 30
0.0
  0
VERTEX
  5
81F
330
81E
100
AcDbEntity
  8
DIBUJOS
 62
     7
100
AcDbVertex
100
AcDb2dVertex
 10
62.48239197882046
 20
29.98209389590207
 30
0.0
  0
VERTEX
  5
820
330
81E
100
AcDbEntity
  8
DIBUJOS
 62
     7
100
AcDbVertex
100
AcDb2dVertex
 10
62.47635308248048
 20
29.98209389590207
 30
0.0
  0
SEQEND
  5
821
330
81E
100
AcDbEntity
  8
DIBUJOS
 62
     7
  0
POLYLINE
  5
822
330
4F8
100
AcDbEntity
  8
DIBUJOS
 62
     7
100
AcDb2dPolyline
 66
     1
 10
0.0
 20
0.0
 30
0.0
  0
VERTEX
  5
823
330
822
100
AcDbEntity
  8
DIBUJOS
 62
     7
100
AcDbVertex
100
AcDb2dVertex
 10
62.48239197882046
 20
29.98209389590207
 30
0.0
  0
VERTEX
  5
824
330
822
100
AcDbEntity
  8
DIBUJOS
 62
     7
100
AcDbVertex
100
AcDb2dVertex
 10
62.48239197882046
 20
29.98813923425871
 30
0.0
  0
SEQEND
  5
825
330
822
100
AcDbEntity
  8
DIBUJOS
 62
     7
  0
POLYLINE
  5
826
330
4F8
100
AcDbEntity
  8
DIBUJOS
 62
     7
100
AcDb2dPolyline
 66
     1
 10
0.0
 20
0.0
 30
0.0
  0
VERTEX
  5
827
330
826
100
AcDbEntity
  8
DIBUJOS
 62
     7
100
AcDbVertex
100
AcDb2dVertex
 10
62.46427366425588
 20
29.97604693026725
 30
0.0
  0
VERTEX
  5
828
330
826
100
AcDbEntity
  8
DIBUJOS
 62
     7
100
AcDbVertex
100
AcDb2dVertex
 10
62.46427366425588
 20
29.98209389590207
 30
0.0
  0
SEQEND
  5
829
330
826
100
AcDbEntity
  8
DIBUJOS
 62
     7
  0
POLYLINE
  5
82A
330
4F8
100
AcDbEntity
  8
DIBUJOS
 62
     7
100
AcDb2dPolyline
 66
     1
 10
0.0
 20
0.0
 30
0.0
  0
VERTEX
  5
82B
330
82A
100
AcDbEntity
  8
DIBUJOS
 62
     7
100
AcDbVertex
100
AcDb2dVertex
 10
62.47031418614017
 20
29.97604693026725
 30
0.0
  0
VERTEX
  5
82C
330
82A
100
AcDbEntity
  8
DIBUJOS
 62
     7
100
AcDbVertex
100
AcDb2dVertex
 10
62.46427366425588
 20
29.97604693026725
 30
0.0
  0
SEQEND
  5
82D
330
82A
100
AcDbEntity
  8
DIBUJOS
 62
     7
  0
POLYLINE
  5
82E
330
4F8
100
AcDbEntity
  8
DIBUJOS
 62
     7
100
AcDb2dPolyline
 66
     1
 10
0.0
 20
0.0
 30
0.0
  0
VERTEX
  5
82F
330
82E
100
AcDbEntity
  8
DIBUJOS
 62
     7
100
AcDbVertex
100
AcDb2dVertex
 10
62.47031418614017
 20
29.97604693026725
 30
0.0
  0
VERTEX
  5
830
330
82E
100
AcDbEntity
  8
DIBUJOS
 62
     7
100
AcDbVertex
100
AcDb2dVertex
 10
62.47635308248048
 20
29.98209389590207
 30
0.0
  0
SEQEND
  5
831
330
82E
100
AcDbEntity
  8
DIBUJOS
 62
     7
  0
POLYLINE
  5
832
330
4F8
100
AcDbEntity
  8
DIBUJOS
 62
     7
100
AcDb2dPolyline
 66
     1
 10
0.0
 20
0.0
 30
0.0
  0
VERTEX
  5
833
330
832
100
AcDbEntity
  8
DIBUJOS
 62
     7
100
AcDbVertex
100
AcDb2dVertex
 10
62.6696205229844
 20
29.97604693026725
 30
0.0
  0
VERTEX
  5
834
330
832
100
AcDbEntity
  8
DIBUJOS
 62
     7
100
AcDbVertex
100
AcDb2dVertex
 10
62.66358000110011
 20
29.98209389590207
 30
0.0
  0
SEQEND
  5
835
330
832
100
AcDbEntity
  8
DIBUJOS
 62
     7
  0
POLYLINE
  5
836
330
4F8
100
AcDbEntity
  8
DIBUJOS
 62
     7
100
AcDb2dPolyline
 66
     1
 10
0.0
 20
0.0
 30
0.0
  0
VERTEX
  5
837
330
836
100
AcDbEntity
  8
DIBUJOS
 62
     7
100
AcDbVertex
100
AcDb2dVertex
 10
62.46427366425588
 20
29.97000159191061
 30
0.0
  0
VERTEX
  5
838
330
836
100
AcDbEntity
  8
DIBUJOS
 62
     7
100
AcDbVertex
100
AcDb2dVertex
 10
62.46427366425588
 20
29.97604693026725
 30
0.0
  0
SEQEND
  5
839
330
836
100
AcDbEntity
  8
DIBUJOS
 62
     7
  0
POLYLINE
  5
83A
330
4F8
100
AcDbEntity
  8
DIBUJOS
 62
     7
100
AcDb2dPolyline
 66
     1
 10
0.0
 20
0.0
 30
0.0
  0
VERTEX
  5
83B
330
83A
100
AcDbEntity
  8
DIBUJOS
 62
     7
100
AcDbVertex
100
AcDb2dVertex
 10
66.58327400161325
 20
29.67374583959545
 30
0.0
  0
VERTEX
  5
83C
330
83A
100
AcDbEntity
  8
DIBUJOS
 62
     7
100
AcDbVertex
100
AcDb2dVertex
 10
66.74755148859613
 20
29.98753551406207
 30
0.0
  0
VERTEX
  5
83D
330
83A
100
AcDbEntity
  8
DIBUJOS
 62
     7
100
AcDbVertex
100
AcDb2dVertex
 10
66.75238260566799
 20
29.99418619989353
 30
0.0
  0
SEQEND
  5
83E
330
83A
100
AcDbEntity
  8
DIBUJOS
 62
     7
  0
POLYLINE
  5
83F
330
4F8
100
AcDbEntity
  8
DIBUJOS
 62
     7
100
AcDb2dPolyline
 66
     1
 10
0.0
 20
0.0
 30
0.0
  0
VERTEX
  5
840
330
83F
100
AcDbEntity
  8
DIBUJOS
 62
     7
100
AcDbVertex
100
AcDb2dVertex
 10
62.64546168653521
 20
29.66770050123881
 30
0.0
  0
VERTEX
  5
841
330
83F
100
AcDbEntity
  8
DIBUJOS
 62
     7
100
AcDbVertex
100
AcDb2dVertex
 10
62.48239197882046
 20
29.98209389590207
 30
0.0
  0
SEQEND
  5
842
330
83F
100
AcDbEntity
  8
DIBUJOS
 62
     7
  0
POLYLINE
  5
843
330
4F8
100
AcDbEntity
  8
DIBUJOS
 62
     7
100
AcDb2dPolyline
 66
     1
 10
0.0
 20
0.0
 30
0.0
  0
VERTEX
  5
844
330
843
100
AcDbEntity
  8
DIBUJOS
 62
     7
100
AcDbVertex
100
AcDb2dVertex
 10
62.65150058287584
 20
29.66770050123881
 30
0.0
  0
VERTEX
  5
845
330
843
100
AcDbEntity
  8
DIBUJOS
 62
     7
100
AcDbVertex
100
AcDb2dVertex
 10
62.64546168653521
 20
29.66770050123881
 30
0.0
  0
SEQEND
  5
846
330
843
100
AcDbEntity
  8
DIBUJOS
 62
     7
  0
POLYLINE
  5
847
330
4F8
100
AcDbEntity
  8
DIBUJOS
 62
     7
100
AcDb2dPolyline
 66
     1
 10
0.0
 20
0.0
 30
0.0
  0
VERTEX
  5
848
330
847
100
AcDbEntity
  8
DIBUJOS
 62
     7
100
AcDbVertex
100
AcDb2dVertex
 10
66.58327400161325
 20
29.66770050123881
 30
0.0
  0
VERTEX
  5
849
330
847
100
AcDbEntity
  8
DIBUJOS
 62
     7
100
AcDbVertex
100
AcDb2dVertex
 10
66.57723510527295
 20
29.66770050123881
 30
0.0
  0
SEQEND
  5
84A
330
847
100
AcDbEntity
  8
DIBUJOS
 62
     7
  0
POLYLINE
  5
84B
330
4F8
100
AcDbEntity
  8
DIBUJOS
 62
     7
100
AcDb2dPolyline
 66
     1
 10
0.0
 20
0.0
 30
0.0
  0
VERTEX
  5
84C
330
84B
100
AcDbEntity
  8
DIBUJOS
 62
     7
100
AcDbVertex
100
AcDb2dVertex
 10
66.58327400161325
 20
29.66770050123881
 30
0.0
  0
VERTEX
  5
84D
330
84B
100
AcDbEntity
  8
DIBUJOS
 62
     7
100
AcDbVertex
100
AcDb2dVertex
 10
66.58327400161325
 20
29.67374583959545
 30
0.0
  0
SEQEND
  5
84E
330
84B
100
AcDbEntity
  8
DIBUJOS
 62
     7
  0
POLYLINE
  5
84F
330
4F8
100
AcDbEntity
  8
DIBUJOS
 62
     7
100
AcDb2dPolyline
 66
     1
 10
0.0
 20
0.0
 30
0.0
  0
VERTEX
  5
850
330
84F
100
AcDbEntity
  8
DIBUJOS
 62
     7
100
AcDbVertex
100
AcDb2dVertex
 10
62.64546168653521
 20
29.661653535604
 30
0.0
  0
VERTEX
  5
851
330
84F
100
AcDbEntity
  8
DIBUJOS
 62
     7
100
AcDbVertex
100
AcDb2dVertex
 10
62.64546168653521
 20
29.66770050123881
 30
0.0
  0
SEQEND
  5
852
330
84F
100
AcDbEntity
  8
DIBUJOS
 62
     7
  0
POLYLINE
  5
853
330
4F8
100
AcDbEntity
  8
DIBUJOS
 62
     7
100
AcDb2dPolyline
 66
     1
 10
0.0
 20
0.0
 30
0.0
  0
VERTEX
  5
854
330
853
100
AcDbEntity
  8
DIBUJOS
 62
     7
100
AcDbVertex
100
AcDb2dVertex
 10
66.58327400161325
 20
29.661653535604
 30
0.0
  0
VERTEX
  5
855
330
853
100
AcDbEntity
  8
DIBUJOS
 62
     7
100
AcDbVertex
100
AcDb2dVertex
 10
66.58327400161325
 20
29.66770050123881
 30
0.0
  0
SEQEND
  5
856
330
853
100
AcDbEntity
  8
DIBUJOS
 62
     7
  0
POLYLINE
  5
857
330
4F8
100
AcDbEntity
  8
DIBUJOS
 62
     7
100
AcDb2dPolyline
 66
     1
 10
0.0
 20
0.0
 30
0.0
  0
VERTEX
  5
858
330
857
100
AcDbEntity
  8
DIBUJOS
 62
     7
100
AcDbVertex
100
AcDb2dVertex
 10
62.90516348895843
 20
29.6253782509078
 30
0.0
  0
VERTEX
  5
859
330
857
100
AcDbEntity
  8
DIBUJOS
 62
     7
100
AcDbVertex
100
AcDb2dVertex
 10
62.89912459261812
 20
29.63142358926508
 30
0.0
  0
SEQEND
  5
85A
330
857
100
AcDbEntity
  8
DIBUJOS
 62
     7
  0
POLYLINE
  5
85B
330
4F8
100
AcDbEntity
  8
DIBUJOS
 62
     7
100
AcDb2dPolyline
 66
     1
 10
0.0
 20
0.0
 30
0.0
  0
VERTEX
  5
85C
330
85B
100
AcDbEntity
  8
DIBUJOS
 62
     7
100
AcDbVertex
100
AcDb2dVertex
 10
62.60922343186175
 20
29.57700903494262
 30
0.0
  0
VERTEX
  5
85D
330
85B
100
AcDbEntity
  8
DIBUJOS
 62
     7
100
AcDbVertex
100
AcDb2dVertex
 10
62.58385844168907
 20
29.63081824178963
 30
0.0
  0
VERTEX
  5
85E
330
85B
100
AcDbEntity
  8
DIBUJOS
 62
     7
100
AcDbVertex
100
AcDb2dVertex
 10
62.49056358902301
 20
29.8858908384849
 30
0.0
  0
VERTEX
  5
85F
330
85B
100
AcDbEntity
  8
DIBUJOS
 62
     7
100
AcDbVertex
100
AcDb2dVertex
 10
62.46427366425588
 20
29.97000159191061
 30
0.0
  0
SEQEND
  5
860
330
85B
100
AcDbEntity
  8
DIBUJOS
 62
     7
  0
POLYLINE
  5
861
330
4F8
100
AcDbEntity
  8
DIBUJOS
 62
     7
100
AcDb2dPolyline
 66
     1
 10
0.0
 20
0.0
 30
0.0
  0
VERTEX
  5
862
330
861
100
AcDbEntity
  8
DIBUJOS
 62
     7
100
AcDbVertex
100
AcDb2dVertex
 10
62.60922343186175
 20
29.57700903494262
 30
0.0
  0
VERTEX
  5
863
330
861
100
AcDbEntity
  8
DIBUJOS
 62
     7
100
AcDbVertex
100
AcDb2dVertex
 10
62.62269756692627
 20
29.59421750146251
 30
0.0
  0
VERTEX
  5
864
330
861
100
AcDbEntity
  8
DIBUJOS
 62
     7
100
AcDbVertex
100
AcDb2dVertex
 10
62.63688531585141
 20
29.61969416830263
 30
0.0
  0
VERTEX
  5
865
330
861
100
AcDbEntity
  8
DIBUJOS
 62
     7
100
AcDbVertex
100
AcDb2dVertex
 10
62.64546168653521
 20
29.661653535604
 30
0.0
  0
SEQEND
  5
866
330
861
100
AcDbEntity
  8
DIBUJOS
 62
     7
  0
POLYLINE
  5
867
330
4F8
100
AcDbEntity
  8
DIBUJOS
 62
     7
100
AcDb2dPolyline
 66
     1
 10
0.0
 20
0.0
 30
0.0
  0
VERTEX
  5
868
330
867
100
AcDbEntity
  8
DIBUJOS
 62
     7
100
AcDbVertex
100
AcDb2dVertex
 10
66.6134717344021
 20
29.57700903494262
 30
0.0
  0
VERTEX
  5
869
330
867
100
AcDbEntity
  8
DIBUJOS
 62
     7
100
AcDbVertex
100
AcDb2dVertex
 10
66.60018453690971
 20
29.59454295709407
 30
0.0
  0
VERTEX
  5
86A
330
867
100
AcDbEntity
  8
DIBUJOS
 62
     7
100
AcDbVertex
100
AcDb2dVertex
 10
66.59191539406129
 20
29.61361140254855
 30
0.0
  0
VERTEX
  5
86B
330
867
100
AcDbEntity
  8
DIBUJOS
 62
     7
100
AcDbVertex
100
AcDb2dVertex
 10
66.58327400161325
 20
29.661653535604
 30
0.0
  0
SEQEND
  5
86C
330
867
100
AcDbEntity
  8
DIBUJOS
 62
     7
  0
POLYLINE
  5
86D
330
4F8
100
AcDbEntity
  8
DIBUJOS
 62
     7
100
AcDb2dPolyline
 66
     1
 10
0.0
 20
0.0
 30
0.0
  0
VERTEX
  5
86E
330
86D
100
AcDbEntity
  8
DIBUJOS
 62
     7
100
AcDbVertex
100
AcDb2dVertex
 10
66.6134717344021
 20
29.57700903494262
 30
0.0
  0
VERTEX
  5
86F
330
86D
100
AcDbEntity
  8
DIBUJOS
 62
     7
100
AcDbVertex
100
AcDb2dVertex
 10
66.63623747955567
 20
29.60816978438791
 30
0.0
  0
VERTEX
  5
870
330
86D
100
AcDbEntity
  8
DIBUJOS
 62
     7
100
AcDbVertex
100
AcDb2dVertex
 10
66.76446202389258
 20
29.97000159191061
 30
0.0
  0
VERTEX
  5
871
330
86D
100
AcDbEntity
  8
DIBUJOS
 62
     7
100
AcDbVertex
100
AcDb2dVertex
 10
66.76446202389258
 20
29.98813923425871
 30
0.0
  0
VERTEX
  5
872
330
86D
100
AcDbEntity
  8
DIBUJOS
 62
     7
100
AcDbVertex
100
AcDb2dVertex
 10
66.7584231275526
 20
29.99418619989353
 30
0.0
  0
SEQEND
  5
873
330
86D
100
AcDbEntity
  8
DIBUJOS
 62
     7
  0
POLYLINE
  5
874
330
4F8
100
AcDbEntity
  8
DIBUJOS
 62
     7
100
AcDb2dPolyline
 66
     1
 10
0.0
 20
0.0
 30
0.0
  0
VERTEX
  5
875
330
874
100
AcDbEntity
  8
DIBUJOS
 62
     7
100
AcDbVertex
100
AcDb2dVertex
 10
62.57298680273228
 20
29.57096369658597
 30
0.0
  0
VERTEX
  5
876
330
874
100
AcDbEntity
  8
DIBUJOS
 62
     7
100
AcDbVertex
100
AcDb2dVertex
 10
62.56211516377581
 20
29.58970505913071
 30
0.0
  0
VERTEX
  5
877
330
874
100
AcDbEntity
  8
DIBUJOS
 62
     7
100
AcDbVertex
100
AcDb2dVertex
 10
62.46246280812585
 20
29.86056876306968
 30
0.0
  0
VERTEX
  5
878
330
874
100
AcDbEntity
  8
DIBUJOS
 62
     7
100
AcDbVertex
100
AcDb2dVertex
 10
62.45038338990125
 20
29.90289101340069
 30
0.0
  0
VERTEX
  5
879
330
874
100
AcDbEntity
  8
DIBUJOS
 62
     7
100
AcDbVertex
100
AcDb2dVertex
 10
62.3639239501858
 20
30.21230819145746
 30
0.0
  0
VERTEX
  5
87A
330
874
100
AcDbEntity
  8
DIBUJOS
 62
     7
100
AcDbVertex
100
AcDb2dVertex
 10
62.32959083319994
 20
30.35029649741298
 30
0.0
  0
VERTEX
  5
87B
330
874
100
AcDbEntity
  8
DIBUJOS
 62
     7
100
AcDbVertex
100
AcDb2dVertex
 10
62.26847037495212
 20
30.70725460685242
 30
0.0
  0
VERTEX
  5
87C
330
874
100
AcDbEntity
  8
DIBUJOS
 62
     7
100
AcDbVertex
100
AcDb2dVertex
 10
62.24362880997996
 20
30.92545145321122
 30
0.0
  0
VERTEX
  5
87D
330
874
100
AcDbEntity
  8
DIBUJOS
 62
     7
100
AcDbVertex
100
AcDb2dVertex
 10
62.23798979748895
 20
31.0157881728693
 30
0.0
  0
VERTEX
  5
87E
330
874
100
AcDbEntity
  8
DIBUJOS
 62
     7
100
AcDbVertex
100
AcDb2dVertex
 10
62.22873069828186
 20
31.1066553852067
 30
0.0
  0
VERTEX
  5
87F
330
874
100
AcDbEntity
  8
DIBUJOS
 62
     7
100
AcDbVertex
100
AcDb2dVertex
 10
62.22873069828186
 20
31.52383255015761
 30
0.0
  0
VERTEX
  5
880
330
874
100
AcDbEntity
  8
DIBUJOS
 62
     7
100
AcDbVertex
100
AcDb2dVertex
 10
62.26756982351938
 20
31.91045268585923
 30
0.0
  0
VERTEX
  5
881
330
874
100
AcDbEntity
  8
DIBUJOS
 62
     7
100
AcDbVertex
100
AcDb2dVertex
 10
62.31560790283173
 20
32.17633854591417
 30
0.0
  0
VERTEX
  5
882
330
874
100
AcDbEntity
  8
DIBUJOS
 62
     7
100
AcDbVertex
100
AcDb2dVertex
 10
62.35184453196121
 20
32.33958058160212
 30
0.0
  0
VERTEX
  5
883
330
874
100
AcDbEntity
  8
DIBUJOS
 62
     7
100
AcDbVertex
100
AcDb2dVertex
 10
62.44192730948071
 20
32.69615790795262
 30
0.0
  0
VERTEX
  5
884
330
874
100
AcDbEntity
  8
DIBUJOS
 62
     7
100
AcDbVertex
100
AcDb2dVertex
 10
62.45400672770531
 20
32.73848015828299
 30
0.0
  0
VERTEX
  5
885
330
874
100
AcDbEntity
  8
DIBUJOS
 62
     7
100
AcDbVertex
100
AcDb2dVertex
 10
62.54762018701528
 20
33.01176037028733
 30
0.0
  0
VERTEX
  5
886
330
874
100
AcDbEntity
  8
DIBUJOS
 62
     7
100
AcDbVertex
100
AcDb2dVertex
 10
62.56090738450801
 20
33.04743193478689
 30
0.0
  0
SEQEND
  5
887
330
874
100
AcDbEntity
  8
DIBUJOS
 62
     7
  0
POLYLINE
  5
888
330
4F8
100
AcDbEntity
  8
DIBUJOS
 62
     7
100
AcDb2dPolyline
 66
     1
 10
0.0
 20
0.0
 30
0.0
  0
VERTEX
  5
889
330
888
100
AcDbEntity
  8
DIBUJOS
 62
     7
100
AcDbVertex
100
AcDb2dVertex
 10
66.65574888541619
 20
29.55887139259452
 30
0.0
  0
VERTEX
  5
88A
330
888
100
AcDbEntity
  8
DIBUJOS
 62
     7
100
AcDbVertex
100
AcDb2dVertex
 10
66.7209770936107
 20
29.72271877575792
 30
0.0
  0
VERTEX
  5
88B
330
888
100
AcDbEntity
  8
DIBUJOS
 62
     7
100
AcDbVertex
100
AcDb2dVertex
 10
66.76869006410286
 20
29.86177783074113
 30
0.0
  0
VERTEX
  5
88C
330
888
100
AcDbEntity
  8
DIBUJOS
 62
     7
100
AcDbVertex
100
AcDb2dVertex
 10
66.77231340190723
 20
29.87266106706177
 30
0.0
  0
VERTEX
  5
88D
330
888
100
AcDbEntity
  8
DIBUJOS
 62
     7
100
AcDbVertex
100
AcDb2dVertex
 10
66.83089801135553
 20
30.09092137726819
 30
0.0
  0
SEQEND
  5
88E
330
888
100
AcDbEntity
  8
DIBUJOS
 62
     7
  0
POLYLINE
  5
88F
330
4F8
100
AcDbEntity
  8
DIBUJOS
 62
     7
100
AcDb2dPolyline
 66
     1
 10
0.0
 20
0.0
 30
0.0
  0
VERTEX
  5
890
330
88F
100
AcDbEntity
  8
DIBUJOS
 62
     7
100
AcDbVertex
100
AcDb2dVertex
 10
66.64970998907589
 20
29.5528244269597
 30
0.0
  0
VERTEX
  5
891
330
88F
100
AcDbEntity
  8
DIBUJOS
 62
     7
100
AcDbVertex
100
AcDb2dVertex
 10
66.6255511526267
 20
29.5528244269597
 30
0.0
  0
VERTEX
  5
892
330
88F
100
AcDbEntity
  8
DIBUJOS
 62
     7
100
AcDbVertex
100
AcDb2dVertex
 10
66.6134717344021
 20
29.56491673095116
 30
0.0
  0
VERTEX
  5
893
330
88F
100
AcDbEntity
  8
DIBUJOS
 62
     7
100
AcDbVertex
100
AcDb2dVertex
 10
66.6134717344021
 20
29.57700903494262
 30
0.0
  0
SEQEND
  5
894
330
88F
100
AcDbEntity
  8
DIBUJOS
 62
     7
  0
POLYLINE
  5
895
330
4F8
100
AcDbEntity
  8
DIBUJOS
 62
     7
100
AcDb2dPolyline
 66
     1
 10
0.0
 20
0.0
 30
0.0
  0
VERTEX
  5
896
330
895
100
AcDbEntity
  8
DIBUJOS
 62
     7
100
AcDbVertex
100
AcDb2dVertex
 10
66.65574888541619
 20
29.5528244269597
 30
0.0
  0
VERTEX
  5
897
330
895
100
AcDbEntity
  8
DIBUJOS
 62
     7
100
AcDbVertex
100
AcDb2dVertex
 10
66.64970998907589
 20
29.5528244269597
 30
0.0
  0
SEQEND
  5
898
330
895
100
AcDbEntity
  8
DIBUJOS
 62
     7
  0
POLYLINE
  5
899
330
4F8
100
AcDbEntity
  8
DIBUJOS
 62
     7
100
AcDb2dPolyline
 66
     1
 10
0.0
 20
0.0
 30
0.0
  0
VERTEX
  5
89A
330
899
100
AcDbEntity
  8
DIBUJOS
 62
     7
100
AcDbVertex
100
AcDb2dVertex
 10
66.65574888541619
 20
29.5528244269597
 30
0.0
  0
VERTEX
  5
89B
330
899
100
AcDbEntity
  8
DIBUJOS
 62
     7
100
AcDbVertex
100
AcDb2dVertex
 10
66.65574888541619
 20
29.55887139259452
 30
0.0
  0
SEQEND
  5
89C
330
899
100
AcDbEntity
  8
DIBUJOS
 62
     7
  0
POLYLINE
  5
89D
330
4F8
100
AcDbEntity
  8
DIBUJOS
 62
     7
100
AcDb2dPolyline
 66
     1
 10
0.0
 20
0.0
 30
0.0
  0
VERTEX
  5
89E
330
89D
100
AcDbEntity
  8
DIBUJOS
 62
     7
100
AcDbVertex
100
AcDb2dVertex
 10
66.65574888541619
 20
29.5528244269597
 30
0.0
  0
VERTEX
  5
89F
330
89D
100
AcDbEntity
  8
DIBUJOS
 62
     7
100
AcDbVertex
100
AcDb2dVertex
 10
66.66178940730047
 20
29.5467790886037
 30
0.0
  0
VERTEX
  5
8A0
330
89D
100
AcDbEntity
  8
DIBUJOS
 62
     7
100
AcDbVertex
100
AcDb2dVertex
 10
66.70406655831424
 20
29.5467790886037
 30
0.0
  0
VERTEX
  5
8A1
330
89D
100
AcDbEntity
  8
DIBUJOS
 62
     7
100
AcDbVertex
100
AcDb2dVertex
 10
66.7215817960169
 20
29.55463884210597
 30
0.0
  0
VERTEX
  5
8A2
330
89D
100
AcDbEntity
  8
DIBUJOS
 62
     7
100
AcDbVertex
100
AcDb2dVertex
 10
66.74030318744404
 20
29.55887139259452
 30
0.0
  0
VERTEX
  5
8A3
330
89D
100
AcDbEntity
  8
DIBUJOS
 62
     7
100
AcDbVertex
100
AcDb2dVertex
 10
66.80190805783417
 20
29.62477290343363
 30
0.0
  0
VERTEX
  5
8A4
330
89D
100
AcDbEntity
  8
DIBUJOS
 62
     7
100
AcDbVertex
100
AcDb2dVertex
 10
66.81761081386314
 20
29.656211917444
 30
0.0
  0
VERTEX
  5
8A5
330
89D
100
AcDbEntity
  8
DIBUJOS
 62
     7
100
AcDbVertex
100
AcDb2dVertex
 10
66.8653237843553
 20
29.77108636444493
 30
0.0
  0
VERTEX
  5
8A6
330
89D
100
AcDbEntity
  8
DIBUJOS
 62
     7
100
AcDbVertex
100
AcDb2dVertex
 10
66.9051837512885
 20
29.89079870940923
 30
0.0
  0
VERTEX
  5
8A7
330
89D
100
AcDbEntity
  8
DIBUJOS
 62
     7
100
AcDbVertex
100
AcDb2dVertex
 10
66.99768371288857
 20
30.23044583380491
 30
0.0
  0
VERTEX
  5
8A8
330
89D
100
AcDbEntity
  8
DIBUJOS
 62
     7
100
AcDbVertex
100
AcDb2dVertex
 10
67.03837595840233
 20
30.41687495596542
 30
0.0
  0
VERTEX
  5
8A9
330
89D
100
AcDbEntity
  8
DIBUJOS
 62
     7
100
AcDbVertex
100
AcDb2dVertex
 10
67.08709676623796
 20
30.70725460685242
 30
0.0
  0
VERTEX
  5
8AA
330
89D
100
AcDbEntity
  8
DIBUJOS
 62
     7
100
AcDbVertex
100
AcDb2dVertex
 10
67.09325107620957
 20
30.76173750685705
 30
0.0
  0
VERTEX
  5
8AB
330
89D
100
AcDbEntity
  8
DIBUJOS
 62
     7
100
AcDbVertex
100
AcDb2dVertex
 10
67.11794471666815
 20
31.0342528981265
 30
0.0
  0
VERTEX
  5
8AC
330
89D
100
AcDbEntity
  8
DIBUJOS
 62
     7
100
AcDbVertex
100
AcDb2dVertex
 10
67.12683806845222
 20
31.14897763553707
 30
0.0
  0
VERTEX
  5
8AD
330
89D
100
AcDbEntity
  8
DIBUJOS
 62
     7
100
AcDbVertex
100
AcDb2dVertex
 10
67.12366012973193
 20
31.48769883866154
 30
0.0
  0
VERTEX
  5
8AE
330
89D
100
AcDbEntity
  8
DIBUJOS
 62
     7
100
AcDbVertex
100
AcDb2dVertex
 10
67.11793658894757
 20
31.60228688470652
 30
0.0
  0
VERTEX
  5
8AF
330
89D
100
AcDbEntity
  8
DIBUJOS
 62
     7
100
AcDbVertex
100
AcDb2dVertex
 10
67.08709676623796
 20
31.92927866686789
 30
0.0
  0
VERTEX
  5
8B0
330
89D
100
AcDbEntity
  8
DIBUJOS
 62
     7
100
AcDbVertex
100
AcDb2dVertex
 10
67.08202344309463
 20
31.96482981278427
 30
0.0
  0
VERTEX
  5
8B1
330
89D
100
AcDbEntity
  8
DIBUJOS
 62
     7
100
AcDbVertex
100
AcDb2dVertex
 10
67.03392034201805
 20
32.24284540422745
 30
0.0
  0
VERTEX
  5
8B2
330
89D
100
AcDbEntity
  8
DIBUJOS
 62
     7
100
AcDbVertex
100
AcDb2dVertex
 10
66.99609880738888
 20
32.41313192706122
 30
0.0
  0
VERTEX
  5
8B3
330
89D
100
AcDbEntity
  8
DIBUJOS
 62
     7
100
AcDbVertex
100
AcDb2dVertex
 10
66.90760093536873
 20
32.73848015828299
 30
0.0
  0
VERTEX
  5
8B4
330
89D
100
AcDbEntity
  8
DIBUJOS
 62
     7
100
AcDbVertex
100
AcDb2dVertex
 10
66.8653237843553
 20
32.86544690927602
 30
0.0
  0
VERTEX
  5
8B5
330
89D
100
AcDbEntity
  8
DIBUJOS
 62
     7
100
AcDbVertex
100
AcDb2dVertex
 10
66.81761081386314
 20
32.98032135627696
 30
0.0
  0
VERTEX
  5
8B6
330
89D
100
AcDbEntity
  8
DIBUJOS
 62
     7
100
AcDbVertex
100
AcDb2dVertex
 10
66.80070027856637
 20
33.01720198844733
 30
0.0
  0
VERTEX
  5
8B7
330
89D
100
AcDbEntity
  8
DIBUJOS
 62
     7
100
AcDbVertex
100
AcDb2dVertex
 10
66.74030318744404
 20
33.0776618811258
 30
0.0
  0
VERTEX
  5
8B8
330
89D
100
AcDbEntity
  8
DIBUJOS
 62
     7
100
AcDbVertex
100
AcDb2dVertex
 10
66.72882847162533
 20
33.07947629627271
 30
0.0
  0
VERTEX
  5
8B9
330
89D
100
AcDbEntity
  8
DIBUJOS
 62
     7
100
AcDbVertex
100
AcDb2dVertex
 10
66.70406655831424
 20
33.0897541851179
 30
0.0
  0
VERTEX
  5
8BA
330
89D
100
AcDbEntity
  8
DIBUJOS
 62
     7
100
AcDbVertex
100
AcDb2dVertex
 10
66.66178940730047
 20
33.0897541851179
 30
0.0
  0
VERTEX
  5
8BB
330
89D
100
AcDbEntity
  8
DIBUJOS
 62
     7
100
AcDbVertex
100
AcDb2dVertex
 10
66.65574888541619
 20
33.08370884676062
 30
0.0
  0
SEQEND
  5
8BC
330
89D
100
AcDbEntity
  8
DIBUJOS
 62
     7
  0
POLYLINE
  5
8BD
330
4F8
100
AcDbEntity
  8
DIBUJOS
 62
     7
100
AcDb2dPolyline
 66
     1
 10
0.0
 20
0.0
 30
0.0
  0
VERTEX
  5
8BE
330
8BD
100
AcDbEntity
  8
DIBUJOS
 62
     7
100
AcDbVertex
100
AcDb2dVertex
 10
62.64546168653521
 20
32.97487973811632
 30
0.0
  0
VERTEX
  5
8BF
330
8BD
100
AcDbEntity
  8
DIBUJOS
 62
     7
100
AcDbVertex
100
AcDb2dVertex
 10
62.63682029408718
 20
33.0229218711724
 30
0.0
  0
VERTEX
  5
8C0
330
8BD
100
AcDbEntity
  8
DIBUJOS
 62
     7
100
AcDbVertex
100
AcDb2dVertex
 10
62.61526395374636
 20
33.06556957713434
 30
0.0
  0
VERTEX
  5
8C1
330
8BD
100
AcDbEntity
  8
DIBUJOS
 62
     7
100
AcDbVertex
100
AcDb2dVertex
 10
62.59807382486388
 20
33.0790580857857
 30
0.0
  0
VERTEX
  5
8C2
330
8BD
100
AcDbEntity
  8
DIBUJOS
 62
     7
100
AcDbVertex
100
AcDb2dVertex
 10
62.57298680273228
 20
33.09580115075207
 30
0.0
  0
VERTEX
  5
8C3
330
8BD
100
AcDbEntity
  8
DIBUJOS
 62
     7
100
AcDbVertex
100
AcDb2dVertex
 10
62.51863023349392
 20
33.09580115075207
 30
0.0
  0
VERTEX
  5
8C4
330
8BD
100
AcDbEntity
  8
DIBUJOS
 62
     7
100
AcDbVertex
100
AcDb2dVertex
 10
62.48239197882046
 20
33.0776618811258
 30
0.0
  0
VERTEX
  5
8C5
330
8BD
100
AcDbEntity
  8
DIBUJOS
 62
     7
100
AcDbVertex
100
AcDb2dVertex
 10
62.42803703512641
 20
33.02324732680397
 30
0.0
  0
VERTEX
  5
8C6
330
8BD
100
AcDbEntity
  8
DIBUJOS
 62
     7
100
AcDbVertex
100
AcDb2dVertex
 10
62.40508597794535
 20
32.97427439064214
 30
0.0
  0
VERTEX
  5
8C7
330
8BD
100
AcDbEntity
  8
DIBUJOS
 62
     7
100
AcDbVertex
100
AcDb2dVertex
 10
62.34831385017073
 20
32.83037906497311
 30
0.0
  0
VERTEX
  5
8C8
330
8BD
100
AcDbEntity
  8
DIBUJOS
 62
     7
100
AcDbVertex
100
AcDb2dVertex
 10
62.25679571720909
 20
32.5159140700707
 30
0.0
  0
VERTEX
  5
8C9
330
8BD
100
AcDbEntity
  8
DIBUJOS
 62
     7
100
AcDbVertex
100
AcDb2dVertex
 10
62.21451856619501
 20
32.34662506874794
 30
0.0
  0
VERTEX
  5
8CA
330
8BD
100
AcDbEntity
  8
DIBUJOS
 62
     7
100
AcDbVertex
100
AcDb2dVertex
 10
62.15984664140102
 20
32.06233794728406
 30
0.0
  0
VERTEX
  5
8CB
330
8BD
100
AcDbEntity
  8
DIBUJOS
 62
     7
100
AcDbVertex
100
AcDb2dVertex
 10
62.1227078352945
 20
31.77749592396757
 30
0.0
  0
VERTEX
  5
8CC
330
8BD
100
AcDbEntity
  8
DIBUJOS
 62
     7
100
AcDbVertex
100
AcDb2dVertex
 10
62.1173256587718
 20
31.72361999871594
 30
0.0
  0
VERTEX
  5
8CD
330
8BD
100
AcDbEntity
  8
DIBUJOS
 62
     7
100
AcDbVertex
100
AcDb2dVertex
 10
62.10189924524056
 20
31.5359232268709
 30
0.0
  0
VERTEX
  5
8CE
330
8BD
100
AcDbEntity
  8
DIBUJOS
 62
     7
100
AcDbVertex
100
AcDb2dVertex
 10
62.10189924524056
 20
31.09456308121525
 30
0.0
  0
VERTEX
  5
8CF
330
8BD
100
AcDbEntity
  8
DIBUJOS
 62
     7
100
AcDbVertex
100
AcDb2dVertex
 10
62.1107275752604
 20
31.01011873576708
 30
0.0
  0
VERTEX
  5
8D0
330
8BD
100
AcDbEntity
  8
DIBUJOS
 62
     7
100
AcDbVertex
100
AcDb2dVertex
 10
62.14172670129214
 20
30.69511673907265
 30
0.0
  0
VERTEX
  5
8D1
330
8BD
100
AcDbEntity
  8
DIBUJOS
 62
     7
100
AcDbVertex
100
AcDb2dVertex
 10
62.15275276693845
 20
30.62333587224968
 30
0.0
  0
VERTEX
  5
8D2
330
8BD
100
AcDbEntity
  8
DIBUJOS
 62
     7
100
AcDbVertex
100
AcDb2dVertex
 10
62.19481534613074
 20
30.38764253113686
 30
0.0
  0
VERTEX
  5
8D3
330
8BD
100
AcDbEntity
  8
DIBUJOS
 62
     7
100
AcDbVertex
100
AcDb2dVertex
 10
62.24294120482472
 20
30.17609962516588
 30
0.0
  0
VERTEX
  5
8D4
330
8BD
100
AcDbEntity
  8
DIBUJOS
 62
     7
100
AcDbVertex
100
AcDb2dVertex
 10
62.3332157965483
 20
29.85573086510632
 30
0.0
  0
VERTEX
  5
8D5
330
8BD
100
AcDbEntity
  8
DIBUJOS
 62
     7
100
AcDbVertex
100
AcDb2dVertex
 10
62.37247268661992
 20
29.73964735043392
 30
0.0
  0
VERTEX
  5
8D6
330
8BD
100
AcDbEntity
  8
DIBUJOS
 62
     7
100
AcDbVertex
100
AcDb2dVertex
 10
62.42803703512641
 20
29.61328594691635
 30
0.0
  0
VERTEX
  5
8D7
330
8BD
100
AcDbEntity
  8
DIBUJOS
 62
     7
100
AcDbVertex
100
AcDb2dVertex
 10
62.48239197882046
 20
29.55887139259452
 30
0.0
  0
VERTEX
  5
8D8
330
8BD
100
AcDbEntity
  8
DIBUJOS
 62
     7
100
AcDbVertex
100
AcDb2dVertex
 10
62.51319441401584
 20
29.54859350374933
 30
0.0
  0
VERTEX
  5
8D9
330
8BD
100
AcDbEntity
  8
DIBUJOS
 62
     7
100
AcDbVertex
100
AcDb2dVertex
 10
62.52406605297232
 20
29.54496467345679
 30
0.0
  0
VERTEX
  5
8DA
330
8BD
100
AcDbEntity
  8
DIBUJOS
 62
     7
100
AcDbVertex
100
AcDb2dVertex
 10
62.53070965171851
 20
29.54073375024642
 30
0.0
  0
VERTEX
  5
8DB
330
8BD
100
AcDbEntity
  8
DIBUJOS
 62
     7
100
AcDbVertex
100
AcDb2dVertex
 10
62.55486848816738
 20
29.54073375024642
 30
0.0
  0
VERTEX
  5
8DC
330
8BD
100
AcDbEntity
  8
DIBUJOS
 62
     7
100
AcDbVertex
100
AcDb2dVertex
 10
62.5615120869139
 20
29.54557002093225
 30
0.0
  0
VERTEX
  5
8DD
330
8BD
100
AcDbEntity
  8
DIBUJOS
 62
     7
100
AcDbVertex
100
AcDb2dVertex
 10
62.59714563918146
 20
29.5528244269597
 30
0.0
  0
VERTEX
  5
8DE
330
8BD
100
AcDbEntity
  8
DIBUJOS
 62
     7
100
AcDbVertex
100
AcDb2dVertex
 10
62.60922343186175
 20
29.56491673095116
 30
0.0
  0
VERTEX
  5
8DF
330
8BD
100
AcDbEntity
  8
DIBUJOS
 62
     7
100
AcDbVertex
100
AcDb2dVertex
 10
62.60922343186175
 20
29.57700903494262
 30
0.0
  0
SEQEND
  5
8E0
330
8BD
100
AcDbEntity
  8
DIBUJOS
 62
     7
  0
POLYLINE
  5
8E1
330
4F8
100
AcDbEntity
  8
DIBUJOS
 62
     7
100
AcDb2dPolyline
 66
     1
 10
0.0
 20
0.0
 30
0.0
  0
VERTEX
  5
8E2
330
8E1
100
AcDbEntity
  8
DIBUJOS
 62
     7
100
AcDbVertex
100
AcDb2dVertex
 10
63.31585558087148
 20
29.31703019460119
 30
0.0
  0
VERTEX
  5
8E3
330
8E1
100
AcDbEntity
  8
DIBUJOS
 62
     7
100
AcDbVertex
100
AcDb2dVertex
 10
63.30377778819119
 20
29.32307553295783
 30
0.0
  0
SEQEND
  5
8E4
330
8E1
100
AcDbEntity
  8
DIBUJOS
 62
     7
  0
POLYLINE
  5
8E5
330
4F8
100
AcDbEntity
  8
DIBUJOS
 62
     7
100
AcDb2dPolyline
 66
     1
 10
0.0
 20
0.0
 30
0.0
  0
VERTEX
  5
8E6
330
8E5
100
AcDbEntity
  8
DIBUJOS
 62
     7
100
AcDbVertex
100
AcDb2dVertex
 10
63.5453612760495
 20
29.25657030192272
 30
0.0
  0
VERTEX
  5
8E7
330
8E5
100
AcDbEntity
  8
DIBUJOS
 62
     7
100
AcDbVertex
100
AcDb2dVertex
 10
63.51569509618143
 20
29.26474900194385
 30
0.0
  0
VERTEX
  5
8E8
330
8E5
100
AcDbEntity
  8
DIBUJOS
 62
     7
100
AcDbVertex
100
AcDb2dVertex
 10
63.25606481769903
 20
29.38474612058657
 30
0.0
  0
VERTEX
  5
8E9
330
8E5
100
AcDbEntity
  8
DIBUJOS
 62
     7
100
AcDbVertex
100
AcDb2dVertex
 10
63.23069820198204
 20
29.39441866195694
 30
0.0
  0
VERTEX
  5
8EA
330
8E5
100
AcDbEntity
  8
DIBUJOS
 62
     7
100
AcDbVertex
100
AcDb2dVertex
 10
63.16006505964679
 20
29.44548265055193
 30
0.0
  0
VERTEX
  5
8EB
330
8E5
100
AcDbEntity
  8
DIBUJOS
 62
     7
100
AcDbVertex
100
AcDb2dVertex
 10
63.12739162318974
 20
29.47273955969661
 30
0.0
  0
VERTEX
  5
8EC
330
8E5
100
AcDbEntity
  8
DIBUJOS
 62
     7
100
AcDbVertex
100
AcDb2dVertex
 10
62.99575831286992
 20
29.57700903494262
 30
0.0
  0
VERTEX
  5
8ED
330
8E5
100
AcDbEntity
  8
DIBUJOS
 62
     7
100
AcDbVertex
100
AcDb2dVertex
 10
62.94744063997187
 20
29.6253782509078
 30
0.0
  0
VERTEX
  5
8EE
330
8E5
100
AcDbEntity
  8
DIBUJOS
 62
     7
100
AcDbVertex
100
AcDb2dVertex
 10
62.75296704574381
 20
29.89684404776587
 30
0.0
  0
VERTEX
  5
8EF
330
8E5
100
AcDbEntity
  8
DIBUJOS
 62
     7
100
AcDbVertex
100
AcDb2dVertex
 10
62.71189767399817
 20
29.97000159191061
 30
0.0
  0
SEQEND
  5
8F0
330
8E5
100
AcDbEntity
  8
DIBUJOS
 62
     7
  0
POLYLINE
  5
8F1
330
4F8
100
AcDbEntity
  8
DIBUJOS
 62
     7
100
AcDb2dPolyline
 66
     1
 10
0.0
 20
0.0
 30
0.0
  0
VERTEX
  5
8F2
330
8F1
100
AcDbEntity
  8
DIBUJOS
 62
     7
100
AcDbVertex
100
AcDb2dVertex
 10
63.57555900883835
 20
29.2505233362879
 30
0.0
  0
VERTEX
  5
8F3
330
8F1
100
AcDbEntity
  8
DIBUJOS
 62
     7
100
AcDbVertex
100
AcDb2dVertex
 10
63.55744069427378
 20
29.25657030192272
 30
0.0
  0
SEQEND
  5
8F4
330
8F1
100
AcDbEntity
  8
DIBUJOS
 62
     7
  0
POLYLINE
  5
8F5
330
4F8
100
AcDbEntity
  8
DIBUJOS
 62
     7
100
AcDb2dPolyline
 66
     1
 10
0.0
 20
0.0
 30
0.0
  0
VERTEX
  5
8F6
330
8F5
100
AcDbEntity
  8
DIBUJOS
 62
     7
100
AcDbVertex
100
AcDb2dVertex
 10
63.59971784528754
 20
29.24447799793126
 30
0.0
  0
VERTEX
  5
8F7
330
8F5
100
AcDbEntity
  8
DIBUJOS
 62
     7
100
AcDbVertex
100
AcDb2dVertex
 10
63.58763842706295
 20
29.2505233362879
 30
0.0
  0
SEQEND
  5
8F8
330
8F5
100
AcDbEntity
  8
DIBUJOS
 62
     7
  0
POLYLINE
  5
8F9
330
4F8
100
AcDbEntity
  8
DIBUJOS
 62
     7
100
AcDb2dPolyline
 66
     1
 10
0.0
 20
0.0
 30
0.0
  0
VERTEX
  5
8FA
330
8F9
100
AcDbEntity
  8
DIBUJOS
 62
     7
100
AcDbVertex
100
AcDb2dVertex
 10
65.62297894652062
 20
29.24447799793126
 30
0.0
  0
VERTEX
  5
8FB
330
8F9
100
AcDbEntity
  8
DIBUJOS
 62
     7
100
AcDbVertex
100
AcDb2dVertex
 10
65.70700169562673
 20
29.26474900194385
 30
0.0
  0
VERTEX
  5
8FC
330
8F9
100
AcDbEntity
  8
DIBUJOS
 62
     7
100
AcDbVertex
100
AcDb2dVertex
 10
65.97267249599342
 20
29.38474612058657
 30
0.0
  0
VERTEX
  5
8FD
330
8F9
100
AcDbEntity
  8
DIBUJOS
 62
     7
100
AcDbVertex
100
AcDb2dVertex
 10
66.00407800805071
 20
29.40046562759175
 30
0.0
  0
VERTEX
  5
8FE
330
8F9
100
AcDbEntity
  8
DIBUJOS
 62
     7
100
AcDbVertex
100
AcDb2dVertex
 10
66.08316723080618
 20
29.46066027393056
 30
0.0
  0
VERTEX
  5
8FF
330
8F9
100
AcDbEntity
  8
DIBUJOS
 62
     7
100
AcDbVertex
100
AcDb2dVertex
 10
66.269215629952
 20
29.61328594691635
 30
0.0
  0
VERTEX
  5
900
330
8F9
100
AcDbEntity
  8
DIBUJOS
 62
     7
100
AcDbVertex
100
AcDb2dVertex
 10
66.46387616175154
 20
29.88442628814285
 30
0.0
  0
VERTEX
  5
901
330
8F9
100
AcDbEntity
  8
DIBUJOS
 62
     7
100
AcDbVertex
100
AcDb2dVertex
 10
66.51683963969461
 20
29.97604693026725
 30
0.0
  0
SEQEND
  5
902
330
8F9
100
AcDbEntity
  8
DIBUJOS
 62
     7
  0
POLYLINE
  5
903
330
4F8
100
AcDbEntity
  8
DIBUJOS
 62
     7
100
AcDb2dPolyline
 66
     1
 10
0.0
 20
0.0
 30
0.0
  0
VERTEX
  5
904
330
903
100
AcDbEntity
  8
DIBUJOS
 62
     7
100
AcDbVertex
100
AcDb2dVertex
 10
65.59882173561573
 20
29.23843103229644
 30
0.0
  0
VERTEX
  5
905
330
903
100
AcDbEntity
  8
DIBUJOS
 62
     7
100
AcDbVertex
100
AcDb2dVertex
 10
65.61090115384033
 20
29.24447799793126
 30
0.0
  0
SEQEND
  5
906
330
903
100
AcDbEntity
  8
DIBUJOS
 62
     7
  0
POLYLINE
  5
907
330
4F8
100
AcDbEntity
  8
DIBUJOS
 62
     7
100
AcDb2dPolyline
 66
     1
 10
0.0
 20
0.0
 30
0.0
  0
VERTEX
  5
908
330
907
100
AcDbEntity
  8
DIBUJOS
 62
     7
100
AcDbVertex
100
AcDb2dVertex
 10
65.58070342105084
 20
29.2323856939398
 30
0.0
  0
VERTEX
  5
909
330
907
100
AcDbEntity
  8
DIBUJOS
 62
     7
100
AcDbVertex
100
AcDb2dVertex
 10
65.58674231739114
 20
29.23843103229644
 30
0.0
  0
SEQEND
  5
90A
330
907
100
AcDbEntity
  8
DIBUJOS
 62
     7
  0
POLYLINE
  5
90B
330
4F8
100
AcDbEntity
  8
DIBUJOS
 62
     7
100
AcDb2dPolyline
 66
     1
 10
0.0
 20
0.0
 30
0.0
  0
VERTEX
  5
90C
330
90B
100
AcDbEntity
  8
DIBUJOS
 62
     7
100
AcDbVertex
100
AcDb2dVertex
 10
65.54446516637705
 20
29.22633872830499
 30
0.0
  0
VERTEX
  5
90D
330
90B
100
AcDbEntity
  8
DIBUJOS
 62
     7
100
AcDbVertex
100
AcDb2dVertex
 10
65.55050406271737
 20
29.2323856939398
 30
0.0
  0
VERTEX
  5
90E
330
90B
100
AcDbEntity
  8
DIBUJOS
 62
     7
100
AcDbVertex
100
AcDb2dVertex
 10
65.56258348094195
 20
29.2323856939398
 30
0.0
  0
SEQEND
  5
90F
330
90B
100
AcDbEntity
  8
DIBUJOS
 62
     7
  0
POLYLINE
  5
910
330
4F8
100
AcDbEntity
  8
DIBUJOS
 62
     7
100
AcDb2dPolyline
 66
     1
 10
0.0
 20
0.0
 30
0.0
  0
VERTEX
  5
911
330
910
100
AcDbEntity
  8
DIBUJOS
 62
     7
100
AcDbVertex
100
AcDb2dVertex
 10
63.70842935822028
 20
29.22029338994835
 30
0.0
  0
VERTEX
  5
912
330
910
100
AcDbEntity
  8
DIBUJOS
 62
     7
100
AcDbVertex
100
AcDb2dVertex
 10
63.61179563796815
 20
29.24447799793126
 30
0.0
  0
SEQEND
  5
913
330
910
100
AcDbEntity
  8
DIBUJOS
 62
     7
  0
POLYLINE
  5
914
330
4F8
100
AcDbEntity
  8
DIBUJOS
 62
     7
100
AcDb2dPolyline
 66
     1
 10
0.0
 20
0.0
 30
0.0
  0
VERTEX
  5
915
330
914
100
AcDbEntity
  8
DIBUJOS
 62
     7
100
AcDbVertex
100
AcDb2dVertex
 10
65.52030632992852
 20
29.22029338994835
 30
0.0
  0
VERTEX
  5
916
330
914
100
AcDbEntity
  8
DIBUJOS
 62
     7
100
AcDbVertex
100
AcDb2dVertex
 10
65.53238574815246
 20
29.22633872830499
 30
0.0
  0
SEQEND
  5
917
330
914
100
AcDbEntity
  8
DIBUJOS
 62
     7
  0
POLYLINE
  5
918
330
4F8
100
AcDbEntity
  8
DIBUJOS
 62
     7
100
AcDb2dPolyline
 66
     1
 10
0.0
 20
0.0
 30
0.0
  0
VERTEX
  5
919
330
918
100
AcDbEntity
  8
DIBUJOS
 62
     7
100
AcDbVertex
100
AcDb2dVertex
 10
63.58159790517866
 20
29.21424805159171
 30
0.0
  0
VERTEX
  5
91A
330
918
100
AcDbEntity
  8
DIBUJOS
 62
     7
100
AcDbVertex
100
AcDb2dVertex
 10
63.57555900883835
 20
29.21424805159171
 30
0.0
  0
SEQEND
  5
91B
330
918
100
AcDbEntity
  8
DIBUJOS
 62
     7
  0
POLYLINE
  5
91C
330
4F8
100
AcDbEntity
  8
DIBUJOS
 62
     7
100
AcDb2dPolyline
 66
     1
 10
0.0
 20
0.0
 30
0.0
  0
VERTEX
  5
91D
330
91C
100
AcDbEntity
  8
DIBUJOS
 62
     7
100
AcDbVertex
100
AcDb2dVertex
 10
63.72654767278485
 20
29.21424805159171
 30
0.0
  0
VERTEX
  5
91E
330
91C
100
AcDbEntity
  8
DIBUJOS
 62
     7
100
AcDbVertex
100
AcDb2dVertex
 10
63.72050877644455
 20
29.22029338994835
 30
0.0
  0
SEQEND
  5
91F
330
91C
100
AcDbEntity
  8
DIBUJOS
 62
     7
  0
POLYLINE
  5
920
330
4F8
100
AcDbEntity
  8
DIBUJOS
 62
     7
100
AcDb2dPolyline
 66
     1
 10
0.0
 20
0.0
 30
0.0
  0
VERTEX
  5
921
330
920
100
AcDbEntity
  8
DIBUJOS
 62
     7
100
AcDbVertex
100
AcDb2dVertex
 10
65.50218801536361
 20
29.21424805159171
 30
0.0
  0
VERTEX
  5
922
330
920
100
AcDbEntity
  8
DIBUJOS
 62
     7
100
AcDbVertex
100
AcDb2dVertex
 10
65.50822691170391
 20
29.22029338994835
 30
0.0
  0
SEQEND
  5
923
330
920
100
AcDbEntity
  8
DIBUJOS
 62
     7
  0
POLYLINE
  5
924
330
4F8
100
AcDbEntity
  8
DIBUJOS
 62
     7
100
AcDb2dPolyline
 66
     1
 10
0.0
 20
0.0
 30
0.0
  0
VERTEX
  5
925
330
924
100
AcDbEntity
  8
DIBUJOS
 62
     7
100
AcDbVertex
100
AcDb2dVertex
 10
65.44783144612525
 20
29.20215574760025
 30
0.0
  0
VERTEX
  5
926
330
924
100
AcDbEntity
  8
DIBUJOS
 62
     7
100
AcDbVertex
100
AcDb2dVertex
 10
65.49010859713901
 20
29.21424805159171
 30
0.0
  0
SEQEND
  5
927
330
924
100
AcDbEntity
  8
DIBUJOS
 62
     7
  0
POLYLINE
  5
928
330
4F8
100
AcDbEntity
  8
DIBUJOS
 62
     7
100
AcDb2dPolyline
 66
     1
 10
0.0
 20
0.0
 30
0.0
  0
VERTEX
  5
929
330
928
100
AcDbEntity
  8
DIBUJOS
 62
     7
100
AcDbVertex
100
AcDb2dVertex
 10
65.42367260967606
 20
29.19610878196543
 30
0.0
  0
VERTEX
  5
92A
330
928
100
AcDbEntity
  8
DIBUJOS
 62
     7
100
AcDbVertex
100
AcDb2dVertex
 10
65.43575202790066
 20
29.20215574760025
 30
0.0
  0
SEQEND
  5
92B
330
928
100
AcDbEntity
  8
DIBUJOS
 62
     7
  0
POLYLINE
  5
92C
330
4F8
100
AcDbEntity
  8
DIBUJOS
 62
     7
100
AcDb2dPolyline
 66
     1
 10
0.0
 20
0.0
 30
0.0
  0
VERTEX
  5
92D
330
92C
100
AcDbEntity
  8
DIBUJOS
 62
     7
100
AcDbVertex
100
AcDb2dVertex
 10
63.88961738049961
 20
29.17797113961798
 30
0.0
  0
VERTEX
  5
92E
330
92C
100
AcDbEntity
  8
DIBUJOS
 62
     7
100
AcDbVertex
100
AcDb2dVertex
 10
63.75123968769945
 20
29.21033444762202
 30
0.0
  0
VERTEX
  5
92F
330
92C
100
AcDbEntity
  8
DIBUJOS
 62
     7
100
AcDbVertex
100
AcDb2dVertex
 10
63.74466761289374
 20
29.21424805159171
 30
0.0
  0
SEQEND
  5
930
330
92C
100
AcDbEntity
  8
DIBUJOS
 62
     7
  0
POLYLINE
  5
931
330
4F8
100
AcDbEntity
  8
DIBUJOS
 62
     7
100
AcDb2dPolyline
 66
     1
 10
0.0
 20
0.0
 30
0.0
  0
VERTEX
  5
932
330
931
100
AcDbEntity
  8
DIBUJOS
 62
     7
100
AcDbVertex
100
AcDb2dVertex
 10
63.98625110075173
 20
29.16587883562652
 30
0.0
  0
VERTEX
  5
933
330
931
100
AcDbEntity
  8
DIBUJOS
 62
     7
100
AcDbVertex
100
AcDb2dVertex
 10
63.9016967987242
 20
29.17797113961798
 30
0.0
  0
SEQEND
  5
934
330
931
100
AcDbEntity
  8
DIBUJOS
 62
     7
  0
POLYLINE
  5
935
330
4F8
100
AcDbEntity
  8
DIBUJOS
 62
     7
100
AcDb2dPolyline
 66
     1
 10
0.0
 20
0.0
 30
0.0
  0
VERTEX
  5
936
330
935
100
AcDbEntity
  8
DIBUJOS
 62
     7
100
AcDbVertex
100
AcDb2dVertex
 10
65.22436627283183
 20
29.16587883562652
 30
0.0
  0
VERTEX
  5
937
330
935
100
AcDbEntity
  8
DIBUJOS
 62
     7
100
AcDbVertex
100
AcDb2dVertex
 10
65.29651604781458
 20
29.17452944631387
 30
0.0
  0
VERTEX
  5
938
330
935
100
AcDbEntity
  8
DIBUJOS
 62
     7
100
AcDbVertex
100
AcDb2dVertex
 10
65.38200016106852
 20
29.18824902846316
 30
0.0
  0
VERTEX
  5
939
330
935
100
AcDbEntity
  8
DIBUJOS
 62
     7
100
AcDbVertex
100
AcDb2dVertex
 10
65.41159481699577
 20
29.19610878196543
 30
0.0
  0
SEQEND
  5
93A
330
935
100
AcDbEntity
  8
DIBUJOS
 62
     7
  0
POLYLINE
  5
93B
330
4F8
100
AcDbEntity
  8
DIBUJOS
 62
     7
100
AcDb2dPolyline
 66
     1
 10
0.0
 20
0.0
 30
0.0
  0
VERTEX
  5
93C
330
93B
100
AcDbEntity
  8
DIBUJOS
 62
     7
100
AcDbVertex
100
AcDb2dVertex
 10
64.09496261368415
 20
29.15378653163506
 30
0.0
  0
VERTEX
  5
93D
330
93B
100
AcDbEntity
  8
DIBUJOS
 62
     7
100
AcDbVertex
100
AcDb2dVertex
 10
63.99833051897632
 20
29.16587883562652
 30
0.0
  0
SEQEND
  5
93E
330
93B
100
AcDbEntity
  8
DIBUJOS
 62
     7
  0
POLYLINE
  5
93F
330
4F8
100
AcDbEntity
  8
DIBUJOS
 62
     7
100
AcDb2dPolyline
 66
     1
 10
0.0
 20
0.0
 30
0.0
  0
VERTEX
  5
940
330
93F
100
AcDbEntity
  8
DIBUJOS
 62
     7
100
AcDbVertex
100
AcDb2dVertex
 10
65.12773255257939
 20
29.15378653163506
 30
0.0
  0
VERTEX
  5
941
330
93F
100
AcDbEntity
  8
DIBUJOS
 62
     7
100
AcDbVertex
100
AcDb2dVertex
 10
65.21228685460724
 20
29.16587883562652
 30
0.0
  0
SEQEND
  5
942
330
93F
100
AcDbEntity
  8
DIBUJOS
 62
     7
  0
POLYLINE
  5
943
330
4F8
100
AcDbEntity
  8
DIBUJOS
 62
     7
100
AcDb2dPolyline
 66
     1
 10
0.0
 20
0.0
 30
0.0
  0
VERTEX
  5
944
330
943
100
AcDbEntity
  8
DIBUJOS
 62
     7
100
AcDbVertex
100
AcDb2dVertex
 10
65.39347487688721
 20
29.15378653163506
 30
0.0
  0
VERTEX
  5
945
330
943
100
AcDbEntity
  8
DIBUJOS
 62
     7
100
AcDbVertex
100
AcDb2dVertex
 10
65.38743598054658
 20
29.15378653163506
 30
0.0
  0
SEQEND
  5
946
330
943
100
AcDbEntity
  8
DIBUJOS
 62
     7
  0
POLYLINE
  5
947
330
4F8
100
AcDbEntity
  8
DIBUJOS
 62
     7
100
AcDb2dPolyline
 66
     1
 10
0.0
 20
0.0
 30
0.0
  0
VERTEX
  5
948
330
947
100
AcDbEntity
  8
DIBUJOS
 62
     7
100
AcDbVertex
100
AcDb2dVertex
 10
64.1432802865822
 20
29.14774119327778
 30
0.0
  0
VERTEX
  5
949
330
947
100
AcDbEntity
  8
DIBUJOS
 62
     7
100
AcDbVertex
100
AcDb2dVertex
 10
64.10704203190873
 20
29.15378653163506
 30
0.0
  0
SEQEND
  5
94A
330
947
100
AcDbEntity
  8
DIBUJOS
 62
     7
  0
POLYLINE
  5
94B
330
4F8
100
AcDbEntity
  8
DIBUJOS
 62
     7
100
AcDb2dPolyline
 66
     1
 10
0.0
 20
0.0
 30
0.0
  0
VERTEX
  5
94C
330
94B
100
AcDbEntity
  8
DIBUJOS
 62
     7
100
AcDbVertex
100
AcDb2dVertex
 10
65.09149592345055
 20
29.14774119327778
 30
0.0
  0
VERTEX
  5
94D
330
94B
100
AcDbEntity
  8
DIBUJOS
 62
     7
100
AcDbVertex
100
AcDb2dVertex
 10
65.09753481979054
 20
29.15378653163506
 30
0.0
  0
VERTEX
  5
94E
330
94B
100
AcDbEntity
  8
DIBUJOS
 62
     7
100
AcDbVertex
100
AcDb2dVertex
 10
65.1156547598991
 20
29.15378653163506
 30
0.0
  0
SEQEND
  5
94F
330
94B
100
AcDbEntity
  8
DIBUJOS
 62
     7
  0
POLYLINE
  5
950
330
4F8
100
AcDbEntity
  8
DIBUJOS
 62
     7
100
AcDb2dPolyline
 66
     1
 10
0.0
 20
0.0
 30
0.0
  0
VERTEX
  5
951
330
950
100
AcDbEntity
  8
DIBUJOS
 62
     7
100
AcDbVertex
100
AcDb2dVertex
 10
65.32099999308396
 20
29.1416942276436
 30
0.0
  0
VERTEX
  5
952
330
950
100
AcDbEntity
  8
DIBUJOS
 62
     7
100
AcDbVertex
100
AcDb2dVertex
 10
65.31496109674366
 20
29.1416942276436
 30
0.0
  0
SEQEND
  5
953
330
950
100
AcDbEntity
  8
DIBUJOS
 62
     7
  0
POLYLINE
  5
954
330
4F8
100
AcDbEntity
  8
DIBUJOS
 62
     7
100
AcDb2dPolyline
 66
     1
 10
0.0
 20
0.0
 30
0.0
  0
VERTEX
  5
955
330
954
100
AcDbEntity
  8
DIBUJOS
 62
     7
100
AcDbVertex
100
AcDb2dVertex
 10
64.25199342505924
 20
29.13564888928697
 30
0.0
  0
VERTEX
  5
956
330
954
100
AcDbEntity
  8
DIBUJOS
 62
     7
100
AcDbVertex
100
AcDb2dVertex
 10
64.15535970480678
 20
29.14774119327778
 30
0.0
  0
SEQEND
  5
957
330
954
100
AcDbEntity
  8
DIBUJOS
 62
     7
  0
POLYLINE
  5
958
330
4F8
100
AcDbEntity
  8
DIBUJOS
 62
     7
100
AcDb2dPolyline
 66
     1
 10
0.0
 20
0.0
 30
0.0
  0
VERTEX
  5
959
330
958
100
AcDbEntity
  8
DIBUJOS
 62
     7
100
AcDbVertex
100
AcDb2dVertex
 10
64.39694319266478
 20
29.12960355093032
 30
0.0
  0
VERTEX
  5
95A
330
958
100
AcDbEntity
  8
DIBUJOS
 62
     7
100
AcDbVertex
100
AcDb2dVertex
 10
64.2640712177392
 20
29.13564888928697
 30
0.0
  0
SEQEND
  5
95B
330
958
100
AcDbEntity
  8
DIBUJOS
 62
     7
  0
POLYLINE
  5
95C
330
4F8
100
AcDbEntity
  8
DIBUJOS
 62
     7
100
AcDb2dPolyline
 66
     1
 10
0.0
 20
0.0
 30
0.0
  0
VERTEX
  5
95D
330
95C
100
AcDbEntity
  8
DIBUJOS
 62
     7
100
AcDbVertex
100
AcDb2dVertex
 10
64.80763528457848
 20
29.12960355093032
 30
0.0
  0
VERTEX
  5
95E
330
95C
100
AcDbEntity
  8
DIBUJOS
 62
     7
100
AcDbVertex
100
AcDb2dVertex
 10
64.8015947626942
 20
29.12960355093032
 30
0.0
  0
SEQEND
  5
95F
330
95C
100
AcDbEntity
  8
DIBUJOS
 62
     7
  0
POLYLINE
  5
960
330
4F8
100
AcDbEntity
  8
DIBUJOS
 62
     7
100
AcDb2dPolyline
 66
     1
 10
0.0
 20
0.0
 30
0.0
  0
VERTEX
  5
961
330
960
100
AcDbEntity
  8
DIBUJOS
 62
     7
100
AcDbVertex
100
AcDb2dVertex
 10
64.82575359914273
 20
29.12960355093032
 30
0.0
  0
VERTEX
  5
962
330
960
100
AcDbEntity
  8
DIBUJOS
 62
     7
100
AcDbVertex
100
AcDb2dVertex
 10
64.81971470280276
 20
29.12960355093032
 30
0.0
  0
SEQEND
  5
963
330
960
100
AcDbEntity
  8
DIBUJOS
 62
     7
  0
POLYLINE
  5
964
330
4F8
100
AcDbEntity
  8
DIBUJOS
 62
     7
100
AcDb2dPolyline
 66
     1
 10
0.0
 20
0.0
 30
0.0
  0
VERTEX
  5
965
330
964
100
AcDbEntity
  8
DIBUJOS
 62
     7
100
AcDbVertex
100
AcDb2dVertex
 10
64.84387191370763
 20
29.12960355093032
 30
0.0
  0
VERTEX
  5
966
330
964
100
AcDbEntity
  8
DIBUJOS
 62
     7
100
AcDbVertex
100
AcDb2dVertex
 10
65.07941650522596
 20
29.14774119327778
 30
0.0
  0
SEQEND
  5
967
330
964
100
AcDbEntity
  8
DIBUJOS
 62
     7
  0
POLYLINE
  5
968
330
4F8
100
AcDbEntity
  8
DIBUJOS
 62
     7
100
AcDb2dPolyline
 66
     1
 10
0.0
 20
0.0
 30
0.0
  0
VERTEX
  5
969
330
968
100
AcDbEntity
  8
DIBUJOS
 62
     7
100
AcDbVertex
100
AcDb2dVertex
 10
64.53585406393067
 20
29.12355658529551
 30
0.0
  0
VERTEX
  5
96A
330
968
100
AcDbEntity
  8
DIBUJOS
 62
     7
100
AcDbVertex
100
AcDb2dVertex
 10
64.40902261088938
 20
29.12960355093032
 30
0.0
  0
SEQEND
  5
96B
330
968
100
AcDbEntity
  8
DIBUJOS
 62
     7
  0
POLYLINE
  5
96C
330
4F8
100
AcDbEntity
  8
DIBUJOS
 62
     7
100
AcDb2dPolyline
 66
     1
 10
0.0
 20
0.0
 30
0.0
  0
VERTEX
  5
96D
330
96C
100
AcDbEntity
  8
DIBUJOS
 62
     7
100
AcDbVertex
100
AcDb2dVertex
 10
64.55397237849557
 20
29.12355658529551
 30
0.0
  0
VERTEX
  5
96E
330
96C
100
AcDbEntity
  8
DIBUJOS
 62
     7
100
AcDbVertex
100
AcDb2dVertex
 10
64.5479318566116
 20
29.12355658529551
 30
0.0
  0
SEQEND
  5
96F
330
96C
100
AcDbEntity
  8
DIBUJOS
 62
     7
  0
POLYLINE
  5
970
330
4F8
100
AcDbEntity
  8
DIBUJOS
 62
     7
100
AcDb2dPolyline
 66
     1
 10
0.0
 20
0.0
 30
0.0
  0
VERTEX
  5
971
330
970
100
AcDbEntity
  8
DIBUJOS
 62
     7
100
AcDbVertex
100
AcDb2dVertex
 10
64.63248615863881
 20
29.12355658529551
 30
0.0
  0
VERTEX
  5
972
330
970
100
AcDbEntity
  8
DIBUJOS
 62
     7
100
AcDbVertex
100
AcDb2dVertex
 10
64.56605179672016
 20
29.12355658529551
 30
0.0
  0
SEQEND
  5
973
330
970
100
AcDbEntity
  8
DIBUJOS
 62
     7
  0
POLYLINE
  5
974
330
4F8
100
AcDbEntity
  8
DIBUJOS
 62
     7
100
AcDb2dPolyline
 66
     1
 10
0.0
 20
0.0
 30
0.0
  0
VERTEX
  5
975
330
974
100
AcDbEntity
  8
DIBUJOS
 62
     7
100
AcDbVertex
100
AcDb2dVertex
 10
64.67476330965289
 20
29.12355658529551
 30
0.0
  0
VERTEX
  5
976
330
974
100
AcDbEntity
  8
DIBUJOS
 62
     7
100
AcDbVertex
100
AcDb2dVertex
 10
64.66268551697196
 20
29.12355658529551
 30
0.0
  0
SEQEND
  5
977
330
974
100
AcDbEntity
  8
DIBUJOS
 62
     7
  0
POLYLINE
  5
978
330
4F8
100
AcDbEntity
  8
DIBUJOS
 62
     7
100
AcDb2dPolyline
 66
     1
 10
0.0
 20
0.0
 30
0.0
  0
VERTEX
  5
979
330
978
100
AcDbEntity
  8
DIBUJOS
 62
     7
100
AcDbVertex
100
AcDb2dVertex
 10
64.69288324976145
 20
29.12355658529551
 30
0.0
  0
VERTEX
  5
97A
330
978
100
AcDbEntity
  8
DIBUJOS
 62
     7
100
AcDbVertex
100
AcDb2dVertex
 10
64.68684272787716
 20
29.12355658529551
 30
0.0
  0
SEQEND
  5
97B
330
978
100
AcDbEntity
  8
DIBUJOS
 62
     7
  0
POLYLINE
  5
97C
330
4F8
100
AcDbEntity
  8
DIBUJOS
 62
     7
100
AcDb2dPolyline
 66
     1
 10
0.0
 20
0.0
 30
0.0
  0
VERTEX
  5
97D
330
97C
100
AcDbEntity
  8
DIBUJOS
 62
     7
100
AcDbVertex
100
AcDb2dVertex
 10
64.71100156432604
 20
29.12355658529551
 30
0.0
  0
VERTEX
  5
97E
330
97C
100
AcDbEntity
  8
DIBUJOS
 62
     7
100
AcDbVertex
100
AcDb2dVertex
 10
64.78347644812929
 20
29.12960355093032
 30
0.0
  0
SEQEND
  5
97F
330
97C
100
AcDbEntity
  8
DIBUJOS
 62
     7
  0
POLYLINE
  5
980
330
4F8
100
AcDbEntity
  8
DIBUJOS
 62
     7
100
AcDb2dPolyline
 66
     1
 10
0.0
 20
0.0
 30
0.0
  0
VERTEX
  5
981
330
980
100
AcDbEntity
  8
DIBUJOS
 62
     7
100
AcDbVertex
100
AcDb2dVertex
 10
62.65150058287584
 20
29.66770050123881
 30
0.0
  0
VERTEX
  5
982
330
980
100
AcDbEntity
  8
DIBUJOS
 62
     7
100
AcDbVertex
100
AcDb2dVertex
 10
62.66218690980449
 20
29.65467739414161
 30
0.0
  0
VERTEX
  5
983
330
980
100
AcDbEntity
  8
DIBUJOS
 62
     7
100
AcDbVertex
100
AcDb2dVertex
 10
62.802490872366
 20
29.46213458794168
 30
0.0
  0
VERTEX
  5
984
330
980
100
AcDbEntity
  8
DIBUJOS
 62
     7
100
AcDbVertex
100
AcDb2dVertex
 10
62.83872912703978
 20
29.42585930324548
 30
0.0
  0
VERTEX
  5
985
330
980
100
AcDbEntity
  8
DIBUJOS
 62
     7
100
AcDbVertex
100
AcDb2dVertex
 10
63.02713456513356
 20
29.27618225828193
 30
0.0
  0
VERTEX
  5
986
330
980
100
AcDbEntity
  8
DIBUJOS
 62
     7
100
AcDbVertex
100
AcDb2dVertex
 10
63.09357055259651
 20
29.22176770395946
 30
0.0
  0
VERTEX
  5
987
330
980
100
AcDbEntity
  8
DIBUJOS
 62
     7
100
AcDbVertex
100
AcDb2dVertex
 10
63.1715105156715
 20
29.18522717292425
 30
0.0
  0
VERTEX
  5
988
330
980
100
AcDbEntity
  8
DIBUJOS
 62
     7
100
AcDbVertex
100
AcDb2dVertex
 10
63.18842105096827
 20
29.17676207194652
 30
0.0
  0
VERTEX
  5
989
330
980
100
AcDbEntity
  8
DIBUJOS
 62
     7
100
AcDbVertex
100
AcDb2dVertex
 10
63.4432202123785
 20
29.05918471592489
 30
0.0
  0
VERTEX
  5
98A
330
980
100
AcDbEntity
  8
DIBUJOS
 62
     7
100
AcDbVertex
100
AcDb2dVertex
 10
63.65958013240049
 20
29.00654877662944
 30
0.0
  0
VERTEX
  5
98B
330
980
100
AcDbEntity
  8
DIBUJOS
 62
     7
100
AcDbVertex
100
AcDb2dVertex
 10
63.84763445296839
 20
28.96296864028294
 30
0.0
  0
VERTEX
  5
98C
330
980
100
AcDbEntity
  8
DIBUJOS
 62
     7
100
AcDbVertex
100
AcDb2dVertex
 10
63.89536205335737
 20
28.957658831654
 30
0.0
  0
VERTEX
  5
98D
330
980
100
AcDbEntity
  8
DIBUJOS
 62
     7
100
AcDbVertex
100
AcDb2dVertex
 10
64.28231632474395
 20
28.91483212509387
 30
0.0
  0
VERTEX
  5
98E
330
980
100
AcDbEntity
  8
DIBUJOS
 62
     7
100
AcDbVertex
100
AcDb2dVertex
 10
64.42122231937756
 20
28.90879166857176
 30
0.0
  0
VERTEX
  5
98F
330
980
100
AcDbEntity
  8
DIBUJOS
 62
     7
100
AcDbVertex
100
AcDb2dVertex
 10
64.66268551697196
 20
28.89985302965027
 30
0.0
  0
VERTEX
  5
990
330
980
100
AcDbEntity
  8
DIBUJOS
 62
     7
100
AcDbVertex
100
AcDb2dVertex
 10
64.94642586558078
 20
28.9148370069284
 30
0.0
  0
VERTEX
  5
991
330
980
100
AcDbEntity
  8
DIBUJOS
 62
     7
100
AcDbVertex
100
AcDb2dVertex
 10
65.27842861858765
 20
28.95087633629148
 30
0.0
  0
VERTEX
  5
992
330
980
100
AcDbEntity
  8
DIBUJOS
 62
     7
100
AcDbVertex
100
AcDb2dVertex
 10
65.3750314535018
 20
28.96291819466009
 30
0.0
  0
VERTEX
  5
993
330
980
100
AcDbEntity
  8
DIBUJOS
 62
     7
100
AcDbVertex
100
AcDb2dVertex
 10
65.53185256968706
 20
28.99872482324642
 30
0.0
  0
VERTEX
  5
994
330
980
100
AcDbEntity
  8
DIBUJOS
 62
     7
100
AcDbVertex
100
AcDb2dVertex
 10
65.78551547576964
 20
29.05918471592489
 30
0.0
  0
VERTEX
  5
995
330
980
100
AcDbEntity
  8
DIBUJOS
 62
     7
100
AcDbVertex
100
AcDb2dVertex
 10
66.01494964700686
 20
29.16708790329798
 30
0.0
  0
VERTEX
  5
996
330
980
100
AcDbEntity
  8
DIBUJOS
 62
     7
100
AcDbVertex
100
AcDb2dVertex
 10
66.12486893920804
 20
29.21908432227689
 30
0.0
  0
VERTEX
  5
997
330
980
100
AcDbEntity
  8
DIBUJOS
 62
     7
100
AcDbVertex
100
AcDb2dVertex
 10
66.3718882465441
 20
29.41376699925403
 30
0.0
  0
VERTEX
  5
998
330
980
100
AcDbEntity
  8
DIBUJOS
 62
     7
100
AcDbVertex
100
AcDb2dVertex
 10
66.43228533766708
 20
29.47422689193314
 30
0.0
  0
VERTEX
  5
999
330
980
100
AcDbEntity
  8
DIBUJOS
 62
     7
100
AcDbVertex
100
AcDb2dVertex
 10
66.56056515050335
 20
29.6484725825249
 30
0.0
  0
VERTEX
  5
99A
330
980
100
AcDbEntity
  8
DIBUJOS
 62
     7
100
AcDbVertex
100
AcDb2dVertex
 10
66.57723510527295
 20
29.66770050123881
 30
0.0
  0
SEQEND
  5
99B
330
980
100
AcDbEntity
  8
DIBUJOS
 62
     7
  0
ENDBLK
  5
4FB
330
4F8
100
AcDbEntity
  8
0
100
AcDbBlockEnd
  0
ENDSEC
  0
SECTION
  2
ENTITIES
  0
MTEXT
  5
41
330
1F
100
AcDbEntity
  8
REFERENCIAS
 62
   255
100
AcDbMText
 10
61.49112712594395
 20
54.85563098807646
 30
0.0
 40
1.49859999962535
 41
0.0
 71
     7
 72
     1
  1
\fMyriad Pro|b0|i0|c0|p34;\W1;NOVA_9435__POUF
  0
MTEXT
  5
43
330
1F
100
AcDbEntity
  8
M_U_00C1RGENES
 62
   255
100
AcDbMText
 10
90.14127864703391
 20
23.7555119243149
 30
0.0
 40
1.748366666229575
 41
0.0
 71
     7
 72
     1
  1
\fMyriad Pro|b0|i0|c0|p34;\W1;400
  0
MTEXT
  5
44
330
1F
100
AcDbEntity
  8
M_U_00C1RGENES
 62
   255
100
AcDbMText
 10
84.21176331851954
 20
20.50332059082737
 30
0.0
 40
1.748366666229575
 41
0.0
 71
     7
 72
     1
  1
\fMyriad Pro|b0|i0|c0|p34;\W1;400
  0
POLYLINE
  5
45
330
1F
100
AcDbEntity
  8
M_U_00C1RGENES
 62
   255
100
AcDb2dPolyline
 66
     1
 10
0.0
 20
0.0
 30
0.0
  0
VERTEX
  5
46
330
45
100
AcDbEntity
  8
M_U_00C1RGENES
 62
   255
100
AcDbVertex
100
AcDb2dVertex
 10
84.41666477502157
 20
24.76314475783758
 30
0.0
  0
VERTEX
  5
47
330
45
100
AcDbEntity
  8
M_U_00C1RGENES
 62
   255
100
AcDbVertex
100
AcDb2dVertex
 10
94.99999810570907
 20
19.74726776251925
 30
0.0
  0
SEQEND
  5
48
330
45
100
AcDbEntity
  8
M_U_00C1RGENES
 62
   255
  0
POLYLINE
  5
49
330
1F
100
AcDbEntity
  8
M_U_00C1RGENES
 62
   254
100
AcDb2dPolyline
 66
     1
 10
0.0
 20
0.0
 30
0.0
  0
VERTEX
  5
4A
330
49
100
AcDbEntity
  8
M_U_00C1RGENES
 62
   254
100
AcDbVertex
100
AcDb2dVertex
 10
54.99999767595828
 20
20.88258920325216
 30
0.0
  0
VERTEX
  5
4B
330
49
100
AcDbEntity
  8
M_U_00C1RGENES
 62
   254
100
AcDbVertex
100
AcDb2dVertex
 10
54.99999767595828
 20
19.74726776251925
 30
0.0
  0
SEQEND
  5
4C
330
49
100
AcDbEntity
  8
M_U_00C1RGENES
 62
   254
  0
POLYLINE
  5
4D
330
1F
100
AcDbEntity
  8
M_U_00C1RGENES
 62
   255
100
AcDb2dPolyline
 66
     1
 10
0.0
 20
0.0
 30
0.0
  0
VERTEX
  5
4E
330
4D
100
AcDbEntity
  8
M_U_00C1RGENES
 62
   255
100
AcDbVertex
100
AcDb2dVertex
 10
94.99999797321169
 20
59.74726768656564
 30
0.0
  0
VERTEX
  5
4F
330
4D
100
AcDbEntity
  8
M_U_00C1RGENES
 62
   255
100
AcDbVertex
100
AcDb2dVertex
 10
93.86467653247878
 20
59.74726768651462
 30
0.0
  0
SEQEND
  5
50
330
4D
100
AcDbEntity
  8
M_U_00C1RGENES
 62
   255
  0
INSERT
  5
53
330
1F
100
AcDbEntity
  8
DIBUJOS
100
AcDbBlockReference
  2
BLOCK_2
 10
0.0
 20
0.0
 30
0.0
  0
INSERT
  5
113
330
1F
100
AcDbEntity
  8
DIBUJOS
100
AcDbBlockReference
  2
BLOCK_3
 10
0.0
 20
0.0
 30
0.0
  0
INSERT
  5
4F9
330
1F
100
AcDbEntity
  8
DIBUJOS
100
AcDbBlockReference
  2
BLOCK_4
 10
0.0
 20
0.0
 30
0.0
  0
POLYLINE
  5
99D
330
1F
100
AcDbEntity
  8
COTAS_LINEA
 62
     7
100
AcDb2dPolyline
 66
     1
 10
0.0
 20
0.0
 30
0.0
  0
VERTEX
  5
99E
330
99D
100
AcDbEntity
  8
COTAS_LINEA
 62
     7
100
AcDbVertex
100
AcDb2dVertex
 10
69.50282335947695
 20
47.71318755890042
 30
0.0
  0
VERTEX
  5
99F
330
99D
100
AcDbEntity
  8
COTAS_LINEA
 62
     7
100
AcDbVertex
100
AcDb2dVertex
 10
69.50282336078345
 20
42.33145573149524
 30
0.0
  0
SEQEND
  5
9A0
330
99D
100
AcDbEntity
  8
COTAS_LINEA
 62
     7
  0
POLYLINE
  5
9A1
330
1F
100
AcDbEntity
  8
COTAS_LINEA
 62
     7
100
AcDb2dPolyline
 66
     1
 10
0.0
 20
0.0
 30
0.0
  0
VERTEX
  5
9A2
330
9A1
100
AcDbEntity
  8
COTAS_LINEA
 62
     7
100
AcDbVertex
100
AcDb2dVertex
 10
79.26793728705994
 20
38.66119575631178
 30
0.0
  0
VERTEX
  5
9A3
330
9A1
100
AcDbEntity
  8
COTAS_LINEA
 62
     7
100
AcDbVertex
100
AcDb2dVertex
 10
87.25892328953054
 20
38.66119575631178
 30
0.0
  0
SEQEND
  5
9A4
330
9A1
100
AcDbEntity
  8
COTAS_LINEA
 62
     7
  0
POLYLINE
  5
9A5
330
1F
100
AcDbEntity
  8
COTAS_LINEA
 62
     7
100
AcDb2dPolyline
 66
     1
 10
0.0
 20
0.0
 30
0.0
  0
VERTEX
  5
9A6
330
9A5
100
AcDbEntity
  8
COTAS_LINEA
 62
     7
100
AcDbVertex
100
AcDb2dVertex
 10
61.60456795805398
 20
38.66119575631178
 30
0.0
  0
VERTEX
  5
9A7
330
9A5
100
AcDbEntity
  8
COTAS_LINEA
 62
     7
100
AcDbVertex
100
AcDb2dVertex
 10
67.80351820943932
 20
38.66119575631178
 30
0.0
  0
SEQEND
  5
9A8
330
9A5
100
AcDbEntity
  8
COTAS_LINEA
 62
     7
  0
MTEXT
  5
9AA
330
1F
100
AcDbEntity
  8
COTAS_N_U_00DAMERO
 62
     7
100
AcDbMText
 10
70.26136860680397
 20
44.06186691878055
 30
0.0
 40
1.998533025814148
 41
0.0
 71
     7
 72
     1
  1
\fMyriad Pro|b0|i0|c0|p34;\W1;47
  0
MTEXT
  5
9AB
330
1F
100
AcDbEntity
  8
COTAS_N_U_00DAMERO
 62
     7
100
AcDbMText
 10
81.68668596556738
 20
39.21634011877664
 30
0.0
 40
1.998533025814148
 41
0.0
 71
     7
 72
     1
  1
\fMyriad Pro|b0|i0|c0|p34;\W1;49
  0
MTEXT
  5
9AC
330
1F
100
AcDbEntity
  8
COTAS_N_U_00DAMERO
 62
     7
100
AcDbMText
 10
63.19841417216156
 20
39.21616786400239
 30
0.0
 40
1.998533025814148
 41
0.0
 71
     7
 72
     1
  1
\fMyriad Pro|b0|i0|c0|p34;\W1;50
  0
ENDSEC
  0
SECTION
  2
OBJECTS
  0
DICTIONARY
  5
C
330
0
100
AcDbDictionary
  3
ACAD_GROUP
350
D
  3
ACAD_LAYOUT
350
1A
  3
ACAD_MATERIAL
350
3B
  3
ACAD_MLEADERSTYLE
350
9D2
  3
ACAD_MLINESTYLE
350
17
  3
ACAD_PLOTSETTINGS
350
19
  3
ACAD_VISUALSTYLE
350
2A
  3
ACDBHEADERROUNDTRIPXREC
350
9B0
  3
ACDBVARIABLEDICTIONARY
350
9D0
  0
DICTIONARY
  5
D
102
{ACAD_REACTORS
330
C
102
}
330
C
100
AcDbDictionary
  0
DICTIONARY
  5
1A
102
{ACAD_REACTORS
330
C
102
}
330
C
100
AcDbDictionary
  0
DICTIONARY
  5
3B
102
{ACAD_REACTORS
330
C
102
}
330
C
100
AcDbDictionary
  3
BYBLOCK
350
3D
  3
BYLAYER
350
3C
  3
GLOBAL
350
3E
  0
DICTIONARY
  5
9D2
102
{ACAD_REACTORS
330
C
102
}
330
C
100
AcDbDictionary
  0
DICTIONARY
  5
17
102
{ACAD_REACTORS
330
C
102
}
330
C
100
AcDbDictionary
  3
STANDARD
350
18
  0
DICTIONARY
  5
19
102
{ACAD_REACTORS
330
C
102
}
330
C
100
AcDbDictionary
  0
DICTIONARY
  5
2A
102
{ACAD_REACTORS
330
C
102
}
330
C
100
AcDbDictionary
  3
2DWIREFRAME
350
2F
  3
3D_HIDDEN
350
31
  3
3DWIREFRAME
350
30
  3
BASIC
350
32
  3
BRIGHTEN
350
36
  3
COLORCHANGE
350
3A
  3
CONCEPTUAL
350
34
  3
DIM
350
35
  3
FACEPATTERN
350
39
  3
FLAT
350
2B
  3
FLATWITHEDGES
350
2C
  3
GOURAUD
350
2D
  3
GOURAUDWITHEDGES
350
2E
  3
LINEPATTERN
350
38
  3
REALISTIC
350
33
  3
THICKEN
350
37
  0
DICTIONARY
  5
9B0
102
{ACAD_REACTORS
330
C
102
}
330
C
100
AcDbDictionary
  3
CEPSNTYPE
350
9B9
  3
DIMSTYLEDATA
350
9CF
  3
FINGERPRINTGUID
350
9BA
  3
HYPERLINKBASE
350
9B3
  3
INSUNITS
350
9B8
  3
LAYOUTDICT
350
9B5
  3
LWETCUNION
350
9B7
  3
PLOTSETDICT
350
9B6
  3
PSVPSCALE
350
9BC
  3
PUCSBASE
350
9BF
  3
PUCSORGBACK
350
9C5
  3
PUCSORGBOTTOM
350
9C1
  3
PUCSORGFRONT
350
9C4
  3
PUCSORGLEFT
350
9C2
  3
PUCSORGRIGHT
350
9C3
  3
PUCSORGTOP
350
9C0
  3
PUCSORTHOREF
350
9BD
  3
PUCSORTHOVIEW
350
9BE
  3
STYLESHEET
350
9B4
  3
TSTACKALIGN
350
9B1
  3
TSTACKSIZE
350
9B2
  3
UCSBASE
350
9C8
  3
UCSORGBACK
350
9CE
  3
UCSORGBOTTOM
350
9CA
  3
UCSORGFRONT
350
9CD
  3
UCSORGLEFT
350
9CB
  3
UCSORGRIGHT
350
9CC
  3
UCSORGTOP
350
9C9
  3
UCSORTHOREF
350
9C6
  3
UCSORTHOVIEW
350
9C7
  3
VERSIONGUID
350
9BB
  0
DICTIONARY
  5
9D0
102
{ACAD_REACTORS
330
C
102
}
330
C
100
AcDbDictionary
  3
DIMASSOC
350
9D3
  3
HIDETEXT
350
9D4
  0
MATERIAL
  5
3D
102
{ACAD_REACTORS
330
3B
102
}
102
{ACAD_XDICTIONARY
360
9D7
102
}
330
3B
100
AcDbMaterial
  1
ByBlock
  0
MATERIAL
  5
3C
102
{ACAD_REACTORS
330
3B
102
}
102
{ACAD_XDICTIONARY
360
9D5
102
}
330
3B
100
AcDbMaterial
  1
ByLayer
  0
MATERIAL
  5
3E
102
{ACAD_REACTORS
330
3B
102
}
102
{ACAD_XDICTIONARY
360
9D9
102
}
330
3B
100
AcDbMaterial
  1
Global
  0
MLINESTYLE
  5
18
102
{ACAD_REACTORS
330
17
102
}
330
17
100
AcDbMlineStyle
  2
Standard
 70
     0
  3

 62
   256
 51
90.0
 52
90.0
 71
     2
 49
0.5
 62
   256
  6
BYLAYER
 49
-0.5
 62
   256
  6
BYLAYER
  0
ACAD_PROXY_OBJECT
  5
2F
102
{ACAD_REACTORS
330
2A
102
}
330
2A
100
AcDbProxyObject
 90
      499
 91
      501
 93
      436
310
42CC9915DA5C99599C985B595049028333333333333E3BF0000000000000FB0107901411070040501600405405064090741402480A0340
1001
ACAD
1000
AcDbSavedByObjectVersion
1070
     0
  0
ACAD_PROXY_OBJECT
  5
31
102
{ACAD_REACTORS
330
2A
102
}
330
2A
100
AcDbProxyObject
 90
      499
 91
      501
 93
      500
310
424CD108121A5919195B90640502408333333333333E3BF0000000000000FB01079024090700405020000000000001110200405405064090740C02480A0340
1001
ACAD
1000
AcDbSavedByObjectVersion
1070
     0
  0
ACAD_PROXY_OBJECT
  5
30
102
{ACAD_REACTORS
330
2A
102
}
330
2A
100
AcDbProxyObject
 90
      499
 91
      501
 93
      436
310
42CCD915DA5C99599C985B595059028333333333333E3BF0000000000000FB0107901411070040501600405405064090741402480A0340
1001
ACAD
1000
AcDbSavedByObjectVersion
1070
     0
  0
ACAD_PROXY_OBJECT
  5
32
102
{ACAD_REACTORS
330
2A
102
}
330
2A
100
AcDbProxyObject
 90
      499
 91
      501
 93
      388
310
4150985CDA58D07406404333333333333E3BF0000000000000FB0107A41107004050150841D405064090741402480A0350
1001
ACAD
1000
AcDbSavedByObjectVersion
1070
     0
  0
ACAD_PROXY_OBJECT
  5
36
102
{ACAD_REACTORS
330
2A
102
}
330
2A
100
AcDbProxyObject
 90
      499
 91
      501
 93
      428
310
42109C9A59DA1D195B90C409028333333333333E3BF0000000000000FB010790141107004050150841D405064090741402480A029950
1001
ACAD
1000
AcDbSavedByObjectVersion
1070
     0
  0
ACAD_PROXY_OBJECT
  5
3A
102
{ACAD_REACTORS
330
2A
102
}
330
2A
100
AcDbProxyObject
 90
      499
 91
      501
 93
      452
310
42D0DBDB1BDC90DA185B99D95104090240C333333333333E3BF0000000000000FB0108901411070040501508421405064090741402480A0350
1001
ACAD
1000
AcDbSavedByObjectVersion
1070
     0
  0
ACAD_PROXY_OBJECT
  5
34
102
{ACAD_REACTORS
330
2A
102
}
330
2A
100
AcDbProxyObject
 90
      499
 91
      501
 93
      500
310
4290DBDB98D95C1D1D585B10940D028333333333333E3BF0000000000000FB0107902409070040501000000000000111010841D405064090740C02480A0340
1001
ACAD
1000
AcDbSavedByObjectVersion
1070
     0
  0
ACAD_PROXY_OBJECT
  5
35
102
{ACAD_REACTORS
330
2A
102
}
330
2A
100
AcDbProxyObject
 90
      499
 91
      501
 93
      412
310
40D11A5B50B409028333333333333E3BF0000000000000FB010790141107004050150841D405064090741402480A02677FFFFFD0
1001
ACAD
1000
AcDbSavedByObjectVersion
1070
     0
  0
ACAD_PROXY_OBJECT
  5
39
102
{ACAD_REACTORS
330
2A
102
}
330
2A
100
AcDbProxyObject
 90
      499
 91
      501
 93
      444
310
42D19858D95C185D1D195C9B90F409028333333333333E3BF0000000000000FB010790141107004050150841D405064090741402480A0350
1001
ACAD
1000
AcDbSavedByObjectVersion
1070
     0
  0
ACAD_PROXY_OBJECT
  5
2B
102
{ACAD_REACTORS
330
2A
102
}
330
2A
100
AcDbProxyObject
 90
      499
 91
      501
 93
      388
310
41119B185D240901404333333333333E3BF0000000000000F9010740A41107004050150841D405064090741402480A1B50
1001
ACAD
1000
AcDbSavedByObjectVersion
1070
     0
  0
ACAD_PROXY_OBJECT
  5
2C
102
{ACAD_REACTORS
330
2A
102
}
330
2A
100
AcDbProxyObject
 90
      499
 91
      501
 93
      476
310
43519B185D15DA5D1A115919D95CD0140901404333333333333E3BF0000000000000F9010740901411070040501600405405064090741402480A1B50
1001
ACAD
1000
AcDbSavedByObjectVersion
1070
     0
  0
ACAD_PROXY_OBJECT
  5
2D
102
{ACAD_REACTORS
330
2A
102
}
330
2A
100
AcDbProxyObject
 90
      499
 91
      501
 93
      412
310
41D1DBDD5C985D5910240902404333333333333E3BF0000000000000F9010740A411070040501641D405064090741402480A1B50
1001
ACAD
1000
AcDbSavedByObjectVersion
1070
     0
  0
ACAD_PROXY_OBJECT
  5
2E
102
{ACAD_REACTORS
330
2A
102
}
330
2A
100
AcDbProxyObject
 90
      499
 91
      501
 93
      500
310
4411DBDD5C985D5915DA5D1A115919D95CD0340902404333333333333E3BF0000000000000F9010740901411070040501600405405064090741402480A1B50
1001
ACAD
1000
AcDbSavedByObjectVersion
1070
     0
  0
ACAD_PROXY_OBJECT
  5
38
102
{ACAD_REACTORS
330
2A
102
}
330
2A
100
AcDbProxyObject
 90
      499
 91
      501
 93
      444
310
42D31A5B995C185D1D195C9B90E409028333333333333E3BF0000000000000FB010790141107004050750841D405064090741402483A0350
1001
ACAD
1000
AcDbSavedByObjectVersion
1070
     0
  0
ACAD_PROXY_OBJECT
  5
33
102
{ACAD_REACTORS
330
2A
102
}
330
2A
100
AcDbProxyObject
 90
      499
 91
      501
 93
      420
310
425499585B1A5CDD1A58D08409028333333333333E3BF0000000000000FB01079019070040501508421405064090741402480A1B40
1001
ACAD
1000
AcDbSavedByObjectVersion
1070
     0
  0
ACAD_PROXY_OBJECT
  5
37
102
{ACAD_REACTORS
330
2A
102
}
330
2A
100
AcDbProxyObject
 90
      499
 91
      501
 93
      412
310
41D51A1A58DAD95B90D409028333333333333E3BF0000000000000FB010790141107004050150C41D405064090741402480A0350
1001
ACAD
1000
AcDbSavedByObjectVersion
1070
     0
  0
XRECORD
  5
9B9
102
{ACAD_REACTORS
330
9B0
102
}
330
9B0
100
AcDbXrecord
 90
        0
  0
XRECORD
  5
9CF
102
{ACAD_REACTORS
330
9B0
102
}
330
9B0
100
AcDbXrecord
1000
DSTYLE
1002
{
1070
   340
340
11
1002
}
  0
XRECORD
  5
9BA
102
{ACAD_REACTORS
330
9B0
102
}
330
9B0
100
AcDbXrecord
  1
{74416021-D88D-4249-AAA5-657FED1E0F57}
  0
XRECORD
  5
9B3
102
{ACAD_REACTORS
330
9B0
102
}
330
9B0
100
AcDbXrecord
  1

  0
XRECORD
  5
9B8
102
{ACAD_REACTORS
330
9B0
102
}
330
9B0
100
AcDbXrecord
 90
        1
  0
XRECORD
  5
9B5
102
{ACAD_REACTORS
330
9B0
102
}
330
9B0
100
AcDbXrecord
340
1A
  0
XRECORD
  5
9B7
102
{ACAD_REACTORS
330
9B0
102
}
330
9B0
100
AcDbXrecord
 90
    10269
  0
XRECORD
  5
9B6
102
{ACAD_REACTORS
330
9B0
102
}
330
9B0
100
AcDbXrecord
340
19
  0
XRECORD
  5
9BC
102
{ACAD_REACTORS
330
9B0
102
}
330
9B0
100
AcDbXrecord
 40
0.0
  0
XRECORD
  5
9BF
102
{ACAD_REACTORS
330
9B0
102
}
330
9B0
100
AcDbXrecord
340
0
  0
XRECORD
  5
9C5
102
{ACAD_REACTORS
330
9B0
102
}
330
9B0
100
AcDbXrecord
 10
0.0
 20
0.0
 30
0.0
  0
XRECORD
  5
9C1
102
{ACAD_REACTORS
330
9B0
102
}
330
9B0
100
AcDbXrecord
 10
0.0
 20
0.0
 30
0.0
  0
XRECORD
  5
9C4
102
{ACAD_REACTORS
330
9B0
102
}
330
9B0
100
AcDbXrecord
 10
0.0
 20
0.0
 30
0.0
  0
XRECORD
  5
9C2
102
{ACAD_REACTORS
330
9B0
102
}
330
9B0
100
AcDbXrecord
 10
0.0
 20
0.0
 30
0.0
  0
XRECORD
  5
9C3
102
{ACAD_REACTORS
330
9B0
102
}
330
9B0
100
AcDbXrecord
 10
0.0
 20
0.0
 30
0.0
  0
XRECORD
  5
9C0
102
{ACAD_REACTORS
330
9B0
102
}
330
9B0
100
AcDbXrecord
 10
0.0
 20
0.0
 30
0.0
  0
XRECORD
  5
9BD
102
{ACAD_REACTORS
330
9B0
102
}
330
9B0
100
AcDbXrecord
340
0
  0
XRECORD
  5
9BE
102
{ACAD_REACTORS
330
9B0
102
}
330
9B0
100
AcDbXrecord
 70
     0
  0
XRECORD
  5
9B4
102
{ACAD_REACTORS
330
9B0
102
}
330
9B0
100
AcDbXrecord
  1

  0
XRECORD
  5
9B1
102
{ACAD_REACTORS
330
9B0
102
}
330
9B0
100
AcDbXrecord
 90
        1
  0
XRECORD
  5
9B2
102
{ACAD_REACTORS
330
9B0
102
}
330
9B0
100
AcDbXrecord
 90
       70
  0
XRECORD
  5
9C8
102
{ACAD_REACTORS
330
9B0
102
}
330
9B0
100
AcDbXrecord
340
0
  0
XRECORD
  5
9CE
102
{ACAD_REACTORS
330
9B0
102
}
330
9B0
100
AcDbXrecord
 10
0.0
 20
0.0
 30
0.0
  0
XRECORD
  5
9CA
102
{ACAD_REACTORS
330
9B0
102
}
330
9B0
100
AcDbXrecord
 10
0.0
 20
0.0
 30
0.0
  0
XRECORD
  5
9CD
102
{ACAD_REACTORS
330
9B0
102
}
330
9B0
100
AcDbXrecord
 10
0.0
 20
0.0
 30
0.0
  0
XRECORD
  5
9CB
102
{ACAD_REACTORS
330
9B0
102
}
330
9B0
100
AcDbXrecord
 10
0.0
 20
0.0
 30
0.0
  0
XRECORD
  5
9CC
102
{ACAD_REACTORS
330
9B0
102
}
330
9B0
100
AcDbXrecord
 10
0.0
 20
0.0
 30
0.0
  0
XRECORD
  5
9C9
102
{ACAD_REACTORS
330
9B0
102
}
330
9B0
100
AcDbXrecord
 10
0.0
 20
0.0
 30
0.0
  0
XRECORD
  5
9C6
102
{ACAD_REACTORS
330
9B0
102
}
330
9B0
100
AcDbXrecord
340
0
  0
XRECORD
  5
9C7
102
{ACAD_REACTORS
330
9B0
102
}
330
9B0
100
AcDbXrecord
 70
     0
  0
XRECORD
  5
9BB
102
{ACAD_REACTORS
330
9B0
102
}
330
9B0
100
AcDbXrecord
  1
{FAEB1C32-E019-11D5-929B-00C0DF256EC4}
  0
DICTIONARYVAR
  5
9D3
102
{ACAD_REACTORS
330
9D0
102
}
330
9D0
100
DictionaryVariables
280
     0
  1
2
  0
DICTIONARYVAR
  5
9D4
102
{ACAD_REACTORS
330
9D0
102
}
330
9D0
100
DictionaryVariables
280
     0
  1
1
  0
DICTIONARY
  5
9D7
330
3D
100
AcDbDictionary
280
     1
  3
ACAD_XREC_ROUNDTRIP
360
9D8
  0
DICTIONARY
  5
9D5
330
3C
100
AcDbDictionary
280
     1
  3
ACAD_XREC_ROUNDTRIP
360
9D6
  0
DICTIONARY
  5
9D9
330
3E
100
AcDbDictionary
280
     1
  3
ACAD_XREC_ROUNDTRIP
360
9DA
  0
XRECORD
  5
9D8
102
{ACAD_REACTORS
330
9D7
102
}
330
9D7
100
AcDbXrecord
102
MATERIAL
148
0.0
149
0.0
149
0.0
 93
        0
 94
      127
282
     0
 72
     1
 77
     1
171
     1
175
     1
179
     1
273
     0
  0
XRECORD
  5
9D6
102
{ACAD_REACTORS
330
9D5
102
}
330
9D5
100
AcDbXrecord
102
MATERIAL
148
0.0
149
0.0
149
0.0
 93
        0
 94
      127
282
     0
 72
     1
 77
     1
171
     1
175
     1
179
     1
273
     0
  0
XRECORD
  5
9DA
102
{ACAD_REACTORS
330
9D9
102
}
330
9D9
100
AcDbXrecord
102
MATERIAL
148
0.0
149
0.0
149
0.0
 93
        0
 94
      127
282
     0
 72
     1
 77
     1
171
     1
175
     1
179
     1
273
     0
  0
ENDSEC
  0
EOF
