  0
SECTION
  2
HEADER
  9
$ACADVER
  1
AC1014
  9
$ACADMAINTVER
 70
     9
  9
$DWGCODEPAGE
  3
ANSI_1252
  9
$INSBASE
 10
0.0
 20
0.0
 30
0.0
  9
$EXTMIN
 10
1.000000000000000E+20
 20
1.000000000000000E+20
 30
1.000000000000000E+20
  9
$EXTMAX
 10
-1.000000000000000E+20
 20
-1.000000000000000E+20
 30
-1.000000000000000E+20
  9
$LIMMIN
 10
0.0
 20
0.0
  9
$LIMMAX
 10
12.0
 20
9.0
  9
$ORTHOMODE
 70
     0
  9
$REGENMODE
 70
     1
  9
$FILLMODE
 70
     1
  9
$QTEXTMODE
 70
     0
  9
$MIRRTEXT
 70
     1
  9
$DRAGMODE
 70
     2
  9
$LTSCALE
 40
1.0
  9
$OSMODE
 70
    37
  9
$ATTMODE
 70
     1
  9
$TEXTSIZE
 40
0.2
  9
$TRACEWID
 40
0.05
  9
$TEXTSTYLE
  7
STANDARD
  9
$CLAYER
  8
0
  9
$CELTYPE
  6
BYLAYER
  9
$CECOLOR
 62
   256
  9
$CELTSCALE
 40
1.0
  9
$DELOBJ
 70
     1
  9
$DISPSILH
 70
     0
  9
$DIMSCALE
 40
1.0
  9
$DIMASZ
 40
0.18
  9
$DIMEXO
 40
0.0625
  9
$DIMDLI
 40
0.38
  9
$DIMRND
 40
0.0
  9
$DIMDLE
 40
0.0
  9
$DIMEXE
 40
0.18
  9
$DIMTP
 40
0.0
  9
$DIMTM
 40
0.0
  9
$DIMTXT
 40
0.18
  9
$DIMCEN
 40
0.09
  9
$DIMTSZ
 40
0.0
  9
$DIMTOL
 70
     0
  9
$DIMLIM
 70
     0
  9
$DIMTIH
 70
     1
  9
$DIMTOH
 70
     1
  9
$DIMSE1
 70
     0
  9
$DIMSE2
 70
     0
  9
$DIMTAD
 70
     0
  9
$DIMZIN
 70
     0
  9
$DIMBLK
  1

  9
$DIMASO
 70
     1
  9
$DIMSHO
 70
     1
  9
$DIMPOST
  1

  9
$DIMAPOST
  1

  9
$DIMALT
 70
     0
  9
$DIMALTD
 70
     2
  9
$DIMALTF
 40
25.4
  9
$DIMLFAC
 40
1.0
  9
$DIMTOFL
 70
     0
  9
$DIMTVP
 40
0.0
  9
$DIMTIX
 70
     0
  9
$DIMSOXD
 70
     0
  9
$DIMSAH
 70
     0
  9
$DIMBLK1
  1

  9
$DIMBLK2
  1

  9
$DIMSTYLE
  2
STANDARD
  9
$DIMCLRD
 70
     0
  9
$DIMCLRE
 70
     0
  9
$DIMCLRT
 70
     0
  9
$DIMTFAC
 40
1.0
  9
$DIMGAP
 40
0.09
  9
$DIMJUST
 70
     0
  9
$DIMSD1
 70
     0
  9
$DIMSD2
 70
     0
  9
$DIMTOLJ
 70
     1
  9
$DIMTZIN
 70
     0
  9
$DIMALTZ
 70
     0
  9
$DIMALTTZ
 70
     0
  9
$DIMFIT
 70
     3
  9
$DIMUPT
 70
     0
  9
$DIMUNIT
 70
     2
  9
$DIMDEC
 70
     4
  9
$DIMTDEC
 70
     4
  9
$DIMALTU
 70
     2
  9
$DIMALTTD
 70
     2
  9
$DIMTXSTY
  7
STANDARD
  9
$DIMAUNIT
 70
     0
  9
$LUNITS
 70
     2
  9
$LUPREC
 70
     4
  9
$SKETCHINC
 40
0.1
  9
$FILLETRAD
 40
0.5
  9
$AUNITS
 70
     0
  9
$AUPREC
 70
     0
  9
$MENU
  1
.
  9
$ELEVATION
 40
0.0
  9
$PELEVATION
 40
0.0
  9
$THICKNESS
 40
0.0
  9
$LIMCHECK
 70
     0
  9
$CHAMFERA
 40
0.5
  9
$CHAMFERB
 40
0.5
  9
$CHAMFERC
 40
1.0
  9
$CHAMFERD
 40
0.0
  9
$SKPOLY
 70
     0
  9
$TDCREATE
 40
2459957.478487824
  9
$TDUPDATE
 40
2459957.478488021
  9
$TDINDWG
 40
0.0000000116
  9
$TDUSRTIMER
 40
0.0000000116
  9
$USRTIMER
 70
     1
  9
$ANGBASE
 50
0.0
  9
$ANGDIR
 70
     0
  9
$PDMODE
 70
     0
  9
$PDSIZE
 40
0.0
  9
$PLINEWID
 40
0.0
  9
$COORDS
 70
     1
  9
$SPLFRAME
 70
     0
  9
$SPLINETYPE
 70
     6
  9
$SPLINESEGS
 70
     8
  9
$ATTDIA
 70
     0
  9
$ATTREQ
 70
     1
  9
$HANDLING
 70
     1
  9
$HANDSEED
  5
289
  9
$SURFTAB1
 70
     6
  9
$SURFTAB2
 70
     6
  9
$SURFTYPE
 70
     6
  9
$SURFU
 70
     6
  9
$SURFV
 70
     6
  9
$UCSNAME
  2

  9
$UCSORG
 10
0.0
 20
0.0
 30
0.0
  9
$UCSXDIR
 10
1.0
 20
0.0
 30
0.0
  9
$UCSYDIR
 10
0.0
 20
1.0
 30
0.0
  9
$PUCSNAME
  2

  9
$PUCSORG
 10
0.0
 20
0.0
 30
0.0
  9
$PUCSXDIR
 10
1.0
 20
0.0
 30
0.0
  9
$PUCSYDIR
 10
0.0
 20
1.0
 30
0.0
  9
$USERI1
 70
     0
  9
$USERI2
 70
     0
  9
$USERI3
 70
     0
  9
$USERI4
 70
     0
  9
$USERI5
 70
     0
  9
$USERR1
 40
0.0
  9
$USERR2
 40
0.0
  9
$USERR3
 40
0.0
  9
$USERR4
 40
0.0
  9
$USERR5
 40
0.0
  9
$WORLDVIEW
 70
     1
  9
$SHADEDGE
 70
     3
  9
$SHADEDIF
 70
    70
  9
$TILEMODE
 70
     1
  9
$MAXACTVP
 70
    64
  9
$PINSBASE
 10
0.0
 20
0.0
 30
0.0
  9
$PLIMCHECK
 70
     0
  9
$PEXTMIN
 10
1.000000000000000E+20
 20
1.000000000000000E+20
 30
1.000000000000000E+20
  9
$PEXTMAX
 10
-1.000000000000000E+20
 20
-1.000000000000000E+20
 30
-1.000000000000000E+20
  9
$PLIMMIN
 10
0.0
 20
0.0
  9
$PLIMMAX
 10
12.0
 20
9.0
  9
$UNITMODE
 70
     0
  9
$VISRETAIN
 70
     1
  9
$PLINEGEN
 70
     0
  9
$PSLTSCALE
 70
     1
  9
$TREEDEPTH
 70
  3020
  9
$PICKSTYLE
 70
     1
  9
$CMLSTYLE
  2
STANDARD
  9
$CMLJUST
 70
     0
  9
$CMLSCALE
 40
1.0
  9
$PROXYGRAPHICS
 70
     1
  9
$MEASUREMENT
 70
     0
  0
ENDSEC
  0
SECTION
  2
CLASSES
  0
CLASS
  1
ACDBDICTIONARYWDFLT
  2
AcDbDictionaryWithDefault
  3
ObjectDBX Classes
 90
        0
280
     0
281
     0
  0
CLASS
  1
VISUALSTYLE
  2
AcDbVisualStyle
  3
ObjectDBX Classes
 90
     4095
280
     0
281
     0
  0
CLASS
  1
MATERIAL
  2
AcDbMaterial
  3
ObjectDBX Classes
 90
     1153
280
     0
281
     0
  0
CLASS
  1
SUN
  2
AcDbSun
  3
SCENEOE
 90
     1024
280
     0
281
     0
  0
CLASS
  1
DICTIONARYVAR
  2
AcDbDictionaryVar
  3
ObjectDBX Classes
 90
        0
280
     0
281
     0
  0
CLASS
  1
XRECORD
  2
AcDbXrecord
  3
AutoCAD 2000
 90
        0
280
     0
281
     0
  0
CLASS
  1
LWPOLYLINE
  2
AcDbPolyline
  3
AutoCAD 2000
 90
        0
280
     0
281
     1
  0
CLASS
  1
HATCH
  2
AcDbHatch
  3
AutoCAD 2000
 90
        0
280
     0
281
     1
  0
CLASS
  1
ACDBPLACEHOLDER
  2
AcDbPlaceHolder
  3
ObjectDBX Classes
 90
        0
280
     0
281
     0
  0
CLASS
  1
LAYOUT
  2
AcDbLayout
  3
ObjectDBX Classes
 90
        0
280
     0
281
     0
  0
ENDSEC
  0
SECTION
  2
TABLES
  0
TABLE
  2
VPORT
  5
8
330
0
100
AcDbSymbolTable
 70
     1
  0
VPORT
  5
29
330
8
100
AcDbSymbolTableRecord
100
AcDbViewportTableRecord
  2
*ACTIVE
 70
     0
 10
0.0
 20
0.0
 11
1.0
 21
1.0
 12
0.0
 22
0.0
 13
0.0
 23
0.0
 14
0.5
 24
0.5
 15
0.5
 25
0.5
 16
0.0
 26
0.0
 36
1.0
 17
74.99999786197374
 27
39.74999886684608
 37
0.0
 40
39.99999998999989
 41
2.0
 42
50.0
 43
0.0
 44
0.0
 50
0.0
 51
0.0
 71
     0
 72
   100
 73
     1
 74
     3
 75
     0
 76
     0
 77
     0
 78
     0
  0
ENDTAB
  0
TABLE
  2
LTYPE
  5
5
330
0
100
AcDbSymbolTable
 70
     1
  0
LTYPE
  5
14
330
5
100
AcDbSymbolTableRecord
100
AcDbLinetypeTableRecord
  2
BYBLOCK
 70
     0
  3

 72
    65
 73
     0
 40
0.0
  0
LTYPE
  5
15
330
5
100
AcDbSymbolTableRecord
100
AcDbLinetypeTableRecord
  2
BYLAYER
 70
     0
  3

 72
    65
 73
     0
 40
0.0
  0
LTYPE
  5
16
330
5
100
AcDbSymbolTableRecord
100
AcDbLinetypeTableRecord
  2
CONTINUOUS
 70
     0
  3
Solid line
 72
    65
 73
     0
 40
0.0
  0
ENDTAB
  0
TABLE
  2
LAYER
  5
2
330
0
100
AcDbSymbolTable
 70
     6
  0
LAYER
  5
10
330
2
100
AcDbSymbolTableRecord
100
AcDbLayerTableRecord
  2
0
 70
     0
 62
     7
  6
CONTINUOUS
  0
LAYER
  5
40
330
2
100
AcDbSymbolTableRecord
100
AcDbLayerTableRecord
  2
REFERENCIAS
 70
     0
 62
     7
  6
CONTINUOUS
  0
LAYER
  5
42
330
2
100
AcDbSymbolTableRecord
100
AcDbLayerTableRecord
  2
M_U_00C1RGENES
 70
     4
 62
     7
  6
CONTINUOUS
  0
LAYER
  5
56
330
2
100
AcDbSymbolTableRecord
100
AcDbLayerTableRecord
  2
DIBUJOS
 70
     4
 62
     7
  6
CONTINUOUS
  0
LAYER
  5
23E
330
2
100
AcDbSymbolTableRecord
100
AcDbLayerTableRecord
  2
COTAS_LINEA
 70
     4
 62
     7
  6
CONTINUOUS
  0
LAYER
  5
257
330
2
100
AcDbSymbolTableRecord
100
AcDbLayerTableRecord
  2
COTAS_N_U_00DAMERO
 70
     4
 62
     7
  6
CONTINUOUS
  0
ENDTAB
  0
TABLE
  2
STYLE
  5
3
330
0
100
AcDbSymbolTable
 70
     1
  0
STYLE
  5
11
330
3
100
AcDbSymbolTableRecord
100
AcDbTextStyleTableRecord
  2
STANDARD
 70
     0
 40
0.0
 41
1.0
 50
0.0
 71
     0
 42
0.2
  3
txt
  4

  0
ENDTAB
  0
TABLE
  2
VIEW
  5
6
330
0
100
AcDbSymbolTable
 70
     0
  0
ENDTAB
  0
TABLE
  2
UCS
  5
7
330
0
100
AcDbSymbolTable
 70
     0
  0
ENDTAB
  0
TABLE
  2
APPID
  5
9
330
0
100
AcDbSymbolTable
 70
     1
  0
APPID
  5
12
330
9
100
AcDbSymbolTableRecord
100
AcDbRegAppTableRecord
  2
ACAD
 70
     0
  0
ENDTAB
  0
TABLE
  2
DIMSTYLE
  5
A
330
0
100
AcDbSymbolTable
 70
     1
  0
DIMSTYLE
105
27
330
A
100
AcDbSymbolTableRecord
100
AcDbDimStyleTableRecord
  2
STANDARD
 70
     0
  3

  4

  5

  6

  7

 40
1.0
 41
0.18
 42
0.0625
 43
0.38
 44
0.18
 45
0.0
 46
0.0
 47
0.0
 48
0.0
140
0.18
141
0.09
142
0.0
143
25.4
144
1.0
145
0.0
146
1.0
147
0.09
 71
     0
 72
     0
 73
     1
 74
     1
 75
     0
 76
     0
 77
     0
 78
     0
170
     0
171
     2
172
     0
173
     0
174
     0
175
     0
176
     0
177
     0
178
     0
270
     2
271
     4
272
     4
273
     2
274
     2
340
11
275
     0
280
     0
281
     0
282
     0
283
     1
284
     0
285
     0
286
     0
287
     3
288
     0
  0
ENDTAB
  0
TABLE
  2
BLOCK_RECORD
  5
1
330
0
100
AcDbSymbolTable
 70
     7
  0
BLOCK_RECORD
  5
1F
330
1
100
AcDbSymbolTableRecord
100
AcDbBlockTableRecord
  2
*MODEL_SPACE
  0
BLOCK_RECORD
  5
1B
330
1
100
AcDbSymbolTableRecord
100
AcDbBlockTableRecord
  2
*PAPER_SPACE
  0
BLOCK_RECORD
  5
57
330
1
100
AcDbSymbolTableRecord
100
AcDbBlockTableRecord
  2
BLOCK_2
  0
BLOCK_RECORD
  5
8E
330
1
100
AcDbSymbolTableRecord
100
AcDbBlockTableRecord
  2
BLOCK_3
  0
BLOCK_RECORD
  5
C2
330
1
100
AcDbSymbolTableRecord
100
AcDbBlockTableRecord
  2
BLOCK_4
  0
BLOCK_RECORD
  5
103
330
1
100
AcDbSymbolTableRecord
100
AcDbBlockTableRecord
  2
BLOCK_5
  0
BLOCK_RECORD
  5
16D
330
1
100
AcDbSymbolTableRecord
100
AcDbBlockTableRecord
  2
BLOCK_6
  0
BLOCK_RECORD
  5
1D5
330
1
100
AcDbSymbolTableRecord
100
AcDbBlockTableRecord
  2
BLOCK_7
  0
ENDTAB
  0
ENDSEC
  0
SECTION
  2
BLOCKS
  0
BLOCK
  5
20
330
1F
100
AcDbEntity
  8
0
100
AcDbBlockBegin
  2
*MODEL_SPACE
 70
     0
 10
0.0
 20
0.0
 30
0.0
  3
*MODEL_SPACE
  1

  0
ENDBLK
  5
21
330
1F
100
AcDbEntity
  8
0
100
AcDbBlockEnd
  0
BLOCK
  5
1C
330
1B
100
AcDbEntity
 67
     1
  8
0
100
AcDbBlockBegin
  2
*PAPER_SPACE
 70
     0
 10
0.0
 20
0.0
 30
0.0
  3
*PAPER_SPACE
  1

  0
ENDBLK
  5
1D
330
1B
100
AcDbEntity
 67
     1
  8
0
100
AcDbBlockEnd
  0
BLOCK
  5
59
330
57
100
AcDbEntity
  8
0
100
AcDbBlockBegin
  2
BLOCK_2
 70
     0
 10
0.0
 20
0.0
 30
0.0
  3
BLOCK_2
  1

  0
POLYLINE
  5
5B
330
57
100
AcDbEntity
  8
DIBUJOS
 62
     7
100
AcDb2dPolyline
 66
     1
 10
0.0
 20
0.0
 30
0.0
  0
VERTEX
  5
5C
330
5B
100
AcDbEntity
  8
DIBUJOS
 62
     7
100
AcDbVertex
100
AcDb2dVertex
 10
41.42269584035276
 20
50.5350732996555
 30
0.0
  0
VERTEX
  5
5D
330
5B
100
AcDbEntity
  8
DIBUJOS
 62
     7
100
AcDbVertex
100
AcDb2dVertex
 10
41.41706533954486
 20
50.54068809190289
 30
0.0
  0
SEQEND
  5
5E
330
5B
100
AcDbEntity
  8
DIBUJOS
 62
     7
  0
POLYLINE
  5
5F
330
57
100
AcDbEntity
  8
DIBUJOS
 62
     7
100
AcDb2dPolyline
 66
     1
 10
0.0
 20
0.0
 30
0.0
  0
VERTEX
  5
60
330
5F
100
AcDbEntity
  8
DIBUJOS
 62
     7
100
AcDbVertex
100
AcDb2dVertex
 10
41.42269584035276
 20
50.5350732996555
 30
0.0
  0
VERTEX
  5
61
330
5F
100
AcDbEntity
  8
DIBUJOS
 62
     7
100
AcDbVertex
100
AcDb2dVertex
 10
53.27466591006774
 20
50.5350732996555
 30
0.0
  0
VERTEX
  5
62
330
5F
100
AcDbEntity
  8
DIBUJOS
 62
     7
100
AcDbVertex
100
AcDb2dVertex
 10
53.28029716858006
 20
50.54068809190289
 30
0.0
  0
VERTEX
  5
63
330
5F
100
AcDbEntity
  8
DIBUJOS
 62
     7
100
AcDbVertex
100
AcDb2dVertex
 10
53.28029716858006
 20
50.83822675168846
 30
0.0
  0
VERTEX
  5
64
330
5F
100
AcDbEntity
  8
DIBUJOS
 62
     7
100
AcDbVertex
100
AcDb2dVertex
 10
53.26903616696459
 20
50.84945331422866
 30
0.0
  0
VERTEX
  5
65
330
5F
100
AcDbEntity
  8
DIBUJOS
 62
     7
100
AcDbVertex
100
AcDb2dVertex
 10
41.42269584035276
 20
50.84945331422866
 30
0.0
  0
VERTEX
  5
66
330
5F
100
AcDbEntity
  8
DIBUJOS
 62
     7
100
AcDbVertex
100
AcDb2dVertex
 10
41.41706533954486
 20
50.84383852198128
 30
0.0
  0
VERTEX
  5
67
330
5F
100
AcDbEntity
  8
DIBUJOS
 62
     7
100
AcDbVertex
100
AcDb2dVertex
 10
41.41706533954486
 20
50.54068809190289
 30
0.0
  0
SEQEND
  5
68
330
5F
100
AcDbEntity
  8
DIBUJOS
 62
     7
  0
POLYLINE
  5
69
330
57
100
AcDbEntity
  8
DIBUJOS
 62
     7
100
AcDb2dPolyline
 66
     1
 10
0.0
 20
0.0
 30
0.0
  0
VERTEX
  5
6A
330
69
100
AcDbEntity
  8
DIBUJOS
 62
     7
100
AcDbVertex
100
AcDb2dVertex
 10
45.29077336715249
 20
50.49577579783453
 30
0.0
  0
VERTEX
  5
6B
330
69
100
AcDbEntity
  8
DIBUJOS
 62
     7
100
AcDbVertex
100
AcDb2dVertex
 10
45.29640311025596
 20
50.50139059008128
 30
0.0
  0
SEQEND
  5
6C
330
69
100
AcDbEntity
  8
DIBUJOS
 62
     7
  0
POLYLINE
  5
6D
330
57
100
AcDbEntity
  8
DIBUJOS
 62
     7
100
AcDb2dPolyline
 66
     1
 10
0.0
 20
0.0
 30
0.0
  0
VERTEX
  5
6E
330
6D
100
AcDbEntity
  8
DIBUJOS
 62
     7
100
AcDbVertex
100
AcDb2dVertex
 10
45.29077336715249
 20
50.49577579783453
 30
0.0
  0
VERTEX
  5
6F
330
6D
100
AcDbEntity
  8
DIBUJOS
 62
     7
100
AcDbVertex
100
AcDb2dVertex
 10
45.37128854368784
 20
50.27739422530728
 30
0.0
  0
VERTEX
  5
70
330
6D
100
AcDbEntity
  8
DIBUJOS
 62
     7
100
AcDbVertex
100
AcDb2dVertex
 10
46.28059586038635
 20
48.14297839717082
 30
0.0
  0
VERTEX
  5
71
330
6D
100
AcDbEntity
  8
DIBUJOS
 62
     7
100
AcDbVertex
100
AcDb2dVertex
 10
46.28284775762786
 20
48.13848777215461
 30
0.0
  0
VERTEX
  5
72
330
6D
100
AcDbEntity
  8
DIBUJOS
 62
     7
100
AcDbVertex
100
AcDb2dVertex
 10
46.36054730490721
 20
47.958282556173
 30
0.0
  0
VERTEX
  5
73
330
6D
100
AcDbEntity
  8
DIBUJOS
 62
     7
100
AcDbVertex
100
AcDb2dVertex
 10
46.36054730490721
 20
47.90775546985694
 30
0.0
  0
VERTEX
  5
74
330
6D
100
AcDbEntity
  8
DIBUJOS
 62
     7
100
AcDbVertex
100
AcDb2dVertex
 10
46.2966258529969
 20
47.65562470474787
 30
0.0
  0
VERTEX
  5
75
330
6D
100
AcDbEntity
  8
DIBUJOS
 62
     7
100
AcDbVertex
100
AcDb2dVertex
 10
46.25721310504701
 20
47.49843469746113
 30
0.0
  0
VERTEX
  5
76
330
6D
100
AcDbEntity
  8
DIBUJOS
 62
     7
100
AcDbVertex
100
AcDb2dVertex
 10
45.27072451082463
 20
43.51739287439112
 30
0.0
  0
VERTEX
  5
77
330
6D
100
AcDbEntity
  8
DIBUJOS
 62
     7
100
AcDbVertex
100
AcDb2dVertex
 10
45.26262162081775
 20
43.467140785973
 30
0.0
  0
VERTEX
  5
78
330
6D
100
AcDbEntity
  8
DIBUJOS
 62
     7
100
AcDbVertex
100
AcDb2dVertex
 10
45.26825136392154
 20
43.43345807639878
 30
0.0
  0
VERTEX
  5
79
330
6D
100
AcDbEntity
  8
DIBUJOS
 62
     7
100
AcDbVertex
100
AcDb2dVertex
 10
45.29640311025596
 20
43.40538713711673
 30
0.0
  0
VERTEX
  5
7A
330
6D
100
AcDbEntity
  8
DIBUJOS
 62
     7
100
AcDbVertex
100
AcDb2dVertex
 10
45.30710189526548
 20
43.4037039082247
 30
0.0
  0
VERTEX
  5
7B
330
6D
100
AcDbEntity
  8
DIBUJOS
 62
     7
100
AcDbVertex
100
AcDb2dVertex
 10
49.37843663693359
 20
43.39977234486967
 30
0.0
  0
VERTEX
  5
7C
330
6D
100
AcDbEntity
  8
DIBUJOS
 62
     7
100
AcDbVertex
100
AcDb2dVertex
 10
49.38463011205187
 20
43.4037039082247
 30
0.0
  0
VERTEX
  5
7D
330
6D
100
AcDbEntity
  8
DIBUJOS
 62
     7
100
AcDbVertex
100
AcDb2dVertex
 10
49.40658838326801
 20
43.41100192936413
 30
0.0
  0
VERTEX
  5
7E
330
6D
100
AcDbEntity
  8
DIBUJOS
 62
     7
100
AcDbVertex
100
AcDb2dVertex
 10
49.42911038649896
 20
43.43345807639878
 30
0.0
  0
VERTEX
  5
7F
330
6D
100
AcDbEntity
  8
DIBUJOS
 62
     7
100
AcDbVertex
100
AcDb2dVertex
 10
49.42911038649896
 20
43.51205308004199
 30
0.0
  0
VERTEX
  5
80
330
6D
100
AcDbEntity
  8
DIBUJOS
 62
     7
100
AcDbVertex
100
AcDb2dVertex
 10
49.26947117856138
 20
44.15154407111972
 30
0.0
  0
VERTEX
  5
81
330
6D
100
AcDbEntity
  8
DIBUJOS
 62
     7
100
AcDbVertex
100
AcDb2dVertex
 10
48.33681444551329
 20
47.90214067760955
 30
0.0
  0
VERTEX
  5
82
330
6D
100
AcDbEntity
  8
DIBUJOS
 62
     7
100
AcDbVertex
100
AcDb2dVertex
 10
48.33681444551329
 20
47.96389432646581
 30
0.0
  0
VERTEX
  5
83
330
6D
100
AcDbEntity
  8
DIBUJOS
 62
     7
100
AcDbVertex
100
AcDb2dVertex
 10
48.67013312245341
 20
48.73805571674164
 30
0.0
  0
VERTEX
  5
84
330
6D
100
AcDbEntity
  8
DIBUJOS
 62
     7
100
AcDbVertex
100
AcDb2dVertex
 10
48.94602235810361
 20
49.37804230842689
 30
0.0
  0
VERTEX
  5
85
330
6D
100
AcDbEntity
  8
DIBUJOS
 62
     7
100
AcDbVertex
100
AcDb2dVertex
 10
49.32607320673266
 20
50.28300901755467
 30
0.0
  0
VERTEX
  5
86
330
6D
100
AcDbEntity
  8
DIBUJOS
 62
     7
100
AcDbVertex
100
AcDb2dVertex
 10
49.40095864016486
 20
50.49577579783453
 30
0.0
  0
VERTEX
  5
87
330
6D
100
AcDbEntity
  8
DIBUJOS
 62
     7
100
AcDbVertex
100
AcDb2dVertex
 10
49.38969763854907
 20
50.50700236037378
 30
0.0
  0
VERTEX
  5
88
330
6D
100
AcDbEntity
  8
DIBUJOS
 62
     7
100
AcDbVertex
100
AcDb2dVertex
 10
46.17474456677258
 20
50.51261715262116
 30
0.0
  0
VERTEX
  5
89
330
6D
100
AcDbEntity
  8
DIBUJOS
 62
     7
100
AcDbVertex
100
AcDb2dVertex
 10
46.16911482366879
 20
50.50700236037378
 30
0.0
  0
VERTEX
  5
8A
330
6D
100
AcDbEntity
  8
DIBUJOS
 62
     7
100
AcDbVertex
100
AcDb2dVertex
 10
46.03398431969132
 20
50.50700236037378
 30
0.0
  0
VERTEX
  5
8B
330
6D
100
AcDbEntity
  8
DIBUJOS
 62
     7
100
AcDbVertex
100
AcDb2dVertex
 10
45.34677377809327
 20
50.50942294626746
 30
0.0
  0
VERTEX
  5
8C
330
6D
100
AcDbEntity
  8
DIBUJOS
 62
     7
100
AcDbVertex
100
AcDb2dVertex
 10
45.29640311025596
 20
50.50139059008128
 30
0.0
  0
SEQEND
  5
8D
330
6D
100
AcDbEntity
  8
DIBUJOS
 62
     7
  0
ENDBLK
  5
5A
330
57
100
AcDbEntity
  8
0
100
AcDbBlockEnd
  0
BLOCK
  5
90
330
8E
100
AcDbEntity
  8
0
100
AcDbBlockBegin
  2
BLOCK_3
 70
     0
 10
0.0
 20
0.0
 30
0.0
  3
BLOCK_3
  1

  0
POLYLINE
  5
92
330
8E
100
AcDbEntity
  8
DIBUJOS
 62
     7
100
AcDb2dPolyline
 66
     1
 10
0.0
 20
0.0
 30
0.0
  0
VERTEX
  5
93
330
92
100
AcDbEntity
  8
DIBUJOS
 62
     7
100
AcDbVertex
100
AcDb2dVertex
 10
73.2416055158838
 20
50.5350732996555
 30
0.0
  0
VERTEX
  5
94
330
92
100
AcDbEntity
  8
DIBUJOS
 62
     7
100
AcDbVertex
100
AcDb2dVertex
 10
73.25286500209074
 20
50.54629986219538
 30
0.0
  0
VERTEX
  5
95
330
92
100
AcDbEntity
  8
DIBUJOS
 62
     7
100
AcDbVertex
100
AcDb2dVertex
 10
73.25286500209074
 20
50.83822675168846
 30
0.0
  0
VERTEX
  5
96
330
92
100
AcDbEntity
  8
DIBUJOS
 62
     7
100
AcDbVertex
100
AcDb2dVertex
 10
73.2416055158838
 20
50.84945331422866
 30
0.0
  0
VERTEX
  5
97
330
92
100
AcDbEntity
  8
DIBUJOS
 62
     7
100
AcDbVertex
100
AcDb2dVertex
 10
63.43346556565037
 20
50.84945331422866
 30
0.0
  0
VERTEX
  5
98
330
92
100
AcDbEntity
  8
DIBUJOS
 62
     7
100
AcDbVertex
100
AcDb2dVertex
 10
63.42220607944375
 20
50.83822675168846
 30
0.0
  0
VERTEX
  5
99
330
92
100
AcDbEntity
  8
DIBUJOS
 62
     7
100
AcDbVertex
100
AcDb2dVertex
 10
63.42220607944375
 20
50.54068809190289
 30
0.0
  0
VERTEX
  5
9A
330
92
100
AcDbEntity
  8
DIBUJOS
 62
     7
100
AcDbVertex
100
AcDb2dVertex
 10
63.4278373379564
 20
50.5350732996555
 30
0.0
  0
VERTEX
  5
9B
330
92
100
AcDbEntity
  8
DIBUJOS
 62
     7
100
AcDbVertex
100
AcDb2dVertex
 10
73.2416055158838
 20
50.5350732996555
 30
0.0
  0
SEQEND
  5
9C
330
92
100
AcDbEntity
  8
DIBUJOS
 62
     7
  0
POLYLINE
  5
9D
330
8E
100
AcDbEntity
  8
DIBUJOS
 62
     7
100
AcDb2dPolyline
 66
     1
 10
0.0
 20
0.0
 30
0.0
  0
VERTEX
  5
9E
330
9D
100
AcDbEntity
  8
DIBUJOS
 62
     7
100
AcDbVertex
100
AcDb2dVertex
 10
70.39262817727344
 20
50.49577579783453
 30
0.0
  0
VERTEX
  5
9F
330
9D
100
AcDbEntity
  8
DIBUJOS
 62
     7
100
AcDbVertex
100
AcDb2dVertex
 10
70.38699691876143
 20
50.50139059008128
 30
0.0
  0
SEQEND
  5
A0
330
9D
100
AcDbEntity
  8
DIBUJOS
 62
     7
  0
POLYLINE
  5
A1
330
8E
100
AcDbEntity
  8
DIBUJOS
 62
     7
100
AcDb2dPolyline
 66
     1
 10
0.0
 20
0.0
 30
0.0
  0
VERTEX
  5
A2
330
A1
100
AcDbEntity
  8
DIBUJOS
 62
     7
100
AcDbVertex
100
AcDb2dVertex
 10
70.38699691876143
 20
50.50139059008128
 30
0.0
  0
VERTEX
  5
A3
330
A1
100
AcDbEntity
  8
DIBUJOS
 62
     7
100
AcDbVertex
100
AcDb2dVertex
 10
70.34229236383473
 20
50.50936250716901
 30
0.0
  0
VERTEX
  5
A4
330
A1
100
AcDbEntity
  8
DIBUJOS
 62
     7
100
AcDbVertex
100
AcDb2dVertex
 10
69.28343997615997
 20
50.51261715262116
 30
0.0
  0
VERTEX
  5
A5
330
A1
100
AcDbEntity
  8
DIBUJOS
 62
     7
100
AcDbVertex
100
AcDb2dVertex
 10
69.27781174846535
 20
50.50700236037378
 30
0.0
  0
VERTEX
  5
A6
330
A1
100
AcDbEntity
  8
DIBUJOS
 62
     7
100
AcDbVertex
100
AcDb2dVertex
 10
68.59090428859504
 20
50.50700236037378
 30
0.0
  0
VERTEX
  5
A7
330
A1
100
AcDbEntity
  8
DIBUJOS
 62
     7
100
AcDbVertex
100
AcDb2dVertex
 10
66.77788454390289
 20
50.50977953694841
 30
0.0
  0
VERTEX
  5
A8
330
A1
100
AcDbEntity
  8
DIBUJOS
 62
     7
100
AcDbVertex
100
AcDb2dVertex
 10
66.29370542128508
 20
50.50700236037378
 30
0.0
  0
VERTEX
  5
A9
330
A1
100
AcDbEntity
  8
DIBUJOS
 62
     7
100
AcDbVertex
100
AcDb2dVertex
 10
66.28244290426106
 20
50.49577579783453
 30
0.0
  0
VERTEX
  5
AA
330
A1
100
AcDbEntity
  8
DIBUJOS
 62
     7
100
AcDbVertex
100
AcDb2dVertex
 10
66.35958023493446
 20
50.28188485032349
 30
0.0
  0
VERTEX
  5
AB
330
A1
100
AcDbEntity
  8
DIBUJOS
 62
     7
100
AcDbVertex
100
AcDb2dVertex
 10
66.36295959620527
 20
50.2717794330599
 30
0.0
  0
VERTEX
  5
AC
330
A1
100
AcDbEntity
  8
DIBUJOS
 62
     7
100
AcDbVertex
100
AcDb2dVertex
 10
66.88095354725007
 20
49.0479451062986
 30
0.0
  0
VERTEX
  5
AD
330
A1
100
AcDbEntity
  8
DIBUJOS
 62
     7
100
AcDbVertex
100
AcDb2dVertex
 10
67.11686630293623
 20
48.50339487304383
 30
0.0
  0
VERTEX
  5
AE
330
A1
100
AcDbEntity
  8
DIBUJOS
 62
     7
100
AcDbVertex
100
AcDb2dVertex
 10
67.35221835742496
 20
47.94705297167854
 30
0.0
  0
VERTEX
  5
AF
330
A1
100
AcDbEntity
  8
DIBUJOS
 62
     7
100
AcDbVertex
100
AcDb2dVertex
 10
67.35221835742496
 20
47.91898505435171
 30
0.0
  0
VERTEX
  5
B0
330
A1
100
AcDbEntity
  8
DIBUJOS
 62
     7
100
AcDbVertex
100
AcDb2dVertex
 10
66.35928321484087
 20
43.92236505365251
 30
0.0
  0
VERTEX
  5
B1
330
A1
100
AcDbEntity
  8
DIBUJOS
 62
     7
100
AcDbVertex
100
AcDb2dVertex
 10
66.25429267333519
 20
43.49520870330015
 30
0.0
  0
VERTEX
  5
B2
330
A1
100
AcDbEntity
  8
DIBUJOS
 62
     7
100
AcDbVertex
100
AcDb2dVertex
 10
66.25992090103044
 20
43.42784328415107
 30
0.0
  0
VERTEX
  5
B3
330
A1
100
AcDbEntity
  8
DIBUJOS
 62
     7
100
AcDbVertex
100
AcDb2dVertex
 10
66.28863789478788
 20
43.40707036600909
 30
0.0
  0
VERTEX
  5
B4
330
A1
100
AcDbEntity
  8
DIBUJOS
 62
     7
100
AcDbVertex
100
AcDb2dVertex
 10
66.29877294778292
 20
43.4037039082247
 30
0.0
  0
VERTEX
  5
B5
330
A1
100
AcDbEntity
  8
DIBUJOS
 62
     7
100
AcDbVertex
100
AcDb2dVertex
 10
70.37010617404249
 20
43.39977234486967
 30
0.0
  0
VERTEX
  5
B6
330
A1
100
AcDbEntity
  8
DIBUJOS
 62
     7
100
AcDbVertex
100
AcDb2dVertex
 10
70.3864331867463
 20
43.40707036600909
 30
0.0
  0
VERTEX
  5
B7
330
A1
100
AcDbEntity
  8
DIBUJOS
 62
     7
100
AcDbVertex
100
AcDb2dVertex
 10
70.39825943578543
 20
43.41100192936413
 30
0.0
  0
VERTEX
  5
B8
330
A1
100
AcDbEntity
  8
DIBUJOS
 62
     7
100
AcDbVertex
100
AcDb2dVertex
 10
70.41627461371628
 20
43.43851078503042
 30
0.0
  0
VERTEX
  5
B9
330
A1
100
AcDbEntity
  8
DIBUJOS
 62
     7
100
AcDbVertex
100
AcDb2dVertex
 10
70.4207814390164
 20
43.49520870330015
 30
0.0
  0
VERTEX
  5
BA
330
A1
100
AcDbEntity
  8
DIBUJOS
 62
     7
100
AcDbVertex
100
AcDb2dVertex
 10
69.4503652688465
 20
47.40762193006365
 30
0.0
  0
VERTEX
  5
BB
330
A1
100
AcDbEntity
  8
DIBUJOS
 62
     7
100
AcDbVertex
100
AcDb2dVertex
 10
69.39969303468935
 20
47.61533600171123
 30
0.0
  0
VERTEX
  5
BC
330
A1
100
AcDbEntity
  8
DIBUJOS
 62
     7
100
AcDbVertex
100
AcDb2dVertex
 10
69.32285272410985
 20
47.91898505435171
 30
0.0
  0
VERTEX
  5
BD
330
A1
100
AcDbEntity
  8
DIBUJOS
 62
     7
100
AcDbVertex
100
AcDb2dVertex
 10
69.32285272410985
 20
47.94705297167854
 30
0.0
  0
VERTEX
  5
BE
330
A1
100
AcDbEntity
  8
DIBUJOS
 62
     7
100
AcDbVertex
100
AcDb2dVertex
 10
69.42532768727085
 20
48.19350548348688
 30
0.0
  0
VERTEX
  5
BF
330
A1
100
AcDbEntity
  8
DIBUJOS
 62
     7
100
AcDbVertex
100
AcDb2dVertex
 10
70.29296884336877
 20
50.22574599371462
 30
0.0
  0
VERTEX
  5
C0
330
A1
100
AcDbEntity
  8
DIBUJOS
 62
     7
100
AcDbVertex
100
AcDb2dVertex
 10
70.39262817727344
 20
50.49577579783453
 30
0.0
  0
SEQEND
  5
C1
330
A1
100
AcDbEntity
  8
DIBUJOS
 62
     7
  0
ENDBLK
  5
91
330
8E
100
AcDbEntity
  8
0
100
AcDbBlockEnd
  0
BLOCK
  5
C4
330
C2
100
AcDbEntity
  8
0
100
AcDbBlockBegin
  2
BLOCK_4
 70
     0
 10
0.0
 20
0.0
 30
0.0
  3
BLOCK_4
  1

  0
POLYLINE
  5
C6
330
C2
100
AcDbEntity
  8
DIBUJOS
 62
     7
100
AcDb2dPolyline
 66
     1
 10
0.0
 20
0.0
 30
0.0
  0
VERTEX
  5
C7
330
C6
100
AcDbEntity
  8
DIBUJOS
 62
     7
100
AcDbVertex
100
AcDb2dVertex
 10
82.42071621581908
 20
50.84383852198128
 30
0.0
  0
VERTEX
  5
C8
330
C6
100
AcDbEntity
  8
DIBUJOS
 62
     7
100
AcDbVertex
100
AcDb2dVertex
 10
82.4263474743311
 20
50.84945331422866
 30
0.0
  0
SEQEND
  5
C9
330
C6
100
AcDbEntity
  8
DIBUJOS
 62
     7
  0
POLYLINE
  5
CA
330
C2
100
AcDbEntity
  8
DIBUJOS
 62
     7
100
AcDb2dPolyline
 66
     1
 10
0.0
 20
0.0
 30
0.0
  0
VERTEX
  5
CB
330
CA
100
AcDbEntity
  8
DIBUJOS
 62
     7
100
AcDbVertex
100
AcDb2dVertex
 10
82.42071621581908
 20
50.54068809190289
 30
0.0
  0
VERTEX
  5
CC
330
CA
100
AcDbEntity
  8
DIBUJOS
 62
     7
100
AcDbVertex
100
AcDb2dVertex
 10
82.42071621581908
 20
50.84383852198128
 30
0.0
  0
SEQEND
  5
CD
330
CA
100
AcDbEntity
  8
DIBUJOS
 62
     7
  0
POLYLINE
  5
CE
330
C2
100
AcDbEntity
  8
DIBUJOS
 62
     7
100
AcDb2dPolyline
 66
     1
 10
0.0
 20
0.0
 30
0.0
  0
VERTEX
  5
CF
330
CE
100
AcDbEntity
  8
DIBUJOS
 62
     7
100
AcDbVertex
100
AcDb2dVertex
 10
91.38992594207726
 20
50.54068809190289
 30
0.0
  0
VERTEX
  5
D0
330
CE
100
AcDbEntity
  8
DIBUJOS
 62
     7
100
AcDbVertex
100
AcDb2dVertex
 10
91.38992594207726
 20
50.83822675168846
 30
0.0
  0
VERTEX
  5
D1
330
CE
100
AcDbEntity
  8
DIBUJOS
 62
     7
100
AcDbVertex
100
AcDb2dVertex
 10
91.3786694866874
 20
50.84945331422866
 30
0.0
  0
VERTEX
  5
D2
330
CE
100
AcDbEntity
  8
DIBUJOS
 62
     7
100
AcDbVertex
100
AcDb2dVertex
 10
82.4263474743311
 20
50.84945331422866
 30
0.0
  0
SEQEND
  5
D3
330
CE
100
AcDbEntity
  8
DIBUJOS
 62
     7
  0
POLYLINE
  5
D4
330
C2
100
AcDbEntity
  8
DIBUJOS
 62
     7
100
AcDb2dPolyline
 66
     1
 10
0.0
 20
0.0
 30
0.0
  0
VERTEX
  5
D5
330
D4
100
AcDbEntity
  8
DIBUJOS
 62
     7
100
AcDbVertex
100
AcDb2dVertex
 10
82.4263474743311
 20
50.5350732996555
 30
0.0
  0
VERTEX
  5
D6
330
D4
100
AcDbEntity
  8
DIBUJOS
 62
     7
100
AcDbVertex
100
AcDb2dVertex
 10
82.42071621581908
 20
50.54068809190289
 30
0.0
  0
SEQEND
  5
D7
330
D4
100
AcDbEntity
  8
DIBUJOS
 62
     7
  0
POLYLINE
  5
D8
330
C2
100
AcDbEntity
  8
DIBUJOS
 62
     7
100
AcDb2dPolyline
 66
     1
 10
0.0
 20
0.0
 30
0.0
  0
VERTEX
  5
D9
330
D8
100
AcDbEntity
  8
DIBUJOS
 62
     7
100
AcDbVertex
100
AcDb2dVertex
 10
91.3843007451994
 20
50.5350732996555
 30
0.0
  0
VERTEX
  5
DA
330
D8
100
AcDbEntity
  8
DIBUJOS
 62
     7
100
AcDbVertex
100
AcDb2dVertex
 10
82.4263474743311
 20
50.5350732996555
 30
0.0
  0
SEQEND
  5
DB
330
D8
100
AcDbEntity
  8
DIBUJOS
 62
     7
  0
POLYLINE
  5
DC
330
C2
100
AcDbEntity
  8
DIBUJOS
 62
     7
100
AcDb2dPolyline
 66
     1
 10
0.0
 20
0.0
 30
0.0
  0
VERTEX
  5
DD
330
DC
100
AcDbEntity
  8
DIBUJOS
 62
     7
100
AcDbVertex
100
AcDb2dVertex
 10
91.3843007451994
 20
50.5350732996555
 30
0.0
  0
VERTEX
  5
DE
330
DC
100
AcDbEntity
  8
DIBUJOS
 62
     7
100
AcDbVertex
100
AcDb2dVertex
 10
91.38992594207726
 20
50.54068809190289
 30
0.0
  0
SEQEND
  5
DF
330
DC
100
AcDbEntity
  8
DIBUJOS
 62
     7
  0
POLYLINE
  5
E0
330
C2
100
AcDbEntity
  8
DIBUJOS
 62
     7
100
AcDb2dPolyline
 66
     1
 10
0.0
 20
0.0
 30
0.0
  0
VERTEX
  5
E1
330
E0
100
AcDbEntity
  8
DIBUJOS
 62
     7
100
AcDbVertex
100
AcDb2dVertex
 10
84.84741584400305
 20
50.49577579783453
 30
0.0
  0
VERTEX
  5
E2
330
E0
100
AcDbEntity
  8
DIBUJOS
 62
     7
100
AcDbVertex
100
AcDb2dVertex
 10
84.85304710251506
 20
50.50139059008128
 30
0.0
  0
SEQEND
  5
E3
330
E0
100
AcDbEntity
  8
DIBUJOS
 62
     7
  0
POLYLINE
  5
E4
330
C2
100
AcDbEntity
  8
DIBUJOS
 62
     7
100
AcDb2dPolyline
 66
     1
 10
0.0
 20
0.0
 30
0.0
  0
VERTEX
  5
E5
330
E4
100
AcDbEntity
  8
DIBUJOS
 62
     7
100
AcDbVertex
100
AcDb2dVertex
 10
84.84741584400305
 20
50.49577579783453
 30
0.0
  0
VERTEX
  5
E6
330
E4
100
AcDbEntity
  8
DIBUJOS
 62
     7
100
AcDbVertex
100
AcDb2dVertex
 10
84.95045150836081
 20
50.22125536869873
 30
0.0
  0
VERTEX
  5
E7
330
E4
100
AcDbEntity
  8
DIBUJOS
 62
     7
100
AcDbVertex
100
AcDb2dVertex
 10
85.81696823124716
 20
48.19462662876349
 30
0.0
  0
VERTEX
  5
E8
330
E4
100
AcDbEntity
  8
DIBUJOS
 62
     7
100
AcDbVertex
100
AcDb2dVertex
 10
85.91719129716664
 20
47.96389432646581
 30
0.0
  0
VERTEX
  5
E9
330
E4
100
AcDbEntity
  8
DIBUJOS
 62
     7
100
AcDbVertex
100
AcDb2dVertex
 10
85.91719129716664
 20
47.90775546985694
 30
0.0
  0
VERTEX
  5
EA
330
E4
100
AcDbEntity
  8
DIBUJOS
 62
     7
100
AcDbVertex
100
AcDb2dVertex
 10
85.85326529903007
 20
47.65562470474787
 30
0.0
  0
VERTEX
  5
EB
330
E4
100
AcDbEntity
  8
DIBUJOS
 62
     7
100
AcDbVertex
100
AcDb2dVertex
 10
85.80804550516562
 20
47.47030029712606
 30
0.0
  0
VERTEX
  5
EC
330
E4
100
AcDbEntity
  8
DIBUJOS
 62
     7
100
AcDbVertex
100
AcDb2dVertex
 10
84.8248938407721
 20
43.51205308004199
 30
0.0
  0
VERTEX
  5
ED
330
E4
100
AcDbEntity
  8
DIBUJOS
 62
     7
100
AcDbVertex
100
AcDb2dVertex
 10
84.8248938407721
 20
43.43345807639878
 30
0.0
  0
VERTEX
  5
EE
330
E4
100
AcDbEntity
  8
DIBUJOS
 62
     7
100
AcDbVertex
100
AcDb2dVertex
 10
84.84741584400305
 20
43.41100192936413
 30
0.0
  0
VERTEX
  5
EF
330
E4
100
AcDbEntity
  8
DIBUJOS
 62
     7
100
AcDbVertex
100
AcDb2dVertex
 10
84.87556910574601
 20
43.39977234486967
 30
0.0
  0
VERTEX
  5
F0
330
E4
100
AcDbEntity
  8
DIBUJOS
 62
     7
100
AcDbVertex
100
AcDb2dVertex
 10
88.93507911378448
 20
43.39977234486967
 30
0.0
  0
VERTEX
  5
F1
330
E4
100
AcDbEntity
  8
DIBUJOS
 62
     7
100
AcDbVertex
100
AcDb2dVertex
 10
88.951409157306
 20
43.40707036600909
 30
0.0
  0
VERTEX
  5
F2
330
E4
100
AcDbEntity
  8
DIBUJOS
 62
     7
100
AcDbVertex
100
AcDb2dVertex
 10
88.98575437875839
 20
43.43345807639878
 30
0.0
  0
VERTEX
  5
F3
330
E4
100
AcDbEntity
  8
DIBUJOS
 62
     7
100
AcDbVertex
100
AcDb2dVertex
 10
88.98856697719731
 20
43.46152599372529
 30
0.0
  0
VERTEX
  5
F4
330
E4
100
AcDbEntity
  8
DIBUJOS
 62
     7
100
AcDbVertex
100
AcDb2dVertex
 10
88.98328123185561
 20
43.51177808214373
 30
0.0
  0
VERTEX
  5
F5
330
E4
100
AcDbEntity
  8
DIBUJOS
 62
     7
100
AcDbVertex
100
AcDb2dVertex
 10
88.8711591772827
 20
43.97189791679897
 30
0.0
  0
VERTEX
  5
F6
330
E4
100
AcDbEntity
  8
DIBUJOS
 62
     7
100
AcDbVertex
100
AcDb2dVertex
 10
87.89345389154678
 20
47.90775546985694
 30
0.0
  0
VERTEX
  5
F7
330
E4
100
AcDbEntity
  8
DIBUJOS
 62
     7
100
AcDbVertex
100
AcDb2dVertex
 10
87.89345389154678
 20
47.958282556173
 30
0.0
  0
VERTEX
  5
F8
330
E4
100
AcDbEntity
  8
DIBUJOS
 62
     7
100
AcDbVertex
100
AcDb2dVertex
 10
88.1423203603004
 20
48.54156820763394
 30
0.0
  0
VERTEX
  5
F9
330
E4
100
AcDbEntity
  8
DIBUJOS
 62
     7
100
AcDbVertex
100
AcDb2dVertex
 10
88.3900593650244
 20
49.11418938017043
 30
0.0
  0
VERTEX
  5
FA
330
E4
100
AcDbEntity
  8
DIBUJOS
 62
     7
100
AcDbVertex
100
AcDb2dVertex
 10
88.8742687958149
 20
50.25942870328883
 30
0.0
  0
VERTEX
  5
FB
330
E4
100
AcDbEntity
  8
DIBUJOS
 62
     7
100
AcDbVertex
100
AcDb2dVertex
 10
88.96322934471036
 20
50.49016100558651
 30
0.0
  0
VERTEX
  5
FC
330
E4
100
AcDbEntity
  8
DIBUJOS
 62
     7
100
AcDbVertex
100
AcDb2dVertex
 10
88.94634163080849
 20
50.50700236037378
 30
0.0
  0
VERTEX
  5
FD
330
E4
100
AcDbEntity
  8
DIBUJOS
 62
     7
100
AcDbVertex
100
AcDb2dVertex
 10
86.33946900759271
 20
50.51261715262116
 30
0.0
  0
VERTEX
  5
FE
330
E4
100
AcDbEntity
  8
DIBUJOS
 62
     7
100
AcDbVertex
100
AcDb2dVertex
 10
86.33383774908071
 20
50.50700236037378
 30
0.0
  0
VERTEX
  5
FF
330
E4
100
AcDbEntity
  8
DIBUJOS
 62
     7
100
AcDbVertex
100
AcDb2dVertex
 10
85.99601679306642
 20
50.50700236037378
 30
0.0
  0
VERTEX
  5
100
330
E4
100
AcDbEntity
  8
DIBUJOS
 62
     7
100
AcDbVertex
100
AcDb2dVertex
 10
85.01059807734474
 20
50.50970398807517
 30
0.0
  0
VERTEX
  5
101
330
E4
100
AcDbEntity
  8
DIBUJOS
 62
     7
100
AcDbVertex
100
AcDb2dVertex
 10
84.85304710251506
 20
50.50139059008128
 30
0.0
  0
SEQEND
  5
102
330
E4
100
AcDbEntity
  8
DIBUJOS
 62
     7
  0
ENDBLK
  5
C5
330
C2
100
AcDbEntity
  8
0
100
AcDbBlockEnd
  0
BLOCK
  5
105
330
103
100
AcDbEntity
  8
0
100
AcDbBlockBegin
  2
BLOCK_5
 70
     0
 10
0.0
 20
0.0
 30
0.0
  3
BLOCK_5
  1

  0
POLYLINE
  5
107
330
103
100
AcDbEntity
  8
DIBUJOS
 62
     7
100
AcDb2dPolyline
 66
     1
 10
0.0
 20
0.0
 30
0.0
  0
VERTEX
  5
108
330
107
100
AcDbEntity
  8
DIBUJOS
 62
     7
100
AcDbVertex
100
AcDb2dVertex
 10
86.9757042333062
 20
26.27729869004123
 30
0.0
  0
VERTEX
  5
109
330
107
100
AcDbEntity
  8
DIBUJOS
 62
     7
100
AcDbVertex
100
AcDb2dVertex
 10
87.4879062925231
 20
26.31360370100009
 30
0.0
  0
VERTEX
  5
10A
330
107
100
AcDbEntity
  8
DIBUJOS
 62
     7
100
AcDbVertex
100
AcDb2dVertex
 10
87.85361076754205
 20
26.38612230878148
 30
0.0
  0
VERTEX
  5
10B
330
107
100
AcDbEntity
  8
DIBUJOS
 62
     7
100
AcDbVertex
100
AcDb2dVertex
 10
88.02820402795533
 20
26.41992287459772
 30
0.0
  0
VERTEX
  5
10C
330
107
100
AcDbEntity
  8
DIBUJOS
 62
     7
100
AcDbVertex
100
AcDb2dVertex
 10
88.1913044292302
 20
26.46985614677184
 30
0.0
  0
VERTEX
  5
10D
330
107
100
AcDbEntity
  8
DIBUJOS
 62
     7
100
AcDbVertex
100
AcDb2dVertex
 10
88.59219063127267
 20
26.60683607502067
 30
0.0
  0
VERTEX
  5
10E
330
107
100
AcDbEntity
  8
DIBUJOS
 62
     7
100
AcDbVertex
100
AcDb2dVertex
 10
88.9131178117503
 20
26.75897337367481
 30
0.0
  0
VERTEX
  5
10F
330
107
100
AcDbEntity
  8
DIBUJOS
 62
     7
100
AcDbVertex
100
AcDb2dVertex
 10
89.12031660449544
 20
26.86226983686014
 30
0.0
  0
VERTEX
  5
110
330
107
100
AcDbEntity
  8
DIBUJOS
 62
     7
100
AcDbVertex
100
AcDb2dVertex
 10
89.45784054041583
 20
27.08138574443351
 30
0.0
  0
VERTEX
  5
111
330
107
100
AcDbEntity
  8
DIBUJOS
 62
     7
100
AcDbVertex
100
AcDb2dVertex
 10
89.58906886714173
 20
27.16861749524712
 30
0.0
  0
VERTEX
  5
112
330
107
100
AcDbEntity
  8
DIBUJOS
 62
     7
100
AcDbVertex
100
AcDb2dVertex
 10
89.66017790223867
 20
27.22182958851252
 30
0.0
  0
VERTEX
  5
113
330
107
100
AcDbEntity
  8
DIBUJOS
 62
     7
100
AcDbVertex
100
AcDb2dVertex
 10
90.02296673103172
 20
27.53904117484834
 30
0.0
  0
VERTEX
  5
114
330
107
100
AcDbEntity
  8
DIBUJOS
 62
     7
100
AcDbVertex
100
AcDb2dVertex
 10
90.08507423879804
 20
27.59535379386551
 30
0.0
  0
VERTEX
  5
115
330
107
100
AcDbEntity
  8
DIBUJOS
 62
     7
100
AcDbVertex
100
AcDb2dVertex
 10
90.24556207557507
 20
27.77745604205
 30
0.0
  0
VERTEX
  5
116
330
107
100
AcDbEntity
  8
DIBUJOS
 62
     7
100
AcDbVertex
100
AcDb2dVertex
 10
90.48473599065743
 20
28.05604931093302
 30
0.0
  0
VERTEX
  5
117
330
107
100
AcDbEntity
  8
DIBUJOS
 62
     7
100
AcDbVertex
100
AcDb2dVertex
 10
90.52977999711996
 20
28.1234169965477
 30
0.0
  0
VERTEX
  5
118
330
107
100
AcDbEntity
  8
DIBUJOS
 62
     7
100
AcDbVertex
100
AcDb2dVertex
 10
90.80324457894349
 20
28.54027225805561
 30
0.0
  0
VERTEX
  5
119
330
107
100
AcDbEntity
  8
DIBUJOS
 62
     7
100
AcDbVertex
100
AcDb2dVertex
 10
90.88769527172113
 20
28.70869033885888
 30
0.0
  0
VERTEX
  5
11A
330
107
100
AcDbEntity
  8
DIBUJOS
 62
     7
100
AcDbVertex
100
AcDb2dVertex
 10
91.05942744061844
 20
29.06685923575786
 30
0.0
  0
VERTEX
  5
11B
330
107
100
AcDbEntity
  8
DIBUJOS
 62
     7
100
AcDbVertex
100
AcDb2dVertex
 10
91.18610954141968
 20
29.43850076319379
 30
0.0
  0
VERTEX
  5
11C
330
107
100
AcDbEntity
  8
DIBUJOS
 62
     7
100
AcDbVertex
100
AcDb2dVertex
 10
91.24570147084098
 20
29.62276748659201
 30
0.0
  0
VERTEX
  5
11D
330
107
100
AcDbEntity
  8
DIBUJOS
 62
     7
100
AcDbVertex
100
AcDb2dVertex
 10
91.26241945897445
 20
29.70691231045134
 30
0.0
  0
VERTEX
  5
11E
330
107
100
AcDbEntity
  8
DIBUJOS
 62
     7
100
AcDbVertex
100
AcDb2dVertex
 10
91.35353188814088
 20
30.1679236218086
 30
0.0
  0
VERTEX
  5
11F
330
107
100
AcDbEntity
  8
DIBUJOS
 62
     7
100
AcDbVertex
100
AcDb2dVertex
 10
91.37565079267324
 20
30.5044107476219
 30
0.0
  0
VERTEX
  5
120
330
107
100
AcDbEntity
  8
DIBUJOS
 62
     7
100
AcDbVertex
100
AcDb2dVertex
 10
91.38992594207726
 20
30.68423066435096
 30
0.0
  0
VERTEX
  5
121
330
107
100
AcDbEntity
  8
DIBUJOS
 62
     7
100
AcDbVertex
100
AcDb2dVertex
 10
91.38992594207726
 20
30.81896452460304
 30
0.0
  0
VERTEX
  5
122
330
107
100
AcDbEntity
  8
DIBUJOS
 62
     7
100
AcDbVertex
100
AcDb2dVertex
 10
91.35354401140982
 20
31.32403291678563
 30
0.0
  0
VERTEX
  5
123
330
107
100
AcDbEntity
  8
DIBUJOS
 62
     7
100
AcDbVertex
100
AcDb2dVertex
 10
91.28096199911295
 20
31.69424203758737
 30
0.0
  0
VERTEX
  5
124
330
107
100
AcDbEntity
  8
DIBUJOS
 62
     7
100
AcDbVertex
100
AcDb2dVertex
 10
91.24700472227251
 20
31.86833686071473
 30
0.0
  0
VERTEX
  5
125
330
107
100
AcDbEntity
  8
DIBUJOS
 62
     7
100
AcDbVertex
100
AcDb2dVertex
 10
91.20243958494122
 20
32.01417036139969
 30
0.0
  0
VERTEX
  5
126
330
107
100
AcDbEntity
  8
DIBUJOS
 62
     7
100
AcDbVertex
100
AcDb2dVertex
 10
91.06167630704287
 20
32.42960001567214
 30
0.0
  0
VERTEX
  5
127
330
107
100
AcDbEntity
  8
DIBUJOS
 62
     7
100
AcDbVertex
100
AcDb2dVertex
 10
90.92710801967102
 20
32.71029732067045
 30
0.0
  0
VERTEX
  5
128
330
107
100
AcDbEntity
  8
DIBUJOS
 62
     7
100
AcDbVertex
100
AcDb2dVertex
 10
90.80549344536729
 20
32.95843155039385
 30
0.0
  0
VERTEX
  5
129
330
107
100
AcDbEntity
  8
DIBUJOS
 62
     7
100
AcDbVertex
100
AcDb2dVertex
 10
90.63112446543362
 20
33.22258818511987
 30
0.0
  0
VERTEX
  5
12A
330
107
100
AcDbEntity
  8
DIBUJOS
 62
     7
100
AcDbVertex
100
AcDb2dVertex
 10
90.57482400358187
 20
33.30679798101015
 30
0.0
  0
VERTEX
  5
12B
330
107
100
AcDbEntity
  8
DIBUJOS
 62
     7
100
AcDbVertex
100
AcDb2dVertex
 10
90.44825707383717
 20
33.48997680063621
 30
0.0
  0
VERTEX
  5
12C
330
107
100
AcDbEntity
  8
DIBUJOS
 62
     7
100
AcDbVertex
100
AcDb2dVertex
 10
90.21457499967237
 20
33.75626542456081
 30
0.0
  0
VERTEX
  5
12D
330
107
100
AcDbEntity
  8
DIBUJOS
 62
     7
100
AcDbVertex
100
AcDb2dVertex
 10
90.05671791229693
 20
33.93046752708758
 30
0.0
  0
VERTEX
  5
12E
330
107
100
AcDbEntity
  8
DIBUJOS
 62
     7
100
AcDbVertex
100
AcDb2dVertex
 10
89.87976061440266
 20
34.08487884682241
 30
0.0
  0
VERTEX
  5
12F
330
107
100
AcDbEntity
  8
DIBUJOS
 62
     7
100
AcDbVertex
100
AcDb2dVertex
 10
89.60596264267775
 20
34.31773709440857
 30
0.0
  0
VERTEX
  5
130
330
107
100
AcDbEntity
  8
DIBUJOS
 62
     7
100
AcDbVertex
100
AcDb2dVertex
 10
89.54229729482826
 20
34.36005655115287
 30
0.0
  0
VERTEX
  5
131
330
107
100
AcDbEntity
  8
DIBUJOS
 62
     7
100
AcDbVertex
100
AcDb2dVertex
 10
89.12707532703706
 20
34.63194334657312
 30
0.0
  0
VERTEX
  5
132
330
107
100
AcDbEntity
  8
DIBUJOS
 62
     7
100
AcDbVertex
100
AcDb2dVertex
 10
88.95816181821284
 20
34.71615163148611
 30
0.0
  0
VERTEX
  5
133
330
107
100
AcDbEntity
  8
DIBUJOS
 62
     7
100
AcDbVertex
100
AcDb2dVertex
 10
88.60232568426706
 20
34.88737710841323
 30
0.0
  0
VERTEX
  5
134
330
107
100
AcDbEntity
  8
DIBUJOS
 62
     7
100
AcDbVertex
100
AcDb2dVertex
 10
88.2318446412097
 20
35.01425237488711
 30
0.0
  0
VERTEX
  5
135
330
107
100
AcDbEntity
  8
DIBUJOS
 62
     7
100
AcDbVertex
100
AcDb2dVertex
 10
88.056360320516
 20
35.07204424083943
 30
0.0
  0
VERTEX
  5
136
330
107
100
AcDbEntity
  8
DIBUJOS
 62
     7
100
AcDbVertex
100
AcDb2dVertex
 10
87.97271582513555
 20
35.08770854418382
 30
0.0
  0
VERTEX
  5
137
330
107
100
AcDbEntity
  8
DIBUJOS
 62
     7
100
AcDbVertex
100
AcDb2dVertex
 10
87.48225078747258
 20
35.18400615976678
 30
0.0
  0
VERTEX
  5
138
330
107
100
AcDbEntity
  8
DIBUJOS
 62
     7
100
AcDbVertex
100
AcDb2dVertex
 10
87.23487548082262
 20
35.20043501770715
 30
0.0
  0
VERTEX
  5
139
330
107
100
AcDbEntity
  8
DIBUJOS
 62
     7
100
AcDbVertex
100
AcDb2dVertex
 10
86.9757042333062
 20
35.22028321764298
 30
0.0
  0
VERTEX
  5
13A
330
107
100
AcDbEntity
  8
DIBUJOS
 62
     7
100
AcDbVertex
100
AcDb2dVertex
 10
86.83494095540722
 20
35.22028321764298
 30
0.0
  0
VERTEX
  5
13B
330
107
100
AcDbEntity
  8
DIBUJOS
 62
     7
100
AcDbVertex
100
AcDb2dVertex
 10
86.32274495782445
 20
35.18397896217245
 30
0.0
  0
VERTEX
  5
13C
330
107
100
AcDbEntity
  8
DIBUJOS
 62
     7
100
AcDbVertex
100
AcDb2dVertex
 10
85.95710109915086
 20
35.1116363832656
 30
0.0
  0
VERTEX
  5
13D
330
107
100
AcDbEntity
  8
DIBUJOS
 62
     7
100
AcDbVertex
100
AcDb2dVertex
 10
85.78249571546928
 20
35.07777537835091
 30
0.0
  0
VERTEX
  5
13E
330
107
100
AcDbEntity
  8
DIBUJOS
 62
     7
100
AcDbVertex
100
AcDb2dVertex
 10
85.63623453501859
 20
35.0333390421828
 30
0.0
  0
VERTEX
  5
13F
330
107
100
AcDbEntity
  8
DIBUJOS
 62
     7
100
AcDbVertex
100
AcDb2dVertex
 10
85.21958505228744
 20
34.89299190066029
 30
0.0
  0
VERTEX
  5
140
330
107
100
AcDbEntity
  8
DIBUJOS
 62
     7
100
AcDbVertex
100
AcDb2dVertex
 10
84.92680507191797
 20
34.75320382079992
 30
0.0
  0
VERTEX
  5
141
330
107
100
AcDbEntity
  8
DIBUJOS
 62
     7
100
AcDbVertex
100
AcDb2dVertex
 10
84.69595681191227
 20
34.64092610758217
 30
0.0
  0
VERTEX
  5
142
330
107
100
AcDbEntity
  8
DIBUJOS
 62
     7
100
AcDbVertex
100
AcDb2dVertex
 10
84.4091111717835
 20
34.45549290958334
 30
0.0
  0
VERTEX
  5
143
330
107
100
AcDbEntity
  8
DIBUJOS
 62
     7
100
AcDbVertex
100
AcDb2dVertex
 10
84.3116613036784
 20
34.39071730580471
 30
0.0
  0
VERTEX
  5
144
330
107
100
AcDbEntity
  8
DIBUJOS
 62
     7
100
AcDbVertex
100
AcDb2dVertex
 10
84.16735803119305
 20
34.29259442944728
 30
0.0
  0
VERTEX
  5
145
330
107
100
AcDbEntity
  8
DIBUJOS
 62
     7
100
AcDbVertex
100
AcDb2dVertex
 10
83.89710005405516
 20
34.05680941851765
 30
0.0
  0
VERTEX
  5
146
330
107
100
AcDbEntity
  8
DIBUJOS
 62
     7
100
AcDbVertex
100
AcDb2dVertex
 10
83.7044461534517
 20
33.88416815570904
 30
0.0
  0
VERTEX
  5
147
330
107
100
AcDbEntity
  8
DIBUJOS
 62
     7
100
AcDbVertex
100
AcDb2dVertex
 10
83.46936687251899
 20
33.61348258737144
 30
0.0
  0
VERTEX
  5
148
330
107
100
AcDbEntity
  8
DIBUJOS
 62
     7
100
AcDbVertex
100
AcDb2dVertex
 10
83.33717171508
 20
33.45837319604951
 30
0.0
  0
VERTEX
  5
149
330
107
100
AcDbEntity
  8
DIBUJOS
 62
     7
100
AcDbVertex
100
AcDb2dVertex
 10
83.26397747769158
 20
33.35170876410218
 30
0.0
  0
VERTEX
  5
14A
330
107
100
AcDbEntity
  8
DIBUJOS
 62
     7
100
AcDbVertex
100
AcDb2dVertex
 10
83.00177238207499
 20
32.95169561286986
 30
0.0
  0
VERTEX
  5
14B
330
107
100
AcDbEntity
  8
DIBUJOS
 62
     7
100
AcDbVertex
100
AcDb2dVertex
 10
82.9004279137607
 20
32.74398003024499
 30
0.0
  0
VERTEX
  5
14C
330
107
100
AcDbEntity
  8
DIBUJOS
 62
     7
100
AcDbVertex
100
AcDb2dVertex
 10
82.75122077891142
 20
32.43633746417343
 30
0.0
  0
VERTEX
  5
14D
330
107
100
AcDbEntity
  8
DIBUJOS
 62
     7
100
AcDbVertex
100
AcDb2dVertex
 10
82.61046053183014
 20
32.02090629892304
 30
0.0
  0
VERTEX
  5
14E
330
107
100
AcDbEntity
  8
DIBUJOS
 62
     7
100
AcDbVertex
100
AcDb2dVertex
 10
82.56364349725735
 20
31.86833686071473
 30
0.0
  0
VERTEX
  5
14F
330
107
100
AcDbEntity
  8
DIBUJOS
 62
     7
100
AcDbVertex
100
AcDb2dVertex
 10
82.53115919761683
 20
31.70639785126622
 30
0.0
  0
VERTEX
  5
150
330
107
100
AcDbEntity
  8
DIBUJOS
 62
     7
100
AcDbVertex
100
AcDb2dVertex
 10
82.45711633138961
 20
31.32965828587561
 30
0.0
  0
VERTEX
  5
151
330
107
100
AcDbEntity
  8
DIBUJOS
 62
     7
100
AcDbVertex
100
AcDb2dVertex
 10
82.42071621581908
 20
30.81335124333262
 30
0.0
  0
VERTEX
  5
152
330
107
100
AcDbEntity
  8
DIBUJOS
 62
     7
100
AcDbVertex
100
AcDb2dVertex
 10
82.42936313752753
 20
30.58862054351282
 30
0.0
  0
VERTEX
  5
153
330
107
100
AcDbEntity
  8
DIBUJOS
 62
     7
100
AcDbVertex
100
AcDb2dVertex
 10
82.45712845465854
 20
30.16791304496632
 30
0.0
  0
VERTEX
  5
154
330
107
100
AcDbEntity
  8
DIBUJOS
 62
     7
100
AcDbVertex
100
AcDb2dVertex
 10
82.5411214940264
 20
29.74713755243431
 30
0.0
  0
VERTEX
  5
155
330
107
100
AcDbEntity
  8
DIBUJOS
 62
     7
100
AcDbVertex
100
AcDb2dVertex
 10
82.56364349725735
 20
29.62924504697013
 30
0.0
  0
VERTEX
  5
156
330
107
100
AcDbEntity
  8
DIBUJOS
 62
     7
100
AcDbVertex
100
AcDb2dVertex
 10
82.6251024101253
 20
29.43288597094608
 30
0.0
  0
VERTEX
  5
157
330
107
100
AcDbEntity
  8
DIBUJOS
 62
     7
100
AcDbVertex
100
AcDb2dVertex
 10
82.7546001401819
 20
29.05675381849522
 30
0.0
  0
VERTEX
  5
158
330
107
100
AcDbEntity
  8
DIBUJOS
 62
     7
100
AcDbVertex
100
AcDb2dVertex
 10
82.90605614145562
 20
28.74237380392174
 30
0.0
  0
VERTEX
  5
159
330
107
100
AcDbEntity
  8
DIBUJOS
 62
     7
100
AcDbVertex
100
AcDb2dVertex
 10
83.00853110461661
 20
28.53521954942397
 30
0.0
  0
VERTEX
  5
15A
330
107
100
AcDbEntity
  8
DIBUJOS
 62
     7
100
AcDbVertex
100
AcDb2dVertex
 10
83.24968414338447
 20
28.1700555823668
 30
0.0
  0
VERTEX
  5
15B
330
107
100
AcDbEntity
  8
DIBUJOS
 62
     7
100
AcDbVertex
100
AcDb2dVertex
 10
83.32591222887307
 20
28.05604931093302
 30
0.0
  0
VERTEX
  5
15C
330
107
100
AcDbEntity
  8
DIBUJOS
 62
     7
100
AcDbVertex
100
AcDb2dVertex
 10
83.4355853830811
 20
27.92341797581893
 30
0.0
  0
VERTEX
  5
15D
330
107
100
AcDbEntity
  8
DIBUJOS
 62
     7
100
AcDbVertex
100
AcDb2dVertex
 10
83.71431146370844
 20
27.606581867383
 30
0.0
  0
VERTEX
  5
15E
330
107
100
AcDbEntity
  8
DIBUJOS
 62
     7
100
AcDbVertex
100
AcDb2dVertex
 10
83.93653401772586
 20
27.40709129056995
 30
0.0
  0
VERTEX
  5
15F
330
107
100
AcDbEntity
  8
DIBUJOS
 62
     7
100
AcDbVertex
100
AcDb2dVertex
 10
84.1617298034981
 20
27.21060151499567
 30
0.0
  0
VERTEX
  5
160
330
107
100
AcDbEntity
  8
DIBUJOS
 62
     7
100
AcDbVertex
100
AcDb2dVertex
 10
84.36969842383361
 20
27.07015767091602
 30
0.0
  0
VERTEX
  5
161
330
107
100
AcDbEntity
  8
DIBUJOS
 62
     7
100
AcDbVertex
100
AcDb2dVertex
 10
84.45993191598728
 20
27.00845615078251
 30
0.0
  0
VERTEX
  5
162
330
107
100
AcDbEntity
  8
DIBUJOS
 62
     7
100
AcDbVertex
100
AcDb2dVertex
 10
84.69595681191227
 20
26.85665580010204
 30
0.0
  0
VERTEX
  5
163
330
107
100
AcDbEntity
  8
DIBUJOS
 62
     7
100
AcDbVertex
100
AcDb2dVertex
 10
84.9425683526073
 20
26.73651798212944
 30
0.0
  0
VERTEX
  5
164
330
107
100
AcDbEntity
  8
DIBUJOS
 62
     7
100
AcDbVertex
100
AcDb2dVertex
 10
85.21958505228744
 20
26.60459076251225
 30
0.0
  0
VERTEX
  5
165
330
107
100
AcDbEntity
  8
DIBUJOS
 62
     7
100
AcDbVertex
100
AcDb2dVertex
 10
85.64636958801363
 20
26.4608741412511
 30
0.0
  0
VERTEX
  5
166
330
107
100
AcDbEntity
  8
DIBUJOS
 62
     7
100
AcDbVertex
100
AcDb2dVertex
 10
85.78249571546928
 20
26.41980577384498
 30
0.0
  0
VERTEX
  5
167
330
107
100
AcDbEntity
  8
DIBUJOS
 62
     7
100
AcDbVertex
100
AcDb2dVertex
 10
85.9730613829642
 20
26.38180393519628
 30
0.0
  0
VERTEX
  5
168
330
107
100
AcDbEntity
  8
DIBUJOS
 62
     7
100
AcDbVertex
100
AcDb2dVertex
 10
86.32275101945925
 20
26.31359010220325
 30
0.0
  0
VERTEX
  5
169
330
107
100
AcDbEntity
  8
DIBUJOS
 62
     7
100
AcDbVertex
100
AcDb2dVertex
 10
86.40123100218872
 20
26.30837420800559
 30
0.0
  0
VERTEX
  5
16A
330
107
100
AcDbEntity
  8
DIBUJOS
 62
     7
100
AcDbVertex
100
AcDb2dVertex
 10
86.83505006482962
 20
26.27999351834421
 30
0.0
  0
VERTEX
  5
16B
330
107
100
AcDbEntity
  8
DIBUJOS
 62
     7
100
AcDbVertex
100
AcDb2dVertex
 10
86.9757042333062
 20
26.27729869004123
 30
0.0
  0
SEQEND
  5
16C
330
107
100
AcDbEntity
  8
DIBUJOS
 62
     7
  0
ENDBLK
  5
106
330
103
100
AcDbEntity
  8
0
100
AcDbBlockEnd
  0
BLOCK
  5
16F
330
16D
100
AcDbEntity
  8
0
100
AcDbBlockBegin
  2
BLOCK_6
 70
     0
 10
0.0
 20
0.0
 30
0.0
  3
BLOCK_6
  1

  0
POLYLINE
  5
171
330
16D
100
AcDbEntity
  8
DIBUJOS
 62
     7
100
AcDb2dPolyline
 66
     1
 10
0.0
 20
0.0
 30
0.0
  0
VERTEX
  5
172
330
171
100
AcDbEntity
  8
DIBUJOS
 62
     7
100
AcDbVertex
100
AcDb2dVertex
 10
68.39946877653988
 20
25.85064020676232
 30
0.0
  0
VERTEX
  5
173
330
171
100
AcDbEntity
  8
DIBUJOS
 62
     7
100
AcDbVertex
100
AcDb2dVertex
 10
68.98484385742407
 20
25.89253130139727
 30
0.0
  0
VERTEX
  5
174
330
171
100
AcDbEntity
  8
DIBUJOS
 62
     7
100
AcDbVertex
100
AcDb2dVertex
 10
69.3787258407245
 20
25.97069189902006
 30
0.0
  0
VERTEX
  5
175
330
171
100
AcDbEntity
  8
DIBUJOS
 62
     7
100
AcDbVertex
100
AcDb2dVertex
 10
69.57578958047525
 20
26.00998940084166
 30
0.0
  0
VERTEX
  5
176
330
171
100
AcDbEntity
  8
DIBUJOS
 62
     7
100
AcDbVertex
100
AcDb2dVertex
 10
69.72204773010758
 20
26.05442573701041
 30
0.0
  0
VERTEX
  5
177
330
171
100
AcDbEntity
  8
DIBUJOS
 62
     7
100
AcDbVertex
100
AcDb2dVertex
 10
70.17360616630656
 20
26.20824702004587
 30
0.0
  0
VERTEX
  5
178
330
171
100
AcDbEntity
  8
DIBUJOS
 62
     7
100
AcDbVertex
100
AcDb2dVertex
 10
70.50436834886857
 20
26.36280339361674
 30
0.0
  0
VERTEX
  5
179
330
171
100
AcDbEntity
  8
DIBUJOS
 62
     7
100
AcDbVertex
100
AcDb2dVertex
 10
70.7636699215282
 20
26.49175096567907
 30
0.0
  0
VERTEX
  5
17A
330
171
100
AcDbEntity
  8
DIBUJOS
 62
     7
100
AcDbVertex
100
AcDb2dVertex
 10
71.08430008191257
 20
26.69963879973495
 30
0.0
  0
VERTEX
  5
17B
330
171
100
AcDbEntity
  8
DIBUJOS
 62
     7
100
AcDbVertex
100
AcDb2dVertex
 10
71.21553143945522
 20
26.78687055054856
 30
0.0
  0
VERTEX
  5
17C
330
171
100
AcDbEntity
  8
DIBUJOS
 62
     7
100
AcDbVertex
100
AcDb2dVertex
 10
71.35657961417853
 20
26.88783633099956
 30
0.0
  0
VERTEX
  5
17D
330
171
100
AcDbEntity
  8
DIBUJOS
 62
     7
100
AcDbVertex
100
AcDb2dVertex
 10
71.67760074999222
 20
27.16851928171205
 30
0.0
  0
VERTEX
  5
17E
330
171
100
AcDbEntity
  8
DIBUJOS
 62
     7
100
AcDbVertex
100
AcDb2dVertex
 10
71.85089985142521
 20
27.32710316570709
 30
0.0
  0
VERTEX
  5
17F
330
171
100
AcDbEntity
  8
DIBUJOS
 62
     7
100
AcDbVertex
100
AcDb2dVertex
 10
72.12539188030782
 20
27.64269951713607
 30
0.0
  0
VERTEX
  5
180
330
171
100
AcDbEntity
  8
DIBUJOS
 62
     7
100
AcDbVertex
100
AcDb2dVertex
 10
72.25195577923479
 20
27.79219487169927
 30
0.0
  0
VERTEX
  5
181
330
171
100
AcDbEntity
  8
DIBUJOS
 62
     7
100
AcDbVertex
100
AcDb2dVertex
 10
72.33944335093032
 20
27.92304249791968
 30
0.0
  0
VERTEX
  5
182
330
171
100
AcDbEntity
  8
DIBUJOS
 62
     7
100
AcDbVertex
100
AcDb2dVertex
 10
72.61212901271227
 20
28.33704805593527
 30
0.0
  0
VERTEX
  5
183
330
171
100
AcDbEntity
  8
DIBUJOS
 62
     7
100
AcDbVertex
100
AcDb2dVertex
 10
72.72473599805058
 20
28.56721903010616
 30
0.0
  0
VERTEX
  5
184
330
171
100
AcDbEntity
  8
DIBUJOS
 62
     7
100
AcDbVertex
100
AcDb2dVertex
 10
72.88520261910679
 20
28.89956381120816
 30
0.0
  0
VERTEX
  5
185
330
171
100
AcDbEntity
  8
DIBUJOS
 62
     7
100
AcDbVertex
100
AcDb2dVertex
 10
73.04060171366548
 20
29.35878310329636
 30
0.0
  0
VERTEX
  5
186
330
171
100
AcDbEntity
  8
DIBUJOS
 62
     7
100
AcDbVertex
100
AcDb2dVertex
 10
73.08730357718142
 20
29.50007158377644
 30
0.0
  0
VERTEX
  5
187
330
171
100
AcDbEntity
  8
DIBUJOS
 62
     7
100
AcDbVertex
100
AcDb2dVertex
 10
73.1197242296595
 20
29.66200152735995
 30
0.0
  0
VERTEX
  5
188
330
171
100
AcDbEntity
  8
DIBUJOS
 62
     7
100
AcDbVertex
100
AcDb2dVertex
 10
73.21085181291227
 20
30.14547956259383
 30
0.0
  0
VERTEX
  5
189
330
171
100
AcDbEntity
  8
DIBUJOS
 62
     7
100
AcDbVertex
100
AcDb2dVertex
 10
73.24420595711304
 20
30.64474731230149
 30
0.0
  0
VERTEX
  5
18A
330
171
100
AcDbEntity
  8
DIBUJOS
 62
     7
100
AcDbVertex
100
AcDb2dVertex
 10
73.24985236971202
 20
30.76861422264953
 30
0.0
  0
VERTEX
  5
18B
330
171
100
AcDbEntity
  8
DIBUJOS
 62
     7
100
AcDbVertex
100
AcDb2dVertex
 10
73.21083665882529
 20
31.35772771417973
 30
0.0
  0
VERTEX
  5
18C
330
171
100
AcDbEntity
  8
DIBUJOS
 62
     7
100
AcDbVertex
100
AcDb2dVertex
 10
73.12683149618819
 20
31.80096993058836
 30
0.0
  0
VERTEX
  5
18D
330
171
100
AcDbEntity
  8
DIBUJOS
 62
     7
100
AcDbVertex
100
AcDb2dVertex
 10
73.09293180487634
 20
31.9750541768728
 30
0.0
  0
VERTEX
  5
18E
330
171
100
AcDbEntity
  8
DIBUJOS
 62
     7
100
AcDbVertex
100
AcDb2dVertex
 10
73.03722235239468
 20
32.15451750292091
 30
0.0
  0
VERTEX
  5
18F
330
171
100
AcDbEntity
  8
DIBUJOS
 62
     7
100
AcDbVertex
100
AcDb2dVertex
 10
72.88295072186527
 20
32.60475554497669
 30
0.0
  0
VERTEX
  5
190
330
171
100
AcDbEntity
  8
DIBUJOS
 62
     7
100
AcDbVertex
100
AcDb2dVertex
 10
72.74162674276953
 20
32.8966794125152
 30
0.0
  0
VERTEX
  5
191
330
171
100
AcDbEntity
  8
DIBUJOS
 62
     7
100
AcDbVertex
100
AcDb2dVertex
 10
72.60987711547108
 20
33.16502447676515
 30
0.0
  0
VERTEX
  5
192
330
171
100
AcDbEntity
  8
DIBUJOS
 62
     7
100
AcDbVertex
100
AcDb2dVertex
 10
72.42390010534211
 20
33.45103286754097
 30
0.0
  0
VERTEX
  5
193
330
171
100
AcDbEntity
  8
DIBUJOS
 62
     7
100
AcDbVertex
100
AcDb2dVertex
 10
72.34749926326867
 20
33.56473543250456
 30
0.0
  0
VERTEX
  5
194
330
171
100
AcDbEntity
  8
DIBUJOS
 62
     7
100
AcDbVertex
100
AcDb2dVertex
 10
72.21547989323226
 20
33.75383123987059
 30
0.0
  0
VERTEX
  5
195
330
171
100
AcDbEntity
  8
DIBUJOS
 62
     7
100
AcDbVertex
100
AcDb2dVertex
 10
71.93675381260523
 20
34.07066659281821
 30
0.0
  0
VERTEX
  5
196
330
171
100
AcDbEntity
  8
DIBUJOS
 62
     7
100
AcDbVertex
100
AcDb2dVertex
 10
71.80707726432803
 20
34.21678113531087
 30
0.0
  0
VERTEX
  5
197
330
171
100
AcDbEntity
  8
DIBUJOS
 62
     7
100
AcDbVertex
100
AcDb2dVertex
 10
71.63012299725179
 20
34.37119245504571
 30
0.0
  0
VERTEX
  5
198
330
171
100
AcDbEntity
  8
DIBUJOS
 62
     7
100
AcDbVertex
100
AcDb2dVertex
 10
71.29998819386766
 20
34.65457174503846
 30
0.0
  0
VERTEX
  5
199
330
171
100
AcDbEntity
  8
DIBUJOS
 62
     7
100
AcDbVertex
100
AcDb2dVertex
 10
71.23242218417417
 20
34.69948403910713
 30
0.0
  0
VERTEX
  5
19A
330
171
100
AcDbEntity
  8
DIBUJOS
 62
     7
100
AcDbVertex
100
AcDb2dVertex
 10
70.7636699215282
 20
35.00583018651619
 30
0.0
  0
VERTEX
  5
19B
330
171
100
AcDbEntity
  8
DIBUJOS
 62
     7
100
AcDbVertex
100
AcDb2dVertex
 10
70.57899313201433
 20
35.09790008716195
 30
0.0
  0
VERTEX
  5
19C
330
171
100
AcDbEntity
  8
DIBUJOS
 62
     7
100
AcDbVertex
100
AcDb2dVertex
 10
70.18374121930127
 20
35.28596540789906
 30
0.0
  0
VERTEX
  5
19D
330
171
100
AcDbEntity
  8
DIBUJOS
 62
     7
100
AcDbVertex
100
AcDb2dVertex
 10
69.74006593885613
 20
35.43529682140728
 30
0.0
  0
VERTEX
  5
19E
330
171
100
AcDbEntity
  8
DIBUJOS
 62
     7
100
AcDbVertex
100
AcDb2dVertex
 10
69.60393981140112
 20
35.48197847008381
 30
0.0
  0
VERTEX
  5
19F
330
171
100
AcDbEntity
  8
DIBUJOS
 62
     7
100
AcDbVertex
100
AcDb2dVertex
 10
69.46967763657472
 20
35.50875299070398
 30
0.0
  0
VERTEX
  5
1A0
330
171
100
AcDbEntity
  8
DIBUJOS
 62
     7
100
AcDbVertex
100
AcDb2dVertex
 10
68.98484385742407
 20
35.60505060628759
 30
0.0
  0
VERTEX
  5
1A1
330
171
100
AcDbEntity
  8
DIBUJOS
 62
     7
100
AcDbVertex
100
AcDb2dVertex
 10
68.57418630046125
 20
35.63270753774481
 30
0.0
  0
VERTEX
  5
1A2
330
171
100
AcDbEntity
  8
DIBUJOS
 62
     7
100
AcDbVertex
100
AcDb2dVertex
 10
68.27560230499495
 20
35.64694094543293
 30
0.0
  0
VERTEX
  5
1A3
330
171
100
AcDbEntity
  8
DIBUJOS
 62
     7
100
AcDbVertex
100
AcDb2dVertex
 10
67.69023934737938
 20
35.60506873801629
 30
0.0
  0
VERTEX
  5
1A4
330
171
100
AcDbEntity
  8
DIBUJOS
 62
     7
100
AcDbVertex
100
AcDb2dVertex
 10
67.29634827162708
 20
35.52688925317519
 30
0.0
  0
VERTEX
  5
1A5
330
171
100
AcDbEntity
  8
DIBUJOS
 62
     7
100
AcDbVertex
100
AcDb2dVertex
 10
67.09359871865377
 20
35.48747540608917
 30
0.0
  0
VERTEX
  5
1A6
330
171
100
AcDbEntity
  8
DIBUJOS
 62
     7
100
AcDbVertex
100
AcDb2dVertex
 10
66.9530233514266
 20
35.44315541518548
 30
0.0
  0
VERTEX
  5
1A7
330
171
100
AcDbEntity
  8
DIBUJOS
 62
     7
100
AcDbVertex
100
AcDb2dVertex
 10
66.48570163453797
 20
35.28596540789906
 30
0.0
  0
VERTEX
  5
1A8
330
171
100
AcDbEntity
  8
DIBUJOS
 62
     7
100
AcDbVertex
100
AcDb2dVertex
 10
66.14787764770693
 20
35.12372420295829
 30
0.0
  0
VERTEX
  5
1A9
330
171
100
AcDbEntity
  8
DIBUJOS
 62
     7
100
AcDbVertex
100
AcDb2dVertex
 10
65.91703241851863
 20
35.0114449787639
 30
0.0
  0
VERTEX
  5
1AA
330
171
100
AcDbEntity
  8
DIBUJOS
 62
     7
100
AcDbVertex
100
AcDb2dVertex
 10
65.4950547590032
 20
34.73619021458165
 30
0.0
  0
VERTEX
  5
1AB
330
171
100
AcDbEntity
  8
DIBUJOS
 62
     7
100
AcDbVertex
100
AcDb2dVertex
 10
65.38071414617949
 20
34.66018653728553
 30
0.0
  0
VERTEX
  5
1AC
330
171
100
AcDbEntity
  8
DIBUJOS
 62
     7
100
AcDbVertex
100
AcDb2dVertex
 10
65.20828185848937
 20
34.51714834490421
 30
0.0
  0
VERTEX
  5
1AD
330
171
100
AcDbEntity
  8
DIBUJOS
 62
     7
100
AcDbVertex
100
AcDb2dVertex
 10
64.88610598129046
 20
34.23784567210349
 30
0.0
  0
VERTEX
  5
1AE
330
171
100
AcDbEntity
  8
DIBUJOS
 62
     7
100
AcDbVertex
100
AcDb2dVertex
 10
64.68201680707783
 20
34.00889179027771
 30
0.0
  0
VERTEX
  5
1AF
330
171
100
AcDbEntity
  8
DIBUJOS
 62
     7
100
AcDbVertex
100
AcDb2dVertex
 10
64.44270044358298
 20
33.73698988508333
 30
0.0
  0
VERTEX
  5
1B0
330
171
100
AcDbEntity
  8
DIBUJOS
 62
     7
100
AcDbVertex
100
AcDb2dVertex
 10
64.29058372414164
 20
33.51278500541963
 30
0.0
  0
VERTEX
  5
1B1
330
171
100
AcDbEntity
  8
DIBUJOS
 62
     7
100
AcDbVertex
100
AcDb2dVertex
 10
64.23168282106161
 20
33.42469048647497
 30
0.0
  0
VERTEX
  5
1B2
330
171
100
AcDbEntity
  8
DIBUJOS
 62
     7
100
AcDbVertex
100
AcDb2dVertex
 10
64.07082522457574
 20
33.17625255028201
 30
0.0
  0
VERTEX
  5
1B3
330
171
100
AcDbEntity
  8
DIBUJOS
 62
     7
100
AcDbVertex
100
AcDb2dVertex
 10
63.93344433876497
 20
32.90229269378498
 30
0.0
  0
VERTEX
  5
1B4
330
171
100
AcDbEntity
  8
DIBUJOS
 62
     7
100
AcDbVertex
100
AcDb2dVertex
 10
63.78086087346228
 20
32.57668460569529
 30
0.0
  0
VERTEX
  5
1B5
330
171
100
AcDbEntity
  8
DIBUJOS
 62
     7
100
AcDbVertex
100
AcDb2dVertex
 10
63.62320988166207
 20
32.11634265735352
 30
0.0
  0
VERTEX
  5
1B6
330
171
100
AcDbEntity
  8
DIBUJOS
 62
     7
100
AcDbVertex
100
AcDb2dVertex
 10
63.5820210747842
 20
31.97500129266205
 30
0.0
  0
VERTEX
  5
1B7
330
171
100
AcDbEntity
  8
DIBUJOS
 62
     7
100
AcDbVertex
100
AcDb2dVertex
 10
63.54390854744844
 20
31.78499134393151
 30
0.0
  0
VERTEX
  5
1B8
330
171
100
AcDbEntity
  8
DIBUJOS
 62
     7
100
AcDbVertex
100
AcDb2dVertex
 10
63.4642344227092
 20
31.374569068967
 30
0.0
  0
VERTEX
  5
1B9
330
171
100
AcDbEntity
  8
DIBUJOS
 62
     7
100
AcDbVertex
100
AcDb2dVertex
 10
63.42220607944375
 20
30.77405374151165
 30
0.0
  0
VERTEX
  5
1BA
330
171
100
AcDbEntity
  8
DIBUJOS
 62
     7
100
AcDbVertex
100
AcDb2dVertex
 10
63.43083784706618
 20
30.63354190344648
 30
0.0
  0
VERTEX
  5
1BB
330
171
100
AcDbEntity
  8
DIBUJOS
 62
     7
100
AcDbVertex
100
AcDb2dVertex
 10
63.46424654597847
 20
30.12861554314536
 30
0.0
  0
VERTEX
  5
1BC
330
171
100
AcDbEntity
  8
DIBUJOS
 62
     7
100
AcDbVertex
100
AcDb2dVertex
 10
63.55369202563869
 20
29.66860600984476
 30
0.0
  0
VERTEX
  5
1BD
330
171
100
AcDbEntity
  8
DIBUJOS
 62
     7
100
AcDbVertex
100
AcDb2dVertex
 10
63.58213927665847
 20
29.52252773081078
 30
0.0
  0
VERTEX
  5
1BE
330
171
100
AcDbEntity
  8
DIBUJOS
 62
     7
100
AcDbVertex
100
AcDb2dVertex
 10
63.64347998765183
 20
29.32622153899811
 30
0.0
  0
VERTEX
  5
1BF
330
171
100
AcDbEntity
  8
DIBUJOS
 62
     7
100
AcDbVertex
100
AcDb2dVertex
 10
63.79016851333868
 20
28.89388404693014
 30
0.0
  0
VERTEX
  5
1C0
330
171
100
AcDbEntity
  8
DIBUJOS
 62
     7
100
AcDbVertex
100
AcDb2dVertex
 10
63.94808318624272
 20
28.56890301448683
 30
0.0
  0
VERTEX
  5
1C1
330
171
100
AcDbEntity
  8
DIBUJOS
 62
     7
100
AcDbVertex
100
AcDb2dVertex
 10
64.0651969968805
 20
28.33255667543074
 30
0.0
  0
VERTEX
  5
1C2
330
171
100
AcDbEntity
  8
DIBUJOS
 62
     7
100
AcDbVertex
100
AcDb2dVertex
 10
64.31873698588524
 20
27.94549864495466
 30
0.0
  0
VERTEX
  5
1C3
330
171
100
AcDbEntity
  8
DIBUJOS
 62
     7
100
AcDbVertex
100
AcDb2dVertex
 10
64.40622455758076
 20
27.81465101873361
 30
0.0
  0
VERTEX
  5
1C4
330
171
100
AcDbEntity
  8
DIBUJOS
 62
     7
100
AcDbVertex
100
AcDb2dVertex
 10
64.48774748086292
 20
27.71008911192428
 30
0.0
  0
VERTEX
  5
1C5
330
171
100
AcDbEntity
  8
DIBUJOS
 62
     7
100
AcDbVertex
100
AcDb2dVertex
 10
64.81151453713476
 20
27.34270551897509
 30
0.0
  0
VERTEX
  5
1C6
330
171
100
AcDbEntity
  8
DIBUJOS
 62
     7
100
AcDbVertex
100
AcDb2dVertex
 10
64.88488759274249
 20
27.26395866209711
 30
0.0
  0
VERTEX
  5
1C7
330
171
100
AcDbEntity
  8
DIBUJOS
 62
     7
100
AcDbVertex
100
AcDb2dVertex
 10
65.1969981257439
 20
26.99165861434163
 30
0.0
  0
VERTEX
  5
1C8
330
171
100
AcDbEntity
  8
DIBUJOS
 62
     7
100
AcDbVertex
100
AcDb2dVertex
 10
65.38071414617949
 20
26.83739612588765
 30
0.0
  0
VERTEX
  5
1C9
330
171
100
AcDbEntity
  8
DIBUJOS
 62
     7
100
AcDbVertex
100
AcDb2dVertex
 10
65.49895239002916
 20
26.7588011222438
 30
0.0
  0
VERTEX
  5
1CA
330
171
100
AcDbEntity
  8
DIBUJOS
 62
     7
100
AcDbVertex
100
AcDb2dVertex
 10
65.91703241851863
 20
26.48613692892032
 30
0.0
  0
VERTEX
  5
1CB
330
171
100
AcDbEntity
  8
DIBUJOS
 62
     7
100
AcDbVertex
100
AcDb2dVertex
 10
66.15238144218964
 20
26.3716123922175
 30
0.0
  0
VERTEX
  5
1CC
330
171
100
AcDbEntity
  8
DIBUJOS
 62
     7
100
AcDbVertex
100
AcDb2dVertex
 10
66.48570163453797
 20
26.21161574429619
 30
0.0
  0
VERTEX
  5
1CD
330
171
100
AcDbEntity
  8
DIBUJOS
 62
     7
100
AcDbVertex
100
AcDb2dVertex
 10
66.96315840442163
 20
26.05105776824842
 30
0.0
  0
VERTEX
  5
1CE
330
171
100
AcDbEntity
  8
DIBUJOS
 62
     7
100
AcDbVertex
100
AcDb2dVertex
 10
67.09934817903972
 20
26.00981186098983
 30
0.0
  0
VERTEX
  5
1CF
330
171
100
AcDbEntity
  8
DIBUJOS
 62
     7
100
AcDbVertex
100
AcDb2dVertex
 10
67.31800346111517
 20
25.96637352543486
 30
0.0
  0
VERTEX
  5
1D0
330
171
100
AcDbEntity
  8
DIBUJOS
 62
     7
100
AcDbVertex
100
AcDb2dVertex
 10
67.69023934737938
 20
25.89251392515624
 30
0.0
  0
VERTEX
  5
1D1
330
171
100
AcDbEntity
  8
DIBUJOS
 62
     7
100
AcDbVertex
100
AcDb2dVertex
 10
67.75740832000874
 20
25.88736224750058
 30
0.0
  0
VERTEX
  5
1D2
330
171
100
AcDbEntity
  8
DIBUJOS
 62
     7
100
AcDbVertex
100
AcDb2dVertex
 10
68.26444889739238
 20
25.8533305021328
 30
0.0
  0
VERTEX
  5
1D3
330
171
100
AcDbEntity
  8
DIBUJOS
 62
     7
100
AcDbVertex
100
AcDb2dVertex
 10
68.39946877653988
 20
25.85064020676232
 30
0.0
  0
SEQEND
  5
1D4
330
171
100
AcDbEntity
  8
DIBUJOS
 62
     7
  0
ENDBLK
  5
170
330
16D
100
AcDbEntity
  8
0
100
AcDbBlockEnd
  0
BLOCK
  5
1D7
330
1D5
100
AcDbEntity
  8
0
100
AcDbBlockBegin
  2
BLOCK_7
 70
     0
 10
0.0
 20
0.0
 30
0.0
  3
BLOCK_7
  1

  0
POLYLINE
  5
1D9
330
1D5
100
AcDbEntity
  8
DIBUJOS
 62
     7
100
AcDb2dPolyline
 66
     1
 10
0.0
 20
0.0
 30
0.0
  0
VERTEX
  5
1DA
330
1D9
100
AcDbEntity
  8
DIBUJOS
 62
     7
100
AcDbVertex
100
AcDb2dVertex
 10
47.41906024104613
 20
24.83451995164893
 30
0.0
  0
VERTEX
  5
1DB
330
1D9
100
AcDbEntity
  8
DIBUJOS
 62
     7
100
AcDbVertex
100
AcDb2dVertex
 10
48.09453242730695
 20
24.88203943732779
 30
0.0
  0
VERTEX
  5
1DC
330
1D9
100
AcDbEntity
  8
DIBUJOS
 62
     7
100
AcDbVertex
100
AcDb2dVertex
 10
48.62358431521037
 20
24.9827574174752
 30
0.0
  0
VERTEX
  5
1DD
330
1D9
100
AcDbEntity
  8
DIBUJOS
 62
     7
100
AcDbVertex
100
AcDb2dVertex
 10
48.84874676199254
 20
25.02755261079049
 30
0.0
  0
VERTEX
  5
1DE
330
1D9
100
AcDbEntity
  8
DIBUJOS
 62
     7
100
AcDbVertex
100
AcDb2dVertex
 10
49.02878943188048
 20
25.08321626498777
 30
0.0
  0
VERTEX
  5
1DF
330
1D9
100
AcDbEntity
  8
DIBUJOS
 62
     7
100
AcDbVertex
100
AcDb2dVertex
 10
49.58169385180197
 20
25.27072176857505
 30
0.0
  0
VERTEX
  5
1E0
330
1D9
100
AcDbEntity
  8
DIBUJOS
 62
     7
100
AcDbVertex
100
AcDb2dVertex
 10
49.99271207602143
 20
25.46777060581019
 30
0.0
  0
VERTEX
  5
1E1
330
1D9
100
AcDbEntity
  8
DIBUJOS
 62
     7
100
AcDbVertex
100
AcDb2dVertex
 10
50.27986231328743
 20
25.60811850282037
 30
0.0
  0
VERTEX
  5
1E2
330
1D9
100
AcDbEntity
  8
DIBUJOS
 62
     7
100
AcDbVertex
100
AcDb2dVertex
 10
50.75874811351958
 20
25.92232551047389
 30
0.0
  0
VERTEX
  5
1E3
330
1D9
100
AcDbEntity
  8
DIBUJOS
 62
     7
100
AcDbVertex
100
AcDb2dVertex
 10
50.92766010693526
 20
26.03460397917996
 30
0.0
  0
VERTEX
  5
1E4
330
1D9
100
AcDbEntity
  8
DIBUJOS
 62
     7
100
AcDbVertex
100
AcDb2dVertex
 10
51.06879617535984
 20
26.1523982711097
 30
0.0
  0
VERTEX
  5
1E5
330
1D9
100
AcDbEntity
  8
DIBUJOS
 62
     7
100
AcDbVertex
100
AcDb2dVertex
 10
51.51917713904425
 20
26.5453800887245
 30
0.0
  0
VERTEX
  5
1E6
330
1D9
100
AcDbEntity
  8
DIBUJOS
 62
     7
100
AcDbVertex
100
AcDb2dVertex
 10
51.56441814862983
 20
26.59048956535163
 30
0.0
  0
VERTEX
  5
1E7
330
1D9
100
AcDbEntity
  8
DIBUJOS
 62
     7
100
AcDbVertex
100
AcDb2dVertex
 10
52.00079976728299
 20
27.08694311953734
 30
0.0
  0
VERTEX
  5
1E8
330
1D9
100
AcDbEntity
  8
DIBUJOS
 62
     7
100
AcDbVertex
100
AcDb2dVertex
 10
52.09661602487258
 20
27.21007418386165
 30
0.0
  0
VERTEX
  5
1E9
330
1D9
100
AcDbEntity
  8
DIBUJOS
 62
     7
100
AcDbVertex
100
AcDb2dVertex
 10
52.21182193603094
 20
27.38237849869659
 30
0.0
  0
VERTEX
  5
1EA
330
1D9
100
AcDbEntity
  8
DIBUJOS
 62
     7
100
AcDbVertex
100
AcDb2dVertex
 10
52.50161353055893
 20
27.82168990723883
 30
0.0
  0
VERTEX
  5
1EB
330
1D9
100
AcDbEntity
  8
DIBUJOS
 62
     7
100
AcDbVertex
100
AcDb2dVertex
 10
52.65419699586194
 20
28.13045588505293
 30
0.0
  0
VERTEX
  5
1EC
330
1D9
100
AcDbEntity
  8
DIBUJOS
 62
     7
100
AcDbVertex
100
AcDb2dVertex
 10
52.837482640243
 20
28.51114590101719
 30
0.0
  0
VERTEX
  5
1ED
330
1D9
100
AcDbEntity
  8
DIBUJOS
 62
     7
100
AcDbVertex
100
AcDb2dVertex
 10
53.03086999862871
 20
29.07920845455163
 30
0.0
  0
VERTEX
  5
1EE
330
1D9
100
AcDbEntity
  8
DIBUJOS
 62
     7
100
AcDbVertex
100
AcDb2dVertex
 10
53.08539894777842
 20
29.25224710443301
 30
0.0
  0
VERTEX
  5
1EF
330
1D9
100
AcDbEntity
  8
DIBUJOS
 62
     7
100
AcDbVertex
100
AcDb2dVertex
 10
53.13174014403769
 20
29.48328311320056
 30
0.0
  0
VERTEX
  5
1F0
330
1D9
100
AcDbEntity
  8
DIBUJOS
 62
     7
100
AcDbVertex
100
AcDb2dVertex
 10
53.2320950505086
 20
30.01028636519388
 30
0.0
  0
VERTEX
  5
1F1
330
1D9
100
AcDbEntity
  8
DIBUJOS
 62
     7
100
AcDbVertex
100
AcDb2dVertex
 10
53.28029716858006
 20
30.70107201913823
 30
0.0
  0
VERTEX
  5
1F2
330
1D9
100
AcDbEntity
  8
DIBUJOS
 62
     7
100
AcDbVertex
100
AcDb2dVertex
 10
53.27165176227983
 20
30.89212000938413
 30
0.0
  0
VERTEX
  5
1F3
330
1D9
100
AcDbEntity
  8
DIBUJOS
 62
     7
100
AcDbVertex
100
AcDb2dVertex
 10
53.23263756680228
 20
31.48684829316139
 30
0.0
  0
VERTEX
  5
1F4
330
1D9
100
AcDbEntity
  8
DIBUJOS
 62
     7
100
AcDbVertex
100
AcDb2dVertex
 10
53.11918043721631
 20
32.07691672244729
 30
0.0
  0
VERTEX
  5
1F5
330
1D9
100
AcDbEntity
  8
DIBUJOS
 62
     7
100
AcDbVertex
100
AcDb2dVertex
 10
53.08094970800691
 20
32.27259283665902
 30
0.0
  0
VERTEX
  5
1F6
330
1D9
100
AcDbEntity
  8
DIBUJOS
 62
     7
100
AcDbVertex
100
AcDb2dVertex
 10
53.02017272902805
 20
32.45205616270648
 30
0.0
  0
VERTEX
  5
1F7
330
1D9
100
AcDbEntity
  8
DIBUJOS
 62
     7
100
AcDbVertex
100
AcDb2dVertex
 10
52.83350923878471
 20
33.00228767121719
 30
0.0
  0
VERTEX
  5
1F8
330
1D9
100
AcDbEntity
  8
DIBUJOS
 62
     7
100
AcDbVertex
100
AcDb2dVertex
 10
52.64856725275847
 20
33.37835334065981
 30
0.0
  0
VERTEX
  5
1F9
330
1D9
100
AcDbEntity
  8
DIBUJOS
 62
     7
100
AcDbVertex
100
AcDb2dVertex
 10
52.49879790130292
 20
33.68262944894666
 30
0.0
  0
VERTEX
  5
1FA
330
1D9
100
AcDbEntity
  8
DIBUJOS
 62
     7
100
AcDbVertex
100
AcDb2dVertex
 10
52.18929993279999
 20
34.14888687405049
 30
0.0
  0
VERTEX
  5
1FB
330
1D9
100
AcDbEntity
  8
DIBUJOS
 62
     7
100
AcDbVertex
100
AcDb2dVertex
 10
52.076692947462
 20
34.3173049548544
 30
0.0
  0
VERTEX
  5
1FC
330
1D9
100
AcDbEntity
  8
DIBUJOS
 62
     7
100
AcDbVertex
100
AcDb2dVertex
 10
51.96701979325397
 20
34.44995819914136
 30
0.0
  0
VERTEX
  5
1FD
330
1D9
100
AcDbEntity
  8
DIBUJOS
 62
     7
100
AcDbVertex
100
AcDb2dVertex
 10
51.56865826200872
 20
34.90590320307014
 30
0.0
  0
VERTEX
  5
1FE
330
1D9
100
AcDbEntity
  8
DIBUJOS
 62
     7
100
AcDbVertex
100
AcDb2dVertex
 10
51.37844568472713
 20
35.07571138313848
 30
0.0
  0
VERTEX
  5
1FF
330
1D9
100
AcDbEntity
  8
DIBUJOS
 62
     7
100
AcDbVertex
100
AcDb2dVertex
 10
50.97061588028926
 20
35.43222047129527
 30
0.0
  0
VERTEX
  5
200
330
1D9
100
AcDbEntity
  8
DIBUJOS
 62
     7
100
AcDbVertex
100
AcDb2dVertex
 10
50.77953800467335
 20
35.56143624185808
 30
0.0
  0
VERTEX
  5
201
330
1D9
100
AcDbEntity
  8
DIBUJOS
 62
     7
100
AcDbVertex
100
AcDb2dVertex
 10
50.64440750069587
 20
35.65125931901813
 30
0.0
  0
VERTEX
  5
202
330
1D9
100
AcDbEntity
  8
DIBUJOS
 62
     7
100
AcDbVertex
100
AcDb2dVertex
 10
50.27986231328743
 20
35.88946340486384
 30
0.0
  0
VERTEX
  5
203
330
1D9
100
AcDbEntity
  8
DIBUJOS
 62
     7
100
AcDbVertex
100
AcDb2dVertex
 10
49.95217337945078
 20
36.05002138091162
 30
0.0
  0
VERTEX
  5
204
330
1D9
100
AcDbEntity
  8
DIBUJOS
 62
     7
100
AcDbVertex
100
AcDb2dVertex
 10
49.58169385180197
 20
36.22686013910916
 30
0.0
  0
VERTEX
  5
205
330
1D9
100
AcDbEntity
  8
DIBUJOS
 62
     7
100
AcDbVertex
100
AcDb2dVertex
 10
49.01865437888576
 20
36.41773285596948
 30
0.0
  0
VERTEX
  5
206
330
1D9
100
AcDbEntity
  8
DIBUJOS
 62
     7
100
AcDbVertex
100
AcDb2dVertex
 10
48.84874676199254
 20
36.47002929689372
 30
0.0
  0
VERTEX
  5
207
330
1D9
100
AcDbEntity
  8
DIBUJOS
 62
     7
100
AcDbVertex
100
AcDb2dVertex
 10
48.58974827106096
 20
36.52055487223218
 30
0.0
  0
VERTEX
  5
208
330
1D9
100
AcDbEntity
  8
DIBUJOS
 62
     7
100
AcDbVertex
100
AcDb2dVertex
 10
48.09498250367406
 20
36.61500154042555
 30
0.0
  0
VERTEX
  5
209
330
1D9
100
AcDbEntity
  8
DIBUJOS
 62
     7
100
AcDbVertex
100
AcDb2dVertex
 10
47.40779923943098
 20
36.66306120054632
 30
0.0
  0
VERTEX
  5
20A
330
1D9
100
AcDbEntity
  8
DIBUJOS
 62
     7
100
AcDbVertex
100
AcDb2dVertex
 10
47.2839312524772
 20
36.66306120054632
 30
0.0
  0
VERTEX
  5
20B
330
1D9
100
AcDbEntity
  8
DIBUJOS
 62
     7
100
AcDbVertex
100
AcDb2dVertex
 10
46.60282932311355
 20
36.61554247035642
 30
0.0
  0
VERTEX
  5
20C
330
1D9
100
AcDbEntity
  8
DIBUJOS
 62
     7
100
AcDbVertex
100
AcDb2dVertex
 10
45.84861498842796
 20
36.47002929689372
 30
0.0
  0
VERTEX
  5
20D
330
1D9
100
AcDbEntity
  8
DIBUJOS
 62
     7
100
AcDbVertex
100
AcDb2dVertex
 10
45.53344332997076
 20
36.36945410411609
 30
0.0
  0
VERTEX
  5
20E
330
1D9
100
AcDbEntity
  8
DIBUJOS
 62
     7
100
AcDbVertex
100
AcDb2dVertex
 10
45.10553284562381
 20
36.22349217034716
 30
0.0
  0
VERTEX
  5
20F
330
1D9
100
AcDbEntity
  8
DIBUJOS
 62
     7
100
AcDbVertex
100
AcDb2dVertex
 10
44.59316863768183
 20
35.97703965853883
 30
0.0
  0
VERTEX
  5
210
330
1D9
100
AcDbEntity
  8
DIBUJOS
 62
     7
100
AcDbVertex
100
AcDb2dVertex
 10
44.4017346410352
 20
35.88160330010835
 30
0.0
  0
VERTEX
  5
211
330
1D9
100
AcDbEntity
  8
DIBUJOS
 62
     7
100
AcDbVertex
100
AcDb2dVertex
 10
43.80521676040917
 20
35.48845603046193
 30
0.0
  0
VERTEX
  5
212
330
1D9
100
AcDbEntity
  8
DIBUJOS
 62
     7
100
AcDbVertex
100
AcDb2dVertex
 10
43.75844139957387
 20
35.45736313625719
 30
0.0
  0
VERTEX
  5
213
330
1D9
100
AcDbEntity
  8
DIBUJOS
 62
     7
100
AcDbVertex
100
AcDb2dVertex
 10
43.24569909717593
 20
35.01396226721504
 30
0.0
  0
VERTEX
  5
214
330
1D9
100
AcDbEntity
  8
DIBUJOS
 62
     7
100
AcDbVertex
100
AcDb2dVertex
 10
43.16126507389284
 20
34.9409775228864
 30
0.0
  0
VERTEX
  5
215
330
1D9
100
AcDbEntity
  8
DIBUJOS
 62
     7
100
AcDbVertex
100
AcDb2dVertex
 10
42.91050964826765
 20
34.65770097936121
 30
0.0
  0
VERTEX
  5
216
330
1D9
100
AcDbEntity
  8
DIBUJOS
 62
     7
100
AcDbVertex
100
AcDb2dVertex
 10
42.64024409408612
 20
34.34897353147205
 30
0.0
  0
VERTEX
  5
217
330
1D9
100
AcDbEntity
  8
DIBUJOS
 62
     7
100
AcDbVertex
100
AcDb2dVertex
 10
42.43746499064424
 20
34.04610867613419
 30
0.0
  0
VERTEX
  5
218
330
1D9
100
AcDbEntity
  8
DIBUJOS
 62
     7
100
AcDbVertex
100
AcDb2dVertex
 10
42.35300899393656
 20
33.92260288940024
 30
0.0
  0
VERTEX
  5
219
330
1D9
100
AcDbEntity
  8
DIBUJOS
 62
     7
100
AcDbVertex
100
AcDb2dVertex
 10
42.19856309141314
 20
33.68262944894666
 30
0.0
  0
VERTEX
  5
21A
330
1D9
100
AcDbEntity
  8
DIBUJOS
 62
     7
100
AcDbVertex
100
AcDb2dVertex
 10
42.00375200660867
 20
33.28853026349975
 30
0.0
  0
VERTEX
  5
21B
330
1D9
100
AcDbEntity
  8
DIBUJOS
 62
     7
100
AcDbVertex
100
AcDb2dVertex
 10
41.86017688797583
 20
32.99211577094568
 30
0.0
  0
VERTEX
  5
21C
330
1D9
100
AcDbEntity
  8
DIBUJOS
 62
     7
100
AcDbVertex
100
AcDb2dVertex
 10
41.66930662334336
 20
32.43633746417343
 30
0.0
  0
VERTEX
  5
21D
330
1D9
100
AcDbEntity
  8
DIBUJOS
 62
     7
100
AcDbVertex
100
AcDb2dVertex
 10
41.61066409743616
 20
32.25008380541329
 30
0.0
  0
VERTEX
  5
21E
330
1D9
100
AcDbEntity
  8
DIBUJOS
 62
     7
100
AcDbVertex
100
AcDb2dVertex
 10
41.56146787129602
 20
32.00399846112753
 30
0.0
  0
VERTEX
  5
21F
330
1D9
100
AcDbEntity
  8
DIBUJOS
 62
     7
100
AcDbVertex
100
AcDb2dVertex
 10
41.46470902953188
 20
31.49806427885932
 30
0.0
  0
VERTEX
  5
220
330
1D9
100
AcDbEntity
  8
DIBUJOS
 62
     7
100
AcDbVertex
100
AcDb2dVertex
 10
41.45950738936932
 20
31.42545425694161
 30
0.0
  0
VERTEX
  5
221
330
1D9
100
AcDbEntity
  8
DIBUJOS
 62
     7
100
AcDbVertex
100
AcDb2dVertex
 10
41.41706533954486
 20
30.81896452460304
 30
0.0
  0
VERTEX
  5
222
330
1D9
100
AcDbEntity
  8
DIBUJOS
 62
     7
100
AcDbVertex
100
AcDb2dVertex
 10
41.41706533954486
 20
30.67861738308117
 30
0.0
  0
VERTEX
  5
223
330
1D9
100
AcDbEntity
  8
DIBUJOS
 62
     7
100
AcDbVertex
100
AcDb2dVertex
 10
41.45910656378369
 20
30.07247668653584
 30
0.0
  0
VERTEX
  5
224
330
1D9
100
AcDbEntity
  8
DIBUJOS
 62
     7
100
AcDbVertex
100
AcDb2dVertex
 10
41.46470902953188
 20
29.99390283657783
 30
0.0
  0
VERTEX
  5
225
330
1D9
100
AcDbEntity
  8
DIBUJOS
 62
     7
100
AcDbVertex
100
AcDb2dVertex
 10
41.60485553611307
 20
29.28124427289913
 30
0.0
  0
VERTEX
  5
226
330
1D9
100
AcDbEntity
  8
DIBUJOS
 62
     7
100
AcDbVertex
100
AcDb2dVertex
 10
41.61066409743616
 20
29.25311138354135
 30
0.0
  0
VERTEX
  5
227
330
1D9
100
AcDbEntity
  8
DIBUJOS
 62
     7
100
AcDbVertex
100
AcDb2dVertex
 10
41.705904499742
 20
28.95570266781704
 30
0.0
  0
VERTEX
  5
228
330
1D9
100
AcDbEntity
  8
DIBUJOS
 62
     7
100
AcDbVertex
100
AcDb2dVertex
 10
41.85792499073431
 20
28.51220282975149
 30
0.0
  0
VERTEX
  5
229
330
1D9
100
AcDbEntity
  8
DIBUJOS
 62
     7
100
AcDbVertex
100
AcDb2dVertex
 10
42.0938377464195
 20
28.02379069761664
 30
0.0
  0
VERTEX
  5
22A
330
1D9
100
AcDbEntity
  8
DIBUJOS
 62
     7
100
AcDbVertex
100
AcDb2dVertex
 10
42.19856309141314
 20
27.81495321422587
 30
0.0
  0
VERTEX
  5
22B
330
1D9
100
AcDbEntity
  8
DIBUJOS
 62
     7
100
AcDbVertex
100
AcDb2dVertex
 10
42.56999581109756
 20
27.25325791971428
 30
0.0
  0
VERTEX
  5
22C
330
1D9
100
AcDbEntity
  8
DIBUJOS
 62
     7
100
AcDbVertex
100
AcDb2dVertex
 10
42.62629930376671
 20
27.16904887931297
 30
0.0
  0
VERTEX
  5
22D
330
1D9
100
AcDbEntity
  8
DIBUJOS
 62
     7
100
AcDbVertex
100
AcDb2dVertex
 10
42.952766818238
 20
26.7925631581351
 30
0.0
  0
VERTEX
  5
22E
330
1D9
100
AcDbEntity
  8
DIBUJOS
 62
     7
100
AcDbVertex
100
AcDb2dVertex
 10
43.11744248679599
 20
26.60290677813157
 30
0.0
  0
VERTEX
  5
22F
330
1D9
100
AcDbEntity
  8
DIBUJOS
 62
     7
100
AcDbVertex
100
AcDb2dVertex
 10
43.61169680376695
 20
26.16362936658176
 30
0.0
  0
VERTEX
  5
230
330
1D9
100
AcDbEntity
  8
DIBUJOS
 62
     7
100
AcDbVertex
100
AcDb2dVertex
 10
43.73797807898225
 20
26.05412882993896
 30
0.0
  0
VERTEX
  5
231
330
1D9
100
AcDbEntity
  8
DIBUJOS
 62
     7
100
AcDbVertex
100
AcDb2dVertex
 10
44.24438673096304
 20
25.71720125419546
 30
0.0
  0
VERTEX
  5
232
330
1D9
100
AcDbEntity
  8
DIBUJOS
 62
     7
100
AcDbVertex
100
AcDb2dVertex
 10
44.27816973580979
 20
25.69474586264944
 30
0.0
  0
VERTEX
  5
233
330
1D9
100
AcDbEntity
  8
DIBUJOS
 62
     7
100
AcDbVertex
100
AcDb2dVertex
 10
44.41749943713307
 20
25.60811850282037
 30
0.0
  0
VERTEX
  5
234
330
1D9
100
AcDbEntity
  8
DIBUJOS
 62
     7
100
AcDbVertex
100
AcDb2dVertex
 10
44.81275286525435
 20
25.41387706170909
 30
0.0
  0
VERTEX
  5
235
330
1D9
100
AcDbEntity
  8
DIBUJOS
 62
     7
100
AcDbVertex
100
AcDb2dVertex
 10
45.09877715389959
 20
25.2763358053338
 30
0.0
  0
VERTEX
  5
236
330
1D9
100
AcDbEntity
  8
DIBUJOS
 62
     7
100
AcDbVertex
100
AcDb2dVertex
 10
45.66181662681579
 20
25.08546233298452
 30
0.0
  0
VERTEX
  5
237
330
1D9
100
AcDbEntity
  8
DIBUJOS
 62
     7
100
AcDbVertex
100
AcDb2dVertex
 10
45.84293220602215
 20
25.02766895605491
 30
0.0
  0
VERTEX
  5
238
330
1D9
100
AcDbEntity
  8
DIBUJOS
 62
     7
100
AcDbVertex
100
AcDb2dVertex
 10
46.09548566400121
 20
24.97832269862495
 30
0.0
  0
VERTEX
  5
239
330
1D9
100
AcDbEntity
  8
DIBUJOS
 62
     7
100
AcDbVertex
100
AcDb2dVertex
 10
46.59155771363734
 20
24.88205228063632
 30
0.0
  0
VERTEX
  5
23A
330
1D9
100
AcDbEntity
  8
DIBUJOS
 62
     7
100
AcDbVertex
100
AcDb2dVertex
 10
46.67568562437434
 20
24.87680994433329
 30
0.0
  0
VERTEX
  5
23B
330
1D9
100
AcDbEntity
  8
DIBUJOS
 62
     7
100
AcDbVertex
100
AcDb2dVertex
 10
47.28403884649106
 20
24.83721024701877
 30
0.0
  0
VERTEX
  5
23C
330
1D9
100
AcDbEntity
  8
DIBUJOS
 62
     7
100
AcDbVertex
100
AcDb2dVertex
 10
47.41906024104613
 20
24.83451995164893
 30
0.0
  0
SEQEND
  5
23D
330
1D9
100
AcDbEntity
  8
DIBUJOS
 62
     7
  0
ENDBLK
  5
1D8
330
1D5
100
AcDbEntity
  8
0
100
AcDbBlockEnd
  0
ENDSEC
  0
SECTION
  2
ENTITIES
  0
MTEXT
  5
41
330
1F
100
AcDbEntity
  8
REFERENCIAS
 62
   255
100
AcDbMText
 10
40.93094530141956
 20
54.85563098807646
 30
0.0
 40
1.49859999962535
 41
0.0
 71
     7
 72
     1
  1
\fMyriad Pro|b0|i0|c0|p34;\W1;NUN_1160_120x120_100x100_90x90__TABLE
  0
MTEXT
  5
43
330
1F
100
AcDbEntity
  8
M_U_00C1RGENES
 62
   255
100
AcDbMText
 10
110.1384430504005
 20
23.7555119243149
 30
0.0
 40
1.748366666229575
 41
0.0
 71
     7
 72
     1
  1
\fMyriad Pro|b0|i0|c0|p34;\W1;400
  0
MTEXT
  5
44
330
1F
100
AcDbEntity
  8
M_U_00C1RGENES
 62
   255
100
AcDbMText
 10
104.2089331048478
 20
20.50332059082737
 30
0.0
 40
1.748366666229575
 41
0.0
 71
     7
 72
     1
  1
\fMyriad Pro|b0|i0|c0|p34;\W1;800
  0
MTEXT
  5
45
330
1F
100
AcDbEntity
  8
M_U_00C1RGENES
 62
   255
100
AcDbMText
 10
70.34154512978061
 20
20.50332059082737
 30
0.0
 40
1.748366666229575
 41
0.0
 71
     7
 72
     1
  1
\fMyriad Pro|b0|i0|c0|p34;\W1;400
  0
POLYLINE
  5
46
330
1F
100
AcDbEntity
  8
M_U_00C1RGENES
 62
   255
100
AcDb2dPolyline
 66
     1
 10
0.0
 20
0.0
 30
0.0
  0
VERTEX
  5
47
330
46
100
AcDbEntity
  8
M_U_00C1RGENES
 62
   255
100
AcDbVertex
100
AcDb2dVertex
 10
74.98114844115133
 20
20.88258920325216
 30
0.0
  0
VERTEX
  5
48
330
46
100
AcDbEntity
  8
M_U_00C1RGENES
 62
   255
100
AcDbVertex
100
AcDb2dVertex
 10
74.98114844115133
 20
19.74726776251925
 30
0.0
  0
SEQEND
  5
49
330
46
100
AcDbEntity
  8
M_U_00C1RGENES
 62
   255
  0
POLYLINE
  5
4A
330
1F
100
AcDbEntity
  8
M_U_00C1RGENES
 62
   255
100
AcDb2dPolyline
 66
     1
 10
0.0
 20
0.0
 30
0.0
  0
VERTEX
  5
4B
330
4A
100
AcDbEntity
  8
M_U_00C1RGENES
 62
   255
100
AcDbVertex
100
AcDb2dVertex
 10
104.4138297671496
 20
24.76314475783758
 30
0.0
  0
VERTEX
  5
4C
330
4A
100
AcDbEntity
  8
M_U_00C1RGENES
 62
   255
100
AcDbVertex
100
AcDb2dVertex
 10
114.9971630978371
 20
19.74726776251925
 30
0.0
  0
SEQEND
  5
4D
330
4A
100
AcDbEntity
  8
M_U_00C1RGENES
 62
   255
  0
POLYLINE
  5
4E
330
1F
100
AcDbEntity
  8
M_U_00C1RGENES
 62
   254
100
AcDb2dPolyline
 66
     1
 10
0.0
 20
0.0
 30
0.0
  0
VERTEX
  5
4F
330
4E
100
AcDbEntity
  8
M_U_00C1RGENES
 62
   254
100
AcDbVertex
100
AcDb2dVertex
 10
34.99999779751944
 20
20.88258920325216
 30
0.0
  0
VERTEX
  5
50
330
4E
100
AcDbEntity
  8
M_U_00C1RGENES
 62
   254
100
AcDbVertex
100
AcDb2dVertex
 10
34.99999779751944
 20
19.74726776251925
 30
0.0
  0
SEQEND
  5
51
330
4E
100
AcDbEntity
  8
M_U_00C1RGENES
 62
   254
  0
POLYLINE
  5
52
330
1F
100
AcDbEntity
  8
M_U_00C1RGENES
 62
   255
100
AcDb2dPolyline
 66
     1
 10
0.0
 20
0.0
 30
0.0
  0
VERTEX
  5
53
330
52
100
AcDbEntity
  8
M_U_00C1RGENES
 62
   255
100
AcDbVertex
100
AcDb2dVertex
 10
114.9999978516528
 20
59.74999886675599
 30
0.0
  0
VERTEX
  5
54
330
52
100
AcDbEntity
  8
M_U_00C1RGENES
 62
   255
100
AcDbVertex
100
AcDb2dVertex
 10
113.8646764109199
 20
59.7499988667053
 30
0.0
  0
SEQEND
  5
55
330
52
100
AcDbEntity
  8
M_U_00C1RGENES
 62
   255
  0
INSERT
  5
58
330
1F
100
AcDbEntity
  8
DIBUJOS
100
AcDbBlockReference
  2
BLOCK_2
 10
0.0
 20
0.0
 30
0.0
  0
INSERT
  5
8F
330
1F
100
AcDbEntity
  8
DIBUJOS
100
AcDbBlockReference
  2
BLOCK_3
 10
0.0
 20
0.0
 30
0.0
  0
INSERT
  5
C3
330
1F
100
AcDbEntity
  8
DIBUJOS
100
AcDbBlockReference
  2
BLOCK_4
 10
0.0
 20
0.0
 30
0.0
  0
INSERT
  5
104
330
1F
100
AcDbEntity
  8
DIBUJOS
100
AcDbBlockReference
  2
BLOCK_5
 10
0.0
 20
0.0
 30
0.0
  0
INSERT
  5
16E
330
1F
100
AcDbEntity
  8
DIBUJOS
100
AcDbBlockReference
  2
BLOCK_6
 10
0.0
 20
0.0
 30
0.0
  0
INSERT
  5
1D6
330
1F
100
AcDbEntity
  8
DIBUJOS
100
AcDbBlockReference
  2
BLOCK_7
 10
0.0
 20
0.0
 30
0.0
  0
POLYLINE
  5
23F
330
1F
100
AcDbEntity
  8
COTAS_LINEA
 62
     7
100
AcDb2dPolyline
 66
     1
 10
0.0
 20
0.0
 30
0.0
  0
VERTEX
  5
240
330
23F
100
AcDbEntity
  8
COTAS_LINEA
 62
     7
100
AcDbVertex
100
AcDb2dVertex
 10
56.5257209825287
 20
50.84945097311838
 30
0.0
  0
VERTEX
  5
241
330
23F
100
AcDbEntity
  8
COTAS_LINEA
 62
     7
100
AcDbVertex
100
AcDb2dVertex
 10
56.52572098348355
 20
43.03699118359278
 30
0.0
  0
SEQEND
  5
242
330
23F
100
AcDbEntity
  8
COTAS_LINEA
 62
     7
  0
POLYLINE
  5
243
330
1F
100
AcDbEntity
  8
COTAS_LINEA
 62
     7
100
AcDb2dPolyline
 66
     1
 10
0.0
 20
0.0
 30
0.0
  0
VERTEX
  5
244
330
243
100
AcDbEntity
  8
COTAS_LINEA
 62
     7
100
AcDbVertex
100
AcDb2dVertex
 10
41.42269595642553
 20
39.36675131169094
 30
0.0
  0
VERTEX
  5
245
330
243
100
AcDbEntity
  8
COTAS_LINEA
 62
     7
100
AcDbVertex
100
AcDb2dVertex
 10
53.41316799748827
 20
39.36675131169094
 30
0.0
  0
SEQEND
  5
246
330
243
100
AcDbEntity
  8
COTAS_LINEA
 62
     7
  0
POLYLINE
  5
247
330
1F
100
AcDbEntity
  8
COTAS_LINEA
 62
     7
100
AcDb2dPolyline
 66
     1
 10
0.0
 20
0.0
 30
0.0
  0
VERTEX
  5
248
330
247
100
AcDbEntity
  8
COTAS_LINEA
 62
     7
100
AcDbVertex
100
AcDb2dVertex
 10
75.57572097776588
 20
50.84945097311838
 30
0.0
  0
VERTEX
  5
249
330
247
100
AcDbEntity
  8
COTAS_LINEA
 62
     7
100
AcDbVertex
100
AcDb2dVertex
 10
75.57572097872072
 20
43.03699118359278
 30
0.0
  0
SEQEND
  5
24A
330
247
100
AcDbEntity
  8
COTAS_LINEA
 62
     7
  0
POLYLINE
  5
24B
330
1F
100
AcDbEntity
  8
COTAS_LINEA
 62
     7
100
AcDb2dPolyline
 66
     1
 10
0.0
 20
0.0
 30
0.0
  0
VERTEX
  5
24C
330
24B
100
AcDbEntity
  8
COTAS_LINEA
 62
     7
100
AcDbVertex
100
AcDb2dVertex
 10
63.85277776181459
 20
39.36675131169094
 30
0.0
  0
VERTEX
  5
24D
330
24B
100
AcDbEntity
  8
COTAS_LINEA
 62
     7
100
AcDbVertex
100
AcDb2dVertex
 10
73.31641951484922
 20
39.36675131169094
 30
0.0
  0
SEQEND
  5
24E
330
24B
100
AcDbEntity
  8
COTAS_LINEA
 62
     7
  0
POLYLINE
  5
24F
330
1F
100
AcDbEntity
  8
COTAS_LINEA
 62
     7
100
AcDb2dPolyline
 66
     1
 10
0.0
 20
0.0
 30
0.0
  0
VERTEX
  5
250
330
24F
100
AcDbEntity
  8
COTAS_LINEA
 62
     7
100
AcDbVertex
100
AcDb2dVertex
 10
94.2729431953138
 20
50.84945097311838
 30
0.0
  0
VERTEX
  5
251
330
24F
100
AcDbEntity
  8
COTAS_LINEA
 62
     7
100
AcDbVertex
100
AcDb2dVertex
 10
94.27294319626864
 20
43.03699118359278
 30
0.0
  0
SEQEND
  5
252
330
24F
100
AcDbEntity
  8
COTAS_LINEA
 62
     7
  0
POLYLINE
  5
253
330
1F
100
AcDbEntity
  8
COTAS_LINEA
 62
     7
100
AcDb2dPolyline
 66
     1
 10
0.0
 20
0.0
 30
0.0
  0
VERTEX
  5
254
330
253
100
AcDbEntity
  8
COTAS_LINEA
 62
     7
100
AcDbVertex
100
AcDb2dVertex
 10
82.54999997936251
 20
39.36675131169094
 30
0.0
  0
VERTEX
  5
255
330
253
100
AcDbEntity
  8
COTAS_LINEA
 62
     7
100
AcDbVertex
100
AcDb2dVertex
 10
92.01364173239682
 20
39.36675131169094
 30
0.0
  0
SEQEND
  5
256
330
253
100
AcDbEntity
  8
COTAS_LINEA
 62
     7
  0
MTEXT
  5
258
330
1F
100
AcDbEntity
  8
COTAS_N_U_00DAMERO
 62
     7
100
AcDbMText
 10
45.24688287239596
 20
39.92172341938155
 30
0.0
 40
1.998533025814148
 41
0.0
 71
     7
 72
     1
  1
\fMyriad Pro|b0|i0|c0|p34;\W1;120
  0
MTEXT
  5
259
330
1F
100
AcDbEntity
  8
COTAS_N_U_00DAMERO
 62
     7
100
AcDbMText
 10
56.9482546558001
 20
45.95426325178997
 30
0.0
 40
1.998533025814148
 41
0.0
 71
     7
 72
     1
  1
\fMyriad Pro|b0|i0|c0|p34;\W1;78
  0
MTEXT
  5
25A
330
1F
100
AcDbEntity
  8
COTAS_N_U_00DAMERO
 62
     7
100
AcDbMText
 10
65.90643147834218
 20
39.92172341938155
 30
0.0
 40
1.998533025814148
 41
0.0
 71
     7
 72
     1
  1
\fMyriad Pro|b0|i0|c0|p34;\W1;100
  0
MTEXT
  5
25B
330
1F
100
AcDbEntity
  8
COTAS_N_U_00DAMERO
 62
     7
100
AcDbMText
 10
75.99825734251846
 20
45.95426325178997
 30
0.0
 40
1.998533025814148
 41
0.0
 71
     7
 72
     1
  1
\fMyriad Pro|b0|i0|c0|p34;\W1;78
  0
MTEXT
  5
25C
330
1F
100
AcDbEntity
  8
COTAS_N_U_00DAMERO
 62
     7
100
AcDbMText
 10
85.35589029509441
 20
39.92172341938155
 30
0.0
 40
1.998533025814148
 41
0.0
 71
     7
 72
     1
  1
\fMyriad Pro|b0|i0|c0|p34;\W1;90
  0
MTEXT
  5
25D
330
1F
100
AcDbEntity
  8
COTAS_N_U_00DAMERO
 62
     7
100
AcDbMText
 10
94.69547956006637
 20
45.95426325178997
 30
0.0
 40
1.998533025814148
 41
0.0
 71
     7
 72
     1
  1
\fMyriad Pro|b0|i0|c0|p34;\W1;78
  0
ENDSEC
  0
SECTION
  2
OBJECTS
  0
DICTIONARY
  5
C
330
0
100
AcDbDictionary
  3
ACAD_GROUP
350
D
  3
ACAD_LAYOUT
350
1A
  3
ACAD_MATERIAL
350
3B
  3
ACAD_MLEADERSTYLE
350
280
  3
ACAD_MLINESTYLE
350
17
  3
ACAD_PLOTSETTINGS
350
19
  3
ACAD_VISUALSTYLE
350
2A
  3
ACDBHEADERROUNDTRIPXREC
350
25E
  3
ACDBVARIABLEDICTIONARY
350
27E
  0
DICTIONARY
  5
D
102
{ACAD_REACTORS
330
C
102
}
330
C
100
AcDbDictionary
  0
DICTIONARY
  5
1A
102
{ACAD_REACTORS
330
C
102
}
330
C
100
AcDbDictionary
  0
DICTIONARY
  5
3B
102
{ACAD_REACTORS
330
C
102
}
330
C
100
AcDbDictionary
  3
BYBLOCK
350
3D
  3
BYLAYER
350
3C
  3
GLOBAL
350
3E
  0
DICTIONARY
  5
280
102
{ACAD_REACTORS
330
C
102
}
330
C
100
AcDbDictionary
  0
DICTIONARY
  5
17
102
{ACAD_REACTORS
330
C
102
}
330
C
100
AcDbDictionary
  3
STANDARD
350
18
  0
DICTIONARY
  5
19
102
{ACAD_REACTORS
330
C
102
}
330
C
100
AcDbDictionary
  0
DICTIONARY
  5
2A
102
{ACAD_REACTORS
330
C
102
}
330
C
100
AcDbDictionary
  3
2DWIREFRAME
350
2F
  3
3D_HIDDEN
350
31
  3
3DWIREFRAME
350
30
  3
BASIC
350
32
  3
BRIGHTEN
350
36
  3
COLORCHANGE
350
3A
  3
CONCEPTUAL
350
34
  3
DIM
350
35
  3
FACEPATTERN
350
39
  3
FLAT
350
2B
  3
FLATWITHEDGES
350
2C
  3
GOURAUD
350
2D
  3
GOURAUDWITHEDGES
350
2E
  3
LINEPATTERN
350
38
  3
REALISTIC
350
33
  3
THICKEN
350
37
  0
DICTIONARY
  5
25E
102
{ACAD_REACTORS
330
C
102
}
330
C
100
AcDbDictionary
  3
CEPSNTYPE
350
267
  3
DIMSTYLEDATA
350
27D
  3
FINGERPRINTGUID
350
268
  3
HYPERLINKBASE
350
261
  3
INSUNITS
350
266
  3
LAYOUTDICT
350
263
  3
LWETCUNION
350
265
  3
PLOTSETDICT
350
264
  3
PSVPSCALE
350
26A
  3
PUCSBASE
350
26D
  3
PUCSORGBACK
350
273
  3
PUCSORGBOTTOM
350
26F
  3
PUCSORGFRONT
350
272
  3
PUCSORGLEFT
350
270
  3
PUCSORGRIGHT
350
271
  3
PUCSORGTOP
350
26E
  3
PUCSORTHOREF
350
26B
  3
PUCSORTHOVIEW
350
26C
  3
STYLESHEET
350
262
  3
TSTACKALIGN
350
25F
  3
TSTACKSIZE
350
260
  3
UCSBASE
350
276
  3
UCSORGBACK
350
27C
  3
UCSORGBOTTOM
350
278
  3
UCSORGFRONT
350
27B
  3
UCSORGLEFT
350
279
  3
UCSORGRIGHT
350
27A
  3
UCSORGTOP
350
277
  3
UCSORTHOREF
350
274
  3
UCSORTHOVIEW
350
275
  3
VERSIONGUID
350
269
  0
DICTIONARY
  5
27E
102
{ACAD_REACTORS
330
C
102
}
330
C
100
AcDbDictionary
  3
DIMASSOC
350
281
  3
HIDETEXT
350
282
  0
MATERIAL
  5
3D
102
{ACAD_REACTORS
330
3B
102
}
102
{ACAD_XDICTIONARY
360
285
102
}
330
3B
100
AcDbMaterial
  1
ByBlock
  0
MATERIAL
  5
3C
102
{ACAD_REACTORS
330
3B
102
}
102
{ACAD_XDICTIONARY
360
283
102
}
330
3B
100
AcDbMaterial
  1
ByLayer
  0
MATERIAL
  5
3E
102
{ACAD_REACTORS
330
3B
102
}
102
{ACAD_XDICTIONARY
360
287
102
}
330
3B
100
AcDbMaterial
  1
Global
  0
MLINESTYLE
  5
18
102
{ACAD_REACTORS
330
17
102
}
330
17
100
AcDbMlineStyle
  2
Standard
 70
     0
  3

 62
   256
 51
90.0
 52
90.0
 71
     2
 49
0.5
 62
   256
  6
BYLAYER
 49
-0.5
 62
   256
  6
BYLAYER
  0
ACAD_PROXY_OBJECT
  5
2F
102
{ACAD_REACTORS
330
2A
102
}
330
2A
100
AcDbProxyObject
 90
      499
 91
      501
 93
      436
310
42CC9915DA5C99599C985B595049028333333333333E3BF0000000000000FB0107901411070040501600405405064090741402480A0340
1001
ACAD
1000
AcDbSavedByObjectVersion
1070
     0
  0
ACAD_PROXY_OBJECT
  5
31
102
{ACAD_REACTORS
330
2A
102
}
330
2A
100
AcDbProxyObject
 90
      499
 91
      501
 93
      500
310
424CD108121A5919195B90640502408333333333333E3BF0000000000000FB01079024090700405020000000000001110200405405064090740C02480A0340
1001
ACAD
1000
AcDbSavedByObjectVersion
1070
     0
  0
ACAD_PROXY_OBJECT
  5
30
102
{ACAD_REACTORS
330
2A
102
}
330
2A
100
AcDbProxyObject
 90
      499
 91
      501
 93
      436
310
42CCD915DA5C99599C985B595059028333333333333E3BF0000000000000FB0107901411070040501600405405064090741402480A0340
1001
ACAD
1000
AcDbSavedByObjectVersion
1070
     0
  0
ACAD_PROXY_OBJECT
  5
32
102
{ACAD_REACTORS
330
2A
102
}
330
2A
100
AcDbProxyObject
 90
      499
 91
      501
 93
      388
310
4150985CDA58D07406404333333333333E3BF0000000000000FB0107A41107004050150841D405064090741402480A0350
1001
ACAD
1000
AcDbSavedByObjectVersion
1070
     0
  0
ACAD_PROXY_OBJECT
  5
36
102
{ACAD_REACTORS
330
2A
102
}
330
2A
100
AcDbProxyObject
 90
      499
 91
      501
 93
      428
310
42109C9A59DA1D195B90C409028333333333333E3BF0000000000000FB010790141107004050150841D405064090741402480A029950
1001
ACAD
1000
AcDbSavedByObjectVersion
1070
     0
  0
ACAD_PROXY_OBJECT
  5
3A
102
{ACAD_REACTORS
330
2A
102
}
330
2A
100
AcDbProxyObject
 90
      499
 91
      501
 93
      452
310
42D0DBDB1BDC90DA185B99D95104090240C333333333333E3BF0000000000000FB0108901411070040501508421405064090741402480A0350
1001
ACAD
1000
AcDbSavedByObjectVersion
1070
     0
  0
ACAD_PROXY_OBJECT
  5
34
102
{ACAD_REACTORS
330
2A
102
}
330
2A
100
AcDbProxyObject
 90
      499
 91
      501
 93
      500
310
4290DBDB98D95C1D1D585B10940D028333333333333E3BF0000000000000FB0107902409070040501000000000000111010841D405064090740C02480A0340
1001
ACAD
1000
AcDbSavedByObjectVersion
1070
     0
  0
ACAD_PROXY_OBJECT
  5
35
102
{ACAD_REACTORS
330
2A
102
}
330
2A
100
AcDbProxyObject
 90
      499
 91
      501
 93
      412
310
40D11A5B50B409028333333333333E3BF0000000000000FB010790141107004050150841D405064090741402480A02677FFFFFD0
1001
ACAD
1000
AcDbSavedByObjectVersion
1070
     0
  0
ACAD_PROXY_OBJECT
  5
39
102
{ACAD_REACTORS
330
2A
102
}
330
2A
100
AcDbProxyObject
 90
      499
 91
      501
 93
      444
310
42D19858D95C185D1D195C9B90F409028333333333333E3BF0000000000000FB010790141107004050150841D405064090741402480A0350
1001
ACAD
1000
AcDbSavedByObjectVersion
1070
     0
  0
ACAD_PROXY_OBJECT
  5
2B
102
{ACAD_REACTORS
330
2A
102
}
330
2A
100
AcDbProxyObject
 90
      499
 91
      501
 93
      388
310
41119B185D240901404333333333333E3BF0000000000000F9010740A41107004050150841D405064090741402480A1B50
1001
ACAD
1000
AcDbSavedByObjectVersion
1070
     0
  0
ACAD_PROXY_OBJECT
  5
2C
102
{ACAD_REACTORS
330
2A
102
}
330
2A
100
AcDbProxyObject
 90
      499
 91
      501
 93
      476
310
43519B185D15DA5D1A115919D95CD0140901404333333333333E3BF0000000000000F9010740901411070040501600405405064090741402480A1B50
1001
ACAD
1000
AcDbSavedByObjectVersion
1070
     0
  0
ACAD_PROXY_OBJECT
  5
2D
102
{ACAD_REACTORS
330
2A
102
}
330
2A
100
AcDbProxyObject
 90
      499
 91
      501
 93
      412
310
41D1DBDD5C985D5910240902404333333333333E3BF0000000000000F9010740A411070040501641D405064090741402480A1B50
1001
ACAD
1000
AcDbSavedByObjectVersion
1070
     0
  0
ACAD_PROXY_OBJECT
  5
2E
102
{ACAD_REACTORS
330
2A
102
}
330
2A
100
AcDbProxyObject
 90
      499
 91
      501
 93
      500
310
4411DBDD5C985D5915DA5D1A115919D95CD0340902404333333333333E3BF0000000000000F9010740901411070040501600405405064090741402480A1B50
1001
ACAD
1000
AcDbSavedByObjectVersion
1070
     0
  0
ACAD_PROXY_OBJECT
  5
38
102
{ACAD_REACTORS
330
2A
102
}
330
2A
100
AcDbProxyObject
 90
      499
 91
      501
 93
      444
310
42D31A5B995C185D1D195C9B90E409028333333333333E3BF0000000000000FB010790141107004050750841D405064090741402483A0350
1001
ACAD
1000
AcDbSavedByObjectVersion
1070
     0
  0
ACAD_PROXY_OBJECT
  5
33
102
{ACAD_REACTORS
330
2A
102
}
330
2A
100
AcDbProxyObject
 90
      499
 91
      501
 93
      420
310
425499585B1A5CDD1A58D08409028333333333333E3BF0000000000000FB01079019070040501508421405064090741402480A1B40
1001
ACAD
1000
AcDbSavedByObjectVersion
1070
     0
  0
ACAD_PROXY_OBJECT
  5
37
102
{ACAD_REACTORS
330
2A
102
}
330
2A
100
AcDbProxyObject
 90
      499
 91
      501
 93
      412
310
41D51A1A58DAD95B90D409028333333333333E3BF0000000000000FB010790141107004050150C41D405064090741402480A0350
1001
ACAD
1000
AcDbSavedByObjectVersion
1070
     0
  0
XRECORD
  5
267
102
{ACAD_REACTORS
330
25E
102
}
330
25E
100
AcDbXrecord
 90
        0
  0
XRECORD
  5
27D
102
{ACAD_REACTORS
330
25E
102
}
330
25E
100
AcDbXrecord
1000
DSTYLE
1002
{
1070
   340
340
11
1002
}
  0
XRECORD
  5
268
102
{ACAD_REACTORS
330
25E
102
}
330
25E
100
AcDbXrecord
  1
{F8E7897B-CC63-418F-B9FF-F4D1C5858F6F}
  0
XRECORD
  5
261
102
{ACAD_REACTORS
330
25E
102
}
330
25E
100
AcDbXrecord
  1

  0
XRECORD
  5
266
102
{ACAD_REACTORS
330
25E
102
}
330
25E
100
AcDbXrecord
 90
        1
  0
XRECORD
  5
263
102
{ACAD_REACTORS
330
25E
102
}
330
25E
100
AcDbXrecord
340
1A
  0
XRECORD
  5
265
102
{ACAD_REACTORS
330
25E
102
}
330
25E
100
AcDbXrecord
 90
    10269
  0
XRECORD
  5
264
102
{ACAD_REACTORS
330
25E
102
}
330
25E
100
AcDbXrecord
340
19
  0
XRECORD
  5
26A
102
{ACAD_REACTORS
330
25E
102
}
330
25E
100
AcDbXrecord
 40
0.0
  0
XRECORD
  5
26D
102
{ACAD_REACTORS
330
25E
102
}
330
25E
100
AcDbXrecord
340
0
  0
XRECORD
  5
273
102
{ACAD_REACTORS
330
25E
102
}
330
25E
100
AcDbXrecord
 10
0.0
 20
0.0
 30
0.0
  0
XRECORD
  5
26F
102
{ACAD_REACTORS
330
25E
102
}
330
25E
100
AcDbXrecord
 10
0.0
 20
0.0
 30
0.0
  0
XRECORD
  5
272
102
{ACAD_REACTORS
330
25E
102
}
330
25E
100
AcDbXrecord
 10
0.0
 20
0.0
 30
0.0
  0
XRECORD
  5
270
102
{ACAD_REACTORS
330
25E
102
}
330
25E
100
AcDbXrecord
 10
0.0
 20
0.0
 30
0.0
  0
XRECORD
  5
271
102
{ACAD_REACTORS
330
25E
102
}
330
25E
100
AcDbXrecord
 10
0.0
 20
0.0
 30
0.0
  0
XRECORD
  5
26E
102
{ACAD_REACTORS
330
25E
102
}
330
25E
100
AcDbXrecord
 10
0.0
 20
0.0
 30
0.0
  0
XRECORD
  5
26B
102
{ACAD_REACTORS
330
25E
102
}
330
25E
100
AcDbXrecord
340
0
  0
XRECORD
  5
26C
102
{ACAD_REACTORS
330
25E
102
}
330
25E
100
AcDbXrecord
 70
     0
  0
XRECORD
  5
262
102
{ACAD_REACTORS
330
25E
102
}
330
25E
100
AcDbXrecord
  1

  0
XRECORD
  5
25F
102
{ACAD_REACTORS
330
25E
102
}
330
25E
100
AcDbXrecord
 90
        1
  0
XRECORD
  5
260
102
{ACAD_REACTORS
330
25E
102
}
330
25E
100
AcDbXrecord
 90
       70
  0
XRECORD
  5
276
102
{ACAD_REACTORS
330
25E
102
}
330
25E
100
AcDbXrecord
340
0
  0
XRECORD
  5
27C
102
{ACAD_REACTORS
330
25E
102
}
330
25E
100
AcDbXrecord
 10
0.0
 20
0.0
 30
0.0
  0
XRECORD
  5
278
102
{ACAD_REACTORS
330
25E
102
}
330
25E
100
AcDbXrecord
 10
0.0
 20
0.0
 30
0.0
  0
XRECORD
  5
27B
102
{ACAD_REACTORS
330
25E
102
}
330
25E
100
AcDbXrecord
 10
0.0
 20
0.0
 30
0.0
  0
XRECORD
  5
279
102
{ACAD_REACTORS
330
25E
102
}
330
25E
100
AcDbXrecord
 10
0.0
 20
0.0
 30
0.0
  0
XRECORD
  5
27A
102
{ACAD_REACTORS
330
25E
102
}
330
25E
100
AcDbXrecord
 10
0.0
 20
0.0
 30
0.0
  0
XRECORD
  5
277
102
{ACAD_REACTORS
330
25E
102
}
330
25E
100
AcDbXrecord
 10
0.0
 20
0.0
 30
0.0
  0
XRECORD
  5
274
102
{ACAD_REACTORS
330
25E
102
}
330
25E
100
AcDbXrecord
340
0
  0
XRECORD
  5
275
102
{ACAD_REACTORS
330
25E
102
}
330
25E
100
AcDbXrecord
 70
     0
  0
XRECORD
  5
269
102
{ACAD_REACTORS
330
25E
102
}
330
25E
100
AcDbXrecord
  1
{FAEB1C32-E019-11D5-929B-00C0DF256EC4}
  0
DICTIONARYVAR
  5
281
102
{ACAD_REACTORS
330
27E
102
}
330
27E
100
DictionaryVariables
280
     0
  1
2
  0
DICTIONARYVAR
  5
282
102
{ACAD_REACTORS
330
27E
102
}
330
27E
100
DictionaryVariables
280
     0
  1
1
  0
DICTIONARY
  5
285
330
3D
100
AcDbDictionary
280
     1
  3
ACAD_XREC_ROUNDTRIP
360
286
  0
DICTIONARY
  5
283
330
3C
100
AcDbDictionary
280
     1
  3
ACAD_XREC_ROUNDTRIP
360
284
  0
DICTIONARY
  5
287
330
3E
100
AcDbDictionary
280
     1
  3
ACAD_XREC_ROUNDTRIP
360
288
  0
XRECORD
  5
286
102
{ACAD_REACTORS
330
285
102
}
330
285
100
AcDbXrecord
102
MATERIAL
148
0.0
149
0.0
149
0.0
 93
        0
 94
      127
282
     0
 72
     1
 77
     1
171
     1
175
     1
179
     1
273
     0
  0
XRECORD
  5
284
102
{ACAD_REACTORS
330
283
102
}
330
283
100
AcDbXrecord
102
MATERIAL
148
0.0
149
0.0
149
0.0
 93
        0
 94
      127
282
     0
 72
     1
 77
     1
171
     1
175
     1
179
     1
273
     0
  0
XRECORD
  5
288
102
{ACAD_REACTORS
330
287
102
}
330
287
100
AcDbXrecord
102
MATERIAL
148
0.0
149
0.0
149
0.0
 93
        0
 94
      127
282
     0
 72
     1
 77
     1
171
     1
175
     1
179
     1
273
     0
  0
ENDSEC
  0
EOF
