  0
SECTION
  2
HEADER
  9
$ACADVER
  1
AC1015
  9
$ACADMAINTVER
 70
     6
  9
$DWGCODEPAGE
  3
ANSI_1252
  9
$INSBASE
 10
0.0
 20
0.0
 30
0.0
  9
$EXTMIN
 10
0.0
 20
0.0
 30
0.0
  9
$EXTMAX
 10
2970.0
 20
2100.0
 30
0.0
  9
$LIMMIN
 10
0.0
 20
0.0
  9
$LIMMAX
 10
2970.0
 20
2100.0
  9
$ORTHOMODE
 70
     0
  9
$REGENMODE
 70
     1
  9
$FILLMODE
 70
     1
  9
$QTEXTMODE
 70
     0
  9
$MIRRTEXT
 70
     1
  9
$LTSCALE
 40
10.0
  9
$ATTMODE
 70
     1
  9
$TEXTSIZE
 40
35.0
  9
$TRACEWID
 40
1.0
  9
$TEXTSTYLE
  7
Standard
  9
$CLAYER
  8
0
  9
$CELTYPE
  6
ByLayer
  9
$CECOLOR
 62
   256
  9
$CELTSCALE
 40
1.0
  9
$DISPSILH
 70
     0
  9
$DIMSCALE
 40
1.0
  9
$DIMASZ
 40
25.0
  9
$DIMEXO
 40
0.0
  9
$DIMDLI
 40
3.75
  9
$DIMRND
 40
0.0
  9
$DIMDLE
 40
0.0
  9
$DIMEXE
 40
10.0
  9
$DIMTP
 40
0.0
  9
$DIMTM
 40
0.0
  9
$DIMTXT
 40
30.0
  9
$DIMCEN
 40
2.5
  9
$DIMTSZ
 40
0.0
  9
$DIMTOL
 70
     0
  9
$DIMLIM
 70
     0
  9
$DIMTIH
 70
     1
  9
$DIMTOH
 70
     1
  9
$DIMSE1
 70
     0
  9
$DIMSE2
 70
     0
  9
$DIMTAD
 70
     1
  9
$DIMZIN
 70
     0
  9
$DIMBLK
  1

  9
$DIMASO
 70
     1
  9
$DIMSHO
 70
     1
  9
$DIMPOST
  1

  9
$DIMAPOST
  1

  9
$DIMALT
 70
     0
  9
$DIMALTD
 70
     3
  9
$DIMALTF
 40
0.0393700787
  9
$DIMLFAC
 40
1.0
  9
$DIMTOFL
 70
     1
  9
$DIMTVP
 40
0.0
  9
$DIMTIX
 70
     0
  9
$DIMSOXD
 70
     0
  9
$DIMSAH
 70
     0
  9
$DIMBLK1
  1

  9
$DIMBLK2
  1

  9
$DIMSTYLE
  2
ISO-25
  9
$DIMCLRD
 70
     0
  9
$DIMCLRE
 70
     0
  9
$DIMCLRT
 70
     0
  9
$DIMTFAC
 40
1.0
  9
$DIMGAP
 40
15.0
  9
$DIMJUST
 70
     0
  9
$DIMSD1
 70
     0
  9
$DIMSD2
 70
     0
  9
$DIMTOLJ
 70
     0
  9
$DIMTZIN
 70
     0
  9
$DIMALTZ
 70
     0
  9
$DIMALTTZ
 70
     0
  9
$DIMUPT
 70
     0
  9
$DIMDEC
 70
     1
  9
$DIMTDEC
 70
     1
  9
$DIMALTU
 70
     2
  9
$DIMALTTD
 70
     3
  9
$DIMTXSTY
  7
Standard
  9
$DIMAUNIT
 70
     0
  9
$DIMADEC
 70
     2
  9
$DIMALTRND
 40
0.0
  9
$DIMAZIN
 70
     0
  9
$DIMDSEP
 70
    44
  9
$DIMATFIT
 70
     3
  9
$DIMFRAC
 70
     0
  9
$DIMLDRBLK
  1

  9
$DIMLUNIT
 70
     2
  9
$DIMLWD
 70
    -2
  9
$DIMLWE
 70
    -2
  9
$DIMTMOVE
 70
     0
  9
$LUNITS
 70
     2
  9
$LUPREC
 70
     2
  9
$SKETCHINC
 40
1.0
  9
$FILLETRAD
 40
10.0
  9
$AUNITS
 70
     0
  9
$AUPREC
 70
     2
  9
$MENU
  1
.
  9
$ELEVATION
 40
0.0
  9
$PELEVATION
 40
0.0
  9
$THICKNESS
 40
0.0
  9
$LIMCHECK
 70
     0
  9
$CHAMFERA
 40
0.0
  9
$CHAMFERB
 40
0.0
  9
$CHAMFERC
 40
0.0
  9
$CHAMFERD
 40
0.0
  9
$SKPOLY
 70
     0
  9
$TDCREATE
 40
2458269.51646713
  9
$TDUCREATE
 40
2458269.433133796
  9
$TDUPDATE
 40
2458269.516468484
  9
$TDUUPDATE
 40
2458269.43313515
  9
$TDINDWG
 40
0.0000000116
  9
$TDUSRTIMER
 40
0.0000000116
  9
$USRTIMER
 70
     1
  9
$ANGBASE
 50
0.0
  9
$ANGDIR
 70
     0
  9
$PDMODE
 70
     0
  9
$PDSIZE
 40
-1.0
  9
$PLINEWID
 40
0.0
  9
$SPLFRAME
 70
     0
  9
$SPLINETYPE
 70
     6
  9
$SPLINESEGS
 70
     8
  9
$HANDSEED
  5
1B5
  9
$SURFTAB1
 70
     6
  9
$SURFTAB2
 70
     6
  9
$SURFTYPE
 70
     6
  9
$SURFU
 70
     6
  9
$SURFV
 70
     6
  9
$UCSBASE
  2

  9
$UCSNAME
  2

  9
$UCSORG
 10
0.0
 20
0.0
 30
0.0
  9
$UCSXDIR
 10
1.0
 20
0.0
 30
0.0
  9
$UCSYDIR
 10
0.0
 20
1.0
 30
0.0
  9
$UCSORTHOREF
  2

  9
$UCSORTHOVIEW
 70
     0
  9
$UCSORGTOP
 10
0.0
 20
0.0
 30
0.0
  9
$UCSORGBOTTOM
 10
0.0
 20
0.0
 30
0.0
  9
$UCSORGLEFT
 10
0.0
 20
0.0
 30
0.0
  9
$UCSORGRIGHT
 10
0.0
 20
0.0
 30
0.0
  9
$UCSORGFRONT
 10
0.0
 20
0.0
 30
0.0
  9
$UCSORGBACK
 10
0.0
 20
0.0
 30
0.0
  9
$PUCSBASE
  2

  9
$PUCSNAME
  2

  9
$PUCSORG
 10
0.0
 20
0.0
 30
0.0
  9
$PUCSXDIR
 10
1.0
 20
0.0
 30
0.0
  9
$PUCSYDIR
 10
0.0
 20
1.0
 30
0.0
  9
$PUCSORTHOREF
  2

  9
$PUCSORTHOVIEW
 70
     0
  9
$PUCSORGTOP
 10
0.0
 20
0.0
 30
0.0
  9
$PUCSORGBOTTOM
 10
0.0
 20
0.0
 30
0.0
  9
$PUCSORGLEFT
 10
0.0
 20
0.0
 30
0.0
  9
$PUCSORGRIGHT
 10
0.0
 20
0.0
 30
0.0
  9
$PUCSORGFRONT
 10
0.0
 20
0.0
 30
0.0
  9
$PUCSORGBACK
 10
0.0
 20
0.0
 30
0.0
  9
$USERI1
 70
     0
  9
$USERI2
 70
     0
  9
$USERI3
 70
     0
  9
$USERI4
 70
     0
  9
$USERI5
 70
     0
  9
$USERR1
 40
0.0
  9
$USERR2
 40
0.0
  9
$USERR3
 40
0.0
  9
$USERR4
 40
0.0
  9
$USERR5
 40
0.0
  9
$WORLDVIEW
 70
     1
  9
$SHADEDGE
 70
     3
  9
$SHADEDIF
 70
    70
  9
$TILEMODE
 70
     1
  9
$MAXACTVP
 70
    64
  9
$PINSBASE
 10
0.0
 20
0.0
 30
0.0
  9
$PLIMCHECK
 70
     0
  9
$PEXTMIN
 10
1.0000000000E+20
 20
1.0000000000E+20
 30
1.0000000000E+20
  9
$PEXTMAX
 10
-1.0000000000E+20
 20
-1.0000000000E+20
 30
-1.0000000000E+20
  9
$PLIMMIN
 10
0.0
 20
0.0
  9
$PLIMMAX
 10
420.0
 20
297.0
  9
$UNITMODE
 70
     0
  9
$VISRETAIN
 70
     1
  9
$PLINEGEN
 70
     0
  9
$PSLTSCALE
 70
     1
  9
$TREEDEPTH
 70
  3020
  9
$CMLSTYLE
  2
Standard
  9
$CMLJUST
 70
     0
  9
$CMLSCALE
 40
20.0
  9
$PROXYGRAPHICS
 70
     1
  9
$MEASUREMENT
 70
     1
  9
$CELWEIGHT
370
    -1
  9
$ENDCAPS
280
     0
  9
$JOINSTYLE
280
     0
  9
$LWDISPLAY
290
     1
  9
$INSUNITS
 70
     4
  9
$HYPERLINKBASE
  1

  9
$STYLESHEET
  1

  9
$XEDIT
290
     1
  9
$CEPSNTYPE
380
     0
  9
$PSTYLEMODE
290
     1
  9
$FINGERPRINTGUID
  2
{E4121985-3F61-4FBB-A72C-22881A1B0993}
  9
$VERSIONGUID
  2
{FAEB1C32-E019-11D5-929B-00C0DF256EC4}
  9
$EXTNAMES
290
     1
  9
$PSVPSCALE
 40
0.0
  9
$OLESTARTUP
290
     0
  0
ENDSEC
  0
SECTION
  2
CLASSES
  0
CLASS
  1
ACDBDICTIONARYWDFLT
  2
AcDbDictionaryWithDefault
  3
ObjectDBX Classes
 90
        0
280
     0
281
     0
  0
CLASS
  1
VISUALSTYLE
  2
AcDbVisualStyle
  3
ObjectDBX Classes
 90
     4095
280
     0
281
     0
  0
CLASS
  1
MATERIAL
  2
AcDbMaterial
  3
ObjectDBX Classes
 90
     1153
280
     0
281
     0
  0
CLASS
  1
SCALE
  2
AcDbScale
  3
ObjectDBX Classes
 90
     1153
280
     0
281
     0
  0
CLASS
  1
TABLESTYLE
  2
AcDbTableStyle
  3
ObjectDBX Classes
 90
     4095
280
     0
281
     0
  0
CLASS
  1
MLEADERSTYLE
  2
AcDbMLeaderStyle
  3
ACDB_MLEADERSTYLE_CLASS
 90
     4095
280
     0
281
     0
  0
CLASS
  1
SUN
  2
AcDbSun
  3
SCENEOE
 90
     1153
280
     0
281
     0
  0
CLASS
  1
ACDBPLACEHOLDER
  2
AcDbPlaceHolder
  3
ObjectDBX Classes
 90
        0
280
     0
281
     0
  0
CLASS
  1
LAYOUT
  2
AcDbLayout
  3
ObjectDBX Classes
 90
        0
280
     0
281
     0
  0
ENDSEC
  0
SECTION
  2
TABLES
  0
TABLE
  2
VPORT
  5
8
330
0
100
AcDbSymbolTable
 70
     1
  0
VPORT
  5
29
330
8
100
AcDbSymbolTableRecord
100
AcDbViewportTableRecord
  2
*Active
 70
     0
 10
0.0
 20
0.0
 11
1.0
 21
1.0
 12
1485.0
 22
1050.0
 13
0.0
 23
0.0
 14
10.0
 24
10.0
 15
10.0
 25
10.0
 16
0.0
 26
0.0
 36
1.0
 17
0.0
 27
0.0
 37
0.0
 40
2100.0
 41
1.4142857143
 42
50.0
 43
0.0
 44
0.0
 50
0.0
 51
0.0
 71
     0
 72
  2000
 73
     1
 74
     3
 75
     0
 76
     0
 77
     0
 78
     0
281
     0
 65
     1
110
0.0
120
0.0
130
0.0
111
1.0
121
0.0
131
0.0
112
0.0
122
1.0
132
0.0
 79
     0
146
0.0
  0
ENDTAB
  0
TABLE
  2
LTYPE
  5
5
330
0
100
AcDbSymbolTable
 70
     6
  0
LTYPE
  5
14
330
5
100
AcDbSymbolTableRecord
100
AcDbLinetypeTableRecord
  2
ByBlock
 70
     0
  3

 72
    65
 73
     0
 40
0.0
  0
LTYPE
  5
15
330
5
100
AcDbSymbolTableRecord
100
AcDbLinetypeTableRecord
  2
ByLayer
 70
     0
  3

 72
    65
 73
     0
 40
0.0
  0
LTYPE
  5
16
330
5
100
AcDbSymbolTableRecord
100
AcDbLinetypeTableRecord
  2
Continuous
 70
     0
  3
Solid line
 72
    65
 73
     0
 40
0.0
  0
LTYPE
  5
6E
330
5
100
AcDbSymbolTableRecord
100
AcDbLinetypeTableRecord
  2
HIDDEN
 70
     0
  3
Hidden __ __ __ __ __ __ __ __ __ __ __ __ __ __
 72
    65
 73
     2
 40
1.905
 49
1.27
 74
     0
 49
-0.635
 74
     0
  0
LTYPE
  5
6F
330
5
100
AcDbSymbolTableRecord
100
AcDbLinetypeTableRecord
  2
PHANTOM
 70
     0
  3
Phantom ______  __  __  ______  __  __  ______
 72
    65
 73
     6
 40
12.7
 49
6.35
 74
     0
 49
-1.27
 74
     0
 49
1.27
 74
     0
 49
-1.27
 74
     0
 49
1.27
 74
     0
 49
-1.27
 74
     0
  0
LTYPE
  5
70
330
5
100
AcDbSymbolTableRecord
100
AcDbLinetypeTableRecord
  2
CENTER
 70
     0
  3
Center ____ _ ____ _ ____ _ ____ _ ____ _ ____
 72
    65
 73
     4
 40
10.16
 49
6.35
 74
     0
 49
-1.27
 74
     0
 49
1.27
 74
     0
 49
-1.27
 74
     0
  0
LTYPE
  5
71
330
5
100
AcDbSymbolTableRecord
100
AcDbLinetypeTableRecord
  2
CENTERX2
 70
     0
  3
Center (2x) ________  __  ________  __  _____
 72
    65
 73
     4
 40
20.32
 49
12.7
 74
     0
 49
-2.54
 74
     0
 49
2.54
 74
     0
 49
-2.54
 74
     0
  0
LTYPE
  5
72
330
5
100
AcDbSymbolTableRecord
100
AcDbLinetypeTableRecord
  2
DOT2
 70
     0
  3
Dot (.5x) ........................................
 72
    65
 73
     2
 40
0.635
 49
0.0
 74
     0
 49
-0.635
 74
     0
  0
ENDTAB
  0
TABLE
  2
LAYER
  5
2
330
0
100
AcDbSymbolTable
 70
     2
  0
LAYER
  5
10
330
2
100
AcDbSymbolTableRecord
100
AcDbLayerTableRecord
  2
0
 70
     0
 62
     7
  6
Continuous
370
    -3
390
F
  0
LAYER
  5
73
330
2
100
AcDbSymbolTableRecord
100
AcDbLayerTableRecord
  2
FORMAT
 70
     0
 62
     7
  6
Continuous
370
    -3
390
F
  0
ENDTAB
  0
TABLE
  2
STYLE
  5
3
330
0
100
AcDbSymbolTable
 70
     2
  0
STYLE
  5
11
330
3
100
AcDbSymbolTableRecord
100
AcDbTextStyleTableRecord
  2
Standard
 70
     0
 40
0.0
 41
1.0
 50
0.0
 71
     0
 42
35.0
  3
txt
  4

  0
STYLE
  5
E7
330
3
100
AcDbSymbolTableRecord
100
AcDbTextStyleTableRecord
  2
SLDTEXTSTYLE0
 70
     0
 40
0.0
 41
0.605
 50
0.0
 71
     0
 42
35.0
  3
TXT
  4

  0
ENDTAB
  0
TABLE
  2
VIEW
  5
6
330
0
100
AcDbSymbolTable
 70
     0
  0
ENDTAB
  0
TABLE
  2
UCS
  5
7
330
0
100
AcDbSymbolTable
 70
     0
  0
ENDTAB
  0
TABLE
  2
APPID
  5
9
330
0
100
AcDbSymbolTable
 70
     1
  0
APPID
  5
12
330
9
100
AcDbSymbolTableRecord
100
AcDbRegAppTableRecord
  2
ACAD
 70
     0
  0
ENDTAB
  0
TABLE
  2
DIMSTYLE
  5
A
330
0
100
AcDbSymbolTable
 70
     1
100
AcDbDimStyleTable
  0
DIMSTYLE
105
27
330
A
100
AcDbSymbolTableRecord
100
AcDbDimStyleTableRecord
  2
ISO-25
 70
     0
 41
2.5
 42
0.625
 43
3.75
 44
1.25
 73
     0
 74
     0
 77
     1
 78
     8
140
2.5
141
2.5
143
0.0393700787
147
0.625
171
     3
172
     1
178
     0
271
     2
272
     2
274
     3
278
    44
283
     0
284
     8
340
11
  0
ENDTAB
  0
TABLE
  2
BLOCK_RECORD
  5
1
330
0
100
AcDbSymbolTable
 70
     2
  0
BLOCK_RECORD
  5
1F
330
1
100
AcDbSymbolTableRecord
100
AcDbBlockTableRecord
  2
*Model_Space
340
22
  0
BLOCK_RECORD
  5
1B
330
1
100
AcDbSymbolTableRecord
100
AcDbBlockTableRecord
  2
*Paper_Space
340
1E
  0
BLOCK_RECORD
  5
23
330
1
100
AcDbSymbolTableRecord
100
AcDbBlockTableRecord
  2
*Paper_Space0
340
26
  0
BLOCK_RECORD
  5
EE
330
1
100
AcDbSymbolTableRecord
100
AcDbBlockTableRecord
  2
SW_NOTE_0
340
0
102
{BLKREFS
331
F3
102
}
  0
ENDTAB
  0
ENDSEC
  0
SECTION
  2
BLOCKS
  0
BLOCK
  5
20
330
1F
100
AcDbEntity
  8
0
100
AcDbBlockBegin
  2
*Model_Space
 70
     0
 10
0.0
 20
0.0
 30
0.0
  3
*Model_Space
  1

  0
ENDBLK
  5
21
330
1F
100
AcDbEntity
  8
0
100
AcDbBlockEnd
  0
BLOCK
  5
1C
330
1B
100
AcDbEntity
 67
     1
  8
0
100
AcDbBlockBegin
  2
*Paper_Space
 70
     0
 10
0.0
 20
0.0
 30
0.0
  3
*Paper_Space
  1

  0
ENDBLK
  5
1D
330
1B
100
AcDbEntity
 67
     1
  8
0
100
AcDbBlockEnd
  0
BLOCK
  5
24
330
23
100
AcDbEntity
  8
0
100
AcDbBlockBegin
  2
*Paper_Space0
 70
     0
 10
0.0
 20
0.0
 30
0.0
  3
*Paper_Space0
  1

  0
ENDBLK
  5
25
330
23
100
AcDbEntity
  8
0
100
AcDbBlockEnd
  0
BLOCK
  5
EF
330
EE
100
AcDbEntity
  8
0
100
AcDbBlockBegin
  2
SW_NOTE_0
 70
     0
 10
0.0
 20
0.0
 30
0.0
  3
SW_NOTE_0
  1

  0
MTEXT
  5
F1
330
EE
100
AcDbEntity
  8
0
  6
Continuous
 62
     0
370
     0
100
AcDbMText
 10
32.90625
 20
23.2032193159
 30
0.0
 40
18.0
 41
0.0
 71
     2
 72
     1
  1
SCALA
  7
SLDTEXTSTYLE0
 73
     1
 44
1.0
  0
MTEXT
  5
F2
330
EE
100
AcDbEntity
  8
0
  6
Continuous
 62
     0
370
     0
100
AcDbMText
 10
35.6098540438
 20
-1.6396707646
 30
0.0
 40
37.0416666667
 41
0.0
 71
     2
 72
     1
  1
1:1
  7
SLDTEXTSTYLE0
 73
     1
 44
1.0
  0
ENDBLK
  5
F0
330
EE
100
AcDbEntity
  8
0
100
AcDbBlockEnd
  0
ENDSEC
  0
SECTION
  2
ENTITIES
  0
HATCH
  5
74
330
1F
100
AcDbEntity
  8
0
  6
Continuous
 62
     7
100
AcDbHatch
 10
0.0
 20
0.0
 30
0.0
210
0.0
220
0.0
230
1.0
  2
SOLID
 70
     1
 71
     0
 91
        2
 92
        0
 93
        6
 72
     1
 10
2340.243226420216
 20
319.3144821747094
 11
2356.647910872445
 21
319.3144821747094
 72
     3
 10
2351.078765157099
 20
331.9559440369547
 11
27.08884684798352
 21
0.0
 40
0.4768529109443384
 50
293.7756995582609
 51
426.2243004403791
 73
     1
 72
     1
 10
2356.647910872789
 20
344.5974058991662
 11
2323.989918311282
 21
344.5974058991662
 72
     1
 10
2323.989918311282
 20
344.5974058991662
 11
2323.989918311282
 21
304.8670971915081
 72
     1
 10
2323.989918311282
 20
304.8670971915081
 11
2340.243226420216
 21
304.8670971915081
 72
     1
 10
2340.243226420216
 20
304.8670971915081
 11
2340.243226420216
 21
319.3144821747094
 97
        0
 92
        0
 93
        6
 72
     3
 10
2350.175803596967
 20
331.9559440369547
 11
9.932577177641511
 21
0.0
 40
0.5895245510672578
 50
316.3365658560252
 51
403.663434144226
 73
     0
 72
     2
 10
2352.923880980421
 20
333.7618671600596
 40
7.223692492544108
 50
69.99121011132742
 51
90.0
 73
     0
 72
     1
 10
2352.923880980421
 20
326.5381746675155
 11
2340.243226419814
 21
326.5381746675155
 72
     1
 10
2340.243226419814
 20
326.5381746675155
 11
2340.243226419814
 21
337.37371340629
 72
     1
 10
2340.243226419814
 20
337.37371340629
 11
2352.923880981012
 21
337.37371340629
 72
     2
 10
2352.923880981012
 20
330.150020915474
 40
7.223692490816113
 50
270.0000000000008
 51
290.0087898889545
 73
     0
 97
        0
 75
     0
 76
     1
 98
        1
 10
0.0
 20
0.0
  0
HATCH
  5
75
330
1F
100
AcDbEntity
  8
0
  6
Continuous
 62
     7
100
AcDbHatch
 10
0.0
 20
0.0
 30
0.0
210
0.0
220
0.0
230
1.0
  2
SOLID
 70
     1
 71
     0
 91
        1
 92
        0
 93
       12
 72
     1
 10
2435.957151948124
 20
344.59740589754
 11
2381.779458253796
 21
344.59740589754
 72
     1
 10
2381.779458253796
 20
344.59740589754
 11
2381.779458253796
 21
304.867097189882
 72
     1
 10
2381.779458253796
 20
304.867097189882
 11
2435.957151948124
 21
304.867097189882
 72
     1
 10
2435.957151948124
 20
304.867097189882
 11
2435.957151948124
 21
312.09078967967
 72
     1
 10
2435.957151948124
 20
312.09078967967
 11
2399.838689485178
 21
312.09078967967
 72
     1
 10
2399.838689485178
 20
312.09078967967
 11
2399.838689485178
 21
321.1204052953607
 72
     1
 10
2399.838689485178
 20
321.1204052953607
 11
2432.345305703229
 21
321.1204052953607
 72
     1
 10
2432.345305703229
 20
321.1204052953607
 11
2432.345305703229
 21
328.344097788605
 72
     1
 10
2432.345305703229
 20
328.344097788605
 11
2399.838689485178
 21
328.344097788605
 72
     1
 10
2399.838689485178
 20
328.344097788605
 11
2399.838689485178
 21
337.3737134042958
 72
     1
 10
2399.838689485178
 20
337.3737134042958
 11
2435.957151948124
 21
337.3737134042958
 72
     1
 10
2435.957151948124
 20
337.3737134042958
 11
2435.957151948124
 21
344.59740589754
 97
        0
 75
     0
 76
     1
 98
        1
 10
0.0
 20
0.0
  0
HATCH
  5
76
330
1F
100
AcDbEntity
  8
0
  6
Continuous
 62
     7
100
AcDbHatch
 10
0.0
 20
0.0
 30
0.0
210
0.0
220
0.0
230
1.0
  2
SOLID
 70
     1
 71
     0
 91
        1
 92
        0
 93
        6
 72
     1
 10
2645.444234240045
 20
344.597405899586
 11
2627.385003008663
 21
344.597405899586
 72
     1
 10
2627.385003008663
 20
344.597405899586
 11
2627.385003008663
 21
304.8670971919279
 72
     1
 10
2627.385003008663
 20
304.8670971919279
 11
2676.14492733565
 21
304.8670971919279
 72
     1
 10
2676.14492733565
 20
304.8670971919279
 11
2676.14492733565
 21
313.8967128076189
 72
     1
 10
2676.14492733565
 20
313.8967128076189
 11
2645.444234240045
 21
313.8967128076189
 72
     1
 10
2645.444234240045
 20
313.8967128076189
 11
2645.444234240045
 21
344.597405899586
 97
        0
 75
     0
 76
     1
 98
        1
 10
0.0
 20
0.0
  0
HATCH
  5
77
330
1F
100
AcDbEntity
  8
0
  6
Continuous
 62
     7
100
AcDbHatch
 10
0.0
 20
0.0
 30
0.0
210
0.0
220
0.0
230
1.0
  2
SOLID
 70
     1
 71
     0
 91
        1
 92
        0
 93
        4
 72
     1
 10
2677.950850457337
 20
344.5974058991659
 11
2677.950850457337
 21
304.8670971915079
 72
     1
 10
2677.950850457337
 20
304.8670971915079
 11
2696.010081688719
 21
304.8670971915079
 72
     1
 10
2696.010081688719
 20
304.8670971915079
 11
2696.010081688719
 21
344.5974058991659
 72
     1
 10
2696.010081688719
 20
344.5974058991659
 11
2677.950850457337
 21
344.5974058991659
 97
        0
 75
     0
 76
     1
 98
        1
 10
0.0
 20
0.0
  0
HATCH
  5
78
330
1F
100
AcDbEntity
  8
0
  6
Continuous
 62
     7
100
AcDbHatch
 10
0.0
 20
0.0
 30
0.0
210
0.0
220
0.0
230
1.0
  2
SOLID
 70
     1
 71
     0
 91
        2
 92
        0
 93
        4
 72
     3
 10
2468.463768165085
 20
324.7322515426197
 11
28.89476997115586
 21
0.0
 40
0.6929224243374513
 50
280.2934314618138
 51
439.7065685387129
 73
     1
 72
     1
 10
2472.071526001564
 20
344.5974058975816
 11
2439.568998196665
 21
344.5974058975813
 72
     1
 10
2439.568998196665
 20
344.5974058975813
 11
2439.568998196665
 21
304.8670971876741
 72
     1
 10
2439.568998196665
 20
304.8670971876741
 11
2472.071526001749
 21
304.8670971876741
 97
        0
 92
        0
 93
        6
 72
     2
 10
2472.947172767998
 20
324.7322515421808
 40
10.83553873998016
 50
56.16906508602374
 51
90.0
 73
     0
 72
     1
 10
2472.947172767998
 20
313.8967128022008
 11
2455.82230630316
 21
313.8967128022008
 72
     1
 10
2455.82230630316
 20
313.8967128022008
 11
2455.82230630316
 21
335.5677902826995
 72
     1
 10
2455.82230630316
 20
335.5677902826995
 11
2472.947172767998
 21
335.5677902826995
 72
     2
 10
2472.947172767998
 20
324.7322515421808
 40
10.83553874051871
 50
270.0000000000008
 51
303.8314447476077
 73
     0
 72
     3
 10
2462.14303723761
 20
324.7322515426197
 11
22.57403904004612
 21
0.0
 40
0.5985848325441405
 50
331.8713554011807
 51
388.1288999924611
 73
     0
 97
        0
 75
     0
 76
     1
 98
        1
 10
0.0
 20
0.0
  0
HATCH
  5
79
330
1F
100
AcDbEntity
  8
0
  6
Continuous
 62
     7
100
AcDbHatch
 10
0.0
 20
0.0
 30
0.0
210
0.0
220
0.0
230
1.0
  2
SOLID
 70
     1
 71
     0
 91
        3
 92
        0
 93
       19
 72
     1
 10
2558.870202192612
 20
314.7709579586855
 11
2560.355534650718
 21
308.9676544182703
 72
     2
 10
2565.453566637579
 20
310.114383967383
 40
5.225410873593411
 50
192.6768785101394
 51
204.7368873206736
 73
     1
 72
     1
 10
2560.707644877863
 20
307.927800914186
 11
2584.042848052473
 21
344.597405899586
 72
     1
 10
2584.042848052473
 20
344.597405899586
 11
2602.102079283856
 21
344.597405899586
 72
     1
 10
2602.102079283856
 20
344.597405899586
 11
2627.385003008663
 21
304.8670971919279
 72
     1
 10
2627.385003008663
 20
304.8670971919279
 11
2609.325771777099
 21
304.8670971919279
 72
     1
 10
2609.325771777099
 20
304.8670971919279
 11
2605.262444749956
 21
312.090789681716
 72
     1
 10
2605.262444749956
 20
312.090789681716
 11
2580.882482586372
 21
312.090789681716
 72
     1
 10
2580.882482586372
 20
312.090789681716
 11
2576.819155559229
 21
304.8670971919279
 72
     1
 10
2576.819155559229
 20
304.8670971919279
 11
2546.118462463106
 21
304.8670971919279
 72
     1
 10
2546.118462463106
 20
304.8670971919279
 11
2546.118462463106
 21
312.0907896826544
 72
     2
 10
2538.894769969861
 20
312.0907896826544
 40
7.223692493244227
 50
0.0
 51
90.0
 73
     1
 72
     1
 10
2538.894769969861
 20
319.3144821758984
 11
2520.835538738298
 21
319.3144821758984
 72
     1
 10
2520.835538738298
 20
319.3144821758984
 11
2520.835538738298
 21
304.8670971928664
 72
     1
 10
2520.835538738298
 20
304.8670971928664
 11
2504.582230629363
 21
304.8670971928664
 72
     1
 10
2504.582230629363
 20
304.8670971928664
 11
2504.582230629363
 21
344.5974059005244
 72
     1
 10
2504.582230629363
 20
344.5974059005244
 11
2542.019258305786
 21
344.5974059005244
 72
     3
 10
2538.029947706919
 20
332.9364020822968
 11
24.32666622535162
 21
0.0
 40
0.4859291160023137
 50
288.8861745463018
 51
398.6942257036357
 73
     0
 72
     2
 10
2549.037584929584
 20
312.9627960708336
 40
9.997490267756193
 50
279.2678272406082
 51
349.5800515720779
 73
     0
 97
        0
 92
        0
 93
        3
 72
     1
 10
2593.072463667404
 20
333.7618671594018
 11
2584.945809612937
 21
319.3144821729139
 72
     1
 10
2584.945809612937
 20
319.3144821729139
 11
2601.199117721872
 21
319.3144821729139
 72
     1
 10
2601.199117721872
 20
319.3144821729139
 11
2593.072463667404
 21
333.7618671594018
 97
        0
 92
        0
 93
        6
 72
     2
 10
2538.478172418671
 20
331.9559440374287
 40
5.417769370214362
 50
270.0000000000008
 51
305.5869104965606
 73
     1
 72
     3
 10
2532.574039041056
 20
331.9559440369547
 11
11.73850030081747
 21
0.0
 40
0.5900077182209745
 50
334.058541690378
 51
385.9414583083995
 73
     1
 72
     2
 10
2538.478172418671
 20
331.9559440374287
 40
5.417769369443226
 50
54.41308949502037
 51
90.0
 73
     1
 72
     1
 10
2538.478172418671
 20
337.3737134068722
 11
2520.835538737718
 21
337.3737134068722
 72
     1
 10
2520.835538737718
 20
337.3737134068722
 11
2520.835538737718
 21
326.538174667214
 72
     1
 10
2520.835538737718
 20
326.538174667214
 11
2538.478172418671
 21
326.5381746672143
 97
        0
 75
     0
 76
     1
 98
        1
 10
0.0
 20
0.0
  0
LINE
  5
7A
330
1F
100
AcDbEntity
  8
0
  6
Continuous
 62
     7
370
    25
100
AcDbLine
 10
2870.0
 20
100.0
 30
0.0
 11
2870.0
 21
2000.0
 31
0.0
  0
LINE
  5
7B
330
1F
100
AcDbEntity
  8
0
  6
Continuous
 62
   179
370
    18
100
AcDbLine
 10
2323.9899183113
 20
344.5974058992
 30
0.0
 11
2323.9899183113
 21
304.8670971915
 31
0.0
  0
LINE
  5
7C
330
1F
100
AcDbEntity
  8
0
  6
Continuous
 62
   179
370
    18
100
AcDbLine
 10
2323.9899183113
 20
344.5974058992
 30
0.0
 11
2356.6479108728
 21
344.5974058992
 31
0.0
  0
LINE
  5
7D
330
1F
100
AcDbEntity
  8
0
  6
Continuous
 62
   179
370
    18
100
AcDbLine
 10
2323.9899183113
 20
304.8670971915
 30
0.0
 11
2340.2432264202
 21
304.8670971915
 31
0.0
  0
LINE
  5
7E
330
1F
100
AcDbEntity
  8
0
  6
Continuous
 62
   179
370
    18
100
AcDbLine
 10
2340.2432264202
 20
304.8670971915
 30
0.0
 11
2340.2432264202
 21
319.3144821747
 31
0.0
  0
LINE
  5
7F
330
1F
100
AcDbEntity
  8
0
  6
Continuous
 62
   179
370
    18
100
AcDbLine
 10
2356.6479108724
 20
319.3144821747
 30
0.0
 11
2340.2432264202
 21
319.3144821747
 31
0.0
  0
LINE
  5
80
330
1F
100
AcDbEntity
  8
0
  6
Continuous
 62
   179
370
    18
100
AcDbLine
 10
2340.2432264198
 20
326.5381746675
 30
0.0
 11
2340.2432264198
 21
337.3737134063
 31
0.0
  0
LINE
  5
81
330
1F
100
AcDbEntity
  8
0
  6
Continuous
 62
   179
370
    18
100
AcDbLine
 10
2340.2432264198
 20
337.3737134063
 30
0.0
 11
2352.923880981
 21
337.3737134063
 31
0.0
  0
LINE
  5
82
330
1F
100
AcDbEntity
  8
0
  6
Continuous
 62
   179
370
    18
100
AcDbLine
 10
2340.2432264198
 20
326.5381746675
 30
0.0
 11
2352.9238809804
 21
326.5381746675
 31
0.0
  0
LINE
  5
83
330
1F
100
AcDbEntity
  8
0
  6
Continuous
 62
   179
370
    18
100
AcDbLine
 10
2381.7794582538
 20
344.5974058975
 30
0.0
 11
2435.9571519481
 21
344.5974058975
 31
0.0
  0
LINE
  5
84
330
1F
100
AcDbEntity
  8
0
  6
Continuous
 62
   179
370
    18
100
AcDbLine
 10
2435.9571519481
 20
344.5974058975
 30
0.0
 11
2435.9571519481
 21
337.3737134043
 31
0.0
  0
LINE
  5
85
330
1F
100
AcDbEntity
  8
0
  6
Continuous
 62
   179
370
    18
100
AcDbLine
 10
2435.9571519481
 20
337.3737134043
 30
0.0
 11
2399.8386894852
 21
337.3737134043
 31
0.0
  0
LINE
  5
86
330
1F
100
AcDbEntity
  8
0
  6
Continuous
 62
   179
370
    18
100
AcDbLine
 10
2399.8386894852
 20
337.3737134043
 30
0.0
 11
2399.8386894852
 21
328.3440977886
 31
0.0
  0
LINE
  5
87
330
1F
100
AcDbEntity
  8
0
  6
Continuous
 62
   179
370
    18
100
AcDbLine
 10
2399.8386894852
 20
328.3440977886
 30
0.0
 11
2432.3453057032
 21
328.3440977886
 31
0.0
  0
LINE
  5
88
330
1F
100
AcDbEntity
  8
0
  6
Continuous
 62
   179
370
    18
100
AcDbLine
 10
2432.3453057032
 20
328.3440977886
 30
0.0
 11
2432.3453057032
 21
321.1204052954
 31
0.0
  0
LINE
  5
89
330
1F
100
AcDbEntity
  8
0
  6
Continuous
 62
   179
370
    18
100
AcDbLine
 10
2432.3453057032
 20
321.1204052954
 30
0.0
 11
2399.8386894852
 21
321.1204052954
 31
0.0
  0
LINE
  5
8A
330
1F
100
AcDbEntity
  8
0
  6
Continuous
 62
   179
370
    18
100
AcDbLine
 10
2399.8386894852
 20
321.1204052954
 30
0.0
 11
2399.8386894852
 21
312.0907896797
 31
0.0
  0
LINE
  5
8B
330
1F
100
AcDbEntity
  8
0
  6
Continuous
 62
   179
370
    18
100
AcDbLine
 10
2399.8386894852
 20
312.0907896797
 30
0.0
 11
2435.9571519481
 21
312.0907896797
 31
0.0
  0
LINE
  5
8C
330
1F
100
AcDbEntity
  8
0
  6
Continuous
 62
   179
370
    18
100
AcDbLine
 10
2435.9571519481
 20
312.0907896797
 30
0.0
 11
2435.9571519481
 21
304.8670971899
 31
0.0
  0
LINE
  5
8D
330
1F
100
AcDbEntity
  8
0
  6
Continuous
 62
   179
370
    18
100
AcDbLine
 10
2435.9571519481
 20
304.8670971899
 30
0.0
 11
2381.7794582538
 21
304.8670971899
 31
0.0
  0
LINE
  5
8E
330
1F
100
AcDbEntity
  8
0
  6
Continuous
 62
   179
370
    18
100
AcDbLine
 10
2439.5689981967
 20
344.5974058976
 30
0.0
 11
2439.5689981967
 21
304.8670971877
 31
0.0
  0
LINE
  5
8F
330
1F
100
AcDbEntity
  8
0
  6
Continuous
 62
   179
370
    18
100
AcDbLine
 10
2439.5689981967
 20
344.5974058976
 30
0.0
 11
2472.0715260016
 21
344.5974058976
 31
0.0
  0
LINE
  5
90
330
1F
100
AcDbEntity
  8
0
  6
Continuous
 62
   179
370
    18
100
AcDbLine
 10
2472.0715260017
 20
304.8670971877
 30
0.0
 11
2439.5689981967
 21
304.8670971877
 31
0.0
  0
LINE
  5
91
330
1F
100
AcDbEntity
  8
0
  6
Continuous
 62
   179
370
    18
100
AcDbLine
 10
2455.8223063032
 20
324.7322515403
 30
0.0
 11
2455.8223063032
 21
313.8967128022
 31
0.0
  0
LINE
  5
92
330
1F
100
AcDbEntity
  8
0
  6
Continuous
 62
   179
370
    18
100
AcDbLine
 10
2455.8223063032
 20
313.8967128022
 30
0.0
 11
2472.947172768
 21
313.8967128022
 31
0.0
  0
LINE
  5
93
330
1F
100
AcDbEntity
  8
0
  6
Continuous
 62
   179
370
    18
100
AcDbLine
 10
2455.8223063032
 20
324.7322515403
 30
0.0
 11
2455.8223063032
 21
335.5677902827
 31
0.0
  0
LINE
  5
94
330
1F
100
AcDbEntity
  8
0
  6
Continuous
 62
   179
370
    18
100
AcDbLine
 10
2455.8223063032
 20
335.5677902827
 30
0.0
 11
2472.947172768
 21
335.5677902827
 31
0.0
  0
LINE
  5
95
330
1F
100
AcDbEntity
  8
0
  6
Continuous
 62
   179
370
    18
100
AcDbLine
 10
2504.5822306294
 20
344.5974059005
 30
0.0
 11
2504.5822306294
 21
304.8670971929
 31
0.0
  0
LINE
  5
96
330
1F
100
AcDbEntity
  8
0
  6
Continuous
 62
     7
370
    18
100
AcDbLine
 10
2728.7989947508
 20
280.0000000004
 30
0.0
 11
2728.7989947508
 21
190.0000000002
 31
0.0
  0
LINE
  5
97
330
1F
100
AcDbEntity
  8
0
  6
Continuous
 62
   179
370
    18
100
AcDbLine
 10
2504.5822306294
 20
304.8670971929
 30
0.0
 11
2520.8355387383
 21
304.8670971929
 31
0.0
  0
LINE
  5
98
330
1F
100
AcDbEntity
  8
0
  6
Continuous
 62
   179
370
    18
100
AcDbLine
 10
2520.8355387383
 20
304.8670971929
 30
0.0
 11
2520.8355387383
 21
319.3144821759
 31
0.0
  0
LINE
  5
99
330
1F
100
AcDbEntity
  8
0
  6
Continuous
 62
   179
370
    18
100
AcDbLine
 10
2520.8355387383
 20
319.3144821759
 30
0.0
 11
2538.8947699699
 21
319.3144821759
 31
0.0
  0
LINE
  5
9A
330
1F
100
AcDbEntity
  8
0
  6
Continuous
 62
   179
370
    18
100
AcDbLine
 10
2546.1184624631
 20
312.0907896827
 30
0.0
 11
2546.1184624631
 21
304.8670971919
 31
0.0
  0
LINE
  5
9B
330
1F
100
AcDbEntity
  8
0
  6
Continuous
 62
   179
370
    18
100
AcDbLine
 10
2520.8355387377
 20
326.5381746672
 30
0.0
 11
2520.8355387377
 21
337.3737134069
 31
0.0
  0
LINE
  5
9C
330
1F
100
AcDbEntity
  8
0
  6
Continuous
 62
   179
370
    18
100
AcDbLine
 10
2520.8355387377
 20
337.3737134069
 30
0.0
 11
2538.4781724187
 21
337.3737134069
 31
0.0
  0
LINE
  5
9D
330
1F
100
AcDbEntity
  8
0
  6
Continuous
 62
   179
370
    18
100
AcDbLine
 10
2520.8355387377
 20
326.5381746672
 30
0.0
 11
2538.4781724187
 21
326.5381746672
 31
0.0
  0
LINE
  5
9E
330
1F
100
AcDbEntity
  8
0
  6
Continuous
 62
   179
370
    18
100
AcDbLine
 10
2558.8702021926
 20
314.7709579587
 30
0.0
 11
2560.3555346507
 21
308.9676544183
 31
0.0
  0
LINE
  5
9F
330
1F
100
AcDbEntity
  8
0
  6
Continuous
 62
     7
370
    25
100
AcDbLine
 10
2870.0
 20
2000.0
 30
0.0
 11
100.0
 21
2000.0
 31
0.0
  0
LINE
  5
A0
330
1F
100
AcDbEntity
  8
0
  6
Continuous
 62
     7
370
    18
100
AcDbLine
 10
2728.7989947508
 20
190.0000000002
 30
0.0
 11
2728.7989947508
 21
100.0
 31
0.0
  0
LINE
  5
A1
330
1F
100
AcDbEntity
  8
0
  6
Continuous
 62
     7
370
    25
100
AcDbLine
 10
100.0
 20
2000.0
 30
0.0
 11
100.0
 21
100.0
 31
0.0
  0
LINE
  5
A2
330
1F
100
AcDbEntity
  8
0
  6
Continuous
 62
     7
370
    25
100
AcDbLine
 10
2150.0
 20
370.0000000006
 30
0.0
 11
2870.0
 21
370.0000000006
 31
0.0
  0
LINE
  5
A3
330
1F
100
AcDbEntity
  8
0
  6
Continuous
 62
    19
370
    18
100
AcDbLine
 10
2795.2884126839
 20
160.2788043096
 30
0.0
 11
2763.4182663121
 21
154.0818314039
 31
0.0
  0
LINE
  5
A4
330
1F
100
AcDbEntity
  8
0
  6
Continuous
 62
    19
370
    18
100
AcDbLine
 10
2821.3505851521
 20
165.4881573907
 30
0.0
 11
2821.3505851521
 21
124.881030118
 31
0.0
  0
LINE
  5
A5
330
1F
100
AcDbEntity
  8
0
  6
Continuous
 62
    19
370
    18
100
AcDbLine
 10
2795.2884126839
 20
160.2788043096
 30
0.0
 11
2795.2884126839
 21
130.0903831992
 31
0.0
  0
LINE
  5
A6
330
1F
100
AcDbEntity
  8
0
  6
Continuous
 62
     7
370
    25
100
AcDbLine
 10
100.0
 20
100.0
 30
0.0
 11
2870.0
 21
100.0
 31
0.0
  0
LINE
  5
A7
330
1F
100
AcDbEntity
  8
0
  6
Continuous
 62
    19
370
    18
100
AcDbLine
 10
2763.4182663121
 20
154.0818314039
 30
0.0
 11
2763.4182663121
 21
136.2873561048
 31
0.0
  0
LINE
  5
A8
330
1F
100
AcDbEntity
  8
0
  6
Continuous
 62
   179
370
    18
100
AcDbLine
 10
2546.1184624631
 20
304.8670971919
 30
0.0
 11
2576.8191555592
 21
304.8670971919
 31
0.0
  0
LINE
  5
A9
330
1F
100
AcDbEntity
  8
0
  6
Continuous
 62
    19
370
    18
100
AcDbLine
 10
2795.2884126839
 20
130.0903831992
 30
0.0
 11
2763.4182663121
 21
136.2873561048
 31
0.0
  0
LINE
  5
AA
330
1F
100
AcDbEntity
  8
0
  6
CENTERX2
 62
    19
370
    18
100
AcDbLine
 10
2838.9207124248
 20
145.1845937544
 30
0.0
 11
2759.4518690643
 21
145.1845937544
 31
0.0
  0
LINE
  5
AB
330
1F
100
AcDbEntity
  8
0
  6
Continuous
 62
   179
370
    18
100
AcDbLine
 10
2504.5822306294
 20
344.5974059005
 30
0.0
 11
2542.0192583058
 21
344.5974059005
 31
0.0
  0
LINE
  5
AC
330
1F
100
AcDbEntity
  8
0
  6
Continuous
 62
   179
370
    18
100
AcDbLine
 10
2381.7794582538
 20
344.5974058975
 30
0.0
 11
2381.7794582538
 21
304.8670971899
 31
0.0
  0
LINE
  5
AD
330
1F
100
AcDbEntity
  8
0
  6
Continuous
 62
   179
370
    18
100
AcDbLine
 10
2584.0428480525
 20
344.5974058996
 30
0.0
 11
2602.1020792839
 21
344.5974058996
 31
0.0
  0
LINE
  5
AE
330
1F
100
AcDbEntity
  8
0
  6
Continuous
 62
   179
370
    18
100
AcDbLine
 10
2584.0428480525
 20
344.5974058996
 30
0.0
 11
2560.7076448779
 21
307.9278009142
 31
0.0
  0
LINE
  5
AF
330
1F
100
AcDbEntity
  8
0
  6
Continuous
 62
   179
370
    18
100
AcDbLine
 10
2576.8191555592
 20
304.8670971919
 30
0.0
 11
2580.8824825864
 21
312.0907896817
 31
0.0
  0
LINE
  5
B0
330
1F
100
AcDbEntity
  8
0
  6
Continuous
 62
   179
370
    18
100
AcDbLine
 10
2593.0724636674
 20
333.7618671594
 30
0.0
 11
2601.1991177219
 21
319.3144821729
 31
0.0
  0
LINE
  5
B1
330
1F
100
AcDbEntity
  8
0
  6
Continuous
 62
   179
370
    18
100
AcDbLine
 10
2584.9458096129
 20
319.3144821729
 30
0.0
 11
2593.0724636674
 21
333.7618671594
 31
0.0
  0
LINE
  5
B2
330
1F
100
AcDbEntity
  8
0
  6
Continuous
 62
   179
370
    18
100
AcDbLine
 10
2584.9458096129
 20
319.3144821729
 30
0.0
 11
2601.1991177219
 21
319.3144821729
 31
0.0
  0
LINE
  5
B3
330
1F
100
AcDbEntity
  8
0
  6
Continuous
 62
   179
370
    18
100
AcDbLine
 10
2580.8824825864
 20
312.0907896817
 30
0.0
 11
2605.26244475
 21
312.0907896817
 31
0.0
  0
LINE
  5
B4
330
1F
100
AcDbEntity
  8
0
  6
Continuous
 62
   179
370
    18
100
AcDbLine
 10
2605.26244475
 20
312.0907896817
 30
0.0
 11
2609.3257717771
 21
304.8670971919
 31
0.0
  0
LINE
  5
B5
330
1F
100
AcDbEntity
  8
0
  6
Continuous
 62
   179
370
    18
100
AcDbLine
 10
2627.3850030087
 20
344.5974058996
 30
0.0
 11
2627.3850030087
 21
304.8670971919
 31
0.0
  0
LINE
  5
B6
330
1F
100
AcDbEntity
  8
0
  6
Continuous
 62
   179
370
    18
100
AcDbLine
 10
2602.1020792839
 20
344.5974058996
 30
0.0
 11
2627.3850030087
 21
304.8670971919
 31
0.0
  0
LINE
  5
B7
330
1F
100
AcDbEntity
  8
0
  6
Continuous
 62
   179
370
    18
100
AcDbLine
 10
2609.3257717771
 20
304.8670971919
 30
0.0
 11
2627.3850030087
 21
304.8670971919
 31
0.0
  0
LINE
  5
B8
330
1F
100
AcDbEntity
  8
0
  6
Continuous
 62
   179
370
    18
100
AcDbLine
 10
2627.3850030087
 20
304.8670971919
 30
0.0
 11
2676.1449273357
 21
304.8670971919
 31
0.0
  0
LINE
  5
B9
330
1F
100
AcDbEntity
  8
0
  6
Continuous
 62
   179
370
    18
100
AcDbLine
 10
2676.1449273357
 20
304.8670971919
 30
0.0
 11
2676.1449273357
 21
313.8967128076
 31
0.0
  0
LINE
  5
BA
330
1F
100
AcDbEntity
  8
0
  6
Continuous
 62
   179
370
    18
100
AcDbLine
 10
2676.1449273357
 20
313.8967128076
 30
0.0
 11
2645.44423424
 21
313.8967128076
 31
0.0
  0
LINE
  5
BB
330
1F
100
AcDbEntity
  8
0
  6
Continuous
 62
   179
370
    18
100
AcDbLine
 10
2645.44423424
 20
313.8967128076
 30
0.0
 11
2645.44423424
 21
344.5974058996
 31
0.0
  0
LINE
  5
BC
330
1F
100
AcDbEntity
  8
0
  6
Continuous
 62
   179
370
    18
100
AcDbLine
 10
2627.3850030087
 20
344.5974058996
 30
0.0
 11
2645.44423424
 21
344.5974058996
 31
0.0
  0
LINE
  5
BD
330
1F
100
AcDbEntity
  8
0
  6
Continuous
 62
   179
370
    18
100
AcDbLine
 10
2677.9508504573
 20
344.5974058992
 30
0.0
 11
2677.9508504573
 21
304.8670971915
 31
0.0
  0
LINE
  5
BE
330
1F
100
AcDbEntity
  8
0
  6
Continuous
 62
   179
370
    18
100
AcDbLine
 10
2696.0100816887
 20
344.5974058992
 30
0.0
 11
2696.0100816887
 21
304.8670971915
 31
0.0
  0
LINE
  5
BF
330
1F
100
AcDbEntity
  8
0
  6
Continuous
 62
   179
370
    18
100
AcDbLine
 10
2677.9508504573
 20
344.5974058992
 30
0.0
 11
2696.0100816887
 21
344.5974058992
 31
0.0
  0
LINE
  5
C0
330
1F
100
AcDbEntity
  8
0
  6
Continuous
 62
   179
370
    18
100
AcDbLine
 10
2677.9508504573
 20
304.8670971915
 30
0.0
 11
2696.0100816887
 21
304.8670971915
 31
0.0
  0
LINE
  5
C1
330
1F
100
AcDbEntity
  8
0
  6
Continuous
 62
   179
370
    18
100
AcDbLine
 10
2704.1151644241
 20
341.2930554229
 30
0.0
 11
2708.2866879839
 21
341.2930554229
 31
0.0
  0
LINE
  5
C2
330
1F
100
AcDbEntity
  8
0
  6
Continuous
 62
   179
370
    18
100
AcDbLine
 10
2708.2866879839
 20
338.5841707372
 30
0.0
 11
2704.1151644241
 21
338.5841707372
 31
0.0
  0
LINE
  5
C3
330
1F
100
AcDbEntity
  8
0
  6
Continuous
 62
   179
370
    18
100
AcDbLine
 10
2704.1151644241
 20
338.5841707372
 30
0.0
 11
2704.1151644241
 21
341.2930554229
 31
0.0
  0
LINE
  5
C4
330
1F
100
AcDbEntity
  8
0
  6
Continuous
 62
   179
370
    18
100
AcDbLine
 10
2704.1151644241
 20
338.5841707372
 30
0.0
 11
2706.8240491077
 21
338.5841707372
 31
0.0
  0
LINE
  5
C5
330
1F
100
AcDbEntity
  8
0
  6
Continuous
 62
   179
370
    18
100
AcDbLine
 10
2704.1151644241
 20
338.5841707372
 30
0.0
 11
2704.1151644241
 21
334.5208437117
 31
0.0
  0
LINE
  5
C6
330
1F
100
AcDbEntity
  8
0
  6
Continuous
 62
   179
370
    18
100
AcDbLine
 10
2709.5329337914
 20
334.5208437117
 30
0.0
 11
2706.8240491077
 21
338.5841707372
 31
0.0
  0
LINE
  5
C7
330
1F
100
AcDbEntity
  8
0
  6
Continuous
 62
     7
370
    18
100
AcDbLine
 10
2150.0
 20
190.0000000002
 30
0.0
 11
2870.0
 21
190.0000000002
 31
0.0
  0
LINE
  5
C8
330
1F
100
AcDbEntity
  8
0
  6
Continuous
 62
     7
370
    18
100
AcDbLine
 10
2870.0
 20
280.0000000004
 30
0.0
 11
2150.0
 21
280.0000000004
 31
0.0
  0
LINE
  5
C9
330
1F
100
AcDbEntity
  8
0
  6
Continuous
 62
     7
370
    18
100
AcDbLine
 10
100.0
 20
550.0
 30
0.0
 11
100.0
 21
650.0
 31
0.0
  0
LINE
  5
CA
330
1F
100
AcDbEntity
  8
0
  6
Continuous
 62
     7
370
    18
100
AcDbLine
 10
100.0
 20
650.0
 30
0.0
 11
100.0
 21
750.0
 31
0.0
  0
LINE
  5
CB
330
1F
100
AcDbEntity
  8
0
  6
Continuous
 62
     7
370
    18
100
AcDbLine
 10
100.0
 20
750.0
 30
0.0
 11
100.0
 21
850.0
 31
0.0
  0
LINE
  5
CC
330
1F
100
AcDbEntity
  8
0
  6
Continuous
 62
     7
370
    18
100
AcDbLine
 10
100.0
 20
850.0
 30
0.0
 11
100.0
 21
950.0
 31
0.0
  0
LINE
  5
CD
330
1F
100
AcDbEntity
  8
0
  6
Continuous
 62
     7
370
    18
100
AcDbLine
 10
100.0
 20
950.0
 30
0.0
 11
100.0
 21
1050.0
 31
0.0
  0
LINE
  5
CE
330
1F
100
AcDbEntity
  8
0
  6
Continuous
 62
     7
370
    18
100
AcDbLine
 10
100.0
 20
1050.0
 30
0.0
 11
100.0
 21
1150.0
 31
0.0
  0
LINE
  5
CF
330
1F
100
AcDbEntity
  8
0
  6
Continuous
 62
     7
370
    18
100
AcDbLine
 10
100.0
 20
1150.0
 30
0.0
 11
100.0
 21
1250.0
 31
0.0
  0
LINE
  5
D0
330
1F
100
AcDbEntity
  8
0
  6
Continuous
 62
     7
370
    18
100
AcDbLine
 10
100.0
 20
1250.0
 30
0.0
 11
100.0
 21
1350.0
 31
0.0
  0
LINE
  5
D1
330
1F
100
AcDbEntity
  8
0
  6
Continuous
 62
     7
370
    18
100
AcDbLine
 10
100.0
 20
1350.0
 30
0.0
 11
100.0
 21
1450.0
 31
0.0
  0
LINE
  5
D2
330
1F
100
AcDbEntity
  8
0
  6
Continuous
 62
     7
370
    18
100
AcDbLine
 10
100.0
 20
1450.0
 30
0.0
 11
100.0
 21
1550.0
 31
0.0
  0
LINE
  5
D3
330
1F
100
AcDbEntity
  8
0
  6
Continuous
 62
     7
370
    25
100
AcDbLine
 10
2150.0
 20
370.0000000006
 30
0.0
 11
2150.0
 21
100.0
 31
0.0
  0
ARC
  5
D4
330
1F
100
AcDbEntity
  8
0
  6
Continuous
 62
   179
370
    18
100
AcDbCircle
 10
2352.923880981
 20
330.1500209155
 30
0.0
 40
7.223692490816169
100
AcDbArc
 50
69.991210111
 51
90.0
  0
ARC
  5
D5
330
1F
100
AcDbEntity
  8
0
  6
Continuous
 62
   179
370
    18
100
AcDbCircle
 10
2352.9238809804
 20
333.7618671601
 30
0.0
 40
7.223692492544103
100
AcDbArc
 50
270.0
 51
290.0087898887
  0
ARC
  5
D6
330
1F
100
AcDbEntity
  8
0
  6
Continuous
 62
   179
370
    18
100
AcDbCircle
 10
2472.947172768
 20
324.7322515422
 30
0.0
 40
10.8355387405187
100
AcDbArc
 50
56.1685552524
 51
90.0
  0
ARC
  5
D7
330
1F
100
AcDbEntity
  8
0
  6
Continuous
 62
   179
370
    18
100
AcDbCircle
 10
2472.947172768
 20
324.7322515422
 30
0.0
 40
10.83553873998012
100
AcDbArc
 50
270.0
 51
303.830934914
  0
ARC
  5
D8
330
1F
100
AcDbEntity
  8
0
  6
Continuous
 62
   179
370
    18
100
AcDbCircle
 10
2538.8947699699
 20
312.0907896827
 30
0.0
 40
7.223692493244471
100
AcDbArc
 50
0.0
 51
90.0
  0
ARC
  5
D9
330
1F
100
AcDbEntity
  8
0
  6
Continuous
 62
   179
370
    18
100
AcDbCircle
 10
2538.4781724187
 20
331.9559440374
 30
0.0
 40
5.417769369443558
100
AcDbArc
 50
54.413089495
 51
90.0
  0
ARC
  5
DA
330
1F
100
AcDbEntity
  8
0
  6
Continuous
 62
   179
370
    18
100
AcDbCircle
 10
2538.4781724187
 20
331.9559440374
 30
0.0
 40
5.417769370214614
100
AcDbArc
 50
270.0
 51
305.5869104966
  0
ARC
  5
DB
330
1F
100
AcDbEntity
  8
0
  6
Continuous
 62
   179
370
    18
100
AcDbCircle
 10
2549.0375849296
 20
312.9627960708
 30
0.0
 40
9.997490267756625
100
AcDbArc
 50
10.4199484279
 51
80.7321727594
  0
ARC
  5
DC
330
1F
100
AcDbEntity
  8
0
  6
Continuous
 62
   179
370
    18
100
AcDbCircle
 10
2565.4535666376
 20
310.1143839674
 30
0.0
 40
5.225410873593643
100
AcDbArc
 50
192.6768785101
 51
204.7368873207
  0
CIRCLE
  5
DD
330
1F
100
AcDbEntity
  8
0
  6
Continuous
 62
   179
370
    18
100
AcDbCircle
 10
2706.2864208618
 20
337.8675697335
 30
0.0
 40
5.930102145230649
  0
CIRCLE
  5
DE
330
1F
100
AcDbEntity
  8
0
  6
Continuous
 62
    19
370
    18
100
AcDbCircle
 10
2821.3505851521
 20
145.1845937544
 30
0.0
 40
8.587078762764193
  0
CIRCLE
  5
DF
330
1F
100
AcDbEntity
  8
0
  6
Continuous
 62
    19
370
    18
100
AcDbCircle
 10
2821.3505851521
 20
145.1845937544
 30
0.0
 40
16.77593581663705
  0
ELLIPSE
  5
E0
330
1F
100
AcDbEntity
  8
0
  6
Continuous
 62
   179
370
    18
100
AcDbEllipse
 10
2350.175803597
 20
331.955944037
 30
0.0
 11
9.932577177642086
 21
0.0
 31
0.0
210
0.0
220
0.0
230
1.0
 40
0.5895245511
 41
5.265715075739357
 42
7.300655538615938
  0
ELLIPSE
  5
E1
330
1F
100
AcDbEntity
  8
0
  6
Continuous
 62
   179
370
    18
100
AcDbEllipse
 10
2462.1430372376
 20
324.7322515426
 30
0.0
 11
22.57403904004605
 21
0.0
 31
0.0
210
0.0
220
0.0
230
1.0
 40
0.5985848325
 41
5.554193105221712
 42
7.012172182744729
  0
ELLIPSE
  5
E2
330
1F
100
AcDbEntity
  8
0
  6
Continuous
 62
   179
370
    18
100
AcDbEllipse
 10
2532.5740390411
 20
331.955944037
 30
0.0
 11
11.73850030081758
 21
0.0
 31
0.0
210
0.0
220
0.0
230
1.0
 40
0.5900077182
 41
5.593675727225931
 42
6.97269488710657
  0
ELLIPSE
  5
E3
330
1F
100
AcDbEntity
  8
0
  6
Continuous
 62
   179
370
    18
100
AcDbEllipse
 10
2538.0299477069
 20
332.9364020823
 30
0.0
 11
24.3266662253518
 21
0.0
 31
0.0
210
0.0
220
0.0
230
1.0
 40
0.485929116
 41
5.257694056962849
 42
7.689248379254996
  0
ELLIPSE
  5
E4
330
1F
100
AcDbEntity
  8
0
  6
Continuous
 62
   179
370
    18
100
AcDbEllipse
 10
2468.4637681651
 20
324.7322515426
 30
0.0
 11
28.89476997115571
 21
0.0
 31
0.0
210
0.0
220
0.0
230
1.0
 40
0.6929224243
 41
4.837574201223028
 42
7.72879641314261
  0
ELLIPSE
  5
E5
330
1F
100
AcDbEntity
  8
0
  6
Continuous
 62
   179
370
    18
100
AcDbEllipse
 10
2351.0787651571
 20
331.955944037
 30
0.0
 11
27.0888468479834
 21
0.0
 31
0.0
210
0.0
220
0.0
230
1.0
 40
0.4768529109
 41
4.919453630382234
 42
7.646916983963972
  0
ELLIPSE
  5
E6
330
1F
100
AcDbEntity
  8
0
  6
Continuous
 62
   179
370
    18
100
AcDbEllipse
 10
2708.0427484413
 20
339.93861308
 30
0.0
 11
1.490185355941776
 21
0.0
 31
0.0
210
0.0
220
0.0
230
1.0
 40
0.9213369296
 41
4.876826485633947
 42
7.68954412872528
  0
MTEXT
  5
E8
330
1F
100
AcDbEntity
  8
0
  6
Continuous
 62
     7
370
     0
100
AcDbMText
 10
2231.444945447
 20
165.6379924371
 30
0.0
 40
37.0416666667
 41
0.0
 71
     1
 72
     1
  1
2832
  7
SLDTEXTSTYLE0
 73
     1
 44
1.0
  0
MTEXT
  5
E9
330
1F
100
AcDbEntity
  8
0
  6
Continuous
 62
     7
370
     0
100
AcDbMText
 10
2158.8845987823
 20
146.3871334973
 30
0.0
 40
18.0
 41
0.0
 71
     1
 72
     1
  1
COD.
  7
SLDTEXTSTYLE0
 73
     1
 44
1.0
  0
MTEXT
  5
EA
330
1F
100
AcDbEntity
  8
0
  6
Continuous
 62
     7
370
     0
100
AcDbMText
 10
107.0855178468
 20
74.7215172182
 30
0.0
 40
18.0
 41
0.0
 71
     1
 72
     1
  1
This document is the property of PEDRALI S.p.A. who willsafeguard its rights according to the civil and penal prevision of the Law.
  7
SLDTEXTSTYLE0
 73
     1
 44
1.0
  0
MTEXT
  5
EB
330
1F
100
AcDbEntity
  8
0
  6
Continuous
 62
     7
370
     0
100
AcDbMText
 10
1440.8605986612
 20
76.7845591915
 30
0.0
 40
18.0
 41
0.0
 71
     1
 72
     1
  1
Questo disegno è posto sotto la tutela delle vigenti Leggi e non puo essere utilizzato da terze persone se non previa autorizzazione scritta della PEDRALI S.p.A.
  7
SLDTEXTSTYLE0
 73
     1
 44
1.0
  0
MTEXT
  5
EC
330
1F
100
AcDbEntity
  8
0
  6
Continuous
 62
     7
370
     0
100
AcDbMText
 10
2158.8845987823
 20
234.3102099637
 30
0.0
 40
18.0
 41
0.0
 71
     1
 72
     1
  1
SERIE:
  7
SLDTEXTSTYLE0
 73
     1
 44
1.0
  0
MTEXT
  5
ED
330
1F
100
AcDbEntity
  8
0
  6
Continuous
 62
     7
370
     0
100
AcDbMText
 10
2231.444945447
 20
253.5610689035
 30
0.0
 40
37.0416666667
 41
0.0
 71
     1
 72
     1
  1
NYM
  7
SLDTEXTSTYLE0
 73
     1
 44
1.0
  0
INSERT
  5
F3
330
1F
100
AcDbEntity
  8
0
  6
Continuous
 62
     7
370
     0
100
AcDbBlockReference
  2
SW_NOTE_0
 10
2766.9883061954
 20
242.6632128381
 30
0.0
  0
ARC
  5
F4
330
1F
100
AcDbEntity
  8
0
  6
Continuous
 62
     7
370
    25
100
AcDbCircle
 10
1312.5016613908
 20
1045.4260444095
 30
0.0
 40
4.000000000000113
100
AcDbArc
 50
176.6825135471
 51
250.412614691
  0
ARC
  5
F5
330
1F
100
AcDbEntity
  8
0
  6
Continuous
 62
     7
370
    25
100
AcDbCircle
 10
1324.5197081842
 20
1045.4260444095
 30
0.0
 40
4.000000000000202
100
AcDbArc
 50
289.587385309
 51
3.3174864529
  0
ARC
  5
F6
330
1F
100
AcDbEntity
  8
0
  6
Continuous
 62
     7
370
    25
100
AcDbCircle
 10
898.8662477123
 20
1043.4073067782
 30
0.0
 40
4.000000000000099
100
AcDbArc
 50
176.6825135471
 51
250.412614691
  0
ARC
  5
F7
330
1F
100
AcDbEntity
  8
0
  6
Continuous
 62
     7
370
    25
100
AcDbCircle
 10
910.8842945057
 20
1043.4073067782
 30
0.0
 40
4.000000000000128
100
AcDbArc
 50
289.587385309
 51
3.3174864529
  0
ARC
  5
F8
330
1F
100
AcDbEntity
  8
0
  6
Continuous
 62
     7
370
    25
100
AcDbCircle
 10
1337.1432898805
 20
1043.4073067732
 30
0.0
 40
3.999999999999974
100
AcDbArc
 50
176.6825135471
 51
250.412614691
  0
ARC
  5
F9
330
1F
100
AcDbEntity
  8
0
  6
Continuous
 62
     7
370
    25
100
AcDbCircle
 10
1349.161336674
 20
1043.4073067732
 30
0.0
 40
3.999999999999974
100
AcDbArc
 50
289.587385309
 51
3.3174864529
  0
ARC
  5
FA
330
1F
100
AcDbEntity
  8
0
  6
Continuous
 62
     7
370
    25
100
AcDbCircle
 10
923.5078762018
 20
1045.4260444145
 30
0.0
 40
4.000000000000075
100
AcDbArc
 50
176.6825135471
 51
250.412614691
  0
ARC
  5
FB
330
1F
100
AcDbEntity
  8
0
  6
Continuous
 62
     7
370
    25
100
AcDbCircle
 10
935.5259229953
 20
1045.4260444145
 30
0.0
 40
4.000000000000113
100
AcDbArc
 50
289.587385309
 51
3.3174864529
  0
LINE
  5
FC
330
1F
100
AcDbEntity
  8
0
  6
Continuous
 62
     7
370
    25
100
AcDbLine
 10
897.525271109
 20
1039.6387816357
 30
0.0
 11
897.525271109
 21
1036.1387816357
 31
0.0
  0
LINE
  5
FD
330
1F
100
AcDbEntity
  8
0
  6
Continuous
 62
     7
370
    25
100
AcDbLine
 10
912.225271109
 20
1036.1387816357
 30
0.0
 11
912.225271109
 21
1039.6387816357
 31
0.0
  0
ARC
  5
FE
330
1F
100
AcDbEntity
  8
0
  6
Continuous
 62
     7
370
    25
100
AcDbCircle
 10
904.875271109
 20
1062.6500316357
 30
0.0
 40
27.51125000000006
100
AcDbArc
 50
254.5044559278
 51
285.4955440722
  0
LINE
  5
FF
330
1F
100
AcDbEntity
  8
0
  6
Continuous
 62
     7
370
    25
100
AcDbLine
 10
1335.8023132772
 20
1039.6387816307
 30
0.0
 11
1335.8023132772
 21
1036.1387816307
 31
0.0
  0
LINE
  5
100
330
1F
100
AcDbEntity
  8
0
  6
Continuous
 62
     7
370
    25
100
AcDbLine
 10
1350.5023132772
 20
1036.1387816307
 30
0.0
 11
1350.5023132772
 21
1039.6387816307
 31
0.0
  0
ARC
  5
101
330
1F
100
AcDbEntity
  8
0
  6
Continuous
 62
     7
370
    25
100
AcDbCircle
 10
1343.1523132772
 20
1062.6500316307
 30
0.0
 40
27.51124999999983
100
AcDbArc
 50
254.5044559278
 51
285.4955440722
  0
LINE
  5
102
330
1F
100
AcDbEntity
  8
0
  6
Continuous
 62
     7
370
    25
100
AcDbLine
 10
1311.1606847875
 20
1041.657519267
 30
0.0
 11
1311.1606847875
 21
1038.157519267
 31
0.0
  0
LINE
  5
103
330
1F
100
AcDbEntity
  8
0
  6
Continuous
 62
     7
370
    25
100
AcDbLine
 10
1325.8606847875
 20
1038.157519267
 30
0.0
 11
1325.8606847875
 21
1041.657519267
 31
0.0
  0
ARC
  5
104
330
1F
100
AcDbEntity
  8
0
  6
Continuous
 62
     7
370
    25
100
AcDbCircle
 10
1318.5106847875
 20
1064.668769267
 30
0.0
 40
27.51125000000005
100
AcDbArc
 50
254.5044559278
 51
285.4955440722
  0
LINE
  5
105
330
1F
100
AcDbEntity
  8
0
  6
Continuous
 62
     7
370
    25
100
AcDbLine
 10
922.1668995986
 20
1041.657519272
 30
0.0
 11
922.1668995986
 21
1038.157519272
 31
0.0
  0
LINE
  5
106
330
1F
100
AcDbEntity
  8
0
  6
Continuous
 62
     7
370
    25
100
AcDbLine
 10
936.8668995986
 20
1038.157519272
 30
0.0
 11
936.8668995986
 21
1041.657519272
 31
0.0
  0
ARC
  5
107
330
1F
100
AcDbEntity
  8
0
  6
Continuous
 62
     7
370
    25
100
AcDbCircle
 10
929.5168995986
 20
1064.668769272
 30
0.0
 40
27.51125000000003
100
AcDbArc
 50
254.5044559278
 51
285.4955440722
  0
SPLINE
  5
108
330
1F
100
AcDbEntity
  8
0
  6
Continuous
 62
     7
370
    25
100
AcDbSpline
210
0.0
220
0.0
230
1.0
 70
     8
 71
     3
 72
    30
 73
    26
 74
     0
 42
0.000000001
 43
0.00000001
 40
0.0
 40
0.0
 40
0.0
 40
0.0
 40
0.0278117631918421
 40
0.0650501651230371
 40
0.1033347915094549
 40
0.1426698843725583
 40
0.183059271177739
 40
0.2245064061526432
 40
0.2645567684965425
 40
0.3055526754772179
 40
0.3474965458240956
 40
0.3903906629932857
 40
0.4342371812813992
 40
0.4749258593952416
 40
0.5164048132929422
 40
0.5586754720122231
 40
0.6017392313182676
 40
0.6455974667210993
 40
0.6902515466617392
 40
0.7357028462898343
 40
0.7866217110646876
 40
0.8385088122422965
 40
0.8913661396873789
 40
0.9451957906203866
 40
0.9999999999999999
 40
0.9999999999999999
 40
0.9999999999999999
 40
0.9999999999999999
 10
1298.885524284973
 20
1501.457152922884
 30
0.0
 10
1297.28455795091
 20
1501.606795952851
 30
0.0
 10
1293.539986861733
 20
1501.95680266554
 30
0.0
 10
1287.57545551854
 20
1502.495780613382
 30
0.0
 10
1280.935483264309
 20
1503.079980592261
 30
0.0
 10
1274.101748570561
 20
1503.661164439696
 30
0.0
 10
1267.074839499279
 20
1504.237465043276
 30
0.0
 10
1259.997257614931
 20
1504.794908608711
 30
0.0
 10
1252.876484303671
 20
1505.332003934328
 30
0.0
 10
1245.71981527615
 20
1505.847393561337
 30
0.0
 10
1238.391213716825
 20
1506.348921292962
 30
0.0
 10
1230.890655801999
 20
1506.834074737531
 30
0.0
 10
1223.457985408908
 20
1507.285671427244
 30
0.0
 10
1216.103420004079
 20
1507.703783685457
 30
0.0
 10
1208.83706117435
 20
1508.088758764785
 30
0.0
 10
1201.428582864869
 20
1508.451500623797
 30
0.0
 10
1193.878001460491
 20
1508.789737697831
 30
0.0
 10
1186.185342049836
 20
1509.101115908789
 30
0.0
 10
1178.350637162651
 20
1509.383184833294
 30
0.0
 10
1170.100799185054
 20
1509.641994912328
 30
0.0
 10
1161.425812433311
 20
1509.870349287117
 30
0.0
 10
1152.315761719549
 20
1510.060544576199
 30
0.0
 10
1143.034129106379
 20
1510.200442879148
 30
0.0
 10
1133.580993746551
 20
1510.291378073465
 30
0.0
 10
1127.221875340623
 20
1510.302874589807
 30
0.0
 10
1124.013792192464
 20
1510.308674415818
 30
0.0
  0
SPLINE
  5
109
330
1F
100
AcDbEntity
  8
0
  6
Continuous
 62
     7
370
    25
100
AcDbSpline
210
0.0
220
0.0
230
1.0
 70
     8
 71
     3
 72
    30
 73
    26
 74
     0
 42
0.000000001
 43
0.00000001
 40
0.0
 40
0.0
 40
0.0
 40
0.0
 40
0.0468532612198681
 40
0.0931002165441807
 40
0.1387479435094303
 40
0.1838036670414783
 40
0.2282747837173176
 40
0.2721688842287599
 40
0.3154937741772595
 40
0.3625032315295288
 40
0.408844729015795
 40
0.454529716312595
 40
0.4995700628929314
 40
0.5439780801756393
 40
0.5904006879873794
 40
0.6361422011872638
 40
0.6812190823214958
 40
0.7256484453787369
 40
0.7694480628117509
 40
0.8126362287121685
 40
0.8528135155368113
 40
0.8924804707558792
 40
0.9316541420489008
 40
0.9703521864667951
 40
1.0
 40
1.0
 40
1.0
 40
1.0
 10
1124.013792192782
 20
1510.308674415818
 30
0.0
 10
1121.273145390858
 20
1510.304346273951
 30
0.0
 10
1115.827317201163
 20
1510.295745998654
 30
0.0
 10
1107.69933180093
 20
1510.227681154279
 30
0.0
 10
1099.669305297643
 20
1510.122215376351
 30
0.0
 10
1091.736398201126
 20
1509.977698150569
 30
0.0
 10
1083.900928267231
 20
1509.79740159806
 30
0.0
 10
1076.162897677635
 20
1509.583158377652
 30
0.0
 10
1068.272824543917
 20
1509.329005090724
 30
0.0
 10
1060.237328887108
 20
1509.033136740834
 30
0.0
 10
1052.063412173844
 20
1508.693958063376
 30
0.0
 10
1044.007667556283
 20
1508.323207802751
 30
0.0
 10
1036.070143224523
 20
1507.923077496328
 30
0.0
 10
1028.096297215166
 20
1507.487219566902
 30
0.0
 10
1020.091173753723
 20
1507.015695031434
 30
0.0
 10
1012.060212900129
 20
1506.508742714811
 30
0.0
 10
1004.162365705988
 20
1505.978004335564
 30
0.0
 10
996.3976459845439
 20
1505.425718597676
 30
0.0
 10
988.7660858195288
 20
1504.854096829541
 30
0.0
 10
981.4075996046681
 20
1504.276343156195
 30
0.0
 10
974.3168216598907
 20
1503.695841184868
 30
0.0
 10
967.4872724455938
 20
1503.115788532557
 30
0.0
 10
960.7776372422533
 20
1502.525910323904
 30
0.0
 10
954.6693909438444
 20
1501.97397868769
 30
0.0
 10
950.8182973365591
 20
1501.613901474209
 30
0.0
 10
949.1477278449973
 20
1501.457703243579
 30
0.0
  0
SPLINE
  5
10A
330
1F
100
AcDbEntity
  8
0
  6
Continuous
 62
     7
370
    25
100
AcDbSpline
210
0.0
220
0.0
230
1.0
 70
     8
 71
     3
 72
   143
 73
   139
 74
     0
 42
0.000000001
 43
0.00000001
 40
0.0
 40
0.0
 40
0.0
 40
0.0
 40
0.006402333384662
 40
0.0120834056465568
 40
0.0170440888544558
 40
0.0212850937433425
 40
0.0251411703667858
 40
0.0296240781624905
 40
0.0344878999253877
 40
0.0399695985025931
 40
0.0460113466389788
 40
0.0514902581052864
 40
0.0559713402043757
 40
0.0642599259435131
 40
0.07436818200324
 40
0.0841432127626544
 40
0.0932389648077459
 40
0.1021910802598576
 40
0.1111835666661442
 40
0.120234764219092
 40
0.1289930855861236
 40
0.1374264948099262
 40
0.1461106697197136
 40
0.1554189135962372
 40
0.1670149357336863
 40
0.1792547604266111
 40
0.1917581433905115
 40
0.2041210183058512
 40
0.2163782776501804
 40
0.2285435805924552
 40
0.2568060099553565
 40
0.2842795503637719
 40
0.3046446681175367
 40
0.3245792219858434
 40
0.3437936096665322
 40
0.3622603948957046
 40
0.3800743921231636
 40
0.3973758933907657
 40
0.4024732091365907
 40
0.4075851752670798
 40
0.4133996199141816
 40
0.4203618454340162
 40
0.4284703200664975
 40
0.4367053391990124
 40
0.44398887619289
 40
0.4503127128290548
 40
0.4558197871269141
 40
0.466066107728243
 40
0.4754326283395007
 40
0.4791405768650324
 40
0.4837575542106062
 40
0.4893309148411759
 40
0.4958592454171645
 40
0.5013789283571455
 40
0.5069772866937556
 40
0.5119963690363355
 40
0.5164317235509241
 40
0.5202839446897067
 40
0.5235534563289733
 40
0.5262405560683757
 40
0.5329741429380316
 40
0.5404194428316724
 40
0.5444941778572701
 40
0.5487555905414034
 40
0.5534393662333954
 40
0.5587967949559145
 40
0.5648282158039696
 40
0.5715330068603364
 40
0.5783119740815453
 40
0.5869990558931377
 40
0.594747901875677
 40
0.6015591859417078
 40
0.6075499492680538
 40
0.6133537514106364
 40
0.6244886120637986
 40
0.6352707384879537
 40
0.6420553304007602
 40
0.6489478876740544
 40
0.6559510202593622
 40
0.663248089953312
 40
0.6684053108514023
 40
0.674054899278495
 40
0.6801974881134145
 40
0.6868340856896528
 40
0.6937793988359061
 40
0.7018654472758803
 40
0.7089435996486098
 40
0.7150130797280979
 40
0.7201229587960902
 40
0.7251832010573485
 40
0.7305319341245814
 40
0.7361694809459466
 40
0.7403396847185374
 40
0.744734836777273
 40
0.7495886357702121
 40
0.7549168205547401
 40
0.760719943290742
 40
0.766998477588327
 40
0.7733774179394167
 40
0.7790896657065164
 40
0.7843347539977208
 40
0.7888241048733825
 40
0.7925584255761369
 40
0.7960996901836805
 40
0.8000999236570583
 40
0.8045610750102646
 40
0.8105240747220085
 40
0.8171533825108849
 40
0.8244503056452203
 40
0.8324162527533562
 40
0.8404114207739717
 40
0.8473235026701499
 40
0.8532940701448206
 40
0.8583261184424323
 40
0.8626013369014123
 40
0.8697599581865397
 40
0.8768048753061981
 40
0.8841654029921538
 40
0.8926107635821552
 40
0.9021762608013414
 40
0.9128846246917525
 40
0.918657457984054
 40
0.9240981381579184
 40
0.9289110373252095
 40
0.9330942230781792
 40
0.9366466205157624
 40
0.9395687703832257
 40
0.9409156268749063
 40
0.9428571988982705
 40
0.9454886409260803
 40
0.9488162748047936
 40
0.9528480103531812
 40
0.957593791250778
 40
0.9642487888007604
 40
0.9719766041145479
 40
0.9808106045106342
 40
0.9907921069853437
 40
1.0
 40
1.0
 40
1.0
 40
1.0
 10
1321.018510394171
 20
1441.441867067419
 30
0.0
 10
1321.133970948533
 20
1441.463418824454
 30
0.0
 10
1321.351884735695
 20
1441.504094404278
 30
0.0
 10
1321.654790998946
 20
1441.561510389928
 30
0.0
 10
1321.916998895852
 20
1441.611697173624
 30
0.0
 10
1322.145219883036
 20
1441.655791685421
 30
0.0
 10
1322.363970421897
 20
1441.6983987827
 30
0.0
 10
1322.592520402765
 20
1441.743291601613
 30
0.0
 10
1322.847360912031
 20
1441.793825227208
 30
0.0
 10
1323.126540502837
 20
1441.849773507035
 30
0.0
 10
1323.413263822653
 20
1441.907908853561
 30
0.0
 10
1323.680349412982
 20
1441.962688217331
 30
0.0
 10
1323.982384833481
 20
1442.025254977083
 30
0.0
 10
1324.358135482442
 20
1442.104090355804
 30
0.0
 10
1324.814632014516
 20
1442.201641424761
 30
0.0
 10
1325.275097239127
 20
1442.301997676165
 30
0.0
 10
1325.709964179431
 20
1442.398511551671
 30
0.0
 10
1326.126918932386
 20
1442.492663886097
 30
0.0
 10
1326.538661310268
 20
1442.587244650068
 30
0.0
 10
1326.943121544584
 20
1442.681761874241
 30
0.0
 10
1327.334050181234
 20
1442.774668493563
 30
0.0
 10
1327.715113345392
 20
1442.866702317804
 30
0.0
 10
1328.09993867838
 20
1442.961137517938
 30
0.0
 10
1328.525674802524
 20
1443.067361249648
 30
0.0
 10
1328.996196852201
 20
1443.187015007341
 30
0.0
 10
1329.505752840958
 20
1443.319432470089
 30
0.0
 10
1330.018882941063
 20
1443.455800253192
 30
0.0
 10
1330.525691947038
 20
1443.593538678947
 30
0.0
 10
1331.020964202536
 20
1443.731139892305
 30
0.0
 10
1331.720814175932
 20
1443.929843300499
 30
0.0
 10
1332.603212218988
 20
1444.189420035754
 30
0.0
 10
1333.570388046946
 20
1444.488071447003
 30
0.0
 10
1334.413799934259
 20
1444.759551365901
 30
0.0
 10
1335.142047802036
 20
1445.002199526238
 30
0.0
 10
1335.843541526624
 20
1445.243967334313
 30
0.0
 10
1336.517271699996
 20
1445.484046614506
 30
0.0
 10
1337.165046968811
 20
1445.722522287293
 30
0.0
 10
1337.650596267255
 20
1445.907128109556
 30
0.0
 10
1337.977590271767
 20
1446.034047895006
 30
0.0
 10
1338.167049899328
 20
1446.108270519028
 30
0.0
 10
1338.37547840308
 20
1446.190733209515
 30
0.0
 10
1338.61513408166
 20
1446.286627927514
 30
0.0
 10
1338.8787466719
 20
1446.393499822371
 30
0.0
 10
1339.142986783199
 20
1446.502131614038
 30
0.0
 10
1339.38610220871
 20
1446.603398617498
 30
0.0
 10
1339.597952820744
 20
1446.692656030021
 30
0.0
 10
1339.842389435172
 20
1446.796669376007
 30
0.0
 10
1340.113503388316
 20
1446.913561741184
 30
0.0
 10
1340.35628378988
 20
1447.019882630987
 30
0.0
 10
1340.535618268203
 20
1447.099198527531
 30
0.0
 10
1340.677847239898
 20
1447.162497532705
 30
0.0
 10
1340.848653205118
 20
1447.239106962122
 30
0.0
 10
1341.028254433528
 20
1447.320408958697
 30
0.0
 10
1341.207299740631
 20
1447.402212809516
 30
0.0
 10
1341.370271713627
 20
1447.477312569011
 30
0.0
 10
1341.521727422868
 20
1447.547679510622
 30
0.0
 10
1341.655282768809
 20
1447.610185475154
 30
0.0
 10
1341.771211742343
 20
1447.664792591793
 30
0.0
 10
1341.869670323807
 20
1447.711428845645
 30
0.0
 10
1341.997909547798
 20
1447.772456231103
 30
0.0
 10
1342.168790254808
 20
1447.85438838911
 30
0.0
 10
1342.350976249989
 20
1447.942733451068
 30
0.0
 10
1342.50742898845
 20
1448.019293977556
 30
0.0
 10
1342.635410570188
 20
1448.082336393283
 30
0.0
 10
1342.776382933606
 20
1448.152269699327
 30
0.0
 10
1342.936199049599
 20
1448.232191588061
 30
0.0
 10
1343.116437537149
 20
1448.323163606563
 30
0.0
 10
1343.310874473722
 20
1448.422329265524
 30
0.0
 10
1343.531100992589
 20
1448.535902432362
 30
0.0
 10
1343.761009145217
 20
1448.655994882304
 30
0.0
 10
1343.991226921637
 20
1448.777914479968
 30
0.0
 10
1344.195369314353
 20
1448.887366451341
 30
0.0
 10
1344.382039862277
 20
1448.988564881569
 30
0.0
 10
1344.612559176394
 20
1449.114837422916
 30
0.0
 10
1344.892508802766
 20
1449.270504343815
 30
0.0
 10
1345.183907570068
 20
1449.435807601827
 30
0.0
 10
1345.434919369371
 20
1449.580573632724
 30
0.0
 10
1345.650640037578
 20
1449.706640350508
 30
0.0
 10
1345.874390634115
 20
1449.839225339178
 30
0.0
 10
1346.082306376838
 20
1449.964229520004
 30
0.0
 10
1346.281606691109
 20
1450.085654514692
 30
0.0
 10
1346.470469059455
 20
1450.202092362518
 30
0.0
 10
1346.677713236473
 20
1450.331557039372
 30
0.0
 10
1346.900705885263
 20
1450.472903824831
 30
0.0
 10
1347.146124133225
 20
1450.63093110795
 30
0.0
 10
1347.397030151929
 20
1450.795362145501
 30
0.0
 10
1347.640052875006
 20
1450.95754479516
 30
0.0
 10
1347.852013788716
 20
1451.101294597745
 30
0.0
 10
1348.046078450833
 20
1451.234789423604
 30
0.0
 10
1348.237375260453
 20
1451.368169944356
 30
0.0
 10
1348.439231620714
 20
1451.51094544767
 30
0.0
 10
1348.633263832827
 20
1451.650343031924
 30
0.0
 10
1348.816933745068
 20
1451.784206088318
 30
0.0
 10
1348.992545935444
 20
1451.913823344399
 30
0.0
 10
1349.190733382314
 20
1452.062195995887
 30
0.0
 10
1349.412578614448
 20
1452.231027179685
 30
0.0
 10
1349.658061018725
 20
1452.421319905579
 30
0.0
 10
1349.920963342374
 20
1452.629352341918
 30
0.0
 10
1350.18379452344
 20
1452.841957386046
 30
0.0
 10
1350.433818969182
 20
1453.048590538206
 30
0.0
 10
1350.659884158509
 20
1453.239193902052
 30
0.0
 10
1350.861600717679
 20
1453.412385787472
 30
0.0
 10
1351.044506870709
 20
1453.571957660417
 30
0.0
 10
1351.229504436786
 20
1453.73581603361
 30
0.0
 10
1351.431384421105
 20
1453.917605588278
 30
0.0
 10
1351.678357361182
 20
1454.144286276173
 30
0.0
 10
1351.973533894217
 20
1454.421844068196
 30
0.0
 10
1352.319094850279
 20
1454.756707285226
 30
0.0
 10
1352.698538668202
 20
1455.137158224523
 30
0.0
 10
1353.097942849191
 20
1455.553202587532
 30
0.0
 10
1353.487233134454
 20
1455.975489175192
 30
0.0
 10
1353.846179455962
 20
1456.380410371875
 30
0.0
 10
1354.15953828491
 20
1456.746681171723
 30
0.0
 10
1354.434716337856
 20
1457.078635679889
 30
0.0
 10
1354.747717285133
 20
1457.467364060507
 30
0.0
 10
1355.104672031197
 20
1457.927314559135
 30
0.0
 10
1355.530296592422
 20
1458.503108723329
 30
0.0
 10
1355.989822354864
 20
1459.158828381841
 30
0.0
 10
1356.499485420296
 20
1459.933061497251
 30
0.0
 10
1357.062857785372
 20
1460.855986366066
 30
0.0
 10
1357.552904452652
 20
1461.734122717628
 30
0.0
 10
1357.947181974894
 20
1462.497132631555
 30
0.0
 10
1358.226677065597
 20
1463.067984084533
 30
0.0
 10
1358.472080167179
 20
1463.595480972058
 30
0.0
 10
1358.681198061088
 20
1464.066371792552
 30
0.0
 10
1358.856866530504
 20
1464.478753721382
 30
0.0
 10
1358.985463684915
 20
1464.791782055475
 30
0.0
 10
1359.089270645094
 20
1465.050963251655
 30
0.0
 10
1359.189648913246
 20
1465.306710469068
 30
0.0
 10
1359.321455418305
 20
1465.652466862907
 30
0.0
 10
1359.483963797674
 20
1466.095620602584
 30
0.0
 10
1359.673507244624
 20
1466.638661509194
 30
0.0
 10
1359.903504049666
 20
1467.338882583039
 30
0.0
 10
1360.169297817517
 20
1468.217854331982
 30
0.0
 10
1360.462460041769
 20
1469.299369889747
 30
0.0
 10
1360.75750400997
 20
1470.553404348407
 30
0.0
 10
1361.027883206003
 20
1471.893897155634
 30
0.0
 10
1361.169207807711
 20
1472.826628113625
 30
0.0
 10
1361.237021398483
 20
1473.274192336135
 30
0.0
  0
SPLINE
  5
10B
330
1F
100
AcDbEntity
  8
0
  6
Continuous
 62
     7
370
    25
100
AcDbSpline
210
0.0
220
0.0
230
1.0
 70
     8
 71
     3
 72
   158
 73
   154
 74
     0
 42
0.000000001
 43
0.00000001
 40
0.0
 40
0.0
 40
0.0
 40
0.0
 40
0.0066433589420729
 40
0.0142985878815356
 40
0.0210967052695368
 40
0.0270708599206339
 40
0.0322506829279527
 40
0.038097373330618
 40
0.0435500184916673
 40
0.0486618940741624
 40
0.052956679634143
 40
0.0569636401634142
 40
0.0612526577404338
 40
0.0665175171334146
 40
0.071335300707423
 40
0.0761678925553812
 40
0.0804367621511605
 40
0.0841477271325828
 40
0.0878452891842318
 40
0.090850615377382
 40
0.0936219328112282
 40
0.0962291315440723
 40
0.0986727976417307
 40
0.100953457333353
 40
0.1046220639136572
 40
0.1077746895551575
 40
0.1104132965985525
 40
0.1125412395622587
 40
0.1147958076456011
 40
0.1176971138791005
 40
0.1210536383919899
 40
0.1249938601700367
 40
0.1295171231470708
 40
0.1346226751400423
 40
0.1403619958295393
 40
0.1470482204995978
 40
0.1585304980088143
 40
0.1697446209869871
 40
0.1805593140431705
 40
0.1903893036520635
 40
0.1991609446346088
 40
0.2068780382790191
 40
0.2103901765017823
 40
0.2145709033564373
 40
0.2194598333159066
 40
0.2250575881486556
 40
0.2313645214279983
 40
0.2411100818723058
 40
0.249752995123451
 40
0.2572847073400139
 40
0.2639244060523759
 40
0.2701767835541014
 40
0.2760626757265478
 40
0.2804304670313545
 40
0.2847907741287908
 40
0.2898542384729336
 40
0.2956748474760009
 40
0.3022518405259188
 40
0.3095850997133557
 40
0.3186408545894384
 40
0.3268467951553377
 40
0.3341891227118743
 40
0.3406691460624685
 40
0.3466563175570132
 40
0.3588264027800698
 40
0.371607096691423
 40
0.3784446945109363
 40
0.3855296553238862
 40
0.3928621673877331
 40
0.4006439945604206
 40
0.4093860791466921
 40
0.4169466008766936
 40
0.4247375211586765
 40
0.4318244564068323
 40
0.4381616181162346
 40
0.4437477086551501
 40
0.4485828329546905
 40
0.4527798990285942
 40
0.4567809133117322
 40
0.4606308175834996
 40
0.4643296872842712
 40
0.4671300254445778
 40
0.4698371808344193
 40
0.4724511691440331
 40
0.4749720006079788
 40
0.4779162215270418
 40
0.4822359247488928
 40
0.4877474181326749
 40
0.4944520740010033
 40
0.5021124069129711
 40
0.5090911265406666
 40
0.5150776296751715
 40
0.519811945737002
 40
0.5236614786845531
 40
0.52704855773087
 40
0.530556436343138
 40
0.5341888125954468
 40
0.5389045477929957
 40
0.5438152628496435
 40
0.5489335734414682
 40
0.5546947224007953
 40
0.5598243844402507
 40
0.5654853173666403
 40
0.5716729786290835
 40
0.5777186500761463
 40
0.5838485212271108
 40
0.5891900665414217
 40
0.5937455038430386
 40
0.5979698804658481
 40
0.6021895279391286
 40
0.6064043159763766
 40
0.6106151714416733
 40
0.6148470998434878
 40
0.6283572746295405
 40
0.6422254025826946
 40
0.6616234251323495
 40
0.6818690442331963
 40
0.7027787079432819
 40
0.7241107523675461
 40
0.7458834438942447
 40
0.768161109088927
 40
0.7807941362583402
 40
0.7935268839813963
 40
0.8063674969985885
 40
0.8193569828852738
 40
0.8321574483908446
 40
0.8442673317634597
 40
0.8549010626620153
 40
0.8647206829498498
 40
0.8744810039776594
 40
0.8846797418799187
 40
0.8950365077008189
 40
0.9021789934763825
 40
0.9094395475396253
 40
0.9169500947621521
 40
0.9249563599459258
 40
0.9287433411978451
 40
0.9325504230632119
 40
0.936058546881907
 40
0.9392434026412015
 40
0.9421136977722658
 40
0.9452815764263037
 40
0.949120208983426
 40
0.954447268155565
 40
0.960221163201783
 40
0.9654605768037303
 40
0.9701335966990638
 40
0.9742398211155189
 40
0.9777814264159479
 40
0.9821149865735931
 40
0.9872620176870834
 40
0.9932233459546461
 40
1.0
 40
1.0
 40
1.0
 40
1.0
 10
886.7888275052695
 20
1473.277317471999
 30
0.0
 10
886.8384775996388
 20
1472.944632304079
 30
0.0
 10
886.9453401437008
 20
1472.22858968891
 30
0.0
 10
887.1401103844175
 20
1471.19252258931
 30
0.0
 10
887.3504429254764
 20
1470.206426815786
 30
0.0
 10
887.5539077110674
 20
1469.359331631091
 30
0.0
 10
887.7593797532554
 20
1468.57872673557
 30
0.0
 10
887.9668951125849
 20
1467.853576267504
 30
0.0
 10
888.1907550008245
 20
1467.131465290368
 30
0.0
 10
888.4075890260074
 20
1466.481277926368
 30
0.0
 10
888.6138305217708
 20
1465.900473855702
 30
0.0
 10
888.810904849266
 20
1465.374102104086
 30
0.0
 10
889.0268234580398
 20
1464.82540451395
 30
0.0
 10
889.2634723147312
 20
1464.256208449661
 30
0.0
 10
889.5183134377692
 20
1463.676646267527
 30
0.0
 10
889.764502555171
 20
1463.145124912263
 30
0.0
 10
889.9972110503031
 20
1462.666073652035
 30
0.0
 10
890.212871602887
 20
1462.239684038723
 30
0.0
 10
890.4070794143312
 20
1461.869532840318
 30
0.0
 10
890.5803059768269
 20
1461.549555439165
 30
0.0
 10
890.7364560880749
 20
1461.268516502985
 30
0.0
 10
890.8843223240968
 20
1461.008761265183
 30
0.0
 10
891.0248056163251
 20
1460.767444915906
 30
0.0
 10
891.1875277536841
 20
1460.493672500536
 30
0.0
 10
891.3664022085771
 20
1460.200410413111
 30
0.0
 10
891.5546516234533
 20
1459.900652884917
 30
0.0
 10
891.7129851601613
 20
1459.654574930244
 30
0.0
 10
891.8533271736085
 20
1459.440710358361
 30
0.0
 10
891.9944690265609
 20
1459.22936526397
 30
0.0
 10
892.1569239159085
 20
1458.990822566974
 30
0.0
 10
892.3511921999126
 20
1458.712077836047
 30
0.0
 10
892.5773362464204
 20
1458.396014074589
 30
0.0
 10
892.8395614942464
 20
1458.040331723054
 30
0.0
 10
893.1402677750028
 20
1457.645730577467
 30
0.0
 10
893.4908289610695
 20
1457.202700994845
 30
0.0
 10
893.9326039293904
 20
1456.666811869655
 30
0.0
 10
894.456510246428
 20
1456.064376959349
 30
0.0
 10
895.0445713255842
 20
1455.429066882821
 30
0.0
 10
895.5800845120701
 20
1454.881818908546
 30
0.0
 10
896.0798487685312
 20
1454.395523703998
 30
0.0
 10
896.522819632784
 20
1453.982853338362
 30
0.0
 10
896.8535559826519
 20
1453.685853142857
 30
0.0
 10
897.0988095944946
 20
1453.470714425445
 30
0.0
 10
897.289651816027
 20
1453.305866548992
 30
0.0
 10
897.5070383099379
 20
1453.121277381382
 30
0.0
 10
897.7515685681057
 20
1452.917639334043
 30
0.0
 10
898.0636830411942
 20
1452.663225091668
 30
0.0
 10
898.4174550064068
 20
1452.382940454813
 30
0.0
 10
898.7816067723151
 20
1452.10331347538
 30
0.0
 10
899.0906902126309
 20
1451.872127319014
 30
0.0
 10
899.3526056491612
 20
1451.680341535661
 30
0.0
 10
899.5925730844825
 20
1451.507851637641
 30
0.0
 10
899.7994080393431
 20
1451.361723702947
 30
0.0
 10
899.9791461949505
 20
1451.236499257018
 30
0.0
 10
900.1446443328875
 20
1451.122527642047
 30
0.0
 10
900.3226536563728
 20
1451.001409724566
 30
0.0
 10
900.5235916683135
 20
1450.866518856392
 30
0.0
 10
900.7484629074833
 20
1450.717809726916
 30
0.0
 10
901.008949786775
 20
1450.548366276959
 30
0.0
 10
901.2876489946148
 20
1450.370518777939
 30
0.0
 10
901.5648370205963
 20
1450.197100761187
 30
0.0
 10
901.8101483011715
 20
1450.046272019763
 30
0.0
 10
902.0260833558905
 20
1449.915482527797
 30
0.0
 10
902.2873658202882
 20
1449.759260938815
 30
0.0
 10
902.6113495880495
 20
1449.569099502106
 30
0.0
 10
902.9369935375181
 20
1449.382517559872
 30
0.0
 10
903.2085502678409
 20
1449.229700513201
 30
0.0
 10
903.423748322707
 20
1449.110125566419
 30
0.0
 10
903.6479481288591
 20
1448.98714535772
 30
0.0
 10
903.8877117451553
 20
1448.85737249707
 30
0.0
 10
904.1263530126697
 20
1448.730032710421
 30
0.0
 10
904.3639602953934
 20
1448.604963690876
 30
0.0
 10
904.5850096038587
 20
1448.490079256827
 30
0.0
 10
904.7953251342966
 20
1448.382100993256
 30
0.0
 10
904.9842762728684
 20
1448.28615268733
 30
0.0
 10
905.1509663028628
 20
1448.202325221033
 30
0.0
 10
905.2960660482179
 20
1448.129968092062
 30
0.0
 10
905.4244518887309
 20
1448.066404949535
 30
0.0
 10
905.5439434078091
 20
1448.007628599429
 30
0.0
 10
905.6590166454683
 20
1447.951378555414
 30
0.0
 10
905.7626328587974
 20
1447.901032248405
 30
0.0
 10
905.8551785909244
 20
1447.856297155042
 30
0.0
 10
905.9371170347127
 20
1447.816862876573
 30
0.0
 10
906.0164470876704
 20
1447.778845208436
 30
0.0
 10
906.0986381236747
 20
1447.739617639308
 30
0.0
 10
906.1975455036305
 20
1447.69261706664
 30
0.0
 10
906.3256268930076
 20
1447.632099198203
 30
0.0
 10
906.4915542969137
 20
1447.554296086314
 30
0.0
 10
906.6916144565927
 20
1447.46137161072
 30
0.0
 10
906.9077448985332
 20
1447.362088956475
 30
0.0
 10
907.11784861698
 20
1447.266656018947
 30
0.0
 10
907.2987701312377
 20
1447.185290154797
 30
0.0
 10
907.4479505329346
 20
1447.118745585581
 30
0.0
 10
907.5699406154962
 20
1447.064681055382
 30
0.0
 10
907.6794793648722
 20
1447.016400094615
 30
0.0
 10
907.7888701139949
 20
1446.968439276441
 30
0.0
 10
907.9136936285391
 20
1446.914018091981
 30
0.0
 10
908.0555093294748
 20
1446.852597475488
 30
0.0
 10
908.2156487897315
 20
1446.783779262257
 30
0.0
 10
908.3902542589815
 20
1446.70936478046
 30
0.0
 10
908.5678772342163
 20
1446.634351955693
 30
0.0
 10
908.7518780297519
 20
1446.557352062844
 30
0.0
 10
908.9413770286235
 20
1446.478769886449
 30
0.0
 10
909.1418679466041
 20
1446.396460752048
 30
0.0
 10
909.3493418949731
 20
1446.312170627733
 30
0.0
 10
909.5495305744663
 20
1446.231693398081
 30
0.0
 10
909.7347678009951
 20
1446.157972835475
 30
0.0
 10
909.9003145620463
 20
1446.092667333784
 30
0.0
 10
910.0541608057102
 20
1446.032457709982
 30
0.0
 10
910.2047044530227
 20
1445.973991826204
 30
0.0
 10
910.355954099582
 20
1445.915705055544
 30
0.0
 10
910.5083528169642
 20
1445.857429743253
 30
0.0
 10
910.7730980988986
 20
1445.756979235645
 30
0.0
 10
911.1551888645162
 20
1445.614355233439
 30
0.0
 10
911.7220192151422
 20
1445.407967329121
 30
0.0
 10
912.3729893875462
 20
1445.177929043936
 30
0.0
 10
913.1107607096321
 20
1444.926159181243
 30
0.0
 10
913.8799367502952
 20
1444.672779795851
 30
0.0
 10
914.6826820106404
 20
1444.417799648474
 30
0.0
 10
915.5179639394172
 20
1444.162252311552
 30
0.0
 10
916.2549905726955
 20
1443.945256077649
 30
0.0
 10
916.8861784699403
 20
1443.765018131065
 30
0.0
 10
917.3993835106643
 20
1443.621730104023
 30
0.0
 10
917.9250011092237
 20
1443.4782942996
 30
0.0
 10
918.4586227143907
 20
1443.336022680416
 30
0.0
 10
918.9897659043908
 20
1443.197681241704
 30
0.0
 10
919.49438579675
 20
1443.069191988625
 30
0.0
 10
919.9634244175749
 20
1442.952211004635
 30
0.0
 10
920.4046359973289
 20
1442.844231543846
 30
0.0
 10
920.8450540856373
 20
1442.738397921936
 30
0.0
 10
921.2997376414169
 20
1442.631170308912
 30
0.0
 10
921.7209510724159
 20
1442.53375739473
 30
0.0
 10
922.101153543952
 20
1442.447285863277
 30
0.0
 10
922.4411458598269
 20
1442.371017689828
 30
0.0
 10
922.7984525965984
 20
1442.291994423797
 30
0.0
 10
923.1055891507154
 20
1442.225076006565
 30
0.0
 10
923.3566422943629
 20
1442.171013717752
 30
0.0
 10
923.536605352556
 20
1442.132550836703
 30
0.0
 10
923.7077588714152
 20
1442.096236284675
 30
0.0
 10
923.8644330252231
 20
1442.063214960918
 30
0.0
 10
924.0161890850063
 20
1442.031423024994
 30
0.0
 10
924.1792223977183
 20
1441.997473886096
 30
0.0
 10
924.3838455231328
 20
1441.955161151913
 30
0.0
 10
924.6336179589134
 20
1441.903983501092
 30
0.0
 10
924.909550441257
 20
1441.848068552015
 30
0.0
 10
925.1770253306836
 20
1441.794470405493
 30
0.0
 10
925.4180826458966
 20
1441.746653048937
 30
0.0
 10
925.6313881881525
 20
1441.70471606819
 30
0.0
 10
925.8397596613742
 20
1441.664065423347
 30
0.0
 10
926.0672099262003
 20
1441.620040164551
 30
0.0
 10
926.3391363313186
 20
1441.567914712082
 30
0.0
 10
926.6569238714226
 20
1441.507613040537
 30
0.0
 10
926.8867824866753
 20
1441.464698730523
 30
0.0
 10
927.0090681263196
 20
1441.44186815772
 30
0.0
  0
SPLINE
  5
10C
330
1F
100
AcDbEntity
  8
0
  6
Continuous
 62
     7
370
    25
100
AcDbSpline
210
0.0
220
0.0
230
1.0
 70
     8
 71
     3
 72
    60
 73
    56
 74
     0
 42
0.000000001
 43
0.00000001
 40
0.0
 40
0.0
 40
0.0
 40
0.0
 40
0.02810850016302
 40
0.0589700796001068
 40
0.088129795911593
 40
0.1156116875234434
 40
0.1414147771944956
 40
0.1655182220134528
 40
0.1878861748431574
 40
0.2084722310113101
 40
0.2272233978441062
 40
0.2440835723378425
 40
0.2589965462448767
 40
0.2719085840604408
 40
0.2823760915462428
 40
0.2915078724575828
 40
0.3014204459374574
 40
0.3123234963217074
 40
0.3242373494879956
 40
0.3371832550127743
 40
0.3511837553779151
 40
0.372200867416339
 40
0.3953262179468328
 40
0.4206356650867943
 40
0.4482137127519332
 40
0.4649294993553287
 40
0.481423134219917
 40
0.4962955873913473
 40
0.5094964589809567
 40
0.5209877898854408
 40
0.530736224996674
 40
0.538713486336536
 40
0.5448969423253164
 40
0.5499282449731461
 40
0.5551869723406526
 40
0.5614353215202988
 40
0.5687280495492714
 40
0.5776686180858965
 40
0.5884572941519356
 40
0.601118615997805
 40
0.6156808851690687
 40
0.6321765949643096
 40
0.6506427849276983
 40
0.6711213738586693
 40
0.6936594913616249
 40
0.7183098153126647
 40
0.7451308474778133
 40
0.7735838778206467
 40
0.8042511536444609
 40
0.8372065189161144
 40
0.8725307111849222
 40
0.9020044398961309
 40
0.9330407179819517
 40
0.9656885334708837
 40
1.0
 40
1.0
 40
1.0
 40
1.0
 10
1361.130312085547
 20
1473.660976612142
 30
0.0
 10
1360.777682807796
 20
1474.24788464775
 30
0.0
 10
1360.037886075218
 20
1475.479185264182
 30
0.0
 10
1358.78830222475
 20
1477.228846879925
 30
0.0
 10
1357.458351360874
 20
1478.900364588425
 30
0.0
 10
1356.11889574654
 20
1480.407156891883
 30
0.0
 10
1354.793259788329
 20
1481.76187505488
 30
0.0
 10
1353.499005049883
 20
1482.973889601915
 30
0.0
 10
1352.25336163445
 20
1484.05245203918
 30
0.0
 10
1351.071901910038
 20
1485.005908439451
 30
0.0
 10
1349.968853231946
 20
1485.841884316214
 30
0.0
 10
1348.957028939047
 20
1486.567228108798
 30
0.0
 10
1348.047794603789
 20
1487.188049469517
 30
0.0
 10
1347.259313173117
 20
1487.704312672343
 30
0.0
 10
1346.584390901996
 20
1488.131147444664
 30
0.0
 10
1345.969933353776
 20
1488.50873283302
 30
0.0
 10
1345.348868323538
 20
1488.880043277583
 30
0.0
 10
1344.670122364436
 20
1489.274074584235
 30
0.0
 10
1343.927533038072
 20
1489.691692444894
 30
0.0
 10
1343.118242250892
 20
1490.131580141445
 30
0.0
 10
1342.115147954941
 20
1490.657316353555
 30
0.0
 10
1340.891276198291
 20
1491.269437762852
 30
0.0
 10
1339.416031432356
 20
1491.965793065997
 30
0.0
 10
1337.784548839335
 20
1492.689234565051
 30
0.0
 10
1336.273460655984
 20
1493.315649228388
 30
0.0
 10
1334.941602714234
 20
1493.837948523299
 30
0.0
 10
1333.880601208891
 20
1494.237068225542
 30
0.0
 10
1332.890601890055
 20
1494.59517403717
 30
0.0
 10
1332.007352393655
 20
1494.903683223779
 30
0.0
 10
1331.23589265877
 20
1495.165001220183
 30
0.0
 10
1330.580276724029
 20
1495.381304165295
 30
0.0
 10
1330.044383536463
 20
1495.554279583927
 30
0.0
 10
1329.615215106483
 20
1495.690409660392
 30
0.0
 10
1329.252943393303
 20
1495.803763059577
 30
0.0
 10
1328.893347681615
 20
1495.914905791259
 30
0.0
 10
1328.485366016743
 20
1496.039294105314
 30
0.0
 10
1327.997729193117
 20
1496.185596181481
 30
0.0
 10
1327.416283736546
 20
1496.356732302483
 30
0.0
 10
1326.721466103452
 20
1496.556575383368
 30
0.0
 10
1325.906408031183
 20
1496.78467849113
 30
0.0
 10
1324.967386700424
 20
1497.039270244592
 30
0.0
 10
1323.900198807554
 20
1497.318311321632
 30
0.0
 10
1322.700086200055
 20
1497.619514817358
 30
0.0
 10
1321.36175852586
 20
1497.940334164023
 30
0.0
 10
1319.879381558632
 20
1498.277961720577
 30
0.0
 10
1318.246577385457
 20
1498.629322413008
 30
0.0
 10
1316.469830451086
 20
1498.988360819272
 30
0.0
 10
1314.544110559719
 20
1499.351636115988
 30
0.0
 10
1312.464031491131
 20
1499.715556699796
 30
0.0
 10
1310.209948344914
 20
1500.078366893739
 30
0.0
 10
1307.964036571037
 20
1500.407806498761
 30
0.0
 10
1305.745567364046
 20
1500.704901860685
 30
0.0
 10
1303.574305380359
 20
1500.970364636483
 30
0.0
 10
1301.276070315092
 20
1501.226754330009
 30
0.0
 10
1299.692653932839
 20
1501.380275226687
 30
0.0
 10
1298.881275187967
 20
1501.458942843023
 30
0.0
  0
SPLINE
  5
10D
330
1F
100
AcDbEntity
  8
0
  6
Continuous
 62
     7
370
    25
100
AcDbSpline
210
0.0
220
0.0
230
1.0
 70
     8
 71
     3
 72
    56
 73
    52
 74
     0
 42
0.000000001
 43
0.00000001
 40
0.0
 40
0.0
 40
0.0
 40
0.0
 40
0.0407302524212411
 40
0.0793691543018912
 40
0.115977817170952
 40
0.1506137048989096
 40
0.1833308777644067
 40
0.214180248865061
 40
0.2432098557991264
 40
0.2730947333366932
 40
0.3008898128867725
 40
0.3266496343263376
 40
0.3504267824585801
 40
0.3722726292221439
 40
0.3867123051439956
 40
0.3999968447931528
 40
0.4120705916326756
 40
0.4229553508243932
 40
0.4326705835088259
 40
0.4412335310389472
 40
0.4491628341687329
 40
0.4581167373851623
 40
0.4689749598801837
 40
0.4812153400981652
 40
0.4941411827364139
 40
0.5077338162698549
 40
0.5219772880195954
 40
0.543693464298946
 40
0.5666530116007423
 40
0.5891065396042607
 40
0.6100640857172571
 40
0.6295725744825372
 40
0.6476753604729866
 40
0.6634922531347781
 40
0.6781262844926714
 40
0.6916065604445351
 40
0.7039605432671774
 40
0.7153638713122146
 40
0.7277110666660277
 40
0.7424144662580183
 40
0.7594101571517213
 40
0.7786287675586189
 40
0.7999988673768206
 40
0.8234509520425279
 40
0.8451622264659285
 40
0.8683239982806306
 40
0.8929127768294048
 40
0.9189175073707445
 40
0.946342918914382
 40
0.9752130127624081
 40
1.0
 40
1.0
 40
1.0
 40
1.0
 10
949.1463091972792
 20
1501.458942843023
 30
0.0
 10
948.2138232719504
 20
1501.368083050434
 30
0.0
 10
946.3967311870222
 20
1501.191028785626
 30
0.0
 10
943.7596110491648
 20
1500.889559641721
 30
0.0
 10
941.2723710638887
 20
1500.574158535762
 30
0.0
 10
938.9297679124394
 20
1500.245066998667
 30
0.0
 10
936.725263034247
 20
1499.905932186981
 30
0.0
 10
934.6529956739491
 20
1499.559373549347
 30
0.0
 10
932.64856527895
 20
1499.197478927481
 30
0.0
 10
930.7148683448045
 20
1498.821609251894
 30
0.0
 10
928.8540685384955
 20
1498.433170202953
 30
0.0
 10
927.126872200391
 20
1498.048179577591
 30
0.0
 10
925.5267890179028
 20
1497.669291885622
 30
0.0
 10
924.1742058368967
 20
1497.330695975816
 30
0.0
 10
923.0475755102447
 20
1497.035729924321
 30
0.0
 10
922.147270297593
 20
1496.791805760678
 30
0.0
 10
921.3333134679394
 20
1496.564327246304
 30
0.0
 10
920.6044601565322
 20
1496.354861114464
 30
0.0
 10
919.9586299425496
 20
1496.164570512631
 30
0.0
 10
919.3825806741103
 20
1495.991061583699
 30
0.0
 10
918.8284984666939
 20
1495.820855360813
 30
0.0
 10
918.22247162161
 20
1495.630908863256
 30
0.0
 10
917.524400778351
 20
1495.406858425809
 30
0.0
 10
916.7393077510151
 20
1495.147820224086
 30
0.0
 10
915.8895111832766
 20
1494.858770732144
 30
0.0
 10
914.9938086149133
 20
1494.544069216351
 30
0.0
 10
913.9036127075166
 20
1494.147669389514
 30
0.0
 10
912.6081791866776
 20
1493.655217418074
 30
0.0
 10
911.1361810712434
 20
1493.063285949969
 30
0.0
 10
909.6928944924973
 20
1492.44832029042
 30
0.0
 10
908.3373013899596
 20
1491.837553497813
 30
0.0
 10
907.0858833135642
 20
1491.243202001385
 30
0.0
 10
905.9529346059697
 20
1490.677719611923
 30
0.0
 10
904.929906599408
 20
1490.143351345376
 30
0.0
 10
904.0090185497668
 20
1489.642002034912
 30
0.0
 10
903.1638950713852
 20
1489.16367390612
 30
0.0
 10
902.3882706498302
 20
1488.708459242239
 30
0.0
 10
901.6358922522335
 20
1488.251605319737
 30
0.0
 10
900.8373623656665
 20
1487.749625997358
 30
0.0
 10
899.9315421684248
 20
1487.156919132965
 30
0.0
 10
898.8987496710107
 20
1486.448093794957
 30
0.0
 10
897.7521861751043
 20
1485.616207928455
 30
0.0
 10
896.5067911329753
 20
1484.653207062803
 30
0.0
 10
895.2504199546919
 20
1483.609045675586
 30
0.0
 10
894.0026924919487
 20
1482.491381236951
 30
0.0
 10
892.7802941336746
 20
1481.309250077717
 30
0.0
 10
891.538472956191
 20
1480.002358934322
 30
0.0
 10
890.2913010668432
 20
1478.563230820763
 30
0.0
 10
889.0580730010983
 20
1476.981394945592
 30
0.0
 10
887.9202588880697
 20
1475.366915764093
 30
0.0
 10
887.2490322370791
 20
1474.247401133048
 30
0.0
 10
886.9389578518345
 20
1473.730239291395
 30
0.0
  0
SPLINE
  5
10E
330
1F
100
AcDbEntity
  8
0
  6
Continuous
 62
     7
370
    25
100
AcDbSpline
210
0.0
220
0.0
230
1.0
 70
     8
 71
     3
 72
    36
 73
    32
 74
     0
 42
0.000000001
 43
0.00000001
 40
0.0
 40
0.0
 40
0.0
 40
0.0
 40
0.0480217916798194
 40
0.0950514565035099
 40
0.1365722403959692
 40
0.1735658172084644
 40
0.2036072185357349
 40
0.2371696781480116
 40
0.2742560008860094
 40
0.3147057000681061
 40
0.3529450110457814
 40
0.3862346968365032
 40
0.4130853060459591
 40
0.4362514429583992
 40
0.4619844019855264
 40
0.4917317338836686
 40
0.5254962035244746
 40
0.5611761659210848
 40
0.598522501122934
 40
0.631981076960765
 40
0.6612050710544164
 40
0.6861919120743667
 40
0.7069395189382583
 40
0.7220237510605423
 40
0.7430239877849208
 40
0.7702527881113167
 40
0.8037143788220614
 40
0.8434138072424591
 40
0.8893568594654662
 40
0.9415499529617484
 40
1.0
 40
1.0
 40
1.0
 40
1.0
 10
1312.973235011862
 20
1440.129427145523
 30
0.0
 10
1313.111825042839
 20
1440.149682247953
 30
0.0
 10
1313.386141844449
 20
1440.189773983815
 30
0.0
 10
1313.77525690459
 20
1440.247445326768
 30
0.0
 10
1314.130489661789
 20
1440.300562135641
 30
0.0
 10
1314.436170207255
 20
1440.346679889482
 30
0.0
 10
1314.718057512433
 20
1440.389523763375
 30
0.0
 10
1314.998484265122
 20
1440.432449356083
 30
0.0
 10
1315.305650089048
 20
1440.479839567333
 30
0.0
 10
1315.622990076224
 20
1440.529224723711
 30
0.0
 10
1315.927235516884
 20
1440.576989149401
 30
0.0
 10
1316.19264049102
 20
1440.61898963888
 30
0.0
 10
1316.416188508349
 20
1440.654604509874
 30
0.0
 10
1316.619102043078
 20
1440.687113727894
 30
0.0
 10
1316.828425466706
 20
1440.720834675387
 30
0.0
 10
1317.064199748612
 20
1440.759053802046
 30
0.0
 10
1317.324046328579
 20
1440.801476019745
 30
0.0
 10
1317.601198907337
 20
1440.847076980486
 30
0.0
 10
1317.874906682648
 20
1440.892480420892
 30
0.0
 10
1318.130847028264
 20
1440.935274365538
 30
0.0
 10
1318.354524633474
 20
1440.972938551092
 30
0.0
 10
1318.545782145973
 20
1441.005341551743
 30
0.0
 10
1318.701745069275
 20
1441.031902782884
 30
0.0
 10
1318.848578689263
 20
1441.057013404498
 30
0.0
 10
1319.010330986456
 20
1441.084792068535
 30
0.0
 10
1319.217609013457
 20
1441.12058788941
 30
0.0
 10
1319.469918836014
 20
1441.164467961253
 30
0.0
 10
1319.76616976098
 20
1441.216424075254
 30
0.0
 10
1320.104783179365
 20
1441.27641263842
 30
0.0
 10
1320.484616529006
 20
1441.344409634989
 30
0.0
 10
1320.74773250549
 20
1441.39228844669
 30
0.0
 10
1320.88673019778
 20
1441.417581644104
 30
0.0
  0
SPLINE
  5
10F
330
1F
100
AcDbEntity
  8
0
  6
Continuous
 62
     7
370
    25
100
AcDbSpline
210
0.0
220
0.0
230
1.0
 70
     8
 71
     3
 72
    32
 73
    28
 74
     0
 42
0.000000001
 43
0.00000001
 40
0.0
 40
0.0
 40
0.0
 40
0.0
 40
0.0675710623022087
 40
0.1277654783979723
 40
0.1805960338766509
 40
0.2260747527565633
 40
0.2662619253552787
 40
0.3034147843079262
 40
0.3375368168907266
 40
0.3796744979599688
 40
0.4194136929425097
 40
0.4579648389359449
 40
0.4961203062934963
 40
0.5256335031889947
 40
0.5595528335760055
 40
0.5978748001129992
 40
0.6403277359695165
 40
0.6801552805724507
 40
0.7144227737229909
 40
0.7416437303685658
 40
0.7649465404915764
 40
0.7910747289854253
 40
0.8212637054678642
 40
0.8555108925436721
 40
0.9107548894534614
 40
0.9623880491623528
 40
1.0
 40
1.0
 40
1.0
 40
1.0
 10
927.1408541874667
 20
1441.417581644104
 30
0.0
 10
927.3057278086053
 20
1441.387602176555
 30
0.0
 10
927.617476009126
 20
1441.33091606148
 30
0.0
 10
928.0625863038075
 20
1441.251528035511
 30
0.0
 10
928.454435357147
 20
1441.182475858244
 30
0.0
 10
928.7948967666484
 20
1441.12316348707
 30
0.0
 10
929.0965986139396
 20
1441.071100599768
 30
0.0
 10
929.3749653907856
 20
1441.023480293115
 30
0.0
 10
929.6613343240542
 20
1440.974882953798
 30
0.0
 10
929.9588536324449
 20
1440.924826327247
 30
0.0
 10
930.2705609708626
 20
1440.872867867684
 30
0.0
 10
930.574109638123
 20
1440.82271508188
 30
0.0
 10
930.853001016564
 20
1440.777033299224
 30
0.0
 10
931.1209465034314
 20
1440.733477156712
 30
0.0
 10
931.3909774216618
 20
1440.68989301818
 30
0.0
 10
931.6976812523428
 20
1440.640788633445
 30
0.0
 10
932.0231865156671
 20
1440.589143141467
 30
0.0
 10
932.3406853726854
 20
1440.539230093045
 30
0.0
 10
932.6187484328156
 20
1440.495877760456
 30
0.0
 10
932.8526983500004
 20
1440.459653005725
 30
0.0
 10
933.0646158347212
 20
1440.427024108451
 30
0.0
 10
933.2853287654232
 20
1440.393226878896
 30
0.0
 10
933.5376462946857
 20
1440.354831065228
 30
0.0
 10
933.8732299836612
 20
1440.304124593235
 30
0.0
 10
934.2729555092321
 20
1440.244337647796
 30
0.0
 10
934.6868644044945
 20
1440.183096362624
 30
0.0
 10
934.9453936019684
 20
1440.145341033695
 30
0.0
 10
935.0543495706028
 20
1440.129429219963
 30
0.0
  0
SPLINE
  5
110
330
1F
100
AcDbEntity
  8
0
  6
Continuous
 62
     7
370
    25
100
AcDbSpline
210
0.0
220
0.0
230
1.0
 70
     8
 71
     3
 72
   140
 73
   136
 74
     0
 42
0.000000001
 43
0.00000001
 40
0.0
 40
0.0
 40
0.0
 40
0.0
 40
0.0062640707816923
 40
0.0285452412579471
 40
0.0500139278273838
 40
0.0706679665035341
 40
0.0905055114599162
 40
0.109192527316614
 40
0.1270891105052556
 40
0.1441941061960992
 40
0.1605064028786867
 40
0.1763331133031974
 40
0.1913318644259238
 40
0.2055016123413829
 40
0.2188414436477437
 40
0.2313505493488598
 40
0.2430282039841394
 40
0.2538737494351909
 40
0.2632972230382826
 40
0.2719864102300804
 40
0.2799408822584988
 40
0.2871602403574306
 40
0.2936441149181565
 40
0.2992959770143308
 40
0.3042377720333989
 40
0.3084692173302771
 40
0.3119900735461452
 40
0.3149959521025642
 40
0.3176972873421213
 40
0.3201019427214771
 40
0.3222098626036414
 40
0.3240230302385865
 40
0.3260741953114409
 40
0.3287781028776345
 40
0.3327578269298141
 40
0.3376264251204745
 40
0.3433841809301077
 40
0.3500314079630815
 40
0.3575684408816185
 40
0.3659956266318605
 40
0.3747568745302517
 40
0.3843098154939895
 40
0.3945504079056493
 40
0.404687167537264
 40
0.4145566909843113
 40
0.4325175268760463
 40
0.4495219316511122
 40
0.4655569817507875
 40
0.480614478437315
 40
0.4946978233345439
 40
0.5078149273826954
 40
0.5174450932038258
 40
0.5265805353734148
 40
0.5360531301977579
 40
0.5460465901125452
 40
0.5565563476508282
 40
0.5675856359077777
 40
0.5769311373451306
 40
0.5865721516189913
 40
0.5965967297499303
 40
0.607169577127619
 40
0.6182340998500141
 40
0.6271709089844387
 40
0.6358616014514537
 40
0.6438515218547017
 40
0.6511485702834704
 40
0.657757315819311
 40
0.6636768434659948
 40
0.6689014638436217
 40
0.6734308419606335
 40
0.6772648244999344
 40
0.6804209955617677
 40
0.6846633636855258
 40
0.6896020235097445
 40
0.695436486858066
 40
0.7005181315357409
 40
0.7061426912248386
 40
0.7123140434588934
 40
0.7192700353042546
 40
0.7271588446747257
 40
0.7335376380523443
 40
0.7404194548407613
 40
0.7478049556000949
 40
0.7514615910057784
 40
0.7551483301966622
 40
0.7583536619341313
 40
0.7609887737521053
 40
0.7630533805676324
 40
0.7668481430786738
 40
0.7720573888681197
 40
0.7790328109269736
 40
0.7870634737013213
 40
0.7947004801721069
 40
0.8019009740190682
 40
0.8086643136260887
 40
0.8149374933229295
 40
0.8178499023602086
 40
0.8204020309337007
 40
0.8225936712303858
 40
0.8244246442995956
 40
0.8259414011330888
 40
0.8277940089594895
 40
0.830039871020161
 40
0.8327704457902048
 40
0.835986063648434
 40
0.8396871156974537
 40
0.8435620642544621
 40
0.8516515795293351
 40
0.8589664200761125
 40
0.8655161929819374
 40
0.87167106262298
 40
0.8787207527440591
 40
0.8859388858685762
 40
0.8937642365951947
 40
0.9019470700518945
 40
0.9103473408865517
 40
0.9184819535646792
 40
0.9258123404652294
 40
0.9330106276225967
 40
0.9408188756876897
 40
0.949000575362603
 40
0.9573969662441528
 40
0.9659218293351419
 40
0.9691395250390759
 40
0.9723588593071498
 40
0.97557712412113
 40
0.9784976450732955
 40
0.9809195738668098
 40
0.9828506153451138
 40
0.9849882264912073
 40
0.9875731945266214
 40
0.9907610558489347
 40
0.9944204762876205
 40
0.9983628485800886
 40
1.0
 40
1.0
 40
1.0
 40
1.0
 10
1124.014228982114
 20
1791.178684943598
 30
0.0
 10
1123.592291294147
 20
1791.178711292218
 30
0.0
 10
1121.669529959131
 20
1791.178831362333
 30
0.0
 10
1118.300493757073
 20
1791.171181816806
 30
0.0
 10
1113.962424037372
 20
1791.151281555138
 30
0.0
 10
1109.789610953389
 20
1791.121323499494
 30
0.0
 10
1105.805155461544
 20
1791.083049747029
 30
0.0
 10
1102.007651429131
 20
1791.03763231653
 30
0.0
 10
1098.395563742873
 20
1790.986304174012
 30
0.0
 10
1094.944914792884
 20
1790.929766653003
 30
0.0
 10
1091.635261339995
 20
1790.868607837326
 30
0.0
 10
1088.469081136217
 20
1790.803630189536
 30
0.0
 10
1085.448799596969
 20
1790.735655306845
 30
0.0
 10
1082.597428181668
 20
1790.666064897372
 30
0.0
 10
1079.914990161908
 20
1790.595736185795
 30
0.0
 10
1077.401447576143
 20
1790.525508630239
 30
0.0
 10
1075.056712377649
 20
1790.456181647854
 30
0.0
 10
1072.920073534231
 20
1790.389737951946
 30
0.0
 10
1070.984662032473
 20
1790.32686252223
 30
0.0
 10
1069.243609330514
 20
1790.268122102332
 30
0.0
 10
1067.650757928603
 20
1790.21253637316
 30
0.0
 10
1066.205943762231
 20
1790.160580496277
 30
0.0
 10
1064.915416466052
 20
1790.112925731956
 30
0.0
 10
1063.777269455439
 20
1790.069919637706
 30
0.0
 10
1062.789613063848
 20
1790.031851643754
 30
0.0
 10
1061.944175267424
 20
1789.998706992573
 30
0.0
 10
1061.227793596672
 20
1789.97022056871
 30
0.0
 10
1060.613340943202
 20
1789.945496399108
 30
0.0
 10
1060.073366963708
 20
1789.92354488727
 30
0.0
 10
1059.593263553877
 20
1789.903848447399
 30
0.0
 10
1059.172343008971
 20
1789.886441077174
 30
0.0
 10
1058.775005196677
 20
1789.86989477258
 30
0.0
 10
1058.338024984283
 20
1789.851573600967
 30
0.0
 10
1057.756976889558
 20
1789.827008674389
 30
0.0
 10
1056.98871336405
 20
1789.794149592782
 30
0.0
 10
1056.017745358024
 20
1789.751983395347
 30
0.0
 10
1054.870042093379
 20
1789.701232613271
 30
0.0
 10
1053.545880812703
 20
1789.641446394513
 30
0.0
 10
1052.045606555354
 20
1789.572099924183
 30
0.0
 10
1050.406528276418
 20
1789.49434453998
 30
0.0
 10
1048.635593207589
 20
1789.407988066364
 30
0.0
 10
1046.746668135117
 20
1789.313213106051
 30
0.0
 10
1044.769247021462
 20
1789.210946833802
 30
0.0
 10
1042.773586230916
 20
1789.104517100303
 30
0.0
 10
1040.271993374296
 20
1788.967084676957
 30
0.0
 10
1037.323752469545
 20
1788.798425983788
 30
0.0
 10
1033.979064679697
 20
1788.597313301595
 30
0.0
 10
1030.833280570719
 20
1788.399295848282
 30
0.0
 10
1027.886476605931
 20
1788.205910921542
 30
0.0
 10
1025.137283639915
 20
1788.018516215307
 30
0.0
 10
1022.747337232405
 20
1787.849773451965
 30
0.0
 10
1020.683061755304
 20
1787.699724225213
 30
0.0
 10
1018.858183815999
 20
1787.563901358949
 30
0.0
 10
1017.013161596681
 20
1787.42329315749
 30
0.0
 10
1015.083351095702
 20
1787.272605795027
 30
0.0
 10
1013.057797989212
 20
1787.110414510541
 30
0.0
 10
1011.078729178356
 20
1786.947736152953
 30
0.0
 10
1009.160090436793
 20
1786.786060057544
 30
0.0
 10
1007.309798549984
 20
1786.626763267257
 30
0.0
 10
1005.386270548735
 20
1786.457204600524
 30
0.0
 10
1003.378265814652
 20
1786.275772701517
 30
0.0
 10
1001.445266471296
 20
1786.096316143447
 30
0.0
 10
999.6367475874936
 20
1785.923612719422
 30
0.0
 10
998.0264194740055
 20
1785.766056769042
 30
0.0
 10
996.522987957733
 20
1785.615625521201
 30
0.0
 10
995.1532900830802
 20
1785.475804948523
 30
0.0
 10
993.9156605489904
 20
1785.347209118726
 30
0.0
 10
992.8093588411306
 20
1785.230450669784
 30
0.0
 10
991.8340620948064
 20
1785.126057308126
 30
0.0
 10
990.9894088932566
 20
1785.03454375539
 30
0.0
 10
990.2737825298857
 20
1784.956204126174
 30
0.0
 10
989.5757340935118
 20
1784.879130823215
 30
0.0
 10
988.8088536903255
 20
1784.793690476538
 30
0.0
 10
987.8762725640299
 20
1784.688627742288
 30
0.0
 10
986.8925563159811
 20
1784.576362130482
 30
0.0
 10
985.8678191389546
 20
1784.457887401818
 30
0.0
 10
984.823876691855
 20
1784.335661313799
 30
0.0
 10
983.666301672612
 20
1784.198254853567
 30
0.0
 10
982.3715750422393
 20
1784.042225596915
 30
0.0
 10
981.0672735145521
 20
1783.882359300088
 30
0.0
 10
979.7708829705169
 20
1783.720886650313
 30
0.0
 10
978.5085012686578
 20
1783.561311940167
 30
0.0
 10
977.4156244347422
 20
1783.420978344545
 30
0.0
 10
976.5195687208234
 20
1783.304526919117
 30
0.0
 10
975.8788012441944
 20
1783.220589330995
 30
0.0
 10
975.3008347728612
 20
1783.14431557913
 30
0.0
 10
974.8217125534799
 20
1783.080689969076
 30
0.0
 10
974.307224623791
 20
1783.012025054811
 30
0.0
 10
973.6362025749851
 20
1782.921909801325
 30
0.0
 10
972.6684481908078
 20
1782.790700316228
 30
0.0
 10
971.447030595094
 20
1782.622965770739
 30
0.0
 10
970.0832342983889
 20
1782.432732694036
 30
0.0
 10
968.7103299523465
 20
1782.238116347668
 30
0.0
 10
967.4174644536258
 20
1782.052053750039
 30
0.0
 10
966.2096816785469
 20
1781.875766911224
 30
0.0
 10
965.2601985681127
 20
1781.735358481401
 30
0.0
 10
964.5628611258537
 20
1781.631289160748
 30
0.0
 10
964.1085479419445
 20
1781.563119799864
 30
0.0
 10
963.7187710930417
 20
1781.504358932868
 30
0.0
 10
963.3905976993462
 20
1781.454688250456
 30
0.0
 10
963.0825826483435
 20
1781.4079145612
 30
0.0
 10
962.7499962578694
 20
1781.357241766669
 30
0.0
 10
962.3458136513269
 20
1781.295411927061
 30
0.0
 10
961.8614633123298
 20
1781.220955842098
 30
0.0
 10
961.291864974419
 20
1781.13288418816
 30
0.0
 10
960.6557933285345
 20
1781.033869011161
 30
0.0
 10
959.734158075638
 20
1780.889339669819
 30
0.0
 10
958.602989146449
 20
1780.709904545051
 30
0.0
 10
957.319351049929
 20
1780.503275274176
 30
0.0
 10
956.1519633134134
 20
1780.312878836723
 30
0.0
 10
955.0034719030951
 20
1780.123313574953
 30
0.0
 10
953.8195039643957
 20
1779.925465188033
 30
0.0
 10
952.544925399611
 20
1779.709629296003
 30
0.0
 10
951.2167124620086
 20
1779.481570046604
 30
0.0
 10
949.8212861577917
 20
1779.238442870608
 30
0.0
 10
948.4039920861761
 20
1778.987740078256
 30
0.0
 10
947.039017169167
 20
1778.742600556072
 30
0.0
 10
945.753788042341
 20
1778.508520481699
 30
0.0
 10
944.4947225476302
 20
1778.276196494655
 30
0.0
 10
943.1954246473837
 20
1778.033218713097
 30
0.0
 10
941.8322059442008
 20
1777.774649328393
 30
0.0
 10
940.4283555350423
 20
1777.504428728309
 30
0.0
 10
939.3067969884861
 20
1777.285272209953
 30
0.0
 10
938.4806805465081
 20
1777.122162374251
 30
0.0
 10
937.9491144311106
 20
1777.016606025096
 30
0.0
 10
937.4375331417863
 20
1776.914442441138
 30
0.0
 10
936.9659672106947
 20
1776.819756322567
 30
0.0
 10
936.560104219466
 20
1776.737881373167
 30
0.0
 10
936.1825588873078
 20
1776.661365221663
 30
0.0
 10
935.80532191807
 20
1776.584609442686
 30
0.0
 10
935.3752197900071
 20
1776.496798351945
 30
0.0
 10
934.8765002901995
 20
1776.394527240606
 30
0.0
 10
934.30024311041
 20
1776.27557747312
 30
0.0
 10
933.7809278701019
 20
1776.167812242534
 30
0.0
 10
933.4554068937406
 20
1776.09950788786
 30
0.0
 10
933.3598920870772
 20
1776.079465931413
 30
0.0
  0
SPLINE
  5
111
330
1F
100
AcDbEntity
  8
0
  6
Continuous
 62
     7
370
    25
100
AcDbSpline
210
0.0
220
0.0
230
1.0
 70
     8
 71
     3
 72
   149
 73
   145
 74
     0
 42
0.000000001
 43
0.00000001
 40
0.0
 40
0.0
 40
0.0
 40
0.0
 40
0.0009867302730194
 40
0.003016991260388
 40
0.0045557419110933
 40
0.0061124138099487
 40
0.0077007366104292
 40
0.0093210649991395
 40
0.0139127253475764
 40
0.0178908805652083
 40
0.0201326707595614
 40
0.0218933476498683
 40
0.0236638061965655
 40
0.0256628437168604
 40
0.0278902709712308
 40
0.0324351155637139
 40
0.0376877891368847
 40
0.0435722489437997
 40
0.0500794751888646
 40
0.0572083127804179
 40
0.0612627939606101
 40
0.0646190295462016
 40
0.0672243411003301
 40
0.069091798569794
 40
0.0708420997471266
 40
0.0749435795537705
 40
0.0799233853100436
 40
0.0850934547106819
 40
0.0908838399080877
 40
0.0972883484006524
 40
0.1043058530512408
 40
0.1083569457330312
 40
0.1117047661794778
 40
0.1142984223358123
 40
0.116154309161304
 40
0.117938101388358
 40
0.1200008789982651
 40
0.1238056926916361
 40
0.1282984030013463
 40
0.1333486062867245
 40
0.1390382153743065
 40
0.1450015842314204
 40
0.1512383592809848
 40
0.1577481747925041
 40
0.1642840798005399
 40
0.1678163492830325
 40
0.1708542294605622
 40
0.1733981027853363
 40
0.1754482879268312
 40
0.1773547840782813
 40
0.1799954119637103
 40
0.1834119139114141
 40
0.1875817846791763
 40
0.196280177057736
 40
0.2040580442889067
 40
0.2109170475643435
 40
0.2167885241297086
 40
0.2220489745674017
 40
0.226708397406622
 40
0.2308978497097113
 40
0.2357116115585398
 40
0.2413954690125675
 40
0.247930158454768
 40
0.2574710623424899
 40
0.2673204939427474
 40
0.2774778613119971
 40
0.2877456038365938
 40
0.293288369561041
 40
0.2985665716785108
 40
0.3035805754843282
 40
0.3083307069674496
 40
0.3126491833231354
 40
0.315341123216693
 40
0.3173833607229319
 40
0.3187859872150566
 40
0.3201390547086702
 40
0.3217885546489048
 40
0.3254712865462658
 40
0.3300989410003725
 40
0.3356712563515575
 40
0.3421879641949013
 40
0.3496432892408393
 40
0.356570137817689
 40
0.3641245086247952
 40
0.3717484482419748
 40
0.3792165223811872
 40
0.3865327471303486
 40
0.393674064708383
 40
0.4044278388858386
 40
0.4145705788710832
 40
0.4242733458636411
 40
0.4356952747169598
 40
0.4465132683635721
 40
0.4567334420347938
 40
0.4664218189472004
 40
0.4764620757199146
 40
0.4871274628859424
 40
0.5005024150635415
 40
0.5147503918375786
 40
0.5298781595797545
 40
0.5458920022184507
 40
0.555441029629935
 40
0.565274347697026
 40
0.5753900395673048
 40
0.5857883108788926
 40
0.5964694644968653
 40
0.6069847275848435
 40
0.6168313999236971
 40
0.6268911853437438
 40
0.6361432814373419
 40
0.6445877607932325
 40
0.6522249383553529
 40
0.65905513041793
 40
0.6655040253903851
 40
0.6710191620901176
 40
0.6756008798827468
 40
0.6794646168644196
 40
0.6829828747851432
 40
0.6861623277141363
 40
0.6880316808082767
 40
0.6904387742568175
 40
0.6934450003805229
 40
0.6970502255840224
 40
0.7012542820037675
 40
0.707351157697995
 40
0.7143829968045339
 40
0.72234934347379
 40
0.7312496946491415
 40
0.7411197641381931
 40
0.7519292689833122
 40
0.7636775531388863
 40
0.7763638992238747
 40
0.7899875155546437
 40
0.8042793134069492
 40
0.8194734063308853
 40
0.8355687087941427
 40
0.8525639609922877
 40
0.8708321877987949
 40
0.8900345031519363
 40
0.9101695064154597
 40
0.9312355951895563
 40
0.9532309058223638
 40
0.976153243309248
 40
1.0
 40
1.0
 40
1.0
 40
1.0
 10
1314.94525836095
 20
1776.021506056461
 30
0.0
 10
1314.88464634732
 20
1776.034263250111
 30
0.0
 10
1314.699321218053
 20
1776.073269190035
 30
0.0
 10
1314.427717919335
 20
1776.129935923969
 30
0.0
 10
1314.142978058182
 20
1776.189242116148
 30
0.0
 10
1313.88212163616
 20
1776.24340610555
 30
0.0
 10
1313.619878295412
 20
1776.297715485457
 30
0.0
 10
1313.193640360951
 20
1776.385745839478
 30
0.0
 10
1312.64834344162
 20
1776.497788704833
 30
0.0
 10
1312.068578444364
 20
1776.616031881767
 30
0.0
 10
1311.637832668682
 20
1776.703404285844
 30
0.0
 10
1311.324133322534
 20
1776.766812159374
 30
0.0
 10
1311.022078202318
 20
1776.827677509007
 30
0.0
 10
1310.693604393809
 20
1776.893647395631
 30
0.0
 10
1310.211692817149
 20
1776.990073502735
 30
0.0
 10
1309.548317696802
 20
1777.122017596497
 30
0.0
 10
1308.678937553728
 20
1777.293429623598
 30
0.0
 10
1307.698454212254
 20
1777.484851980886
 30
0.0
 10
1306.609868764637
 20
1777.695063817331
 30
0.0
 10
1305.619486985942
 20
1777.884012701275
 30
0.0
 10
1304.802786656939
 20
1778.038283650115
 30
0.0
 10
1304.238942442363
 20
1778.1440894285
 30
0.0
 10
1303.797508874808
 20
1778.226484462248
 30
0.0
 10
1303.446431736367
 20
1778.291752359831
 30
0.0
 10
1303.010846535497
 20
1778.372469072079
 30
0.0
 10
1302.398794189483
 20
1778.485292848808
 30
0.0
 10
1301.591556596923
 20
1778.63288710145
 30
0.0
 10
1300.686023813917
 20
1778.796944723014
 30
0.0
 10
1299.696701855439
 20
1778.974411941402
 30
0.0
 10
1298.598375288671
 20
1779.169257624333
 30
0.0
 10
1297.59568183573
 20
1779.344964500024
 30
0.0
 10
1296.765780480562
 20
1779.488919684376
 30
0.0
 10
1296.18942851318
 20
1779.588213928387
 30
0.0
 10
1295.739054130013
 20
1779.66537953251
 30
0.0
 10
1295.378855013646
 20
1779.726841017918
 30
0.0
 10
1295.049313796198
 20
1779.78288196729
 30
0.0
 10
1294.606817281719
 20
1779.857863830107
 30
0.0
 10
1294.006924107237
 20
1779.958964148617
 30
0.0
 10
1293.232461428117
 20
1780.088479807398
 30
0.0
 10
1292.346496944255
 20
1780.235325959998
 30
0.0
 10
1291.372583787309
 20
1780.395129255498
 30
0.0
 10
1290.3265653764
 20
1780.564886419204
 30
0.0
 10
1289.229377560715
 20
1780.740897277157
 30
0.0
 10
1288.095137322369
 20
1780.920650293563
 30
0.0
 10
1287.116897869786
 20
1781.073745312226
 30
0.0
 10
1286.341650564887
 20
1781.193883541163
 30
0.0
 10
1285.801750574302
 20
1781.27701400603
 30
0.0
 10
1285.349161288983
 20
1781.346319692799
 30
0.0
 10
1284.963380357336
 20
1781.405128210533
 30
0.0
 10
1284.571911547178
 20
1781.464571329996
 30
0.0
 10
1284.099224838242
 20
1781.536025489331
 30
0.0
 10
1283.49146352504
 20
1781.627349069479
 30
0.0
 10
1282.522101777992
 20
1781.771913747623
 30
0.0
 10
1281.289429997572
 20
1781.95339823772
 30
0.0
 10
1279.891155409831
 20
1782.155873259876
 30
0.0
 10
1278.658599158164
 20
1782.331712805825
 30
0.0
 10
1277.574802699994
 20
1782.484322888085
 30
0.0
 10
1276.621387004466
 20
1782.617037146962
 30
0.0
 10
1275.768039223767
 20
1782.734600959292
 30
0.0
 10
1274.940598370359
 20
1782.847543047109
 30
0.0
 10
1274.050597477164
 20
1782.967876840244
 30
0.0
 10
1273.016903875391
 20
1783.10609139008
 30
0.0
 10
1271.693611673874
 20
1783.280731073844
 30
0.0
 10
1270.112243052198
 20
1783.485835283466
 30
0.0
 10
1268.303426464844
 20
1783.715504467679
 30
0.0
 10
1266.44333637941
 20
1783.946475548159
 30
0.0
 10
1264.8419313831
 20
1784.140768340132
 30
0.0
 10
1263.538110974675
 20
1784.296105251443
 30
0.0
 10
1262.557472462418
 20
1784.411475855147
 30
0.0
 10
1261.624529517553
 20
1784.519915929483
 30
0.0
 10
1260.749956988135
 20
1784.620401530782
 30
0.0
 10
1260.018768741485
 20
1784.703507103739
 30
0.0
 10
1259.455293968593
 20
1784.767012389098
 30
0.0
 10
1259.073116365159
 20
1784.809838789014
 30
0.0
 10
1258.774270379128
 20
1784.843187255673
 30
0.0
 10
1258.500265728167
 20
1784.873661246431
 30
0.0
 10
1258.08467763646
 20
1784.919712785633
 30
0.0
 10
1257.465615310011
 20
1784.987865002008
 30
0.0
 10
1256.602093193687
 20
1785.081960851956
 30
0.0
 10
1255.560921480653
 20
1785.193987195241
 30
0.0
 10
1254.341434769326
 20
1785.323213842828
 30
0.0
 10
1253.034584143543
 20
1785.459295005136
 30
0.0
 10
1251.65970135788
 20
1785.599871322964
 30
0.0
 10
1250.271032256856
 20
1785.739192900677
 30
0.0
 10
1248.844895981658
 20
1785.879391856514
 30
0.0
 10
1247.430432620718
 20
1786.015600989362
 30
0.0
 10
1246.043332677168
 20
1786.146423152792
 30
0.0
 10
1244.445007867291
 20
1786.294205528784
 30
0.0
 10
1242.662969294413
 20
1786.455300271731
 30
0.0
 10
1240.712268038069
 20
1786.627265195207
 30
0.0
 10
1238.713834435312
 20
1786.799282594896
 30
0.0
 10
1236.667326692015
 20
1786.971264873242
 30
0.0
 10
1234.58224997861
 20
1787.141753572839
 30
0.0
 10
1232.604059230872
 20
1787.299421482224
 30
0.0
 10
1230.672133269782
 20
1787.449665332302
 30
0.0
 10
1228.707428320562
 20
1787.598721091115
 30
0.0
 10
1226.49966389831
 20
1787.761865352661
 30
0.0
 10
1224.013304900546
 20
1787.940080206946
 30
0.0
 10
1221.2296991183
 20
1788.132612567914
 30
0.0
 10
1218.266188105566
 20
1788.329911126267
 30
0.0
 10
1215.602140689794
 20
1788.500091946484
 30
0.0
 10
1213.279777694307
 20
1788.643355018566
 30
0.0
 10
1211.341364629305
 20
1788.759732648188
 30
0.0
 10
1209.344050215429
 20
1788.876298125785
 30
0.0
 10
1207.287782210784
 20
1788.992808072516
 30
0.0
 10
1205.20202724733
 20
1789.107397271755
 30
0.0
 10
1203.149689121619
 20
1789.216650851408
 30
0.0
 10
1201.135722526326
 20
1789.320611430284
 30
0.0
 10
1199.20296054163
 20
1789.417378620484
 30
0.0
 10
1197.361013408976
 20
1789.506852399873
 30
0.0
 10
1195.678130411626
 20
1789.586303643576
 30
0.0
 10
1194.154797867216
 20
1789.656355828541
 30
0.0
 10
1192.7631031998
 20
1789.718832281353
 30
0.0
 10
1191.511789313929
 20
1789.773760083669
 30
0.0
 10
1190.409578359266
 20
1789.821160374795
 30
0.0
 10
1189.479206685289
 20
1789.860475110806
 30
0.0
 10
1188.681683551973
 20
1789.893679810013
 30
0.0
 10
1187.977413133887
 20
1789.922620518648
 30
0.0
 10
1187.405985560283
 20
1789.945822537298
 30
0.0
 10
1186.908602621883
 20
1789.965835130524
 30
0.0
 10
1186.422878048921
 20
1789.985227585272
 30
0.0
 10
1185.821321755316
 20
1790.00900833531
 30
0.0
 10
1185.099780911685
 20
1790.037187211678
 30
0.0
 10
1184.171800062798
 20
1790.072905653692
 30
0.0
 10
1183.014704683633
 20
1790.116588352224
 30
0.0
 10
1181.605716418728
 20
1790.168467477776
 30
0.0
 10
1180.008525991133
 20
1790.225584117393
 30
0.0
 10
1178.220472671518
 20
1790.287410793082
 30
0.0
 10
1176.240873650032
 20
1790.353273872458
 30
0.0
 10
1174.069052939943
 20
1790.422431879165
 30
0.0
 10
1171.706785077365
 20
1790.494009193638
 30
0.0
 10
1169.15388852027
 20
1790.567137485308
 30
0.0
 10
1166.428229004874
 20
1790.640408476057
 30
0.0
 10
1163.531996135319
 20
1790.712906971681
 30
0.0
 10
1160.467445748948
 20
1790.783700080626
 30
0.0
 10
1157.218851542666
 20
1790.85216886379
 30
0.0
 10
1153.761160147818
 20
1790.917733823641
 30
0.0
 10
1150.092069459077
 20
1790.979163376617
 30
0.0
 10
1146.209365343229
 20
1791.035115969444
 30
0.0
 10
1142.136199467056
 20
1791.083921785794
 30
0.0
 10
1137.873107329118
 20
1791.124345284404
 30
0.0
 10
1133.420780043052
 20
1791.154758047836
 30
0.0
 10
1128.780036487606
 20
1791.174915075675
 30
0.0
 10
1125.623607172078
 20
1791.177536986686
 30
0.0
 10
1124.014198154809
 20
1791.178873854013
 30
0.0
  0
SPLINE
  5
112
330
1F
100
AcDbEntity
  8
0
  6
Continuous
 62
     7
370
    25
100
AcDbSpline
210
0.0
220
0.0
230
1.0
 70
     8
 71
     3
 72
    12
 73
     8
 74
     0
 42
0.000000001
 43
0.00000001
 40
0.0
 40
0.0
 40
0.0
 40
0.0
 40
0.2344455314899086
 40
0.4792013541521521
 40
0.7239510446924912
 40
0.9686930694274212
 40
1.0
 40
1.0
 40
1.0
 40
1.0
 10
970.7513265374241
 20
1444.656839915644
 30
0.0
 10
970.3493593022072
 20
1444.597597021173
 30
0.0
 10
969.5277473814486
 20
1444.476505887237
 30
0.0
 10
968.2956888598558
 20
1444.23796814857
 30
0.0
 10
967.0565173686077
 20
1443.950446580817
 30
0.0
 10
966.1821229311416
 20
1443.725725677388
 30
0.0
 10
965.7252950707186
 20
1443.584511314772
 30
0.0
 10
965.6734858613921
 20
1443.568496082107
 30
0.0
  0
SPLINE
  5
113
330
1F
100
AcDbEntity
  8
0
  6
Continuous
 62
     7
370
    25
100
AcDbSpline
210
0.0
220
0.0
230
1.0
 70
     8
 71
     3
 72
    21
 73
    17
 74
     0
 42
0.000000001
 43
0.00000001
 40
0.0
 40
0.0
 40
0.0
 40
0.0
 40
0.0253644076182832
 40
0.1046338336134339
 40
0.1838805622276188
 40
0.2631059471956713
 40
0.3423114919813139
 40
0.4214988350796991
 40
0.5006697354240671
 40
0.5798260580014527
 40
0.6589697597451415
 40
0.7381028757360077
 40
0.8172275057141726
 40
0.8963458008748506
 40
0.9754599508996761
 40
1.0
 40
1.0
 40
1.0
 40
1.0
 10
964.4048249753671
 20
1427.811117532362
 30
0.0
 10
964.4928686604652
 20
1427.867295530468
 30
0.0
 10
964.8560684810919
 20
1428.099042291327
 30
0.0
 10
965.5192712696256
 20
1428.467156579043
 30
0.0
 10
966.3923256793641
 20
1428.913510846035
 30
0.0
 10
967.2872122686462
 20
1429.316267026019
 30
0.0
 10
968.1997169502843
 20
1429.678013099875
 30
0.0
 10
969.1284422917139
 20
1429.99704225224
 30
0.0
 10
970.0711926786901
 20
1430.272916149337
 30
0.0
 10
971.0259477847308
 20
1430.504972365355
 30
0.0
 10
971.9906084341463
 20
1430.692741255747
 30
0.0
 10
972.9630664770317
 20
1430.835777298553
 30
0.0
 10
973.9412060608569
 20
1430.933922517652
 30
0.0
 10
974.9228556008785
 20
1430.986425957691
 30
0.0
 10
975.6799519779104
 20
1430.993186676552
 30
0.0
 10
976.1089973703284
 20
1430.98234341766
 30
0.0
 10
976.2105735253232
 20
1430.979776284752
 30
0.0
  0
SPLINE
  5
114
330
1F
100
AcDbEntity
  8
0
  6
Continuous
 62
     7
370
    25
100
AcDbSpline
210
0.0
220
0.0
230
1.0
 70
     8
 71
     3
 72
    65
 73
    61
 74
     0
 42
0.000000001
 43
0.00000001
 40
0.0
 40
0.0
 40
0.0
 40
0.0
 40
0.0105651843551861
 40
0.0215228733815764
 40
0.0323445205470957
 40
0.0430357237819809
 40
0.0535978948425678
 40
0.06403006840633
 40
0.0743286081377549
 40
0.0844860973704128
 40
0.0944897134180264
 40
0.1043188526774444
 40
0.1139424056239747
 40
0.1233175266385007
 40
0.1323942249978385
 40
0.1411309977928456
 40
0.1495202747509639
 40
0.1576104603193819
 40
0.1655110089690756
 40
0.1733830175528124
 40
0.1813924085188491
 40
0.1897347503289315
 40
0.1986775196539589
 40
0.20854892327993
 40
0.2197864601574032
 40
0.2330381107084847
 40
0.2494151260129583
 40
0.2713131480134058
 40
0.306580071658638
 40
0.3327913422315863
 40
0.3572985047747748
 40
0.3832396704899502
 40
0.4079576504048396
 40
0.4319555272895279
 40
0.45550138599146
 40
0.4787409796429801
 40
0.501762260916185
 40
0.5246221411815103
 40
0.5473593290829356
 40
0.5700011706476573
 40
0.5925675764342128
 40
0.6150734074422031
 40
0.6375299907341582
 40
0.6599461177347451
 40
0.6823287219201395
 40
0.7046833508076417
 40
0.727014502054513
 40
0.7493258675077831
 40
0.7716205135395376
 40
0.7939010164433229
 40
0.8161695656123051
 40
0.838428043290861
 40
0.8606780870884766
 40
0.8829211396868192
 40
0.9051584889674703
 40
0.9273913009494965
 40
0.9496206473395626
 40
0.9718475290825103
 40
0.9940728970085146
 40
1.0
 40
1.0
 40
1.0
 40
1.0
 10
1124.013792192623
 20
1432.868817870649
 30
0.0
 10
1124.009779943442
 20
1433.049013442814
 30
0.0
 10
1124.001606386957
 20
1433.41609899033
 30
0.0
 10
1123.934853203165
 20
1433.964282476994
 30
0.0
 10
1123.827684584081
 20
1434.507462144358
 30
0.0
 10
1123.679556408495
 20
1435.033629892627
 30
0.0
 10
1123.494055619582
 20
1435.540004228945
 30
0.0
 10
1123.273699068204
 20
1436.023949653322
 30
0.0
 10
1123.021639519322
 20
1436.483000599839
 30
0.0
 10
1122.741297933728
 20
1436.914844754242
 30
0.0
 10
1122.436596570512
 20
1437.317297395708
 30
0.0
 10
1122.112097059187
 20
1437.688288175919
 30
0.0
 10
1121.7732025997
 20
1438.025899357949
 30
0.0
 10
1121.426266284762
 20
1438.328530516933
 30
0.0
 10
1121.078396101543
 20
1438.595259079454
 30
0.0
 10
1120.736737190293
 20
1438.826341013509
 30
0.0
 10
1120.407315046376
 20
1439.023587229328
 30
0.0
 10
1120.093948532087
 20
1439.190310668879
 30
0.0
 10
1119.797801282821
 20
1439.33080795926
 30
0.0
 10
1119.518102400008
 20
1439.449479508391
 30
0.0
 10
1119.252727881419
 20
1439.55040944986
 30
0.0
 10
1118.998212423075
 20
1439.637329232304
 30
0.0
 10
1118.749637758142
 20
1439.713604564299
 30
0.0
 10
1118.500459479973
 20
1439.782254434549
 30
0.0
 10
1118.241804874966
 20
1439.846086668436
 30
0.0
 10
1117.959786104086
 20
1439.908156077466
 30
0.0
 10
1117.627630699737
 20
1439.972858392738
 30
0.0
 10
1117.171358704188
 20
1440.050409634177
 30
0.0
 10
1116.647400556611
 20
1440.125573542616
 30
0.0
 10
1116.067608947206
 20
1440.197729892613
 30
0.0
 10
1115.513860383916
 20
1440.259869428291
 30
0.0
 10
1114.930312196658
 20
1440.319686489974
 30
0.0
 10
1114.307647020077
 20
1440.378526688844
 30
0.0
 10
1113.663695329363
 20
1440.435210902769
 30
0.0
 10
1112.99308377978
 20
1440.490602840785
 30
0.0
 10
1112.293155522337
 20
1440.545152328091
 30
0.0
 10
1111.562756313898
 20
1440.599095620327
 30
0.0
 10
1110.801539569545
 20
1440.652556825056
 30
0.0
 10
1110.009653508021
 20
1440.705594616581
 30
0.0
 10
1109.187578690956
 20
1440.758226818807
 30
0.0
 10
1108.336034761084
 20
1440.810444482775
 30
0.0
 10
1107.455922660876
 20
1440.862220500483
 30
0.0
 10
1106.548286621076
 20
1440.913515142961
 30
0.0
 10
1105.614287846572
 20
1440.964279771864
 30
0.0
 10
1104.655185467245
 20
1441.014459415451
 30
0.0
 10
1103.672322176974
 20
1441.063994612526
 30
0.0
 10
1102.667112994779
 20
1441.112822769634
 30
0.0
 10
1101.641036159725
 20
1441.160879185787
 30
0.0
 10
1100.595625515467
 20
1441.208097845094
 30
0.0
 10
1099.532463954897
 20
1441.254412042589
 30
0.0
 10
1098.453177625058
 20
1441.299754892761
 30
0.0
 10
1097.359430704462
 20
1441.344059735644
 30
0.0
 10
1096.252920538203
 20
1441.387260523447
 30
0.0
 10
1095.135373279142
 20
1441.42929197575
 30
0.0
 10
1094.0085390098
 20
1441.470090363548
 30
0.0
 10
1092.874189823413
 20
1441.509591763175
 30
0.0
 10
1091.734107628308
 20
1441.54773960229
 30
0.0
 10
1090.59011086498
 20
1441.584457414731
 30
0.0
 10
1089.724092515825
 20
1441.611124529769
 30
0.0
 10
1089.240118118597
 20
1441.625567491509
 30
0.0
 10
1089.138224181613
 20
1441.628608252016
 30
0.0
  0
SPLINE
  5
115
330
1F
100
AcDbEntity
  8
0
  6
Continuous
 62
     7
370
    25
100
AcDbSpline
210
0.0
220
0.0
230
1.0
 70
     8
 71
     3
 72
    44
 73
    40
 74
     0
 42
0.000000001
 43
0.00000001
 40
0.0
 40
0.0
 40
0.0
 40
0.0
 40
0.0156237141053246
 40
0.0453145505955778
 40
0.0750057863589117
 40
0.1046946707941402
 40
0.1343799307722195
 40
0.1640602315922127
 40
0.193734151043854
 40
0.2234001505549087
 40
0.2530565420360004
 40
0.2827014489976838
 40
0.3123327601594102
 40
0.3419480732800046
 40
0.3715446262774497
 40
0.4011192117998563
 40
0.430668070174657
 40
0.460186753965486
 40
0.4896699550226397
 40
0.519111281659862
 40
0.5485029690513719
 40
0.5778354995863981
 40
0.6070971009991004
 40
0.6362730775916186
 40
0.6653449124636346
 40
0.6942890547925982
 40
0.7230752744692581
 40
0.7516644267135891
 40
0.7800054260306712
 40
0.808031198012896
 40
0.8356534021533071
 40
0.8627558984114769
 40
0.8891874637066846
 40
0.9147554750418185
 40
0.9366633101971528
 40
0.9571796205727828
 40
0.9761425803860921
 40
0.9934641241455922
 40
1.0
 40
1.0
 40
1.0
 40
1.0
 10
1088.72218617304
 20
1427.634791318261
 30
0.0
 10
1088.919939298463
 20
1427.6288699403
 30
0.0
 10
1089.493496517125
 20
1427.611695753712
 30
0.0
 10
1090.442424935803
 20
1427.582125575308
 30
0.0
 10
1091.566531554326
 20
1427.54565877365
 30
0.0
 10
1092.68596772158
 20
1427.507805461119
 30
0.0
 10
1093.79877384098
 20
1427.468658491747
 30
0.0
 10
1094.903035978646
 20
1427.428279177864
 30
0.0
 10
1095.996846693867
 20
1427.386740368258
 30
0.0
 10
1097.078313309936
 20
1427.344115019478
 30
0.0
 10
1098.145558457809
 20
1427.300479221024
 30
0.0
 10
1099.196722505859
 20
1427.25591137158
 30
0.0
 10
1100.229965253034
 20
1427.210492416081
 30
0.0
 10
1101.243467532389
 20
1427.164305837381
 30
0.0
 10
1102.235432484656
 20
1427.117437764128
 30
0.0
 10
1103.204086484204
 20
1427.06997711348
 30
0.0
 10
1104.147679620734
 20
1427.022015811072
 30
0.0
 10
1105.064485636186
 20
1426.973649104552
 30
0.0
 10
1105.952801185155
 20
1426.924976003709
 30
0.0
 10
1106.810944254397
 20
1426.876099889344
 30
0.0
 10
1107.637251533932
 20
1426.827129349665
 30
0.0
 10
1108.430074479974
 20
1426.778179325504
 30
0.0
 10
1109.187773747897
 20
1426.729372677981
 30
0.0
 10
1109.908711607574
 20
1426.680842337976
 30
0.0
 10
1110.591241890302
 20
1426.632734262821
 30
0.0
 10
1111.233697007467
 20
1426.585211515246
 30
0.0
 10
1111.834371613048
 20
1426.538459917393
 30
0.0
 10
1112.391502981796
 20
1426.492695867934
 30
0.0
 10
1112.903248329815
 20
1426.448177258017
 30
0.0
 10
1113.367663577524
 20
1426.405218156443
 30
0.0
 10
1113.782682644259
 20
1426.364209890929
 30
0.0
 10
1114.146135980092
 20
1426.325644346594
 30
0.0
 10
1114.455737565012
 20
1426.290158360632
 30
0.0
 10
1114.700918727956
 20
1426.25958815456
 30
0.0
 10
1114.884825743366
 20
1426.234618266417
 30
0.0
 10
1115.014146075861
 20
1426.215416541102
 30
0.0
 10
1115.093496923917
 20
1426.202582256929
 30
0.0
 10
1115.130921581051
 20
1426.195725046196
 30
0.0
 10
1115.126881028851
 20
1426.196520768155
 30
0.0
 10
1115.125774096584
 20
1426.196738760714
 30
0.0
  0
LINE
  5
116
330
1F
100
AcDbEntity
  8
0
  6
Continuous
 62
     7
370
    25
100
AcDbLine
 10
976.2105735253
 20
1430.9797762848
 30
0.0
 11
1088.722186173
 21
1427.6347913183
 31
0.0
  0
LINE
  5
117
330
1F
100
AcDbEntity
  8
0
  6
Continuous
 62
     7
370
    25
100
AcDbLine
 10
1089.1382241816
 20
1441.628608252
 30
0.0
 11
1069.0378624453
 21
1442.2261946366
 31
0.0
  0
LINE
  5
118
330
1F
100
AcDbEntity
  8
0
  6
Continuous
 62
     7
370
    25
100
AcDbLine
 10
1110.0137921926
 20
1426.6730573756
 30
0.0
 11
1110.0137921926
 21
1425.8918887719
 31
0.0
  0
LINE
  5
119
330
1F
100
AcDbEntity
  8
0
  6
Continuous
 62
     7
370
    25
100
AcDbLine
 10
1124.0137921926
 20
1425.8918887719
 30
0.0
 11
1124.0137921926
 21
1432.8688178706
 31
0.0
  0
SPLINE
  5
11A
330
1F
100
AcDbEntity
  8
0
  6
Continuous
 62
     7
370
    25
100
AcDbSpline
210
0.0
220
0.0
230
1.0
 70
     8
 71
     3
 72
    65
 73
    61
 74
     0
 42
0.000000001
 43
0.00000001
 40
0.0
 40
0.0
 40
0.0
 40
0.0
 40
0.0115822825779821
 40
0.0335930018552507
 40
0.0556053034080326
 40
0.0776189584561481
 40
0.0996348911158785
 40
0.1216540653239463
 40
0.1436775037573138
 40
0.1657063091518128
 40
0.1877416888091381
 40
0.2097849834413179
 40
0.2318377018144509
 40
0.2539015630951313
 40
0.2759785494268136
 40
0.2980709721491839
 40
0.3201815563457904
 40
0.3423135502536393
 40
0.3644708687980144
 40
0.3866582846156779
 40
0.4088816862132013
 40
0.431148432753632
 40
0.4534678507922777
 40
0.4758519444642901
 40
0.4983164353917697
 40
0.5208823280890701
 40
0.5435783443206302
 40
0.5664448590738232
 40
0.5895405746251959
 40
0.612954533367847
 40
0.6368294762436201
 40
0.6614122517245616
 40
0.687180087960638
 40
0.7152398014616154
 40
0.7492491669772793
 40
0.7670334599677283
 40
0.7799216943480123
 40
0.791026118932506
 40
0.8008141608703182
 40
0.8097259486167915
 40
0.8181085817515681
 40
0.8262478451613774
 40
0.8343552413859359
 40
0.8425832690363153
 40
0.8511030112124338
 40
0.8600125936538364
 40
0.8693296288751624
 40
0.8790011385927029
 40
0.8889397452303958
 40
0.899061044156097
 40
0.9093009870058575
 40
0.9196164711152007
 40
0.9299800593620796
 40
0.9403746739048874
 40
0.9507897343788474
 40
0.9612186458504874
 40
0.9727129052664567
 40
0.9840694664466976
 40
0.995266619725394
 40
1.0
 40
1.0
 40
1.0
 40
1.0
 10
1088.5889474673
 20
1418.738551424746
 30
0.0
 10
1088.79000754297
 20
1418.73306190139
 30
0.0
 10
1089.373157837356
 20
1418.717140206592
 30
0.0
 10
1090.338178240375
 20
1418.691967768832
 30
0.0
 10
1091.481739775454
 20
1418.663599787358
 30
0.0
 10
1092.621108925723
 20
1418.636899578092
 30
0.0
 10
1093.754447940795
 20
1418.611884413137
 30
0.0
 10
1094.879973208221
 20
1418.588601569655
 30
0.0
 10
1095.995910792327
 20
1418.567086996318
 30
0.0
 10
1097.100507976593
 20
1418.547376467536
 30
0.0
 10
1098.192035144095
 20
1418.529502562981
 30
0.0
 10
1099.268790382772
 20
1418.51349547102
 30
0.0
 10
1100.329103543702
 20
1418.499382796758
 30
0.0
 10
1101.371340693034
 20
1418.487189672747
 30
0.0
 10
1102.393908790069
 20
1418.476938833203
 30
0.0
 10
1103.3952607503
 20
1418.468650754922
 30
0.0
 10
1104.373901006077
 20
1418.462343854465
 30
0.0
 10
1105.32839174911
 20
1418.458034768948
 30
0.0
 10
1106.257360105876
 20
1418.455738748497
 30
0.0
 10
1107.159506606426
 20
1418.455470204672
 30
0.0
 10
1108.033615470342
 20
1418.457243480297
 30
0.0
 10
1108.878567488074
 20
1418.461073940897
 30
0.0
 10
1109.693356681583
 20
1418.466979544178
 30
0.0
 10
1110.477112598864
 20
1418.47498313955
 30
0.0
 10
1111.229131234769
 20
1418.48511591265
 30
0.0
 10
1111.948919628974
 20
1418.497422697836
 30
0.0
 10
1112.63626293189
 20
1418.5119704178
 30
0.0
 10
1113.291330617177
 20
1418.528862173921
 30
0.0
 10
1113.914853680256
 20
1418.548261512875
 30
0.0
 10
1114.508447080161
 20
1418.570438927552
 30
0.0
 10
1115.075237279039
 20
1418.595861302222
 30
0.0
 10
1115.621335254083
 20
1418.625417828566
 30
0.0
 10
1116.15975077711
 20
1418.66096269477
 30
0.0
 10
1116.727464364866
 20
1418.707878706265
 30
0.0
 10
1117.226562936631
 20
1418.761765220796
 30
0.0
 10
1117.658420783106
 20
1418.823522263575
 30
0.0
 10
1117.96347045882
 20
1418.87593100979
 30
0.0
 10
1118.236079993415
 20
1418.930558269209
 30
0.0
 10
1118.503814443502
 20
1418.992544490504
 30
0.0
 10
1118.774010862954
 20
1419.064310985373
 30
0.0
 10
1119.053263101184
 20
1419.149028049969
 30
0.0
 10
1119.346655550605
 20
1419.250467632445
 30
0.0
 10
1119.65739120419
 20
1419.372845434217
 30
0.0
 10
1119.987148512111
 20
1419.52082462972
 30
0.0
 10
1120.335881469243
 20
1419.699346911312
 30
0.0
 10
1120.70133327542
 20
1419.913200868268
 30
0.0
 10
1121.077794815386
 20
1420.165616831006
 30
0.0
 10
1121.456988207869
 20
1420.457590976663
 30
0.0
 10
1121.829766866801
 20
1420.787945949471
 30
0.0
 10
1122.187742520858
 20
1421.154046581408
 30
0.0
 10
1122.524098476499
 20
1421.552612129352
 30
0.0
 10
1122.833615275346
 20
1421.980216607245
 30
0.0
 10
1123.112351460264
 20
1422.433473996499
 30
0.0
 10
1123.357296833839
 20
1422.909060961246
 30
0.0
 10
1123.566139929569
 20
1423.403699001334
 30
0.0
 10
1123.74279278753
 20
1423.931320813649
 30
0.0
 10
1123.880673884811
 20
1424.487750041383
 30
0.0
 10
1123.972996386493
 20
1425.067081555933
 30
0.0
 10
1124.010007245414
 20
1425.536110446311
 30
0.0
 10
1124.012925193535
 20
1425.810392395062
 30
0.0
 10
1124.013792192623
 20
1425.891888771913
 30
0.0
  0
SPLINE
  5
11B
330
1F
100
AcDbEntity
  8
0
  6
Continuous
 62
     7
370
    25
100
AcDbSpline
210
0.0
220
0.0
230
1.0
 70
     8
 71
     3
 72
    22
 73
    18
 74
     0
 42
0.000000001
 43
0.00000001
 40
0.0
 40
0.0
 40
0.0
 40
0.0
 40
0.050201838681894
 40
0.1221546122115498
 40
0.1940426249090748
 40
0.2658705594513767
 40
0.3376432566335376
 40
0.4093656663261336
 40
0.4810428080123303
 40
0.5526797403090271
 40
0.624281538716289
 40
0.6958532807268148
 40
0.7674000373562992
 40
0.8389268701124792
 40
0.9104388323982694
 40
0.9819409743364961
 40
1.0
 40
1.0
 40
1.0
 40
1.0
 10
989.6370804513641
 20
1417.381597195711
 30
0.0
 10
989.8224049325206
 20
1417.507434119226
 30
0.0
 10
990.2733493744647
 20
1417.813629290507
 30
0.0
 10
991.0200982413426
 20
1418.259032476026
 30
0.0
 10
991.8705023438598
 20
1418.722002071826
 30
0.0
 10
992.7434554647277
 20
1419.145375080042
 30
0.0
 10
993.6357964495261
 20
1419.52989076459
 30
0.0
 10
994.545925004324
 20
1419.87430201247
 30
0.0
 10
995.4717758363488
 20
1420.178000624105
 30
0.0
 10
996.4113658583387
 20
1420.440317695648
 30
0.0
 10
997.3626525882963
 20
1420.660709364925
 30
0.0
 10
998.3235783652632
 20
1420.838721576632
 30
0.0
 10
999.2920602672057
 20
1420.973953331886
 30
0.0
 10
1000.266012322777
 20
1421.066245515016
 30
0.0
 10
1001.243293496751
 20
1421.114968047478
 30
0.0
 10
1001.97812856134
 20
1421.120012312467
 30
0.0
 10
1002.386407215616
 20
1421.110214738155
 30
0.0
 10
1002.46873212152
 20
1421.108239164916
 30
0.0
  0
LINE
  5
11C
330
1F
100
AcDbEntity
  8
0
  6
Continuous
 62
     7
370
    25
100
AcDbLine
 10
1002.4687321215
 20
1421.1082391649
 30
0.0
 11
1088.5889474673
 21
1418.7385514247
 31
0.0
  0
SPLINE
  5
11D
330
1F
100
AcDbEntity
  8
0
  6
Continuous
 62
     7
370
    25
100
AcDbSpline
210
0.0
220
0.0
230
1.0
 70
     8
 71
     3
 72
    12
 73
     8
 74
     0
 42
0.000000001
 43
0.00000001
 40
0.0
 40
0.0
 40
0.0
 40
0.0
 40
0.0920656763603044
 40
0.3367653402835701
 40
0.5814781360885495
 40
0.8262027068480723
 40
0.9999999999999999
 40
0.9999999999999999
 40
0.9999999999999999
 40
0.9999999999999999
 10
1282.353305811715
 20
1443.565785201499
 30
0.0
 10
1282.200636195226
 20
1443.611891630268
 30
0.0
 10
1281.642188819611
 20
1443.780543486066
 30
0.0
 10
1280.664715318343
 20
1444.026320313003
 30
0.0
 10
1279.422748094951
 20
1444.301006440111
 30
0.0
 10
1278.292440574699
 20
1444.511468999327
 30
0.0
 10
1277.574045004911
 20
1444.611530570098
 30
0.0
 10
1277.275720792468
 20
1444.653082593178
 30
0.0
  0
SPLINE
  5
11E
330
1F
100
AcDbEntity
  8
0
  6
Continuous
 62
     7
370
    25
100
AcDbSpline
210
0.0
220
0.0
230
1.0
 70
     8
 71
     3
 72
    21
 73
    17
 74
     0
 42
0.000000001
 43
0.00000001
 40
0.0
 40
0.0
 40
0.0
 40
0.0
 40
0.0362641961697999
 40
0.1153709422665216
 40
0.1944827180518783
 40
0.2735951228891504
 40
0.3527103854158707
 40
0.4318307209604578
 40
0.5109583173147652
 40
0.5900953214518138
 40
0.6692438259172302
 40
0.7484058548488215
 40
0.8275833496030931
 40
0.906778153994952
 40
0.9859919991890558
 40
1.0
 40
1.0
 40
1.0
 40
1.0
 10
1271.817010905677
 20
1430.979776284753
 30
0.0
 10
1271.96712631211
 20
1430.98327230263
 30
0.0
 10
1272.444703584408
 20
1430.994394536661
 30
0.0
 10
1273.250246417022
 20
1430.981373210136
 30
0.0
 10
1274.231389429436
 20
1430.922279791468
 30
0.0
 10
1275.20866056123
 20
1430.817451358558
 30
0.0
 10
1276.179864562402
 20
1430.667834987865
 30
0.0
 10
1277.142892355011
 20
1430.473566630006
 30
0.0
 10
1278.095645349381
 20
1430.235128347859
 30
0.0
 10
1279.036031770052
 20
1429.953003779076
 30
0.0
 10
1279.962055976848
 20
1429.627895062663
 30
0.0
 10
1280.871490815191
 20
1429.260192860087
 30
0.0
 10
1281.763124878673
 20
1428.851871996709
 30
0.0
 10
1282.632125071774
 20
1428.399428024255
 30
0.0
 10
1283.252628389626
 20
1428.051759330393
 30
0.0
 10
1283.575181074475
 20
1427.843758926776
 30
0.0
 10
1283.623649523283
 20
1427.812503701231
 30
0.0
  0
SPLINE
  5
11F
330
1F
100
AcDbEntity
  8
0
  6
Continuous
 62
     7
370
    25
100
AcDbSpline
210
0.0
220
0.0
230
1.0
 70
     8
 71
     3
 72
    64
 73
    60
 74
     0
 42
0.000000001
 43
0.00000001
 40
0.0
 40
0.0
 40
0.0
 40
0.0
 40
0.0116943998251863
 40
0.0339182024550445
 40
0.0561436597596331
 40
0.0783705594830011
 40
0.1005998372403306
 40
0.1228324703671393
 40
0.1450694971815918
 40
0.1673120387354509
 40
0.1895613238702666
 40
0.2118187187610468
 40
0.2340857624545049
 40
0.2563642103675794
 40
0.2786560883603633
 40
0.3009637609182556
 40
0.3232900183021489
 40
0.3456381894518688
 40
0.368012290275159
 40
0.390417221239644
 40
0.412859034762026
 40
0.4353453032170413
 40
0.4578856350255808
 40
0.4804924138753501
 40
0.503181883441595
 40
0.5259757843043077
 40
0.5489039070119395
 40
0.5720082346934592
 40
0.5953499985062368
 40
0.619022448291613
 40
0.6431758689261856
 40
0.6680721232806714
 40
0.6942233756195505
 40
0.7228418802896811
 40
0.7530999400185729
 40
0.7712479313990962
 40
0.7844664961214041
 40
0.7958342906008209
 40
0.8058240150106077
 40
0.8148908022339167
 40
0.8233925873038885
 40
0.8316228790731764
 40
0.839807991577815
 40
0.8480950363880314
 40
0.8566631955033629
 40
0.8656188964977134
 40
0.8749878149931359
 40
0.8847220252880438
 40
0.89473477754548
 40
0.9049394294389922
 40
0.9152691248501412
 40
0.9256785064298643
 40
0.9361385989888326
 40
0.946631345273196
 40
0.9571455591199861
 40
0.9676742746078505
 40
0.9792941302597735
 40
0.9907751807975138
 40
1.0
 40
1.0
 40
1.0
 40
1.0
 10
1158.889360249387
 20
1441.628608252016
 30
0.0
 10
1158.688315689103
 20
1441.62258831753
 30
0.0
 10
1158.105210082989
 20
1441.605128220414
 30
0.0
 10
1157.140446954031
 20
1441.57506461902
 30
0.0
 10
1155.997417286941
 20
1441.537983962736
 30
0.0
 10
1154.858819669364
 20
1441.499482665821
 30
0.0
 10
1153.726486045389
 20
1441.459648463332
 30
0.0
 10
1152.60219936627
 20
1441.41853613848
 30
0.0
 10
1151.487731062754
 20
1441.376211190902
 30
0.0
 10
1150.384831290515
 20
1441.332738073935
 30
0.0
 10
1149.29522656755
 20
1441.288183091738
 30
0.0
 10
1148.220615293264
 20
1441.242613334261
 30
0.0
 10
1147.162663649403
 20
1441.196096633532
 30
0.0
 10
1146.123001148014
 20
1441.148701195325
 30
0.0
 10
1145.103215937385
 20
1441.100495253021
 30
0.0
 10
1144.104849720343
 20
1441.051546631442
 30
0.0
 10
1143.129392165871
 20
1441.001922223921
 30
0.0
 10
1142.178274627448
 20
1440.95168734394
 30
0.0
 10
1141.252862911612
 20
1440.900904907617
 30
0.0
 10
1140.354448728493
 20
1440.84963438017
 30
0.0
 10
1139.48423928844
 20
1440.7979303879
 30
0.0
 10
1138.6433442472
 20
1440.74584084608
 30
0.0
 10
1137.832758783726
 20
1440.69340437042
 30
0.0
 10
1137.053340902644
 20
1440.640646600512
 30
0.0
 10
1136.305779870056
 20
1440.587574823445
 30
0.0
 10
1135.590550564527
 20
1440.534169845045
 30
0.0
 10
1134.907844561195
 20
1440.480373241235
 30
0.0
 10
1134.257460690955
 20
1440.426066394032
 30
0.0
 10
1133.638620973982
 20
1440.371034308493
 30
0.0
 10
1133.049635650086
 20
1440.314897819835
 30
0.0
 10
1132.487236629388
 20
1440.256977897532
 30
0.0
 10
1131.94502779396
 20
1440.195971445143
 30
0.0
 10
1131.409117896244
 20
1440.129068259432
 30
0.0
 10
1130.870752481856
 20
1440.052569758963
 30
0.0
 10
1130.395944105168
 20
1439.9731540082
 30
0.0
 10
1129.994698992922
 20
1439.893089836655
 30
0.0
 10
1129.691864365431
 20
1439.823880432881
 30
0.0
 10
1129.421836112058
 20
1439.754321873448
 30
0.0
 10
1129.1578790617
 20
1439.677947291569
 30
0.0
 10
1128.892711128894
 20
1439.591980090201
 30
0.0
 10
1128.619803545356
 20
1439.492935319688
 30
0.0
 10
1128.334084283791
 20
1439.376782922868
 30
0.0
 10
1128.032467115442
 20
1439.239177121124
 30
0.0
 10
1127.713371371595
 20
1439.075385100288
 30
0.0
 10
1127.377004074877
 20
1438.880518349445
 30
0.0
 10
1127.025563881382
 20
1438.649808860571
 30
0.0
 10
1126.664636207254
 20
1438.380152251351
 30
0.0
 10
1126.302374401775
 20
1438.070790266289
 30
0.0
 10
1125.947849955844
 20
1437.723235501876
 30
0.0
 10
1125.609416475275
 20
1437.34050272965
 30
0.0
 10
1125.293856552095
 20
1436.926231446404
 30
0.0
 10
1125.006326259399
 20
1436.484146015094
 30
0.0
 10
1124.75067966949
 20
1436.017864479254
 30
0.0
 10
1124.529788261823
 20
1435.530885934515
 30
0.0
 10
1124.345909378174
 20
1435.026622729601
 30
0.0
 10
1124.195474716518
 20
1434.490726428364
 30
0.0
 10
1124.086150787055
 20
1433.927708642472
 30
0.0
 10
1124.023843760501
 20
1433.379265310136
 30
0.0
 10
1124.016890178236
 20
1433.026140856118
 30
0.0
 10
1124.013792238376
 20
1432.868817870648
 30
0.0
  0
SPLINE
  5
120
330
1F
100
AcDbEntity
  8
0
  6
Continuous
 62
     7
370
    25
100
AcDbSpline
210
0.0
220
0.0
230
1.0
 70
     8
 71
     3
 72
    45
 73
    41
 74
     0
 42
0.000000001
 43
0.00000001
 40
0.0
 40
0.0
 40
0.0
 40
0.0
 40
0.0024432232621968
 40
0.0187798113813457
 40
0.0367902266709204
 40
0.0564893142851309
 40
0.0778115226415021
 40
0.1006205101817851
 40
0.1247318624044894
 40
0.1499412646697637
 40
0.1760493047222851
 40
0.2028776669692777
 40
0.2302762611183858
 40
0.2581237395956294
 40
0.2863244196519943
 40
0.3148038952162224
 40
0.3435046488509594
 40
0.3723822402735652
 40
0.4014022249194599
 40
0.4305377585095088
 40
0.4597677739536469
 40
0.4890756081954359
 40
0.5184479717230683
 40
0.5478741747339739
 40
0.5773455440408635
 40
0.6068549814097884
 40
0.6363966268891256
 40
0.6659656003355677
 40
0.6955578014502316
 40
0.7251697538267234
 40
0.7547984822889285
 40
0.7844414155451422
 40
0.8140963081878709
 40
0.8437611775344926
 40
0.8734342518796386
 40
0.9031139275209864
 40
0.9327987325043694
 40
0.9624872954625744
 40
0.992178318237711
 40
1.0
 40
1.0
 40
1.0
 40
1.0
 10
1132.899580094442
 20
1426.196316674837
 30
0.0
 10
1132.898819511452
 20
1426.196162803394
 30
0.0
 10
1132.89297329784
 20
1426.194980072071
 30
0.0
 10
1132.92015591994
 20
1426.200170515336
 30
0.0
 10
1132.983528310243
 20
1426.210673266592
 30
0.0
 10
1133.096173397044
 20
1426.227904682999
 30
0.0
 10
1133.256111202155
 20
1426.250231546744
 30
0.0
 10
1133.467589750858
 20
1426.277417087503
 30
0.0
 10
1133.731502659777
 20
1426.308750883141
 30
0.0
 10
1134.048280673931
 20
1426.343654929792
 30
0.0
 10
1134.417260783742
 20
1426.381547426913
 30
0.0
 10
1134.837209791078
 20
1426.42191536453
 30
0.0
 10
1135.306509142693
 20
1426.464310199644
 30
0.0
 10
1135.823365738593
 20
1426.508351152911
 30
0.0
 10
1136.385926441828
 20
1426.553716956506
 30
0.0
 10
1136.992343717655
 20
1426.600136495869
 30
0.0
 10
1137.640802272203
 20
1426.647378974237
 30
0.0
 10
1138.329525015988
 20
1426.695245330798
 30
0.0
 10
1139.056768314509
 20
1426.743561168218
 30
0.0
 10
1139.82081303634
 20
1426.792171191735
 30
0.0
 10
1140.619954726237
 20
1426.840934937483
 30
0.0
 10
1141.452494533412
 20
1426.889723540775
 30
0.0
 10
1142.316731537055
 20
1426.938417311345
 30
0.0
 10
1143.210956621226
 20
1426.986903923273
 30
0.0
 10
1144.133447819935
 20
1427.035077068266
 30
0.0
 10
1145.082466962628
 20
1427.082835456847
 30
0.0
 10
1146.056257428198
 20
1427.130082080663
 30
0.0
 10
1147.053042824806
 20
1427.17672367103
 30
0.0
 10
1148.07102643468
 20
1427.222670305788
 30
0.0
 10
1149.108391285695
 20
1427.267835127375
 30
0.0
 10
1150.163300740755
 20
1427.312134149481
 30
0.0
 10
1151.233899492559
 20
1427.355486116246
 30
0.0
 10
1152.318314955766
 20
1427.397812458026
 30
0.0
 10
1153.41465873458
 20
1427.439037110919
 30
0.0
 10
1154.52102907812
 20
1427.479087017417
 30
0.0
 10
1155.635510676477
 20
1427.517890216826
 30
0.0
 10
1156.756185211888
 20
1427.555383036269
 30
0.0
 10
1157.881102416667
 20
1427.591483388208
 30
0.0
 10
1158.731604452495
 20
1427.617668681281
 30
0.0
 10
1159.206399839544
 20
1427.63183709679
 30
0.0
 10
1159.30539825796
 20
1427.634791318261
 30
0.0
  0
LINE
  5
121
330
1F
100
AcDbEntity
  8
0
  6
Continuous
 62
     7
370
    25
100
AcDbLine
 10
1159.305398258
 20
1427.6347913183
 30
0.0
 11
1271.8170109057
 21
1430.9797762848
 31
0.0
  0
LINE
  5
122
330
1F
100
AcDbEntity
  8
0
  6
Continuous
 62
     7
370
    25
100
AcDbLine
 10
1178.9897219973
 20
1442.226194637
 30
0.0
 11
1158.8893602494
 21
1441.628608252
 31
0.0
  0
LINE
  5
123
330
1F
100
AcDbEntity
  8
0
  6
Continuous
 62
     7
370
    25
100
AcDbLine
 10
1138.0137922384
 20
1425.8918887719
 30
0.0
 11
1138.0137922384
 21
1426.6729344386
 31
0.0
  0
LINE
  5
124
330
1F
100
AcDbEntity
  8
0
  6
Continuous
 62
     7
370
    25
100
AcDbLine
 10
1124.0137922384
 20
1432.8688178706
 30
0.0
 11
1124.0137922384
 21
1425.8918887719
 31
0.0
  0
SPLINE
  5
125
330
1F
100
AcDbEntity
  8
0
  6
Continuous
 62
     7
370
    25
100
AcDbSpline
210
0.0
220
0.0
230
1.0
 70
     8
 71
     3
 72
    66
 73
    62
 74
     0
 42
0.000000001
 43
0.00000001
 40
0.0
 40
0.0
 40
0.0
 40
0.0
 40
0.0104563459352484
 40
0.0214039571184577
 40
0.0322156266014193
 40
0.0428957423427201
 40
0.0534473326872394
 40
0.0638710565534545
 40
0.074165302912262
 40
0.0843255071765751
 40
0.0943429672794443
 40
0.1042030175552316
 40
0.1138824948301701
 40
0.1233471859163908
 40
0.1325517306437392
 40
0.1414469123763701
 40
0.1499986165450413
 40
0.1582138034854864
 40
0.1661583101073581
 40
0.1739566752977219
 40
0.1817810976183338
 40
0.1897848736883453
 40
0.1981911825604488
 40
0.2072789288931579
 40
0.2173983467291898
 40
0.2290292623141314
 40
0.2429094213229107
 40
0.2603755451555989
 40
0.2845981110008532
 40
0.3139660141402544
 40
0.3397751275496532
 40
0.3639229615021897
 40
0.3894725500692024
 40
0.4138766424223187
 40
0.4375982402652128
 40
0.4608878943062045
 40
0.483883376986126
 40
0.5066684172254444
 40
0.5292974591574197
 40
0.5518076682771171
 40
0.5742253752215202
 40
0.5965697955421256
 40
0.6188552991805527
 40
0.6410928570192228
 40
0.6632909963501459
 40
0.6854564510174128
 40
0.7075946151374171
 40
0.7297098667589912
 40
0.7518058032501275
 40
0.7738854154788114
 40
0.7959512187598602
 40
0.8180053527658039
 40
0.8400496588458766
 40
0.8620857407060314
 40
0.8841150127188203
 40
0.9061387389757602
 40
0.9281580653912506
 40
0.9501740466019496
 40
0.9721876690076481
 40
0.994199871019096
 40
1.0
 40
1.0
 40
1.0
 40
1.0
 10
1124.013792238376
 20
1425.891888771912
 30
0.0
 10
1124.017801380503
 20
1425.711815422824
 30
0.0
 10
1124.026008024268
 20
1425.343208428954
 30
0.0
 10
1124.093334680653
 20
1424.79180031177
 30
0.0
 10
1124.202047341409
 20
1424.243771012582
 30
0.0
 10
1124.352494953999
 20
1423.712966115131
 30
0.0
 10
1124.541061547621
 20
1423.202199322926
 30
0.0
 10
1124.765258003281
 20
1422.714077015456
 30
0.0
 10
1125.021997167036
 20
1422.2510169183
 30
0.0
 10
1125.30799006846
 20
1421.815251848571
 30
0.0
 10
1125.619543322457
 20
1421.408847517434
 30
0.0
 10
1125.952456709703
 20
1421.033718558303
 30
0.0
 10
1126.301833948283
 20
1420.691622265858
 30
0.0
 10
1126.661902623092
 20
1420.384081974163
 30
0.0
 10
1127.025977799773
 20
1420.112167478842
 30
0.0
 10
1127.386817488396
 20
1419.876098478879
 30
0.0
 10
1127.737523852818
 20
1419.674795848288
 30
0.0
 10
1128.072759628961
 20
1419.505674536182
 30
0.0
 10
1128.389682232732
 20
1419.364898624433
 30
0.0
 10
1128.688124617082
 20
1419.248001621319
 30
0.0
 10
1128.969419546132
 20
1419.150780651552
 30
0.0
 10
1129.236342273386
 20
1419.069382388801
 30
0.0
 10
1129.492899542681
 20
1419.000425320025
 30
0.0
 10
1129.744714872026
 20
1418.940938728661
 30
0.0
 10
1129.999007343576
 20
1418.888407218496
 30
0.0
 10
1130.265860235407
 20
1418.840583622964
 30
0.0
 10
1130.561823709967
 20
1418.795130991951
 30
0.0
 10
1130.921410777725
 20
1418.748738485423
 30
0.0
 10
1131.368665001154
 20
1418.702006929881
 30
0.0
 10
1131.881814367667
 20
1418.659880970149
 30
0.0
 10
1132.428230518334
 20
1418.624122331069
 30
0.0
 10
1132.985276710144
 20
1418.594204014688
 30
0.0
 10
1133.572287935119
 20
1418.568198144823
 30
0.0
 10
1134.198705662942
 20
1418.545322066522
 30
0.0
 10
1134.846954884164
 20
1418.525747772443
 30
0.0
 10
1135.522068395578
 20
1418.508952459475
 30
0.0
 10
1136.226546703682
 20
1418.494653763495
 30
0.0
 10
1136.961467137249
 20
1418.482689002107
 30
0.0
 10
1137.727130957757
 20
1418.472958088215
 30
0.0
 10
1138.523359937533
 20
1418.465396310469
 30
0.0
 10
1139.349651776354
 20
1418.459959833419
 30
0.0
 10
1140.205270022918
 20
1418.456617343175
 30
0.0
 10
1141.089300080669
 20
1418.45534495777
 30
0.0
 10
1142.000686220182
 20
1418.456122990391
 30
0.0
 10
1142.938257297073
 20
1418.458933821174
 30
0.0
 10
1143.900745430987
 20
1418.463760460515
 30
0.0
 10
1144.886800128606
 20
1418.470585559239
 30
0.0
 10
1145.894999365358
 20
1418.479390716328
 30
0.0
 10
1146.923858584423
 20
1418.490155990249
 30
0.0
 10
1147.971838239391
 20
1418.502859552727
 30
0.0
 10
1149.037350298791
 20
1418.517477445659
 30
0.0
 10
1150.118764005985
 20
1418.533983409837
 30
0.0
 10
1151.214411075051
 20
1418.552348781752
 30
0.0
 10
1152.322590543614
 20
1418.57254238903
 30
0.0
 10
1153.441573097086
 20
1418.594530645255
 30
0.0
 10
1154.569606019091
 20
1418.618277053941
 30
0.0
 10
1155.704914800384
 20
1418.64374404013
 30
0.0
 10
1156.845716462725
 20
1418.670886199945
 30
0.0
 10
1157.990188611872
 20
1418.699675658555
 30
0.0
 10
1158.855169731702
 20
1418.722561476756
 30
0.0
 10
1159.337954502362
 20
1418.735792216976
 30
0.0
 10
1159.4386369637
 20
1418.738551424746
 30
0.0
  0
SPLINE
  5
126
330
1F
100
AcDbEntity
  8
0
  6
Continuous
 62
     7
370
    25
100
AcDbSpline
210
0.0
220
0.0
230
1.0
 70
     8
 71
     3
 72
    22
 73
    18
 74
     0
 42
0.000000001
 43
0.00000001
 40
0.0
 40
0.0
 40
0.0
 40
0.0
 40
0.033263407900885
 40
0.1048498516705875
 40
0.1764394574286001
 40
0.2480300904882095
 40
0.3196268543304533
 40
0.3912348844051073
 40
0.4628593532816139
 40
0.5345054743096698
 40
0.606178501494533
 40
0.6778837245852638
 40
0.7496264583885138
 40
0.8214120253485956
 40
0.8932457304854298
 40
0.9651328278615882
 40
1.0
 40
1.0
 40
1.0
 40
1.0
 10
1245.558852309483
 20
1421.108239164916
 30
0.0
 10
1245.710305862076
 20
1421.111458288294
 30
0.0
 10
1246.187703805537
 20
1421.121605312606
 30
0.0
 10
1246.991505395475
 20
1421.108079727024
 30
0.0
 10
1247.96796710954
 20
1421.050362542873
 30
0.0
 10
1248.940486913349
 20
1420.94896146092
 30
0.0
 10
1249.906898232111
 20
1420.804797584636
 30
0.0
 10
1250.865128185532
 20
1420.61801016416
 30
0.0
 10
1251.813110071868
 20
1420.389061293701
 30
0.0
 10
1252.748807448932
 20
1420.118443734827
 30
0.0
 10
1253.670198985263
 20
1419.806739186741
 30
0.0
 10
1254.575340717253
 20
1419.454668524246
 30
0.0
 10
1255.462156842236
 20
1419.062822158272
 30
0.0
 10
1256.329238680582
 20
1418.632677811419
 30
0.0
 10
1257.172878134419
 20
1418.162783474523
 30
0.0
 10
1257.856279196841
 20
1417.748932387266
 30
0.0
 10
1258.247693690391
 20
1417.478953950328
 30
0.0
 10
1258.375534165401
 20
1417.390775887968
 30
0.0
  0
LINE
  5
127
330
1F
100
AcDbEntity
  8
0
  6
Continuous
 62
     7
370
    25
100
AcDbLine
 10
1159.4386369637
 20
1418.7385514247
 30
0.0
 11
1245.5588523095
 21
1421.1082391649
 31
0.0
  0
SPLINE
  5
128
330
1F
100
AcDbEntity
  8
0
  6
Continuous
 62
     7
370
    25
100
AcDbSpline
210
0.0
220
0.0
230
1.0
 70
     8
 71
     3
 72
     9
 73
     5
 74
     0
 42
0.000000001
 43
0.00000001
 40
0.0
 40
0.0
 40
0.0
 40
0.0
 40
0.4943591022738977
 40
1.0
 40
1.0
 40
1.0
 40
1.0
 10
1258.436928731881
 20
1416.898266030663
 30
0.0
 10
1266.115687478302
 20
1355.731808767843
 30
0.0
 10
1281.648442334239
 20
1232.003011257141
 30
0.0
 10
1297.178298140221
 20
1108.237688711138
 30
0.0
 10
1305.030828371515
 20
1045.656879911616
 30
0.0
  0
LINE
  5
129
330
1F
100
AcDbEntity
  8
0
  6
Continuous
 62
     7
370
    25
100
AcDbLine
 10
1258.3027888482
 20
1417.9702065445
 30
0.0
 11
1258.4358587952
 21
1416.9102784321
 31
0.0
  0
SPLINE
  5
12A
330
1F
100
AcDbEntity
  8
0
  6
Continuous
 62
     7
370
    25
100
AcDbSpline
210
0.0
220
0.0
230
1.0
 70
     8
 71
     3
 72
     9
 73
     5
 74
     0
 42
0.000000001
 43
0.00000001
 40
0.0
 40
0.0
 40
0.0
 40
0.0
 40
0.5056412177216911
 40
1.0
 40
1.0
 40
1.0
 40
1.0
 10
942.9966215538088
 20
1045.655808419076
 30
0.0
 10
950.8491966037232
 20
1108.236974404205
 30
0.0
 10
966.3791312188173
 20
1232.002925026478
 30
0.0
 10
981.9119648985776
 20
1355.732350428096
 30
0.0
 10
989.5907576418355
 20
1416.899078501635
 30
0.0
  0
LINE
  5
12B
330
1F
100
AcDbEntity
  8
0
  6
Continuous
 62
     7
370
    25
100
AcDbLine
 10
989.5918123452
 20
1416.9109694617
 30
0.0
 11
989.7247956384
 21
1417.9702073596
 31
0.0
  0
SPLINE
  5
12C
330
1F
100
AcDbEntity
  8
0
  6
Continuous
 62
     7
370
    25
100
AcDbSpline
210
0.0
220
0.0
230
1.0
 70
     8
 71
     3
 72
    14
 73
    10
 74
     0
 42
0.000000001
 43
0.00000001
 40
0.0
 40
0.0
 40
0.0
 40
0.0
 40
0.325615715405236
 40
0.3708042685786534
 40
0.3966725256417402
 40
0.4191086937449676
 40
0.4822809491179408
 40
0.6035437053715497
 40
0.9999999999999999
 40
0.9999999999999999
 40
0.9999999999999999
 40
0.9999999999999999
 10
1282.705350294718
 20
1428.351411352225
 30
0.0
 10
1287.705672907036
 20
1386.596563177536
 30
0.0
 10
1293.39993421322
 20
1339.047027929338
 30
0.0
 10
1299.487718146057
 20
1288.178588772842
 30
0.0
 10
1300.922484268619
 20
1276.189192247832
 30
0.0
 10
1302.63310863764
 20
1261.893841420176
 30
0.0
 10
1305.807217577832
 20
1235.36577562827
 30
0.0
 10
1314.718675593225
 20
1160.874373690275
 30
0.0
 10
1322.654331781499
 20
1094.480540465676
 30
0.0
 10
1328.731258721869
 20
1043.637804310695
 30
0.0
  0
SPLINE
  5
12D
330
1F
100
AcDbEntity
  8
0
  6
Continuous
 62
     7
370
    25
100
AcDbSpline
210
0.0
220
0.0
230
1.0
 70
     8
 71
     3
 72
    14
 73
    10
 74
     0
 42
0.000000001
 43
0.00000001
 40
0.0
 40
0.0
 40
0.0
 40
0.0
 40
0.3872757148735294
 40
0.5052965299611688
 40
0.5700663949957273
 40
0.5919926841442665
 40
0.61328646615731
 40
0.6540862979714391
 40
0.9999999999999999
 40
0.9999999999999999
 40
0.9999999999999999
 40
0.9999999999999999
 10
1358.189713777301
 20
1043.639036082863
 30
0.0
 10
1352.236466277492
 20
1095.789615602036
 30
0.0
 10
1344.468989030343
 20
1163.832887757914
 30
0.0
 10
1335.713584585499
 20
1240.601686253998
 30
0.0
 10
1332.569980137345
 20
1268.170476142348
 30
0.0
 10
1330.911895613309
 20
1282.713161037398
 30
0.0
 10
1329.621941759377
 20
1294.027656248709
 30
0.0
 10
1323.35818671853
 20
1348.971997129861
 30
0.0
 10
1317.425143942158
 20
1401.050428606379
 30
0.0
 10
1312.118061020401
 20
1447.634376286915
 30
0.0
  0
SPLINE
  5
12E
330
1F
100
AcDbEntity
  8
0
  6
Continuous
 62
     7
370
    25
100
AcDbSpline
210
0.0
220
0.0
230
1.0
 70
     8
 71
     3
 72
    14
 73
    10
 74
     0
 42
0.000000001
 43
0.00000001
 40
0.0
 40
0.0
 40
0.0
 40
0.0
 40
0.3964600048185448
 40
0.5177234493901166
 40
0.5808960633447302
 40
0.6033323588013019
 40
0.6292007626991346
 40
0.674389572374167
 40
1.0
 40
1.0
 40
1.0
 40
1.0
 10
919.2962585217911
 20
1043.637242697382
 30
0.0
 10
925.3732078371193
 20
1094.480166061439
 30
0.0
 10
933.3088864000568
 20
1160.874186495264
 30
0.0
 10
942.2203668078363
 20
1235.365775633421
 30
0.0
 10
945.3944757482161
 20
1261.893841425232
 30
0.0
 10
947.1051001171832
 20
1276.189192252914
 30
0.0
 10
948.5398662399195
 20
1288.178588777844
 30
0.0
 10
954.627540651441
 20
1339.046112828732
 30
0.0
 10
960.321692370981
 20
1386.594733001608
 30
0.0
 10
965.3219053969357
 20
1428.348666100845
 30
0.0
  0
SPLINE
  5
12F
330
1F
100
AcDbEntity
  8
0
  6
Continuous
 62
     7
370
    25
100
AcDbSpline
210
0.0
220
0.0
230
1.0
 70
     8
 71
     3
 72
    14
 73
    10
 74
     0
 42
0.000000001
 43
0.00000001
 40
0.0
 40
0.0
 40
0.0
 40
0.0
 40
0.3459195456706181
 40
0.3867202534647427
 40
0.4080144926592287
 40
0.4299412525695271
 40
0.4947125082259483
 40
0.6127358572424441
 40
0.9999999999999999
 40
0.9999999999999999
 40
0.9999999999999999
 40
0.9999999999999999
 10
935.9095188046981
 20
1447.634336575245
 30
0.0
 10
930.602347962409
 20
1401.049617176345
 30
0.0
 10
924.6692040305393
 20
1348.970297811486
 30
0.0
 10
918.405340769143
 20
1294.025008479978
 30
0.0
 10
917.115359621361
 20
1282.71027405505
 30
0.0
 10
915.4572400118543
 20
1268.167281690174
 30
0.0
 10
912.3135690338391
 20
1240.597908929165
 30
0.0
 10
903.5582847338098
 20
1163.830165459192
 30
0.0
 10
895.7909486321109
 20
1095.788132771502
 30
0.0
 10
889.8378807135422
 20
1043.639128710933
 30
0.0
  0
LINE
  5
130
330
1F
100
AcDbEntity
  8
0
  6
Continuous
 62
     7
370
    25
100
AcDbLine
 10
1311.1606847875
 20
1041.657519267
 30
0.0
 11
1325.8606847875
 21
1041.657519267
 31
0.0
  0
LINE
  5
131
330
1F
100
AcDbEntity
  8
0
  6
Continuous
 62
     7
370
    25
100
AcDbLine
 10
897.525271109
 20
1039.6387816357
 30
0.0
 11
912.225271109
 21
1039.6387816357
 31
0.0
  0
LINE
  5
132
330
1F
100
AcDbEntity
  8
0
  6
Continuous
 62
     7
370
    25
100
AcDbLine
 10
1335.8023132772
 20
1039.6387816307
 30
0.0
 11
1350.5023132772
 21
1039.6387816307
 31
0.0
  0
LINE
  5
133
330
1F
100
AcDbEntity
  8
0
  6
Continuous
 62
     7
370
    25
100
AcDbLine
 10
922.1668995986
 20
1041.657519272
 30
0.0
 11
936.8668995986
 21
1041.657519272
 31
0.0
  0
LINE
  5
134
330
1F
100
AcDbEntity
  8
0
  6
Continuous
 62
     7
370
    25
100
AcDbLine
 10
897.525271109
 20
1036.1387816357
 30
0.0
 11
912.225271109
 21
1036.1387816357
 31
0.0
  0
LINE
  5
135
330
1F
100
AcDbEntity
  8
0
  6
Continuous
 62
     7
370
    25
100
AcDbLine
 10
1335.8023132772
 20
1036.1387816307
 30
0.0
 11
1350.5023132772
 21
1036.1387816307
 31
0.0
  0
LINE
  5
136
330
1F
100
AcDbEntity
  8
0
  6
Continuous
 62
     7
370
    25
100
AcDbLine
 10
1311.1606847875
 20
1038.157519267
 30
0.0
 11
1325.8606847875
 21
1038.157519267
 31
0.0
  0
LINE
  5
137
330
1F
100
AcDbEntity
  8
0
  6
Continuous
 62
     7
370
    25
100
AcDbLine
 10
922.1668995986
 20
1038.157519272
 30
0.0
 11
936.8668995986
 21
1038.157519272
 31
0.0
  0
SPLINE
  5
138
330
1F
100
AcDbEntity
  8
0
  6
Continuous
 62
     7
370
    25
100
AcDbSpline
210
0.0
220
0.0
230
1.0
 70
     8
 71
     3
 72
    66
 73
    62
 74
     0
 42
0.000000001
 43
0.00000001
 40
0.0
 40
0.0
 40
0.0
 40
0.0
 40
0.1249999999999993
 40
0.1249999999999993
 40
0.1874999999999989
 40
0.1874999999999989
 40
0.2499999999999986
 40
0.2499999999999986
 40
0.3124999999999983
 40
0.3124999999999983
 40
0.3749999999999979
 40
0.3749999999999979
 40
0.4374999999999976
 40
0.4374999999999976
 40
0.4531249999999974
 40
0.4531249999999974
 40
0.4687499999999973
 40
0.4687499999999973
 40
0.4843749999999972
 40
0.4843749999999972
 40
0.499999999999997
 40
0.499999999999997
 40
0.5312499999999964
 40
0.5312499999999964
 40
0.5468749999999964
 40
0.5468749999999964
 40
0.5624999999999963
 40
0.5624999999999963
 40
0.5781249999999962
 40
0.5781249999999962
 40
0.5937499999999961
 40
0.5937499999999961
 40
0.6249999999999961
 40
0.6249999999999961
 40
0.6874999999999958
 40
0.6874999999999958
 40
0.7031249999999958
 40
0.7031249999999958
 40
0.7187499999999958
 40
0.7187499999999958
 40
0.749999999999996
 40
0.749999999999996
 40
0.8124999999999968
 40
0.8124999999999968
 40
0.8281249999999972
 40
0.8281249999999972
 40
0.8437499999999976
 40
0.8437499999999976
 40
0.874999999999998
 40
0.874999999999998
 40
0.937499999999999
 40
0.937499999999999
 40
0.9531249999999993
 40
0.9531249999999993
 40
0.9687499999999998
 40
0.9687499999999998
 40
0.9843750000000001
 40
0.9843750000000001
 40
0.9921875
 40
0.9921875
 40
1.0
 40
1.0
 40
1.0
 40
1.0
 10
1124.013792192623
 20
1469.224975297548
 30
0.0
 10
1111.979411546716
 20
1469.224695484275
 30
0.0
 10
1099.949728646748
 20
1469.303239245143
 30
0.0
 10
1081.915509223481
 20
1469.531347060163
 30
0.0
 10
1075.90568350644
 20
1469.625282154082
 30
0.0
 10
1063.890706184121
 20
1469.8477318318
 30
0.0
 10
1057.896997011592
 20
1469.975734359635
 30
0.0
 10
1045.942559084941
 20
1470.262218251771
 30
0.0
 10
1039.981814683979
 20
1470.420549239435
 30
0.0
 10
1028.0998071887
 20
1470.762843872745
 30
0.0
 10
1022.178599883646
 20
1470.947085814982
 30
0.0
 10
1010.383950012009
 20
1471.33438798312
 30
0.0
 10
1004.510631858817
 20
1471.5387456674
 30
0.0
 10
997.2057740764757
 20
1471.800378051277
 30
0.0
 10
995.7466505797973
 20
1471.853631370102
 30
0.0
 10
992.8323286890451
 20
1471.961789967422
 30
0.0
 10
991.3771262110646
 20
1472.017359139353
 30
0.0
 10
988.47092718518
 20
1472.122700224995
 30
0.0
 10
987.01991939353
 20
1472.174090388396
 30
0.0
 10
984.122267375743
 20
1472.284114757716
 30
0.0
 10
982.675633820899
 20
1472.340258092442
 30
0.0
 10
978.3427882468424
 20
1472.502725326828
 30
0.0
 10
975.4636444177945
 20
1472.614212034403
 30
0.0
 10
971.1608035684658
 20
1472.77859443442
 30
0.0
 10
969.729351082325
 20
1472.833956027444
 30
0.0
 10
966.8719155071261
 20
1472.944343747005
 30
0.0
 10
965.4457056608709
 20
1472.999308907568
 30
0.0
 10
962.6002526711081
 20
1473.108956844614
 30
0.0
 10
961.1820171185527
 20
1473.163688800596
 30
0.0
 10
958.3640432004629
 20
1473.272587416729
 30
0.0
 10
956.9626750163453
 20
1473.326212453207
 30
0.0
 10
952.7863469347969
 20
1473.487481521347
 30
0.0
 10
950.0395817017563
 20
1473.59250718828
 30
0.0
 10
941.9157209306484
 20
1473.900520907017
 30
0.0
 10
936.6596894220311
 20
1474.096986987096
 30
0.0
 10
930.3474861846063
 20
1474.322385008656
 30
0.0
 10
929.0959184884358
 20
1474.366567270958
 30
0.0
 10
926.6393578792021
 20
1474.451906486877
 30
0.0
 10
925.4326699271685
 20
1474.493172355789
 30
0.0
 10
921.8796252720143
 20
1474.612496750777
 30
0.0
 10
919.6004251004866
 20
1474.686058761687
 30
0.0
 10
913.0507986104876
 20
1474.885216661204
 30
0.0
 10
909.066622819912
 20
1474.990164921649
 30
0.0
 10
904.6407324465736
 20
1475.071876575301
 30
0.0
 10
903.7827325711212
 20
1475.085845201103
 30
0.0
 10
902.1267928647538
 20
1475.108433998566
 30
0.0
 10
901.3360423356148
 20
1475.116894126465
 30
0.0
 10
899.073250815796
 20
1475.133880091973
 30
0.0
 10
897.7101846599638
 20
1475.134052685353
 30
0.0
 10
894.0388622246446
 20
1475.100071989524
 30
0.0
 10
892.1475104349486
 20
1475.031807948658
 30
0.0
 10
890.4195609551663
 20
1474.889451963405
 30
0.0
 10
890.1059855807092
 20
1474.858119551247
 30
0.0
 10
889.5446414796487
 20
1474.790608614401
 30
0.0
 10
889.2961580899622
 20
1474.754354683583
 30
0.0
 10
888.8602731810256
 20
1474.676852970656
 30
0.0
 10
888.6728721118455
 20
1474.635781055195
 30
0.0
 10
888.4352301985595
 20
1474.57051309555
 30
0.0
 10
888.363370908965
 20
1474.548363451096
 30
0.0
 10
888.2332385544609
 20
1474.50301855093
 30
0.0
 10
888.1775195631202
 20
1474.478972241563
 30
0.0
 10
888.1226815783008
 20
1474.455326652975
 30
0.0
  0
SPLINE
  5
139
330
1F
100
AcDbEntity
  8
0
  6
Continuous
 62
     7
370
    25
100
AcDbSpline
210
0.0
220
0.0
230
1.0
 70
     8
 71
     3
 72
    68
 73
    64
 74
     0
 42
0.000000001
 43
0.00000001
 40
0.0
 40
0.0
 40
0.0
 40
0.0
 40
0.0078124999999999
 40
0.0078124999999999
 40
0.0156249999999998
 40
0.0156249999999998
 40
0.0312499999999996
 40
0.0312499999999996
 40
0.0624999999999992
 40
0.0624999999999992
 40
0.1249999999999986
 40
0.1249999999999986
 40
0.1328124999999984
 40
0.1328124999999984
 40
0.1406249999999984
 40
0.1406249999999984
 40
0.1562499999999983
 40
0.1562499999999983
 40
0.1874999999999982
 40
0.1874999999999982
 40
0.2499999999999981
 40
0.2499999999999981
 40
0.2812499999999981
 40
0.2812499999999981
 40
0.3124999999999979
 40
0.3124999999999979
 40
0.3749999999999976
 40
0.3749999999999976
 40
0.3906249999999976
 40
0.3906249999999976
 40
0.4062499999999977
 40
0.4062499999999977
 40
0.4218749999999977
 40
0.4218749999999977
 40
0.4374999999999977
 40
0.4374999999999977
 40
0.4531249999999977
 40
0.4531249999999977
 40
0.4687499999999977
 40
0.4687499999999977
 40
0.4999999999999978
 40
0.4999999999999978
 40
0.5156249999999979
 40
0.5156249999999979
 40
0.531249999999998
 40
0.531249999999998
 40
0.5468749999999982
 40
0.5468749999999982
 40
0.5624999999999983
 40
0.5624999999999983
 40
0.5937499999999983
 40
0.5937499999999983
 40
0.6249999999999983
 40
0.6249999999999983
 40
0.6562499999999984
 40
0.6562499999999984
 40
0.6874999999999984
 40
0.6874999999999984
 40
0.7499999999999988
 40
0.7499999999999988
 40
0.8749999999999993
 40
0.8749999999999993
 40
1.0
 40
1.0
 40
1.0
 40
1.0
 10
1359.904902806946
 20
1474.455326652975
 30
0.0
 10
1359.850241199822
 20
1474.478896189273
 30
0.0
 10
1359.794717581953
 20
1474.502836265531
 30
0.0
 10
1359.665285088166
 20
1474.548042208216
 30
0.0
 10
1359.593890132156
 20
1474.570036729246
 30
0.0
 10
1359.358165827786
 20
1474.63493935194
 30
0.0
 10
1359.172708067254
 20
1474.675686870181
 30
0.0
 10
1358.527906331664
 20
1474.790942353957
 30
0.0
 10
1357.98025857495
 20
1474.857871115206
 30
0.0
 10
1355.953549879092
 20
1475.027500753496
 30
0.0
 10
1354.092513139721
 20
1475.097956652025
 30
0.0
 10
1351.314052862833
 20
1475.124951232971
 30
0.0
 10
1350.995712858744
 20
1475.127243254792
 30
0.0
 10
1350.344005089782
 20
1475.1303101274
 30
0.0
 10
1350.010121392036
 20
1475.131085284441
 30
0.0
 10
1348.984597614412
 20
1475.131287774461
 30
0.0
 10
1348.26912734186
 20
1475.128559290639
 30
0.0
 10
1346.028632905581
 20
1475.112246458072
 30
0.0
 10
1344.409275869173
 20
1475.090263707379
 30
0.0
 10
1339.185190368996
 20
1474.995216152605
 30
0.0
 10
1335.213505718235
 20
1474.891960563951
 30
0.0
 10
1328.564849943727
 20
1474.690459823978
 30
0.0
 10
1326.268770490176
 20
1474.616443779989
 30
0.0
 10
1321.541092096264
 20
1474.457885662414
 30
0.0
 10
1319.108675463337
 20
1474.373287536896
 30
0.0
 10
1311.628123777794
 20
1474.106485904406
 30
0.0
 10
1306.397999715378
 20
1473.911333705377
 30
0.0
 10
1299.614163055982
 20
1473.654170498745
 30
0.0
 10
1298.243663011405
 20
1473.601703328542
 30
0.0
 10
1295.487950725268
 20
1473.496647192889
 30
0.0
 10
1294.104264796078
 20
1473.443601520317
 30
0.0
 10
1291.325873127256
 20
1473.336269771735
 30
0.0
 10
1289.931131270406
 20
1473.282905620716
 30
0.0
 10
1287.132666195639
 20
1473.174802678519
 30
0.0
 10
1285.729047086218
 20
1473.120618458127
 30
0.0
 10
1282.911590553541
 20
1473.011985304099
 30
0.0
 10
1281.49754724341
 20
1472.957467856499
 30
0.0
 10
1278.661757130497
 20
1472.848064904792
 30
0.0
 10
1277.239827779325
 20
1472.792796331189
 30
0.0
 10
1272.96094450296
 20
1472.629460855358
 30
0.0
 10
1270.092199055281
 20
1472.517947249466
 30
0.0
 10
1265.767402266999
 20
1472.355855217638
 30
0.0
 10
1264.322153651094
 20
1472.300364147678
 30
0.0
 10
1261.424870113349
 20
1472.18961959959
 30
0.0
 10
1259.972884678104
 20
1472.13737398639
 30
0.0
 10
1257.062429768744
 20
1472.032596986611
 30
0.0
 10
1255.60389501868
 20
1471.977118810055
 30
0.0
 10
1252.680725510171
 20
1471.868345795514
 30
0.0
 10
1251.21608322623
 20
1471.814684827019
 30
0.0
 10
1246.813494465033
 20
1471.656509064204
 30
0.0
 10
1243.866905305486
 20
1471.553425495946
 30
0.0
 10
1237.952684539498
 20
1471.347728184521
 30
0.0
 10
1234.985076735101
 20
1471.247258901238
 30
0.0
 10
1229.030806607821
 20
1471.051411711972
 30
0.0
 10
1226.044869619887
 20
1470.955756509668
 30
0.0
 10
1220.073805705752
 20
1470.770574833565
 30
0.0
 10
1217.086290570795
 20
1470.681070807055
 30
0.0
 10
1208.118350223805
 20
1470.422476792645
 30
0.0
 10
1202.132577593905
 20
1470.263414750543
 30
0.0
 10
1184.157511313425
 20
1469.832478317326
 30
0.0
 10
1172.150619488113
 20
1469.607834271694
 30
0.0
 10
1148.104212222891
 20
1469.303464841008
 30
0.0
 10
1136.064564332501
 20
1469.224695103122
 30
0.0
 10
1124.013792192613
 20
1469.224975297516
 30
0.0
  0
LINE
  5
13A
330
1F
100
AcDbEntity
  8
0
  6
Continuous
 62
     7
370
    25
100
AcDbLine
 10
1298.8678752075
 20
1501.4534062062
 30
0.0
 11
1298.8850547445
 21
1501.452110259
 31
0.0
  0
LINE
  5
13B
330
1F
100
AcDbEntity
  8
0
  6
Continuous
 62
     7
370
    25
100
AcDbLine
 10
949.1596646602
 20
1501.453402848
 30
0.0
 11
949.1482091749
 21
1501.4525386976
 31
0.0
  0
SPLINE
  5
13C
330
1F
100
AcDbEntity
  8
0
  6
Continuous
 62
     7
370
    25
100
AcDbSpline
210
0.0
220
0.0
230
1.0
 70
     8
 71
     3
 72
     9
 73
     5
 74
     0
 42
0.000000001
 43
0.00000001
 40
0.0
 40
0.0
 40
0.0
 40
0.0
 40
0.0484572508418835
 40
1.0
 40
1.0
 40
1.0
 40
1.0
 10
1321.029781364028
 20
1441.448808196908
 30
0.0
 10
1320.981510338492
 20
1441.438210802505
 30
0.0
 10
1319.985353422919
 20
1441.219515061033
 30
0.0
 10
1318.970793959112
 20
1441.101294990017
 30
0.0
 10
1318.005397257737
 20
1440.988803538637
 30
0.0
  0
SPLINE
  5
13D
330
1F
100
AcDbEntity
  8
0
  6
Continuous
 62
     7
370
    25
100
AcDbSpline
210
0.0
220
0.0
230
1.0
 70
     8
 71
     3
 72
    14
 73
    10
 74
     0
 42
0.000000001
 43
0.00000001
 40
0.0
 40
0.0
 40
0.0
 40
0.0
 40
0.1503259273405976
 40
0.3006534000349403
 40
0.4510867910256874
 40
0.6015208374854614
 40
0.752054355330578
 40
0.9026013664556868
 40
0.9999999999999999
 40
0.9999999999999999
 40
0.9999999999999999
 40
0.9999999999999999
 10
1359.904902806946
 20
1474.455326652975
 30
0.0
 10
1360.057699439751
 20
1474.386075134974
 30
0.0
 10
1360.363294276115
 20
1474.247571387063
 30
0.0
 10
1360.691595593745
 20
1474.056963483657
 30
0.0
 10
1360.942871917724
 20
1473.877035364487
 30
0.0
 10
1361.115388955116
 20
1473.704579288292
 30
0.0
 10
1361.217146921543
 20
1473.54635405446
 30
0.0
 10
1361.257821685463
 20
1473.409481869802
 30
0.0
 10
1361.241159011667
 20
1473.312625050338
 30
0.0
 10
1361.234613538117
 20
1473.27457751021
 30
0.0
  0
SPLINE
  5
13E
330
1F
100
AcDbEntity
  8
0
  6
Continuous
 62
     7
370
    25
100
AcDbSpline
210
0.0
220
0.0
230
1.0
 70
     8
 71
     3
 72
    13
 73
     9
 74
     0
 42
0.000000001
 43
0.00000001
 40
0.0
 40
0.0
 40
0.0
 40
0.0
 40
0.0510082236456563
 40
0.2879267450529835
 40
0.4658752422702849
 40
0.6438227128407549
 40
0.8219127798271898
 40
1.0
 40
1.0
 40
1.0
 40
1.0
 10
886.7973110544871
 20
1473.278621020635
 30
0.0
 10
886.7905994460281
 20
1473.299116923465
 30
0.0
 10
886.7527143475172
 20
1473.414810397325
 30
0.0
 10
886.8167811071609
 20
1473.567659842368
 30
0.0
 10
886.976796877237
 20
1473.783114590187
 30
0.0
 10
887.2330542523242
 20
1473.991292004615
 30
0.0
 10
887.5887422751058
 20
1474.211581693881
 30
0.0
 10
887.9447027589293
 20
1474.374078766207
 30
0.0
 10
888.1226815783008
 20
1474.455326652975
 30
0.0
  0
SPLINE
  5
13F
330
1F
100
AcDbEntity
  8
0
  6
Continuous
 62
     7
370
    25
100
AcDbSpline
210
0.0
220
0.0
230
1.0
 70
     8
 71
     3
 72
     9
 73
     5
 74
     0
 42
0.000000001
 43
0.00000001
 40
0.0
 40
0.0
 40
0.0
 40
0.0
 40
0.9515448272242778
 40
1.0
 40
1.0
 40
1.0
 40
1.0
 10
930.0221871275097
 20
1440.988803538637
 30
0.0
 10
929.0567904140048
 20
1441.101294923791
 30
0.0
 10
928.0422331531335
 20
1441.21951466703
 30
0.0
 10
927.0460784003072
 20
1441.438209861297
 30
0.0
 10
926.9978095496477
 20
1441.44880677472
 30
0.0
  0
LINE
  5
140
330
1F
100
AcDbEntity
  8
0
  6
Continuous
 62
     7
370
    25
100
AcDbLine
 10
1124.014232114
 20
1791.1692846955
 30
0.0
 11
1124.0142285226
 21
1791.1715341228
 31
0.0
  0
SPLINE
  5
141
330
1F
100
AcDbEntity
  8
0
  6
Continuous
 62
     7
370
    25
100
AcDbSpline
210
0.0
220
0.0
230
1.0
 70
     8
 71
     3
 72
    61
 73
    57
 74
     0
 42
0.000000001
 43
0.00000001
 40
0.0
 40
0.0
 40
0.0
 40
0.0
 40
0.0138741899514057
 40
0.0878559014504354
 40
0.1618375195878494
 40
0.235819788914537
 40
0.3098035384357083
 40
0.383788149890897
 40
0.4577694591709586
 40
0.5317518870040407
 40
0.586662801527704
 40
0.6003936667572028
 40
0.6141264199438412
 40
0.6278552693538284
 40
0.641580810244021
 40
0.6509866204300263
 40
0.6604110427536165
 40
0.6668419529210953
 40
0.6732728553208307
 40
0.6797282943828898
 40
0.686183724620398
 40
0.693446674641085
 40
0.7007118700337052
 40
0.7079747936739837
 40
0.7153210876983813
 40
0.7226697501200665
 40
0.7300160285718493
 40
0.7396840588205704
 40
0.7493520955020394
 40
0.7591084824027519
 40
0.7688648947178435
 40
0.7765411961653796
 40
0.784217513664668
 40
0.791936574811861
 40
0.7996556361586562
 40
0.8074868963765091
 40
0.8153208444023727
 40
0.8231522043859067
 40
0.8310776880542372
 40
0.8390057958393637
 40
0.846931459305314
 40
0.8578415227880511
 40
0.8687757949887137
 40
0.8756856139855719
 40
0.8826009971026417
 40
0.8895458762445256
 40
0.8964907951941767
 40
0.9104042501976626
 40
0.9272408747881108
 40
0.94409309032083
 40
0.9539916566897446
 40
0.963890213170671
 40
0.9738017497228713
 40
0.9837132804553337
 40
0.9936492744770461
 40
1.0
 40
1.0
 40
1.0
 40
1.0
 10
901.2637783648408
 20
1488.014760583634
 30
0.0
 10
901.106823526264
 20
1489.634010585851
 30
0.0
 10
900.1129342340977
 20
1499.887630373147
 30
0.0
 10
898.3484508719594
 20
1518.78150633458
 30
0.0
 10
895.9812659679446
 20
1544.69717424179
 30
0.0
 10
893.7009443743268
 20
1570.620356899083
 30
0.0
 10
891.5061065615697
 20
1596.550572622829
 30
0.0
 10
889.4039264288122
 20
1622.488308482755
 30
0.0
 10
887.404167342545
 20
1648.431440622741
 30
0.0
 10
885.662409976447
 20
1672.157663569245
 30
0.0
 10
884.525733132698
 20
1688.82837878664
 30
0.0
 10
883.8566075360835
 20
1698.475831964772
 30
0.0
 10
883.5129504386304
 20
1703.307389238944
 30
0.0
 10
883.1996899084107
 20
1708.124642835481
 30
0.0
 10
882.9629804682255
 20
1712.413872445167
 30
0.0
 10
882.8247028371969
 20
1716.159037717307
 30
0.0
 10
882.7809938677613
 20
1719.020904517416
 30
0.0
 10
882.7874183189082
 20
1721.510758121774
 30
0.0
 10
882.8260050284084
 20
1723.642002309534
 30
0.0
 10
882.8982342558664
 20
1725.74700107892
 30
0.0
 10
883.0093992828953
 20
1727.910244829568
 30
0.0
 10
883.1655247683624
 20
1730.12221691457
 30
0.0
 10
883.373089401995
 20
1732.374713307412
 30
0.0
 10
883.627953638197
 20
1734.588454335092
 30
0.0
 10
883.9318759671847
 20
1736.759885206126
 30
0.0
 10
884.2863485117634
 20
1738.885880617681
 30
0.0
 10
884.7336960511087
 20
1741.173752549866
 30
0.0
 10
885.295612888243
 20
1743.597122682676
 30
0.0
 10
885.9988671846418
 20
1746.132564595172
 30
0.0
 10
886.7974800148738
 20
1748.562972664635
 30
0.0
 10
887.629810218552
 20
1750.718498063009
 30
0.0
 10
888.4721624716026
 20
1752.616002655029
 30
0.0
 10
889.3060423968034
 20
1754.28292302964
 30
0.0
 10
890.2017214919538
 20
1755.874901748642
 30
0.0
 10
891.1642547632296
 20
1757.397667701366
 30
0.0
 10
892.1932247378717
 20
1758.846096717
 30
0.0
 10
893.2886889833948
 20
1760.219214525584
 30
0.0
 10
894.4500682650832
 20
1761.514689849607
 30
0.0
 10
895.677931004901
 20
1762.73112386265
 30
0.0
 10
896.9718781655072
 20
1763.868565114687
 30
0.0
 10
898.4960585333528
 20
1765.055239877582
 30
0.0
 10
900.2798957840292
 20
1766.253197613012
 30
0.0
 10
902.0984786020972
 20
1767.27671466696
 30
0.0
 10
903.7290900447173
 20
1768.06728869985
 30
0.0
 10
905.1382480022846
 20
1768.67228858662
 30
0.0
 10
906.5896054599184
 20
1769.223517711014
 30
0.0
 10
908.584033020566
 20
1769.877297062829
 30
0.0
 10
911.3732129345092
 20
1770.68835415042
 30
0.0
 10
915.0139154162184
 20
1771.718684993517
 30
0.0
 10
918.4743012553575
 20
1772.630484888191
 30
0.0
 10
921.4646443342563
 20
1773.382969134721
 30
0.0
 10
923.9370697388838
 20
1773.982610727771
 30
0.0
 10
926.4576944618011
 20
1774.572241892954
 30
0.0
 10
929.0301362907279
 20
1775.152048786529
 30
0.0
 10
931.3294674099462
 20
1775.654015333189
 30
0.0
 10
932.7905999006647
 20
1775.958560002293
 30
0.0
 10
933.3603433272508
 20
1776.077311946026
 30
0.0
  0
SPLINE
  5
142
330
1F
100
AcDbEntity
  8
0
  6
Continuous
 62
     7
370
    25
100
AcDbSpline
210
0.0
220
0.0
230
1.0
 70
     8
 71
     3
 72
    59
 73
    55
 74
     0
 42
0.000000001
 43
0.00000001
 40
0.0
 40
0.0
 40
0.0
 40
0.0
 40
0.0032969529940398
 40
0.0184372794647255
 40
0.0330114656483599
 40
0.0475959995521948
 40
0.0641753946337707
 40
0.08075480339305
 40
0.0918520896975387
 40
0.1029500778813285
 40
0.114043704834285
 40
0.1216646730981921
 40
0.1292855898009296
 40
0.1369369485045317
 40
0.1445882514216668
 40
0.1527513030585654
 40
0.1609169307779182
 40
0.1690797661815187
 40
0.1773446392914253
 40
0.1856124667690608
 40
0.1938771569531367
 40
0.1995737334842173
 40
0.2052703153885168
 40
0.2109838393055015
 40
0.2166973667578441
 40
0.2248683947007398
 40
0.2330426342152846
 40
0.2412136047810662
 40
0.2495046586074859
 40
0.2577991400269185
 40
0.2660901869234363
 40
0.2718115287078911
 40
0.2775328737313884
 40
0.2832722450304486
 40
0.2890116169560137
 40
0.2974920034727275
 40
0.3059724094055211
 40
0.3145107105766219
 40
0.3230490401527973
 40
0.3317667220951295
 40
0.3404844283256118
 40
0.3492626583971363
 40
0.358040915307853
 40
0.3675844162664283
 40
0.3771307953680934
 40
0.3866774141281261
 40
0.4153203382554531
 40
0.4726092728423298
 40
0.5536807942043386
 40
0.6347538197417338
 40
0.7411093727546804
 40
0.8474673849730092
 40
0.9538284548448367
 40
1.0
 40
1.0
 40
1.0
 40
1.0
 10
1314.94446762535
 20
1776.017808877422
 30
0.0
 10
1315.241982104527
 20
1775.956743767438
 30
0.0
 10
1316.905747892905
 20
1775.615254367879
 30
0.0
 10
1319.784277757019
 20
1774.979166879134
 30
0.0
 10
1323.575665023262
 20
1774.109478741429
 30
0.0
 10
1327.374531548496
 20
1773.186564078494
 30
0.0
 10
1331.220420522206
 20
1772.199630969736
 30
0.0
 10
1334.659930316952
 20
1771.253161127257
 30
0.0
 10
1337.58775720153
 20
1770.431715056366
 30
0.0
 10
1340.035328664152
 20
1769.704805573821
 30
0.0
 10
1342.15110079378
 20
1768.97137295232
 30
0.0
 10
1343.951130665824
 20
1768.225996302094
 30
0.0
 10
1345.466527440301
 20
1767.508851837285
 30
0.0
 10
1346.932733832317
 20
1766.719019793565
 30
0.0
 10
1348.379939859189
 20
1765.835409482083
 30
0.0
 10
1349.800475937225
 20
1764.851192998771
 30
0.0
 10
1351.188613300423
 20
1763.759239382101
 30
0.0
 10
1352.518376586423
 20
1762.574371923179
 30
0.0
 10
1353.787373343798
 20
1761.293878086138
 30
0.0
 10
1354.994147520925
 20
1759.916389041337
 30
0.0
 10
1356.014841028095
 20
1758.599156286539
 30
0.0
 10
1356.871059978617
 20
1757.372355704655
 30
0.0
 10
1357.58347856779
 20
1756.261510269932
 30
0.0
 10
1358.263599563785
 20
1755.10616895036
 30
0.0
 10
1359.004046995482
 20
1753.734314602493
 30
0.0
 10
1359.785694102047
 20
1752.123184890635
 30
0.0
 10
1360.586945384735
 20
1750.246611641133
 30
0.0
 10
1361.324840894323
 20
1748.276477250221
 30
0.0
 10
1361.998444240577
 20
1746.212954566042
 30
0.0
 10
1362.607810835519
 20
1744.057778194737
 30
0.0
 10
1363.094563343233
 20
1742.054509264293
 30
0.0
 10
1363.4811023965
 20
1740.231454698481
 30
0.0
 10
1363.786864304005
 20
1738.609139645319
 30
0.0
 10
1364.062459664451
 20
1736.951166245955
 30
0.0
 10
1364.347325137813
 20
1734.98919279162
 30
0.0
 10
1364.622774798555
 20
1732.705889061267
 30
0.0
 10
1364.868830166488
 20
1730.076235048292
 30
0.0
 10
1365.053099949305
 20
1727.379375540675
 30
0.0
 10
1365.177628578635
 20
1724.600205870541
 30
0.0
 10
1365.242112125337
 20
1721.748026811889
 30
0.0
 10
1365.246734072096
 20
1718.819847219761
 30
0.0
 10
1365.19222636319
 20
1715.839959650056
 30
0.0
 10
1365.076029031398
 20
1712.725017183095
 30
0.0
 10
1364.895570812807
 20
1709.484340125723
 30
0.0
 10
1364.672942166406
 20
1706.135114619711
 30
0.0
 10
1364.294692250281
 20
1700.550310464907
 30
0.0
 10
1363.55894818025
 20
1689.399156049853
 30
0.0
 10
1362.196498392196
 20
1669.884590169676
 30
0.0
 10
1360.314311965674
 20
1644.256510475413
 30
0.0
 10
1357.867614708265
 20
1612.905259204702
 30
0.0
 10
1355.030343245337
 20
1578.614059591319
 30
0.0
 10
1351.757005927081
 20
1541.386198665473
 30
0.0
 10
1348.99210077689
 20
1511.189271851071
 30
0.0
 10
1347.272795907938
 20
1493.405845709942
 30
0.0
 10
1346.752363196689
 20
1488.022811642485
 30
0.0
  0
LINE
  5
143
330
1F
100
AcDbEntity
  8
0
  6
Continuous
 62
     7
370
    25
100
AcDbLine
 10
1124.0137921926
 20
1432.8688178706
 30
0.0
 11
1124.0136322151
 21
1432.9161170988
 31
0.0
  0
LINE
  5
144
330
1F
100
AcDbEntity
  8
0
  6
Continuous
 62
     7
370
    25
100
AcDbLine
 10
1124.0127376264
 20
1425.7704527352
 30
0.0
 11
1124.0137921926
 21
1425.8918887719
 31
0.0
  0
SPLINE
  5
145
330
1F
100
AcDbEntity
  8
0
  6
Continuous
 62
     7
370
    25
100
AcDbSpline
210
0.0
220
0.0
230
1.0
 70
    24
 71
     3
 72
    23
 73
    19
 74
     0
 42
0.000000001
 43
0.00000001
 40
0.0
 40
0.0
 40
0.0
 40
0.0
 40
0.0399585114769906
 40
0.1338570291886584
 40
0.2169452505522186
 40
0.3004682166780315
 40
0.3847489295544707
 40
0.4701410858304952
 40
0.5247829055284724
 40
0.5784012518285646
 40
0.6322388407955944
 40
0.6843222921460759
 40
0.7366482099470608
 40
0.7903995011100905
 40
0.843275393908783
 40
0.896470960112833
 40
0.9480727305258092
 40
1.0
 40
1.0
 40
1.0
 40
1.0
 10
1328.489799315775
 20
1045.657519267006
 30
0.0
 10
1328.372754481632
 20
1045.657519267006
 30
0.0
 10
1327.980665957781
 20
1045.657519267006
 30
0.0
 10
1327.258741156674
 20
1045.657519267006
 30
0.0
 10
1326.334558670477
 20
1045.657519267005
 30
0.0
 10
1325.372573380031
 20
1045.657519267006
 30
0.0
 10
1324.335212562335
 20
1045.657519267005
 30
0.0
 10
1323.356878326512
 20
1045.657519267005
 30
0.0
 10
1322.473089671372
 20
1045.657519267006
 30
0.0
 10
1321.709155948378
 20
1045.657519267006
 30
0.0
 10
1320.935579210236
 20
1045.657519267006
 30
0.0
 10
1320.149384827682
 20
1045.657519267006
 30
0.0
 10
1319.347756775812
 20
1045.657519267006
 30
0.0
 10
1318.529337461805
 20
1045.657519267006
 30
0.0
 10
1317.697679106494
 20
1045.657519267006
 30
0.0
 10
1316.873494704531
 20
1045.657519267006
 30
0.0
 10
1316.054657558679
 20
1045.657519267006
 30
0.0
 10
1315.519991992183
 20
1045.657519267006
 30
0.0
 10
1315.251818704956
 20
1045.657519267006
 30
0.0
  0
LINE
  5
146
330
1F
100
AcDbEntity
  8
0
  6
Continuous
 62
     7
370
    25
100
AcDbLine
 10
1258.4376262218
 20
1416.9105024125
 30
0.0
 11
1258.4390264677
 21
1416.8985297752
 31
0.0
  0
SPLINE
  5
147
330
1F
100
AcDbEntity
  8
0
  6
Continuous
 62
     7
370
    25
100
AcDbSpline
210
0.0
220
0.0
230
1.0
 70
    24
 71
     3
 72
    24
 73
    20
 74
     0
 42
0.000000001
 43
0.00000001
 40
0.0
 40
0.0
 40
0.0
 40
0.0
 40
0.0630550576870521
 40
0.1197907781902523
 40
0.1772356551135337
 40
0.2318908178779841
 40
0.2870877509863548
 40
0.3537648031992572
 40
0.3943294007959374
 40
0.4350483460153324
 40
0.5134539372738602
 40
0.5927274881696386
 40
0.6442660077692323
 40
0.6960983383671714
 40
0.7746328015771934
 40
0.8544382428938042
 40
0.9078892149528458
 40
0.9608293609257995
 40
1.0
 40
1.0
 40
1.0
 40
1.0
 10
1315.251818704956
 20
1045.657519267006
 30
0.0
 10
1314.838346547123
 20
1045.657519267006
 30
0.0
 10
1314.052840144249
 20
1045.657519267006
 30
0.0
 10
1312.9403108694
 20
1045.657519267006
 30
0.0
 10
1311.929619184791
 20
1045.657519267006
 30
0.0
 10
1310.988071716133
 20
1045.657519267006
 30
0.0
 10
1310.062951621867
 20
1045.657519267006
 30
0.0
 10
1309.286088508725
 20
1045.657519267006
 30
0.0
 10
1308.640948125597
 20
1045.657519267006
 30
0.0
 10
1307.995619139464
 20
1045.657519267005
 30
0.0
 10
1307.286163361784
 20
1045.657519267006
 30
0.0
 10
1306.664618179091
 20
1045.657519267006
 30
0.0
 10
1306.210193679053
 20
1045.657519267006
 30
0.0
 10
1305.824808758669
 20
1045.657519267005
 30
0.0
 10
1305.474694477957
 20
1045.657519267006
 30
0.0
 10
1305.232238756323
 20
1045.657519267005
 30
0.0
 10
1305.099700542904
 20
1045.657519267006
 30
0.0
 10
1305.038042919236
 20
1045.657519267005
 30
0.0
 10
1305.036462183776
 20
1045.657519267006
 30
0.0
 10
1305.035789966965
 20
1045.657519267006
 30
0.0
  0
SPLINE
  5
148
330
1F
100
AcDbEntity
  8
0
  6
Continuous
 62
     7
370
    25
100
AcDbSpline
210
0.0
220
0.0
230
1.0
 70
    24
 71
     3
 72
    22
 73
    18
 74
     0
 42
0.000000001
 43
0.00000001
 40
0.0
 40
0.0
 40
0.0
 40
0.0
 40
0.0566733061066973
 40
0.1137810341646342
 40
0.1714265858187149
 40
0.2294881753124979
 40
0.2860526815939547
 40
0.3429529679401762
 40
0.4002451982007069
 40
0.4578249044644371
 40
0.5383294000875569
 40
0.6194620392045819
 40
0.7014451945694803
 40
0.7845216089865386
 40
0.8573112140597677
 40
0.9303722247191022
 40
1.0
 40
1.0
 40
1.0
 40
1.0
 10
932.7757656809232
 20
1045.657519272006
 30
0.0
 10
932.4831827836605
 20
1045.657519272006
 30
0.0
 10
931.8957742325027
 20
1045.657519272006
 30
0.0
 10
931.000003107279
 20
1045.657519272005
 30
0.0
 10
930.0977503634375
 20
1045.657519272006
 30
0.0
 10
929.204318944446
 20
1045.657519272005
 30
0.0
 10
928.3267597885059
 20
1045.657519272006
 30
0.0
 10
927.4695493713508
 20
1045.657519272005
 30
0.0
 10
926.6278392655504
 20
1045.657519272006
 30
0.0
 10
925.697733427705
 20
1045.657519272005
 30
0.0
 10
924.6944428559423
 20
1045.657519272006
 30
0.0
 10
923.6373597802627
 20
1045.657519272005
 30
0.0
 10
922.6313202962529
 20
1045.657519272005
 30
0.0
 10
921.7214318681231
 20
1045.657519272005
 30
0.0
 10
920.9048632814029
 20
1045.657519272005
 30
0.0
 10
920.1820583810952
 20
1045.657519272006
 30
0.0
 10
919.7490701297845
 20
1045.657519272006
 30
0.0
 10
919.5377850700451
 20
1045.657519272006
 30
0.0
  0
LINE
  5
149
330
1F
100
AcDbEntity
  8
0
  6
Continuous
 62
     7
370
    25
100
AcDbLine
 10
989.5885400315
 20
1416.8993569996
 30
0.0
 11
989.5899418566
 21
1416.9112061359
 31
0.0
  0
SPLINE
  5
14A
330
1F
100
AcDbEntity
  8
0
  6
Continuous
 62
     7
370
    25
100
AcDbSpline
210
0.0
220
0.0
230
1.0
 70
    24
 71
     3
 72
    24
 73
    20
 74
     0
 42
0.000000001
 43
0.00000001
 40
0.0
 40
0.0
 40
0.0
 40
0.0
 40
0.0244690526640821
 40
0.1246385284498892
 40
0.2004498181085466
 40
0.2467512782481499
 40
0.2932236902408896
 40
0.36350928072803
 40
0.4348230175801269
 40
0.482634541027067
 40
0.5638797494491987
 40
0.618260900658655
 40
0.6596844541239019
 40
0.7012886575994983
 40
0.7633662686910537
 40
0.8231238411760463
 40
0.8836365666308371
 40
0.9414320615453412
 40
1.0
 40
1.0
 40
1.0
 40
1.0
 10
942.982404010507
 20
1045.657519272006
 30
0.0
 10
942.986579531712
 20
1045.657519272006
 30
0.0
 10
943.0078484719389
 20
1045.657519272006
 30
0.0
 10
942.892659723251
 20
1045.657519272006
 30
0.0
 10
942.6783190713114
 20
1045.657519272006
 30
0.0
 10
942.4424167857935
 20
1045.657519272005
 30
0.0
 10
942.164717888116
 20
1045.657519272006
 30
0.0
 10
941.7682935423632
 20
1045.657519272005
 30
0.0
 10
941.2726829673938
 20
1045.657519272006
 30
0.0
 10
940.6594380251486
 20
1045.657519272005
 30
0.0
 10
940.0069752489517
 20
1045.657519272006
 30
0.0
 10
939.2834010311782
 20
1045.657519272005
 30
0.0
 10
938.6701460308168
 20
1045.657519272006
 30
0.0
 10
937.9757747503968
 20
1045.657519272005
 30
0.0
 10
937.1287742178324
 20
1045.657519272006
 30
0.0
 10
936.1049974823135
 20
1045.657519272006
 30
0.0
 10
935.0368700245699
 20
1045.657519272006
 30
0.0
 10
933.9232018571868
 20
1045.657519272006
 30
0.0
 10
933.1599333156443
 20
1045.657519272006
 30
0.0
 10
932.7757656809232
 20
1045.657519272006
 30
0.0
  0
SPLINE
  5
14B
330
1F
100
AcDbEntity
  8
0
  6
Continuous
 62
     7
370
    25
100
AcDbSpline
210
0.0
220
0.0
230
1.0
 70
     8
 71
     3
 72
    28
 73
    24
 74
     0
 42
0.000000001
 43
0.00000001
 40
0.0
 40
0.0
 40
0.0
 40
0.0
 40
0.055529066835214
 40
0.111172936921652
 40
0.1669859523182421
 40
0.2224788091473694
 40
0.2713100703056752
 40
0.3344706130288235
 40
0.3980389113817651
 40
0.4408831948406515
 40
0.505428499660288
 40
0.5733887921736486
 40
0.6247731355097887
 40
0.6680819152268931
 40
0.711579402149772
 40
0.7538282652654321
 40
0.7963262273910103
 40
0.8340326768485614
 40
0.8719884891237091
 40
0.9111923085828958
 40
0.9507754540993468
 40
0.9987149715617499
 40
0.9999999999999999
 40
0.9999999999999999
 40
0.9999999999999999
 40
0.9999999999999999
 10
1284.955891375742
 20
1445.089679064531
 30
0.0
 10
1285.203736484088
 20
1445.139833772523
 30
0.0
 10
1285.699939106731
 20
1445.240246880571
 30
0.0
 10
1286.513743772542
 20
1445.394505322632
 30
0.0
 10
1287.376260780624
 20
1445.550879747098
 30
0.0
 10
1288.254493178837
 20
1445.7029114566
 30
0.0
 10
1289.22105171568
 20
1445.863552035491
 30
0.0
 10
1290.288417746077
 20
1446.033519270391
 30
0.0
 10
1291.378089182663
 20
1446.198927649438
 30
0.0
 10
1292.5257868379
 20
1446.366208300163
 30
0.0
 10
1293.753959067021
 20
1446.537988749578
 30
0.0
 10
1295.106728143913
 20
1446.71740801034
 30
0.0
 10
1296.352742274505
 20
1446.87440523647
 30
0.0
 10
1297.443003283557
 20
1447.005919824177
 30
0.0
 10
1298.486362835818
 20
1447.126488241821
 30
0.0
 10
1299.544892370908
 20
1447.24328148719
 30
0.0
 10
1300.572275849996
 20
1447.351049174714
 30
0.0
 10
1301.573764886865
 20
1447.450622523714
 30
0.0
 10
1302.550716594127
 20
1447.54230158166
 30
0.0
 10
1303.541667271187
 20
1447.629496062645
 30
0.0
 10
1304.596941578566
 20
1447.714211995846
 30
0.0
 10
1305.333250660744
 20
1447.770119779727
 30
0.0
 10
1305.712263501315
 20
1447.793744211253
 30
0.0
 10
1305.722157798351
 20
1447.794360937437
 30
0.0
  0
SPLINE
  5
14C
330
1F
100
AcDbEntity
  8
0
  6
Continuous
 62
     7
370
    25
100
AcDbSpline
210
0.0
220
0.0
230
1.0
 70
    24
 71
     3
 72
    34
 73
    30
 74
     0
 42
0.000000001
 43
0.00000001
 40
0.0
 40
0.0
 40
0.0
 40
0.0
 40
0.0383189129643008
 40
0.0707478183034122
 40
0.1031806971557181
 40
0.1351208331872389
 40
0.1670660507829846
 40
0.2059161839422934
 40
0.2515649099382405
 40
0.2862857705879965
 40
0.3155951705272034
 40
0.344906641084903
 40
0.3740433253231215
 40
0.4033437655786465
 40
0.4477404061163783
 40
0.4928635158609233
 40
0.5230902419521298
 40
0.5528334050423244
 40
0.5826929565447088
 40
0.6278179117468213
 40
0.6735026941987331
 40
0.7040802910003896
 40
0.7559516646911624
 40
0.7995151069108152
 40
0.8479786692625527
 40
0.8814247237228734
 40
0.9148694835092247
 40
0.967206110713149
 40
1.0
 40
1.0
 40
1.0
 40
1.0
 10
1352.555130679409
 20
1043.638781630722
 30
0.0
 10
1352.152779707942
 20
1043.638781630722
 30
0.0
 10
1351.409923211722
 20
1043.638781630722
 30
0.0
 10
1350.244931381211
 20
1043.638781630722
 30
0.0
 10
1349.120590023273
 20
1043.638781630722
 30
0.0
 10
1347.977574890858
 20
1043.638781630722
 30
0.0
 10
1346.747882772807
 20
1043.638781630722
 30
0.0
 10
1345.354099662563
 20
1043.638781630722
 30
0.0
 10
1343.944977779113
 20
1043.638781630723
 30
0.0
 10
1342.678893083579
 20
1043.638781630722
 30
0.0
 10
1341.626845531271
 20
1043.638781630722
 30
0.0
 10
1340.66265051783
 20
1043.638781630721
 30
0.0
 10
1339.725931161383
 20
1043.638781630722
 30
0.0
 10
1338.662635599472
 20
1043.638781630722
 30
0.0
 10
1337.486763130251
 20
1043.638781630722
 30
0.0
 10
1336.370978082592
 20
1043.638781630722
 30
0.0
 10
1335.445654075271
 20
1043.638781630722
 30
0.0
 10
1334.692270361313
 20
1043.638781630722
 30
0.0
 10
1333.858700597322
 20
1043.638781630722
 30
0.0
 10
1332.96457583508
 20
1043.638781630722
 30
0.0
 10
1332.149359312689
 20
1043.638781630722
 30
0.0
 10
1331.366841475269
 20
1043.638781630722
 30
0.0
 10
1330.682188710075
 20
1043.638781630723
 30
0.0
 10
1330.019392990348
 20
1043.638781630722
 30
0.0
 10
1329.546719162083
 20
1043.638781630722
 30
0.0
 10
1329.203065917637
 20
1043.638781630722
 30
0.0
 10
1328.931587062178
 20
1043.638781630722
 30
0.0
 10
1328.756051937665
 20
1043.638781630722
 30
0.0
 10
1328.744262456195
 20
1043.638781630722
 30
0.0
 10
1328.739720924368
 20
1043.638781630722
 30
0.0
  0
SPLINE
  5
14D
330
1F
100
AcDbEntity
  8
0
  6
Continuous
 62
     7
370
    25
100
AcDbSpline
210
0.0
220
0.0
230
1.0
 70
    24
 71
     3
 72
    20
 73
    16
 74
     0
 42
0.000000001
 43
0.00000001
 40
0.0
 40
0.0
 40
0.0
 40
0.0
 40
0.0054855433263994
 40
0.0976803496504586
 40
0.1903627019985967
 40
0.2739628382297461
 40
0.3575541910791489
 40
0.4437687873883131
 40
0.5344110432344996
 40
0.6016881796135034
 40
0.6689603971467574
 40
0.746344804917263
 40
0.8237220070523334
 40
0.9113266784375584
 40
1.0
 40
1.0
 40
1.0
 40
1.0
 10
1358.187404438653
 20
1043.638781630722
 30
0.0
 10
1358.188109985489
 20
1043.638781630722
 30
0.0
 10
1358.200673565337
 20
1043.638781630722
 30
0.0
 10
1358.151279765639
 20
1043.638781630722
 30
0.0
 10
1358.026977148946
 20
1043.638781630722
 30
0.0
 10
1357.8151798805
 20
1043.638781630722
 30
0.0
 10
1357.530386319352
 20
1043.638781630722
 30
0.0
 10
1357.149848474646
 20
1043.638781630722
 30
0.0
 10
1356.705594737063
 20
1043.638781630722
 30
0.0
 10
1356.222279994515
 20
1043.638781630722
 30
0.0
 10
1355.708704028157
 20
1043.638781630722
 30
0.0
 10
1355.104880388107
 20
1043.638781630722
 30
0.0
 10
1354.3712230283
 20
1043.638781630722
 30
0.0
 10
1353.529812722677
 20
1043.638781630722
 30
0.0
 10
1352.881335115887
 20
1043.638781630722
 30
0.0
 10
1352.555130679409
 20
1043.638781630722
 30
0.0
  0
SPLINE
  5
14E
330
1F
100
AcDbEntity
  8
0
  6
Continuous
 62
     7
370
    25
100
AcDbSpline
210
0.0
220
0.0
230
1.0
 70
     8
 71
     3
 72
    15
 73
    11
 74
     0
 42
0.000000001
 43
0.00000001
 40
0.0
 40
0.0
 40
0.0
 40
0.0
 40
0.0292815680721569
 40
0.1051524432005789
 40
0.1982768140759569
 40
0.2914042631400166
 40
0.4790509315298324
 40
0.6707197551743548
 40
0.8635905305010325
 40
1.0
 40
1.0
 40
1.0
 40
1.0
 10
1280.971944029898
 20
1443.940639664641
 30
0.0
 10
1280.98283277002
 20
1443.949699268186
 30
0.0
 10
1281.021935103078
 20
1443.982233026108
 30
0.0
 10
1281.138781874528
 20
1444.04730365868
 30
0.0
 10
1281.328434366626
 20
1444.136214117955
 30
0.0
 10
1281.671007360535
 20
1444.26881524312
 30
0.0
 10
1282.22372312887
 20
1444.445612488416
 30
0.0
 10
1283.076631944305
 20
1444.672638999265
 30
0.0
 10
1283.998154370231
 20
1444.888797031297
 30
0.0
 10
1284.675351795792
 20
1445.030836855423
 30
0.0
 10
1284.955891375734
 20
1445.089679064639
 30
0.0
  0
SPLINE
  5
14F
330
1F
100
AcDbEntity
  8
0
  6
Continuous
 62
     7
370
    25
100
AcDbSpline
210
0.0
220
0.0
230
1.0
 70
     8
 71
     3
 72
    27
 73
    23
 74
     0
 42
0.000000001
 43
0.00000001
 40
0.0
 40
0.0
 40
0.0
 40
0.0
 40
0.0188331606432382
 40
0.0662700144032147
 40
0.1046622986635545
 40
0.143406725570741
 40
0.190376479013624
 40
0.2368241366092813
 40
0.2836394763081794
 40
0.3314350376498255
 40
0.3795009161748223
 40
0.448294331137114
 40
0.4918762745779446
 40
0.5355742100783519
 40
0.5883920102676622
 40
0.6595296011257997
 40
0.7072979083426453
 40
0.7551590442156316
 40
0.8032860671401824
 40
0.8514962149814973
 40
0.9256090284640457
 40
1.0
 40
1.0
 40
1.0
 40
1.0
 10
942.3095881991334
 20
1447.793244650708
 30
0.0
 10
942.4575825915659
 20
1447.783484065587
 30
0.0
 10
942.9783443852924
 20
1447.749138576328
 30
0.0
 10
943.8474737212207
 20
1447.681837937872
 30
0.0
 10
944.8948521122006
 20
1447.594246630272
 30
0.0
 10
945.9500471856057
 20
1447.498853614352
 30
0.0
 10
947.073648035343
 20
1447.390031692139
 30
0.0
 10
948.2545316989717
 20
1447.267918255769
 30
0.0
 10
949.4225529948591
 20
1447.140064760348
 30
0.0
 10
950.5777582390277
 20
1447.006918728954
 30
0.0
 10
951.8753723327494
 20
1446.850093451737
 30
0.0
 10
953.0945211060862
 20
1446.694658226772
 30
0.0
 10
954.2343715198222
 20
1446.542359026996
 30
0.0
 10
955.2252758616397
 20
1446.405230366136
 30
0.0
 10
956.3676711510352
 20
1446.241057365946
 30
0.0
 10
957.480389711416
 20
1446.07337785997
 30
0.0
 10
958.5066467126696
 20
1445.911666546805
 30
0.0
 10
959.3535916910342
 20
1445.773256663478
 30
0.0
 10
960.1652127082566
 20
1445.635625519065
 30
0.0
 10
961.0777657978103
 20
1445.474686963604
 30
0.0
 10
962.0696773491524
 20
1445.291390439085
 30
0.0
 10
962.7372709728766
 20
1445.157000100288
 30
0.0
 10
963.0716930096878
 20
1445.089679069602
 30
0.0
  0
SPLINE
  5
150
330
1F
100
AcDbEntity
  8
0
  6
Continuous
 62
     7
370
    25
100
AcDbSpline
210
0.0
220
0.0
230
1.0
 70
    24
 71
     3
 72
    36
 73
    32
 74
     0
 42
0.000000001
 43
0.00000001
 40
0.0
 40
0.0
 40
0.0
 40
0.0
 40
0.0302419865986808
 40
0.0725946561271786
 40
0.1155195383301077
 40
0.1578548938411114
 40
0.2006253983073991
 40
0.2436069129386306
 40
0.2870130482613748
 40
0.3375984053164391
 40
0.3728441636963823
 40
0.4081999851853199
 40
0.4504017262986347
 40
0.4928065887774271
 40
0.5355325464847037
 40
0.5785029063469934
 40
0.6086391449361249
 40
0.6375063199341257
 40
0.6664722107519145
 40
0.6996324363669779
 40
0.7329770730602843
 40
0.7666403364269353
 40
0.8007672459903479
 40
0.8228645727386695
 40
0.8450483234909855
 40
0.8778844202792618
 40
0.9110636458562845
 40
0.9330969921481093
 40
0.955249304813095
 40
0.9775588497666882
 40
1.0
 40
1.0
 40
1.0
 40
1.0
 10
919.2830672751996
 20
1043.638781635793
 30
0.0
 10
919.2817267635453
 20
1043.638781635792
 30
0.0
 10
919.27850891996
 20
1043.638781635792
 30
0.0
 10
919.1263724976347
 20
1043.638781635792
 30
0.0
 10
918.8574189058264
 20
1043.638781635791
 30
0.0
 10
918.4717245718091
 20
1043.638781635793
 30
0.0
 10
917.9823214713261
 20
1043.638781635792
 30
0.0
 10
917.3876450566177
 20
1043.638781635793
 30
0.0
 10
916.6546232714693
 20
1043.638781635793
 30
0.0
 10
915.8623228999978
 20
1043.638781635793
 30
0.0
 10
915.0376072342622
 20
1043.638781635792
 30
0.0
 10
914.2090953945392
 20
1043.638781635793
 30
0.0
 10
913.2589933275679
 20
1043.638781635792
 30
0.0
 10
912.1735356843192
 20
1043.638781635793
 30
0.0
 10
911.0065176199662
 20
1043.638781635792
 30
0.0
 10
909.8858062855846
 20
1043.638781635793
 30
0.0
 10
908.8529626495014
 20
1043.638781635792
 30
0.0
 10
907.9311711359491
 20
1043.638781635792
 30
0.0
 10
906.94835050992
 20
1043.638781635792
 30
0.0
 10
905.886472190585
 20
1043.638781635793
 30
0.0
 10
904.7419906012093
 20
1043.638781635792
 30
0.0
 10
903.5608467054842
 20
1043.638781635793
 30
0.0
 10
902.4939096593092
 20
1043.638781635792
 30
0.0
 10
901.5568843624951
 20
1043.638781635792
 30
0.0
 10
900.6335248504835
 20
1043.638781635793
 30
0.0
 10
899.5799747444462
 20
1043.638781635792
 30
0.0
 10
898.5425468492825
 20
1043.638781635792
 30
0.0
 10
897.6509273033198
 20
1043.638781635793
 30
0.0
 10
896.9031149016267
 20
1043.638781635792
 30
0.0
 10
896.1712580059084
 20
1043.638781635793
 30
0.0
 10
895.7058447104973
 20
1043.638781635792
 30
0.0
 10
895.4724537064185
 20
1043.638781635792
 30
0.0
  0
SPLINE
  5
151
330
1F
100
AcDbEntity
  8
0
  6
Continuous
 62
     7
370
    25
100
AcDbSpline
210
0.0
220
0.0
230
1.0
 70
    24
 71
     3
 72
    19
 73
    15
 74
     0
 42
0.000000001
 43
0.00000001
 40
0.0
 40
0.0
 40
0.0
 40
0.0
 40
0.102514952443415
 40
0.1892668304500259
 40
0.2760278950907666
 40
0.3783538717906254
 40
0.4646695223717862
 40
0.550998413226123
 40
0.6433246648060464
 40
0.71002063840209
 40
0.7767202650412763
 40
0.8571875975681216
 40
0.9327898769299281
 40
1.0
 40
1.0
 40
1.0
 40
1.0
 10
895.4724537064184
 20
1043.638781635792
 30
0.0
 10
895.0963141848567
 20
1043.638781635792
 30
0.0
 10
894.4018717317691
 20
1043.638781635792
 30
0.0
 10
893.5002252399244
 20
1043.638781635792
 30
0.0
 10
892.6832139586866
 20
1043.638781635792
 30
0.0
 10
891.9732126301142
 20
1043.638781635792
 30
0.0
 10
891.3714677559051
 20
1043.638781635792
 30
0.0
 10
890.8857859241342
 20
1043.638781635792
 30
0.0
 10
890.52537473244
 20
1043.638781635793
 30
0.0
 10
890.2646792783604
 20
1043.638781635792
 30
0.0
 10
890.0718243715379
 20
1043.638781635792
 30
0.0
 10
889.9330451138762
 20
1043.638781635792
 30
0.0
 10
889.8505213351729
 20
1043.638781635792
 30
0.0
 10
889.843939290298
 20
1043.638781635792
 30
0.0
 10
889.8408416598501
 20
1043.638781635792
 30
0.0
  0
SPLINE
  5
152
330
1F
100
AcDbEntity
  8
0
  6
Continuous
 62
     7
370
    25
100
AcDbSpline
210
0.0
220
0.0
230
1.0
 70
     8
 71
     3
 72
    16
 73
    12
 74
     0
 42
0.000000001
 43
0.00000001
 40
0.0
 40
0.0
 40
0.0
 40
0.0
 40
0.2025953737426475
 40
0.3045772047228643
 40
0.4065579362250035
 40
0.5107923273527923
 40
0.6150244365879637
 40
0.7201423359256395
 40
0.8252562120006455
 40
0.9187308519642516
 40
1.0
 40
1.0
 40
1.0
 40
1.0
 10
963.0716930101823
 20
1445.089679069691
 30
0.0
 10
963.4826412780765
 20
1445.002819661501
 30
0.0
 10
964.1004514107
 20
1444.872237233769
 30
0.0
 10
964.805138400904
 20
1444.705011260045
 30
0.0
 10
965.2959676536755
 20
1444.581044498152
 30
0.0
 10
965.739118852313
 20
1444.459593504809
 30
0.0
 10
966.1331862612487
 20
1444.340689765641
 30
0.0
 10
966.4718596781332
 20
1444.225607423005
 30
0.0
 10
966.7387149065423
 20
1444.119120169945
 30
0.0
 10
966.935968650992
 20
1444.024884427652
 30
0.0
 10
967.0152760584704
 20
1443.96975068329
 30
0.0
 10
967.052160033074
 20
1443.944109300076
 30
0.0
  0
LINE
  5
153
330
1F
100
AcDbEntity
  8
0
  6
Continuous
 62
     7
370
    25
100
AcDbLine
 10
1089.1382241816
 20
1441.628608252
 30
0.0
 11
976.6266115339
 21
1444.9735932185
 31
0.0
  0
LINE
  5
154
330
1F
100
AcDbEntity
  8
0
  6
Continuous
 62
     7
370
    25
100
AcDbLine
 10
1271.4009728971
 20
1444.9735932185
 30
0.0
 11
1158.8893602494
 21
1441.628608252
 31
0.0
  0
LINE
  5
155
330
1F
100
AcDbEntity
  8
0
  6
Continuous
 62
     7
370
    25
100
AcDbLine
 10
1305.6528556207
 20
1447.7898241362
 30
0.0
 11
1307.0604222907
 21
1447.8755095229
 31
0.0
  0
LINE
  5
156
330
1F
100
AcDbEntity
  8
0
  6
Continuous
 62
     7
370
    25
100
AcDbLine
 10
1258.5472949187
 20
1416.4497554928
 30
0.0
 11
1256.7670429437
 21
1430.5323387679
 31
0.0
  0
LINE
  5
157
330
1F
100
AcDbEntity
  8
0
  6
Continuous
 62
     7
370
    25
100
AcDbLine
 10
989.4389948521
 20
1415.5005984629
 30
0.0
 11
991.2605414873
 21
1430.5323387679
 31
0.0
  0
LINE
  5
158
330
1F
100
AcDbEntity
  8
0
  6
Continuous
 62
     7
370
    25
100
AcDbLine
 10
940.9671620952
 20
1447.8755095279
 30
0.0
 11
942.3190510363
 21
1447.7935907698
 31
0.0
  0
LINE
  5
159
330
1F
100
AcDbEntity
  8
0
  6
Continuous
 62
     7
370
    25
100
AcDbLine
 10
1271.4009728971
 20
1444.9735932185
 30
0.0
 11
1277.3709757976
 21
1444.6445724368
 31
0.0
  0
LINE
  5
15A
330
1F
100
AcDbEntity
  8
0
  6
Continuous
 62
     7
370
    25
100
AcDbLine
 10
970.5874289596
 20
1444.6347643341
 30
0.0
 11
976.6266115339
 21
1444.9735932185
 31
0.0
  0
LINE
  5
15B
330
1F
100
AcDbEntity
  8
0
  6
Continuous
 62
     7
370
    25
100
AcDbLine
 10
965.5882191374
 20
1443.6515904217
 30
0.0
 11
964.3638481506
 21
1427.8289499772
 31
0.0
  0
LINE
  5
15C
330
1F
100
AcDbEntity
  8
0
  6
Continuous
 62
     7
370
    25
100
AcDbLine
 10
1283.6033600811
 20
1427.8289499935
 30
0.0
 11
1282.3451879934
 21
1443.5737688178
 31
0.0
  0
SPLINE
  5
15D
330
1F
100
AcDbEntity
  8
0
  6
Continuous
 62
     7
370
    25
100
AcDbSpline
210
0.0
220
0.0
230
1.0
 70
     8
 71
     3
 72
    24
 73
    20
 74
     0
 42
0.000000001
 43
0.00000001
 40
0.7709168296185103
 40
0.7709168296185103
 40
0.7709168296185103
 40
0.7709168296185103
 40
0.8124999999999971
 40
0.8124999999999971
 40
0.8437499999999976
 40
0.8437499999999976
 40
0.8749999999999981
 40
0.8749999999999981
 40
0.9062499999999986
 40
0.9062499999999986
 40
0.9218749999999988
 40
0.9218749999999988
 40
0.937499999999999
 40
0.937499999999999
 40
0.9687499999999994
 40
0.9687499999999994
 40
0.9843749999999998
 40
0.9843749999999998
 40
1.0
 40
1.0
 40
1.0
 40
1.0
 10
935.9090480538916
 20
1447.628263643787
 30
0.0
 10
935.9109899034032
 20
1447.678399368864
 30
0.0
 10
935.9556761976958
 20
1447.724313801096
 30
0.0
 10
936.1196016479043
 20
1447.796274000881
 30
0.0
 10
936.2180422425429
 20
1447.824445287129
 30
0.0
 10
936.4797295913527
 20
1447.874087715097
 30
0.0
 10
936.6411434952046
 20
1447.895231684994
 30
0.0
 10
937.032176368569
 20
1447.929315346348
 30
0.0
 10
937.2617174469759
 20
1447.942264407201
 30
0.0
 10
937.6658212757915
 20
1447.95449568887
 30
0.0
 10
937.8112570464959
 20
1447.957371986688
 30
0.0
 10
938.1200025431052
 20
1447.96043289125
 30
0.0
 10
938.2831850994618
 20
1447.960631759843
 30
0.0
 10
938.8000902272946
 20
1447.957093344111
 30
0.0
 10
939.1810124961427
 20
1447.949244883571
 30
0.0
 10
939.8129971762847
 20
1447.928312439082
 30
0.0
 10
940.0345448083759
 20
1447.919759490271
 30
0.0
 10
940.490165153073
 20
1447.899802707793
 30
0.0
 10
940.7251086921598
 20
1447.888377261525
 30
0.0
 10
940.9671620951588
 20
1447.875509527946
 30
0.0
  0
SPLINE
  5
15E
330
1F
100
AcDbEntity
  8
0
  6
Continuous
 62
     7
370
    25
100
AcDbSpline
210
0.0
220
0.0
230
1.0
 70
     8
 71
     3
 72
    24
 73
    20
 74
     0
 42
0.000000001
 43
0.00000001
 40
0.0
 40
0.0
 40
0.0
 40
0.0
 40
0.0624999999999964
 40
0.0624999999999964
 40
0.0781249999999954
 40
0.0781249999999954
 40
0.0937499999999944
 40
0.0937499999999944
 40
0.1249999999999924
 40
0.1249999999999924
 40
0.1406249999999919
 40
0.1406249999999919
 40
0.1562499999999913
 40
0.1562499999999913
 40
0.1874999999999906
 40
0.1874999999999906
 40
0.2187499999999899
 40
0.2187499999999899
 40
0.2301156786786022
 40
0.2301156786786022
 40
0.2301156786786022
 40
0.2301156786786022
 10
1307.06042229067
 20
1447.875509522876
 30
0.0
 10
1308.037951745847
 20
1447.927475694138
 30
0.0
 10
1308.865906437324
 20
1447.954419255521
 30
0.0
 10
1309.736632995946
 20
1447.960626605918
 30
0.0
 10
1309.901320221891
 20
1447.960452806235
 30
0.0
 10
1310.209065050584
 20
1447.957484323528
 30
0.0
 10
1310.35281228456
 20
1447.954695264375
 30
0.0
 10
1310.755910546839
 20
1447.942701281302
 30
0.0
 10
1310.987241635185
 20
1447.929885467002
 30
0.0
 10
1311.28418956746
 20
1447.904212039716
 30
0.0
 10
1311.374659303882
 20
1447.894572395495
 30
0.0
 10
1311.537634777237
 20
1447.873542672667
 30
0.0
 10
1311.610502317753
 20
1447.862124101272
 30
0.0
 10
1311.805402072613
 20
1447.825383464847
 30
0.0
 10
1311.903838563921
 20
1447.797587710124
 30
0.0
 10
1312.045830304546
 20
1447.736242651088
 30
0.0
 10
1312.089340587297
 20
1447.702688632643
 30
0.0
 10
1312.114690127674
 20
1447.653368043244
 30
0.0
 10
1312.118116601135
 20
1447.639888224359
 30
0.0
 10
1312.118358745844
 20
1447.626119891162
 30
0.0
  0
ARC
  5
15F
330
1F
100
AcDbEntity
  8
0
  6
Continuous
 62
     7
370
    25
100
AcDbCircle
 10
2090.5531493329
 20
1043.4073067782
 30
0.0
 40
4.000000000000066
100
AcDbArc
 50
176.6825135471
 51
250.412614691
  0
ARC
  5
160
330
1F
100
AcDbEntity
  8
0
  6
Continuous
 62
     7
370
    25
100
AcDbCircle
 10
2102.5711961264
 20
1043.4073067782
 30
0.0
 40
4.000000000000161
100
AcDbArc
 50
289.587385309
 51
3.3174864529
  0
ARC
  5
161
330
1F
100
AcDbEntity
  8
0
  6
Continuous
 62
     7
370
    25
100
AcDbCircle
 10
1659.3220433675
 20
1045.4260444145
 30
0.0
 40
4.000000000000113
100
AcDbArc
 50
176.6825135471
 51
250.412614691
  0
ARC
  5
162
330
1F
100
AcDbEntity
  8
0
  6
Continuous
 62
     7
370
    25
100
AcDbCircle
 10
1671.340090161
 20
1045.4260444145
 30
0.0
 40
4.000000000000113
100
AcDbArc
 50
289.587385309
 51
3.3174864529
  0
LINE
  5
163
330
1F
100
AcDbEntity
  8
0
  6
Continuous
 62
     7
370
    25
100
AcDbLine
 10
2089.2121727297
 20
1039.6387816357
 30
0.0
 11
2089.2121727297
 21
1036.1387816357
 31
0.0
  0
LINE
  5
164
330
1F
100
AcDbEntity
  8
0
  6
Continuous
 62
     7
370
    25
100
AcDbLine
 10
2103.9121727297
 20
1036.1387816357
 30
0.0
 11
2103.9121727297
 21
1039.6387816357
 31
0.0
  0
ARC
  5
165
330
1F
100
AcDbEntity
  8
0
  6
Continuous
 62
     7
370
    25
100
AcDbCircle
 10
2096.5621727297
 20
1062.6500316357
 30
0.0
 40
27.51125000000021
100
AcDbArc
 50
254.5044559278
 51
285.4955440722
  0
LINE
  5
166
330
1F
100
AcDbEntity
  8
0
  6
Continuous
 62
     7
370
    25
100
AcDbLine
 10
1657.9810667642
 20
1041.657519272
 30
0.0
 11
1657.9810667642
 21
1038.157519272
 31
0.0
  0
LINE
  5
167
330
1F
100
AcDbEntity
  8
0
  6
Continuous
 62
     7
370
    25
100
AcDbLine
 10
1672.6810667642
 20
1038.157519272
 30
0.0
 11
1672.6810667642
 21
1041.657519272
 31
0.0
  0
ARC
  5
168
330
1F
100
AcDbEntity
  8
0
  6
Continuous
 62
     7
370
    25
100
AcDbCircle
 10
1665.3310667642
 20
1064.668769272
 30
0.0
 40
27.51125000000005
100
AcDbArc
 50
254.5044559278
 51
285.4955440722
  0
SPLINE
  5
169
330
1F
100
AcDbEntity
  8
0
  6
Continuous
 62
     7
370
    25
100
AcDbSpline
210
0.0
220
0.0
230
1.0
 70
     8
 71
     3
 72
   280
 73
   276
 74
     0
 42
0.000000001
 43
0.00000001
 40
0.0
 40
0.0
 40
0.0
 40
0.0
 40
0.0055283576550168
 40
0.0133472264969441
 40
0.0208772420521091
 40
0.0281184319426412
 40
0.0346813500179641
 40
0.040987634942056
 40
0.0470372834470925
 40
0.0528302935944753
 40
0.0583666684483554
 40
0.0636464154476279
 40
0.0686695458023674
 40
0.0734360739154679
 40
0.0779460168302911
 40
0.0821993937052044
 40
0.0861271028766994
 40
0.0898360305401696
 40
0.0935079182445204
 40
0.0971747463493147
 40
0.109045730871457
 40
0.1208644329989117
 40
0.1326309244523457
 40
0.1443319072113446
 40
0.1558500077763265
 40
0.1652877227755085
 40
0.1745795052423245
 40
0.1837254053682397
 40
0.1927254082315216
 40
0.2015794982179833
 40
0.2105019457528688
 40
0.2191926364825539
 40
0.2281533276470893
 40
0.2373839840760917
 40
0.2468845687180152
 40
0.256655042468288
 40
0.2657190301485973
 40
0.2750034731615201
 40
0.2845083373570724
 40
0.2942335865457221
 40
0.304179767458838
 40
0.3143111932074106
 40
0.3243279026582074
 40
0.3341627214434894
 40
0.3462680750339138
 40
0.3580851832023829
 40
0.3696136772456464
 40
0.3808532363786373
 40
0.3918035865763613
 40
0.3974931604674214
 40
0.4031013086224695
 40
0.4086280054637539
 40
0.414048510329425
 40
0.4192074640491064
 40
0.4240778940150461
 40
0.4261487039823536
 40
0.4286568385952907
 40
0.4311082665214121
 40
0.4334927336382611
 40
0.4358104827348518
 40
0.4380581574997618
 40
0.441459179291698
 40
0.4447264132389922
 40
0.4478981738876236
 40
0.4496754995556941
 40
0.4514305745529826
 40
0.4530342632023345
 40
0.4544380619295293
 40
0.4556444364670661
 40
0.4566546529364814
 40
0.4574691765635526
 40
0.4581168415221976
 40
0.4589423469723125
 40
0.4600230853502283
 40
0.4614213680712879
 40
0.4629141744598834
 40
0.464653191565537
 40
0.4666381395440246
 40
0.4688712598091557
 40
0.4708021703369989
 40
0.4728907351678097
 40
0.4751399890981082
 40
0.4773832845559609
 40
0.4797916476007677
 40
0.4819114974564616
 40
0.4837402399090569
 40
0.4852759358631454
 40
0.4865171651034172
 40
0.4874629172920212
 40
0.4879321139704744
 40
0.4882674292429066
 40
0.4885256198699109
 40
0.4889970888652156
 40
0.489723316042623
 40
0.4906854933621542
 40
0.4917857058908019
 40
0.4928858172466508
 40
0.4939853720315133
 40
0.4979077279390117
 40
0.5019738161840267
 40
0.5033640071338787
 40
0.5047868664134144
 40
0.50624273747842
 40
0.5077319631553009
 40
0.5091126478886815
 40
0.5100277035555844
 40
0.5107928496950624
 40
0.5114076549118236
 40
0.5118717462529071
 40
0.5123015922915982
 40
0.5129893535000732
 40
0.5139498508468427
 40
0.5151844443765483
 40
0.516640039016207
 40
0.5180348213182951
 40
0.5197055148869875
 40
0.5211969268322012
 40
0.5225110700985149
 40
0.5239446619222038
 40
0.525234152648207
 40
0.5264592785272598
 40
0.5271514461950296
 40
0.5278013447212387
 40
0.5282971711847977
 40
0.5286426309186222
 40
0.5293415354877672
 40
0.5302496392633778
 40
0.5313558120778361
 40
0.532652880175677
 40
0.5359682099018452
 40
0.5395626627705319
 40
0.5433725513320555
 40
0.5473790565611886
 40
0.5515821275970554
 40
0.5559372220233796
 40
0.5602671818358097
 40
0.5665991210188455
 40
0.5728241667113483
 40
0.5789563117457077
 40
0.5849894791125065
 40
0.5909635224331226
 40
0.5969250725097265
 40
0.6009378533740088
 40
0.6050309420352757
 40
0.6089427363340654
 40
0.612798254333712
 40
0.6145587731097872
 40
0.6163334287402343
 40
0.6181175207800816
 40
0.6197978131716444
 40
0.6212395006206678
 40
0.6224357158882408
 40
0.6234194034464289
 40
0.6246041616469639
 40
0.6260592073422624
 40
0.6277068885831314
 40
0.6295085294977101
 40
0.6314858287186457
 40
0.6336573876407361
 40
0.6359429399603103
 40
0.6381771481699222
 40
0.6400678098220386
 40
0.6416131286785026
 40
0.6429431615544458
 40
0.644258879419529
 40
0.6454128338550505
 40
0.6468207333448635
 40
0.6484830907033651
 40
0.6503738182049117
 40
0.6520944469001503
 40
0.6535127075083358
 40
0.654628594465076
 40
0.6555263177433461
 40
0.6564409400954372
 40
0.6575095977490478
 40
0.6587704432688332
 40
0.6603258495344659
 40
0.6630508751404847
 40
0.6656890855907915
 40
0.6674042913821773
 40
0.6691576630338126
 40
0.6712978930627759
 40
0.6736032529721063
 40
0.6760300104808873
 40
0.6784419379413136
 40
0.6798987628866219
 40
0.6811422003488166
 40
0.6822445945800901
 40
0.6834873864742249
 40
0.6848988162146625
 40
0.6869669587257756
 40
0.6891024169471925
 40
0.6912776268811311
 40
0.6930665557754561
 40
0.6947327978258527
 40
0.6961846156423134
 40
0.6974221330824883
 40
0.6985999115059621
 40
0.6999105948854936
 40
0.7022315182593617
 40
0.704744581113964
 40
0.7074055366735494
 40
0.7104020525635067
 40
0.7132687814766869
 40
0.7159111777816658
 40
0.7183422952944958
 40
0.7207825507917666
 40
0.7239575592991362
 40
0.7272649685588428
 40
0.7306903965175571
 40
0.7342174124082387
 40
0.7362324610999277
 40
0.7379564425236299
 40
0.7393894941031693
 40
0.7405809362176393
 40
0.7418651078729109
 40
0.7440392220480031
 40
0.7465504458215728
 40
0.7493986823957314
 40
0.7525838956370088
 40
0.7560900123634651
 40
0.7596652106008966
 40
0.763223554170978
 40
0.7729206216319603
 40
0.782485121298532
 40
0.7892409715593116
 40
0.7958017276622685
 40
0.8021035278772866
 40
0.8081700274788539
 40
0.813989353003779
 40
0.8186794173213928
 40
0.8234428126609354
 40
0.8283196981308687
 40
0.8333136628671813
 40
0.838384215595482
 40
0.8433114461247644
 40
0.8465313763485988
 40
0.8496685699054642
 40
0.8527346138344551
 40
0.8557447942561551
 40
0.8586995463588563
 40
0.8616755573093088
 40
0.8648802853271412
 40
0.8679953061790069
 40
0.871307875195624
 40
0.8745937726763688
 40
0.8776664360060835
 40
0.8805259895308348
 40
0.883172564466995
 40
0.8857070019327133
 40
0.8904785146736854
 40
0.895416166226749
 40
0.9004754933060791
 40
0.9058817274829056
 40
0.9112627308103016
 40
0.9166185886077473
 40
0.9219506319492736
 40
0.927426448692696
 40
0.9327725960495172
 40
0.9383454612287393
 40
0.9441444487165769
 40
0.9469565058630848
 40
0.9498185931291294
 40
0.9528161646912786
 40
0.9561202518937345
 40
0.959735776188242
 40
0.9636628725984688
 40
0.9679016628623739
 40
0.9724522695673112
 40
0.9773148257004827
 40
0.9824894810020054
 40
0.9878756858612567
 40
0.9935632902763606
 40
0.9995524986904569
 40
1.0
 40
1.0
 40
1.0
 40
1.0
 10
1813.151293658426
 20
1475.692015605156
 30
0.0
 10
1812.865451517613
 20
1476.69695741069
 30
0.0
 10
1812.175337014556
 20
1479.123208882054
 30
0.0
 10
1811.095237976308
 20
1482.918324868105
 30
0.0
 10
1809.926093225173
 20
1487.02484478065
 30
0.0
 10
1808.821479093831
 20
1490.903096986629
 30
0.0
 10
1807.779840388658
 20
1494.558925930579
 30
0.0
 10
1806.799564726023
 20
1497.998169369139
 30
0.0
 10
1805.858864883846
 20
1501.297470342768
 30
0.0
 10
1804.957783921626
 20
1504.456822531539
 30
0.0
 10
1804.096363333265
 20
1507.476222065396
 30
0.0
 10
1803.27464105181
 20
1510.355667592224
 30
0.0
 10
1802.492652115279
 20
1513.095159996873
 30
0.0
 10
1801.750428655999
 20
1515.694702241182
 30
0.0
 10
1801.048000256311
 20
1518.154298453113
 30
0.0
 10
1800.388982884508
 20
1520.461390046014
 30
0.0
 10
1799.771444398624
 20
1522.622841111121
 30
0.0
 10
1799.18400352967
 20
1524.678569155978
 30
0.0
 10
1798.61005613018
 20
1526.686719215432
 30
0.0
 10
1797.611969037418
 20
1530.178253153925
 30
0.0
 10
1796.19028497916
 20
1535.149781353914
 30
0.0
 10
1794.34705335377
 20
1541.591655640939
 30
0.0
 10
1792.511978422196
 20
1548.001110385367
 30
0.0
 10
1790.69187623196
 20
1554.353848685065
 30
0.0
 10
1788.991657363933
 20
1560.284813368156
 30
0.0
 10
1787.415920076504
 20
1565.779108053676
 30
0.0
 10
1785.963038880424
 20
1570.843268313949
 30
0.0
 10
1784.532304095127
 20
1575.828670005349
 30
0.0
 10
1783.123772841474
 20
1580.735255966811
 30
0.0
 10
1781.726291536825
 20
1585.602088588983
 30
0.0
 10
1780.344422699556
 20
1590.413009254875
 30
0.0
 10
1778.95653137854
 20
1595.243013782069
 30
0.0
 10
1777.552061945402
 20
1600.128937413499
 30
0.0
 10
1776.104775841834
 20
1605.161932238666
 30
0.0
 10
1774.614635719097
 20
1610.34200283731
 30
0.0
 10
1773.132670293567
 20
1615.491695675091
 30
0.0
 10
1771.661491577212
 20
1620.602042433829
 30
0.0
 10
1770.203715303782
 20
1625.664070489372
 30
0.0
 10
1768.710818734975
 20
1630.846242057319
 30
0.0
 10
1767.182748647985
 20
1636.148654897365
 30
0.0
 10
1765.621321977051
 20
1641.564934560149
 30
0.0
 10
1764.044071437129
 20
1647.034181193035
 30
0.0
 10
1762.472094796158
 20
1652.483288202843
 30
0.0
 10
1760.796041557049
 20
1658.291231547356
 30
0.0
 10
1759.024884317237
 20
1664.426492785949
 30
0.0
 10
1757.164097874274
 20
1670.869690412002
 30
0.0
 10
1755.348037085275
 20
1677.155637035137
 30
0.0
 10
1753.576816829244
 20
1683.284144530468
 30
0.0
 10
1752.11178294116
 20
1688.351471649102
 30
0.0
 10
1750.942359554376
 20
1692.395282929431
 30
0.0
 10
1750.057867060429
 20
1695.453319543143
 30
0.0
 10
1749.187347506713
 20
1698.462441410612
 30
0.0
 10
1748.340382552491
 20
1701.390038245881
 30
0.0
 10
1747.527596857665
 20
1704.197630964884
 30
0.0
 10
1746.891928480129
 20
1706.396399565099
 30
0.0
 10
1746.393685614985
 20
1708.112358125158
 30
0.0
 10
1746.029378016466
 20
1709.391649982922
 30
0.0
 10
1745.64248487474
 20
1710.726031876913
 30
0.0
 10
1745.236822185093
 20
1712.018331496072
 30
0.0
 10
1744.821088682876
 20
1713.267430136754
 30
0.0
 10
1744.318961342311
 20
1714.691201282088
 30
0.0
 10
1743.722216239839
 20
1716.27292937553
 30
0.0
 10
1743.022002806035
 20
1718.00307016915
 30
0.0
 10
1742.404250415261
 20
1719.434260563275
 30
0.0
 10
1741.8909583079
 20
1720.598016175195
 30
0.0
 10
1741.489945419942
 20
1721.486203529503
 30
0.0
 10
1741.107826183464
 20
1722.305193137022
 30
0.0
 10
1740.762463267128
 20
1723.026439402006
 30
0.0
 10
1740.460243593113
 20
1723.64346542158
 30
0.0
 10
1740.203405744123
 20
1724.158179732631
 30
0.0
 10
1739.991386266449
 20
1724.576747940171
 30
0.0
 10
1739.7933649928
 20
1724.963100842383
 30
0.0
 10
1739.570269752159
 20
1725.393317384043
 30
0.0
 10
1739.278302973868
 20
1725.948089951562
 30
0.0
 10
1738.922334227659
 20
1726.611885460642
 30
0.0
 10
1738.500895375744
 20
1727.381817134901
 30
0.0
 10
1738.017328244398
 20
1728.243966283688
 30
0.0
 10
1737.453696201088
 20
1729.22123964051
 30
0.0
 10
1736.858850314107
 20
1730.22143600641
 30
0.0
 10
1736.241232822057
 20
1731.229749056242
 30
0.0
 10
1735.610000177233
 20
1732.232130009326
 30
0.0
 10
1734.934173382606
 20
1733.274747315871
 30
0.0
 10
1734.211587335638
 20
1734.357328636128
 30
0.0
 10
1733.488236364998
 20
1735.408159905216
 30
0.0
 10
1732.796475983066
 20
1736.383958707262
 30
0.0
 10
1732.190294518656
 20
1737.21751615584
 30
0.0
 10
1731.674643185147
 20
1737.911446223609
 30
0.0
 10
1731.253563136619
 20
1738.468139552404
 30
0.0
 10
1730.950766291771
 20
1738.86291220782
 30
0.0
 10
1730.750353413136
 20
1739.121859377654
 30
0.0
 10
1730.628364467109
 20
1739.278674073905
 30
0.0
 10
1730.506235830984
 20
1739.435076411952
 30
0.0
 10
1730.339303317904
 20
1739.647888330717
 30
0.0
 10
1730.090723991731
 20
1739.962521430727
 30
0.0
 10
1729.768170762716
 20
1740.366663899008
 30
0.0
 10
1729.400081674006
 20
1740.822217748268
 30
0.0
 10
1729.013614067958
 20
1741.294305171037
 30
0.0
 10
1728.29223988973
 20
1742.164119503191
 30
0.0
 10
1727.207069591382
 20
1743.434407121307
 30
0.0
 10
1726.064699613037
 20
1744.711324806612
 30
0.0
 10
1725.215102922303
 20
1745.631124776734
 30
0.0
 10
1724.684210212419
 20
1746.196262401796
 30
0.0
 10
1724.137286048881
 20
1746.768618277857
 30
0.0
 10
1723.591984204302
 20
1747.329435385823
 30
0.0
 10
1723.111872713123
 20
1747.814957556768
 30
0.0
 10
1722.721798828987
 20
1748.204174515935
 30
0.0
 10
1722.42839133427
 20
1748.494088842205
 30
0.0
 10
1722.19205933059
 20
1748.725745118437
 30
0.0
 10
1721.998444046273
 20
1748.914348994336
 30
0.0
 10
1721.79524341875
 20
1749.111272197852
 30
0.0
 10
1721.527269108726
 20
1749.369301165181
 30
0.0
 10
1721.154309190058
 20
1749.725023392099
 30
0.0
 10
1720.679957436544
 20
1750.17181050249
 30
0.0
 10
1720.146556487148
 20
1750.666455888089
 30
0.0
 10
1719.553081439715
 20
1751.20739803699
 30
0.0
 10
1718.951440558944
 20
1751.745250768222
 30
0.0
 10
1718.356636572765
 20
1752.265859216663
 30
0.0
 10
1717.790395176298
 20
1752.751431867541
 30
0.0
 10
1717.248459780151
 20
1753.211355935277
 30
0.0
 10
1716.722102043259
 20
1753.651634973309
 30
0.0
 10
1716.302168844138
 20
1753.997837695266
 30
0.0
 10
1715.971125143443
 20
1754.266986112894
 30
0.0
 10
1715.738582170413
 20
1754.45490477546
 30
0.0
 10
1715.553716397841
 20
1754.605075178662
 30
0.0
 10
1715.390643886736
 20
1754.738804101839
 30
0.0
 10
1715.15710023191
 20
1754.93275097524
 30
0.0
 10
1714.81083038974
 20
1755.219914491497
 30
0.0
 10
1714.369475891184
 20
1755.574229951628
 30
0.0
 10
1713.584852211929
 20
1756.191665383851
 30
0.0
 10
1712.450778723375
 20
1757.062911491895
 30
0.0
 10
1710.953645688043
 20
1758.164019070742
 30
0.0
 10
1709.338935906687
 20
1759.288037925942
 30
0.0
 10
1707.617415350966
 20
1760.417284175451
 30
0.0
 10
1705.79944628905
 20
1761.539824626488
 30
0.0
 10
1703.915882382242
 20
1762.628290569981
 30
0.0
 10
1701.71095253145
 20
1763.818562522203
 30
0.0
 10
1699.22148253913
 20
1765.052894026164
 30
0.0
 10
1696.463101839011
 20
1766.287038529715
 30
0.0
 10
1693.754457069082
 20
1767.379467311046
 30
0.0
 10
1691.093376211311
 20
1768.339745174483
 30
0.0
 10
1688.477359336382
 20
1769.186759494958
 30
0.0
 10
1686.179025668824
 20
1769.831220508922
 30
0.0
 10
1684.186162507606
 20
1770.368565457086
 30
0.0
 10
1682.513095340938
 20
1770.82095478461
 30
0.0
 10
1680.867668509565
 20
1771.249832634134
 30
0.0
 10
1679.562289996232
 20
1771.587659341805
 30
0.0
 10
1678.563528798825
 20
1771.846303966332
 30
0.0
 10
1677.849952894506
 20
1772.030521990434
 30
0.0
 10
1677.153185706
 20
1772.210585750573
 30
0.0
 10
1676.505430918695
 20
1772.377192815306
 30
0.0
 10
1675.938532729524
 20
1772.521755300767
 30
0.0
 10
1675.466495870807
 20
1772.641402283512
 30
0.0
 10
1675.030515675036
 20
1772.751853868404
 30
0.0
 10
1674.578779979273
 20
1772.866547475966
 30
0.0
 10
1674.061334401212
 20
1772.999014306907
 30
0.0
 10
1673.472498527674
 20
1773.15224131346
 30
0.0
 10
1672.814336722297
 20
1773.325599142824
 30
0.0
 10
1672.088704467188
 20
1773.517548171295
 30
0.0
 10
1671.299164914087
 20
1773.726091215715
 30
0.0
 10
1670.475781395934
 20
1773.943606603699
 30
0.0
 10
1669.693533351023
 20
1774.150311903296
 30
0.0
 10
1669.006563966836
 20
1774.331975189935
 30
0.0
 10
1668.431806524656
 20
1774.48409856779
 30
0.0
 10
1667.932572239524
 20
1774.616364878185
 30
0.0
 10
1667.502533343298
 20
1774.730394035403
 30
0.0
 10
1667.051305766254
 20
1774.850167277343
 30
0.0
 10
1666.554034126829
 20
1774.982375275494
 30
0.0
 10
1665.966553940595
 20
1775.13875902849
 30
0.0
 10
1665.339699371597
 20
1775.305769494794
 30
0.0
 10
1664.746042803654
 20
1775.464081895703
 30
0.0
 10
1664.247584987746
 20
1775.597110041143
 30
0.0
 10
1663.848118668792
 20
1775.703786719983
 30
0.0
 10
1663.510925964766
 20
1775.793878427021
 30
0.0
 10
1663.180785355746
 20
1775.882125532343
 30
0.0
 10
1662.810004893736
 20
1775.981284086911
 30
0.0
 10
1662.367770551462
 20
1776.099619002904
 30
0.0
 10
1661.73984639917
 20
1776.267756050667
 30
0.0
 10
1660.961722515857
 20
1776.476325288512
 30
0.0
 10
1660.173385892456
 20
1776.687896179062
 30
0.0
 10
1659.498051902894
 20
1776.869320685725
 30
0.0
 10
1658.880327701533
 20
1777.035393945281
 30
0.0
 10
1658.201945384526
 20
1777.217909439479
 30
0.0
 10
1657.455844323665
 20
1777.418806569777
 30
0.0
 10
1656.686907922572
 20
1777.626016302047
 30
0.0
 10
1656.015415384985
 20
1777.807101173525
 30
0.0
 10
1655.473684064556
 20
1777.953270423133
 30
0.0
 10
1655.072430693317
 20
1778.061573681631
 30
0.0
 10
1654.694804153529
 20
1778.163528612676
 30
0.0
 10
1654.300881352749
 20
1778.2699116737
 30
0.0
 10
1653.80790257983
 20
1778.403083080271
 30
0.0
 10
1653.225406518542
 20
1778.560488645697
 30
0.0
 10
1652.56892541258
 20
1778.737948049871
 30
0.0
 10
1651.946311503979
 20
1778.906297189249
 30
0.0
 10
1651.376036492672
 20
1779.060523901287
 30
0.0
 10
1650.882233568467
 20
1779.194086497474
 30
0.0
 10
1650.446256272122
 20
1779.312018405587
 30
0.0
 10
1650.06066667898
 20
1779.416325356471
 30
0.0
 10
1649.690284806519
 20
1779.51652072745
 30
0.0
 10
1649.214384944798
 20
1779.645261308357
 30
0.0
 10
1648.610587955521
 20
1779.808596501698
 30
0.0
 10
1647.880330115365
 20
1780.006119322928
 30
0.0
 10
1647.091685459309
 20
1780.219389398566
 30
0.0
 10
1646.277808914162
 20
1780.439410483785
 30
0.0
 10
1645.474674834878
 20
1780.656406693563
 30
0.0
 10
1644.732357282402
 20
1780.856839996825
 30
0.0
 10
1644.03554886892
 20
1781.044849997537
 30
0.0
 10
1643.295942996666
 20
1781.244248256773
 30
0.0
 10
1642.484782594168
 20
1781.462708796825
 30
0.0
 10
1641.595593687228
 20
1781.701848142513
 30
0.0
 10
1640.686662494381
 20
1781.945886916676
 30
0.0
 10
1639.903268146251
 20
1782.155804073504
 30
0.0
 10
1639.275884355093
 20
1782.32361735302
 30
0.0
 10
1638.832509873864
 20
1782.442058597406
 30
0.0
 10
1638.461644561858
 20
1782.541015792564
 30
0.0
 10
1638.128886993681
 20
1782.629715522367
 30
0.0
 10
1637.732603314342
 20
1782.73524390273
 30
0.0
 10
1637.225104694503
 20
1782.870191477897
 30
0.0
 10
1636.588649408072
 20
1783.039070886401
 30
0.0
 10
1635.873471257725
 20
1783.228342914422
 30
0.0
 10
1635.084636255968
 20
1783.436445627147
 30
0.0
 10
1634.247638870871
 20
1783.656439492096
 30
0.0
 10
1633.395981413027
 20
1783.879331116906
 30
0.0
 10
1632.07399160485
 20
1784.22372134281
 30
0.0
 10
1630.344878695968
 20
1784.669749846073
 30
0.0
 10
1628.477679907853
 20
1785.143874847927
 30
0.0
 10
1626.912853606296
 20
1785.533176012012
 30
0.0
 10
1625.626027747744
 20
1785.850445658873
 30
0.0
 10
1624.439119091501
 20
1786.144292431584
 30
0.0
 10
1623.349111406722
 20
1786.414798606272
 30
0.0
 10
1622.400031307487
 20
1786.650745006883
 30
0.0
 10
1621.56269678502
 20
1786.859136249231
 30
0.0
 10
1620.803336850704
 20
1787.048383074176
 30
0.0
 10
1620.055373835455
 20
1787.23520313707
 30
0.0
 10
1619.320031716304
 20
1787.419324208094
 30
0.0
 10
1618.611007780474
 20
1787.597489865564
 30
0.0
 10
1618.010034083682
 20
1787.748942316787
 30
0.0
 10
1617.513676527474
 20
1787.874263271866
 30
0.0
 10
1617.109945176099
 20
1787.976318674665
 30
0.0
 10
1616.725420833006
 20
1788.073650990445
 30
0.0
 10
1616.35826459177
 20
1788.16671979144
 30
0.0
 10
1616.004166501356
 20
1788.256616261988
 30
0.0
 10
1615.651944011264
 20
1788.346184518292
 30
0.0
 10
1615.304236101158
 20
1788.434770949137
 30
0.0
 10
1614.954862288121
 20
1788.523965323886
 30
0.0
 10
1614.613783980172
 20
1788.611250874413
 30
0.0
 10
1614.284893829325
 20
1788.695596852906
 30
0.0
 10
1613.980589502455
 20
1788.773795225919
 30
0.0
 10
1613.705325009201
 20
1788.844669589661
 30
0.0
 10
1613.453834971368
 20
1788.90954288283
 30
0.0
 10
1613.150607741909
 20
1788.987902547647
 30
0.0
 10
1612.794198166861
 20
1789.080247432634
 30
0.0
 10
1612.389653394857
 20
1789.185438699365
 30
0.0
 10
1611.994434380421
 20
1789.288605039453
 30
0.0
 10
1611.612924016552
 20
1789.388627278661
 30
0.0
 10
1611.25092288524
 20
1789.483967214289
 30
0.0
 10
1610.916575839125
 20
1789.572434178149
 30
0.0
 10
1610.605537840433
 20
1789.65512613541
 30
0.0
 10
1610.321603173621
 20
1789.73098874116
 30
0.0
 10
1610.061216998689
 20
1789.800916000659
 30
0.0
 10
1609.823454432598
 20
1789.865109222865
 30
0.0
 10
1609.646129653101
 20
1789.913261429519
 30
0.0
 10
1609.516814637616
 20
1789.948531556065
 30
0.0
 10
1609.427457750641
 20
1789.9729782344
 30
0.0
 10
1609.335863715645
 20
1789.998120363317
 30
0.0
 10
1609.223144067299
 20
1790.029160932468
 30
0.0
 10
1609.095215063801
 20
1790.064495474559
 30
0.0
 10
1608.953113167953
 20
1790.103811494484
 30
0.0
 10
1608.800197145062
 20
1790.146121540387
 30
0.0
 10
1608.639359242653
 20
1790.19052299352
 30
0.0
 10
1608.473850130812
 20
1790.235974575002
 30
0.0
 10
1608.308033008761
 20
1790.281077308891
 30
0.0
 10
1608.145384999466
 20
1790.324684826471
 30
0.0
 10
1607.988491374314
 20
1790.365690586552
 30
0.0
 10
1607.890077708726
 20
1790.390782710903
 30
0.0
 10
1607.839779231031
 20
1790.402990348493
 30
0.0
 10
1607.836282314811
 20
1790.40383906376
 30
0.0
  0
SPLINE
  5
16A
330
1F
100
AcDbEntity
  8
0
  6
Continuous
 62
     7
370
    25
100
AcDbSpline
210
0.0
220
0.0
230
1.0
 70
     8
 71
     3
 72
    29
 73
    25
 74
     0
 42
0.000000001
 43
0.00000001
 40
0.0
 40
0.0
 40
0.0
 40
0.0
 40
0.0405021763966687
 40
0.089038773445773
 40
0.1375818723717049
 40
0.1861331125548813
 40
0.2346935546936894
 40
0.2832637197359322
 40
0.3318435640075562
 40
0.376383944291685
 40
0.4209367392291171
 40
0.4655068200577476
 40
0.5100986919422644
 40
0.554716517886668
 40
0.5993641025116405
 40
0.6481084190598441
 40
0.6968916733701843
 40
0.7457050864615092
 40
0.7945391779529895
 40
0.8433846358733913
 40
0.8922323400438128
 40
0.9410733773354701
 40
0.9947828418765978
 40
1.0
 40
1.0
 40
1.0
 40
1.0
 10
2067.423646418807
 20
1501.654612448189
 30
0.0
 10
2063.915598750121
 20
1502.140188844714
 30
0.0
 10
2056.203611657133
 20
1503.207665474545
 30
0.0
 10
2044.256535931076
 20
1504.623340997155
 30
0.0
 10
2031.592052733275
 20
1505.952182103243
 30
0.0
 10
2018.906590107501
 20
1507.088804773078
 30
0.0
 10
2006.203852401084
 20
1508.043386063276
 30
0.0
 10
1993.48632127391
 20
1508.817396492634
 30
0.0
 10
1981.110409029808
 20
1509.398081523834
 30
0.0
 10
1969.079128383979
 20
1509.80512975215
 30
0.0
 10
1957.394297870568
 20
1510.056996081843
 30
0.0
 10
1945.702792009613
 20
1510.16822334529
 30
0.0
 10
1934.005112197688
 20
1510.141348145342
 30
0.0
 10
1922.30176020832
 20
1509.979021855199
 30
0.0
 10
1910.238038822495
 20
1509.674993154551
 30
0.0
 10
1897.814637271808
 20
1509.217505237157
 30
0.0
 10
1885.033768422351
 20
1508.593774603802
 30
0.0
 10
1872.253546125439
 20
1507.814946637138
 30
0.0
 10
1859.478275700073
 20
1506.880555571678
 30
0.0
 10
1846.712609440329
 20
1505.788034435714
 30
0.0
 10
1833.960163389172
 20
1504.54235644752
 30
0.0
 10
1820.804073236993
 20
1503.072496295206
 30
0.0
 10
1811.44685106954
 20
1501.953509602343
 30
0.0
 10
1806.343371008934
 20
1501.244884655946
 30
0.0
 10
1805.891526642977
 20
1501.182145468998
 30
0.0
  0
SPLINE
  5
16B
330
1F
100
AcDbEntity
  8
0
  6
Continuous
 62
     7
370
    25
100
AcDbSpline
210
0.0
220
0.0
230
1.0
 70
     8
 71
     3
 72
     9
 73
     5
 74
     0
 42
0.000000001
 43
0.00000001
 40
0.0
 40
0.0
 40
0.0
 40
0.0
 40
0.1263831746377934
 40
0.9999999999999999
 40
0.9999999999999999
 40
0.9999999999999999
 40
0.9999999999999999
 10
1607.899102062286
 20
1790.387848747395
 30
0.0
 10
1607.891227935836
 20
1790.389865234098
 30
0.0
 10
1607.828924338281
 20
1790.40582057553
 30
0.0
 10
1607.759415238041
 20
1790.422607258479
 30
0.0
 10
1607.698690918555
 20
1790.437272387145
 30
0.0
  0
SPLINE
  5
16C
330
1F
100
AcDbEntity
  8
0
  6
Continuous
 62
     7
370
    25
100
AcDbSpline
210
0.0
220
0.0
230
1.0
 70
     8
 71
     3
 72
    16
 73
    12
 74
     0
 42
0.000000001
 43
0.00000001
 40
0.0
 40
0.0
 40
0.0
 40
0.0
 40
0.0894671920411886
 40
0.2111649200752427
 40
0.332829002264426
 40
0.4544654661955914
 40
0.5760797448408823
 40
0.6976768076478569
 40
0.8192612718576545
 40
0.940837499322269
 40
1.0
 40
1.0
 40
1.0
 40
1.0
 10
1790.756896164394
 20
1418.632894872134
 30
0.0
 10
1791.022652853606
 20
1418.639180546369
 30
0.0
 10
1791.649905020088
 20
1418.65401630758
 30
0.0
 10
1792.654997617208
 20
1418.679358944194
 30
0.0
 10
1793.767245265283
 20
1418.708555412449
 30
0.0
 10
1794.889848137406
 20
1418.739375814385
 30
0.0
 10
1796.020381991615
 20
1418.771698073137
 30
0.0
 10
1797.157228627457
 20
1418.805484362595
 30
0.0
 10
1798.298521491722
 20
1418.840695404626
 30
0.0
 10
1799.246755894368
 20
1418.87095390193
 30
0.0
 10
1799.813908639617
 20
1418.889603117685
 30
0.0
 10
1799.999558804472
 20
1418.895707698873
 30
0.0
  0
SPLINE
  5
16D
330
1F
100
AcDbEntity
  8
0
  6
Continuous
 62
     7
370
    25
100
AcDbSpline
210
0.0
220
0.0
230
1.0
 70
     8
 71
     3
 72
    17
 73
    13
 74
     0
 42
0.000000001
 43
0.00000001
 40
0.0
 40
0.0
 40
0.0
 40
0.0
 40
0.0596298124495151
 40
0.1729493125404605
 40
0.2862773298999006
 40
0.3996124646281439
 40
0.5129590502532235
 40
0.6263216219270037
 40
0.7397050061044455
 40
0.85311442214634
 40
0.9665555996358778
 40
1.0
 40
1.0
 40
1.0
 40
1.0
 10
2011.129534860694
 20
1425.87263679761
 30
0.0
 10
2011.330397043675
 20
1425.879313136462
 30
0.0
 10
2011.912974365906
 20
1425.898677078211
 30
0.0
 10
2012.876708230984
 20
1425.9317720709
 30
0.0
 10
2014.018323389962
 20
1425.972296537623
 30
0.0
 10
2015.155290045692
 20
1426.014070416031
 30
0.0
 10
2016.285804986823
 20
1426.057001631972
 30
0.0
 10
2017.407969248012
 20
1426.101034601979
 30
0.0
 10
2018.520419892591
 20
1426.14607950343
 30
0.0
 10
2019.61986196088
 20
1426.192139529643
 30
0.0
 10
2020.453875387262
 20
1426.227882672508
 30
0.0
 10
2020.915426549392
 20
1426.248498795083
 30
0.0
 10
2021.020517206217
 20
1426.25319288328
 30
0.0
  0
LINE
  5
16E
330
1F
100
AcDbEntity
  8
0
  6
Continuous
 62
     7
370
    25
100
AcDbLine
 10
1799.9995588045
 20
1418.8957076989
 30
0.0
 11
2011.1295348607
 21
1425.8726367976
 31
0.0
  0
LWPOLYLINE
  5
16F
330
1F
100
AcDbEntity
  8
0
  6
Continuous
 62
     7
370
    25
100
AcDbPolyline
 90
        3
 70
   128
 43
0.0
 10
1682.2823033694
 20
1045.6571763568
 10
1737.5971925734
 20
1235.8549442983
 10
1795.7201048091
 20
1435.6977963134
  0
LWPOLYLINE
  5
170
330
1F
100
AcDbEntity
  8
0
  6
Continuous
 62
     7
370
    25
100
AcDbPolyline
 90
        3
 70
   128
 43
0.0
 10
1753.5999697453
 20
1435.9875865297
 10
1701.616181229
 20
1246.225283428
 10
1646.6700747517
 20
1045.6601916297
  0
LWPOLYLINE
  5
171
330
1F
100
AcDbEntity
  8
0
  6
Continuous
 62
     7
370
    25
100
AcDbPolyline
 90
        3
 70
   128
 43
0.0
 10
2018.2769040513
 20
1443.9019573706
 10
2049.8495266268
 20
1240.8056210378
 10
2080.4830397805
 20
1043.637702214
  0
LWPOLYLINE
  5
172
330
1F
100
AcDbEntity
  8
0
  6
Continuous
 62
     7
370
    25
100
AcDbPolyline
 90
        3
 70
   128
 43
0.0
 10
2113.592500925
 20
1043.6401116268
 10
2084.6380306587
 20
1246.9816213085
 10
2056.1025615991
 20
1447.5054188695
  0
LINE
  5
173
330
1F
100
AcDbEntity
  8
0
  6
Continuous
 62
     7
370
    25
100
AcDbLine
 10
2089.2121727297
 20
1039.6387816357
 30
0.0
 11
2103.9121727297
 21
1039.6387816357
 31
0.0
  0
LINE
  5
174
330
1F
100
AcDbEntity
  8
0
  6
Continuous
 62
     7
370
    25
100
AcDbLine
 10
1658.1180063237
 20
1041.657519272
 30
0.0
 11
1672.6810667642
 21
1041.657519272
 31
0.0
  0
LINE
  5
175
330
1F
100
AcDbEntity
  8
0
  6
Continuous
 62
     7
370
    25
100
AcDbLine
 10
1657.9810667642
 20
1041.657519272
 30
0.0
 11
1658.1180063237
 21
1041.657519272
 31
0.0
  0
LINE
  5
176
330
1F
100
AcDbEntity
  8
0
  6
Continuous
 62
     7
370
    25
100
AcDbLine
 10
2089.2121727297
 20
1036.1387816357
 30
0.0
 11
2103.9121727297
 21
1036.1387816357
 31
0.0
  0
LINE
  5
177
330
1F
100
AcDbEntity
  8
0
  6
Continuous
 62
     7
370
    25
100
AcDbLine
 10
1658.1180063237
 20
1038.157519272
 30
0.0
 11
1672.6810667642
 21
1038.157519272
 31
0.0
  0
LINE
  5
178
330
1F
100
AcDbEntity
  8
0
  6
Continuous
 62
     7
370
    25
100
AcDbLine
 10
1657.9810667642
 20
1038.157519272
 30
0.0
 11
1658.1180063237
 21
1038.157519272
 31
0.0
  0
SPLINE
  5
179
330
1F
100
AcDbEntity
  8
0
  6
Continuous
 62
     7
370
    25
100
AcDbSpline
210
0.0
220
0.0
230
1.0
 70
     8
 71
     3
 72
    84
 73
    80
 74
     0
 42
0.000000001
 43
0.00000001
 40
0.0
 40
0.0
 40
0.0
 40
0.0
 40
0.2500000000000113
 40
0.2500000000000113
 40
0.3750000000000171
 40
0.3750000000000171
 40
0.4062500000000183
 40
0.4062500000000183
 40
0.421875000000019
 40
0.421875000000019
 40
0.425781250000019
 40
0.425781250000019
 40
0.4296875000000192
 40
0.4296875000000192
 40
0.4375000000000195
 40
0.4375000000000195
 40
0.4414062500000197
 40
0.4414062500000197
 40
0.4453125000000199
 40
0.4453125000000199
 40
0.45312500000002
 40
0.45312500000002
 40
0.46875000000002
 40
0.46875000000002
 40
0.4843750000000201
 40
0.4843750000000201
 40
0.4882812500000202
 40
0.4882812500000202
 40
0.4921875000000204
 40
0.4921875000000204
 40
0.5000000000000204
 40
0.5000000000000204
 40
0.5156250000000204
 40
0.5156250000000204
 40
0.5234375000000205
 40
0.5234375000000205
 40
0.5273437500000203
 40
0.5273437500000203
 40
0.5312500000000202
 40
0.5312500000000202
 40
0.54687500000002
 40
0.54687500000002
 40
0.5625000000000198
 40
0.5625000000000198
 40
0.5703125000000198
 40
0.5703125000000198
 40
0.5781250000000197
 40
0.5781250000000197
 40
0.5859375000000195
 40
0.5859375000000195
 40
0.5898437500000195
 40
0.5898437500000195
 40
0.5937500000000194
 40
0.5937500000000194
 40
0.6250000000000185
 40
0.6250000000000185
 40
0.6406250000000181
 40
0.6406250000000181
 40
0.6484375000000179
 40
0.6484375000000179
 40
0.6562500000000175
 40
0.6562500000000175
 40
0.6875000000000162
 40
0.6875000000000162
 40
0.7500000000000138
 40
0.7500000000000138
 40
0.765625000000013
 40
0.765625000000013
 40
0.7812500000000123
 40
0.7812500000000123
 40
0.8125000000000104
 40
0.8125000000000104
 40
0.8750000000000069
 40
0.8750000000000069
 40
0.9062500000000052
 40
0.9062500000000052
 40
0.9375000000000034
 40
0.9375000000000034
 40
1.0
 40
1.0
 40
1.0
 40
1.0
 10
1814.493511923202
 20
1466.96922279194
 30
0.0
 10
1800.937485938291
 20
1514.476470299843
 30
0.0
 10
1787.373319039021
 20
1562.012400492734
 30
0.0
 10
1767.010991686867
 20
1633.372649464024
 30
0.0
 10
1760.220814201688
 20
1657.16890089561
 30
0.0
 10
1751.729890893932
 20
1686.925512598713
 30
0.0
 10
1750.031562795809
 20
1692.877341925289
 30
0.0
 10
1747.48384107247
 20
1701.805876845541
 30
0.0
 10
1746.634568264468
 20
1704.782188622674
 30
0.0
 10
1745.572911767611
 20
1708.502742015584
 30
0.0
 10
1745.363129936595
 20
1709.247553655976
 30
0.0
 10
1744.931541710319
 20
1710.733931857968
 30
0.0
 10
1744.705612838485
 20
1711.474379840834
 30
0.0
 10
1743.997594136034
 20
1713.687558203759
 30
0.0
 10
1743.485127994073
 20
1715.152083129815
 30
0.0
 10
1742.655082081007
 20
1717.332355572186
 30
0.0
 10
1742.36817083189
 20
1718.056359428918
 30
0.0
 10
1741.773672614125
 20
1719.49881273768
 30
0.0
 10
1741.466244586748
 20
1720.216770771361
 30
0.0
 10
1740.518412680591
 20
1722.349904664687
 30
0.0
 10
1739.850806492547
 20
1723.74841868287
 30
0.0
 10
1737.743429889329
 20
1727.874694775548
 30
0.0
 10
1736.199202472054
 20
1730.533272610128
 30
0.0
 10
1732.838551526135
 20
1735.668459044881
 30
0.0
 10
1731.021993066153
 20
1738.144985301191
 30
0.0
 10
1728.579579589718
 20
1741.12449110007
 30
0.0
 10
1728.083058285496
 20
1741.713806144806
 30
0.0
 10
1727.079904022028
 20
1742.872639805659
 30
0.0
 10
1726.572481002684
 20
1743.443145651585
 30
0.0
 10
1725.033196255346
 20
1745.128430143671
 30
0.0
 10
1723.984341250209
 20
1746.217010132447
 30
0.0
 10
1720.773084696677
 20
1749.380607560604
 30
0.0
 10
1718.546186371938
 20
1751.353777856366
 30
0.0
 10
1715.087901469341
 20
1754.116809529733
 30
0.0
 10
1713.915500951719
 20
1755.005048937544
 30
0.0
 10
1712.12834632197
 20
1756.288313939681
 30
0.0
 10
1711.52799081858
 20
1756.708061867581
 30
0.0
 10
1710.317822165789
 20
1757.531057021134
 30
0.0
 10
1709.708920294725
 20
1757.933783775658
 30
0.0
 10
1706.661716402545
 20
1759.894820103203
 30
0.0
 10
1704.200757382769
 20
1761.304698687894
 30
0.0
 10
1699.250404933575
 20
1763.837081458848
 30
0.0
 10
1696.760983626087
 20
1764.959406653618
 30
0.0
 10
1693.017453525642
 20
1766.444230330923
 30
0.0
 10
1691.767985459359
 20
1766.905943189214
 30
0.0
 10
1689.267709801135
 20
1767.765450843169
 30
0.0
 10
1688.025264411271
 20
1768.160328658482
 30
0.0
 10
1685.562006310231
 20
1768.883784462831
 30
0.0
 10
1684.340312871608
 20
1769.212647634964
 30
0.0
 10
1682.523286549045
 20
1769.660193962088
 30
0.0
 10
1681.920149897087
 20
1769.799625893984
 30
0.0
 10
1680.719433087269
 20
1770.078952963235
 30
0.0
 10
1680.121829433107
 20
1770.217973662125
 30
0.0
 10
1674.768236829312
 20
1771.463385058757
 30
0.0
 10
1670.186136433887
 20
1772.530192136566
 30
0.0
 10
1663.583370804978
 20
1774.06536808262
 30
0.0
 10
1661.427511159088
 20
1774.566945398476
 30
0.0
 10
1658.262199925217
 20
1775.303400101471
 30
0.0
 10
1657.218495317817
 20
1775.546042938245
 30
0.0
 10
1655.154002751322
 20
1776.026247883346
 30
0.0
 10
1654.132064461345
 20
1776.263989057458
 30
0.0
 10
1649.096649202643
 20
1777.435477862651
 30
0.0
 10
1645.307873779944
 20
1778.316803787973
 30
0.0
 10
1634.621737604939
 20
1780.802702600892
 30
0.0
 10
1628.403037071135
 20
1782.249406414028
 30
0.0
 10
1621.657605624769
 20
1783.81858099612
 30
0.0
 10
1620.360146185867
 20
1784.120429372459
 30
0.0
 10
1617.866108988192
 20
1784.70056341307
 30
0.0
 10
1616.66764453782
 20
1784.97950242015
 30
0.0
 10
1613.246475728684
 20
1785.775095172812
 30
0.0
 10
1611.18940287711
 20
1786.253801739751
 30
0.0
 10
1605.619616113997
 20
1787.549545346853
 30
0.0
 10
1602.704843806718
 20
1788.227575790627
 30
0.0
 10
1599.319061481129
 20
1789.01523270497
 30
0.0
 10
1598.355899671624
 20
1789.239270493918
 30
0.0
 10
1596.732709457257
 20
1789.616902849884
 30
0.0
 10
1596.072637665371
 20
1789.770449853394
 30
0.0
 10
1594.515181126878
 20
1790.132759036122
 30
0.0
 10
1594.044735920789
 20
1790.242212787196
 30
0.0
 10
1594.044517451538
 20
1790.242252153674
 30
0.0
  0
ARC
  5
17A
330
1F
100
AcDbEntity
  8
0
  6
Continuous
 62
     7
370
    25
100
AcDbCircle
 10
5665.945109456
 20
2520.5197609116
 30
0.0
 40
4136.868341023676
100
AcDbArc
 50
190.1676526521
 51
194.9421941403
  0
SPLINE
  5
17B
330
1F
100
AcDbEntity
  8
0
  6
Continuous
 62
     7
370
    25
100
AcDbSpline
210
0.0
220
0.0
230
1.0
 70
     8
 71
     3
 72
     9
 73
     5
 74
     0
 42
0.000000001
 43
0.00000001
 40
0.0
 40
0.0
 40
0.0
 40
0.0
 40
0.1756317825056969
 40
1.0
 40
1.0
 40
1.0
 40
1.0
 10
1607.926450820805
 20
1790.380863656881
 30
0.0
 10
1607.921236734936
 20
1790.382437389432
 30
0.0
 10
1607.891549136285
 20
1790.391397798129
 30
0.0
 10
1607.860914323513
 20
1790.396544610018
 30
0.0
 10
1607.835659957515
 20
1790.400787478161
 30
0.0
  0
SPLINE
  5
17C
330
1F
100
AcDbEntity
  8
0
  6
Continuous
 62
     7
370
    25
100
AcDbSpline
210
0.0
220
0.0
230
1.0
 70
     8
 71
     3
 72
    13
 73
     9
 74
     0
 42
0.000000001
 43
0.00000001
 40
0.0
 40
0.0
 40
0.0
 40
0.0
 40
0.1496767865824005
 40
0.3151371781840961
 40
0.4817536554889435
 40
0.6506978175620504
 40
0.8230938133285076
 40
1.0
 40
1.0
 40
1.0
 40
1.0
 10
1607.697021910197
 20
1790.429062081827
 30
0.0
 10
1607.02511534528
 20
1790.578164670038
 30
0.0
 10
1605.6104488248
 20
1790.89209290154
 30
0.0
 10
1603.405675575452
 20
1791.1352076084
 30
0.0
 10
1601.102262364663
 20
1791.210785650723
 30
0.0
 10
1598.768846440608
 20
1791.085521305062
 30
0.0
 10
1596.403374718927
 20
1790.780124627056
 30
0.0
 10
1594.837542550668
 20
1790.423079699885
 30
0.0
 10
1594.044517451538
 20
1790.242252153674
 30
0.0
  0
SPLINE
  5
17D
330
1F
100
AcDbEntity
  8
0
  6
Continuous
 62
     7
370
    25
100
AcDbSpline
210
0.0
220
0.0
230
1.0
 70
     8
 71
     3
 72
    16
 73
    12
 74
     0
 42
0.000000001
 43
0.00000001
 40
0.0
 40
0.0
 40
0.0
 40
0.0
 40
0.1210827568776936
 40
0.2423422869922951
 40
0.3646821941655677
 40
0.4870201864731676
 40
0.6102289445484335
 40
0.733436273510478
 40
0.8579029984832417
 40
0.9826222219221914
 40
0.9999999999999999
 40
0.9999999999999999
 40
0.9999999999999999
 40
0.9999999999999999
 10
1814.493506806248
 20
1466.969224792441
 30
0.0
 10
1814.46036719797
 20
1467.35783086869
 30
0.0
 10
1814.394039599663
 20
1468.135610361708
 30
0.0
 10
1814.282276488579
 20
1469.276086227668
 30
0.0
 10
1814.156845628361
 20
1470.395223631242
 30
0.0
 10
1814.013383000258
 20
1471.490572143376
 30
0.0
 10
1813.848552143548
 20
1472.556238519463
 30
0.0
 10
1813.65954814105
 20
1473.594570986557
 30
0.0
 10
1813.439606608764
 20
1474.596325564856
 30
0.0
 10
1813.269004573234
 20
1475.295782490425
 30
0.0
 10
1813.162078922123
 20
1475.648254936106
 30
0.0
 10
1813.1490024306
 20
1475.691360616551
 30
0.0
  0
SPLINE
  5
17E
330
1F
100
AcDbEntity
  8
0
  6
Continuous
 62
     7
370
    25
100
AcDbSpline
210
0.0
220
0.0
230
1.0
 70
     8
 71
     3
 72
    32
 73
    28
 74
     0
 42
0.000000001
 43
0.00000001
 40
0.0
 40
0.0
 40
0.0
 40
0.0
 40
0.0625
 40
0.0625
 40
0.125
 40
0.125
 40
0.2500000000000001
 40
0.2500000000000001
 40
0.3125000000000001
 40
0.3125000000000001
 40
0.3750000000000001
 40
0.3750000000000001
 40
0.4375000000000001
 40
0.4375000000000001
 40
0.5000000000000001
 40
0.5000000000000001
 40
0.6250000000000002
 40
0.6250000000000002
 40
0.7500000000000004
 40
0.7500000000000004
 40
0.8125000000000003
 40
0.8125000000000003
 40
0.8750000000000002
 40
0.8750000000000002
 40
0.9375000000000001
 40
0.9375000000000001
 40
1.0
 40
1.0
 40
1.0
 40
1.0
 10
1822.511840412296
 20
1467.38406024031
 30
0.0
 10
1826.495348163708
 20
1467.584678177726
 30
0.0
 10
1830.49442332304
 20
1467.778611329279
 30
0.0
 10
1838.514880597347
 20
1468.160011917688
 30
0.0
 10
1842.536393822208
 20
1468.34597828627
 30
0.0
 10
1854.627032323858
 20
1468.897559665824
 30
0.0
 10
1862.721972930496
 20
1469.254475647688
 30
0.0
 10
1874.900497424247
 20
1469.781560141489
 30
0.0
 10
1878.966863166703
 20
1469.955150515373
 30
0.0
 10
1887.103323300449
 20
1470.300161332343
 30
0.0
 10
1891.174156649201
 20
1470.473045854039
 30
0.0
 10
1899.320965729611
 20
1470.810527063912
 30
0.0
 10
1903.396834483514
 20
1470.977783539085
 30
0.0
 10
1911.55329078349
 20
1471.304298752819
 30
0.0
 10
1915.634006831588
 20
1471.46101712096
 30
0.0
 10
1927.883217013849
 20
1471.920400835854
 30
0.0
 10
1936.060676828132
 20
1472.207272364477
 30
0.0
 10
1952.411573533804
 20
1472.732656538809
 30
0.0
 10
1960.587348402948
 20
1472.973393934429
 30
0.0
 10
1972.85159972176
 20
1473.296204696906
 30
0.0
 10
1976.939776186543
 20
1473.397609421966
 30
0.0
 10
1985.116381672061
 20
1473.584976190155
 30
0.0
 10
1989.204625703047
 20
1473.677554479332
 30
0.0
 10
1997.380402509449
 20
1473.880763310031
 30
0.0
 10
2001.468071005763
 20
1473.986530187802
 30
0.0
 10
2009.642815441982
 20
1474.210181237978
 30
0.0
 10
2013.729852293136
 20
1474.329491696697
 30
0.0
 10
2017.816540166015
 20
1474.455326652975
 30
0.0
  0
SPLINE
  5
17F
330
1F
100
AcDbEntity
  8
0
  6
Continuous
 62
     7
370
    25
100
AcDbSpline
210
0.0
220
0.0
230
1.0
 70
     8
 71
     3
 72
    10
 73
     6
 74
     0
 42
0.000000001
 43
0.00000001
 40
0.0
 40
0.0
 40
0.0
 40
0.0
 40
0.0948162705120976
 40
0.547410435094274
 40
1.0
 40
1.0
 40
1.0
 40
1.0
 10
2067.425037333078
 20
1501.66488566022
 30
0.0
 10
2067.441684711299
 20
1501.670065528206
 30
0.0
 10
2067.537796364985
 20
1501.699970878552
 30
0.0
 10
2067.615224410566
 20
1501.732117423214
 30
0.0
 10
2067.633400819459
 20
1501.739481179087
 30
0.0
 10
2067.642488977723
 20
1501.743163038314
 30
0.0
  0
SPLINE
  5
180
330
1F
100
AcDbEntity
  8
0
  6
Continuous
 62
     7
370
    25
100
AcDbSpline
210
0.0
220
0.0
230
1.0
 70
     8
 71
     3
 72
     8
 73
     4
 74
     0
 42
0.000000001
 43
0.00000001
 40
0.0
 40
0.0
 40
0.0
 40
0.0
 40
1.0
 40
1.0
 40
1.0
 40
1.0
 10
2129.633714012396
 20
1469.224975297547
 30
0.0
 10
2119.069066755358
 20
1486.53765342371
 30
0.0
 10
2098.405325077127
 20
1497.3770493373
 30
0.0
 10
2067.642488977723
 20
1501.743163038314
 30
0.0
  0
SPLINE
  5
181
330
1F
100
AcDbEntity
  8
0
  6
Continuous
 62
     7
370
    25
100
AcDbSpline
210
0.0
220
0.0
230
1.0
 70
     8
 71
     3
 72
    66
 73
    62
 74
     0
 42
0.000000001
 43
0.00000001
 40
0.0
 40
0.0
 40
0.0
 40
0.0
 40
0.1249999999999993
 40
0.1249999999999993
 40
0.1874999999999989
 40
0.1874999999999989
 40
0.2499999999999986
 40
0.2499999999999986
 40
0.3124999999999983
 40
0.3124999999999983
 40
0.3749999999999979
 40
0.3749999999999979
 40
0.4374999999999976
 40
0.4374999999999976
 40
0.4531249999999974
 40
0.4531249999999974
 40
0.4687499999999973
 40
0.4687499999999973
 40
0.4843749999999972
 40
0.4843749999999972
 40
0.499999999999997
 40
0.499999999999997
 40
0.5312499999999964
 40
0.5312499999999964
 40
0.5468749999999964
 40
0.5468749999999964
 40
0.5624999999999963
 40
0.5624999999999963
 40
0.5781249999999962
 40
0.5781249999999962
 40
0.5937499999999961
 40
0.5937499999999961
 40
0.6249999999999961
 40
0.6249999999999961
 40
0.6874999999999958
 40
0.6874999999999958
 40
0.7031249999999958
 40
0.7031249999999958
 40
0.7187499999999958
 40
0.7187499999999958
 40
0.749999999999996
 40
0.749999999999996
 40
0.8124999999999968
 40
0.8124999999999968
 40
0.8281249999999972
 40
0.8281249999999972
 40
0.8437499999999976
 40
0.8437499999999976
 40
0.874999999999998
 40
0.874999999999998
 40
0.937499999999999
 40
0.937499999999999
 40
0.9531249999999993
 40
0.9531249999999993
 40
0.9687499999999998
 40
0.9687499999999998
 40
0.9843750000000001
 40
0.9843750000000001
 40
0.9921875
 40
0.9921875
 40
1.0
 40
1.0
 40
1.0
 40
1.0
 10
2129.633714012297
 20
1469.224975297548
 30
0.0
 10
2129.633576273484
 20
1469.224695484275
 30
0.0
 10
2129.476172593842
 20
1469.303239245143
 30
0.0
 10
2128.871593778284
 20
1469.531347060163
 30
0.0
 10
2128.6084460076
 20
1469.625282154082
 30
0.0
 10
2127.931184100304
 20
1469.8477318318
 30
0.0
 10
2127.51789384578
 20
1469.975734359635
 30
0.0
 10
2126.510908851244
 20
1470.262218251771
 30
0.0
 10
2125.91727566008
 20
1470.420549239435
 30
0.0
 10
2124.512124833607
 20
1470.762843872745
 30
0.0
 10
2123.700342132556
 20
1470.947085814982
 30
0.0
 10
2121.811022234237
 20
1471.33438798312
 30
0.0
 10
2120.733013639977
 20
1471.5387456674
 30
0.0
 10
2119.179340722362
 20
1471.800378051277
 30
0.0
 10
2118.858359016388
 20
1471.853631370102
 30
0.0
 10
2118.194575702394
 20
1471.961789967422
 30
0.0
 10
2117.851914526572
 20
1472.017359139353
 30
0.0
 10
2117.141872656564
 20
1472.122700224995
 30
0.0
 10
2116.774841530386
 20
1472.174090388396
 30
0.0
 10
2116.017478386413
 20
1472.284114757716
 30
0.0
 10
2115.626645681478
 20
1472.340258092442
 30
0.0
 10
2114.413348010185
 20
1472.502725326828
 30
0.0
 10
2113.551977515564
 20
1472.614212034403
 30
0.0
 10
2112.169986777601
 20
1472.77859443442
 30
0.0
 10
2111.693493154738
 20
1472.833956027444
 30
0.0
 10
2110.709634690082
 20
1472.944343747005
 30
0.0
 10
2110.203536503121
 20
1472.999308907568
 30
0.0
 10
2109.152043218077
 20
1473.108956844614
 30
0.0
 10
2108.607125535397
 20
1473.163688800596
 30
0.0
 10
2107.489171623652
 20
1473.272587416729
 30
0.0
 10
2106.915299456388
 20
1473.326212453207
 30
0.0
 10
2105.139626786801
 20
1473.487481521347
 30
0.0
 10
2103.882735447101
 20
1473.59250718828
 30
0.0
 10
2099.884828257493
 20
1473.900520907017
 30
0.0
 10
2096.907605278989
 20
1474.096986987096
 30
0.0
 10
2092.682553859345
 20
1474.322385008656
 30
0.0
 10
2091.810470963249
 20
1474.366567270958
 30
0.0
 10
2090.025772634452
 20
1474.451906486877
 30
0.0
 10
2089.112153490949
 20
1474.493172355789
 30
0.0
 10
2086.305274238628
 20
1474.612496750777
 30
0.0
 10
2084.345856629877
 20
1474.686058761687
 30
0.0
 10
2078.183851557176
 20
1474.885216661204
 30
0.0
 10
2073.699230877365
 20
1474.990164921649
 30
0.0
 10
2067.547029969303
 20
1475.071876575301
 30
0.0
 10
2066.288261197149
 20
1475.085845201103
 30
0.0
 10
2063.717864532653
 20
1475.108433998566
 30
0.0
 10
2062.41741097351
 20
1475.116894126465
 30
0.0
 10
2058.471185876369
 20
1475.133880091973
 30
0.0
 10
2055.780748774408
 20
1475.134052685353
 30
0.0
 10
2047.53817905797
 20
1475.100071989524
 30
0.0
 10
2041.815184128568
 20
1475.031807948658
 30
0.0
 10
2034.400720025311
 20
1474.889451963405
 30
0.0
 10
2032.904812864182
 20
1474.858119551247
 30
0.0
 10
2029.909742636988
 20
1474.790608614401
 30
0.0
 10
2028.407791886604
 20
1474.754354683583
 30
0.0
 10
2025.395517783867
 20
1474.676852970656
 30
0.0
 10
2023.885189774522
 20
1474.635781055195
 30
0.0
 10
2021.613743456857
 20
1474.57051309555
 30
0.0
 10
2020.855581140572
 20
1474.548363451096
 30
0.0
 10
2019.337392517654
 20
1474.50301855093
 30
0.0
 10
2018.577032897453
 20
1474.478972241563
 30
0.0
 10
2017.816540166015
 20
1474.455326652975
 30
0.0
  0
SPLINE
  5
182
330
1F
100
AcDbEntity
  8
0
  6
Continuous
 62
     7
370
    25
100
AcDbSpline
210
0.0
220
0.0
230
1.0
 70
     8
 71
     3
 72
     8
 73
     4
 74
     0
 42
0.000000001
 43
0.00000001
 40
0.0
 40
0.0
 40
0.0
 40
0.0
 40
1.0
 40
1.0
 40
1.0
 40
1.0
 10
2101.633751912523
 20
1445.122435113911
 30
0.0
 10
2116.158418357404
 20
1445.90601381404
 30
0.0
 10
2126.048438966928
 20
1454.874245596186
 30
0.0
 10
2129.633714012219
 20
1469.224975297516
 30
0.0
  0
SPLINE
  5
183
330
1F
100
AcDbEntity
  8
0
  6
Continuous
 62
     7
370
    25
100
AcDbSpline
210
0.0
220
0.0
230
1.0
 70
     8
 71
     3
 72
    15
 73
    11
 74
     0
 42
0.000000001
 43
0.00000001
 40
0.0
 40
0.0
 40
0.0
 40
0.0
 40
0.1402884734861507
 40
0.2775985326685276
 40
0.4119305128759003
 40
0.5432847722446633
 40
0.6716616938321165
 40
0.7970616879798873
 40
0.9194851949638806
 40
1.0
 40
1.0
 40
1.0
 40
1.0
 10
1696.958930698638
 20
1431.567156217222
 30
0.0
 10
1699.562828365931
 20
1431.594635236116
 30
0.0
 10
1704.715341282334
 20
1431.649009876703
 30
0.0
 10
1712.361027611374
 20
1431.744352799179
 30
0.0
 10
1719.840740316667
 20
1431.848782348023
 30
0.0
 10
1727.154468201018
 20
1431.963341081167
 30
0.0
 10
1734.302218719987
 20
1432.087569231873
 30
0.0
 10
1741.283974144877
 20
1432.222266530327
 30
0.0
 10
1747.37728303928
 20
1432.349665743526
 30
0.0
 10
1751.143193321699
 20
1432.438285581706
 30
0.0
 10
1752.637300221249
 20
1432.473445078808
 30
0.0
  0
SPLINE
  5
184
330
1F
100
AcDbEntity
  8
0
  6
Continuous
 62
     7
370
    25
100
AcDbSpline
210
0.0
220
0.0
230
1.0
 70
     8
 71
     3
 72
     9
 73
     5
 74
     0
 42
0.000000001
 43
0.00000001
 40
0.0
 40
0.0
 40
0.0
 40
0.0
 40
0.8446470209856296
 40
0.9999999999999999
 40
0.9999999999999999
 40
0.9999999999999999
 40
0.9999999999999999
 10
2011.077313939699
 20
1441.025417840709
 30
0.0
 10
2013.218666075327
 20
1441.097935411251
 30
0.0
 10
2015.753869636606
 20
1441.18379088548
 30
0.0
 10
2018.288784056577
 20
1441.277717224603
 30
0.0
 10
2018.682590563267
 20
1441.292308961194
 30
0.0
  0
SPLINE
  5
185
330
1F
100
AcDbEntity
  8
0
  6
Continuous
 62
     7
370
    25
100
AcDbSpline
210
0.0
220
0.0
230
1.0
 70
     8
 71
     3
 72
    13
 73
     9
 74
     0
 42
0.000000001
 43
0.00000001
 40
0.0
 40
0.0
 40
0.0
 40
0.0
 40
0.0887296135900896
 40
0.2630915917212611
 40
0.4413992427192584
 40
0.6236529554492147
 40
0.8098530940530952
 40
0.9999999999999999
 40
0.9999999999999999
 40
0.9999999999999999
 40
0.9999999999999999
 10
2056.762119298498
 20
1442.870590042106
 30
0.0
 10
2058.089548614867
 20
1442.931398486911
 30
0.0
 10
2062.025500521011
 20
1443.111701205323
 30
0.0
 10
2068.62836649935
 20
1443.427900568847
 30
0.0
 10
2076.629785907385
 20
1443.820649445012
 30
0.0
 10
2084.807650355041
 20
1444.234771796898
 30
0.0
 10
2093.162049862121
 20
1444.668474852257
 30
0.0
 10
2098.790177093104
 20
1444.970060778595
 30
0.0
 10
2101.633751912522
 20
1445.122435113934
 30
0.0
  0
SPLINE
  5
186
330
1F
100
AcDbEntity
  8
0
  6
Continuous
 62
     7
370
    25
100
AcDbSpline
210
0.0
220
0.0
230
1.0
 70
    24
 71
     3
 72
    78
 73
    74
 74
     0
 42
0.000000001
 43
0.00000001
 40
0.0
 40
0.0
 40
0.0
 40
0.0
 40
0.016494482251872
 40
0.0337160136758708
 40
0.0516752319060291
 40
0.0703815161257595
 40
0.0804811396808136
 40
0.0907891133215603
 40
0.0995443089948281
 40
0.1083493084681317
 40
0.1173356712047811
 40
0.1265038583393275
 40
0.1423168720125774
 40
0.1586461911167153
 40
0.1630084723883826
 40
0.1674063174179889
 40
0.171839754744071
 40
0.1763088122233086
 40
0.1808135170515671
 40
0.1849709980408907
 40
0.2058263621390474
 40
0.2276167357019052
 40
0.258586278648125
 40
0.288685794287554
 40
0.3179057535941398
 40
0.3487660098486665
 40
0.3789619144065784
 40
0.4081063107022073
 40
0.4388962741673116
 40
0.4691735026823805
 40
0.4981694420602592
 40
0.5289361133098205
 40
0.5593100282387851
 40
0.5880322605011782
 40
0.604034526166066
 40
0.6206152031145744
 40
0.6377742996186433
 40
0.6537610963875198
 40
0.6745334238029447
 40
0.6785579506445507
 40
0.6817846816538558
 40
0.6842136175871945
 40
0.684949568504673
 40
0.6855623908304095
 40
0.6860520849615107
 40
0.6864858561790814
 40
0.6879712546385558
 40
0.6894531982638329
 40
0.7051172338247231
 40
0.7187830794310169
 40
0.7321604256003023
 40
0.7443411508653558
 40
0.7562827564134221
 40
0.7679979495464349
 40
0.779500187990202
 40
0.7908036901150326
 40
0.8019234366656574
 40
0.8128751624844268
 40
0.8236753368100649
 40
0.8353559222834462
 40
0.8469179196601666
 40
0.8583854714858179
 40
0.8697833204760912
 40
0.8811366650728406
 40
0.8924710005476874
 40
0.9038119503746015
 40
0.9151850933216139
 40
0.9302330718290563
 40
0.9454668958968359
 40
0.9609402508952186
 40
0.9758530851962173
 40
0.9910931111622079
 40
0.9999999999999999
 40
0.9999999999999999
 40
0.9999999999999999
 40
0.9999999999999999
 10
1823.037145651754
 20
1434.696390795083
 30
0.0
 10
1824.00458605547
 20
1434.728951812848
 30
0.0
 10
1825.982110016767
 20
1434.795509083548
 30
0.0
 10
1829.041956752945
 20
1434.898493953266
 30
0.0
 10
1832.24974214676
 20
1435.006457975438
 30
0.0
 10
1835.047902140734
 20
1435.100635287989
 30
0.0
 10
1837.395400939812
 20
1435.17964475442
 30
0.0
 10
1839.149147870369
 20
1435.238670390255
 30
0.0
 10
1840.827777689882
 20
1435.295167819105
 30
0.0
 10
1842.428954981538
 20
1435.349058438144
 30
0.0
 10
1844.057038727289
 20
1435.403854644263
 30
0.0
 10
1846.110646532696
 20
1435.472972659159
 30
0.0
 10
1848.611692484772
 20
1435.557150042454
 30
0.0
 10
1850.825110618165
 20
1435.631646773093
 30
0.0
 10
1852.347618303355
 20
1435.682889619262
 30
0.0
 10
1853.148512523465
 20
1435.709845213456
 30
0.0
 10
1853.956146784611
 20
1435.737027656348
 30
0.0
 10
1854.770521330593
 20
1435.764436956144
 30
0.0
 10
1855.568371395108
 20
1435.791290093582
 30
0.0
 10
1857.36234112043
 20
1435.85166950287
 30
0.0
 10
1860.209034153629
 20
1435.947480285706
 30
0.0
 10
1864.691069941851
 20
1436.098331590206
 30
0.0
 10
1869.741071955562
 20
1436.268298861217
 30
0.0
 10
1875.248699128695
 20
1436.45366836361
 30
0.0
 10
1880.753192755149
 20
1436.638932400623
 30
0.0
 10
1886.266280523431
 20
1436.824485689567
 30
0.0
 10
1891.776880132652
 20
1437.00995523486
 30
0.0
 10
1897.284778225228
 20
1437.195333855553
 30
0.0
 10
1902.798886262666
 20
1437.380921483566
 30
0.0
 10
1908.30491449502
 20
1437.566237170613
 30
0.0
 10
1913.810277546607
 20
1437.751530469757
 30
0.0
 10
1919.322144376693
 20
1437.93704266574
 30
0.0
 10
1924.817755268938
 20
1438.122007737706
 30
0.0
 10
1929.410750032838
 20
1438.27659357424
 30
0.0
 10
1933.160299725209
 20
1438.402791688023
 30
0.0
 10
1936.202700988685
 20
1438.5051893977
 30
0.0
 10
1939.244225008161
 20
1438.607557582089
 30
0.0
 10
1942.542199126297
 20
1438.718557074605
 30
0.0
 10
1945.036817170124
 20
1438.802518114615
 30
0.0
 10
1946.750966208896
 20
1438.860211009278
 30
0.0
 10
1947.343092021361
 20
1438.880140111913
 30
0.0
 10
1947.734066181735
 20
1438.893299079156
 30
0.0
 10
1947.965153726441
 20
1438.901076763053
 30
0.0
 10
1948.077617531399
 20
1438.904861942933
 30
0.0
 10
1948.171598222106
 20
1438.908025039003
 30
0.0
 10
1948.318967044685
 20
1438.912985012591
 30
0.0
 10
1948.527054005309
 20
1438.919988568774
 30
0.0
 10
1949.667020839181
 20
1438.958356286504
 30
0.0
 10
1951.553061546087
 20
1439.021834517027
 30
0.0
 10
1954.166016266412
 20
1439.109778399403
 30
0.0
 10
1956.562602604331
 20
1439.190439998842
 30
0.0
 10
1958.848289161275
 20
1439.267369058556
 30
0.0
 10
1961.025160744157
 20
1439.340635746625
 30
0.0
 10
1963.15084759401
 20
1439.412179716689
 30
0.0
 10
1965.225347185192
 20
1439.482000883743
 30
0.0
 10
1967.248654975726
 20
1439.55009909492
 30
0.0
 10
1969.220763313663
 20
1439.616474092678
 30
0.0
 10
1971.141665474981
 20
1439.681125650707
 30
0.0
 10
1973.069867527531
 20
1439.746022900241
 30
0.0
 10
1975.002093051708
 20
1439.811055567244
 30
0.0
 10
1976.934131240602
 20
1439.876081929127
 30
0.0
 10
1978.807943681119
 20
1439.939148594454
 30
0.0
 10
1980.623493552233
 20
1440.000254323945
 30
0.0
 10
1982.380754305242
 20
1440.059398224053
 30
0.0
 10
1984.079686923931
 20
1440.116578981614
 30
0.0
 10
1985.720299688166
 20
1440.171796875303
 30
0.0
 10
1987.470050428644
 20
1440.230688011881
 30
0.0
 10
1989.307383546986
 20
1440.292526897334
 30
0.0
 10
1991.204421632395
 20
1440.356375265217
 30
0.0
 10
1992.973642582465
 20
1440.415921708145
 30
0.0
 10
1994.61604945084
 20
1440.471199985768
 30
0.0
 10
1995.937993394727
 20
1440.515692483783
 30
0.0
 10
1996.676063064825
 20
1440.540533600143
 30
0.0
 10
1996.948309211363
 20
1440.54969655383
 30
0.0
  0
SPLINE
  5
187
330
1F
100
AcDbEntity
  8
0
  6
Continuous
 62
     7
370
    25
100
AcDbSpline
210
0.0
220
0.0
230
1.0
 70
    24
 71
     3
 72
    17
 73
    13
 74
     0
 42
0.000000001
 43
0.00000001
 40
0.0
 40
0.0
 40
0.0
 40
0.0
 40
0.0642939348850672
 40
0.1684782114952569
 40
0.2717406347152058
 40
0.3747381746622578
 40
0.4808498666239631
 40
0.5819216865541977
 40
0.6866317604348089
 40
0.7903855548930292
 40
0.8932279082743441
 40
0.9999999999999999
 40
0.9999999999999999
 40
0.9999999999999999
 40
0.9999999999999999
 10
1798.696250348879
 20
1433.877152399265
 30
0.0
 10
1799.133683162042
 20
1433.891875019435
 30
0.0
 10
1800.279948329088
 20
1433.930454719357
 30
0.0
 10
1802.265527676601
 20
1433.997283109159
 30
0.0
 10
1804.618291472104
 20
1434.076469778901
 30
0.0
 10
1807.080263479054
 20
1434.159332055429
 30
0.0
 10
1809.599016474763
 20
1434.244105402423
 30
0.0
 10
1812.194576396028
 20
1434.331463830274
 30
0.0
 10
1814.821039893619
 20
1434.419862375835
 30
0.0
 10
1817.505411786659
 20
1434.510209936846
 30
0.0
 10
1820.240453051111
 20
1434.602262870401
 30
0.0
 10
1822.093335836477
 20
1434.664625109006
 30
0.0
 10
1823.037145651754
 20
1434.696390795083
 30
0.0
  0
SPLINE
  5
188
330
1F
100
AcDbEntity
  8
0
  6
Continuous
 62
     7
370
    25
100
AcDbSpline
210
0.0
220
0.0
230
1.0
 70
     8
 71
     3
 72
     8
 73
     4
 74
     0
 42
0.000000001
 43
0.00000001
 40
0.0
 40
0.0
 40
0.0
 40
0.0
 40
1.0
 40
1.0
 40
1.0
 40
1.0
 10
1668.958940465736
 20
1453.85147326801
 30
0.0
 10
1672.744329276794
 20
1439.666981832304
 30
0.0
 10
1682.532859389735
 20
1431.420842720278
 30
0.0
 10
1696.958931707443
 20
1431.567056684297
 30
0.0
  0
SPLINE
  5
189
330
1F
100
AcDbEntity
  8
0
  6
Continuous
 62
     7
370
    25
100
AcDbSpline
210
0.0
220
0.0
230
1.0
 70
     8
 71
     3
 72
     8
 73
     4
 74
     0
 42
0.000000001
 43
0.00000001
 40
0.0
 40
0.0
 40
0.0
 40
0.0
 40
1.0
 40
1.0
 40
1.0
 40
1.0
 10
1822.511840412336
 20
1467.384060241044
 30
0.0
 10
1819.828518587524
 20
1467.248838915285
 30
0.0
 10
1817.15493395722
 20
1467.110510633349
 30
0.0
 10
1814.49351015422
 20
1466.969219330982
 30
0.0
  0
SPLINE
  5
18A
330
1F
100
AcDbEntity
  8
0
  6
Continuous
 62
     7
370
    25
100
AcDbSpline
210
0.0
220
0.0
230
1.0
 70
     8
 71
     3
 72
    29
 73
    25
 74
     0
 42
0.000000001
 43
0.00000001
 40
0.0
 40
0.0
 40
0.0
 40
0.0
 40
0.0421377682238166
 40
0.0842781994990595
 40
0.1264228703105781
 40
0.1685730174026486
 40
0.210729531483796
 40
0.2521400124199825
 40
0.2935574271609622
 40
0.3349817054649536
 40
0.3764132628316674
 40
0.4257507647952476
 40
0.4751102389921188
 40
0.5244978959849139
 40
0.5739194159020742
 40
0.6233799020161744
 40
0.672882833032866
 40
0.7224224362026544
 40
0.7719886271983384
 40
0.8215714769302946
 40
0.8711612521080843
 40
0.9207484393135779
 40
0.9703242426185044
 40
1.0
 40
1.0
 40
1.0
 40
1.0
 10
2067.642488977723
 20
1501.743163038314
 30
0.0
 10
2063.988998770734
 20
1502.24707705473
 30
0.0
 10
2056.681787460989
 20
1503.254936934263
 30
0.0
 10
2045.695970289917
 20
1504.579703870455
 30
0.0
 10
2034.693971062382
 20
1505.770247261284
 30
0.0
 10
2023.675678284331
 20
1506.815157918537
 30
0.0
 10
2012.709098467756
 20
1507.714829197435
 30
0.0
 10
2001.796148631686
 20
1508.473361522251
 30
0.0
 10
1990.938808307587
 20
1509.095986227855
 30
0.0
 10
1980.072984347134
 20
1509.589323469261
 30
0.0
 10
1968.50933762521
 20
1509.978778912154
 30
0.0
 10
1956.247208373226
 20
1510.23714049063
 30
0.0
 10
1943.286406612449
 20
1510.336430224881
 30
0.0
 10
1930.318077135042
 20
1510.265610328853
 30
0.0
 10
1917.342896870471
 20
1510.028493188511
 30
0.0
 10
1904.3616372194
 20
1509.62855305732
 30
0.0
 10
1891.37592960822
 20
1509.069228766729
 30
0.0
 10
1878.38882813222
 20
1508.349968065467
 30
0.0
 10
1865.404643380902
 20
1507.469362140936
 30
0.0
 10
1852.428144281089
 20
1506.425933673649
 30
0.0
 10
1839.463731502574
 20
1505.220830006895
 30
0.0
 10
1826.517197469111
 20
1503.844415678216
 30
0.0
 10
1815.317145228784
 20
1502.530043298412
 30
0.0
 10
1808.441972792758
 20
1501.610493915227
 30
0.0
 10
1805.867563564721
 20
1501.266168527066
 30
0.0
  0
LINE
  5
18B
330
1F
100
AcDbEntity
  8
0
  6
Continuous
 62
     7
370
    25
100
AcDbLine
 10
1795.1627944645
 20
1433.7816072507
 30
0.0
 11
2018.6844059001
 21
1441.2806314939
 31
0.0
  0
SPLINE
  5
18C
330
1F
100
AcDbEntity
  8
0
  6
Continuous
 62
     7
370
    25
100
AcDbSpline
210
0.0
220
0.0
230
1.0
 70
     8
 71
     3
 72
    50
 73
    46
 74
     0
 42
0.000000001
 43
0.00000001
 40
0.0
 40
0.0
 40
0.0
 40
0.0
 40
0.0188937873709036
 40
0.0380615531284539
 40
0.0572076730978855
 40
0.0760094862721395
 40
0.0950054092266452
 40
0.1140581265083692
 40
0.1373352916435772
 40
0.1594537649778732
 40
0.1817166385584383
 40
0.2027099180704044
 40
0.2297325937464969
 40
0.2569002355110139
 40
0.2801202520134783
 40
0.303404860830559
 40
0.3376844945174161
 40
0.3614611899673081
 40
0.3852845813778497
 40
0.4092408325944066
 40
0.4332382759149151
 40
0.457013548130317
 40
0.4927953290238248
 40
0.5286993343926278
 40
0.5530793279403325
 40
0.5774983596822559
 40
0.6020395376449112
 40
0.6266237336737656
 40
0.6627747549341391
 40
0.6878824175134686
 40
0.7130513119638143
 40
0.7430404992817445
 40
0.7731694954919806
 40
0.796488460987564
 40
0.8199033284992606
 40
0.8434946076539802
 40
0.8673532209203235
 40
0.8904892512037401
 40
0.913847928666813
 40
0.9369358002216319
 40
0.9507876864899218
 40
0.9647708958592578
 40
0.9788499875175458
 40
0.9930836317512002
 40
0.9999999999999999
 40
0.9999999999999999
 40
0.9999999999999999
 40
0.9999999999999999
 10
1753.740062555994
 20
1436.183763583504
 30
0.0
 10
1753.820683621796
 20
1436.210245705682
 30
0.0
 10
1753.983094837668
 20
1436.2635939667
 30
0.0
 10
1754.379218170465
 20
1436.340045399886
 30
0.0
 10
1754.875240844692
 20
1436.412385025741
 30
0.0
 10
1755.467791053647
 20
1436.479739713712
 30
0.0
 10
1756.140891769592
 20
1436.541940457572
 30
0.0
 10
1756.942497521712
 20
1436.603394737366
 30
0.0
 10
1757.858491278456
 20
1436.661441392198
 30
0.0
 10
1758.885280202241
 20
1436.71524922486
 30
0.0
 10
1759.926474989668
 20
1436.760856879865
 30
0.0
 10
1761.086227258708
 20
1436.803580872198
 30
0.0
 10
1762.365479538905
 20
1436.842249649769
 30
0.0
 10
1763.715470603814
 20
1436.874487362005
 30
0.0
 10
1765.02140604488
 20
1436.898948743848
 30
0.0
 10
1766.469368690563
 20
1436.919843289069
 30
0.0
 10
1767.94188043975
 20
1436.933900062723
 30
0.0
 10
1769.431393207248
 20
1436.941452151277
 30
0.0
 10
1770.735864160474
 20
1436.943527151743
 30
0.0
 10
1772.044548157475
 20
1436.94122360088
 30
0.0
 10
1773.350329759214
 20
1436.9346661821
 30
0.0
 10
1774.866561815418
 20
1436.922223395224
 30
0.0
 10
1776.589041328836
 20
1436.901312038341
 30
0.0
 10
1778.304568676113
 20
1436.872346115616
 30
0.0
 10
1779.799447377498
 20
1436.841000564203
 30
0.0
 10
1781.079335291077
 20
1436.809790836515
 30
0.0
 10
1782.345870504625
 20
1436.774383384193
 30
0.0
 10
1783.791651841659
 20
1436.728501589492
 30
0.0
 10
1785.214889816203
 20
1436.676207798514
 30
0.0
 10
1786.607090525739
 20
1436.617186241424
 30
0.0
 10
1787.864438250108
 20
1436.557370647548
 30
0.0
 10
1789.152389149294
 20
1436.487794263225
 30
0.0
 10
1790.350839969346
 20
1436.413035718341
 30
0.0
 10
1791.393373997765
 20
1436.33845599756
 30
0.0
 10
1792.289818278267
 20
1436.265488110135
 30
0.0
 10
1793.124548352763
 20
1436.187035026905
 30
0.0
 10
1793.874228326427
 20
1436.103856474686
 30
0.0
 10
1794.525173245674
 20
1436.016017902984
 30
0.0
 10
1795.057277376115
 20
1435.924531279851
 30
0.0
 10
1795.404648836821
 20
1435.841674153797
 30
0.0
 10
1795.608738308876
 20
1435.76991304468
 30
0.0
 10
1795.719154892857
 20
1435.709978624377
 30
0.0
 10
1795.760585065912
 20
1435.649064322082
 30
0.0
 10
1795.757562776351
 20
1435.598084901569
 30
0.0
 10
1795.698717775928
 20
1435.567952113864
 30
0.0
 10
1795.679474586693
 20
1435.558098244685
 30
0.0
  0
SPLINE
  5
18D
330
1F
100
AcDbEntity
  8
0
  6
Continuous
 62
     7
370
    25
100
AcDbSpline
210
0.0
220
0.0
230
1.0
 70
    24
 71
     3
 72
    46
 73
    42
 74
     0
 42
0.000000001
 43
0.00000001
 40
0.0
 40
0.0
 40
0.0
 40
0.0
 40
0.0006253862902634
 40
0.0199055513123225
 40
0.0386885888592805
 40
0.0576473382584453
 40
0.0766077421255735
 40
0.0957278910633713
 40
0.1224605377952969
 40
0.1494017683831868
 40
0.1766254248184554
 40
0.2042121132533864
 40
0.2283829223879286
 40
0.2538301724659156
 40
0.2792788919171189
 40
0.3106283936068512
 40
0.3469138801705892
 40
0.3827787908759884
 40
0.4188344953390398
 40
0.4554666386011075
 40
0.4922903517485496
 40
0.5248750168157633
 40
0.5538057625925519
 40
0.5827356753331291
 40
0.6079422800199942
 40
0.6348851788709693
 40
0.6619269106052263
 40
0.6911989952596012
 40
0.7206261377191628
 40
0.7505963116469961
 40
0.7807840886639184
 40
0.8038721171992719
 40
0.8269574343553275
 40
0.8503846328716992
 40
0.8738082793772917
 40
0.8919719242327264
 40
0.9101342355218331
 40
0.9310396904979518
 40
0.9519432936914997
 40
0.975972104642678
 40
1.0
 40
1.0
 40
1.0
 40
1.0
 10
1682.281103683495
 20
1045.657519272006
 30
0.0
 10
1682.280729805674
 20
1045.657519272006
 30
0.0
 10
1682.268829570147
 20
1045.657519272005
 30
0.0
 10
1682.175678673766
 20
1045.657519272006
 30
0.0
 10
1682.000413718491
 20
1045.657519272006
 30
0.0
 10
1681.751049389618
 20
1045.657519272006
 30
0.0
 10
1681.44030037108
 20
1045.657519272006
 30
0.0
 10
1681.020393255574
 20
1045.657519272005
 30
0.0
 10
1680.466799384194
 20
1045.657519272006
 30
0.0
 10
1679.75718139658
 20
1045.657519272005
 30
0.0
 10
1678.955551770769
 20
1045.657519272006
 30
0.0
 10
1678.108720503802
 20
1045.657519272005
 30
0.0
 10
1677.222721705542
 20
1045.657519272005
 30
0.0
 10
1676.312928652629
 20
1045.657519272006
 30
0.0
 10
1675.268331192282
 20
1045.657519272006
 30
0.0
 10
1674.032621134306
 20
1045.657519272006
 30
0.0
 10
1672.598158273512
 20
1045.657519272005
 30
0.0
 10
1671.042603035881
 20
1045.657519272006
 30
0.0
 10
1669.436030560761
 20
1045.657519272006
 30
0.0
 10
1667.777534569217
 20
1045.657519272005
 30
0.0
 10
1666.143205884651
 20
1045.657519272006
 30
0.0
 10
1664.610154336448
 20
1045.657519272005
 30
0.0
 10
1663.191340525861
 20
1045.657519272005
 30
0.0
 10
1661.884872144253
 20
1045.657519272005
 30
0.0
 10
1660.610953768367
 20
1045.657519272006
 30
0.0
 10
1659.371568886369
 20
1045.657519272006
 30
0.0
 10
1658.078867223471
 20
1045.657519272005
 30
0.0
 10
1656.764569564593
 20
1045.657519272006
 30
0.0
 10
1655.431865299677
 20
1045.657519272005
 30
0.0
 10
1654.122283899835
 20
1045.657519272006
 30
0.0
 10
1652.951095149103
 20
1045.657519272005
 30
0.0
 10
1651.925277636302
 20
1045.657519272006
 30
0.0
 10
1651.035743379419
 20
1045.657519272005
 30
0.0
 10
1650.197006021427
 20
1045.657519272005
 30
0.0
 10
1649.477279898257
 20
1045.657519272006
 30
0.0
 10
1648.873313281545
 20
1045.657519272006
 30
0.0
 10
1648.3475593416
 20
1045.657519272005
 30
0.0
 10
1647.862008713402
 20
1045.657519272005
 30
0.0
 10
1647.414561677205
 20
1045.657519272006
 30
0.0
 10
1647.04022011781
 20
1045.657519272005
 30
0.0
 10
1646.881447239891
 20
1045.657519272006
 30
0.0
 10
1646.80206231343
 20
1045.657519272006
 30
0.0
  0
SPLINE
  5
18E
330
1F
100
AcDbEntity
  8
0
  6
Continuous
 62
     7
370
    25
100
AcDbSpline
210
0.0
220
0.0
230
1.0
 70
     8
 71
     3
 72
    10
 73
     6
 74
     0
 42
0.000000001
 43
0.00000001
 40
0.0
 40
0.0
 40
0.0
 40
0.0
 40
0.5081899848007314
 40
0.9411249125443463
 40
1.0
 40
1.0
 40
1.0
 40
1.0
 10
1753.740062555994
 20
1436.183763583504
 30
0.0
 10
1753.675651745298
 20
1436.150474999399
 30
0.0
 10
1753.556368366253
 20
1436.088827354342
 30
0.0
 10
1753.545077621609
 20
1436.021990484044
 30
0.0
 10
1753.600452858932
 20
1435.989641977618
 30
0.0
 10
1753.607081886076
 20
1435.985769504333
 30
0.0
  0
SPLINE
  5
18F
330
1F
100
AcDbEntity
  8
0
  6
Continuous
 62
     7
370
    25
100
AcDbSpline
210
0.0
220
0.0
230
1.0
 70
    24
 71
     3
 72
    10
 73
     6
 74
     0
 42
0.000000001
 43
0.00000001
 40
0.0
 40
0.0
 40
0.0
 40
0.0
 40
0.4609078019016797
 40
0.9052787458107712
 40
1.0
 40
1.0
 40
1.0
 40
1.0
 10
1646.80206231343
 20
1045.657519272006
 30
0.0
 10
1646.745249720906
 20
1045.657519272006
 30
0.0
 10
1646.633662908328
 20
1045.657519272006
 30
0.0
 10
1646.614657301516
 20
1045.657519272005
 30
0.0
 10
1646.670516875267
 20
1045.657519272005
 30
0.0
 10
1646.680331687841
 20
1045.657519272005
 30
0.0
  0
SPLINE
  5
190
330
1F
100
AcDbEntity
  8
0
  6
Continuous
 62
     7
370
    25
100
AcDbSpline
210
0.0
220
0.0
230
1.0
 70
     8
 71
     3
 72
    21
 73
    17
 74
     0
 42
0.000000001
 43
0.00000001
 40
0.0
 40
0.0
 40
0.0
 40
0.0
 40
0.0382779272012007
 40
0.1066905969069699
 40
0.1602678487716215
 40
0.2321509354881101
 40
0.3045309267837734
 40
0.395781880596648
 40
0.4631618927962248
 40
0.5307669273969171
 40
0.6181002583401315
 40
0.7139486481061676
 40
0.8265046045652695
 40
0.8974191341829607
 40
0.9800426082609099
 40
1.0
 40
1.0
 40
1.0
 40
1.0
 10
2018.29252772923
 20
1443.904372934557
 30
0.0
 10
2018.287158965119
 20
1443.925258749705
 30
0.0
 10
2018.272194815031
 20
1443.983472980411
 30
0.0
 10
2018.37775686591
 20
1444.079136033768
 30
0.0
 10
2018.577843728675
 20
1444.198319547656
 30
0.0
 10
2018.877020807612
 20
1444.324449054283
 30
0.0
 10
2019.339442992243
 20
1444.478476003098
 30
0.0
 10
2019.899687756796
 20
1444.632715222831
 30
0.0
 10
2020.534254720499
 20
1444.785357486652
 30
0.0
 10
2021.222651167052
 20
1444.936150120175
 30
0.0
 10
2022.074739044974
 20
1445.106646628579
 30
0.0
 10
2023.172657271578
 20
1445.307279015479
 30
0.0
 10
2024.296277470549
 20
1445.495577098428
 30
0.0
 10
2025.43414923437
 20
1445.672965132592
 30
0.0
 10
2026.199159619944
 20
1445.787949318489
 30
0.0
 10
2026.676139326642
 20
1445.854723883098
 30
0.0
 10
2026.76893705049
 20
1445.867715059703
 30
0.0
  0
SPLINE
  5
191
330
1F
100
AcDbEntity
  8
0
  6
Continuous
 62
     7
370
    25
100
AcDbSpline
210
0.0
220
0.0
230
1.0
 70
    24
 71
     3
 72
    43
 73
    39
 74
     0
 42
0.000000001
 43
0.00000001
 40
0.0
 40
0.0
 40
0.0
 40
0.0
 40
0.0312431660851743
 40
0.0575339613952762
 40
0.0841247309808837
 40
0.1153103035111543
 40
0.1415058266254001
 40
0.1679269004981611
 40
0.1960648876247251
 40
0.2163549988543633
 40
0.2367194792243063
 40
0.2612432601425567
 40
0.2842444815035419
 40
0.3073266540430499
 40
0.3423610424118556
 40
0.3777146773923216
 40
0.4015086333414795
 40
0.4249361756760069
 40
0.4485121280886397
 40
0.4840969858017641
 40
0.5199157198230119
 40
0.5439623477588302
 40
0.5719675525970418
 40
0.600100793509921
 40
0.6427066096556142
 40
0.6859872757876743
 40
0.7149651462486663
 40
0.738850049691503
 40
0.7659729679082837
 40
0.7931883036201819
 40
0.8259960973594731
 40
0.860690874219138
 40
0.8883636961633952
 40
0.9256075509713181
 40
0.949154626640217
 40
0.9728256647440988
 40
0.9948667432267043
 40
1.0
 40
1.0
 40
1.0
 40
1.0
 10
2112.059642818362
 20
1043.638781635792
 30
0.0
 10
2111.814553124927
 20
1043.638781635792
 30
0.0
 10
2111.363223034949
 20
1043.638781635793
 30
0.0
 10
2110.55578483884
 20
1043.638781635793
 30
0.0
 10
2109.666215322016
 20
1043.638781635792
 30
0.0
 10
2108.689101467756
 20
1043.638781635792
 30
0.0
 10
2107.646470924175
 20
1043.638781635792
 30
0.0
 10
2106.592760103661
 20
1043.638781635792
 30
0.0
 10
2105.579620470637
 20
1043.638781635792
 30
0.0
 10
2104.627070135725
 20
1043.638781635793
 30
0.0
 10
2103.711379381783
 20
1043.638781635792
 30
0.0
 10
2102.746616903962
 20
1043.638781635792
 30
0.0
 10
2101.736206929632
 20
1043.638781635792
 30
0.0
 10
2100.571984861967
 20
1043.638781635793
 30
0.0
 10
2099.230852960609
 20
1043.638781635792
 30
0.0
 10
2097.889421882544
 20
1043.638781635793
 30
0.0
 10
2096.726334320978
 20
1043.638781635792
 30
0.0
 10
2095.740043273136
 20
1043.638781635792
 30
0.0
 10
2094.60460157643
 20
1043.638781635793
 30
0.0
 10
2093.323522235339
 20
1043.638781635792
 30
0.0
 10
2092.071776551445
 20
1043.638781635793
 30
0.0
 10
2090.951149127331
 20
1043.638781635792
 30
0.0
 10
2089.955532335218
 20
1043.638781635792
 30
0.0
 10
2088.768855440926
 20
1043.638781635792
 30
0.0
 10
2087.460407151209
 20
1043.638781635792
 30
0.0
 10
2086.228117311589
 20
1043.638781635792
 30
0.0
 10
2085.265302814145
 20
1043.638781635793
 30
0.0
 10
2084.509591233526
 20
1043.638781635792
 30
0.0
 10
2083.816292596172
 20
1043.638781635793
 30
0.0
 10
2083.102872607162
 20
1043.638781635792
 30
0.0
 10
2082.404224016625
 20
1043.638781635792
 30
0.0
 10
2081.79832147536
 20
1043.638781635792
 30
0.0
 10
2081.267854736947
 20
1043.638781635793
 30
0.0
 10
2080.901888539945
 20
1043.638781635792
 30
0.0
 10
2080.655426409986
 20
1043.638781635792
 30
0.0
 10
2080.531405502191
 20
1043.638781635792
 30
0.0
 10
2080.47719976883
 20
1043.638781635793
 30
0.0
 10
2080.48786019871
 20
1043.638781635793
 30
0.0
 10
2080.489873963661
 20
1043.638781635792
 30
0.0
  0
SPLINE
  5
192
330
1F
100
AcDbEntity
  8
0
  6
Continuous
 62
     7
370
    25
100
AcDbSpline
210
0.0
220
0.0
230
1.0
 70
     8
 71
     3
 72
    11
 73
     7
 74
     0
 42
0.000000001
 43
0.00000001
 40
0.0
 40
0.0
 40
0.0
 40
0.0
 40
0.1317638862343695
 40
0.4636499844063666
 40
0.7322568673068719
 40
1.0
 40
1.0
 40
1.0
 40
1.0
 10
2055.402068943862
 20
1447.793244650708
 30
0.0
 10
2055.464284647092
 20
1447.783485932547
 30
0.0
 10
2055.68320889604
 20
1447.749147012736
 30
0.0
 10
2055.897859059823
 20
1447.681747223626
 30
0.0
 10
2056.066007645297
 20
1447.594842698913
 30
0.0
 10
2056.089895221206
 20
1447.535121976045
 30
0.0
 10
2056.101819774613
 20
1447.505309702413
 30
0.0
  0
SPLINE
  5
193
330
1F
100
AcDbEntity
  8
0
  6
Continuous
 62
     7
370
    25
100
AcDbSpline
210
0.0
220
0.0
230
1.0
 70
    24
 71
     3
 72
    14
 73
    10
 74
     0
 42
0.000000001
 43
0.00000001
 40
0.0
 40
0.0
 40
0.0
 40
0.0
 40
0.1025414024881166
 40
0.2675445062113549
 40
0.4665553961009257
 40
0.5987126654923404
 40
0.7320565401620576
 40
0.865396699277702
 40
1.0
 40
1.0
 40
1.0
 40
1.0
 10
2113.583232968777
 20
1043.638781635792
 30
0.0
 10
2113.583899148272
 20
1043.638781635792
 30
0.0
 10
2113.585637301446
 20
1043.638781635792
 30
0.0
 10
2113.491807010628
 20
1043.638781635792
 30
0.0
 10
2113.311432197499
 20
1043.638781635792
 30
0.0
 10
2113.058586710927
 20
1043.638781635793
 30
0.0
 10
2112.785016851266
 20
1043.638781635792
 30
0.0
 10
2112.457627285008
 20
1043.638781635792
 30
0.0
 10
2112.192720582476
 20
1043.638781635792
 30
0.0
 10
2112.059642818362
 20
1043.638781635792
 30
0.0
  0
LINE
  5
194
330
1F
100
AcDbEntity
  8
0
  6
Continuous
 62
     7
370
    25
100
AcDbLine
 10
2054.7442866187
 20
1447.8755095279
 30
0.0
 11
2055.4246745137
 21
1447.7898039956
 31
0.0
  0
SPLINE
  5
195
330
1F
100
AcDbEntity
  8
0
  6
Continuous
 62
     7
370
    25
100
AcDbSpline
210
0.0
220
0.0
230
1.0
 70
     8
 71
     3
 72
    54
 73
    50
 74
     0
 42
0.000000001
 43
0.00000001
 40
0.1005790338805976
 40
0.1005790338805976
 40
0.1005790338805976
 40
0.1005790338805976
 40
0.1250000000000004
 40
0.1250000000000004
 40
0.1562500000000009
 40
0.1562500000000009
 40
0.1875000000000013
 40
0.1875000000000013
 40
0.2187500000000018
 40
0.2187500000000018
 40
0.2500000000000023
 40
0.2500000000000023
 40
0.3125000000000019
 40
0.3125000000000019
 40
0.3437500000000012
 40
0.3437500000000012
 40
0.3750000000000004
 40
0.3750000000000004
 40
0.4374999999999978
 40
0.4374999999999978
 40
0.4999999999999953
 40
0.4999999999999953
 40
0.5312499999999947
 40
0.5312499999999947
 40
0.562499999999994
 40
0.562499999999994
 40
0.6249999999999948
 40
0.6249999999999948
 40
0.6874999999999956
 40
0.6874999999999956
 40
0.7499999999999963
 40
0.7499999999999963
 40
0.8124999999999971
 40
0.8124999999999971
 40
0.8437499999999976
 40
0.8437499999999976
 40
0.8749999999999981
 40
0.8749999999999981
 40
0.9062499999999986
 40
0.9062499999999986
 40
0.9218749999999988
 40
0.9218749999999988
 40
0.937499999999999
 40
0.937499999999999
 40
0.9687499999999994
 40
0.9687499999999994
 40
0.9843749999999998
 40
0.9843749999999998
 40
1.0
 40
1.0
 40
1.0
 40
1.0
 10
2018.276915185237
 20
1443.934284679028
 30
0.0
 10
2018.283461617995
 20
1443.976088384213
 30
0.0
 10
2018.315369679392
 20
1444.019586344735
 30
0.0
 10
2018.44094145384
 20
1444.122275400845
 30
0.0
 10
2018.548899030922
 20
1444.181843826521
 30
0.0
 10
2018.825078442577
 20
1444.302629524028
 30
0.0
 10
2018.993690411242
 20
1444.364117731758
 30
0.0
 10
2019.384092503812
 20
1444.489002563049
 30
0.0
 10
2019.605926284139
 20
1444.552400753319
 30
0.0
 10
2020.097891615218
 20
1444.680930406278
 30
0.0
 10
2020.366696286027
 20
1444.745678575231
 30
0.0
 10
2021.224424198114
 20
1444.939089045118
 30
0.0
 10
2021.867591381917
 20
1445.067840996998
 30
0.0
 10
2022.921070026567
 20
1445.260734681827
 30
0.0
 10
2023.287181461784
 20
1445.32499310355
 30
0.0
 10
2024.047786029873
 20
1445.45343501886
 30
0.0
 10
2024.443604446972
 20
1445.517822057748
 30
0.0
 10
2025.661221722389
 20
1445.709134770078
 30
0.0
 10
2026.511742817431
 20
1445.834112884409
 30
0.0
 10
2028.282771418009
 20
1446.07944195709
 30
0.0
 10
2029.203339640475
 20
1446.199788901137
 30
0.0
 10
2030.63583166158
 20
1446.376895155989
 30
0.0
 10
2031.121978663784
 20
1446.435358701331
 30
0.0
 10
2032.111941781351
 20
1446.551117597475
 30
0.0
 10
2032.617198939982
 20
1446.608571102276
 30
0.0
 10
2034.149933230937
 20
1446.777933221934
 30
0.0
 10
2035.188453899278
 20
1446.886264405072
 30
0.0
 10
2037.299948387825
 20
1447.093483105594
 30
0.0
 10
2038.372882626192
 20
1447.192381472424
 30
0.0
 10
2040.557531006351
 20
1447.379548570592
 30
0.0
 10
2041.670775070922
 20
1447.467974147104
 30
0.0
 10
2043.93915823925
 20
1447.630986348469
 30
0.0
 10
2045.067092782555
 20
1447.703647678361
 30
0.0
 10
2046.747417058331
 20
1447.796274000881
 30
0.0
 10
2047.306630083462
 20
1447.824445287129
 30
0.0
 10
2048.416045115056
 20
1447.874087715097
 30
0.0
 10
2048.958783398109
 20
1447.895231684994
 30
0.0
 10
2050.01755547688
 20
1447.929315346348
 30
0.0
 10
2050.533619769481
 20
1447.942264407201
 30
0.0
 10
2051.284305625439
 20
1447.95449568887
 30
0.0
 10
2051.531682431317
 20
1447.957371986688
 30
0.0
 10
2052.011345818618
 20
1447.96043289125
 30
0.0
 10
2052.243666726381
 20
1447.960631759843
 30
0.0
 10
2052.917305897783
 20
1447.957093344111
 30
0.0
 10
2053.335435108724
 20
1447.949244883571
 30
0.0
 10
2053.910963416373
 20
1447.928312439082
 30
0.0
 10
2054.094570121382
 20
1447.919759490271
 30
0.0
 10
2054.436797336946
 20
1447.899802707793
 30
0.0
 10
2054.596318902406
 20
1447.888377261525
 30
0.0
 10
2054.744286618695
 20
1447.875509527946
 30
0.0
  0
SPLINE
  5
196
330
1F
100
AcDbEntity
  8
0
  6
Continuous
 62
     7
370
     0
100
AcDbSpline
210
0.0
220
0.0
230
1.0
 70
     8
 71
     3
 72
    64
 73
    60
 74
     0
 42
0.000000001
 43
0.00000001
 40
0.0
 40
0.0
 40
0.0
 40
0.0
 40
0.0312500000000001
 40
0.0312500000000001
 40
0.0468749999999998
 40
0.0468749999999998
 40
0.0624999999999995
 40
0.0624999999999995
 40
0.093749999999999
 40
0.093749999999999
 40
0.1249999999999985
 40
0.1249999999999985
 40
0.1874999999999995
 40
0.1874999999999995
 40
0.21875
 40
0.21875
 40
0.2500000000000005
 40
0.2500000000000005
 40
0.3125000000000015
 40
0.3125000000000015
 40
0.3437500000000017
 40
0.3437500000000017
 40
0.375000000000002
 40
0.375000000000002
 40
0.4062500000000022
 40
0.4062500000000022
 40
0.4375000000000024
 40
0.4375000000000024
 40
0.5000000000000029
 40
0.5000000000000029
 40
0.5625000000000033
 40
0.5625000000000033
 40
0.5937500000000037
 40
0.5937500000000037
 40
0.6250000000000039
 40
0.6250000000000039
 40
0.6875000000000038
 40
0.6875000000000038
 40
0.7500000000000038
 40
0.7500000000000038
 40
0.7812500000000044
 40
0.7812500000000044
 40
0.8125000000000052
 40
0.8125000000000052
 40
0.8437500000000059
 40
0.8437500000000059
 40
0.8750000000000067
 40
0.8750000000000067
 40
0.9062500000000073
 40
0.9062500000000073
 40
0.9218750000000069
 40
0.9218750000000069
 40
0.9375000000000063
 40
0.9375000000000063
 40
0.9687500000000039
 40
0.9687500000000039
 40
0.984375000000002
 40
0.984375000000002
 40
1.0
 40
1.0
 40
1.0
 40
1.0
 10
1753.740062555994
 20
1436.183763583503
 30
0.0
 10
1753.85701071735
 20
1436.229094822474
 30
0.0
 10
1754.030250128724
 20
1436.272624978193
 30
0.0
 10
1754.367673255338
 20
1436.335438489682
 30
0.0
 10
1754.493127795719
 20
1436.355961016162
 30
0.0
 10
1754.769406974448
 20
1436.396194332687
 30
0.0
 10
1754.921047956034
 20
1436.415992809834
 30
0.0
 10
1755.405318285296
 20
1436.473255070346
 30
0.0
 10
1755.767635485209
 20
1436.508771939968
 30
0.0
 10
1756.56001509493
 20
1436.575243648482
 30
0.0
 10
1756.993382170334
 20
1436.606366400534
 30
0.0
 10
1758.351086395102
 20
1436.69154088088
 30
0.0
 10
1759.336162211255
 20
1436.738180849468
 30
0.0
 10
1760.902840864657
 20
1436.796839939476
 30
0.0
 10
1761.440987759832
 20
1436.814467992351
 30
0.0
 10
1762.523818823111
 20
1436.845676158511
 30
0.0
 10
1763.071153971504
 20
1436.859362041581
 30
0.0
 10
1764.728725974525
 20
1436.895375483939
 30
0.0
 10
1765.854385799654
 20
1436.912705364593
 30
0.0
 10
1767.569049307433
 20
1436.930218804412
 30
0.0
 10
1768.146393088625
 20
1436.934634001879
 30
0.0
 10
1769.301074550403
 20
1436.940697018913
 30
0.0
 10
1769.878502154585
 20
1436.942354385857
 30
0.0
 10
1771.033520584898
 20
1436.943087312843
 30
0.0
 10
1771.611111443102
 20
1436.942162365566
 30
0.0
 10
1772.76645009364
 20
1436.937830123381
 30
0.0
 10
1773.345434035558
 20
1436.934410990435
 30
0.0
 10
1775.071592009959
 20
1436.920596241505
 30
0.0
 10
1776.208013675327
 20
1436.906695448978
 30
0.0
 10
1778.453623915382
 20
1436.869991668143
 30
0.0
 10
1779.562808032984
 20
1436.847187222862
 30
0.0
 10
1781.205604817299
 20
1436.80612262398
 30
0.0
 10
1781.749690773283
 20
1436.791286072666
 30
0.0
 10
1782.830522397346
 20
1436.759213511205
 30
0.0
 10
1783.368526889157
 20
1436.741933410026
 30
0.0
 10
1784.961702319391
 20
1436.686569504811
 30
0.0
 10
1785.99006467228
 20
1436.645235677737
 30
0.0
 10
1787.972313510685
 20
1436.552805718319
 30
0.0
 10
1788.926411943313
 20
1436.501737368029
 30
0.0
 10
1790.289274143623
 20
1436.416183978126
 30
0.0
 10
1790.733029190222
 20
1436.386072450104
 30
0.0
 10
1791.580139425322
 20
1436.323413814465
 30
0.0
 10
1791.985159911186
 20
1436.29077594468
 30
0.0
 10
1792.753453949642
 20
1436.222552855925
 30
0.0
 10
1793.116772703586
 20
1436.186970828187
 30
0.0
 10
1793.794391987372
 20
1436.112346067661
 30
0.0
 10
1794.109256056319
 20
1436.073157277728
 30
0.0
 10
1794.665032301815
 20
1435.992707373564
 30
0.0
 10
1794.90811366411
 20
1435.951247449738
 30
0.0
 10
1795.21181992585
 20
1435.886896223266
 30
0.0
 10
1795.302860865518
 20
1435.865084106092
 30
0.0
 10
1795.462413231396
 20
1435.82066050656
 30
0.0
 10
1795.530494529763
 20
1435.798130971446
 30
0.0
 10
1795.694903466456
 20
1435.730530631864
 30
0.0
 10
1795.752990705861
 20
1435.685085663274
 30
0.0
 10
1795.754704804993
 20
1435.616291370512
 30
0.0
 10
1795.740823294626
 20
1435.593145512854
 30
0.0
 10
1795.683203548557
 20
1435.547201493856
 30
0.0
 10
1795.639706483674
 20
1435.524465612925
 30
0.0
 10
1795.581601871156
 20
1435.501964580107
 30
0.0
  0
SPLINE
  5
197
330
1F
100
AcDbEntity
  8
0
  6
Continuous
 62
     7
370
    25
100
AcDbSpline
210
0.0
220
0.0
230
1.0
 70
     8
 71
     3
 72
    14
 73
    10
 74
     0
 42
0.000000001
 43
0.00000001
 40
0.0
 40
0.0
 40
0.0
 40
0.0
 40
0.2503331654896014
 40
0.4704554476074375
 40
0.6603589510678239
 40
0.7965222049297932
 40
0.9113609110959778
 40
0.986067784755991
 40
1.0
 40
1.0
 40
1.0
 40
1.0
 10
1346.798162672095
 20
630.4165554888524
 30
0.0
 10
1346.704900105222
 20
630.7965526486578
 30
0.0
 10
1346.529630150249
 20
631.5106878834204
 30
0.0
 10
1346.278841768845
 20
632.5118662609739
 30
0.0
 10
1346.068426841117
 20
633.3386363322591
 30
0.0
 10
1345.896987786507
 20
634.0064970294142
 30
0.0
 10
1345.767549253954
 20
634.4963380972931
 30
0.0
 10
1345.688720911538
 20
634.8078246200134
 30
0.0
 10
1345.651181408777
 20
634.93742526511
 30
0.0
 10
1345.645280982237
 20
634.9577957822889
 30
0.0
  0
LINE
  5
198
330
1F
100
AcDbEntity
  8
0
  6
Continuous
 62
     7
370
    25
100
AcDbLine
 10
1345.2128585461
 20
636.5929659319
 30
0.0
 11
1345.1891110172
 21
636.7153870404
 31
0.0
  0
LINE
  5
199
330
1F
100
AcDbEntity
  8
0
  6
Continuous
 62
     7
370
    25
100
AcDbLine
 10
902.8384733681
 20
636.7153870404
 30
0.0
 11
902.7592213929
 21
636.3830803985
 31
0.0
  0
SPLINE
  5
19A
330
1F
100
AcDbEntity
  8
0
  6
Continuous
 62
     7
370
    25
100
AcDbSpline
210
0.0
220
0.0
230
1.0
 70
     8
 71
     3
 72
    12
 73
     8
 74
     0
 42
0.000000001
 43
0.00000001
 40
0.0
 40
0.0
 40
0.0
 40
0.0
 40
0.0764794299530438
 40
0.2548901663813752
 40
0.4682734642496646
 40
0.7166433977420766
 40
0.9999999999999999
 40
0.9999999999999999
 40
0.9999999999999999
 40
0.9999999999999999
 10
902.1840461539683
 20
634.1928258122821
 30
0.0
 10
902.1585550136042
 20
634.097132466926
 30
0.0
 10
902.0735983002418
 20
633.7782062833187
 30
0.0
 10
901.9216922082156
 20
633.1897742351904
 30
0.0
 10
901.7166323208091
 20
632.384358618963
 30
0.0
 10
901.4817645678058
 20
631.4453185942864
 30
0.0
 10
901.3171465237436
 20
630.7741960834014
 30
0.0
 10
901.2294217131509
 20
630.4165554888524
 30
0.0
  0
LINE
  5
19B
330
1F
100
AcDbEntity
  8
0
  6
Continuous
 62
     7
370
    25
100
AcDbLine
 10
1353.4943450649
 20
365.0583704791
 30
0.0
 11
1340.5662297196
 21
381.5595666052
 31
0.0
  0
LINE
  5
19C
330
1F
100
AcDbEntity
  8
0
  6
Continuous
 62
     7
370
    25
100
AcDbLine
 10
1320.9293324428
 20
362.5824319549
 30
0.0
 11
1333.460179414
 21
346.6442005179
 31
0.0
  0
LINE
  5
19D
330
1F
100
AcDbEntity
  8
0
  6
Continuous
 62
     7
370
    25
100
AcDbLine
 10
907.4620561749
 20
381.5607087633
 30
0.0
 11
894.5333260807
 21
365.0584937933
 31
0.0
  0
LINE
  5
19E
330
1F
100
AcDbEntity
  8
0
  6
Continuous
 62
     7
370
    25
100
AcDbLine
 10
914.5674004452
 20
346.6441947611
 30
0.0
 11
927.0958925713
 21
362.5794310241
 31
0.0
  0
SPLINE
  5
19F
330
1F
100
AcDbEntity
  8
0
  6
Continuous
 62
     7
370
    25
100
AcDbSpline
210
0.0
220
0.0
230
1.0
 70
     8
 71
     3
 72
    32
 73
    28
 74
     0
 42
0.000000001
 43
0.00000001
 40
0.0
 40
0.0
 40
0.0
 40
0.0
 40
0.1250000000000009
 40
0.1250000000000009
 40
0.1562500000000007
 40
0.1562500000000007
 40
0.1875000000000006
 40
0.1875000000000006
 40
0.2500000000000002
 40
0.2500000000000002
 40
0.2812499999999999
 40
0.2812499999999999
 40
0.3124999999999996
 40
0.3124999999999996
 40
0.3749999999999998
 40
0.3749999999999998
 40
0.4374999999999999
 40
0.4374999999999999
 40
0.5
 40
0.5
 40
0.625
 40
0.625
 40
0.75
 40
0.75
 40
0.875
 40
0.875
 40
1.0
 40
1.0
 40
1.0
 40
1.0
 10
903.2997966172487
 20
638.4272296913433
 30
0.0
 10
904.7283929103609
 20
638.66950624994
 30
0.0
 10
906.5265140122746
 20
638.9711649647828
 30
0.0
 10
909.2187770498072
 20
639.6995156223396
 30
0.0
 10
909.7803299934396
 20
639.8629814144625
 30
0.0
 10
910.9243714568817
 20
640.2227661437129
 30
0.0
 10
911.50925332614
 20
640.4196746068701
 30
0.0
 10
913.2973081574494
 20
641.0638429703596
 30
0.0
 10
914.533682906693
 20
641.5648594004543
 30
0.0
 10
916.4379824376387
 20
642.4258264166438
 30
0.0
 10
917.0831134082056
 20
642.7319853937295
 30
0.0
 10
918.3778628146675
 20
643.3751198485255
 30
0.0
 10
919.025530586521
 20
643.7110061678873
 30
0.0
 10
920.9678423713799
 20
644.7585344397944
 30
0.0
 10
922.2616886652893
 20
645.5099705743405
 30
0.0
 10
924.8426015090779
 20
647.1039119805387
 30
0.0
 10
926.1297306069921
 20
647.946411775438
 30
0.0
 10
928.6953472153217
 20
649.7097351189074
 30
0.0
 10
929.9780762630586
 20
650.6338561769112
 30
0.0
 10
933.7669328805092
 20
653.473088185355
 30
0.0
 10
936.2238542840107
 20
655.4594194450974
 30
0.0
 10
941.0383031299363
 20
659.5644471103229
 30
0.0
 10
943.3955222450378
 20
661.683636596125
 30
0.0
 10
948.0344225792378
 20
666.0221519108895
 30
0.0
 10
950.3159970600557
 20
668.2416748312962
 30
0.0
 10
954.8198800308646
 20
672.7595412121934
 30
0.0
 10
957.042092642041
 20
675.0580059665779
 30
0.0
 10
959.2405770321647
 20
677.3884208480288
 30
0.0
  0
SPLINE
  5
1A0
330
1F
100
AcDbEntity
  8
0
  6
Continuous
 62
     7
370
    25
100
AcDbSpline
210
0.0
220
0.0
230
1.0
 70
     8
 71
     3
 72
    84
 73
    80
 74
     0
 42
0.000000001
 43
0.00000001
 40
0.0
 40
0.0
 40
0.0
 40
0.0
 40
0.2500000000000113
 40
0.2500000000000113
 40
0.3750000000000171
 40
0.3750000000000171
 40
0.4062500000000183
 40
0.4062500000000183
 40
0.421875000000019
 40
0.421875000000019
 40
0.425781250000019
 40
0.425781250000019
 40
0.4296875000000192
 40
0.4296875000000192
 40
0.4375000000000195
 40
0.4375000000000195
 40
0.4414062500000197
 40
0.4414062500000197
 40
0.4453125000000199
 40
0.4453125000000199
 40
0.45312500000002
 40
0.45312500000002
 40
0.46875000000002
 40
0.46875000000002
 40
0.4843750000000201
 40
0.4843750000000201
 40
0.4882812500000202
 40
0.4882812500000202
 40
0.4921875000000204
 40
0.4921875000000204
 40
0.5000000000000204
 40
0.5000000000000204
 40
0.5156250000000204
 40
0.5156250000000204
 40
0.5234375000000205
 40
0.5234375000000205
 40
0.5273437500000203
 40
0.5273437500000203
 40
0.5312500000000202
 40
0.5312500000000202
 40
0.54687500000002
 40
0.54687500000002
 40
0.5625000000000198
 40
0.5625000000000198
 40
0.5703125000000198
 40
0.5703125000000198
 40
0.5781250000000197
 40
0.5781250000000197
 40
0.5859375000000195
 40
0.5859375000000195
 40
0.5898437500000195
 40
0.5898437500000195
 40
0.5937500000000194
 40
0.5937500000000194
 40
0.6250000000000185
 40
0.6250000000000185
 40
0.6406250000000181
 40
0.6406250000000181
 40
0.6484375000000179
 40
0.6484375000000179
 40
0.6562500000000175
 40
0.6562500000000175
 40
0.6875000000000162
 40
0.6875000000000162
 40
0.7500000000000138
 40
0.7500000000000138
 40
0.765625000000013
 40
0.765625000000013
 40
0.7812500000000123
 40
0.7812500000000123
 40
0.8125000000000104
 40
0.8125000000000104
 40
0.8750000000000069
 40
0.8750000000000069
 40
0.9062500000000052
 40
0.9062500000000052
 40
0.9375000000000034
 40
0.9375000000000034
 40
1.0
 40
1.0
 40
1.0
 40
1.0
 10
903.2998100449498
 20
638.4272245743892
 30
0.0
 10
898.6429660805784
 20
651.9832505592998
 30
0.0
 10
894.3066742120541
 20
665.5474174585701
 30
0.0
 10
888.5274796128875
 20
685.9097448107237
 30
0.0
 10
886.7222734745498
 20
692.6999222959025
 30
0.0
 10
884.6462366514498
 20
701.1908456036585
 30
0.0
 10
884.2400624523958
 20
702.8891737017817
 30
0.0
 10
883.6449220470256
 20
705.4368954251211
 30
0.0
 10
883.4488927947523
 20
706.2861682331227
 30
0.0
 10
883.2068668445212
 20
707.3478247299803
 30
0.0
 10
883.1574251810335
 20
707.5576065609957
 30
0.0
 10
883.0644323982857
 20
707.9891947872717
 30
0.0
 10
883.0228015315734
 20
708.2151236591054
 30
0.0
 10
882.9126067519877
 20
708.9231423615573
 30
0.0
 10
882.8587957676634
 20
709.4356085035181
 30
0.0
 10
882.80880064595
 20
710.2656544165844
 30
0.0
 10
882.7972609888142
 20
710.5525656657007
 30
0.0
 10
882.7847268787995
 20
711.147063883466
 30
0.0
 10
882.7837568757775
 20
711.4544919108429
 30
0.0
 10
882.7969261777906
 20
712.4023238170005
 30
0.0
 10
882.8270882016807
 20
713.0699300050442
 30
0.0
 10
882.9830369008315
 20
715.1773066082616
 30
0.0
 10
883.174055962663
 20
716.7215340255366
 30
0.0
 10
883.7451329753618
 20
720.0821849714558
 30
0.0
 10
884.125195876676
 20
721.8987434314382
 30
0.0
 10
884.7348456680801
 20
724.3411569078731
 30
0.0
 10
884.8634133784777
 20
724.8376782120954
 30
0.0
 10
885.1325694862979
 20
725.8408324755633
 30
0.0
 10
885.273349730321
 20
726.3482554949072
 30
0.0
 10
885.7144942973962
 20
727.8875402422452
 30
0.0
 10
886.0336381057084
 20
728.9363952473824
 30
0.0
 10
887.0686739302367
 20
732.1476518009139
 30
0.0
 10
887.8619674825615
 20
734.374550125653
 30
0.0
 10
889.2200778290164
 20
737.8328350282493
 30
0.0
 10
889.7008173754356
 20
739.0052355458719
 30
0.0
 10
890.4663634755798
 20
740.7923901756211
 30
0.0
 10
890.7288484519333
 20
741.3927456790112
 30
0.0
 10
891.2691455004716
 20
742.6029143318019
 30
0.0
 10
891.546543473774
 20
743.2118162028654
 30
0.0
 10
892.9628352277957
 20
746.2590200950457
 30
0.0
 10
894.1962114635679
 20
748.7199791148217
 30
0.0
 10
896.8687282548414
 20
753.6703315640162
 30
0.0
 10
898.3079786353196
 20
756.1597528715039
 30
0.0
 10
900.6276005535352
 20
759.903282971949
 30
0.0
 10
901.427598966215
 20
761.1527510382319
 30
0.0
 10
903.0823514190358
 20
763.6530266964564
 30
0.0
 10
903.9316138122608
 20
764.89547208632
 30
0.0
 10
905.6698007941932
 20
767.3587301873598
 30
0.0
 10
906.5593118451565
 20
768.5804236259833
 30
0.0
 10
907.9239111538004
 20
770.3974499485462
 30
0.0
 10
908.3843707893194
 20
771.0005866005037
 30
0.0
 10
909.311469729554
 20
772.2013034103222
 30
0.0
 10
909.7783254778574
 20
772.7989070644838
 30
0.0
 10
914.0098347200415
 20
778.1524996682789
 30
0.0
 10
917.9829145026963
 20
782.7346000637039
 30
0.0
 10
924.2675918676237
 20
789.337365692613
 30
0.0
 10
926.4164662633418
 20
791.4932253385035
 30
0.0
 10
929.7219470471612
 20
794.6585365723744
 30
0.0
 10
930.8375059340973
 20
795.702241179774
 30
0.0
 10
933.0960542563764
 20
797.7667337462688
 30
0.0
 10
934.24040473166
 20
798.7886720362462
 30
0.0
 10
940.0122713282761
 20
803.8240872949484
 30
0.0
 10
944.7864710587778
 20
807.6128627176471
 30
0.0
 10
959.5539393474073
 20
818.298998892652
 30
0.0
 10
969.9910974343682
 20
824.5176994264554
 30
0.0
 10
983.709902283059
 20
831.263130872822
 30
0.0
 10
986.4874273972184
 20
832.5605903117242
 30
0.0
 10
992.1084748646368
 20
835.0546275093996
 30
0.0
 10
994.9570211594507
 20
836.2530919597708
 30
0.0
 10
1003.531755099944
 20
839.6742607689067
 30
0.0
 10
1009.303207022452
 20
841.7313336204813
 30
0.0
 10
1026.765405726718
 20
847.3011203835938
 30
0.0
 10
1038.603107396724
 20
850.2158926908733
 30
0.0
 10
1056.602083932592
 20
853.6016750164614
 30
0.0
 10
1062.64240375273
 20
854.5648368259671
 30
0.0
 10
1074.797542364768
 20
856.1880270403342
 30
0.0
 10
1080.914729987499
 20
856.84809883222
 30
0.0
 10
1099.355433078876
 20
858.4055553707133
 30
0.0
 10
1111.674253840575
 20
858.8760005768015
 30
0.0
 10
1124.013792192623
 20
858.8762190460524
 30
0.0
  0
SPLINE
  5
1A1
330
1F
100
AcDbEntity
  8
0
  6
Continuous
 62
     7
370
    25
100
AcDbSpline
210
0.0
220
0.0
230
1.0
 70
     8
 71
     3
 72
    36
 73
    32
 74
     0
 42
0.000000001
 43
0.00000001
 40
0.0
 40
0.0
 40
0.0
 40
0.0
 40
0.1249999999999987
 40
0.1249999999999987
 40
0.2499999999999974
 40
0.2499999999999974
 40
0.3124999999999968
 40
0.3124999999999968
 40
0.3749999999999962
 40
0.3749999999999962
 40
0.4999999999999958
 40
0.4999999999999958
 40
0.5624999999999958
 40
0.5624999999999958
 40
0.6249999999999958
 40
0.6249999999999958
 40
0.6562499999999959
 40
0.6562499999999959
 40
0.6874999999999959
 40
0.6874999999999959
 40
0.7499999999999968
 40
0.7499999999999968
 40
0.7812499999999972
 40
0.7812499999999972
 40
0.8124999999999977
 40
0.8124999999999977
 40
0.8749999999999984
 40
0.8749999999999984
 40
0.9374999999999993
 40
0.9374999999999993
 40
1.0
 40
1.0
 40
1.0
 40
1.0
 10
1288.78700735362
 20
677.3884208474583
 30
0.0
 10
1290.988255348383
 20
675.0550765181627
 30
0.0
 10
1293.215676381522
 20
672.751206688508
 30
0.0
 10
1297.736335994721
 20
668.2171895222232
 30
0.0
 10
1300.029457561332
 20
665.9869135410747
 30
0.0
 10
1303.532625091456
 20
662.7125496490329
 30
0.0
 10
1304.710988017127
 20
661.6330027885191
 30
0.0
 10
1307.092249342554
 20
659.5013851598178
 30
0.0
 10
1308.297075332052
 20
658.4476848253865
 30
0.0
 10
1311.937124712229
 20
655.3492781801995
 30
0.0
 10
1314.397199121971
 20
653.3665069934364
 30
0.0
 10
1318.150740675303
 20
650.5602722884244
 30
0.0
 10
1319.412532473175
 20
649.6530422766801
 30
0.0
 10
1321.95984758593
 20
647.9053972437898
 30
0.0
 10
1323.245388868177
 20
647.0649519547165
 30
0.0
 10
1325.19327030069
 20
645.8645115170387
 30
0.0
 10
1325.845952708958
 20
645.4744430328083
 30
0.0
 10
1327.144149804296
 20
644.7241707667259
 30
0.0
 10
1327.79127660356
 20
644.362955687579
 30
0.0
 10
1329.724937152477
 20
643.3234461392109
 30
0.0
 10
1331.003978828157
 20
642.6893711754967
 30
0.0
 10
1332.896893063597
 20
641.8354209140155
 30
0.0
 10
1333.5235380516
 20
641.5669505898738
 30
0.0
 10
1334.765625199977
 20
641.0634310692061
 30
0.0
 10
1335.377599268745
 20
640.8299016845493
 30
0.0
 10
1337.161692954074
 20
640.189463142679
 30
0.0
 10
1338.290426257325
 20
639.839723477484
 30
0.0
 10
1340.406431798109
 20
639.2673349837382
 30
0.0
 10
1341.393624274484
 20
639.0447119682536
 30
0.0
 10
1343.206367076468
 20
638.6837691476077
 30
0.0
 10
1344.015590129188
 20
638.5480117441898
 30
0.0
 10
1344.727787767998
 20
638.4272296913434
 30
0.0
  0
SPLINE
  5
1A2
330
1F
100
AcDbEntity
  8
0
  6
Continuous
 62
     7
370
    25
100
AcDbSpline
210
0.0
220
0.0
230
1.0
 70
     8
 71
     3
 72
    84
 73
    80
 74
     0
 42
0.000000001
 43
0.00000001
 40
0.0
 40
0.0
 40
0.0
 40
0.0
 40
0.0625000000000015
 40
0.0625000000000015
 40
0.0781250000000018
 40
0.0781250000000018
 40
0.0937500000000022
 40
0.0937500000000022
 40
0.1250000000000029
 40
0.1250000000000029
 40
0.1875000000000043
 40
0.1875000000000043
 40
0.218750000000005
 40
0.218750000000005
 40
0.2500000000000057
 40
0.2500000000000057
 40
0.2656250000000062
 40
0.2656250000000062
 40
0.2734375000000064
 40
0.2734375000000064
 40
0.2812500000000067
 40
0.2812500000000067
 40
0.3125000000000079
 40
0.3125000000000079
 40
0.3750000000000104
 40
0.3750000000000104
 40
0.3828125000000108
 40
0.3828125000000108
 40
0.3906250000000112
 40
0.3906250000000112
 40
0.4062500000000119
 40
0.4062500000000119
 40
0.410156250000012
 40
0.410156250000012
 40
0.4140625000000122
 40
0.4140625000000122
 40
0.4218750000000124
 40
0.4218750000000124
 40
0.4375000000000132
 40
0.4375000000000132
 40
0.4414062500000133
 40
0.4414062500000133
 40
0.4453125000000134
 40
0.4453125000000134
 40
0.4531250000000139
 40
0.4531250000000139
 40
0.4687500000000147
 40
0.4687500000000147
 40
0.4843750000000155
 40
0.4843750000000155
 40
0.5000000000000163
 40
0.5000000000000163
 40
0.5156250000000171
 40
0.5156250000000171
 40
0.5234375000000174
 40
0.5234375000000174
 40
0.5273437500000174
 40
0.5273437500000174
 40
0.5312500000000174
 40
0.5312500000000174
 40
0.5468750000000169
 40
0.5468750000000169
 40
0.5625000000000163
 40
0.5625000000000163
 40
0.5703125000000161
 40
0.5703125000000161
 40
0.5742187500000161
 40
0.5742187500000161
 40
0.5761718750000159
 40
0.5761718750000159
 40
0.5781250000000158
 40
0.5781250000000158
 40
0.5937500000000153
 40
0.5937500000000153
 40
0.6250000000000141
 40
0.6250000000000141
 40
0.7500000000000095
 40
0.7500000000000095
 40
1.0
 40
1.0
 40
1.0
 40
1.0
 10
1124.013792192623
 20
858.8762190460524
 30
0.0
 10
1136.304486155565
 20
858.8760014415825
 30
0.0
 10
1148.564694644326
 20
858.4091018680756
 30
0.0
 10
1163.844230273153
 20
857.1254912002797
 30
0.0
 10
1166.897838513955
 20
856.8335764998775
 30
0.0
 10
1173.000216511408
 20
856.1756774121707
 30
0.0
 10
1176.050526686118
 20
855.8094869614664
 30
0.0
 10
1185.183845031529
 20
854.5953196281353
 30
0.0
 10
1191.223385178118
 20
853.6354872008553
 30
0.0
 10
1209.182423206994
 20
850.2696175120929
 30
0.0
 10
1220.943403629495
 20
847.3804167068657
 30
0.0
 10
1238.210561158168
 20
841.9057698748389
 30
0.0
 10
1243.903661649722
 20
839.8900863752848
 30
0.0
 10
1255.15270413559
 20
835.4404469476905
 30
0.0
 10
1260.708625896284
 20
833.0066516203325
 30
0.0
 10
1268.928418310115
 20
829.0081410349578
 30
0.0
 10
1271.649317480288
 20
827.6172998858823
 30
0.0
 10
1275.700594380253
 20
825.4393826911966
 30
0.0
 10
1277.047649352531
 20
824.6971736501652
 30
0.0
 10
1279.719583556752
 20
823.1881034781936
 30
0.0
 10
1281.045190575839
 20
822.4208998738583
 30
0.0
 10
1287.621106147948
 20
818.5211496921286
 30
0.0
 10
1292.714855733662
 20
815.1971799527782
 30
0.0
 10
1307.485385792035
 20
804.6007608807785
 30
0.0
 10
1316.650974102772
 20
796.7035721238078
 30
0.0
 10
1326.153940441
 20
786.8301120391644
 30
0.0
 10
1327.199454192615
 20
785.7181695298192
 30
0.0
 10
1329.261847771627
 20
783.473279046661
 30
0.0
 10
1330.278855278086
 20
782.3403520243421
 30
0.0
 10
1333.286639078896
 20
778.9105168480332
 30
0.0
 10
1335.234974433139
 20
776.5824634424142
 30
0.0
 10
1337.60055095369
 20
773.6216149529517
 30
0.0
 10
1338.070176080288
 20
773.0269044023765
 30
0.0
 10
1339.002476941462
 20
771.8324230651776
 30
0.0
 10
1339.465565770101
 20
771.2325727123689
 30
0.0
 10
1340.841651015379
 20
769.4259998392199
 30
0.0
 10
1341.737647888892
 20
768.212988739662
 30
0.0
 10
1344.361128388745
 20
764.5495901699636
 30
0.0
 10
1346.024321904044
 20
762.074827681312
 30
0.0
 10
1347.99474299557
 20
758.9461880251619
 30
0.0
 10
1348.38393869792
 20
758.317788288738
 30
0.0
 10
1349.147807196851
 20
757.0635544097426
 30
0.0
 10
1349.522605377645
 20
756.4375266130867
 30
0.0
 10
1350.625947670933
 20
754.5630794193999
 30
0.0
 10
1351.333446752033
 20
753.3182945913571
 30
0.0
 10
1353.374144443863
 20
749.6016114584365
 30
0.0
 10
1354.62576035275
 20
747.1472564960752
 30
0.0
 10
1356.921524157539
 20
742.3026796645165
 30
0.0
 10
1357.965723560618
 20
739.9122947880021
 30
0.0
 10
1359.852410363509
 20
735.21584577437
 30
0.0
 10
1360.674713685037
 20
732.9603668958409
 30
0.0
 10
1362.103862248035
 20
728.6428954158358
 30
0.0
 10
1362.710706172702
 20
726.5809291818498
 30
0.0
 10
1363.472838865791
 20
723.6428893904443
 30
0.0
 10
1363.702124853667
 20
722.6894038823882
 30
0.0
 10
1364.010040742698
 20
721.2995543379814
 30
0.0
 10
1364.106670818305
 20
720.8430074005331
 30
0.0
 10
1364.288023715821
 20
719.9437339583257
 30
0.0
 10
1364.372770876578
 20
719.5007632364334
 30
0.0
 10
1364.764445954074
 20
717.3364608385755
 30
0.0
 10
1364.978425988114
 20
715.753568705852
 30
0.0
 10
1365.230470320428
 20
712.8801389854763
 30
0.0
 10
1365.268611979784
 20
711.5893436191697
 30
0.0
 10
1365.202653015094
 20
709.8757652628777
 30
0.0
 10
1365.160077407355
 20
709.3417098934509
 30
0.0
 10
1365.065646426422
 20
708.5975839573648
 30
0.0
 10
1365.029064991291
 20
708.3591780197074
 30
0.0
 10
1364.966874297165
 20
708.0173063429612
 30
0.0
 10
1364.944917739232
 20
707.9059048985553
 30
0.0
 10
1364.898543112241
 20
707.6882648244548
 30
0.0
 10
1364.873978627248
 20
707.5823457569313
 30
0.0
 10
1364.65575926948
 20
706.622147559904
 30
0.0
 10
1364.459410844361
 20
705.7685640604382
 30
0.0
 10
1363.863135557608
 20
703.2081353501768
 30
0.0
 10
1363.456092354821
 20
701.5013668511118
 30
0.0
 10
1361.375184492538
 20
692.9683885215072
 30
0.0
 10
1359.564322734429
 20
686.1446900412757
 30
0.0
 10
1353.763690576277
 20
665.6811664342888
 30
0.0
 10
1349.407680409724
 20
652.0503841153727
 30
0.0
 10
1344.727774340297
 20
638.4272245743892
 30
0.0
  0
SPLINE
  5
1A3
330
1F
100
AcDbEntity
  8
0
  6
Continuous
 62
     7
370
    25
100
AcDbSpline
210
0.0
220
0.0
230
1.0
 70
     8
 71
     3
 72
    36
 73
    32
 74
     0
 42
0.000000001
 43
0.00000001
 40
0.0
 40
0.0
 40
0.0
 40
0.0
 40
0.1249999999999996
 40
0.1249999999999996
 40
0.1874999999999994
 40
0.1874999999999994
 40
0.2499999999999992
 40
0.2499999999999992
 40
0.3124999999999989
 40
0.3124999999999989
 40
0.3749999999999987
 40
0.3749999999999987
 40
0.4999999999999983
 40
0.4999999999999983
 40
0.5624999999999981
 40
0.5624999999999981
 40
0.624999999999998
 40
0.624999999999998
 40
0.6874999999999978
 40
0.6874999999999978
 40
0.7499999999999977
 40
0.7499999999999977
 40
0.7812499999999978
 40
0.7812499999999978
 40
0.8124999999999979
 40
0.8124999999999979
 40
0.8749999999999986
 40
0.8749999999999986
 40
0.9374999999999993
 40
0.9374999999999993
 40
1.0
 40
1.0
 40
1.0
 40
1.0
 10
1091.410725374798
 20
731.5046911625293
 30
0.0
 10
1085.322434712074
 20
731.059802267545
 30
0.0
 10
1079.252706342788
 20
730.4666590860237
 30
0.0
 10
1070.181896752345
 20
729.3065149100512
 30
0.0
 10
1067.163927266949
 20
728.8746884398417
 30
0.0
 10
1061.140286661561
 20
727.912407099897
 30
0.0
 10
1058.133277449343
 20
727.3817962271123
 30
0.0
 10
1052.143834134289
 20
726.2144142005085
 30
0.0
 10
1049.160512451715
 20
725.5775655237848
 30
0.0
 10
1043.21853932643
 20
724.1886393351031
 30
0.0
 10
1040.260132284307
 20
723.4365562564933
 30
0.0
 10
1031.441871839608
 20
720.9975665907082
 30
0.0
 10
1025.627579370572
 20
719.1244677850298
 30
0.0
 10
1017.066746413463
 20
715.9052059644902
 30
0.0
 10
1014.237143464404
 20
714.762944988416
 30
0.0
 10
1008.640571940748
 20
712.3356975165977
 30
0.0
 10
1005.875919699741
 20
711.0518746114175
 30
0.0
 10
1000.417200107509
 20
708.3366428545836
 30
0.0
 10
997.7209431828829
 20
706.9039098705554
 30
0.0
 10
992.4192965488194
 20
703.892210520672
 30
0.0
 10
989.8126253932512
 20
702.3131029078509
 30
0.0
 10
985.971182607987
 20
699.8305490895292
 30
0.0
 10
984.7011819840131
 20
698.9833224693451
 30
0.0
 10
982.190160960748
 20
697.2539743581304
 30
0.0
 10
980.9492034926394
 20
696.3719944632298
 30
0.0
 10
977.270094344529
 20
693.6739668276931
 30
0.0
 10
974.8756420610385
 20
691.8059146075436
 30
0.0
 10
970.2047201645931
 20
687.9292996979405
 30
0.0
 10
967.9283788413551
 20
685.9205800143764
 30
0.0
 10
963.4946581471786
 20
681.7613413060736
 30
0.0
 10
961.3360547398032
 20
679.6095703504037
 30
0.0
 10
959.2406188987092
 20
677.3883820469425
 30
0.0
  0
SPLINE
  5
1A4
330
1F
100
AcDbEntity
  8
0
  6
Continuous
 62
     7
370
    25
100
AcDbSpline
210
0.0
220
0.0
230
1.0
 70
     8
 71
     3
 72
    36
 73
    32
 74
     0
 42
0.000000001
 43
0.00000001
 40
0.0
 40
0.0
 40
0.0
 40
0.0
 40
0.0624999999999998
 40
0.0624999999999998
 40
0.1249999999999995
 40
0.1249999999999995
 40
0.1874999999999993
 40
0.1874999999999993
 40
0.2187499999999994
 40
0.2187499999999994
 40
0.2499999999999996
 40
0.2499999999999996
 40
0.3124999999999996
 40
0.3124999999999996
 40
0.3749999999999997
 40
0.3749999999999997
 40
0.4374999999999998
 40
0.4374999999999998
 40
0.4999999999999999
 40
0.4999999999999999
 40
0.6249999999999998
 40
0.6249999999999998
 40
0.6874999999999998
 40
0.6874999999999998
 40
0.7499999999999998
 40
0.7499999999999998
 40
0.8124999999999998
 40
0.8124999999999998
 40
0.8749999999999998
 40
0.8749999999999998
 40
1.0
 40
1.0
 40
1.0
 40
1.0
 10
1288.786965487076
 20
677.388382046372
 30
0.0
 10
1286.691529652948
 20
679.6095703424727
 30
0.0
 10
1284.532926252944
 20
681.7613412912551
 30
0.0
 10
1280.099205574292
 20
685.9205799867208
 30
0.0
 10
1277.82286425921
 20
687.9292996643358
 30
0.0
 10
1273.151942379854
 20
691.8059145629649
 30
0.0
 10
1270.757490105292
 20
693.6739667780846
 30
0.0
 10
1267.078380971149
 20
696.3719944067592
 30
0.0
 10
1265.837423507792
 20
697.2539742994859
 30
0.0
 10
1263.326402494224
 20
698.9833224065824
 30
0.0
 10
1262.056401875042
 20
699.8305490249243
 30
0.0
 10
1258.214959104362
 20
702.3131028380581
 30
0.0
 10
1255.608287958793
 20
703.8922104478714
 30
0.0
 10
1250.306641345277
 20
706.9039097926592
 30
0.0
 10
1247.610384431012
 20
708.3366427746886
 30
0.0
 10
1242.151664859717
 20
711.0518745284176
 30
0.0
 10
1239.387012629378
 20
712.3356974324588
 30
0.0
 10
1233.790441127433
 20
714.7629449027731
 30
0.0
 10
1230.960838188961
 20
715.9052058786584
 30
0.0
 10
1222.400005264369
 20
719.124467699459
 30
0.0
 10
1216.585712817185
 20
720.997566506806
 30
0.0
 10
1207.767452405273
 20
723.4365561767178
 30
0.0
 10
1204.809045374189
 20
724.1886392569558
 30
0.0
 10
1198.867072270429
 20
725.577565449465
 30
0.0
 10
1195.883750598665
 20
726.2144141283159
 30
0.0
 10
1189.894307305308
 20
727.3817961595352
 30
0.0
 10
1186.887298103748
 20
727.912407034832
 30
0.0
 10
1180.863657519415
 20
728.874688380113
 30
0.0
 10
1177.845688044564
 20
729.3065148531322
 30
0.0
 10
1168.7748784858
 20
730.4666590378569
 30
0.0
 10
1162.705149652767
 20
731.0598022690398
 30
0.0
 10
1156.616859010248
 20
731.5046911625443
 30
0.0
  0
SPLINE
  5
1A5
330
1F
100
AcDbEntity
  8
0
  6
Continuous
 62
     7
370
    25
100
AcDbSpline
210
0.0
220
0.0
230
1.0
 70
     8
 71
     3
 72
     8
 73
     4
 74
     0
 42
0.000000001
 43
0.00000001
 40
0.0
 40
0.0
 40
0.0
 40
0.0
 40
1.0
 40
1.0
 40
1.0
 40
1.0
 10
1124.013792192624
 20
732.6177742810198
 30
0.0
 10
1113.136141559996
 20
732.6171347011285
 30
0.0
 10
1102.259267170713
 20
732.2974252876141
 30
0.0
 10
1091.410725374798
 20
731.5046911625293
 30
0.0
  0
SPLINE
  5
1A6
330
1F
100
AcDbEntity
  8
0
  6
Continuous
 62
     7
370
    25
100
AcDbSpline
210
0.0
220
0.0
230
1.0
 70
     8
 71
     3
 72
     8
 73
     4
 74
     0
 42
0.000000001
 43
0.00000001
 40
0.0
 40
0.0
 40
0.0
 40
0.0
 40
1.0
 40
1.0
 40
1.0
 40
1.0
 10
1156.616859010248
 20
731.5046911625443
 30
0.0
 10
1145.76831809503
 20
732.2974252232681
 30
0.0
 10
1134.891442068963
 20
732.6171347011731
 30
0.0
 10
1124.013792192623
 20
732.6177742810198
 30
0.0
  0
SPLINE
  5
1A7
330
1F
100
AcDbEntity
  8
0
  6
Continuous
 62
     7
370
    25
100
AcDbSpline
210
0.0
220
0.0
230
1.0
 70
     8
 71
     3
 72
    68
 73
    64
 74
     0
 42
0.000000001
 43
0.00000001
 40
0.0
 40
0.0
 40
0.0
 40
0.0
 40
0.0078124999999999
 40
0.0078124999999999
 40
0.0156249999999998
 40
0.0156249999999998
 40
0.0312499999999996
 40
0.0312499999999996
 40
0.0624999999999992
 40
0.0624999999999992
 40
0.1249999999999986
 40
0.1249999999999986
 40
0.1328124999999984
 40
0.1328124999999984
 40
0.1406249999999984
 40
0.1406249999999984
 40
0.1562499999999983
 40
0.1562499999999983
 40
0.1874999999999982
 40
0.1874999999999982
 40
0.2499999999999981
 40
0.2499999999999981
 40
0.2812499999999981
 40
0.2812499999999981
 40
0.3124999999999979
 40
0.3124999999999979
 40
0.3749999999999976
 40
0.3749999999999976
 40
0.3906249999999976
 40
0.3906249999999976
 40
0.4062499999999977
 40
0.4062499999999977
 40
0.4218749999999977
 40
0.4218749999999977
 40
0.4374999999999977
 40
0.4374999999999977
 40
0.4531249999999977
 40
0.4531249999999977
 40
0.4687499999999977
 40
0.4687499999999977
 40
0.4999999999999978
 40
0.4999999999999978
 40
0.5156249999999979
 40
0.5156249999999979
 40
0.531249999999998
 40
0.531249999999998
 40
0.5468749999999982
 40
0.5468749999999982
 40
0.5624999999999983
 40
0.5624999999999983
 40
0.5937499999999983
 40
0.5937499999999983
 40
0.6249999999999983
 40
0.6249999999999983
 40
0.6562499999999984
 40
0.6562499999999984
 40
0.6874999999999984
 40
0.6874999999999984
 40
0.7499999999999988
 40
0.7499999999999988
 40
0.8749999999999993
 40
0.8749999999999993
 40
1.0
 40
1.0
 40
1.0
 40
1.0
 10
1359.904902806946
 20
435.1041963315758
 30
0.0
 10
1359.850241199822
 20
434.3461496046024
 30
0.0
 10
1359.794717581953
 20
433.5883173058462
 30
0.0
 10
1359.665285088166
 20
432.0770280756101
 30
0.0
 10
1359.593890132156
 20
431.3229796716412
 30
0.0
 10
1359.358165827786
 20
429.0659988852334
 30
0.0
 10
1359.172708067254
 20
427.5681117789813
 30
0.0
 10
1358.527906331664
 20
423.0956048710513
 30
0.0
 10
1357.98025857495
 20
420.1420983847214
 30
0.0
 10
1355.953549879092
 20
411.3733700920791
 30
0.0
 10
1354.092513139721
 20
405.6494883030243
 30
0.0
 10
1351.314052862833
 20
399.3739764511384
 30
0.0
 10
1350.995712858744
 20
398.6788948223331
 30
0.0
 10
1350.344005089782
 20
397.3026260749882
 30
0.0
 10
1350.010121392036
 20
396.6202786497513
 30
0.0
 10
1348.984597614412
 20
394.5904393106264
 30
0.0
 10
1348.26912734186
 20
393.2601201861605
 30
0.0
 10
1346.028632905581
 20
389.3369574808265
 30
0.0
 10
1344.409275869173
 20
386.8120913972816
 30
0.0
 10
1339.185190368996
 20
379.5012028564085
 30
0.0
 10
1335.213505718235
 20
374.9795817925264
 30
0.0
 10
1328.564849943727
 20
368.6949940139272
 30
0.0
 10
1326.268770490176
 20
366.7166671758704
 30
0.0
 10
1321.541092096264
 20
362.9706045290948
 30
0.0
 10
1319.108675463337
 20
361.2017346572778
 30
0.0
 10
1311.628123777794
 20
356.1734747284111
 30
0.0
 10
1306.397999715378
 20
353.1904427278865
 30
0.0
 10
1299.614163055982
 20
349.8352585788463
 30
0.0
 10
1298.243663011405
 20
349.1816238267929
 30
0.0
 10
1295.487950725268
 20
347.9137258691359
 30
0.0
 10
1294.104264796078
 20
347.3006416453847
 30
0.0
 10
1291.325873127256
 20
346.1139474457374
 30
0.0
 10
1289.931131270406
 20
345.5403451231182
 30
0.0
 10
1287.132666195639
 20
344.4253605692465
 30
0.0
 10
1285.729047086218
 20
343.88353405047
 30
0.0
 10
1282.911590553541
 20
342.8363678096238
 30
0.0
 10
1281.49754724341
 20
342.3317715582697
 30
0.0
 10
1278.661757130497
 20
341.3501082638952
 30
0.0
 10
1277.239827779325
 20
340.8737427845288
 30
0.0
 10
1272.96094450296
 20
339.4910364851182
 30
0.0
 10
1270.092199055281
 20
338.6272128785242
 30
0.0
 10
1265.767402266999
 20
337.4081313358417
 30
0.0
 10
1264.322153651094
 20
337.0149823935615
 30
0.0
 10
1261.424870113349
 20
336.2528622050371
 30
0.0
 10
1259.972884678104
 20
335.8833190359292
 30
0.0
 10
1257.062429768744
 20
335.167400907406
 30
0.0
 10
1255.60389501868
 20
334.8216461681531
 30
0.0
 10
1252.680725510171
 20
334.1516103710895
 30
0.0
 10
1251.21608322623
 20
333.8274042875328
 30
0.0
 10
1246.813494465033
 20
332.8853168400996
 30
0.0
 10
1243.866905305486
 20
332.2980785565652
 30
0.0
 10
1237.952684539498
 20
331.1986053810995
 30
0.0
 10
1234.985076735101
 20
330.6860036871989
 30
0.0
 10
1229.030806607821
 20
329.7281046034315
 30
0.0
 10
1226.044869619887
 20
329.2829486468457
 30
0.0
 10
1220.073805705752
 20
328.4556849378355
 30
0.0
 10
1217.086290570795
 20
328.0732916173494
 30
0.0
 10
1208.118350223805
 20
327.0106617179233
 30
0.0
 10
1202.132577593905
 20
326.4141746592611
 30
0.0
 10
1184.157511313425
 20
324.899019085093
 30
0.0
 10
1172.150619488113
 20
324.251946832074
 30
0.0
 10
1148.104212222891
 20
323.4450802237806
 30
0.0
 10
1136.064564332501
 20
323.2871604117931
 30
0.0
 10
1124.013792192613
 20
323.2870224853723
 30
0.0
  0
SPLINE
  5
1A8
330
1F
100
AcDbEntity
  8
0
  6
Continuous
 62
     7
370
    25
100
AcDbSpline
210
0.0
220
0.0
230
1.0
 70
     8
 71
     3
 72
    66
 73
    62
 74
     0
 42
0.000000001
 43
0.00000001
 40
0.0
 40
0.0
 40
0.0
 40
0.0
 40
0.1249999999999993
 40
0.1249999999999993
 40
0.1874999999999989
 40
0.1874999999999989
 40
0.2499999999999986
 40
0.2499999999999986
 40
0.3124999999999983
 40
0.3124999999999983
 40
0.3749999999999979
 40
0.3749999999999979
 40
0.4374999999999976
 40
0.4374999999999976
 40
0.4531249999999974
 40
0.4531249999999974
 40
0.4687499999999973
 40
0.4687499999999973
 40
0.4843749999999972
 40
0.4843749999999972
 40
0.499999999999997
 40
0.499999999999997
 40
0.5312499999999964
 40
0.5312499999999964
 40
0.5468749999999964
 40
0.5468749999999964
 40
0.5624999999999963
 40
0.5624999999999963
 40
0.5781249999999962
 40
0.5781249999999962
 40
0.5937499999999961
 40
0.5937499999999961
 40
0.6249999999999961
 40
0.6249999999999961
 40
0.6874999999999958
 40
0.6874999999999958
 40
0.7031249999999958
 40
0.7031249999999958
 40
0.7187499999999958
 40
0.7187499999999958
 40
0.749999999999996
 40
0.749999999999996
 40
0.8124999999999968
 40
0.8124999999999968
 40
0.8281249999999972
 40
0.8281249999999972
 40
0.8437499999999976
 40
0.8437499999999976
 40
0.874999999999998
 40
0.874999999999998
 40
0.937499999999999
 40
0.937499999999999
 40
0.9531249999999993
 40
0.9531249999999993
 40
0.9687499999999998
 40
0.9687499999999998
 40
0.9843750000000001
 40
0.9843750000000001
 40
0.9921875
 40
0.9921875
 40
1.0
 40
1.0
 40
1.0
 40
1.0
 10
1124.013792192623
 20
323.2870224852938
 30
0.0
 10
1111.979411546716
 20
323.2871602241065
 30
0.0
 10
1099.949728646748
 20
323.4445639037486
 30
0.0
 10
1081.915509223481
 20
324.0491427193066
 30
0.0
 10
1075.90568350644
 20
324.3122904899907
 30
0.0
 10
1063.890706184121
 20
324.9895523972871
 30
0.0
 10
1057.896997011592
 20
325.4028426518107
 30
0.0
 10
1045.942559084941
 20
326.4098276463471
 30
0.0
 10
1039.981814683979
 20
327.0034608375113
 30
0.0
 10
1028.0998071887
 20
328.4086116639842
 30
0.0
 10
1022.178599883646
 20
329.2203943650354
 30
0.0
 10
1010.383950012009
 20
331.1097142633545
 30
0.0
 10
1004.510631858817
 20
332.1877228576139
 30
0.0
 10
997.2057740764757
 20
333.7413957752291
 30
0.0
 10
995.7466505797973
 20
334.0623774812026
 30
0.0
 10
992.8323286890451
 20
334.7261607951975
 30
0.0
 10
991.3771262110646
 20
335.0688219710191
 30
0.0
 10
988.47092718518
 20
335.7788638410265
 30
0.0
 10
987.01991939353
 20
336.145894967205
 30
0.0
 10
984.122267375743
 20
336.9032581111776
 30
0.0
 10
982.675633820899
 20
337.2940908161129
 30
0.0
 10
978.3427882468424
 20
338.507388487406
 30
0.0
 10
975.4636444177945
 20
339.3687589820275
 30
0.0
 10
971.1608035684658
 20
340.75074971999
 30
0.0
 10
969.729351082325
 20
341.2272433428533
 30
0.0
 10
966.8719155071261
 20
342.2111018075089
 30
0.0
 10
965.4457056608709
 20
342.7171999944701
 30
0.0
 10
962.6002526711081
 20
343.7686932795141
 30
0.0
 10
961.1820171185527
 20
344.3136109621938
 30
0.0
 10
958.3640432004629
 20
345.4315648739394
 30
0.0
 10
956.9626750163453
 20
346.0054370412028
 30
0.0
 10
952.7863469347969
 20
347.7811097107896
 30
0.0
 10
950.0395817017563
 20
349.0380010504902
 30
0.0
 10
941.9157209306484
 20
353.0359082400983
 30
0.0
 10
936.6596894220311
 20
356.0131312186021
 30
0.0
 10
930.3474861846063
 20
360.2381826382462
 30
0.0
 10
929.0959184884358
 20
361.1102655343414
 30
0.0
 10
926.6393578792021
 20
362.8949638631394
 30
0.0
 10
925.4326699271685
 20
363.8085830066415
 30
0.0
 10
921.8796252720143
 20
366.6154622589635
 30
0.0
 10
919.6004251004866
 20
368.5748798677142
 30
0.0
 10
913.0507986104876
 20
374.7368849404152
 30
0.0
 10
909.066622819912
 20
379.2215056202259
 30
0.0
 10
904.6407324465736
 20
385.3737065282876
 30
0.0
 10
903.7827325711212
 20
386.6324753004416
 30
0.0
 10
902.1267928647538
 20
389.2028719649379
 30
0.0
 10
901.3360423356148
 20
390.503325524081
 30
0.0
 10
899.073250815796
 20
394.4495506212216
 30
0.0
 10
897.7101846599638
 20
397.1399877231834
 30
0.0
 10
894.0388622246446
 20
405.3825574396214
 30
0.0
 10
892.1475104349486
 20
411.1055523690235
 30
0.0
 10
890.4195609551663
 20
418.5200164722803
 30
0.0
 10
890.1059855807092
 20
420.0159236334092
 30
0.0
 10
889.5446414796487
 20
423.0109938606028
 30
0.0
 10
889.2961580899622
 20
424.5129446109866
 30
0.0
 10
888.8602731810256
 20
427.5252187137242
 30
0.0
 10
888.6728721118455
 20
429.0355467230689
 30
0.0
 10
888.4352301985595
 20
431.3069930407344
 30
0.0
 10
888.363370908965
 20
432.0651553570189
 30
0.0
 10
888.2332385544609
 20
433.5833439799371
 30
0.0
 10
888.1775195631202
 20
434.3437036001378
 30
0.0
 10
888.1226815783008
 20
435.1041963315758
 30
0.0
  0
SPLINE
  5
1A9
330
1F
100
AcDbEntity
  8
0
  6
Continuous
 62
     7
370
    25
100
AcDbSpline
210
0.0
220
0.0
230
1.0
 70
     8
 71
     3
 72
    32
 73
    28
 74
     0
 42
0.000000001
 43
0.00000001
 40
0.0
 40
0.0
 40
0.0
 40
0.0
 40
0.0625
 40
0.0625
 40
0.125
 40
0.125
 40
0.1874999999999999
 40
0.1874999999999999
 40
0.2499999999999999
 40
0.2499999999999999
 40
0.3750000000000001
 40
0.3750000000000001
 40
0.5000000000000002
 40
0.5000000000000002
 40
0.5625000000000002
 40
0.5625000000000002
 40
0.6250000000000002
 40
0.6250000000000002
 40
0.6875000000000002
 40
0.6875000000000002
 40
0.7500000000000001
 40
0.7500000000000001
 40
0.875
 40
0.875
 40
0.9375
 40
0.9375
 40
1.0
 40
1.0
 40
1.0
 40
1.0
 10
1359.904902806946
 20
435.1041963315758
 30
0.0
 10
1360.197803285397
 20
439.1890411511972
 30
0.0
 10
1360.42940401545
 20
443.2754420894807
 30
0.0
 10
1360.799627855608
 20
451.4507363475435
 30
0.0
 10
1360.937966868374
 20
455.5395991437283
 30
0.0
 10
1361.138232927315
 20
463.7192700790979
 30
0.0
 10
1361.200245652309
 20
467.8102028714816
 30
0.0
 10
1361.258097354717
 20
475.9935074696445
 30
0.0
 10
1361.253951162658
 20
480.0857071876918
 30
0.0
 10
1361.152164620858
 20
492.3638445493519
 30
0.0
 10
1360.965617207239
 20
500.5495133441904
 30
0.0
 10
1360.38107495701
 20
516.9047726427913
 30
0.0
 10
1359.981593256855
 20
525.0767477068374
 30
0.0
 10
1359.224074576866
 20
537.326564904327
 30
0.0
 10
1358.943818625482
 20
541.4086547271246
 30
0.0
 10
1358.327420707307
 20
549.5690629739753
 30
0.0
 10
1357.991781999905
 20
553.6452736340972
 30
0.0
 10
1357.260651506914
 20
561.7892320383636
 30
0.0
 10
1356.865148368287
 20
565.8568629515485
 30
0.0
 10
1356.009161581909
 20
573.9831159351799
 30
0.0
 10
1355.548545391435
 20
578.0416562966008
 30
0.0
 10
1354.056107624212
 20
590.2015886063249
 30
0.0
 10
1352.917097596305
 20
598.2878982060971
 30
0.0
 10
1350.899057018361
 20
610.3735247976603
 30
0.0
 10
1350.174192260122
 20
614.3947038079165
 30
0.0
 10
1348.589886549956
 20
622.4178940159757
 30
0.0
 10
1347.73084062393
 20
626.4200267832264
 30
0.0
 10
1346.778720690643
 20
630.4088960852954
 30
0.0
  0
SPLINE
  5
1AA
330
1F
100
AcDbEntity
  8
0
  6
Continuous
 62
     7
370
    25
100
AcDbSpline
210
0.0
220
0.0
230
1.0
 70
     8
 71
     3
 72
    32
 73
    28
 74
     0
 42
0.000000001
 43
0.00000001
 40
0.0
 40
0.0
 40
0.0
 40
0.0
 40
0.0625
 40
0.0625
 40
0.125
 40
0.125
 40
0.2500000000000001
 40
0.2500000000000001
 40
0.3125000000000001
 40
0.3125000000000001
 40
0.3750000000000001
 40
0.3750000000000001
 40
0.4375000000000001
 40
0.4375000000000001
 40
0.5000000000000001
 40
0.5000000000000001
 40
0.6250000000000002
 40
0.6250000000000002
 40
0.7500000000000004
 40
0.7500000000000004
 40
0.8125000000000003
 40
0.8125000000000003
 40
0.8750000000000002
 40
0.8750000000000002
 40
0.9375000000000001
 40
0.9375000000000001
 40
1.0
 40
1.0
 40
1.0
 40
1.0
 10
901.2488636946036
 20
630.4088960852954
 30
0.0
 10
900.2980235323162
 20
626.4253883338826
 30
0.0
 10
899.4394741752826
 20
622.4263131745511
 30
0.0
 10
897.8554807153887
 20
614.4058559002433
 30
0.0
 10
897.1304151021167
 20
610.3843426753834
 30
0.0
 10
895.1112937747461
 20
598.293704173733
 30
0.0
 10
893.9709419717698
 20
590.1987635670952
 30
0.0
 10
892.47650466625
 20
578.020239073344
 30
0.0
 10
892.0151565296479
 20
573.9538733308882
 30
0.0
 10
891.1584680908884
 20
565.8174131971424
 30
0.0
 10
890.7628865667542
 20
561.7465798483897
 30
0.0
 10
890.0319368680347
 20
553.5997707679799
 30
0.0
 10
889.6965558882407
 20
549.5239020140772
 30
0.0
 10
889.080851670287
 20
541.3674457141008
 30
0.0
 10
888.8008700838392
 20
537.2867296660029
 30
0.0
 10
888.0439205593626
 20
525.037519483742
 30
0.0
 10
887.644546484001
 20
516.8600596694595
 30
0.0
 10
887.0608918338191
 20
500.5091629637868
 30
0.0
 10
886.8749615184436
 20
492.3333880946435
 30
0.0
 10
886.7735991334447
 20
480.0691367758307
 30
0.0
 10
886.7695268675602
 20
475.9809603110479
 30
0.0
 10
886.8274290504804
 20
467.8043548255299
 30
0.0
 10
886.889421195733
 20
463.7161107945436
 30
0.0
 10
887.0896071398377
 20
455.5403339881417
 30
0.0
 10
887.2278863059698
 20
451.4526654918284
 30
0.0
 10
887.5980509783833
 20
443.277921055609
 30
0.0
 10
887.8296489452134
 20
439.1908842044554
 30
0.0
 10
888.1226815783008
 20
435.1041963315758
 30
0.0
  0
SPLINE
  5
1AB
330
1F
100
AcDbEntity
  8
0
  6
Continuous
 62
     7
370
    25
100
AcDbSpline
210
0.0
220
0.0
230
1.0
 70
     8
 71
     3
 72
     8
 73
     4
 74
     0
 42
0.000000001
 43
0.00000001
 40
0.0
 40
0.0
 40
0.0
 40
0.0
 40
1.0
 40
1.0
 40
1.0
 40
1.0
 10
1344.727786484339
 20
638.4272263433709
 30
0.0
 10
1345.455174776868
 20
635.7658025403709
 30
0.0
 10
1346.138236841501
 20
633.0922179100667
 30
0.0
 10
1346.778720690318
 20
630.4088960852547
 30
0.0
  0
SPLINE
  5
1AC
330
1F
100
AcDbEntity
  8
0
  6
Continuous
 62
     7
370
    25
100
AcDbSpline
210
0.0
220
0.0
230
1.0
 70
     8
 71
     3
 72
     8
 73
     4
 74
     0
 42
0.000000001
 43
0.00000001
 40
0.0
 40
0.0
 40
0.0
 40
0.0
 40
1.0
 40
1.0
 40
1.0
 40
1.0
 10
901.2488636949287
 20
630.4088960852547
 30
0.0
 10
901.8893475437458
 20
633.0922179100667
 30
0.0
 10
902.572409608378
 20
635.7658025403709
 30
0.0
 10
903.2997979009077
 20
638.4272263433709
 30
0.0
  0
SPLINE
  5
1AD
330
1F
100
AcDbEntity
  8
0
  6
Continuous
 62
     7
370
    25
100
AcDbSpline
210
0.0
220
0.0
230
1.0
 70
     8
 71
     3
 72
    31
 73
    27
 74
     0
 42
0.000000001
 43
0.00000001
 40
0.0
 40
0.0
 40
0.0
 40
0.0
 40
0.0264946100549856
 40
0.053143891492883
 40
0.0877701385909552
 40
0.1227281452712474
 40
0.1529866923277078
 40
0.1834628615550664
 40
0.2141222722057703
 40
0.2449760604841637
 40
0.28548738432708
 40
0.326314843659193
 40
0.3675736587402357
 40
0.4090868498774499
 40
0.461871410007059
 40
0.5150601345374469
 40
0.5693825141304281
 40
0.6240417822521256
 40
0.6782016247269121
 40
0.7326362540751394
 40
0.7878810612134104
 40
0.8433864532568324
 40
0.8760296053161103
 40
0.9415113233051102
 40
0.9743644852933422
 40
0.9999999999999999
 40
0.9999999999999999
 40
0.9999999999999999
 40
0.9999999999999999
 10
1322.363937407251
 20
806.1186741855737
 30
0.0
 10
1322.617453725403
 20
806.0670085299429
 30
0.0
 10
1323.125966350255
 20
805.9633756026773
 30
0.0
 10
1323.946160148214
 20
805.7118700314027
 30
0.0
 10
1324.819816562165
 20
805.3633720107392
 30
0.0
 10
1325.686288788747
 20
804.913827137753
 30
0.0
 10
1326.475135223213
 20
804.4119555378893
 30
0.0
 10
1327.188029519
 20
803.8741927597517
 30
0.0
 10
1327.861827412468
 20
803.2794771610144
 30
0.0
 10
1328.558293952079
 20
802.5665778852575
 30
0.0
 10
1329.258061680555
 20
801.7222746987807
 30
0.0
 10
1329.939414026757
 20
800.7368885130542
 30
0.0
 10
1330.542490727139
 20
799.6905585905034
 30
0.0
 10
1331.113096801733
 20
798.4955033501338
 30
0.0
 10
1331.624724939863
 20
797.1478264629045
 30
0.0
 10
1332.052783214412
 20
795.641111340714
 30
0.0
 10
1332.360386062027
 20
794.0867083849466
 30
0.0
 10
1332.547567786927
 20
792.5038747698158
 30
0.0
 10
1332.617843054897
 20
790.9106291401686
 30
0.0
 10
1332.575520979158
 20
789.3107479556946
 30
0.0
 10
1332.421743667125
 20
787.7045644252298
 30
0.0
 10
1332.193339003263
 20
786.3225608966577
 30
0.0
 10
1331.870097943972
 20
784.8579971323861
 30
0.0
 10
1331.518146851154
 20
783.6274773760124
 30
0.0
 10
1331.121143787197
 20
782.4839708646325
 30
0.0
 10
1330.906460278206
 20
781.9549192423625
 30
0.0
 10
1330.812364761552
 20
781.7230365701996
 30
0.0
  0
SPLINE
  5
1AE
330
1F
100
AcDbEntity
  8
0
  6
Continuous
 62
     7
370
    25
100
AcDbSpline
210
0.0
220
0.0
230
1.0
 70
     8
 71
     3
 72
    21
 73
    17
 74
     0
 42
0.000000001
 43
0.00000001
 40
0.0
 40
0.0
 40
0.0
 40
0.0
 40
0.0638134871174117
 40
0.1630319644955655
 40
0.2631562534468662
 40
0.3646071061326005
 40
0.4311425359177826
 40
0.4979463297254954
 40
0.5602849847982743
 40
0.6228907116029103
 40
0.6834068738747893
 40
0.7491620302392938
 40
0.8153172128091397
 40
0.8772690078082106
 40
0.9395961184721567
 40
1.0
 40
1.0
 40
1.0
 40
1.0
 10
1310.695281838087
 20
801.4401802490764
 30
0.0
 10
1310.883182654822
 20
801.6469113082385
 30
0.0
 10
1311.363235393927
 20
802.1750719247461
 30
0.0
 10
1312.214999902583
 20
802.9530702939695
 30
0.0
 10
1313.245805831686
 20
803.7733766933545
 30
0.0
 10
1314.226271446364
 20
804.4213329001119
 30
0.0
 10
1315.124499762904
 20
804.9215355173732
 30
0.0
 10
1315.898412243565
 20
805.2896998057151
 30
0.0
 10
1316.678553291108
 20
805.6004104385164
 30
0.0
 10
1317.451330418523
 20
805.8506455899014
 30
0.0
 10
1318.25377767097
 20
806.0516508245688
 30
0.0
 10
1319.084132140141
 20
806.1968414510891
 30
0.0
 10
1319.929708755594
 20
806.2775277591571
 30
0.0
 10
1320.763660257799
 20
806.2900964378922
 30
0.0
 10
1321.571863321034
 20
806.2436814968113
 30
0.0
 10
1322.102685422343
 20
806.1599056925213
 30
0.0
 10
1322.363937407251
 20
806.1186741855739
 30
0.0
  0
SPLINE
  5
1AF
330
1F
100
AcDbEntity
  8
0
  6
Continuous
 62
     7
370
    25
100
AcDbSpline
210
0.0
220
0.0
230
1.0
 70
     8
 71
     3
 72
    31
 73
    27
 74
     0
 42
0.000000001
 43
0.00000001
 40
0.0
 40
0.0
 40
0.0
 40
0.0
 40
0.0058865458794216
 40
0.0639592538093472
 40
0.1229603962966687
 40
0.1822700886283821
 40
0.2493141652186137
 40
0.2874541433008597
 40
0.3256838598126731
 40
0.3685387681723322
 40
0.4119340399901826
 40
0.4554884958608809
 40
0.5026352441479811
 40
0.5500317345152037
 40
0.5983028523047251
 40
0.6469244500203915
 40
0.6839156493022499
 40
0.7212335544620504
 40
0.7587930083779987
 40
0.7967531355826272
 40
0.82002797695242
 40
0.8512904171491882
 40
0.8827640655003854
 40
0.9225969966460942
 40
0.9610617397322078
 40
0.9999999999999999
 40
0.9999999999999999
 40
0.9999999999999999
 40
0.9999999999999999
 10
917.2169260952647
 20
781.7255179410731
 30
0.0
 10
917.1934013866254
 20
781.7779368174621
 30
0.0
 10
916.9377977029917
 20
782.3474851210083
 30
0.0
 10
916.5547685436128
 20
783.4879300086933
 30
0.0
 10
916.0784169667452
 20
785.1423500525977
 30
0.0
 10
915.7171120393124
 20
786.9170612837154
 30
0.0
 10
915.5157804812278
 20
788.5116357167168
 30
0.0
 10
915.4326854968858
 20
789.9093702350945
 30
0.0
 10
915.4199922860673
 20
791.0733776632821
 30
0.0
 10
915.4709487371848
 20
792.2878700684048
 30
0.0
 10
915.5974231048383
 20
793.5491647791581
 30
0.0
 10
915.807045679036
 20
794.8418700323011
 30
0.0
 10
916.1108416601488
 20
796.1561670174167
 30
0.0
 10
916.5236544308722
 20
797.4888700653704
 30
0.0
 10
917.0457109876498
 20
798.7984571491174
 30
0.0
 10
917.632730212243
 20
799.9679202202631
 30
0.0
 10
918.2574551769567
 20
800.9934101762072
 30
0.0
 10
918.8949456731392
 20
801.8811922416139
 30
0.0
 10
919.608413239103
 20
802.7217456190818
 30
0.0
 10
920.2948948826227
 20
803.4008630745197
 30
0.0
 10
920.9826382210571
 20
803.9863205227751
 30
0.0
 10
921.6586104511993
 20
804.4856321427591
 30
0.0
 10
922.5109643713031
 20
805.0130097445505
 30
0.0
 10
923.4750347237617
 20
805.4843366250983
 30
0.0
 10
924.5522687083235
 20
805.8802359069889
 30
0.0
 10
925.2916797591037
 20
806.0388712715455
 30
0.0
 10
925.6636469786249
 20
806.1186741841606
 30
0.0
  0
SPLINE
  5
1B0
330
1F
100
AcDbEntity
  8
0
  6
Continuous
 62
     7
370
    25
100
AcDbSpline
210
0.0
220
0.0
230
1.0
 70
     8
 71
     3
 72
    20
 73
    16
 74
     0
 42
0.000000001
 43
0.00000001
 40
0.0
 40
0.0
 40
0.0
 40
0.0
 40
0.0508512521976469
 40
0.1192596515524981
 40
0.1881824622773712
 40
0.2754279060228587
 40
0.3432780712957399
 40
0.411532858660601
 40
0.4803593830460269
 40
0.5495361851136967
 40
0.6447974558086742
 40
0.7414922451990695
 40
0.8388549865134411
 40
0.9375207010337486
 40
0.9999999999999999
 40
0.9999999999999999
 40
0.9999999999999999
 40
0.9999999999999999
 10
925.6636469786249
 20
806.1186741841606
 30
0.0
 10
925.8834167187426
 20
806.1540824262104
 30
0.0
 10
926.3988349532113
 20
806.2371241297367
 30
0.0
 10
927.2220446821725
 20
806.2913738769989
 30
0.0
 10
928.2056144656033
 20
806.2764401783098
 30
0.0
 10
929.1817967691893
 20
806.1663391519116
 30
0.0
 10
930.1400294292979
 20
805.9692587010636
 30
0.0
 10
931.0028713758195
 20
805.7216325275976
 30
0.0
 10
931.8505142104683
 20
805.4091875293251
 30
0.0
 10
932.7817309244361
 20
804.9891365816534
 30
0.0
 10
933.7838485916772
 20
804.4366702968487
 30
0.0
 10
934.837012181781
 20
803.7310550323647
 30
0.0
 10
935.8387328662934
 20
802.9309408427356
 30
0.0
 10
936.6720419299348
 20
802.1635041919039
 30
0.0
 10
937.1506906186629
 20
801.645434198114
 30
0.0
 10
937.336272746684
 20
801.4445676039383
 30
0.0
  0
SPLINE
  5
1B1
330
1F
100
AcDbEntity
  8
0
  6
Continuous
 62
     7
370
    25
100
AcDbSpline
210
0.0
220
0.0
230
1.0
 70
     8
 71
     3
 72
    31
 73
    27
 74
     0
 42
0.000000001
 43
0.00000001
 40
0.0
 40
0.0
 40
0.0
 40
0.0
 40
0.0190312077279791
 40
0.0792954032405015
 40
0.1196310017274716
 40
0.1651241587531512
 40
0.205242319618279
 40
0.2454554927372127
 40
0.2950040268758098
 40
0.3447468350518416
 40
0.3979520290722183
 40
0.4370257175042486
 40
0.4762183286980831
 40
0.5199936155456051
 40
0.5644919548785913
 40
0.6092256110291394
 40
0.6485769008197112
 40
0.688132870218703
 40
0.7315332419760924
 40
0.7752822341305278
 40
0.8054889606140851
 40
0.8358390543983032
 40
0.8751930415687977
 40
0.9149184399872641
 40
0.9572013249987292
 40
1.0
 40
1.0
 40
1.0
 40
1.0
 10
1353.484475799973
 20
365.050428549734
 30
0.0
 10
1353.593622195675
 20
364.9168993971414
 30
0.0
 10
1354.048391413855
 20
364.3605370185401
 30
0.0
 10
1354.652425514249
 20
363.4577778247912
 30
0.0
 10
1355.343191997694
 20
362.3287589541208
 30
0.0
 10
1355.884479899704
 20
361.3232851653022
 30
0.0
 10
1356.374026837645
 20
360.2933157132471
 30
0.0
 10
1356.826737711133
 20
359.2066058486434
 30
0.0
 10
1357.247972741928
 20
358.0140202771109
 30
0.0
 10
1357.625767258746
 20
356.6840553423262
 30
0.0
 10
1357.893656326916
 20
355.4243009210687
 30
0.0
 10
1358.067710144354
 20
354.2453444368217
 30
0.0
 10
1358.168435548355
 20
353.1436097007361
 30
0.0
 10
1358.203073503463
 20
351.9883819218422
 30
0.0
 10
1358.156652740463
 20
350.7831769129774
 30
0.0
 10
1358.026680210661
 20
349.6242898773853
 30
0.0
 10
1357.820550165645
 20
348.5222572739689
 30
0.0
 10
1357.538073206608
 20
347.4496495377313
 30
0.0
 10
1357.15663178253
 20
346.3653431319624
 30
0.0
 10
1356.714092339123
 20
345.3967194529118
 30
0.0
 10
1356.252503179785
 20
344.5712627069207
 30
0.0
 10
1355.756647424256
 20
343.8131058686217
 30
0.0
 10
1355.146676716093
 20
343.0292933155385
 30
0.0
 10
1354.387532444905
 20
342.2320002892578
 30
0.0
 10
1353.529823059469
 20
341.489761239444
 30
0.0
 10
1352.881338575382
 20
341.0714947511881
 30
0.0
 10
1352.555130679409
 20
340.8610936784751
 30
0.0
  0
SPLINE
  5
1B2
330
1F
100
AcDbEntity
  8
0
  6
Continuous
 62
     7
370
    25
100
AcDbSpline
210
0.0
220
0.0
230
1.0
 70
     8
 71
     3
 72
    25
 73
    21
 74
     0
 42
0.000000001
 43
0.00000001
 40
0.0
 40
0.0
 40
0.0
 40
0.0
 40
0.0420556492310587
 40
0.0844781159795894
 40
0.1272260424557504
 40
0.1703344974524854
 40
0.2122252523948391
 40
0.2543782504810346
 40
0.2970337097263306
 40
0.3399222261822136
 40
0.3962444270786318
 40
0.4534130605528791
 40
0.5109792378691576
 40
0.5693236917847858
 40
0.6415265477301954
 40
0.7142772061244721
 40
0.7885885437878078
 40
0.8633737432909243
 40
0.93705625771099
 40
1.0
 40
1.0
 40
1.0
 40
1.0
 10
1352.555130679409
 20
340.8610936784751
 30
0.0
 10
1352.289628608851
 20
340.7107901033277
 30
0.0
 10
1351.756308707255
 20
340.4088719761414
 30
0.0
 10
1350.906452491834
 20
340.0457659431538
 30
0.0
 10
1350.023634405097
 20
339.7504609047769
 30
0.0
 10
1349.121804948254
 20
339.5342918558709
 30
0.0
 10
1348.209851695085
 20
339.3933640838693
 30
0.0
 10
1347.292940140271
 20
339.3247350334599
 30
0.0
 10
1346.366283211353
 20
339.3258902503931
 30
0.0
 10
1345.339779925311
 20
339.4024722696972
 30
0.0
 10
1344.218157500688
 20
339.5781864189931
 30
0.0
 10
1343.012796447275
 20
339.8759800691537
 30
0.0
 10
1341.822169530398
 20
340.2764000665052
 30
0.0
 10
1340.566145286876
 20
340.8110208997105
 30
0.0
 10
1339.260497839204
 20
341.4991810699736
 30
0.0
 10
1337.921515613563
 20
342.3592399353941
 30
0.0
 10
1336.64192598162
 20
343.3368136819065
 30
0.0
 10
1335.44092331399
 20
344.4185213799884
 30
0.0
 10
1334.372959148749
 20
345.5209754611206
 30
0.0
 10
1333.751985017188
 20
346.2931818682885
 30
0.0
 10
1333.46590211741
 20
346.6489375060222
 30
0.0
  0
SPLINE
  5
1B3
330
1F
100
AcDbEntity
  8
0
  6
Continuous
 62
     7
370
    25
100
AcDbSpline
210
0.0
220
0.0
230
1.0
 70
     8
 71
     3
 72
    30
 73
    26
 74
     0
 42
0.000000001
 43
0.00000001
 40
0.0
 40
0.0
 40
0.0
 40
0.0
 40
0.0328858951247955
 40
0.0660777466317334
 40
0.0995151011759245
 40
0.1332571393826441
 40
0.1661005944479101
 40
0.1991953381697876
 40
0.2324816851364717
 40
0.2659966955341068
 40
0.2980275389830612
 40
0.3301909885793563
 40
0.3857864248811043
 40
0.4137715279013534
 40
0.4683072992209594
 40
0.5236599758190116
 40
0.5793951698511465
 40
0.6358843498161025
 40
0.6915727730321349
 40
0.7478336319959239
 40
0.80437188409333
 40
0.8614678496506295
 40
0.9280457777721529
 40
0.9950471181429908
 40
0.9999999999999999
 40
0.9999999999999999
 40
0.9999999999999999
 40
0.9999999999999999
 10
895.4724537064185
 20
340.8610936792293
 30
0.0
 10
895.2207122389652
 20
341.0208183430205
 30
0.0
 10
894.7148872085089
 20
341.341753680945
 30
0.0
 10
894.0093275564907
 20
341.9058271403328
 30
0.0
 10
893.3458048203915
 20
342.5289345468453
 30
0.0
 10
892.7403153108179
 20
343.2047676675428
 30
0.0
 10
892.1935746648505
 20
343.9247308302974
 30
0.0
 10
891.706897800186
 20
344.681669371124
 30
0.0
 10
891.2757885976009
 20
345.478421153391
 30
0.0
 10
890.9076913370163
 20
346.2955414232203
 30
0.0
 10
890.5996515218159
 20
347.126173886579
 30
0.0
 10
890.2876790973667
 20
348.1663195482176
 30
0.0
 10
890.0705197953146
 20
349.1944464161971
 30
0.0
 10
889.9022238897471
 20
350.4347359171993
 30
0.0
 10
889.820665230506
 20
351.6830993410598
 30
0.0
 10
889.8525579945667
 20
353.1850596086047
 30
0.0
 10
890.009050469481
 20
354.69689410099
 30
0.0
 10
890.2836256045288
 20
356.1947658044985
 30
0.0
 10
890.6699352033781
 20
357.6725011199312
 30
0.0
 10
891.1604965326496
 20
359.1194758448895
 30
0.0
 10
891.7561812898506
 20
360.5399401344631
 30
0.0
 10
892.4870750909133
 20
362.0020773261968
 30
0.0
 10
893.3844472778618
 20
363.4783366591739
 30
0.0
 10
894.0869941180332
 20
364.5233437753338
 30
0.0
 10
894.5083118570952
 20
365.0208874681255
 30
0.0
 10
894.5373127540715
 20
365.0551352864298
 30
0.0
  0
SPLINE
  5
1B4
330
1F
100
AcDbEntity
  8
0
  6
Continuous
 62
     7
370
    25
100
AcDbSpline
210
0.0
220
0.0
230
1.0
 70
     8
 71
     3
 72
    27
 73
    23
 74
     0
 42
0.000000001
 43
0.00000001
 40
0.0
 40
0.0
 40
0.0
 40
0.0
 40
0.0232674283616587
 40
0.0766149713480834
 40
0.1629024187463202
 40
0.2334200192059217
 40
0.30434099631156
 40
0.3585872746067921
 40
0.4039882415468863
 40
0.4495308007584
 40
0.5042605169907182
 40
0.5592945968332087
 40
0.6148545581223045
 40
0.6711797501753741
 40
0.7160954953463496
 40
0.7840886931435505
 40
0.81857594237373
 40
0.853213865255385
 40
0.8895534170424392
 40
0.9260888955920767
 40
0.9629356162043228
 40
1.0
 40
1.0
 40
1.0
 40
1.0
 10
914.561611983584
 20
346.6487158220355
 30
0.0
 10
914.4586621883507
 20
346.5150564512532
 30
0.0
 10
914.119669176768
 20
346.0749429714256
 30
0.0
 10
913.3376259480648
 20
345.1886078938174
 30
0.0
 10
912.2641905021776
 20
344.1051091737136
 30
0.0
 10
911.0063429685838
 20
343.033170536419
 30
0.0
 10
909.8594333991947
 20
342.1956318056815
 30
0.0
 10
908.8108428392861
 20
341.5385965095197
 30
0.0
 10
907.88702691391
 20
341.0329396359437
 30
0.0
 10
906.9330927097847
 20
340.5783975686923
 30
0.0
 10
905.8864714771584
 20
340.160449628593
 30
0.0
 10
904.7419899881831
 20
339.8003286514172
 30
0.0
 10
903.5608499321768
 20
339.5306629246807
 30
0.0
 10
902.4331645343777
 20
339.3743186203561
 30
0.0
 10
901.2070738029126
 20
339.3078284428026
 30
0.0
 10
900.1363653932959
 20
339.3549102035265
 30
0.0
 10
899.1513148724766
 20
339.4930905509372
 30
0.0
 10
898.4022590496639
 20
339.6494490750335
 30
0.0
 10
897.6514538973914
 20
339.8616531775066
 30
0.0
 10
896.9038151098141
 20
340.1350109372295
 30
0.0
 10
896.1717543977879
 20
340.4623915588214
 30
0.0
 10
895.7060111309728
 20
340.7279323059371
 30
0.0
 10
895.4724537064184
 20
340.8610936792293
 30
0.0
  0
ENDSEC
  0
SECTION
  2
OBJECTS
  0
DICTIONARY
  5
C
330
0
100
AcDbDictionary
281
     1
  3
ACAD_GROUP
350
D
  3
ACAD_LAYOUT
350
1A
  3
ACAD_MLINESTYLE
350
17
  3
ACAD_PLOTSETTINGS
350
19
  3
ACAD_PLOTSTYLENAME
350
E
  3
ACAD_SCALELIST
350
47
  0
DICTIONARY
  5
D
102
{ACAD_REACTORS
330
C
102
}
330
C
100
AcDbDictionary
281
     1
  0
DICTIONARY
  5
1A
102
{ACAD_REACTORS
330
C
102
}
330
C
100
AcDbDictionary
281
     1
  3
Layout1
350
1E
  3
Layout2
350
26
  3
Model
350
22
  0
DICTIONARY
  5
17
102
{ACAD_REACTORS
330
C
102
}
330
C
100
AcDbDictionary
281
     1
  3
Standard
350
18
  0
DICTIONARY
  5
19
102
{ACAD_REACTORS
330
C
102
}
330
C
100
AcDbDictionary
281
     1
  0
ACDBDICTIONARYWDFLT
  5
E
102
{ACAD_REACTORS
330
C
102
}
330
C
100
AcDbDictionary
281
     1
  3
Normal
350
F
100
AcDbDictionaryWithDefault
340
F
  0
DICTIONARY
  5
47
102
{ACAD_REACTORS
330
C
102
}
330
C
100
AcDbDictionary
281
     1
  3
A0
350
48
  3
A1
350
49
  3
A2
350
4A
  3
A3
350
4B
  3
A4
350
4C
  3
A5
350
4D
  3
A6
350
4E
  3
A7
350
4F
  3
A8
350
50
  3
A9
350
51
  3
B0
350
52
  3
B1
350
53
  3
B2
350
54
  3
B3
350
55
  3
B4
350
56
  3
B5
350
57
  3
B6
350
58
  3
B7
350
59
  3
B8
350
5A
  3
B9
350
5B
  3
C0
350
5C
  3
C1
350
5D
  3
C2
350
5E
  3
C3
350
5F
  3
C4
350
60
  3
C5
350
61
  3
C6
350
62
  3
C7
350
63
  3
C8
350
64
  3
C9
350
65
  3
D0
350
66
  3
D1
350
67
  3
D2
350
68
  0
LAYOUT
  5
1E
102
{ACAD_REACTORS
330
1A
102
}
330
1A
100
AcDbPlotSettings
  1

  2
none_device
  4

  6

 40
0.0
 41
0.0
 42
0.0
 43
0.0
 44
0.0
 45
0.0
 46
0.0
 47
0.0
 48
0.0
 49
0.0
140
0.0
141
0.0
142
1.0
143
1.0
 70
   688
 72
     1
 73
     0
 74
     5
  7

 75
    16
147
1.0
148
0.0
149
0.0
100
AcDbLayout
  1
Layout1
 70
     1
 71
     1
 10
0.0
 20
0.0
 11
420.0
 21
297.0
 12
0.0
 22
0.0
 32
0.0
 14
1.0000000000E+20
 24
1.0000000000E+20
 34
1.0000000000E+20
 15
-1.0000000000E+20
 25
-1.0000000000E+20
 35
-1.0000000000E+20
146
0.0
 13
0.0
 23
0.0
 33
0.0
 16
1.0
 26
0.0
 36
0.0
 17
0.0
 27
1.0
 37
0.0
 76
     0
330
1B
  0
LAYOUT
  5
26
102
{ACAD_REACTORS
330
1A
102
}
330
1A
100
AcDbPlotSettings
  1

  2
none_device
  4

  6

 40
0.0
 41
0.0
 42
0.0
 43
0.0
 44
0.0
 45
0.0
 46
0.0
 47
0.0
 48
0.0
 49
0.0
140
0.0
141
0.0
142
1.0
143
1.0
 70
   688
 72
     1
 73
     0
 74
     5
  7

 75
    16
147
1.0
148
0.0
149
0.0
100
AcDbLayout
  1
Layout2
 70
     1
 71
     2
 10
0.0
 20
0.0
 11
0.0
 21
0.0
 12
0.0
 22
0.0
 32
0.0
 14
0.0
 24
0.0
 34
0.0
 15
0.0
 25
0.0
 35
0.0
146
0.0
 13
0.0
 23
0.0
 33
0.0
 16
1.0
 26
0.0
 36
0.0
 17
0.0
 27
1.0
 37
0.0
 76
     0
330
23
  0
LAYOUT
  5
22
102
{ACAD_REACTORS
330
1A
102
}
330
1A
100
AcDbPlotSettings
  1

  2
none_device
  4
Letter_(8.50_x_11.00_Inches)
  6

 40
6.35
 41
6.35
 42
6.35000508
 43
6.35000508
 44
215.9
 45
279.4
 46
0.0
 47
0.0
 48
0.0
 49
0.0
140
0.0
141
0.0
142
1.0
143
1.0
 70
  1712
 72
     1
 73
     0
 74
     0
  7

 75
     0
147
1.0
148
0.0
149
0.0
100
AcDbLayout
  1
Model
 70
     1
 71
     0
 10
0.0
 20
0.0
 11
2970.0
 21
2100.0
 12
0.0
 22
0.0
 32
0.0
 14
0.0
 24
0.0
 34
0.0
 15
2970.0
 25
2100.0
 35
0.0
146
0.0
 13
0.0
 23
0.0
 33
0.0
 16
1.0
 26
0.0
 36
0.0
 17
0.0
 27
1.0
 37
0.0
 76
     0
330
1F
331
29
  0
MLINESTYLE
  5
18
102
{ACAD_REACTORS
330
17
102
}
330
17
100
AcDbMlineStyle
  2
Standard
 70
     0
  3

 62
   256
 51
90.0
 52
90.0
 71
     2
 49
0.5
 62
   256
  6
BYLAYER
 49
-0.5
 62
   256
  6
BYLAYER
  0
ACDBPLACEHOLDER
  5
F
102
{ACAD_REACTORS
330
E
102
}
330
E
  0
SCALE
  5
48
102
{ACAD_REACTORS
330
47
102
}
330
47
100
AcDbScale
 70
     0
300
1:1
140
1.0
141
1.0
290
     1
  0
SCALE
  5
49
102
{ACAD_REACTORS
330
47
102
}
330
47
100
AcDbScale
 70
     0
300
1:2
140
1.0
141
2.0
290
     0
  0
SCALE
  5
4A
102
{ACAD_REACTORS
330
47
102
}
330
47
100
AcDbScale
 70
     0
300
1:4
140
1.0
141
4.0
290
     0
  0
SCALE
  5
4B
102
{ACAD_REACTORS
330
47
102
}
330
47
100
AcDbScale
 70
     0
300
1:5
140
1.0
141
5.0
290
     0
  0
SCALE
  5
4C
102
{ACAD_REACTORS
330
47
102
}
330
47
100
AcDbScale
 70
     0
300
1:8
140
1.0
141
8.0
290
     0
  0
SCALE
  5
4D
102
{ACAD_REACTORS
330
47
102
}
330
47
100
AcDbScale
 70
     0
300
1:10
140
1.0
141
10.0
290
     0
  0
SCALE
  5
4E
102
{ACAD_REACTORS
330
47
102
}
330
47
100
AcDbScale
 70
     0
300
1:16
140
1.0
141
16.0
290
     0
  0
SCALE
  5
4F
102
{ACAD_REACTORS
330
47
102
}
330
47
100
AcDbScale
 70
     0
300
1:20
140
1.0
141
20.0
290
     0
  0
SCALE
  5
50
102
{ACAD_REACTORS
330
47
102
}
330
47
100
AcDbScale
 70
     0
300
1:30
140
1.0
141
30.0
290
     0
  0
SCALE
  5
51
102
{ACAD_REACTORS
330
47
102
}
330
47
100
AcDbScale
 70
     0
300
1:40
140
1.0
141
40.0
290
     0
  0
SCALE
  5
52
102
{ACAD_REACTORS
330
47
102
}
330
47
100
AcDbScale
 70
     0
300
1:50
140
1.0
141
50.0
290
     0
  0
SCALE
  5
53
102
{ACAD_REACTORS
330
47
102
}
330
47
100
AcDbScale
 70
     0
300
1:100
140
1.0
141
100.0
290
     0
  0
SCALE
  5
54
102
{ACAD_REACTORS
330
47
102
}
330
47
100
AcDbScale
 70
     0
300
2:1
140
2.0
141
1.0
290
     0
  0
SCALE
  5
55
102
{ACAD_REACTORS
330
47
102
}
330
47
100
AcDbScale
 70
     0
300
4:1
140
4.0
141
1.0
290
     0
  0
SCALE
  5
56
102
{ACAD_REACTORS
330
47
102
}
330
47
100
AcDbScale
 70
     0
300
8:1
140
8.0
141
1.0
290
     0
  0
SCALE
  5
57
102
{ACAD_REACTORS
330
47
102
}
330
47
100
AcDbScale
 70
     0
300
10:1
140
10.0
141
1.0
290
     0
  0
SCALE
  5
58
102
{ACAD_REACTORS
330
47
102
}
330
47
100
AcDbScale
 70
     0
300
100:1
140
100.0
141
1.0
290
     0
  0
SCALE
  5
59
102
{ACAD_REACTORS
330
47
102
}
330
47
100
AcDbScale
 70
     0
300
1/128" = 1'-0"
140
0.0078125
141
12.0
290
     0
  0
SCALE
  5
5A
102
{ACAD_REACTORS
330
47
102
}
330
47
100
AcDbScale
 70
     0
300
1/64" = 1'-0"
140
0.015625
141
12.0
290
     0
  0
SCALE
  5
5B
102
{ACAD_REACTORS
330
47
102
}
330
47
100
AcDbScale
 70
     0
300
1/32" = 1'-0"
140
0.03125
141
12.0
290
     0
  0
SCALE
  5
5C
102
{ACAD_REACTORS
330
47
102
}
330
47
100
AcDbScale
 70
     0
300
1/16" = 1'-0"
140
0.0625
141
12.0
290
     0
  0
SCALE
  5
5D
102
{ACAD_REACTORS
330
47
102
}
330
47
100
AcDbScale
 70
     0
300
3/32" = 1'-0"
140
0.09375
141
12.0
290
     0
  0
SCALE
  5
5E
102
{ACAD_REACTORS
330
47
102
}
330
47
100
AcDbScale
 70
     0
300
1/8" = 1'-0"
140
0.125
141
12.0
290
     0
  0
SCALE
  5
5F
102
{ACAD_REACTORS
330
47
102
}
330
47
100
AcDbScale
 70
     0
300
3/16" = 1'-0"
140
0.1875
141
12.0
290
     0
  0
SCALE
  5
60
102
{ACAD_REACTORS
330
47
102
}
330
47
100
AcDbScale
 70
     0
300
1/4" = 1'-0"
140
0.25
141
12.0
290
     0
  0
SCALE
  5
61
102
{ACAD_REACTORS
330
47
102
}
330
47
100
AcDbScale
 70
     0
300
3/8" = 1'-0"
140
0.375
141
12.0
290
     0
  0
SCALE
  5
62
102
{ACAD_REACTORS
330
47
102
}
330
47
100
AcDbScale
 70
     0
300
1/2" = 1'-0"
140
0.5
141
12.0
290
     0
  0
SCALE
  5
63
102
{ACAD_REACTORS
330
47
102
}
330
47
100
AcDbScale
 70
     0
300
3/4" = 1'-0"
140
0.75
141
12.0
290
     0
  0
SCALE
  5
64
102
{ACAD_REACTORS
330
47
102
}
330
47
100
AcDbScale
 70
     0
300
1" = 1'-0"
140
1.0
141
12.0
290
     0
  0
SCALE
  5
65
102
{ACAD_REACTORS
330
47
102
}
330
47
100
AcDbScale
 70
     0
300
1-1/2" = 1'-0"
140
1.5
141
12.0
290
     0
  0
SCALE
  5
66
102
{ACAD_REACTORS
330
47
102
}
330
47
100
AcDbScale
 70
     0
300
3" = 1'-0"
140
3.0
141
12.0
290
     0
  0
SCALE
  5
67
102
{ACAD_REACTORS
330
47
102
}
330
47
100
AcDbScale
 70
     0
300
6" = 1'-0"
140
6.0
141
12.0
290
     0
  0
SCALE
  5
68
102
{ACAD_REACTORS
330
47
102
}
330
47
100
AcDbScale
 70
     0
300
1'-0" = 1'-0"
140
12.0
141
12.0
290
     0
  0
ENDSEC
  0
EOF
