  0
SECTION
  2
HEADER
  9
$ACADVER
  1
AC1014
  9
$ACADMAINTVER
 70
     9
  9
$DWGCODEPAGE
  3
ANSI_1252
  9
$INSBASE
 10
0.0
 20
0.0
 30
0.0
  9
$EXTMIN
 10
1.000000000000000E+20
 20
1.000000000000000E+20
 30
1.000000000000000E+20
  9
$EXTMAX
 10
-1.000000000000000E+20
 20
-1.000000000000000E+20
 30
-1.000000000000000E+20
  9
$LIMMIN
 10
0.0
 20
0.0
  9
$LIMMAX
 10
12.0
 20
9.0
  9
$ORTHOMODE
 70
     0
  9
$REGENMODE
 70
     1
  9
$FILLMODE
 70
     1
  9
$QTEXTMODE
 70
     0
  9
$MIRRTEXT
 70
     1
  9
$DRAGMODE
 70
     2
  9
$LTSCALE
 40
1.0
  9
$OSMODE
 70
    37
  9
$ATTMODE
 70
     1
  9
$TEXTSIZE
 40
0.2
  9
$TRACEWID
 40
0.05
  9
$TEXTSTYLE
  7
STANDARD
  9
$CLAYER
  8
0
  9
$CELTYPE
  6
BYLAYER
  9
$CECOLOR
 62
   256
  9
$CELTSCALE
 40
1.0
  9
$DELOBJ
 70
     1
  9
$DISPSILH
 70
     0
  9
$DIMSCALE
 40
1.0
  9
$DIMASZ
 40
0.18
  9
$DIMEXO
 40
0.0625
  9
$DIMDLI
 40
0.38
  9
$DIMRND
 40
0.0
  9
$DIMDLE
 40
0.0
  9
$DIMEXE
 40
0.18
  9
$DIMTP
 40
0.0
  9
$DIMTM
 40
0.0
  9
$DIMTXT
 40
0.18
  9
$DIMCEN
 40
0.09
  9
$DIMTSZ
 40
0.0
  9
$DIMTOL
 70
     0
  9
$DIMLIM
 70
     0
  9
$DIMTIH
 70
     1
  9
$DIMTOH
 70
     1
  9
$DIMSE1
 70
     0
  9
$DIMSE2
 70
     0
  9
$DIMTAD
 70
     0
  9
$DIMZIN
 70
     0
  9
$DIMBLK
  1

  9
$DIMASO
 70
     1
  9
$DIMSHO
 70
     1
  9
$DIMPOST
  1

  9
$DIMAPOST
  1

  9
$DIMALT
 70
     0
  9
$DIMALTD
 70
     2
  9
$DIMALTF
 40
25.4
  9
$DIMLFAC
 40
1.0
  9
$DIMTOFL
 70
     0
  9
$DIMTVP
 40
0.0
  9
$DIMTIX
 70
     0
  9
$DIMSOXD
 70
     0
  9
$DIMSAH
 70
     0
  9
$DIMBLK1
  1

  9
$DIMBLK2
  1

  9
$DIMSTYLE
  2
STANDARD
  9
$DIMCLRD
 70
     0
  9
$DIMCLRE
 70
     0
  9
$DIMCLRT
 70
     0
  9
$DIMTFAC
 40
1.0
  9
$DIMGAP
 40
0.09
  9
$DIMJUST
 70
     0
  9
$DIMSD1
 70
     0
  9
$DIMSD2
 70
     0
  9
$DIMTOLJ
 70
     1
  9
$DIMTZIN
 70
     0
  9
$DIMALTZ
 70
     0
  9
$DIMALTTZ
 70
     0
  9
$DIMFIT
 70
     3
  9
$DIMUPT
 70
     0
  9
$DIMUNIT
 70
     2
  9
$DIMDEC
 70
     4
  9
$DIMTDEC
 70
     4
  9
$DIMALTU
 70
     2
  9
$DIMALTTD
 70
     2
  9
$DIMTXSTY
  7
STANDARD
  9
$DIMAUNIT
 70
     0
  9
$LUNITS
 70
     2
  9
$LUPREC
 70
     4
  9
$SKETCHINC
 40
0.1
  9
$FILLETRAD
 40
0.5
  9
$AUNITS
 70
     0
  9
$AUPREC
 70
     0
  9
$MENU
  1
.
  9
$ELEVATION
 40
0.0
  9
$PELEVATION
 40
0.0
  9
$THICKNESS
 40
0.0
  9
$LIMCHECK
 70
     0
  9
$CHAMFERA
 40
0.5
  9
$CHAMFERB
 40
0.5
  9
$CHAMFERC
 40
1.0
  9
$CHAMFERD
 40
0.0
  9
$SKPOLY
 70
     0
  9
$TDCREATE
 40
2459957.477902917
  9
$TDUPDATE
 40
2459957.47790316
  9
$TDINDWG
 40
0.0000000116
  9
$TDUSRTIMER
 40
0.0000000116
  9
$USRTIMER
 70
     1
  9
$ANGBASE
 50
0.0
  9
$ANGDIR
 70
     0
  9
$PDMODE
 70
     0
  9
$PDSIZE
 40
0.0
  9
$PLINEWID
 40
0.0
  9
$COORDS
 70
     1
  9
$SPLFRAME
 70
     0
  9
$SPLINETYPE
 70
     6
  9
$SPLINESEGS
 70
     8
  9
$ATTDIA
 70
     0
  9
$ATTREQ
 70
     1
  9
$HANDLING
 70
     1
  9
$HANDSEED
  5
7E6
  9
$SURFTAB1
 70
     6
  9
$SURFTAB2
 70
     6
  9
$SURFTYPE
 70
     6
  9
$SURFU
 70
     6
  9
$SURFV
 70
     6
  9
$UCSNAME
  2

  9
$UCSORG
 10
0.0
 20
0.0
 30
0.0
  9
$UCSXDIR
 10
1.0
 20
0.0
 30
0.0
  9
$UCSYDIR
 10
0.0
 20
1.0
 30
0.0
  9
$PUCSNAME
  2

  9
$PUCSORG
 10
0.0
 20
0.0
 30
0.0
  9
$PUCSXDIR
 10
1.0
 20
0.0
 30
0.0
  9
$PUCSYDIR
 10
0.0
 20
1.0
 30
0.0
  9
$USERI1
 70
     0
  9
$USERI2
 70
     0
  9
$USERI3
 70
     0
  9
$USERI4
 70
     0
  9
$USERI5
 70
     0
  9
$USERR1
 40
0.0
  9
$USERR2
 40
0.0
  9
$USERR3
 40
0.0
  9
$USERR4
 40
0.0
  9
$USERR5
 40
0.0
  9
$WORLDVIEW
 70
     1
  9
$SHADEDGE
 70
     3
  9
$SHADEDIF
 70
    70
  9
$TILEMODE
 70
     1
  9
$MAXACTVP
 70
    64
  9
$PINSBASE
 10
0.0
 20
0.0
 30
0.0
  9
$PLIMCHECK
 70
     0
  9
$PEXTMIN
 10
1.000000000000000E+20
 20
1.000000000000000E+20
 30
1.000000000000000E+20
  9
$PEXTMAX
 10
-1.000000000000000E+20
 20
-1.000000000000000E+20
 30
-1.000000000000000E+20
  9
$PLIMMIN
 10
0.0
 20
0.0
  9
$PLIMMAX
 10
12.0
 20
9.0
  9
$UNITMODE
 70
     0
  9
$VISRETAIN
 70
     1
  9
$PLINEGEN
 70
     0
  9
$PSLTSCALE
 70
     1
  9
$TREEDEPTH
 70
  3020
  9
$PICKSTYLE
 70
     1
  9
$CMLSTYLE
  2
STANDARD
  9
$CMLJUST
 70
     0
  9
$CMLSCALE
 40
1.0
  9
$PROXYGRAPHICS
 70
     1
  9
$MEASUREMENT
 70
     0
  0
ENDSEC
  0
SECTION
  2
CLASSES
  0
CLASS
  1
ACDBDICTIONARYWDFLT
  2
AcDbDictionaryWithDefault
  3
ObjectDBX Classes
 90
        0
280
     0
281
     0
  0
CLASS
  1
VISUALSTYLE
  2
AcDbVisualStyle
  3
ObjectDBX Classes
 90
     4095
280
     0
281
     0
  0
CLASS
  1
MATERIAL
  2
AcDbMaterial
  3
ObjectDBX Classes
 90
     1153
280
     0
281
     0
  0
CLASS
  1
SUN
  2
AcDbSun
  3
SCENEOE
 90
     1024
280
     0
281
     0
  0
CLASS
  1
DICTIONARYVAR
  2
AcDbDictionaryVar
  3
ObjectDBX Classes
 90
        0
280
     0
281
     0
  0
CLASS
  1
XRECORD
  2
AcDbXrecord
  3
AutoCAD 2000
 90
        0
280
     0
281
     0
  0
CLASS
  1
LWPOLYLINE
  2
AcDbPolyline
  3
AutoCAD 2000
 90
        0
280
     0
281
     1
  0
CLASS
  1
HATCH
  2
AcDbHatch
  3
AutoCAD 2000
 90
        0
280
     0
281
     1
  0
CLASS
  1
ACDBPLACEHOLDER
  2
AcDbPlaceHolder
  3
ObjectDBX Classes
 90
        0
280
     0
281
     0
  0
CLASS
  1
LAYOUT
  2
AcDbLayout
  3
ObjectDBX Classes
 90
        0
280
     0
281
     0
  0
ENDSEC
  0
SECTION
  2
TABLES
  0
TABLE
  2
VPORT
  5
8
330
0
100
AcDbSymbolTable
 70
     1
  0
VPORT
  5
29
330
8
100
AcDbSymbolTableRecord
100
AcDbViewportTableRecord
  2
*ACTIVE
 70
     0
 10
0.0
 20
0.0
 11
1.0
 21
1.0
 12
0.0
 22
0.0
 13
0.0
 23
0.0
 14
0.5
 24
0.5
 15
0.5
 25
0.5
 16
0.0
 26
0.0
 36
1.0
 17
74.99999786197374
 27
39.74999886684608
 37
0.0
 40
39.99999998999989
 41
2.0
 42
50.0
 43
0.0
 44
0.0
 50
0.0
 51
0.0
 71
     0
 72
   100
 73
     1
 74
     3
 75
     0
 76
     0
 77
     0
 78
     0
  0
ENDTAB
  0
TABLE
  2
LTYPE
  5
5
330
0
100
AcDbSymbolTable
 70
     1
  0
LTYPE
  5
14
330
5
100
AcDbSymbolTableRecord
100
AcDbLinetypeTableRecord
  2
BYBLOCK
 70
     0
  3

 72
    65
 73
     0
 40
0.0
  0
LTYPE
  5
15
330
5
100
AcDbSymbolTableRecord
100
AcDbLinetypeTableRecord
  2
BYLAYER
 70
     0
  3

 72
    65
 73
     0
 40
0.0
  0
LTYPE
  5
16
330
5
100
AcDbSymbolTableRecord
100
AcDbLinetypeTableRecord
  2
CONTINUOUS
 70
     0
  3
Solid line
 72
    65
 73
     0
 40
0.0
  0
ENDTAB
  0
TABLE
  2
LAYER
  5
2
330
0
100
AcDbSymbolTable
 70
     6
  0
LAYER
  5
10
330
2
100
AcDbSymbolTableRecord
100
AcDbLayerTableRecord
  2
0
 70
     0
 62
     7
  6
CONTINUOUS
  0
LAYER
  5
40
330
2
100
AcDbSymbolTableRecord
100
AcDbLayerTableRecord
  2
REFERENCIAS
 70
     0
 62
     7
  6
CONTINUOUS
  0
LAYER
  5
42
330
2
100
AcDbSymbolTableRecord
100
AcDbLayerTableRecord
  2
M_U_00C1RGENES
 70
     4
 62
     7
  6
CONTINUOUS
  0
LAYER
  5
56
330
2
100
AcDbSymbolTableRecord
100
AcDbLayerTableRecord
  2
DIBUJOS
 70
     4
 62
     7
  6
CONTINUOUS
  0
LAYER
  5
791
330
2
100
AcDbSymbolTableRecord
100
AcDbLayerTableRecord
  2
COTAS_LINEA
 70
     4
 62
     7
  6
CONTINUOUS
  0
LAYER
  5
7B2
330
2
100
AcDbSymbolTableRecord
100
AcDbLayerTableRecord
  2
COTAS_N_U_00DAMERO
 70
     4
 62
     7
  6
CONTINUOUS
  0
ENDTAB
  0
TABLE
  2
STYLE
  5
3
330
0
100
AcDbSymbolTable
 70
     1
  0
STYLE
  5
11
330
3
100
AcDbSymbolTableRecord
100
AcDbTextStyleTableRecord
  2
STANDARD
 70
     0
 40
0.0
 41
1.0
 50
0.0
 71
     0
 42
0.2
  3
txt
  4

  0
ENDTAB
  0
TABLE
  2
VIEW
  5
6
330
0
100
AcDbSymbolTable
 70
     0
  0
ENDTAB
  0
TABLE
  2
UCS
  5
7
330
0
100
AcDbSymbolTable
 70
     0
  0
ENDTAB
  0
TABLE
  2
APPID
  5
9
330
0
100
AcDbSymbolTable
 70
     1
  0
APPID
  5
12
330
9
100
AcDbSymbolTableRecord
100
AcDbRegAppTableRecord
  2
ACAD
 70
     0
  0
ENDTAB
  0
TABLE
  2
DIMSTYLE
  5
A
330
0
100
AcDbSymbolTable
 70
     1
  0
DIMSTYLE
105
27
330
A
100
AcDbSymbolTableRecord
100
AcDbDimStyleTableRecord
  2
STANDARD
 70
     0
  3

  4

  5

  6

  7

 40
1.0
 41
0.18
 42
0.0625
 43
0.38
 44
0.18
 45
0.0
 46
0.0
 47
0.0
 48
0.0
140
0.18
141
0.09
142
0.0
143
25.4
144
1.0
145
0.0
146
1.0
147
0.09
 71
     0
 72
     0
 73
     1
 74
     1
 75
     0
 76
     0
 77
     0
 78
     0
170
     0
171
     2
172
     0
173
     0
174
     0
175
     0
176
     0
177
     0
178
     0
270
     2
271
     4
272
     4
273
     2
274
     2
340
11
275
     0
280
     0
281
     0
282
     0
283
     1
284
     0
285
     0
286
     0
287
     3
288
     0
  0
ENDTAB
  0
TABLE
  2
BLOCK_RECORD
  5
1
330
0
100
AcDbSymbolTable
 70
     7
  0
BLOCK_RECORD
  5
1F
330
1
100
AcDbSymbolTableRecord
100
AcDbBlockTableRecord
  2
*MODEL_SPACE
  0
BLOCK_RECORD
  5
1B
330
1
100
AcDbSymbolTableRecord
100
AcDbBlockTableRecord
  2
*PAPER_SPACE
  0
BLOCK_RECORD
  5
57
330
1
100
AcDbSymbolTableRecord
100
AcDbBlockTableRecord
  2
BLOCK_2
  0
BLOCK_RECORD
  5
169
330
1
100
AcDbSymbolTableRecord
100
AcDbBlockTableRecord
  2
BLOCK_3
  0
BLOCK_RECORD
  5
27F
330
1
100
AcDbSymbolTableRecord
100
AcDbBlockTableRecord
  2
BLOCK_4
  0
BLOCK_RECORD
  5
41D
330
1
100
AcDbSymbolTableRecord
100
AcDbBlockTableRecord
  2
BLOCK_5
  0
BLOCK_RECORD
  5
593
330
1
100
AcDbSymbolTableRecord
100
AcDbBlockTableRecord
  2
BLOCK_6
  0
BLOCK_RECORD
  5
69E
330
1
100
AcDbSymbolTableRecord
100
AcDbBlockTableRecord
  2
BLOCK_7
  0
ENDTAB
  0
ENDSEC
  0
SECTION
  2
BLOCKS
  0
BLOCK
  5
20
330
1F
100
AcDbEntity
  8
0
100
AcDbBlockBegin
  2
*MODEL_SPACE
 70
     0
 10
0.0
 20
0.0
 30
0.0
  3
*MODEL_SPACE
  1

  0
ENDBLK
  5
21
330
1F
100
AcDbEntity
  8
0
100
AcDbBlockEnd
  0
BLOCK
  5
1C
330
1B
100
AcDbEntity
 67
     1
  8
0
100
AcDbBlockBegin
  2
*PAPER_SPACE
 70
     0
 10
0.0
 20
0.0
 30
0.0
  3
*PAPER_SPACE
  1

  0
ENDBLK
  5
1D
330
1B
100
AcDbEntity
 67
     1
  8
0
100
AcDbBlockEnd
  0
BLOCK
  5
59
330
57
100
AcDbEntity
  8
0
100
AcDbBlockBegin
  2
BLOCK_2
 70
     0
 10
0.0
 20
0.0
 30
0.0
  3
BLOCK_2
  1

  0
POLYLINE
  5
5B
330
57
100
AcDbEntity
  8
DIBUJOS
 62
     7
100
AcDb2dPolyline
 66
     1
 10
0.0
 20
0.0
 30
0.0
  0
VERTEX
  5
5C
330
5B
100
AcDbEntity
  8
DIBUJOS
 62
     7
100
AcDbVertex
100
AcDb2dVertex
 10
43.64905277291096
 20
48.7811563207603
 30
0.0
  0
VERTEX
  5
5D
330
5B
100
AcDbEntity
  8
DIBUJOS
 62
     7
100
AcDbVertex
100
AcDb2dVertex
 10
43.643380211062
 20
48.7811563207603
 30
0.0
  0
SEQEND
  5
5E
330
5B
100
AcDbEntity
  8
DIBUJOS
 62
     7
  0
POLYLINE
  5
5F
330
57
100
AcDbEntity
  8
DIBUJOS
 62
     7
100
AcDb2dPolyline
 66
     1
 10
0.0
 20
0.0
 30
0.0
  0
VERTEX
  5
60
330
5F
100
AcDbEntity
  8
DIBUJOS
 62
     7
100
AcDbVertex
100
AcDb2dVertex
 10
43.6547238082362
 20
48.7811563207603
 30
0.0
  0
VERTEX
  5
61
330
5F
100
AcDbEntity
  8
DIBUJOS
 62
     7
100
AcDbVertex
100
AcDb2dVertex
 10
43.64905277291096
 20
48.7811563207603
 30
0.0
  0
SEQEND
  5
62
330
5F
100
AcDbEntity
  8
DIBUJOS
 62
     7
  0
POLYLINE
  5
63
330
57
100
AcDbEntity
  8
DIBUJOS
 62
     7
100
AcDb2dPolyline
 66
     1
 10
0.0
 20
0.0
 30
0.0
  0
VERTEX
  5
64
330
63
100
AcDbEntity
  8
DIBUJOS
 62
     7
100
AcDbVertex
100
AcDb2dVertex
 10
44.40905851832984
 20
48.7811563207603
 30
0.0
  0
VERTEX
  5
65
330
63
100
AcDbEntity
  8
DIBUJOS
 62
     7
100
AcDbVertex
100
AcDb2dVertex
 10
44.38637132398178
 20
48.78682582956212
 30
0.0
  0
VERTEX
  5
66
330
63
100
AcDbEntity
  8
DIBUJOS
 62
     7
100
AcDbVertex
100
AcDb2dVertex
 10
43.68269888047539
 20
48.78345526536334
 30
0.0
  0
VERTEX
  5
67
330
63
100
AcDbEntity
  8
DIBUJOS
 62
     7
100
AcDbVertex
100
AcDb2dVertex
 10
43.6547238082362
 20
48.7811563207603
 30
0.0
  0
SEQEND
  5
68
330
63
100
AcDbEntity
  8
DIBUJOS
 62
     7
  0
POLYLINE
  5
69
330
57
100
AcDbEntity
  8
DIBUJOS
 62
     7
100
AcDb2dPolyline
 66
     1
 10
0.0
 20
0.0
 30
0.0
  0
VERTEX
  5
6A
330
69
100
AcDbEntity
  8
DIBUJOS
 62
     7
100
AcDbVertex
100
AcDb2dVertex
 10
44.41472955365508
 20
48.7811563207603
 30
0.0
  0
VERTEX
  5
6B
330
69
100
AcDbEntity
  8
DIBUJOS
 62
     7
100
AcDbVertex
100
AcDb2dVertex
 10
44.40905851832984
 20
48.7811563207603
 30
0.0
  0
SEQEND
  5
6C
330
69
100
AcDbEntity
  8
DIBUJOS
 62
     7
  0
POLYLINE
  5
6D
330
57
100
AcDbEntity
  8
DIBUJOS
 62
     7
100
AcDb2dPolyline
 66
     1
 10
0.0
 20
0.0
 30
0.0
  0
VERTEX
  5
6E
330
6D
100
AcDbEntity
  8
DIBUJOS
 62
     7
100
AcDbVertex
100
AcDb2dVertex
 10
44.42040211550372
 20
48.7811563207603
 30
0.0
  0
VERTEX
  5
6F
330
6D
100
AcDbEntity
  8
DIBUJOS
 62
     7
100
AcDbVertex
100
AcDb2dVertex
 10
44.41472955365508
 20
48.7811563207603
 30
0.0
  0
SEQEND
  5
70
330
6D
100
AcDbEntity
  8
DIBUJOS
 62
     7
  0
POLYLINE
  5
71
330
57
100
AcDbEntity
  8
DIBUJOS
 62
     7
100
AcDb2dPolyline
 66
     1
 10
0.0
 20
0.0
 30
0.0
  0
VERTEX
  5
72
330
71
100
AcDbEntity
  8
DIBUJOS
 62
     7
100
AcDbVertex
100
AcDb2dVertex
 10
46.7401211786072
 20
48.7811563207603
 30
0.0
  0
VERTEX
  5
73
330
71
100
AcDbEntity
  8
DIBUJOS
 62
     7
100
AcDbVertex
100
AcDb2dVertex
 10
46.7344501432823
 20
48.78682582956212
 30
0.0
  0
VERTEX
  5
74
330
71
100
AcDbEntity
  8
DIBUJOS
 62
     7
100
AcDbVertex
100
AcDb2dVertex
 10
44.42607315082927
 20
48.78682582956212
 30
0.0
  0
VERTEX
  5
75
330
71
100
AcDbEntity
  8
DIBUJOS
 62
     7
100
AcDbVertex
100
AcDb2dVertex
 10
44.42040211550372
 20
48.7811563207603
 30
0.0
  0
SEQEND
  5
76
330
71
100
AcDbEntity
  8
DIBUJOS
 62
     7
  0
POLYLINE
  5
77
330
57
100
AcDbEntity
  8
DIBUJOS
 62
     7
100
AcDb2dPolyline
 66
     1
 10
0.0
 20
0.0
 30
0.0
  0
VERTEX
  5
78
330
77
100
AcDbEntity
  8
DIBUJOS
 62
     7
100
AcDbVertex
100
AcDb2dVertex
 10
46.74579374045616
 20
48.7811563207603
 30
0.0
  0
VERTEX
  5
79
330
77
100
AcDbEntity
  8
DIBUJOS
 62
     7
100
AcDbVertex
100
AcDb2dVertex
 10
46.7401211786072
 20
48.7811563207603
 30
0.0
  0
SEQEND
  5
7A
330
77
100
AcDbEntity
  8
DIBUJOS
 62
     7
  0
POLYLINE
  5
7B
330
57
100
AcDbEntity
  8
DIBUJOS
 62
     7
100
AcDb2dPolyline
 66
     1
 10
0.0
 20
0.0
 30
0.0
  0
VERTEX
  5
7C
330
7B
100
AcDbEntity
  8
DIBUJOS
 62
     7
100
AcDbVertex
100
AcDb2dVertex
 10
46.75146477578139
 20
48.7811563207603
 30
0.0
  0
VERTEX
  5
7D
330
7B
100
AcDbEntity
  8
DIBUJOS
 62
     7
100
AcDbVertex
100
AcDb2dVertex
 10
46.74579374045616
 20
48.7811563207603
 30
0.0
  0
SEQEND
  5
7E
330
7B
100
AcDbEntity
  8
DIBUJOS
 62
     7
  0
POLYLINE
  5
7F
330
57
100
AcDbEntity
  8
DIBUJOS
 62
     7
100
AcDb2dPolyline
 66
     1
 10
0.0
 20
0.0
 30
0.0
  0
VERTEX
  5
80
330
7F
100
AcDbEntity
  8
DIBUJOS
 62
     7
100
AcDbVertex
100
AcDb2dVertex
 10
47.50579948587473
 20
48.7811563207603
 30
0.0
  0
VERTEX
  5
81
330
7F
100
AcDbEntity
  8
DIBUJOS
 62
     7
100
AcDbVertex
100
AcDb2dVertex
 10
47.47176869435311
 20
48.78682582956212
 30
0.0
  0
VERTEX
  5
82
330
7F
100
AcDbEntity
  8
DIBUJOS
 62
     7
100
AcDbVertex
100
AcDb2dVertex
 10
46.76797870852612
 20
48.78315606672975
 30
0.0
  0
VERTEX
  5
83
330
7F
100
AcDbEntity
  8
DIBUJOS
 62
     7
100
AcDbVertex
100
AcDb2dVertex
 10
46.75146477578139
 20
48.7811563207603
 30
0.0
  0
SEQEND
  5
84
330
7F
100
AcDbEntity
  8
DIBUJOS
 62
     7
  0
POLYLINE
  5
85
330
57
100
AcDbEntity
  8
DIBUJOS
 62
     7
100
AcDb2dPolyline
 66
     1
 10
0.0
 20
0.0
 30
0.0
  0
VERTEX
  5
86
330
85
100
AcDbEntity
  8
DIBUJOS
 62
     7
100
AcDbVertex
100
AcDb2dVertex
 10
47.51147052119995
 20
48.7811563207603
 30
0.0
  0
VERTEX
  5
87
330
85
100
AcDbEntity
  8
DIBUJOS
 62
     7
100
AcDbVertex
100
AcDb2dVertex
 10
47.50579948587473
 20
48.7811563207603
 30
0.0
  0
SEQEND
  5
88
330
85
100
AcDbEntity
  8
DIBUJOS
 62
     7
  0
POLYLINE
  5
89
330
57
100
AcDbEntity
  8
DIBUJOS
 62
     7
100
AcDb2dPolyline
 66
     1
 10
0.0
 20
0.0
 30
0.0
  0
VERTEX
  5
8A
330
89
100
AcDbEntity
  8
DIBUJOS
 62
     7
100
AcDbVertex
100
AcDb2dVertex
 10
47.51714308304891
 20
48.7811563207603
 30
0.0
  0
VERTEX
  5
8B
330
89
100
AcDbEntity
  8
DIBUJOS
 62
     7
100
AcDbVertex
100
AcDb2dVertex
 10
47.51147052119995
 20
48.7811563207603
 30
0.0
  0
SEQEND
  5
8C
330
89
100
AcDbEntity
  8
DIBUJOS
 62
     7
  0
POLYLINE
  5
8D
330
57
100
AcDbEntity
  8
DIBUJOS
 62
     7
100
AcDb2dPolyline
 66
     1
 10
0.0
 20
0.0
 30
0.0
  0
VERTEX
  5
8E
330
8D
100
AcDbEntity
  8
DIBUJOS
 62
     7
100
AcDbVertex
100
AcDb2dVertex
 10
47.51714308304891
 20
48.7811563207603
 30
0.0
  0
VERTEX
  5
8F
330
8D
100
AcDbEntity
  8
DIBUJOS
 62
     7
100
AcDbVertex
100
AcDb2dVertex
 10
50.0183566478885
 20
48.78682582956212
 30
0.0
  0
VERTEX
  5
90
330
8D
100
AcDbEntity
  8
DIBUJOS
 62
     7
100
AcDbVertex
100
AcDb2dVertex
 10
50.02970024506237
 20
48.82085814760747
 30
0.0
  0
VERTEX
  5
91
330
8D
100
AcDbEntity
  8
DIBUJOS
 62
     7
100
AcDbVertex
100
AcDb2dVertex
 10
50.02402768321341
 20
48.82652765640897
 30
0.0
  0
VERTEX
  5
92
330
8D
100
AcDbEntity
  8
DIBUJOS
 62
     7
100
AcDbVertex
100
AcDb2dVertex
 10
50.02970024506237
 20
48.96264776944958
 30
0.0
  0
VERTEX
  5
93
330
8D
100
AcDbEntity
  8
DIBUJOS
 62
     7
100
AcDbVertex
100
AcDb2dVertex
 10
50.0183566478885
 20
48.97399289314718
 30
0.0
  0
VERTEX
  5
94
330
8D
100
AcDbEntity
  8
DIBUJOS
 62
     7
100
AcDbVertex
100
AcDb2dVertex
 10
41.16485307730862
 20
48.97399289314718
 30
0.0
  0
VERTEX
  5
95
330
8D
100
AcDbEntity
  8
DIBUJOS
 62
     7
100
AcDbVertex
100
AcDb2dVertex
 10
41.15351024339629
 20
48.96264776944958
 30
0.0
  0
VERTEX
  5
96
330
8D
100
AcDbEntity
  8
DIBUJOS
 62
     7
100
AcDbVertex
100
AcDb2dVertex
 10
41.15351024339629
 20
48.79249839141076
 30
0.0
  0
VERTEX
  5
97
330
8D
100
AcDbEntity
  8
DIBUJOS
 62
     7
100
AcDbVertex
100
AcDb2dVertex
 10
43.643380211062
 20
48.7811563207603
 30
0.0
  0
SEQEND
  5
98
330
8D
100
AcDbEntity
  8
DIBUJOS
 62
     7
  0
POLYLINE
  5
99
330
57
100
AcDbEntity
  8
DIBUJOS
 62
     7
100
AcDb2dPolyline
 66
     1
 10
0.0
 20
0.0
 30
0.0
  0
VERTEX
  5
9A
330
99
100
AcDbEntity
  8
DIBUJOS
 62
     7
100
AcDbVertex
100
AcDb2dVertex
 10
43.64905277291096
 20
48.77548375891165
 30
0.0
  0
VERTEX
  5
9B
330
99
100
AcDbEntity
  8
DIBUJOS
 62
     7
100
AcDbVertex
100
AcDb2dVertex
 10
43.64905277291096
 20
48.7811563207603
 30
0.0
  0
SEQEND
  5
9C
330
99
100
AcDbEntity
  8
DIBUJOS
 62
     7
  0
POLYLINE
  5
9D
330
57
100
AcDbEntity
  8
DIBUJOS
 62
     7
100
AcDb2dPolyline
 66
     1
 10
0.0
 20
0.0
 30
0.0
  0
VERTEX
  5
9E
330
9D
100
AcDbEntity
  8
DIBUJOS
 62
     7
100
AcDbVertex
100
AcDb2dVertex
 10
44.41472955365508
 20
48.77548375891165
 30
0.0
  0
VERTEX
  5
9F
330
9D
100
AcDbEntity
  8
DIBUJOS
 62
     7
100
AcDbVertex
100
AcDb2dVertex
 10
44.41472955365508
 20
48.7811563207603
 30
0.0
  0
SEQEND
  5
A0
330
9D
100
AcDbEntity
  8
DIBUJOS
 62
     7
  0
POLYLINE
  5
A1
330
57
100
AcDbEntity
  8
DIBUJOS
 62
     7
100
AcDb2dPolyline
 66
     1
 10
0.0
 20
0.0
 30
0.0
  0
VERTEX
  5
A2
330
A1
100
AcDbEntity
  8
DIBUJOS
 62
     7
100
AcDbVertex
100
AcDb2dVertex
 10
46.74579374045616
 20
48.77548375891165
 30
0.0
  0
VERTEX
  5
A3
330
A1
100
AcDbEntity
  8
DIBUJOS
 62
     7
100
AcDbVertex
100
AcDb2dVertex
 10
46.74579374045616
 20
48.7811563207603
 30
0.0
  0
SEQEND
  5
A4
330
A1
100
AcDbEntity
  8
DIBUJOS
 62
     7
  0
POLYLINE
  5
A5
330
57
100
AcDbEntity
  8
DIBUJOS
 62
     7
100
AcDb2dPolyline
 66
     1
 10
0.0
 20
0.0
 30
0.0
  0
VERTEX
  5
A6
330
A5
100
AcDbEntity
  8
DIBUJOS
 62
     7
100
AcDbVertex
100
AcDb2dVertex
 10
47.51147052119995
 20
48.77548375891165
 30
0.0
  0
VERTEX
  5
A7
330
A5
100
AcDbEntity
  8
DIBUJOS
 62
     7
100
AcDbVertex
100
AcDb2dVertex
 10
47.51147052119995
 20
48.7811563207603
 30
0.0
  0
SEQEND
  5
A8
330
A5
100
AcDbEntity
  8
DIBUJOS
 62
     7
  0
POLYLINE
  5
A9
330
57
100
AcDbEntity
  8
DIBUJOS
 62
     7
100
AcDb2dPolyline
 66
     1
 10
0.0
 20
0.0
 30
0.0
  0
VERTEX
  5
AA
330
A9
100
AcDbEntity
  8
DIBUJOS
 62
     7
100
AcDbVertex
100
AcDb2dVertex
 10
44.41472955365508
 20
48.77548375891165
 30
0.0
  0
VERTEX
  5
AB
330
A9
100
AcDbEntity
  8
DIBUJOS
 62
     7
100
AcDbVertex
100
AcDb2dVertex
 10
44.45443138050192
 20
48.71876729956538
 30
0.0
  0
VERTEX
  5
AC
330
A9
100
AcDbEntity
  8
DIBUJOS
 62
     7
100
AcDbVertex
100
AcDb2dVertex
 10
44.45443138050192
 20
48.69040754336868
 30
0.0
  0
VERTEX
  5
AD
330
A9
100
AcDbEntity
  8
DIBUJOS
 62
     7
100
AcDbVertex
100
AcDb2dVertex
 10
44.44705827131742
 20
48.67396077766412
 30
0.0
  0
VERTEX
  5
AE
330
A9
100
AcDbEntity
  8
DIBUJOS
 62
     7
100
AcDbVertex
100
AcDb2dVertex
 10
44.44422199039278
 20
48.66715553527416
 30
0.0
  0
VERTEX
  5
AF
330
A9
100
AcDbEntity
  8
DIBUJOS
 62
     7
100
AcDbVertex
100
AcDb2dVertex
 10
44.41472955365508
 20
48.63369108402272
 30
0.0
  0
VERTEX
  5
B0
330
A9
100
AcDbEntity
  8
DIBUJOS
 62
     7
100
AcDbVertex
100
AcDb2dVertex
 10
44.39727833539461
 20
48.63020145097993
 30
0.0
  0
VERTEX
  5
B1
330
A9
100
AcDbEntity
  8
DIBUJOS
 62
     7
100
AcDbVertex
100
AcDb2dVertex
 10
44.37546431256895
 20
48.62583864641473
 30
0.0
  0
VERTEX
  5
B2
330
A9
100
AcDbEntity
  8
DIBUJOS
 62
     7
100
AcDbVertex
100
AcDb2dVertex
 10
44.21054938409432
 20
48.62801852217377
 30
0.0
  0
VERTEX
  5
B3
330
A9
100
AcDbEntity
  8
DIBUJOS
 62
     7
100
AcDbVertex
100
AcDb2dVertex
 10
43.71711282943079
 20
48.62801852217377
 30
0.0
  0
VERTEX
  5
B4
330
A9
100
AcDbEntity
  8
DIBUJOS
 62
     7
100
AcDbVertex
100
AcDb2dVertex
 10
43.6717384407353
 20
48.60533132782602
 30
0.0
  0
VERTEX
  5
B5
330
A9
100
AcDbEntity
  8
DIBUJOS
 62
     7
100
AcDbVertex
100
AcDb2dVertex
 10
43.61071107862768
 20
48.53625308003738
 30
0.0
  0
VERTEX
  5
B6
330
A9
100
AcDbEntity
  8
DIBUJOS
 62
     7
100
AcDbVertex
100
AcDb2dVertex
 10
43.57134966655249
 20
48.45162871549208
 30
0.0
  0
VERTEX
  5
B7
330
A9
100
AcDbEntity
  8
DIBUJOS
 62
     7
100
AcDbVertex
100
AcDb2dVertex
 10
43.56197528487512
 20
48.41866801704249
 30
0.0
  0
VERTEX
  5
B8
330
A9
100
AcDbEntity
  8
DIBUJOS
 62
     7
100
AcDbVertex
100
AcDb2dVertex
 10
43.37442964342714
 20
47.27849835066989
 30
0.0
  0
VERTEX
  5
B9
330
A9
100
AcDbEntity
  8
DIBUJOS
 62
     7
100
AcDbVertex
100
AcDb2dVertex
 10
43.25540659516307
 20
46.54689357758612
 30
0.0
  0
VERTEX
  5
BA
330
A9
100
AcDbEntity
  8
DIBUJOS
 62
     7
100
AcDbVertex
100
AcDb2dVertex
 10
42.5090433915211
 20
41.95811466491926
 30
0.0
  0
VERTEX
  5
BB
330
A9
100
AcDbEntity
  8
DIBUJOS
 62
     7
100
AcDbVertex
100
AcDb2dVertex
 10
42.5090433915211
 20
41.84468174622736
 30
0.0
  0
VERTEX
  5
BC
330
A9
100
AcDbEntity
  8
DIBUJOS
 62
     7
100
AcDbVertex
100
AcDb2dVertex
 10
42.52238826118784
 20
41.79413854848379
 30
0.0
  0
VERTEX
  5
BD
330
A9
100
AcDbEntity
  8
DIBUJOS
 62
     7
100
AcDbVertex
100
AcDb2dVertex
 10
42.55441625369318
 20
41.72557626568553
 30
0.0
  0
VERTEX
  5
BE
330
A9
100
AcDbEntity
  8
DIBUJOS
 62
     7
100
AcDbVertex
100
AcDb2dVertex
 10
42.58844628195261
 20
41.69721956253628
 30
0.0
  0
VERTEX
  5
BF
330
A9
100
AcDbEntity
  8
DIBUJOS
 62
     7
100
AcDbVertex
100
AcDb2dVertex
 10
42.63949170597397
 20
41.69721956253628
 30
0.0
  0
VERTEX
  5
C0
330
A9
100
AcDbEntity
  8
DIBUJOS
 62
     7
100
AcDbVertex
100
AcDb2dVertex
 10
44.66394369713902
 20
42.02288506299369
 30
0.0
  0
VERTEX
  5
C1
330
A9
100
AcDbEntity
  8
DIBUJOS
 62
     7
100
AcDbVertex
100
AcDb2dVertex
 10
44.73196101099704
 20
42.03414775441449
 30
0.0
  0
VERTEX
  5
C2
330
A9
100
AcDbEntity
  8
DIBUJOS
 62
     7
100
AcDbVertex
100
AcDb2dVertex
 10
44.94803432624213
 20
42.05755852096801
 30
0.0
  0
VERTEX
  5
C3
330
A9
100
AcDbEntity
  8
DIBUJOS
 62
     7
100
AcDbVertex
100
AcDb2dVertex
 10
45.03277775963144
 20
42.06285555800149
 30
0.0
  0
VERTEX
  5
C4
330
A9
100
AcDbEntity
  8
DIBUJOS
 62
     7
100
AcDbVertex
100
AcDb2dVertex
 10
45.15772066657485
 20
42.07155063665862
 30
0.0
  0
VERTEX
  5
C5
330
A9
100
AcDbEntity
  8
DIBUJOS
 62
     7
100
AcDbVertex
100
AcDb2dVertex
 10
45.99713006568775
 20
42.07155063665862
 30
0.0
  0
VERTEX
  5
C6
330
A9
100
AcDbEntity
  8
DIBUJOS
 62
     7
100
AcDbVertex
100
AcDb2dVertex
 10
46.12746160108221
 20
42.06317002187171
 30
0.0
  0
VERTEX
  5
C7
330
A9
100
AcDbEntity
  8
DIBUJOS
 62
     7
100
AcDbVertex
100
AcDb2dVertex
 10
46.28051391434481
 20
42.0519317548283
 30
0.0
  0
VERTEX
  5
C8
330
A9
100
AcDbEntity
  8
DIBUJOS
 62
     7
100
AcDbVertex
100
AcDb2dVertex
 10
46.49589876742794
 20
42.02379487108298
 30
0.0
  0
VERTEX
  5
C9
330
A9
100
AcDbEntity
  8
DIBUJOS
 62
     7
100
AcDbVertex
100
AcDb2dVertex
 10
46.56395882394808
 20
42.01244974738602
 30
0.0
  0
VERTEX
  5
CA
330
A9
100
AcDbEntity
  8
DIBUJOS
 62
     7
100
AcDbVertex
100
AcDb2dVertex
 10
48.52103082487508
 20
41.69721956253628
 30
0.0
  0
VERTEX
  5
CB
330
A9
100
AcDbEntity
  8
DIBUJOS
 62
     7
100
AcDbVertex
100
AcDb2dVertex
 10
48.57831515101558
 20
41.70175639079647
 30
0.0
  0
VERTEX
  5
CC
330
A9
100
AcDbEntity
  8
DIBUJOS
 62
     7
100
AcDbVertex
100
AcDb2dVertex
 10
48.60741527117809
 20
41.73037565601209
 30
0.0
  0
VERTEX
  5
CD
330
A9
100
AcDbEntity
  8
DIBUJOS
 62
     7
100
AcDbVertex
100
AcDb2dVertex
 10
48.62748447748204
 20
41.76047870220646
 30
0.0
  0
VERTEX
  5
CE
330
A9
100
AcDbEntity
  8
DIBUJOS
 62
     7
100
AcDbVertex
100
AcDb2dVertex
 10
48.6384357580804
 20
41.79420571552363
 30
0.0
  0
VERTEX
  5
CF
330
A9
100
AcDbEntity
  8
DIBUJOS
 62
     7
100
AcDbVertex
100
AcDb2dVertex
 10
48.65715093791505
 20
41.89572869677149
 30
0.0
  0
VERTEX
  5
D0
330
A9
100
AcDbEntity
  8
DIBUJOS
 62
     7
100
AcDbVertex
100
AcDb2dVertex
 10
47.88917368604481
 20
46.65389067260958
 30
0.0
  0
VERTEX
  5
D1
330
A9
100
AcDbEntity
  8
DIBUJOS
 62
     7
100
AcDbVertex
100
AcDb2dVertex
 10
47.76439717017839
 20
47.42524001520233
 30
0.0
  0
VERTEX
  5
D2
330
A9
100
AcDbEntity
  8
DIBUJOS
 62
     7
100
AcDbVertex
100
AcDb2dVertex
 10
47.59824728407848
 20
48.42440469288415
 30
0.0
  0
VERTEX
  5
D3
330
A9
100
AcDbEntity
  8
DIBUJOS
 62
     7
100
AcDbVertex
100
AcDb2dVertex
 10
47.58350106570947
 20
48.46864640103864
 30
0.0
  0
VERTEX
  5
D4
330
A9
100
AcDbEntity
  8
DIBUJOS
 62
     7
100
AcDbVertex
100
AcDb2dVertex
 10
47.55248210533057
 20
48.53247340750305
 30
0.0
  0
VERTEX
  5
D5
330
A9
100
AcDbEntity
  8
DIBUJOS
 62
     7
100
AcDbVertex
100
AcDb2dVertex
 10
47.54113850815669
 20
48.54948804000215
 30
0.0
  0
VERTEX
  5
D6
330
A9
100
AcDbEntity
  8
DIBUJOS
 62
     7
100
AcDbVertex
100
AcDb2dVertex
 10
47.49445588870117
 20
48.59966181902452
 30
0.0
  0
VERTEX
  5
D7
330
A9
100
AcDbEntity
  8
DIBUJOS
 62
     7
100
AcDbVertex
100
AcDb2dVertex
 10
47.48980457116784
 20
48.60102347811181
 30
0.0
  0
VERTEX
  5
D8
330
A9
100
AcDbEntity
  8
DIBUJOS
 62
     7
100
AcDbVertex
100
AcDb2dVertex
 10
47.44341046467981
 20
48.62801852217377
 30
0.0
  0
VERTEX
  5
D9
330
A9
100
AcDbEntity
  8
DIBUJOS
 62
     7
100
AcDbVertex
100
AcDb2dVertex
 10
46.7793223057003
 20
48.62601877620463
 30
0.0
  0
VERTEX
  5
DA
330
A9
100
AcDbEntity
  8
DIBUJOS
 62
     7
100
AcDbVertex
100
AcDb2dVertex
 10
46.74579374045616
 20
48.63369108402272
 30
0.0
  0
VERTEX
  5
DB
330
A9
100
AcDbEntity
  8
DIBUJOS
 62
     7
100
AcDbVertex
100
AcDb2dVertex
 10
46.71743398425946
 20
48.66205084021911
 30
0.0
  0
VERTEX
  5
DC
330
A9
100
AcDbEntity
  8
DIBUJOS
 62
     7
100
AcDbVertex
100
AcDb2dVertex
 10
46.7134650227935
 20
48.67963333951244
 30
0.0
  0
VERTEX
  5
DD
330
A9
100
AcDbEntity
  8
DIBUJOS
 62
     7
100
AcDbVertex
100
AcDb2dVertex
 10
46.70609191360899
 20
48.71309473771706
 30
0.0
  0
VERTEX
  5
DE
330
A9
100
AcDbEntity
  8
DIBUJOS
 62
     7
100
AcDbVertex
100
AcDb2dVertex
 10
46.74579374045616
 20
48.77548375891165
 30
0.0
  0
SEQEND
  5
DF
330
A9
100
AcDbEntity
  8
DIBUJOS
 62
     7
  0
POLYLINE
  5
E0
330
57
100
AcDbEntity
  8
DIBUJOS
 62
     7
100
AcDb2dPolyline
 66
     1
 10
0.0
 20
0.0
 30
0.0
  0
VERTEX
  5
E1
330
E0
100
AcDbEntity
  8
DIBUJOS
 62
     7
100
AcDbVertex
100
AcDb2dVertex
 10
42.74158255401606
 20
41.55542688764735
 30
0.0
  0
VERTEX
  5
E2
330
E0
100
AcDbEntity
  8
DIBUJOS
 62
     7
100
AcDbVertex
100
AcDb2dVertex
 10
42.73591075542896
 20
41.56109639644885
 30
0.0
  0
VERTEX
  5
E3
330
E0
100
AcDbEntity
  8
DIBUJOS
 62
     7
100
AcDbVertex
100
AcDb2dVertex
 10
42.71322356108122
 20
41.56109639644885
 30
0.0
  0
SEQEND
  5
E4
330
E0
100
AcDbEntity
  8
DIBUJOS
 62
     7
  0
POLYLINE
  5
E5
330
57
100
AcDbEntity
  8
DIBUJOS
 62
     7
100
AcDb2dPolyline
 66
     1
 10
0.0
 20
0.0
 30
0.0
  0
VERTEX
  5
E6
330
E5
100
AcDbEntity
  8
DIBUJOS
 62
     7
100
AcDbVertex
100
AcDb2dVertex
 10
48.41893997683299
 20
41.55542688764735
 30
0.0
  0
VERTEX
  5
E7
330
E5
100
AcDbEntity
  8
DIBUJOS
 62
     7
100
AcDbVertex
100
AcDb2dVertex
 10
48.42461253868228
 20
41.56109639644885
 30
0.0
  0
VERTEX
  5
E8
330
E5
100
AcDbEntity
  8
DIBUJOS
 62
     7
100
AcDbVertex
100
AcDb2dVertex
 10
48.4472997330297
 20
41.56109639644885
 30
0.0
  0
SEQEND
  5
E9
330
E5
100
AcDbEntity
  8
DIBUJOS
 62
     7
  0
POLYLINE
  5
EA
330
57
100
AcDbEntity
  8
DIBUJOS
 62
     7
100
AcDb2dPolyline
 66
     1
 10
0.0
 20
0.0
 30
0.0
  0
VERTEX
  5
EB
330
EA
100
AcDbEntity
  8
DIBUJOS
 62
     7
100
AcDbVertex
100
AcDb2dVertex
 10
42.74158255401606
 20
41.54975432579839
 30
0.0
  0
VERTEX
  5
EC
330
EA
100
AcDbEntity
  8
DIBUJOS
 62
     7
100
AcDbVertex
100
AcDb2dVertex
 10
42.74158255401606
 20
41.55542688764735
 30
0.0
  0
SEQEND
  5
ED
330
EA
100
AcDbEntity
  8
DIBUJOS
 62
     7
  0
POLYLINE
  5
EE
330
57
100
AcDbEntity
  8
DIBUJOS
 62
     7
100
AcDb2dPolyline
 66
     1
 10
0.0
 20
0.0
 30
0.0
  0
VERTEX
  5
EF
330
EE
100
AcDbEntity
  8
DIBUJOS
 62
     7
100
AcDbVertex
100
AcDb2dVertex
 10
42.74725358934129
 20
41.54975432579839
 30
0.0
  0
VERTEX
  5
F0
330
EE
100
AcDbEntity
  8
DIBUJOS
 62
     7
100
AcDbVertex
100
AcDb2dVertex
 10
42.74158255401606
 20
41.54975432579839
 30
0.0
  0
SEQEND
  5
F1
330
EE
100
AcDbEntity
  8
DIBUJOS
 62
     7
  0
POLYLINE
  5
F2
330
57
100
AcDbEntity
  8
DIBUJOS
 62
     7
100
AcDb2dPolyline
 66
     1
 10
0.0
 20
0.0
 30
0.0
  0
VERTEX
  5
F3
330
F2
100
AcDbEntity
  8
DIBUJOS
 62
     7
100
AcDbVertex
100
AcDb2dVertex
 10
48.41326894150745
 20
41.54975432579839
 30
0.0
  0
VERTEX
  5
F4
330
F2
100
AcDbEntity
  8
DIBUJOS
 62
     7
100
AcDbVertex
100
AcDb2dVertex
 10
48.34486847021596
 20
41.56438758141798
 30
0.0
  0
VERTEX
  5
F5
330
F2
100
AcDbEntity
  8
DIBUJOS
 62
     7
100
AcDbVertex
100
AcDb2dVertex
 10
48.31151850823767
 20
41.56915033517733
 30
0.0
  0
VERTEX
  5
F6
330
F2
100
AcDbEntity
  8
DIBUJOS
 62
     7
100
AcDbVertex
100
AcDb2dVertex
 10
46.30316905169684
 20
41.88749768130089
 30
0.0
  0
VERTEX
  5
F7
330
F2
100
AcDbEntity
  8
DIBUJOS
 62
     7
100
AcDbVertex
100
AcDb2dVertex
 10
46.2469166555371
 20
41.89261153549702
 30
0.0
  0
VERTEX
  5
F8
330
F2
100
AcDbEntity
  8
DIBUJOS
 62
     7
100
AcDbVertex
100
AcDb2dVertex
 10
45.88945977373863
 20
41.90980935083316
 30
0.0
  0
VERTEX
  5
F9
330
F2
100
AcDbEntity
  8
DIBUJOS
 62
     7
100
AcDbVertex
100
AcDb2dVertex
 10
45.24837021992931
 20
41.90980324473858
 30
0.0
  0
VERTEX
  5
FA
330
F2
100
AcDbEntity
  8
DIBUJOS
 62
     7
100
AcDbVertex
100
AcDb2dVertex
 10
45.09542934289272
 20
41.904338290105
 30
0.0
  0
VERTEX
  5
FB
330
F2
100
AcDbEntity
  8
DIBUJOS
 62
     7
100
AcDbVertex
100
AcDb2dVertex
 10
44.86304512254681
 20
41.88752821177415
 30
0.0
  0
VERTEX
  5
FC
330
F2
100
AcDbEntity
  8
DIBUJOS
 62
     7
100
AcDbVertex
100
AcDb2dVertex
 10
44.85686880789697
 20
41.88691149622289
 30
0.0
  0
VERTEX
  5
FD
330
F2
100
AcDbEntity
  8
DIBUJOS
 62
     7
100
AcDbVertex
100
AcDb2dVertex
 10
42.8773187463607
 20
41.57474046474917
 30
0.0
  0
VERTEX
  5
FE
330
F2
100
AcDbEntity
  8
DIBUJOS
 62
     7
100
AcDbVertex
100
AcDb2dVertex
 10
42.74725358934129
 20
41.54975432579839
 30
0.0
  0
SEQEND
  5
FF
330
F2
100
AcDbEntity
  8
DIBUJOS
 62
     7
  0
POLYLINE
  5
100
330
57
100
AcDbEntity
  8
DIBUJOS
 62
     7
100
AcDb2dPolyline
 66
     1
 10
0.0
 20
0.0
 30
0.0
  0
VERTEX
  5
101
330
100
100
AcDbEntity
  8
DIBUJOS
 62
     7
100
AcDbVertex
100
AcDb2dVertex
 10
48.41893997683299
 20
41.54975432579839
 30
0.0
  0
VERTEX
  5
102
330
100
100
AcDbEntity
  8
DIBUJOS
 62
     7
100
AcDbVertex
100
AcDb2dVertex
 10
48.41326894150745
 20
41.54975432579839
 30
0.0
  0
SEQEND
  5
103
330
100
100
AcDbEntity
  8
DIBUJOS
 62
     7
  0
POLYLINE
  5
104
330
57
100
AcDbEntity
  8
DIBUJOS
 62
     7
100
AcDb2dPolyline
 66
     1
 10
0.0
 20
0.0
 30
0.0
  0
VERTEX
  5
105
330
104
100
AcDbEntity
  8
DIBUJOS
 62
     7
100
AcDbVertex
100
AcDb2dVertex
 10
48.41893997683299
 20
41.54975432579839
 30
0.0
  0
VERTEX
  5
106
330
104
100
AcDbEntity
  8
DIBUJOS
 62
     7
100
AcDbVertex
100
AcDb2dVertex
 10
48.41893997683299
 20
41.55542688764735
 30
0.0
  0
SEQEND
  5
107
330
104
100
AcDbEntity
  8
DIBUJOS
 62
     7
  0
POLYLINE
  5
108
330
57
100
AcDbEntity
  8
DIBUJOS
 62
     7
100
AcDb2dPolyline
 66
     1
 10
0.0
 20
0.0
 30
0.0
  0
VERTEX
  5
109
330
108
100
AcDbEntity
  8
DIBUJOS
 62
     7
100
AcDbVertex
100
AcDb2dVertex
 10
42.53172982260698
 20
41.54408176394943
 30
0.0
  0
VERTEX
  5
10A
330
108
100
AcDbEntity
  8
DIBUJOS
 62
     7
100
AcDbVertex
100
AcDb2dVertex
 10
42.49713269081455
 20
41.5656362777565
 30
0.0
  0
VERTEX
  5
10B
330
108
100
AcDbEntity
  8
DIBUJOS
 62
     7
100
AcDbVertex
100
AcDb2dVertex
 10
42.48068439858594
 20
41.57244152014581
 30
0.0
  0
VERTEX
  5
10C
330
108
100
AcDbEntity
  8
DIBUJOS
 62
     7
100
AcDbVertex
100
AcDb2dVertex
 10
42.44665437032587
 20
41.60647078514467
 30
0.0
  0
VERTEX
  5
10D
330
108
100
AcDbEntity
  8
DIBUJOS
 62
     7
100
AcDbVertex
100
AcDb2dVertex
 10
42.41393333608769
 20
41.65271834536287
 30
0.0
  0
VERTEX
  5
10E
330
108
100
AcDbEntity
  8
DIBUJOS
 62
     7
100
AcDbVertex
100
AcDb2dVertex
 10
42.3709204794639
 20
41.74776276027953
 30
0.0
  0
VERTEX
  5
10F
330
108
100
AcDbEntity
  8
DIBUJOS
 62
     7
100
AcDbVertex
100
AcDb2dVertex
 10
42.35987760744734
 20
41.78172485823789
 30
0.0
  0
VERTEX
  5
110
330
108
100
AcDbEntity
  8
DIBUJOS
 62
     7
100
AcDbVertex
100
AcDb2dVertex
 10
42.34456428554565
 20
41.90707076742163
 30
0.0
  0
VERTEX
  5
111
330
108
100
AcDbEntity
  8
DIBUJOS
 62
     7
100
AcDbVertex
100
AcDb2dVertex
 10
42.35820682732256
 20
42.01444949335516
 30
0.0
  0
VERTEX
  5
112
330
108
100
AcDbEntity
  8
DIBUJOS
 62
     7
100
AcDbVertex
100
AcDb2dVertex
 10
43.40316797748709
 20
48.44135521139054
 30
0.0
  0
VERTEX
  5
113
330
108
100
AcDbEntity
  8
DIBUJOS
 62
     7
100
AcDbVertex
100
AcDb2dVertex
 10
43.44090058883712
 20
48.55371956353416
 30
0.0
  0
VERTEX
  5
114
330
108
100
AcDbEntity
  8
DIBUJOS
 62
     7
100
AcDbVertex
100
AcDb2dVertex
 10
43.51293113334695
 20
48.67339291086957
 30
0.0
  0
VERTEX
  5
115
330
108
100
AcDbEntity
  8
DIBUJOS
 62
     7
100
AcDbVertex
100
AcDb2dVertex
 10
43.56964911921695
 20
48.73010937021585
 30
0.0
  0
VERTEX
  5
116
330
108
100
AcDbEntity
  8
DIBUJOS
 62
     7
100
AcDbVertex
100
AcDb2dVertex
 10
43.64905277291096
 20
48.77548375891165
 30
0.0
  0
SEQEND
  5
117
330
108
100
AcDbEntity
  8
DIBUJOS
 62
     7
  0
POLYLINE
  5
118
330
57
100
AcDbEntity
  8
DIBUJOS
 62
     7
100
AcDb2dPolyline
 66
     1
 10
0.0
 20
0.0
 30
0.0
  0
VERTEX
  5
119
330
118
100
AcDbEntity
  8
DIBUJOS
 62
     7
100
AcDbVertex
100
AcDb2dVertex
 10
42.74158255401606
 20
41.54408176394943
 30
0.0
  0
VERTEX
  5
11A
330
118
100
AcDbEntity
  8
DIBUJOS
 62
     7
100
AcDbVertex
100
AcDb2dVertex
 10
42.74158255401606
 20
41.54975432579839
 30
0.0
  0
SEQEND
  5
11B
330
118
100
AcDbEntity
  8
DIBUJOS
 62
     7
  0
POLYLINE
  5
11C
330
57
100
AcDbEntity
  8
DIBUJOS
 62
     7
100
AcDb2dPolyline
 66
     1
 10
0.0
 20
0.0
 30
0.0
  0
VERTEX
  5
11D
330
11C
100
AcDbEntity
  8
DIBUJOS
 62
     7
100
AcDbVertex
100
AcDb2dVertex
 10
48.41893997683299
 20
41.54408176394943
 30
0.0
  0
VERTEX
  5
11E
330
11C
100
AcDbEntity
  8
DIBUJOS
 62
     7
100
AcDbVertex
100
AcDb2dVertex
 10
48.41893997683299
 20
41.54975432579839
 30
0.0
  0
SEQEND
  5
11F
330
11C
100
AcDbEntity
  8
DIBUJOS
 62
     7
  0
POLYLINE
  5
120
330
57
100
AcDbEntity
  8
DIBUJOS
 62
     7
100
AcDb2dPolyline
 66
     1
 10
0.0
 20
0.0
 30
0.0
  0
VERTEX
  5
121
330
120
100
AcDbEntity
  8
DIBUJOS
 62
     7
100
AcDbVertex
100
AcDb2dVertex
 10
48.62879270824207
 20
41.54408176394943
 30
0.0
  0
VERTEX
  5
122
330
120
100
AcDbEntity
  8
DIBUJOS
 62
     7
100
AcDbVertex
100
AcDb2dVertex
 10
48.66338984003483
 20
41.5656362777565
 30
0.0
  0
VERTEX
  5
123
330
120
100
AcDbEntity
  8
DIBUJOS
 62
     7
100
AcDbVertex
100
AcDb2dVertex
 10
48.70819636193641
 20
41.60079822329602
 30
0.0
  0
VERTEX
  5
124
330
120
100
AcDbEntity
  8
DIBUJOS
 62
     7
100
AcDbVertex
100
AcDb2dVertex
 10
48.74676398171789
 20
41.6524130406347
 30
0.0
  0
VERTEX
  5
125
330
120
100
AcDbEntity
  8
DIBUJOS
 62
     7
100
AcDbVertex
100
AcDb2dVertex
 10
48.79497312481494
 20
41.75904071693665
 30
0.0
  0
VERTEX
  5
126
330
120
100
AcDbEntity
  8
DIBUJOS
 62
     7
100
AcDbVertex
100
AcDb2dVertex
 10
48.80776081335257
 20
41.8052333223042
 30
0.0
  0
VERTEX
  5
127
330
120
100
AcDbEntity
  8
DIBUJOS
 62
     7
100
AcDbVertex
100
AcDb2dVertex
 10
48.81595824530341
 20
41.92975796176937
 30
0.0
  0
VERTEX
  5
128
330
120
100
AcDbEntity
  8
DIBUJOS
 62
     7
100
AcDbVertex
100
AcDb2dVertex
 10
48.80132651620754
 20
42.02651513621107
 30
0.0
  0
VERTEX
  5
129
330
120
100
AcDbEntity
  8
DIBUJOS
 62
     7
100
AcDbVertex
100
AcDb2dVertex
 10
47.75884367717344
 20
48.44041792587512
 30
0.0
  0
VERTEX
  5
12A
330
120
100
AcDbEntity
  8
DIBUJOS
 62
     7
100
AcDbVertex
100
AcDb2dVertex
 10
47.72245745967439
 20
48.54918273527429
 30
0.0
  0
VERTEX
  5
12B
330
120
100
AcDbEntity
  8
DIBUJOS
 62
     7
100
AcDbVertex
100
AcDb2dVertex
 10
47.66889479817012
 20
48.64392795155704
 30
0.0
  0
VERTEX
  5
12C
330
120
100
AcDbEntity
  8
DIBUJOS
 62
     7
100
AcDbVertex
100
AcDb2dVertex
 10
47.5908741748943
 20
48.73010937021585
 30
0.0
  0
VERTEX
  5
12D
330
120
100
AcDbEntity
  8
DIBUJOS
 62
     7
100
AcDbVertex
100
AcDb2dVertex
 10
47.53358984875379
 20
48.76243808787819
 30
0.0
  0
VERTEX
  5
12E
330
120
100
AcDbEntity
  8
DIBUJOS
 62
     7
100
AcDbVertex
100
AcDb2dVertex
 10
47.51147052119995
 20
48.77548375891165
 30
0.0
  0
SEQEND
  5
12F
330
120
100
AcDbEntity
  8
DIBUJOS
 62
     7
  0
POLYLINE
  5
130
330
57
100
AcDbEntity
  8
DIBUJOS
 62
     7
100
AcDb2dPolyline
 66
     1
 10
0.0
 20
0.0
 30
0.0
  0
VERTEX
  5
131
330
130
100
AcDbEntity
  8
DIBUJOS
 62
     7
100
AcDbVertex
100
AcDb2dVertex
 10
42.53172982260698
 20
41.53841225514793
 30
0.0
  0
VERTEX
  5
132
330
130
100
AcDbEntity
  8
DIBUJOS
 62
     7
100
AcDbVertex
100
AcDb2dVertex
 10
42.53172982260698
 20
41.54408176394943
 30
0.0
  0
SEQEND
  5
133
330
130
100
AcDbEntity
  8
DIBUJOS
 62
     7
  0
POLYLINE
  5
134
330
57
100
AcDbEntity
  8
DIBUJOS
 62
     7
100
AcDb2dPolyline
 66
     1
 10
0.0
 20
0.0
 30
0.0
  0
VERTEX
  5
135
330
134
100
AcDbEntity
  8
DIBUJOS
 62
     7
100
AcDbVertex
100
AcDb2dVertex
 10
42.53740162119408
 20
41.53841225514793
 30
0.0
  0
VERTEX
  5
136
330
134
100
AcDbEntity
  8
DIBUJOS
 62
     7
100
AcDbVertex
100
AcDb2dVertex
 10
42.53172982260698
 20
41.53841225514793
 30
0.0
  0
SEQEND
  5
137
330
134
100
AcDbEntity
  8
DIBUJOS
 62
     7
  0
POLYLINE
  5
138
330
57
100
AcDbEntity
  8
DIBUJOS
 62
     7
100
AcDb2dPolyline
 66
     1
 10
0.0
 20
0.0
 30
0.0
  0
VERTEX
  5
139
330
138
100
AcDbEntity
  8
DIBUJOS
 62
     7
100
AcDbVertex
100
AcDb2dVertex
 10
42.53740162119408
 20
41.53841225514793
 30
0.0
  0
VERTEX
  5
13A
330
138
100
AcDbEntity
  8
DIBUJOS
 62
     7
100
AcDbVertex
100
AcDb2dVertex
 10
42.59978987912681
 20
41.54975432579839
 30
0.0
  0
SEQEND
  5
13B
330
138
100
AcDbEntity
  8
DIBUJOS
 62
     7
  0
POLYLINE
  5
13C
330
57
100
AcDbEntity
  8
DIBUJOS
 62
     7
100
AcDb2dPolyline
 66
     1
 10
0.0
 20
0.0
 30
0.0
  0
VERTEX
  5
13D
330
13C
100
AcDbEntity
  8
DIBUJOS
 62
     7
100
AcDbVertex
100
AcDb2dVertex
 10
48.62312167291684
 20
41.53841225514793
 30
0.0
  0
VERTEX
  5
13E
330
13C
100
AcDbEntity
  8
DIBUJOS
 62
     7
100
AcDbVertex
100
AcDb2dVertex
 10
48.6174491110682
 20
41.54408176394943
 30
0.0
  0
VERTEX
  5
13F
330
13C
100
AcDbEntity
  8
DIBUJOS
 62
     7
100
AcDbVertex
100
AcDb2dVertex
 10
48.60610704041806
 20
41.53841225514793
 30
0.0
  0
VERTEX
  5
140
330
13C
100
AcDbEntity
  8
DIBUJOS
 62
     7
100
AcDbVertex
100
AcDb2dVertex
 10
48.57831515101558
 20
41.5452174975382
 30
0.0
  0
VERTEX
  5
141
330
13C
100
AcDbEntity
  8
DIBUJOS
 62
     7
100
AcDbVertex
100
AcDb2dVertex
 10
48.56073265172225
 20
41.55542688764735
 30
0.0
  0
SEQEND
  5
142
330
13C
100
AcDbEntity
  8
DIBUJOS
 62
     7
  0
POLYLINE
  5
143
330
57
100
AcDbEntity
  8
DIBUJOS
 62
     7
100
AcDb2dPolyline
 66
     1
 10
0.0
 20
0.0
 30
0.0
  0
VERTEX
  5
144
330
143
100
AcDbEntity
  8
DIBUJOS
 62
     7
100
AcDbVertex
100
AcDb2dVertex
 10
48.62879270824207
 20
41.53841225514793
 30
0.0
  0
VERTEX
  5
145
330
143
100
AcDbEntity
  8
DIBUJOS
 62
     7
100
AcDbVertex
100
AcDb2dVertex
 10
48.62312167291684
 20
41.53841225514793
 30
0.0
  0
SEQEND
  5
146
330
143
100
AcDbEntity
  8
DIBUJOS
 62
     7
  0
POLYLINE
  5
147
330
57
100
AcDbEntity
  8
DIBUJOS
 62
     7
100
AcDb2dPolyline
 66
     1
 10
0.0
 20
0.0
 30
0.0
  0
VERTEX
  5
148
330
147
100
AcDbEntity
  8
DIBUJOS
 62
     7
100
AcDbVertex
100
AcDb2dVertex
 10
48.62879270824207
 20
41.53841225514793
 30
0.0
  0
VERTEX
  5
149
330
147
100
AcDbEntity
  8
DIBUJOS
 62
     7
100
AcDbVertex
100
AcDb2dVertex
 10
48.62879270824207
 20
41.54408176394943
 30
0.0
  0
SEQEND
  5
14A
330
147
100
AcDbEntity
  8
DIBUJOS
 62
     7
  0
POLYLINE
  5
14B
330
57
100
AcDbEntity
  8
DIBUJOS
 62
     7
100
AcDb2dPolyline
 66
     1
 10
0.0
 20
0.0
 30
0.0
  0
VERTEX
  5
14C
330
14B
100
AcDbEntity
  8
DIBUJOS
 62
     7
100
AcDbVertex
100
AcDb2dVertex
 10
42.53172982260698
 20
41.53273969329896
 30
0.0
  0
VERTEX
  5
14D
330
14B
100
AcDbEntity
  8
DIBUJOS
 62
     7
100
AcDbVertex
100
AcDb2dVertex
 10
42.53172982260698
 20
41.53841225514793
 30
0.0
  0
SEQEND
  5
14E
330
14B
100
AcDbEntity
  8
DIBUJOS
 62
     7
  0
POLYLINE
  5
14F
330
57
100
AcDbEntity
  8
DIBUJOS
 62
     7
100
AcDb2dPolyline
 66
     1
 10
0.0
 20
0.0
 30
0.0
  0
VERTEX
  5
150
330
14F
100
AcDbEntity
  8
DIBUJOS
 62
     7
100
AcDbVertex
100
AcDb2dVertex
 10
48.62879270824207
 20
41.53273969329896
 30
0.0
  0
VERTEX
  5
151
330
14F
100
AcDbEntity
  8
DIBUJOS
 62
     7
100
AcDbVertex
100
AcDb2dVertex
 10
48.62879270824207
 20
41.53841225514793
 30
0.0
  0
SEQEND
  5
152
330
14F
100
AcDbEntity
  8
DIBUJOS
 62
     7
  0
POLYLINE
  5
153
330
57
100
AcDbEntity
  8
DIBUJOS
 62
     7
100
AcDb2dPolyline
 66
     1
 10
0.0
 20
0.0
 30
0.0
  0
VERTEX
  5
154
330
153
100
AcDbEntity
  8
DIBUJOS
 62
     7
100
AcDbVertex
100
AcDb2dVertex
 10
42.53172982260698
 20
41.53273969329896
 30
0.0
  0
VERTEX
  5
155
330
153
100
AcDbEntity
  8
DIBUJOS
 62
     7
100
AcDbVertex
100
AcDb2dVertex
 10
42.53172982260698
 20
41.50437993710258
 30
0.0
  0
VERTEX
  5
156
330
153
100
AcDbEntity
  8
DIBUJOS
 62
     7
100
AcDbVertex
100
AcDb2dVertex
 10
42.54307341978085
 20
41.49303786645244
 30
0.0
  0
VERTEX
  5
157
330
153
100
AcDbEntity
  8
DIBUJOS
 62
     7
100
AcDbVertex
100
AcDb2dVertex
 10
42.65083530314817
 20
41.49303786645244
 30
0.0
  0
VERTEX
  5
158
330
153
100
AcDbEntity
  8
DIBUJOS
 62
     7
100
AcDbVertex
100
AcDb2dVertex
 10
42.65650710173495
 20
41.49871042830075
 30
0.0
  0
VERTEX
  5
159
330
153
100
AcDbEntity
  8
DIBUJOS
 62
     7
100
AcDbVertex
100
AcDb2dVertex
 10
42.69053712999501
 20
41.49303786645244
 30
0.0
  0
VERTEX
  5
15A
330
153
100
AcDbEntity
  8
DIBUJOS
 62
     7
100
AcDbVertex
100
AcDb2dVertex
 10
42.73023895684187
 20
41.49303786645244
 30
0.0
  0
VERTEX
  5
15B
330
153
100
AcDbEntity
  8
DIBUJOS
 62
     7
100
AcDbVertex
100
AcDb2dVertex
 10
42.74158255401606
 20
41.50437993710258
 30
0.0
  0
VERTEX
  5
15C
330
153
100
AcDbEntity
  8
DIBUJOS
 62
     7
100
AcDbVertex
100
AcDb2dVertex
 10
42.74158255401606
 20
41.54408176394943
 30
0.0
  0
SEQEND
  5
15D
330
153
100
AcDbEntity
  8
DIBUJOS
 62
     7
  0
POLYLINE
  5
15E
330
57
100
AcDbEntity
  8
DIBUJOS
 62
     7
100
AcDb2dPolyline
 66
     1
 10
0.0
 20
0.0
 30
0.0
  0
VERTEX
  5
15F
330
15E
100
AcDbEntity
  8
DIBUJOS
 62
     7
100
AcDbVertex
100
AcDb2dVertex
 10
48.41893997683299
 20
41.54408176394943
 30
0.0
  0
VERTEX
  5
160
330
15E
100
AcDbEntity
  8
DIBUJOS
 62
     7
100
AcDbVertex
100
AcDb2dVertex
 10
48.41893997683299
 20
41.50437993710258
 30
0.0
  0
VERTEX
  5
161
330
15E
100
AcDbEntity
  8
DIBUJOS
 62
     7
100
AcDbVertex
100
AcDb2dVertex
 10
48.43028357400687
 20
41.49303786645244
 30
0.0
  0
VERTEX
  5
162
330
15E
100
AcDbEntity
  8
DIBUJOS
 62
     7
100
AcDbVertex
100
AcDb2dVertex
 10
48.475657962703
 20
41.49303786645244
 30
0.0
  0
VERTEX
  5
163
330
15E
100
AcDbEntity
  8
DIBUJOS
 62
     7
100
AcDbVertex
100
AcDb2dVertex
 10
48.48132899802823
 20
41.49871042830075
 30
0.0
  0
VERTEX
  5
164
330
15E
100
AcDbEntity
  8
DIBUJOS
 62
     7
100
AcDbVertex
100
AcDb2dVertex
 10
48.55506161639702
 20
41.49303786645244
 30
0.0
  0
VERTEX
  5
165
330
15E
100
AcDbEntity
  8
DIBUJOS
 62
     7
100
AcDbVertex
100
AcDb2dVertex
 10
48.6174491110682
 20
41.49303786645244
 30
0.0
  0
VERTEX
  5
166
330
15E
100
AcDbEntity
  8
DIBUJOS
 62
     7
100
AcDbVertex
100
AcDb2dVertex
 10
48.62879270824207
 20
41.50437993710258
 30
0.0
  0
VERTEX
  5
167
330
15E
100
AcDbEntity
  8
DIBUJOS
 62
     7
100
AcDbVertex
100
AcDb2dVertex
 10
48.62879270824207
 20
41.53273969329896
 30
0.0
  0
SEQEND
  5
168
330
15E
100
AcDbEntity
  8
DIBUJOS
 62
     7
  0
ENDBLK
  5
5A
330
57
100
AcDbEntity
  8
0
100
AcDbBlockEnd
  0
BLOCK
  5
16B
330
169
100
AcDbEntity
  8
0
100
AcDbBlockBegin
  2
BLOCK_3
 70
     0
 10
0.0
 20
0.0
 30
0.0
  3
BLOCK_3
  1

  0
POLYLINE
  5
16D
330
169
100
AcDbEntity
  8
DIBUJOS
 62
     7
100
AcDb2dPolyline
 66
     1
 10
0.0
 20
0.0
 30
0.0
  0
VERTEX
  5
16E
330
16D
100
AcDbEntity
  8
DIBUJOS
 62
     7
100
AcDbVertex
100
AcDb2dVertex
 10
59.80996566046049
 20
48.7811563207603
 30
0.0
  0
VERTEX
  5
16F
330
16D
100
AcDbEntity
  8
DIBUJOS
 62
     7
100
AcDbVertex
100
AcDb2dVertex
 10
59.80429309861121
 20
48.7811563207603
 30
0.0
  0
SEQEND
  5
170
330
16D
100
AcDbEntity
  8
DIBUJOS
 62
     7
  0
POLYLINE
  5
171
330
169
100
AcDbEntity
  8
DIBUJOS
 62
     7
100
AcDb2dPolyline
 66
     1
 10
0.0
 20
0.0
 30
0.0
  0
VERTEX
  5
172
330
171
100
AcDbEntity
  8
DIBUJOS
 62
     7
100
AcDbVertex
100
AcDb2dVertex
 10
59.81563822230913
 20
48.7811563207603
 30
0.0
  0
VERTEX
  5
173
330
171
100
AcDbEntity
  8
DIBUJOS
 62
     7
100
AcDbVertex
100
AcDb2dVertex
 10
59.80996566046049
 20
48.7811563207603
 30
0.0
  0
SEQEND
  5
174
330
171
100
AcDbEntity
  8
DIBUJOS
 62
     7
  0
POLYLINE
  5
175
330
169
100
AcDbEntity
  8
DIBUJOS
 62
     7
100
AcDb2dPolyline
 66
     1
 10
0.0
 20
0.0
 30
0.0
  0
VERTEX
  5
176
330
175
100
AcDbEntity
  8
DIBUJOS
 62
     7
100
AcDbVertex
100
AcDb2dVertex
 10
60.5699729324031
 20
48.7811563207603
 30
0.0
  0
VERTEX
  5
177
330
175
100
AcDbEntity
  8
DIBUJOS
 62
     7
100
AcDbVertex
100
AcDb2dVertex
 10
60.54728573805535
 20
48.78682582956212
 30
0.0
  0
VERTEX
  5
178
330
175
100
AcDbEntity
  8
DIBUJOS
 62
     7
100
AcDbVertex
100
AcDb2dVertex
 10
59.83788883089584
 20
48.78333619651933
 30
0.0
  0
VERTEX
  5
179
330
175
100
AcDbEntity
  8
DIBUJOS
 62
     7
100
AcDbVertex
100
AcDb2dVertex
 10
59.81563822230913
 20
48.7811563207603
 30
0.0
  0
SEQEND
  5
17A
330
175
100
AcDbEntity
  8
DIBUJOS
 62
     7
  0
POLYLINE
  5
17B
330
169
100
AcDbEntity
  8
DIBUJOS
 62
     7
100
AcDb2dPolyline
 66
     1
 10
0.0
 20
0.0
 30
0.0
  0
VERTEX
  5
17C
330
17B
100
AcDbEntity
  8
DIBUJOS
 62
     7
100
AcDbVertex
100
AcDb2dVertex
 10
60.57564244120428
 20
48.7811563207603
 30
0.0
  0
VERTEX
  5
17D
330
17B
100
AcDbEntity
  8
DIBUJOS
 62
     7
100
AcDbVertex
100
AcDb2dVertex
 10
60.5699729324031
 20
48.7811563207603
 30
0.0
  0
SEQEND
  5
17E
330
17B
100
AcDbEntity
  8
DIBUJOS
 62
     7
  0
POLYLINE
  5
17F
330
169
100
AcDbEntity
  8
DIBUJOS
 62
     7
100
AcDb2dPolyline
 66
     1
 10
0.0
 20
0.0
 30
0.0
  0
VERTEX
  5
180
330
17F
100
AcDbEntity
  8
DIBUJOS
 62
     7
100
AcDbVertex
100
AcDb2dVertex
 10
60.58131500305356
 20
48.7811563207603
 30
0.0
  0
VERTEX
  5
181
330
17F
100
AcDbEntity
  8
DIBUJOS
 62
     7
100
AcDbVertex
100
AcDb2dVertex
 10
60.57564244120428
 20
48.7811563207603
 30
0.0
  0
SEQEND
  5
182
330
17F
100
AcDbEntity
  8
DIBUJOS
 62
     7
  0
POLYLINE
  5
183
330
169
100
AcDbEntity
  8
DIBUJOS
 62
     7
100
AcDb2dPolyline
 66
     1
 10
0.0
 20
0.0
 30
0.0
  0
VERTEX
  5
184
330
183
100
AcDbEntity
  8
DIBUJOS
 62
     7
100
AcDbVertex
100
AcDb2dVertex
 10
62.8953630308315
 20
48.7811563207603
 30
0.0
  0
VERTEX
  5
185
330
183
100
AcDbEntity
  8
DIBUJOS
 62
     7
100
AcDbVertex
100
AcDb2dVertex
 10
62.88969046898318
 20
48.78682582956212
 30
0.0
  0
VERTEX
  5
186
330
183
100
AcDbEntity
  8
DIBUJOS
 62
     7
100
AcDbVertex
100
AcDb2dVertex
 10
60.5869875649022
 20
48.78682582956212
 30
0.0
  0
VERTEX
  5
187
330
183
100
AcDbEntity
  8
DIBUJOS
 62
     7
100
AcDbVertex
100
AcDb2dVertex
 10
60.58131500305356
 20
48.7811563207603
 30
0.0
  0
SEQEND
  5
188
330
183
100
AcDbEntity
  8
DIBUJOS
 62
     7
  0
POLYLINE
  5
189
330
169
100
AcDbEntity
  8
DIBUJOS
 62
     7
100
AcDb2dPolyline
 66
     1
 10
0.0
 20
0.0
 30
0.0
  0
VERTEX
  5
18A
330
189
100
AcDbEntity
  8
DIBUJOS
 62
     7
100
AcDbVertex
100
AcDb2dVertex
 10
62.90103559268078
 20
48.7811563207603
 30
0.0
  0
VERTEX
  5
18B
330
189
100
AcDbEntity
  8
DIBUJOS
 62
     7
100
AcDbVertex
100
AcDb2dVertex
 10
62.8953630308315
 20
48.7811563207603
 30
0.0
  0
SEQEND
  5
18C
330
189
100
AcDbEntity
  8
DIBUJOS
 62
     7
  0
POLYLINE
  5
18D
330
169
100
AcDbEntity
  8
DIBUJOS
 62
     7
100
AcDb2dPolyline
 66
     1
 10
0.0
 20
0.0
 30
0.0
  0
VERTEX
  5
18E
330
18D
100
AcDbEntity
  8
DIBUJOS
 62
     7
100
AcDbVertex
100
AcDb2dVertex
 10
62.90670815452974
 20
48.7811563207603
 30
0.0
  0
VERTEX
  5
18F
330
18D
100
AcDbEntity
  8
DIBUJOS
 62
     7
100
AcDbVertex
100
AcDb2dVertex
 10
62.90103559268078
 20
48.7811563207603
 30
0.0
  0
SEQEND
  5
190
330
18D
100
AcDbEntity
  8
DIBUJOS
 62
     7
  0
POLYLINE
  5
191
330
169
100
AcDbEntity
  8
DIBUJOS
 62
     7
100
AcDb2dPolyline
 66
     1
 10
0.0
 20
0.0
 30
0.0
  0
VERTEX
  5
192
330
191
100
AcDbEntity
  8
DIBUJOS
 62
     7
100
AcDbVertex
100
AcDb2dVertex
 10
63.66671237342457
 20
48.7811563207603
 30
0.0
  0
VERTEX
  5
193
330
191
100
AcDbEntity
  8
DIBUJOS
 62
     7
100
AcDbVertex
100
AcDb2dVertex
 10
63.62701054657772
 20
48.78682582956212
 30
0.0
  0
VERTEX
  5
194
330
191
100
AcDbEntity
  8
DIBUJOS
 62
     7
100
AcDbVertex
100
AcDb2dVertex
 10
62.92895571006866
 20
48.78333619651933
 30
0.0
  0
VERTEX
  5
195
330
191
100
AcDbEntity
  8
DIBUJOS
 62
     7
100
AcDbVertex
100
AcDb2dVertex
 10
62.90670815452974
 20
48.7811563207603
 30
0.0
  0
SEQEND
  5
196
330
191
100
AcDbEntity
  8
DIBUJOS
 62
     7
  0
POLYLINE
  5
197
330
169
100
AcDbEntity
  8
DIBUJOS
 62
     7
100
AcDb2dPolyline
 66
     1
 10
0.0
 20
0.0
 30
0.0
  0
VERTEX
  5
198
330
197
100
AcDbEntity
  8
DIBUJOS
 62
     7
100
AcDbVertex
100
AcDb2dVertex
 10
63.67238493527321
 20
48.7811563207603
 30
0.0
  0
VERTEX
  5
199
330
197
100
AcDbEntity
  8
DIBUJOS
 62
     7
100
AcDbVertex
100
AcDb2dVertex
 10
63.66671237342457
 20
48.7811563207603
 30
0.0
  0
SEQEND
  5
19A
330
197
100
AcDbEntity
  8
DIBUJOS
 62
     7
  0
POLYLINE
  5
19B
330
169
100
AcDbEntity
  8
DIBUJOS
 62
     7
100
AcDb2dPolyline
 66
     1
 10
0.0
 20
0.0
 30
0.0
  0
VERTEX
  5
19C
330
19B
100
AcDbEntity
  8
DIBUJOS
 62
     7
100
AcDbVertex
100
AcDb2dVertex
 10
63.67805749712153
 20
48.7811563207603
 30
0.0
  0
VERTEX
  5
19D
330
19B
100
AcDbEntity
  8
DIBUJOS
 62
     7
100
AcDbVertex
100
AcDb2dVertex
 10
63.67238493527321
 20
48.7811563207603
 30
0.0
  0
SEQEND
  5
19E
330
19B
100
AcDbEntity
  8
DIBUJOS
 62
     7
  0
POLYLINE
  5
19F
330
169
100
AcDbEntity
  8
DIBUJOS
 62
     7
100
AcDb2dPolyline
 66
     1
 10
0.0
 20
0.0
 30
0.0
  0
VERTEX
  5
1A0
330
19F
100
AcDbEntity
  8
DIBUJOS
 62
     7
100
AcDbVertex
100
AcDb2dVertex
 10
63.67805749712153
 20
48.7811563207603
 30
0.0
  0
VERTEX
  5
1A1
330
19F
100
AcDbEntity
  8
DIBUJOS
 62
     7
100
AcDbVertex
100
AcDb2dVertex
 10
65.70852017512256
 20
48.78682582956212
 30
0.0
  0
VERTEX
  5
1A2
330
19F
100
AcDbEntity
  8
DIBUJOS
 62
     7
100
AcDbVertex
100
AcDb2dVertex
 10
65.7141927369712
 20
48.79249839141076
 30
0.0
  0
VERTEX
  5
1A3
330
19F
100
AcDbEntity
  8
DIBUJOS
 62
     7
100
AcDbVertex
100
AcDb2dVertex
 10
65.7141927369712
 20
48.96264776944958
 30
0.0
  0
VERTEX
  5
1A4
330
19F
100
AcDbEntity
  8
DIBUJOS
 62
     7
100
AcDbVertex
100
AcDb2dVertex
 10
65.70284761327328
 20
48.97399289314718
 30
0.0
  0
VERTEX
  5
1A5
330
19F
100
AcDbEntity
  8
DIBUJOS
 62
     7
100
AcDbVertex
100
AcDb2dVertex
 10
57.74547066441475
 20
48.97399289314718
 30
0.0
  0
VERTEX
  5
1A6
330
19F
100
AcDbEntity
  8
DIBUJOS
 62
     7
100
AcDbVertex
100
AcDb2dVertex
 10
57.73412859376429
 20
48.96264776944958
 30
0.0
  0
VERTEX
  5
1A7
330
19F
100
AcDbEntity
  8
DIBUJOS
 62
     7
100
AcDbVertex
100
AcDb2dVertex
 10
57.73412859376429
 20
48.79249839141076
 30
0.0
  0
VERTEX
  5
1A8
330
19F
100
AcDbEntity
  8
DIBUJOS
 62
     7
100
AcDbVertex
100
AcDb2dVertex
 10
57.73980115561325
 20
48.78682582956212
 30
0.0
  0
VERTEX
  5
1A9
330
19F
100
AcDbEntity
  8
DIBUJOS
 62
     7
100
AcDbVertex
100
AcDb2dVertex
 10
59.80429309861121
 20
48.7811563207603
 30
0.0
  0
SEQEND
  5
1AA
330
19F
100
AcDbEntity
  8
DIBUJOS
 62
     7
  0
POLYLINE
  5
1AB
330
169
100
AcDbEntity
  8
DIBUJOS
 62
     7
100
AcDb2dPolyline
 66
     1
 10
0.0
 20
0.0
 30
0.0
  0
VERTEX
  5
1AC
330
1AB
100
AcDbEntity
  8
DIBUJOS
 62
     7
100
AcDbVertex
100
AcDb2dVertex
 10
59.80996566046049
 20
48.77548375891165
 30
0.0
  0
VERTEX
  5
1AD
330
1AB
100
AcDbEntity
  8
DIBUJOS
 62
     7
100
AcDbVertex
100
AcDb2dVertex
 10
59.80996566046049
 20
48.7811563207603
 30
0.0
  0
SEQEND
  5
1AE
330
1AB
100
AcDbEntity
  8
DIBUJOS
 62
     7
  0
POLYLINE
  5
1AF
330
169
100
AcDbEntity
  8
DIBUJOS
 62
     7
100
AcDb2dPolyline
 66
     1
 10
0.0
 20
0.0
 30
0.0
  0
VERTEX
  5
1B0
330
1AF
100
AcDbEntity
  8
DIBUJOS
 62
     7
100
AcDbVertex
100
AcDb2dVertex
 10
60.57564244120428
 20
48.77548375891165
 30
0.0
  0
VERTEX
  5
1B1
330
1AF
100
AcDbEntity
  8
DIBUJOS
 62
     7
100
AcDbVertex
100
AcDb2dVertex
 10
60.57564244120428
 20
48.7811563207603
 30
0.0
  0
SEQEND
  5
1B2
330
1AF
100
AcDbEntity
  8
DIBUJOS
 62
     7
  0
POLYLINE
  5
1B3
330
169
100
AcDbEntity
  8
DIBUJOS
 62
     7
100
AcDb2dPolyline
 66
     1
 10
0.0
 20
0.0
 30
0.0
  0
VERTEX
  5
1B4
330
1B3
100
AcDbEntity
  8
DIBUJOS
 62
     7
100
AcDbVertex
100
AcDb2dVertex
 10
62.90103559268078
 20
48.77548375891165
 30
0.0
  0
VERTEX
  5
1B5
330
1B3
100
AcDbEntity
  8
DIBUJOS
 62
     7
100
AcDbVertex
100
AcDb2dVertex
 10
62.90103559268078
 20
48.7811563207603
 30
0.0
  0
SEQEND
  5
1B6
330
1B3
100
AcDbEntity
  8
DIBUJOS
 62
     7
  0
POLYLINE
  5
1B7
330
169
100
AcDbEntity
  8
DIBUJOS
 62
     7
100
AcDb2dPolyline
 66
     1
 10
0.0
 20
0.0
 30
0.0
  0
VERTEX
  5
1B8
330
1B7
100
AcDbEntity
  8
DIBUJOS
 62
     7
100
AcDbVertex
100
AcDb2dVertex
 10
63.67238493527321
 20
48.77548375891165
 30
0.0
  0
VERTEX
  5
1B9
330
1B7
100
AcDbEntity
  8
DIBUJOS
 62
     7
100
AcDbVertex
100
AcDb2dVertex
 10
63.67238493527321
 20
48.7811563207603
 30
0.0
  0
SEQEND
  5
1BA
330
1B7
100
AcDbEntity
  8
DIBUJOS
 62
     7
  0
POLYLINE
  5
1BB
330
169
100
AcDbEntity
  8
DIBUJOS
 62
     7
100
AcDb2dPolyline
 66
     1
 10
0.0
 20
0.0
 30
0.0
  0
VERTEX
  5
1BC
330
1BB
100
AcDbEntity
  8
DIBUJOS
 62
     7
100
AcDbVertex
100
AcDb2dVertex
 10
60.57564244120428
 20
48.77548375891165
 30
0.0
  0
VERTEX
  5
1BD
330
1BB
100
AcDbEntity
  8
DIBUJOS
 62
     7
100
AcDbVertex
100
AcDb2dVertex
 10
60.60767196023368
 20
48.73528123231042
 30
0.0
  0
VERTEX
  5
1BE
330
1BB
100
AcDbEntity
  8
DIBUJOS
 62
     7
100
AcDbVertex
100
AcDb2dVertex
 10
60.61534426805177
 20
48.69608010521764
 30
0.0
  0
VERTEX
  5
1BF
330
1BB
100
AcDbEntity
  8
DIBUJOS
 62
     7
100
AcDbVertex
100
AcDb2dVertex
 10
60.60400219740131
 20
48.66772034902061
 30
0.0
  0
VERTEX
  5
1C0
330
1BB
100
AcDbEntity
  8
DIBUJOS
 62
     7
100
AcDbVertex
100
AcDb2dVertex
 10
60.5699729324031
 20
48.63369108402272
 30
0.0
  0
VERTEX
  5
1C1
330
1BB
100
AcDbEntity
  8
DIBUJOS
 62
     7
100
AcDbVertex
100
AcDb2dVertex
 10
60.53644131411118
 20
48.62601877620463
 30
0.0
  0
VERTEX
  5
1C2
330
1BB
100
AcDbEntity
  8
DIBUJOS
 62
     7
100
AcDbVertex
100
AcDb2dVertex
 10
60.40549306316642
 20
48.62234901337226
 30
0.0
  0
VERTEX
  5
1C3
330
1BB
100
AcDbEntity
  8
DIBUJOS
 62
     7
100
AcDbVertex
100
AcDb2dVertex
 10
60.39982050131714
 20
48.62801852217377
 30
0.0
  0
VERTEX
  5
1C4
330
1BB
100
AcDbEntity
  8
DIBUJOS
 62
     7
100
AcDbVertex
100
AcDb2dVertex
 10
59.87235468165572
 20
48.62801852217377
 30
0.0
  0
VERTEX
  5
1C5
330
1BB
100
AcDbEntity
  8
DIBUJOS
 62
     7
100
AcDbVertex
100
AcDb2dVertex
 10
59.8394306197727
 20
48.60962085925615
 30
0.0
  0
VERTEX
  5
1C6
330
1BB
100
AcDbEntity
  8
DIBUJOS
 62
     7
100
AcDbVertex
100
AcDb2dVertex
 10
59.81452996614585
 20
48.58969972574543
 30
0.0
  0
VERTEX
  5
1C7
330
1BB
100
AcDbEntity
  8
DIBUJOS
 62
     7
100
AcDbVertex
100
AcDb2dVertex
 10
59.77731942588112
 20
48.54750966536392
 30
0.0
  0
VERTEX
  5
1C8
330
1BB
100
AcDbEntity
  8
DIBUJOS
 62
     7
100
AcDbVertex
100
AcDb2dVertex
 10
59.74020353008107
 20
48.4754516434286
 30
0.0
  0
VERTEX
  5
1C9
330
1BB
100
AcDbEntity
  8
DIBUJOS
 62
     7
100
AcDbVertex
100
AcDb2dVertex
 10
59.72288969894806
 20
48.42434057889112
 30
0.0
  0
VERTEX
  5
1CA
330
1BB
100
AcDbEntity
  8
DIBUJOS
 62
     7
100
AcDbVertex
100
AcDb2dVertex
 10
59.5864703872745
 20
47.61317034060784
 30
0.0
  0
VERTEX
  5
1CB
330
1BB
100
AcDbEntity
  8
DIBUJOS
 62
     7
100
AcDbVertex
100
AcDb2dVertex
 10
59.44459528010878
 20
46.73401789850905
 30
0.0
  0
VERTEX
  5
1CC
330
1BB
100
AcDbEntity
  8
DIBUJOS
 62
     7
100
AcDbVertex
100
AcDb2dVertex
 10
58.66428524374508
 20
41.90707076742163
 30
0.0
  0
VERTEX
  5
1CD
330
1BB
100
AcDbEntity
  8
DIBUJOS
 62
     7
100
AcDbVertex
100
AcDb2dVertex
 10
58.67392676705968
 20
41.82142973813188
 30
0.0
  0
VERTEX
  5
1CE
330
1BB
100
AcDbEntity
  8
DIBUJOS
 62
     7
100
AcDbVertex
100
AcDb2dVertex
 10
58.70398707059224
 20
41.73692138938345
 30
0.0
  0
VERTEX
  5
1CF
330
1BB
100
AcDbEntity
  8
DIBUJOS
 62
     7
100
AcDbVertex
100
AcDb2dVertex
 10
58.74936145928805
 20
41.69721956253628
 30
0.0
  0
VERTEX
  5
1D0
330
1BB
100
AcDbEntity
  8
DIBUJOS
 62
     7
100
AcDbVertex
100
AcDb2dVertex
 10
58.80040535678569
 20
41.69721956253628
 30
0.0
  0
VERTEX
  5
1D1
330
1BB
100
AcDbEntity
  8
DIBUJOS
 62
     7
100
AcDbVertex
100
AcDb2dVertex
 10
60.78511201517957
 20
42.01713312191539
 30
0.0
  0
VERTEX
  5
1D2
330
1BB
100
AcDbEntity
  8
DIBUJOS
 62
     7
100
AcDbVertex
100
AcDb2dVertex
 10
60.85317359822409
 20
42.02847519256553
 30
0.0
  0
VERTEX
  5
1D3
330
1BB
100
AcDbEntity
  8
DIBUJOS
 62
     7
100
AcDbVertex
100
AcDb2dVertex
 10
61.10858237464195
 20
42.05713720044328
 30
0.0
  0
VERTEX
  5
1D4
330
1BB
100
AcDbEntity
  8
DIBUJOS
 62
     7
100
AcDbVertex
100
AcDb2dVertex
 10
61.31283429081309
 20
42.06857391555939
 30
0.0
  0
VERTEX
  5
1D5
330
1BB
100
AcDbEntity
  8
DIBUJOS
 62
     7
100
AcDbVertex
100
AcDb2dVertex
 10
62.14670088258681
 20
42.07155063665862
 30
0.0
  0
VERTEX
  5
1D6
330
1BB
100
AcDbEntity
  8
DIBUJOS
 62
     7
100
AcDbVertex
100
AcDb2dVertex
 10
62.16938807693455
 20
42.07155063665862
 30
0.0
  0
VERTEX
  5
1D7
330
1BB
100
AcDbEntity
  8
DIBUJOS
 62
     7
100
AcDbVertex
100
AcDb2dVertex
 10
62.54405803930548
 20
42.03990274853992
 30
0.0
  0
VERTEX
  5
1D8
330
1BB
100
AcDbEntity
  8
DIBUJOS
 62
     7
100
AcDbVertex
100
AcDb2dVertex
 10
62.61711135465402
 20
42.02946437988481
 30
0.0
  0
VERTEX
  5
1D9
330
1BB
100
AcDbEntity
  8
DIBUJOS
 62
     7
100
AcDbVertex
100
AcDb2dVertex
 10
64.67627267709938
 20
41.69721956253628
 30
0.0
  0
VERTEX
  5
1DA
330
1BB
100
AcDbEntity
  8
DIBUJOS
 62
     7
100
AcDbVertex
100
AcDb2dVertex
 10
64.73866169829397
 20
41.70288907133779
 30
0.0
  0
VERTEX
  5
1DB
330
1BB
100
AcDbEntity
  8
DIBUJOS
 62
     7
100
AcDbVertex
100
AcDb2dVertex
 10
64.77836352514146
 20
41.74259089818496
 30
0.0
  0
VERTEX
  5
1DC
330
1BB
100
AcDbEntity
  8
DIBUJOS
 62
     7
100
AcDbVertex
100
AcDb2dVertex
 10
64.80442128368766
 20
41.81670667398753
 30
0.0
  0
VERTEX
  5
1DD
330
1BB
100
AcDbEntity
  8
DIBUJOS
 62
     7
100
AcDbVertex
100
AcDb2dVertex
 10
64.80902222594119
 20
41.84430011531666
 30
0.0
  0
VERTEX
  5
1DE
330
1BB
100
AcDbEntity
  8
DIBUJOS
 62
     7
100
AcDbVertex
100
AcDb2dVertex
 10
64.81239279013967
 20
41.95244515611775
 30
0.0
  0
VERTEX
  5
1DF
330
1BB
100
AcDbEntity
  8
DIBUJOS
 62
     7
100
AcDbVertex
100
AcDb2dVertex
 10
64.04441706479251
 20
46.67657481391019
 30
0.0
  0
VERTEX
  5
1E0
330
1BB
100
AcDbEntity
  8
DIBUJOS
 62
     7
100
AcDbVertex
100
AcDb2dVertex
 10
63.90821451947607
 20
47.52170104405726
 30
0.0
  0
VERTEX
  5
1E1
330
1BB
100
AcDbEntity
  8
DIBUJOS
 62
     7
100
AcDbVertex
100
AcDb2dVertex
 10
63.75527822201034
 20
48.43474536402616
 30
0.0
  0
VERTEX
  5
1E2
330
1BB
100
AcDbEntity
  8
DIBUJOS
 62
     7
100
AcDbVertex
100
AcDb2dVertex
 10
63.74781657445445
 20
48.45276444908085
 30
0.0
  0
VERTEX
  5
1E3
330
1BB
100
AcDbEntity
  8
DIBUJOS
 62
     7
100
AcDbVertex
100
AcDb2dVertex
 10
63.71070373170218
 20
48.53616454166632
 30
0.0
  0
VERTEX
  5
1E4
330
1BB
100
AcDbEntity
  8
DIBUJOS
 62
     7
100
AcDbVertex
100
AcDb2dVertex
 10
63.66103981157593
 20
48.59398925717556
 30
0.0
  0
VERTEX
  5
1E5
330
1BB
100
AcDbEntity
  8
DIBUJOS
 62
     7
100
AcDbVertex
100
AcDb2dVertex
 10
63.65639002056568
 20
48.59535091626284
 30
0.0
  0
VERTEX
  5
1E6
330
1BB
100
AcDbEntity
  8
DIBUJOS
 62
     7
100
AcDbVertex
100
AcDb2dVertex
 10
63.60432335222934
 20
48.62801852217377
 30
0.0
  0
VERTEX
  5
1E7
330
1BB
100
AcDbEntity
  8
DIBUJOS
 62
     7
100
AcDbVertex
100
AcDb2dVertex
 10
63.10521423571748
 20
48.62518224124945
 30
0.0
  0
VERTEX
  5
1E8
330
1BB
100
AcDbEntity
  8
DIBUJOS
 62
     7
100
AcDbVertex
100
AcDb2dVertex
 10
62.94023671977324
 20
48.62601877620463
 30
0.0
  0
VERTEX
  5
1E9
330
1BB
100
AcDbEntity
  8
DIBUJOS
 62
     7
100
AcDbVertex
100
AcDb2dVertex
 10
62.90670815452974
 20
48.63369108402272
 30
0.0
  0
VERTEX
  5
1EA
330
1BB
100
AcDbEntity
  8
DIBUJOS
 62
     7
100
AcDbVertex
100
AcDb2dVertex
 10
62.87721266474394
 20
48.66715553527416
 30
0.0
  0
VERTEX
  5
1EB
330
1BB
100
AcDbEntity
  8
DIBUJOS
 62
     7
100
AcDbVertex
100
AcDb2dVertex
 10
62.86700327463511
 20
48.69040754336868
 30
0.0
  0
VERTEX
  5
1EC
330
1BB
100
AcDbEntity
  8
DIBUJOS
 62
     7
100
AcDbVertex
100
AcDb2dVertex
 10
62.86700327463511
 20
48.71876729956538
 30
0.0
  0
VERTEX
  5
1ED
330
1BB
100
AcDbEntity
  8
DIBUJOS
 62
     7
100
AcDbVertex
100
AcDb2dVertex
 10
62.8760799842023
 20
48.73975089353045
 30
0.0
  0
VERTEX
  5
1EE
330
1BB
100
AcDbEntity
  8
DIBUJOS
 62
     7
100
AcDbVertex
100
AcDb2dVertex
 10
62.90103559268078
 20
48.77548375891165
 30
0.0
  0
SEQEND
  5
1EF
330
1BB
100
AcDbEntity
  8
DIBUJOS
 62
     7
  0
POLYLINE
  5
1F0
330
169
100
AcDbEntity
  8
DIBUJOS
 62
     7
100
AcDb2dPolyline
 66
     1
 10
0.0
 20
0.0
 30
0.0
  0
VERTEX
  5
1F1
330
1F0
100
AcDbEntity
  8
DIBUJOS
 62
     7
100
AcDbVertex
100
AcDb2dVertex
 10
58.90249620482777
 20
41.55542688764735
 30
0.0
  0
VERTEX
  5
1F2
330
1F0
100
AcDbEntity
  8
DIBUJOS
 62
     7
100
AcDbVertex
100
AcDb2dVertex
 10
58.89682364297849
 20
41.56109639644885
 30
0.0
  0
VERTEX
  5
1F3
330
1F0
100
AcDbEntity
  8
DIBUJOS
 62
     7
100
AcDbVertex
100
AcDb2dVertex
 10
58.86846693982924
 20
41.56109639644885
 30
0.0
  0
SEQEND
  5
1F4
330
1F0
100
AcDbEntity
  8
DIBUJOS
 62
     7
  0
POLYLINE
  5
1F5
330
169
100
AcDbEntity
  8
DIBUJOS
 62
     7
100
AcDb2dPolyline
 66
     1
 10
0.0
 20
0.0
 30
0.0
  0
VERTEX
  5
1F6
330
1F5
100
AcDbEntity
  8
DIBUJOS
 62
     7
100
AcDbVertex
100
AcDb2dVertex
 10
64.5741818290573
 20
41.55542688764735
 30
0.0
  0
VERTEX
  5
1F7
330
1F5
100
AcDbEntity
  8
DIBUJOS
 62
     7
100
AcDbVertex
100
AcDb2dVertex
 10
64.56850926720865
 20
41.55542688764735
 30
0.0
  0
SEQEND
  5
1F8
330
1F5
100
AcDbEntity
  8
DIBUJOS
 62
     7
  0
POLYLINE
  5
1F9
330
169
100
AcDbEntity
  8
DIBUJOS
 62
     7
100
AcDb2dPolyline
 66
     1
 10
0.0
 20
0.0
 30
0.0
  0
VERTEX
  5
1FA
330
1F9
100
AcDbEntity
  8
DIBUJOS
 62
     7
100
AcDbVertex
100
AcDb2dVertex
 10
64.57985439090658
 20
41.55542688764735
 30
0.0
  0
VERTEX
  5
1FB
330
1F9
100
AcDbEntity
  8
DIBUJOS
 62
     7
100
AcDbVertex
100
AcDb2dVertex
 10
64.5741818290573
 20
41.55542688764735
 30
0.0
  0
SEQEND
  5
1FC
330
1F9
100
AcDbEntity
  8
DIBUJOS
 62
     7
  0
POLYLINE
  5
1FD
330
169
100
AcDbEntity
  8
DIBUJOS
 62
     7
100
AcDb2dPolyline
 66
     1
 10
0.0
 20
0.0
 30
0.0
  0
VERTEX
  5
1FE
330
1FD
100
AcDbEntity
  8
DIBUJOS
 62
     7
100
AcDbVertex
100
AcDb2dVertex
 10
64.57985439090658
 20
41.55542688764735
 30
0.0
  0
VERTEX
  5
1FF
330
1FD
100
AcDbEntity
  8
DIBUJOS
 62
     7
100
AcDbVertex
100
AcDb2dVertex
 10
64.58552695275522
 20
41.56109639644885
 30
0.0
  0
VERTEX
  5
200
330
1FD
100
AcDbEntity
  8
DIBUJOS
 62
     7
100
AcDbVertex
100
AcDb2dVertex
 10
64.60821414710296
 20
41.56109639644885
 30
0.0
  0
SEQEND
  5
201
330
1FD
100
AcDbEntity
  8
DIBUJOS
 62
     7
  0
POLYLINE
  5
202
330
169
100
AcDbEntity
  8
DIBUJOS
 62
     7
100
AcDb2dPolyline
 66
     1
 10
0.0
 20
0.0
 30
0.0
  0
VERTEX
  5
203
330
202
100
AcDbEntity
  8
DIBUJOS
 62
     7
100
AcDbVertex
100
AcDb2dVertex
 10
58.90249620482777
 20
41.54975432579839
 30
0.0
  0
VERTEX
  5
204
330
202
100
AcDbEntity
  8
DIBUJOS
 62
     7
100
AcDbVertex
100
AcDb2dVertex
 10
58.90249620482777
 20
41.55542688764735
 30
0.0
  0
SEQEND
  5
205
330
202
100
AcDbEntity
  8
DIBUJOS
 62
     7
  0
POLYLINE
  5
206
330
169
100
AcDbEntity
  8
DIBUJOS
 62
     7
100
AcDb2dPolyline
 66
     1
 10
0.0
 20
0.0
 30
0.0
  0
VERTEX
  5
207
330
206
100
AcDbEntity
  8
DIBUJOS
 62
     7
100
AcDbVertex
100
AcDb2dVertex
 10
58.90816876667673
 20
41.54975432579839
 30
0.0
  0
VERTEX
  5
208
330
206
100
AcDbEntity
  8
DIBUJOS
 62
     7
100
AcDbVertex
100
AcDb2dVertex
 10
58.90249620482777
 20
41.54975432579839
 30
0.0
  0
SEQEND
  5
209
330
206
100
AcDbEntity
  8
DIBUJOS
 62
     7
  0
POLYLINE
  5
20A
330
169
100
AcDbEntity
  8
DIBUJOS
 62
     7
100
AcDb2dPolyline
 66
     1
 10
0.0
 20
0.0
 30
0.0
  0
VERTEX
  5
20B
330
20A
100
AcDbEntity
  8
DIBUJOS
 62
     7
100
AcDbVertex
100
AcDb2dVertex
 10
58.90816876667673
 20
41.54975432579839
 30
0.0
  0
VERTEX
  5
20C
330
20A
100
AcDbEntity
  8
DIBUJOS
 62
     7
100
AcDbVertex
100
AcDb2dVertex
 10
59.00420236891169
 20
41.56906790290021
 30
0.0
  0
VERTEX
  5
20D
330
20A
100
AcDbEntity
  8
DIBUJOS
 62
     7
100
AcDbVertex
100
AcDb2dVertex
 10
61.01826712996392
 20
41.88749768130089
 30
0.0
  0
VERTEX
  5
20E
330
20A
100
AcDbEntity
  8
DIBUJOS
 62
     7
100
AcDbVertex
100
AcDb2dVertex
 10
61.07451952612303
 20
41.89261153549702
 30
0.0
  0
VERTEX
  5
20F
330
20A
100
AcDbEntity
  8
DIBUJOS
 62
     7
100
AcDbVertex
100
AcDb2dVertex
 10
61.40928616052661
 20
41.90980629778603
 30
0.0
  0
VERTEX
  5
210
330
20A
100
AcDbEntity
  8
DIBUJOS
 62
     7
100
AcDbVertex
100
AcDb2dVertex
 10
62.05595210519519
 20
41.91274332927059
 30
0.0
  0
VERTEX
  5
211
330
20A
100
AcDbEntity
  8
DIBUJOS
 62
     7
100
AcDbVertex
100
AcDb2dVertex
 10
62.45842922220458
 20
41.88747325692253
 30
0.0
  0
VERTEX
  5
212
330
20A
100
AcDbEntity
  8
DIBUJOS
 62
     7
100
AcDbVertex
100
AcDb2dVertex
 10
64.4320075232583
 20
41.57581208434492
 30
0.0
  0
VERTEX
  5
213
330
20A
100
AcDbEntity
  8
DIBUJOS
 62
     7
100
AcDbVertex
100
AcDb2dVertex
 10
64.56850926720865
 20
41.55542688764735
 30
0.0
  0
SEQEND
  5
214
330
20A
100
AcDbEntity
  8
DIBUJOS
 62
     7
  0
POLYLINE
  5
215
330
169
100
AcDbEntity
  8
DIBUJOS
 62
     7
100
AcDb2dPolyline
 66
     1
 10
0.0
 20
0.0
 30
0.0
  0
VERTEX
  5
216
330
215
100
AcDbEntity
  8
DIBUJOS
 62
     7
100
AcDbVertex
100
AcDb2dVertex
 10
64.5741818290573
 20
41.54975432579839
 30
0.0
  0
VERTEX
  5
217
330
215
100
AcDbEntity
  8
DIBUJOS
 62
     7
100
AcDbVertex
100
AcDb2dVertex
 10
64.5741818290573
 20
41.55542688764735
 30
0.0
  0
SEQEND
  5
218
330
215
100
AcDbEntity
  8
DIBUJOS
 62
     7
  0
POLYLINE
  5
219
330
169
100
AcDbEntity
  8
DIBUJOS
 62
     7
100
AcDb2dPolyline
 66
     1
 10
0.0
 20
0.0
 30
0.0
  0
VERTEX
  5
21A
330
219
100
AcDbEntity
  8
DIBUJOS
 62
     7
100
AcDbVertex
100
AcDb2dVertex
 10
58.69264194689497
 20
41.54408176394943
 30
0.0
  0
VERTEX
  5
21B
330
219
100
AcDbEntity
  8
DIBUJOS
 62
     7
100
AcDbVertex
100
AcDb2dVertex
 10
58.64670274445174
 20
41.571305786558
 30
0.0
  0
VERTEX
  5
21C
330
219
100
AcDbEntity
  8
DIBUJOS
 62
     7
100
AcDbVertex
100
AcDb2dVertex
 10
58.58924439461625
 20
41.62828480796968
 30
0.0
  0
VERTEX
  5
21D
330
219
100
AcDbEntity
  8
DIBUJOS
 62
     7
100
AcDbVertex
100
AcDb2dVertex
 10
58.55765756744313
 20
41.68076974378427
 30
0.0
  0
VERTEX
  5
21E
330
219
100
AcDbEntity
  8
DIBUJOS
 62
     7
100
AcDbVertex
100
AcDb2dVertex
 10
58.52616233168852
 20
41.75910788397712
 30
0.0
  0
VERTEX
  5
21F
330
219
100
AcDbEntity
  8
DIBUJOS
 62
     7
100
AcDbVertex
100
AcDb2dVertex
 10
58.50547793635736
 20
41.85602686992495
 30
0.0
  0
VERTEX
  5
220
330
219
100
AcDbEntity
  8
DIBUJOS
 62
     7
100
AcDbVertex
100
AcDb2dVertex
 10
58.51452106240511
 20
41.99820117572362
 30
0.0
  0
VERTEX
  5
221
330
219
100
AcDbEntity
  8
DIBUJOS
 62
     7
100
AcDbVertex
100
AcDb2dVertex
 10
58.53613663715646
 20
42.13355497389603
 30
0.0
  0
VERTEX
  5
222
330
219
100
AcDbEntity
  8
DIBUJOS
 62
     7
100
AcDbVertex
100
AcDb2dVertex
 10
59.56390226177044
 20
48.44696060619903
 30
0.0
  0
VERTEX
  5
223
330
219
100
AcDbEntity
  8
DIBUJOS
 62
     7
100
AcDbVertex
100
AcDb2dVertex
 10
59.56826506633629
 20
48.46877462902437
 30
0.0
  0
VERTEX
  5
224
330
219
100
AcDbEntity
  8
DIBUJOS
 62
     7
100
AcDbVertex
100
AcDb2dVertex
 10
59.60691969796542
 20
48.56506468723176
 30
0.0
  0
VERTEX
  5
225
330
219
100
AcDbEntity
  8
DIBUJOS
 62
     7
100
AcDbVertex
100
AcDb2dVertex
 10
59.61032079263651
 20
48.57186992962204
 30
0.0
  0
VERTEX
  5
226
330
219
100
AcDbEntity
  8
DIBUJOS
 62
     7
100
AcDbVertex
100
AcDb2dVertex
 10
59.66389566633029
 20
48.66088762920516
 30
0.0
  0
VERTEX
  5
227
330
219
100
AcDbEntity
  8
DIBUJOS
 62
     7
100
AcDbVertex
100
AcDb2dVertex
 10
59.70787481241841
 20
48.71309473771706
 30
0.0
  0
VERTEX
  5
228
330
219
100
AcDbEntity
  8
DIBUJOS
 62
     7
100
AcDbVertex
100
AcDb2dVertex
 10
59.79918840355712
 20
48.76867851652138
 30
0.0
  0
VERTEX
  5
229
330
219
100
AcDbEntity
  8
DIBUJOS
 62
     7
100
AcDbVertex
100
AcDb2dVertex
 10
59.80996566046049
 20
48.77548375891165
 30
0.0
  0
SEQEND
  5
22A
330
219
100
AcDbEntity
  8
DIBUJOS
 62
     7
  0
POLYLINE
  5
22B
330
169
100
AcDbEntity
  8
DIBUJOS
 62
     7
100
AcDb2dPolyline
 66
     1
 10
0.0
 20
0.0
 30
0.0
  0
VERTEX
  5
22C
330
22B
100
AcDbEntity
  8
DIBUJOS
 62
     7
100
AcDbVertex
100
AcDb2dVertex
 10
58.90249620482777
 20
41.54408176394943
 30
0.0
  0
VERTEX
  5
22D
330
22B
100
AcDbEntity
  8
DIBUJOS
 62
     7
100
AcDbVertex
100
AcDb2dVertex
 10
58.90249620482777
 20
41.54975432579839
 30
0.0
  0
SEQEND
  5
22E
330
22B
100
AcDbEntity
  8
DIBUJOS
 62
     7
  0
POLYLINE
  5
22F
330
169
100
AcDbEntity
  8
DIBUJOS
 62
     7
100
AcDb2dPolyline
 66
     1
 10
0.0
 20
0.0
 30
0.0
  0
VERTEX
  5
230
330
22F
100
AcDbEntity
  8
DIBUJOS
 62
     7
100
AcDbVertex
100
AcDb2dVertex
 10
64.7840360869901
 20
41.54408176394943
 30
0.0
  0
VERTEX
  5
231
330
22F
100
AcDbEntity
  8
DIBUJOS
 62
     7
100
AcDbVertex
100
AcDb2dVertex
 10
64.77836352514146
 20
41.54408176394943
 30
0.0
  0
SEQEND
  5
232
330
22F
100
AcDbEntity
  8
DIBUJOS
 62
     7
  0
POLYLINE
  5
233
330
169
100
AcDbEntity
  8
DIBUJOS
 62
     7
100
AcDb2dPolyline
 66
     1
 10
0.0
 20
0.0
 30
0.0
  0
VERTEX
  5
234
330
233
100
AcDbEntity
  8
DIBUJOS
 62
     7
100
AcDbVertex
100
AcDb2dVertex
 10
64.78970559579192
 20
41.54408176394943
 30
0.0
  0
VERTEX
  5
235
330
233
100
AcDbEntity
  8
DIBUJOS
 62
     7
100
AcDbVertex
100
AcDb2dVertex
 10
64.7840360869901
 20
41.54408176394943
 30
0.0
  0
SEQEND
  5
236
330
233
100
AcDbEntity
  8
DIBUJOS
 62
     7
  0
POLYLINE
  5
237
330
169
100
AcDbEntity
  8
DIBUJOS
 62
     7
100
AcDb2dPolyline
 66
     1
 10
0.0
 20
0.0
 30
0.0
  0
VERTEX
  5
238
330
237
100
AcDbEntity
  8
DIBUJOS
 62
     7
100
AcDbVertex
100
AcDb2dVertex
 10
64.78970559579192
 20
41.54408176394943
 30
0.0
  0
VERTEX
  5
239
330
237
100
AcDbEntity
  8
DIBUJOS
 62
     7
100
AcDbVertex
100
AcDb2dVertex
 10
64.8345121176935
 20
41.57357420068809
 30
0.0
  0
VERTEX
  5
23A
330
237
100
AcDbEntity
  8
DIBUJOS
 62
     7
100
AcDbVertex
100
AcDb2dVertex
 10
64.85917158058488
 20
41.59389833643977
 30
0.0
  0
VERTEX
  5
23B
330
237
100
AcDbEntity
  8
DIBUJOS
 62
     7
100
AcDbVertex
100
AcDb2dVertex
 10
64.91317388089799
 20
41.66406041601333
 30
0.0
  0
VERTEX
  5
23C
330
237
100
AcDbEntity
  8
DIBUJOS
 62
     7
100
AcDbVertex
100
AcDb2dVertex
 10
64.94681235584441
 20
41.73748620313022
 30
0.0
  0
VERTEX
  5
23D
330
237
100
AcDbEntity
  8
DIBUJOS
 62
     7
100
AcDbVertex
100
AcDb2dVertex
 10
64.95785522786096
 20
41.7714513541354
 30
0.0
  0
VERTEX
  5
23E
330
237
100
AcDbEntity
  8
DIBUJOS
 62
     7
100
AcDbVertex
100
AcDb2dVertex
 10
64.97687265937665
 20
41.90707076742163
 30
0.0
  0
VERTEX
  5
23F
330
237
100
AcDbEntity
  8
DIBUJOS
 62
     7
100
AcDbVertex
100
AcDb2dVertex
 10
64.96322859107634
 20
42.0087769315062
 30
0.0
  0
VERTEX
  5
240
330
237
100
AcDbEntity
  8
DIBUJOS
 62
     7
100
AcDbVertex
100
AcDb2dVertex
 10
63.91844833396325
 20
48.43561853554824
 30
0.0
  0
VERTEX
  5
241
330
237
100
AcDbEntity
  8
DIBUJOS
 62
     7
100
AcDbVertex
100
AcDb2dVertex
 10
63.88337187374765
 20
48.54351017342533
 30
0.0
  0
VERTEX
  5
242
330
237
100
AcDbEntity
  8
DIBUJOS
 62
     7
100
AcDbVertex
100
AcDb2dVertex
 10
63.82412443820523
 20
48.64954250550756
 30
0.0
  0
VERTEX
  5
243
330
237
100
AcDbEntity
  8
DIBUJOS
 62
     7
100
AcDbVertex
100
AcDb2dVertex
 10
63.76313065961737
 20
48.71876729956538
 30
0.0
  0
VERTEX
  5
244
330
237
100
AcDbEntity
  8
DIBUJOS
 62
     7
100
AcDbVertex
100
AcDb2dVertex
 10
63.69563694336804
 20
48.75960180695387
 30
0.0
  0
VERTEX
  5
245
330
237
100
AcDbEntity
  8
DIBUJOS
 62
     7
100
AcDbVertex
100
AcDb2dVertex
 10
63.67238493527321
 20
48.77548375891165
 30
0.0
  0
SEQEND
  5
246
330
237
100
AcDbEntity
  8
DIBUJOS
 62
     7
  0
POLYLINE
  5
247
330
169
100
AcDbEntity
  8
DIBUJOS
 62
     7
100
AcDb2dPolyline
 66
     1
 10
0.0
 20
0.0
 30
0.0
  0
VERTEX
  5
248
330
247
100
AcDbEntity
  8
DIBUJOS
 62
     7
100
AcDbVertex
100
AcDb2dVertex
 10
58.69264194689497
 20
41.53841225514793
 30
0.0
  0
VERTEX
  5
249
330
247
100
AcDbEntity
  8
DIBUJOS
 62
     7
100
AcDbVertex
100
AcDb2dVertex
 10
58.69264194689497
 20
41.54408176394943
 30
0.0
  0
SEQEND
  5
24A
330
247
100
AcDbEntity
  8
DIBUJOS
 62
     7
  0
POLYLINE
  5
24B
330
169
100
AcDbEntity
  8
DIBUJOS
 62
     7
100
AcDb2dPolyline
 66
     1
 10
0.0
 20
0.0
 30
0.0
  0
VERTEX
  5
24C
330
24B
100
AcDbEntity
  8
DIBUJOS
 62
     7
100
AcDbVertex
100
AcDb2dVertex
 10
58.69831450874361
 20
41.53841225514793
 30
0.0
  0
VERTEX
  5
24D
330
24B
100
AcDbEntity
  8
DIBUJOS
 62
     7
100
AcDbVertex
100
AcDb2dVertex
 10
58.69264194689497
 20
41.53841225514793
 30
0.0
  0
SEQEND
  5
24E
330
24B
100
AcDbEntity
  8
DIBUJOS
 62
     7
  0
POLYLINE
  5
24F
330
169
100
AcDbEntity
  8
DIBUJOS
 62
     7
100
AcDb2dPolyline
 66
     1
 10
0.0
 20
0.0
 30
0.0
  0
VERTEX
  5
250
330
24F
100
AcDbEntity
  8
DIBUJOS
 62
     7
100
AcDbVertex
100
AcDb2dVertex
 10
58.69831450874361
 20
41.53841225514793
 30
0.0
  0
VERTEX
  5
251
330
24F
100
AcDbEntity
  8
DIBUJOS
 62
     7
100
AcDbVertex
100
AcDb2dVertex
 10
58.75503096808956
 20
41.54975432579839
 30
0.0
  0
SEQEND
  5
252
330
24F
100
AcDbEntity
  8
DIBUJOS
 62
     7
  0
POLYLINE
  5
253
330
169
100
AcDbEntity
  8
DIBUJOS
 62
     7
100
AcDb2dPolyline
 66
     1
 10
0.0
 20
0.0
 30
0.0
  0
VERTEX
  5
254
330
253
100
AcDbEntity
  8
DIBUJOS
 62
     7
100
AcDbVertex
100
AcDb2dVertex
 10
64.72731657459668
 20
41.54975432579839
 30
0.0
  0
VERTEX
  5
255
330
253
100
AcDbEntity
  8
DIBUJOS
 62
     7
100
AcDbVertex
100
AcDb2dVertex
 10
64.73922956508851
 20
41.5452174975382
 30
0.0
  0
VERTEX
  5
256
330
253
100
AcDbEntity
  8
DIBUJOS
 62
     7
100
AcDbVertex
100
AcDb2dVertex
 10
64.76134889264235
 20
41.53841225514793
 30
0.0
  0
VERTEX
  5
257
330
253
100
AcDbEntity
  8
DIBUJOS
 62
     7
100
AcDbVertex
100
AcDb2dVertex
 10
64.77836352514146
 20
41.54408176394943
 30
0.0
  0
SEQEND
  5
258
330
253
100
AcDbEntity
  8
DIBUJOS
 62
     7
  0
POLYLINE
  5
259
330
169
100
AcDbEntity
  8
DIBUJOS
 62
     7
100
AcDb2dPolyline
 66
     1
 10
0.0
 20
0.0
 30
0.0
  0
VERTEX
  5
25A
330
259
100
AcDbEntity
  8
DIBUJOS
 62
     7
100
AcDbVertex
100
AcDb2dVertex
 10
64.7840360869901
 20
41.53841225514793
 30
0.0
  0
VERTEX
  5
25B
330
259
100
AcDbEntity
  8
DIBUJOS
 62
     7
100
AcDbVertex
100
AcDb2dVertex
 10
64.7840360869901
 20
41.54408176394943
 30
0.0
  0
SEQEND
  5
25C
330
259
100
AcDbEntity
  8
DIBUJOS
 62
     7
  0
POLYLINE
  5
25D
330
169
100
AcDbEntity
  8
DIBUJOS
 62
     7
100
AcDb2dPolyline
 66
     1
 10
0.0
 20
0.0
 30
0.0
  0
VERTEX
  5
25E
330
25D
100
AcDbEntity
  8
DIBUJOS
 62
     7
100
AcDbVertex
100
AcDb2dVertex
 10
58.69264194689497
 20
41.53273969329896
 30
0.0
  0
VERTEX
  5
25F
330
25D
100
AcDbEntity
  8
DIBUJOS
 62
     7
100
AcDbVertex
100
AcDb2dVertex
 10
58.69264194689497
 20
41.53841225514793
 30
0.0
  0
SEQEND
  5
260
330
25D
100
AcDbEntity
  8
DIBUJOS
 62
     7
  0
POLYLINE
  5
261
330
169
100
AcDbEntity
  8
DIBUJOS
 62
     7
100
AcDb2dPolyline
 66
     1
 10
0.0
 20
0.0
 30
0.0
  0
VERTEX
  5
262
330
261
100
AcDbEntity
  8
DIBUJOS
 62
     7
100
AcDbVertex
100
AcDb2dVertex
 10
64.57985439090658
 20
41.50437993710258
 30
0.0
  0
VERTEX
  5
263
330
261
100
AcDbEntity
  8
DIBUJOS
 62
     7
100
AcDbVertex
100
AcDb2dVertex
 10
64.57985439090658
 20
41.54408176394943
 30
0.0
  0
VERTEX
  5
264
330
261
100
AcDbEntity
  8
DIBUJOS
 62
     7
100
AcDbVertex
100
AcDb2dVertex
 10
64.5741818290573
 20
41.54975432579839
 30
0.0
  0
SEQEND
  5
265
330
261
100
AcDbEntity
  8
DIBUJOS
 62
     7
  0
POLYLINE
  5
266
330
169
100
AcDbEntity
  8
DIBUJOS
 62
     7
100
AcDb2dPolyline
 66
     1
 10
0.0
 20
0.0
 30
0.0
  0
VERTEX
  5
267
330
266
100
AcDbEntity
  8
DIBUJOS
 62
     7
100
AcDbVertex
100
AcDb2dVertex
 10
64.58552695275522
 20
41.49871042830075
 30
0.0
  0
VERTEX
  5
268
330
266
100
AcDbEntity
  8
DIBUJOS
 62
     7
100
AcDbVertex
100
AcDb2dVertex
 10
64.57985439090658
 20
41.50437993710258
 30
0.0
  0
SEQEND
  5
269
330
266
100
AcDbEntity
  8
DIBUJOS
 62
     7
  0
POLYLINE
  5
26A
330
169
100
AcDbEntity
  8
DIBUJOS
 62
     7
100
AcDb2dPolyline
 66
     1
 10
0.0
 20
0.0
 30
0.0
  0
VERTEX
  5
26B
330
26A
100
AcDbEntity
  8
DIBUJOS
 62
     7
100
AcDbVertex
100
AcDb2dVertex
 10
58.69264194689497
 20
41.53273969329896
 30
0.0
  0
VERTEX
  5
26C
330
26A
100
AcDbEntity
  8
DIBUJOS
 62
     7
100
AcDbVertex
100
AcDb2dVertex
 10
58.69264194689497
 20
41.50437993710258
 30
0.0
  0
VERTEX
  5
26D
330
26A
100
AcDbEntity
  8
DIBUJOS
 62
     7
100
AcDbVertex
100
AcDb2dVertex
 10
58.70398707059224
 20
41.49303786645244
 30
0.0
  0
VERTEX
  5
26E
330
26A
100
AcDbEntity
  8
DIBUJOS
 62
     7
100
AcDbVertex
100
AcDb2dVertex
 10
58.86846693982924
 20
41.49303786645244
 30
0.0
  0
VERTEX
  5
26F
330
26A
100
AcDbEntity
  8
DIBUJOS
 62
     7
100
AcDbVertex
100
AcDb2dVertex
 10
58.87413644863074
 20
41.49871042830075
 30
0.0
  0
VERTEX
  5
270
330
26A
100
AcDbEntity
  8
DIBUJOS
 62
     7
100
AcDbVertex
100
AcDb2dVertex
 10
58.88548157232802
 20
41.49303786645244
 30
0.0
  0
VERTEX
  5
271
330
26A
100
AcDbEntity
  8
DIBUJOS
 62
     7
100
AcDbVertex
100
AcDb2dVertex
 10
58.89115108112985
 20
41.49303786645244
 30
0.0
  0
VERTEX
  5
272
330
26A
100
AcDbEntity
  8
DIBUJOS
 62
     7
100
AcDbVertex
100
AcDb2dVertex
 10
58.90249620482777
 20
41.50437993710258
 30
0.0
  0
VERTEX
  5
273
330
26A
100
AcDbEntity
  8
DIBUJOS
 62
     7
100
AcDbVertex
100
AcDb2dVertex
 10
58.90249620482777
 20
41.54408176394943
 30
0.0
  0
SEQEND
  5
274
330
26A
100
AcDbEntity
  8
DIBUJOS
 62
     7
  0
POLYLINE
  5
275
330
169
100
AcDbEntity
  8
DIBUJOS
 62
     7
100
AcDb2dPolyline
 66
     1
 10
0.0
 20
0.0
 30
0.0
  0
VERTEX
  5
276
330
275
100
AcDbEntity
  8
DIBUJOS
 62
     7
100
AcDbVertex
100
AcDb2dVertex
 10
64.58552695275522
 20
41.49871042830075
 30
0.0
  0
VERTEX
  5
277
330
275
100
AcDbEntity
  8
DIBUJOS
 62
     7
100
AcDbVertex
100
AcDb2dVertex
 10
64.5906316478093
 20
41.4975746947123
 30
0.0
  0
VERTEX
  5
278
330
275
100
AcDbEntity
  8
DIBUJOS
 62
     7
100
AcDbVertex
100
AcDb2dVertex
 10
64.59686902340503
 20
41.49303786645244
 30
0.0
  0
VERTEX
  5
279
330
275
100
AcDbEntity
  8
DIBUJOS
 62
     7
100
AcDbVertex
100
AcDb2dVertex
 10
64.77269096329282
 20
41.49303786645244
 30
0.0
  0
VERTEX
  5
27A
330
275
100
AcDbEntity
  8
DIBUJOS
 62
     7
100
AcDbVertex
100
AcDb2dVertex
 10
64.7840360869901
 20
41.49871042830075
 30
0.0
  0
VERTEX
  5
27B
330
275
100
AcDbEntity
  8
DIBUJOS
 62
     7
100
AcDbVertex
100
AcDb2dVertex
 10
64.78970559579192
 20
41.50437993710258
 30
0.0
  0
VERTEX
  5
27C
330
275
100
AcDbEntity
  8
DIBUJOS
 62
     7
100
AcDbVertex
100
AcDb2dVertex
 10
64.78970559579192
 20
41.53273969329896
 30
0.0
  0
VERTEX
  5
27D
330
275
100
AcDbEntity
  8
DIBUJOS
 62
     7
100
AcDbVertex
100
AcDb2dVertex
 10
64.7840360869901
 20
41.53841225514793
 30
0.0
  0
SEQEND
  5
27E
330
275
100
AcDbEntity
  8
DIBUJOS
 62
     7
  0
ENDBLK
  5
16C
330
169
100
AcDbEntity
  8
0
100
AcDbBlockEnd
  0
BLOCK
  5
281
330
27F
100
AcDbEntity
  8
0
100
AcDbBlockBegin
  2
BLOCK_4
 70
     0
 10
0.0
 20
0.0
 30
0.0
  3
BLOCK_4
  1

  0
POLYLINE
  5
283
330
27F
100
AcDbEntity
  8
DIBUJOS
 62
     7
100
AcDb2dPolyline
 66
     1
 10
0.0
 20
0.0
 30
0.0
  0
VERTEX
  5
284
330
283
100
AcDbEntity
  8
DIBUJOS
 62
     7
100
AcDbVertex
100
AcDb2dVertex
 10
75.9833591153726
 20
48.80951302390987
 30
0.0
  0
VERTEX
  5
285
330
283
100
AcDbEntity
  8
DIBUJOS
 62
     7
100
AcDbVertex
100
AcDb2dVertex
 10
75.97769265961821
 20
48.80951302390987
 30
0.0
  0
SEQEND
  5
286
330
283
100
AcDbEntity
  8
DIBUJOS
 62
     7
  0
POLYLINE
  5
287
330
27F
100
AcDbEntity
  8
DIBUJOS
 62
     7
100
AcDb2dPolyline
 66
     1
 10
0.0
 20
0.0
 30
0.0
  0
VERTEX
  5
288
330
287
100
AcDbEntity
  8
DIBUJOS
 62
     7
100
AcDbVertex
100
AcDb2dVertex
 10
75.98903167722123
 20
48.80951302390987
 30
0.0
  0
VERTEX
  5
289
330
287
100
AcDbEntity
  8
DIBUJOS
 62
     7
100
AcDbVertex
100
AcDb2dVertex
 10
75.9833591153726
 20
48.80951302390987
 30
0.0
  0
SEQEND
  5
28A
330
287
100
AcDbEntity
  8
DIBUJOS
 62
     7
  0
POLYLINE
  5
28B
330
27F
100
AcDbEntity
  8
DIBUJOS
 62
     7
100
AcDb2dPolyline
 66
     1
 10
0.0
 20
0.0
 30
0.0
  0
VERTEX
  5
28C
330
28B
100
AcDbEntity
  8
DIBUJOS
 62
     7
100
AcDbVertex
100
AcDb2dVertex
 10
75.99470423907051
 20
48.80951302390987
 30
0.0
  0
VERTEX
  5
28D
330
28B
100
AcDbEntity
  8
DIBUJOS
 62
     7
100
AcDbVertex
100
AcDb2dVertex
 10
75.98903167722123
 20
48.80951302390987
 30
0.0
  0
SEQEND
  5
28E
330
28B
100
AcDbEntity
  8
DIBUJOS
 62
     7
  0
POLYLINE
  5
28F
330
27F
100
AcDbEntity
  8
DIBUJOS
 62
     7
100
AcDb2dPolyline
 66
     1
 10
0.0
 20
0.0
 30
0.0
  0
VERTEX
  5
290
330
28F
100
AcDbEntity
  8
DIBUJOS
 62
     7
100
AcDbVertex
100
AcDb2dVertex
 10
76.0003768009185
 20
48.80951302390987
 30
0.0
  0
VERTEX
  5
291
330
28F
100
AcDbEntity
  8
DIBUJOS
 62
     7
100
AcDbVertex
100
AcDb2dVertex
 10
75.99470423907051
 20
48.80951302390987
 30
0.0
  0
SEQEND
  5
292
330
28F
100
AcDbEntity
  8
DIBUJOS
 62
     7
  0
POLYLINE
  5
293
330
27F
100
AcDbEntity
  8
DIBUJOS
 62
     7
100
AcDb2dPolyline
 66
     1
 10
0.0
 20
0.0
 30
0.0
  0
VERTEX
  5
294
330
293
100
AcDbEntity
  8
DIBUJOS
 62
     7
100
AcDbVertex
100
AcDb2dVertex
 10
76.00604936276778
 20
48.80951302390987
 30
0.0
  0
VERTEX
  5
295
330
293
100
AcDbEntity
  8
DIBUJOS
 62
     7
100
AcDbVertex
100
AcDb2dVertex
 10
76.0003768009185
 20
48.80951302390987
 30
0.0
  0
SEQEND
  5
296
330
293
100
AcDbEntity
  8
DIBUJOS
 62
     7
  0
POLYLINE
  5
297
330
27F
100
AcDbEntity
  8
DIBUJOS
 62
     7
100
AcDb2dPolyline
 66
     1
 10
0.0
 20
0.0
 30
0.0
  0
VERTEX
  5
298
330
297
100
AcDbEntity
  8
DIBUJOS
 62
     7
100
AcDbVertex
100
AcDb2dVertex
 10
79.32398513237253
 20
48.80951302390987
 30
0.0
  0
VERTEX
  5
299
330
297
100
AcDbEntity
  8
DIBUJOS
 62
     7
100
AcDbVertex
100
AcDb2dVertex
 10
76.00604936276778
 20
48.80951302390987
 30
0.0
  0
SEQEND
  5
29A
330
297
100
AcDbEntity
  8
DIBUJOS
 62
     7
  0
POLYLINE
  5
29B
330
27F
100
AcDbEntity
  8
DIBUJOS
 62
     7
100
AcDb2dPolyline
 66
     1
 10
0.0
 20
0.0
 30
0.0
  0
VERTEX
  5
29C
330
29B
100
AcDbEntity
  8
DIBUJOS
 62
     7
100
AcDbVertex
100
AcDb2dVertex
 10
79.32965769422117
 20
48.80951302390987
 30
0.0
  0
VERTEX
  5
29D
330
29B
100
AcDbEntity
  8
DIBUJOS
 62
     7
100
AcDbVertex
100
AcDb2dVertex
 10
79.32398513237253
 20
48.80951302390987
 30
0.0
  0
SEQEND
  5
29E
330
29B
100
AcDbEntity
  8
DIBUJOS
 62
     7
  0
POLYLINE
  5
29F
330
27F
100
AcDbEntity
  8
DIBUJOS
 62
     7
100
AcDb2dPolyline
 66
     1
 10
0.0
 20
0.0
 30
0.0
  0
VERTEX
  5
2A0
330
29F
100
AcDbEntity
  8
DIBUJOS
 62
     7
100
AcDbVertex
100
AcDb2dVertex
 10
79.33533025606981
 20
48.80951302390987
 30
0.0
  0
VERTEX
  5
2A1
330
29F
100
AcDbEntity
  8
DIBUJOS
 62
     7
100
AcDbVertex
100
AcDb2dVertex
 10
79.32965769422117
 20
48.80951302390987
 30
0.0
  0
SEQEND
  5
2A2
330
29F
100
AcDbEntity
  8
DIBUJOS
 62
     7
  0
POLYLINE
  5
2A3
330
27F
100
AcDbEntity
  8
DIBUJOS
 62
     7
100
AcDb2dPolyline
 66
     1
 10
0.0
 20
0.0
 30
0.0
  0
VERTEX
  5
2A4
330
2A3
100
AcDbEntity
  8
DIBUJOS
 62
     7
100
AcDbVertex
100
AcDb2dVertex
 10
79.37503208291666
 20
48.80951302390987
 30
0.0
  0
VERTEX
  5
2A5
330
2A3
100
AcDbEntity
  8
DIBUJOS
 62
     7
100
AcDbVertex
100
AcDb2dVertex
 10
79.33533025606981
 20
48.80951302390987
 30
0.0
  0
SEQEND
  5
2A6
330
2A3
100
AcDbEntity
  8
DIBUJOS
 62
     7
  0
POLYLINE
  5
2A7
330
27F
100
AcDbEntity
  8
DIBUJOS
 62
     7
100
AcDb2dPolyline
 66
     1
 10
0.0
 20
0.0
 30
0.0
  0
VERTEX
  5
2A8
330
2A7
100
AcDbEntity
  8
DIBUJOS
 62
     7
100
AcDbVertex
100
AcDb2dVertex
 10
79.38070464476594
 20
48.80951302390987
 30
0.0
  0
VERTEX
  5
2A9
330
2A7
100
AcDbEntity
  8
DIBUJOS
 62
     7
100
AcDbVertex
100
AcDb2dVertex
 10
79.37503208291666
 20
48.80951302390987
 30
0.0
  0
SEQEND
  5
2AA
330
2A7
100
AcDbEntity
  8
DIBUJOS
 62
     7
  0
POLYLINE
  5
2AB
330
27F
100
AcDbEntity
  8
DIBUJOS
 62
     7
100
AcDb2dPolyline
 66
     1
 10
0.0
 20
0.0
 30
0.0
  0
VERTEX
  5
2AC
330
2AB
100
AcDbEntity
  8
DIBUJOS
 62
     7
100
AcDbVertex
100
AcDb2dVertex
 10
79.38637110052031
 20
48.80951302390987
 30
0.0
  0
VERTEX
  5
2AD
330
2AB
100
AcDbEntity
  8
DIBUJOS
 62
     7
100
AcDbVertex
100
AcDb2dVertex
 10
79.38070464476594
 20
48.80951302390987
 30
0.0
  0
SEQEND
  5
2AE
330
2AB
100
AcDbEntity
  8
DIBUJOS
 62
     7
  0
POLYLINE
  5
2AF
330
27F
100
AcDbEntity
  8
DIBUJOS
 62
     7
100
AcDb2dPolyline
 66
     1
 10
0.0
 20
0.0
 30
0.0
  0
VERTEX
  5
2B0
330
2AF
100
AcDbEntity
  8
DIBUJOS
 62
     7
100
AcDbVertex
100
AcDb2dVertex
 10
75.94365728852574
 20
48.8038404620609
 30
0.0
  0
VERTEX
  5
2B1
330
2AF
100
AcDbEntity
  8
DIBUJOS
 62
     7
100
AcDbVertex
100
AcDb2dVertex
 10
75.93799083277138
 20
48.8038404620609
 30
0.0
  0
SEQEND
  5
2B2
330
2AF
100
AcDbEntity
  8
DIBUJOS
 62
     7
  0
POLYLINE
  5
2B3
330
27F
100
AcDbEntity
  8
DIBUJOS
 62
     7
100
AcDb2dPolyline
 66
     1
 10
0.0
 20
0.0
 30
0.0
  0
VERTEX
  5
2B4
330
2B3
100
AcDbEntity
  8
DIBUJOS
 62
     7
100
AcDbVertex
100
AcDb2dVertex
 10
75.94932985037438
 20
48.8038404620609
 30
0.0
  0
VERTEX
  5
2B5
330
2B3
100
AcDbEntity
  8
DIBUJOS
 62
     7
100
AcDbVertex
100
AcDb2dVertex
 10
75.94365728852574
 20
48.8038404620609
 30
0.0
  0
SEQEND
  5
2B6
330
2B3
100
AcDbEntity
  8
DIBUJOS
 62
     7
  0
POLYLINE
  5
2B7
330
27F
100
AcDbEntity
  8
DIBUJOS
 62
     7
100
AcDb2dPolyline
 66
     1
 10
0.0
 20
0.0
 30
0.0
  0
VERTEX
  5
2B8
330
2B7
100
AcDbEntity
  8
DIBUJOS
 62
     7
100
AcDbVertex
100
AcDb2dVertex
 10
75.94932985037438
 20
48.8038404620609
 30
0.0
  0
VERTEX
  5
2B9
330
2B7
100
AcDbEntity
  8
DIBUJOS
 62
     7
100
AcDbVertex
100
AcDb2dVertex
 10
75.95500241222302
 20
48.80951302390987
 30
0.0
  0
VERTEX
  5
2BA
330
2B7
100
AcDbEntity
  8
DIBUJOS
 62
     7
100
AcDbVertex
100
AcDb2dVertex
 10
75.97769265961821
 20
48.80951302390987
 30
0.0
  0
SEQEND
  5
2BB
330
2B7
100
AcDbEntity
  8
DIBUJOS
 62
     7
  0
POLYLINE
  5
2BC
330
27F
100
AcDbEntity
  8
DIBUJOS
 62
     7
100
AcDb2dPolyline
 66
     1
 10
0.0
 20
0.0
 30
0.0
  0
VERTEX
  5
2BD
330
2BC
100
AcDbEntity
  8
DIBUJOS
 62
     7
100
AcDbVertex
100
AcDb2dVertex
 10
75.9833591153726
 20
48.8038404620609
 30
0.0
  0
VERTEX
  5
2BE
330
2BC
100
AcDbEntity
  8
DIBUJOS
 62
     7
100
AcDbVertex
100
AcDb2dVertex
 10
75.9833591153726
 20
48.80951302390987
 30
0.0
  0
SEQEND
  5
2BF
330
2BC
100
AcDbEntity
  8
DIBUJOS
 62
     7
  0
POLYLINE
  5
2C0
330
27F
100
AcDbEntity
  8
DIBUJOS
 62
     7
100
AcDb2dPolyline
 66
     1
 10
0.0
 20
0.0
 30
0.0
  0
VERTEX
  5
2C1
330
2C0
100
AcDbEntity
  8
DIBUJOS
 62
     7
100
AcDbVertex
100
AcDb2dVertex
 10
76.0003768009185
 20
48.8038404620609
 30
0.0
  0
VERTEX
  5
2C2
330
2C0
100
AcDbEntity
  8
DIBUJOS
 62
     7
100
AcDbVertex
100
AcDb2dVertex
 10
76.0003768009185
 20
48.80951302390987
 30
0.0
  0
SEQEND
  5
2C3
330
2C0
100
AcDbEntity
  8
DIBUJOS
 62
     7
  0
POLYLINE
  5
2C4
330
27F
100
AcDbEntity
  8
DIBUJOS
 62
     7
100
AcDb2dPolyline
 66
     1
 10
0.0
 20
0.0
 30
0.0
  0
VERTEX
  5
2C5
330
2C4
100
AcDbEntity
  8
DIBUJOS
 62
     7
100
AcDbVertex
100
AcDb2dVertex
 10
79.32965769422117
 20
48.8038404620609
 30
0.0
  0
VERTEX
  5
2C6
330
2C4
100
AcDbEntity
  8
DIBUJOS
 62
     7
100
AcDbVertex
100
AcDb2dVertex
 10
79.32965769422117
 20
48.80951302390987
 30
0.0
  0
SEQEND
  5
2C7
330
2C4
100
AcDbEntity
  8
DIBUJOS
 62
     7
  0
POLYLINE
  5
2C8
330
27F
100
AcDbEntity
  8
DIBUJOS
 62
     7
100
AcDb2dPolyline
 66
     1
 10
0.0
 20
0.0
 30
0.0
  0
VERTEX
  5
2C9
330
2C8
100
AcDbEntity
  8
DIBUJOS
 62
     7
100
AcDbVertex
100
AcDb2dVertex
 10
79.38070464476594
 20
48.8038404620609
 30
0.0
  0
VERTEX
  5
2CA
330
2C8
100
AcDbEntity
  8
DIBUJOS
 62
     7
100
AcDbVertex
100
AcDb2dVertex
 10
79.38070464476594
 20
48.80951302390987
 30
0.0
  0
SEQEND
  5
2CB
330
2C8
100
AcDbEntity
  8
DIBUJOS
 62
     7
  0
POLYLINE
  5
2CC
330
27F
100
AcDbEntity
  8
DIBUJOS
 62
     7
100
AcDb2dPolyline
 66
     1
 10
0.0
 20
0.0
 30
0.0
  0
VERTEX
  5
2CD
330
2CC
100
AcDbEntity
  8
DIBUJOS
 62
     7
100
AcDbVertex
100
AcDb2dVertex
 10
75.91530058537617
 20
48.79817095325972
 30
0.0
  0
VERTEX
  5
2CE
330
2CC
100
AcDbEntity
  8
DIBUJOS
 62
     7
100
AcDbVertex
100
AcDb2dVertex
 10
75.84724205537975
 20
48.79817095325972
 30
0.0
  0
SEQEND
  5
2CF
330
2CC
100
AcDbEntity
  8
DIBUJOS
 62
     7
  0
POLYLINE
  5
2D0
330
27F
100
AcDbEntity
  8
DIBUJOS
 62
     7
100
AcDb2dPolyline
 66
     1
 10
0.0
 20
0.0
 30
0.0
  0
VERTEX
  5
2D1
330
2D0
100
AcDbEntity
  8
DIBUJOS
 62
     7
100
AcDbVertex
100
AcDb2dVertex
 10
75.91530058537617
 20
48.79817095325972
 30
0.0
  0
VERTEX
  5
2D2
330
2D0
100
AcDbEntity
  8
DIBUJOS
 62
     7
100
AcDbVertex
100
AcDb2dVertex
 10
75.92778144266255
 20
48.80611192923845
 30
0.0
  0
VERTEX
  5
2D3
330
2D0
100
AcDbEntity
  8
DIBUJOS
 62
     7
100
AcDbVertex
100
AcDb2dVertex
 10
75.93799083277138
 20
48.8038404620609
 30
0.0
  0
SEQEND
  5
2D4
330
2D0
100
AcDbEntity
  8
DIBUJOS
 62
     7
  0
POLYLINE
  5
2D5
330
27F
100
AcDbEntity
  8
DIBUJOS
 62
     7
100
AcDb2dPolyline
 66
     1
 10
0.0
 20
0.0
 30
0.0
  0
VERTEX
  5
2D6
330
2D5
100
AcDbEntity
  8
DIBUJOS
 62
     7
100
AcDbVertex
100
AcDb2dVertex
 10
75.94365728852574
 20
48.79817095325972
 30
0.0
  0
VERTEX
  5
2D7
330
2D5
100
AcDbEntity
  8
DIBUJOS
 62
     7
100
AcDbVertex
100
AcDb2dVertex
 10
75.94365728852574
 20
48.8038404620609
 30
0.0
  0
SEQEND
  5
2D8
330
2D5
100
AcDbEntity
  8
DIBUJOS
 62
     7
  0
POLYLINE
  5
2D9
330
27F
100
AcDbEntity
  8
DIBUJOS
 62
     7
100
AcDb2dPolyline
 66
     1
 10
0.0
 20
0.0
 30
0.0
  0
VERTEX
  5
2DA
330
2D9
100
AcDbEntity
  8
DIBUJOS
 62
     7
100
AcDbVertex
100
AcDb2dVertex
 10
79.41473390976415
 20
48.79817095325972
 30
0.0
  0
VERTEX
  5
2DB
330
2D9
100
AcDbEntity
  8
DIBUJOS
 62
     7
100
AcDbVertex
100
AcDb2dVertex
 10
79.38637110052031
 20
48.80951302390987
 30
0.0
  0
SEQEND
  5
2DC
330
2D9
100
AcDbEntity
  8
DIBUJOS
 62
     7
  0
POLYLINE
  5
2DD
330
27F
100
AcDbEntity
  8
DIBUJOS
 62
     7
100
AcDb2dPolyline
 66
     1
 10
0.0
 20
0.0
 30
0.0
  0
VERTEX
  5
2DE
330
2DD
100
AcDbEntity
  8
DIBUJOS
 62
     7
100
AcDbVertex
100
AcDb2dVertex
 10
79.51682170475877
 20
48.79817095325972
 30
0.0
  0
VERTEX
  5
2DF
330
2DD
100
AcDbEntity
  8
DIBUJOS
 62
     7
100
AcDbVertex
100
AcDb2dVertex
 10
79.41473390976415
 20
48.79817095325972
 30
0.0
  0
SEQEND
  5
2E0
330
2DD
100
AcDbEntity
  8
DIBUJOS
 62
     7
  0
POLYLINE
  5
2E1
330
27F
100
AcDbEntity
  8
DIBUJOS
 62
     7
100
AcDb2dPolyline
 66
     1
 10
0.0
 20
0.0
 30
0.0
  0
VERTEX
  5
2E2
330
2E1
100
AcDbEntity
  8
DIBUJOS
 62
     7
100
AcDbVertex
100
AcDb2dVertex
 10
79.51682170475877
 20
48.79817095325972
 30
0.0
  0
VERTEX
  5
2E3
330
2E1
100
AcDbEntity
  8
DIBUJOS
 62
     7
100
AcDbVertex
100
AcDb2dVertex
 10
79.5281912528344
 20
48.80386488643926
 30
0.0
  0
VERTEX
  5
2E4
330
2E1
100
AcDbEntity
  8
DIBUJOS
 62
     7
100
AcDbVertex
100
AcDb2dVertex
 10
82.22221849220593
 20
48.80951302390987
 30
0.0
  0
VERTEX
  5
2E5
330
2E1
100
AcDbEntity
  8
DIBUJOS
 62
     7
100
AcDbVertex
100
AcDb2dVertex
 10
82.22789105405457
 20
48.81518558575851
 30
0.0
  0
VERTEX
  5
2E6
330
2E1
100
AcDbEntity
  8
DIBUJOS
 62
     7
100
AcDbVertex
100
AcDb2dVertex
 10
82.22789105405457
 20
48.99100752564596
 30
0.0
  0
VERTEX
  5
2E7
330
2E1
100
AcDbEntity
  8
DIBUJOS
 62
     7
100
AcDbVertex
100
AcDb2dVertex
 10
82.2165459303573
 20
49.00234959629611
 30
0.0
  0
VERTEX
  5
2E8
330
2E1
100
AcDbEntity
  8
DIBUJOS
 62
     7
100
AcDbVertex
100
AcDb2dVertex
 10
73.15319039162988
 20
49.00234959629611
 30
0.0
  0
VERTEX
  5
2E9
330
2E1
100
AcDbEntity
  8
DIBUJOS
 62
     7
100
AcDbVertex
100
AcDb2dVertex
 10
73.1418452679326
 20
48.99100752564596
 30
0.0
  0
VERTEX
  5
2EA
330
2E1
100
AcDbEntity
  8
DIBUJOS
 62
     7
100
AcDbVertex
100
AcDb2dVertex
 10
73.1418452679326
 20
48.81518558575851
 30
0.0
  0
VERTEX
  5
2EB
330
2E1
100
AcDbEntity
  8
DIBUJOS
 62
     7
100
AcDbVertex
100
AcDb2dVertex
 10
75.84100162673657
 20
48.80270778151959
 30
0.0
  0
VERTEX
  5
2EC
330
2E1
100
AcDbEntity
  8
DIBUJOS
 62
     7
100
AcDbVertex
100
AcDb2dVertex
 10
75.84724205537975
 20
48.79817095325972
 30
0.0
  0
SEQEND
  5
2ED
330
2E1
100
AcDbEntity
  8
DIBUJOS
 62
     7
  0
POLYLINE
  5
2EE
330
27F
100
AcDbEntity
  8
DIBUJOS
 62
     7
100
AcDb2dPolyline
 66
     1
 10
0.0
 20
0.0
 30
0.0
  0
VERTEX
  5
2EF
330
2EE
100
AcDbEntity
  8
DIBUJOS
 62
     7
100
AcDbVertex
100
AcDb2dVertex
 10
75.94365728852574
 20
48.79249839141076
 30
0.0
  0
VERTEX
  5
2F0
330
2EE
100
AcDbEntity
  8
DIBUJOS
 62
     7
100
AcDbVertex
100
AcDb2dVertex
 10
75.93799083277138
 20
48.79249839141076
 30
0.0
  0
SEQEND
  5
2F1
330
2EE
100
AcDbEntity
  8
DIBUJOS
 62
     7
  0
POLYLINE
  5
2F2
330
27F
100
AcDbEntity
  8
DIBUJOS
 62
     7
100
AcDb2dPolyline
 66
     1
 10
0.0
 20
0.0
 30
0.0
  0
VERTEX
  5
2F3
330
2F2
100
AcDbEntity
  8
DIBUJOS
 62
     7
100
AcDbVertex
100
AcDb2dVertex
 10
75.94365728852574
 20
48.79249839141076
 30
0.0
  0
VERTEX
  5
2F4
330
2F2
100
AcDbEntity
  8
DIBUJOS
 62
     7
100
AcDbVertex
100
AcDb2dVertex
 10
75.94365728852574
 20
48.79817095325972
 30
0.0
  0
SEQEND
  5
2F5
330
2F2
100
AcDbEntity
  8
DIBUJOS
 62
     7
  0
POLYLINE
  5
2F6
330
27F
100
AcDbEntity
  8
DIBUJOS
 62
     7
100
AcDb2dPolyline
 66
     1
 10
0.0
 20
0.0
 30
0.0
  0
VERTEX
  5
2F7
330
2F6
100
AcDbEntity
  8
DIBUJOS
 62
     7
100
AcDbVertex
100
AcDb2dVertex
 10
75.94932985037438
 20
48.79249839141076
 30
0.0
  0
VERTEX
  5
2F8
330
2F6
100
AcDbEntity
  8
DIBUJOS
 62
     7
100
AcDbVertex
100
AcDb2dVertex
 10
75.94365728852574
 20
48.79249839141076
 30
0.0
  0
SEQEND
  5
2F9
330
2F6
100
AcDbEntity
  8
DIBUJOS
 62
     7
  0
POLYLINE
  5
2FA
330
27F
100
AcDbEntity
  8
DIBUJOS
 62
     7
100
AcDb2dPolyline
 66
     1
 10
0.0
 20
0.0
 30
0.0
  0
VERTEX
  5
2FB
330
2FA
100
AcDbEntity
  8
DIBUJOS
 62
     7
100
AcDbVertex
100
AcDb2dVertex
 10
75.9833591153726
 20
48.79249839141076
 30
0.0
  0
VERTEX
  5
2FC
330
2FA
100
AcDbEntity
  8
DIBUJOS
 62
     7
100
AcDbVertex
100
AcDb2dVertex
 10
75.9833591153726
 20
48.8038404620609
 30
0.0
  0
SEQEND
  5
2FD
330
2FA
100
AcDbEntity
  8
DIBUJOS
 62
     7
  0
POLYLINE
  5
2FE
330
27F
100
AcDbEntity
  8
DIBUJOS
 62
     7
100
AcDb2dPolyline
 66
     1
 10
0.0
 20
0.0
 30
0.0
  0
VERTEX
  5
2FF
330
2FE
100
AcDbEntity
  8
DIBUJOS
 62
     7
100
AcDbVertex
100
AcDb2dVertex
 10
76.0003768009185
 20
48.79249839141076
 30
0.0
  0
VERTEX
  5
300
330
2FE
100
AcDbEntity
  8
DIBUJOS
 62
     7
100
AcDbVertex
100
AcDb2dVertex
 10
76.0003768009185
 20
48.8038404620609
 30
0.0
  0
SEQEND
  5
301
330
2FE
100
AcDbEntity
  8
DIBUJOS
 62
     7
  0
POLYLINE
  5
302
330
27F
100
AcDbEntity
  8
DIBUJOS
 62
     7
100
AcDb2dPolyline
 66
     1
 10
0.0
 20
0.0
 30
0.0
  0
VERTEX
  5
303
330
302
100
AcDbEntity
  8
DIBUJOS
 62
     7
100
AcDbVertex
100
AcDb2dVertex
 10
79.32965769422117
 20
48.79249839141076
 30
0.0
  0
VERTEX
  5
304
330
302
100
AcDbEntity
  8
DIBUJOS
 62
     7
100
AcDbVertex
100
AcDb2dVertex
 10
79.32965769422117
 20
48.8038404620609
 30
0.0
  0
SEQEND
  5
305
330
302
100
AcDbEntity
  8
DIBUJOS
 62
     7
  0
POLYLINE
  5
306
330
27F
100
AcDbEntity
  8
DIBUJOS
 62
     7
100
AcDb2dPolyline
 66
     1
 10
0.0
 20
0.0
 30
0.0
  0
VERTEX
  5
307
330
306
100
AcDbEntity
  8
DIBUJOS
 62
     7
100
AcDbVertex
100
AcDb2dVertex
 10
79.38070464476594
 20
48.79249839141076
 30
0.0
  0
VERTEX
  5
308
330
306
100
AcDbEntity
  8
DIBUJOS
 62
     7
100
AcDbVertex
100
AcDb2dVertex
 10
79.38070464476594
 20
48.8038404620609
 30
0.0
  0
SEQEND
  5
309
330
306
100
AcDbEntity
  8
DIBUJOS
 62
     7
  0
POLYLINE
  5
30A
330
27F
100
AcDbEntity
  8
DIBUJOS
 62
     7
100
AcDb2dPolyline
 66
     1
 10
0.0
 20
0.0
 30
0.0
  0
VERTEX
  5
30B
330
30A
100
AcDbEntity
  8
DIBUJOS
 62
     7
100
AcDbVertex
100
AcDb2dVertex
 10
75.91530058537617
 20
48.79817095325972
 30
0.0
  0
VERTEX
  5
30C
330
30A
100
AcDbEntity
  8
DIBUJOS
 62
     7
100
AcDbVertex
100
AcDb2dVertex
 10
75.92778144266255
 20
48.79022997728067
 30
0.0
  0
VERTEX
  5
30D
330
30A
100
AcDbEntity
  8
DIBUJOS
 62
     7
100
AcDbVertex
100
AcDb2dVertex
 10
75.93799083277138
 20
48.79249839141076
 30
0.0
  0
SEQEND
  5
30E
330
30A
100
AcDbEntity
  8
DIBUJOS
 62
     7
  0
POLYLINE
  5
30F
330
27F
100
AcDbEntity
  8
DIBUJOS
 62
     7
100
AcDb2dPolyline
 66
     1
 10
0.0
 20
0.0
 30
0.0
  0
VERTEX
  5
310
330
30F
100
AcDbEntity
  8
DIBUJOS
 62
     7
100
AcDbVertex
100
AcDb2dVertex
 10
75.97769265961821
 20
48.78682582956212
 30
0.0
  0
VERTEX
  5
311
330
30F
100
AcDbEntity
  8
DIBUJOS
 62
     7
100
AcDbVertex
100
AcDb2dVertex
 10
75.95500241222302
 20
48.78682582956212
 30
0.0
  0
VERTEX
  5
312
330
30F
100
AcDbEntity
  8
DIBUJOS
 62
     7
100
AcDbVertex
100
AcDb2dVertex
 10
75.94932985037438
 20
48.79249839141076
 30
0.0
  0
SEQEND
  5
313
330
30F
100
AcDbEntity
  8
DIBUJOS
 62
     7
  0
POLYLINE
  5
314
330
27F
100
AcDbEntity
  8
DIBUJOS
 62
     7
100
AcDb2dPolyline
 66
     1
 10
0.0
 20
0.0
 30
0.0
  0
VERTEX
  5
315
330
314
100
AcDbEntity
  8
DIBUJOS
 62
     7
100
AcDbVertex
100
AcDb2dVertex
 10
75.9833591153726
 20
48.78682582956212
 30
0.0
  0
VERTEX
  5
316
330
314
100
AcDbEntity
  8
DIBUJOS
 62
     7
100
AcDbVertex
100
AcDb2dVertex
 10
75.97769265961821
 20
48.78682582956212
 30
0.0
  0
SEQEND
  5
317
330
314
100
AcDbEntity
  8
DIBUJOS
 62
     7
  0
POLYLINE
  5
318
330
27F
100
AcDbEntity
  8
DIBUJOS
 62
     7
100
AcDb2dPolyline
 66
     1
 10
0.0
 20
0.0
 30
0.0
  0
VERTEX
  5
319
330
318
100
AcDbEntity
  8
DIBUJOS
 62
     7
100
AcDbVertex
100
AcDb2dVertex
 10
75.9833591153726
 20
48.78682582956212
 30
0.0
  0
VERTEX
  5
31A
330
318
100
AcDbEntity
  8
DIBUJOS
 62
     7
100
AcDbVertex
100
AcDb2dVertex
 10
75.9833591153726
 20
48.79249839141076
 30
0.0
  0
SEQEND
  5
31B
330
318
100
AcDbEntity
  8
DIBUJOS
 62
     7
  0
POLYLINE
  5
31C
330
27F
100
AcDbEntity
  8
DIBUJOS
 62
     7
100
AcDb2dPolyline
 66
     1
 10
0.0
 20
0.0
 30
0.0
  0
VERTEX
  5
31D
330
31C
100
AcDbEntity
  8
DIBUJOS
 62
     7
100
AcDbVertex
100
AcDb2dVertex
 10
75.98903167722123
 20
48.78682582956212
 30
0.0
  0
VERTEX
  5
31E
330
31C
100
AcDbEntity
  8
DIBUJOS
 62
     7
100
AcDbVertex
100
AcDb2dVertex
 10
75.9833591153726
 20
48.78682582956212
 30
0.0
  0
SEQEND
  5
31F
330
31C
100
AcDbEntity
  8
DIBUJOS
 62
     7
  0
POLYLINE
  5
320
330
27F
100
AcDbEntity
  8
DIBUJOS
 62
     7
100
AcDb2dPolyline
 66
     1
 10
0.0
 20
0.0
 30
0.0
  0
VERTEX
  5
321
330
320
100
AcDbEntity
  8
DIBUJOS
 62
     7
100
AcDbVertex
100
AcDb2dVertex
 10
75.99470423907051
 20
48.78682582956212
 30
0.0
  0
VERTEX
  5
322
330
320
100
AcDbEntity
  8
DIBUJOS
 62
     7
100
AcDbVertex
100
AcDb2dVertex
 10
75.98903167722123
 20
48.78682582956212
 30
0.0
  0
SEQEND
  5
323
330
320
100
AcDbEntity
  8
DIBUJOS
 62
     7
  0
POLYLINE
  5
324
330
27F
100
AcDbEntity
  8
DIBUJOS
 62
     7
100
AcDb2dPolyline
 66
     1
 10
0.0
 20
0.0
 30
0.0
  0
VERTEX
  5
325
330
324
100
AcDbEntity
  8
DIBUJOS
 62
     7
100
AcDbVertex
100
AcDb2dVertex
 10
76.0003768009185
 20
48.78682582956212
 30
0.0
  0
VERTEX
  5
326
330
324
100
AcDbEntity
  8
DIBUJOS
 62
     7
100
AcDbVertex
100
AcDb2dVertex
 10
75.99470423907051
 20
48.78682582956212
 30
0.0
  0
SEQEND
  5
327
330
324
100
AcDbEntity
  8
DIBUJOS
 62
     7
  0
POLYLINE
  5
328
330
27F
100
AcDbEntity
  8
DIBUJOS
 62
     7
100
AcDb2dPolyline
 66
     1
 10
0.0
 20
0.0
 30
0.0
  0
VERTEX
  5
329
330
328
100
AcDbEntity
  8
DIBUJOS
 62
     7
100
AcDbVertex
100
AcDb2dVertex
 10
76.0003768009185
 20
48.78682582956212
 30
0.0
  0
VERTEX
  5
32A
330
328
100
AcDbEntity
  8
DIBUJOS
 62
     7
100
AcDbVertex
100
AcDb2dVertex
 10
76.0003768009185
 20
48.79249839141076
 30
0.0
  0
SEQEND
  5
32B
330
328
100
AcDbEntity
  8
DIBUJOS
 62
     7
  0
POLYLINE
  5
32C
330
27F
100
AcDbEntity
  8
DIBUJOS
 62
     7
100
AcDb2dPolyline
 66
     1
 10
0.0
 20
0.0
 30
0.0
  0
VERTEX
  5
32D
330
32C
100
AcDbEntity
  8
DIBUJOS
 62
     7
100
AcDbVertex
100
AcDb2dVertex
 10
76.00604936276778
 20
48.78682582956212
 30
0.0
  0
VERTEX
  5
32E
330
32C
100
AcDbEntity
  8
DIBUJOS
 62
     7
100
AcDbVertex
100
AcDb2dVertex
 10
76.0003768009185
 20
48.78682582956212
 30
0.0
  0
SEQEND
  5
32F
330
32C
100
AcDbEntity
  8
DIBUJOS
 62
     7
  0
POLYLINE
  5
330
330
27F
100
AcDbEntity
  8
DIBUJOS
 62
     7
100
AcDb2dPolyline
 66
     1
 10
0.0
 20
0.0
 30
0.0
  0
VERTEX
  5
331
330
330
100
AcDbEntity
  8
DIBUJOS
 62
     7
100
AcDbVertex
100
AcDb2dVertex
 10
79.32965769422117
 20
48.78682582956212
 30
0.0
  0
VERTEX
  5
332
330
330
100
AcDbEntity
  8
DIBUJOS
 62
     7
100
AcDbVertex
100
AcDb2dVertex
 10
79.32398513237253
 20
48.78682582956212
 30
0.0
  0
SEQEND
  5
333
330
330
100
AcDbEntity
  8
DIBUJOS
 62
     7
  0
POLYLINE
  5
334
330
27F
100
AcDbEntity
  8
DIBUJOS
 62
     7
100
AcDb2dPolyline
 66
     1
 10
0.0
 20
0.0
 30
0.0
  0
VERTEX
  5
335
330
334
100
AcDbEntity
  8
DIBUJOS
 62
     7
100
AcDbVertex
100
AcDb2dVertex
 10
79.32965769422117
 20
48.78682582956212
 30
0.0
  0
VERTEX
  5
336
330
334
100
AcDbEntity
  8
DIBUJOS
 62
     7
100
AcDbVertex
100
AcDb2dVertex
 10
79.32965769422117
 20
48.79249839141076
 30
0.0
  0
SEQEND
  5
337
330
334
100
AcDbEntity
  8
DIBUJOS
 62
     7
  0
POLYLINE
  5
338
330
27F
100
AcDbEntity
  8
DIBUJOS
 62
     7
100
AcDb2dPolyline
 66
     1
 10
0.0
 20
0.0
 30
0.0
  0
VERTEX
  5
339
330
338
100
AcDbEntity
  8
DIBUJOS
 62
     7
100
AcDbVertex
100
AcDb2dVertex
 10
79.33533025606981
 20
48.78682582956212
 30
0.0
  0
VERTEX
  5
33A
330
338
100
AcDbEntity
  8
DIBUJOS
 62
     7
100
AcDbVertex
100
AcDb2dVertex
 10
79.32965769422117
 20
48.78682582956212
 30
0.0
  0
SEQEND
  5
33B
330
338
100
AcDbEntity
  8
DIBUJOS
 62
     7
  0
POLYLINE
  5
33C
330
27F
100
AcDbEntity
  8
DIBUJOS
 62
     7
100
AcDb2dPolyline
 66
     1
 10
0.0
 20
0.0
 30
0.0
  0
VERTEX
  5
33D
330
33C
100
AcDbEntity
  8
DIBUJOS
 62
     7
100
AcDbVertex
100
AcDb2dVertex
 10
79.37503208291666
 20
48.78682582956212
 30
0.0
  0
VERTEX
  5
33E
330
33C
100
AcDbEntity
  8
DIBUJOS
 62
     7
100
AcDbVertex
100
AcDb2dVertex
 10
79.33533025606981
 20
48.78682582956212
 30
0.0
  0
SEQEND
  5
33F
330
33C
100
AcDbEntity
  8
DIBUJOS
 62
     7
  0
POLYLINE
  5
340
330
27F
100
AcDbEntity
  8
DIBUJOS
 62
     7
100
AcDb2dPolyline
 66
     1
 10
0.0
 20
0.0
 30
0.0
  0
VERTEX
  5
341
330
340
100
AcDbEntity
  8
DIBUJOS
 62
     7
100
AcDbVertex
100
AcDb2dVertex
 10
79.38070464476594
 20
48.78682582956212
 30
0.0
  0
VERTEX
  5
342
330
340
100
AcDbEntity
  8
DIBUJOS
 62
     7
100
AcDbVertex
100
AcDb2dVertex
 10
79.37503208291666
 20
48.78682582956212
 30
0.0
  0
SEQEND
  5
343
330
340
100
AcDbEntity
  8
DIBUJOS
 62
     7
  0
POLYLINE
  5
344
330
27F
100
AcDbEntity
  8
DIBUJOS
 62
     7
100
AcDb2dPolyline
 66
     1
 10
0.0
 20
0.0
 30
0.0
  0
VERTEX
  5
345
330
344
100
AcDbEntity
  8
DIBUJOS
 62
     7
100
AcDbVertex
100
AcDb2dVertex
 10
79.38070464476594
 20
48.78682582956212
 30
0.0
  0
VERTEX
  5
346
330
344
100
AcDbEntity
  8
DIBUJOS
 62
     7
100
AcDbVertex
100
AcDb2dVertex
 10
79.38070464476594
 20
48.79249839141076
 30
0.0
  0
SEQEND
  5
347
330
344
100
AcDbEntity
  8
DIBUJOS
 62
     7
  0
POLYLINE
  5
348
330
27F
100
AcDbEntity
  8
DIBUJOS
 62
     7
100
AcDb2dPolyline
 66
     1
 10
0.0
 20
0.0
 30
0.0
  0
VERTEX
  5
349
330
348
100
AcDbEntity
  8
DIBUJOS
 62
     7
100
AcDbVertex
100
AcDb2dVertex
 10
79.38637110052031
 20
48.78682582956212
 30
0.0
  0
VERTEX
  5
34A
330
348
100
AcDbEntity
  8
DIBUJOS
 62
     7
100
AcDbVertex
100
AcDb2dVertex
 10
79.38070464476594
 20
48.78682582956212
 30
0.0
  0
SEQEND
  5
34B
330
348
100
AcDbEntity
  8
DIBUJOS
 62
     7
  0
POLYLINE
  5
34C
330
27F
100
AcDbEntity
  8
DIBUJOS
 62
     7
100
AcDb2dPolyline
 66
     1
 10
0.0
 20
0.0
 30
0.0
  0
VERTEX
  5
34D
330
34C
100
AcDbEntity
  8
DIBUJOS
 62
     7
100
AcDbVertex
100
AcDb2dVertex
 10
79.38637110052031
 20
48.78682582956212
 30
0.0
  0
VERTEX
  5
34E
330
34C
100
AcDbEntity
  8
DIBUJOS
 62
     7
100
AcDbVertex
100
AcDb2dVertex
 10
79.41473390976415
 20
48.79817095325972
 30
0.0
  0
SEQEND
  5
34F
330
34C
100
AcDbEntity
  8
DIBUJOS
 62
     7
  0
POLYLINE
  5
350
330
27F
100
AcDbEntity
  8
DIBUJOS
 62
     7
100
AcDb2dPolyline
 66
     1
 10
0.0
 20
0.0
 30
0.0
  0
VERTEX
  5
351
330
350
100
AcDbEntity
  8
DIBUJOS
 62
     7
100
AcDbVertex
100
AcDb2dVertex
 10
76.00604936276778
 20
48.78682582956212
 30
0.0
  0
VERTEX
  5
352
330
350
100
AcDbEntity
  8
DIBUJOS
 62
     7
100
AcDbVertex
100
AcDb2dVertex
 10
76.482434648365
 20
48.7840261852047
 30
0.0
  0
VERTEX
  5
353
330
350
100
AcDbEntity
  8
DIBUJOS
 62
     7
100
AcDbVertex
100
AcDb2dVertex
 10
76.49891499758964
 20
48.77945272037761
 30
0.0
  0
VERTEX
  5
354
330
350
100
AcDbEntity
  8
DIBUJOS
 62
     7
100
AcDbVertex
100
AcDb2dVertex
 10
76.50572329302737
 20
48.7771843062472
 30
0.0
  0
VERTEX
  5
355
330
350
100
AcDbEntity
  8
DIBUJOS
 62
     7
100
AcDbVertex
100
AcDb2dVertex
 10
76.51650054993074
 20
48.77548375891165
 30
0.0
  0
VERTEX
  5
356
330
350
100
AcDbEntity
  8
DIBUJOS
 62
     7
100
AcDbVertex
100
AcDb2dVertex
 10
76.54485725307967
 20
48.74712400271495
 30
0.0
  0
VERTEX
  5
357
330
350
100
AcDbEntity
  8
DIBUJOS
 62
     7
100
AcDbVertex
100
AcDb2dVertex
 10
76.55620237677759
 20
48.70742217586778
 30
0.0
  0
VERTEX
  5
358
330
350
100
AcDbEntity
  8
DIBUJOS
 62
     7
100
AcDbVertex
100
AcDb2dVertex
 10
76.54599298666876
 20
48.67282504407535
 30
0.0
  0
VERTEX
  5
359
330
350
100
AcDbEntity
  8
DIBUJOS
 62
     7
100
AcDbVertex
100
AcDb2dVertex
 10
76.54485725307967
 20
48.66772034902061
 30
0.0
  0
VERTEX
  5
35A
330
350
100
AcDbEntity
  8
DIBUJOS
 62
     7
100
AcDbVertex
100
AcDb2dVertex
 10
76.51082798808146
 20
48.63369108402272
 30
0.0
  0
VERTEX
  5
35B
330
350
100
AcDbEntity
  8
DIBUJOS
 62
     7
100
AcDbVertex
100
AcDb2dVertex
 10
76.50005073117809
 20
48.63199053668686
 30
0.0
  0
VERTEX
  5
35C
330
350
100
AcDbEntity
  8
DIBUJOS
 62
     7
100
AcDbVertex
100
AcDb2dVertex
 10
76.47112616123462
 20
48.62234901337226
 30
0.0
  0
VERTEX
  5
35D
330
350
100
AcDbEntity
  8
DIBUJOS
 62
     7
100
AcDbVertex
100
AcDb2dVertex
 10
75.81321279038154
 20
48.62801852217377
 30
0.0
  0
VERTEX
  5
35E
330
350
100
AcDbEntity
  8
DIBUJOS
 62
     7
100
AcDbVertex
100
AcDb2dVertex
 10
75.79109040978025
 20
48.61554071793485
 30
0.0
  0
VERTEX
  5
35F
330
350
100
AcDbEntity
  8
DIBUJOS
 62
     7
100
AcDbVertex
100
AcDb2dVertex
 10
75.73380913668721
 20
48.57130206282749
 30
0.0
  0
VERTEX
  5
360
330
350
100
AcDbEntity
  8
DIBUJOS
 62
     7
100
AcDbVertex
100
AcDb2dVertex
 10
75.68162645255399
 20
48.48112420527755
 30
0.0
  0
VERTEX
  5
361
330
350
100
AcDbEntity
  8
DIBUJOS
 62
     7
100
AcDbVertex
100
AcDb2dVertex
 10
75.66404700630778
 20
48.43007725473311
 30
0.0
  0
VERTEX
  5
362
330
350
100
AcDbEntity
  8
DIBUJOS
 62
     7
100
AcDbVertex
100
AcDb2dVertex
 10
75.52066369378528
 20
47.57841750340354
 30
0.0
  0
VERTEX
  5
363
330
350
100
AcDbEntity
  8
DIBUJOS
 62
     7
100
AcDbVertex
100
AcDb2dVertex
 10
75.37986325926276
 20
46.70570088497447
 30
0.0
  0
VERTEX
  5
364
330
350
100
AcDbEntity
  8
DIBUJOS
 62
     7
100
AcDbVertex
100
AcDb2dVertex
 10
74.60514029942377
 20
41.91841283807177
 30
0.0
  0
VERTEX
  5
365
330
350
100
AcDbEntity
  8
DIBUJOS
 62
     7
100
AcDbVertex
100
AcDb2dVertex
 10
74.61478182273868
 20
41.81575717628292
 30
0.0
  0
VERTEX
  5
366
330
350
100
AcDbEntity
  8
DIBUJOS
 62
     7
100
AcDbVertex
100
AcDb2dVertex
 10
74.6448421262706
 20
41.73692138938345
 30
0.0
  0
VERTEX
  5
367
330
350
100
AcDbEntity
  8
DIBUJOS
 62
     7
100
AcDbVertex
100
AcDb2dVertex
 10
74.69021651496674
 20
41.69721956253628
 30
0.0
  0
VERTEX
  5
368
330
350
100
AcDbEntity
  8
DIBUJOS
 62
     7
100
AcDbVertex
100
AcDb2dVertex
 10
74.74126346551151
 20
41.69721956253628
 30
0.0
  0
VERTEX
  5
369
330
350
100
AcDbEntity
  8
DIBUJOS
 62
     7
100
AcDbVertex
100
AcDb2dVertex
 10
76.7259701239054
 20
42.01713312191539
 30
0.0
  0
VERTEX
  5
36A
330
350
100
AcDbEntity
  8
DIBUJOS
 62
     7
100
AcDbVertex
100
AcDb2dVertex
 10
76.79402865390246
 20
42.02847519256553
 30
0.0
  0
VERTEX
  5
36B
330
350
100
AcDbEntity
  8
DIBUJOS
 62
     7
100
AcDbVertex
100
AcDb2dVertex
 10
77.0437496032357
 20
42.05711582911238
 30
0.0
  0
VERTEX
  5
36C
330
350
100
AcDbEntity
  8
DIBUJOS
 62
     7
100
AcDbVertex
100
AcDb2dVertex
 10
77.26504668237855
 20
42.06858612774889
 30
0.0
  0
VERTEX
  5
36D
330
350
100
AcDbEntity
  8
DIBUJOS
 62
     7
100
AcDbVertex
100
AcDb2dVertex
 10
78.09322850011381
 20
42.07155063665862
 30
0.0
  0
VERTEX
  5
36E
330
350
100
AcDbEntity
  8
DIBUJOS
 62
     7
100
AcDbVertex
100
AcDb2dVertex
 10
78.30857824315378
 20
42.0575707331575
 30
0.0
  0
VERTEX
  5
36F
330
350
100
AcDbEntity
  8
DIBUJOS
 62
     7
100
AcDbVertex
100
AcDb2dVertex
 10
78.518267636533
 20
42.03513694173377
 30
0.0
  0
VERTEX
  5
370
330
350
100
AcDbEntity
  8
DIBUJOS
 62
     7
100
AcDbVertex
100
AcDb2dVertex
 10
78.59195598571624
 20
42.02387730336009
 30
0.0
  0
VERTEX
  5
371
330
350
100
AcDbEntity
  8
DIBUJOS
 62
     7
100
AcDbVertex
100
AcDb2dVertex
 10
80.61712773277839
 20
41.69721956253628
 30
0.0
  0
VERTEX
  5
372
330
350
100
AcDbEntity
  8
DIBUJOS
 62
     7
100
AcDbVertex
100
AcDb2dVertex
 10
80.67951980702043
 20
41.70288907133779
 30
0.0
  0
VERTEX
  5
373
330
350
100
AcDbEntity
  8
DIBUJOS
 62
     7
100
AcDbVertex
100
AcDb2dVertex
 10
80.71922163386728
 20
41.74259089818496
 30
0.0
  0
VERTEX
  5
374
330
350
100
AcDbEntity
  8
DIBUJOS
 62
     7
100
AcDbVertex
100
AcDb2dVertex
 10
80.74527633936667
 20
41.82237923583649
 30
0.0
  0
VERTEX
  5
375
330
350
100
AcDbEntity
  8
DIBUJOS
 62
     7
100
AcDbVertex
100
AcDb2dVertex
 10
80.74988033466703
 20
41.84996962411816
 30
0.0
  0
VERTEX
  5
376
330
350
100
AcDbEntity
  8
DIBUJOS
 62
     7
100
AcDbVertex
100
AcDb2dVertex
 10
80.75325089886549
 20
41.93543052361866
 30
0.0
  0
VERTEX
  5
377
330
350
100
AcDbEntity
  8
DIBUJOS
 62
     7
100
AcDbVertex
100
AcDb2dVertex
 10
79.96825748797242
 20
46.77866566195227
 30
0.0
  0
VERTEX
  5
378
330
350
100
AcDbEntity
  8
DIBUJOS
 62
     7
100
AcDbVertex
100
AcDb2dVertex
 10
79.82070981895805
 20
47.69185042209576
 30
0.0
  0
VERTEX
  5
379
330
350
100
AcDbEntity
  8
DIBUJOS
 62
     7
100
AcDbVertex
100
AcDb2dVertex
 10
79.69631646052574
 20
48.42900868818482
 30
0.0
  0
VERTEX
  5
37A
330
350
100
AcDbEntity
  8
DIBUJOS
 62
     7
100
AcDbVertex
100
AcDb2dVertex
 10
79.67733261253045
 20
48.48112420527755
 30
0.0
  0
VERTEX
  5
37B
330
350
100
AcDbEntity
  8
DIBUJOS
 62
     7
100
AcDbVertex
100
AcDb2dVertex
 10
79.64591064990995
 20
48.54192258883889
 30
0.0
  0
VERTEX
  5
37C
330
350
100
AcDbEntity
  8
DIBUJOS
 62
     7
100
AcDbVertex
100
AcDb2dVertex
 10
79.63025462345132
 20
48.56562950097885
 30
0.0
  0
VERTEX
  5
37D
330
350
100
AcDbEntity
  8
DIBUJOS
 62
     7
100
AcDbVertex
100
AcDb2dVertex
 10
79.57410908394672
 20
48.61213962326343
 30
0.0
  0
VERTEX
  5
37E
330
350
100
AcDbEntity
  8
DIBUJOS
 62
     7
100
AcDbVertex
100
AcDb2dVertex
 10
79.5627639602488
 20
48.61780913206494
 30
0.0
  0
VERTEX
  5
37F
330
350
100
AcDbEntity
  8
DIBUJOS
 62
     7
100
AcDbVertex
100
AcDb2dVertex
 10
79.53951195215397
 20
48.62801852217377
 30
0.0
  0
VERTEX
  5
380
330
350
100
AcDbEntity
  8
DIBUJOS
 62
     7
100
AcDbVertex
100
AcDb2dVertex
 10
79.01771564129373
 20
48.62801852217377
 30
0.0
  0
VERTEX
  5
381
330
350
100
AcDbEntity
  8
DIBUJOS
 62
     7
100
AcDbVertex
100
AcDb2dVertex
 10
78.98368637629552
 20
48.62234901337226
 30
0.0
  0
VERTEX
  5
382
330
350
100
AcDbEntity
  8
DIBUJOS
 62
     7
100
AcDbVertex
100
AcDb2dVertex
 10
78.88109177545161
 20
48.62601877620463
 30
0.0
  0
VERTEX
  5
383
330
350
100
AcDbEntity
  8
DIBUJOS
 62
     7
100
AcDbVertex
100
AcDb2dVertex
 10
78.84756321020842
 20
48.63369108402272
 30
0.0
  0
VERTEX
  5
384
330
350
100
AcDbEntity
  8
DIBUJOS
 62
     7
100
AcDbVertex
100
AcDb2dVertex
 10
78.81353394520957
 20
48.66772034902061
 30
0.0
  0
VERTEX
  5
385
330
350
100
AcDbEntity
  8
DIBUJOS
 62
     7
100
AcDbVertex
100
AcDb2dVertex
 10
78.80786138336093
 20
48.68473498152004
 30
0.0
  0
VERTEX
  5
386
330
350
100
AcDbEntity
  8
DIBUJOS
 62
     7
100
AcDbVertex
100
AcDb2dVertex
 10
78.80786138336093
 20
48.72443680836721
 30
0.0
  0
VERTEX
  5
387
330
350
100
AcDbEntity
  8
DIBUJOS
 62
     7
100
AcDbVertex
100
AcDb2dVertex
 10
78.81920650705821
 20
48.75279656456391
 30
0.0
  0
VERTEX
  5
388
330
350
100
AcDbEntity
  8
DIBUJOS
 62
     7
100
AcDbVertex
100
AcDb2dVertex
 10
78.84189064835914
 20
48.77548375891165
 30
0.0
  0
VERTEX
  5
389
330
350
100
AcDbEntity
  8
DIBUJOS
 62
     7
100
AcDbVertex
100
AcDb2dVertex
 10
78.85266790526252
 20
48.7771843062472
 30
0.0
  0
VERTEX
  5
38A
330
350
100
AcDbEntity
  8
DIBUJOS
 62
     7
100
AcDbVertex
100
AcDb2dVertex
 10
78.8759565499249
 20
48.7840261852047
 30
0.0
  0
VERTEX
  5
38B
330
350
100
AcDbEntity
  8
DIBUJOS
 62
     7
100
AcDbVertex
100
AcDb2dVertex
 10
79.32398513237253
 20
48.78682582956212
 30
0.0
  0
SEQEND
  5
38C
330
350
100
AcDbEntity
  8
DIBUJOS
 62
     7
  0
POLYLINE
  5
38D
330
27F
100
AcDbEntity
  8
DIBUJOS
 62
     7
100
AcDb2dPolyline
 66
     1
 10
0.0
 20
0.0
 30
0.0
  0
VERTEX
  5
38E
330
38D
100
AcDbEntity
  8
DIBUJOS
 62
     7
100
AcDbVertex
100
AcDb2dVertex
 10
74.84335126050614
 20
41.55542688764735
 30
0.0
  0
VERTEX
  5
38F
330
38D
100
AcDbEntity
  8
DIBUJOS
 62
     7
100
AcDbVertex
100
AcDb2dVertex
 10
74.8376786986575
 20
41.56109639644885
 30
0.0
  0
VERTEX
  5
390
330
38D
100
AcDbEntity
  8
DIBUJOS
 62
     7
100
AcDbVertex
100
AcDb2dVertex
 10
74.80932199550793
 20
41.56109639644885
 30
0.0
  0
SEQEND
  5
391
330
38D
100
AcDbEntity
  8
DIBUJOS
 62
     7
  0
POLYLINE
  5
392
330
27F
100
AcDbEntity
  8
DIBUJOS
 62
     7
100
AcDb2dPolyline
 66
     1
 10
0.0
 20
0.0
 30
0.0
  0
VERTEX
  5
393
330
392
100
AcDbEntity
  8
DIBUJOS
 62
     7
100
AcDbVertex
100
AcDb2dVertex
 10
80.50936737593447
 20
41.55542688764735
 30
0.0
  0
VERTEX
  5
394
330
392
100
AcDbEntity
  8
DIBUJOS
 62
     7
100
AcDbVertex
100
AcDb2dVertex
 10
80.51503993778375
 20
41.56109639644885
 30
0.0
  0
VERTEX
  5
395
330
392
100
AcDbEntity
  8
DIBUJOS
 62
     7
100
AcDbVertex
100
AcDb2dVertex
 10
80.58309846778018
 20
41.56109639644885
 30
0.0
  0
SEQEND
  5
396
330
392
100
AcDbEntity
  8
DIBUJOS
 62
     7
  0
POLYLINE
  5
397
330
27F
100
AcDbEntity
  8
DIBUJOS
 62
     7
100
AcDb2dPolyline
 66
     1
 10
0.0
 20
0.0
 30
0.0
  0
VERTEX
  5
398
330
397
100
AcDbEntity
  8
DIBUJOS
 62
     7
100
AcDbVertex
100
AcDb2dVertex
 10
74.84335126050614
 20
41.54975432579839
 30
0.0
  0
VERTEX
  5
399
330
397
100
AcDbEntity
  8
DIBUJOS
 62
     7
100
AcDbVertex
100
AcDb2dVertex
 10
74.84335126050614
 20
41.55542688764735
 30
0.0
  0
SEQEND
  5
39A
330
397
100
AcDbEntity
  8
DIBUJOS
 62
     7
  0
POLYLINE
  5
39B
330
27F
100
AcDbEntity
  8
DIBUJOS
 62
     7
100
AcDb2dPolyline
 66
     1
 10
0.0
 20
0.0
 30
0.0
  0
VERTEX
  5
39C
330
39B
100
AcDbEntity
  8
DIBUJOS
 62
     7
100
AcDbVertex
100
AcDb2dVertex
 10
74.84902382235478
 20
41.54975432579839
 30
0.0
  0
VERTEX
  5
39D
330
39B
100
AcDbEntity
  8
DIBUJOS
 62
     7
100
AcDbVertex
100
AcDb2dVertex
 10
74.84335126050614
 20
41.54975432579839
 30
0.0
  0
SEQEND
  5
39E
330
39B
100
AcDbEntity
  8
DIBUJOS
 62
     7
  0
POLYLINE
  5
39F
330
27F
100
AcDbEntity
  8
DIBUJOS
 62
     7
100
AcDb2dPolyline
 66
     1
 10
0.0
 20
0.0
 30
0.0
  0
VERTEX
  5
3A0
330
39F
100
AcDbEntity
  8
DIBUJOS
 62
     7
100
AcDbVertex
100
AcDb2dVertex
 10
80.50369481408583
 20
41.54975432579839
 30
0.0
  0
VERTEX
  5
3A1
330
39F
100
AcDbEntity
  8
DIBUJOS
 62
     7
100
AcDbVertex
100
AcDb2dVertex
 10
80.44663946649098
 20
41.56438758141798
 30
0.0
  0
VERTEX
  5
3A2
330
39F
100
AcDbEntity
  8
DIBUJOS
 62
     7
100
AcDbVertex
100
AcDb2dVertex
 10
80.41328797798992
 20
41.56915033517733
 30
0.0
  0
VERTEX
  5
3A3
330
39F
100
AcDbEntity
  8
DIBUJOS
 62
     7
100
AcDbVertex
100
AcDb2dVertex
 10
78.3992659595995
 20
41.88749768130089
 30
0.0
  0
VERTEX
  5
3A4
330
39F
100
AcDbEntity
  8
DIBUJOS
 62
     7
100
AcDbVertex
100
AcDb2dVertex
 10
78.34301661648722
 20
41.89261153549702
 30
0.0
  0
VERTEX
  5
3A5
330
39F
100
AcDbEntity
  8
DIBUJOS
 62
     7
100
AcDbVertex
100
AcDb2dVertex
 10
77.99689875229208
 20
41.90980935083316
 30
0.0
  0
VERTEX
  5
3A6
330
39F
100
AcDbEntity
  8
DIBUJOS
 62
     7
100
AcDbVertex
100
AcDb2dVertex
 10
77.36149244599717
 20
41.9098124038803
 30
0.0
  0
VERTEX
  5
3A7
330
39F
100
AcDbEntity
  8
DIBUJOS
 62
     7
100
AcDbVertex
100
AcDb2dVertex
 10
77.19151709165398
 20
41.90432913096328
 30
0.0
  0
VERTEX
  5
3A8
330
39F
100
AcDbEntity
  8
DIBUJOS
 62
     7
100
AcDbVertex
100
AcDb2dVertex
 10
76.95912523869039
 20
41.88749768130089
 30
0.0
  0
VERTEX
  5
3A9
330
39F
100
AcDbEntity
  8
DIBUJOS
 62
     7
100
AcDbVertex
100
AcDb2dVertex
 10
76.95294587099245
 20
41.88687485965536
 30
0.0
  0
VERTEX
  5
3AA
330
39F
100
AcDbEntity
  8
DIBUJOS
 62
     7
100
AcDbVertex
100
AcDb2dVertex
 10
74.97908974263636
 20
41.57474046474917
 30
0.0
  0
VERTEX
  5
3AB
330
39F
100
AcDbEntity
  8
DIBUJOS
 62
     7
100
AcDbVertex
100
AcDb2dVertex
 10
74.84902382235478
 20
41.54975432579839
 30
0.0
  0
SEQEND
  5
3AC
330
39F
100
AcDbEntity
  8
DIBUJOS
 62
     7
  0
POLYLINE
  5
3AD
330
27F
100
AcDbEntity
  8
DIBUJOS
 62
     7
100
AcDb2dPolyline
 66
     1
 10
0.0
 20
0.0
 30
0.0
  0
VERTEX
  5
3AE
330
3AD
100
AcDbEntity
  8
DIBUJOS
 62
     7
100
AcDbVertex
100
AcDb2dVertex
 10
80.50936737593447
 20
41.54975432579839
 30
0.0
  0
VERTEX
  5
3AF
330
3AD
100
AcDbEntity
  8
DIBUJOS
 62
     7
100
AcDbVertex
100
AcDb2dVertex
 10
80.50369481408583
 20
41.54975432579839
 30
0.0
  0
SEQEND
  5
3B0
330
3AD
100
AcDbEntity
  8
DIBUJOS
 62
     7
  0
POLYLINE
  5
3B1
330
27F
100
AcDbEntity
  8
DIBUJOS
 62
     7
100
AcDb2dPolyline
 66
     1
 10
0.0
 20
0.0
 30
0.0
  0
VERTEX
  5
3B2
330
3B1
100
AcDbEntity
  8
DIBUJOS
 62
     7
100
AcDbVertex
100
AcDb2dVertex
 10
80.50936737593447
 20
41.54975432579839
 30
0.0
  0
VERTEX
  5
3B3
330
3B1
100
AcDbEntity
  8
DIBUJOS
 62
     7
100
AcDbVertex
100
AcDb2dVertex
 10
80.50936737593447
 20
41.55542688764735
 30
0.0
  0
SEQEND
  5
3B4
330
3B1
100
AcDbEntity
  8
DIBUJOS
 62
     7
  0
POLYLINE
  5
3B5
330
27F
100
AcDbEntity
  8
DIBUJOS
 62
     7
100
AcDb2dPolyline
 66
     1
 10
0.0
 20
0.0
 30
0.0
  0
VERTEX
  5
3B6
330
3B5
100
AcDbEntity
  8
DIBUJOS
 62
     7
100
AcDbVertex
100
AcDb2dVertex
 10
74.63349700257334
 20
41.54408176394943
 30
0.0
  0
VERTEX
  5
3B7
330
3B5
100
AcDbEntity
  8
DIBUJOS
 62
     7
100
AcDbVertex
100
AcDb2dVertex
 10
74.62726268002442
 20
41.54861859220929
 30
0.0
  0
VERTEX
  5
3B8
330
3B5
100
AcDbEntity
  8
DIBUJOS
 62
     7
100
AcDbVertex
100
AcDb2dVertex
 10
74.58245615812379
 20
41.57244152014581
 30
0.0
  0
VERTEX
  5
3B9
330
3B5
100
AcDbEntity
  8
DIBUJOS
 62
     7
100
AcDbVertex
100
AcDb2dVertex
 10
74.52573664572942
 20
41.6291579794924
 30
0.0
  0
VERTEX
  5
3BA
330
3B5
100
AcDbEntity
  8
DIBUJOS
 62
     7
100
AcDbVertex
100
AcDb2dVertex
 10
74.50985469377196
 20
41.6580825494362
 30
0.0
  0
VERTEX
  5
3BB
330
3B5
100
AcDbEntity
  8
DIBUJOS
 62
     7
100
AcDbVertex
100
AcDb2dVertex
 10
74.48717055247167
 20
41.70345693813201
 30
0.0
  0
VERTEX
  5
3BC
330
3B5
100
AcDbEntity
  8
DIBUJOS
 62
     7
100
AcDbVertex
100
AcDb2dVertex
 10
74.45449684046649
 20
41.79958518483359
 30
0.0
  0
VERTEX
  5
3BD
330
3B5
100
AcDbEntity
  8
DIBUJOS
 62
     7
100
AcDbVertex
100
AcDb2dVertex
 10
74.44951426730289
 20
41.84440391892403
 30
0.0
  0
VERTEX
  5
3BE
330
3B5
100
AcDbEntity
  8
DIBUJOS
 62
     7
100
AcDbVertex
100
AcDb2dVertex
 10
74.44633299203637
 20
41.9467725942688
 30
0.0
  0
VERTEX
  5
3BF
330
3B5
100
AcDbEntity
  8
DIBUJOS
 62
     7
100
AcDbVertex
100
AcDb2dVertex
 10
74.48833681653339
 20
42.2072860657414
 30
0.0
  0
VERTEX
  5
3C0
330
3B5
100
AcDbEntity
  8
DIBUJOS
 62
     7
100
AcDbVertex
100
AcDb2dVertex
 10
74.49507794493033
 20
42.24775420745614
 30
0.0
  0
VERTEX
  5
3C1
330
3B5
100
AcDbEntity
  8
DIBUJOS
 62
     7
100
AcDbVertex
100
AcDb2dVertex
 10
75.50345061321315
 20
48.44609048772376
 30
0.0
  0
VERTEX
  5
3C2
330
3B5
100
AcDbEntity
  8
DIBUJOS
 62
     7
100
AcDbVertex
100
AcDb2dVertex
 10
75.51431335544012
 20
48.48566103353742
 30
0.0
  0
VERTEX
  5
3C3
330
3B5
100
AcDbEntity
  8
DIBUJOS
 62
     7
100
AcDbVertex
100
AcDb2dVertex
 10
75.56479243919034
 20
48.59909395222997
 30
0.0
  0
VERTEX
  5
3C4
330
3B5
100
AcDbEntity
  8
DIBUJOS
 62
     7
100
AcDbVertex
100
AcDb2dVertex
 10
75.57936158081723
 20
48.62321913184753
 30
0.0
  0
VERTEX
  5
3C5
330
3B5
100
AcDbEntity
  8
DIBUJOS
 62
     7
100
AcDbVertex
100
AcDb2dVertex
 10
75.62604267374967
 20
48.69040754336868
 30
0.0
  0
VERTEX
  5
3C6
330
3B5
100
AcDbEntity
  8
DIBUJOS
 62
     7
100
AcDbVertex
100
AcDb2dVertex
 10
75.65440548299287
 20
48.71876729956538
 30
0.0
  0
VERTEX
  5
3C7
330
3B5
100
AcDbEntity
  8
DIBUJOS
 62
     7
100
AcDbVertex
100
AcDb2dVertex
 10
75.69467517663426
 20
48.74599132217363
 30
0.0
  0
VERTEX
  5
3C8
330
3B5
100
AcDbEntity
  8
DIBUJOS
 62
     7
100
AcDbVertex
100
AcDb2dVertex
 10
75.69921200489445
 20
48.74825973630372
 30
0.0
  0
VERTEX
  5
3C9
330
3B5
100
AcDbEntity
  8
DIBUJOS
 62
     7
100
AcDbVertex
100
AcDb2dVertex
 10
75.77401166328909
 20
48.77915352174371
 30
0.0
  0
VERTEX
  5
3CA
330
3B5
100
AcDbEntity
  8
DIBUJOS
 62
     7
100
AcDbVertex
100
AcDb2dVertex
 10
75.84724205537975
 20
48.79817095325972
 30
0.0
  0
SEQEND
  5
3CB
330
3B5
100
AcDbEntity
  8
DIBUJOS
 62
     7
  0
POLYLINE
  5
3CC
330
27F
100
AcDbEntity
  8
DIBUJOS
 62
     7
100
AcDb2dPolyline
 66
     1
 10
0.0
 20
0.0
 30
0.0
  0
VERTEX
  5
3CD
330
3CC
100
AcDbEntity
  8
DIBUJOS
 62
     7
100
AcDbVertex
100
AcDb2dVertex
 10
74.63916956442262
 20
41.54408176394943
 30
0.0
  0
VERTEX
  5
3CE
330
3CC
100
AcDbEntity
  8
DIBUJOS
 62
     7
100
AcDbVertex
100
AcDb2dVertex
 10
74.63349700257334
 20
41.54408176394943
 30
0.0
  0
SEQEND
  5
3CF
330
3CC
100
AcDbEntity
  8
DIBUJOS
 62
     7
  0
POLYLINE
  5
3D0
330
27F
100
AcDbEntity
  8
DIBUJOS
 62
     7
100
AcDb2dPolyline
 66
     1
 10
0.0
 20
0.0
 30
0.0
  0
VERTEX
  5
3D1
330
3D0
100
AcDbEntity
  8
DIBUJOS
 62
     7
100
AcDbVertex
100
AcDb2dVertex
 10
74.84335126050614
 20
41.54408176394943
 30
0.0
  0
VERTEX
  5
3D2
330
3D0
100
AcDbEntity
  8
DIBUJOS
 62
     7
100
AcDbVertex
100
AcDb2dVertex
 10
74.84335126050614
 20
41.54975432579839
 30
0.0
  0
SEQEND
  5
3D3
330
3D0
100
AcDbEntity
  8
DIBUJOS
 62
     7
  0
POLYLINE
  5
3D4
330
27F
100
AcDbEntity
  8
DIBUJOS
 62
     7
100
AcDb2dPolyline
 66
     1
 10
0.0
 20
0.0
 30
0.0
  0
VERTEX
  5
3D5
330
3D4
100
AcDbEntity
  8
DIBUJOS
 62
     7
100
AcDbVertex
100
AcDb2dVertex
 10
80.50936737593447
 20
41.54408176394943
 30
0.0
  0
VERTEX
  5
3D6
330
3D4
100
AcDbEntity
  8
DIBUJOS
 62
     7
100
AcDbVertex
100
AcDb2dVertex
 10
80.50936737593447
 20
41.54975432579839
 30
0.0
  0
SEQEND
  5
3D7
330
3D4
100
AcDbEntity
  8
DIBUJOS
 62
     7
  0
POLYLINE
  5
3D8
330
27F
100
AcDbEntity
  8
DIBUJOS
 62
     7
100
AcDb2dPolyline
 66
     1
 10
0.0
 20
0.0
 30
0.0
  0
VERTEX
  5
3D9
330
3D8
100
AcDbEntity
  8
DIBUJOS
 62
     7
100
AcDbVertex
100
AcDb2dVertex
 10
74.63349700257334
 20
41.53841225514793
 30
0.0
  0
VERTEX
  5
3DA
330
3D8
100
AcDbEntity
  8
DIBUJOS
 62
     7
100
AcDbVertex
100
AcDb2dVertex
 10
74.63349700257334
 20
41.54408176394943
 30
0.0
  0
SEQEND
  5
3DB
330
3D8
100
AcDbEntity
  8
DIBUJOS
 62
     7
  0
POLYLINE
  5
3DC
330
27F
100
AcDbEntity
  8
DIBUJOS
 62
     7
100
AcDb2dPolyline
 66
     1
 10
0.0
 20
0.0
 30
0.0
  0
VERTEX
  5
3DD
330
3DC
100
AcDbEntity
  8
DIBUJOS
 62
     7
100
AcDbVertex
100
AcDb2dVertex
 10
74.63916956442262
 20
41.54408176394943
 30
0.0
  0
VERTEX
  5
3DE
330
3DC
100
AcDbEntity
  8
DIBUJOS
 62
     7
100
AcDbVertex
100
AcDb2dVertex
 10
74.6505146881199
 20
41.53841225514793
 30
0.0
  0
VERTEX
  5
3DF
330
3DC
100
AcDbEntity
  8
DIBUJOS
 62
     7
100
AcDbVertex
100
AcDb2dVertex
 10
74.69078438176129
 20
41.54861859220929
 30
0.0
  0
VERTEX
  5
3E0
330
3DC
100
AcDbEntity
  8
DIBUJOS
 62
     7
100
AcDbVertex
100
AcDb2dVertex
 10
74.69588907681602
 20
41.54975432579839
 30
0.0
  0
SEQEND
  5
3E1
330
3DC
100
AcDbEntity
  8
DIBUJOS
 62
     7
  0
POLYLINE
  5
3E2
330
27F
100
AcDbEntity
  8
DIBUJOS
 62
     7
100
AcDb2dPolyline
 66
     1
 10
0.0
 20
0.0
 30
0.0
  0
VERTEX
  5
3E3
330
3E2
100
AcDbEntity
  8
DIBUJOS
 62
     7
100
AcDbVertex
100
AcDb2dVertex
 10
80.71354907201864
 20
41.53841225514793
 30
0.0
  0
VERTEX
  5
3E4
330
3E2
100
AcDbEntity
  8
DIBUJOS
 62
     7
100
AcDbVertex
100
AcDb2dVertex
 10
80.6114551709291
 20
41.56109639644885
 30
0.0
  0
SEQEND
  5
3E5
330
3E2
100
AcDbEntity
  8
DIBUJOS
 62
     7
  0
POLYLINE
  5
3E6
330
27F
100
AcDbEntity
  8
DIBUJOS
 62
     7
100
AcDb2dPolyline
 66
     1
 10
0.0
 20
0.0
 30
0.0
  0
VERTEX
  5
3E7
330
3E6
100
AcDbEntity
  8
DIBUJOS
 62
     7
100
AcDbVertex
100
AcDb2dVertex
 10
80.71922163386728
 20
41.53841225514793
 30
0.0
  0
VERTEX
  5
3E8
330
3E6
100
AcDbEntity
  8
DIBUJOS
 62
     7
100
AcDbVertex
100
AcDb2dVertex
 10
80.71354907201864
 20
41.53841225514793
 30
0.0
  0
SEQEND
  5
3E9
330
3E6
100
AcDbEntity
  8
DIBUJOS
 62
     7
  0
POLYLINE
  5
3EA
330
27F
100
AcDbEntity
  8
DIBUJOS
 62
     7
100
AcDb2dPolyline
 66
     1
 10
0.0
 20
0.0
 30
0.0
  0
VERTEX
  5
3EB
330
3EA
100
AcDbEntity
  8
DIBUJOS
 62
     7
100
AcDbVertex
100
AcDb2dVertex
 10
80.71922163386728
 20
41.53841225514793
 30
0.0
  0
VERTEX
  5
3EC
330
3EA
100
AcDbEntity
  8
DIBUJOS
 62
     7
100
AcDbVertex
100
AcDb2dVertex
 10
80.73143382299301
 20
41.54844456851463
 30
0.0
  0
VERTEX
  5
3ED
330
3EA
100
AcDbEntity
  8
DIBUJOS
 62
     7
100
AcDbVertex
100
AcDb2dVertex
 10
80.77593504016642
 20
41.57244152014581
 30
0.0
  0
VERTEX
  5
3EE
330
3EA
100
AcDbEntity
  8
DIBUJOS
 62
     7
100
AcDbVertex
100
AcDb2dVertex
 10
80.83832711440846
 20
41.63483054134137
 30
0.0
  0
VERTEX
  5
3EF
330
3EA
100
AcDbEntity
  8
DIBUJOS
 62
     7
100
AcDbVertex
100
AcDb2dVertex
 10
80.84286394266864
 20
41.64674047878574
 30
0.0
  0
VERTEX
  5
3F0
330
3EA
100
AcDbEntity
  8
DIBUJOS
 62
     7
100
AcDbVertex
100
AcDb2dVertex
 10
80.87349211299576
 20
41.70232425759069
 30
0.0
  0
VERTEX
  5
3F1
330
3EA
100
AcDbEntity
  8
DIBUJOS
 62
     7
100
AcDbVertex
100
AcDb2dVertex
 10
80.90400426752537
 20
41.79397673697765
 30
0.0
  0
VERTEX
  5
3F2
330
3EA
100
AcDbEntity
  8
DIBUJOS
 62
     7
100
AcDbVertex
100
AcDb2dVertex
 10
80.9177307681028
 20
41.88438357307388
 30
0.0
  0
VERTEX
  5
3F3
330
3EA
100
AcDbEntity
  8
DIBUJOS
 62
     7
100
AcDbVertex
100
AcDb2dVertex
 10
80.88032483281121
 20
42.15133592126302
 30
0.0
  0
VERTEX
  5
3F4
330
3EA
100
AcDbEntity
  8
DIBUJOS
 62
     7
100
AcDbVertex
100
AcDb2dVertex
 10
80.86997500252716
 20
42.21867393210113
 30
0.0
  0
VERTEX
  5
3F5
330
3EA
100
AcDbEntity
  8
DIBUJOS
 62
     7
100
AcDbVertex
100
AcDb2dVertex
 10
79.85512376791378
 20
48.45169588253223
 30
0.0
  0
VERTEX
  5
3F6
330
3EA
100
AcDbEntity
  8
DIBUJOS
 62
     7
100
AcDbVertex
100
AcDb2dVertex
 10
79.8474789375215
 20
48.48112420527755
 30
0.0
  0
VERTEX
  5
3F7
330
3EA
100
AcDbEntity
  8
DIBUJOS
 62
     7
100
AcDbVertex
100
AcDb2dVertex
 10
79.8047668060547
 20
48.58177401500269
 30
0.0
  0
VERTEX
  5
3F8
330
3EA
100
AcDbEntity
  8
DIBUJOS
 62
     7
100
AcDbVertex
100
AcDb2dVertex
 10
79.79019766442781
 20
48.60589919462025
 30
0.0
  0
VERTEX
  5
3F9
330
3EA
100
AcDbEntity
  8
DIBUJOS
 62
     7
100
AcDbVertex
100
AcDb2dVertex
 10
79.7380210863895
 20
48.68473498152004
 30
0.0
  0
VERTEX
  5
3FA
330
3EA
100
AcDbEntity
  8
DIBUJOS
 62
     7
100
AcDbVertex
100
AcDb2dVertex
 10
79.70398571529638
 20
48.71876729956538
 30
0.0
  0
VERTEX
  5
3FB
330
3EA
100
AcDbEntity
  8
DIBUJOS
 62
     7
100
AcDbVertex
100
AcDb2dVertex
 10
79.66371602165498
 20
48.74599132217363
 30
0.0
  0
VERTEX
  5
3FC
330
3EA
100
AcDbEntity
  8
DIBUJOS
 62
     7
100
AcDbVertex
100
AcDb2dVertex
 10
79.5844467020416
 20
48.77897339195413
 30
0.0
  0
VERTEX
  5
3FD
330
3EA
100
AcDbEntity
  8
DIBUJOS
 62
     7
100
AcDbVertex
100
AcDb2dVertex
 10
79.51682170475877
 20
48.79817095325972
 30
0.0
  0
SEQEND
  5
3FE
330
3EA
100
AcDbEntity
  8
DIBUJOS
 62
     7
  0
POLYLINE
  5
3FF
330
27F
100
AcDbEntity
  8
DIBUJOS
 62
     7
100
AcDb2dPolyline
 66
     1
 10
0.0
 20
0.0
 30
0.0
  0
VERTEX
  5
400
330
3FF
100
AcDbEntity
  8
DIBUJOS
 62
     7
100
AcDbVertex
100
AcDb2dVertex
 10
80.71922163386728
 20
41.53273969329896
 30
0.0
  0
VERTEX
  5
401
330
3FF
100
AcDbEntity
  8
DIBUJOS
 62
     7
100
AcDbVertex
100
AcDb2dVertex
 10
80.71922163386728
 20
41.53841225514793
 30
0.0
  0
SEQEND
  5
402
330
3FF
100
AcDbEntity
  8
DIBUJOS
 62
     7
  0
POLYLINE
  5
403
330
27F
100
AcDbEntity
  8
DIBUJOS
 62
     7
100
AcDb2dPolyline
 66
     1
 10
0.0
 20
0.0
 30
0.0
  0
VERTEX
  5
404
330
403
100
AcDbEntity
  8
DIBUJOS
 62
     7
100
AcDbVertex
100
AcDb2dVertex
 10
80.50936737593447
 20
41.50437993710258
 30
0.0
  0
VERTEX
  5
405
330
403
100
AcDbEntity
  8
DIBUJOS
 62
     7
100
AcDbVertex
100
AcDb2dVertex
 10
80.50936737593447
 20
41.54408176394943
 30
0.0
  0
SEQEND
  5
406
330
403
100
AcDbEntity
  8
DIBUJOS
 62
     7
  0
POLYLINE
  5
407
330
27F
100
AcDbEntity
  8
DIBUJOS
 62
     7
100
AcDb2dPolyline
 66
     1
 10
0.0
 20
0.0
 30
0.0
  0
VERTEX
  5
408
330
407
100
AcDbEntity
  8
DIBUJOS
 62
     7
100
AcDbVertex
100
AcDb2dVertex
 10
80.51503993778375
 20
41.49871042830075
 30
0.0
  0
VERTEX
  5
409
330
407
100
AcDbEntity
  8
DIBUJOS
 62
     7
100
AcDbVertex
100
AcDb2dVertex
 10
80.50936737593447
 20
41.50437993710258
 30
0.0
  0
SEQEND
  5
40A
330
407
100
AcDbEntity
  8
DIBUJOS
 62
     7
  0
POLYLINE
  5
40B
330
27F
100
AcDbEntity
  8
DIBUJOS
 62
     7
100
AcDb2dPolyline
 66
     1
 10
0.0
 20
0.0
 30
0.0
  0
VERTEX
  5
40C
330
40B
100
AcDbEntity
  8
DIBUJOS
 62
     7
100
AcDbVertex
100
AcDb2dVertex
 10
74.63349700257334
 20
41.53841225514793
 30
0.0
  0
VERTEX
  5
40D
330
40B
100
AcDbEntity
  8
DIBUJOS
 62
     7
100
AcDbVertex
100
AcDb2dVertex
 10
74.63349700257334
 20
41.50437993710258
 30
0.0
  0
VERTEX
  5
40E
330
40B
100
AcDbEntity
  8
DIBUJOS
 62
     7
100
AcDbVertex
100
AcDb2dVertex
 10
74.6448421262706
 20
41.49303786645244
 30
0.0
  0
VERTEX
  5
40F
330
40B
100
AcDbEntity
  8
DIBUJOS
 62
     7
100
AcDbVertex
100
AcDb2dVertex
 10
74.72424577996495
 20
41.49303786645244
 30
0.0
  0
VERTEX
  5
410
330
40B
100
AcDbEntity
  8
DIBUJOS
 62
     7
100
AcDbVertex
100
AcDb2dVertex
 10
74.72991834181359
 20
41.49871042830075
 30
0.0
  0
VERTEX
  5
411
330
40B
100
AcDbEntity
  8
DIBUJOS
 62
     7
100
AcDbVertex
100
AcDb2dVertex
 10
74.76962016866108
 20
41.49303786645244
 30
0.0
  0
VERTEX
  5
412
330
40B
100
AcDbEntity
  8
DIBUJOS
 62
     7
100
AcDbVertex
100
AcDb2dVertex
 10
74.83200613680886
 20
41.49303786645244
 30
0.0
  0
VERTEX
  5
413
330
40B
100
AcDbEntity
  8
DIBUJOS
 62
     7
100
AcDbVertex
100
AcDb2dVertex
 10
74.84335126050614
 20
41.50437993710258
 30
0.0
  0
VERTEX
  5
414
330
40B
100
AcDbEntity
  8
DIBUJOS
 62
     7
100
AcDbVertex
100
AcDb2dVertex
 10
74.84335126050614
 20
41.54408176394943
 30
0.0
  0
SEQEND
  5
415
330
40B
100
AcDbEntity
  8
DIBUJOS
 62
     7
  0
POLYLINE
  5
416
330
27F
100
AcDbEntity
  8
DIBUJOS
 62
     7
100
AcDb2dPolyline
 66
     1
 10
0.0
 20
0.0
 30
0.0
  0
VERTEX
  5
417
330
416
100
AcDbEntity
  8
DIBUJOS
 62
     7
100
AcDbVertex
100
AcDb2dVertex
 10
80.51503993778375
 20
41.49871042830075
 30
0.0
  0
VERTEX
  5
418
330
416
100
AcDbEntity
  8
DIBUJOS
 62
     7
100
AcDbVertex
100
AcDb2dVertex
 10
80.52638506148104
 20
41.49303786645244
 30
0.0
  0
VERTEX
  5
419
330
416
100
AcDbEntity
  8
DIBUJOS
 62
     7
100
AcDbVertex
100
AcDb2dVertex
 10
80.70787651017
 20
41.49303786645244
 30
0.0
  0
VERTEX
  5
41A
330
416
100
AcDbEntity
  8
DIBUJOS
 62
     7
100
AcDbVertex
100
AcDb2dVertex
 10
80.71922163386728
 20
41.50437993710258
 30
0.0
  0
VERTEX
  5
41B
330
416
100
AcDbEntity
  8
DIBUJOS
 62
     7
100
AcDbVertex
100
AcDb2dVertex
 10
80.71922163386728
 20
41.53273969329896
 30
0.0
  0
SEQEND
  5
41C
330
416
100
AcDbEntity
  8
DIBUJOS
 62
     7
  0
ENDBLK
  5
282
330
27F
100
AcDbEntity
  8
0
100
AcDbBlockEnd
  0
BLOCK
  5
41F
330
41D
100
AcDbEntity
  8
0
100
AcDbBlockBegin
  2
BLOCK_5
 70
     0
 10
0.0
 20
0.0
 30
0.0
  3
BLOCK_5
  1

  0
POLYLINE
  5
421
330
41D
100
AcDbEntity
  8
DIBUJOS
 62
     7
100
AcDb2dPolyline
 66
     1
 10
0.0
 20
0.0
 30
0.0
  0
VERTEX
  5
422
330
421
100
AcDbEntity
  8
DIBUJOS
 62
     7
100
AcDbVertex
100
AcDb2dVertex
 10
90.11153998334144
 20
48.99668008749492
 30
0.0
  0
VERTEX
  5
423
330
421
100
AcDbEntity
  8
DIBUJOS
 62
     7
100
AcDbVertex
100
AcDb2dVertex
 10
90.11721254519072
 20
49.00234959629611
 30
0.0
  0
SEQEND
  5
424
330
421
100
AcDbEntity
  8
DIBUJOS
 62
     7
  0
POLYLINE
  5
425
330
41D
100
AcDbEntity
  8
DIBUJOS
 62
     7
100
AcDb2dPolyline
 66
     1
 10
0.0
 20
0.0
 30
0.0
  0
VERTEX
  5
426
330
425
100
AcDbEntity
  8
DIBUJOS
 62
     7
100
AcDbVertex
100
AcDb2dVertex
 10
92.43693008177048
 20
48.80951302390987
 30
0.0
  0
VERTEX
  5
427
330
425
100
AcDbEntity
  8
DIBUJOS
 62
     7
100
AcDbVertex
100
AcDb2dVertex
 10
92.43125751992184
 20
48.80951302390987
 30
0.0
  0
SEQEND
  5
428
330
425
100
AcDbEntity
  8
DIBUJOS
 62
     7
  0
POLYLINE
  5
429
330
41D
100
AcDbEntity
  8
DIBUJOS
 62
     7
100
AcDb2dPolyline
 66
     1
 10
0.0
 20
0.0
 30
0.0
  0
VERTEX
  5
42A
330
429
100
AcDbEntity
  8
DIBUJOS
 62
     7
100
AcDbVertex
100
AcDb2dVertex
 10
92.44260264361913
 20
48.80951302390987
 30
0.0
  0
VERTEX
  5
42B
330
429
100
AcDbEntity
  8
DIBUJOS
 62
     7
100
AcDbVertex
100
AcDb2dVertex
 10
92.43693008177048
 20
48.80951302390987
 30
0.0
  0
SEQEND
  5
42C
330
429
100
AcDbEntity
  8
DIBUJOS
 62
     7
  0
POLYLINE
  5
42D
330
41D
100
AcDbEntity
  8
DIBUJOS
 62
     7
100
AcDb2dPolyline
 66
     1
 10
0.0
 20
0.0
 30
0.0
  0
VERTEX
  5
42E
330
42D
100
AcDbEntity
  8
DIBUJOS
 62
     7
100
AcDbVertex
100
AcDb2dVertex
 10
92.46528678492005
 20
48.80951302390987
 30
0.0
  0
VERTEX
  5
42F
330
42D
100
AcDbEntity
  8
DIBUJOS
 62
     7
100
AcDbVertex
100
AcDb2dVertex
 10
92.44260264361913
 20
48.80951302390987
 30
0.0
  0
SEQEND
  5
430
330
42D
100
AcDbEntity
  8
DIBUJOS
 62
     7
  0
POLYLINE
  5
431
330
41D
100
AcDbEntity
  8
DIBUJOS
 62
     7
100
AcDb2dPolyline
 66
     1
 10
0.0
 20
0.0
 30
0.0
  0
VERTEX
  5
432
330
431
100
AcDbEntity
  8
DIBUJOS
 62
     7
100
AcDbVertex
100
AcDb2dVertex
 10
92.4709593467687
 20
48.80951302390987
 30
0.0
  0
VERTEX
  5
433
330
431
100
AcDbEntity
  8
DIBUJOS
 62
     7
100
AcDbVertex
100
AcDb2dVertex
 10
92.46528678492005
 20
48.80951302390987
 30
0.0
  0
SEQEND
  5
434
330
431
100
AcDbEntity
  8
DIBUJOS
 62
     7
  0
POLYLINE
  5
435
330
41D
100
AcDbEntity
  8
DIBUJOS
 62
     7
100
AcDb2dPolyline
 66
     1
 10
0.0
 20
0.0
 30
0.0
  0
VERTEX
  5
436
330
435
100
AcDbEntity
  8
DIBUJOS
 62
     7
100
AcDbVertex
100
AcDb2dVertex
 10
92.47663190861734
 20
48.80951302390987
 30
0.0
  0
VERTEX
  5
437
330
435
100
AcDbEntity
  8
DIBUJOS
 62
     7
100
AcDbVertex
100
AcDb2dVertex
 10
92.4709593467687
 20
48.80951302390987
 30
0.0
  0
SEQEND
  5
438
330
435
100
AcDbEntity
  8
DIBUJOS
 62
     7
  0
POLYLINE
  5
439
330
41D
100
AcDbEntity
  8
DIBUJOS
 62
     7
100
AcDb2dPolyline
 66
     1
 10
0.0
 20
0.0
 30
0.0
  0
VERTEX
  5
43A
330
439
100
AcDbEntity
  8
DIBUJOS
 62
     7
100
AcDbVertex
100
AcDb2dVertex
 10
92.43693008177048
 20
48.8038404620609
 30
0.0
  0
VERTEX
  5
43B
330
439
100
AcDbEntity
  8
DIBUJOS
 62
     7
100
AcDbVertex
100
AcDb2dVertex
 10
92.43693008177048
 20
48.80951302390987
 30
0.0
  0
SEQEND
  5
43C
330
439
100
AcDbEntity
  8
DIBUJOS
 62
     7
  0
POLYLINE
  5
43D
330
41D
100
AcDbEntity
  8
DIBUJOS
 62
     7
100
AcDb2dPolyline
 66
     1
 10
0.0
 20
0.0
 30
0.0
  0
VERTEX
  5
43E
330
43D
100
AcDbEntity
  8
DIBUJOS
 62
     7
100
AcDbVertex
100
AcDb2dVertex
 10
92.4709593467687
 20
48.8038404620609
 30
0.0
  0
VERTEX
  5
43F
330
43D
100
AcDbEntity
  8
DIBUJOS
 62
     7
100
AcDbVertex
100
AcDb2dVertex
 10
92.4709593467687
 20
48.80951302390987
 30
0.0
  0
SEQEND
  5
440
330
43D
100
AcDbEntity
  8
DIBUJOS
 62
     7
  0
POLYLINE
  5
441
330
41D
100
AcDbEntity
  8
DIBUJOS
 62
     7
100
AcDb2dPolyline
 66
     1
 10
0.0
 20
0.0
 30
0.0
  0
VERTEX
  5
442
330
441
100
AcDbEntity
  8
DIBUJOS
 62
     7
100
AcDbVertex
100
AcDb2dVertex
 10
95.83426950506956
 20
48.8038404620609
 30
0.0
  0
VERTEX
  5
443
330
441
100
AcDbEntity
  8
DIBUJOS
 62
     7
100
AcDbVertex
100
AcDb2dVertex
 10
95.82859694322028
 20
48.80951302390987
 30
0.0
  0
VERTEX
  5
444
330
441
100
AcDbEntity
  8
DIBUJOS
 62
     7
100
AcDbVertex
100
AcDb2dVertex
 10
92.47663190861734
 20
48.80951302390987
 30
0.0
  0
SEQEND
  5
445
330
441
100
AcDbEntity
  8
DIBUJOS
 62
     7
  0
POLYLINE
  5
446
330
41D
100
AcDbEntity
  8
DIBUJOS
 62
     7
100
AcDb2dPolyline
 66
     1
 10
0.0
 20
0.0
 30
0.0
  0
VERTEX
  5
447
330
446
100
AcDbEntity
  8
DIBUJOS
 62
     7
100
AcDbVertex
100
AcDb2dVertex
 10
95.8399420669182
 20
48.8038404620609
 30
0.0
  0
VERTEX
  5
448
330
446
100
AcDbEntity
  8
DIBUJOS
 62
     7
100
AcDbVertex
100
AcDb2dVertex
 10
95.83426950506956
 20
48.8038404620609
 30
0.0
  0
SEQEND
  5
449
330
446
100
AcDbEntity
  8
DIBUJOS
 62
     7
  0
POLYLINE
  5
44A
330
41D
100
AcDbEntity
  8
DIBUJOS
 62
     7
100
AcDb2dPolyline
 66
     1
 10
0.0
 20
0.0
 30
0.0
  0
VERTEX
  5
44B
330
44A
100
AcDbEntity
  8
DIBUJOS
 62
     7
100
AcDbVertex
100
AcDb2dVertex
 10
92.30647947753202
 20
48.79817095325972
 30
0.0
  0
VERTEX
  5
44C
330
44A
100
AcDbEntity
  8
DIBUJOS
 62
     7
100
AcDbVertex
100
AcDb2dVertex
 10
92.28946179198546
 20
48.80668590212727
 30
0.0
  0
VERTEX
  5
44D
330
44A
100
AcDbEntity
  8
DIBUJOS
 62
     7
100
AcDbVertex
100
AcDb2dVertex
 10
90.11721254519072
 20
48.80951302390987
 30
0.0
  0
VERTEX
  5
44E
330
44A
100
AcDbEntity
  8
DIBUJOS
 62
     7
100
AcDbVertex
100
AcDb2dVertex
 10
90.11040424975363
 20
48.82029028081324
 30
0.0
  0
VERTEX
  5
44F
330
44A
100
AcDbEntity
  8
DIBUJOS
 62
     7
100
AcDbVertex
100
AcDb2dVertex
 10
90.10586742149344
 20
48.82652765640897
 30
0.0
  0
VERTEX
  5
450
330
44A
100
AcDbEntity
  8
DIBUJOS
 62
     7
100
AcDbVertex
100
AcDb2dVertex
 10
90.10880445297768
 20
48.83796742457222
 30
0.0
  0
VERTEX
  5
451
330
44A
100
AcDbEntity
  8
DIBUJOS
 62
     7
100
AcDbVertex
100
AcDb2dVertex
 10
90.11153998334144
 20
48.99668008749492
 30
0.0
  0
SEQEND
  5
452
330
44A
100
AcDbEntity
  8
DIBUJOS
 62
     7
  0
POLYLINE
  5
453
330
41D
100
AcDbEntity
  8
DIBUJOS
 62
     7
100
AcDb2dPolyline
 66
     1
 10
0.0
 20
0.0
 30
0.0
  0
VERTEX
  5
454
330
453
100
AcDbEntity
  8
DIBUJOS
 62
     7
100
AcDbVertex
100
AcDb2dVertex
 10
92.38021667547135
 20
48.79817095325972
 30
0.0
  0
VERTEX
  5
455
330
453
100
AcDbEntity
  8
DIBUJOS
 62
     7
100
AcDbVertex
100
AcDb2dVertex
 10
92.30647947753202
 20
48.79817095325972
 30
0.0
  0
SEQEND
  5
456
330
453
100
AcDbEntity
  8
DIBUJOS
 62
     7
  0
POLYLINE
  5
457
330
41D
100
AcDbEntity
  8
DIBUJOS
 62
     7
100
AcDb2dPolyline
 66
     1
 10
0.0
 20
0.0
 30
0.0
  0
VERTEX
  5
458
330
457
100
AcDbEntity
  8
DIBUJOS
 62
     7
100
AcDbVertex
100
AcDb2dVertex
 10
92.40857337862091
 20
48.79817095325972
 30
0.0
  0
VERTEX
  5
459
330
457
100
AcDbEntity
  8
DIBUJOS
 62
     7
100
AcDbVertex
100
AcDb2dVertex
 10
92.39269142666345
 20
48.80611192923845
 30
0.0
  0
VERTEX
  5
45A
330
457
100
AcDbEntity
  8
DIBUJOS
 62
     7
100
AcDbVertex
100
AcDb2dVertex
 10
92.38021667547135
 20
48.79817095325972
 30
0.0
  0
SEQEND
  5
45B
330
457
100
AcDbEntity
  8
DIBUJOS
 62
     7
  0
POLYLINE
  5
45C
330
41D
100
AcDbEntity
  8
DIBUJOS
 62
     7
100
AcDb2dPolyline
 66
     1
 10
0.0
 20
0.0
 30
0.0
  0
VERTEX
  5
45D
330
45C
100
AcDbEntity
  8
DIBUJOS
 62
     7
100
AcDbVertex
100
AcDb2dVertex
 10
92.41991239622392
 20
48.79817095325972
 30
0.0
  0
VERTEX
  5
45E
330
45C
100
AcDbEntity
  8
DIBUJOS
 62
     7
100
AcDbVertex
100
AcDb2dVertex
 10
92.40857337862091
 20
48.79817095325972
 30
0.0
  0
SEQEND
  5
45F
330
45C
100
AcDbEntity
  8
DIBUJOS
 62
     7
  0
POLYLINE
  5
460
330
41D
100
AcDbEntity
  8
DIBUJOS
 62
     7
100
AcDb2dPolyline
 66
     1
 10
0.0
 20
0.0
 30
0.0
  0
VERTEX
  5
461
330
460
100
AcDbEntity
  8
DIBUJOS
 62
     7
100
AcDbVertex
100
AcDb2dVertex
 10
92.41991239622392
 20
48.79817095325972
 30
0.0
  0
VERTEX
  5
462
330
460
100
AcDbEntity
  8
DIBUJOS
 62
     7
100
AcDbVertex
100
AcDb2dVertex
 10
92.43125751992184
 20
48.80951302390987
 30
0.0
  0
SEQEND
  5
463
330
460
100
AcDbEntity
  8
DIBUJOS
 62
     7
  0
POLYLINE
  5
464
330
41D
100
AcDbEntity
  8
DIBUJOS
 62
     7
100
AcDb2dPolyline
 66
     1
 10
0.0
 20
0.0
 30
0.0
  0
VERTEX
  5
465
330
464
100
AcDbEntity
  8
DIBUJOS
 62
     7
100
AcDbVertex
100
AcDb2dVertex
 10
95.8399420669182
 20
48.79817095325972
 30
0.0
  0
VERTEX
  5
466
330
464
100
AcDbEntity
  8
DIBUJOS
 62
     7
100
AcDbVertex
100
AcDb2dVertex
 10
95.8399420669182
 20
48.8038404620609
 30
0.0
  0
SEQEND
  5
467
330
464
100
AcDbEntity
  8
DIBUJOS
 62
     7
  0
POLYLINE
  5
468
330
41D
100
AcDbEntity
  8
DIBUJOS
 62
     7
100
AcDb2dPolyline
 66
     1
 10
0.0
 20
0.0
 30
0.0
  0
VERTEX
  5
469
330
468
100
AcDbEntity
  8
DIBUJOS
 62
     7
100
AcDbVertex
100
AcDb2dVertex
 10
95.86262620821849
 20
48.79817095325972
 30
0.0
  0
VERTEX
  5
46A
330
468
100
AcDbEntity
  8
DIBUJOS
 62
     7
100
AcDbVertex
100
AcDb2dVertex
 10
95.84561462876684
 20
48.80667674298554
 30
0.0
  0
VERTEX
  5
46B
330
468
100
AcDbEntity
  8
DIBUJOS
 62
     7
100
AcDbVertex
100
AcDb2dVertex
 10
95.8399420669182
 20
48.8038404620609
 30
0.0
  0
SEQEND
  5
46C
330
468
100
AcDbEntity
  8
DIBUJOS
 62
     7
  0
POLYLINE
  5
46D
330
41D
100
AcDbEntity
  8
DIBUJOS
 62
     7
100
AcDb2dPolyline
 66
     1
 10
0.0
 20
0.0
 30
0.0
  0
VERTEX
  5
46E
330
46D
100
AcDbEntity
  8
DIBUJOS
 62
     7
100
AcDbVertex
100
AcDb2dVertex
 10
95.97039267115666
 20
48.79817095325972
 30
0.0
  0
VERTEX
  5
46F
330
46D
100
AcDbEntity
  8
DIBUJOS
 62
     7
100
AcDbVertex
100
AcDb2dVertex
 10
95.86262620821849
 20
48.79817095325972
 30
0.0
  0
SEQEND
  5
470
330
46D
100
AcDbEntity
  8
DIBUJOS
 62
     7
  0
POLYLINE
  5
471
330
41D
100
AcDbEntity
  8
DIBUJOS
 62
     7
100
AcDb2dPolyline
 66
     1
 10
0.0
 20
0.0
 30
0.0
  0
VERTEX
  5
472
330
471
100
AcDbEntity
  8
DIBUJOS
 62
     7
100
AcDbVertex
100
AcDb2dVertex
 10
95.97039267115666
 20
48.79817095325972
 30
0.0
  0
VERTEX
  5
473
330
471
100
AcDbEntity
  8
DIBUJOS
 62
     7
100
AcDbVertex
100
AcDb2dVertex
 10
95.98176221923293
 20
48.80387099253385
 30
0.0
  0
VERTEX
  5
474
330
471
100
AcDbEntity
  8
DIBUJOS
 62
     7
100
AcDbVertex
100
AcDb2dVertex
 10
98.1653321653466
 20
48.80951302390987
 30
0.0
  0
VERTEX
  5
475
330
471
100
AcDbEntity
  8
DIBUJOS
 62
     7
100
AcDbVertex
100
AcDb2dVertex
 10
98.17667728904452
 20
48.82085814760747
 30
0.0
  0
VERTEX
  5
476
330
471
100
AcDbEntity
  8
DIBUJOS
 62
     7
100
AcDbVertex
100
AcDb2dVertex
 10
98.17667728904452
 20
48.99100752564596
 30
0.0
  0
VERTEX
  5
477
330
471
100
AcDbEntity
  8
DIBUJOS
 62
     7
100
AcDbVertex
100
AcDb2dVertex
 10
98.1653321653466
 20
49.00234959629611
 30
0.0
  0
VERTEX
  5
478
330
471
100
AcDbEntity
  8
DIBUJOS
 62
     7
100
AcDbVertex
100
AcDb2dVertex
 10
90.11721254519072
 20
49.00234959629611
 30
0.0
  0
SEQEND
  5
479
330
471
100
AcDbEntity
  8
DIBUJOS
 62
     7
  0
POLYLINE
  5
47A
330
41D
100
AcDbEntity
  8
DIBUJOS
 62
     7
100
AcDb2dPolyline
 66
     1
 10
0.0
 20
0.0
 30
0.0
  0
VERTEX
  5
47B
330
47A
100
AcDbEntity
  8
DIBUJOS
 62
     7
100
AcDbVertex
100
AcDb2dVertex
 10
92.43693008177048
 20
48.79249839141076
 30
0.0
  0
VERTEX
  5
47C
330
47A
100
AcDbEntity
  8
DIBUJOS
 62
     7
100
AcDbVertex
100
AcDb2dVertex
 10
92.43693008177048
 20
48.8038404620609
 30
0.0
  0
SEQEND
  5
47D
330
47A
100
AcDbEntity
  8
DIBUJOS
 62
     7
  0
POLYLINE
  5
47E
330
41D
100
AcDbEntity
  8
DIBUJOS
 62
     7
100
AcDb2dPolyline
 66
     1
 10
0.0
 20
0.0
 30
0.0
  0
VERTEX
  5
47F
330
47E
100
AcDbEntity
  8
DIBUJOS
 62
     7
100
AcDbVertex
100
AcDb2dVertex
 10
92.4709593467687
 20
48.79249839141076
 30
0.0
  0
VERTEX
  5
480
330
47E
100
AcDbEntity
  8
DIBUJOS
 62
     7
100
AcDbVertex
100
AcDb2dVertex
 10
92.4709593467687
 20
48.8038404620609
 30
0.0
  0
SEQEND
  5
481
330
47E
100
AcDbEntity
  8
DIBUJOS
 62
     7
  0
POLYLINE
  5
482
330
41D
100
AcDbEntity
  8
DIBUJOS
 62
     7
100
AcDb2dPolyline
 66
     1
 10
0.0
 20
0.0
 30
0.0
  0
VERTEX
  5
483
330
482
100
AcDbEntity
  8
DIBUJOS
 62
     7
100
AcDbVertex
100
AcDb2dVertex
 10
95.8399420669182
 20
48.79249839141076
 30
0.0
  0
VERTEX
  5
484
330
482
100
AcDbEntity
  8
DIBUJOS
 62
     7
100
AcDbVertex
100
AcDb2dVertex
 10
95.83426950506956
 20
48.79249839141076
 30
0.0
  0
SEQEND
  5
485
330
482
100
AcDbEntity
  8
DIBUJOS
 62
     7
  0
POLYLINE
  5
486
330
41D
100
AcDbEntity
  8
DIBUJOS
 62
     7
100
AcDb2dPolyline
 66
     1
 10
0.0
 20
0.0
 30
0.0
  0
VERTEX
  5
487
330
486
100
AcDbEntity
  8
DIBUJOS
 62
     7
100
AcDbVertex
100
AcDb2dVertex
 10
95.8399420669182
 20
48.79249839141076
 30
0.0
  0
VERTEX
  5
488
330
486
100
AcDbEntity
  8
DIBUJOS
 62
     7
100
AcDbVertex
100
AcDb2dVertex
 10
95.8399420669182
 20
48.79817095325972
 30
0.0
  0
SEQEND
  5
489
330
486
100
AcDbEntity
  8
DIBUJOS
 62
     7
  0
POLYLINE
  5
48A
330
41D
100
AcDbEntity
  8
DIBUJOS
 62
     7
100
AcDb2dPolyline
 66
     1
 10
0.0
 20
0.0
 30
0.0
  0
VERTEX
  5
48B
330
48A
100
AcDbEntity
  8
DIBUJOS
 62
     7
100
AcDbVertex
100
AcDb2dVertex
 10
92.38021667547135
 20
48.79817095325972
 30
0.0
  0
VERTEX
  5
48C
330
48A
100
AcDbEntity
  8
DIBUJOS
 62
     7
100
AcDbVertex
100
AcDb2dVertex
 10
92.39269142666345
 20
48.79022997728067
 30
0.0
  0
VERTEX
  5
48D
330
48A
100
AcDbEntity
  8
DIBUJOS
 62
     7
100
AcDbVertex
100
AcDb2dVertex
 10
92.40233294997772
 20
48.79363412499922
 30
0.0
  0
VERTEX
  5
48E
330
48A
100
AcDbEntity
  8
DIBUJOS
 62
     7
100
AcDbVertex
100
AcDb2dVertex
 10
92.40857337862091
 20
48.79817095325972
 30
0.0
  0
SEQEND
  5
48F
330
48A
100
AcDbEntity
  8
DIBUJOS
 62
     7
  0
POLYLINE
  5
490
330
41D
100
AcDbEntity
  8
DIBUJOS
 62
     7
100
AcDb2dPolyline
 66
     1
 10
0.0
 20
0.0
 30
0.0
  0
VERTEX
  5
491
330
490
100
AcDbEntity
  8
DIBUJOS
 62
     7
100
AcDbVertex
100
AcDb2dVertex
 10
92.43125751992184
 20
48.78682582956212
 30
0.0
  0
VERTEX
  5
492
330
490
100
AcDbEntity
  8
DIBUJOS
 62
     7
100
AcDbVertex
100
AcDb2dVertex
 10
92.41991239622392
 20
48.79817095325972
 30
0.0
  0
SEQEND
  5
493
330
490
100
AcDbEntity
  8
DIBUJOS
 62
     7
  0
POLYLINE
  5
494
330
41D
100
AcDbEntity
  8
DIBUJOS
 62
     7
100
AcDb2dPolyline
 66
     1
 10
0.0
 20
0.0
 30
0.0
  0
VERTEX
  5
495
330
494
100
AcDbEntity
  8
DIBUJOS
 62
     7
100
AcDbVertex
100
AcDb2dVertex
 10
92.43693008177048
 20
48.78682582956212
 30
0.0
  0
VERTEX
  5
496
330
494
100
AcDbEntity
  8
DIBUJOS
 62
     7
100
AcDbVertex
100
AcDb2dVertex
 10
92.43125751992184
 20
48.78682582956212
 30
0.0
  0
SEQEND
  5
497
330
494
100
AcDbEntity
  8
DIBUJOS
 62
     7
  0
POLYLINE
  5
498
330
41D
100
AcDbEntity
  8
DIBUJOS
 62
     7
100
AcDb2dPolyline
 66
     1
 10
0.0
 20
0.0
 30
0.0
  0
VERTEX
  5
499
330
498
100
AcDbEntity
  8
DIBUJOS
 62
     7
100
AcDbVertex
100
AcDb2dVertex
 10
92.43693008177048
 20
48.78682582956212
 30
0.0
  0
VERTEX
  5
49A
330
498
100
AcDbEntity
  8
DIBUJOS
 62
     7
100
AcDbVertex
100
AcDb2dVertex
 10
92.43693008177048
 20
48.79249839141076
 30
0.0
  0
SEQEND
  5
49B
330
498
100
AcDbEntity
  8
DIBUJOS
 62
     7
  0
POLYLINE
  5
49C
330
41D
100
AcDbEntity
  8
DIBUJOS
 62
     7
100
AcDb2dPolyline
 66
     1
 10
0.0
 20
0.0
 30
0.0
  0
VERTEX
  5
49D
330
49C
100
AcDbEntity
  8
DIBUJOS
 62
     7
100
AcDbVertex
100
AcDb2dVertex
 10
92.44260264361913
 20
48.78682582956212
 30
0.0
  0
VERTEX
  5
49E
330
49C
100
AcDbEntity
  8
DIBUJOS
 62
     7
100
AcDbVertex
100
AcDb2dVertex
 10
92.43693008177048
 20
48.78682582956212
 30
0.0
  0
SEQEND
  5
49F
330
49C
100
AcDbEntity
  8
DIBUJOS
 62
     7
  0
POLYLINE
  5
4A0
330
41D
100
AcDbEntity
  8
DIBUJOS
 62
     7
100
AcDb2dPolyline
 66
     1
 10
0.0
 20
0.0
 30
0.0
  0
VERTEX
  5
4A1
330
4A0
100
AcDbEntity
  8
DIBUJOS
 62
     7
100
AcDbVertex
100
AcDb2dVertex
 10
92.46528678492005
 20
48.78682582956212
 30
0.0
  0
VERTEX
  5
4A2
330
4A0
100
AcDbEntity
  8
DIBUJOS
 62
     7
100
AcDbVertex
100
AcDb2dVertex
 10
92.44260264361913
 20
48.78682582956212
 30
0.0
  0
SEQEND
  5
4A3
330
4A0
100
AcDbEntity
  8
DIBUJOS
 62
     7
  0
POLYLINE
  5
4A4
330
41D
100
AcDbEntity
  8
DIBUJOS
 62
     7
100
AcDb2dPolyline
 66
     1
 10
0.0
 20
0.0
 30
0.0
  0
VERTEX
  5
4A5
330
4A4
100
AcDbEntity
  8
DIBUJOS
 62
     7
100
AcDbVertex
100
AcDb2dVertex
 10
92.4709593467687
 20
48.78682582956212
 30
0.0
  0
VERTEX
  5
4A6
330
4A4
100
AcDbEntity
  8
DIBUJOS
 62
     7
100
AcDbVertex
100
AcDb2dVertex
 10
92.46528678492005
 20
48.78682582956212
 30
0.0
  0
SEQEND
  5
4A7
330
4A4
100
AcDbEntity
  8
DIBUJOS
 62
     7
  0
POLYLINE
  5
4A8
330
41D
100
AcDbEntity
  8
DIBUJOS
 62
     7
100
AcDb2dPolyline
 66
     1
 10
0.0
 20
0.0
 30
0.0
  0
VERTEX
  5
4A9
330
4A8
100
AcDbEntity
  8
DIBUJOS
 62
     7
100
AcDbVertex
100
AcDb2dVertex
 10
92.4709593467687
 20
48.78682582956212
 30
0.0
  0
VERTEX
  5
4AA
330
4A8
100
AcDbEntity
  8
DIBUJOS
 62
     7
100
AcDbVertex
100
AcDb2dVertex
 10
92.4709593467687
 20
48.79249839141076
 30
0.0
  0
SEQEND
  5
4AB
330
4A8
100
AcDbEntity
  8
DIBUJOS
 62
     7
  0
POLYLINE
  5
4AC
330
41D
100
AcDbEntity
  8
DIBUJOS
 62
     7
100
AcDb2dPolyline
 66
     1
 10
0.0
 20
0.0
 30
0.0
  0
VERTEX
  5
4AD
330
4AC
100
AcDbEntity
  8
DIBUJOS
 62
     7
100
AcDbVertex
100
AcDb2dVertex
 10
92.47663190861734
 20
48.78682582956212
 30
0.0
  0
VERTEX
  5
4AE
330
4AC
100
AcDbEntity
  8
DIBUJOS
 62
     7
100
AcDbVertex
100
AcDb2dVertex
 10
92.4709593467687
 20
48.78682582956212
 30
0.0
  0
SEQEND
  5
4AF
330
4AC
100
AcDbEntity
  8
DIBUJOS
 62
     7
  0
POLYLINE
  5
4B0
330
41D
100
AcDbEntity
  8
DIBUJOS
 62
     7
100
AcDb2dPolyline
 66
     1
 10
0.0
 20
0.0
 30
0.0
  0
VERTEX
  5
4B1
330
4B0
100
AcDbEntity
  8
DIBUJOS
 62
     7
100
AcDbVertex
100
AcDb2dVertex
 10
95.8399420669182
 20
48.79249839141076
 30
0.0
  0
VERTEX
  5
4B2
330
4B0
100
AcDbEntity
  8
DIBUJOS
 62
     7
100
AcDbVertex
100
AcDb2dVertex
 10
95.8563918856702
 20
48.79363412499922
 30
0.0
  0
VERTEX
  5
4B3
330
4B0
100
AcDbEntity
  8
DIBUJOS
 62
     7
100
AcDbVertex
100
AcDb2dVertex
 10
95.86262620821849
 20
48.79817095325972
 30
0.0
  0
SEQEND
  5
4B4
330
4B0
100
AcDbEntity
  8
DIBUJOS
 62
     7
  0
POLYLINE
  5
4B5
330
41D
100
AcDbEntity
  8
DIBUJOS
 62
     7
100
AcDb2dPolyline
 66
     1
 10
0.0
 20
0.0
 30
0.0
  0
VERTEX
  5
4B6
330
4B5
100
AcDbEntity
  8
DIBUJOS
 62
     7
100
AcDbVertex
100
AcDb2dVertex
 10
92.47663190861734
 20
48.78682582956212
 30
0.0
  0
VERTEX
  5
4B7
330
4B5
100
AcDbEntity
  8
DIBUJOS
 62
     7
100
AcDbVertex
100
AcDb2dVertex
 10
92.93600561476289
 20
48.7840261852047
 30
0.0
  0
VERTEX
  5
4B8
330
4B5
100
AcDbEntity
  8
DIBUJOS
 62
     7
100
AcDbVertex
100
AcDb2dVertex
 10
92.95248596398753
 20
48.77945272037761
 30
0.0
  0
VERTEX
  5
4B9
330
4B5
100
AcDbEntity
  8
DIBUJOS
 62
     7
100
AcDbVertex
100
AcDb2dVertex
 10
92.95929425942526
 20
48.7771843062472
 30
0.0
  0
VERTEX
  5
4BA
330
4B5
100
AcDbEntity
  8
DIBUJOS
 62
     7
100
AcDbVertex
100
AcDb2dVertex
 10
92.97007151632863
 20
48.77548375891165
 30
0.0
  0
VERTEX
  5
4BB
330
4B5
100
AcDbEntity
  8
DIBUJOS
 62
     7
100
AcDbVertex
100
AcDb2dVertex
 10
93.00410078132684
 20
48.74145449391344
 30
0.0
  0
VERTEX
  5
4BC
330
4B5
100
AcDbEntity
  8
DIBUJOS
 62
     7
100
AcDbVertex
100
AcDb2dVertex
 10
93.00977334317548
 20
48.69040754336868
 30
0.0
  0
VERTEX
  5
4BD
330
4B5
100
AcDbEntity
  8
DIBUJOS
 62
     7
100
AcDbVertex
100
AcDb2dVertex
 10
93.00610358034311
 20
48.6842373348131
 30
0.0
  0
VERTEX
  5
4BE
330
4B5
100
AcDbEntity
  8
DIBUJOS
 62
     7
100
AcDbVertex
100
AcDb2dVertex
 10
93.00410078132684
 20
48.66772034902061
 30
0.0
  0
VERTEX
  5
4BF
330
4B5
100
AcDbEntity
  8
DIBUJOS
 62
     7
100
AcDbVertex
100
AcDb2dVertex
 10
92.97007151632863
 20
48.63369108402272
 30
0.0
  0
VERTEX
  5
4C0
330
4B5
100
AcDbEntity
  8
DIBUJOS
 62
     7
100
AcDbVertex
100
AcDb2dVertex
 10
92.93036968948114
 20
48.62234901337226
 30
0.0
  0
VERTEX
  5
4C1
330
4B5
100
AcDbEntity
  8
DIBUJOS
 62
     7
100
AcDbVertex
100
AcDb2dVertex
 10
92.81693066469497
 20
48.62234901337226
 30
0.0
  0
VERTEX
  5
4C2
330
4B5
100
AcDbEntity
  8
DIBUJOS
 62
     7
100
AcDbVertex
100
AcDb2dVertex
 10
92.81126420893996
 20
48.62801852217377
 30
0.0
  0
VERTEX
  5
4C3
330
4B5
100
AcDbEntity
  8
DIBUJOS
 62
     7
100
AcDbVertex
100
AcDb2dVertex
 10
92.27245021253381
 20
48.62801852217377
 30
0.0
  0
VERTEX
  5
4C4
330
4B5
100
AcDbEntity
  8
DIBUJOS
 62
     7
100
AcDbVertex
100
AcDb2dVertex
 10
92.24559560864675
 20
48.61417295275265
 30
0.0
  0
VERTEX
  5
4C5
330
4B5
100
AcDbEntity
  8
DIBUJOS
 62
     7
100
AcDbVertex
100
AcDb2dVertex
 10
92.2260561060461
 20
48.60102347811181
 30
0.0
  0
VERTEX
  5
4C6
330
4B5
100
AcDbEntity
  8
DIBUJOS
 62
     7
100
AcDbVertex
100
AcDb2dVertex
 10
92.18599401961946
 20
48.56106519529349
 30
0.0
  0
VERTEX
  5
4C7
330
4B5
100
AcDbEntity
  8
DIBUJOS
 62
     7
100
AcDbVertex
100
AcDb2dVertex
 10
92.16606983306127
 20
48.53616454166632
 30
0.0
  0
VERTEX
  5
4C8
330
4B5
100
AcDbEntity
  8
DIBUJOS
 62
     7
100
AcDbVertex
100
AcDb2dVertex
 10
92.13235808498042
 20
48.46297383918968
 30
0.0
  0
VERTEX
  5
4C9
330
4B5
100
AcDbEntity
  8
DIBUJOS
 62
     7
100
AcDbVertex
100
AcDb2dVertex
 10
92.11731266797814
 20
48.41299545519352
 30
0.0
  0
VERTEX
  5
4CA
330
4B5
100
AcDbEntity
  8
DIBUJOS
 62
     7
100
AcDbVertex
100
AcDb2dVertex
 10
91.96955128565348
 20
47.52242461626303
 30
0.0
  0
VERTEX
  5
4CB
330
4B5
100
AcDbEntity
  8
DIBUJOS
 62
     7
100
AcDbVertex
100
AcDb2dVertex
 10
91.83343422566064
 20
46.68301369062641
 30
0.0
  0
VERTEX
  5
4CC
330
4B5
100
AcDbEntity
  8
DIBUJOS
 62
     7
100
AcDbVertex
100
AcDb2dVertex
 10
91.06438382767094
 20
41.94110003242016
 30
0.0
  0
VERTEX
  5
4CD
330
4B5
100
AcDbEntity
  8
DIBUJOS
 62
     7
100
AcDbVertex
100
AcDb2dVertex
 10
91.06438382767094
 20
41.85602686992495
 30
0.0
  0
VERTEX
  5
4CE
330
4B5
100
AcDbEntity
  8
DIBUJOS
 62
     7
100
AcDbVertex
100
AcDb2dVertex
 10
91.07243776639909
 20
41.81666393132572
 30
0.0
  0
VERTEX
  5
4CF
330
4B5
100
AcDbEntity
  8
DIBUJOS
 62
     7
100
AcDbVertex
100
AcDb2dVertex
 10
91.07402535098521
 20
41.81008461443428
 30
0.0
  0
VERTEX
  5
4D0
330
4B5
100
AcDbEntity
  8
DIBUJOS
 62
     7
100
AcDbVertex
100
AcDb2dVertex
 10
91.0984130926685
 20
41.74259089818496
 30
0.0
  0
VERTEX
  5
4D1
330
4B5
100
AcDbEntity
  8
DIBUJOS
 62
     7
100
AcDbVertex
100
AcDb2dVertex
 10
91.1494600432139
 20
41.69721956253628
 30
0.0
  0
VERTEX
  5
4D2
330
4B5
100
AcDbEntity
  8
DIBUJOS
 62
     7
100
AcDbVertex
100
AcDb2dVertex
 10
91.20050088766376
 20
41.69721956253628
 30
0.0
  0
VERTEX
  5
4D3
330
4B5
100
AcDbEntity
  8
DIBUJOS
 62
     7
100
AcDbVertex
100
AcDb2dVertex
 10
93.25331492481078
 20
42.02855762484233
 30
0.0
  0
VERTEX
  5
4D4
330
4B5
100
AcDbEntity
  8
DIBUJOS
 62
     7
100
AcDbVertex
100
AcDb2dVertex
 10
93.33271857850512
 20
42.03990274853992
 30
0.0
  0
VERTEX
  5
4D5
330
4B5
100
AcDbEntity
  8
DIBUJOS
 62
     7
100
AcDbVertex
100
AcDb2dVertex
 10
93.58810598359209
 20
42.06284029276486
 30
0.0
  0
VERTEX
  5
4D6
330
4B5
100
AcDbEntity
  8
DIBUJOS
 62
     7
100
AcDbVertex
100
AcDb2dVertex
 10
93.71873366457332
 20
42.07155063665862
 30
0.0
  0
VERTEX
  5
4D7
330
4B5
100
AcDbEntity
  8
DIBUJOS
 62
     7
100
AcDbVertex
100
AcDb2dVertex
 10
94.54679946651235
 20
42.07155063665862
 30
0.0
  0
VERTEX
  5
4D8
330
4B5
100
AcDbEntity
  8
DIBUJOS
 62
     7
100
AcDbVertex
100
AcDb2dVertex
 10
94.83583755873492
 20
42.05195312615952
 30
0.0
  0
VERTEX
  5
4D9
330
4B5
100
AcDbEntity
  8
DIBUJOS
 62
     7
100
AcDbVertex
100
AcDb2dVertex
 10
95.15972313262745
 20
42.00578799821779
 30
0.0
  0
VERTEX
  5
4DA
330
4B5
100
AcDbEntity
  8
DIBUJOS
 62
     7
100
AcDbVertex
100
AcDb2dVertex
 10
95.18731657395625
 20
42.00119010901203
 30
0.0
  0
VERTEX
  5
4DB
330
4B5
100
AcDbEntity
  8
DIBUJOS
 62
     7
100
AcDbVertex
100
AcDb2dVertex
 10
97.07637126102492
 20
41.69721956253628
 30
0.0
  0
VERTEX
  5
4DC
330
4B5
100
AcDbEntity
  8
DIBUJOS
 62
     7
100
AcDbVertex
100
AcDb2dVertex
 10
97.13875722917268
 20
41.70288907133779
 30
0.0
  0
VERTEX
  5
4DD
330
4B5
100
AcDbEntity
  8
DIBUJOS
 62
     7
100
AcDbVertex
100
AcDb2dVertex
 10
97.1727864941709
 20
41.73692138938345
 30
0.0
  0
VERTEX
  5
4DE
330
4B5
100
AcDbEntity
  8
DIBUJOS
 62
     7
100
AcDbVertex
100
AcDb2dVertex
 10
97.20437332134371
 20
41.82797241845579
 30
0.0
  0
VERTEX
  5
4DF
330
4B5
100
AcDbEntity
  8
DIBUJOS
 62
     7
100
AcDbVertex
100
AcDb2dVertex
 10
97.21248832101774
 20
41.91841283807177
 30
0.0
  0
VERTEX
  5
4E0
330
4B5
100
AcDbEntity
  8
DIBUJOS
 62
     7
100
AcDbVertex
100
AcDb2dVertex
 10
96.41607040719742
 20
46.841097425809
 30
0.0
  0
VERTEX
  5
4E1
330
4B5
100
AcDbEntity
  8
DIBUJOS
 62
     7
100
AcDbVertex
100
AcDb2dVertex
 10
96.27436016458527
 20
47.71449487378202
 30
0.0
  0
VERTEX
  5
4E2
330
4B5
100
AcDbEntity
  8
DIBUJOS
 62
     7
100
AcDbVertex
100
AcDb2dVertex
 10
96.15358772022863
 20
48.43007725473311
 30
0.0
  0
VERTEX
  5
4E3
330
4B5
100
AcDbEntity
  8
DIBUJOS
 62
     7
100
AcDbVertex
100
AcDb2dVertex
 10
96.13657003468207
 20
48.4754516434286
 30
0.0
  0
VERTEX
  5
4E4
330
4B5
100
AcDbEntity
  8
DIBUJOS
 62
     7
100
AcDbVertex
100
AcDb2dVertex
 10
96.10083716930086
 20
48.54861486847975
 30
0.0
  0
VERTEX
  5
4E5
330
4B5
100
AcDbEntity
  8
DIBUJOS
 62
     7
100
AcDbVertex
100
AcDb2dVertex
 10
96.03845120115308
 20
48.61100388967466
 30
0.0
  0
VERTEX
  5
4E6
330
4B5
100
AcDbEntity
  8
DIBUJOS
 62
     7
100
AcDbVertex
100
AcDb2dVertex
 10
95.99874937430623
 20
48.62801852217377
 30
0.0
  0
VERTEX
  5
4E7
330
4B5
100
AcDbEntity
  8
DIBUJOS
 62
     7
100
AcDbVertex
100
AcDb2dVertex
 10
95.46561404584298
 20
48.62801852217377
 30
0.0
  0
VERTEX
  5
4E8
330
4B5
100
AcDbEntity
  8
DIBUJOS
 62
     7
100
AcDbVertex
100
AcDb2dVertex
 10
95.4599414839937
 20
48.62234901337226
 30
0.0
  0
VERTEX
  5
4E9
330
4B5
100
AcDbEntity
  8
DIBUJOS
 62
     7
100
AcDbVertex
100
AcDb2dVertex
 10
95.33466274185014
 20
48.62601877620463
 30
0.0
  0
VERTEX
  5
4EA
330
4B5
100
AcDbEntity
  8
DIBUJOS
 62
     7
100
AcDbVertex
100
AcDb2dVertex
 10
95.29546161475703
 20
48.63936364587136
 30
0.0
  0
VERTEX
  5
4EB
330
4B5
100
AcDbEntity
  8
DIBUJOS
 62
     7
100
AcDbVertex
100
AcDb2dVertex
 10
95.27277136736184
 20
48.66205084021911
 30
0.0
  0
VERTEX
  5
4EC
330
4B5
100
AcDbEntity
  8
DIBUJOS
 62
     7
100
AcDbVertex
100
AcDb2dVertex
 10
95.26910160452947
 20
48.6795661724726
 30
0.0
  0
VERTEX
  5
4ED
330
4B5
100
AcDbEntity
  8
DIBUJOS
 62
     7
100
AcDbVertex
100
AcDb2dVertex
 10
95.26143234975882
 20
48.71309473771706
 30
0.0
  0
VERTEX
  5
4EE
330
4B5
100
AcDbEntity
  8
DIBUJOS
 62
     7
100
AcDbVertex
100
AcDb2dVertex
 10
95.2651021125912
 20
48.71926799931977
 30
0.0
  0
VERTEX
  5
4EF
330
4B5
100
AcDbEntity
  8
DIBUJOS
 62
     7
100
AcDbVertex
100
AcDb2dVertex
 10
95.27277136736184
 20
48.74712400271495
 30
0.0
  0
VERTEX
  5
4F0
330
4B5
100
AcDbEntity
  8
DIBUJOS
 62
     7
100
AcDbVertex
100
AcDb2dVertex
 10
95.30113417660631
 20
48.77548375891165
 30
0.0
  0
VERTEX
  5
4F1
330
4B5
100
AcDbEntity
  8
DIBUJOS
 62
     7
100
AcDbVertex
100
AcDb2dVertex
 10
95.31871362285251
 20
48.77945272037761
 30
0.0
  0
VERTEX
  5
4F2
330
4B5
100
AcDbEntity
  8
DIBUJOS
 62
     7
100
AcDbVertex
100
AcDb2dVertex
 10
95.83426950506956
 20
48.79249839141076
 30
0.0
  0
SEQEND
  5
4F3
330
4B5
100
AcDbEntity
  8
DIBUJOS
 62
     7
  0
POLYLINE
  5
4F4
330
41D
100
AcDbEntity
  8
DIBUJOS
 62
     7
100
AcDb2dPolyline
 66
     1
 10
0.0
 20
0.0
 30
0.0
  0
VERTEX
  5
4F5
330
4F4
100
AcDbEntity
  8
DIBUJOS
 62
     7
100
AcDbVertex
100
AcDb2dVertex
 10
91.29692222690403
 20
41.55542688764735
 30
0.0
  0
VERTEX
  5
4F6
330
4F4
100
AcDbEntity
  8
DIBUJOS
 62
     7
100
AcDbVertex
100
AcDb2dVertex
 10
91.29124966505539
 20
41.56109639644885
 30
0.0
  0
VERTEX
  5
4F7
330
4F4
100
AcDbEntity
  8
DIBUJOS
 62
     7
100
AcDbVertex
100
AcDb2dVertex
 10
91.26289296190582
 20
41.56109639644885
 30
0.0
  0
SEQEND
  5
4F8
330
4F4
100
AcDbEntity
  8
DIBUJOS
 62
     7
  0
POLYLINE
  5
4F9
330
41D
100
AcDbEntity
  8
DIBUJOS
 62
     7
100
AcDb2dPolyline
 66
     1
 10
0.0
 20
0.0
 30
0.0
  0
VERTEX
  5
4FA
330
4F9
100
AcDbEntity
  8
DIBUJOS
 62
     7
100
AcDbVertex
100
AcDb2dVertex
 10
91.30259478875331
 20
41.55542688764735
 30
0.0
  0
VERTEX
  5
4FB
330
4F9
100
AcDbEntity
  8
DIBUJOS
 62
     7
100
AcDbVertex
100
AcDb2dVertex
 10
91.29692222690403
 20
41.55542688764735
 30
0.0
  0
SEQEND
  5
4FC
330
4F9
100
AcDbEntity
  8
DIBUJOS
 62
     7
  0
POLYLINE
  5
4FD
330
41D
100
AcDbEntity
  8
DIBUJOS
 62
     7
100
AcDb2dPolyline
 66
     1
 10
0.0
 20
0.0
 30
0.0
  0
VERTEX
  5
4FE
330
4FD
100
AcDbEntity
  8
DIBUJOS
 62
     7
100
AcDbVertex
100
AcDb2dVertex
 10
91.30826735060195
 20
41.55542688764735
 30
0.0
  0
VERTEX
  5
4FF
330
4FD
100
AcDbEntity
  8
DIBUJOS
 62
     7
100
AcDbVertex
100
AcDb2dVertex
 10
91.30259478875331
 20
41.55542688764735
 30
0.0
  0
SEQEND
  5
500
330
4FD
100
AcDbEntity
  8
DIBUJOS
 62
     7
  0
POLYLINE
  5
501
330
41D
100
AcDbEntity
  8
DIBUJOS
 62
     7
100
AcDb2dPolyline
 66
     1
 10
0.0
 20
0.0
 30
0.0
  0
VERTEX
  5
502
330
501
100
AcDbEntity
  8
DIBUJOS
 62
     7
100
AcDbVertex
100
AcDb2dVertex
 10
96.95726578048372
 20
41.55542688764735
 30
0.0
  0
VERTEX
  5
503
330
501
100
AcDbEntity
  8
DIBUJOS
 62
     7
100
AcDbVertex
100
AcDb2dVertex
 10
96.83210305413638
 20
41.57581208434492
 30
0.0
  0
VERTEX
  5
504
330
501
100
AcDbEntity
  8
DIBUJOS
 62
     7
100
AcDbVertex
100
AcDb2dVertex
 10
94.85899186931697
 20
41.88691149622289
 30
0.0
  0
VERTEX
  5
505
330
501
100
AcDbEntity
  8
DIBUJOS
 62
     7
100
AcDbVertex
100
AcDb2dVertex
 10
94.61476640509025
 20
41.90433218401041
 30
0.0
  0
VERTEX
  5
506
330
501
100
AcDbEntity
  8
DIBUJOS
 62
     7
100
AcDbVertex
100
AcDb2dVertex
 10
94.45046971868997
 20
41.90980935083316
 30
0.0
  0
VERTEX
  5
507
330
501
100
AcDbEntity
  8
DIBUJOS
 62
     7
100
AcDbVertex
100
AcDb2dVertex
 10
93.81506341239506
 20
41.9098124038803
 30
0.0
  0
VERTEX
  5
508
330
501
100
AcDbEntity
  8
DIBUJOS
 62
     7
100
AcDbVertex
100
AcDb2dVertex
 10
93.64508805805187
 20
41.90432913096328
 30
0.0
  0
VERTEX
  5
509
330
501
100
AcDbEntity
  8
DIBUJOS
 62
     7
100
AcDbVertex
100
AcDb2dVertex
 10
93.36736455905395
 20
41.88189533953955
 30
0.0
  0
VERTEX
  5
50A
330
501
100
AcDbEntity
  8
DIBUJOS
 62
     7
100
AcDbVertex
100
AcDb2dVertex
 10
91.44482404940328
 20
41.57593115318893
 30
0.0
  0
VERTEX
  5
50B
330
501
100
AcDbEntity
  8
DIBUJOS
 62
     7
100
AcDbVertex
100
AcDb2dVertex
 10
91.30826735060195
 20
41.55542688764735
 30
0.0
  0
SEQEND
  5
50C
330
501
100
AcDbEntity
  8
DIBUJOS
 62
     7
  0
POLYLINE
  5
50D
330
41D
100
AcDbEntity
  8
DIBUJOS
 62
     7
100
AcDb2dPolyline
 66
     1
 10
0.0
 20
0.0
 30
0.0
  0
VERTEX
  5
50E
330
50D
100
AcDbEntity
  8
DIBUJOS
 62
     7
100
AcDbVertex
100
AcDb2dVertex
 10
96.962938342333
 20
41.55542688764735
 30
0.0
  0
VERTEX
  5
50F
330
50D
100
AcDbEntity
  8
DIBUJOS
 62
     7
100
AcDbVertex
100
AcDb2dVertex
 10
96.95726578048372
 20
41.55542688764735
 30
0.0
  0
SEQEND
  5
510
330
50D
100
AcDbEntity
  8
DIBUJOS
 62
     7
  0
POLYLINE
  5
511
330
41D
100
AcDbEntity
  8
DIBUJOS
 62
     7
100
AcDb2dPolyline
 66
     1
 10
0.0
 20
0.0
 30
0.0
  0
VERTEX
  5
512
330
511
100
AcDbEntity
  8
DIBUJOS
 62
     7
100
AcDbVertex
100
AcDb2dVertex
 10
96.962938342333
 20
41.55542688764735
 30
0.0
  0
VERTEX
  5
513
330
511
100
AcDbEntity
  8
DIBUJOS
 62
     7
100
AcDbVertex
100
AcDb2dVertex
 10
96.96861090418165
 20
41.56109639644885
 30
0.0
  0
VERTEX
  5
514
330
511
100
AcDbEntity
  8
DIBUJOS
 62
     7
100
AcDbVertex
100
AcDb2dVertex
 10
97.0423419960267
 20
41.56109639644885
 30
0.0
  0
SEQEND
  5
515
330
511
100
AcDbEntity
  8
DIBUJOS
 62
     7
  0
POLYLINE
  5
516
330
41D
100
AcDbEntity
  8
DIBUJOS
 62
     7
100
AcDb2dPolyline
 66
     1
 10
0.0
 20
0.0
 30
0.0
  0
VERTEX
  5
517
330
516
100
AcDbEntity
  8
DIBUJOS
 62
     7
100
AcDbVertex
100
AcDb2dVertex
 10
91.30259478875331
 20
41.54975432579839
 30
0.0
  0
VERTEX
  5
518
330
516
100
AcDbEntity
  8
DIBUJOS
 62
     7
100
AcDbVertex
100
AcDb2dVertex
 10
91.30259478875331
 20
41.55542688764735
 30
0.0
  0
SEQEND
  5
519
330
516
100
AcDbEntity
  8
DIBUJOS
 62
     7
  0
POLYLINE
  5
51A
330
41D
100
AcDbEntity
  8
DIBUJOS
 62
     7
100
AcDb2dPolyline
 66
     1
 10
0.0
 20
0.0
 30
0.0
  0
VERTEX
  5
51B
330
51A
100
AcDbEntity
  8
DIBUJOS
 62
     7
100
AcDbVertex
100
AcDb2dVertex
 10
96.962938342333
 20
41.54975432579839
 30
0.0
  0
VERTEX
  5
51C
330
51A
100
AcDbEntity
  8
DIBUJOS
 62
     7
100
AcDbVertex
100
AcDb2dVertex
 10
96.962938342333
 20
41.55542688764735
 30
0.0
  0
SEQEND
  5
51D
330
51A
100
AcDbEntity
  8
DIBUJOS
 62
     7
  0
POLYLINE
  5
51E
330
41D
100
AcDbEntity
  8
DIBUJOS
 62
     7
100
AcDb2dPolyline
 66
     1
 10
0.0
 20
0.0
 30
0.0
  0
VERTEX
  5
51F
330
51E
100
AcDbEntity
  8
DIBUJOS
 62
     7
100
AcDbVertex
100
AcDb2dVertex
 10
91.08706796897123
 20
41.54408176394943
 30
0.0
  0
VERTEX
  5
520
330
51E
100
AcDbEntity
  8
DIBUJOS
 62
     7
100
AcDbVertex
100
AcDb2dVertex
 10
91.03515395299864
 20
41.57680432471133
 30
0.0
  0
VERTEX
  5
521
330
51E
100
AcDbEntity
  8
DIBUJOS
 62
     7
100
AcDbVertex
100
AcDb2dVertex
 10
90.9781718785395
 20
41.6399352363961
 30
0.0
  0
VERTEX
  5
522
330
51E
100
AcDbEntity
  8
DIBUJOS
 62
     7
100
AcDbVertex
100
AcDb2dVertex
 10
90.94981517538993
 20
41.69097913389309
 30
0.0
  0
VERTEX
  5
523
330
51E
100
AcDbEntity
  8
DIBUJOS
 62
     7
100
AcDbVertex
100
AcDb2dVertex
 10
90.91521804359718
 20
41.78739742008622
 30
0.0
  0
VERTEX
  5
524
330
51E
100
AcDbEntity
  8
DIBUJOS
 62
     7
100
AcDbVertex
100
AcDb2dVertex
 10
90.89990395843427
 20
41.88438357307388
 30
0.0
  0
VERTEX
  5
525
330
51E
100
AcDbEntity
  8
DIBUJOS
 62
     7
100
AcDbVertex
100
AcDb2dVertex
 10
90.92596477002792
 20
42.08327739126661
 30
0.0
  0
VERTEX
  5
526
330
51E
100
AcDbEntity
  8
DIBUJOS
 62
     7
100
AcDbVertex
100
AcDb2dVertex
 10
90.94198716215998
 20
42.18464161405546
 30
0.0
  0
VERTEX
  5
527
330
51E
100
AcDbEntity
  8
DIBUJOS
 62
     7
100
AcDbVertex
100
AcDb2dVertex
 10
91.95850536058947
 20
48.43568264954159
 30
0.0
  0
VERTEX
  5
528
330
51E
100
AcDbEntity
  8
DIBUJOS
 62
     7
100
AcDbVertex
100
AcDb2dVertex
 10
91.96818352047192
 20
48.4743830768803
 30
0.0
  0
VERTEX
  5
529
330
51E
100
AcDbEntity
  8
DIBUJOS
 62
     7
100
AcDbVertex
100
AcDb2dVertex
 10
92.00701828189031
 20
48.57073419603326
 30
0.0
  0
VERTEX
  5
52A
330
51E
100
AcDbEntity
  8
DIBUJOS
 62
     7
100
AcDbVertex
100
AcDb2dVertex
 10
92.0160919384107
 20
48.58888456212114
 30
0.0
  0
VERTEX
  5
52B
330
51E
100
AcDbEntity
  8
DIBUJOS
 62
     7
100
AcDbVertex
100
AcDb2dVertex
 10
92.07394107829828
 20
48.67906547271821
 30
0.0
  0
VERTEX
  5
52C
330
51E
100
AcDbEntity
  8
DIBUJOS
 62
     7
100
AcDbVertex
100
AcDb2dVertex
 10
92.11931546699441
 20
48.72443680836721
 30
0.0
  0
VERTEX
  5
52D
330
51E
100
AcDbEntity
  8
DIBUJOS
 62
     7
100
AcDbVertex
100
AcDb2dVertex
 10
92.15958516063581
 20
48.75166083097514
 30
0.0
  0
VERTEX
  5
52E
330
51E
100
AcDbEntity
  8
DIBUJOS
 62
     7
100
AcDbVertex
100
AcDb2dVertex
 10
92.24932643242438
 20
48.78333619651933
 30
0.0
  0
VERTEX
  5
52F
330
51E
100
AcDbEntity
  8
DIBUJOS
 62
     7
100
AcDbVertex
100
AcDb2dVertex
 10
92.25577446828297
 20
48.78444445268261
 30
0.0
  0
VERTEX
  5
530
330
51E
100
AcDbEntity
  8
DIBUJOS
 62
     7
100
AcDbVertex
100
AcDb2dVertex
 10
92.30024515498374
 20
48.79363412499922
 30
0.0
  0
VERTEX
  5
531
330
51E
100
AcDbEntity
  8
DIBUJOS
 62
     7
100
AcDbVertex
100
AcDb2dVertex
 10
92.30647947753202
 20
48.79817095325972
 30
0.0
  0
SEQEND
  5
532
330
51E
100
AcDbEntity
  8
DIBUJOS
 62
     7
  0
POLYLINE
  5
533
330
41D
100
AcDbEntity
  8
DIBUJOS
 62
     7
100
AcDb2dPolyline
 66
     1
 10
0.0
 20
0.0
 30
0.0
  0
VERTEX
  5
534
330
533
100
AcDbEntity
  8
DIBUJOS
 62
     7
100
AcDbVertex
100
AcDb2dVertex
 10
91.08706796897123
 20
41.53841225514793
 30
0.0
  0
VERTEX
  5
535
330
533
100
AcDbEntity
  8
DIBUJOS
 62
     7
100
AcDbVertex
100
AcDb2dVertex
 10
91.08706796897123
 20
41.54408176394943
 30
0.0
  0
SEQEND
  5
536
330
533
100
AcDbEntity
  8
DIBUJOS
 62
     7
  0
POLYLINE
  5
537
330
41D
100
AcDbEntity
  8
DIBUJOS
 62
     7
100
AcDb2dPolyline
 66
     1
 10
0.0
 20
0.0
 30
0.0
  0
VERTEX
  5
538
330
537
100
AcDbEntity
  8
DIBUJOS
 62
     7
100
AcDbVertex
100
AcDb2dVertex
 10
91.0927405308205
 20
41.53841225514793
 30
0.0
  0
VERTEX
  5
539
330
537
100
AcDbEntity
  8
DIBUJOS
 62
     7
100
AcDbVertex
100
AcDb2dVertex
 10
91.08706796897123
 20
41.53841225514793
 30
0.0
  0
SEQEND
  5
53A
330
537
100
AcDbEntity
  8
DIBUJOS
 62
     7
  0
POLYLINE
  5
53B
330
41D
100
AcDbEntity
  8
DIBUJOS
 62
     7
100
AcDb2dPolyline
 66
     1
 10
0.0
 20
0.0
 30
0.0
  0
VERTEX
  5
53C
330
53B
100
AcDbEntity
  8
DIBUJOS
 62
     7
100
AcDbVertex
100
AcDb2dVertex
 10
91.0927405308205
 20
41.53841225514793
 30
0.0
  0
VERTEX
  5
53D
330
53B
100
AcDbEntity
  8
DIBUJOS
 62
     7
100
AcDbVertex
100
AcDb2dVertex
 10
91.15512649896765
 20
41.54975432579839
 30
0.0
  0
SEQEND
  5
53E
330
53B
100
AcDbEntity
  8
DIBUJOS
 62
     7
  0
POLYLINE
  5
53F
330
41D
100
AcDbEntity
  8
DIBUJOS
 62
     7
100
AcDb2dPolyline
 66
     1
 10
0.0
 20
0.0
 30
0.0
  0
VERTEX
  5
540
330
53F
100
AcDbEntity
  8
DIBUJOS
 62
     7
100
AcDbVertex
100
AcDb2dVertex
 10
97.1727864941709
 20
41.53841225514793
 30
0.0
  0
VERTEX
  5
541
330
53F
100
AcDbEntity
  8
DIBUJOS
 62
     7
100
AcDbVertex
100
AcDb2dVertex
 10
97.06502613732764
 20
41.56109639644885
 30
0.0
  0
SEQEND
  5
542
330
53F
100
AcDbEntity
  8
DIBUJOS
 62
     7
  0
POLYLINE
  5
543
330
41D
100
AcDbEntity
  8
DIBUJOS
 62
     7
100
AcDb2dPolyline
 66
     1
 10
0.0
 20
0.0
 30
0.0
  0
VERTEX
  5
544
330
543
100
AcDbEntity
  8
DIBUJOS
 62
     7
100
AcDbVertex
100
AcDb2dVertex
 10
97.17845905602017
 20
41.53841225514793
 30
0.0
  0
VERTEX
  5
545
330
543
100
AcDbEntity
  8
DIBUJOS
 62
     7
100
AcDbVertex
100
AcDb2dVertex
 10
97.1727864941709
 20
41.53841225514793
 30
0.0
  0
SEQEND
  5
546
330
543
100
AcDbEntity
  8
DIBUJOS
 62
     7
  0
POLYLINE
  5
547
330
41D
100
AcDbEntity
  8
DIBUJOS
 62
     7
100
AcDb2dPolyline
 66
     1
 10
0.0
 20
0.0
 30
0.0
  0
VERTEX
  5
548
330
547
100
AcDbEntity
  8
DIBUJOS
 62
     7
100
AcDbVertex
100
AcDb2dVertex
 10
97.17845905602017
 20
41.53841225514793
 30
0.0
  0
VERTEX
  5
549
330
547
100
AcDbEntity
  8
DIBUJOS
 62
     7
100
AcDbVertex
100
AcDb2dVertex
 10
97.23007387335885
 20
41.571305786558
 30
0.0
  0
VERTEX
  5
54A
330
547
100
AcDbEntity
  8
DIBUJOS
 62
     7
100
AcDbVertex
100
AcDb2dVertex
 10
97.23517856841295
 20
41.57244152014581
 30
0.0
  0
VERTEX
  5
54B
330
547
100
AcDbEntity
  8
DIBUJOS
 62
     7
100
AcDbVertex
100
AcDb2dVertex
 10
97.29887734689194
 20
41.64529944046911
 30
0.0
  0
VERTEX
  5
54C
330
547
100
AcDbEntity
  8
DIBUJOS
 62
     7
100
AcDbVertex
100
AcDb2dVertex
 10
97.32705697329875
 20
41.69665169574174
 30
0.0
  0
VERTEX
  5
54D
330
547
100
AcDbEntity
  8
DIBUJOS
 62
     7
100
AcDbVertex
100
AcDb2dVertex
 10
97.3616541050915
 20
41.7930699819355
 30
0.0
  0
VERTEX
  5
54E
330
547
100
AcDbEntity
  8
DIBUJOS
 62
     7
100
AcDbVertex
100
AcDb2dVertex
 10
97.37129562840643
 20
41.85602686992495
 30
0.0
  0
VERTEX
  5
54F
330
547
100
AcDbEntity
  8
DIBUJOS
 62
     7
100
AcDbVertex
100
AcDb2dVertex
 10
97.37129562840643
 20
41.94110003242016
 30
0.0
  0
VERTEX
  5
550
330
547
100
AcDbEntity
  8
DIBUJOS
 62
     7
100
AcDbVertex
100
AcDb2dVertex
 10
97.33497047185232
 20
42.16758423889456
 30
0.0
  0
VERTEX
  5
551
330
547
100
AcDbEntity
  8
DIBUJOS
 62
     7
100
AcDbVertex
100
AcDb2dVertex
 10
97.3236253481544
 20
42.24131838378707
 30
0.0
  0
VERTEX
  5
552
330
547
100
AcDbEntity
  8
DIBUJOS
 62
     7
100
AcDbVertex
100
AcDb2dVertex
 10
96.31269422624993
 20
48.45269728204069
 30
0.0
  0
VERTEX
  5
553
330
547
100
AcDbEntity
  8
DIBUJOS
 62
     7
100
AcDbVertex
100
AcDb2dVertex
 10
96.30868862821676
 20
48.46871051503134
 30
0.0
  0
VERTEX
  5
554
330
547
100
AcDbEntity
  8
DIBUJOS
 62
     7
100
AcDbVertex
100
AcDb2dVertex
 10
96.25851484919471
 20
48.5877518815795
 30
0.0
  0
VERTEX
  5
555
330
547
100
AcDbEntity
  8
DIBUJOS
 62
     7
100
AcDbVertex
100
AcDb2dVertex
 10
96.2551076484287
 20
48.59455712396979
 30
0.0
  0
VERTEX
  5
556
330
547
100
AcDbEntity
  8
DIBUJOS
 62
     7
100
AcDbVertex
100
AcDb2dVertex
 10
96.18591338484384
 20
48.69608010521764
 30
0.0
  0
VERTEX
  5
557
330
547
100
AcDbEntity
  8
DIBUJOS
 62
     7
100
AcDbVertex
100
AcDb2dVertex
 10
96.12250769890449
 20
48.74576234362734
 30
0.0
  0
VERTEX
  5
558
330
547
100
AcDbEntity
  8
DIBUJOS
 62
     7
100
AcDbVertex
100
AcDb2dVertex
 10
96.04368412419322
 20
48.77897339195413
 30
0.0
  0
VERTEX
  5
559
330
547
100
AcDbEntity
  8
DIBUJOS
 62
     7
100
AcDbVertex
100
AcDb2dVertex
 10
95.97039267115666
 20
48.79817095325972
 30
0.0
  0
SEQEND
  5
55A
330
547
100
AcDbEntity
  8
DIBUJOS
 62
     7
  0
POLYLINE
  5
55B
330
41D
100
AcDbEntity
  8
DIBUJOS
 62
     7
100
AcDb2dPolyline
 66
     1
 10
0.0
 20
0.0
 30
0.0
  0
VERTEX
  5
55C
330
55B
100
AcDbEntity
  8
DIBUJOS
 62
     7
100
AcDbVertex
100
AcDb2dVertex
 10
91.08706796897123
 20
41.53273969329896
 30
0.0
  0
VERTEX
  5
55D
330
55B
100
AcDbEntity
  8
DIBUJOS
 62
     7
100
AcDbVertex
100
AcDb2dVertex
 10
91.08706796897123
 20
41.53841225514793
 30
0.0
  0
SEQEND
  5
55E
330
55B
100
AcDbEntity
  8
DIBUJOS
 62
     7
  0
POLYLINE
  5
55F
330
41D
100
AcDbEntity
  8
DIBUJOS
 62
     7
100
AcDb2dPolyline
 66
     1
 10
0.0
 20
0.0
 30
0.0
  0
VERTEX
  5
560
330
55F
100
AcDbEntity
  8
DIBUJOS
 62
     7
100
AcDbVertex
100
AcDb2dVertex
 10
97.17845905602017
 20
41.53273969329896
 30
0.0
  0
VERTEX
  5
561
330
55F
100
AcDbEntity
  8
DIBUJOS
 62
     7
100
AcDbVertex
100
AcDb2dVertex
 10
97.17845905602017
 20
41.53841225514793
 30
0.0
  0
SEQEND
  5
562
330
55F
100
AcDbEntity
  8
DIBUJOS
 62
     7
  0
POLYLINE
  5
563
330
41D
100
AcDbEntity
  8
DIBUJOS
 62
     7
100
AcDb2dPolyline
 66
     1
 10
0.0
 20
0.0
 30
0.0
  0
VERTEX
  5
564
330
563
100
AcDbEntity
  8
DIBUJOS
 62
     7
100
AcDbVertex
100
AcDb2dVertex
 10
91.08706796897123
 20
41.53273969329896
 30
0.0
  0
VERTEX
  5
565
330
563
100
AcDbEntity
  8
DIBUJOS
 62
     7
100
AcDbVertex
100
AcDb2dVertex
 10
91.08706796897123
 20
41.50437993710258
 30
0.0
  0
VERTEX
  5
566
330
563
100
AcDbEntity
  8
DIBUJOS
 62
     7
100
AcDbVertex
100
AcDb2dVertex
 10
91.0984130926685
 20
41.49303786645244
 30
0.0
  0
VERTEX
  5
567
330
563
100
AcDbEntity
  8
DIBUJOS
 62
     7
100
AcDbVertex
100
AcDb2dVertex
 10
91.27423197950883
 20
41.49303786645244
 30
0.0
  0
VERTEX
  5
568
330
563
100
AcDbEntity
  8
DIBUJOS
 62
     7
100
AcDbVertex
100
AcDb2dVertex
 10
91.29124966505539
 20
41.49871042830075
 30
0.0
  0
VERTEX
  5
569
330
563
100
AcDbEntity
  8
DIBUJOS
 62
     7
100
AcDbVertex
100
AcDb2dVertex
 10
91.30259478875331
 20
41.51005249895122
 30
0.0
  0
VERTEX
  5
56A
330
563
100
AcDbEntity
  8
DIBUJOS
 62
     7
100
AcDbVertex
100
AcDb2dVertex
 10
91.30259478875331
 20
41.54975432579839
 30
0.0
  0
SEQEND
  5
56B
330
563
100
AcDbEntity
  8
DIBUJOS
 62
     7
  0
POLYLINE
  5
56C
330
41D
100
AcDbEntity
  8
DIBUJOS
 62
     7
100
AcDb2dPolyline
 66
     1
 10
0.0
 20
0.0
 30
0.0
  0
VERTEX
  5
56D
330
56C
100
AcDbEntity
  8
DIBUJOS
 62
     7
100
AcDbVertex
100
AcDb2dVertex
 10
96.962938342333
 20
41.54975432579839
 30
0.0
  0
VERTEX
  5
56E
330
56C
100
AcDbEntity
  8
DIBUJOS
 62
     7
100
AcDbVertex
100
AcDb2dVertex
 10
96.96861090418165
 20
41.50437993710258
 30
0.0
  0
VERTEX
  5
56F
330
56C
100
AcDbEntity
  8
DIBUJOS
 62
     7
100
AcDbVertex
100
AcDb2dVertex
 10
96.97994992178465
 20
41.49303786645244
 30
0.0
  0
VERTEX
  5
570
330
56C
100
AcDbEntity
  8
DIBUJOS
 62
     7
100
AcDbVertex
100
AcDb2dVertex
 10
97.16144747656789
 20
41.49303786645244
 30
0.0
  0
VERTEX
  5
571
330
56C
100
AcDbEntity
  8
DIBUJOS
 62
     7
100
AcDbVertex
100
AcDb2dVertex
 10
97.17845905602017
 20
41.51005249895122
 30
0.0
  0
VERTEX
  5
572
330
56C
100
AcDbEntity
  8
DIBUJOS
 62
     7
100
AcDbVertex
100
AcDb2dVertex
 10
97.17845905602017
 20
41.53273969329896
 30
0.0
  0
SEQEND
  5
573
330
56C
100
AcDbEntity
  8
DIBUJOS
 62
     7
  0
ENDBLK
  5
420
330
41D
100
AcDbEntity
  8
0
100
AcDbBlockEnd
  0
BLOCK
  5
595
330
593
100
AcDbEntity
  8
0
100
AcDbBlockBegin
  2
BLOCK_6
 70
     0
 10
0.0
 20
0.0
 30
0.0
  3
BLOCK_6
  1

  0
POLYLINE
  5
597
330
593
100
AcDbEntity
  8
DIBUJOS
 62
     7
100
AcDb2dPolyline
 66
     1
 10
0.0
 20
0.0
 30
0.0
  0
VERTEX
  5
598
330
597
100
AcDbEntity
  8
DIBUJOS
 62
     7
100
AcDbVertex
100
AcDb2dVertex
 10
96.9062188299396
 20
33.07511513121551
 30
0.0
  0
VERTEX
  5
599
330
597
100
AcDbEntity
  8
DIBUJOS
 62
     7
100
AcDbVertex
100
AcDb2dVertex
 10
96.90054626809031
 20
33.07511513121551
 30
0.0
  0
SEQEND
  5
59A
330
597
100
AcDbEntity
  8
DIBUJOS
 62
     7
  0
POLYLINE
  5
59B
330
593
100
AcDbEntity
  8
DIBUJOS
 62
     7
100
AcDb2dPolyline
 66
     1
 10
0.0
 20
0.0
 30
0.0
  0
VERTEX
  5
59C
330
59B
100
AcDbEntity
  8
DIBUJOS
 62
     7
100
AcDbVertex
100
AcDb2dVertex
 10
91.37632588059836
 20
33.0694440958906
 30
0.0
  0
VERTEX
  5
59D
330
59B
100
AcDbEntity
  8
DIBUJOS
 62
     7
100
AcDbVertex
100
AcDb2dVertex
 10
91.37065331874908
 20
33.0694440958906
 30
0.0
  0
SEQEND
  5
59E
330
59B
100
AcDbEntity
  8
DIBUJOS
 62
     7
  0
POLYLINE
  5
59F
330
593
100
AcDbEntity
  8
DIBUJOS
 62
     7
100
AcDb2dPolyline
 66
     1
 10
0.0
 20
0.0
 30
0.0
  0
VERTEX
  5
5A0
330
59F
100
AcDbEntity
  8
DIBUJOS
 62
     7
100
AcDbVertex
100
AcDb2dVertex
 10
91.37632588059836
 20
33.0694440958906
 30
0.0
  0
VERTEX
  5
5A1
330
59F
100
AcDbEntity
  8
DIBUJOS
 62
     7
100
AcDbVertex
100
AcDb2dVertex
 10
91.63278185223426
 20
33.29490553152596
 30
0.0
  0
VERTEX
  5
5A2
330
59F
100
AcDbEntity
  8
DIBUJOS
 62
     7
100
AcDbVertex
100
AcDb2dVertex
 10
91.73844171254784
 20
33.37702334425315
 30
0.0
  0
VERTEX
  5
5A3
330
59F
100
AcDbEntity
  8
DIBUJOS
 62
     7
100
AcDbVertex
100
AcDb2dVertex
 10
91.84052950754247
 20
33.4450834007733
 30
0.0
  0
VERTEX
  5
5A4
330
59F
100
AcDbEntity
  8
DIBUJOS
 62
     7
100
AcDbVertex
100
AcDb2dVertex
 10
92.15958516063581
 20
33.65249369435698
 30
0.0
  0
VERTEX
  5
5A5
330
59F
100
AcDbEntity
  8
DIBUJOS
 62
     7
100
AcDbVertex
100
AcDb2dVertex
 10
92.3580942948707
 20
33.74891198055042
 30
0.0
  0
VERTEX
  5
5A6
330
59F
100
AcDbEntity
  8
DIBUJOS
 62
     7
100
AcDbVertex
100
AcDb2dVertex
 10
92.62352622551418
 20
33.87652477734116
 30
0.0
  0
VERTEX
  5
5A7
330
59F
100
AcDbEntity
  8
DIBUJOS
 62
     7
100
AcDbVertex
100
AcDb2dVertex
 10
92.98197840072555
 20
33.99789867201244
 30
0.0
  0
VERTEX
  5
5A8
330
59F
100
AcDbEntity
  8
DIBUJOS
 62
     7
100
AcDbVertex
100
AcDb2dVertex
 10
93.14545687045474
 20
34.04715501032623
 30
0.0
  0
VERTEX
  5
5A9
330
59F
100
AcDbEntity
  8
DIBUJOS
 62
     7
100
AcDbVertex
100
AcDb2dVertex
 10
93.2872464922962
 20
34.07551323999952
 30
0.0
  0
VERTEX
  5
5AA
330
59F
100
AcDbEntity
  8
DIBUJOS
 62
     7
100
AcDbVertex
100
AcDb2dVertex
 10
93.61116870275627
 20
34.13879069795347
 30
0.0
  0
VERTEX
  5
5AB
330
59F
100
AcDbEntity
  8
DIBUJOS
 62
     7
100
AcDbVertex
100
AcDb2dVertex
 10
94.1099145066415
 20
34.17239864242664
 30
0.0
  0
VERTEX
  5
5AC
330
59F
100
AcDbEntity
  8
DIBUJOS
 62
     7
100
AcDbVertex
100
AcDb2dVertex
 10
94.17831497793364
 20
34.17238643023745
 30
0.0
  0
VERTEX
  5
5AD
330
59F
100
AcDbEntity
  8
DIBUJOS
 62
     7
100
AcDbVertex
100
AcDb2dVertex
 10
94.67137600778169
 20
34.13879069795347
 30
0.0
  0
VERTEX
  5
5AE
330
59F
100
AcDbEntity
  8
DIBUJOS
 62
     7
100
AcDbVertex
100
AcDb2dVertex
 10
95.01710918801932
 20
34.07115043543465
 30
0.0
  0
VERTEX
  5
5AF
330
59F
100
AcDbEntity
  8
DIBUJOS
 62
     7
100
AcDbVertex
100
AcDb2dVertex
 10
95.1589049159557
 20
34.04279220576135
 30
0.0
  0
VERTEX
  5
5B0
330
59F
100
AcDbEntity
  8
DIBUJOS
 62
     7
100
AcDbVertex
100
AcDb2dVertex
 10
95.28354862426521
 20
34.00357123386107
 30
0.0
  0
VERTEX
  5
5B1
330
59F
100
AcDbEntity
  8
DIBUJOS
 62
     7
100
AcDbVertex
100
AcDb2dVertex
 10
95.65901848502378
 20
33.87652477734116
 30
0.0
  0
VERTEX
  5
5B2
330
59F
100
AcDbEntity
  8
DIBUJOS
 62
     7
100
AcDbVertex
100
AcDb2dVertex
 10
95.91991358740644
 20
33.75118039468051
 30
0.0
  0
VERTEX
  5
5B3
330
59F
100
AcDbEntity
  8
DIBUJOS
 62
     7
100
AcDbVertex
100
AcDb2dVertex
 10
96.12295954990151
 20
33.65249369435698
 30
0.0
  0
VERTEX
  5
5B4
330
59F
100
AcDbEntity
  8
DIBUJOS
 62
     7
100
AcDbVertex
100
AcDb2dVertex
 10
96.42892373625277
 20
33.45380900990369
 30
0.0
  0
VERTEX
  5
5B5
330
59F
100
AcDbEntity
  8
DIBUJOS
 62
     7
100
AcDbVertex
100
AcDb2dVertex
 10
96.54410299798948
 20
33.37702334425315
 30
0.0
  0
VERTEX
  5
5B6
330
59F
100
AcDbEntity
  8
DIBUJOS
 62
     7
100
AcDbVertex
100
AcDb2dVertex
 10
96.64655105256327
 20
33.29771586154852
 30
0.0
  0
VERTEX
  5
5B7
330
59F
100
AcDbEntity
  8
DIBUJOS
 62
     7
100
AcDbVertex
100
AcDb2dVertex
 10
96.90054626809031
 20
33.07511513121551
 30
0.0
  0
SEQEND
  5
5B8
330
59F
100
AcDbEntity
  8
DIBUJOS
 62
     7
  0
POLYLINE
  5
5B9
330
593
100
AcDbEntity
  8
DIBUJOS
 62
     7
100
AcDb2dPolyline
 66
     1
 10
0.0
 20
0.0
 30
0.0
  0
VERTEX
  5
5BA
330
5B9
100
AcDbEntity
  8
DIBUJOS
 62
     7
100
AcDbVertex
100
AcDb2dVertex
 10
96.9062188299396
 20
33.0694440958906
 30
0.0
  0
VERTEX
  5
5BB
330
5B9
100
AcDbEntity
  8
DIBUJOS
 62
     7
100
AcDbVertex
100
AcDb2dVertex
 10
96.9062188299396
 20
33.07511513121551
 30
0.0
  0
SEQEND
  5
5BC
330
5B9
100
AcDbEntity
  8
DIBUJOS
 62
     7
  0
POLYLINE
  5
5BD
330
593
100
AcDbEntity
  8
DIBUJOS
 62
     7
100
AcDb2dPolyline
 66
     1
 10
0.0
 20
0.0
 30
0.0
  0
VERTEX
  5
5BE
330
5BD
100
AcDbEntity
  8
DIBUJOS
 62
     7
100
AcDbVertex
100
AcDb2dVertex
 10
91.37065331874908
 20
33.06377153404196
 30
0.0
  0
VERTEX
  5
5BF
330
5BD
100
AcDbEntity
  8
DIBUJOS
 62
     7
100
AcDbVertex
100
AcDb2dVertex
 10
91.37065331874908
 20
33.0694440958906
 30
0.0
  0
SEQEND
  5
5C0
330
5BD
100
AcDbEntity
  8
DIBUJOS
 62
     7
  0
POLYLINE
  5
5C1
330
593
100
AcDbEntity
  8
DIBUJOS
 62
     7
100
AcDb2dPolyline
 66
     1
 10
0.0
 20
0.0
 30
0.0
  0
VERTEX
  5
5C2
330
5C1
100
AcDbEntity
  8
DIBUJOS
 62
     7
100
AcDbVertex
100
AcDb2dVertex
 10
97.02532431048078
 20
32.95600965067497
 30
0.0
  0
VERTEX
  5
5C3
330
5C1
100
AcDbEntity
  8
DIBUJOS
 62
     7
100
AcDbVertex
100
AcDb2dVertex
 10
97.01529199711408
 20
32.96822641937124
 30
0.0
  0
VERTEX
  5
5C4
330
5C1
100
AcDbEntity
  8
DIBUJOS
 62
     7
100
AcDbVertex
100
AcDb2dVertex
 10
96.9062188299396
 20
33.0694440958906
 30
0.0
  0
SEQEND
  5
5C5
330
5C1
100
AcDbEntity
  8
DIBUJOS
 62
     7
  0
POLYLINE
  5
5C6
330
593
100
AcDbEntity
  8
DIBUJOS
 62
     7
100
AcDb2dPolyline
 66
     1
 10
0.0
 20
0.0
 30
0.0
  0
VERTEX
  5
5C7
330
5C6
100
AcDbEntity
  8
DIBUJOS
 62
     7
100
AcDbVertex
100
AcDb2dVertex
 10
97.02532431048078
 20
32.95600965067497
 30
0.0
  0
VERTEX
  5
5C8
330
5C6
100
AcDbEntity
  8
DIBUJOS
 62
     7
100
AcDbVertex
100
AcDb2dVertex
 10
97.05796138591843
 20
32.99687468853608
 30
0.0
  0
VERTEX
  5
5C9
330
5C6
100
AcDbEntity
  8
DIBUJOS
 62
     7
100
AcDbVertex
100
AcDb2dVertex
 10
97.36108623829696
 20
33.38081980854722
 30
0.0
  0
VERTEX
  5
5CA
330
5C6
100
AcDbEntity
  8
DIBUJOS
 62
     7
100
AcDbVertex
100
AcDb2dVertex
 10
97.37129562840643
 20
33.40407334316642
 30
0.0
  0
VERTEX
  5
5CB
330
5C6
100
AcDbEntity
  8
DIBUJOS
 62
     7
100
AcDbVertex
100
AcDb2dVertex
 10
97.35995661080277
 20
33.46078980251237
 30
0.0
  0
VERTEX
  5
5CC
330
5C6
100
AcDbEntity
  8
DIBUJOS
 62
     7
100
AcDbVertex
100
AcDb2dVertex
 10
97.32082265074983
 20
33.49028223925039
 30
0.0
  0
VERTEX
  5
5CD
330
5C6
100
AcDbEntity
  8
DIBUJOS
 62
     7
100
AcDbVertex
100
AcDb2dVertex
 10
97.26920783341116
 20
33.49482059403431
 30
0.0
  0
VERTEX
  5
5CE
330
5C6
100
AcDbEntity
  8
DIBUJOS
 62
     7
100
AcDbVertex
100
AcDb2dVertex
 10
97.24652369211023
 20
33.48347699686011
 30
0.0
  0
VERTEX
  5
5CF
330
5C6
100
AcDbEntity
  8
DIBUJOS
 62
     7
100
AcDbVertex
100
AcDb2dVertex
 10
97.02961078886378
 20
33.22368557106955
 30
0.0
  0
VERTEX
  5
5D0
330
5C6
100
AcDbEntity
  8
DIBUJOS
 62
     7
100
AcDbVertex
100
AcDb2dVertex
 10
96.9062188299396
 20
33.07511513121551
 30
0.0
  0
SEQEND
  5
5D1
330
5C6
100
AcDbEntity
  8
DIBUJOS
 62
     7
  0
POLYLINE
  5
5D2
330
593
100
AcDbEntity
  8
DIBUJOS
 62
     7
100
AcDb2dPolyline
 66
     1
 10
0.0
 20
0.0
 30
0.0
  0
VERTEX
  5
5D3
330
5D2
100
AcDbEntity
  8
DIBUJOS
 62
     7
100
AcDbVertex
100
AcDb2dVertex
 10
91.2515478382079
 20
32.95033861535006
 30
0.0
  0
VERTEX
  5
5D4
330
5D2
100
AcDbEntity
  8
DIBUJOS
 62
     7
100
AcDbVertex
100
AcDb2dVertex
 10
91.24449529898853
 20
32.96057548288405
 30
0.0
  0
VERTEX
  5
5D5
330
5D2
100
AcDbEntity
  8
DIBUJOS
 62
     7
100
AcDbVertex
100
AcDb2dVertex
 10
90.91237870962573
 20
33.38195401561258
 30
0.0
  0
VERTEX
  5
5D6
330
5D2
100
AcDbEntity
  8
DIBUJOS
 62
     7
100
AcDbVertex
100
AcDb2dVertex
 10
90.91011334854244
 20
33.38649084387276
 30
0.0
  0
VERTEX
  5
5D7
330
5D2
100
AcDbEntity
  8
DIBUJOS
 62
     7
100
AcDbVertex
100
AcDb2dVertex
 10
90.90557652028225
 20
33.44944620533882
 30
0.0
  0
VERTEX
  5
5D8
330
5D2
100
AcDbEntity
  8
DIBUJOS
 62
     7
100
AcDbVertex
100
AcDb2dVertex
 10
90.93903791848656
 20
33.48461120392548
 30
0.0
  0
VERTEX
  5
5D9
330
5D2
100
AcDbEntity
  8
DIBUJOS
 62
     7
100
AcDbVertex
100
AcDb2dVertex
 10
90.96228992658139
 20
33.49482059403431
 30
0.0
  0
VERTEX
  5
5DA
330
5D2
100
AcDbEntity
  8
DIBUJOS
 62
     7
100
AcDbVertex
100
AcDb2dVertex
 10
91.00823218207142
 20
33.4908501060443
 30
0.0
  0
VERTEX
  5
5DB
330
5D2
100
AcDbEntity
  8
DIBUJOS
 62
     7
100
AcDbVertex
100
AcDb2dVertex
 10
91.03704684231295
 20
33.47349505877386
 30
0.0
  0
VERTEX
  5
5DC
330
5D2
100
AcDbEntity
  8
DIBUJOS
 62
     7
100
AcDbVertex
100
AcDb2dVertex
 10
91.30120870528702
 20
33.15341205527029
 30
0.0
  0
VERTEX
  5
5DD
330
5D2
100
AcDbEntity
  8
DIBUJOS
 62
     7
100
AcDbVertex
100
AcDb2dVertex
 10
91.37065331874908
 20
33.0694440958906
 30
0.0
  0
SEQEND
  5
5DE
330
5D2
100
AcDbEntity
  8
DIBUJOS
 62
     7
  0
POLYLINE
  5
5DF
330
593
100
AcDbEntity
  8
DIBUJOS
 62
     7
100
AcDb2dPolyline
 66
     1
 10
0.0
 20
0.0
 30
0.0
  0
VERTEX
  5
5E0
330
5DF
100
AcDbEntity
  8
DIBUJOS
 62
     7
100
AcDbVertex
100
AcDb2dVertex
 10
91.2515478382079
 20
32.95033861535006
 30
0.0
  0
VERTEX
  5
5E1
330
5DF
100
AcDbEntity
  8
DIBUJOS
 62
     7
100
AcDbVertex
100
AcDb2dVertex
 10
91.2728520021381
 20
32.97413101281363
 30
0.0
  0
VERTEX
  5
5E2
330
5DF
100
AcDbEntity
  8
DIBUJOS
 62
     7
100
AcDbVertex
100
AcDb2dVertex
 10
91.37065331874908
 20
33.06377153404196
 30
0.0
  0
SEQEND
  5
5E3
330
5DF
100
AcDbEntity
  8
DIBUJOS
 62
     7
  0
POLYLINE
  5
5E4
330
593
100
AcDbEntity
  8
DIBUJOS
 62
     7
100
AcDb2dPolyline
 66
     1
 10
0.0
 20
0.0
 30
0.0
  0
VERTEX
  5
5E5
330
5E4
100
AcDbEntity
  8
DIBUJOS
 62
     7
100
AcDbVertex
100
AcDb2dVertex
 10
91.2515478382079
 20
27.32969688861721
 30
0.0
  0
VERTEX
  5
5E6
330
5E4
100
AcDbEntity
  8
DIBUJOS
 62
     7
100
AcDbVertex
100
AcDb2dVertex
 10
91.05444921181765
 20
27.55781600191072
 30
0.0
  0
VERTEX
  5
5E7
330
5E4
100
AcDbEntity
  8
DIBUJOS
 62
     7
100
AcDbVertex
100
AcDb2dVertex
 10
90.91822834821649
 20
27.72191576676106
 30
0.0
  0
VERTEX
  5
5E8
330
5E4
100
AcDbEntity
  8
DIBUJOS
 62
     7
100
AcDbVertex
100
AcDb2dVertex
 10
90.86150883582307
 20
27.80699121904217
 30
0.0
  0
VERTEX
  5
5E9
330
5E4
100
AcDbEntity
  8
DIBUJOS
 62
     7
100
AcDbVertex
100
AcDb2dVertex
 10
90.63220056061387
 20
28.15719635028541
 30
0.0
  0
VERTEX
  5
5EA
330
5E4
100
AcDbEntity
  8
DIBUJOS
 62
     7
100
AcDbVertex
100
AcDb2dVertex
 10
90.53805068855051
 20
28.35116712973702
 30
0.0
  0
VERTEX
  5
5EB
330
5E4
100
AcDbEntity
  8
DIBUJOS
 62
     7
100
AcDbVertex
100
AcDb2dVertex
 10
90.4104394182835
 20
28.61660211342668
 30
0.0
  0
VERTEX
  5
5EC
330
5E4
100
AcDbEntity
  8
DIBUJOS
 62
     7
100
AcDbVertex
100
AcDb2dVertex
 10
90.28906247056477
 20
28.96938172679006
 30
0.0
  0
VERTEX
  5
5ED
330
5E4
100
AcDbEntity
  8
DIBUJOS
 62
     7
100
AcDbVertex
100
AcDb2dVertex
 10
90.23849790149094
 20
29.13940135031878
 30
0.0
  0
VERTEX
  5
5EE
330
5E4
100
AcDbEntity
  8
DIBUJOS
 62
     7
100
AcDbVertex
100
AcDb2dVertex
 10
90.21144790257767
 20
29.27464829183699
 30
0.0
  0
VERTEX
  5
5EF
330
5E4
100
AcDbEntity
  8
DIBUJOS
 62
     7
100
AcDbVertex
100
AcDb2dVertex
 10
90.14253451934198
 20
29.63257686943999
 30
0.0
  0
VERTEX
  5
5F0
330
5E4
100
AcDbEntity
  8
DIBUJOS
 62
     7
100
AcDbVertex
100
AcDb2dVertex
 10
90.11457471233975
 20
30.05760226714626
 30
0.0
  0
VERTEX
  5
5F1
330
5E4
100
AcDbEntity
  8
DIBUJOS
 62
     7
100
AcDbVertex
100
AcDb2dVertex
 10
90.1145930306232
 20
30.23378751966001
 30
0.0
  0
VERTEX
  5
5F2
330
5E4
100
AcDbEntity
  8
DIBUJOS
 62
     7
100
AcDbVertex
100
AcDb2dVertex
 10
90.14253451934198
 20
30.65312966985155
 30
0.0
  0
VERTEX
  5
5F3
330
5E4
100
AcDbEntity
  8
DIBUJOS
 62
     7
100
AcDbVertex
100
AcDb2dVertex
 10
90.21580765409574
 20
31.03287227028021
 30
0.0
  0
VERTEX
  5
5F4
330
5E4
100
AcDbEntity
  8
DIBUJOS
 62
     7
100
AcDbVertex
100
AcDb2dVertex
 10
90.23849790149094
 20
31.14630518897275
 30
0.0
  0
VERTEX
  5
5F5
330
5E4
100
AcDbEntity
  8
DIBUJOS
 62
     7
100
AcDbVertex
100
AcDb2dVertex
 10
90.28906247056477
 20
31.31065377717657
 30
0.0
  0
VERTEX
  5
5F6
330
5E4
100
AcDbEntity
  8
DIBUJOS
 62
     7
100
AcDbVertex
100
AcDb2dVertex
 10
90.40816795110595
 20
31.66229765695148
 30
0.0
  0
VERTEX
  5
5F7
330
5E4
100
AcDbEntity
  8
DIBUJOS
 62
     7
100
AcDbVertex
100
AcDb2dVertex
 10
90.54939581224843
 20
31.9572266039029
 30
0.0
  0
VERTEX
  5
5F8
330
5E4
100
AcDbEntity
  8
DIBUJOS
 62
     7
100
AcDbVertex
100
AcDb2dVertex
 10
90.63787312246185
 20
32.1341827508554
 30
0.0
  0
VERTEX
  5
5F9
330
5E4
100
AcDbEntity
  8
DIBUJOS
 62
     7
100
AcDbVertex
100
AcDb2dVertex
 10
90.85583627397443
 20
32.46737248633767
 30
0.0
  0
VERTEX
  5
5FA
330
5E4
100
AcDbEntity
  8
DIBUJOS
 62
     7
100
AcDbVertex
100
AcDb2dVertex
 10
90.92390091006577
 20
32.56946333437976
 30
0.0
  0
VERTEX
  5
5FB
330
5E4
100
AcDbEntity
  8
DIBUJOS
 62
     7
100
AcDbVertex
100
AcDb2dVertex
 10
91.03175896442181
 20
32.69955367903906
 30
0.0
  0
VERTEX
  5
5FC
330
5E4
100
AcDbEntity
  8
DIBUJOS
 62
     7
100
AcDbVertex
100
AcDb2dVertex
 10
91.2515478382079
 20
32.95033861535006
 30
0.0
  0
SEQEND
  5
5FD
330
5E4
100
AcDbEntity
  8
DIBUJOS
 62
     7
  0
POLYLINE
  5
5FE
330
593
100
AcDbEntity
  8
DIBUJOS
 62
     7
100
AcDb2dPolyline
 66
     1
 10
0.0
 20
0.0
 30
0.0
  0
VERTEX
  5
5FF
330
5FE
100
AcDbEntity
  8
DIBUJOS
 62
     7
100
AcDbVertex
100
AcDb2dVertex
 10
97.03099687232879
 20
27.32969688861721
 30
0.0
  0
VERTEX
  5
600
330
5FE
100
AcDbEntity
  8
DIBUJOS
 62
     7
100
AcDbVertex
100
AcDb2dVertex
 10
97.22810160481521
 20
27.55776562663027
 30
0.0
  0
VERTEX
  5
601
330
5FE
100
AcDbEntity
  8
DIBUJOS
 62
     7
100
AcDbVertex
100
AcDb2dVertex
 10
97.36108623829696
 20
27.71480445638074
 30
0.0
  0
VERTEX
  5
602
330
5FE
100
AcDbEntity
  8
DIBUJOS
 62
     7
100
AcDbVertex
100
AcDb2dVertex
 10
97.41235911434056
 20
27.79375396929181
 30
0.0
  0
VERTEX
  5
603
330
5FE
100
AcDbEntity
  8
DIBUJOS
 62
     7
100
AcDbVertex
100
AcDb2dVertex
 10
97.64240622699218
 20
28.14131439832731
 30
0.0
  0
VERTEX
  5
604
330
5FE
100
AcDbEntity
  8
DIBUJOS
 62
     7
100
AcDbVertex
100
AcDb2dVertex
 10
97.72407524176916
 20
28.30466006049926
 30
0.0
  0
VERTEX
  5
605
330
5FE
100
AcDbEntity
  8
DIBUJOS
 62
     7
100
AcDbVertex
100
AcDb2dVertex
 10
97.88004932128
 20
28.63475247951488
 30
0.0
  0
VERTEX
  5
606
330
5FE
100
AcDbEntity
  8
DIBUJOS
 62
     7
100
AcDbVertex
100
AcDb2dVertex
 10
97.99972266861573
 20
28.98639635928916
 30
0.0
  0
VERTEX
  5
607
330
5FE
100
AcDbEntity
  8
DIBUJOS
 62
     7
100
AcDbVertex
100
AcDb2dVertex
 10
98.04274010481006
 20
29.12151354629759
 30
0.0
  0
VERTEX
  5
608
330
5FE
100
AcDbEntity
  8
DIBUJOS
 62
     7
100
AcDbVertex
100
AcDb2dVertex
 10
98.06542424611101
 20
29.23494799151323
 30
0.0
  0
VERTEX
  5
609
330
5FE
100
AcDbEntity
  8
DIBUJOS
 62
     7
100
AcDbVertex
100
AcDb2dVertex
 10
98.14002850947878
 20
29.60990188728142
 30
0.0
  0
VERTEX
  5
60A
330
5FE
100
AcDbEntity
  8
DIBUJOS
 62
     7
100
AcDbVertex
100
AcDb2dVertex
 10
98.16271265077907
 20
29.94453113455659
 30
0.0
  0
VERTEX
  5
60B
330
5FE
100
AcDbEntity
  8
DIBUJOS
 62
     7
100
AcDbVertex
100
AcDb2dVertex
 10
98.17667728904452
 20
30.17121226258093
 30
0.0
  0
VERTEX
  5
60C
330
5FE
100
AcDbEntity
  8
DIBUJOS
 62
     7
100
AcDbVertex
100
AcDb2dVertex
 10
98.14004682776223
 20
30.67011987797294
 30
0.0
  0
VERTEX
  5
60D
330
5FE
100
AcDbEntity
  8
DIBUJOS
 62
     7
100
AcDbVertex
100
AcDb2dVertex
 10
98.07807607404459
 20
30.98749788158472
 30
0.0
  0
VERTEX
  5
60E
330
5FE
100
AcDbEntity
  8
DIBUJOS
 62
     7
100
AcDbVertex
100
AcDb2dVertex
 10
98.04404680904638
 20
31.15764878614695
 30
0.0
  0
VERTEX
  5
60F
330
5FE
100
AcDbEntity
  8
DIBUJOS
 62
     7
100
AcDbVertex
100
AcDb2dVertex
 10
98.00482736366983
 20
31.28229554750391
 30
0.0
  0
VERTEX
  5
610
330
5FE
100
AcDbEntity
  8
DIBUJOS
 62
     7
100
AcDbVertex
100
AcDb2dVertex
 10
97.8777778541031
 20
31.6577608286913
 30
0.0
  0
VERTEX
  5
611
330
5FE
100
AcDbEntity
  8
DIBUJOS
 62
     7
100
AcDbVertex
100
AcDb2dVertex
 10
97.74676548916436
 20
31.93000258129497
 30
0.0
  0
VERTEX
  5
612
330
5FE
100
AcDbEntity
  8
DIBUJOS
 62
     7
100
AcDbVertex
100
AcDb2dVertex
 10
97.65374524459519
 20
32.12170494661584
 30
0.0
  0
VERTEX
  5
613
330
5FE
100
AcDbEntity
  8
DIBUJOS
 62
     7
100
AcDbVertex
100
AcDb2dVertex
 10
97.43237489231726
 20
32.46170145101276
 30
0.0
  0
VERTEX
  5
614
330
5FE
100
AcDbEntity
  8
DIBUJOS
 62
     7
100
AcDbVertex
100
AcDb2dVertex
 10
97.36693587688836
 20
32.55986455372729
 30
0.0
  0
VERTEX
  5
615
330
5FE
100
AcDbEntity
  8
DIBUJOS
 62
     7
100
AcDbVertex
100
AcDb2dVertex
 10
97.26213086981342
 20
32.6882116083886
 30
0.0
  0
VERTEX
  5
616
330
5FE
100
AcDbEntity
  8
DIBUJOS
 62
     7
100
AcDbVertex
100
AcDb2dVertex
 10
97.02532431048078
 20
32.95600965067497
 30
0.0
  0
SEQEND
  5
617
330
5FE
100
AcDbEntity
  8
DIBUJOS
 62
     7
  0
POLYLINE
  5
618
330
593
100
AcDbEntity
  8
DIBUJOS
 62
     7
100
AcDb2dPolyline
 66
     1
 10
0.0
 20
0.0
 30
0.0
  0
VERTEX
  5
619
330
618
100
AcDbEntity
  8
DIBUJOS
 62
     7
100
AcDbVertex
100
AcDb2dVertex
 10
91.2515478382079
 20
27.32402509002979
 30
0.0
  0
VERTEX
  5
61A
330
618
100
AcDbEntity
  8
DIBUJOS
 62
     7
100
AcDbVertex
100
AcDb2dVertex
 10
91.2515478382079
 20
27.32969688861721
 30
0.0
  0
SEQEND
  5
61B
330
618
100
AcDbEntity
  8
DIBUJOS
 62
     7
  0
POLYLINE
  5
61C
330
593
100
AcDbEntity
  8
DIBUJOS
 62
     7
100
AcDb2dPolyline
 66
     1
 10
0.0
 20
0.0
 30
0.0
  0
VERTEX
  5
61D
330
61C
100
AcDbEntity
  8
DIBUJOS
 62
     7
100
AcDbVertex
100
AcDb2dVertex
 10
91.25722040005718
 20
27.32402509002979
 30
0.0
  0
VERTEX
  5
61E
330
61C
100
AcDbEntity
  8
DIBUJOS
 62
     7
100
AcDbVertex
100
AcDb2dVertex
 10
91.2515478382079
 20
27.32402509002979
 30
0.0
  0
SEQEND
  5
61F
330
61C
100
AcDbEntity
  8
DIBUJOS
 62
     7
  0
POLYLINE
  5
620
330
593
100
AcDbEntity
  8
DIBUJOS
 62
     7
100
AcDb2dPolyline
 66
     1
 10
0.0
 20
0.0
 30
0.0
  0
VERTEX
  5
621
330
620
100
AcDbEntity
  8
DIBUJOS
 62
     7
100
AcDbVertex
100
AcDb2dVertex
 10
97.03099687232879
 20
27.32402509002979
 30
0.0
  0
VERTEX
  5
622
330
620
100
AcDbEntity
  8
DIBUJOS
 62
     7
100
AcDbVertex
100
AcDb2dVertex
 10
97.02532431048078
 20
27.32402509002979
 30
0.0
  0
SEQEND
  5
623
330
620
100
AcDbEntity
  8
DIBUJOS
 62
     7
  0
POLYLINE
  5
624
330
593
100
AcDbEntity
  8
DIBUJOS
 62
     7
100
AcDb2dPolyline
 66
     1
 10
0.0
 20
0.0
 30
0.0
  0
VERTEX
  5
625
330
624
100
AcDbEntity
  8
DIBUJOS
 62
     7
100
AcDbVertex
100
AcDb2dVertex
 10
97.03099687232879
 20
27.32402509002979
 30
0.0
  0
VERTEX
  5
626
330
624
100
AcDbEntity
  8
DIBUJOS
 62
     7
100
AcDbVertex
100
AcDb2dVertex
 10
97.03099687232879
 20
27.32969688861721
 30
0.0
  0
SEQEND
  5
627
330
624
100
AcDbEntity
  8
DIBUJOS
 62
     7
  0
POLYLINE
  5
628
330
593
100
AcDbEntity
  8
DIBUJOS
 62
     7
100
AcDb2dPolyline
 66
     1
 10
0.0
 20
0.0
 30
0.0
  0
VERTEX
  5
629
330
628
100
AcDbEntity
  8
DIBUJOS
 62
     7
100
AcDbVertex
100
AcDb2dVertex
 10
97.03099687232879
 20
27.31835329144301
 30
0.0
  0
VERTEX
  5
62A
330
628
100
AcDbEntity
  8
DIBUJOS
 62
     7
100
AcDbVertex
100
AcDb2dVertex
 10
97.03099687232879
 20
27.32402509002979
 30
0.0
  0
SEQEND
  5
62B
330
628
100
AcDbEntity
  8
DIBUJOS
 62
     7
  0
POLYLINE
  5
62C
330
593
100
AcDbEntity
  8
DIBUJOS
 62
     7
100
AcDb2dPolyline
 66
     1
 10
0.0
 20
0.0
 30
0.0
  0
VERTEX
  5
62D
330
62C
100
AcDbEntity
  8
DIBUJOS
 62
     7
100
AcDbVertex
100
AcDb2dVertex
 10
91.37065331874908
 20
27.21626320666279
 30
0.0
  0
VERTEX
  5
62E
330
62C
100
AcDbEntity
  8
DIBUJOS
 62
     7
100
AcDbVertex
100
AcDb2dVertex
 10
91.25722040005718
 20
27.32402509002979
 30
0.0
  0
SEQEND
  5
62F
330
62C
100
AcDbEntity
  8
DIBUJOS
 62
     7
  0
POLYLINE
  5
630
330
593
100
AcDbEntity
  8
DIBUJOS
 62
     7
100
AcDb2dPolyline
 66
     1
 10
0.0
 20
0.0
 30
0.0
  0
VERTEX
  5
631
330
630
100
AcDbEntity
  8
DIBUJOS
 62
     7
100
AcDbVertex
100
AcDb2dVertex
 10
91.37632588059836
 20
27.21626320666279
 30
0.0
  0
VERTEX
  5
632
330
630
100
AcDbEntity
  8
DIBUJOS
 62
     7
100
AcDbVertex
100
AcDb2dVertex
 10
91.37065331874908
 20
27.21626320666279
 30
0.0
  0
SEQEND
  5
633
330
630
100
AcDbEntity
  8
DIBUJOS
 62
     7
  0
POLYLINE
  5
634
330
593
100
AcDbEntity
  8
DIBUJOS
 62
     7
100
AcDb2dPolyline
 66
     1
 10
0.0
 20
0.0
 30
0.0
  0
VERTEX
  5
635
330
634
100
AcDbEntity
  8
DIBUJOS
 62
     7
100
AcDbVertex
100
AcDb2dVertex
 10
91.37065331874908
 20
27.21059140807602
 30
0.0
  0
VERTEX
  5
636
330
634
100
AcDbEntity
  8
DIBUJOS
 62
     7
100
AcDbVertex
100
AcDb2dVertex
 10
91.37065331874908
 20
27.21626320666279
 30
0.0
  0
SEQEND
  5
637
330
634
100
AcDbEntity
  8
DIBUJOS
 62
     7
  0
POLYLINE
  5
638
330
593
100
AcDbEntity
  8
DIBUJOS
 62
     7
100
AcDb2dPolyline
 66
     1
 10
0.0
 20
0.0
 30
0.0
  0
VERTEX
  5
639
330
638
100
AcDbEntity
  8
DIBUJOS
 62
     7
100
AcDbVertex
100
AcDb2dVertex
 10
96.9062188299396
 20
27.21059140807602
 30
0.0
  0
VERTEX
  5
63A
330
638
100
AcDbEntity
  8
DIBUJOS
 62
     7
100
AcDbVertex
100
AcDb2dVertex
 10
96.90054626809031
 20
27.21059140807602
 30
0.0
  0
SEQEND
  5
63B
330
638
100
AcDbEntity
  8
DIBUJOS
 62
     7
  0
POLYLINE
  5
63C
330
593
100
AcDbEntity
  8
DIBUJOS
 62
     7
100
AcDb2dPolyline
 66
     1
 10
0.0
 20
0.0
 30
0.0
  0
VERTEX
  5
63D
330
63C
100
AcDbEntity
  8
DIBUJOS
 62
     7
100
AcDbVertex
100
AcDb2dVertex
 10
96.9062188299396
 20
27.21059140807602
 30
0.0
  0
VERTEX
  5
63E
330
63C
100
AcDbEntity
  8
DIBUJOS
 62
     7
100
AcDbVertex
100
AcDb2dVertex
 10
97.02532431048078
 20
27.32402509002979
 30
0.0
  0
SEQEND
  5
63F
330
63C
100
AcDbEntity
  8
DIBUJOS
 62
     7
  0
POLYLINE
  5
640
330
593
100
AcDbEntity
  8
DIBUJOS
 62
     7
100
AcDb2dPolyline
 66
     1
 10
0.0
 20
0.0
 30
0.0
  0
VERTEX
  5
641
330
640
100
AcDbEntity
  8
DIBUJOS
 62
     7
100
AcDbVertex
100
AcDb2dVertex
 10
96.9062188299396
 20
27.20491960948925
 30
0.0
  0
VERTEX
  5
642
330
640
100
AcDbEntity
  8
DIBUJOS
 62
     7
100
AcDbVertex
100
AcDb2dVertex
 10
96.9062188299396
 20
27.21059140807602
 30
0.0
  0
SEQEND
  5
643
330
640
100
AcDbEntity
  8
DIBUJOS
 62
     7
  0
POLYLINE
  5
644
330
593
100
AcDbEntity
  8
DIBUJOS
 62
     7
100
AcDb2dPolyline
 66
     1
 10
0.0
 20
0.0
 30
0.0
  0
VERTEX
  5
645
330
644
100
AcDbEntity
  8
DIBUJOS
 62
     7
100
AcDbVertex
100
AcDb2dVertex
 10
91.2515478382079
 20
27.32402509002979
 30
0.0
  0
VERTEX
  5
646
330
644
100
AcDbEntity
  8
DIBUJOS
 62
     7
100
AcDbVertex
100
AcDb2dVertex
 10
91.20186254675106
 20
27.26628738636853
 30
0.0
  0
VERTEX
  5
647
330
644
100
AcDbEntity
  8
DIBUJOS
 62
     7
100
AcDbVertex
100
AcDb2dVertex
 10
90.91578591039172
 20
26.90488749400619
 30
0.0
  0
VERTEX
  5
648
330
644
100
AcDbEntity
  8
DIBUJOS
 62
     7
100
AcDbVertex
100
AcDb2dVertex
 10
90.90557652028225
 20
26.88163319612512
 30
0.0
  0
VERTEX
  5
649
330
644
100
AcDbEntity
  8
DIBUJOS
 62
     7
100
AcDbVertex
100
AcDb2dVertex
 10
90.90557652028225
 20
26.83058853536658
 30
0.0
  0
VERTEX
  5
64A
330
644
100
AcDbEntity
  8
DIBUJOS
 62
     7
100
AcDbVertex
100
AcDb2dVertex
 10
90.93903791848656
 20
26.79542353677992
 30
0.0
  0
VERTEX
  5
64B
330
644
100
AcDbEntity
  8
DIBUJOS
 62
     7
100
AcDbVertex
100
AcDb2dVertex
 10
90.96285779337595
 20
26.78634911699768
 30
0.0
  0
VERTEX
  5
64C
330
644
100
AcDbEntity
  8
DIBUJOS
 62
     7
100
AcDbVertex
100
AcDb2dVertex
 10
90.97969229608547
 20
26.78291520206773
 30
0.0
  0
VERTEX
  5
64D
330
644
100
AcDbEntity
  8
DIBUJOS
 62
     7
100
AcDbVertex
100
AcDb2dVertex
 10
91.01900943897544
 20
26.79088670851973
 30
0.0
  0
VERTEX
  5
64E
330
644
100
AcDbEntity
  8
DIBUJOS
 62
     7
100
AcDbVertex
100
AcDb2dVertex
 10
91.0757228452733
 20
26.84760316786569
 30
0.0
  0
VERTEX
  5
64F
330
644
100
AcDbEntity
  8
DIBUJOS
 62
     7
100
AcDbVertex
100
AcDb2dVertex
 10
91.24451361727196
 20
27.05847638032821
 30
0.0
  0
VERTEX
  5
650
330
644
100
AcDbEntity
  8
DIBUJOS
 62
     7
100
AcDbVertex
100
AcDb2dVertex
 10
91.37065331874908
 20
27.21059140807602
 30
0.0
  0
SEQEND
  5
651
330
644
100
AcDbEntity
  8
DIBUJOS
 62
     7
  0
POLYLINE
  5
652
330
593
100
AcDbEntity
  8
DIBUJOS
 62
     7
100
AcDb2dPolyline
 66
     1
 10
0.0
 20
0.0
 30
0.0
  0
VERTEX
  5
653
330
652
100
AcDbEntity
  8
DIBUJOS
 62
     7
100
AcDbVertex
100
AcDb2dVertex
 10
96.9062188299396
 20
27.20491960948925
 30
0.0
  0
VERTEX
  5
654
330
652
100
AcDbEntity
  8
DIBUJOS
 62
     7
100
AcDbVertex
100
AcDb2dVertex
 10
97.0380494115488
 20
27.04721903174012
 30
0.0
  0
VERTEX
  5
655
330
652
100
AcDbEntity
  8
DIBUJOS
 62
     7
100
AcDbVertex
100
AcDb2dVertex
 10
97.24652369211023
 20
26.79655850710651
 30
0.0
  0
VERTEX
  5
656
330
652
100
AcDbEntity
  8
DIBUJOS
 62
     7
100
AcDbVertex
100
AcDb2dVertex
 10
97.29151339684884
 20
26.78291520206773
 30
0.0
  0
VERTEX
  5
657
330
652
100
AcDbEntity
  8
DIBUJOS
 62
     7
100
AcDbVertex
100
AcDb2dVertex
 10
97.32082265074983
 20
26.7897517381925
 30
0.0
  0
VERTEX
  5
658
330
652
100
AcDbEntity
  8
DIBUJOS
 62
     7
100
AcDbVertex
100
AcDb2dVertex
 10
97.33726636340758
 20
26.79655850710651
 30
0.0
  0
VERTEX
  5
659
330
652
100
AcDbEntity
  8
DIBUJOS
 62
     7
100
AcDbVertex
100
AcDb2dVertex
 10
97.36392557226841
 20
26.83115563889926
 30
0.0
  0
VERTEX
  5
65A
330
652
100
AcDbEntity
  8
DIBUJOS
 62
     7
100
AcDbVertex
100
AcDb2dVertex
 10
97.37129562840643
 20
26.84760316786569
 30
0.0
  0
VERTEX
  5
65B
330
652
100
AcDbEntity
  8
DIBUJOS
 62
     7
100
AcDbVertex
100
AcDb2dVertex
 10
97.36732666694014
 20
26.8822002996578
 30
0.0
  0
VERTEX
  5
65C
330
652
100
AcDbEntity
  8
DIBUJOS
 62
     7
100
AcDbVertex
100
AcDb2dVertex
 10
97.3616541050915
 20
26.89921569541941
 30
0.0
  0
VERTEX
  5
65D
330
652
100
AcDbEntity
  8
DIBUJOS
 62
     7
100
AcDbVertex
100
AcDb2dVertex
 10
97.08909636209421
 20
27.24572816597565
 30
0.0
  0
VERTEX
  5
65E
330
652
100
AcDbEntity
  8
DIBUJOS
 62
     7
100
AcDbVertex
100
AcDb2dVertex
 10
97.03099687232879
 20
27.31835329144301
 30
0.0
  0
SEQEND
  5
65F
330
652
100
AcDbEntity
  8
DIBUJOS
 62
     7
  0
POLYLINE
  5
660
330
593
100
AcDbEntity
  8
DIBUJOS
 62
     7
100
AcDb2dPolyline
 66
     1
 10
0.0
 20
0.0
 30
0.0
  0
VERTEX
  5
661
330
660
100
AcDbEntity
  8
DIBUJOS
 62
     7
100
AcDbVertex
100
AcDb2dVertex
 10
91.37632588059836
 20
27.21626320666279
 30
0.0
  0
VERTEX
  5
662
330
660
100
AcDbEntity
  8
DIBUJOS
 62
     7
100
AcDbVertex
100
AcDb2dVertex
 10
91.64979343168592
 20
26.9737856120046
 30
0.0
  0
VERTEX
  5
663
330
660
100
AcDbEntity
  8
DIBUJOS
 62
     7
100
AcDbVertex
100
AcDb2dVertex
 10
91.75719963504494
 20
26.89428578732121
 30
0.0
  0
VERTEX
  5
664
330
660
100
AcDbEntity
  8
DIBUJOS
 62
     7
100
AcDbVertex
100
AcDb2dVertex
 10
91.84620206939111
 20
26.83495133993146
 30
0.0
  0
VERTEX
  5
665
330
660
100
AcDbEntity
  8
DIBUJOS
 62
     7
100
AcDbVertex
100
AcDb2dVertex
 10
92.16525772248444
 20
26.62754180960901
 30
0.0
  0
VERTEX
  5
666
330
660
100
AcDbEntity
  8
DIBUJOS
 62
     7
100
AcDbVertex
100
AcDb2dVertex
 10
92.35242173302206
 20
26.53679455874176
 30
0.0
  0
VERTEX
  5
667
330
660
100
AcDbEntity
  8
DIBUJOS
 62
     7
100
AcDbVertex
100
AcDb2dVertex
 10
92.6178597697598
 20
26.40918176195038
 30
0.0
  0
VERTEX
  5
668
330
660
100
AcDbEntity
  8
DIBUJOS
 62
     7
100
AcDbVertex
100
AcDb2dVertex
 10
92.96383108768545
 20
26.29007628140983
 30
0.0
  0
VERTEX
  5
669
330
660
100
AcDbEntity
  8
DIBUJOS
 62
     7
100
AcDbVertex
100
AcDb2dVertex
 10
93.13498491827954
 20
26.23724253494341
 30
0.0
  0
VERTEX
  5
66A
330
660
100
AcDbEntity
  8
DIBUJOS
 62
     7
100
AcDbVertex
100
AcDb2dVertex
 10
93.27590136859828
 20
26.21019329929265
 30
0.0
  0
VERTEX
  5
66B
330
660
100
AcDbEntity
  8
DIBUJOS
 62
     7
100
AcDbVertex
100
AcDb2dVertex
 10
93.63383452577247
 20
26.14127762627136
 30
0.0
  0
VERTEX
  5
66C
330
660
100
AcDbEntity
  8
DIBUJOS
 62
     7
100
AcDbVertex
100
AcDb2dVertex
 10
94.05886755609738
 20
26.11330713360304
 30
0.0
  0
VERTEX
  5
66D
330
660
100
AcDbEntity
  8
DIBUJOS
 62
     7
100
AcDbVertex
100
AcDb2dVertex
 10
94.21783972803836
 20
26.11028385353269
 30
0.0
  0
VERTEX
  5
66E
330
660
100
AcDbEntity
  8
DIBUJOS
 62
     7
100
AcDbVertex
100
AcDb2dVertex
 10
94.64872239695403
 20
26.14129060172241
 30
0.0
  0
VERTEX
  5
66F
330
660
100
AcDbEntity
  8
DIBUJOS
 62
     7
100
AcDbVertex
100
AcDb2dVertex
 10
95.00581901917302
 20
26.20900184759071
 30
0.0
  0
VERTEX
  5
670
330
660
100
AcDbEntity
  8
DIBUJOS
 62
     7
100
AcDbVertex
100
AcDb2dVertex
 10
95.1418261694639
 20
26.23706316841569
 30
0.0
  0
VERTEX
  5
671
330
660
100
AcDbEntity
  8
DIBUJOS
 62
     7
100
AcDbVertex
100
AcDb2dVertex
 10
95.29489374796313
 20
26.28213606869232
 30
0.0
  0
VERTEX
  5
672
330
660
100
AcDbEntity
  8
DIBUJOS
 62
     7
100
AcDbVertex
100
AcDb2dVertex
 10
95.6533459231745
 20
26.4035099633636
 30
0.0
  0
VERTEX
  5
673
330
660
100
AcDbEntity
  8
DIBUJOS
 62
     7
100
AcDbVertex
100
AcDb2dVertex
 10
95.92558614925508
 20
26.53452614461166
 30
0.0
  0
VERTEX
  5
674
330
660
100
AcDbEntity
  8
DIBUJOS
 62
     7
100
AcDbVertex
100
AcDb2dVertex
 10
96.1240952834906
 20
26.63094519406633
 30
0.0
  0
VERTEX
  5
675
330
660
100
AcDbEntity
  8
DIBUJOS
 62
     7
100
AcDbVertex
100
AcDb2dVertex
 10
96.43634264114621
 20
26.83495133993146
 30
0.0
  0
VERTEX
  5
676
330
660
100
AcDbEntity
  8
DIBUJOS
 62
     7
100
AcDbVertex
100
AcDb2dVertex
 10
96.52141885668856
 20
26.89166779927741
 30
0.0
  0
VERTEX
  5
677
330
660
100
AcDbEntity
  8
DIBUJOS
 62
     7
100
AcDbVertex
100
AcDb2dVertex
 10
96.6327512788514
 20
26.9737856120046
 30
0.0
  0
VERTEX
  5
678
330
660
100
AcDbEntity
  8
DIBUJOS
 62
     7
100
AcDbVertex
100
AcDb2dVertex
 10
96.90054626809031
 20
27.21059140807602
 30
0.0
  0
SEQEND
  5
679
330
660
100
AcDbEntity
  8
DIBUJOS
 62
     7
  0
ENDBLK
  5
596
330
593
100
AcDbEntity
  8
0
100
AcDbBlockEnd
  0
BLOCK
  5
6A0
330
69E
100
AcDbEntity
  8
0
100
AcDbBlockBegin
  2
BLOCK_7
 70
     0
 10
0.0
 20
0.0
 30
0.0
  3
BLOCK_7
  1

  0
POLYLINE
  5
6A2
330
69E
100
AcDbEntity
  8
DIBUJOS
 62
     7
100
AcDb2dPolyline
 66
     1
 10
0.0
 20
0.0
 30
0.0
  0
VERTEX
  5
6A3
330
6A2
100
AcDbEntity
  8
DIBUJOS
 62
     7
100
AcDbVertex
100
AcDb2dVertex
 10
80.77593504016642
 20
33.46646236436101
 30
0.0
  0
VERTEX
  5
6A4
330
6A2
100
AcDbEntity
  8
DIBUJOS
 62
     7
100
AcDbVertex
100
AcDb2dVertex
 10
80.77026247831714
 20
33.46646236436101
 30
0.0
  0
SEQEND
  5
6A5
330
6A2
100
AcDbEntity
  8
DIBUJOS
 62
     7
  0
POLYLINE
  5
6A6
330
69E
100
AcDbEntity
  8
DIBUJOS
 62
     7
100
AcDb2dPolyline
 66
     1
 10
0.0
 20
0.0
 30
0.0
  0
VERTEX
  5
6A7
330
6A6
100
AcDbEntity
  8
DIBUJOS
 62
     7
100
AcDbVertex
100
AcDb2dVertex
 10
80.77593504016642
 20
33.46646236436101
 30
0.0
  0
VERTEX
  5
6A8
330
6A6
100
AcDbEntity
  8
DIBUJOS
 62
     7
100
AcDbVertex
100
AcDb2dVertex
 10
80.77593504016642
 20
33.47213339968656
 30
0.0
  0
SEQEND
  5
6A9
330
6A6
100
AcDbEntity
  8
DIBUJOS
 62
     7
  0
POLYLINE
  5
6AA
330
69E
100
AcDbEntity
  8
DIBUJOS
 62
     7
100
AcDb2dPolyline
 66
     1
 10
0.0
 20
0.0
 30
0.0
  0
VERTEX
  5
6AB
330
6AA
100
AcDbEntity
  8
DIBUJOS
 62
     7
100
AcDbVertex
100
AcDb2dVertex
 10
74.58812871997212
 20
33.46078980251237
 30
0.0
  0
VERTEX
  5
6AC
330
6AA
100
AcDbEntity
  8
DIBUJOS
 62
     7
100
AcDbVertex
100
AcDb2dVertex
 10
74.58812871997212
 20
33.46646236436101
 30
0.0
  0
SEQEND
  5
6AD
330
6AA
100
AcDbEntity
  8
DIBUJOS
 62
     7
  0
POLYLINE
  5
6AE
330
69E
100
AcDbEntity
  8
DIBUJOS
 62
     7
100
AcDb2dPolyline
 66
     1
 10
0.0
 20
0.0
 30
0.0
  0
VERTEX
  5
6AF
330
6AE
100
AcDbEntity
  8
DIBUJOS
 62
     7
100
AcDbVertex
100
AcDb2dVertex
 10
74.59379517572648
 20
33.46078980251237
 30
0.0
  0
VERTEX
  5
6B0
330
6AE
100
AcDbEntity
  8
DIBUJOS
 62
     7
100
AcDbVertex
100
AcDb2dVertex
 10
74.58812871997212
 20
33.46078980251237
 30
0.0
  0
SEQEND
  5
6B1
330
6AE
100
AcDbEntity
  8
DIBUJOS
 62
     7
  0
POLYLINE
  5
6B2
330
69E
100
AcDbEntity
  8
DIBUJOS
 62
     7
100
AcDb2dPolyline
 66
     1
 10
0.0
 20
0.0
 30
0.0
  0
VERTEX
  5
6B3
330
6B2
100
AcDbEntity
  8
DIBUJOS
 62
     7
100
AcDbVertex
100
AcDb2dVertex
 10
74.59379517572648
 20
33.46078980251237
 30
0.0
  0
VERTEX
  5
6B4
330
6B2
100
AcDbEntity
  8
DIBUJOS
 62
     7
100
AcDbVertex
100
AcDb2dVertex
 10
74.91264322160443
 20
33.74296922401677
 30
0.0
  0
VERTEX
  5
6B5
330
6B2
100
AcDbEntity
  8
DIBUJOS
 62
     7
100
AcDbVertex
100
AcDb2dVertex
 10
75.03138844256647
 20
33.8224690487008
 30
0.0
  0
VERTEX
  5
6B6
330
6B2
100
AcDbEntity
  8
DIBUJOS
 62
     7
100
AcDbVertex
100
AcDb2dVertex
 10
75.1372620161897
 20
33.89319899506827
 30
0.0
  0
VERTEX
  5
6B7
330
6B2
100
AcDbEntity
  8
DIBUJOS
 62
     7
100
AcDbVertex
100
AcDb2dVertex
 10
75.44511909185461
 20
34.09488482499979
 30
0.0
  0
VERTEX
  5
6B8
330
6B2
100
AcDbEntity
  8
DIBUJOS
 62
     7
100
AcDbVertex
100
AcDb2dVertex
 10
75.68219431934854
 20
34.21058768434551
 30
0.0
  0
VERTEX
  5
6B9
330
6B2
100
AcDbEntity
  8
DIBUJOS
 62
     7
100
AcDbVertex
100
AcDb2dVertex
 10
75.97258796456413
 20
34.34954407831044
 30
0.0
  0
VERTEX
  5
6BA
330
6B2
100
AcDbEntity
  8
DIBUJOS
 62
     7
100
AcDbVertex
100
AcDb2dVertex
 10
76.40249976444365
 20
34.49473784787111
 30
0.0
  0
VERTEX
  5
6BB
330
6B2
100
AcDbEntity
  8
DIBUJOS
 62
     7
100
AcDbVertex
100
AcDb2dVertex
 10
76.5557627379691
 20
34.54059156499008
 30
0.0
  0
VERTEX
  5
6BC
330
6B2
100
AcDbEntity
  8
DIBUJOS
 62
     7
100
AcDbVertex
100
AcDb2dVertex
 10
76.73164268575468
 20
34.57473989883262
 30
0.0
  0
VERTEX
  5
6BD
330
6B2
100
AcDbEntity
  8
DIBUJOS
 62
     7
100
AcDbVertex
100
AcDb2dVertex
 10
77.1235379408869
 20
34.64919608940653
 30
0.0
  0
VERTEX
  5
6BE
330
6B2
100
AcDbEntity
  8
DIBUJOS
 62
     7
100
AcDbVertex
100
AcDb2dVertex
 10
77.6394968253449
 20
34.6858738729218
 30
0.0
  0
VERTEX
  5
6BF
330
6B2
100
AcDbEntity
  8
DIBUJOS
 62
     7
100
AcDbVertex
100
AcDb2dVertex
 10
77.81550500111653
 20
34.67715131683887
 30
0.0
  0
VERTEX
  5
6C0
330
6B2
100
AcDbEntity
  8
DIBUJOS
 62
     7
100
AcDbVertex
100
AcDb2dVertex
 10
78.24619838110091
 20
34.64919608940653
 30
0.0
  0
VERTEX
  5
6C1
330
6B2
100
AcDbEntity
  8
DIBUJOS
 62
     7
100
AcDbVertex
100
AcDb2dVertex
 10
78.71661190621494
 20
34.55909608456253
 30
0.0
  0
VERTEX
  5
6C2
330
6B2
100
AcDbEntity
  8
DIBUJOS
 62
     7
100
AcDbVertex
100
AcDb2dVertex
 10
78.83011199194763
 20
34.53622876042456
 30
0.0
  0
VERTEX
  5
6C3
330
6B2
100
AcDbEntity
  8
DIBUJOS
 62
     7
100
AcDbVertex
100
AcDb2dVertex
 10
78.99445752710399
 20
34.48566419135074
 30
0.0
  0
VERTEX
  5
6C4
330
6B2
100
AcDbEntity
  8
DIBUJOS
 62
     7
100
AcDbVertex
100
AcDb2dVertex
 10
79.3914757955744
 20
34.34954407831044
 30
0.0
  0
VERTEX
  5
6C5
330
6B2
100
AcDbEntity
  8
DIBUJOS
 62
     7
100
AcDbVertex
100
AcDb2dVertex
 10
79.71476297219975
 20
34.19697567304187
 30
0.0
  0
VERTEX
  5
6C6
330
6B2
100
AcDbEntity
  8
DIBUJOS
 62
     7
100
AcDbVertex
100
AcDb2dVertex
 10
79.9302897919812
 20
34.08921378967487
 30
0.0
  0
VERTEX
  5
6C7
330
6B2
100
AcDbEntity
  8
DIBUJOS
 62
     7
100
AcDbVertex
100
AcDb2dVertex
 10
80.25327166387837
 20
33.87918550804676
 30
0.0
  0
VERTEX
  5
6C8
330
6B2
100
AcDbEntity
  8
DIBUJOS
 62
     7
100
AcDbVertex
100
AcDb2dVertex
 10
80.36813951479263
 20
33.80222581870155
 30
0.0
  0
VERTEX
  5
6C9
330
6B2
100
AcDbEntity
  8
DIBUJOS
 62
     7
100
AcDbVertex
100
AcDb2dVertex
 10
80.4684137997023
 20
33.73162257379576
 30
0.0
  0
VERTEX
  5
6CA
330
6B2
100
AcDbEntity
  8
DIBUJOS
 62
     7
100
AcDbVertex
100
AcDb2dVertex
 10
80.77026247831714
 20
33.46646236436101
 30
0.0
  0
SEQEND
  5
6CB
330
6B2
100
AcDbEntity
  8
DIBUJOS
 62
     7
  0
POLYLINE
  5
6CC
330
69E
100
AcDbEntity
  8
DIBUJOS
 62
     7
100
AcDb2dPolyline
 66
     1
 10
0.0
 20
0.0
 30
0.0
  0
VERTEX
  5
6CD
330
6CC
100
AcDbEntity
  8
DIBUJOS
 62
     7
100
AcDbVertex
100
AcDb2dVertex
 10
80.77593504016642
 20
33.46078980251237
 30
0.0
  0
VERTEX
  5
6CE
330
6CC
100
AcDbEntity
  8
DIBUJOS
 62
     7
100
AcDbVertex
100
AcDb2dVertex
 10
80.77593504016642
 20
33.46646236436101
 30
0.0
  0
SEQEND
  5
6CF
330
6CC
100
AcDbEntity
  8
DIBUJOS
 62
     7
  0
POLYLINE
  5
6D0
330
69E
100
AcDbEntity
  8
DIBUJOS
 62
     7
100
AcDb2dPolyline
 66
     1
 10
0.0
 20
0.0
 30
0.0
  0
VERTEX
  5
6D1
330
6D0
100
AcDbEntity
  8
DIBUJOS
 62
     7
100
AcDbVertex
100
AcDb2dVertex
 10
74.58812871997212
 20
33.45511876718682
 30
0.0
  0
VERTEX
  5
6D2
330
6D0
100
AcDbEntity
  8
DIBUJOS
 62
     7
100
AcDbVertex
100
AcDb2dVertex
 10
74.58812871997212
 20
33.46078980251237
 30
0.0
  0
SEQEND
  5
6D3
330
6D0
100
AcDbEntity
  8
DIBUJOS
 62
     7
  0
POLYLINE
  5
6D4
330
69E
100
AcDbEntity
  8
DIBUJOS
 62
     7
100
AcDb2dPolyline
 66
     1
 10
0.0
 20
0.0
 30
0.0
  0
VERTEX
  5
6D5
330
6D4
100
AcDbEntity
  8
DIBUJOS
 62
     7
100
AcDbVertex
100
AcDb2dVertex
 10
80.8950405207076
 20
33.36437151631893
 30
0.0
  0
VERTEX
  5
6D6
330
6D4
100
AcDbEntity
  8
DIBUJOS
 62
     7
100
AcDbVertex
100
AcDb2dVertex
 10
80.91489143413071
 20
33.40974437849133
 30
0.0
  0
VERTEX
  5
6D7
330
6D4
100
AcDbEntity
  8
DIBUJOS
 62
     7
100
AcDbVertex
100
AcDb2dVertex
 10
80.91435409780942
 20
33.41580009777375
 30
0.0
  0
VERTEX
  5
6D8
330
6D4
100
AcDbEntity
  8
DIBUJOS
 62
     7
100
AcDbVertex
100
AcDb2dVertex
 10
80.90638564440488
 20
33.45511876718682
 30
0.0
  0
VERTEX
  5
6D9
330
6D4
100
AcDbEntity
  8
DIBUJOS
 62
     7
100
AcDbVertex
100
AcDb2dVertex
 10
80.87235637940667
 20
33.48914803218503
 30
0.0
  0
VERTEX
  5
6DA
330
6D4
100
AcDbEntity
  8
DIBUJOS
 62
     7
100
AcDbVertex
100
AcDb2dVertex
 10
80.85533869386076
 20
33.49482059403431
 30
0.0
  0
VERTEX
  5
6DB
330
6D4
100
AcDbEntity
  8
DIBUJOS
 62
     7
100
AcDbVertex
100
AcDb2dVertex
 10
80.80996430516463
 20
33.49482059403431
 30
0.0
  0
VERTEX
  5
6DC
330
6D4
100
AcDbEntity
  8
DIBUJOS
 62
     7
100
AcDbVertex
100
AcDb2dVertex
 10
80.7994984590837
 20
33.48783980142563
 30
0.0
  0
VERTEX
  5
6DD
330
6D4
100
AcDbEntity
  8
DIBUJOS
 62
     7
100
AcDbVertex
100
AcDb2dVertex
 10
80.77593504016642
 20
33.47213339968656
 30
0.0
  0
SEQEND
  5
6DE
330
6D4
100
AcDbEntity
  8
DIBUJOS
 62
     7
  0
POLYLINE
  5
6DF
330
69E
100
AcDbEntity
  8
DIBUJOS
 62
     7
100
AcDb2dPolyline
 66
     1
 10
0.0
 20
0.0
 30
0.0
  0
VERTEX
  5
6E0
330
6DF
100
AcDbEntity
  8
DIBUJOS
 62
     7
100
AcDbVertex
100
AcDb2dVertex
 10
74.46902323943092
 20
33.35870048099402
 30
0.0
  0
VERTEX
  5
6E1
330
6DF
100
AcDbEntity
  8
DIBUJOS
 62
     7
100
AcDbVertex
100
AcDb2dVertex
 10
74.45597451535001
 20
33.38081980854722
 30
0.0
  0
VERTEX
  5
6E2
330
6DF
100
AcDbEntity
  8
DIBUJOS
 62
     7
100
AcDbVertex
100
AcDb2dVertex
 10
74.44633299203637
 20
33.39840078131714
 30
0.0
  0
VERTEX
  5
6E3
330
6DF
100
AcDbEntity
  8
DIBUJOS
 62
     7
100
AcDbVertex
100
AcDb2dVertex
 10
74.45200555388436
 20
33.45511876718682
 30
0.0
  0
VERTEX
  5
6E4
330
6DF
100
AcDbEntity
  8
DIBUJOS
 62
     7
100
AcDbVertex
100
AcDb2dVertex
 10
74.49227524752577
 20
33.4880138251203
 30
0.0
  0
VERTEX
  5
6E5
330
6DF
100
AcDbEntity
  8
DIBUJOS
 62
     7
100
AcDbVertex
100
AcDb2dVertex
 10
74.49681207578595
 20
33.49028223925039
 30
0.0
  0
VERTEX
  5
6E6
330
6DF
100
AcDbEntity
  8
DIBUJOS
 62
     7
100
AcDbVertex
100
AcDb2dVertex
 10
74.54275433127663
 20
33.49482059403431
 30
0.0
  0
VERTEX
  5
6E7
330
6DF
100
AcDbEntity
  8
DIBUJOS
 62
     7
100
AcDbVertex
100
AcDb2dVertex
 10
74.55826381146575
 20
33.4866460599381
 30
0.0
  0
VERTEX
  5
6E8
330
6DF
100
AcDbEntity
  8
DIBUJOS
 62
     7
100
AcDbVertex
100
AcDb2dVertex
 10
74.58812871997212
 20
33.46646236436101
 30
0.0
  0
SEQEND
  5
6E9
330
6DF
100
AcDbEntity
  8
DIBUJOS
 62
     7
  0
POLYLINE
  5
6EA
330
69E
100
AcDbEntity
  8
DIBUJOS
 62
     7
100
AcDb2dPolyline
 66
     1
 10
0.0
 20
0.0
 30
0.0
  0
VERTEX
  5
6EB
330
6EA
100
AcDbEntity
  8
DIBUJOS
 62
     7
100
AcDbVertex
100
AcDb2dVertex
 10
74.47468969518529
 20
33.35870048099402
 30
0.0
  0
VERTEX
  5
6EC
330
6EA
100
AcDbEntity
  8
DIBUJOS
 62
     7
100
AcDbVertex
100
AcDb2dVertex
 10
74.46902323943092
 20
33.35870048099402
 30
0.0
  0
SEQEND
  5
6ED
330
6EA
100
AcDbEntity
  8
DIBUJOS
 62
     7
  0
POLYLINE
  5
6EE
330
69E
100
AcDbEntity
  8
DIBUJOS
 62
     7
100
AcDb2dPolyline
 66
     1
 10
0.0
 20
0.0
 30
0.0
  0
VERTEX
  5
6EF
330
6EE
100
AcDbEntity
  8
DIBUJOS
 62
     7
100
AcDbVertex
100
AcDb2dVertex
 10
74.47468969518529
 20
33.35870048099402
 30
0.0
  0
VERTEX
  5
6F0
330
6EE
100
AcDbEntity
  8
DIBUJOS
 62
     7
100
AcDbVertex
100
AcDb2dVertex
 10
74.58812871997212
 20
33.45511876718682
 30
0.0
  0
SEQEND
  5
6F1
330
6EE
100
AcDbEntity
  8
DIBUJOS
 62
     7
  0
POLYLINE
  5
6F2
330
69E
100
AcDbEntity
  8
DIBUJOS
 62
     7
100
AcDb2dPolyline
 66
     1
 10
0.0
 20
0.0
 30
0.0
  0
VERTEX
  5
6F3
330
6F2
100
AcDbEntity
  8
DIBUJOS
 62
     7
100
AcDbVertex
100
AcDb2dVertex
 10
80.88936795885832
 20
33.35870048099402
 30
0.0
  0
VERTEX
  5
6F4
330
6F2
100
AcDbEntity
  8
DIBUJOS
 62
     7
100
AcDbVertex
100
AcDb2dVertex
 10
80.77593504016642
 20
33.46078980251237
 30
0.0
  0
SEQEND
  5
6F5
330
6F2
100
AcDbEntity
  8
DIBUJOS
 62
     7
  0
POLYLINE
  5
6F6
330
69E
100
AcDbEntity
  8
DIBUJOS
 62
     7
100
AcDb2dPolyline
 66
     1
 10
0.0
 20
0.0
 30
0.0
  0
VERTEX
  5
6F7
330
6F6
100
AcDbEntity
  8
DIBUJOS
 62
     7
100
AcDbVertex
100
AcDb2dVertex
 10
80.8950405207076
 20
33.35870048099402
 30
0.0
  0
VERTEX
  5
6F8
330
6F6
100
AcDbEntity
  8
DIBUJOS
 62
     7
100
AcDbVertex
100
AcDb2dVertex
 10
80.88936795885832
 20
33.35870048099402
 30
0.0
  0
SEQEND
  5
6F9
330
6F6
100
AcDbEntity
  8
DIBUJOS
 62
     7
  0
POLYLINE
  5
6FA
330
69E
100
AcDbEntity
  8
DIBUJOS
 62
     7
100
AcDb2dPolyline
 66
     1
 10
0.0
 20
0.0
 30
0.0
  0
VERTEX
  5
6FB
330
6FA
100
AcDbEntity
  8
DIBUJOS
 62
     7
100
AcDbVertex
100
AcDb2dVertex
 10
80.8950405207076
 20
33.35870048099402
 30
0.0
  0
VERTEX
  5
6FC
330
6FA
100
AcDbEntity
  8
DIBUJOS
 62
     7
100
AcDbVertex
100
AcDb2dVertex
 10
80.8950405207076
 20
33.36437151631893
 30
0.0
  0
SEQEND
  5
6FD
330
6FA
100
AcDbEntity
  8
DIBUJOS
 62
     7
  0
POLYLINE
  5
6FE
330
69E
100
AcDbEntity
  8
DIBUJOS
 62
     7
100
AcDb2dPolyline
 66
     1
 10
0.0
 20
0.0
 30
0.0
  0
VERTEX
  5
6FF
330
6FE
100
AcDbEntity
  8
DIBUJOS
 62
     7
100
AcDbVertex
100
AcDb2dVertex
 10
74.46902323943092
 20
33.35302791914538
 30
0.0
  0
VERTEX
  5
700
330
6FE
100
AcDbEntity
  8
DIBUJOS
 62
     7
100
AcDbVertex
100
AcDb2dVertex
 10
74.46902323943092
 20
33.35870048099402
 30
0.0
  0
SEQEND
  5
701
330
6FE
100
AcDbEntity
  8
DIBUJOS
 62
     7
  0
POLYLINE
  5
702
330
69E
100
AcDbEntity
  8
DIBUJOS
 62
     7
100
AcDb2dPolyline
 66
     1
 10
0.0
 20
0.0
 30
0.0
  0
VERTEX
  5
703
330
702
100
AcDbEntity
  8
DIBUJOS
 62
     7
100
AcDbVertex
100
AcDb2dVertex
 10
74.46902323943092
 20
26.9326786201468
 30
0.0
  0
VERTEX
  5
704
330
702
100
AcDbEntity
  8
DIBUJOS
 62
     7
100
AcDbVertex
100
AcDb2dVertex
 10
74.27759106879378
 20
27.14943276493521
 30
0.0
  0
VERTEX
  5
705
330
702
100
AcDbEntity
  8
DIBUJOS
 62
     7
100
AcDbVertex
100
AcDb2dVertex
 10
74.06502265182779
 20
27.3968845368765
 30
0.0
  0
VERTEX
  5
706
330
702
100
AcDbEntity
  8
DIBUJOS
 62
     7
100
AcDbVertex
100
AcDb2dVertex
 10
74.01092265400223
 20
27.47803300709191
 30
0.0
  0
VERTEX
  5
707
330
702
100
AcDbEntity
  8
DIBUJOS
 62
     7
100
AcDbVertex
100
AcDb2dVertex
 10
73.73623999009689
 20
27.89629819485529
 30
0.0
  0
VERTEX
  5
708
330
702
100
AcDbEntity
  8
DIBUJOS
 62
     7
100
AcDbVertex
100
AcDb2dVertex
 10
73.64209011803354
 20
28.08459793898135
 30
0.0
  0
VERTEX
  5
709
330
702
100
AcDbEntity
  8
DIBUJOS
 62
     7
100
AcDbVertex
100
AcDb2dVertex
 10
73.46910140602294
 20
28.45212377071374
 30
0.0
  0
VERTEX
  5
70A
330
702
100
AcDbEntity
  8
DIBUJOS
 62
     7
100
AcDbVertex
100
AcDb2dVertex
 10
73.33298129298329
 20
28.85481307450906
 30
0.0
  0
VERTEX
  5
70B
330
702
100
AcDbEntity
  8
DIBUJOS
 62
     7
100
AcDbVertex
100
AcDb2dVertex
 10
73.28582087162738
 20
29.0146233079296
 30
0.0
  0
VERTEX
  5
70C
330
702
100
AcDbEntity
  8
DIBUJOS
 62
     7
100
AcDbVertex
100
AcDb2dVertex
 10
73.25309831086547
 20
29.17823000564355
 30
0.0
  0
VERTEX
  5
70D
330
702
100
AcDbEntity
  8
DIBUJOS
 62
     7
100
AcDbVertex
100
AcDb2dVertex
 10
73.17851236578178
 20
29.56451681291984
 30
0.0
  0
VERTEX
  5
70E
330
702
100
AcDbEntity
  8
DIBUJOS
 62
     7
100
AcDbVertex
100
AcDb2dVertex
 10
73.14485862559872
 20
30.08030777977745
 30
0.0
  0
VERTEX
  5
70F
330
702
100
AcDbEntity
  8
DIBUJOS
 62
     7
100
AcDbVertex
100
AcDb2dVertex
 10
73.14485862559872
 20
30.20539875951409
 30
0.0
  0
VERTEX
  5
710
330
702
100
AcDbEntity
  8
DIBUJOS
 62
     7
100
AcDbVertex
100
AcDb2dVertex
 10
73.17851236578178
 20
30.72118972637169
 30
0.0
  0
VERTEX
  5
711
330
702
100
AcDbEntity
  8
DIBUJOS
 62
     7
100
AcDbVertex
100
AcDb2dVertex
 10
73.25746111543098
 20
31.12929055647365
 30
0.0
  0
VERTEX
  5
712
330
702
100
AcDbEntity
  8
DIBUJOS
 62
     7
100
AcDbVertex
100
AcDb2dVertex
 10
73.28712757586368
 20
31.27762743821022
 30
0.0
  0
VERTEX
  5
713
330
702
100
AcDbEntity
  8
DIBUJOS
 62
     7
100
AcDbVertex
100
AcDb2dVertex
 10
73.33638544070216
 20
31.4411028548913
 30
0.0
  0
VERTEX
  5
714
330
702
100
AcDbEntity
  8
DIBUJOS
 62
     7
100
AcDbVertex
100
AcDb2dVertex
 10
73.48044652972087
 20
31.86194099825109
 30
0.0
  0
VERTEX
  5
715
330
702
100
AcDbEntity
  8
DIBUJOS
 62
     7
100
AcDbVertex
100
AcDb2dVertex
 10
73.62847658020553
 20
32.16821201585361
 30
0.0
  0
VERTEX
  5
716
330
702
100
AcDbEntity
  8
DIBUJOS
 62
     7
100
AcDbVertex
100
AcDb2dVertex
 10
73.7328358423777
 20
32.38260310204596
 30
0.0
  0
VERTEX
  5
717
330
702
100
AcDbEntity
  8
DIBUJOS
 62
     7
100
AcDbVertex
100
AcDb2dVertex
 10
73.98823545965385
 20
32.77364350394019
 30
0.0
  0
VERTEX
  5
718
330
702
100
AcDbEntity
  8
DIBUJOS
 62
     7
100
AcDbVertex
100
AcDb2dVertex
 10
74.06179252780488
 20
32.88171069203472
 30
0.0
  0
VERTEX
  5
719
330
702
100
AcDbEntity
  8
DIBUJOS
 62
     7
100
AcDbVertex
100
AcDb2dVertex
 10
74.24356180379621
 20
33.09655057617857
 30
0.0
  0
VERTEX
  5
71A
330
702
100
AcDbEntity
  8
DIBUJOS
 62
     7
100
AcDbVertex
100
AcDb2dVertex
 10
74.46902323943092
 20
33.35302791914538
 30
0.0
  0
SEQEND
  5
71B
330
702
100
AcDbEntity
  8
DIBUJOS
 62
     7
  0
POLYLINE
  5
71C
330
69E
100
AcDbEntity
  8
DIBUJOS
 62
     7
100
AcDb2dPolyline
 66
     1
 10
0.0
 20
0.0
 30
0.0
  0
VERTEX
  5
71D
330
71C
100
AcDbEntity
  8
DIBUJOS
 62
     7
100
AcDbVertex
100
AcDb2dVertex
 10
74.46902323943092
 20
26.92700682155938
 30
0.0
  0
VERTEX
  5
71E
330
71C
100
AcDbEntity
  8
DIBUJOS
 62
     7
100
AcDbVertex
100
AcDb2dVertex
 10
74.46902323943092
 20
26.9326786201468
 30
0.0
  0
SEQEND
  5
71F
330
71C
100
AcDbEntity
  8
DIBUJOS
 62
     7
  0
POLYLINE
  5
720
330
69E
100
AcDbEntity
  8
DIBUJOS
 62
     7
100
AcDb2dPolyline
 66
     1
 10
0.0
 20
0.0
 30
0.0
  0
VERTEX
  5
721
330
720
100
AcDbEntity
  8
DIBUJOS
 62
     7
100
AcDbVertex
100
AcDb2dVertex
 10
74.47468969518529
 20
26.92700682155938
 30
0.0
  0
VERTEX
  5
722
330
720
100
AcDbEntity
  8
DIBUJOS
 62
     7
100
AcDbVertex
100
AcDb2dVertex
 10
74.46902323943092
 20
26.92700682155938
 30
0.0
  0
SEQEND
  5
723
330
720
100
AcDbEntity
  8
DIBUJOS
 62
     7
  0
POLYLINE
  5
724
330
69E
100
AcDbEntity
  8
DIBUJOS
 62
     7
100
AcDb2dPolyline
 66
     1
 10
0.0
 20
0.0
 30
0.0
  0
VERTEX
  5
725
330
724
100
AcDbEntity
  8
DIBUJOS
 62
     7
100
AcDbVertex
100
AcDb2dVertex
 10
80.8950405207076
 20
26.92700682155938
 30
0.0
  0
VERTEX
  5
726
330
724
100
AcDbEntity
  8
DIBUJOS
 62
     7
100
AcDbVertex
100
AcDb2dVertex
 10
81.16587634503846
 20
27.23452958854723
 30
0.0
  0
VERTEX
  5
727
330
724
100
AcDbEntity
  8
DIBUJOS
 62
     7
100
AcDbVertex
100
AcDb2dVertex
 10
81.31343622624199
 20
27.40997295057176
 30
0.0
  0
VERTEX
  5
728
330
724
100
AcDbEntity
  8
DIBUJOS
 62
     7
100
AcDbVertex
100
AcDb2dVertex
 10
81.38411427080594
 20
27.51599001741768
 30
0.0
  0
VERTEX
  5
729
330
724
100
AcDbEntity
  8
DIBUJOS
 62
     7
100
AcDbVertex
100
AcDb2dVertex
 10
81.63690047960947
 20
27.90310420050744
 30
0.0
  0
VERTEX
  5
72A
330
724
100
AcDbEntity
  8
DIBUJOS
 62
     7
100
AcDbVertex
100
AcDb2dVertex
 10
81.75600596015065
 20
28.14698696017594
 30
0.0
  0
VERTEX
  5
72B
330
724
100
AcDbEntity
  8
DIBUJOS
 62
     7
100
AcDbVertex
100
AcDb2dVertex
 10
81.88958899090021
 20
28.42383118155752
 30
0.0
  0
VERTEX
  5
72C
330
724
100
AcDbEntity
  8
DIBUJOS
 62
     7
100
AcDbVertex
100
AcDb2dVertex
 10
82.03335088128533
 20
28.84460368440023
 30
0.0
  0
VERTEX
  5
72D
330
724
100
AcDbEntity
  8
DIBUJOS
 62
     7
100
AcDbVertex
100
AcDb2dVertex
 10
82.0839154503598
 20
29.0146233079296
 30
0.0
  0
VERTEX
  5
72E
330
724
100
AcDbEntity
  8
DIBUJOS
 62
     7
100
AcDbVertex
100
AcDb2dVertex
 10
82.1166380111217
 20
29.17823000564355
 30
0.0
  0
VERTEX
  5
72F
330
724
100
AcDbEntity
  8
DIBUJOS
 62
     7
100
AcDbVertex
100
AcDb2dVertex
 10
82.19122395620539
 20
29.56451681291984
 30
0.0
  0
VERTEX
  5
730
330
724
100
AcDbEntity
  8
DIBUJOS
 62
     7
100
AcDbVertex
100
AcDb2dVertex
 10
82.22789105405457
 20
30.0804650117124
 30
0.0
  0
VERTEX
  5
731
330
724
100
AcDbEntity
  8
DIBUJOS
 62
     7
100
AcDbVertex
100
AcDb2dVertex
 10
82.219177657114
 20
30.29616432866542
 30
0.0
  0
VERTEX
  5
732
330
724
100
AcDbEntity
  8
DIBUJOS
 62
     7
100
AcDbVertex
100
AcDb2dVertex
 10
82.19122395620539
 20
30.72118972637169
 30
0.0
  0
VERTEX
  5
733
330
724
100
AcDbEntity
  8
DIBUJOS
 62
     7
100
AcDbVertex
100
AcDb2dVertex
 10
82.10659959166009
 20
31.15764878614695
 30
0.0
  0
VERTEX
  5
734
330
724
100
AcDbEntity
  8
DIBUJOS
 62
     7
100
AcDbVertex
100
AcDb2dVertex
 10
82.08260874612348
 20
31.27762743821022
 30
0.0
  0
VERTEX
  5
735
330
724
100
AcDbEntity
  8
DIBUJOS
 62
     7
100
AcDbVertex
100
AcDb2dVertex
 10
82.0248450915595
 20
31.46492425630441
 30
0.0
  0
VERTEX
  5
736
330
724
100
AcDbEntity
  8
DIBUJOS
 62
     7
100
AcDbVertex
100
AcDb2dVertex
 10
81.8892897922663
 20
31.86194099825109
 30
0.0
  0
VERTEX
  5
737
330
724
100
AcDbEntity
  8
DIBUJOS
 62
     7
100
AcDbVertex
100
AcDb2dVertex
 10
81.73558717993235
 20
32.1795556130278
 30
0.0
  0
VERTEX
  5
738
330
724
100
AcDbEntity
  8
DIBUJOS
 62
     7
100
AcDbVertex
100
AcDb2dVertex
 10
81.6391658406921
 20
32.37806474726269
 30
0.0
  0
VERTEX
  5
739
330
724
100
AcDbEntity
  8
DIBUJOS
 62
     7
100
AcDbVertex
100
AcDb2dVertex
 10
81.35575756765637
 20
32.80941911198321
 30
0.0
  0
VERTEX
  5
73A
330
724
100
AcDbEntity
  8
DIBUJOS
 62
     7
100
AcDbVertex
100
AcDb2dVertex
 10
81.31038317896088
 20
32.87747916850336
 30
0.0
  0
VERTEX
  5
73B
330
724
100
AcDbEntity
  8
DIBUJOS
 62
     7
100
AcDbVertex
100
AcDb2dVertex
 10
81.07512756764683
 20
33.15326703552453
 30
0.0
  0
VERTEX
  5
73C
330
724
100
AcDbEntity
  8
DIBUJOS
 62
     7
100
AcDbVertex
100
AcDb2dVertex
 10
80.8950405207076
 20
33.35870048099402
 30
0.0
  0
SEQEND
  5
73D
330
724
100
AcDbEntity
  8
DIBUJOS
 62
     7
  0
POLYLINE
  5
73E
330
69E
100
AcDbEntity
  8
DIBUJOS
 62
     7
100
AcDb2dPolyline
 66
     1
 10
0.0
 20
0.0
 30
0.0
  0
VERTEX
  5
73F
330
73E
100
AcDbEntity
  8
DIBUJOS
 62
     7
100
AcDbVertex
100
AcDb2dVertex
 10
74.46902323943092
 20
26.92133502297261
 30
0.0
  0
VERTEX
  5
740
330
73E
100
AcDbEntity
  8
DIBUJOS
 62
     7
100
AcDbVertex
100
AcDb2dVertex
 10
74.46902323943092
 20
26.92700682155938
 30
0.0
  0
SEQEND
  5
741
330
73E
100
AcDbEntity
  8
DIBUJOS
 62
     7
  0
POLYLINE
  5
742
330
69E
100
AcDbEntity
  8
DIBUJOS
 62
     7
100
AcDb2dPolyline
 66
     1
 10
0.0
 20
0.0
 30
0.0
  0
VERTEX
  5
743
330
742
100
AcDbEntity
  8
DIBUJOS
 62
     7
100
AcDbVertex
100
AcDb2dVertex
 10
80.8950405207076
 20
26.92133502297261
 30
0.0
  0
VERTEX
  5
744
330
742
100
AcDbEntity
  8
DIBUJOS
 62
     7
100
AcDbVertex
100
AcDb2dVertex
 10
80.88936795885832
 20
26.92133502297261
 30
0.0
  0
SEQEND
  5
745
330
742
100
AcDbEntity
  8
DIBUJOS
 62
     7
  0
POLYLINE
  5
746
330
69E
100
AcDbEntity
  8
DIBUJOS
 62
     7
100
AcDb2dPolyline
 66
     1
 10
0.0
 20
0.0
 30
0.0
  0
VERTEX
  5
747
330
746
100
AcDbEntity
  8
DIBUJOS
 62
     7
100
AcDbVertex
100
AcDb2dVertex
 10
80.8950405207076
 20
26.92133502297261
 30
0.0
  0
VERTEX
  5
748
330
746
100
AcDbEntity
  8
DIBUJOS
 62
     7
100
AcDbVertex
100
AcDb2dVertex
 10
80.8950405207076
 20
26.92700682155938
 30
0.0
  0
SEQEND
  5
749
330
746
100
AcDbEntity
  8
DIBUJOS
 62
     7
  0
POLYLINE
  5
74A
330
69E
100
AcDbEntity
  8
DIBUJOS
 62
     7
100
AcDb2dPolyline
 66
     1
 10
0.0
 20
0.0
 30
0.0
  0
VERTEX
  5
74B
330
74A
100
AcDbEntity
  8
DIBUJOS
 62
     7
100
AcDbVertex
100
AcDb2dVertex
 10
80.8950405207076
 20
26.91566322438583
 30
0.0
  0
VERTEX
  5
74C
330
74A
100
AcDbEntity
  8
DIBUJOS
 62
     7
100
AcDbVertex
100
AcDb2dVertex
 10
80.8950405207076
 20
26.92133502297261
 30
0.0
  0
SEQEND
  5
74D
330
74A
100
AcDbEntity
  8
DIBUJOS
 62
     7
  0
POLYLINE
  5
74E
330
69E
100
AcDbEntity
  8
DIBUJOS
 62
     7
100
AcDb2dPolyline
 66
     1
 10
0.0
 20
0.0
 30
0.0
  0
VERTEX
  5
74F
330
74E
100
AcDbEntity
  8
DIBUJOS
 62
     7
100
AcDbVertex
100
AcDb2dVertex
 10
74.59379517572648
 20
26.81924493819239
 30
0.0
  0
VERTEX
  5
750
330
74E
100
AcDbEntity
  8
DIBUJOS
 62
     7
100
AcDbVertex
100
AcDb2dVertex
 10
74.47468969518529
 20
26.92700682155938
 30
0.0
  0
SEQEND
  5
751
330
74E
100
AcDbEntity
  8
DIBUJOS
 62
     7
  0
POLYLINE
  5
752
330
69E
100
AcDbEntity
  8
DIBUJOS
 62
     7
100
AcDb2dPolyline
 66
     1
 10
0.0
 20
0.0
 30
0.0
  0
VERTEX
  5
753
330
752
100
AcDbEntity
  8
DIBUJOS
 62
     7
100
AcDbVertex
100
AcDb2dVertex
 10
74.59379517572648
 20
26.81357313960561
 30
0.0
  0
VERTEX
  5
754
330
752
100
AcDbEntity
  8
DIBUJOS
 62
     7
100
AcDbVertex
100
AcDb2dVertex
 10
74.58812871997212
 20
26.81357313960561
 30
0.0
  0
SEQEND
  5
755
330
752
100
AcDbEntity
  8
DIBUJOS
 62
     7
  0
POLYLINE
  5
756
330
69E
100
AcDbEntity
  8
DIBUJOS
 62
     7
100
AcDb2dPolyline
 66
     1
 10
0.0
 20
0.0
 30
0.0
  0
VERTEX
  5
757
330
756
100
AcDbEntity
  8
DIBUJOS
 62
     7
100
AcDbVertex
100
AcDb2dVertex
 10
74.59379517572648
 20
26.81357313960561
 30
0.0
  0
VERTEX
  5
758
330
756
100
AcDbEntity
  8
DIBUJOS
 62
     7
100
AcDbVertex
100
AcDb2dVertex
 10
74.59379517572648
 20
26.81924493819239
 30
0.0
  0
SEQEND
  5
759
330
756
100
AcDbEntity
  8
DIBUJOS
 62
     7
  0
POLYLINE
  5
75A
330
69E
100
AcDbEntity
  8
DIBUJOS
 62
     7
100
AcDb2dPolyline
 66
     1
 10
0.0
 20
0.0
 30
0.0
  0
VERTEX
  5
75B
330
75A
100
AcDbEntity
  8
DIBUJOS
 62
     7
100
AcDbVertex
100
AcDb2dVertex
 10
74.59946773757513
 20
26.81357313960561
 30
0.0
  0
VERTEX
  5
75C
330
75A
100
AcDbEntity
  8
DIBUJOS
 62
     7
100
AcDbVertex
100
AcDb2dVertex
 10
74.59379517572648
 20
26.81357313960561
 30
0.0
  0
SEQEND
  5
75D
330
75A
100
AcDbEntity
  8
DIBUJOS
 62
     7
  0
POLYLINE
  5
75E
330
69E
100
AcDbEntity
  8
DIBUJOS
 62
     7
100
AcDb2dPolyline
 66
     1
 10
0.0
 20
0.0
 30
0.0
  0
VERTEX
  5
75F
330
75E
100
AcDbEntity
  8
DIBUJOS
 62
     7
100
AcDbVertex
100
AcDb2dVertex
 10
80.77026247831714
 20
26.81357313960561
 30
0.0
  0
VERTEX
  5
760
330
75E
100
AcDbEntity
  8
DIBUJOS
 62
     7
100
AcDbVertex
100
AcDb2dVertex
 10
80.88936795885832
 20
26.92133502297261
 30
0.0
  0
SEQEND
  5
761
330
75E
100
AcDbEntity
  8
DIBUJOS
 62
     7
  0
POLYLINE
  5
762
330
69E
100
AcDbEntity
  8
DIBUJOS
 62
     7
100
AcDb2dPolyline
 66
     1
 10
0.0
 20
0.0
 30
0.0
  0
VERTEX
  5
763
330
762
100
AcDbEntity
  8
DIBUJOS
 62
     7
100
AcDbVertex
100
AcDb2dVertex
 10
74.46902323943092
 20
26.92133502297261
 30
0.0
  0
VERTEX
  5
764
330
762
100
AcDbEntity
  8
DIBUJOS
 62
     7
100
AcDbVertex
100
AcDb2dVertex
 10
74.45597451535001
 20
26.89921569541941
 30
0.0
  0
VERTEX
  5
765
330
762
100
AcDbEntity
  8
DIBUJOS
 62
     7
100
AcDbVertex
100
AcDb2dVertex
 10
74.44633299203637
 20
26.88163319612512
 30
0.0
  0
VERTEX
  5
766
330
762
100
AcDbEntity
  8
DIBUJOS
 62
     7
100
AcDbVertex
100
AcDb2dVertex
 10
74.45200555388436
 20
26.82491673677981
 30
0.0
  0
VERTEX
  5
767
330
762
100
AcDbEntity
  8
DIBUJOS
 62
     7
100
AcDbVertex
100
AcDb2dVertex
 10
74.48603481888257
 20
26.79088670851973
 30
0.0
  0
VERTEX
  5
768
330
762
100
AcDbEntity
  8
DIBUJOS
 62
     7
100
AcDbVertex
100
AcDb2dVertex
 10
74.5138297613325
 20
26.78351359933491
 30
0.0
  0
VERTEX
  5
769
330
762
100
AcDbEntity
  8
DIBUJOS
 62
     7
100
AcDbVertex
100
AcDb2dVertex
 10
74.55234700583419
 20
26.78987614986923
 30
0.0
  0
VERTEX
  5
76A
330
762
100
AcDbEntity
  8
DIBUJOS
 62
     7
100
AcDbVertex
100
AcDb2dVertex
 10
74.58812871997212
 20
26.81357313960561
 30
0.0
  0
SEQEND
  5
76B
330
762
100
AcDbEntity
  8
DIBUJOS
 62
     7
  0
POLYLINE
  5
76C
330
69E
100
AcDbEntity
  8
DIBUJOS
 62
     7
100
AcDb2dPolyline
 66
     1
 10
0.0
 20
0.0
 30
0.0
  0
VERTEX
  5
76D
330
76C
100
AcDbEntity
  8
DIBUJOS
 62
     7
100
AcDbVertex
100
AcDb2dVertex
 10
80.77026247831714
 20
26.81357313960561
 30
0.0
  0
VERTEX
  5
76E
330
76C
100
AcDbEntity
  8
DIBUJOS
 62
     7
100
AcDbVertex
100
AcDb2dVertex
 10
80.78626044607212
 20
26.80086864660599
 30
0.0
  0
VERTEX
  5
76F
330
76C
100
AcDbEntity
  8
DIBUJOS
 62
     7
100
AcDbVertex
100
AcDb2dVertex
 10
80.84399967625774
 20
26.78237862900832
 30
0.0
  0
VERTEX
  5
770
330
76C
100
AcDbEntity
  8
DIBUJOS
 62
     7
100
AcDbVertex
100
AcDb2dVertex
 10
80.8615791225033
 20
26.78918463465982
 30
0.0
  0
VERTEX
  5
771
330
76C
100
AcDbEntity
  8
DIBUJOS
 62
     7
100
AcDbVertex
100
AcDb2dVertex
 10
80.87235637940667
 20
26.79088670851973
 30
0.0
  0
VERTEX
  5
772
330
76C
100
AcDbEntity
  8
DIBUJOS
 62
     7
100
AcDbVertex
100
AcDb2dVertex
 10
80.91205820625352
 20
26.83626033395335
 30
0.0
  0
VERTEX
  5
773
330
76C
100
AcDbEntity
  8
DIBUJOS
 62
     7
100
AcDbVertex
100
AcDb2dVertex
 10
80.91205820625352
 20
26.88163319612512
 30
0.0
  0
VERTEX
  5
774
330
76C
100
AcDbEntity
  8
DIBUJOS
 62
     7
100
AcDbVertex
100
AcDb2dVertex
 10
80.90468204402188
 20
26.89808148835404
 30
0.0
  0
VERTEX
  5
775
330
76C
100
AcDbEntity
  8
DIBUJOS
 62
     7
100
AcDbVertex
100
AcDb2dVertex
 10
80.8950405207076
 20
26.91566322438583
 30
0.0
  0
SEQEND
  5
776
330
76C
100
AcDbEntity
  8
DIBUJOS
 62
     7
  0
POLYLINE
  5
777
330
69E
100
AcDbEntity
  8
DIBUJOS
 62
     7
100
AcDb2dPolyline
 66
     1
 10
0.0
 20
0.0
 30
0.0
  0
VERTEX
  5
778
330
777
100
AcDbEntity
  8
DIBUJOS
 62
     7
100
AcDbVertex
100
AcDb2dVertex
 10
74.59946773757513
 20
26.81357313960561
 30
0.0
  0
VERTEX
  5
779
330
777
100
AcDbEntity
  8
DIBUJOS
 62
     7
100
AcDbVertex
100
AcDb2dVertex
 10
74.8785834261336
 20
26.5710917286381
 30
0.0
  0
VERTEX
  5
77A
330
777
100
AcDbEntity
  8
DIBUJOS
 62
     7
100
AcDbVertex
100
AcDb2dVertex
 10
75.00885084753503
 20
26.47463298956845
 30
0.0
  0
VERTEX
  5
77B
330
777
100
AcDbEntity
  8
DIBUJOS
 62
     7
100
AcDbVertex
100
AcDb2dVertex
 10
75.114718315064
 20
26.40390304320098
 30
0.0
  0
VERTEX
  5
77C
330
777
100
AcDbEntity
  8
DIBUJOS
 62
     7
100
AcDbVertex
100
AcDb2dVertex
 10
75.45079165370389
 20
26.18515067896684
 30
0.0
  0
VERTEX
  5
77D
330
777
100
AcDbEntity
  8
DIBUJOS
 62
     7
100
AcDbVertex
100
AcDb2dVertex
 10
75.67198492923906
 20
26.07738803233798
 30
0.0
  0
VERTEX
  5
77E
330
777
100
AcDbEntity
  8
DIBUJOS
 62
     7
100
AcDbVertex
100
AcDb2dVertex
 10
75.97712479282431
 20
25.93275983978628
 30
0.0
  0
VERTEX
  5
77F
330
777
100
AcDbEntity
  8
DIBUJOS
 62
     7
100
AcDbVertex
100
AcDb2dVertex
 10
76.39115464074638
 20
25.79096792815921
 30
0.0
  0
VERTEX
  5
780
330
777
100
AcDbEntity
  8
DIBUJOS
 62
     7
100
AcDbVertex
100
AcDb2dVertex
 10
76.54529689188817
 20
25.7438059802802
 30
0.0
  0
VERTEX
  5
781
330
777
100
AcDbEntity
  8
DIBUJOS
 62
     7
100
AcDbVertex
100
AcDb2dVertex
 10
76.73719312571217
 20
25.70559251398232
 30
0.0
  0
VERTEX
  5
782
330
777
100
AcDbEntity
  8
DIBUJOS
 62
     7
100
AcDbVertex
100
AcDb2dVertex
 10
77.08951478198296
 20
25.63649747443396
 30
0.0
  0
VERTEX
  5
783
330
777
100
AcDbEntity
  8
DIBUJOS
 62
     7
100
AcDbVertex
100
AcDb2dVertex
 10
77.67333680141182
 20
25.59721238854098
 30
0.0
  0
VERTEX
  5
784
330
777
100
AcDbEntity
  8
DIBUJOS
 62
     7
100
AcDbVertex
100
AcDb2dVertex
 10
78.20081788630986
 20
25.63082567584719
 30
0.0
  0
VERTEX
  5
785
330
777
100
AcDbEntity
  8
DIBUJOS
 62
     7
100
AcDbVertex
100
AcDb2dVertex
 10
78.27452455377721
 20
25.63646465417575
 30
0.0
  0
VERTEX
  5
786
330
777
100
AcDbEntity
  8
DIBUJOS
 62
     7
100
AcDbVertex
100
AcDb2dVertex
 10
78.81876686824972
 20
25.7438059802802
 30
0.0
  0
VERTEX
  5
787
330
777
100
AcDbEntity
  8
DIBUJOS
 62
     7
100
AcDbVertex
100
AcDb2dVertex
 10
78.8471296774942
 20
25.74947777886697
 30
0.0
  0
VERTEX
  5
788
330
777
100
AcDbEntity
  8
DIBUJOS
 62
     7
100
AcDbVertex
100
AcDb2dVertex
 10
79.03415935395148
 20
25.81138594511499
 30
0.0
  0
VERTEX
  5
789
330
777
100
AcDbEntity
  8
DIBUJOS
 62
     7
100
AcDbVertex
100
AcDb2dVertex
 10
79.38580933982003
 20
25.93049142565618
 30
0.0
  0
VERTEX
  5
78A
330
777
100
AcDbEntity
  8
DIBUJOS
 62
     7
100
AcDbVertex
100
AcDb2dVertex
 10
79.76580992274388
 20
26.11141806059805
 30
0.0
  0
VERTEX
  5
78B
330
777
100
AcDbEntity
  8
DIBUJOS
 62
     7
100
AcDbVertex
100
AcDb2dVertex
 10
79.92461723013255
 20
26.19082171429239
 30
0.0
  0
VERTEX
  5
78C
330
777
100
AcDbEntity
  8
DIBUJOS
 62
     7
100
AcDbVertex
100
AcDb2dVertex
 10
80.33267531757271
 20
26.45756569200459
 30
0.0
  0
VERTEX
  5
78D
330
777
100
AcDbEntity
  8
DIBUJOS
 62
     7
100
AcDbVertex
100
AcDb2dVertex
 10
80.4138192082163
 20
26.51166492656797
 30
0.0
  0
VERTEX
  5
78E
330
777
100
AcDbEntity
  8
DIBUJOS
 62
     7
100
AcDbVertex
100
AcDb2dVertex
 10
80.54784187777435
 20
26.62214096896846
 30
0.0
  0
VERTEX
  5
78F
330
777
100
AcDbEntity
  8
DIBUJOS
 62
     7
100
AcDbVertex
100
AcDb2dVertex
 10
80.77026247831714
 20
26.81357313960561
 30
0.0
  0
SEQEND
  5
790
330
777
100
AcDbEntity
  8
DIBUJOS
 62
     7
  0
ENDBLK
  5
6A1
330
69E
100
AcDbEntity
  8
0
100
AcDbBlockEnd
  0
ENDSEC
  0
SECTION
  2
ENTITIES
  0
MTEXT
  5
41
330
1F
100
AcDbEntity
  8
REFERENCIAS
 62
   255
100
AcDbMText
 10
40.93094530141956
 20
54.85563098807646
 30
0.0
 40
1.49859999962535
 41
0.0
 71
     7
 72
     1
  1
\fMyriad Pro|b0|i0|c0|p34;\W1;OLSON_1089-01-C_90x90_80x80_1089-01-C_90x90_80x80__TABLE
  0
MTEXT
  5
43
330
1F
100
AcDbEntity
  8
M_U_00C1RGENES
 62
   255
100
AcDbMText
 10
110.1384430504005
 20
23.7555119243149
 30
0.0
 40
1.748366666229575
 41
0.0
 71
     7
 72
     1
  1
\fMyriad Pro|b0|i0|c0|p34;\W1;400
  0
MTEXT
  5
44
330
1F
100
AcDbEntity
  8
M_U_00C1RGENES
 62
   255
100
AcDbMText
 10
104.2089331048478
 20
20.50332059082737
 30
0.0
 40
1.748366666229575
 41
0.0
 71
     7
 72
     1
  1
\fMyriad Pro|b0|i0|c0|p34;\W1;800
  0
MTEXT
  5
45
330
1F
100
AcDbEntity
  8
M_U_00C1RGENES
 62
   255
100
AcDbMText
 10
70.34154512978061
 20
20.50332059082737
 30
0.0
 40
1.748366666229575
 41
0.0
 71
     7
 72
     1
  1
\fMyriad Pro|b0|i0|c0|p34;\W1;400
  0
POLYLINE
  5
46
330
1F
100
AcDbEntity
  8
M_U_00C1RGENES
 62
   255
100
AcDb2dPolyline
 66
     1
 10
0.0
 20
0.0
 30
0.0
  0
VERTEX
  5
47
330
46
100
AcDbEntity
  8
M_U_00C1RGENES
 62
   255
100
AcDbVertex
100
AcDb2dVertex
 10
74.98114844115133
 20
20.88258920325216
 30
0.0
  0
VERTEX
  5
48
330
46
100
AcDbEntity
  8
M_U_00C1RGENES
 62
   255
100
AcDbVertex
100
AcDb2dVertex
 10
74.98114844115133
 20
19.74726776251925
 30
0.0
  0
SEQEND
  5
49
330
46
100
AcDbEntity
  8
M_U_00C1RGENES
 62
   255
  0
POLYLINE
  5
4A
330
1F
100
AcDbEntity
  8
M_U_00C1RGENES
 62
   255
100
AcDb2dPolyline
 66
     1
 10
0.0
 20
0.0
 30
0.0
  0
VERTEX
  5
4B
330
4A
100
AcDbEntity
  8
M_U_00C1RGENES
 62
   255
100
AcDbVertex
100
AcDb2dVertex
 10
104.4138297671496
 20
24.76314475783758
 30
0.0
  0
VERTEX
  5
4C
330
4A
100
AcDbEntity
  8
M_U_00C1RGENES
 62
   255
100
AcDbVertex
100
AcDb2dVertex
 10
114.9971630978371
 20
19.74726776251925
 30
0.0
  0
SEQEND
  5
4D
330
4A
100
AcDbEntity
  8
M_U_00C1RGENES
 62
   255
  0
POLYLINE
  5
4E
330
1F
100
AcDbEntity
  8
M_U_00C1RGENES
 62
   254
100
AcDb2dPolyline
 66
     1
 10
0.0
 20
0.0
 30
0.0
  0
VERTEX
  5
4F
330
4E
100
AcDbEntity
  8
M_U_00C1RGENES
 62
   254
100
AcDbVertex
100
AcDb2dVertex
 10
34.99999779751944
 20
20.88258920325216
 30
0.0
  0
VERTEX
  5
50
330
4E
100
AcDbEntity
  8
M_U_00C1RGENES
 62
   254
100
AcDbVertex
100
AcDb2dVertex
 10
34.99999779751944
 20
19.74726776251925
 30
0.0
  0
SEQEND
  5
51
330
4E
100
AcDbEntity
  8
M_U_00C1RGENES
 62
   254
  0
POLYLINE
  5
52
330
1F
100
AcDbEntity
  8
M_U_00C1RGENES
 62
   255
100
AcDb2dPolyline
 66
     1
 10
0.0
 20
0.0
 30
0.0
  0
VERTEX
  5
53
330
52
100
AcDbEntity
  8
M_U_00C1RGENES
 62
   255
100
AcDbVertex
100
AcDb2dVertex
 10
114.9999978516528
 20
59.74999886675599
 30
0.0
  0
VERTEX
  5
54
330
52
100
AcDbEntity
  8
M_U_00C1RGENES
 62
   255
100
AcDbVertex
100
AcDb2dVertex
 10
113.8646764109199
 20
59.7499988667053
 30
0.0
  0
SEQEND
  5
55
330
52
100
AcDbEntity
  8
M_U_00C1RGENES
 62
   255
  0
INSERT
  5
58
330
1F
100
AcDbEntity
  8
DIBUJOS
100
AcDbBlockReference
  2
BLOCK_2
 10
0.0
 20
0.0
 30
0.0
  0
INSERT
  5
16A
330
1F
100
AcDbEntity
  8
DIBUJOS
100
AcDbBlockReference
  2
BLOCK_3
 10
0.0
 20
0.0
 30
0.0
  0
INSERT
  5
280
330
1F
100
AcDbEntity
  8
DIBUJOS
100
AcDbBlockReference
  2
BLOCK_4
 10
0.0
 20
0.0
 30
0.0
  0
INSERT
  5
41E
330
1F
100
AcDbEntity
  8
DIBUJOS
100
AcDbBlockReference
  2
BLOCK_5
 10
0.0
 20
0.0
 30
0.0
  0
POLYLINE
  5
574
330
1F
100
AcDbEntity
  8
DIBUJOS
 62
     7
100
AcDb2dPolyline
 66
     1
 10
0.0
 20
0.0
 30
0.0
  0
VERTEX
  5
575
330
574
100
AcDbEntity
  8
DIBUJOS
 62
     7
100
AcDbVertex
100
AcDb2dVertex
 10
65.5383677440366
 20
26.17267287472792
 30
0.0
  0
VERTEX
  5
576
330
574
100
AcDbEntity
  8
DIBUJOS
 62
     7
100
AcDbVertex
100
AcDb2dVertex
 10
65.57773068263585
 20
26.18072605019421
 30
0.0
  0
VERTEX
  5
577
330
574
100
AcDbEntity
  8
DIBUJOS
 62
     7
100
AcDbVertex
100
AcDb2dVertex
 10
65.63422121648296
 20
26.19649351287853
 30
0.0
  0
VERTEX
  5
578
330
574
100
AcDbEntity
  8
DIBUJOS
 62
     7
100
AcDbVertex
100
AcDb2dVertex
 10
65.64102645887324
 20
26.19989689733585
 30
0.0
  0
VERTEX
  5
579
330
574
100
AcDbEntity
  8
DIBUJOS
 62
     7
100
AcDbVertex
100
AcDb2dVertex
 10
65.68696871436327
 20
26.24583762630216
 30
0.0
  0
VERTEX
  5
57A
330
574
100
AcDbEntity
  8
DIBUJOS
 62
     7
100
AcDbVertex
100
AcDb2dVertex
 10
65.690369809035
 20
26.2526436319543
 30
0.0
  0
VERTEX
  5
57B
330
574
100
AcDbEntity
  8
DIBUJOS
 62
     7
100
AcDbVertex
100
AcDb2dVertex
 10
65.7141927369712
 20
26.35416661320183
 30
0.0
  0
VERTEX
  5
57C
330
574
100
AcDbEntity
  8
DIBUJOS
 62
     7
100
AcDbVertex
100
AcDb2dVertex
 10
65.71090155200143
 20
34.02262682846771
 30
0.0
  0
VERTEX
  5
57D
330
574
100
AcDbEntity
  8
DIBUJOS
 62
     7
100
AcDbVertex
100
AcDb2dVertex
 10
65.70613879824305
 20
34.05597679044632
 30
0.0
  0
VERTEX
  5
57E
330
574
100
AcDbEntity
  8
DIBUJOS
 62
     7
100
AcDbVertex
100
AcDb2dVertex
 10
65.68583298077513
 20
34.12437726173781
 30
0.0
  0
VERTEX
  5
57F
330
574
100
AcDbEntity
  8
DIBUJOS
 62
     7
100
AcDbVertex
100
AcDb2dVertex
 10
65.64613115392733
 20
34.1640790885853
 30
0.0
  0
VERTEX
  5
580
330
574
100
AcDbEntity
  8
DIBUJOS
 62
     7
100
AcDbVertex
100
AcDb2dVertex
 10
65.62854865463368
 20
34.16861591684548
 30
0.0
  0
VERTEX
  5
581
330
574
100
AcDbEntity
  8
DIBUJOS
 62
     7
100
AcDbVertex
100
AcDb2dVertex
 10
65.62401182637349
 20
34.17088585749866
 30
0.0
  0
VERTEX
  5
582
330
574
100
AcDbEntity
  8
DIBUJOS
 62
     7
100
AcDbVertex
100
AcDb2dVertex
 10
65.51001104088704
 20
34.19243731825795
 30
0.0
  0
VERTEX
  5
583
330
574
100
AcDbEntity
  8
DIBUJOS
 62
     7
100
AcDbVertex
100
AcDb2dVertex
 10
57.93263772799981
 20
34.19243731825795
 30
0.0
  0
VERTEX
  5
584
330
574
100
AcDbEntity
  8
DIBUJOS
 62
     7
100
AcDbVertex
100
AcDb2dVertex
 10
57.81976962305436
 20
34.16861591684548
 30
0.0
  0
VERTEX
  5
585
330
574
100
AcDbEntity
  8
DIBUJOS
 62
     7
100
AcDbVertex
100
AcDb2dVertex
 10
57.80332285734948
 20
34.1618106744552
 30
0.0
  0
VERTEX
  5
586
330
574
100
AcDbEntity
  8
DIBUJOS
 62
     7
100
AcDbVertex
100
AcDb2dVertex
 10
57.77950298246074
 20
34.14706445608555
 30
0.0
  0
VERTEX
  5
587
330
574
100
AcDbEntity
  8
DIBUJOS
 62
     7
100
AcDbVertex
100
AcDb2dVertex
 10
57.76384695600115
 20
34.12335601742186
 30
0.0
  0
VERTEX
  5
588
330
574
100
AcDbEntity
  8
DIBUJOS
 62
     7
100
AcDbVertex
100
AcDb2dVertex
 10
57.7528437735999
 20
34.0954511652706
 30
0.0
  0
VERTEX
  5
589
330
574
100
AcDbEntity
  8
DIBUJOS
 62
     7
100
AcDbVertex
100
AcDb2dVertex
 10
57.74944267892752
 20
34.08524330168551
 30
0.0
  0
VERTEX
  5
58A
330
574
100
AcDbEntity
  8
DIBUJOS
 62
     7
100
AcDbVertex
100
AcDb2dVertex
 10
57.73412859376429
 20
34.00527178119662
 30
0.0
  0
VERTEX
  5
58B
330
574
100
AcDbEntity
  8
DIBUJOS
 62
     7
100
AcDbVertex
100
AcDb2dVertex
 10
57.73412859376429
 20
26.35416661320183
 30
0.0
  0
VERTEX
  5
58C
330
574
100
AcDbEntity
  8
DIBUJOS
 62
     7
100
AcDbVertex
100
AcDb2dVertex
 10
57.7585163354479
 20
26.2526436319543
 30
0.0
  0
VERTEX
  5
58D
330
574
100
AcDbEntity
  8
DIBUJOS
 62
     7
100
AcDbVertex
100
AcDb2dVertex
 10
57.78517249126192
 20
26.21237470157477
 30
0.0
  0
VERTEX
  5
58E
330
574
100
AcDbEntity
  8
DIBUJOS
 62
     7
100
AcDbVertex
100
AcDb2dVertex
 10
57.84232553636892
 20
26.18619711092236
 30
0.0
  0
VERTEX
  5
58F
330
574
100
AcDbEntity
  8
DIBUJOS
 62
     7
100
AcDbVertex
100
AcDb2dVertex
 10
57.86413955919426
 20
26.18183430635749
 30
0.0
  0
VERTEX
  5
590
330
574
100
AcDbEntity
  8
DIBUJOS
 62
     7
100
AcDbVertex
100
AcDb2dVertex
 10
57.90428102484992
 20
26.17550610260446
 30
0.0
  0
VERTEX
  5
591
330
574
100
AcDbEntity
  8
DIBUJOS
 62
     7
100
AcDbVertex
100
AcDb2dVertex
 10
65.5383677440366
 20
26.17267287472792
 30
0.0
  0
SEQEND
  5
592
330
574
100
AcDbEntity
  8
DIBUJOS
 62
     7
  0
INSERT
  5
594
330
1F
100
AcDbEntity
  8
DIBUJOS
100
AcDbBlockReference
  2
BLOCK_6
 10
0.0
 20
0.0
 30
0.0
  0
POLYLINE
  5
67A
330
1F
100
AcDbEntity
  8
DIBUJOS
 62
     7
100
AcDb2dPolyline
 66
     1
 10
0.0
 20
0.0
 30
0.0
  0
VERTEX
  5
67B
330
67A
100
AcDbEntity
  8
DIBUJOS
 62
     7
100
AcDbVertex
100
AcDb2dVertex
 10
49.8538767786515
 20
25.73028098082325
 30
0.0
  0
VERTEX
  5
67C
330
67A
100
AcDbEntity
  8
DIBUJOS
 62
     7
100
AcDbVertex
100
AcDb2dVertex
 10
49.89323971725042
 20
25.7383349195514
 30
0.0
  0
VERTEX
  5
67D
330
67A
100
AcDbEntity
  8
DIBUJOS
 62
     7
100
AcDbVertex
100
AcDb2dVertex
 10
49.94916238430331
 20
25.75523658930108
 30
0.0
  0
VERTEX
  5
67E
330
67A
100
AcDbEntity
  8
DIBUJOS
 62
     7
100
AcDbVertex
100
AcDb2dVertex
 10
49.96251183354122
 20
25.76300201506142
 30
0.0
  0
VERTEX
  5
67F
330
67A
100
AcDbEntity
  8
DIBUJOS
 62
     7
100
AcDbVertex
100
AcDb2dVertex
 10
49.99680366060516
 20
25.79777393381071
 30
0.0
  0
VERTEX
  5
680
330
67A
100
AcDbEntity
  8
DIBUJOS
 62
     7
100
AcDbVertex
100
AcDb2dVertex
 10
50.00020628180062
 20
25.80457993946285
 30
0.0
  0
VERTEX
  5
681
330
67A
100
AcDbEntity
  8
DIBUJOS
 62
     7
100
AcDbVertex
100
AcDb2dVertex
 10
50.02065559249154
 20
25.88303333219072
 30
0.0
  0
VERTEX
  5
682
330
67A
100
AcDbEntity
  8
DIBUJOS
 62
     7
100
AcDbVertex
100
AcDb2dVertex
 10
50.02663040602058
 20
25.95694837013467
 30
0.0
  0
VERTEX
  5
683
330
67A
100
AcDbEntity
  8
DIBUJOS
 62
     7
100
AcDbVertex
100
AcDb2dVertex
 10
50.02402768321341
 20
26.32013658494176
 30
0.0
  0
VERTEX
  5
684
330
67A
100
AcDbEntity
  8
DIBUJOS
 62
     7
100
AcDbVertex
100
AcDb2dVertex
 10
50.02970024506237
 20
26.56401934461155
 30
0.0
  0
VERTEX
  5
685
330
67A
100
AcDbEntity
  8
DIBUJOS
 62
     7
100
AcDbVertex
100
AcDb2dVertex
 10
50.02660903469
 20
34.40817632482597
 30
0.0
  0
VERTEX
  5
686
330
67A
100
AcDbEntity
  8
DIBUJOS
 62
     7
100
AcDbVertex
100
AcDb2dVertex
 10
50.01468688505613
 20
34.51055263278841
 30
0.0
  0
VERTEX
  5
687
330
67A
100
AcDbEntity
  8
DIBUJOS
 62
     7
100
AcDbVertex
100
AcDb2dVertex
 10
49.99566945354044
 20
34.56676839238062
 30
0.0
  0
VERTEX
  5
688
330
67A
100
AcDbEntity
  8
DIBUJOS
 62
     7
100
AcDbVertex
100
AcDb2dVertex
 10
49.95540128642277
 20
34.59966497683719
 30
0.0
  0
VERTEX
  5
689
330
67A
100
AcDbEntity
  8
DIBUJOS
 62
     7
100
AcDbVertex
100
AcDb2dVertex
 10
49.95086293163885
 20
34.60193339096728
 30
0.0
  0
VERTEX
  5
68A
330
67A
100
AcDbEntity
  8
DIBUJOS
 62
     7
100
AcDbVertex
100
AcDb2dVertex
 10
49.88756715540146
 20
34.62110347484706
 30
0.0
  0
VERTEX
  5
68B
330
67A
100
AcDbEntity
  8
DIBUJOS
 62
     7
100
AcDbVertex
100
AcDb2dVertex
 10
49.85421719342349
 20
34.62586775512981
 30
0.0
  0
VERTEX
  5
68C
330
67A
100
AcDbEntity
  8
DIBUJOS
 62
     7
100
AcDbVertex
100
AcDb2dVertex
 10
41.32933218328375
 20
34.62915741357521
 30
0.0
  0
VERTEX
  5
68D
330
67A
100
AcDbEntity
  8
DIBUJOS
 62
     7
100
AcDbVertex
100
AcDb2dVertex
 10
41.2266742317093
 20
34.60193339096728
 30
0.0
  0
VERTEX
  5
68E
330
67A
100
AcDbEntity
  8
DIBUJOS
 62
     7
100
AcDbVertex
100
AcDb2dVertex
 10
41.20455490415547
 20
34.58945558672836
 30
0.0
  0
VERTEX
  5
68F
330
67A
100
AcDbEntity
  8
DIBUJOS
 62
     7
100
AcDbVertex
100
AcDb2dVertex
 10
41.18073426600454
 20
34.55599266200097
 30
0.0
  0
VERTEX
  5
690
330
67A
100
AcDbEntity
  8
DIBUJOS
 62
     7
100
AcDbVertex
100
AcDb2dVertex
 10
41.16267167502618
 20
34.48780132444732
 30
0.0
  0
VERTEX
  5
691
330
67A
100
AcDbEntity
  8
DIBUJOS
 62
     7
100
AcDbVertex
100
AcDb2dVertex
 10
41.15351024339629
 20
34.43064827934032
 30
0.0
  0
VERTEX
  5
692
330
67A
100
AcDbEntity
  8
DIBUJOS
 62
     7
100
AcDbVertex
100
AcDb2dVertex
 10
41.15351024339629
 20
25.92879011505813
 30
0.0
  0
VERTEX
  5
693
330
67A
100
AcDbEntity
  8
DIBUJOS
 62
     7
100
AcDbVertex
100
AcDb2dVertex
 10
41.16685511306334
 20
25.84988716111882
 30
0.0
  0
VERTEX
  5
694
330
67A
100
AcDbEntity
  8
DIBUJOS
 62
     7
100
AcDbVertex
100
AcDb2dVertex
 10
41.16852284014067
 20
25.84321396302327
 30
0.0
  0
VERTEX
  5
695
330
67A
100
AcDbEntity
  8
DIBUJOS
 62
     7
100
AcDbVertex
100
AcDb2dVertex
 10
41.18317670382994
 20
25.79921344560425
 30
0.0
  0
VERTEX
  5
696
330
67A
100
AcDbEntity
  8
DIBUJOS
 62
     7
100
AcDbVertex
100
AcDb2dVertex
 10
41.19190307622156
 20
25.78612503190898
 30
0.0
  0
VERTEX
  5
697
330
67A
100
AcDbEntity
  8
DIBUJOS
 62
     7
100
AcDbVertex
100
AcDb2dVertex
 10
41.20935429448203
 20
25.76867381364884
 30
0.0
  0
VERTEX
  5
698
330
67A
100
AcDbEntity
  8
DIBUJOS
 62
     7
100
AcDbVertex
100
AcDb2dVertex
 10
41.2224427081773
 20
25.75994820451844
 30
0.0
  0
VERTEX
  5
699
330
67A
100
AcDbEntity
  8
DIBUJOS
 62
     7
100
AcDbVertex
100
AcDb2dVertex
 10
41.26744386184291
 20
25.74362585049062
 30
0.0
  0
VERTEX
  5
69A
330
67A
100
AcDbEntity
  8
DIBUJOS
 62
     7
100
AcDbVertex
100
AcDb2dVertex
 10
41.28345785809542
 20
25.73962254224239
 30
0.0
  0
VERTEX
  5
69B
330
67A
100
AcDbEntity
  8
DIBUJOS
 62
     7
100
AcDbVertex
100
AcDb2dVertex
 10
41.32933370980748
 20
25.73311497196229
 30
0.0
  0
VERTEX
  5
69C
330
67A
100
AcDbEntity
  8
DIBUJOS
 62
     7
100
AcDbVertex
100
AcDb2dVertex
 10
49.8538767786515
 20
25.73028098082325
 30
0.0
  0
SEQEND
  5
69D
330
67A
100
AcDbEntity
  8
DIBUJOS
 62
     7
  0
INSERT
  5
69F
330
1F
100
AcDbEntity
  8
DIBUJOS
100
AcDbBlockReference
  2
BLOCK_7
 10
0.0
 20
0.0
 30
0.0
  0
POLYLINE
  5
792
330
1F
100
AcDbEntity
  8
COTAS_LINEA
 62
     7
100
AcDb2dPolyline
 66
     1
 10
0.0
 20
0.0
 30
0.0
  0
VERTEX
  5
793
330
792
100
AcDbEntity
  8
COTAS_LINEA
 62
     7
100
AcDbVertex
100
AcDb2dVertex
 10
41.74537038399026
 20
37.95564020093261
 30
0.0
  0
VERTEX
  5
794
330
792
100
AcDbEntity
  8
COTAS_LINEA
 62
     7
100
AcDbVertex
100
AcDb2dVertex
 10
48.85716023764855
 20
37.95564020093261
 30
0.0
  0
SEQEND
  5
795
330
792
100
AcDbEntity
  8
COTAS_LINEA
 62
     7
  0
POLYLINE
  5
796
330
1F
100
AcDbEntity
  8
COTAS_LINEA
 62
     7
100
AcDb2dPolyline
 66
     1
 10
0.0
 20
0.0
 30
0.0
  0
VERTEX
  5
797
330
796
100
AcDbEntity
  8
COTAS_LINEA
 62
     7
100
AcDbVertex
100
AcDb2dVertex
 10
51.23405176339828
 20
48.89593770979057
 30
0.0
  0
VERTEX
  5
798
330
796
100
AcDbEntity
  8
COTAS_LINEA
 62
     7
100
AcDbVertex
100
AcDb2dVertex
 10
51.23405176435313
 20
41.62587340130483
 30
0.0
  0
SEQEND
  5
799
330
796
100
AcDbEntity
  8
COTAS_LINEA
 62
     7
  0
POLYLINE
  5
79A
330
1F
100
AcDbEntity
  8
COTAS_LINEA
 62
     7
100
AcDb2dPolyline
 66
     1
 10
0.0
 20
0.0
 30
0.0
  0
VERTEX
  5
79B
330
79A
100
AcDbEntity
  8
COTAS_LINEA
 62
     7
100
AcDbVertex
100
AcDb2dVertex
 10
58.32592593540068
 20
37.95564020093261
 30
0.0
  0
VERTEX
  5
79C
330
79A
100
AcDbEntity
  8
COTAS_LINEA
 62
     7
100
AcDbVertex
100
AcDb2dVertex
 10
65.43771578905897
 20
37.95564020093261
 30
0.0
  0
SEQEND
  5
79D
330
79A
100
AcDbEntity
  8
COTAS_LINEA
 62
     7
  0
POLYLINE
  5
79E
330
1F
100
AcDbEntity
  8
COTAS_LINEA
 62
     7
100
AcDb2dPolyline
 66
     1
 10
0.0
 20
0.0
 30
0.0
  0
VERTEX
  5
79F
330
79E
100
AcDbEntity
  8
COTAS_LINEA
 62
     7
100
AcDbVertex
100
AcDb2dVertex
 10
67.46182953711912
 20
48.89593770979057
 30
0.0
  0
VERTEX
  5
7A0
330
79E
100
AcDbEntity
  8
COTAS_LINEA
 62
     7
100
AcDbVertex
100
AcDb2dVertex
 10
67.46182953807396
 20
41.62587340130483
 30
0.0
  0
SEQEND
  5
7A1
330
79E
100
AcDbEntity
  8
COTAS_LINEA
 62
     7
  0
POLYLINE
  5
7A2
330
1F
100
AcDbEntity
  8
COTAS_LINEA
 62
     7
100
AcDb2dPolyline
 66
     1
 10
0.0
 20
0.0
 30
0.0
  0
VERTEX
  5
7A3
330
7A2
100
AcDbEntity
  8
COTAS_LINEA
 62
     7
100
AcDbVertex
100
AcDb2dVertex
 10
74.20092593143193
 20
37.95564020093261
 30
0.0
  0
VERTEX
  5
7A4
330
7A2
100
AcDbEntity
  8
COTAS_LINEA
 62
     7
100
AcDbVertex
100
AcDb2dVertex
 10
81.31271578509053
 20
37.95564020093261
 30
0.0
  0
SEQEND
  5
7A5
330
7A2
100
AcDbEntity
  8
COTAS_LINEA
 62
     7
  0
POLYLINE
  5
7A6
330
1F
100
AcDbEntity
  8
COTAS_LINEA
 62
     7
100
AcDb2dPolyline
 66
     1
 10
0.0
 20
0.0
 30
0.0
  0
VERTEX
  5
7A7
330
7A6
100
AcDbEntity
  8
COTAS_LINEA
 62
     7
100
AcDbVertex
100
AcDb2dVertex
 10
83.68960731083995
 20
48.89593770979057
 30
0.0
  0
VERTEX
  5
7A8
330
7A6
100
AcDbEntity
  8
COTAS_LINEA
 62
     7
100
AcDbVertex
100
AcDb2dVertex
 10
83.68960731179479
 20
41.62587340130483
 30
0.0
  0
SEQEND
  5
7A9
330
7A6
100
AcDbEntity
  8
COTAS_LINEA
 62
     7
  0
POLYLINE
  5
7AA
330
1F
100
AcDbEntity
  8
COTAS_LINEA
 62
     7
100
AcDb2dPolyline
 66
     1
 10
0.0
 20
0.0
 30
0.0
  0
VERTEX
  5
7AB
330
7AA
100
AcDbEntity
  8
COTAS_LINEA
 62
     7
100
AcDbVertex
100
AcDb2dVertex
 10
90.78148148284234
 20
37.95564020093261
 30
0.0
  0
VERTEX
  5
7AC
330
7AA
100
AcDbEntity
  8
COTAS_LINEA
 62
     7
100
AcDbVertex
100
AcDb2dVertex
 10
97.89327133650096
 20
37.95564020093261
 30
0.0
  0
SEQEND
  5
7AD
330
7AA
100
AcDbEntity
  8
COTAS_LINEA
 62
     7
  0
POLYLINE
  5
7AE
330
1F
100
AcDbEntity
  8
COTAS_LINEA
 62
     7
100
AcDb2dPolyline
 66
     1
 10
0.0
 20
0.0
 30
0.0
  0
VERTEX
  5
7AF
330
7AE
100
AcDbEntity
  8
COTAS_LINEA
 62
     7
100
AcDbVertex
100
AcDb2dVertex
 10
99.91738508456078
 20
48.89593770979057
 30
0.0
  0
VERTEX
  5
7B0
330
7AE
100
AcDbEntity
  8
COTAS_LINEA
 62
     7
100
AcDbVertex
100
AcDb2dVertex
 10
99.91738508551563
 20
41.62587340130483
 30
0.0
  0
SEQEND
  5
7B1
330
7AE
100
AcDbEntity
  8
COTAS_LINEA
 62
     7
  0
MTEXT
  5
7B3
330
1F
100
AcDbEntity
  8
COTAS_N_U_00DAMERO
 62
     7
100
AcDbMText
 10
43.79563639923447
 20
38.51061230862322
 30
0.0
 40
1.998533025814148
 41
0.0
 71
     7
 72
     1
  1
\fMyriad Pro|b0|i0|c0|p34;\W1;90
  0
MTEXT
  5
7B4
330
1F
100
AcDbEntity
  8
COTAS_N_U_00DAMERO
 62
     7
100
AcDbMText
 10
51.65658799045635
 20
44.54315214103164
 30
0.0
 40
1.998533025814148
 41
0.0
 71
     7
 72
     1
  1
\fMyriad Pro|b0|i0|c0|p34;\W1;75
  0
MTEXT
  5
7B5
330
1F
100
AcDbEntity
  8
COTAS_N_U_00DAMERO
 62
     7
100
AcDbMText
 10
60.37619195064489
 20
38.51061230862322
 30
0.0
 40
1.998533025814148
 41
0.0
 71
     7
 72
     1
  1
\fMyriad Pro|b0|i0|c0|p34;\W1;80
  0
MTEXT
  5
7B6
330
1F
100
AcDbEntity
  8
COTAS_N_U_00DAMERO
 62
     7
100
AcDbMText
 10
67.88436845565803
 20
44.54315214103164
 30
0.0
 40
1.998533025814148
 41
0.0
 71
     7
 72
     1
  1
\fMyriad Pro|b0|i0|c0|p34;\W1;75
  0
MTEXT
  5
7B7
330
1F
100
AcDbEntity
  8
COTAS_N_U_00DAMERO
 62
     7
100
AcDbMText
 10
76.25119194667614
 20
38.51061230862322
 30
0.0
 40
1.998533025814148
 41
0.0
 71
     7
 72
     1
  1
\fMyriad Pro|b0|i0|c0|p34;\W1;90
  0
MTEXT
  5
7B8
330
1F
100
AcDbEntity
  8
COTAS_N_U_00DAMERO
 62
     7
100
AcDbMText
 10
84.11214622937887
 20
44.54315214103164
 30
0.0
 40
1.998533025814148
 41
0.0
 71
     7
 72
     1
  1
\fMyriad Pro|b0|i0|c0|p34;\W1;75
  0
MTEXT
  5
7B9
330
1F
100
AcDbEntity
  8
COTAS_N_U_00DAMERO
 62
     7
100
AcDbMText
 10
92.83174749808656
 20
38.51061230862322
 30
0.0
 40
1.998533025814148
 41
0.0
 71
     7
 72
     1
  1
\fMyriad Pro|b0|i0|c0|p34;\W1;80
  0
MTEXT
  5
7BA
330
1F
100
AcDbEntity
  8
COTAS_N_U_00DAMERO
 62
     7
100
AcDbMText
 10
100.3399240030997
 20
44.54315214103164
 30
0.0
 40
1.998533025814148
 41
0.0
 71
     7
 72
     1
  1
\fMyriad Pro|b0|i0|c0|p34;\W1;75
  0
ENDSEC
  0
SECTION
  2
OBJECTS
  0
DICTIONARY
  5
C
330
0
100
AcDbDictionary
  3
ACAD_GROUP
350
D
  3
ACAD_LAYOUT
350
1A
  3
ACAD_MATERIAL
350
3B
  3
ACAD_MLEADERSTYLE
350
7DD
  3
ACAD_MLINESTYLE
350
17
  3
ACAD_PLOTSETTINGS
350
19
  3
ACAD_VISUALSTYLE
350
2A
  3
ACDBHEADERROUNDTRIPXREC
350
7BB
  3
ACDBVARIABLEDICTIONARY
350
7DB
  0
DICTIONARY
  5
D
102
{ACAD_REACTORS
330
C
102
}
330
C
100
AcDbDictionary
  0
DICTIONARY
  5
1A
102
{ACAD_REACTORS
330
C
102
}
330
C
100
AcDbDictionary
  0
DICTIONARY
  5
3B
102
{ACAD_REACTORS
330
C
102
}
330
C
100
AcDbDictionary
  3
BYBLOCK
350
3D
  3
BYLAYER
350
3C
  3
GLOBAL
350
3E
  0
DICTIONARY
  5
7DD
102
{ACAD_REACTORS
330
C
102
}
330
C
100
AcDbDictionary
  0
DICTIONARY
  5
17
102
{ACAD_REACTORS
330
C
102
}
330
C
100
AcDbDictionary
  3
STANDARD
350
18
  0
DICTIONARY
  5
19
102
{ACAD_REACTORS
330
C
102
}
330
C
100
AcDbDictionary
  0
DICTIONARY
  5
2A
102
{ACAD_REACTORS
330
C
102
}
330
C
100
AcDbDictionary
  3
2DWIREFRAME
350
2F
  3
3D_HIDDEN
350
31
  3
3DWIREFRAME
350
30
  3
BASIC
350
32
  3
BRIGHTEN
350
36
  3
COLORCHANGE
350
3A
  3
CONCEPTUAL
350
34
  3
DIM
350
35
  3
FACEPATTERN
350
39
  3
FLAT
350
2B
  3
FLATWITHEDGES
350
2C
  3
GOURAUD
350
2D
  3
GOURAUDWITHEDGES
350
2E
  3
LINEPATTERN
350
38
  3
REALISTIC
350
33
  3
THICKEN
350
37
  0
DICTIONARY
  5
7BB
102
{ACAD_REACTORS
330
C
102
}
330
C
100
AcDbDictionary
  3
CEPSNTYPE
350
7C4
  3
DIMSTYLEDATA
350
7DA
  3
FINGERPRINTGUID
350
7C5
  3
HYPERLINKBASE
350
7BE
  3
INSUNITS
350
7C3
  3
LAYOUTDICT
350
7C0
  3
LWETCUNION
350
7C2
  3
PLOTSETDICT
350
7C1
  3
PSVPSCALE
350
7C7
  3
PUCSBASE
350
7CA
  3
PUCSORGBACK
350
7D0
  3
PUCSORGBOTTOM
350
7CC
  3
PUCSORGFRONT
350
7CF
  3
PUCSORGLEFT
350
7CD
  3
PUCSORGRIGHT
350
7CE
  3
PUCSORGTOP
350
7CB
  3
PUCSORTHOREF
350
7C8
  3
PUCSORTHOVIEW
350
7C9
  3
STYLESHEET
350
7BF
  3
TSTACKALIGN
350
7BC
  3
TSTACKSIZE
350
7BD
  3
UCSBASE
350
7D3
  3
UCSORGBACK
350
7D9
  3
UCSORGBOTTOM
350
7D5
  3
UCSORGFRONT
350
7D8
  3
UCSORGLEFT
350
7D6
  3
UCSORGRIGHT
350
7D7
  3
UCSORGTOP
350
7D4
  3
UCSORTHOREF
350
7D1
  3
UCSORTHOVIEW
350
7D2
  3
VERSIONGUID
350
7C6
  0
DICTIONARY
  5
7DB
102
{ACAD_REACTORS
330
C
102
}
330
C
100
AcDbDictionary
  3
DIMASSOC
350
7DE
  3
HIDETEXT
350
7DF
  0
MATERIAL
  5
3D
102
{ACAD_REACTORS
330
3B
102
}
102
{ACAD_XDICTIONARY
360
7E2
102
}
330
3B
100
AcDbMaterial
  1
ByBlock
  0
MATERIAL
  5
3C
102
{ACAD_REACTORS
330
3B
102
}
102
{ACAD_XDICTIONARY
360
7E0
102
}
330
3B
100
AcDbMaterial
  1
ByLayer
  0
MATERIAL
  5
3E
102
{ACAD_REACTORS
330
3B
102
}
102
{ACAD_XDICTIONARY
360
7E4
102
}
330
3B
100
AcDbMaterial
  1
Global
  0
MLINESTYLE
  5
18
102
{ACAD_REACTORS
330
17
102
}
330
17
100
AcDbMlineStyle
  2
Standard
 70
     0
  3

 62
   256
 51
90.0
 52
90.0
 71
     2
 49
0.5
 62
   256
  6
BYLAYER
 49
-0.5
 62
   256
  6
BYLAYER
  0
ACAD_PROXY_OBJECT
  5
2F
102
{ACAD_REACTORS
330
2A
102
}
330
2A
100
AcDbProxyObject
 90
      499
 91
      501
 93
      436
310
42CC9915DA5C99599C985B595049028333333333333E3BF0000000000000FB0107901411070040501600405405064090741402480A0340
1001
ACAD
1000
AcDbSavedByObjectVersion
1070
     0
  0
ACAD_PROXY_OBJECT
  5
31
102
{ACAD_REACTORS
330
2A
102
}
330
2A
100
AcDbProxyObject
 90
      499
 91
      501
 93
      500
310
424CD108121A5919195B90640502408333333333333E3BF0000000000000FB01079024090700405020000000000001110200405405064090740C02480A0340
1001
ACAD
1000
AcDbSavedByObjectVersion
1070
     0
  0
ACAD_PROXY_OBJECT
  5
30
102
{ACAD_REACTORS
330
2A
102
}
330
2A
100
AcDbProxyObject
 90
      499
 91
      501
 93
      436
310
42CCD915DA5C99599C985B595059028333333333333E3BF0000000000000FB0107901411070040501600405405064090741402480A0340
1001
ACAD
1000
AcDbSavedByObjectVersion
1070
     0
  0
ACAD_PROXY_OBJECT
  5
32
102
{ACAD_REACTORS
330
2A
102
}
330
2A
100
AcDbProxyObject
 90
      499
 91
      501
 93
      388
310
4150985CDA58D07406404333333333333E3BF0000000000000FB0107A41107004050150841D405064090741402480A0350
1001
ACAD
1000
AcDbSavedByObjectVersion
1070
     0
  0
ACAD_PROXY_OBJECT
  5
36
102
{ACAD_REACTORS
330
2A
102
}
330
2A
100
AcDbProxyObject
 90
      499
 91
      501
 93
      428
310
42109C9A59DA1D195B90C409028333333333333E3BF0000000000000FB010790141107004050150841D405064090741402480A029950
1001
ACAD
1000
AcDbSavedByObjectVersion
1070
     0
  0
ACAD_PROXY_OBJECT
  5
3A
102
{ACAD_REACTORS
330
2A
102
}
330
2A
100
AcDbProxyObject
 90
      499
 91
      501
 93
      452
310
42D0DBDB1BDC90DA185B99D95104090240C333333333333E3BF0000000000000FB0108901411070040501508421405064090741402480A0350
1001
ACAD
1000
AcDbSavedByObjectVersion
1070
     0
  0
ACAD_PROXY_OBJECT
  5
34
102
{ACAD_REACTORS
330
2A
102
}
330
2A
100
AcDbProxyObject
 90
      499
 91
      501
 93
      500
310
4290DBDB98D95C1D1D585B10940D028333333333333E3BF0000000000000FB0107902409070040501000000000000111010841D405064090740C02480A0340
1001
ACAD
1000
AcDbSavedByObjectVersion
1070
     0
  0
ACAD_PROXY_OBJECT
  5
35
102
{ACAD_REACTORS
330
2A
102
}
330
2A
100
AcDbProxyObject
 90
      499
 91
      501
 93
      412
310
40D11A5B50B409028333333333333E3BF0000000000000FB010790141107004050150841D405064090741402480A02677FFFFFD0
1001
ACAD
1000
AcDbSavedByObjectVersion
1070
     0
  0
ACAD_PROXY_OBJECT
  5
39
102
{ACAD_REACTORS
330
2A
102
}
330
2A
100
AcDbProxyObject
 90
      499
 91
      501
 93
      444
310
42D19858D95C185D1D195C9B90F409028333333333333E3BF0000000000000FB010790141107004050150841D405064090741402480A0350
1001
ACAD
1000
AcDbSavedByObjectVersion
1070
     0
  0
ACAD_PROXY_OBJECT
  5
2B
102
{ACAD_REACTORS
330
2A
102
}
330
2A
100
AcDbProxyObject
 90
      499
 91
      501
 93
      388
310
41119B185D240901404333333333333E3BF0000000000000F9010740A41107004050150841D405064090741402480A1B50
1001
ACAD
1000
AcDbSavedByObjectVersion
1070
     0
  0
ACAD_PROXY_OBJECT
  5
2C
102
{ACAD_REACTORS
330
2A
102
}
330
2A
100
AcDbProxyObject
 90
      499
 91
      501
 93
      476
310
43519B185D15DA5D1A115919D95CD0140901404333333333333E3BF0000000000000F9010740901411070040501600405405064090741402480A1B50
1001
ACAD
1000
AcDbSavedByObjectVersion
1070
     0
  0
ACAD_PROXY_OBJECT
  5
2D
102
{ACAD_REACTORS
330
2A
102
}
330
2A
100
AcDbProxyObject
 90
      499
 91
      501
 93
      412
310
41D1DBDD5C985D5910240902404333333333333E3BF0000000000000F9010740A411070040501641D405064090741402480A1B50
1001
ACAD
1000
AcDbSavedByObjectVersion
1070
     0
  0
ACAD_PROXY_OBJECT
  5
2E
102
{ACAD_REACTORS
330
2A
102
}
330
2A
100
AcDbProxyObject
 90
      499
 91
      501
 93
      500
310
4411DBDD5C985D5915DA5D1A115919D95CD0340902404333333333333E3BF0000000000000F9010740901411070040501600405405064090741402480A1B50
1001
ACAD
1000
AcDbSavedByObjectVersion
1070
     0
  0
ACAD_PROXY_OBJECT
  5
38
102
{ACAD_REACTORS
330
2A
102
}
330
2A
100
AcDbProxyObject
 90
      499
 91
      501
 93
      444
310
42D31A5B995C185D1D195C9B90E409028333333333333E3BF0000000000000FB010790141107004050750841D405064090741402483A0350
1001
ACAD
1000
AcDbSavedByObjectVersion
1070
     0
  0
ACAD_PROXY_OBJECT
  5
33
102
{ACAD_REACTORS
330
2A
102
}
330
2A
100
AcDbProxyObject
 90
      499
 91
      501
 93
      420
310
425499585B1A5CDD1A58D08409028333333333333E3BF0000000000000FB01079019070040501508421405064090741402480A1B40
1001
ACAD
1000
AcDbSavedByObjectVersion
1070
     0
  0
ACAD_PROXY_OBJECT
  5
37
102
{ACAD_REACTORS
330
2A
102
}
330
2A
100
AcDbProxyObject
 90
      499
 91
      501
 93
      412
310
41D51A1A58DAD95B90D409028333333333333E3BF0000000000000FB010790141107004050150C41D405064090741402480A0350
1001
ACAD
1000
AcDbSavedByObjectVersion
1070
     0
  0
XRECORD
  5
7C4
102
{ACAD_REACTORS
330
7BB
102
}
330
7BB
100
AcDbXrecord
 90
        0
  0
XRECORD
  5
7DA
102
{ACAD_REACTORS
330
7BB
102
}
330
7BB
100
AcDbXrecord
1000
DSTYLE
1002
{
1070
   340
340
11
1002
}
  0
XRECORD
  5
7C5
102
{ACAD_REACTORS
330
7BB
102
}
330
7BB
100
AcDbXrecord
  1
{0EAD58AF-EB3C-44EB-81A7-230AD9EA0566}
  0
XRECORD
  5
7BE
102
{ACAD_REACTORS
330
7BB
102
}
330
7BB
100
AcDbXrecord
  1

  0
XRECORD
  5
7C3
102
{ACAD_REACTORS
330
7BB
102
}
330
7BB
100
AcDbXrecord
 90
        1
  0
XRECORD
  5
7C0
102
{ACAD_REACTORS
330
7BB
102
}
330
7BB
100
AcDbXrecord
340
1A
  0
XRECORD
  5
7C2
102
{ACAD_REACTORS
330
7BB
102
}
330
7BB
100
AcDbXrecord
 90
    10269
  0
XRECORD
  5
7C1
102
{ACAD_REACTORS
330
7BB
102
}
330
7BB
100
AcDbXrecord
340
19
  0
XRECORD
  5
7C7
102
{ACAD_REACTORS
330
7BB
102
}
330
7BB
100
AcDbXrecord
 40
0.0
  0
XRECORD
  5
7CA
102
{ACAD_REACTORS
330
7BB
102
}
330
7BB
100
AcDbXrecord
340
0
  0
XRECORD
  5
7D0
102
{ACAD_REACTORS
330
7BB
102
}
330
7BB
100
AcDbXrecord
 10
0.0
 20
0.0
 30
0.0
  0
XRECORD
  5
7CC
102
{ACAD_REACTORS
330
7BB
102
}
330
7BB
100
AcDbXrecord
 10
0.0
 20
0.0
 30
0.0
  0
XRECORD
  5
7CF
102
{ACAD_REACTORS
330
7BB
102
}
330
7BB
100
AcDbXrecord
 10
0.0
 20
0.0
 30
0.0
  0
XRECORD
  5
7CD
102
{ACAD_REACTORS
330
7BB
102
}
330
7BB
100
AcDbXrecord
 10
0.0
 20
0.0
 30
0.0
  0
XRECORD
  5
7CE
102
{ACAD_REACTORS
330
7BB
102
}
330
7BB
100
AcDbXrecord
 10
0.0
 20
0.0
 30
0.0
  0
XRECORD
  5
7CB
102
{ACAD_REACTORS
330
7BB
102
}
330
7BB
100
AcDbXrecord
 10
0.0
 20
0.0
 30
0.0
  0
XRECORD
  5
7C8
102
{ACAD_REACTORS
330
7BB
102
}
330
7BB
100
AcDbXrecord
340
0
  0
XRECORD
  5
7C9
102
{ACAD_REACTORS
330
7BB
102
}
330
7BB
100
AcDbXrecord
 70
     0
  0
XRECORD
  5
7BF
102
{ACAD_REACTORS
330
7BB
102
}
330
7BB
100
AcDbXrecord
  1

  0
XRECORD
  5
7BC
102
{ACAD_REACTORS
330
7BB
102
}
330
7BB
100
AcDbXrecord
 90
        1
  0
XRECORD
  5
7BD
102
{ACAD_REACTORS
330
7BB
102
}
330
7BB
100
AcDbXrecord
 90
       70
  0
XRECORD
  5
7D3
102
{ACAD_REACTORS
330
7BB
102
}
330
7BB
100
AcDbXrecord
340
0
  0
XRECORD
  5
7D9
102
{ACAD_REACTORS
330
7BB
102
}
330
7BB
100
AcDbXrecord
 10
0.0
 20
0.0
 30
0.0
  0
XRECORD
  5
7D5
102
{ACAD_REACTORS
330
7BB
102
}
330
7BB
100
AcDbXrecord
 10
0.0
 20
0.0
 30
0.0
  0
XRECORD
  5
7D8
102
{ACAD_REACTORS
330
7BB
102
}
330
7BB
100
AcDbXrecord
 10
0.0
 20
0.0
 30
0.0
  0
XRECORD
  5
7D6
102
{ACAD_REACTORS
330
7BB
102
}
330
7BB
100
AcDbXrecord
 10
0.0
 20
0.0
 30
0.0
  0
XRECORD
  5
7D7
102
{ACAD_REACTORS
330
7BB
102
}
330
7BB
100
AcDbXrecord
 10
0.0
 20
0.0
 30
0.0
  0
XRECORD
  5
7D4
102
{ACAD_REACTORS
330
7BB
102
}
330
7BB
100
AcDbXrecord
 10
0.0
 20
0.0
 30
0.0
  0
XRECORD
  5
7D1
102
{ACAD_REACTORS
330
7BB
102
}
330
7BB
100
AcDbXrecord
340
0
  0
XRECORD
  5
7D2
102
{ACAD_REACTORS
330
7BB
102
}
330
7BB
100
AcDbXrecord
 70
     0
  0
XRECORD
  5
7C6
102
{ACAD_REACTORS
330
7BB
102
}
330
7BB
100
AcDbXrecord
  1
{FAEB1C32-E019-11D5-929B-00C0DF256EC4}
  0
DICTIONARYVAR
  5
7DE
102
{ACAD_REACTORS
330
7DB
102
}
330
7DB
100
DictionaryVariables
280
     0
  1
2
  0
DICTIONARYVAR
  5
7DF
102
{ACAD_REACTORS
330
7DB
102
}
330
7DB
100
DictionaryVariables
280
     0
  1
1
  0
DICTIONARY
  5
7E2
330
3D
100
AcDbDictionary
280
     1
  3
ACAD_XREC_ROUNDTRIP
360
7E3
  0
DICTIONARY
  5
7E0
330
3C
100
AcDbDictionary
280
     1
  3
ACAD_XREC_ROUNDTRIP
360
7E1
  0
DICTIONARY
  5
7E4
330
3E
100
AcDbDictionary
280
     1
  3
ACAD_XREC_ROUNDTRIP
360
7E5
  0
XRECORD
  5
7E3
102
{ACAD_REACTORS
330
7E2
102
}
330
7E2
100
AcDbXrecord
102
MATERIAL
148
0.0
149
0.0
149
0.0
 93
        0
 94
      127
282
     0
 72
     1
 77
     1
171
     1
175
     1
179
     1
273
     0
  0
XRECORD
  5
7E1
102
{ACAD_REACTORS
330
7E0
102
}
330
7E0
100
AcDbXrecord
102
MATERIAL
148
0.0
149
0.0
149
0.0
 93
        0
 94
      127
282
     0
 72
     1
 77
     1
171
     1
175
     1
179
     1
273
     0
  0
XRECORD
  5
7E5
102
{ACAD_REACTORS
330
7E4
102
}
330
7E4
100
AcDbXrecord
102
MATERIAL
148
0.0
149
0.0
149
0.0
 93
        0
 94
      127
282
     0
 72
     1
 77
     1
171
     1
175
     1
179
     1
273
     0
  0
ENDSEC
  0
EOF
